999
DXF file: EPJ_assy_2.dxf
999
Pro/ENGINEER 2014200 by Parametric Technology Corporation
  0
SECTION
  2
HEADER
  9
$ACADVER
  1
AC1021
  9
$DWGCODEPAGE
  3
ANSI_1252
  9
$EXTMAX
 10
22.0
 20
17.0
 30
0.0
  9
$EXTMIN
 10
0.0
 20
0.0
 30
0.0
  9
$LIMMIN
 10
0.0
 20
0.0
  9
$LIMMAX
 10
22.0
 20
17.0
  9
$VIEWCTR
 10
11.0
 20
8.5
  9
$VIEWSIZE
 40
17.0
  9
$CLAYER
  8
0
  9
$LTSCALE
 40
1.21
  9
$CELTYPE
  6
BYLAYER
  9
$DIMSCALE
 40
1.0
  9
$DIMASZ
 40
0.1875
  9
$DIMEXO
 40
0.0625
  9
$DIMDLI
 40
0.836
  9
$DIMEXE
 40
0.125
  9
$DIMCEN
 40
0.198
  9
$DIMLFAC
 40
1.0
  9
$DIMBLK
  1
_FILLED
  9
$DIMTXT
 40
0.1
  9
$DIMTOL
 70
0
  9
$DIMLIM
 70
0
  9
$DIMTFAC
 40
1.0
  9
$DIMGAP
 40
0.09
  9
$DIMDSEP
 70
46
  9
$AUNITS
 70
0
  9
$PDMODE
 70
3
  9
$PDSIZE
 40
0.3125
  9
$HANDSEED
  5
40F
  9
$TILEMODE
 70
1
  9
$MEASUREMENT
 70
0
  9
$INSUNITS
 70
1
  0
ENDSEC
  0
SECTION
  2
CLASSES
  0
CLASS
  1
ACDBDICTIONARYWDFLT
  2
AcDbDictionaryWithDefault
  3
AutoCAD 2000
 90
0
 91
1
280
0
281
0
  0
CLASS
  1
ACDBPLACEHOLDER
  2
AcDbPlaceHolder
  3
AutoCAD 2000
 90
0
 91
1
280
0
281
0
  0
CLASS
  1
LAYOUT
  2
AcDbLayout
  3
AutoCAD 2000
 90
0
 91
0
280
0
281
0
  0
CLASS
  1
RASTERVARIABLES
  2
AcDbRasterVariables
  3
ISM
 90
0
 91
1
280
0
281
0
  0
CLASS
  1
IMAGEDEF
  2
AcDbRasterImageDef
  3
ISM
 90
0
 91
1
280
0
281
0
  0
CLASS
  1
IMAGEDEF_REACTOR
  2
AcDbRasterImageDefReactor
  3
ISM
 90
0
 91
1
280
0
281
0
  0
CLASS
  1
IMAGE
  2
AcDbRasterImage
  3
ISM
 90
127
 91
1
280
0
281
1
  0
CLASS
  1
TABLESTYLE
  2
AcDbTableStyle
  3
ObjectDBX Classes
 90
2047
 91
1
280
0
281
0
  0
CLASS
  1
ACAD_TABLE
  2
AcDbTable
  3
ObjectDBX Classes
 90
1025
 91
3
280
0
281
1
  0
ENDSEC
  0
SECTION
  2
TABLES
  0
TABLE
  2
VPORT
  5
8
100
AcDbSymbolTable
 70
2
  0
VPORT
  5
1F4
100
AcDbSymbolTableRecord
100
AcDbViewportTableRecord
  2
*ACTIVE
 70
0
 10
0.0
 20
0.0
 11
1.0
 21
1.0
 12
11.0
 22
8.5
 13
0.0
 23
0.0
 14
1.0
 24
1.0
 15
0.0
 25
0.0
 16
0.0
 26
0.0
 36
1.0
 17
0.0
 27
0.0
 37
0.0
 40
17.0
 41
1.2941176471
 42
50.0
 43
0.0
 44
0.0
 50
0.0
 51
0.0
 71
0
 72
100
 73
1
 74
1
 75
0
 76
0
 77
0
 78
0
  0
ENDTAB
  0
TABLE
  2
LTYPE
  5
5
100
AcDbSymbolTable
 70
6
  0
LTYPE
  5
14
100
AcDbSymbolTableRecord
100
AcDbLinetypeTableRecord
  2
BYBLOCK
 70
0
  3

 72
65
 73
0
 40
0.0
  0
LTYPE
  5
15
100
AcDbSymbolTableRecord
100
AcDbLinetypeTableRecord
  2
BYLAYER
 70
0
  3

 72
65
 73
0
 40
0.0
  0
LTYPE
  5
16
100
AcDbSymbolTableRecord
100
AcDbLinetypeTableRecord
  2
CONTINUOUS
 70
64
  3
Solid line
 72
65
 73
0
 40
0.0
  0
LTYPE
  5
1F5
100
AcDbSymbolTableRecord
100
AcDbLinetypeTableRecord
  2
CENTER
 70
64
  3
____ _ ____ _ ____ _ ____ _ ____ _ ____ _ ____
 72
65
 73
4
 40
0.6
 49
0.375
 74
0
 49
-0.075
 74
0
 49
0.075
 74
0
 49
-0.075
 74
0
  0
LTYPE
  5
1F6
100
AcDbSymbolTableRecord
100
AcDbLinetypeTableRecord
  2
HIDDEN
 70
64
  3
- - - - - - - - - - - - - - - - - - - -
 72
65
 73
2
 40
0.2
 49
0.1
 74
0
 49
-0.1
 74
0
  0
LTYPE
  5
1F7
100
AcDbSymbolTableRecord
100
AcDbLinetypeTableRecord
  2
PHANTOM
 70
64
  3
_____ _ _ _____ _ _ _____ _ _ _____
 72
65
 73
6
 40
0.8
 49
0.45
 74
0
 49
-0.05
 74
0
 49
0.1
 74
0
 49
-0.05
 74
0
 49
0.1
 74
0
 49
-0.05
 74
0
  0
LTYPE
  5
1F8
100
AcDbSymbolTableRecord
100
AcDbLinetypeTableRecord
  2
DOT
 70
64
  3
. . . . . . . . . . . . . . . . . . . .
 72
65
 73
2
 40
0.2
 49
0.1
 74
0
 49
-0.1
 74
0
  0
LTYPE
  5
1F9
100
AcDbSymbolTableRecord
100
AcDbLinetypeTableRecord
  2
DASHED
 70
64
  3
- - - - - - - - - - - - - - - - - - - -
 72
65
 73
2
 40
0.2
 49
0.1
 74
0
 49
-0.1
 74
0
  0
ENDTAB
  0
TABLE
  2
LAYER
  5
2
100
AcDbSymbolTable
 70
36
  0
LAYER
  5
10
100
AcDbSymbolTableRecord
100
AcDbLayerTableRecord
  2
0
 70
0
 62
7
  6
CONTINUOUS
370
-3
390
F
  0
LAYER
  5
1FA
100
AcDbSymbolTableRecord
100
AcDbLayerTableRecord
  2
DEFAULT_1
 70
0
 62
7
  6
CENTER
370
-3
390
F
  0
LAYER
  5
1FB
100
AcDbSymbolTableRecord
100
AcDbLayerTableRecord
  2
DEFAULT_2
 70
0
 62
8
  6
HIDDEN
370
-3
390
F
  0
LAYER
  5
1FC
100
AcDbSymbolTableRecord
100
AcDbLayerTableRecord
  2
DEFAULT_3
 70
0
 62
7
  6
PHANTOM
370
-3
390
F
  0
LAYER
  5
1FD
100
AcDbSymbolTableRecord
100
AcDbLayerTableRecord
  2
DATUM_PLANES
 70
0
 62
7
  6
CONTINUOUS
370
-3
390
F
  0
LAYER
  5
1FE
100
AcDbSymbolTableRecord
100
AcDbLayerTableRecord
  2
PORT_AREAS
 70
0
 62
7
  6
CONTINUOUS
370
-3
390
F
  0
LAYER
  5
1FF
100
AcDbSymbolTableRecord
100
AcDbLayerTableRecord
  2
SUNNBOMCOSMETIC
 70
0
 62
7
  6
CONTINUOUS
370
-3
390
F
  0
LAYER
  5
200
100
AcDbSymbolTableRecord
100
AcDbLayerTableRecord
  2
SUNNBOMSTAMPING
 70
0
 62
7
  6
CONTINUOUS
370
-3
390
F
  0
LAYER
  5
201
100
AcDbSymbolTableRecord
100
AcDbLayerTableRecord
  2
THREADS
 70
0
 62
7
  6
CONTINUOUS
370
-3
390
F
  0
ENDTAB
  0
TABLE
  2
STYLE
  5
3
100
AcDbSymbolTable
 70
1
  0
STYLE
  5
11
100
AcDbSymbolTableRecord
100
AcDbTextStyleTableRecord
  2
STANDARD
 70
0
 40
0.0
 41
0.8
 50
0.0
 71
0
 42
0.2
  3
txt
  4

  0
STYLE
  5
202
100
AcDbSymbolTableRecord
100
AcDbTextStyleTableRecord
  2
TEXTSTYLE_1
 70
0
 40
0.0
 41
0.8
 50
0.0
 71
0
 42
0.2
  3
gdt
  4

  0
ENDTAB
  0
TABLE
  2
VIEW
  5
6
100
AcDbSymbolTable
 70
0
  0
ENDTAB
  0
TABLE
  2
UCS
  5
7
100
AcDbSymbolTable
 70
0
  0
ENDTAB
  0
TABLE
  2
APPID
  5
9
100
AcDbSymbolTable
 70
1
  0
APPID
  5
203
100
AcDbSymbolTableRecord
100
AcDbRegAppTableRecord
  2
ACAD
 70
0
  0
ENDTAB
  0
TABLE
  2
BLOCK_RECORD
  5
1
100
AcDbSymbolTable
 70
0
  0
BLOCK_RECORD
  5
204
100
AcDbSymbolTableRecord
100
AcDbBlockTableRecord
  2
*Model_Space
  0
BLOCK_RECORD
  5
205
100
AcDbSymbolTableRecord
100
AcDbBlockTableRecord
  2
*Paper_Space
  0
BLOCK_RECORD
  5
206
100
AcDbSymbolTableRecord
100
AcDbBlockTableRecord
  2
SUN_FIRST_THIRD_ANGLE_BL0
  0
BLOCK_RECORD
  5
207
100
AcDbSymbolTableRecord
100
AcDbBlockTableRecord
  2
*T1
  0
BLOCK_RECORD
  5
208
100
AcDbSymbolTableRecord
100
AcDbBlockTableRecord
  2
*T2
  0
BLOCK_RECORD
  5
209
100
AcDbSymbolTableRecord
100
AcDbBlockTableRecord
  2
*T3
  0
ENDTAB
  0
TABLE
  2
DIMSTYLE
  5
A
100
AcDbSymbolTable
 70
1
100
AcDbDimStyleTable
 71
0
  0
DIMSTYLE
105
20A
100
AcDbSymbolTableRecord
100
AcDbDimStyleTableRecord
  2
STANDARD
 70
0
  3

  4

 40
1.0
 41
0.1875
 42
0.0625
 43
0.38
 44
0.125
 45
0.0
 46
0.0
 47
0.001
 48
0.001
140
0.1
141
0.09
142
0.0
143
25.4
144
1.0
145
0.0
146
1.0
147
0.09
 71
0.0
 72
0.0
 73
1
 74
1
 75
0
 76
0
 77
0
 78
4
170
0
171
2
172
0
173
0
174
0
175
0
176
0
177
0
178
0
270
2
271
3
272
3
273
2
274
2
275
0
280
0
281
0
282
0
283
1
284
4
285
0
286
0
287
3
288
0
340
11
278
46
  0
ENDTAB
  0
ENDSEC
  0
SECTION
  2
BLOCKS
  0
BLOCK
  5
20
100
AcDbEntity
  8
0
100
AcDbBlockBegin
  2
*Model_Space
 70
0
 10
0.0
 20
0.0
 30
0.0
  3
*Model_Space
  1

  0
ENDBLK
  5
21
100
AcDbEntity
  8
0
100
AcDbBlockEnd
  0
BLOCK
  5
1C
100
AcDbEntity
  8
0
100
AcDbBlockBegin
  2
*Paper_Space
 70
0
 10
0.0
 20
0.0
 30
0.0
  3
*Paper_Space
  1

  0
ENDBLK
  5
1D
100
AcDbEntity
  8
0
100
AcDbBlockEnd
  0
BLOCK
  5
20B
100
AcDbEntity
  8
0
100
AcDbBlockBegin
 62
2
  6
CONTINUOUS
  2
SUN_FIRST_THIRD_ANGLE_BL0
 70
64
 10
20.4816717061
 20
1.2289683772
  3
SUN_FIRST_THIRD_ANGLE_BL0
  1

  0
TEXT
  5
20C
100
AcDbEntity
  8
0
100
AcDbText
 62
2
  6
CONTINUOUS
 10
19.4750896608
 20
1.4136269581
  7
STANDARD
 40
0.08
  1
FIRST ANGLE
 41
0.8
 72
0
100
AcDbText
  0
TEXT
  5
20D
100
AcDbEntity
  8
0
100
AcDbText
 62
2
  6
CONTINUOUS
 10
20.7842537513
 20
1.4047600029
  7
STANDARD
 40
0.08
  1
THIRD ANGLE
 41
0.8
 72
0
100
AcDbText
  0
LINE
  5
20E
100
AcDbEntity
  8
0
100
AcDbLine
 62
7
  6
CONTINUOUS
 10
19.4767170086
 20
1.1727031207
 11
19.6334271527
 21
1.1717972817
  0
LINE
  5
20F
100
AcDbEntity
  8
0
100
AcDbLine
 62
7
  6
CONTINUOUS
 10
19.6596964832
 20
1.1717972817
 11
19.6950230232
 21
1.171593082
  0
LINE
  5
210
100
AcDbEntity
  8
0
100
AcDbLine
 62
7
  6
CONTINUOUS
 10
19.7194818561
 20
1.1708914427
 11
19.8852396156
 21
1.1699333054
  0
LINE
  5
211
100
AcDbEntity
  8
0
100
AcDbLine
 62
7
  6
CONTINUOUS
 10
19.4758111696
 20
1.2723454088
 11
19.88525039
 21
1.3511534004
  0
LINE
  5
212
100
AcDbEntity
  8
0
100
AcDbLine
 62
7
  6
CONTINUOUS
 10
19.88525039
 20
1.3511534004
 11
19.8831348489
 21
0.9851647912
  0
LINE
  5
213
100
AcDbEntity
  8
0
100
AcDbLine
 62
7
  6
CONTINUOUS
 10
19.8831348489
 20
0.9851647912
 11
19.4767170086
 21
1.0658141206
  0
LINE
  5
214
100
AcDbEntity
  8
0
100
AcDbLine
 62
7
  6
CONTINUOUS
 10
19.4767170086
 20
1.0658141206
 11
19.4779056764
 21
1.2714536432
  0
CIRCLE
  5
215
100
AcDbEntity
  8
0
100
AcDbCircle
 62
7
  6
CONTINUOUS
 10
20.2068232291
 20
1.1717972817
 40
0.175742101
  0
CIRCLE
  5
216
100
AcDbEntity
  8
0
100
AcDbCircle
 62
7
  6
CONTINUOUS
 10
20.2068232291
 20
1.1717972817
 40
0.1005522074
  0
LINE
  5
217
100
AcDbEntity
  8
0
100
AcDbLine
 62
7
  6
CONTINUOUS
 10
20.2077290681
 20
1.3756110529
 11
20.2071171714
 21
1.2379342989
  0
LINE
  5
218
100
AcDbEntity
  8
0
100
AcDbLine
 62
7
  6
CONTINUOUS
 10
20.2077290681
 20
1.2016899681
 11
20.2074674401
 21
1.1428236749
  0
LINE
  5
219
100
AcDbEntity
  8
0
100
AcDbLine
 62
7
  6
CONTINUOUS
 10
20.208634907
 20
1.101141841
 11
20.2080230104
 21
0.963465087
  0
LINE
  5
21A
100
AcDbEntity
  8
0
100
AcDbLine
 62
7
  6
CONTINUOUS
 10
20.0066328138
 20
1.1745147986
 11
20.1443095678
 21
1.1739029019
  0
LINE
  5
21B
100
AcDbEntity
  8
0
100
AcDbLine
 62
7
  6
CONTINUOUS
 10
20.1832714155
 20
1.1727031207
 11
20.238153505
 21
1.172335442
  0
LINE
  5
21C
100
AcDbEntity
  8
0
100
AcDbLine
 62
7
  6
CONTINUOUS
 10
20.2756669918
 20
1.1717972817
 11
20.407916871
 21
1.1712095044
  0
CIRCLE
  5
21D
100
AcDbEntity
  8
0
100
AcDbCircle
 62
7
  6
CONTINUOUS
 10
20.7509457401
 20
1.1693297793
 40
0.1722024983
  0
CIRCLE
  5
21E
100
AcDbEntity
  8
0
100
AcDbCircle
 62
7
  6
CONTINUOUS
 10
20.7509457401
 20
1.1693297793
 40
0.0985164967
  0
LINE
  5
21F
100
AcDbEntity
  8
0
100
AcDbLine
 62
7
  6
CONTINUOUS
 10
20.7169767782
 20
1.170462078
 11
20.7825395137
 21
1.1682766535
  0
LINE
  5
220
100
AcDbEntity
  8
0
100
AcDbLine
 62
7
  6
CONTINUOUS
 10
20.8177513651
 20
1.1693297793
 11
20.947965719
 21
1.1693297793
  0
LINE
  5
221
100
AcDbEntity
  8
0
100
AcDbLine
 62
7
  6
CONTINUOUS
 10
20.6875370113
 20
1.170462078
 11
20.5573226574
 21
1.170462078
  0
LINE
  5
222
100
AcDbEntity
  8
0
100
AcDbLine
 62
7
  6
CONTINUOUS
 10
20.7486811426
 20
1.1987695462
 11
20.7486811426
 21
1.1432869085
  0
LINE
  5
223
100
AcDbEntity
  8
0
100
AcDbLine
 62
7
  6
CONTINUOUS
 10
20.7498134414
 20
1.1059210505
 11
20.7498134414
 21
0.9757066966
  0
LINE
  5
224
100
AcDbEntity
  8
0
100
AcDbLine
 62
7
  6
CONTINUOUS
 10
20.7486811426
 20
1.2338708068
 11
20.7486811426
 21
1.3640851607
  0
LINE
  5
225
100
AcDbEntity
  8
0
100
AcDbLine
 62
7
  6
CONTINUOUS
 10
21.0702539817
 20
1.2701043662
 11
21.4790138229
 21
1.3448360823
  0
LINE
  5
226
100
AcDbEntity
  8
0
100
AcDbLine
 62
7
  6
CONTINUOUS
 10
21.4790138229
 20
1.3448360823
 11
21.4790138229
 21
0.9779712941
  0
LINE
  5
227
100
AcDbEntity
  8
0
100
AcDbLine
 62
7
  6
CONTINUOUS
 10
21.4790138229
 20
0.9779712941
 11
21.069121683
 21
1.0617614
  0
LINE
  5
228
100
AcDbEntity
  8
0
100
AcDbLine
 62
7
  6
CONTINUOUS
 10
21.0702539817
 20
1.2701043662
 11
21.069121683
 21
1.0617614
  0
LINE
  5
229
100
AcDbEntity
  8
0
100
AcDbLine
 62
7
  6
CONTINUOUS
 10
21.4790138229
 20
1.1693297793
 11
21.3159628059
 21
1.1693297793
  0
LINE
  5
22A
100
AcDbEntity
  8
0
100
AcDbLine
 62
7
  6
CONTINUOUS
 10
21.2876553377
 20
1.1693297793
 11
21.2502894796
 21
1.1693297793
  0
LINE
  5
22B
100
AcDbEntity
  8
0
100
AcDbLine
 62
7
  6
CONTINUOUS
 10
21.2208497126
 20
1.1659328831
 11
21.0713862804
 21
1.1659328831
  0
LINE
  5
22C
100
AcDbEntity
  8
0
100
AcDbLine
 62
7
  6
CONTINUOUS
 10
20.4796138713
 20
1.5284908897
 11
20.4766766948
 21
0.9294458646
  0
ENDBLK
  5
22D
100
AcDbEntity
  8
0
  6
BYBLOCK
 62
0
100
AcDbBlockEnd
  0
BLOCK
  5
22E
100
AcDbEntity
  8
0
100
AcDbBlockBegin
  2
*T1
 70
1
 10
0.0
 20
0.0
  3
*T1
  1

  0
LINE
  5
22F
100
AcDbEntity
  8
0
100
AcDbLine
 62
2
  6
CONTINUOUS
 10
9.275
 20
0.0
 11
-0.0
 21
0.0
  0
LINE
  5
230
100
AcDbEntity
  8
0
100
AcDbLine
 62
2
  6
CONTINUOUS
 10
9.275
 20
0.0
 11
9.275
 21
1.25
  0
LINE
  5
231
100
AcDbEntity
  8
0
100
AcDbLine
 62
2
  6
CONTINUOUS
 10
9.275
 20
0.625
 11
-0.0
 21
0.625
  0
LINE
  5
232
100
AcDbEntity
  8
0
100
AcDbLine
 62
2
  6
CONTINUOUS
 10
9.275
 20
1.25
 11
-0.0
 21
1.25
  0
LINE
  5
233
100
AcDbEntity
  8
0
100
AcDbLine
 62
2
  6
CONTINUOUS
 10
6.8
 20
0.0
 11
6.8
 21
1.25
  0
LINE
  5
234
100
AcDbEntity
  8
0
100
AcDbLine
 62
2
  6
CONTINUOUS
 10
6.4
 20
0.0
 11
6.4
 21
0.625
  0
LINE
  5
235
100
AcDbEntity
  8
0
100
AcDbLine
 62
2
  6
CONTINUOUS
 10
5.9
 20
0.0
 11
5.9
 21
0.625
  0
LINE
  5
236
100
AcDbEntity
  8
0
100
AcDbLine
 62
2
  6
CONTINUOUS
 10
5.2
 20
0.0
 11
5.2
 21
0.625
  0
LINE
  5
237
100
AcDbEntity
  8
0
100
AcDbLine
 62
2
  6
CONTINUOUS
 10
4.1
 20
0.0
 11
4.1
 21
1.25
  0
LINE
  5
238
100
AcDbEntity
  8
0
100
AcDbLine
 62
2
  6
CONTINUOUS
 10
-0.0
 20
0.0
 11
-0.0
 21
1.25
  0
MTEXT
  5
239
100
AcDbEntity
  8
0
100
AcDbMText
 62
2
  6
CONTINUOUS
  7
STANDARD
 71
2
 72
1
 10
6.6
 20
0.325
 30
0.0
 11
1.0
 21
0.0
 31
0.0
 44
0.9
  1
2
 40
0.125
 41
0.2
  0
MTEXT
  5
23A
100
AcDbEntity
  8
0
100
AcDbMText
 62
2
  6
CONTINUOUS
  7
STANDARD
 71
2
 72
1
 10
6.15
 20
0.325
 30
0.0
 11
1.0
 21
0.0
 31
0.0
 44
0.9
  1
C
 40
0.125
 41
0.2
  0
MTEXT
  5
23B
100
AcDbEntity
  8
0
100
AcDbMText
 62
2
  6
CONTINUOUS
  7
STANDARD
 71
2
 72
1
 10
5.55
 20
0.325
 30
0.0
 11
1.0
 21
0.0
 31
0.0
 44
0.9
  1
2.000
 40
0.125
 41
1.0
  0
MTEXT
  5
23C
100
AcDbEntity
  8
0
100
AcDbMText
 62
2
  6
CONTINUOUS
  7
STANDARD
 71
2
 72
1
 10
4.65
 20
0.325
 30
0.0
 11
1.0
 21
0.0
 31
0.0
 44
0.9
  1
Jul-30-19
 40
0.125
 41
1.8
  0
MTEXT
  5
23D
100
AcDbEntity
  8
0
100
AcDbMText
 62
2
  6
CONTINUOUS
  7
STANDARD
 71
2
 72
1
 10
2.05
 20
0.4625
 30
0.0
 11
1.0
 21
0.0
 31
0.0
 44
0.9
  1
T-11A Line mount\PCushion lock with make up checks
 40
0.125
 41
6.4
  0
MTEXT
  5
23E
100
AcDbEntity
  8
0
100
AcDbMText
 62
2
  6
CONTINUOUS
  7
STANDARD
 71
1
 72
1
 10
6.45
 20
0.5625
 30
0.0
 11
1.0
 21
0.0
 31
0.0
 44
0.9
  1
SHEET
 40
0.06
 41
0.48
  0
MTEXT
  5
23F
100
AcDbEntity
  8
0
100
AcDbMText
 62
2
  6
CONTINUOUS
  7
STANDARD
 71
1
 72
1
 10
5.95
 20
0.5625
 30
0.0
 11
1.0
 21
0.0
 31
0.0
 44
0.9
  1
DWG SIZE
 40
0.06
 41
0.768
  0
MTEXT
  5
240
100
AcDbEntity
  8
0
100
AcDbMText
 62
2
  6
CONTINUOUS
  7
STANDARD
 71
1
 72
1
 10
5.25
 20
0.5625
 30
0.0
 11
1.0
 21
0.0
 31
0.0
 44
0.9
  1
SCALE
 40
0.06
 41
0.48
  0
MTEXT
  5
241
100
AcDbEntity
  8
0
100
AcDbMText
 62
2
  6
CONTINUOUS
  7
STANDARD
 71
1
 72
1
 10
4.15
 20
0.5625
 30
0.0
 11
1.0
 21
0.0
 31
0.0
 44
0.9
  1
DATE
 40
0.06
 41
0.384
  0
MTEXT
  5
242
100
AcDbEntity
  8
0
100
AcDbMText
 62
2
  6
CONTINUOUS
  7
STANDARD
 71
1
 72
1
 10
0.05
 20
0.5625
 30
0.0
 11
1.0
 21
0.0
 31
0.0
 44
0.9
  1
DESCRIPTION
 40
0.06
 41
1.056
  0
MTEXT
  5
243
100
AcDbEntity
  8
0
100
AcDbMText
 62
2
  6
CONTINUOUS
  7
STANDARD
 71
2
 72
1
 10
5.45
 20
1.0375
 30
0.0
 11
1.0
 21
0.0
 31
0.0
 44
0.9
  1
ALL DIMENSIONS IN INCH\PVIEWS ARE THIRD ANGLE
 40
0.12
 41
4.224
  0
MTEXT
  5
244
100
AcDbEntity
  8
0
100
AcDbMText
 62
2
  6
CONTINUOUS
  7
STANDARD
 71
2
 72
1
 10
2.05
 20
0.95
 30
0.0
 11
1.0
 21
0.0
 31
0.0
 44
0.9
  1
EPJ
 40
0.125
 41
0.6
  0
MTEXT
  5
245
100
AcDbEntity
  8
0
100
AcDbMText
 62
2
  6
CONTINUOUS
  7
STANDARD
 71
1
 72
1
 10
0.05
 20
1.1875
 30
0.0
 11
1.0
 21
0.0
 31
0.0
 44
0.9
  1
MODEL
 40
0.06
 41
0.48
  0
ENDBLK
  5
246
100
AcDbEntity
  8
0
  6
BYBLOCK
 62
0
100
AcDbBlockEnd
  0
BLOCK
  5
247
100
AcDbEntity
  8
0
100
AcDbBlockBegin
  2
*T2
 70
1
 10
0.0
 20
0.0
  3
*T2
  1

  0
LINE
  5
248
100
AcDbEntity
  8
0
100
AcDbLine
 62
2
  6
CONTINUOUS
 10
0.0
 20
0.0
 11
9.055
 21
0.0
  0
LINE
  5
249
100
AcDbEntity
  8
0
100
AcDbLine
 62
2
  6
CONTINUOUS
 10
0.0
 20
0.0
 11
0.0
 21
-2.594
  0
LINE
  5
24A
100
AcDbEntity
  8
0
100
AcDbLine
 62
2
  6
CONTINUOUS
 10
0.0
 20
-0.344
 11
9.055
 21
-0.344
  0
LINE
  5
24B
100
AcDbEntity
  8
0
100
AcDbLine
 62
2
  6
CONTINUOUS
 10
0.0
 20
-0.594
 11
9.055
 21
-0.594
  0
LINE
  5
24C
100
AcDbEntity
  8
0
100
AcDbLine
 62
2
  6
CONTINUOUS
 10
0.0
 20
-0.844
 11
9.055
 21
-0.844
  0
LINE
  5
24D
100
AcDbEntity
  8
0
100
AcDbLine
 62
2
  6
CONTINUOUS
 10
0.0
 20
-1.094
 11
9.055
 21
-1.094
  0
LINE
  5
24E
100
AcDbEntity
  8
0
100
AcDbLine
 62
2
  6
CONTINUOUS
 10
0.0
 20
-1.344
 11
9.055
 21
-1.344
  0
LINE
  5
24F
100
AcDbEntity
  8
0
100
AcDbLine
 62
2
  6
CONTINUOUS
 10
0.0
 20
-1.594
 11
9.055
 21
-1.594
  0
LINE
  5
250
100
AcDbEntity
  8
0
100
AcDbLine
 62
2
  6
CONTINUOUS
 10
0.0
 20
-1.844
 11
9.055
 21
-1.844
  0
LINE
  5
251
100
AcDbEntity
  8
0
100
AcDbLine
 62
2
  6
CONTINUOUS
 10
0.0
 20
-2.094
 11
9.055
 21
-2.094
  0
LINE
  5
252
100
AcDbEntity
  8
0
100
AcDbLine
 62
2
  6
CONTINUOUS
 10
0.0
 20
-2.344
 11
9.055
 21
-2.344
  0
LINE
  5
253
100
AcDbEntity
  8
0
100
AcDbLine
 62
2
  6
CONTINUOUS
 10
0.0
 20
-2.594
 11
9.055
 21
-2.594
  0
LINE
  5
254
100
AcDbEntity
  8
0
100
AcDbLine
 62
2
  6
CONTINUOUS
 10
3.055
 20
0.0
 11
3.055
 21
-2.594
  0
LINE
  5
255
100
AcDbEntity
  8
0
100
AcDbLine
 62
2
  6
CONTINUOUS
 10
9.055
 20
0.0
 11
9.055
 21
-2.594
  0
MTEXT
  5
256
100
AcDbEntity
  8
0
100
AcDbMText
 62
2
  6
CONTINUOUS
  7
STANDARD
 71
2
 72
1
 10
1.5275
 20
-0.0995
 30
0.0
 11
1.0
 21
0.0
 31
0.0
 44
0.9
  1
Technical Data
 40
0.145
 41
3.248
  0
MTEXT
  5
257
100
AcDbEntity
  8
0
100
AcDbMText
 62
2
  6
CONTINUOUS
  7
STANDARD
 71
2
 72
1
 10
4.555
 20
-0.0995
 30
0.0
 11
1.0
 21
0.0
 31
0.0
 44
0.9
  1
U.S. Units
 40
0.145
 41
2.32
  0
MTEXT
  5
258
100
AcDbEntity
  8
0
100
AcDbMText
 62
2
  6
CONTINUOUS
  7
STANDARD
 71
2
 72
1
 10
7.555
 20
-0.0995
 30
0.0
 11
1.0
 21
0.0
 31
0.0
 44
0.9
  1
Metric Units
 40
0.145
 41
2.784
  0
MTEXT
  5
259
100
AcDbEntity
  8
0
100
AcDbMText
 62
2
  6
CONTINUOUS
  7
STANDARD
 71
2
 72
1
 10
1.5275
 20
-0.4065
 30
0.0
 11
1.0
 21
0.0
 31
0.0
 44
0.9
  1
Cavity
 40
0.125
 41
1.2
  0
MTEXT
  5
25A
100
AcDbEntity
  8
0
100
AcDbMText
 62
2
  6
CONTINUOUS
  7
STANDARD
 71
2
 72
1
 10
6.055
 20
-0.4065
 30
0.0
 11
1.0
 21
0.0
 31
0.0
 44
0.9
  1
T-11A
 40
0.125
 41
1.0
  0
MTEXT
  5
25B
100
AcDbEntity
  8
0
100
AcDbMText
 62
2
  6
CONTINUOUS
  7
STANDARD
 71
2
 72
1
 10
1.5275
 20
-0.6565
 30
0.0
 11
1.0
 21
0.0
 31
0.0
 44
0.9
  1
Body Features
 40
0.125
 41
2.6
  0
MTEXT
  5
25C
100
AcDbEntity
  8
0
100
AcDbMText
 62
2
  6
CONTINUOUS
  7
STANDARD
 71
2
 72
1
 10
6.055
 20
-0.6565
 30
0.0
 11
1.0
 21
0.0
 31
0.0
 44
0.9
  1
Cushion lock with make up checks
 40
0.125
 41
6.4
  0
MTEXT
  5
25D
100
AcDbEntity
  8
0
100
AcDbMText
 62
2
  6
CONTINUOUS
  7
STANDARD
 71
2
 72
1
 10
1.5275
 20
-0.9065
 30
0.0
 11
1.0
 21
0.0
 31
0.0
 44
0.9
  1
Body Type
 40
0.125
 41
1.8
  0
MTEXT
  5
25E
100
AcDbEntity
  8
0
100
AcDbMText
 62
2
  6
CONTINUOUS
  7
STANDARD
 71
2
 72
1
 10
6.055
 20
-0.9065
 30
0.0
 11
1.0
 21
0.0
 31
0.0
 44
0.9
  1
Line mount
 40
0.125
 41
2.0
  0
MTEXT
  5
25F
100
AcDbEntity
  8
0
100
AcDbMText
 62
2
  6
CONTINUOUS
  7
STANDARD
 71
2
 72
1
 10
1.5275
 20
-1.1565
 30
0.0
 11
1.0
 21
0.0
 31
0.0
 44
0.9
  1
Interface
 40
0.125
 41
1.8
  0
MTEXT
  5
260
100
AcDbEntity
  8
0
100
AcDbMText
 62
2
  6
CONTINUOUS
  7
STANDARD
 71
2
 72
1
 10
6.055
 20
-1.1565
 30
0.0
 11
1.0
 21
0.0
 31
0.0
 44
0.9
  1
None
 40
0.125
 41
0.8
  0
MTEXT
  5
261
100
AcDbEntity
  8
0
100
AcDbMText
 62
2
  6
CONTINUOUS
  7
STANDARD
 71
2
 72
1
 10
1.5275
 20
-1.4065
 30
0.0
 11
1.0
 21
0.0
 31
0.0
 44
0.9
  1
Open Cavity Quantity
 40
0.125
 41
4.0
  0
MTEXT
  5
262
100
AcDbEntity
  8
0
100
AcDbMText
 62
2
  6
CONTINUOUS
  7
STANDARD
 71
2
 72
1
 10
6.055
 20
-1.4065
 30
0.0
 11
1.0
 21
0.0
 31
0.0
 44
0.9
  1
2
 40
0.125
 41
0.2
  0
MTEXT
  5
263
100
AcDbEntity
  8
0
100
AcDbMText
 62
2
  6
CONTINUOUS
  7
STANDARD
 71
2
 72
1
 10
1.5275
 20
-1.6565
 30
0.0
 11
1.0
 21
0.0
 31
0.0
 44
0.9
  1
Weight
 40
0.125
 41
1.2
  0
MTEXT
  5
264
100
AcDbEntity
  8
0
100
AcDbMText
 62
2
  6
CONTINUOUS
  7
STANDARD
 71
2
 72
1
 10
4.555
 20
-1.6565
 30
0.0
 11
1.0
 21
0.0
 31
0.0
 44
0.9
  1
3.216 lb.
 40
0.125
 41
1.8
  0
MTEXT
  5
265
100
AcDbEntity
  8
0
100
AcDbMText
 62
2
  6
CONTINUOUS
  7
STANDARD
 71
2
 72
1
 10
7.555
 20
-1.6565
 30
0.0
 11
1.0
 21
0.0
 31
0.0
 44
0.9
  1
1,459 kg.
 40
0.125
 41
1.8
  0
MTEXT
  5
266
100
AcDbEntity
  8
0
100
AcDbMText
 62
2
  6
CONTINUOUS
  7
STANDARD
 71
2
 72
1
 10
1.5275
 20
-1.9065
 30
0.0
 11
1.0
 21
0.0
 31
0.0
 44
0.9
  1
Mounting Hole Diameter
 40
0.125
 41
4.4
  0
MTEXT
  5
267
100
AcDbEntity
  8
0
100
AcDbMText
 62
2
  6
CONTINUOUS
  7
STANDARD
 71
2
 72
1
 10
4.555
 20
-1.9065
 30
0.0
 11
1.0
 21
0.0
 31
0.0
 44
0.9
  1
.34 in.
 40
0.125
 41
1.4
  0
MTEXT
  5
268
100
AcDbEntity
  8
0
100
AcDbMText
 62
2
  6
CONTINUOUS
  7
STANDARD
 71
2
 72
1
 10
7.555
 20
-1.9065
 30
0.0
 11
1.0
 21
0.0
 31
0.0
 44
0.9
  1
8.6 mm
 40
0.125
 41
1.2
  0
MTEXT
  5
269
100
AcDbEntity
  8
0
100
AcDbMText
 62
2
  6
CONTINUOUS
  7
STANDARD
 71
2
 72
1
 10
1.5275
 20
-2.1565
 30
0.0
 11
1.0
 21
0.0
 31
0.0
 44
0.9
  1
Mounting Hole Depth
 40
0.125
 41
3.8
  0
MTEXT
  5
26A
100
AcDbEntity
  8
0
100
AcDbMText
 62
2
  6
CONTINUOUS
  7
STANDARD
 71
2
 72
1
 10
6.055
 20
-2.1565
 30
0.0
 11
1.0
 21
0.0
 31
0.0
 44
0.9
  1
Through
 40
0.125
 41
1.4
  0
MTEXT
  5
26B
100
AcDbEntity
  8
0
100
AcDbMText
 62
2
  6
CONTINUOUS
  7
STANDARD
 71
2
 72
1
 10
1.5275
 20
-2.4065
 30
0.0
 11
1.0
 21
0.0
 31
0.0
 44
0.9
  1
Mounting Hole Quantity
 40
0.125
 41
4.4
  0
MTEXT
  5
26C
100
AcDbEntity
  8
0
100
AcDbMText
 62
2
  6
CONTINUOUS
  7
STANDARD
 71
2
 72
1
 10
6.055
 20
-2.4065
 30
0.0
 11
1.0
 21
0.0
 31
0.0
 44
0.9
  1
2
 40
0.125
 41
0.2
  0
ENDBLK
  5
26D
100
AcDbEntity
  8
0
  6
BYBLOCK
 62
0
100
AcDbBlockEnd
  0
BLOCK
  5
26E
100
AcDbEntity
  8
0
100
AcDbBlockBegin
  2
*T3
 70
1
 10
0.0
 20
0.0
  3
*T3
  1

  0
LINE
  5
26F
100
AcDbEntity
  8
0
100
AcDbLine
 62
2
  6
CONTINUOUS
 10
0.0
 20
0.0
 11
4.6
 21
0.0
  0
LINE
  5
270
100
AcDbEntity
  8
0
100
AcDbLine
 62
2
  6
CONTINUOUS
 10
0.0
 20
0.0
 11
0.0
 21
-1.18775
  0
LINE
  5
271
100
AcDbEntity
  8
0
100
AcDbLine
 62
2
  6
CONTINUOUS
 10
0.0
 20
-0.34375
 11
4.6
 21
-0.34375
  0
LINE
  5
272
100
AcDbEntity
  8
0
100
AcDbLine
 62
2
  6
CONTINUOUS
 10
0.0
 20
-0.68775
 11
4.6
 21
-0.68775
  0
LINE
  5
273
100
AcDbEntity
  8
0
100
AcDbLine
 62
2
  6
CONTINUOUS
 10
0.0
 20
-0.93775
 11
4.6
 21
-0.93775
  0
LINE
  5
274
100
AcDbEntity
  8
0
100
AcDbLine
 62
2
  6
CONTINUOUS
 10
0.0
 20
-1.18775
 11
4.6
 21
-1.18775
  0
LINE
  5
275
100
AcDbEntity
  8
0
100
AcDbLine
 62
2
  6
CONTINUOUS
 10
1.3
 20
-0.34375
 11
1.3
 21
-1.18775
  0
LINE
  5
276
100
AcDbEntity
  8
0
100
AcDbLine
 62
2
  6
CONTINUOUS
 10
3.3
 20
-0.34375
 11
3.3
 21
-1.18775
  0
LINE
  5
277
100
AcDbEntity
  8
0
100
AcDbLine
 62
2
  6
CONTINUOUS
 10
4.6
 20
0.0
 11
4.6
 21
-1.18775
  0
MTEXT
  5
278
100
AcDbEntity
  8
0
100
AcDbMText
 62
2
  6
CONTINUOUS
  7
STANDARD
 71
2
 72
1
 10
2.3
 20
-0.099375
 30
0.0
 11
1.0
 21
0.0
 31
0.0
 44
0.9
  1
Port Headings
 40
0.145
 41
3.016
  0
MTEXT
  5
279
100
AcDbEntity
  8
0
100
AcDbMText
 62
2
  6
CONTINUOUS
  7
STANDARD
 71
2
 72
1
 10
0.65
 20
-0.44325
 30
0.0
 11
1.0
 21
0.0
 31
0.0
 44
0.9
  1
Product
 40
0.145
 41
1.624
  0
MTEXT
  5
27A
100
AcDbEntity
  8
0
100
AcDbMText
 62
2
  6
CONTINUOUS
  7
STANDARD
 71
2
 72
1
 10
2.3
 20
-0.44325
 30
0.0
 11
1.0
 21
0.0
 31
0.0
 44
0.9
  1
Port
 40
0.145
 41
0.928
  0
MTEXT
  5
27B
100
AcDbEntity
  8
0
100
AcDbMText
 62
2
  6
CONTINUOUS
  7
STANDARD
 71
2
 72
1
 10
3.95
 20
-0.44325
 30
0.0
 11
1.0
 21
0.0
 31
0.0
 44
0.9
  1
Size
 40
0.145
 41
0.928
  0
MTEXT
  5
27C
100
AcDbEntity
  8
0
100
AcDbMText
 62
2
  6
CONTINUOUS
  7
STANDARD
 71
2
 72
1
 10
0.65
 20
-0.75025
 30
0.0
 11
1.0
 21
0.0
 31
0.0
 44
0.9
  1
EPJ
 40
0.125
 41
0.6
  0
MTEXT
  5
27D
100
AcDbEntity
  8
0
100
AcDbMText
 62
2
  6
CONTINUOUS
  7
STANDARD
 71
2
 72
1
 10
2.3
 20
-0.75025
 30
0.0
 11
1.0
 21
0.0
 31
0.0
 44
0.9
  1
Ports C1, C2, V1, V2
 40
0.125
 41
4.0
  0
MTEXT
  5
27E
100
AcDbEntity
  8
0
100
AcDbMText
 62
2
  6
CONTINUOUS
  7
STANDARD
 71
2
 72
1
 10
3.95
 20
-0.75025
 30
0.0
 11
1.0
 21
0.0
 31
0.0
 44
0.9
  1
SAE 8
 40
0.125
 41
1.0
  0
MTEXT
  5
27F
100
AcDbEntity
  8
0
100
AcDbMText
 62
2
  6
CONTINUOUS
  7
STANDARD
 71
2
 72
1
 10
0.65
 20
-1.00025
 30
0.0
 11
1.0
 21
0.0
 31
0.0
 44
0.9
  1
EPJ
 40
0.125
 41
0.6
  0
MTEXT
  5
280
100
AcDbEntity
  8
0
100
AcDbMText
 62
2
  6
CONTINUOUS
  7
STANDARD
 71
2
 72
1
 10
2.3
 20
-1.00025
 30
0.0
 11
1.0
 21
0.0
 31
0.0
 44
0.9
  1
Port T
 40
0.125
 41
1.2
  0
MTEXT
  5
281
100
AcDbEntity
  8
0
100
AcDbMText
 62
2
  6
CONTINUOUS
  7
STANDARD
 71
2
 72
1
 10
3.95
 20
-1.00025
 30
0.0
 11
1.0
 21
0.0
 31
0.0
 44
0.9
  1
SAE 10
 40
0.125
 41
1.2
  0
ENDBLK
  5
282
100
AcDbEntity
  8
0
  6
BYBLOCK
 62
0
100
AcDbBlockEnd
  0
ENDSEC
  0
SECTION
  2
ENTITIES
  0
IMAGE
  5
283
100
AcDbEntity
  8
0
100
AcDbRasterImage
 62
7
  6
CONTINUOUS
 10
19.2297077316
 20
0.3094318264
 30
0.0
 11
0.0066666667
 21
0.0
 31
0.0
 12
0.0
 22
0.0066666667
 32
0.0
 13
369.0
 23
92.0
340
       40C
 70
9
280
0
281
50
282
50
283
0
360
       406
 71
1
 91
2
 14
-0.5
 24
-0.5
 14
368.5
 24
91.5
  0
INSERT
  5
284
100
AcDbEntity
  8
0
100
AcDbBlockReference
 62
2
  6
CONTINUOUS
  2
SUN_FIRST_THIRD_ANGLE_BL0
 10
20.4816717061
 20
1.2289683772
  0
ACAD_TABLE
  5
285
100
AcDbEntity
  8
0
 62
2
  6
CONTINUOUS
100
AcDbBlockReference
  2
*T1
 10
12.42375
 20
0.30125
 30
0.0
100
AcDbTable
342
       40E
343
207
 11
1.0
 21
0.0
 31
0.0
 90
6
 91
4
 92
6
 93
20
 94
0
 95
0
 96
0
 70
1
 41
0.0
141
0.525
141
0.1
141
0.525
141
0.1
142
4.1
142
1.1
142
0.7
142
0.5
142
0.4
142
2.475
171
1
172
0
173
0
174
0
175
1
176
1
 91
33
178
0
145
0.0
301
CELL_VALUE
 90
4
  1
T-11A Line mount\PCushion lock with make up checks
304
ACVALUE_END
170
2
140
0.125
171
1
172
0
173
0
174
0
175
1
176
1
 91
33
178
0
145
0.0
301
CELL_VALUE
 90
4
  1
Jul-30-19
304
ACVALUE_END
170
5
140
0.125
171
1
172
0
173
0
174
0
175
1
176
1
 91
33
178
0
145
0.0
301
CELL_VALUE
 90
4
  1
2.000
304
ACVALUE_END
170
5
140
0.125
171
1
172
0
173
0
174
0
175
1
176
1
 91
33
178
0
145
0.0
301
CELL_VALUE
 90
4
  1
C
304
ACVALUE_END
170
5
140
0.125
171
1
172
0
173
0
174
0
175
1
176
1
 91
33
178
0
145
0.0
301
CELL_VALUE
 90
4
  1
2
304
ACVALUE_END
170
5
140
0.125
171
1
172
0
173
0
174
0
175
1
176
1
 91
33
178
0
145
0.0
301
CELL_VALUE
 90
4
  1
 
304
ACVALUE_END
170
1
140
0.125
171
1
172
0
173
0
174
0
175
1
176
1
 91
33
178
0
145
0.0
301
CELL_VALUE
 90
4
  1
DESCRIPTION
304
ACVALUE_END
170
1
140
0.06
171
1
172
0
173
0
174
0
175
1
176
1
 91
33
178
0
145
0.0
301
CELL_VALUE
 90
4
  1
DATE
304
ACVALUE_END
170
1
140
0.06
171
1
172
0
173
0
174
0
175
1
176
1
 91
33
178
0
145
0.0
301
CELL_VALUE
 90
4
  1
SCALE
304
ACVALUE_END
170
1
140
0.06
171
1
172
0
173
0
174
0
175
1
176
1
 91
33
178
0
145
0.0
301
CELL_VALUE
 90
4
  1
DWG SIZE
304
ACVALUE_END
170
1
140
0.06
171
1
172
0
173
0
174
0
175
1
176
1
 91
33
178
0
145
0.0
301
CELL_VALUE
 90
4
  1
SHEET
304
ACVALUE_END
170
1
140
0.06
171
1
172
0
173
0
174
0
175
1
176
1
 91
33
178
0
145
0.0
301
CELL_VALUE
 90
4
  1
 
304
ACVALUE_END
170
1
140
0.125
171
1
172
0
173
0
174
0
175
1
176
1
 91
33
178
0
145
0.0
301
CELL_VALUE
 90
4
  1
EPJ
304
ACVALUE_END
170
5
140
0.125
171
1
172
0
173
0
174
0
175
4
176
1
 91
33
178
0
145
0.0
301
CELL_VALUE
 90
4
  1
ALL DIMENSIONS IN INCH\PVIEWS ARE THIRD ANGLE
304
ACVALUE_END
170
5
140
0.12
171
1
172
0
173
1
174
0
175
1
176
1
 91
1
178
0
145
0.0
170
1
171
1
172
0
173
1
174
0
175
1
176
1
 91
1
178
0
145
0.0
170
1
171
1
172
0
173
1
174
0
175
1
176
1
 91
1
178
0
145
0.0
170
5
171
1
172
0
173
0
174
0
175
1
176
1
 91
33
178
0
145
0.0
301
CELL_VALUE
 90
4
  1
 
304
ACVALUE_END
170
1
140
0.125
171
1
172
0
173
0
174
0
175
1
176
1
 91
33
178
0
145
0.0
301
CELL_VALUE
 90
4
  1
MODEL
304
ACVALUE_END
170
1
140
0.06
171
1
172
0
173
0
174
0
175
1
176
1
 91
33
178
0
145
0.0
301
CELL_VALUE
 90
4
  1
 
304
ACVALUE_END
170
1
140
0.125
171
1
172
0
173
0
174
0
175
1
176
1
 91
33
178
0
145
0.0
301
CELL_VALUE
 90
4
  1
 
304
ACVALUE_END
170
1
140
0.125
171
1
172
0
173
0
174
0
175
1
176
1
 91
33
178
0
145
0.0
301
CELL_VALUE
 90
4
  1
 
304
ACVALUE_END
170
1
140
0.125
171
1
172
0
173
0
174
0
175
1
176
1
 91
33
178
0
145
0.0
301
CELL_VALUE
 90
4
  1
 
304
ACVALUE_END
170
1
140
0.125
171
1
172
0
173
0
174
0
175
1
176
1
 91
33
178
0
145
0.0
301
CELL_VALUE
 90
4
  1
 
304
ACVALUE_END
170
1
140
0.125
  0
ACAD_TABLE
  5
286
100
AcDbEntity
  8
0
 62
2
  6
CONTINUOUS
100
AcDbBlockReference
  2
*T2
 10
12.4237499994
 20
16.47875
 30
0.0
100
AcDbTable
342
       40D
343
208
 11
1.0
 21
0.0
 31
0.0
 90
22
 91
10
 92
3
 93
16
 94
0
 95
0
 96
0
 41
0.028
141
0.344
141
0.25
141
0.25
141
0.25
141
0.25
141
0.25
141
0.25
141
0.25
141
0.25
141
0.25
142
3.055
142
3.0
142
3.0
171
1
172
0
173
0
174
0
175
1
176
1
 91
33
178
0
145
0.0
301
CELL_VALUE
 90
4
  1
Technical Data
304
ACVALUE_END
170
5
140
0.145
171
1
172
0
173
0
174
0
175
1
176
1
 91
33
178
0
145
0.0
301
CELL_VALUE
 90
4
  1
U.S. Units
304
ACVALUE_END
170
5
140
0.145
171
1
172
0
173
0
174
0
175
1
176
1
 91
33
178
0
145
0.0
301
CELL_VALUE
 90
4
  1
Metric Units
304
ACVALUE_END
170
5
140
0.145
171
1
172
0
173
0
174
0
175
1
176
1
 91
33
178
0
145
0.0
301
CELL_VALUE
 90
4
  1
Cavity
304
ACVALUE_END
170
5
140
0.125
171
1
172
0
173
0
174
0
175
2
176
1
 91
33
178
0
145
0.0
301
CELL_VALUE
 90
4
  1
T-11A
304
ACVALUE_END
170
5
140
0.125
171
1
172
0
173
1
174
0
175
1
176
1
 91
1
178
0
145
0.0
170
1
171
1
172
0
173
0
174
0
175
1
176
1
 91
33
178
0
145
0.0
301
CELL_VALUE
 90
4
  1
Body Features
304
ACVALUE_END
170
5
140
0.125
171
1
172
0
173
0
174
0
175
2
176
1
 91
33
178
0
145
0.0
301
CELL_VALUE
 90
4
  1
Cushion lock with make up checks
304
ACVALUE_END
170
5
140
0.125
171
1
172
0
173
1
174
0
175
1
176
1
 91
1
178
0
145
0.0
170
1
171
1
172
0
173
0
174
0
175
1
176
1
 91
33
178
0
145
0.0
301
CELL_VALUE
 90
4
  1
Body Type
304
ACVALUE_END
170
5
140
0.125
171
1
172
0
173
0
174
0
175
2
176
1
 91
33
178
0
145
0.0
301
CELL_VALUE
 90
4
  1
Line mount
304
ACVALUE_END
170
5
140
0.125
171
1
172
0
173
1
174
0
175
1
176
1
 91
1
178
0
145
0.0
170
1
171
1
172
0
173
0
174
0
175
1
176
1
 91
33
178
0
145
0.0
301
CELL_VALUE
 90
4
  1
Interface
304
ACVALUE_END
170
5
140
0.125
171
1
172
0
173
0
174
0
175
2
176
1
 91
33
178
0
145
0.0
301
CELL_VALUE
 90
4
  1
None
304
ACVALUE_END
170
5
140
0.125
171
1
172
0
173
1
174
0
175
1
176
1
 91
1
178
0
145
0.0
170
1
171
1
172
0
173
0
174
0
175
1
176
1
 91
33
178
0
145
0.0
301
CELL_VALUE
 90
4
  1
Open Cavity Quantity
304
ACVALUE_END
170
5
140
0.125
171
1
172
0
173
0
174
0
175
2
176
1
 91
33
178
0
145
0.0
301
CELL_VALUE
 90
4
  1
2
304
ACVALUE_END
170
5
140
0.125
171
1
172
0
173
1
174
0
175
1
176
1
 91
1
178
0
145
0.0
170
1
171
1
172
0
173
0
174
0
175
1
176
1
 91
33
178
0
145
0.0
301
CELL_VALUE
 90
4
  1
Weight
304
ACVALUE_END
170
5
140
0.125
171
1
172
0
173
0
174
0
175
1
176
1
 91
33
178
0
145
0.0
301
CELL_VALUE
 90
4
  1
3.216 lb.
304
ACVALUE_END
170
5
140
0.125
171
1
172
0
173
0
174
0
175
1
176
1
 91
33
178
0
145
0.0
301
CELL_VALUE
 90
4
  1
1,459 kg.
304
ACVALUE_END
170
5
140
0.125
171
1
172
0
173
0
174
0
175
1
176
1
 91
33
178
0
145
0.0
301
CELL_VALUE
 90
4
  1
Mounting Hole Diameter
304
ACVALUE_END
170
5
140
0.125
171
1
172
0
173
0
174
0
175
1
176
1
 91
33
178
0
145
0.0
301
CELL_VALUE
 90
4
  1
.34 in.
304
ACVALUE_END
170
5
140
0.125
171
1
172
0
173
0
174
0
175
1
176
1
 91
33
178
0
145
0.0
301
CELL_VALUE
 90
4
  1
8.6 mm
304
ACVALUE_END
170
5
140
0.125
171
1
172
0
173
0
174
0
175
1
176
1
 91
33
178
0
145
0.0
301
CELL_VALUE
 90
4
  1
Mounting Hole Depth
304
ACVALUE_END
170
5
140
0.125
171
1
172
0
173
0
174
0
175
2
176
1
 91
33
178
0
145
0.0
301
CELL_VALUE
 90
4
  1
Through
304
ACVALUE_END
170
5
140
0.125
171
1
172
0
173
1
174
0
175
1
176
1
 91
1
178
0
145
0.0
170
1
171
1
172
0
173
0
174
0
175
1
176
1
 91
33
178
0
145
0.0
301
CELL_VALUE
 90
4
  1
Mounting Hole Quantity
304
ACVALUE_END
170
5
140
0.125
171
1
172
0
173
0
174
0
175
2
176
1
 91
33
178
0
145
0.0
301
CELL_VALUE
 90
4
  1
2
304
ACVALUE_END
170
5
140
0.125
171
1
172
0
173
1
174
0
175
1
176
1
 91
1
178
0
145
0.0
170
1
  0
ACAD_TABLE
  5
287
100
AcDbEntity
  8
0
 62
2
  6
CONTINUOUS
100
AcDbBlockReference
  2
*T3
 10
0.52125
 20
1.709
 30
0.0
100
AcDbTable
342
       40D
343
209
 11
1.0
 21
0.0
 31
0.0
 90
22
 91
4
 92
3
 93
16
 94
0
 95
0
 96
0
 41
0.05
141
0.34375
141
0.344
141
0.25
141
0.25
142
1.3
142
2.0
142
1.3
171
1
172
0
173
0
174
0
175
3
176
1
 91
33
178
0
145
0.0
301
CELL_VALUE
 90
4
  1
Port Headings
304
ACVALUE_END
170
5
140
0.145
171
1
172
0
173
1
174
0
175
1
176
1
 91
1
178
0
145
0.0
170
1
171
1
172
0
173
1
174
0
175
1
176
1
 91
1
178
0
145
0.0
170
1
171
1
172
0
173
0
174
0
175
1
176
1
 91
33
178
0
145
0.0
301
CELL_VALUE
 90
4
  1
Product
304
ACVALUE_END
170
5
140
0.145
171
1
172
0
173
0
174
0
175
1
176
1
 91
33
178
0
145
0.0
301
CELL_VALUE
 90
4
  1
Port
304
ACVALUE_END
170
5
140
0.145
171
1
172
0
173
0
174
0
175
1
176
1
 91
33
178
0
145
0.0
301
CELL_VALUE
 90
4
  1
Size
304
ACVALUE_END
170
5
140
0.145
171
1
172
0
173
0
174
0
175
1
176
1
 91
33
178
0
145
0.0
301
CELL_VALUE
 90
4
  1
EPJ
304
ACVALUE_END
170
5
140
0.125
171
1
172
0
173
0
174
0
175
1
176
1
 91
33
178
0
145
0.0
301
CELL_VALUE
 90
4
  1
Ports C1, C2, V1, V2
304
ACVALUE_END
170
5
140
0.125
171
1
172
0
173
0
174
0
175
1
176
1
 91
33
178
0
145
0.0
301
CELL_VALUE
 90
4
  1
SAE 8
304
ACVALUE_END
170
5
140
0.125
171
1
172
0
173
0
174
0
175
1
176
1
 91
33
178
0
145
0.0
301
CELL_VALUE
 90
4
  1
EPJ
304
ACVALUE_END
170
5
140
0.125
171
1
172
0
173
0
174
0
175
1
176
1
 91
33
178
0
145
0.0
301
CELL_VALUE
 90
4
  1
Port T
304
ACVALUE_END
170
5
140
0.125
171
1
172
0
173
0
174
0
175
1
176
1
 91
33
178
0
145
0.0
301
CELL_VALUE
 90
4
  1
SAE 10
304
ACVALUE_END
170
5
140
0.125
  0
MTEXT
  5
288
100
AcDbEntity
  8
0
100
AcDbMText
 62
2
  6
CONTINUOUS
  7
STANDARD
 71
1
 72
1
 10
0.52125
 20
5.75995
 30
0.0
 11
1.0
 21
0.0
 31
0.0
 44
0.6
  3
Notes\P \P1. Important: Carefully consider\P   the maximum system pressure. The\P   pressure rating of the manifold is\P   dependent on the manifold material,\P   with the port type/size a secondary\P   consideration. Manifolds\P   constructed of alu
  1
minum are not\P   rated for pressures higher than\P   3000 psi (210 bar), regardless of\P   the port type/size specified.
 40
0.1
 41
3.04
  0
LINE
  5
289
100
AcDbEntity
  8
0
100
AcDbLine
 62
7
  6
CONTINUOUS
 10
0.30125
 20
0.30125
 11
0.30125
 21
16.69875
  0
LINE
  5
28A
100
AcDbEntity
  8
0
100
AcDbLine
 62
7
  6
CONTINUOUS
 10
0.30125
 20
0.30125
 11
21.69875
 21
0.30125
  0
LINE
  5
28B
100
AcDbEntity
  8
0
100
AcDbLine
 62
7
  6
CONTINUOUS
 10
0.30125
 20
16.69875
 11
21.69875
 21
16.69875
  0
LINE
  5
28C
100
AcDbEntity
  8
0
100
AcDbLine
 62
7
  6
CONTINUOUS
 10
21.69875
 20
0.30125
 11
21.69875
 21
16.69875
  0
LINE
  5
28D
100
AcDbEntity
  8
0
100
AcDbLine
 62
7
  6
CONTINUOUS
 10
8.3957159022
 20
12.3822322324
 11
6.8428029132
 21
10.8822333815
  0
LINE
  5
28E
100
AcDbEntity
  8
0
100
AcDbLine
 62
7
  6
CONTINUOUS
 10
6.8428029132
 20
10.8822333815
 11
6.8428029132
 21
5.0866780803
  0
LINE
  5
28F
100
AcDbEntity
  8
0
100
AcDbLine
 62
7
  6
CONTINUOUS
 10
6.8428029132
 20
5.0866780803
 11
13.6042840978
 21
4.6177677676
  0
LINE
  5
290
100
AcDbEntity
  8
0
100
AcDbLine
 62
4
  6
CONTINUOUS
 10
8.3496472902
 20
6.276518766
 11
8.3110102563
 21
6.3081760293
  0
LINE
  5
291
100
AcDbEntity
  8
0
100
AcDbLine
 62
4
  6
CONTINUOUS
 10
8.3110102563
 20
6.3081760293
 11
8.2916917384
 21
6.3384935489
  0
LINE
  5
292
100
AcDbEntity
  8
0
100
AcDbLine
 62
4
  6
CONTINUOUS
 10
13.1232530153
 20
5.6605199337
 11
13.0652974636
 21
5.650050277
  0
LINE
  5
293
100
AcDbEntity
  8
0
100
AcDbLine
 62
4
  6
CONTINUOUS
 10
8.2916917384
 20
6.1791157817
 11
8.5235139453
 21
6.0905944174
  0
LINE
  5
294
100
AcDbEntity
  8
0
100
AcDbLine
 62
4
  6
CONTINUOUS
 10
8.3303287741
 20
6.7415029234
 11
8.3110102563
 21
6.7573315551
  0
LINE
  5
295
100
AcDbEntity
  8
0
100
AcDbLine
 62
4
  6
CONTINUOUS
 10
8.3110102563
 20
6.7573315551
 11
8.2916917384
 21
6.7876490747
  0
LINE
  5
296
100
AcDbEntity
  8
0
100
AcDbLine
 62
4
  6
CONTINUOUS
 10
8.5041954327
 20
6.8308674452
 11
8.5235139453
 21
6.8005499259
  0
LINE
  5
297
100
AcDbEntity
  8
0
100
AcDbLine
 62
4
  6
CONTINUOUS
 10
8.2916917384
 20
6.3384935489
 11
8.2916917384
 21
6.3964491006
  0
LINE
  5
298
100
AcDbEntity
  8
0
100
AcDbLine
 62
4
  6
CONTINUOUS
 10
8.2916917384
 20
6.7876490747
 11
8.2916917384
 21
6.8166268506
  0
LINE
  5
299
100
AcDbEntity
  8
0
100
AcDbLine
 62
4
  6
CONTINUOUS
 10
8.2916917384
 20
9.2362711995
 11
8.2916917384
 21
9.2942267512
  0
LINE
  5
29A
100
AcDbEntity
  8
0
100
AcDbLine
 62
4
  6
CONTINUOUS
 10
8.2916917384
 20
9.6854267253
 11
8.2916917384
 21
9.7144045011
  0
LINE
  5
29B
100
AcDbEntity
  8
0
100
AcDbLine
 62
4
  6
CONTINUOUS
 10
8.3689658097
 20
9.0425566814
 11
8.3689658097
 21
8.9556233538
  0
LINE
  5
29C
100
AcDbEntity
  8
0
100
AcDbLine
 62
4
  6
CONTINUOUS
 10
8.3689658097
 20
6.1447790308
 11
8.3689658097
 21
6.0578457032
  0
LINE
  5
29D
100
AcDbEntity
  8
0
100
AcDbLine
 62
4
  6
CONTINUOUS
 10
8.2916917384
 20
9.7144045011
 11
8.3110102563
 21
9.7420425332
  0
LINE
  5
29E
100
AcDbEntity
  8
0
100
AcDbLine
 62
4
  6
CONTINUOUS
 10
8.5235139453
 20
9.6693498006
 11
8.5041954327
 21
9.6417117682
  0
LINE
  5
29F
100
AcDbEntity
  8
0
100
AcDbLine
 62
4
  6
CONTINUOUS
 10
13.1232530153
 20
6.1241643475
 11
13.0652974636
 21
6.1136946907
  0
LINE
  5
2A0
100
AcDbEntity
  8
0
100
AcDbLine
 62
4
  6
CONTINUOUS
 10
8.4076028419
 20
6.258010647
 11
8.3496472902
 21
6.276518766
  0
LINE
  5
2A1
100
AcDbEntity
  8
0
100
AcDbLine
 62
4
  6
CONTINUOUS
 10
8.2916917384
 20
6.6282713075
 11
8.5235139453
 21
6.4962832794
  0
LINE
  5
2A2
100
AcDbEntity
  8
0
100
AcDbLine
 62
4
  6
CONTINUOUS
 10
8.4655583936
 20
6.8625247088
 11
8.5041954327
 21
6.8308674452
  0
LINE
  5
2A3
100
AcDbEntity
  8
0
100
AcDbLine
 62
4
  6
CONTINUOUS
 10
8.5235139453
 20
9.6983275765
 11
8.5235139453
 21
9.6693498006
  0
LINE
  5
2A4
100
AcDbEntity
  8
0
100
AcDbLine
 62
4
  6
CONTINUOUS
 10
8.5235139453
 20
9.2781498266
 11
8.5235139453
 21
9.2201942748
  0
LINE
  5
2A5
100
AcDbEntity
  8
0
100
AcDbLine
 62
4
  6
CONTINUOUS
 10
8.5235139453
 20
6.8005499259
 11
8.5235139453
 21
6.7715721501
  0
LINE
  5
2A6
100
AcDbEntity
  8
0
100
AcDbLine
 62
4
  6
CONTINUOUS
 10
8.5235139453
 20
6.380372176
 11
8.5235139453
 21
6.3224166243
  0
LINE
  5
2A7
100
AcDbEntity
  8
0
100
AcDbLine
 62
4
  6
CONTINUOUS
 10
8.5235139453
 20
9.2201942748
 11
8.5041954327
 21
9.1925562424
  0
LINE
  5
2A8
100
AcDbEntity
  8
0
100
AcDbLine
 62
7
  6
CONTINUOUS
 10
8.8234232888
 20
9.6832971829
 11
8.5980250425
 21
9.4655791827
  0
LINE
  5
2A9
100
AcDbEntity
  8
0
100
AcDbLine
 62
4
  6
CONTINUOUS
 10
8.3110102563
 20
9.7420425332
 11
8.3496472902
 21
9.7683408217
  0
LINE
  5
2AA
100
AcDbEntity
  8
0
100
AcDbLine
 62
4
  6
CONTINUOUS
 10
8.5041954327
 20
9.6417117682
 11
8.4848769062
 21
9.6285626246
  0
LINE
  5
2AB
100
AcDbEntity
  8
0
100
AcDbLine
 62
4
  6
CONTINUOUS
 10
13.0073419119
 20
6.494425008
 11
13.0652974636
 21
6.5048946648
  0
LINE
  5
2AC
100
AcDbEntity
  8
0
100
AcDbLine
 62
4
  6
CONTINUOUS
 10
8.2916917384
 20
6.3964491006
 11
8.5235139453
 21
6.380372176
  0
LINE
  5
2AD
100
AcDbEntity
  8
0
100
AcDbLine
 62
4
  6
CONTINUOUS
 10
8.4076028419
 20
6.8810328279
 11
8.4655583936
 21
6.8625247088
  0
LINE
  5
2AE
100
AcDbEntity
  8
0
100
AcDbLine
 62
7
  6
CONTINUOUS
 10
9.5542205214
 20
10.0545422016
 11
9.328822275
 21
9.8368242014
  0
LINE
  5
2AF
100
AcDbEntity
  8
0
100
AcDbLine
 62
7
  6
CONTINUOUS
 10
9.6686394122
 20
10.0466072246
 11
9.4432411658
 21
9.8288892243
  0
LINE
  5
2B0
100
AcDbEntity
  8
0
100
AcDbLine
 62
4
  6
CONTINUOUS
 10
8.5041954327
 20
9.1925562424
 11
8.4655583936
 21
9.1662579543
  0
LINE
  5
2B1
100
AcDbEntity
  8
0
100
AcDbLine
 62
4
  6
CONTINUOUS
 10
8.5235139453
 20
9.5099720334
 11
8.2916917384
 21
9.4101378546
  0
LINE
  5
2B2
100
AcDbEntity
  8
0
100
AcDbLine
 62
4
  6
CONTINUOUS
 10
14.1555682096
 20
6.5373369459
 11
14.1400390801
 21
6.5368258457
  0
LINE
  5
2B3
100
AcDbEntity
  8
0
100
AcDbLine
 62
4
  6
CONTINUOUS
 10
13.181208567
 20
6.3664562111
 11
12.9493863602
 21
6.3825331357
  0
LINE
  5
2B4
100
AcDbEntity
  8
0
100
AcDbLine
 62
4
  6
CONTINUOUS
 10
13.0652974636
 20
5.650050277
 11
13.0073419119
 21
5.6685583961
  0
LINE
  5
2B5
100
AcDbEntity
  8
0
100
AcDbLine
 62
4
  6
CONTINUOUS
 10
8.3110102563
 20
9.2059536799
 11
8.2916917384
 21
9.2362711995
  0
LINE
  5
2B6
100
AcDbEntity
  8
0
100
AcDbLine
 62
4
  6
CONTINUOUS
 10
8.5235139453
 20
6.0905944174
 11
8.2916917384
 21
6.0342269024
  0
LINE
  5
2B7
100
AcDbEntity
  8
0
100
AcDbLine
 62
4
  6
CONTINUOUS
 10
8.4655583936
 20
6.2684803037
 11
8.4076028419
 21
6.258010647
  0
LINE
  5
2B8
100
AcDbEntity
  8
0
100
AcDbLine
 62
4
  6
CONTINUOUS
 10
13.0652974636
 20
6.1136946907
 11
13.0073419119
 21
6.1322028098
  0
LINE
  5
2B9
100
AcDbEntity
  8
0
100
AcDbLine
 62
4
  6
CONTINUOUS
 10
8.3110102563
 20
9.6551092057
 11
8.2916917384
 21
9.6854267253
  0
LINE
  5
2BA
100
AcDbEntity
  8
0
100
AcDbLine
 62
4
  6
CONTINUOUS
 10
8.2916917384
 20
6.8166268506
 11
8.3110102563
 21
6.8442648827
  0
LINE
  5
2BB
100
AcDbEntity
  8
0
100
AcDbLine
 62
7
  6
CONTINUOUS
 10
10.3994366448
 20
9.5740002855
 11
10.1740383984
 21
9.3562822852
  0
LINE
  5
2BC
100
AcDbEntity
  8
0
100
AcDbLine
 62
4
  6
CONTINUOUS
 10
8.3496472902
 20
6.8705631711
 11
8.4076028419
 21
6.8810328279
  0
LINE
  5
2BD
100
AcDbEntity
  8
0
100
AcDbLine
 62
4
  6
CONTINUOUS
 10
13.0652974636
 20
6.5048946648
 11
13.1232530153
 21
6.4863865457
  0
LINE
  5
2BE
100
AcDbEntity
  8
0
100
AcDbLine
 62
4
  6
CONTINUOUS
 10
13.181208567
 20
5.9028117974
 11
12.9493863602
 21
6.0347998255
  0
LINE
  5
2BF
100
AcDbEntity
  8
0
100
AcDbLine
 62
4
  6
CONTINUOUS
 10
8.3496472902
 20
9.1742964166
 11
8.3110102563
 21
9.2059536799
  0
LINE
  5
2C0
100
AcDbEntity
  8
0
100
AcDbLine
 62
4
  6
CONTINUOUS
 10
8.5041954327
 20
9.7286450958
 11
8.5235139453
 21
9.6983275765
  0
LINE
  5
2C1
100
AcDbEntity
  8
0
100
AcDbLine
 62
4
  6
CONTINUOUS
 10
8.5235139453
 20
6.7715721501
 11
8.5041954327
 21
6.7439341176
  0
LINE
  5
2C2
100
AcDbEntity
  8
0
100
AcDbLine
 62
4
  6
CONTINUOUS
 10
8.5235139453
 20
6.3224166243
 11
8.5041954327
 21
6.2947785918
  0
LINE
  5
2C3
100
AcDbEntity
  8
0
100
AcDbLine
 62
7
  6
CONTINUOUS
 10
10.4566460902
 20
9.4709431308
 11
10.2312478438
 21
9.2532251305
  0
LINE
  5
2C4
100
AcDbEntity
  8
0
100
AcDbLine
 62
7
  6
CONTINUOUS
 10
10.9967565268
 20
9.532576011
 11
10.7713582804
 21
9.3148580107
  0
LINE
  5
2C5
100
AcDbEntity
  8
0
100
AcDbLine
 62
4
  6
CONTINUOUS
 10
13.0073419119
 20
5.6685583961
 11
12.9687048728
 21
5.7002156597
  0
LINE
  5
2C6
100
AcDbEntity
  8
0
100
AcDbLine
 62
4
  6
CONTINUOUS
 10
8.3303287741
 20
9.639280574
 11
8.3110102563
 21
9.6551092057
  0
LINE
  5
2C7
100
AcDbEntity
  8
0
100
AcDbLine
 62
4
  6
CONTINUOUS
 10
13.1425715314
 20
5.7895801815
 11
13.1618900492
 21
5.7737515498
  0
LINE
  5
2C8
100
AcDbEntity
  8
0
100
AcDbLine
 62
7
  6
CONTINUOUS
 10
11.7275537593
 20
9.9038210297
 11
11.5021555129
 21
9.6861030294
  0
LINE
  5
2C9
100
AcDbEntity
  8
0
100
AcDbLine
 62
7
  6
CONTINUOUS
 10
10.4566460902
 20
8.627091173
 11
10.2312478438
 21
8.4093731727
  0
LINE
  5
2CA
100
AcDbEntity
  8
0
100
AcDbLine
 62
7
  6
CONTINUOUS
 10
10.3994366448
 20
8.5319689953
 11
10.1740383984
 21
8.3142509951
  0
LINE
  5
2CB
100
AcDbEntity
  8
0
100
AcDbLine
 62
7
  6
CONTINUOUS
 10
11.8419726501
 20
9.8958860526
 11
11.6165744038
 21
9.6781680524
  0
LINE
  5
2CC
100
AcDbEntity
  8
0
100
AcDbLine
 62
4
  6
CONTINUOUS
 10
8.2916917384
 20
9.0768934323
 11
8.5235139453
 21
8.988372068
  0
LINE
  5
2CD
100
AcDbEntity
  8
0
100
AcDbLine
 62
4
  6
CONTINUOUS
 10
8.2916917384
 20
9.5260489581
 11
8.5235139453
 21
9.39406093
  0
LINE
  5
2CE
100
AcDbEntity
  8
0
100
AcDbLine
 62
4
  6
CONTINUOUS
 10
8.4655583936
 20
9.7603023594
 11
8.5041954327
 21
9.7286450958
  0
LINE
  5
2CF
100
AcDbEntity
  8
0
100
AcDbLine
 62
4
  6
CONTINUOUS
 10
13.0073419119
 20
6.1322028098
 11
12.9687048728
 21
6.1638600734
  0
LINE
  5
2D0
100
AcDbEntity
  8
0
100
AcDbLine
 62
4
  6
CONTINUOUS
 10
13.1425715314
 20
6.2532245952
 11
13.1618900492
 21
6.2373959635
  0
LINE
  5
2D1
100
AcDbEntity
  8
0
100
AcDbLine
 62
7
  6
CONTINUOUS
 10
8.8234232888
 20
6.7855195324
 11
8.5980250425
 21
6.5678015321
  0
LINE
  5
2D2
100
AcDbEntity
  8
0
100
AcDbLine
 62
7
  6
CONTINUOUS
 10
9.5542205214
 20
7.1567645511
 11
9.328822275
 21
6.9390465508
  0
LINE
  5
2D3
100
AcDbEntity
  8
0
100
AcDbLine
 62
7
  6
CONTINUOUS
 10
9.6686394122
 20
7.148829574
 11
9.4432411658
 21
6.9311115738
  0
LINE
  5
2D4
100
AcDbEntity
  8
0
100
AcDbLine
 62
4
  6
CONTINUOUS
 10
8.3110102563
 20
6.8442648827
 11
8.3496472902
 21
6.8705631711
  0
LINE
  5
2D5
100
AcDbEntity
  8
0
100
AcDbLine
 62
4
  6
CONTINUOUS
 10
8.5041954327
 20
6.7439341176
 11
8.4848769062
 21
6.730784974
  0
LINE
  5
2D6
100
AcDbEntity
  8
0
100
AcDbLine
 62
4
  6
CONTINUOUS
 10
13.1232530153
 20
8.5582975843
 11
13.0652974636
 21
8.5478279275
  0
LINE
  5
2D7
100
AcDbEntity
  8
0
100
AcDbLine
 62
4
  6
CONTINUOUS
 10
8.4076028419
 20
9.1557882975
 11
8.3496472902
 21
9.1742964166
  0
LINE
  5
2D8
100
AcDbEntity
  8
0
100
AcDbLine
 62
4
  6
CONTINUOUS
 10
13.1232530153
 20
6.4863865457
 11
13.1618900492
 21
6.4547292824
  0
LINE
  5
2D9
100
AcDbEntity
  8
0
100
AcDbLine
 62
7
  6
CONTINUOUS
 10
12.5727698827
 20
9.4232791135
 11
12.3473716363
 21
9.2055611132
  0
LINE
  5
2DA
100
AcDbEntity
  8
0
100
AcDbLine
 62
4
  6
CONTINUOUS
 10
12.9687048728
 20
9.3659043705
 11
13.0073419119
 21
9.3922026586
  0
LINE
  5
2DB
100
AcDbEntity
  8
0
100
AcDbLine
 62
4
  6
CONTINUOUS
 10
8.5041954327
 20
6.2947785918
 11
8.4655583936
 21
6.2684803037
  0
LINE
  5
2DC
100
AcDbEntity
  8
0
100
AcDbLine
 62
4
  6
CONTINUOUS
 10
13.1232530153
 20
9.021941998
 11
13.0652974636
 21
9.0114723413
  0
LINE
  5
2DD
100
AcDbEntity
  8
0
100
AcDbLine
 62
4
  6
CONTINUOUS
 10
8.4076028419
 20
9.7788104785
 11
8.4655583936
 21
9.7603023594
  0
LINE
  5
2DE
100
AcDbEntity
  8
0
100
AcDbLine
 62
4
  6
CONTINUOUS
 10
12.9687048728
 20
5.7002156597
 11
12.9493863602
 21
5.7305331789
  0
LINE
  5
2DF
100
AcDbEntity
  8
0
100
AcDbLine
 62
4
  6
CONTINUOUS
 10
13.1618900492
 20
5.7737515498
 11
13.181208567
 21
5.7434340302
  0
LINE
  5
2E0
100
AcDbEntity
  8
0
100
AcDbLine
 62
4
  6
CONTINUOUS
 10
12.9687048728
 20
6.1638600734
 11
12.9493863602
 21
6.1941775927
  0
LINE
  5
2E1
100
AcDbEntity
  8
0
100
AcDbLine
 62
7
  6
CONTINUOUS
 10
15.1571970868
 20
11.9133219197
 11
13.6042840978
 21
10.4133230687
  0
LINE
  5
2E2
100
AcDbEntity
  8
0
100
AcDbLine
 62
7
  6
CONTINUOUS
 10
12.6299793281
 20
9.3202219589
 11
12.4045810817
 21
9.1025039586
  0
LINE
  5
2E3
100
AcDbEntity
  8
0
100
AcDbLine
 62
4
  6
CONTINUOUS
 10
12.9687048728
 20
9.1485710516
 11
12.9880233993
 21
9.1617201951
  0
LINE
  5
2E4
100
AcDbEntity
  8
0
100
AcDbLine
 62
4
  6
CONTINUOUS
 10
13.1618900492
 20
9.0482402865
 11
13.1232530153
 21
9.021941998
  0
LINE
  5
2E5
100
AcDbEntity
  8
0
100
AcDbLine
 62
4
  6
CONTINUOUS
 10
12.9493863602
 20
8.8166663726
 11
13.181208567
 21
8.9165005514
  0
LINE
  5
2E6
100
AcDbEntity
  8
0
100
AcDbLine
 62
4
  6
CONTINUOUS
 10
8.5235139453
 20
6.6121943828
 11
8.2916917384
 21
6.5123602041
  0
LINE
  5
2E7
100
AcDbEntity
  8
0
100
AcDbLine
 62
4
  6
CONTINUOUS
 10
13.0073419119
 20
9.3922026586
 11
13.0652974636
 21
9.4026723154
  0
LINE
  5
2E8
100
AcDbEntity
  8
0
100
AcDbLine
 62
4
  6
CONTINUOUS
 10
8.2916917384
 20
9.2942267512
 11
8.5235139453
 21
9.2781498266
  0
LINE
  5
2E9
100
AcDbEntity
  8
0
100
AcDbLine
 62
4
  6
CONTINUOUS
 10
13.0652974636
 20
8.5478279275
 11
13.0073419119
 21
8.5663360466
  0
LINE
  5
2EA
100
AcDbEntity
  8
0
100
AcDbLine
 62
4
  6
CONTINUOUS
 10
13.1618900492
 20
6.2373959635
 11
13.181208567
 21
6.2070784439
  0
LINE
  5
2EB
100
AcDbEntity
  8
0
100
AcDbLine
 62
4
  6
CONTINUOUS
 10
13.1618900492
 20
6.4547292824
 11
13.181208567
 21
6.4244117628
  0
LINE
  5
2EC
100
AcDbEntity
  8
0
100
AcDbLine
 62
4
  6
CONTINUOUS
 10
12.9493863602
 20
9.338266338
 11
12.9687048728
 21
9.3659043705
  0
LINE
  5
2ED
100
AcDbEntity
  8
0
100
AcDbLine
 62
7
  6
CONTINUOUS
 10
10.3994366448
 20
6.6762226349
 11
10.1740383984
 21
6.4585046346
  0
LINE
  5
2EE
100
AcDbEntity
  8
0
100
AcDbLine
 62
7
  6
CONTINUOUS
 10
10.4566460902
 20
6.5731654803
 11
10.2312478438
 21
6.35544748
  0
LINE
  5
2EF
100
AcDbEntity
  8
0
100
AcDbLine
 62
7
  6
CONTINUOUS
 10
12.6299793281
 20
8.476370001
 11
12.4045810817
 21
8.2586520007
  0
LINE
  5
2F0
100
AcDbEntity
  8
0
100
AcDbLine
 62
7
  6
CONTINUOUS
 10
12.5727698827
 20
8.3812478234
 11
12.3473716363
 21
8.1635298231
  0
LINE
  5
2F1
100
AcDbEntity
  8
0
100
AcDbLine
 62
4
  6
CONTINUOUS
 10
12.9687048728
 20
8.6849266378
 11
12.9880233993
 21
8.6980757814
  0
LINE
  5
2F2
100
AcDbEntity
  8
0
100
AcDbLine
 62
4
  6
CONTINUOUS
 10
13.1618900492
 20
8.5845958728
 11
13.1232530153
 21
8.5582975843
  0
LINE
  5
2F3
100
AcDbEntity
  8
0
100
AcDbLine
 62
4
  6
CONTINUOUS
 10
8.5235139453
 20
8.988372068
 11
8.2916917384
 21
8.932004553
  0
LINE
  5
2F4
100
AcDbEntity
  8
0
100
AcDbLine
 62
4
  6
CONTINUOUS
 10
8.4655583936
 20
9.1662579543
 11
8.4076028419
 21
9.1557882975
  0
LINE
  5
2F5
100
AcDbEntity
  8
0
100
AcDbLine
 62
4
  6
CONTINUOUS
 10
14.1555682096
 20
9.4660244025
 11
14.1400390801
 21
9.4655133023
  0
LINE
  5
2F6
100
AcDbEntity
  8
0
100
AcDbLine
 62
4
  6
CONTINUOUS
 10
14.1710973392
 20
9.7563132614
 11
14.1866264687
 21
9.7568243616
  0
LINE
  5
2F7
100
AcDbEntity
  8
0
100
AcDbLine
 62
4
  6
CONTINUOUS
 10
13.181208567
 20
9.2642338617
 11
12.9493863602
 21
9.2803107863
  0
LINE
  5
2F8
100
AcDbEntity
  8
0
100
AcDbLine
 62
4
  6
CONTINUOUS
 10
13.0652974636
 20
9.0114723413
 11
13.0073419119
 21
9.0299804604
  0
LINE
  5
2F9
100
AcDbEntity
  8
0
100
AcDbLine
 62
4
  6
CONTINUOUS
 10
12.9493863602
 20
9.1209330191
 11
12.9687048728
 21
9.1485710516
  0
LINE
  5
2FA
100
AcDbEntity
  8
0
100
AcDbLine
 62
4
  6
CONTINUOUS
 10
13.181208567
 20
9.0758783186
 11
13.1618900492
 21
9.0482402865
  0
LINE
  5
2FB
100
AcDbEntity
  8
0
100
AcDbLine
 62
4
  6
CONTINUOUS
 10
12.9493863602
 20
8.6572886054
 11
12.9687048728
 21
8.6849266378
  0
LINE
  5
2FC
100
AcDbEntity
  8
0
100
AcDbLine
 62
4
  6
CONTINUOUS
 10
14.1348627048
 20
9.8227355057
 11
14.1452154554
 21
9.8327354954
  0
LINE
  5
2FD
100
AcDbEntity
  8
0
100
AcDbLine
 62
7
  6
CONTINUOUS
 10
10.9967565268
 20
6.6347983604
 11
10.7713582804
 21
6.4170803601
  0
LINE
  5
2FE
100
AcDbEntity
  8
0
100
AcDbLine
 62
4
  6
CONTINUOUS
 10
13.0652974636
 20
9.4026723154
 11
13.1232530153
 21
9.3841641963
  0
LINE
  5
2FF
100
AcDbEntity
  8
0
100
AcDbLine
 62
4
  6
CONTINUOUS
 10
13.181208567
 20
8.8005894479
 11
12.9493863602
 21
8.932577476
  0
LINE
  5
300
100
AcDbEntity
  8
0
100
AcDbLine
 62
4
  6
CONTINUOUS
 10
13.0073419119
 20
8.5663360466
 11
12.9687048728
 21
8.5979933103
  0
LINE
  5
301
100
AcDbEntity
  8
0
100
AcDbLine
 62
4
  6
CONTINUOUS
 10
13.1425715314
 20
8.687357832
 11
13.1618900492
 21
8.6715292003
  0
LINE
  5
302
100
AcDbEntity
  8
0
100
AcDbLine
 62
4
  6
CONTINUOUS
 10
13.181208567
 20
8.6122339049
 11
13.1618900492
 21
8.5845958728
  0
LINE
  5
303
100
AcDbEntity
  8
0
100
AcDbLine
 62
7
  6
CONTINUOUS
 10
11.7275537593
 20
7.0060433791
 11
11.5021555129
 21
6.7883253788
  0
LINE
  5
304
100
AcDbEntity
  8
0
100
AcDbLine
 62
7
  6
CONTINUOUS
 10
10.4566460902
 20
5.7293135224
 11
10.2312478438
 21
5.5115955221
  0
LINE
  5
305
100
AcDbEntity
  8
0
100
AcDbLine
 62
7
  6
CONTINUOUS
 10
10.3994366448
 20
5.6341913448
 11
10.1740383984
 21
5.4164733445
  0
LINE
  5
306
100
AcDbEntity
  8
0
100
AcDbLine
 62
7
  6
CONTINUOUS
 10
11.8419726501
 20
6.9981084021
 11
11.6165744038
 21
6.7803904018
  0
LINE
  5
307
100
AcDbEntity
  8
0
100
AcDbLine
 62
4
  6
CONTINUOUS
 10
8.3496472902
 20
9.7683408217
 11
8.4076028419
 21
9.7788104785
  0
LINE
  5
308
100
AcDbEntity
  8
0
100
AcDbLine
 62
4
  6
CONTINUOUS
 10
13.0073419119
 20
9.0299804604
 11
12.9687048728
 21
9.061637724
  0
LINE
  5
309
100
AcDbEntity
  8
0
100
AcDbLine
 62
4
  6
CONTINUOUS
 10
13.1425715314
 20
9.1510022458
 11
13.1618900492
 21
9.1351736141
  0
LINE
  5
30A
100
AcDbEntity
  8
0
100
AcDbLine
 62
4
  6
CONTINUOUS
 10
12.9687048728
 20
8.5979933103
 11
12.9493863602
 21
8.6283108295
  0
LINE
  5
30B
100
AcDbEntity
  8
0
100
AcDbLine
 62
4
  6
CONTINUOUS
 10
13.1618900492
 20
8.6715292003
 11
13.181208567
 21
8.6412116807
  0
LINE
  5
30C
100
AcDbEntity
  8
0
100
AcDbLine
 62
4
  6
CONTINUOUS
 10
14.1400390801
 20
6.5368258457
 11
14.1296863258
 21
6.5558036282
  0
LINE
  5
30D
100
AcDbEntity
  8
0
100
AcDbLine
 62
4
  6
CONTINUOUS
 10
14.1762737154
 20
6.7022258091
 11
14.181450092
 21
6.6927369174
  0
LINE
  5
30E
100
AcDbEntity
  8
0
100
AcDbLine
 62
4
  6
CONTINUOUS
 10
12.9493863602
 20
5.7305331789
 11
12.9493863602
 21
5.7595109548
  0
LINE
  5
30F
100
AcDbEntity
  8
0
100
AcDbLine
 62
4
  6
CONTINUOUS
 10
12.9493863602
 20
6.1941775927
 11
12.9493863602
 21
6.2231553685
  0
LINE
  5
310
100
AcDbEntity
  8
0
100
AcDbLine
 62
4
  6
CONTINUOUS
 10
12.9493863602
 20
6.3825331357
 11
12.9493863602
 21
6.4404886875
  0
LINE
  5
311
100
AcDbEntity
  8
0
100
AcDbLine
 62
4
  6
CONTINUOUS
 10
12.9493863602
 20
8.6283108295
 11
12.9493863602
 21
8.6572886054
  0
LINE
  5
312
100
AcDbEntity
  8
0
100
AcDbLine
 62
4
  6
CONTINUOUS
 10
12.9493863602
 20
9.0919552432
 11
12.9493863602
 21
9.1209330191
  0
LINE
  5
313
100
AcDbEntity
  8
0
100
AcDbLine
 62
4
  6
CONTINUOUS
 10
12.9493863602
 20
9.2803107863
 11
12.9493863602
 21
9.338266338
  0
LINE
  5
314
100
AcDbEntity
  8
0
100
AcDbLine
 62
4
  6
CONTINUOUS
 10
13.181208567
 20
9.3221894134
 11
13.181208567
 21
9.2642338617
  0
LINE
  5
315
100
AcDbEntity
  8
0
100
AcDbLine
 62
4
  6
CONTINUOUS
 10
13.181208567
 20
9.1048560944
 11
13.181208567
 21
9.0758783186
  0
LINE
  5
316
100
AcDbEntity
  8
0
100
AcDbLine
 62
4
  6
CONTINUOUS
 10
13.181208567
 20
8.6412116807
 11
13.181208567
 21
8.6122339049
  0
LINE
  5
317
100
AcDbEntity
  8
0
100
AcDbLine
 62
4
  6
CONTINUOUS
 10
13.181208567
 20
6.4244117628
 11
13.181208567
 21
6.3664562111
  0
LINE
  5
318
100
AcDbEntity
  8
0
100
AcDbLine
 62
4
  6
CONTINUOUS
 10
13.181208567
 20
6.2070784439
 11
13.181208567
 21
6.178100668
  0
LINE
  5
319
100
AcDbEntity
  8
0
100
AcDbLine
 62
4
  6
CONTINUOUS
 10
13.181208567
 20
5.7434340302
 11
13.181208567
 21
5.7144562543
  0
LINE
  5
31A
100
AcDbEntity
  8
0
100
AcDbLine
 62
7
  6
CONTINUOUS
 10
13.6042840978
 20
10.4133230687
 11
6.8428029132
 21
10.8822333815
  0
LINE
  5
31B
100
AcDbEntity
  8
0
100
AcDbLine
 62
4
  6
CONTINUOUS
 10
13.1232530153
 20
9.3841641963
 11
13.1618900492
 21
9.352506933
  0
LINE
  5
31C
100
AcDbEntity
  8
0
100
AcDbLine
 62
4
  6
CONTINUOUS
 10
12.9687048728
 20
9.061637724
 11
12.9493863602
 21
9.0919552432
  0
LINE
  5
31D
100
AcDbEntity
  8
0
100
AcDbLine
 62
4
  6
CONTINUOUS
 10
13.1618900492
 20
9.1351736141
 11
13.181208567
 21
9.1048560944
  0
LINE
  5
31E
100
AcDbEntity
  8
0
100
AcDbLine
 62
4
  6
CONTINUOUS
 10
13.1618900492
 20
9.352506933
 11
13.181208567
 21
9.3221894134
  0
LINE
  5
31F
100
AcDbEntity
  8
0
100
AcDbLine
 62
7
  6
CONTINUOUS
 10
13.6042840978
 20
4.6177677676
 11
13.6042840978
 21
10.4133230687
  0
LINE
  5
320
100
AcDbEntity
  8
0
100
AcDbLine
 62
4
  6
CONTINUOUS
 10
14.1296863258
 20
9.8032466193
 11
14.1348627048
 21
9.8227355057
  0
LINE
  5
321
100
AcDbEntity
  8
0
100
AcDbLine
 62
4
  6
CONTINUOUS
 10
14.1710973392
 20
9.4955132786
 11
14.1555682096
 21
9.4660244025
  0
LINE
  5
322
100
AcDbEntity
  8
0
100
AcDbLine
 62
7
  6
CONTINUOUS
 10
12.5727698827
 20
6.5255014629
 11
12.3473716363
 21
6.3077834627
  0
LINE
  5
323
100
AcDbEntity
  8
0
100
AcDbLine
 62
7
  6
CONTINUOUS
 10
12.6299793281
 20
6.4224443083
 11
12.4045810817
 21
6.204726308
  0
LINE
  5
324
100
AcDbEntity
  8
0
100
AcDbLine
 62
4
  6
CONTINUOUS
 10
14.1296863258
 20
6.5558036282
 11
14.1245099505
 21
6.5797814092
  0
LINE
  5
325
100
AcDbEntity
  8
0
100
AcDbLine
 62
4
  6
CONTINUOUS
 10
14.1245099505
 20
9.7692688486
 11
14.1296863258
 21
9.8032466193
  0
LINE
  5
326
100
AcDbEntity
  8
0
100
AcDbLine
 62
4
  6
CONTINUOUS
 10
14.1245099505
 20
9.5374466417
 11
14.1296863258
 21
9.5714244124
  0
LINE
  5
327
100
AcDbEntity
  8
0
100
AcDbLine
 62
4
  6
CONTINUOUS
 10
14.1866264687
 20
9.5684688185
 11
14.181450092
 21
9.5344910465
  0
LINE
  5
328
100
AcDbEntity
  8
0
100
AcDbLine
 62
4
  6
CONTINUOUS
 10
14.1296863258
 20
9.5714244124
 11
14.1348627048
 21
9.5909132988
  0
LINE
  5
329
100
AcDbEntity
  8
0
100
AcDbLine
 62
4
  6
CONTINUOUS
 10
14.181450092
 20
9.5344910465
 11
14.1710973392
 21
9.4955132786
  0
LINE
  5
32A
100
AcDbEntity
  8
0
100
AcDbLine
 62
4
  6
CONTINUOUS
 10
12.9493863602
 20
6.4404886875
 11
12.9687048728
 21
6.4681267199
  0
LINE
  5
32B
100
AcDbEntity
  8
0
100
AcDbLine
 62
4
  6
CONTINUOUS
 10
12.9493863602
 20
6.2231553685
 11
12.9687048728
 21
6.250793401
  0
LINE
  5
32C
100
AcDbEntity
  8
0
100
AcDbLine
 62
4
  6
CONTINUOUS
 10
12.9687048728
 20
6.4681267199
 11
13.0073419119
 21
6.494425008
  0
LINE
  5
32D
100
AcDbEntity
  8
0
100
AcDbLine
 62
4
  6
CONTINUOUS
 10
12.9687048728
 20
6.250793401
 11
12.9880233993
 21
6.2639425446
  0
LINE
  5
32E
100
AcDbEntity
  8
0
100
AcDbLine
 62
4
  6
CONTINUOUS
 10
14.181450092
 20
6.6927369174
 11
14.1866264687
 21
6.6687591378
  0
LINE
  5
32F
100
AcDbEntity
  8
0
100
AcDbLine
 62
4
  6
CONTINUOUS
 10
14.1245099505
 20
6.5797814092
 11
14.1245099505
 21
6.6087591851
  0
LINE
  5
330
100
AcDbEntity
  8
0
100
AcDbLine
 62
4
  6
CONTINUOUS
 10
14.1245099505
 20
9.5084688658
 11
14.1245099505
 21
9.5374466417
  0
LINE
  5
331
100
AcDbEntity
  8
0
100
AcDbLine
 62
4
  6
CONTINUOUS
 10
14.1245099505
 20
9.7402910727
 11
14.1245099505
 21
9.7692688486
  0
LINE
  5
332
100
AcDbEntity
  8
0
100
AcDbLine
 62
4
  6
CONTINUOUS
 10
14.1866264687
 20
9.5974465944
 11
14.1866264687
 21
9.5684688185
  0
LINE
  5
333
100
AcDbEntity
  8
0
100
AcDbLine
 62
4
  6
CONTINUOUS
 10
14.1866264687
 20
6.6687591378
 11
14.1866264687
 21
6.6397813619
  0
LINE
  5
334
100
AcDbEntity
  8
0
100
AcDbLine
 62
4
  6
CONTINUOUS
 10
14.1866264687
 20
9.7568243616
 11
14.1866264687
 21
9.872735465
  0
LINE
  5
335
100
AcDbEntity
  8
0
100
AcDbLine
 62
4
  6
CONTINUOUS
 10
14.1245099505
 20
6.6087591851
 11
14.1296863258
 21
6.6427369558
  0
LINE
  5
336
100
AcDbEntity
  8
0
100
AcDbLine
 62
4
  6
CONTINUOUS
 10
14.1866264687
 20
6.6397813619
 11
14.181450092
 21
6.6058035898
  0
LINE
  5
337
100
AcDbEntity
  8
0
100
AcDbLine
 62
4
  6
CONTINUOUS
 10
13.181208567
 20
6.178100668
 11
13.1618900492
 21
6.1504626359
  0
LINE
  5
338
100
AcDbEntity
  8
0
100
AcDbLine
 62
4
  6
CONTINUOUS
 10
12.9493863602
 20
5.7595109548
 11
12.9687048728
 21
5.7871489873
  0
LINE
  5
339
100
AcDbEntity
  8
0
100
AcDbLine
 62
4
  6
CONTINUOUS
 10
13.181208567
 20
5.7144562543
 11
13.1618900492
 21
5.6868182222
  0
LINE
  5
33A
100
AcDbEntity
  8
0
100
AcDbLine
 62
7
  6
CONTINUOUS
 10
12.6299793281
 20
5.5785923504
 11
12.4045810817
 21
5.3608743501
  0
LINE
  5
33B
100
AcDbEntity
  8
0
100
AcDbLine
 62
7
  6
CONTINUOUS
 10
12.5727698827
 20
5.4834701728
 11
12.3473716363
 21
5.2657521725
  0
LINE
  5
33C
100
AcDbEntity
  8
0
100
AcDbLine
 62
4
  6
CONTINUOUS
 10
14.1245099505
 20
6.826092504
 11
14.1866264687
 21
6.8860924567
  0
LINE
  5
33D
100
AcDbEntity
  8
0
100
AcDbLine
 62
4
  6
CONTINUOUS
 10
13.1618900492
 20
6.1504626359
 11
13.1232530153
 21
6.1241643475
  0
LINE
  5
33E
100
AcDbEntity
  8
0
100
AcDbLine
 62
4
  6
CONTINUOUS
 10
12.9687048728
 20
5.7871489873
 11
12.9880233993
 21
5.8002981308
  0
LINE
  5
33F
100
AcDbEntity
  8
0
100
AcDbLine
 62
4
  6
CONTINUOUS
 10
12.9493863602
 20
5.918888722
 11
13.181208567
 21
6.0187229008
  0
LINE
  5
340
100
AcDbEntity
  8
0
100
AcDbLine
 62
4
  6
CONTINUOUS
 10
14.1400390801
 20
9.4655133023
 11
14.1296863258
 21
9.4844910848
  0
LINE
  5
341
100
AcDbEntity
  8
0
100
AcDbLine
 62
4
  6
CONTINUOUS
 10
14.1762737154
 20
9.6309132658
 11
14.181450092
 21
9.621424374
  0
LINE
  5
342
100
AcDbEntity
  8
0
100
AcDbLine
 62
4
  6
CONTINUOUS
 10
14.1348627048
 20
9.7068244022
 11
14.1296863258
 21
9.7163132917
  0
LINE
  5
343
100
AcDbEntity
  8
0
100
AcDbLine
 62
4
  6
CONTINUOUS
 10
14.1607445867
 20
9.7752910457
 11
14.1710973392
 21
9.7563132614
  0
LINE
  5
344
100
AcDbEntity
  8
0
100
AcDbLine
 62
4
  6
CONTINUOUS
 10
14.1452154554
 20
9.8327354954
 11
14.1503918343
 21
9.8232466059
  0
LINE
  5
345
100
AcDbEntity
  8
0
100
AcDbLine
 62
4
  6
CONTINUOUS
 10
14.1296863258
 20
9.4844910848
 11
14.1245099505
 21
9.5084688658
  0
LINE
  5
346
100
AcDbEntity
  8
0
100
AcDbLine
 62
4
  6
CONTINUOUS
 10
14.1296863258
 20
9.7163132917
 11
14.1245099505
 21
9.7402910727
  0
LINE
  5
347
100
AcDbEntity
  8
0
100
AcDbLine
 62
4
  6
CONTINUOUS
 10
14.181450092
 20
9.621424374
 11
14.1866264687
 21
9.5974465944
  0
LINE
  5
348
100
AcDbEntity
  8
0
100
AcDbLine
 62
4
  6
CONTINUOUS
 10
14.1503918343
 20
9.8232466059
 11
14.1607445867
 21
9.7752910457
  0
LINE
  5
349
100
AcDbEntity
  8
0
100
AcDbLine
 62
4
  6
CONTINUOUS
 10
14.1296863258
 20
6.6427369558
 11
14.1348627048
 21
6.6622258422
  0
LINE
  5
34A
100
AcDbEntity
  8
0
100
AcDbLine
 62
4
  6
CONTINUOUS
 10
14.181450092
 20
6.6058035898
 11
14.1710973392
 21
6.566825822
  0
LINE
  5
34B
100
AcDbEntity
  8
0
100
AcDbLine
 62
4
  6
CONTINUOUS
 10
14.1710973392
 20
6.566825822
 11
14.1555682096
 21
6.5373369459
  0
LINE
  5
34C
100
AcDbEntity
  8
0
100
AcDbLine
 62
4
  6
CONTINUOUS
 10
13.1618900492
 20
5.6868182222
 11
13.1232530153
 21
5.6605199337
  0
LINE
  5
34D
100
AcDbEntity
  8
0
100
AcDbLine
 62
7
  6
CONTINUOUS
 10
15.1571970868
 20
11.9133219197
 11
8.3957159022
 21
12.3822322324
  0
LINE
  5
34E
100
AcDbEntity
  8
0
100
AcDbLine
 62
7
  6
CONTINUOUS
 10
15.1571970868
 20
6.1177666185
 11
15.1571970868
 21
11.9133219197
  0
LINE
  5
34F
100
AcDbEntity
  8
0
100
AcDbLine
 62
7
  6
CONTINUOUS
 10
15.1571970868
 20
6.1177666185
 11
13.6042840978
 21
4.6177677676
  0
ARC
  5
350
100
AcDbEntity
  8
0
100
AcDbCircle
 62
7
  6
CONTINUOUS
 10
9.5266150211
 20
6.1242911352
 40
1.0326887078
100
AcDbArc
 50
25.7640228377
 51
32.3073428428
  0
ARC
  5
351
100
AcDbEntity
  8
0
100
AcDbCircle
 62
7
  6
CONTINUOUS
 10
9.4708466661
 20
6.0777017417
 40
1.0326887078
100
AcDbArc
 50
205.7640228377
 51
212.3073428428
  0
ARC
  5
352
100
AcDbEntity
  8
0
100
AcDbCircle
 62
7
  6
CONTINUOUS
 10
9.3012167747
 20
5.9065731349
 40
1.0326887078
100
AcDbArc
 50
25.7640228377
 51
32.3073428428
  0
ARC
  5
353
100
AcDbEntity
  8
0
100
AcDbCircle
 62
7
  6
CONTINUOUS
 10
9.4524309619
 20
6.003612593
 40
0.9584534212
100
AcDbArc
 50
262.590107291
 51
266.0275106487
  0
ARC
  5
354
100
AcDbEntity
  8
0
100
AcDbCircle
 62
7
  6
CONTINUOUS
 10
9.3196324789
 20
5.9806622836
 40
0.9584534212
100
AcDbArc
 50
82.590107291
 51
86.0275106487
  0
ARC
  5
355
100
AcDbEntity
  8
0
100
AcDbCircle
 62
7
  6
CONTINUOUS
 10
9.5452276662
 20
6.2003564515
 40
0.9564683598
100
AcDbArc
 50
82.5865392113
 51
86.0310787285
  0
ARC
  5
356
100
AcDbEntity
  8
0
100
AcDbCircle
 62
7
  6
CONTINUOUS
 10
9.5459155136
 20
6.2102740503
 40
0.9465269363
100
AcDbArc
 50
86.0310634489
 51
89.4972694561
  0
ARC
  5
357
100
AcDbEntity
  8
0
100
AcDbCircle
 62
7
  6
CONTINUOUS
 10
9.4515461736
 20
5.9917188265
 40
0.9465269363
100
AcDbArc
 50
266.0310634489
 51
269.4972694561
  0
ARC
  5
358
100
AcDbEntity
  8
0
100
AcDbCircle
 62
7
  6
CONTINUOUS
 10
9.3205172672
 20
5.9925560501
 40
0.9465269363
100
AcDbArc
 50
86.0310634489
 51
89.4972694561
  0
ARC
  5
359
100
AcDbEntity
  8
0
100
AcDbCircle
 62
7
  6
CONTINUOUS
 10
9.6903563132
 20
6.1254192408
 40
0.8626121738
100
AcDbArc
 50
325.2870362755
 51
332.6649360488
  0
ARC
  5
35A
100
AcDbEntity
  8
0
100
AcDbCircle
 62
7
  6
CONTINUOUS
 10
9.307105374
 20
6.076573636
 40
0.8626121738
100
AcDbArc
 50
145.2870362755
 51
152.6649360488
  0
ARC
  5
35B
100
AcDbEntity
  8
0
100
AcDbCircle
 62
7
  6
CONTINUOUS
 10
9.4649580669
 20
5.9077012406
 40
0.8626121738
100
AcDbArc
 50
325.2870362755
 51
332.6649360488
  0
ARC
  5
35C
100
AcDbEntity
  8
0
100
AcDbCircle
 62
7
  6
CONTINUOUS
 10
9.8217132991
 20
6.2761041727
 40
0.756825618
100
AcDbArc
 50
329.2842157959
 51
331.973240189
  0
ARC
  5
35D
100
AcDbEntity
  8
0
100
AcDbCircle
 62
7
  6
CONTINUOUS
 10
9.8218481316
 20
6.2762758945
 40
0.7568243095
100
AcDbArc
 50
329.2722737638
 51
331.7503052801
  0
ARC
  5
35E
100
AcDbEntity
  8
0
100
AcDbCircle
 62
7
  6
CONTINUOUS
 10
9.6846067187
 20
6.4183288604
 40
0.7561352939
100
AcDbArc
 50
116.6853061558
 51
118.1827005096
  0
ARC
  5
35F
100
AcDbEntity
  8
0
100
AcDbCircle
 62
7
  6
CONTINUOUS
 10
9.6828619433
 20
6.4215005268
 40
0.7525156114
100
AcDbArc
 50
118.1796552429
 51
121.8992985452
  0
ARC
  5
360
100
AcDbEntity
  8
0
100
AcDbCircle
 62
7
  6
CONTINUOUS
 10
9.6814733705
 20
6.424252359
 40
0.7494678609
100
AcDbArc
 50
116.458241985
 51
132.4326525149
  0
ARC
  5
361
100
AcDbEntity
  8
0
100
AcDbCircle
 62
7
  6
CONTINUOUS
 10
9.6810883025
 20
6.4243616318
 40
0.7491493543
100
AcDbArc
 50
121.8997655024
 51
124.6287569167
  0
ARC
  5
362
100
AcDbEntity
  8
0
100
AcDbCircle
 62
7
  6
CONTINUOUS
 10
9.6797113115
 20
6.4263214607
 40
0.7467542225
100
AcDbArc
 50
124.6272705245
 51
128.0643911905
  0
ARC
  5
363
100
AcDbEntity
  8
0
100
AcDbCircle
 62
7
  6
CONTINUOUS
 10
9.6786355205
 20
6.427702811
 40
0.7450033846
100
AcDbArc
 50
128.0647508725
 51
132.4742048099
  0
ARC
  5
364
100
AcDbEntity
  8
0
100
AcDbCircle
 62
7
  6
CONTINUOUS
 10
9.5266150211
 20
9.0220687857
 40
1.0326887078
100
AcDbArc
 50
25.7640228377
 51
32.3073428428
  0
ARC
  5
365
100
AcDbEntity
  8
0
100
AcDbCircle
 62
7
  6
CONTINUOUS
 10
9.4708466661
 20
8.9754793922
 40
1.0326887078
100
AcDbArc
 50
205.7640228377
 51
212.3073428428
  0
ARC
  5
366
100
AcDbEntity
  8
0
100
AcDbCircle
 62
7
  6
CONTINUOUS
 10
9.3012167747
 20
8.8043507855
 40
1.0326887078
100
AcDbArc
 50
25.7640228377
 51
32.3073428428
  0
ARC
  5
367
100
AcDbEntity
  8
0
100
AcDbCircle
 62
7
  6
CONTINUOUS
 10
9.4524309619
 20
8.9013902436
 40
0.9584534213
100
AcDbArc
 50
262.590107291
 51
266.0275106487
  0
ARC
  5
368
100
AcDbEntity
  8
0
100
AcDbCircle
 62
7
  6
CONTINUOUS
 10
9.3196324789
 20
8.8784399341
 40
0.9584534212
100
AcDbArc
 50
82.590107291
 51
86.0275106487
  0
ARC
  5
369
100
AcDbEntity
  8
0
100
AcDbCircle
 62
7
  6
CONTINUOUS
 10
9.5452276662
 20
9.0981341021
 40
0.9564683598
100
AcDbArc
 50
82.5865392113
 51
86.0310787285
  0
ARC
  5
36A
100
AcDbEntity
  8
0
100
AcDbCircle
 62
7
  6
CONTINUOUS
 10
9.5459155136
 20
9.1080517009
 40
0.9465269363
100
AcDbArc
 50
86.0310634489
 51
89.4972694561
  0
ARC
  5
36B
100
AcDbEntity
  8
0
100
AcDbCircle
 62
7
  6
CONTINUOUS
 10
9.4515461736
 20
8.8894964771
 40
0.9465269363
100
AcDbArc
 50
266.0310634489
 51
269.4972694561
  0
ARC
  5
36C
100
AcDbEntity
  8
0
100
AcDbCircle
 62
7
  6
CONTINUOUS
 10
9.3205172672
 20
8.8903337006
 40
0.9465269363
100
AcDbArc
 50
86.0310634489
 51
89.4972694561
  0
ARC
  5
36D
100
AcDbEntity
  8
0
100
AcDbCircle
 62
7
  6
CONTINUOUS
 10
9.6903563132
 20
9.0231968914
 40
0.8626121738
100
AcDbArc
 50
325.2870362755
 51
332.6649360488
  0
ARC
  5
36E
100
AcDbEntity
  8
0
100
AcDbCircle
 62
7
  6
CONTINUOUS
 10
9.307105374
 20
8.9743512866
 40
0.8626121738
100
AcDbArc
 50
145.2870362755
 51
152.6649360488
  0
ARC
  5
36F
100
AcDbEntity
  8
0
100
AcDbCircle
 62
7
  6
CONTINUOUS
 10
9.4649580669
 20
8.8054788911
 40
0.8626121738
100
AcDbArc
 50
325.2870362755
 51
332.6649360488
  0
ARC
  5
370
100
AcDbEntity
  8
0
100
AcDbCircle
 62
7
  6
CONTINUOUS
 10
9.8217132991
 20
9.1738818233
 40
0.756825618
100
AcDbArc
 50
329.2842157959
 51
331.9732401889
  0
ARC
  5
371
100
AcDbEntity
  8
0
100
AcDbCircle
 62
7
  6
CONTINUOUS
 10
9.8218481316
 20
9.1740535451
 40
0.7568243095
100
AcDbArc
 50
329.2722737638
 51
331.7503052801
  0
ARC
  5
372
100
AcDbEntity
  8
0
100
AcDbCircle
 62
7
  6
CONTINUOUS
 10
9.6846067187
 20
9.316106511
 40
0.7561352939
100
AcDbArc
 50
116.6853061557
 51
118.1827005096
  0
ARC
  5
373
100
AcDbEntity
  8
0
100
AcDbCircle
 62
7
  6
CONTINUOUS
 10
9.6828619433
 20
9.3192781774
 40
0.7525156114
100
AcDbArc
 50
118.1796552429
 51
121.8992985452
  0
ARC
  5
374
100
AcDbEntity
  8
0
100
AcDbCircle
 62
7
  6
CONTINUOUS
 10
9.6814733705
 20
9.3220300096
 40
0.7494678609
100
AcDbArc
 50
116.458241985
 51
132.4326525149
  0
ARC
  5
375
100
AcDbEntity
  8
0
100
AcDbCircle
 62
7
  6
CONTINUOUS
 10
9.6810883025
 20
9.3221392824
 40
0.7491493544
100
AcDbArc
 50
121.8997655024
 51
124.6287569167
  0
ARC
  5
376
100
AcDbEntity
  8
0
100
AcDbCircle
 62
7
  6
CONTINUOUS
 10
9.6797113115
 20
9.3240991113
 40
0.7467542225
100
AcDbArc
 50
124.6272705244
 51
128.0643911905
  0
ARC
  5
377
100
AcDbEntity
  8
0
100
AcDbCircle
 62
7
  6
CONTINUOUS
 10
9.6786355205
 20
9.3254804615
 40
0.7450033846
100
AcDbArc
 50
128.0647508725
 51
132.4742048099
  0
ARC
  5
378
100
AcDbEntity
  8
0
100
AcDbCircle
 62
7
  6
CONTINUOUS
 10
11.699948259
 20
5.9735699632
 40
1.0326887078
100
AcDbArc
 50
25.7640228377
 51
32.3073428428
  0
ARC
  5
379
100
AcDbEntity
  8
0
100
AcDbCircle
 62
7
  6
CONTINUOUS
 10
11.6441799041
 20
5.9269805697
 40
1.0326887078
100
AcDbArc
 50
205.7640228377
 51
212.3073428428
  0
ARC
  5
37A
100
AcDbEntity
  8
0
100
AcDbCircle
 62
7
  6
CONTINUOUS
 10
11.4745500126
 20
5.7558519629
 40
1.0326887078
100
AcDbArc
 50
25.7640228377
 51
32.3073428428
  0
ARC
  5
37B
100
AcDbEntity
  8
0
100
AcDbCircle
 62
7
  6
CONTINUOUS
 10
11.6257641999
 20
5.852891421
 40
0.9584534212
100
AcDbArc
 50
262.590107291
 51
266.0275106487
  0
ARC
  5
37C
100
AcDbEntity
  8
0
100
AcDbCircle
 62
7
  6
CONTINUOUS
 10
11.4929657168
 20
5.8299411116
 40
0.9584534212
100
AcDbArc
 50
82.590107291
 51
86.0275106487
  0
ARC
  5
37D
100
AcDbEntity
  8
0
100
AcDbCircle
 62
7
  6
CONTINUOUS
 10
11.7185609041
 20
6.0496352795
 40
0.9564683598
100
AcDbArc
 50
82.5865392113
 51
86.0310787284
  0
ARC
  5
37E
100
AcDbEntity
  8
0
100
AcDbCircle
 62
7
  6
CONTINUOUS
 10
11.7192487515
 20
6.0595528784
 40
0.9465269363
100
AcDbArc
 50
86.0310634489
 51
89.4972694561
  0
ARC
  5
37F
100
AcDbEntity
  8
0
100
AcDbCircle
 62
7
  6
CONTINUOUS
 10
11.6248794116
 20
5.8409976545
 40
0.9465269363
100
AcDbArc
 50
266.0310634489
 51
269.4972694561
  0
ARC
  5
380
100
AcDbEntity
  8
0
100
AcDbCircle
 62
7
  6
CONTINUOUS
 10
11.4938505051
 20
5.8418348781
 40
0.9465269363
100
AcDbArc
 50
86.0310634489
 51
89.4972694561
  0
ARC
  5
381
100
AcDbEntity
  8
0
100
AcDbCircle
 62
7
  6
CONTINUOUS
 10
11.8636895512
 20
5.9746980689
 40
0.8626121738
100
AcDbArc
 50
325.2870362755
 51
332.6649360488
  0
ARC
  5
382
100
AcDbEntity
  8
0
100
AcDbCircle
 62
7
  6
CONTINUOUS
 10
11.4804386119
 20
5.925852464
 40
0.8626121738
100
AcDbArc
 50
145.2870362755
 51
152.6649360488
  0
ARC
  5
383
100
AcDbEntity
  8
0
100
AcDbCircle
 62
7
  6
CONTINUOUS
 10
11.6382913048
 20
5.7569800686
 40
0.8626121738
100
AcDbArc
 50
325.2870362755
 51
332.6649360488
  0
ARC
  5
384
100
AcDbEntity
  8
0
100
AcDbCircle
 62
7
  6
CONTINUOUS
 10
11.8348250187
 20
6.1619210295
 40
0.8288161989
100
AcDbArc
 50
86.0323821428
 51
88.2163836344
  0
ARC
  5
385
100
AcDbEntity
  8
0
100
AcDbCircle
 62
7
  6
CONTINUOUS
 10
11.8452997297
 20
6.1740079942
 40
0.8267257901
100
AcDbArc
 50
86.0308063163
 51
90.2302411027
  0
ARC
  5
386
100
AcDbEntity
  8
0
100
AcDbCircle
 62
7
  6
CONTINUOUS
 10
11.845364417
 20
6.1832736663
 40
0.8174604591
100
AcDbArc
 50
90.2373847057
 51
91.5303555387
  0
ARC
  5
387
100
AcDbEntity
  8
0
100
AcDbCircle
 62
7
  6
CONTINUOUS
 10
11.9952496208
 20
6.1252678485
 40
0.7565922608
100
AcDbArc
 50
329.2522496612
 51
331.7710823905
  0
ARC
  5
388
100
AcDbEntity
  8
0
100
AcDbCircle
 62
7
  6
CONTINUOUS
 10
11.9959978355
 20
6.125082719
 40
0.755881446
100
AcDbArc
 50
329.2278705086
 51
330.5722035245
  0
ARC
  5
389
100
AcDbEntity
  8
0
100
AcDbCircle
 62
7
  6
CONTINUOUS
 10
11.8545427931
 20
6.2736980742
 40
0.7491688717
100
AcDbArc
 50
115.4568154934
 51
132.5392488346
  0
ARC
  5
38A
100
AcDbEntity
  8
0
100
AcDbCircle
 62
7
  6
CONTINUOUS
 10
11.8543876038
 20
6.2740868811
 40
0.7487740819
100
AcDbArc
 50
117.9862680632
 51
132.4728303233
  0
ARC
  5
38B
100
AcDbEntity
  8
0
100
AcDbCircle
 62
7
  6
CONTINUOUS
 10
11.699948259
 20
8.8713476138
 40
1.0326887078
100
AcDbArc
 50
25.7640228377
 51
32.3073428428
  0
ARC
  5
38C
100
AcDbEntity
  8
0
100
AcDbCircle
 62
7
  6
CONTINUOUS
 10
11.6441799041
 20
8.8247582203
 40
1.0326887078
100
AcDbArc
 50
205.7640228377
 51
212.3073428428
  0
ARC
  5
38D
100
AcDbEntity
  8
0
100
AcDbCircle
 62
7
  6
CONTINUOUS
 10
11.4745500126
 20
8.6536296135
 40
1.0326887078
100
AcDbArc
 50
25.7640228377
 51
32.3073428428
  0
ARC
  5
38E
100
AcDbEntity
  8
0
100
AcDbCircle
 62
7
  6
CONTINUOUS
 10
11.6257641998
 20
8.7506690716
 40
0.9584534212
100
AcDbArc
 50
262.590107291
 51
266.0275106487
  0
ARC
  5
38F
100
AcDbEntity
  8
0
100
AcDbCircle
 62
7
  6
CONTINUOUS
 10
11.4929657168
 20
8.7277187622
 40
0.9584534213
100
AcDbArc
 50
82.590107291
 51
86.0275106487
  0
ARC
  5
390
100
AcDbEntity
  8
0
100
AcDbCircle
 62
7
  6
CONTINUOUS
 10
11.7185609041
 20
8.9474129301
 40
0.9564683598
100
AcDbArc
 50
82.5865392113
 51
86.0310787284
  0
ARC
  5
391
100
AcDbEntity
  8
0
100
AcDbCircle
 62
7
  6
CONTINUOUS
 10
11.7192487515
 20
8.9573305289
 40
0.9465269363
100
AcDbArc
 50
86.0310634489
 51
89.4972694561
  0
ARC
  5
392
100
AcDbEntity
  8
0
100
AcDbCircle
 62
7
  6
CONTINUOUS
 10
11.6248794116
 20
8.7387753051
 40
0.9465269363
100
AcDbArc
 50
266.0310634489
 51
269.4972694561
  0
ARC
  5
393
100
AcDbEntity
  8
0
100
AcDbCircle
 62
7
  6
CONTINUOUS
 10
11.4938505051
 20
8.7396125287
 40
0.9465269363
100
AcDbArc
 50
86.0310634489
 51
89.4972694561
  0
ARC
  5
394
100
AcDbEntity
  8
0
100
AcDbCircle
 62
7
  6
CONTINUOUS
 10
11.8636895512
 20
8.8724757194
 40
0.8626121738
100
AcDbArc
 50
325.2870362755
 51
332.6649360488
  0
ARC
  5
395
100
AcDbEntity
  8
0
100
AcDbCircle
 62
7
  6
CONTINUOUS
 10
11.4804386119
 20
8.8236301146
 40
0.8626121738
100
AcDbArc
 50
145.2870362755
 51
152.6649360488
  0
ARC
  5
396
100
AcDbEntity
  8
0
100
AcDbCircle
 62
7
  6
CONTINUOUS
 10
11.6382913048
 20
8.6547577192
 40
0.8626121738
100
AcDbArc
 50
325.2870362755
 51
332.6649360488
  0
ARC
  5
397
100
AcDbEntity
  8
0
100
AcDbCircle
 62
7
  6
CONTINUOUS
 10
11.8348250187
 20
9.0596986801
 40
0.8288161989
100
AcDbArc
 50
86.0323821428
 51
88.2163836344
  0
ARC
  5
398
100
AcDbEntity
  8
0
100
AcDbCircle
 62
7
  6
CONTINUOUS
 10
11.8452997297
 20
9.0717856448
 40
0.8267257901
100
AcDbArc
 50
86.0308063163
 51
90.2302411027
  0
ARC
  5
399
100
AcDbEntity
  8
0
100
AcDbCircle
 62
7
  6
CONTINUOUS
 10
11.845364417
 20
9.0810513169
 40
0.8174604591
100
AcDbArc
 50
90.2373847057
 51
91.5303555387
  0
ARC
  5
39A
100
AcDbEntity
  8
0
100
AcDbCircle
 62
7
  6
CONTINUOUS
 10
11.9952496208
 20
9.023045499
 40
0.7565922608
100
AcDbArc
 50
329.2522496612
 51
331.7710823905
  0
ARC
  5
39B
100
AcDbEntity
  8
0
100
AcDbCircle
 62
7
  6
CONTINUOUS
 10
11.9959978356
 20
9.0228603695
 40
0.755881446
100
AcDbArc
 50
329.2278705086
 51
330.5722035245
  0
ARC
  5
39C
100
AcDbEntity
  8
0
100
AcDbCircle
 62
7
  6
CONTINUOUS
 10
11.8545427931
 20
9.1714757247
 40
0.7491688717
100
AcDbArc
 50
115.4568154905
 51
132.5392488317
  0
ARC
  5
39D
100
AcDbEntity
  8
0
100
AcDbCircle
 62
7
  6
CONTINUOUS
 10
11.8543876038
 20
9.1718645317
 40
0.7487740819
100
AcDbArc
 50
117.9862680632
 51
132.4728303233
  0
SPLINE
  5
39E
100
AcDbEntity
  8
0
100
AcDbSpline
 62
7
  6
CONTINUOUS
 70
0
 71
3
 72
20
 73
16
 74
0
 42
0.0000001
 43
0.0000001
 44
0.0000000001
 40
0.0
 40
0.0
 40
0.0
 40
0.0
 40
0.1328004115
 40
0.2663282989
 40
0.3994288484
 40
0.4652765799
 40
0.530307737
 40
0.5942626159
 40
0.6569131493
 40
0.7180845183
 40
0.777666975
 40
0.8356165293
 40
0.89194577
 40
0.9467129545
 40
1.0
 40
1.0
 40
1.0
 40
1.0
 10
10.4566460902
 20
5.7293135224
 30
0.0
 10
10.4606408063
 20
5.7665516547
 30
0.0
 10
10.4679799973
 20
5.8413067993
 30
0.0
 10
10.4765034047
 20
5.9536393788
 30
0.0
 10
10.4810885773
 20
6.0473056864
 30
0.0
 10
10.4829738581
 20
6.1217309961
 30
0.0
 10
10.4834534225
 20
6.1766777833
 30
0.0
 10
10.482989524
 20
6.2307230585
 30
0.0
 10
10.4815949257
 20
6.2836635001
 30
0.0
 10
10.4793072422
 20
6.3353385306
 30
0.0
 10
10.4761839404
 20
6.3856414068
 30
0.0
 10
10.4722955643
 20
6.4345209556
 30
0.0
 10
10.4677187195
 20
6.4819765197
 30
0.0
 10
10.4625301143
 20
6.5280457539
 30
0.0
 10
10.4586612541
 20
6.5582734285
 30
0.0
 10
10.4566460902
 20
6.5731654803
 30
0.0
  0
SPLINE
  5
39F
100
AcDbEntity
  8
0
100
AcDbSpline
 62
7
  6
CONTINUOUS
 70
0
 71
3
 72
22
 73
18
 74
0
 42
0.0000001
 43
0.0000001
 44
0.0000000001
 40
0.0
 40
0.0
 40
0.0
 40
0.0
 40
0.0578967657
 40
0.1168069543
 40
0.1767552214
 40
0.2377418336
 40
0.2997235166
 40
0.3626077374
 40
0.4262490722
 40
0.4904549483
 40
0.5550006938
 40
0.619651431
 40
0.684185502
 40
0.7484135876
 40
0.8121898087
 40
0.87541344
 40
1.0
 40
1.0
 40
1.0
 40
1.0
 10
10.3994366448
 20
6.6762226349
 30
0.0
 10
10.3869296897
 20
6.6875449531
 30
0.0
 10
10.3615167112
 20
6.7101898195
 30
0.0
 10
10.3224863515
 20
6.7438002916
 30
0.0
 10
10.2821549045
 20
6.7772671582
 30
0.0
 10
10.2404761771
 20
6.8104966927
 30
0.0
 10
10.1974367681
 20
6.8433739797
 30
0.0
 10
10.1530680378
 20
6.8757646732
 30
0.0
 10
10.1074518865
 20
6.9075225942
 30
0.0
 10
10.0607205738
 20
6.938500825
 30
0.0
 10
10.0130483127
 20
6.9685654497
 30
0.0
 10
9.9646357274
 20
6.9976086509
 30
0.0
 10
9.9156905206
 20
7.0255580151
 30
0.0
 10
9.8664090961
 20
7.0523800387
 30
0.0
 10
9.8169626481
 20
7.0780780922
 30
0.0
 10
9.751321406
 20
7.1107281404
 30
0.0
 10
9.7017341045
 20
7.1339068852
 30
0.0
 10
9.6686394122
 20
7.148829574
 30
0.0
  0
SPLINE
  5
3A0
100
AcDbEntity
  8
0
100
AcDbSpline
 62
7
  6
CONTINUOUS
 70
0
 71
3
 72
15
 73
11
 74
0
 42
0.0000001
 43
0.0000001
 44
0.0000000001
 40
0.0
 40
0.0
 40
0.0
 40
0.0
 40
0.1024584527
 40
0.2125880165
 40
0.3308751456
 40
0.4568384937
 40
0.5888694915
 40
0.7247080792
 40
0.8622415245
 40
1.0
 40
1.0
 40
1.0
 40
1.0
 10
9.5542205214
 20
7.1567645511
 30
0.0
 10
9.5285336897
 20
7.1456017582
 30
0.0
 10
9.4753991195
 20
7.1220648611
 30
0.0
 10
9.3932527553
 20
7.0842081401
 30
0.0
 10
9.3059127524
 20
7.042296369
 30
0.0
 10
9.2138769373
 20
6.9963608769
 30
0.0
 10
9.1182575321
 20
6.9468885311
 30
0.0
 10
9.0204898885
 20
6.894707214
 30
0.0
 10
8.9219157043
 20
6.8407275901
 30
0.0
 10
8.8562287737
 20
6.8040086243
 30
0.0
 10
8.8234232888
 20
6.7855195324
 30
0.0
  0
SPLINE
  5
3A1
100
AcDbEntity
  8
0
100
AcDbSpline
 62
7
  6
CONTINUOUS
 70
0
 71
3
 72
19
 73
15
 74
0
 42
0.0000001
 43
0.0000001
 44
0.0000000001
 40
0.0
 40
0.0
 40
0.0
 40
0.0
 40
0.1307115674
 40
0.2609268752
 40
0.3901025973
 40
0.4540950503
 40
0.5175739859
 40
0.580457627
 40
0.6426741367
 40
0.7041661724
 40
0.764894827
 40
0.8248387715
 40
0.8839940512
 40
1.0
 40
1.0
 40
1.0
 40
1.0
 10
8.540815597
 20
6.4726793545
 30
0.0
 10
8.5384370566
 20
6.4359575313
 30
0.0
 10
8.534122523
 20
6.3626241016
 30
0.0
 10
8.5292198783
 20
6.2529053851
 30
0.0
 10
8.5266485814
 20
6.1618955001
 30
0.0
 10
8.5256054636
 20
6.0896491443
 30
0.0
 10
8.5253423824
 20
6.0360589362
 30
0.0
 10
8.5256005554
 20
5.9829686958
 30
0.0
 10
8.5263759396
 20
5.9304429058
 30
0.0
 10
8.5276557567
 20
5.8785338753
 30
0.0
 10
8.5294193296
 20
5.8272792484
 30
0.0
 10
8.5316407189
 20
5.7767009056
 30
0.0
 10
8.5351495414
 20
5.7106049786
 30
0.0
 10
8.5384042753
 20
5.6613970084
 30
0.0
 10
8.540815597
 20
5.6288273966
 30
0.0
  0
SPLINE
  5
3A2
100
AcDbEntity
  8
0
100
AcDbSpline
 62
7
  6
CONTINUOUS
 70
0
 71
3
 72
21
 73
17
 74
0
 42
0.0000001
 43
0.0000001
 44
0.0000000001
 40
0.0
 40
0.0
 40
0.0
 40
0.0
 40
0.1211301163
 40
0.1823712755
 40
0.2440509723
 40
0.306143678
 40
0.3686104373
 40
0.4313997375
 40
0.4944481226
 40
0.5576847246
 40
0.6210354942
 40
0.6844273845
 40
0.7477936645
 40
0.8110760547
 40
0.8742266982
 40
1.0
 40
1.0
 40
1.0
 40
1.0
 10
8.5980250425
 20
5.5257702419
 30
0.0
 10
8.6256864104
 20
5.504014107
 30
0.0
 10
8.6676388162
 20
5.4716437096
 30
0.0
 10
8.7244555832
 20
5.4292239328
 30
0.0
 10
8.7678876232
 20
5.3975523299
 30
0.0
 10
8.8119816102
 20
5.3661905123
 30
0.0
 10
8.8567231059
 20
5.3351897657
 30
0.0
 10
8.9020833776
 20
5.3046021192
 30
0.0
 10
8.9480193585
 20
5.2744762113
 30
0.0
 10
8.9944756352
 20
5.2448544951
 30
0.0
 10
9.0413884249
 20
5.215771459
 30
0.0
 10
9.0886890115
 20
5.1872506198
 30
0.0
 10
9.1363076642
 20
5.1593035566
 30
0.0
 10
9.1841781289
 20
5.1319310893
 30
0.0
 10
9.2481714243
 20
5.0962372784
 30
0.0
 10
9.2965028381
 20
5.0702132842
 30
0.0
 10
9.328822275
 20
5.0531633028
 30
0.0
  0
SPLINE
  5
3A3
100
AcDbEntity
  8
0
100
AcDbSpline
 62
7
  6
CONTINUOUS
 70
0
 71
3
 72
15
 73
11
 74
0
 42
0.0000001
 43
0.0000001
 44
0.0000000001
 40
0.0
 40
0.0
 40
0.0
 40
0.0
 40
0.1128124416
 40
0.2295614621
 40
0.3503736449
 40
0.4750619961
 40
0.6031117921
 40
0.7337880193
 40
0.866309584
 40
1.0
 40
1.0
 40
1.0
 40
1.0
 10
9.4432411658
 20
5.0452283258
 30
0.0
 10
9.4711598037
 20
5.0583025504
 30
0.0
 10
9.5278774609
 20
5.085108226
 30
0.0
 10
9.6141255375
 20
5.1266884379
 30
0.0
 10
9.7029384312
 20
5.1704143197
 30
0.0
 10
9.794136811
 20
5.2162782004
 30
0.0
 10
9.8873527481
 20
5.2641217741
 30
0.0
 10
9.9820992585
 20
5.3136639578
 30
0.0
 10
10.0778727481
 20
5.3645628578
 30
0.0
 10
10.1419169139
 20
5.3990687823
 30
0.0
 10
10.1740383984
 20
5.4164733445
 30
0.0
  0
SPLINE
  5
3A4
100
AcDbEntity
  8
0
100
AcDbSpline
 62
7
  6
CONTINUOUS
 70
0
 71
3
 72
64
 73
60
 74
0
 42
0.0000001
 43
0.0000001
 44
0.0000000001
 40
0.0
 40
0.0
 40
0.0
 40
0.0
 40
0.0311830674
 40
0.0467008478
 40
0.0621656035
 40
0.077580314
 40
0.0929469982
 40
0.1082676194
 40
0.1235450534
 40
0.1387827119
 40
0.1539843784
 40
0.169154114
 40
0.1842963866
 40
0.1994159176
 40
0.2145177079
 40
0.2296068972
 40
0.2446888078
 40
0.2597688009
 40
0.2748522991
 40
0.289944644
 40
0.3050511237
 40
0.320176829
 40
0.3353266945
 40
0.3505053557
 40
0.3657171944
 40
0.3809661934
 40
0.3962560015
 40
0.4115897884
 40
0.4269703324
 40
0.4423998859
 40
0.4578802676
 40
0.4734127351
 40
0.4889980873
 40
0.5046365524
 40
0.5203278953
 40
0.5360713376
 40
0.551865648
 40
0.5677090891
 40
0.5835994915
 40
0.5995342345
 40
0.6155103003
 40
0.6315243016
 40
0.6475725053
 40
0.6636508895
 40
0.6797551433
 40
0.6958807523
 40
0.7120229781
 40
0.7281769781
 40
0.7443377676
 40
0.7605003478
 40
0.7766596612
 40
0.7928107186
 40
0.8089485556
 40
0.841156923
 40
0.8732567742
 40
0.9052155383
 40
0.9370054028
 40
0.968605258
 40
1.0
 40
1.0
 40
1.0
 40
1.0
 10
9.368399084
 20
6.8058018782
 30
0.0
 10
9.3413178585
 20
6.8076799676
 30
0.0
 10
9.3005844003
 20
6.8085171434
 30
0.0
 10
9.2465297893
 20
6.8056025031
 30
0.0
 10
9.2063376942
 20
6.801419615
 30
0.0
 10
9.1665378426
 20
6.7952448382
 30
0.0
 10
9.127222436
 20
6.7870953174
 30
0.0
 10
9.0884877299
 20
6.7769879322
 30
0.0
 10
9.0504267621
 20
6.7649491192
 30
0.0
 10
9.013131802
 20
6.7510060314
 30
0.0
 10
8.9766920886
 20
6.7351938946
 30
0.0
 10
8.9411961524
 20
6.7175492287
 30
0.0
 10
8.9067290597
 20
6.6981157793
 30
0.0
 10
8.873374481
 20
6.6769393522
 30
0.0
 10
8.8412124277
 20
6.6540717672
 30
0.0
 10
8.8103208444
 20
6.6295675931
 30
0.0
 10
8.7807740465
 20
6.6034862453
 30
0.0
 10
8.7526433614
 20
6.575890501
 30
0.0
 10
8.7259967554
 20
6.5468468547
 30
0.0
 10
8.7008981758
 20
6.5164256039
 30
0.0
 10
8.6774086675
 20
6.4846997598
 30
0.0
 10
8.655584102
 20
6.4517463772
 30
0.0
 10
8.6354780552
 20
6.417644355
 30
0.0
 10
8.6171377436
 20
6.3824766315
 30
0.0
 10
8.6006087661
 20
6.3463273261
 30
0.0
 10
8.585929239
 20
6.3092843467
 30
0.0
 10
8.5731363495
 20
6.2714363265
 30
0.0
 10
8.5622587728
 20
6.2328751997
 30
0.0
 10
8.5533248891
 20
6.1936933387
 30
0.0
 10
8.5463537266
 20
6.1539857083
 30
0.0
 10
8.541364509
 20
6.1138475919
 30
0.0
 10
8.5383665362
 20
6.0733760068
 30
0.0
 10
8.5373696156
 20
6.0326682906
 30
0.0
 10
8.5383733352
 20
5.99182256
 30
0.0
 10
8.5413778853
 20
5.950937287
 30
0.0
 10
8.546373279
 20
5.9101107306
 30
0.0
 10
8.5533499729
 20
5.8694415207
 30
0.0
 10
8.5622886175
 20
5.8290271481
 30
0.0
 10
8.5731699471
 20
5.7889654255
 30
0.0
 10
8.5859655119
 20
5.7493522137
 30
0.0
 10
8.6006464369
 20
5.710283508
 30
0.0
 10
8.6171755177
 20
5.6718526893
 30
0.0
 10
8.6355145047
 20
5.6341529178
 30
0.0
 10
8.6556178291
 20
5.5972742795
 30
0.0
 10
8.6774382257
 20
5.5613061353
 30
0.0
 10
8.7009221926
 20
5.5263345146
 30
0.0
 10
8.7260138981
 20
5.4924440412
 30
0.0
 10
8.7526524178
 20
5.4597159467
 30
0.0
 10
8.7807739056
 20
5.4282292187
 30
0.0
 10
8.810310626
 20
5.39805954
 30
0.0
 10
8.8411911563
 20
5.3692795969
 30
0.0
 10
8.8733423883
 20
5.3419583105
 30
0.0
 10
8.9177634848
 20
5.3075905174
 30
0.0
 10
8.9760625791
 20
5.2685924775
 30
0.0
 10
9.0498277708
 20
5.2285716511
 30
0.0
 10
9.1266657139
 20
5.1957287431
 30
0.0
 10
9.2058383333
 20
5.1703831852
 30
0.0
 10
9.2865759571
 20
5.1527813082
 30
0.0
 10
9.3411340277
 20
5.1463001966
 30
0.0
 10
9.368399084
 20
5.1444093586
 30
0.0
  0
SPLINE
  5
3A5
100
AcDbEntity
  8
0
100
AcDbSpline
 62
7
  6
CONTINUOUS
 70
0
 71
3
 72
64
 73
60
 74
0
 42
0.0000001
 43
0.0000001
 44
0.0000000001
 40
0.0
 40
0.0
 40
0.0
 40
0.0
 40
0.0311830674
 40
0.0467008478
 40
0.0621656035
 40
0.077580314
 40
0.0929469982
 40
0.1082676194
 40
0.1235450534
 40
0.1387827119
 40
0.1539843784
 40
0.169154114
 40
0.1842963866
 40
0.1994159176
 40
0.2145177079
 40
0.2296068972
 40
0.2446888078
 40
0.2597688009
 40
0.2748522991
 40
0.289944644
 40
0.3050511237
 40
0.320176829
 40
0.3353266945
 40
0.3505053557
 40
0.3657171944
 40
0.3809661934
 40
0.3962560015
 40
0.4115897884
 40
0.4269703324
 40
0.4423998859
 40
0.4578802676
 40
0.4734127351
 40
0.4889980873
 40
0.5046365524
 40
0.5203278953
 40
0.5360713376
 40
0.551865648
 40
0.5677090891
 40
0.5835994915
 40
0.5995342345
 40
0.6155103003
 40
0.6315243016
 40
0.6475725053
 40
0.6636508895
 40
0.6797551433
 40
0.6958807523
 40
0.7120229781
 40
0.7281769781
 40
0.7443377676
 40
0.7605003478
 40
0.7766596612
 40
0.7928107186
 40
0.8089485556
 40
0.841156923
 40
0.8732567742
 40
0.9052155383
 40
0.9370054028
 40
0.968605258
 40
1.0
 40
1.0
 40
1.0
 40
1.0
 10
9.368399084
 20
5.1444093586
 30
0.0
 10
9.3954803095
 20
5.1425312692
 30
0.0
 10
9.4362137678
 20
5.1416940934
 30
0.0
 10
9.4902683787
 20
5.1446087337
 30
0.0
 10
9.5304604738
 20
5.1487916218
 30
0.0
 10
9.5702603254
 20
5.1549663986
 30
0.0
 10
9.6095757321
 20
5.1631159193
 30
0.0
 10
9.6483104381
 20
5.1732233046
 30
0.0
 10
9.686371406
 20
5.1852621175
 30
0.0
 10
9.723666366
 20
5.1992052054
 30
0.0
 10
9.7601060794
 20
5.2150173421
 30
0.0
 10
9.7956020156
 20
5.2326620081
 30
0.0
 10
9.8300691083
 20
5.2520954575
 30
0.0
 10
9.863423687
 20
5.2732718846
 30
0.0
 10
9.8955857403
 20
5.2961394696
 30
0.0
 10
9.9264773236
 20
5.3206436437
 30
0.0
 10
9.9560241215
 20
5.3467249915
 30
0.0
 10
9.9841548066
 20
5.3743207358
 30
0.0
 10
10.0108014127
 20
5.4033643821
 30
0.0
 10
10.0358999922
 20
5.4337856329
 30
0.0
 10
10.0593895005
 20
5.465511477
 30
0.0
 10
10.0812140661
 20
5.4984648596
 30
0.0
 10
10.1013201128
 20
5.5325668818
 30
0.0
 10
10.1196604245
 20
5.5677346053
 30
0.0
 10
10.1361894019
 20
5.6038839106
 30
0.0
 10
10.150868929
 20
5.6409268901
 30
0.0
 10
10.1636618186
 20
5.6787749103
 30
0.0
 10
10.1745393952
 20
5.7173360371
 30
0.0
 10
10.183473279
 20
5.7565178981
 30
0.0
 10
10.1904444414
 20
5.7962255285
 30
0.0
 10
10.1954336591
 20
5.8363636449
 30
0.0
 10
10.1984316319
 20
5.8768352299
 30
0.0
 10
10.1994285525
 20
5.9175429462
 30
0.0
 10
10.1984248328
 20
5.9583886767
 30
0.0
 10
10.1954202828
 20
5.9992739498
 30
0.0
 10
10.190424889
 20
6.0401005062
 30
0.0
 10
10.1834481951
 20
6.080769716
 30
0.0
 10
10.1745095505
 20
6.1211840886
 30
0.0
 10
10.163628221
 20
6.1612458113
 30
0.0
 10
10.1508326562
 20
6.2008590231
 30
0.0
 10
10.1361517312
 20
6.2399277287
 30
0.0
 10
10.1196226503
 20
6.2783585475
 30
0.0
 10
10.1012836633
 20
6.316058319
 30
0.0
 10
10.0811803389
 20
6.3529369572
 30
0.0
 10
10.0593599423
 20
6.3889051015
 30
0.0
 10
10.0358759755
 20
6.4238767222
 30
0.0
 10
10.01078427
 20
6.4577671956
 30
0.0
 10
9.9841457502
 20
6.4904952901
 30
0.0
 10
9.9560242625
 20
6.5219820181
 30
0.0
 10
9.9264875421
 20
6.5521516968
 30
0.0
 10
9.8956070118
 20
6.5809316398
 30
0.0
 10
9.8634557797
 20
6.6082529263
 30
0.0
 10
9.8190346832
 20
6.6426207194
 30
0.0
 10
9.760735589
 20
6.6816187593
 30
0.0
 10
9.6869703973
 20
6.7216395857
 30
0.0
 10
9.6101324541
 20
6.7544824937
 30
0.0
 10
9.5309598347
 20
6.7798280516
 30
0.0
 10
9.4502222109
 20
6.7974299285
 30
0.0
 10
9.3956641403
 20
6.8039110401
 30
0.0
 10
9.368399084
 20
6.8058018782
 30
0.0
  0
SPLINE
  5
3A6
100
AcDbEntity
  8
0
100
AcDbSpline
 62
7
  6
CONTINUOUS
 70
0
 71
3
 72
19
 73
15
 74
0
 42
0.0000001
 43
0.0000001
 44
0.0000000001
 40
0.0
 40
0.0
 40
0.0
 40
0.0
 40
0.1160059488
 40
0.1751612285
 40
0.235105173
 40
0.2958338276
 40
0.3573258634
 40
0.419542373
 40
0.4824260141
 40
0.5459049497
 40
0.6098974028
 40
0.7390731248
 40
0.8692884326
 40
1.0
 40
1.0
 40
1.0
 40
1.0
 10
10.2312478438
 20
5.5115955221
 30
0.0
 10
10.228836522
 20
5.5441651339
 30
0.0
 10
10.2255817881
 20
5.5933731041
 30
0.0
 10
10.2220729656
 20
5.6594690311
 30
0.0
 10
10.2198515764
 20
5.7100473739
 30
0.0
 10
10.2180880035
 20
5.7613020009
 30
0.0
 10
10.2168081863
 20
5.8132110314
 30
0.0
 10
10.2160328022
 20
5.8657368214
 30
0.0
 10
10.2157746291
 20
5.9188270618
 30
0.0
 10
10.2160377104
 20
5.9724172699
 30
0.0
 10
10.2170808281
 20
6.0446636256
 30
0.0
 10
10.219652125
 20
6.1356735106
 30
0.0
 10
10.2245547698
 20
6.2453922271
 30
0.0
 10
10.2288693034
 20
6.3187256568
 30
0.0
 10
10.2312478438
 20
6.35544748
 30
0.0
  0
SPLINE
  5
3A7
100
AcDbEntity
  8
0
100
AcDbSpline
 62
7
  6
CONTINUOUS
 70
0
 71
3
 72
21
 73
17
 74
0
 42
0.0000001
 43
0.0000001
 44
0.0000000001
 40
0.0
 40
0.0
 40
0.0
 40
0.0
 40
0.1257733018
 40
0.1889239453
 40
0.2522063355
 40
0.3155726155
 40
0.3789645059
 40
0.4423152755
 40
0.5055518774
 40
0.5686002626
 40
0.6313895627
 40
0.693856322
 40
0.7559490278
 40
0.8176287245
 40
0.8788698837
 40
1.0
 40
1.0
 40
1.0
 40
1.0
 10
10.1740383984
 20
6.4585046346
 30
0.0
 10
10.1417189615
 20
6.475554616
 30
0.0
 10
10.0933875477
 20
6.5015786102
 30
0.0
 10
10.0293942522
 20
6.5372724211
 30
0.0
 10
9.9815237876
 20
6.5646448884
 30
0.0
 10
9.9339051348
 20
6.5925919517
 30
0.0
 10
9.8866045482
 20
6.6211127908
 30
0.0
 10
9.8396917586
 20
6.6501958269
 30
0.0
 10
9.7932354818
 20
6.6798175431
 30
0.0
 10
9.747299501
 20
6.709943451
 30
0.0
 10
9.7019392293
 20
6.7405310976
 30
0.0
 10
9.6571977335
 20
6.7715318441
 30
0.0
 10
9.6131037465
 20
6.8028936617
 30
0.0
 10
9.5696717065
 20
6.8345652647
 30
0.0
 10
9.5128549396
 20
6.8769850414
 30
0.0
 10
9.4709025337
 20
6.9093554389
 30
0.0
 10
9.4432411658
 20
6.9311115738
 30
0.0
  0
SPLINE
  5
3A8
100
AcDbEntity
  8
0
100
AcDbSpline
 62
7
  6
CONTINUOUS
 70
0
 71
3
 72
15
 73
11
 74
0
 42
0.0000001
 43
0.0000001
 44
0.0000000001
 40
0.0
 40
0.0
 40
0.0
 40
0.0
 40
0.133690416
 40
0.2662119808
 40
0.3968882079
 40
0.524938004
 40
0.6496263551
 40
0.770438538
 40
0.8871875584
 40
1.0
 40
1.0
 40
1.0
 40
1.0
 10
9.328822275
 20
6.9390465508
 30
0.0
 10
9.2967007906
 20
6.9216419887
 30
0.0
 10
9.2326566247
 20
6.8871360641
 30
0.0
 10
9.1368831351
 20
6.8362371641
 30
0.0
 10
9.0421366247
 20
6.7866949804
 30
0.0
 10
8.9489206876
 20
6.7388514067
 30
0.0
 10
8.8577223078
 20
6.692987526
 30
0.0
 10
8.7689094141
 20
6.6492616442
 30
0.0
 10
8.6826613375
 20
6.6076814323
 30
0.0
 10
8.6259436804
 20
6.5808757567
 30
0.0
 10
8.5980250425
 20
6.5678015321
 30
0.0
  0
SPLINE
  5
3A9
100
AcDbEntity
  8
0
100
AcDbSpline
 62
7
  6
CONTINUOUS
 70
0
 71
3
 72
16
 73
12
 74
0
 42
0.0000001
 43
0.0000001
 44
0.0000000001
 40
0.0
 40
0.0
 40
0.0
 40
0.0
 40
0.1236450025
 40
0.1855976618
 40
0.2476386809
 40
0.3719893701
 40
0.496733349
 40
0.6218884842
 40
0.7474788994
 40
0.8735266243
 40
1.0
 40
1.0
 40
1.0
 40
1.0
 10
12.6485618384
 20
5.7788694387
 30
0.0
 10
12.6542756535
 20
5.7915081363
 30
0.0
 10
12.6623382635
 20
5.8107182062
 30
0.0
 10
12.672042212
 20
5.8367503982
 30
0.0
 10
12.6810669847
 20
5.8631101566
 30
0.0
 10
12.6910355234
 20
5.896577882
 30
0.0
 10
12.7008572789
 20
5.9374154687
 30
0.0
 10
12.7085230451
 20
5.9788538257
 30
0.0
 10
12.7140122375
 20
6.0207837259
 30
0.0
 10
12.7173087001
 20
6.0630896917
 30
0.0
 10
12.7180396502
 20
6.0914225911
 30
0.0
 10
12.7180396502
 20
6.1056101418
 30
0.0
  0
SPLINE
  5
3AA
100
AcDbEntity
  8
0
100
AcDbSpline
 62
7
  6
CONTINUOUS
 70
0
 71
3
 72
22
 73
18
 74
0
 42
0.0000001
 43
0.0000001
 44
0.0000000001
 40
0.0
 40
0.0
 40
0.0
 40
0.0
 40
0.0662627889
 40
0.1328022627
 40
0.1995323899
 40
0.2663327743
 40
0.3994321266
 40
0.4652792355
 40
0.5303098426
 40
0.5942641163
 40
0.6569139169
 40
0.7180845853
 40
0.777666605
 40
0.8356161461
 40
0.8919456067
 40
0.9467124961
 40
1.0
 40
1.0
 40
1.0
 40
1.0
 10
12.6299793281
 20
5.5785923504
 30
0.0
 10
12.6319725609
 20
5.5971729616
 30
0.0
 10
12.6357997264
 20
5.634430035
 30
0.0
 10
12.6409899992
 20
5.6904625964
 30
0.0
 10
12.6455707136
 20
5.7467008974
 30
0.0
 10
12.6507570518
 20
5.8217171383
 30
0.0
 10
12.6544218058
 20
5.8965853646
 30
0.0
 10
12.6563072094
 20
5.9710101821
 30
0.0
 10
12.6567867969
 20
6.0259567236
 30
0.0
 10
12.6563228714
 20
6.0800016853
 30
0.0
 10
12.6549282085
 20
6.1329417733
 30
0.0
 10
12.6526404783
 20
6.1846164891
 30
0.0
 10
12.6495172149
 20
6.2349192531
 30
0.0
 10
12.6456288949
 20
6.2837989469
 30
0.0
 10
12.6410520334
 20
6.3312546848
 30
0.0
 10
12.6358633692
 20
6.3773242158
 30
0.0
 10
12.6319945178
 20
6.4075520662
 30
0.0
 10
12.6299793281
 20
6.4224443083
 30
0.0
  0
SPLINE
  5
3AB
100
AcDbEntity
  8
0
100
AcDbSpline
 62
7
  6
CONTINUOUS
 70
0
 71
3
 72
22
 73
18
 74
0
 42
0.0000001
 43
0.0000001
 44
0.0000000001
 40
0.0
 40
0.0
 40
0.0
 40
0.0
 40
0.0578974882
 40
0.1168076123
 40
0.1767563582
 40
0.2377431684
 40
0.2997246356
 40
0.362608436
 40
0.4262493434
 40
0.4904549021
 40
0.5550003489
 40
0.6196506978
 40
0.6841843697
 40
0.7484122155
 40
0.8121886095
 40
0.8754127419
 40
1.0
 40
1.0
 40
1.0
 40
1.0
 10
12.5727698827
 20
6.5255014629
 30
0.0
 10
12.5602627714
 20
6.5368239225
 30
0.0
 10
12.5348496239
 20
6.5594688879
 30
0.0
 10
12.4958190336
 20
6.5930795999
 30
0.0
 10
12.455487449
 20
6.626546582
 30
0.0
 10
12.4138085622
 20
6.6597761333
 30
0.0
 10
12.3707692293
 20
6.6926533092
 30
0.0
 10
12.3264007959
 20
6.7250438835
 30
0.0
 10
12.2807849787
 20
6.7568016914
 30
0.0
 10
12.2340539426
 20
6.7877797911
 30
0.0
 10
12.1863819045
 20
6.8178442229
 30
0.0
 10
12.1379695402
 20
6.8468871787
 30
0.0
 10
12.0890245559
 20
6.8748363286
 30
0.0
 10
12.0397432704
 20
6.9016583231
 30
0.0
 10
11.9902967484
 20
6.9273565106
 30
0.0
 10
11.9246551404
 20
6.9600067234
 30
0.0
 10
11.8750675282
 20
6.9831856295
 30
0.0
 10
11.8419726501
 20
6.9981084021
 30
0.0
  0
SPLINE
  5
3AC
100
AcDbEntity
  8
0
100
AcDbSpline
 62
7
  6
CONTINUOUS
 70
0
 71
3
 72
15
 73
11
 74
0
 42
0.0000001
 43
0.0000001
 44
0.0000000001
 40
0.0
 40
0.0
 40
0.0
 40
0.0
 40
0.1024590394
 40
0.2125892926
 40
0.3308757892
 40
0.4568382862
 40
0.5888686932
 40
0.7247066359
 40
0.8622407571
 40
1.0
 40
1.0
 40
1.0
 40
1.0
 10
11.7275537593
 20
7.0060433791
 30
0.0
 10
11.7018667805
 20
6.9948805223
 30
0.0
 10
11.6487318897
 20
6.9713434874
 30
0.0
 10
11.5665853812
 20
6.9334866587
 30
0.0
 10
11.4792455691
 20
6.8915749926
 30
0.0
 10
11.3872102296
 20
6.8456398165
 30
0.0
 10
11.2915913641
 20
6.796167668
 30
0.0
 10
11.1938238571
 20
6.7439864207
 30
0.0
 10
11.0952494676
 20
6.690006717
 30
0.0
 10
11.0295621944
 20
6.6532875553
 30
0.0
 10
10.9967565268
 20
6.6347983604
 30
0.0
  0
SPLINE
  5
3AD
100
AcDbEntity
  8
0
100
AcDbSpline
 62
7
  6
CONTINUOUS
 70
0
 71
3
 72
20
 73
16
 74
0
 42
0.0000001
 43
0.0000001
 44
0.0000000001
 40
0.0
 40
0.0
 40
0.0
 40
0.0
 40
0.1307118504
 40
0.2609271596
 40
0.3256853614
 40
0.3901038075
 40
0.4540959115
 40
0.5175746912
 40
0.5804579524
 40
0.6426740239
 40
0.7041660739
 40
0.7648946165
 40
0.8248383834
 40
0.8839938085
 40
1.0
 40
1.0
 40
1.0
 40
1.0
 10
10.714148835
 20
6.3219581825
 30
0.0
 10
10.7117702865
 20
6.2852362348
 30
0.0
 10
10.7074556876
 20
6.2119027923
 30
0.0
 10
10.7033627931
 20
6.1203011152
 30
0.0
 10
10.701002519
 20
6.0473126752
 30
0.0
 10
10.6997187615
 20
5.9929448904
 30
0.0
 10
10.6989387023
 20
5.9389277343
 30
0.0
 10
10.698675466
 20
5.8853377364
 30
0.0
 10
10.6989338087
 20
5.8322476983
 30
0.0
 10
10.6997092563
 20
5.7797220739
 30
0.0
 10
10.7009889106
 20
5.7278131261
 30
0.0
 10
10.7027525148
 20
5.6765585144
 30
0.0
 10
10.704973971
 20
5.6259801534
 30
0.0
 10
10.7084827288
 20
5.5598840824
 30
0.0
 10
10.7117375052
 20
5.5106759445
 30
0.0
 10
10.714148835
 20
5.4781062246
 30
0.0
  0
SPLINE
  5
3AE
100
AcDbEntity
  8
0
100
AcDbSpline
 62
7
  6
CONTINUOUS
 70
0
 71
3
 72
21
 73
17
 74
0
 42
0.0000001
 43
0.0000001
 44
0.0000000001
 40
0.0
 40
0.0
 40
0.0
 40
0.0
 40
0.1211305215
 40
0.1823718855
 40
0.2440515074
 40
0.3061441797
 40
0.3686109568
 40
0.4313999269
 40
0.4944480864
 40
0.5576845339
 40
0.6210350022
 40
0.684426846
 40
0.7477930962
 40
0.8110754374
 40
0.8742262746
 40
1.0
 40
1.0
 40
1.0
 40
1.0
 10
10.7713582804
 20
5.37504907
 30
0.0
 10
10.7990197409
 20
5.3532928622
 30
0.0
 10
10.8409722624
 20
5.3209223233
 30
0.0
 10
10.8977892107
 20
5.2785025295
 30
0.0
 10
10.9412212222
 20
5.2468308407
 30
0.0
 10
10.9853151636
 20
5.2154690023
 30
0.0
 10
11.0300566986
 20
5.1844684883
 30
0.0
 10
11.0754167926
 20
5.1538808606
 30
0.0
 10
11.1213524703
 20
5.1237548644
 30
0.0
 10
11.1678087107
 20
5.094133457
 30
0.0
 10
11.2147214175
 20
5.0650505673
 30
0.0
 10
11.2620218017
 20
5.0365296046
 30
0.0
 10
11.3096404462
 20
5.008582597
 30
0.0
 10
11.3575109809
 20
4.9812101856
 30
0.0
 10
11.4215043756
 20
4.9455162137
 30
0.0
 10
11.4698359671
 20
4.9194921697
 30
0.0
 10
11.5021555129
 20
4.9024421308
 30
0.0
  0
SPLINE
  5
3AF
100
AcDbEntity
  8
0
100
AcDbSpline
 62
7
  6
CONTINUOUS
 70
0
 71
3
 72
15
 73
11
 74
0
 42
0.0000001
 43
0.0000001
 44
0.0000000001
 40
0.0
 40
0.0
 40
0.0
 40
0.0
 40
0.1128128137
 40
0.2295619377
 40
0.3503742146
 40
0.4750618339
 40
0.6031113457
 40
0.7337873942
 40
0.8663091291
 40
1.0
 40
1.0
 40
1.0
 40
1.0
 10
11.6165744038
 20
4.8945071538
 30
0.0
 10
11.6444931338
 20
4.9075814216
 30
0.0
 10
11.7012109062
 20
4.9343871571
 30
0.0
 10
11.7874591386
 20
4.9759674051
 30
0.0
 10
11.8762718581
 20
5.0196933095
 30
0.0
 10
11.9674700803
 20
5.0655569432
 30
0.0
 10
12.0606856592
 20
5.1134005002
 30
0.0
 10
12.1554321429
 20
5.1629425618
 30
0.0
 10
12.2512057236
 20
5.2138415508
 30
0.0
 10
12.3152500426
 20
5.2483475512
 30
0.0
 10
12.3473716363
 20
5.2657521725
 30
0.0
  0
SPLINE
  5
3B0
100
AcDbEntity
  8
0
100
AcDbSpline
 62
7
  6
CONTINUOUS
 70
0
 71
3
 72
15
 73
11
 74
0
 42
0.0000001
 43
0.0000001
 44
0.0000000001
 40
0.0
 40
0.0
 40
0.0
 40
0.0
 40
0.1259387151
 40
0.2515500552
 40
0.3768604883
 40
0.5018988711
 40
0.6266970376
 40
0.7512889617
 40
0.8757107437
 40
1.0
 40
1.0
 40
1.0
 40
1.0
 10
11.6334098522
 20
6.9651107403
 30
0.0
 10
11.6211752625
 20
6.9619225474
 30
0.0
 10
11.5968883266
 20
6.9549596728
 30
0.0
 10
11.561060035
 20
6.9427610656
 30
0.0
 10
11.5259574022
 20
6.9288498508
 30
0.0
 10
11.4916594392
 20
6.9132550235
 30
0.0
 10
11.4582405574
 20
6.896012534
 30
0.0
 10
11.4257749237
 20
6.8771583565
 30
0.0
 10
11.3943339288
 20
6.8567363176
 30
0.0
 10
11.3740920369
 20
6.8420970643
 30
0.0
 10
11.3641679619
 20
6.8345338171
 30
0.0
  0
SPLINE
  5
3B1
100
AcDbEntity
  8
0
100
AcDbSpline
 62
7
  6
CONTINUOUS
 70
0
 71
3
 72
35
 73
31
 74
0
 42
0.0000001
 43
0.0000001
 44
0.0000000001
 40
0.0
 40
0.0
 40
0.0
 40
0.0
 40
0.0612906693
 40
0.1229878739
 40
0.1539915337
 40
0.1850872977
 40
0.2162696171
 40
0.2475327476
 40
0.2788701874
 40
0.3102745649
 40
0.3417379897
 40
0.3732520333
 40
0.4048078488
 40
0.4363961973
 40
0.468007577
 40
0.4996322754
 40
0.5312604555
 40
0.562882252
 40
0.5944878596
 40
0.6260676278
 40
0.6576121068
 40
0.6891121837
 40
0.720559106
 40
0.7519446068
 40
0.7832608858
 40
0.8145009644
 40
0.845658577
 40
0.8767276093
 40
0.9385638178
 40
1.0
 40
1.0
 40
1.0
 40
1.0
 10
12.7180396502
 20
6.1056101418
 30
0.0
 10
12.7180396502
 20
6.1327176674
 30
0.0
 10
12.7153581289
 20
6.1871463477
 30
0.0
 10
12.7054257249
 20
6.2546353005
 30
0.0
 10
12.6935964586
 20
6.3081126322
 30
0.0
 10
12.6827791362
 20
6.3479423997
 30
0.0
 10
12.6700573242
 20
6.3873249814
 30
0.0
 10
12.6554622157
 20
6.4261667309
 30
0.0
 10
12.6390288958
 20
6.4643739473
 30
0.0
 10
12.6207967635
 20
6.5018546636
 30
0.0
 10
12.6008101992
 20
6.5385188469
 30
0.0
 10
12.5791166678
 20
6.5742778667
 30
0.0
 10
12.555769341
 20
6.6090462348
 30
0.0
 10
12.5308233397
 20
6.6427395222
 30
0.0
 10
12.5043399489
 20
6.6752775536
 30
0.0
 10
12.4763816367
 20
6.7065809565
 30
0.0
 10
12.4470170092
 20
6.7365755434
 30
0.0
 10
12.4163155061
 20
6.7651878906
 30
0.0
 10
12.3843521648
 20
6.7923503364
 30
0.0
 10
12.3512029192
 20
6.8179963297
 30
0.0
 10
12.3169483725
 20
6.842065169
 30
0.0
 10
12.2816703317
 20
6.8644980116
 30
0.0
 10
12.2454541333
 20
6.8852414822
 30
0.0
 10
12.2083867345
 20
6.9042451745
 30
0.0
 10
12.1705573695
 20
6.9214635073
 30
0.0
 10
12.1320573016
 20
6.9368550722
 30
0.0
 10
12.0929780248
 20
6.9503823364
 30
0.0
 10
12.040318935
 20
6.9658638409
 30
0.0
 10
11.9735183122
 20
6.9804283849
 30
0.0
 10
11.9192797964
 20
6.9868709562
 30
0.0
 10
11.8921730198
 20
6.9887508175
 30
0.0
  0
SPLINE
  5
3B2
100
AcDbEntity
  8
0
100
AcDbSpline
 62
7
  6
CONTINUOUS
 70
0
 71
3
 72
67
 73
63
 74
0
 42
0.0000001
 43
0.0000001
 44
0.0000000001
 40
0.0
 40
0.0
 40
0.0
 40
0.0
 40
0.0156208593
 40
0.0311919602
 40
0.0467088386
 40
0.062173276
 40
0.0775878162
 40
0.0929540716
 40
0.1082742252
 40
0.1235512559
 40
0.1387885557
 40
0.153989822
 40
0.1691591733
 40
0.1843010435
 40
0.1994201892
 40
0.2145215786
 40
0.2296103873
 40
0.2446919059
 40
0.2597715155
 40
0.274854618
 40
0.2899465735
 40
0.3050526605
 40
0.3201779774
 40
0.3353274489
 40
0.3505057208
 40
0.3657171655
 40
0.380965775
 40
0.3962551812
 40
0.4115885727
 40
0.4269687104
 40
0.4423978773
 40
0.4578778561
 40
0.4734099318
 40
0.488994865
 40
0.5203145517
 40
0.5518423775
 40
0.5676854147
 40
0.5835753953
 40
0.5995097291
 40
0.6154853795
 40
0.6314989709
 40
0.64754676
 40
0.6636247272
 40
0.6797285675
 40
0.6958537564
 40
0.7119955667
 40
0.728149142
 40
0.744309521
 40
0.7604716816
 40
0.7766305859
 40
0.7927812171
 40
0.8089186391
 40
0.8250380274
 40
0.8411347282
 40
0.8572042684
 40
0.873242422
 40
0.8892452006
 40
0.9052090392
 40
0.9211307392
 40
0.9370071758
 40
0.9686057956
 40
1.0
 40
1.0
 40
1.0
 40
1.0
 10
11.5417323219
 20
6.6550807063
 30
0.0
 10
11.5281658897
 20
6.6560215415
 30
0.0
 10
11.5010256324
 20
6.6572391671
 30
0.0
 10
11.4603470844
 20
6.6570639755
 30
0.0
 10
11.419861937
 20
6.6548813758
 30
0.0
 10
11.3796715189
 20
6.6506982605
 30
0.0
 10
11.3398709477
 20
6.6445239606
 30
0.0
 10
11.3005556209
 20
6.6363740112
 30
0.0
 10
11.2618208973
 20
6.6262669588
 30
0.0
 10
11.2237601072
 20
6.614227743
 30
0.0
 10
11.1864649349
 20
6.6002851552
 30
0.0
 10
11.1500254091
 20
6.5844725071
 30
0.0
 10
11.1145292329
 20
6.5668283375
 30
0.0
 10
11.08006242
 20
6.5473943858
 30
0.0
 10
11.0467075319
 20
6.5262184683
 30
0.0
 10
11.0145458084
 20
6.5033504079
 30
0.0
 10
10.9836538836
 20
6.4788466685
 30
0.0
 10
10.9541074079
 20
6.4527649305
 30
0.0
 10
10.9259764163
 20
6.4251695034
 30
0.0
 10
10.8993300681
 20
6.3961256098
 30
0.0
 10
10.874231303
 20
6.3657045252
 30
0.0
 10
10.8507418994
 20
6.3339785922
 30
0.0
 10
10.8289173348
 20
6.3010252168
 30
0.0
 10
10.8088111716
 20
6.2669232496
 30
0.0
 10
10.7904711043
 20
6.2317554046
 30
0.0
 10
10.7739417494
 20
6.1956062556
 30
0.0
 10
10.7592627346
 20
6.1585630805
 30
0.0
 10
10.7464692011
 20
6.1207152714
 30
0.0
 10
10.7355923966
 20
6.0821539398
 30
0.0
 10
10.7266576268
 20
6.0429722831
 30
0.0
 10
10.7196874479
 20
6.0032644321
 30
0.0
 10
10.7146971582
 20
5.9631266116
 30
0.0
 10
10.7117003325
 20
5.9226542579
 30
0.0
 10
10.7103673497
 20
5.8682967115
 30
0.0
 10
10.7137332806
 20
5.7999829278
 30
0.0
 10
10.7237237274
 20
5.7320964616
 30
0.0
 10
10.7356221421
 20
5.6783066367
 30
0.0
 10
10.7465028345
 20
5.6382439912
 30
0.0
 10
10.7592989899
 20
5.5986311766
 30
0.0
 10
10.7739794309
 20
5.5595622339
 30
0.0
 10
10.7905088716
 20
5.5211315742
 30
0.0
 10
10.8088476249
 20
5.4834316868
 30
0.0
 10
10.8289510609
 20
5.4465530997
 30
0.0
 10
10.8507714567
 20
5.4105849607
 30
0.0
 10
10.8742553218
 20
5.375613262
 30
0.0
 10
10.899347209
 20
5.3417229344
 30
0.0
 10
10.9259854717
 20
5.3089946255
 30
0.0
 10
10.9541072768
 20
5.277508166
 30
0.0
 10
10.9836436266
 20
5.2473381742
 30
0.0
 10
11.014524675
 20
5.2185585008
 30
0.0
 10
11.0466749389
 20
5.1912372057
 30
0.0
 10
11.0800180393
 20
5.1654412363
 30
0.0
 10
11.1144729025
 20
5.1412316467
 30
0.0
 10
11.1499572464
 20
5.118667618
 30
0.0
 10
11.1863852375
 20
5.0978028394
 30
0.0
 10
11.2236694067
 20
5.078688014
 30
0.0
 10
11.2617199946
 20
5.0613689889
 30
0.0
 10
11.3004452069
 20
5.0458874159
 30
0.0
 10
11.3397530174
 20
5.0322810459
 30
0.0
 10
11.3927200559
 20
5.0167090051
 30
0.0
 10
11.4599113266
 20
5.0020592883
 30
0.0
 10
11.5144670264
 20
4.9955790413
 30
0.0
 10
11.5417323219
 20
4.9936881866
 30
0.0
  0
SPLINE
  5
3B3
100
AcDbEntity
  8
0
100
AcDbSpline
 62
7
  6
CONTINUOUS
 70
0
 71
3
 72
67
 73
63
 74
0
 42
0.0000001
 43
0.0000001
 44
0.0000000001
 40
0.0
 40
0.0
 40
0.0
 40
0.0
 40
0.0156208593
 40
0.0311919602
 40
0.0467088386
 40
0.062173276
 40
0.0775878162
 40
0.0929540716
 40
0.1082742252
 40
0.1235512559
 40
0.1387885557
 40
0.153989822
 40
0.1691591733
 40
0.1843010435
 40
0.1994201892
 40
0.2145215786
 40
0.2296103873
 40
0.2446919059
 40
0.2597715155
 40
0.274854618
 40
0.2899465735
 40
0.3050526605
 40
0.3201779774
 40
0.3353274489
 40
0.3505057208
 40
0.3657171655
 40
0.380965775
 40
0.3962551812
 40
0.4115885727
 40
0.4269687104
 40
0.4423978773
 40
0.4578778561
 40
0.4734099318
 40
0.488994865
 40
0.5203145517
 40
0.5518423775
 40
0.5676854147
 40
0.5835753953
 40
0.5995097291
 40
0.6154853795
 40
0.6314989709
 40
0.64754676
 40
0.6636247272
 40
0.6797285675
 40
0.6958537564
 40
0.7119955667
 40
0.728149142
 40
0.744309521
 40
0.7604716816
 40
0.7766305859
 40
0.7927812171
 40
0.8089186391
 40
0.8250380274
 40
0.8411347282
 40
0.8572042684
 40
0.873242422
 40
0.8892452006
 40
0.9052090392
 40
0.9211307392
 40
0.9370071758
 40
0.9686057956
 40
1.0
 40
1.0
 40
1.0
 40
1.0
 10
11.5417323219
 20
4.9936881866
 30
0.0
 10
11.5552987541
 20
4.9927473513
 30
0.0
 10
11.5824390115
 20
4.9915297258
 30
0.0
 10
11.6231175595
 20
4.9917049173
 30
0.0
 10
11.6636027069
 20
4.9938875171
 30
0.0
 10
11.703793125
 20
4.9980706323
 30
0.0
 10
11.7435936962
 20
5.0042449322
 30
0.0
 10
11.782909023
 20
5.0123948817
 30
0.0
 10
11.8216437466
 20
5.0225019341
 30
0.0
 10
11.8597045367
 20
5.0345411499
 30
0.0
 10
11.896999709
 20
5.0484837377
 30
0.0
 10
11.9334392348
 20
5.0642963857
 30
0.0
 10
11.968935411
 20
5.0819405553
 30
0.0
 10
12.0034022239
 20
5.1013745071
 30
0.0
 10
12.036757112
 20
5.1225504245
 30
0.0
 10
12.0689188355
 20
5.145418485
 30
0.0
 10
12.0998107603
 20
5.1699222244
 30
0.0
 10
12.129357236
 20
5.1960039623
 30
0.0
 10
12.1574882276
 20
5.2235993895
 30
0.0
 10
12.1841345758
 20
5.252643283
 30
0.0
 10
12.2092333409
 20
5.2830643676
 30
0.0
 10
12.2327227445
 20
5.3147903007
 30
0.0
 10
12.254547309
 20
5.347743676
 30
0.0
 10
12.2746534722
 20
5.3818456433
 30
0.0
 10
12.2929935395
 20
5.4170134883
 30
0.0
 10
12.3095228945
 20
5.4531626372
 30
0.0
 10
12.3242019093
 20
5.4902058124
 30
0.0
 10
12.3369954428
 20
5.5280536215
 30
0.0
 10
12.3478722473
 20
5.5666149531
 30
0.0
 10
12.3568070171
 20
5.6057966097
 30
0.0
 10
12.363777196
 20
5.6455044607
 30
0.0
 10
12.3687674857
 20
5.6856422812
 30
0.0
 10
12.3717643114
 20
5.726114635
 30
0.0
 10
12.3730972942
 20
5.7804721814
 30
0.0
 10
12.3697313633
 20
5.848785965
 30
0.0
 10
12.3597409165
 20
5.9166724312
 30
0.0
 10
12.3478425018
 20
5.9704622561
 30
0.0
 10
12.3369618094
 20
6.0105249016
 30
0.0
 10
12.324165654
 20
6.0501377162
 30
0.0
 10
12.309485213
 20
6.0892066589
 30
0.0
 10
12.2929557723
 20
6.1276373187
 30
0.0
 10
12.274617019
 20
6.1653372061
 30
0.0
 10
12.254513583
 20
6.2022157931
 30
0.0
 10
12.2326931872
 20
6.2381839321
 30
0.0
 10
12.209209322
 20
6.2731556309
 30
0.0
 10
12.1841174349
 20
6.3070459585
 30
0.0
 10
12.1574791722
 20
6.3397742673
 30
0.0
 10
12.1293573671
 20
6.3712607268
 30
0.0
 10
12.0998210173
 20
6.4014307187
 30
0.0
 10
12.0689399689
 20
6.430210392
 30
0.0
 10
12.036789705
 20
6.4575316871
 30
0.0
 10
12.0034466046
 20
6.4833276566
 30
0.0
 10
11.9689917414
 20
6.5075372461
 30
0.0
 10
11.9335073975
 20
6.5301012748
 30
0.0
 10
11.8970794064
 20
6.5509660534
 30
0.0
 10
11.8597952372
 20
6.5700808788
 30
0.0
 10
11.8217446493
 20
6.5873999039
 30
0.0
 10
11.783019437
 20
6.602881477
 30
0.0
 10
11.7437116265
 20
6.616487847
 30
0.0
 10
11.690744588
 20
6.6320598877
 30
0.0
 10
11.6235533173
 20
6.6467096045
 30
0.0
 10
11.5689976175
 20
6.6531898516
 30
0.0
 10
11.5417323219
 20
6.6550807063
 30
0.0
  0
SPLINE
  5
3B4
100
AcDbEntity
  8
0
100
AcDbSpline
 62
7
  6
CONTINUOUS
 70
0
 71
3
 72
15
 73
11
 74
0
 42
0.0000001
 43
0.0000001
 44
0.0000000001
 40
0.0
 40
0.0
 40
0.0
 40
0.0
 40
0.1261304062
 40
0.251857918
 40
0.3772174985
 40
0.502247911
 40
0.6269926351
 40
0.751498858
 40
0.8758169754
 40
1.0
 40
1.0
 40
1.0
 40
1.0
 10
11.6728453359
 20
6.9820985163
 30
0.0
 10
11.6582761189
 20
6.9788906441
 30
0.0
 10
11.6293597837
 20
6.9716545693
 30
0.0
 10
11.5867493391
 20
6.958349889
 30
0.0
 10
11.5450986359
 20
6.9426515401
 30
0.0
 10
11.5045367256
 20
6.9246071467
 30
0.0
 10
11.4651865207
 20
6.9042725927
 30
0.0
 10
11.4271684545
 20
6.8817082143
 30
0.0
 10
11.3905993941
 20
6.8569851727
 30
0.0
 10
11.3672476272
 20
6.8391034271
 30
0.0
 10
11.3558550719
 20
6.8298328774
 30
0.0
  0
SPLINE
  5
3B5
100
AcDbEntity
  8
0
100
AcDbSpline
 62
7
  6
CONTINUOUS
 70
0
 71
3
 72
35
 73
31
 74
0
 42
0.0000001
 43
0.0000001
 44
0.0000000001
 40
0.0
 40
0.0
 40
0.0
 40
0.0
 40
0.0612906693
 40
0.1229878739
 40
0.1539915337
 40
0.1850872977
 40
0.2162696171
 40
0.2475327476
 40
0.2788701874
 40
0.3102745649
 40
0.3417379897
 40
0.3732520333
 40
0.4048078488
 40
0.4363961973
 40
0.468007577
 40
0.4996322754
 40
0.5312604555
 40
0.562882252
 40
0.5944878596
 40
0.6260676278
 40
0.6576121068
 40
0.6891121837
 40
0.720559106
 40
0.7519446068
 40
0.7832608858
 40
0.8145009644
 40
0.845658577
 40
0.8767276093
 40
0.9385638178
 40
1.0
 40
1.0
 40
1.0
 40
1.0
 10
12.7283924035
 20
6.1156101341
 30
0.0
 10
12.7283924035
 20
6.1427176597
 30
0.0
 10
12.7257108821
 20
6.1971463401
 30
0.0
 10
12.7157784781
 20
6.2646352929
 30
0.0
 10
12.7039492119
 20
6.3181126245
 30
0.0
 10
12.6931318894
 20
6.3579423921
 30
0.0
 10
12.6804100774
 20
6.3973249737
 30
0.0
 10
12.665814969
 20
6.4361667232
 30
0.0
 10
12.649381649
 20
6.4743739396
 30
0.0
 10
12.6311495167
 20
6.5118546559
 30
0.0
 10
12.6111629525
 20
6.5485188392
 30
0.0
 10
12.589469421
 20
6.584277859
 30
0.0
 10
12.5661220943
 20
6.6190462271
 30
0.0
 10
12.5411760929
 20
6.6527395145
 30
0.0
 10
12.5146927021
 20
6.6852775459
 30
0.0
 10
12.48673439
 20
6.7165809488
 30
0.0
 10
12.4573697624
 20
6.7465755357
 30
0.0
 10
12.4266682593
 20
6.775187883
 30
0.0
 10
12.394704918
 20
6.8023503287
 30
0.0
 10
12.3615556724
 20
6.8279963221
 30
0.0
 10
12.3273011258
 20
6.8520651614
 30
0.0
 10
12.2920230849
 20
6.874498004
 30
0.0
 10
12.2558068866
 20
6.8952414746
 30
0.0
 10
12.2187394877
 20
6.9142451668
 30
0.0
 10
12.1809101228
 20
6.9314634997
 30
0.0
 10
12.1424100549
 20
6.9468550646
 30
0.0
 10
12.103330778
 20
6.9603823287
 30
0.0
 10
12.0506716882
 20
6.9758638333
 30
0.0
 10
11.9838710655
 20
6.9904283773
 30
0.0
 10
11.9296325496
 20
6.9968709485
 30
0.0
 10
11.9025257731
 20
6.9987508099
 30
0.0
  0
SPLINE
  5
3B6
100
AcDbEntity
  8
0
100
AcDbSpline
 62
7
  6
CONTINUOUS
 70
0
 71
3
 72
20
 73
16
 74
0
 42
0.0000001
 43
0.0000001
 44
0.0000000001
 40
0.0
 40
0.0
 40
0.0
 40
0.0
 40
0.1160061915
 40
0.1751616166
 40
0.2351053835
 40
0.2958339261
 40
0.3573259761
 40
0.4195420477
 40
0.4824253089
 40
0.5459040886
 40
0.6098961925
 40
0.6743146387
 40
0.7390728404
 40
0.8692881496
 40
1.0
 40
1.0
 40
1.0
 40
1.0
 10
12.4045810817
 20
5.3608743501
 30
0.0
 10
12.4021697519
 20
5.39344407
 30
0.0
 10
12.3989149756
 20
5.4426522079
 30
0.0
 10
12.3954062178
 20
5.5087482789
 30
0.0
 10
12.3931847615
 20
5.5593266399
 30
0.0
 10
12.3914211574
 20
5.6105812517
 30
0.0
 10
12.3901415031
 20
5.6624901995
 30
0.0
 10
12.3893660554
 20
5.7150158238
 30
0.0
 10
12.3891077127
 20
5.768105862
 30
0.0
 10
12.3893709491
 20
5.8216958599
 30
0.0
 10
12.3901510083
 20
5.875713016
 30
0.0
 10
12.3914347658
 20
5.9300808008
 30
0.0
 10
12.3937950398
 20
6.0030692408
 30
0.0
 10
12.3978879344
 20
6.0946709179
 30
0.0
 10
12.4022025332
 20
6.1680043603
 30
0.0
 10
12.4045810817
 20
6.204726308
 30
0.0
  0
SPLINE
  5
3B7
100
AcDbEntity
  8
0
100
AcDbSpline
 62
7
  6
CONTINUOUS
 70
0
 71
3
 72
21
 73
17
 74
0
 42
0.0000001
 43
0.0000001
 44
0.0000000001
 40
0.0
 40
0.0
 40
0.0
 40
0.0
 40
0.1257737254
 40
0.1889245626
 40
0.2522069038
 40
0.3155731541
 40
0.3789649978
 40
0.4423154662
 40
0.5055519136
 40
0.5686000731
 40
0.6313890432
 40
0.6938558204
 40
0.7559484927
 40
0.8176281145
 40
0.8788694786
 40
1.0
 40
1.0
 40
1.0
 40
1.0
 10
12.3473716363
 20
6.3077834627
 30
0.0
 10
12.3150520905
 20
6.3248335015
 30
0.0
 10
12.266720499
 20
6.3508575455
 30
0.0
 10
12.2027271042
 20
6.3865515174
 30
0.0
 10
12.1548565696
 20
6.4139239289
 30
0.0
 10
12.1072379251
 20
6.4418709364
 30
0.0
 10
12.0599375409
 20
6.4703918992
 30
0.0
 10
12.0130248341
 20
6.4994747889
 30
0.0
 10
11.9665685937
 20
6.5290961962
 30
0.0
 10
11.9206329159
 20
6.5592221924
 30
0.0
 10
11.8752728219
 20
6.5898098201
 30
0.0
 10
11.830531287
 20
6.6208103341
 30
0.0
 10
11.7864373456
 20
6.6521721726
 30
0.0
 10
11.743005334
 20
6.6838438614
 30
0.0
 10
11.6861883858
 20
6.7262636551
 30
0.0
 10
11.6442358643
 20
6.7586341941
 30
0.0
 10
11.6165744038
 20
6.7803904018
 30
0.0
  0
SPLINE
  5
3B8
100
AcDbEntity
  8
0
100
AcDbSpline
 62
7
  6
CONTINUOUS
 70
0
 71
3
 72
15
 73
11
 74
0
 42
0.0000001
 43
0.0000001
 44
0.0000000001
 40
0.0
 40
0.0
 40
0.0
 40
0.0
 40
0.1336908709
 40
0.2662126058
 40
0.3968886543
 40
0.5249381662
 40
0.6496257854
 40
0.7704380623
 40
0.8871871863
 40
1.0
 40
1.0
 40
1.0
 40
1.0
 10
11.5021555129
 20
6.7883253788
 30
0.0
 10
11.4700339192
 20
6.7709207575
 30
0.0
 10
11.4059896002
 20
6.7364147571
 30
0.0
 10
11.3102160195
 20
6.6855157681
 30
0.0
 10
11.2154695358
 20
6.6359737065
 30
0.0
 10
11.1222539569
 20
6.5881301495
 30
0.0
 10
11.0310557347
 20
6.5422665158
 30
0.0
 10
10.9422430152
 20
6.4985406114
 30
0.0
 10
10.8559947828
 20
6.4569603634
 30
0.0
 10
10.7992770104
 20
6.4301546279
 30
0.0
 10
10.7713582804
 20
6.4170803601
 30
0.0
  0
SPLINE
  5
3B9
100
AcDbEntity
  8
0
100
AcDbSpline
 62
7
  6
CONTINUOUS
 70
0
 71
3
 72
15
 73
11
 74
0
 42
0.0000001
 43
0.0000001
 44
0.0000000001
 40
0.0
 40
0.0
 40
0.0
 40
0.0
 40
0.1235752096
 40
0.2474950402
 40
0.3717979941
 40
0.4965172206
 40
0.6216760548
 40
0.7472994836
 40
0.8734166375
 40
1.0
 40
1.0
 40
1.0
 40
1.0
 10
12.6470480053
 20
5.7638408946
 30
0.0
 10
12.6537206785
 20
5.7772782188
 30
0.0
 10
12.6662916747
 20
5.8045924274
 30
0.0
 10
12.6827300616
 20
5.8466579845
 30
0.0
 10
12.6967273841
 20
5.8897450759
 30
0.0
 10
12.7082375835
 20
5.9337169888
 30
0.0
 10
12.7172269568
 20
5.978435879
 30
0.0
 10
12.7236664676
 20
6.0237640588
 30
0.0
 10
12.7275349647
 20
6.0695554068
 30
0.0
 10
12.7283924035
 20
6.1002420491
 30
0.0
 10
12.7283924035
 20
6.1156101341
 30
0.0
  0
SPLINE
  5
3BA
100
AcDbEntity
  8
0
100
AcDbSpline
 62
7
  6
CONTINUOUS
 70
0
 71
3
 72
20
 73
16
 74
0
 42
0.0000001
 43
0.0000001
 44
0.0000000001
 40
0.0
 40
0.0
 40
0.0
 40
0.0
 40
0.1328004115
 40
0.2663282989
 40
0.3994288484
 40
0.4652765799
 40
0.530307737
 40
0.5942626159
 40
0.6569131493
 40
0.7180845183
 40
0.777666975
 40
0.8356165293
 40
0.89194577
 40
0.9467129545
 40
1.0
 40
1.0
 40
1.0
 40
1.0
 10
10.4566460902
 20
8.627091173
 30
0.0
 10
10.4606408063
 20
8.6643293052
 30
0.0
 10
10.4679799973
 20
8.7390844499
 30
0.0
 10
10.4765034047
 20
8.8514170294
 30
0.0
 10
10.4810885773
 20
8.945083337
 30
0.0
 10
10.4829738581
 20
9.0195086466
 30
0.0
 10
10.4834534225
 20
9.0744554339
 30
0.0
 10
10.482989524
 20
9.128500709
 30
0.0
 10
10.4815949257
 20
9.1814411506
 30
0.0
 10
10.4793072422
 20
9.2331161811
 30
0.0
 10
10.4761839404
 20
9.2834190574
 30
0.0
 10
10.4722955643
 20
9.3322986062
 30
0.0
 10
10.4677187195
 20
9.3797541703
 30
0.0
 10
10.4625301143
 20
9.4258234045
 30
0.0
 10
10.4586612541
 20
9.4560510791
 30
0.0
 10
10.4566460902
 20
9.4709431308
 30
0.0
  0
SPLINE
  5
3BB
100
AcDbEntity
  8
0
100
AcDbSpline
 62
7
  6
CONTINUOUS
 70
0
 71
3
 72
22
 73
18
 74
0
 42
0.0000001
 43
0.0000001
 44
0.0000000001
 40
0.0
 40
0.0
 40
0.0
 40
0.0
 40
0.0578967657
 40
0.1168069543
 40
0.1767552214
 40
0.2377418336
 40
0.2997235166
 40
0.3626077374
 40
0.4262490722
 40
0.4904549483
 40
0.5550006938
 40
0.619651431
 40
0.684185502
 40
0.7484135876
 40
0.8121898087
 40
0.87541344
 40
1.0
 40
1.0
 40
1.0
 40
1.0
 10
10.3994366448
 20
9.5740002855
 30
0.0
 10
10.3869296897
 20
9.5853226037
 30
0.0
 10
10.3615167112
 20
9.6079674701
 30
0.0
 10
10.3224863515
 20
9.6415779421
 30
0.0
 10
10.2821549045
 20
9.6750448088
 30
0.0
 10
10.2404761771
 20
9.7082743433
 30
0.0
 10
10.1974367681
 20
9.7411516303
 30
0.0
 10
10.1530680378
 20
9.7735423237
 30
0.0
 10
10.1074518865
 20
9.8053002447
 30
0.0
 10
10.0607205738
 20
9.8362784756
 30
0.0
 10
10.0130483127
 20
9.8663431002
 30
0.0
 10
9.9646357274
 20
9.8953863015
 30
0.0
 10
9.9156905206
 20
9.9233356656
 30
0.0
 10
9.8664090961
 20
9.9501576893
 30
0.0
 10
9.8169626481
 20
9.9758557428
 30
0.0
 10
9.751321406
 20
10.008505791
 30
0.0
 10
9.7017341045
 20
10.0316845358
 30
0.0
 10
9.6686394122
 20
10.0466072246
 30
0.0
  0
SPLINE
  5
3BC
100
AcDbEntity
  8
0
100
AcDbSpline
 62
7
  6
CONTINUOUS
 70
0
 71
3
 72
15
 73
11
 74
0
 42
0.0000001
 43
0.0000001
 44
0.0000000001
 40
0.0
 40
0.0
 40
0.0
 40
0.0
 40
0.1024584527
 40
0.2125880165
 40
0.3308751456
 40
0.4568384937
 40
0.5888694915
 40
0.7247080792
 40
0.8622415245
 40
1.0
 40
1.0
 40
1.0
 40
1.0
 10
9.5542205214
 20
10.0545422016
 30
0.0
 10
9.5285336897
 20
10.0433794087
 30
0.0
 10
9.4753991195
 20
10.0198425117
 30
0.0
 10
9.3932527553
 20
9.9819857907
 30
0.0
 10
9.3059127524
 20
9.9400740195
 30
0.0
 10
9.2138769373
 20
9.8941385275
 30
0.0
 10
9.1182575321
 20
9.8446661816
 30
0.0
 10
9.0204898885
 20
9.7924848646
 30
0.0
 10
8.9219157043
 20
9.7385052407
 30
0.0
 10
8.8562287737
 20
9.7017862748
 30
0.0
 10
8.8234232888
 20
9.6832971829
 30
0.0
  0
SPLINE
  5
3BD
100
AcDbEntity
  8
0
100
AcDbSpline
 62
7
  6
CONTINUOUS
 70
0
 71
3
 72
19
 73
15
 74
0
 42
0.0000001
 43
0.0000001
 44
0.0000000001
 40
0.0
 40
0.0
 40
0.0
 40
0.0
 40
0.1307115674
 40
0.2609268752
 40
0.3901025973
 40
0.4540950503
 40
0.5175739859
 40
0.580457627
 40
0.6426741367
 40
0.7041661724
 40
0.764894827
 40
0.8248387715
 40
0.8839940512
 40
1.0
 40
1.0
 40
1.0
 40
1.0
 10
8.540815597
 20
9.370457005
 30
0.0
 10
8.5384370566
 20
9.3337351818
 30
0.0
 10
8.534122523
 20
9.2604017521
 30
0.0
 10
8.5292198783
 20
9.1506830356
 30
0.0
 10
8.5266485814
 20
9.0596731506
 30
0.0
 10
8.5256054636
 20
8.9874267949
 30
0.0
 10
8.5253423824
 20
8.9338365868
 30
0.0
 10
8.5256005554
 20
8.8807463464
 30
0.0
 10
8.5263759396
 20
8.8282205564
 30
0.0
 10
8.5276557567
 20
8.7763115259
 30
0.0
 10
8.5294193296
 20
8.7250568989
 30
0.0
 10
8.5316407189
 20
8.6744785562
 30
0.0
 10
8.5351495414
 20
8.6083826291
 30
0.0
 10
8.5384042753
 20
8.5591746589
 30
0.0
 10
8.540815597
 20
8.5266050472
 30
0.0
  0
SPLINE
  5
3BE
100
AcDbEntity
  8
0
100
AcDbSpline
 62
7
  6
CONTINUOUS
 70
0
 71
3
 72
21
 73
17
 74
0
 42
0.0000001
 43
0.0000001
 44
0.0000000001
 40
0.0
 40
0.0
 40
0.0
 40
0.0
 40
0.1211301163
 40
0.1823712755
 40
0.2440509723
 40
0.306143678
 40
0.3686104373
 40
0.4313997375
 40
0.4944481226
 40
0.5576847246
 40
0.6210354942
 40
0.6844273845
 40
0.7477936645
 40
0.8110760547
 40
0.8742266982
 40
1.0
 40
1.0
 40
1.0
 40
1.0
 10
8.5980250425
 20
8.4235478925
 30
0.0
 10
8.6256864104
 20
8.4017917576
 30
0.0
 10
8.6676388162
 20
8.3694213601
 30
0.0
 10
8.7244555832
 20
8.3270015834
 30
0.0
 10
8.7678876232
 20
8.2953299805
 30
0.0
 10
8.8119816102
 20
8.2639681629
 30
0.0
 10
8.8567231059
 20
8.2329674163
 30
0.0
 10
8.9020833776
 20
8.2023797697
 30
0.0
 10
8.9480193585
 20
8.1722538618
 30
0.0
 10
8.9944756352
 20
8.1426321456
 30
0.0
 10
9.0413884249
 20
8.1135491096
 30
0.0
 10
9.0886890115
 20
8.0850282704
 30
0.0
 10
9.1363076642
 20
8.0570812071
 30
0.0
 10
9.1841781289
 20
8.0297087398
 30
0.0
 10
9.2481714243
 20
7.994014929
 30
0.0
 10
9.2965028381
 20
7.9679909348
 30
0.0
 10
9.328822275
 20
7.9509409534
 30
0.0
  0
SPLINE
  5
3BF
100
AcDbEntity
  8
0
100
AcDbSpline
 62
7
  6
CONTINUOUS
 70
0
 71
3
 72
15
 73
11
 74
0
 42
0.0000001
 43
0.0000001
 44
0.0000000001
 40
0.0
 40
0.0
 40
0.0
 40
0.0
 40
0.1128124416
 40
0.2295614621
 40
0.3503736449
 40
0.4750619961
 40
0.6031117921
 40
0.7337880193
 40
0.866309584
 40
1.0
 40
1.0
 40
1.0
 40
1.0
 10
9.4432411658
 20
7.9430059763
 30
0.0
 10
9.4711598037
 20
7.956080201
 30
0.0
 10
9.5278774609
 20
7.9828858766
 30
0.0
 10
9.6141255375
 20
8.0244660885
 30
0.0
 10
9.7029384312
 20
8.0681919703
 30
0.0
 10
9.794136811
 20
8.1140558509
 30
0.0
 10
9.8873527481
 20
8.1618994247
 30
0.0
 10
9.9820992585
 20
8.2114416083
 30
0.0
 10
10.0778727481
 20
8.2623405083
 30
0.0
 10
10.1419169139
 20
8.2968464329
 30
0.0
 10
10.1740383984
 20
8.3142509951
 30
0.0
  0
SPLINE
  5
3C0
100
AcDbEntity
  8
0
100
AcDbSpline
 62
7
  6
CONTINUOUS
 70
0
 71
3
 72
64
 73
60
 74
0
 42
0.0000001
 43
0.0000001
 44
0.0000000001
 40
0.0
 40
0.0
 40
0.0
 40
0.0
 40
0.0311830674
 40
0.0467008478
 40
0.0621656035
 40
0.077580314
 40
0.0929469982
 40
0.1082676194
 40
0.1235450534
 40
0.1387827119
 40
0.1539843784
 40
0.169154114
 40
0.1842963866
 40
0.1994159176
 40
0.2145177079
 40
0.2296068972
 40
0.2446888078
 40
0.2597688009
 40
0.2748522991
 40
0.289944644
 40
0.3050511237
 40
0.320176829
 40
0.3353266945
 40
0.3505053557
 40
0.3657171944
 40
0.3809661934
 40
0.3962560015
 40
0.4115897884
 40
0.4269703324
 40
0.4423998859
 40
0.4578802676
 40
0.4734127351
 40
0.4889980873
 40
0.5046365524
 40
0.5203278953
 40
0.5360713376
 40
0.551865648
 40
0.5677090891
 40
0.5835994915
 40
0.5995342345
 40
0.6155103003
 40
0.6315243016
 40
0.6475725053
 40
0.6636508895
 40
0.6797551433
 40
0.6958807523
 40
0.7120229781
 40
0.7281769781
 40
0.7443377676
 40
0.7605003478
 40
0.7766596612
 40
0.7928107186
 40
0.8089485556
 40
0.841156923
 40
0.8732567742
 40
0.9052155383
 40
0.9370054028
 40
0.968605258
 40
1.0
 40
1.0
 40
1.0
 40
1.0
 10
9.368399084
 20
9.7035795288
 30
0.0
 10
9.3413178585
 20
9.7054576182
 30
0.0
 10
9.3005844003
 20
9.706294794
 30
0.0
 10
9.2465297893
 20
9.7033801537
 30
0.0
 10
9.2063376942
 20
9.6991972656
 30
0.0
 10
9.1665378426
 20
9.6930224888
 30
0.0
 10
9.127222436
 20
9.684872968
 30
0.0
 10
9.0884877299
 20
9.6747655828
 30
0.0
 10
9.0504267621
 20
9.6627267698
 30
0.0
 10
9.013131802
 20
9.6487836819
 30
0.0
 10
8.9766920886
 20
9.6329715452
 30
0.0
 10
8.9411961524
 20
9.6153268792
 30
0.0
 10
8.9067290597
 20
9.5958934298
 30
0.0
 10
8.873374481
 20
9.5747170028
 30
0.0
 10
8.8412124277
 20
9.5518494178
 30
0.0
 10
8.8103208444
 20
9.5273452436
 30
0.0
 10
8.7807740465
 20
9.5012638959
 30
0.0
 10
8.7526433614
 20
9.4736681516
 30
0.0
 10
8.7259967554
 20
9.4446245053
 30
0.0
 10
8.7008981758
 20
9.4142032545
 30
0.0
 10
8.6774086675
 20
9.3824774104
 30
0.0
 10
8.655584102
 20
9.3495240278
 30
0.0
 10
8.6354780552
 20
9.3154220056
 30
0.0
 10
8.6171377436
 20
9.2802542821
 30
0.0
 10
8.6006087661
 20
9.2441049767
 30
0.0
 10
8.585929239
 20
9.2070619973
 30
0.0
 10
8.5731363495
 20
9.1692139771
 30
0.0
 10
8.5622587728
 20
9.1306528503
 30
0.0
 10
8.5533248891
 20
9.0914709892
 30
0.0
 10
8.5463537266
 20
9.0517633588
 30
0.0
 10
8.541364509
 20
9.0116252424
 30
0.0
 10
8.5383665362
 20
8.9711536574
 30
0.0
 10
8.5373696156
 20
8.9304459411
 30
0.0
 10
8.5383733352
 20
8.8896002106
 30
0.0
 10
8.5413778853
 20
8.8487149376
 30
0.0
 10
8.546373279
 20
8.8078883811
 30
0.0
 10
8.5533499729
 20
8.7672191713
 30
0.0
 10
8.5622886175
 20
8.7268047987
 30
0.0
 10
8.5731699471
 20
8.686743076
 30
0.0
 10
8.5859655119
 20
8.6471298643
 30
0.0
 10
8.6006464369
 20
8.6080611586
 30
0.0
 10
8.6171755177
 20
8.5696303399
 30
0.0
 10
8.6355145047
 20
8.5319305683
 30
0.0
 10
8.6556178291
 20
8.4950519301
 30
0.0
 10
8.6774382257
 20
8.4590837859
 30
0.0
 10
8.7009221926
 20
8.4241121652
 30
0.0
 10
8.7260138981
 20
8.3902216918
 30
0.0
 10
8.7526524178
 20
8.3574935972
 30
0.0
 10
8.7807739056
 20
8.3260068693
 30
0.0
 10
8.810310626
 20
8.2958371905
 30
0.0
 10
8.8411911563
 20
8.2670572475
 30
0.0
 10
8.8733423883
 20
8.2397359611
 30
0.0
 10
8.9177634848
 20
8.2053681679
 30
0.0
 10
8.9760625791
 20
8.166370128
 30
0.0
 10
9.0498277708
 20
8.1263493017
 30
0.0
 10
9.1266657139
 20
8.0935063936
 30
0.0
 10
9.2058383333
 20
8.0681608358
 30
0.0
 10
9.2865759571
 20
8.0505589588
 30
0.0
 10
9.3411340277
 20
8.0440778472
 30
0.0
 10
9.368399084
 20
8.0421870091
 30
0.0
  0
SPLINE
  5
3C1
100
AcDbEntity
  8
0
100
AcDbSpline
 62
7
  6
CONTINUOUS
 70
0
 71
3
 72
64
 73
60
 74
0
 42
0.0000001
 43
0.0000001
 44
0.0000000001
 40
0.0
 40
0.0
 40
0.0
 40
0.0
 40
0.0311830674
 40
0.0467008478
 40
0.0621656035
 40
0.077580314
 40
0.0929469982
 40
0.1082676194
 40
0.1235450534
 40
0.1387827119
 40
0.1539843784
 40
0.169154114
 40
0.1842963866
 40
0.1994159176
 40
0.2145177079
 40
0.2296068972
 40
0.2446888078
 40
0.2597688009
 40
0.2748522991
 40
0.289944644
 40
0.3050511237
 40
0.320176829
 40
0.3353266945
 40
0.3505053557
 40
0.3657171944
 40
0.3809661934
 40
0.3962560015
 40
0.4115897884
 40
0.4269703324
 40
0.4423998859
 40
0.4578802676
 40
0.4734127351
 40
0.4889980873
 40
0.5046365524
 40
0.5203278953
 40
0.5360713376
 40
0.551865648
 40
0.5677090891
 40
0.5835994915
 40
0.5995342345
 40
0.6155103003
 40
0.6315243016
 40
0.6475725053
 40
0.6636508895
 40
0.6797551433
 40
0.6958807523
 40
0.7120229781
 40
0.7281769781
 40
0.7443377676
 40
0.7605003478
 40
0.7766596612
 40
0.7928107186
 40
0.8089485556
 40
0.841156923
 40
0.8732567742
 40
0.9052155383
 40
0.9370054028
 40
0.968605258
 40
1.0
 40
1.0
 40
1.0
 40
1.0
 10
9.368399084
 20
8.0421870091
 30
0.0
 10
9.3954803095
 20
8.0403089198
 30
0.0
 10
9.4362137678
 20
8.0394717439
 30
0.0
 10
9.4902683787
 20
8.0423863843
 30
0.0
 10
9.5304604738
 20
8.0465692724
 30
0.0
 10
9.5702603254
 20
8.0527440491
 30
0.0
 10
9.6095757321
 20
8.0608935699
 30
0.0
 10
9.6483104381
 20
8.0710009551
 30
0.0
 10
9.686371406
 20
8.0830397681
 30
0.0
 10
9.723666366
 20
8.096982856
 30
0.0
 10
9.7601060794
 20
8.1127949927
 30
0.0
 10
9.7956020156
 20
8.1304396587
 30
0.0
 10
9.8300691083
 20
8.1498731081
 30
0.0
 10
9.863423687
 20
8.1710495351
 30
0.0
 10
9.8955857403
 20
8.1939171201
 30
0.0
 10
9.9264773236
 20
8.2184212943
 30
0.0
 10
9.9560241215
 20
8.244502642
 30
0.0
 10
9.9841548066
 20
8.2720983863
 30
0.0
 10
10.0108014127
 20
8.3011420326
 30
0.0
 10
10.0358999922
 20
8.3315632834
 30
0.0
 10
10.0593895005
 20
8.3632891275
 30
0.0
 10
10.0812140661
 20
8.3962425101
 30
0.0
 10
10.1013201128
 20
8.4303445323
 30
0.0
 10
10.1196604245
 20
8.4655122558
 30
0.0
 10
10.1361894019
 20
8.5016615612
 30
0.0
 10
10.150868929
 20
8.5387045407
 30
0.0
 10
10.1636618186
 20
8.5765525609
 30
0.0
 10
10.1745393952
 20
8.6151136877
 30
0.0
 10
10.183473279
 20
8.6542955487
 30
0.0
 10
10.1904444414
 20
8.6940031791
 30
0.0
 10
10.1954336591
 20
8.7341412955
 30
0.0
 10
10.1984316319
 20
8.7746128805
 30
0.0
 10
10.1994285525
 20
8.8153205968
 30
0.0
 10
10.1984248328
 20
8.8561663273
 30
0.0
 10
10.1954202828
 20
8.8970516004
 30
0.0
 10
10.190424889
 20
8.9378781568
 30
0.0
 10
10.1834481951
 20
8.9785473666
 30
0.0
 10
10.1745095505
 20
9.0189617392
 30
0.0
 10
10.163628221
 20
9.0590234619
 30
0.0
 10
10.1508326562
 20
9.0986366736
 30
0.0
 10
10.1361517312
 20
9.1377053793
 30
0.0
 10
10.1196226503
 20
9.1761361981
 30
0.0
 10
10.1012836633
 20
9.2138359696
 30
0.0
 10
10.0811803389
 20
9.2507146078
 30
0.0
 10
10.0593599423
 20
9.2866827521
 30
0.0
 10
10.0358759755
 20
9.3216543727
 30
0.0
 10
10.01078427
 20
9.3555448462
 30
0.0
 10
9.9841457502
 20
9.3882729407
 30
0.0
 10
9.9560242625
 20
9.4197596686
 30
0.0
 10
9.9264875421
 20
9.4499293474
 30
0.0
 10
9.8956070118
 20
9.4787092904
 30
0.0
 10
9.8634557797
 20
9.5060305769
 30
0.0
 10
9.8190346832
 20
9.54039837
 30
0.0
 10
9.760735589
 20
9.5793964099
 30
0.0
 10
9.6869703973
 20
9.6194172362
 30
0.0
 10
9.6101324541
 20
9.6522601443
 30
0.0
 10
9.5309598347
 20
9.6776057021
 30
0.0
 10
9.4502222109
 20
9.6952075791
 30
0.0
 10
9.3956641403
 20
9.7016886907
 30
0.0
 10
9.368399084
 20
9.7035795288
 30
0.0
  0
SPLINE
  5
3C2
100
AcDbEntity
  8
0
100
AcDbSpline
 62
7
  6
CONTINUOUS
 70
0
 71
3
 72
19
 73
15
 74
0
 42
0.0000001
 43
0.0000001
 44
0.0000000001
 40
0.0
 40
0.0
 40
0.0
 40
0.0
 40
0.1160059488
 40
0.1751612285
 40
0.235105173
 40
0.2958338276
 40
0.3573258634
 40
0.419542373
 40
0.4824260141
 40
0.5459049497
 40
0.6098974028
 40
0.7390731248
 40
0.8692884326
 40
1.0
 40
1.0
 40
1.0
 40
1.0
 10
10.2312478438
 20
8.4093731727
 30
0.0
 10
10.228836522
 20
8.4419427845
 30
0.0
 10
10.2255817881
 20
8.4911507546
 30
0.0
 10
10.2220729656
 20
8.5572466817
 30
0.0
 10
10.2198515764
 20
8.6078250245
 30
0.0
 10
10.2180880035
 20
8.6590796514
 30
0.0
 10
10.2168081863
 20
8.7109886819
 30
0.0
 10
10.2160328022
 20
8.7635144719
 30
0.0
 10
10.2157746291
 20
8.8166047124
 30
0.0
 10
10.2160377104
 20
8.8701949205
 30
0.0
 10
10.2170808281
 20
8.9424412762
 30
0.0
 10
10.219652125
 20
9.0334511612
 30
0.0
 10
10.2245547698
 20
9.1431698776
 30
0.0
 10
10.2288693034
 20
9.2165033073
 30
0.0
 10
10.2312478438
 20
9.2532251305
 30
0.0
  0
SPLINE
  5
3C3
100
AcDbEntity
  8
0
100
AcDbSpline
 62
7
  6
CONTINUOUS
 70
0
 71
3
 72
21
 73
17
 74
0
 42
0.0000001
 43
0.0000001
 44
0.0000000001
 40
0.0
 40
0.0
 40
0.0
 40
0.0
 40
0.1257733018
 40
0.1889239453
 40
0.2522063355
 40
0.3155726155
 40
0.3789645059
 40
0.4423152755
 40
0.5055518774
 40
0.5686002626
 40
0.6313895627
 40
0.693856322
 40
0.7559490278
 40
0.8176287245
 40
0.8788698837
 40
1.0
 40
1.0
 40
1.0
 40
1.0
 10
10.1740383984
 20
9.3562822852
 30
0.0
 10
10.1417189615
 20
9.3733322666
 30
0.0
 10
10.0933875477
 20
9.3993562608
 30
0.0
 10
10.0293942522
 20
9.4350500717
 30
0.0
 10
9.9815237876
 20
9.462422539
 30
0.0
 10
9.9339051348
 20
9.4903696022
 30
0.0
 10
9.8866045482
 20
9.5188904414
 30
0.0
 10
9.8396917586
 20
9.5479734775
 30
0.0
 10
9.7932354818
 20
9.5775951937
 30
0.0
 10
9.747299501
 20
9.6077211016
 30
0.0
 10
9.7019392293
 20
9.6383087481
 30
0.0
 10
9.6571977335
 20
9.6693094947
 30
0.0
 10
9.6131037465
 20
9.7006713123
 30
0.0
 10
9.5696717065
 20
9.7323429152
 30
0.0
 10
9.5128549396
 20
9.774762692
 30
0.0
 10
9.4709025337
 20
9.8071330894
 30
0.0
 10
9.4432411658
 20
9.8288892243
 30
0.0
  0
SPLINE
  5
3C4
100
AcDbEntity
  8
0
100
AcDbSpline
 62
7
  6
CONTINUOUS
 70
0
 71
3
 72
15
 73
11
 74
0
 42
0.0000001
 43
0.0000001
 44
0.0000000001
 40
0.0
 40
0.0
 40
0.0
 40
0.0
 40
0.133690416
 40
0.2662119808
 40
0.3968882079
 40
0.524938004
 40
0.6496263551
 40
0.770438538
 40
0.8871875584
 40
1.0
 40
1.0
 40
1.0
 40
1.0
 10
9.328822275
 20
9.8368242014
 30
0.0
 10
9.2967007906
 20
9.8194196392
 30
0.0
 10
9.2326566247
 20
9.7849137146
 30
0.0
 10
9.1368831351
 20
9.7340148146
 30
0.0
 10
9.0421366247
 20
9.684472631
 30
0.0
 10
8.9489206876
 20
9.6366290572
 30
0.0
 10
8.8577223078
 20
9.5907651766
 30
0.0
 10
8.7689094141
 20
9.5470392948
 30
0.0
 10
8.6826613375
 20
9.5054590829
 30
0.0
 10
8.6259436804
 20
9.4786534073
 30
0.0
 10
8.5980250425
 20
9.4655791827
 30
0.0
  0
SPLINE
  5
3C5
100
AcDbEntity
  8
0
100
AcDbSpline
 62
7
  6
CONTINUOUS
 70
0
 71
3
 72
16
 73
12
 74
0
 42
0.0000001
 43
0.0000001
 44
0.0000000001
 40
0.0
 40
0.0
 40
0.0
 40
0.0
 40
0.1236450025
 40
0.1855976618
 40
0.2476386809
 40
0.3719893701
 40
0.496733349
 40
0.6218884842
 40
0.7474788994
 40
0.8735266243
 40
1.0
 40
1.0
 40
1.0
 40
1.0
 10
12.6485618384
 20
8.6766470893
 30
0.0
 10
12.6542756535
 20
8.6892857869
 30
0.0
 10
12.6623382635
 20
8.7084958568
 30
0.0
 10
12.672042212
 20
8.7345280488
 30
0.0
 10
12.6810669847
 20
8.7608878072
 30
0.0
 10
12.6910355234
 20
8.7943555326
 30
0.0
 10
12.7008572789
 20
8.8351931193
 30
0.0
 10
12.7085230451
 20
8.8766314762
 30
0.0
 10
12.7140122375
 20
8.9185613765
 30
0.0
 10
12.7173087001
 20
8.9608673423
 30
0.0
 10
12.7180396502
 20
8.9892002417
 30
0.0
 10
12.7180396502
 20
9.0033877923
 30
0.0
  0
SPLINE
  5
3C6
100
AcDbEntity
  8
0
100
AcDbSpline
 62
7
  6
CONTINUOUS
 70
0
 71
3
 72
22
 73
18
 74
0
 42
0.0000001
 43
0.0000001
 44
0.0000000001
 40
0.0
 40
0.0
 40
0.0
 40
0.0
 40
0.0662627889
 40
0.1328022627
 40
0.1995323899
 40
0.2663327743
 40
0.3994321266
 40
0.4652792355
 40
0.5303098426
 40
0.5942641163
 40
0.6569139169
 40
0.7180845853
 40
0.777666605
 40
0.8356161461
 40
0.8919456067
 40
0.9467124961
 40
1.0
 40
1.0
 40
1.0
 40
1.0
 10
12.6299793281
 20
8.476370001
 30
0.0
 10
12.6319725609
 20
8.4949506121
 30
0.0
 10
12.6357997264
 20
8.5322076855
 30
0.0
 10
12.6409899992
 20
8.5882402469
 30
0.0
 10
12.6455707136
 20
8.644478548
 30
0.0
 10
12.6507570518
 20
8.7194947889
 30
0.0
 10
12.6544218058
 20
8.7943630152
 30
0.0
 10
12.6563072094
 20
8.8687878326
 30
0.0
 10
12.6567867969
 20
8.9237343742
 30
0.0
 10
12.6563228714
 20
8.9777793359
 30
0.0
 10
12.6549282085
 20
9.0307194238
 30
0.0
 10
12.6526404783
 20
9.0823941397
 30
0.0
 10
12.6495172149
 20
9.1326969037
 30
0.0
 10
12.6456288949
 20
9.1815765974
 30
0.0
 10
12.6410520334
 20
9.2290323354
 30
0.0
 10
12.6358633692
 20
9.2751018663
 30
0.0
 10
12.6319945178
 20
9.3053297168
 30
0.0
 10
12.6299793281
 20
9.3202219589
 30
0.0
  0
SPLINE
  5
3C7
100
AcDbEntity
  8
0
100
AcDbSpline
 62
7
  6
CONTINUOUS
 70
0
 71
3
 72
22
 73
18
 74
0
 42
0.0000001
 43
0.0000001
 44
0.0000000001
 40
0.0
 40
0.0
 40
0.0
 40
0.0
 40
0.0578974882
 40
0.1168076123
 40
0.1767563582
 40
0.2377431684
 40
0.2997246356
 40
0.362608436
 40
0.4262493434
 40
0.4904549021
 40
0.5550003489
 40
0.6196506978
 40
0.6841843697
 40
0.7484122155
 40
0.8121886095
 40
0.8754127419
 40
1.0
 40
1.0
 40
1.0
 40
1.0
 10
12.5727698827
 20
9.4232791135
 30
0.0
 10
12.5602627714
 20
9.4346015731
 30
0.0
 10
12.5348496239
 20
9.4572465385
 30
0.0
 10
12.4958190336
 20
9.4908572505
 30
0.0
 10
12.455487449
 20
9.5243242325
 30
0.0
 10
12.4138085622
 20
9.5575537839
 30
0.0
 10
12.3707692293
 20
9.5904309598
 30
0.0
 10
12.3264007959
 20
9.622821534
 30
0.0
 10
12.2807849787
 20
9.654579342
 30
0.0
 10
12.2340539426
 20
9.6855574417
 30
0.0
 10
12.1863819045
 20
9.7156218735
 30
0.0
 10
12.1379695402
 20
9.7446648292
 30
0.0
 10
12.0890245559
 20
9.7726139792
 30
0.0
 10
12.0397432704
 20
9.7994359737
 30
0.0
 10
11.9902967484
 20
9.8251341612
 30
0.0
 10
11.9246551404
 20
9.857784374
 30
0.0
 10
11.8750675282
 20
9.8809632801
 30
0.0
 10
11.8419726501
 20
9.8958860526
 30
0.0
  0
SPLINE
  5
3C8
100
AcDbEntity
  8
0
100
AcDbSpline
 62
7
  6
CONTINUOUS
 70
0
 71
3
 72
15
 73
11
 74
0
 42
0.0000001
 43
0.0000001
 44
0.0000000001
 40
0.0
 40
0.0
 40
0.0
 40
0.0
 40
0.1024590394
 40
0.2125892926
 40
0.3308757892
 40
0.4568382862
 40
0.5888686932
 40
0.7247066359
 40
0.8622407571
 40
1.0
 40
1.0
 40
1.0
 40
1.0
 10
11.7275537593
 20
9.9038210297
 30
0.0
 10
11.7018667805
 20
9.8926581729
 30
0.0
 10
11.6487318897
 20
9.869121138
 30
0.0
 10
11.5665853812
 20
9.8312643092
 30
0.0
 10
11.4792455691
 20
9.7893526432
 30
0.0
 10
11.3872102296
 20
9.743417467
 30
0.0
 10
11.2915913641
 20
9.6939453186
 30
0.0
 10
11.1938238571
 20
9.6417640713
 30
0.0
 10
11.0952494676
 20
9.5877843676
 30
0.0
 10
11.0295621944
 20
9.5510652059
 30
0.0
 10
10.9967565268
 20
9.532576011
 30
0.0
  0
SPLINE
  5
3C9
100
AcDbEntity
  8
0
100
AcDbSpline
 62
7
  6
CONTINUOUS
 70
0
 71
3
 72
20
 73
16
 74
0
 42
0.0000001
 43
0.0000001
 44
0.0000000001
 40
0.0
 40
0.0
 40
0.0
 40
0.0
 40
0.1307118504
 40
0.2609271596
 40
0.3256853614
 40
0.3901038075
 40
0.4540959115
 40
0.5175746912
 40
0.5804579524
 40
0.6426740239
 40
0.7041660739
 40
0.7648946165
 40
0.8248383834
 40
0.8839938085
 40
1.0
 40
1.0
 40
1.0
 40
1.0
 10
10.714148835
 20
9.2197358331
 30
0.0
 10
10.7117702865
 20
9.1830138853
 30
0.0
 10
10.7074556876
 20
9.1096804429
 30
0.0
 10
10.7033627931
 20
9.0180787658
 30
0.0
 10
10.701002519
 20
8.9450903258
 30
0.0
 10
10.6997187615
 20
8.890722541
 30
0.0
 10
10.6989387023
 20
8.8367053849
 30
0.0
 10
10.698675466
 20
8.783115387
 30
0.0
 10
10.6989338087
 20
8.7300253488
 30
0.0
 10
10.6997092563
 20
8.6774997245
 30
0.0
 10
10.7009889106
 20
8.6255907767
 30
0.0
 10
10.7027525148
 20
8.574336165
 30
0.0
 10
10.704973971
 20
8.5237578039
 30
0.0
 10
10.7084827288
 20
8.4576617329
 30
0.0
 10
10.7117375052
 20
8.4084535951
 30
0.0
 10
10.714148835
 20
8.3758838752
 30
0.0
  0
SPLINE
  5
3CA
100
AcDbEntity
  8
0
100
AcDbSpline
 62
7
  6
CONTINUOUS
 70
0
 71
3
 72
21
 73
17
 74
0
 42
0.0000001
 43
0.0000001
 44
0.0000000001
 40
0.0
 40
0.0
 40
0.0
 40
0.0
 40
0.1211305215
 40
0.1823718855
 40
0.2440515074
 40
0.3061441797
 40
0.3686109568
 40
0.4313999269
 40
0.4944480864
 40
0.5576845339
 40
0.6210350022
 40
0.684426846
 40
0.7477930962
 40
0.8110754374
 40
0.8742262746
 40
1.0
 40
1.0
 40
1.0
 40
1.0
 10
10.7713582804
 20
8.2728267205
 30
0.0
 10
10.7990197409
 20
8.2510705128
 30
0.0
 10
10.8409722624
 20
8.2186999739
 30
0.0
 10
10.8977892107
 20
8.1762801801
 30
0.0
 10
10.9412212222
 20
8.1446084913
 30
0.0
 10
10.9853151636
 20
8.1132466529
 30
0.0
 10
11.0300566986
 20
8.0822461389
 30
0.0
 10
11.0754167926
 20
8.0516585112
 30
0.0
 10
11.1213524703
 20
8.0215325149
 30
0.0
 10
11.1678087107
 20
7.9919111076
 30
0.0
 10
11.2147214175
 20
7.9628282179
 30
0.0
 10
11.2620218017
 20
7.9343072552
 30
0.0
 10
11.3096404462
 20
7.9063602476
 30
0.0
 10
11.3575109809
 20
7.8789878362
 30
0.0
 10
11.4215043756
 20
7.8432938642
 30
0.0
 10
11.4698359671
 20
7.8172698203
 30
0.0
 10
11.5021555129
 20
7.8002197814
 30
0.0
  0
SPLINE
  5
3CB
100
AcDbEntity
  8
0
100
AcDbSpline
 62
7
  6
CONTINUOUS
 70
0
 71
3
 72
15
 73
11
 74
0
 42
0.0000001
 43
0.0000001
 44
0.0000000001
 40
0.0
 40
0.0
 40
0.0
 40
0.0
 40
0.1128128137
 40
0.2295619377
 40
0.3503742146
 40
0.4750618339
 40
0.6031113457
 40
0.7337873942
 40
0.8663091291
 40
1.0
 40
1.0
 40
1.0
 40
1.0
 10
11.6165744038
 20
7.7922848044
 30
0.0
 10
11.6444931338
 20
7.8053590721
 30
0.0
 10
11.7012109062
 20
7.8321648077
 30
0.0
 10
11.7874591386
 20
7.8737450557
 30
0.0
 10
11.8762718581
 20
7.9174709601
 30
0.0
 10
11.9674700803
 20
7.9633345938
 30
0.0
 10
12.0606856592
 20
8.0111781508
 30
0.0
 10
12.1554321429
 20
8.0607202124
 30
0.0
 10
12.2512057236
 20
8.1116192014
 30
0.0
 10
12.3152500426
 20
8.1461252017
 30
0.0
 10
12.3473716363
 20
8.1635298231
 30
0.0
  0
SPLINE
  5
3CC
100
AcDbEntity
  8
0
100
AcDbSpline
 62
7
  6
CONTINUOUS
 70
0
 71
3
 72
15
 73
11
 74
0
 42
0.0000001
 43
0.0000001
 44
0.0000000001
 40
0.0
 40
0.0
 40
0.0
 40
0.0
 40
0.1259387151
 40
0.2515500552
 40
0.3768604883
 40
0.5018988711
 40
0.6266970376
 40
0.7512889617
 40
0.8757107437
 40
1.0
 40
1.0
 40
1.0
 40
1.0
 10
11.6334098522
 20
9.8628883909
 30
0.0
 10
11.6211752625
 20
9.8597001979
 30
0.0
 10
11.5968883266
 20
9.8527373234
 30
0.0
 10
11.561060035
 20
9.8405387162
 30
0.0
 10
11.5259574022
 20
9.8266275014
 30
0.0
 10
11.4916594392
 20
9.811032674
 30
0.0
 10
11.4582405574
 20
9.7937901846
 30
0.0
 10
11.4257749237
 20
9.7749360071
 30
0.0
 10
11.3943339288
 20
9.7545139682
 30
0.0
 10
11.3740920369
 20
9.7398747148
 30
0.0
 10
11.3641679619
 20
9.7323114677
 30
0.0
  0
SPLINE
  5
3CD
100
AcDbEntity
  8
0
100
AcDbSpline
 62
7
  6
CONTINUOUS
 70
0
 71
3
 72
35
 73
31
 74
0
 42
0.0000001
 43
0.0000001
 44
0.0000000001
 40
0.0
 40
0.0
 40
0.0
 40
0.0
 40
0.0612906693
 40
0.1229878739
 40
0.1539915337
 40
0.1850872977
 40
0.2162696171
 40
0.2475327476
 40
0.2788701874
 40
0.3102745649
 40
0.3417379897
 40
0.3732520333
 40
0.4048078488
 40
0.4363961973
 40
0.468007577
 40
0.4996322754
 40
0.5312604555
 40
0.562882252
 40
0.5944878596
 40
0.6260676278
 40
0.6576121068
 40
0.6891121837
 40
0.720559106
 40
0.7519446068
 40
0.7832608858
 40
0.8145009644
 40
0.845658577
 40
0.8767276093
 40
0.9385638178
 40
1.0
 40
1.0
 40
1.0
 40
1.0
 10
12.7180396502
 20
9.0033877923
 30
0.0
 10
12.7180396502
 20
9.0304953179
 30
0.0
 10
12.7153581289
 20
9.0849239983
 30
0.0
 10
12.7054257249
 20
9.1524129511
 30
0.0
 10
12.6935964586
 20
9.2058902827
 30
0.0
 10
12.6827791362
 20
9.2457200503
 30
0.0
 10
12.6700573242
 20
9.2851026319
 30
0.0
 10
12.6554622157
 20
9.3239443814
 30
0.0
 10
12.6390288958
 20
9.3621515979
 30
0.0
 10
12.6207967635
 20
9.3996323142
 30
0.0
 10
12.6008101992
 20
9.4362964974
 30
0.0
 10
12.5791166678
 20
9.4720555173
 30
0.0
 10
12.555769341
 20
9.5068238854
 30
0.0
 10
12.5308233397
 20
9.5405171727
 30
0.0
 10
12.5043399489
 20
9.5730552042
 30
0.0
 10
12.4763816367
 20
9.604358607
 30
0.0
 10
12.4470170092
 20
9.6343531939
 30
0.0
 10
12.4163155061
 20
9.6629655412
 30
0.0
 10
12.3843521648
 20
9.690127987
 30
0.0
 10
12.3512029192
 20
9.7157739803
 30
0.0
 10
12.3169483725
 20
9.7398428196
 30
0.0
 10
12.2816703317
 20
9.7622756622
 30
0.0
 10
12.2454541333
 20
9.7830191328
 30
0.0
 10
12.2083867345
 20
9.8020228251
 30
0.0
 10
12.1705573695
 20
9.8192411579
 30
0.0
 10
12.1320573016
 20
9.8346327228
 30
0.0
 10
12.0929780248
 20
9.848159987
 30
0.0
 10
12.040318935
 20
9.8636414915
 30
0.0
 10
11.9735183122
 20
9.8782060355
 30
0.0
 10
11.9192797964
 20
9.8846486068
 30
0.0
 10
11.8921730198
 20
9.8865284681
 30
0.0
  0
SPLINE
  5
3CE
100
AcDbEntity
  8
0
100
AcDbSpline
 62
7
  6
CONTINUOUS
 70
0
 71
3
 72
67
 73
63
 74
0
 42
0.0000001
 43
0.0000001
 44
0.0000000001
 40
0.0
 40
0.0
 40
0.0
 40
0.0
 40
0.0156208593
 40
0.0311919602
 40
0.0467088386
 40
0.062173276
 40
0.0775878162
 40
0.0929540716
 40
0.1082742252
 40
0.1235512559
 40
0.1387885557
 40
0.153989822
 40
0.1691591733
 40
0.1843010435
 40
0.1994201892
 40
0.2145215786
 40
0.2296103873
 40
0.2446919059
 40
0.2597715155
 40
0.274854618
 40
0.2899465735
 40
0.3050526605
 40
0.3201779774
 40
0.3353274489
 40
0.3505057208
 40
0.3657171655
 40
0.380965775
 40
0.3962551812
 40
0.4115885727
 40
0.4269687104
 40
0.4423978773
 40
0.4578778561
 40
0.4734099318
 40
0.488994865
 40
0.5203145517
 40
0.5518423775
 40
0.5676854147
 40
0.5835753953
 40
0.5995097291
 40
0.6154853795
 40
0.6314989709
 40
0.64754676
 40
0.6636247272
 40
0.6797285675
 40
0.6958537564
 40
0.7119955667
 40
0.728149142
 40
0.744309521
 40
0.7604716816
 40
0.7766305859
 40
0.7927812171
 40
0.8089186391
 40
0.8250380274
 40
0.8411347282
 40
0.8572042684
 40
0.873242422
 40
0.8892452006
 40
0.9052090392
 40
0.9211307392
 40
0.9370071758
 40
0.9686057956
 40
1.0
 40
1.0
 40
1.0
 40
1.0
 10
11.5417323219
 20
9.5528583568
 30
0.0
 10
11.5281658897
 20
9.5537991921
 30
0.0
 10
11.5010256324
 20
9.5550168176
 30
0.0
 10
11.4603470844
 20
9.5548416261
 30
0.0
 10
11.419861937
 20
9.5526590263
 30
0.0
 10
11.3796715189
 20
9.5484759111
 30
0.0
 10
11.3398709477
 20
9.5423016112
 30
0.0
 10
11.3005556209
 20
9.5341516617
 30
0.0
 10
11.2618208973
 20
9.5240446093
 30
0.0
 10
11.2237601072
 20
9.5120053936
 30
0.0
 10
11.1864649349
 20
9.4980628057
 30
0.0
 10
11.1500254091
 20
9.4822501577
 30
0.0
 10
11.1145292329
 20
9.4646059881
 30
0.0
 10
11.08006242
 20
9.4451720363
 30
0.0
 10
11.0467075319
 20
9.4239961189
 30
0.0
 10
11.0145458084
 20
9.4011280585
 30
0.0
 10
10.9836538836
 20
9.376624319
 30
0.0
 10
10.9541074079
 20
9.3505425811
 30
0.0
 10
10.9259764163
 20
9.3229471539
 30
0.0
 10
10.8993300681
 20
9.2939032604
 30
0.0
 10
10.874231303
 20
9.2634821758
 30
0.0
 10
10.8507418994
 20
9.2317562427
 30
0.0
 10
10.8289173348
 20
9.1988028674
 30
0.0
 10
10.8088111716
 20
9.1647009002
 30
0.0
 10
10.7904711043
 20
9.1295330552
 30
0.0
 10
10.7739417494
 20
9.0933839062
 30
0.0
 10
10.7592627346
 20
9.056340731
 30
0.0
 10
10.7464692011
 20
9.0184929219
 30
0.0
 10
10.7355923966
 20
8.9799315904
 30
0.0
 10
10.7266576268
 20
8.9407499337
 30
0.0
 10
10.7196874479
 20
8.9010420827
 30
0.0
 10
10.7146971582
 20
8.8609042622
 30
0.0
 10
10.7117003325
 20
8.8204319084
 30
0.0
 10
10.7103673497
 20
8.7660743621
 30
0.0
 10
10.7137332806
 20
8.6977605784
 30
0.0
 10
10.7237237274
 20
8.6298741122
 30
0.0
 10
10.7356221421
 20
8.5760842873
 30
0.0
 10
10.7465028345
 20
8.5360216418
 30
0.0
 10
10.7592989899
 20
8.4964088272
 30
0.0
 10
10.7739794309
 20
8.4573398845
 30
0.0
 10
10.7905088716
 20
8.4189092248
 30
0.0
 10
10.8088476249
 20
8.3812093373
 30
0.0
 10
10.8289510609
 20
8.3443307503
 30
0.0
 10
10.8507714567
 20
8.3083626113
 30
0.0
 10
10.8742553218
 20
8.2733909125
 30
0.0
 10
10.899347209
 20
8.2395005849
 30
0.0
 10
10.9259854717
 20
8.2067722761
 30
0.0
 10
10.9541072768
 20
8.1752858166
 30
0.0
 10
10.9836436266
 20
8.1451158247
 30
0.0
 10
11.014524675
 20
8.1163361514
 30
0.0
 10
11.0466749389
 20
8.0890148563
 30
0.0
 10
11.0800180393
 20
8.0632188868
 30
0.0
 10
11.1144729025
 20
8.0390092973
 30
0.0
 10
11.1499572464
 20
8.0164452686
 30
0.0
 10
11.1863852375
 20
7.99558049
 30
0.0
 10
11.2236694067
 20
7.9764656646
 30
0.0
 10
11.2617199946
 20
7.9591466395
 30
0.0
 10
11.3004452069
 20
7.9436650664
 30
0.0
 10
11.3397530174
 20
7.9300586964
 30
0.0
 10
11.3927200559
 20
7.9144866557
 30
0.0
 10
11.4599113266
 20
7.8998369389
 30
0.0
 10
11.5144670264
 20
7.8933566918
 30
0.0
 10
11.5417323219
 20
7.8914658372
 30
0.0
  0
SPLINE
  5
3CF
100
AcDbEntity
  8
0
100
AcDbSpline
 62
7
  6
CONTINUOUS
 70
0
 71
3
 72
67
 73
63
 74
0
 42
0.0000001
 43
0.0000001
 44
0.0000000001
 40
0.0
 40
0.0
 40
0.0
 40
0.0
 40
0.0156208593
 40
0.0311919602
 40
0.0467088386
 40
0.062173276
 40
0.0775878162
 40
0.0929540716
 40
0.1082742252
 40
0.1235512559
 40
0.1387885557
 40
0.153989822
 40
0.1691591733
 40
0.1843010435
 40
0.1994201892
 40
0.2145215786
 40
0.2296103873
 40
0.2446919059
 40
0.2597715155
 40
0.274854618
 40
0.2899465735
 40
0.3050526605
 40
0.3201779774
 40
0.3353274489
 40
0.3505057208
 40
0.3657171655
 40
0.380965775
 40
0.3962551812
 40
0.4115885727
 40
0.4269687104
 40
0.4423978773
 40
0.4578778561
 40
0.4734099318
 40
0.488994865
 40
0.5203145517
 40
0.5518423775
 40
0.5676854147
 40
0.5835753953
 40
0.5995097291
 40
0.6154853795
 40
0.6314989709
 40
0.64754676
 40
0.6636247272
 40
0.6797285675
 40
0.6958537564
 40
0.7119955667
 40
0.728149142
 40
0.744309521
 40
0.7604716816
 40
0.7766305859
 40
0.7927812171
 40
0.8089186391
 40
0.8250380274
 40
0.8411347282
 40
0.8572042684
 40
0.873242422
 40
0.8892452006
 40
0.9052090392
 40
0.9211307392
 40
0.9370071758
 40
0.9686057956
 40
1.0
 40
1.0
 40
1.0
 40
1.0
 10
11.5417323219
 20
7.8914658372
 30
0.0
 10
11.5552987541
 20
7.8905250019
 30
0.0
 10
11.5824390115
 20
7.8893073763
 30
0.0
 10
11.6231175595
 20
7.8894825679
 30
0.0
 10
11.6636027069
 20
7.8916651677
 30
0.0
 10
11.703793125
 20
7.8958482829
 30
0.0
 10
11.7435936962
 20
7.9020225828
 30
0.0
 10
11.782909023
 20
7.9101725323
 30
0.0
 10
11.8216437466
 20
7.9202795847
 30
0.0
 10
11.8597045367
 20
7.9323188004
 30
0.0
 10
11.896999709
 20
7.9462613882
 30
0.0
 10
11.9334392348
 20
7.9620740363
 30
0.0
 10
11.968935411
 20
7.9797182059
 30
0.0
 10
12.0034022239
 20
7.9991521577
 30
0.0
 10
12.036757112
 20
8.0203280751
 30
0.0
 10
12.0689188355
 20
8.0431961355
 30
0.0
 10
12.0998107603
 20
8.0676998749
 30
0.0
 10
12.129357236
 20
8.0937816129
 30
0.0
 10
12.1574882276
 20
8.12137704
 30
0.0
 10
12.1841345758
 20
8.1504209336
 30
0.0
 10
12.2092333409
 20
8.1808420182
 30
0.0
 10
12.2327227445
 20
8.2125679513
 30
0.0
 10
12.254547309
 20
8.2455213266
 30
0.0
 10
12.2746534722
 20
8.2796232938
 30
0.0
 10
12.2929935395
 20
8.3147911388
 30
0.0
 10
12.3095228945
 20
8.3509402878
 30
0.0
 10
12.3242019093
 20
8.3879834629
 30
0.0
 10
12.3369954428
 20
8.4258312721
 30
0.0
 10
12.3478722473
 20
8.4643926036
 30
0.0
 10
12.3568070171
 20
8.5035742603
 30
0.0
 10
12.363777196
 20
8.5432821113
 30
0.0
 10
12.3687674857
 20
8.5834199318
 30
0.0
 10
12.3717643114
 20
8.6238922856
 30
0.0
 10
12.3730972942
 20
8.6782498319
 30
0.0
 10
12.3697313633
 20
8.7465636156
 30
0.0
 10
12.3597409165
 20
8.8144500818
 30
0.0
 10
12.3478425018
 20
8.8682399067
 30
0.0
 10
12.3369618094
 20
8.9083025522
 30
0.0
 10
12.324165654
 20
8.9479153668
 30
0.0
 10
12.309485213
 20
8.9869843095
 30
0.0
 10
12.2929557723
 20
9.0254149692
 30
0.0
 10
12.274617019
 20
9.0631148566
 30
0.0
 10
12.254513583
 20
9.0999934437
 30
0.0
 10
12.2326931872
 20
9.1359615827
 30
0.0
 10
12.209209322
 20
9.1709332814
 30
0.0
 10
12.1841174349
 20
9.2048236091
 30
0.0
 10
12.1574791722
 20
9.2375519179
 30
0.0
 10
12.1293573671
 20
9.2690383774
 30
0.0
 10
12.0998210173
 20
9.2992083693
 30
0.0
 10
12.0689399689
 20
9.3279880426
 30
0.0
 10
12.036789705
 20
9.3553093377
 30
0.0
 10
12.0034466046
 20
9.3811053071
 30
0.0
 10
11.9689917414
 20
9.4053148967
 30
0.0
 10
11.9335073975
 20
9.4278789254
 30
0.0
 10
11.8970794064
 20
9.448743704
 30
0.0
 10
11.8597952372
 20
9.4678585294
 30
0.0
 10
11.8217446493
 20
9.4851775545
 30
0.0
 10
11.783019437
 20
9.5006591276
 30
0.0
 10
11.7437116265
 20
9.5142654975
 30
0.0
 10
11.690744588
 20
9.5298375383
 30
0.0
 10
11.6235533173
 20
9.5444872551
 30
0.0
 10
11.5689976175
 20
9.5509675021
 30
0.0
 10
11.5417323219
 20
9.5528583568
 30
0.0
  0
SPLINE
  5
3D0
100
AcDbEntity
  8
0
100
AcDbSpline
 62
7
  6
CONTINUOUS
 70
0
 71
3
 72
15
 73
11
 74
0
 42
0.0000001
 43
0.0000001
 44
0.0000000001
 40
0.0
 40
0.0
 40
0.0
 40
0.0
 40
0.1261304062
 40
0.251857918
 40
0.3772174985
 40
0.502247911
 40
0.6269926351
 40
0.751498858
 40
0.8758169754
 40
1.0
 40
1.0
 40
1.0
 40
1.0
 10
11.6728453359
 20
9.8798761669
 30
0.0
 10
11.6582761189
 20
9.8766682947
 30
0.0
 10
11.6293597837
 20
9.8694322199
 30
0.0
 10
11.5867493391
 20
9.8561275395
 30
0.0
 10
11.5450986359
 20
9.8404291907
 30
0.0
 10
11.5045367256
 20
9.8223847973
 30
0.0
 10
11.4651865207
 20
9.8020502433
 30
0.0
 10
11.4271684545
 20
9.7794858648
 30
0.0
 10
11.3905993941
 20
9.7547628232
 30
0.0
 10
11.3672476272
 20
9.7368810777
 30
0.0
 10
11.3558550719
 20
9.727610528
 30
0.0
  0
SPLINE
  5
3D1
100
AcDbEntity
  8
0
100
AcDbSpline
 62
7
  6
CONTINUOUS
 70
0
 71
3
 72
35
 73
31
 74
0
 42
0.0000001
 43
0.0000001
 44
0.0000000001
 40
0.0
 40
0.0
 40
0.0
 40
0.0
 40
0.0612906693
 40
0.1229878739
 40
0.1539915337
 40
0.1850872977
 40
0.2162696171
 40
0.2475327476
 40
0.2788701874
 40
0.3102745649
 40
0.3417379897
 40
0.3732520333
 40
0.4048078488
 40
0.4363961973
 40
0.468007577
 40
0.4996322754
 40
0.5312604555
 40
0.562882252
 40
0.5944878596
 40
0.6260676278
 40
0.6576121068
 40
0.6891121837
 40
0.720559106
 40
0.7519446068
 40
0.7832608858
 40
0.8145009644
 40
0.845658577
 40
0.8767276093
 40
0.9385638178
 40
1.0
 40
1.0
 40
1.0
 40
1.0
 10
12.7283924035
 20
9.0133877847
 30
0.0
 10
12.7283924035
 20
9.0404953103
 30
0.0
 10
12.7257108821
 20
9.0949239906
 30
0.0
 10
12.7157784781
 20
9.1624129434
 30
0.0
 10
12.7039492119
 20
9.2158902751
 30
0.0
 10
12.6931318894
 20
9.2557200426
 30
0.0
 10
12.6804100774
 20
9.2951026243
 30
0.0
 10
12.665814969
 20
9.3339443738
 30
0.0
 10
12.649381649
 20
9.3721515902
 30
0.0
 10
12.6311495167
 20
9.4096323065
 30
0.0
 10
12.6111629525
 20
9.4462964898
 30
0.0
 10
12.589469421
 20
9.4820555096
 30
0.0
 10
12.5661220943
 20
9.5168238777
 30
0.0
 10
12.5411760929
 20
9.5505171651
 30
0.0
 10
12.5146927021
 20
9.5830551965
 30
0.0
 10
12.48673439
 20
9.6143585994
 30
0.0
 10
12.4573697624
 20
9.6443531863
 30
0.0
 10
12.4266682593
 20
9.6729655335
 30
0.0
 10
12.394704918
 20
9.7001279793
 30
0.0
 10
12.3615556724
 20
9.7257739726
 30
0.0
 10
12.3273011258
 20
9.749842812
 30
0.0
 10
12.2920230849
 20
9.7722756545
 30
0.0
 10
12.2558068866
 20
9.7930191251
 30
0.0
 10
12.2187394877
 20
9.8120228174
 30
0.0
 10
12.1809101228
 20
9.8292411502
 30
0.0
 10
12.1424100549
 20
9.8446327151
 30
0.0
 10
12.103330778
 20
9.8581599793
 30
0.0
 10
12.0506716882
 20
9.8736414838
 30
0.0
 10
11.9838710655
 20
9.8882060278
 30
0.0
 10
11.9296325496
 20
9.8946485991
 30
0.0
 10
11.9025257731
 20
9.8965284604
 30
0.0
  0
SPLINE
  5
3D2
100
AcDbEntity
  8
0
100
AcDbSpline
 62
7
  6
CONTINUOUS
 70
0
 71
3
 72
20
 73
16
 74
0
 42
0.0000001
 43
0.0000001
 44
0.0000000001
 40
0.0
 40
0.0
 40
0.0
 40
0.0
 40
0.1160061915
 40
0.1751616166
 40
0.2351053835
 40
0.2958339261
 40
0.3573259761
 40
0.4195420477
 40
0.4824253089
 40
0.5459040886
 40
0.6098961925
 40
0.6743146387
 40
0.7390728404
 40
0.8692881496
 40
1.0
 40
1.0
 40
1.0
 40
1.0
 10
12.4045810817
 20
8.2586520007
 30
0.0
 10
12.4021697519
 20
8.2912217206
 30
0.0
 10
12.3989149756
 20
8.3404298585
 30
0.0
 10
12.3954062178
 20
8.4065259295
 30
0.0
 10
12.3931847615
 20
8.4571042905
 30
0.0
 10
12.3914211574
 20
8.5083589022
 30
0.0
 10
12.3901415031
 20
8.56026785
 30
0.0
 10
12.3893660554
 20
8.6127934744
 30
0.0
 10
12.3891077127
 20
8.6658835125
 30
0.0
 10
12.3893709491
 20
8.7194735104
 30
0.0
 10
12.3901510083
 20
8.7734906665
 30
0.0
 10
12.3914347658
 20
8.8278584514
 30
0.0
 10
12.3937950398
 20
8.9008468913
 30
0.0
 10
12.3978879344
 20
8.9924485684
 30
0.0
 10
12.4022025332
 20
9.0657820108
 30
0.0
 10
12.4045810817
 20
9.1025039586
 30
0.0
  0
SPLINE
  5
3D3
100
AcDbEntity
  8
0
100
AcDbSpline
 62
7
  6
CONTINUOUS
 70
0
 71
3
 72
21
 73
17
 74
0
 42
0.0000001
 43
0.0000001
 44
0.0000000001
 40
0.0
 40
0.0
 40
0.0
 40
0.0
 40
0.1257737254
 40
0.1889245626
 40
0.2522069038
 40
0.3155731541
 40
0.3789649978
 40
0.4423154662
 40
0.5055519136
 40
0.5686000731
 40
0.6313890432
 40
0.6938558204
 40
0.7559484927
 40
0.8176281145
 40
0.8788694786
 40
1.0
 40
1.0
 40
1.0
 40
1.0
 10
12.3473716363
 20
9.2055611132
 30
0.0
 10
12.3150520905
 20
9.2226111521
 30
0.0
 10
12.266720499
 20
9.2486351961
 30
0.0
 10
12.2027271042
 20
9.284329168
 30
0.0
 10
12.1548565696
 20
9.3117015794
 30
0.0
 10
12.1072379251
 20
9.339648587
 30
0.0
 10
12.0599375409
 20
9.3681695497
 30
0.0
 10
12.0130248341
 20
9.3972524394
 30
0.0
 10
11.9665685937
 20
9.4268738468
 30
0.0
 10
11.9206329159
 20
9.456999843
 30
0.0
 10
11.8752728219
 20
9.4875874707
 30
0.0
 10
11.830531287
 20
9.5185879847
 30
0.0
 10
11.7864373456
 20
9.5499498231
 30
0.0
 10
11.743005334
 20
9.5816215119
 30
0.0
 10
11.6861883858
 20
9.6240413057
 30
0.0
 10
11.6442358643
 20
9.6564118446
 30
0.0
 10
11.6165744038
 20
9.6781680524
 30
0.0
  0
SPLINE
  5
3D4
100
AcDbEntity
  8
0
100
AcDbSpline
 62
7
  6
CONTINUOUS
 70
0
 71
3
 72
15
 73
11
 74
0
 42
0.0000001
 43
0.0000001
 44
0.0000000001
 40
0.0
 40
0.0
 40
0.0
 40
0.0
 40
0.1336908709
 40
0.2662126058
 40
0.3968886543
 40
0.5249381662
 40
0.6496257854
 40
0.7704380623
 40
0.8871871863
 40
1.0
 40
1.0
 40
1.0
 40
1.0
 10
11.5021555129
 20
9.6861030294
 30
0.0
 10
11.4700339192
 20
9.668698408
 30
0.0
 10
11.4059896002
 20
9.6341924077
 30
0.0
 10
11.3102160195
 20
9.5832934187
 30
0.0
 10
11.2154695358
 20
9.5337513571
 30
0.0
 10
11.1222539569
 20
9.4859078001
 30
0.0
 10
11.0310557347
 20
9.4400441664
 30
0.0
 10
10.9422430152
 20
9.396318262
 30
0.0
 10
10.8559947828
 20
9.354738014
 30
0.0
 10
10.7992770104
 20
9.3279322784
 30
0.0
 10
10.7713582804
 20
9.3148580107
 30
0.0
  0
SPLINE
  5
3D5
100
AcDbEntity
  8
0
100
AcDbSpline
 62
7
  6
CONTINUOUS
 70
0
 71
3
 72
15
 73
11
 74
0
 42
0.0000001
 43
0.0000001
 44
0.0000000001
 40
0.0
 40
0.0
 40
0.0
 40
0.0
 40
0.1235752096
 40
0.2474950402
 40
0.3717979941
 40
0.4965172206
 40
0.6216760548
 40
0.7472994836
 40
0.8734166375
 40
1.0
 40
1.0
 40
1.0
 40
1.0
 10
12.6470480053
 20
8.6616185452
 30
0.0
 10
12.6537206785
 20
8.6750558694
 30
0.0
 10
12.6662916747
 20
8.7023700779
 30
0.0
 10
12.6827300616
 20
8.7444356351
 30
0.0
 10
12.6967273841
 20
8.7875227265
 30
0.0
 10
12.7082375835
 20
8.8314946393
 30
0.0
 10
12.7172269568
 20
8.8762135295
 30
0.0
 10
12.7236664676
 20
8.9215417094
 30
0.0
 10
12.7275349647
 20
8.9673330573
 30
0.0
 10
12.7283924035
 20
8.9980196996
 30
0.0
 10
12.7283924035
 20
9.0133877847
 30
0.0
  0
SPLINE
  5
3D6
100
AcDbEntity
  8
0
100
AcDbSpline
 62
7
  6
CONTINUOUS
 70
0
 71
3
 72
19
 73
15
 74
0
 42
0.0000001
 43
0.0000001
 44
0.0000000001
 40
0.0
 40
0.0
 40
0.0
 40
0.0
 40
0.1267318338
 40
0.2529199597
 40
0.3785785478
 40
0.5037278304
 40
0.5661285532
 40
0.6284136505
 40
0.690588007
 40
0.7526569502
 40
0.8146262552
 40
0.8765020901
 40
0.9382910273
 40
1.0
 40
1.0
 40
1.0
 40
1.0
 10
12.7455759874
 20
6.1262082026
 30
0.0
 10
12.7455759874
 20
6.1090150981
 30
0.0
 10
12.7445113296
 20
6.0746928695
 30
0.0
 10
12.739701851
 20
6.0235258826
 30
0.0
 10
12.7317021469
 20
5.9729757555
 30
0.0
 10
12.7223920416
 20
5.9314842989
 30
0.0
 10
12.7133835732
 20
5.8988044239
 30
0.0
 10
12.7058607181
 20
5.8745910991
 30
0.0
 10
12.6975729182
 20
5.8506767018
 30
0.0
 10
12.6885278749
 20
5.827084091
 30
0.0
 10
12.6787345928
 20
5.803836082
 30
0.0
 10
12.6682022425
 20
5.7809551321
 30
0.0
 10
12.6569413805
 20
5.7584635795
 30
0.0
 10
12.6489502859
 20
5.7437336276
 30
0.0
 10
12.6448374023
 20
5.7364418105
 30
0.0
  0
SPLINE
  5
3D7
100
AcDbEntity
  8
0
100
AcDbSpline
 62
7
  6
CONTINUOUS
 70
0
 71
3
 72
19
 73
15
 74
0
 42
0.0000001
 43
0.0000001
 44
0.0000000001
 40
0.0
 40
0.0
 40
0.0
 40
0.0
 40
0.1267315004
 40
0.252919423
 40
0.3785779259
 40
0.5037272279
 40
0.5661279892
 40
0.628413143
 40
0.6905875706
 40
0.7526565956
 40
0.8146259895
 40
0.876501916
 40
0.9382909433
 40
1.0
 40
1.0
 40
1.0
 40
1.0
 10
10.5722427494
 20
6.2769293745
 30
0.0
 10
10.5722427494
 20
6.2597403419
 30
0.0
 10
10.5711785956
 20
6.2254262291
 30
0.0
 10
10.5663713969
 20
6.1742712176
 30
0.0
 10
10.5583754762
 20
6.1237326808
 30
0.0
 10
10.5490697603
 20
6.0822504656
 30
0.0
 10
10.5400655204
 20
6.0495776466
 30
0.0
 10
10.5325461855
 20
6.0253694251
 30
0.0
 10
10.5242622506
 20
6.0014599342
 30
0.0
 10
10.5152214101
 20
5.9778720169
 30
0.0
 10
10.5054326607
 20
5.9546284733
 30
0.0
 10
10.494905163
 20
5.9317517461
 30
0.0
 10
10.4836494655
 20
5.9092641581
 30
0.0
 10
10.4756620157
 20
5.8945366691
 30
0.0
 10
10.4715510026
 20
5.887246035
 30
0.0
  0
SPLINE
  5
3D8
100
AcDbEntity
  8
0
100
AcDbSpline
 62
7
  6
CONTINUOUS
 70
0
 71
3
 72
19
 73
15
 74
0
 42
0.0000001
 43
0.0000001
 44
0.0000000001
 40
0.0
 40
0.0
 40
0.0
 40
0.0
 40
0.1267318338
 40
0.2529199597
 40
0.3785785478
 40
0.5037278304
 40
0.5661285532
 40
0.6284136505
 40
0.690588007
 40
0.7526569502
 40
0.8146262552
 40
0.8765020901
 40
0.9382910273
 40
1.0
 40
1.0
 40
1.0
 40
1.0
 10
12.7455759874
 20
9.0239858531
 30
0.0
 10
12.7455759874
 20
9.0067927487
 30
0.0
 10
12.7445113296
 20
8.9724705201
 30
0.0
 10
12.739701851
 20
8.9213035331
 30
0.0
 10
12.7317021469
 20
8.870753406
 30
0.0
 10
12.7223920416
 20
8.8292619495
 30
0.0
 10
12.7133835732
 20
8.7965820744
 30
0.0
 10
12.7058607181
 20
8.7723687496
 30
0.0
 10
12.6975729182
 20
8.7484543524
 30
0.0
 10
12.6885278749
 20
8.7248617416
 30
0.0
 10
12.6787345928
 20
8.7016137326
 30
0.0
 10
12.6682022425
 20
8.6787327826
 30
0.0
 10
12.6569413805
 20
8.6562412301
 30
0.0
 10
12.6489502859
 20
8.6415112782
 30
0.0
 10
12.6448374023
 20
8.6342194611
 30
0.0
  0
SPLINE
  5
3D9
100
AcDbEntity
  8
0
100
AcDbSpline
 62
7
  6
CONTINUOUS
 70
0
 71
3
 72
19
 73
15
 74
0
 42
0.0000001
 43
0.0000001
 44
0.0000000001
 40
0.0
 40
0.0
 40
0.0
 40
0.0
 40
0.1267315004
 40
0.252919423
 40
0.3785779259
 40
0.5037272279
 40
0.5661279892
 40
0.628413143
 40
0.6905875706
 40
0.7526565956
 40
0.8146259895
 40
0.876501916
 40
0.9382909433
 40
1.0
 40
1.0
 40
1.0
 40
1.0
 10
10.5722427494
 20
9.1747070251
 30
0.0
 10
10.5722427494
 20
9.1575179925
 30
0.0
 10
10.5711785956
 20
9.1232038797
 30
0.0
 10
10.5663713969
 20
9.0720488682
 30
0.0
 10
10.5583754762
 20
9.0215103314
 30
0.0
 10
10.5490697603
 20
8.9800281162
 30
0.0
 10
10.5400655204
 20
8.9473552972
 30
0.0
 10
10.5325461855
 20
8.9231470757
 30
0.0
 10
10.5242622506
 20
8.8992375847
 30
0.0
 10
10.5152214101
 20
8.8756496675
 30
0.0
 10
10.5054326607
 20
8.8524061239
 30
0.0
 10
10.494905163
 20
8.8295293967
 30
0.0
 10
10.4836494655
 20
8.8070418086
 30
0.0
 10
10.4756620157
 20
8.7923143196
 30
0.0
 10
10.4715510026
 20
8.7850236856
 30
0.0
  0
SPLINE
  5
3DA
100
AcDbEntity
  8
0
100
AcDbSpline
 62
7
  6
CONTINUOUS
 70
0
 71
3
 72
60
 73
56
 74
0
 42
0.0000001
 43
0.0000001
 44
0.0000000001
 40
0.0
 40
0.0
 40
0.0
 40
0.0
 40
0.0417737215
 40
0.0840362954
 40
0.1266575307
 40
0.1695051874
 40
0.2124464681
 40
0.2553480875
 40
0.2980769527
 40
0.3405006415
 40
0.3824879411
 40
0.4239093736
 40
0.4646377307
 40
0.5045486136
 40
0.543520985
 40
0.5814377367
 40
0.599965091
 40
0.6181867239
 40
0.6360893624
 40
0.6536601077
 40
0.6708864507
 40
0.6877562714
 40
0.7042579206
 40
0.7203801597
 40
0.7361123056
 40
0.7514441249
 40
0.7663660213
 40
0.7808689196
 40
0.7949444585
 40
0.8085849095
 40
0.8217833396
 40
0.8345336065
 40
0.8468304684
 40
0.8586696849
 40
0.8700480724
 40
0.8809637257
 40
0.8914160437
 40
0.9014060712
 40
0.9109365509
 40
0.9200123738
 40
0.9286407389
 40
0.9368317014
 40
0.9445985263
 40
0.9519583321
 40
0.9589326812
 40
0.9655482848
 40
0.9718377328
 40
0.9778400566
 40
0.9836011837
 40
0.9864084827
 40
0.9891757961
 40
0.9919106627
 40
0.9946209124
 40
0.9973146132
 40
1.0
 40
1.0
 40
1.0
 40
1.0
 10
14.2694484948
 20
9.6069337512
 30
0.0
 10
14.2694484948
 20
9.6289477166
 30
0.0
 10
14.269791935
 20
9.6732339552
 30
0.0
 10
14.271310231
 20
9.7399651375
 30
0.0
 10
14.2738302207
 20
9.8072324537
 30
0.0
 10
14.2773436533
 20
9.8748132713
 30
0.0
 10
14.2818389118
 20
9.9424839684
 30
0.0
 10
14.2873011402
 20
10.0100206832
 30
0.0
 10
14.293712243
 20
10.0771999715
 30
0.0
 10
14.3010509678
 20
10.1437995895
 30
0.0
 10
14.3092929663
 20
10.20959922
 30
0.0
 10
14.3184108763
 20
10.2743812164
 30
0.0
 10
14.3283744125
 20
10.3379313072
 30
0.0
 10
14.3391504548
 20
10.4000393929
 30
0.0
 10
14.3507031936
 20
10.4604999631
 30
0.0
 10
14.361023326
 20
10.5097154121
 30
0.0
 10
14.36965055
 20
10.548105948
 30
0.0
 10
14.3762408561
 20
10.5761426776
 30
0.0
 10
14.3829952854
 20
10.6036214786
 30
0.0
 10
14.3899082577
 20
10.630519646
 30
0.0
 10
14.396974021
 20
10.6568149297
 30
0.0
 10
14.4041867518
 20
10.6824855867
 30
0.0
 10
14.4115404144
 20
10.7075103977
 30
0.0
 10
14.4190289826
 20
10.7318686723
 30
0.0
 10
14.42664616
 20
10.7555402907
 30
0.0
 10
14.4343857253
 20
10.778505687
 30
0.0
 10
14.4422411624
 20
10.8007459097
 30
0.0
 10
14.4502060532
 20
10.8222425878
 30
0.0
 10
14.4582737114
 20
10.8429780016
 30
0.0
 10
14.4664375204
 20
10.8629350452
 30
0.0
 10
14.474690673
 20
10.8820972895
 30
0.0
 10
14.4830263617
 20
10.9004489635
 30
0.0
 10
14.4914377036
 20
10.9179749844
 30
0.0
 10
14.4999177228
 20
10.9346609841
 30
0.0
 10
14.508459503
 20
10.9504932789
 30
0.0
 10
14.5170559439
 20
10.9654589689
 30
0.0
 10
14.5257001371
 20
10.9795458204
 30
0.0
 10
14.5343849349
 20
10.9927424551
 30
0.0
 10
14.5431034846
 20
11.0050381367
 30
0.0
 10
14.5518487132
 20
11.0164230336
 30
0.0
 10
14.560613896
 20
11.026887934
 30
0.0
 10
14.5693922035
 20
11.0364245111
 30
0.0
 10
14.5781771556
 20
11.0450250296
 30
0.0
 10
14.5869623479
 20
11.0526824821
 30
0.0
 10
14.5957416733
 20
11.0593903767
 30
0.0
 10
14.6045091507
 20
11.0651425701
 30
0.0
 10
14.6132590842
 20
11.0699333145
 30
0.0
 10
14.6219847477
 20
11.0737565738
 30
0.0
 10
14.6292948266
 20
11.0761524826
 30
0.0
 10
14.6351021063
 20
11.077562954
 30
0.0
 10
14.6394086363
 20
11.0783681353
 30
0.0
 10
14.6437021131
 20
11.0789292691
 30
0.0
 10
14.6479817182
 20
11.0792461774
 30
0.0
 10
14.6522462411
 20
11.0793186799
 30
0.0
 10
14.6550804504
 20
11.079204006
 30
0.0
 10
14.6564922077
 20
11.0791060974
 30
0.0
  0
SPLINE
  5
3DB
100
AcDbEntity
  8
0
100
AcDbSpline
 62
7
  6
CONTINUOUS
 70
0
 71
3
 72
60
 73
56
 74
0
 42
0.0000001
 43
0.0000001
 44
0.0000000001
 40
0.0
 40
0.0
 40
0.0
 40
0.0
 40
0.0417737215
 40
0.0840362954
 40
0.1266575307
 40
0.1695051874
 40
0.2124464681
 40
0.2553480875
 40
0.2980769527
 40
0.3405006415
 40
0.3824879411
 40
0.4239093736
 40
0.4646377307
 40
0.5045486136
 40
0.543520985
 40
0.5814377367
 40
0.599965091
 40
0.6181867239
 40
0.6360893624
 40
0.6536601077
 40
0.6708864507
 40
0.6877562714
 40
0.7042579206
 40
0.7203801597
 40
0.7361123056
 40
0.7514441249
 40
0.7663660213
 40
0.7808689196
 40
0.7949444585
 40
0.8085849095
 40
0.8217833396
 40
0.8345336065
 40
0.8468304684
 40
0.8586696849
 40
0.8700480724
 40
0.8809637257
 40
0.8914160437
 40
0.9014060712
 40
0.9109365509
 40
0.9200123738
 40
0.9286407389
 40
0.9368317014
 40
0.9445985263
 40
0.9519583321
 40
0.9589326812
 40
0.9655482848
 40
0.9718377328
 40
0.9778400566
 40
0.9836011837
 40
0.9864084827
 40
0.9891757961
 40
0.9919106627
 40
0.9946209124
 40
0.9973146132
 40
1.0
 40
1.0
 40
1.0
 40
1.0
 10
14.2694484948
 20
6.7091561007
 30
0.0
 10
14.2694484948
 20
6.731170066
 30
0.0
 10
14.269791935
 20
6.7754563046
 30
0.0
 10
14.271310231
 20
6.8421874869
 30
0.0
 10
14.2738302207
 20
6.9094548032
 30
0.0
 10
14.2773436533
 20
6.9770356208
 30
0.0
 10
14.2818389118
 20
7.0447063179
 30
0.0
 10
14.2873011402
 20
7.1122430326
 30
0.0
 10
14.293712243
 20
7.1794223209
 30
0.0
 10
14.3010509678
 20
7.2460219389
 30
0.0
 10
14.3092929663
 20
7.3118215694
 30
0.0
 10
14.3184108763
 20
7.3766035659
 30
0.0
 10
14.3283744125
 20
7.4401536567
 30
0.0
 10
14.3391504548
 20
7.5022617424
 30
0.0
 10
14.3507031936
 20
7.5627223125
 30
0.0
 10
14.361023326
 20
7.6119377615
 30
0.0
 10
14.36965055
 20
7.6503282974
 30
0.0
 10
14.3762408561
 20
7.6783650271
 30
0.0
 10
14.3829952854
 20
7.705843828
 30
0.0
 10
14.3899082577
 20
7.7327419954
 30
0.0
 10
14.396974021
 20
7.7590372791
 30
0.0
 10
14.4041867518
 20
7.7847079361
 30
0.0
 10
14.4115404144
 20
7.8097327471
 30
0.0
 10
14.4190289826
 20
7.8340910217
 30
0.0
 10
14.42664616
 20
7.8577626401
 30
0.0
 10
14.4343857253
 20
7.8807280364
 30
0.0
 10
14.4422411624
 20
7.9029682591
 30
0.0
 10
14.4502060532
 20
7.9244649373
 30
0.0
 10
14.4582737114
 20
7.945200351
 30
0.0
 10
14.4664375204
 20
7.9651573946
 30
0.0
 10
14.474690673
 20
7.984319639
 30
0.0
 10
14.4830263617
 20
8.002671313
 30
0.0
 10
14.4914377036
 20
8.0201973338
 30
0.0
 10
14.4999177228
 20
8.0368833335
 30
0.0
 10
14.508459503
 20
8.0527156283
 30
0.0
 10
14.5170559439
 20
8.0676813183
 30
0.0
 10
14.5257001371
 20
8.0817681698
 30
0.0
 10
14.5343849349
 20
8.0949648045
 30
0.0
 10
14.5431034846
 20
8.1072604862
 30
0.0
 10
14.5518487132
 20
8.118645383
 30
0.0
 10
14.560613896
 20
8.1291102835
 30
0.0
 10
14.5693922035
 20
8.1386468605
 30
0.0
 10
14.5781771556
 20
8.147247379
 30
0.0
 10
14.5869623479
 20
8.1549048315
 30
0.0
 10
14.5957416733
 20
8.1616127261
 30
0.0
 10
14.6045091507
 20
8.1673649195
 30
0.0
 10
14.6132590842
 20
8.172155664
 30
0.0
 10
14.6219847477
 20
8.1759789232
 30
0.0
 10
14.6292948266
 20
8.1783748321
 30
0.0
 10
14.6351021063
 20
8.1797853034
 30
0.0
 10
14.6394086363
 20
8.1805904847
 30
0.0
 10
14.6437021131
 20
8.1811516185
 30
0.0
 10
14.6479817182
 20
8.1814685268
 30
0.0
 10
14.6522462411
 20
8.1815410293
 30
0.0
 10
14.6550804504
 20
8.1814263554
 30
0.0
 10
14.6564922077
 20
8.1813284469
 30
0.0
  0
SPLINE
  5
3DC
100
AcDbEntity
  8
0
100
AcDbSpline
 62
7
  6
CONTINUOUS
 70
0
 71
3
 72
39
 73
35
 74
0
 42
0.0000001
 43
0.0000001
 44
0.0000000001
 40
0.0
 40
0.0
 40
0.0
 40
0.0
 40
0.0958313223
 40
0.1890999066
 40
0.2792396479
 40
0.3229663115
 40
0.3657099292
 40
0.4074081191
 40
0.4480006754
 40
0.4874302648
 40
0.5256424385
 40
0.5625857699
 40
0.5982125807
 40
0.6324786396
 40
0.665344311
 40
0.6967743203
 40
0.7267388303
 40
0.7552139511
 40
0.7821824427
 40
0.807635341
 40
0.8315726205
 40
0.8540058864
 40
0.8749600023
 40
0.8944766962
 40
0.9126183481
 40
0.9294727137
 40
0.94515911
 40
0.9598336921
 40
0.9668557838
 40
0.973702854
 40
0.9804062715
 40
0.9869997015
 40
0.9935186515
 40
1.0
 40
1.0
 40
1.0
 40
1.0
 10
14.1496048725
 20
11.6900625198
 30
0.0
 10
14.1406450556
 20
11.6906838852
 30
0.0
 10
14.1229779231
 20
11.6921070522
 30
0.0
 10
14.0969465188
 20
11.6948237289
 30
0.0
 10
14.0758337087
 20
11.6975636168
 30
0.0
 10
14.0594660907
 20
11.7000299569
 30
0.0
 10
14.047614323
 20
11.7019879623
 30
0.0
 10
14.036081971
 20
11.7040695124
 30
0.0
 10
14.0248882846
 20
11.7062711839
 30
0.0
 10
14.0140519594
 20
11.7085892432
 30
0.0
 10
14.0035910775
 20
11.7110197829
 30
0.0
 10
13.9935230892
 20
11.71355876
 30
0.0
 10
13.9838647679
 20
11.7162018334
 30
0.0
 10
13.9746322009
 20
11.7189446452
 30
0.0
 10
13.9658407266
 20
11.7217825064
 30
0.0
 10
13.9575049397
 20
11.7247107143
 30
0.0
 10
13.9496386336
 20
11.7277243438
 30
0.0
 10
13.9422547762
 20
11.7308183446
 30
0.0
 10
13.9353655093
 20
11.7339876482
 30
0.0
 10
13.9289820436
 20
11.7372269438
 30
0.0
 10
13.9231147535
 20
11.7405310908
 30
0.0
 10
13.9177730038
 20
11.7438947433
 30
0.0
 10
13.9129652996
 20
11.7473128084
 30
0.0
 10
13.9086992054
 20
11.7507803011
 30
0.0
 10
13.9049814736
 20
11.7542924476
 30
0.0
 10
13.9018182969
 20
11.757845227
 30
0.0
 10
13.8992157015
 20
11.7614340132
 30
0.0
 10
13.897494281
 20
11.7644968763
 30
0.0
 10
13.8964211411
 20
11.7669492919
 30
0.0
 10
13.8957714203
 20
11.7687663446
 30
0.0
 10
13.8952656104
 20
11.7705869817
 30
0.0
 10
13.8949039871
 20
11.7724104442
 30
0.0
 10
13.8946868708
 20
11.7742356844
 30
0.0
 10
13.8946385743
 20
11.77545462
 30
0.0
 10
13.894638569
 20
11.7760620537
 30
0.0
  0
SPLINE
  5
3DD
100
AcDbEntity
  8
0
100
AcDbSpline
 62
7
  6
CONTINUOUS
 70
0
 71
3
 72
39
 73
35
 74
0
 42
0.0000001
 43
0.0000001
 44
0.0000000001
 40
0.0
 40
0.0
 40
0.0
 40
0.0
 40
0.0958313223
 40
0.1890999066
 40
0.2792396479
 40
0.3229663115
 40
0.3657099292
 40
0.4074081191
 40
0.4480006754
 40
0.4874302648
 40
0.5256424385
 40
0.5625857699
 40
0.5982125807
 40
0.6324786396
 40
0.665344311
 40
0.6967743203
 40
0.7267388303
 40
0.7552139511
 40
0.7821824427
 40
0.807635341
 40
0.8315726205
 40
0.8540058864
 40
0.8749600023
 40
0.8944766962
 40
0.9126183481
 40
0.9294727137
 40
0.94515911
 40
0.9598336921
 40
0.9668557838
 40
0.973702854
 40
0.9804062715
 40
0.9869997015
 40
0.9935186515
 40
1.0
 40
1.0
 40
1.0
 40
1.0
 10
8.8370125132
 20
12.0584920513
 30
0.0
 10
8.8280526962
 20
12.0591134167
 30
0.0
 10
8.8103855637
 20
12.0605365837
 30
0.0
 10
8.7843541595
 20
12.0632532604
 30
0.0
 10
8.7632413494
 20
12.0659931482
 30
0.0
 10
8.7468737313
 20
12.0684594883
 30
0.0
 10
8.7350219636
 20
12.0704174938
 30
0.0
 10
8.7234896117
 20
12.0724990439
 30
0.0
 10
8.7122959252
 20
12.0747007153
 30
0.0
 10
8.7014596001
 20
12.0770187746
 30
0.0
 10
8.6909987182
 20
12.0794493143
 30
0.0
 10
8.6809307298
 20
12.0819882915
 30
0.0
 10
8.6712724085
 20
12.0846313649
 30
0.0
 10
8.6620398416
 20
12.0873741766
 30
0.0
 10
8.6532483673
 20
12.0902120379
 30
0.0
 10
8.6449125803
 20
12.0931402458
 30
0.0
 10
8.6370462742
 20
12.0961538753
 30
0.0
 10
8.6296624169
 20
12.0992478761
 30
0.0
 10
8.6227731499
 20
12.1024171797
 30
0.0
 10
8.6163896843
 20
12.1056564753
 30
0.0
 10
8.6105223942
 20
12.1089606222
 30
0.0
 10
8.6051806444
 20
12.1123242748
 30
0.0
 10
8.6003729402
 20
12.1157423399
 30
0.0
 10
8.596106846
 20
12.1192098326
 30
0.0
 10
8.5923891142
 20
12.1227219791
 30
0.0
 10
8.5892259375
 20
12.1262747585
 30
0.0
 10
8.5866233421
 20
12.1298635446
 30
0.0
 10
8.5849019216
 20
12.1329264078
 30
0.0
 10
8.5838287818
 20
12.1353788234
 30
0.0
 10
8.5831790609
 20
12.1371958761
 30
0.0
 10
8.5826732511
 20
12.1390165132
 30
0.0
 10
8.5823116277
 20
12.1408399757
 30
0.0
 10
8.5820945114
 20
12.1426652159
 30
0.0
 10
8.5820462149
 20
12.1438841515
 30
0.0
 10
8.5820462096
 20
12.1444915852
 30
0.0
  0
SPLINE
  5
3DE
100
AcDbEntity
  8
0
100
AcDbSpline
 62
7
  6
CONTINUOUS
 70
0
 71
3
 72
23
 73
19
 74
0
 42
0.0000001
 43
0.0000001
 44
0.0000000001
 40
0.0
 40
0.0
 40
0.0
 40
0.0
 40
0.0620139163
 40
0.1240459014
 40
0.1861068922
 40
0.2482076635
 40
0.3103587921
 40
0.372570576
 40
0.4348529956
 40
0.4972156669
 40
0.5596677681
 40
0.6222180262
 40
0.6848746489
 40
0.747645288
 40
0.8105370247
 40
0.8735562978
 40
0.9367089134
 40
1.0
 40
1.0
 40
1.0
 40
1.0
 10
11.3286090301
 20
6.8153053765
 30
0.0
 10
11.3354335976
 20
6.8215928552
 30
0.0
 10
11.3493197343
 20
6.8339172767
 30
0.0
 10
11.3708239084
 20
6.8516208331
 30
0.0
 10
11.3929805684
 20
6.8685227181
 30
0.0
 10
11.4157626103
 20
6.8846024288
 30
0.0
 10
11.4391428006
 20
6.8998407017
 30
0.0
 10
11.4630930575
 20
6.9142191492
 30
0.0
 10
11.4875845298
 20
6.927720659
 30
0.0
 10
11.5125878836
 20
6.9403288532
 30
0.0
 10
11.5380730169
 20
6.9520287152
 30
0.0
 10
11.5640093248
 20
6.9628061932
 30
0.0
 10
11.5903656851
 20
6.9726482519
 30
0.0
 10
11.6171103843
 20
6.9815432576
 30
0.0
 10
11.6442113209
 20
6.9894803685
 30
0.0
 10
11.6716360357
 20
6.9964501808
 30
0.0
 10
11.6993511238
 20
7.0024442964
 30
0.0
 10
11.717979584
 20
7.0057814735
 30
0.0
 10
11.7273298688
 20
7.0072856477
 30
0.0
  0
SPLINE
  5
3DF
100
AcDbEntity
  8
0
100
AcDbSpline
 62
7
  6
CONTINUOUS
 70
0
 71
3
 72
43
 73
39
 74
0
 42
0.0000001
 43
0.0000001
 44
0.0000000001
 40
0.0
 40
0.0
 40
0.0
 40
0.0
 40
0.0151441571
 40
0.0303165622
 40
0.0455177125
 40
0.0607480204
 40
0.0912942078
 40
0.1219595929
 40
0.1373384977
 40
0.1527470289
 40
0.1681849341
 40
0.1836518767
 40
0.2146681459
 40
0.2457943124
 40
0.2770245715
 40
0.3083518709
 40
0.3397680061
 40
0.371263727
 40
0.402828854
 40
0.4344524024
 40
0.466122714
 40
0.4978275937
 40
0.5295544516
 40
0.5612904468
 40
0.5930226344
 40
0.624738113
 40
0.6564241714
 40
0.6880684347
 40
0.7196590064
 40
0.7511846081
 40
0.7826347131
 40
0.8139996733
 40
0.845270841
 40
0.8764406733
 40
0.9075028514
 40
0.9384523148
 40
0.9692854713
 40
1.0
 40
1.0
 40
1.0
 40
1.0
 10
11.7273298688
 20
7.0072856477
 30
0.0
 10
11.7349223148
 20
7.0085070396
 30
0.0
 10
11.750157544
 20
7.0107330267
 30
0.0
 10
11.7731176656
 20
7.0134167822
 30
0.0
 10
11.7961890765
 20
7.0154466736
 30
0.0
 10
11.8271020916
 20
7.0172805718
 30
0.0
 10
11.8659353082
 20
7.0179266572
 30
0.0
 10
11.9048182379
 20
7.0163816535
 30
0.0
 10
11.935922947
 20
7.0138380795
 30
0.0
 10
11.9592584212
 20
7.0112740358
 30
0.0
 10
11.9825580928
 20
7.0080577851
 30
0.0
 10
12.0135782591
 20
7.002898704
 30
0.0
 10
12.0521744218
 20
6.9948281807
 30
0.0
 10
12.0980070221
 20
6.9825967766
 30
0.0
 10
12.1432591956
 20
6.9678477743
 30
0.0
 10
12.1877874617
 20
6.9506279033
 30
0.0
 10
12.2314518371
 20
6.9309914974
 30
0.0
 10
12.2741147453
 20
6.9090005268
 30
0.0
 10
12.315641858
 20
6.884724348
 30
0.0
 10
12.3559024043
 20
6.8582395
 30
0.0
 10
12.3947696089
 20
6.8296294598
 30
0.0
 10
12.4321210806
 20
6.7989843816
 30
0.0
 10
12.4678391975
 20
6.7664008133
 30
0.0
 10
12.5018114742
 20
6.7319813946
 30
0.0
 10
12.5339309141
 20
6.6958345349
 30
0.0
 10
12.5640963444
 20
6.6580740741
 30
0.0
 10
12.5922127331
 20
6.6188189262
 30
0.0
 10
12.6181914866
 20
6.5781927068
 30
0.0
 10
12.6419507277
 20
6.5363233469
 30
0.0
 10
12.6634155528
 20
6.4933426924
 30
0.0
 10
12.6825182662
 20
6.4493860928
 30
0.0
 10
12.6991985957
 20
6.4045919739
 30
0.0
 10
12.7134038766
 20
6.3591014224
 30
0.0
 10
12.7250892327
 20
6.3130576796
 30
0.0
 10
12.7342176877
 20
6.2666059367
 30
0.0
 10
12.7407603444
 20
6.2198919931
 30
0.0
 10
12.7446963807
 20
6.1730650214
 30
0.0
 10
12.7455759874
 20
6.1418047518
 30
0.0
 10
12.7455759874
 20
6.1262082026
 30
0.0
  0
SPLINE
  5
3E0
100
AcDbEntity
  8
0
100
AcDbSpline
 62
7
  6
CONTINUOUS
 70
0
 71
3
 72
23
 73
19
 74
0
 42
0.0000001
 43
0.0000001
 44
0.0000000001
 40
0.0
 40
0.0
 40
0.0
 40
0.0
 40
0.0620139835
 40
0.1240460022
 40
0.1861069985
 40
0.2482077526
 40
0.3103588472
 40
0.3725705853
 40
0.434852953
 40
0.4972155716
 40
0.5596676242
 40
0.6222178428
 40
0.6848744396
 40
0.7476450707
 40
0.810536821
 40
0.873556133
 40
0.9367088156
 40
1.0
 40
1.0
 40
1.0
 40
1.0
 10
9.1552009021
 20
6.9659575428
 30
0.0
 10
9.1620261704
 20
6.9722473816
 30
0.0
 10
9.1759138472
 20
6.984576438
 30
0.0
 10
9.1974207344
 20
7.0022866679
 30
0.0
 10
9.2195804902
 20
7.0191949261
 30
0.0
 10
9.2423659938
 20
7.0352806935
 30
0.0
 10
9.2657499962
 20
7.0505246889
 30
0.0
 10
9.2897043969
 20
7.064908511
 30
0.0
 10
9.3142003273
 20
7.0784150323
 30
0.0
 10
9.3392084345
 20
7.0910278613
 30
0.0
 10
9.364698597
 20
7.1027319699
 30
0.0
 10
9.3906401901
 20
7.1135132935
 30
0.0
 10
9.4170020706
 20
7.1233587872
 30
0.0
 10
9.443752504
 20
7.1322568075
 30
0.0
 10
9.4708593674
 20
7.1401965039
 30
0.0
 10
9.4982901793
 20
7.1471684656
 30
0.0
 10
9.5260115125
 20
7.1531642876
 30
0.0
 10
9.5446442109
 20
7.156502302
 30
0.0
 10
9.5539966309
 20
7.1580068197
 30
0.0
  0
SPLINE
  5
3E1
100
AcDbEntity
  8
0
100
AcDbSpline
 62
7
  6
CONTINUOUS
 70
0
 71
3
 72
43
 73
39
 74
0
 42
0.0000001
 43
0.0000001
 44
0.0000000001
 40
0.0
 40
0.0
 40
0.0
 40
0.0
 40
0.0151441571
 40
0.0303165622
 40
0.0455177125
 40
0.0607480204
 40
0.0912942078
 40
0.1219595929
 40
0.1373384977
 40
0.1527470289
 40
0.1681849341
 40
0.1836518767
 40
0.2146681459
 40
0.2457943124
 40
0.2770245715
 40
0.3083518709
 40
0.3397680061
 40
0.371263727
 40
0.402828854
 40
0.4344524024
 40
0.466122714
 40
0.4978275937
 40
0.5295544516
 40
0.5612904468
 40
0.5930226344
 40
0.624738113
 40
0.6564241714
 40
0.6880684347
 40
0.7196590064
 40
0.7511846081
 40
0.7826347131
 40
0.8139996733
 40
0.845270841
 40
0.8764406733
 40
0.9075028514
 40
0.9384523148
 40
0.9692854713
 40
1.0
 40
1.0
 40
1.0
 40
1.0
 10
9.5539966309
 20
7.1580068197
 30
0.0
 10
9.5615890768
 20
7.1592282115
 30
0.0
 10
9.5768243061
 20
7.1614541986
 30
0.0
 10
9.5997844277
 20
7.1641379541
 30
0.0
 10
9.6228558386
 20
7.1661678456
 30
0.0
 10
9.6537688536
 20
7.1680017438
 30
0.0
 10
9.6926020703
 20
7.1686478292
 30
0.0
 10
9.731485
 20
7.1671028255
 30
0.0
 10
9.7625897091
 20
7.1645592515
 30
0.0
 10
9.7859251833
 20
7.1619952078
 30
0.0
 10
9.8092248549
 20
7.1587789571
 30
0.0
 10
9.8402450211
 20
7.1536198759
 30
0.0
 10
9.8788411839
 20
7.1455493527
 30
0.0
 10
9.9246737842
 20
7.1333179486
 30
0.0
 10
9.9699259576
 20
7.1185689463
 30
0.0
 10
10.0144542238
 20
7.1013490753
 30
0.0
 10
10.0581185992
 20
7.0817126693
 30
0.0
 10
10.1007815074
 20
7.0597216987
 30
0.0
 10
10.1423086201
 20
7.03544552
 30
0.0
 10
10.1825691664
 20
7.008960672
 30
0.0
 10
10.221436371
 20
6.9803506318
 30
0.0
 10
10.2587878427
 20
6.9497055535
 30
0.0
 10
10.2945059596
 20
6.9171219852
 30
0.0
 10
10.3284782363
 20
6.8827025665
 30
0.0
 10
10.3605976762
 20
6.8465557069
 30
0.0
 10
10.3907631065
 20
6.8087952461
 30
0.0
 10
10.4188794952
 20
6.7695400981
 30
0.0
 10
10.4448582487
 20
6.7289138787
 30
0.0
 10
10.4686174898
 20
6.6870445189
 30
0.0
 10
10.4900823149
 20
6.6440638644
 30
0.0
 10
10.5091850283
 20
6.6001072648
 30
0.0
 10
10.5258653578
 20
6.5553131459
 30
0.0
 10
10.5400706387
 20
6.5098225943
 30
0.0
 10
10.5517559948
 20
6.4637788516
 30
0.0
 10
10.5608844498
 20
6.4173271086
 30
0.0
 10
10.5674271065
 20
6.3706131651
 30
0.0
 10
10.5713631428
 20
6.3237861934
 30
0.0
 10
10.5722427494
 20
6.2925259238
 30
0.0
 10
10.5722427494
 20
6.2769293745
 30
0.0
  0
SPLINE
  5
3E2
100
AcDbEntity
  8
0
100
AcDbSpline
 62
7
  6
CONTINUOUS
 70
0
 71
3
 72
23
 73
19
 74
0
 42
0.0000001
 43
0.0000001
 44
0.0000000001
 40
0.0
 40
0.0
 40
0.0
 40
0.0
 40
0.0620139163
 40
0.1240459014
 40
0.1861068922
 40
0.2482076635
 40
0.3103587921
 40
0.372570576
 40
0.4348529956
 40
0.4972156669
 40
0.5596677681
 40
0.6222180262
 40
0.6848746489
 40
0.747645288
 40
0.8105370247
 40
0.8735562978
 40
0.9367089134
 40
1.0
 40
1.0
 40
1.0
 40
1.0
 10
11.3286090301
 20
9.7130830271
 30
0.0
 10
11.3354335976
 20
9.7193705057
 30
0.0
 10
11.3493197343
 20
9.7316949273
 30
0.0
 10
11.3708239084
 20
9.7493984837
 30
0.0
 10
11.3929805684
 20
9.7663003686
 30
0.0
 10
11.4157626103
 20
9.7823800794
 30
0.0
 10
11.4391428006
 20
9.7976183523
 30
0.0
 10
11.4630930575
 20
9.8119967998
 30
0.0
 10
11.4875845298
 20
9.8254983096
 30
0.0
 10
11.5125878836
 20
9.8381065038
 30
0.0
 10
11.5380730169
 20
9.8498063658
 30
0.0
 10
11.5640093248
 20
9.8605838438
 30
0.0
 10
11.5903656851
 20
9.8704259024
 30
0.0
 10
11.6171103843
 20
9.8793209082
 30
0.0
 10
11.6442113209
 20
9.8872580191
 30
0.0
 10
11.6716360357
 20
9.8942278314
 30
0.0
 10
11.6993511238
 20
9.9002219469
 30
0.0
 10
11.717979584
 20
9.9035591241
 30
0.0
 10
11.7273298688
 20
9.9050632983
 30
0.0
  0
SPLINE
  5
3E3
100
AcDbEntity
  8
0
100
AcDbSpline
 62
7
  6
CONTINUOUS
 70
0
 71
3
 72
43
 73
39
 74
0
 42
0.0000001
 43
0.0000001
 44
0.0000000001
 40
0.0
 40
0.0
 40
0.0
 40
0.0
 40
0.0151441571
 40
0.0303165622
 40
0.0455177125
 40
0.0607480204
 40
0.0912942078
 40
0.1219595929
 40
0.1373384977
 40
0.1527470289
 40
0.1681849341
 40
0.1836518767
 40
0.2146681459
 40
0.2457943124
 40
0.2770245715
 40
0.3083518709
 40
0.3397680061
 40
0.371263727
 40
0.402828854
 40
0.4344524024
 40
0.466122714
 40
0.4978275937
 40
0.5295544516
 40
0.5612904468
 40
0.5930226344
 40
0.624738113
 40
0.6564241714
 40
0.6880684347
 40
0.7196590064
 40
0.7511846081
 40
0.7826347131
 40
0.8139996733
 40
0.845270841
 40
0.8764406733
 40
0.9075028514
 40
0.9384523148
 40
0.9692854713
 40
1.0
 40
1.0
 40
1.0
 40
1.0
 10
11.7273298688
 20
9.9050632983
 30
0.0
 10
11.7349223148
 20
9.9062846901
 30
0.0
 10
11.750157544
 20
9.9085106772
 30
0.0
 10
11.7731176656
 20
9.9111944327
 30
0.0
 10
11.7961890765
 20
9.9132243242
 30
0.0
 10
11.8271020916
 20
9.9150582224
 30
0.0
 10
11.8659353082
 20
9.9157043078
 30
0.0
 10
11.9048182379
 20
9.9141593041
 30
0.0
 10
11.935922947
 20
9.9116157301
 30
0.0
 10
11.9592584212
 20
9.9090516864
 30
0.0
 10
11.9825580928
 20
9.9058354357
 30
0.0
 10
12.0135782591
 20
9.9006763545
 30
0.0
 10
12.0521744218
 20
9.8926058313
 30
0.0
 10
12.0980070221
 20
9.8803744272
 30
0.0
 10
12.1432591956
 20
9.8656254249
 30
0.0
 10
12.1877874617
 20
9.8484055539
 30
0.0
 10
12.2314518371
 20
9.8287691479
 30
0.0
 10
12.2741147453
 20
9.8067781773
 30
0.0
 10
12.315641858
 20
9.7825019986
 30
0.0
 10
12.3559024043
 20
9.7560171506
 30
0.0
 10
12.3947696089
 20
9.7274071104
 30
0.0
 10
12.4321210806
 20
9.6967620321
 30
0.0
 10
12.4678391975
 20
9.6641784638
 30
0.0
 10
12.5018114742
 20
9.6297590451
 30
0.0
 10
12.5339309141
 20
9.5936121855
 30
0.0
 10
12.5640963444
 20
9.5558517247
 30
0.0
 10
12.5922127331
 20
9.5165965767
 30
0.0
 10
12.6181914866
 20
9.4759703573
 30
0.0
 10
12.6419507277
 20
9.4341009975
 30
0.0
 10
12.6634155528
 20
9.391120343
 30
0.0
 10
12.6825182662
 20
9.3471637434
 30
0.0
 10
12.6991985957
 20
9.3023696245
 30
0.0
 10
12.7134038766
 20
9.2568790729
 30
0.0
 10
12.7250892327
 20
9.2108353302
 30
0.0
 10
12.7342176877
 20
9.1643835872
 30
0.0
 10
12.7407603444
 20
9.1176696437
 30
0.0
 10
12.7446963807
 20
9.070842672
 30
0.0
 10
12.7455759874
 20
9.0395824024
 30
0.0
 10
12.7455759874
 20
9.0239858531
 30
0.0
  0
SPLINE
  5
3E4
100
AcDbEntity
  8
0
100
AcDbSpline
 62
7
  6
CONTINUOUS
 70
0
 71
3
 72
23
 73
19
 74
0
 42
0.0000001
 43
0.0000001
 44
0.0000000001
 40
0.0
 40
0.0
 40
0.0
 40
0.0
 40
0.0620139835
 40
0.1240460022
 40
0.1861069985
 40
0.2482077526
 40
0.3103588472
 40
0.3725705853
 40
0.434852953
 40
0.4972155716
 40
0.5596676242
 40
0.6222178428
 40
0.6848744396
 40
0.7476450707
 40
0.810536821
 40
0.873556133
 40
0.9367088156
 40
1.0
 40
1.0
 40
1.0
 40
1.0
 10
9.1552009021
 20
9.8637351933
 30
0.0
 10
9.1620261704
 20
9.8700250322
 30
0.0
 10
9.1759138472
 20
9.8823540885
 30
0.0
 10
9.1974207344
 20
9.9000643185
 30
0.0
 10
9.2195804902
 20
9.9169725766
 30
0.0
 10
9.2423659938
 20
9.9330583441
 30
0.0
 10
9.2657499962
 20
9.9483023394
 30
0.0
 10
9.2897043969
 20
9.9626861616
 30
0.0
 10
9.3142003273
 20
9.9761926828
 30
0.0
 10
9.3392084345
 20
9.9888055119
 30
0.0
 10
9.364698597
 20
10.0005096204
 30
0.0
 10
9.3906401901
 20
10.0112909441
 30
0.0
 10
9.4170020706
 20
10.0211364378
 30
0.0
 10
9.443752504
 20
10.0300344581
 30
0.0
 10
9.4708593674
 20
10.0379741545
 30
0.0
 10
9.4982901793
 20
10.0449461162
 30
0.0
 10
9.5260115125
 20
10.0509419381
 30
0.0
 10
9.5446442109
 20
10.0542799525
 30
0.0
 10
9.5539966309
 20
10.0557844703
 30
0.0
  0
SPLINE
  5
3E5
100
AcDbEntity
  8
0
100
AcDbSpline
 62
7
  6
CONTINUOUS
 70
0
 71
3
 72
43
 73
39
 74
0
 42
0.0000001
 43
0.0000001
 44
0.0000000001
 40
0.0
 40
0.0
 40
0.0
 40
0.0
 40
0.0151441571
 40
0.0303165622
 40
0.0455177125
 40
0.0607480204
 40
0.0912942078
 40
0.1219595929
 40
0.1373384977
 40
0.1527470289
 40
0.1681849341
 40
0.1836518767
 40
0.2146681459
 40
0.2457943124
 40
0.2770245715
 40
0.3083518709
 40
0.3397680061
 40
0.371263727
 40
0.402828854
 40
0.4344524024
 40
0.466122714
 40
0.4978275937
 40
0.5295544516
 40
0.5612904468
 40
0.5930226344
 40
0.624738113
 40
0.6564241714
 40
0.6880684347
 40
0.7196590064
 40
0.7511846081
 40
0.7826347131
 40
0.8139996733
 40
0.845270841
 40
0.8764406733
 40
0.9075028514
 40
0.9384523148
 40
0.9692854713
 40
1.0
 40
1.0
 40
1.0
 40
1.0
 10
9.5539966309
 20
10.0557844703
 30
0.0
 10
9.5615890768
 20
10.0570058621
 30
0.0
 10
9.5768243061
 20
10.0592318492
 30
0.0
 10
9.5997844277
 20
10.0619156047
 30
0.0
 10
9.6228558386
 20
10.0639454962
 30
0.0
 10
9.6537688536
 20
10.0657793944
 30
0.0
 10
9.6926020703
 20
10.0664254798
 30
0.0
 10
9.731485
 20
10.0648804761
 30
0.0
 10
9.7625897091
 20
10.0623369021
 30
0.0
 10
9.7859251833
 20
10.0597728584
 30
0.0
 10
9.8092248549
 20
10.0565566077
 30
0.0
 10
9.8402450211
 20
10.0513975265
 30
0.0
 10
9.8788411839
 20
10.0433270032
 30
0.0
 10
9.9246737842
 20
10.0310955992
 30
0.0
 10
9.9699259576
 20
10.0163465968
 30
0.0
 10
10.0144542238
 20
9.9991267259
 30
0.0
 10
10.0581185992
 20
9.9794903199
 30
0.0
 10
10.1007815074
 20
9.9574993493
 30
0.0
 10
10.1423086201
 20
9.9332231705
 30
0.0
 10
10.1825691664
 20
9.9067383226
 30
0.0
 10
10.221436371
 20
9.8781282824
 30
0.0
 10
10.2587878427
 20
9.8474832041
 30
0.0
 10
10.2945059596
 20
9.8148996358
 30
0.0
 10
10.3284782363
 20
9.7804802171
 30
0.0
 10
10.3605976762
 20
9.7443333574
 30
0.0
 10
10.3907631065
 20
9.7065728967
 30
0.0
 10
10.4188794952
 20
9.6673177487
 30
0.0
 10
10.4448582487
 20
9.6266915293
 30
0.0
 10
10.4686174898
 20
9.5848221694
 30
0.0
 10
10.4900823149
 20
9.541841515
 30
0.0
 10
10.5091850283
 20
9.4978849154
 30
0.0
 10
10.5258653578
 20
9.4530907965
 30
0.0
 10
10.5400706387
 20
9.4076002449
 30
0.0
 10
10.5517559948
 20
9.3615565021
 30
0.0
 10
10.5608844498
 20
9.3151047592
 30
0.0
 10
10.5674271065
 20
9.2683908156
 30
0.0
 10
10.5713631428
 20
9.221563844
 30
0.0
 10
10.5722427494
 20
9.1903035744
 30
0.0
 10
10.5722427494
 20
9.1747070251
 30
0.0
  0
SPLINE
  5
3E6
100
AcDbEntity
  8
0
100
AcDbSpline
 62
7
  6
CONTINUOUS
 70
0
 71
3
 72
54
 73
50
 74
0
 42
0.0000001
 43
0.0000001
 44
0.0000000001
 40
0.0
 40
0.0
 40
0.0
 40
0.0
 40
0.005498893
 40
0.0111936524
 40
0.0171298113
 40
0.0233468368
 40
0.0298783914
 40
0.0367525319
 40
0.0439924553
 40
0.051616895
 40
0.0596408766
 40
0.0680760951
 40
0.0769314837
 40
0.086213548
 40
0.0959267042
 40
0.1060736054
 40
0.1166552689
 40
0.1276714219
 40
0.1391204621
 40
0.1509998266
 40
0.163305842
 40
0.1760340936
 40
0.1891792302
 40
0.2027352946
 40
0.2166955447
 40
0.2310527078
 40
0.2457988643
 40
0.2609256001
 40
0.2764239788
 40
0.2922845858
 40
0.3084975922
 40
0.3250527011
 40
0.3591458174
 40
0.3944748275
 40
0.4309447968
 40
0.4684560714
 40
0.5069048168
 40
0.5461835246
 40
0.5861814964
 40
0.6267853117
 40
0.6678792849
 40
0.7093459164
 40
0.7510663332
 40
0.7929207448
 40
0.8347888378
 40
0.8765503489
 40
0.9180851332
 40
0.9592745042
 40
1.0
 40
1.0
 40
1.0
 40
1.0
 10
14.5549645933
 20
7.8155353954
 30
0.0
 10
14.5530410799
 20
7.8151427692
 30
0.0
 10
14.5491651178
 20
7.8141371351
 30
0.0
 10
14.5434149315
 20
7.8120303559
 30
0.0
 10
14.5376458978
 20
7.8093059852
 30
0.0
 10
14.5318626936
 20
7.8059678201
 30
0.0
 10
14.5260689054
 20
7.8020190796
 30
0.0
 10
14.520268115
 20
7.7974635301
 30
0.0
 10
14.5144641509
 20
7.7923047632
 30
0.0
 10
14.5086607237
 20
7.7865469163
 30
0.0
 10
14.5028618749
 20
7.7801942582
 30
0.0
 10
14.4970715882
 20
7.7732515929
 30
0.0
 10
14.4912940474
 20
7.7657240581
 30
0.0
 10
14.4855334521
 20
7.7576172741
 30
0.0
 10
14.4797940385
 20
7.7489373073
 30
0.0
 10
14.4740801407
 20
7.7396906483
 30
0.0
 10
14.4683959845
 20
7.7298842856
 30
0.0
 10
14.4627459668
 20
7.7195255877
 30
0.0
 10
14.4571342706
 20
7.7086224336
 30
0.0
 10
14.4515652961
 20
7.6971830574
 30
0.0
 10
14.4460431713
 20
7.6852161897
 30
0.0
 10
14.4405722483
 20
7.6727309073
 30
0.0
 10
14.4351565992
 20
7.6597367544
 30
0.0
 10
14.4298004847
 20
7.6462436213
 30
0.0
 10
14.4245079219
 20
7.6322618291
 30
0.0
 10
14.4192830469
 20
7.6178020474
 30
0.0
 10
14.4141298174
 20
7.6028753396
 30
0.0
 10
14.4090522233
 20
7.5874931168
 30
0.0
 10
14.4040541512
 20
7.5716671498
 30
0.0
 10
14.3991394365
 20
7.5554095541
 30
0.0
 10
14.3943118569
 20
7.5387327608
 30
0.0
 10
14.3879338015
 20
7.5157298725
 30
0.0
 10
14.3802181987
 20
7.4860178686
 30
0.0
 10
14.3714522829
 20
7.4492410048
 30
0.0
 10
14.3631180731
 20
7.4111139125
 30
0.0
 10
14.3552412411
 20
7.3717533987
 30
0.0
 10
14.347846063
 20
7.3312799054
 30
0.0
 10
14.3409553128
 20
7.2898173753
 30
0.0
 10
14.3345902024
 20
7.2474927955
 30
0.0
 10
14.3287703162
 20
7.2044358206
 30
0.0
 10
14.3235135521
 20
7.1607783646
 30
0.0
 10
14.3188360686
 20
7.116654196
 30
0.0
 10
14.314752233
 20
7.0721985191
 30
0.0
 10
14.3112745855
 20
7.0275475706
 30
0.0
 10
14.3084137825
 20
6.9828381595
 30
0.0
 10
14.3061786041
 20
6.9382073585
 30
0.0
 10
14.3045758499
 20
6.8937917919
 30
0.0
 10
14.3036104428
 20
6.8497278268
 30
0.0
 10
14.3033922044
 20
6.8204827375
 30
0.0
 10
14.3033922044
 20
6.8059432099
 30
0.0
  0
SPLINE
  5
3E7
100
AcDbEntity
  8
0
100
AcDbSpline
 62
7
  6
CONTINUOUS
 70
0
 71
3
 72
51
 73
47
 74
0
 42
0.0000001
 43
0.0000001
 44
0.0000000001
 40
0.0
 40
0.0
 40
0.0
 40
0.0
 40
0.0055575483
 40
0.0111779716
 40
0.01692191
 40
0.0228457685
 40
0.029000541
 40
0.0354309187
 40
0.0421753321
 40
0.0492661787
 40
0.0567301751
 40
0.0645892818
 40
0.072860934
 40
0.0815589354
 40
0.0906938799
 40
0.1002734384
 40
0.1103031157
 40
0.1207861166
 40
0.1317239771
 40
0.1431166596
 40
0.1549625852
 40
0.1672591636
 40
0.1800024627
 40
0.1931876894
 40
0.2068091423
 40
0.2208601567
 40
0.2502201891
 40
0.2812020358
 40
0.3137291498
 40
0.3477165256
 40
0.3830717054
 40
0.4196956132
 40
0.4574832856
 40
0.4963245986
 40
0.5361048951
 40
0.5767055669
 40
0.6180046028
 40
0.6598771293
 40
0.7021959705
 40
0.7448321944
 40
0.7876555817
 40
0.8305351627
 40
0.8733399838
 40
0.9159382941
 40
0.9582023666
 40
1.0
 40
1.0
 40
1.0
 40
1.0
 10
14.5826385322
 20
11.7760628542
 30
0.0
 10
14.5826385395
 20
11.775211864
 30
0.0
 10
14.5825432988
 20
11.773498774
 30
0.0
 10
14.5821157421
 20
11.7709382698
 30
0.0
 10
14.5814041215
 20
11.7683834985
 30
0.0
 10
14.5804099791
 20
11.765837366
 30
0.0
 10
14.57913477
 20
11.7633020106
 30
0.0
 10
14.5775803514
 20
11.7607793112
 30
0.0
 10
14.575748433
 20
11.7582710221
 30
0.0
 10
14.5736407866
 20
11.7557788686
 30
0.0
 10
14.571259378
 20
11.7533044431
 30
0.0
 10
14.5686061049
 20
11.7508495717
 30
0.0
 10
14.5656832023
 20
11.7484159223
 30
0.0
 10
14.5624929766
 20
11.7460053254
 30
0.0
 10
14.5590379557
 20
11.7436196388
 30
0.0
 10
14.5553209351
 20
11.7412606229
 30
0.0
 10
14.5513448317
 20
11.7389302358
 30
0.0
 10
14.5471128749
 20
11.7366302456
 30
0.0
 10
14.542628451
 20
11.7343625333
 30
0.0
 10
14.5378951735
 20
11.7321289558
 30
0.0
 10
14.5329168937
 20
11.729931255
 30
0.0
 10
14.5276976226
 20
11.7277713129
 30
0.0
 10
14.5222416235
 20
11.725650817
 30
0.0
 10
14.5165533294
 20
11.7235715422
 30
0.0
 10
14.5106373669
 20
11.7215351867
 30
0.0
 10
14.5023302764
 20
11.7188399446
 30
0.0
 10
14.4914071993
 20
11.715600193
 30
0.0
 10
14.4776577457
 20
11.7119637275
 30
0.0
 10
14.4631259537
 20
11.7085358275
 30
0.0
 10
14.4478593154
 20
11.7053278213
 30
0.0
 10
14.4319076028
 20
11.7023503458
 30
0.0
 10
14.4153229465
 20
11.6996132628
 30
0.0
 10
14.3981595818
 20
11.6971256222
 30
0.0
 10
14.3804736732
 20
11.6948956505
 30
0.0
 10
14.3623231127
 20
11.6929307213
 30
0.0
 10
14.3437673299
 20
11.6912373332
 30
0.0
 10
14.3248670987
 20
11.6898210871
 30
0.0
 10
14.3056843356
 20
11.688686653
 30
0.0
 10
14.2862818879
 20
11.6878377735
 30
0.0
 10
14.2667233269
 20
11.6872772523
 30
0.0
 10
14.2470727422
 20
11.6870069441
 30
0.0
 10
14.2273944949
 20
11.6870277414
 30
0.0
 10
14.2077531769
 20
11.6873395896
 30
0.0
 10
14.1882128732
 20
11.6879414097
 30
0.0
 10
14.1688379863
 20
11.6888312887
 30
0.0
 10
14.1559897292
 20
11.6896197285
 30
0.0
 10
14.1496048725
 20
11.6900625198
 30
0.0
  0
SPLINE
  5
3E8
100
AcDbEntity
  8
0
100
AcDbSpline
 62
7
  6
CONTINUOUS
 70
0
 71
3
 72
49
 73
45
 74
0
 42
0.0000001
 43
0.0000001
 44
0.0000000001
 40
0.0
 40
0.0
 40
0.0
 40
0.0
 40
0.0063856902
 40
0.0129180053
 40
0.019624098
 40
0.0265287875
 40
0.0336545132
 40
0.0410214547
 40
0.0486474966
 40
0.0565483583
 40
0.0647378786
 40
0.073228045
 40
0.0820291327
 40
0.0911500263
 40
0.1005982378
 40
0.1103799828
 40
0.1205004928
 40
0.1309640109
 40
0.1417737918
 40
0.1529323962
 40
0.1644416754
 40
0.1763027046
 40
0.2010807194
 40
0.2272658068
 40
0.2548487476
 40
0.283813836
 40
0.3141399625
 40
0.3458012609
 40
0.378767443
 40
0.4130045002
 40
0.4484749693
 40
0.4851381229
 40
0.5229504705
 40
0.5618658381
 40
0.6018355411
 40
0.6428087597
 40
0.6847325381
 40
0.7275519339
 40
0.7712103781
 40
0.8156497522
 40
0.8608098586
 40
0.9066296536
 40
0.9530492264
 40
1.0
 40
1.0
 40
1.0
 40
1.0
 10
14.4431550886
 20
6.2032891056
 30
0.0
 10
14.4418753784
 20
6.2037415424
 30
0.0
 10
14.4393189563
 20
6.2047510708
 30
0.0
 10
14.4355513272
 20
6.2065481037
 30
0.0
 10
14.4318134273
 20
6.2086422551
 30
0.0
 10
14.4281068406
 20
6.2110323627
 30
0.0
 10
14.4244327151
 20
6.2137173079
 30
0.0
 10
14.4207923532
 20
6.2166960129
 30
0.0
 10
14.4171869473
 20
6.219967249
 30
0.0
 10
14.4136176436
 20
6.2235296866
 30
0.0
 10
14.4100856863
 20
6.2273820308
 30
0.0
 10
14.40659227
 20
6.231522841
 30
0.0
 10
14.4031385312
 20
6.235950545
 30
0.0
 10
14.3997257112
 20
6.2406635647
 30
0.0
 10
14.3963550167
 20
6.245660188
 30
0.0
 10
14.3930275781
 20
6.2509385548
 30
0.0
 10
14.3897446198
 20
6.2564967726
 30
0.0
 10
14.3865073443
 20
6.262332828
 30
0.0
 10
14.383316858
 20
6.2684445581
 30
0.0
 10
14.3801743563
 20
6.2748297463
 30
0.0
 10
14.3770809877
 20
6.2814860851
 30
0.0
 10
14.3729634333
 20
6.2908562791
 30
0.0
 10
14.3679596941
 20
6.3032409414
 30
0.0
 10
14.3622530986
 20
6.3189341925
 30
0.0
 10
14.3567685862
 20
6.3356455571
 30
0.0
 10
14.3515141991
 20
6.3533504604
 30
0.0
 10
14.3464977278
 20
6.3720231065
 30
0.0
 10
14.3417266762
 20
6.391636121
 30
0.0
 10
14.3372080887
 20
6.4121606924
 30
0.0
 10
14.3329487249
 20
6.4335666289
 30
0.0
 10
14.3289549653
 20
6.4558224042
 30
0.0
 10
14.3252327163
 20
6.478895199
 30
0.0
 10
14.3217875666
 20
6.5027509745
 30
0.0
 10
14.3186246669
 20
6.5273545147
 30
0.0
 10
14.3157486947
 20
6.5526694804
 30
0.0
 10
14.3131639821
 20
6.5786584766
 30
0.0
 10
14.3108743817
 20
6.6052830935
 30
0.0
 10
14.3088832778
 20
6.6325039752
 30
0.0
 10
14.3071936833
 20
6.6602809132
 30
0.0
 10
14.3058081181
 20
6.6885727869
 30
0.0
 10
14.3047286146
 20
6.7173377016
 30
0.0
 10
14.303956816
 20
6.7465335574
 30
0.0
 10
14.3034939318
 20
6.776116559
 30
0.0
 10
14.3033922044
 20
6.7959634098
 30
0.0
 10
14.3033922044
 20
6.8059432099
 30
0.0
  0
SPLINE
  5
3E9
100
AcDbEntity
  8
0
100
AcDbSpline
 62
7
  6
CONTINUOUS
 70
0
 71
3
 72
54
 73
50
 74
0
 42
0.0000001
 43
0.0000001
 44
0.0000000001
 40
0.0
 40
0.0
 40
0.0
 40
0.0
 40
0.0063158427
 40
0.0126705974
 40
0.0191023953
 40
0.0256479035
 40
0.0323417516
 40
0.0392160545
 40
0.0536138127
 40
0.061194488
 40
0.0690562166
 40
0.0772172825
 40
0.0856936302
 40
0.0944989909
 40
0.1036450473
 40
0.113141787
 40
0.1229974971
 40
0.1332190617
 40
0.1438121259
 40
0.1547810799
 40
0.1661293869
 40
0.1778595312
 40
0.189973133
 40
0.2024711534
 40
0.2153537503
 40
0.2286205275
 40
0.2422705277
 40
0.256302183
 40
0.2707135528
 40
0.2855021644
 40
0.300665138
 40
0.316199276
 40
0.3321009043
 40
0.3649900029
 40
0.3992976831
 40
0.4349839512
 40
0.472004695
 40
0.5103120262
 40
0.5498546333
 40
0.5905781015
 40
0.6324251619
 40
0.6753358913
 40
0.7192479428
 40
0.7640967229
 40
0.8098156864
 40
0.8563364658
 40
0.9035883331
 40
0.9515014468
 40
1.0
 40
1.0
 40
1.0
 40
1.0
 10
14.4932172242
 20
5.8269833025
 30
0.0
 10
14.4912228051
 20
5.82712162
 30
0.0
 10
14.4872311019
 20
5.827562338
 30
0.0
 10
14.4812882945
 20
5.8287111683
 30
0.0
 10
14.475385199
 20
5.8303475736
 30
0.0
 10
14.4695252801
 20
5.8324703312
 30
0.0
 10
14.463710857
 20
5.8350782381
 30
0.0
 10
14.4559036005
 20
5.8392633124
 30
0.0
 10
14.4483084189
 20
5.84438657
 30
0.0
 10
14.4409581542
 20
5.8503235341
 30
0.0
 10
14.4354062866
 20
5.8553291644
 30
0.0
 10
14.4299136445
 20
5.8608077659
 30
0.0
 10
14.4244816924
 20
5.8667574797
 30
0.0
 10
14.419112645
 20
5.8731757201
 30
0.0
 10
14.4138083982
 20
5.88005983
 30
0.0
 10
14.4085711053
 20
5.8874070684
 30
0.0
 10
14.4034027224
 20
5.8952144054
 30
0.0
 10
14.3983052825
 20
5.9034786827
 30
0.0
 10
14.3932808768
 20
5.9121965825
 30
0.0
 10
14.3883314151
 20
5.9213645186
 30
0.0
 10
14.3834589681
 20
5.9309787999
 30
0.0
 10
14.3786654913
 20
5.9410355008
 30
0.0
 10
14.3739528848
 20
5.9515305048
 30
0.0
 10
14.3693231626
 20
5.9624595555
 30
0.0
 10
14.3647781381
 20
5.9738181552
 30
0.0
 10
14.3603197064
 20
5.9856016629
 30
0.0
 10
14.355949734
 20
5.9978052556
 30
0.0
 10
14.3516699439
 20
6.0104239086
 30
0.0
 10
14.3474821778
 20
6.0234524572
 30
0.0
 10
14.3433881218
 20
6.0368855387
 30
0.0
 10
14.339389454
 20
6.0507176242
 30
0.0
 10
14.3354878665
 20
6.0649430499
 30
0.0
 10
14.3303596811
 20
6.0846485004
 30
0.0
 10
14.3242175926
 20
6.110228087
 30
0.0
 10
14.3173392692
 20
6.1420624672
 30
0.0
 10
14.3108843754
 20
6.1753184775
 30
0.0
 10
14.3048636569
 20
6.2099413155
 30
0.0
 10
14.299287145
 20
6.2458740866
 30
0.0
 10
14.2941641206
 20
6.2830576266
 30
0.0
 10
14.2895031227
 20
6.321430705
 30
0.0
 10
14.2853119317
 20
6.3609301045
 30
0.0
 10
14.2815975328
 20
6.4014907262
 30
0.0
 10
14.2783661071
 20
6.4430456876
 30
0.0
 10
14.2756230374
 20
6.4855264699
 30
0.0
 10
14.2733729072
 20
6.5288630457
 30
0.0
 10
14.2716195029
 20
6.5729837812
 30
0.0
 10
14.2703656756
 20
6.6178163152
 30
0.0
 10
14.2696136365
 20
6.6632861059
 30
0.0
 10
14.2694484948
 20
6.693804424
 30
0.0
 10
14.2694484948
 20
6.7091561007
 30
0.0
  0
SPLINE
  5
3EA
100
AcDbEntity
  8
0
100
AcDbSpline
 62
7
  6
CONTINUOUS
 70
0
 71
3
 72
51
 73
47
 74
0
 42
0.0000001
 43
0.0000001
 44
0.0000000001
 40
0.0
 40
0.0
 40
0.0
 40
0.0
 40
0.0055575483
 40
0.0111779716
 40
0.01692191
 40
0.0228457685
 40
0.029000541
 40
0.0354309187
 40
0.0421753321
 40
0.0492661787
 40
0.0567301751
 40
0.0645892818
 40
0.072860934
 40
0.0815589354
 40
0.0906938799
 40
0.1002734384
 40
0.1103031157
 40
0.1207861166
 40
0.1317239771
 40
0.1431166596
 40
0.1549625852
 40
0.1672591636
 40
0.1800024627
 40
0.1931876894
 40
0.2068091423
 40
0.2208601567
 40
0.2502201891
 40
0.2812020358
 40
0.3137291498
 40
0.3477165256
 40
0.3830717054
 40
0.4196956132
 40
0.4574832856
 40
0.4963245986
 40
0.5361048951
 40
0.5767055669
 40
0.6180046028
 40
0.6598771293
 40
0.7021959705
 40
0.7448321944
 40
0.7876555817
 40
0.8305351627
 40
0.8733399838
 40
0.9159382941
 40
0.9582023666
 40
1.0
 40
1.0
 40
1.0
 40
1.0
 10
9.2700461728
 20
12.1444923857
 30
0.0
 10
9.2700461802
 20
12.1436413955
 30
0.0
 10
9.2699509394
 20
12.1419283054
 30
0.0
 10
9.2695233827
 20
12.1393678013
 30
0.0
 10
9.2688117622
 20
12.13681303
 30
0.0
 10
9.2678176197
 20
12.1342668975
 30
0.0
 10
9.2665424106
 20
12.1317315421
 30
0.0
 10
9.2649879921
 20
12.1292088427
 30
0.0
 10
9.2631560736
 20
12.1267005535
 30
0.0
 10
9.2610484273
 20
12.1242084001
 30
0.0
 10
9.2586670186
 20
12.1217339746
 30
0.0
 10
9.2560137455
 20
12.1192791032
 30
0.0
 10
9.2530908429
 20
12.1168454538
 30
0.0
 10
9.2499006172
 20
12.1144348569
 30
0.0
 10
9.2464455963
 20
12.1120491702
 30
0.0
 10
9.2427285757
 20
12.1096901544
 30
0.0
 10
9.2387524723
 20
12.1073597673
 30
0.0
 10
9.2345205155
 20
12.1050597771
 30
0.0
 10
9.2300360917
 20
12.1027920648
 30
0.0
 10
9.2253028142
 20
12.1005584873
 30
0.0
 10
9.2203245343
 20
12.0983607865
 30
0.0
 10
9.2151052632
 20
12.0962008444
 30
0.0
 10
9.2096492642
 20
12.0940803485
 30
0.0
 10
9.2039609701
 20
12.0920010737
 30
0.0
 10
9.1980450075
 20
12.0899647182
 30
0.0
 10
9.189737917
 20
12.0872694761
 30
0.0
 10
9.1788148399
 20
12.0840297245
 30
0.0
 10
9.1650653864
 20
12.080393259
 30
0.0
 10
9.1505335944
 20
12.076965359
 30
0.0
 10
9.135266956
 20
12.0737573528
 30
0.0
 10
9.1193152434
 20
12.0707798773
 30
0.0
 10
9.1027305871
 20
12.0680427943
 30
0.0
 10
9.0855672224
 20
12.0655551536
 30
0.0
 10
9.0678813138
 20
12.063325182
 30
0.0
 10
9.0497307533
 20
12.0613602527
 30
0.0
 10
9.0311749705
 20
12.0596668646
 30
0.0
 10
9.0122747393
 20
12.0582506185
 30
0.0
 10
8.9930919763
 20
12.0571161845
 30
0.0
 10
8.9736895285
 20
12.056267305
 30
0.0
 10
8.9541309675
 20
12.0557067838
 30
0.0
 10
8.9344803828
 20
12.0554364756
 30
0.0
 10
8.9148021356
 20
12.0554572729
 30
0.0
 10
8.8951608175
 20
12.0557691211
 30
0.0
 10
8.8756205138
 20
12.0563709412
 30
0.0
 10
8.856245627
 20
12.0572608202
 30
0.0
 10
8.8433973698
 20
12.05804926
 30
0.0
 10
8.8370125132
 20
12.0584920513
 30
0.0
  0
SPLINE
  5
3EB
100
AcDbEntity
  8
0
100
AcDbSpline
 62
7
  6
CONTINUOUS
 70
0
 71
3
 72
54
 73
50
 74
0
 42
0.0000001
 43
0.0000001
 44
0.0000000001
 40
0.0
 40
0.0
 40
0.0
 40
0.0
 40
0.0063158427
 40
0.0126705974
 40
0.0191023953
 40
0.0256479035
 40
0.0323417516
 40
0.0392160545
 40
0.0536138127
 40
0.061194488
 40
0.0690562166
 40
0.0772172825
 40
0.0856936302
 40
0.0944989909
 40
0.1036450473
 40
0.113141787
 40
0.1229974971
 40
0.1332190617
 40
0.1438121259
 40
0.1547810799
 40
0.1661293869
 40
0.1778595312
 40
0.189973133
 40
0.2024711534
 40
0.2153537503
 40
0.2286205275
 40
0.2422705277
 40
0.256302183
 40
0.2707135528
 40
0.2855021644
 40
0.300665138
 40
0.316199276
 40
0.3321009043
 40
0.3649900029
 40
0.3992976831
 40
0.4349839512
 40
0.472004695
 40
0.5103120262
 40
0.5498546333
 40
0.5905781015
 40
0.6324251619
 40
0.6753358913
 40
0.7192479428
 40
0.7640967229
 40
0.8098156864
 40
0.8563364658
 40
0.9035883331
 40
0.9515014468
 40
1.0
 40
1.0
 40
1.0
 40
1.0
 10
14.4932172242
 20
8.7247609531
 30
0.0
 10
14.4912228051
 20
8.7248992705
 30
0.0
 10
14.4872311019
 20
8.7253399886
 30
0.0
 10
14.4812882945
 20
8.7264888189
 30
0.0
 10
14.475385199
 20
8.7281252242
 30
0.0
 10
14.4695252801
 20
8.7302479817
 30
0.0
 10
14.463710857
 20
8.7328558887
 30
0.0
 10
14.4559036005
 20
8.737040963
 30
0.0
 10
14.4483084189
 20
8.7421642206
 30
0.0
 10
14.4409581542
 20
8.7481011847
 30
0.0
 10
14.4354062866
 20
8.753106815
 30
0.0
 10
14.4299136445
 20
8.7585854164
 30
0.0
 10
14.4244816924
 20
8.7645351303
 30
0.0
 10
14.419112645
 20
8.7709533707
 30
0.0
 10
14.4138083982
 20
8.7778374806
 30
0.0
 10
14.4085711053
 20
8.7851847189
 30
0.0
 10
14.4034027224
 20
8.792992056
 30
0.0
 10
14.3983052825
 20
8.8012563333
 30
0.0
 10
14.3932808768
 20
8.809974233
 30
0.0
 10
14.3883314151
 20
8.8191421692
 30
0.0
 10
14.3834589681
 20
8.8287564505
 30
0.0
 10
14.3786654913
 20
8.8388131513
 30
0.0
 10
14.3739528848
 20
8.8493081553
 30
0.0
 10
14.3693231626
 20
8.860237206
 30
0.0
 10
14.3647781381
 20
8.8715958057
 30
0.0
 10
14.3603197064
 20
8.8833793135
 30
0.0
 10
14.355949734
 20
8.8955829061
 30
0.0
 10
14.3516699439
 20
8.9082015591
 30
0.0
 10
14.3474821778
 20
8.9212301078
 30
0.0
 10
14.3433881218
 20
8.9346631892
 30
0.0
 10
14.339389454
 20
8.9484952748
 30
0.0
 10
14.3354878665
 20
8.9627207005
 30
0.0
 10
14.3303596811
 20
8.982426151
 30
0.0
 10
14.3242175926
 20
9.0080057376
 30
0.0
 10
14.3173392692
 20
9.0398401178
 30
0.0
 10
14.3108843754
 20
9.0730961281
 30
0.0
 10
14.3048636569
 20
9.107718966
 30
0.0
 10
14.299287145
 20
9.1436517372
 30
0.0
 10
14.2941641206
 20
9.1808352772
 30
0.0
 10
14.2895031227
 20
9.2192083556
 30
0.0
 10
14.2853119317
 20
9.2587077551
 30
0.0
 10
14.2815975328
 20
9.2992683768
 30
0.0
 10
14.2783661071
 20
9.3408233382
 30
0.0
 10
14.2756230374
 20
9.3833041205
 30
0.0
 10
14.2733729072
 20
9.4266406963
 30
0.0
 10
14.2716195029
 20
9.4707614318
 30
0.0
 10
14.2703656756
 20
9.5155939658
 30
0.0
 10
14.2696136365
 20
9.5610637565
 30
0.0
 10
14.2694484948
 20
9.5915820746
 30
0.0
 10
14.2694484948
 20
9.6069337512
 30
0.0
  0
SPLINE
  5
3EC
100
AcDbEntity
  8
0
100
AcDbSpline
 62
7
  6
CONTINUOUS
 70
0
 71
3
 72
54
 73
50
 74
0
 42
0.0000001
 43
0.0000001
 44
0.0000000001
 40
0.0
 40
0.0
 40
0.0
 40
0.0
 40
0.005498893
 40
0.0111936524
 40
0.0171298113
 40
0.0233468368
 40
0.0298783914
 40
0.0367525319
 40
0.0439924553
 40
0.051616895
 40
0.0596408766
 40
0.0680760951
 40
0.0769314837
 40
0.086213548
 40
0.0959267042
 40
0.1060736054
 40
0.1166552689
 40
0.1276714219
 40
0.1391204621
 40
0.1509998266
 40
0.163305842
 40
0.1760340936
 40
0.1891792302
 40
0.2027352946
 40
0.2166955447
 40
0.2310527078
 40
0.2457988643
 40
0.2609256001
 40
0.2764239788
 40
0.2922845858
 40
0.3084975922
 40
0.3250527011
 40
0.3591458174
 40
0.3944748275
 40
0.4309447968
 40
0.4684560714
 40
0.5069048168
 40
0.5461835246
 40
0.5861814964
 40
0.6267853117
 40
0.6678792849
 40
0.7093459164
 40
0.7510663332
 40
0.7929207448
 40
0.8347888378
 40
0.8765503489
 40
0.9180851332
 40
0.9592745042
 40
1.0
 40
1.0
 40
1.0
 40
1.0
 10
14.5549645933
 20
10.713313046
 30
0.0
 10
14.5530410799
 20
10.7129204198
 30
0.0
 10
14.5491651178
 20
10.7119147856
 30
0.0
 10
14.5434149315
 20
10.7098080065
 30
0.0
 10
14.5376458978
 20
10.7070836358
 30
0.0
 10
14.5318626936
 20
10.7037454707
 30
0.0
 10
14.5260689054
 20
10.6997967302
 30
0.0
 10
14.520268115
 20
10.6952411807
 30
0.0
 10
14.5144641509
 20
10.6900824137
 30
0.0
 10
14.5086607237
 20
10.6843245669
 30
0.0
 10
14.5028618749
 20
10.6779719087
 30
0.0
 10
14.4970715882
 20
10.6710292434
 30
0.0
 10
14.4912940474
 20
10.6635017087
 30
0.0
 10
14.4855334521
 20
10.6553949246
 30
0.0
 10
14.4797940385
 20
10.6467149579
 30
0.0
 10
14.4740801407
 20
10.6374682989
 30
0.0
 10
14.4683959845
 20
10.6276619361
 30
0.0
 10
14.4627459668
 20
10.6173032383
 30
0.0
 10
14.4571342706
 20
10.6064000842
 30
0.0
 10
14.4515652961
 20
10.594960708
 30
0.0
 10
14.4460431713
 20
10.5829938403
 30
0.0
 10
14.4405722483
 20
10.5705085579
 30
0.0
 10
14.4351565992
 20
10.557514405
 30
0.0
 10
14.4298004847
 20
10.5440212719
 30
0.0
 10
14.4245079219
 20
10.5300394797
 30
0.0
 10
14.4192830469
 20
10.5155796979
 30
0.0
 10
14.4141298174
 20
10.5006529902
 30
0.0
 10
14.4090522233
 20
10.4852707674
 30
0.0
 10
14.4040541512
 20
10.4694448003
 30
0.0
 10
14.3991394365
 20
10.4531872047
 30
0.0
 10
14.3943118569
 20
10.4365104114
 30
0.0
 10
14.3879338015
 20
10.4135075231
 30
0.0
 10
14.3802181987
 20
10.3837955191
 30
0.0
 10
14.3714522829
 20
10.3470186554
 30
0.0
 10
14.3631180731
 20
10.3088915631
 30
0.0
 10
14.3552412411
 20
10.2695310493
 30
0.0
 10
14.347846063
 20
10.2290575559
 30
0.0
 10
14.3409553128
 20
10.1875950259
 30
0.0
 10
14.3345902024
 20
10.1452704461
 30
0.0
 10
14.3287703162
 20
10.1022134711
 30
0.0
 10
14.3235135521
 20
10.0585560152
 30
0.0
 10
14.3188360686
 20
10.0144318465
 30
0.0
 10
14.314752233
 20
9.9699761696
 30
0.0
 10
14.3112745855
 20
9.9253252212
 30
0.0
 10
14.3084137825
 20
9.88061581
 30
0.0
 10
14.3061786041
 20
9.835985009
 30
0.0
 10
14.3045758499
 20
9.7915694424
 30
0.0
 10
14.3036104428
 20
9.7475054774
 30
0.0
 10
14.3033922044
 20
9.7182603881
 30
0.0
 10
14.3033922044
 20
9.7037208605
 30
0.0
  0
SPLINE
  5
3ED
100
AcDbEntity
  8
0
100
AcDbSpline
 62
7
  6
CONTINUOUS
 70
0
 71
3
 72
49
 73
45
 74
0
 42
0.0000001
 43
0.0000001
 44
0.0000000001
 40
0.0
 40
0.0
 40
0.0
 40
0.0
 40
0.0063856902
 40
0.0129180053
 40
0.019624098
 40
0.0265287875
 40
0.0336545132
 40
0.0410214547
 40
0.0486474966
 40
0.0565483583
 40
0.0647378786
 40
0.073228045
 40
0.0820291327
 40
0.0911500263
 40
0.1005982378
 40
0.1103799828
 40
0.1205004928
 40
0.1309640109
 40
0.1417737918
 40
0.1529323962
 40
0.1644416754
 40
0.1763027046
 40
0.2010807194
 40
0.2272658068
 40
0.2548487476
 40
0.283813836
 40
0.3141399625
 40
0.3458012609
 40
0.378767443
 40
0.4130045002
 40
0.4484749693
 40
0.4851381229
 40
0.5229504705
 40
0.5618658381
 40
0.6018355411
 40
0.6428087597
 40
0.6847325381
 40
0.7275519339
 40
0.7712103781
 40
0.8156497522
 40
0.8608098586
 40
0.9066296536
 40
0.9530492264
 40
1.0
 40
1.0
 40
1.0
 40
1.0
 10
14.4431550886
 20
9.1010667561
 30
0.0
 10
14.4418753784
 20
9.1015191929
 30
0.0
 10
14.4393189563
 20
9.1025287213
 30
0.0
 10
14.4355513272
 20
9.1043257542
 30
0.0
 10
14.4318134273
 20
9.1064199057
 30
0.0
 10
14.4281068406
 20
9.1088100133
 30
0.0
 10
14.4244327151
 20
9.1114949584
 30
0.0
 10
14.4207923532
 20
9.1144736634
 30
0.0
 10
14.4171869473
 20
9.1177448996
 30
0.0
 10
14.4136176436
 20
9.1213073372
 30
0.0
 10
14.4100856863
 20
9.1251596814
 30
0.0
 10
14.40659227
 20
9.1293004916
 30
0.0
 10
14.4031385312
 20
9.1337281955
 30
0.0
 10
14.3997257112
 20
9.1384412153
 30
0.0
 10
14.3963550167
 20
9.1434378386
 30
0.0
 10
14.3930275781
 20
9.1487162054
 30
0.0
 10
14.3897446198
 20
9.1542744231
 30
0.0
 10
14.3865073443
 20
9.1601104786
 30
0.0
 10
14.383316858
 20
9.1662222086
 30
0.0
 10
14.3801743563
 20
9.1726073969
 30
0.0
 10
14.3770809877
 20
9.1792637357
 30
0.0
 10
14.3729634333
 20
9.1886339296
 30
0.0
 10
14.3679596941
 20
9.2010185919
 30
0.0
 10
14.3622530986
 20
9.2167118431
 30
0.0
 10
14.3567685862
 20
9.2334232076
 30
0.0
 10
14.3515141991
 20
9.251128111
 30
0.0
 10
14.3464977278
 20
9.269800757
 30
0.0
 10
14.3417266762
 20
9.2894137716
 30
0.0
 10
14.3372080887
 20
9.309938343
 30
0.0
 10
14.3329487249
 20
9.3313442794
 30
0.0
 10
14.3289549653
 20
9.3536000548
 30
0.0
 10
14.3252327163
 20
9.3766728496
 30
0.0
 10
14.3217875666
 20
9.4005286251
 30
0.0
 10
14.3186246669
 20
9.4251321652
 30
0.0
 10
14.3157486947
 20
9.450447131
 30
0.0
 10
14.3131639821
 20
9.4764361271
 30
0.0
 10
14.3108743817
 20
9.503060744
 30
0.0
 10
14.3088832778
 20
9.5302816257
 30
0.0
 10
14.3071936833
 20
9.5580585638
 30
0.0
 10
14.3058081181
 20
9.5863504375
 30
0.0
 10
14.3047286146
 20
9.6151153522
 30
0.0
 10
14.303956816
 20
9.644311208
 30
0.0
 10
14.3034939318
 20
9.6738942095
 30
0.0
 10
14.3033922044
 20
9.6937410604
 30
0.0
 10
14.3033922044
 20
9.7037208605
 30
0.0
  0
SPLINE
  5
3EE
100
AcDbEntity
  8
0
100
AcDbSpline
 62
7
  6
CONTINUOUS
 70
0
 71
3
 72
60
 73
56
 74
0
 42
0.0000001
 43
0.0000001
 44
0.0000000001
 40
0.0
 40
0.0
 40
0.0
 40
0.0
 40
0.0417737215
 40
0.0840362954
 40
0.1266575307
 40
0.1695051874
 40
0.2124464681
 40
0.2553480875
 40
0.2980769527
 40
0.3405006415
 40
0.3824879411
 40
0.4239093736
 40
0.4646377307
 40
0.5045486136
 40
0.543520985
 40
0.5814377367
 40
0.599965091
 40
0.6181867239
 40
0.6360893624
 40
0.6536601077
 40
0.6708864507
 40
0.6877562714
 40
0.7042579206
 40
0.7203801597
 40
0.7361123056
 40
0.7514441249
 40
0.7663660213
 40
0.7808689196
 40
0.7949444585
 40
0.8085849095
 40
0.8217833396
 40
0.8345336065
 40
0.8468304684
 40
0.8586696849
 40
0.8700480724
 40
0.8809637257
 40
0.8914160437
 40
0.9014060712
 40
0.9109365509
 40
0.9200123738
 40
0.9286407389
 40
0.9368317014
 40
0.9445985263
 40
0.9519583321
 40
0.9589326812
 40
0.9655482848
 40
0.9718377328
 40
0.9778400566
 40
0.9836011837
 40
0.9864084827
 40
0.9891757961
 40
0.9919106627
 40
0.9946209124
 40
0.9973146132
 40
1.0
 40
1.0
 40
1.0
 40
1.0
 10
14.8802609371
 20
7.2991556487
 30
0.0
 10
14.8802609371
 20
7.2771416834
 30
0.0
 10
14.8799174969
 20
7.2328554447
 30
0.0
 10
14.8783992009
 20
7.1661242625
 30
0.0
 10
14.8758792113
 20
7.0988569462
 30
0.0
 10
14.8723657787
 20
7.0312761286
 30
0.0
 10
14.8678705201
 20
6.9636054315
 30
0.0
 10
14.8624082917
 20
6.8960687168
 30
0.0
 10
14.8559971889
 20
6.8288894284
 30
0.0
 10
14.8486584641
 20
6.7622898104
 30
0.0
 10
14.8404164656
 20
6.69649018
 30
0.0
 10
14.8312985556
 20
6.6317081835
 30
0.0
 10
14.8213350194
 20
6.5681580927
 30
0.0
 10
14.8105589771
 20
6.506050007
 30
0.0
 10
14.7990062383
 20
6.4455894369
 30
0.0
 10
14.7886861059
 20
6.3963739878
 30
0.0
 10
14.7800588819
 20
6.3579834519
 30
0.0
 10
14.7734685758
 20
6.3299467223
 30
0.0
 10
14.7667141465
 20
6.3024679214
 30
0.0
 10
14.7598011742
 20
6.275569754
 30
0.0
 10
14.7527354109
 20
6.2492744702
 30
0.0
 10
14.7455226801
 20
6.2236038133
 30
0.0
 10
14.7381690175
 20
6.1985790023
 30
0.0
 10
14.7306804493
 20
6.1742207277
 30
0.0
 10
14.723063272
 20
6.1505491092
 30
0.0
 10
14.7153237066
 20
6.1275837129
 30
0.0
 10
14.7074682695
 20
6.1053434902
 30
0.0
 10
14.6995033787
 20
6.0838468121
 30
0.0
 10
14.6914357205
 20
6.0631113983
 30
0.0
 10
14.6832719115
 20
6.0431543548
 30
0.0
 10
14.6750187589
 20
6.0239921104
 30
0.0
 10
14.6666830702
 20
6.0056404364
 30
0.0
 10
14.6582717283
 20
5.9881144156
 30
0.0
 10
14.6497917091
 20
5.9714284159
 30
0.0
 10
14.6412499289
 20
5.9555961211
 30
0.0
 10
14.632653488
 20
5.9406304311
 30
0.0
 10
14.6240092948
 20
5.9265435796
 30
0.0
 10
14.615324497
 20
5.9133469449
 30
0.0
 10
14.6066059473
 20
5.9010512632
 30
0.0
 10
14.5978607187
 20
5.8896663664
 30
0.0
 10
14.5890955359
 20
5.8792014659
 30
0.0
 10
14.5803172284
 20
5.8696648889
 30
0.0
 10
14.5715322763
 20
5.8610643703
 30
0.0
 10
14.562747084
 20
5.8534069179
 30
0.0
 10
14.5539677587
 20
5.8466990232
 30
0.0
 10
14.5452002812
 20
5.8409468299
 30
0.0
 10
14.5364503477
 20
5.8361560854
 30
0.0
 10
14.5277246842
 20
5.8323328261
 30
0.0
 10
14.5204146053
 20
5.8299369173
 30
0.0
 10
14.5146073256
 20
5.8285264459
 30
0.0
 10
14.5103007956
 20
5.8277212647
 30
0.0
 10
14.5060073188
 20
5.8271601308
 30
0.0
 10
14.5017277137
 20
5.8268432226
 30
0.0
 10
14.4974631908
 20
5.8267707201
 30
0.0
 10
14.4946289815
 20
5.826885394
 30
0.0
 10
14.4932172242
 20
5.8269833025
 30
0.0
  0
SPLINE
  5
3EF
100
AcDbEntity
  8
0
100
AcDbSpline
 62
7
  6
CONTINUOUS
 70
0
 71
3
 72
39
 73
35
 74
0
 42
0.0000001
 43
0.0000001
 44
0.0000000001
 40
0.0
 40
0.0
 40
0.0
 40
0.0
 40
0.0958313223
 40
0.1890999066
 40
0.2792396479
 40
0.3229663115
 40
0.3657099292
 40
0.4074081191
 40
0.4480006754
 40
0.4874302648
 40
0.5256424385
 40
0.5625857699
 40
0.5982125807
 40
0.6324786396
 40
0.665344311
 40
0.6967743203
 40
0.7267388303
 40
0.7552139511
 40
0.7821824427
 40
0.807635341
 40
0.8315726205
 40
0.8540058864
 40
0.8749600023
 40
0.8944766962
 40
0.9126183481
 40
0.9294727137
 40
0.94515911
 40
0.9598336921
 40
0.9668557838
 40
0.973702854
 40
0.9804062715
 40
0.9869997015
 40
0.9935186515
 40
1.0
 40
1.0
 40
1.0
 40
1.0
 10
14.3276722286
 20
11.8620623881
 30
0.0
 10
14.3366320456
 20
11.8614410226
 30
0.0
 10
14.3542991781
 20
11.8600178556
 30
0.0
 10
14.3803305823
 20
11.857301179
 30
0.0
 10
14.4014433924
 20
11.8545612911
 30
0.0
 10
14.4178110104
 20
11.852094951
 30
0.0
 10
14.4296627781
 20
11.8501369456
 30
0.0
 10
14.4411951301
 20
11.8480553954
 30
0.0
 10
14.4523888166
 20
11.845853724
 30
0.0
 10
14.4632251417
 20
11.8435356647
 30
0.0
 10
14.4736860236
 20
11.841105125
 30
0.0
 10
14.483754012
 20
11.8385661479
 30
0.0
 10
14.4934123333
 20
11.8359230745
 30
0.0
 10
14.5026449002
 20
11.8331802627
 30
0.0
 10
14.5114363745
 20
11.8303424015
 30
0.0
 10
14.5197721615
 20
11.8274141936
 30
0.0
 10
14.5276384676
 20
11.8244005641
 30
0.0
 10
14.5350223249
 20
11.8213065632
 30
0.0
 10
14.5419115919
 20
11.8181372597
 30
0.0
 10
14.5482950575
 20
11.814897964
 30
0.0
 10
14.5541623476
 20
11.8115938171
 30
0.0
 10
14.5595040973
 20
11.8082301645
 30
0.0
 10
14.5643118016
 20
11.8048120995
 30
0.0
 10
14.5685778958
 20
11.8013446068
 30
0.0
 10
14.5722956275
 20
11.7978324603
 30
0.0
 10
14.5754588042
 20
11.7942796809
 30
0.0
 10
14.5780613996
 20
11.7906908947
 30
0.0
 10
14.5797828202
 20
11.7876280316
 30
0.0
 10
14.58085596
 20
11.785175616
 30
0.0
 10
14.5815056809
 20
11.7833585633
 30
0.0
 10
14.5820114907
 20
11.7815379262
 30
0.0
 10
14.5823731141
 20
11.7797144636
 30
0.0
 10
14.5825902304
 20
11.7778892234
 30
0.0
 10
14.5826385269
 20
11.7766702879
 30
0.0
 10
14.5826385322
 20
11.7760628542
 30
0.0
  0
SPLINE
  5
3F0
100
AcDbEntity
  8
0
100
AcDbSpline
 62
7
  6
CONTINUOUS
 70
0
 71
3
 72
39
 73
35
 74
0
 42
0.0000001
 43
0.0000001
 44
0.0000000001
 40
0.0
 40
0.0
 40
0.0
 40
0.0
 40
0.0958313223
 40
0.1890999066
 40
0.2792396479
 40
0.3229663115
 40
0.3657099292
 40
0.4074081191
 40
0.4480006754
 40
0.4874302648
 40
0.5256424385
 40
0.5625857699
 40
0.5982125807
 40
0.6324786396
 40
0.665344311
 40
0.6967743203
 40
0.7267388303
 40
0.7552139511
 40
0.7821824427
 40
0.807635341
 40
0.8315726205
 40
0.8540058864
 40
0.8749600023
 40
0.8944766962
 40
0.9126183481
 40
0.9294727137
 40
0.94515911
 40
0.9598336921
 40
0.9668557838
 40
0.973702854
 40
0.9804062715
 40
0.9869997015
 40
0.9935186515
 40
1.0
 40
1.0
 40
1.0
 40
1.0
 10
9.0150798692
 20
12.2304919195
 30
0.0
 10
9.0240396862
 20
12.2298705541
 30
0.0
 10
9.0417068187
 20
12.2284473871
 30
0.0
 10
9.0677382229
 20
12.2257307105
 30
0.0
 10
9.088851033
 20
12.2229908226
 30
0.0
 10
9.1052186511
 20
12.2205244825
 30
0.0
 10
9.1170704188
 20
12.218566477
 30
0.0
 10
9.1286027707
 20
12.2164849269
 30
0.0
 10
9.1397964572
 20
12.2142832555
 30
0.0
 10
9.1506327823
 20
12.2119651962
 30
0.0
 10
9.1610936642
 20
12.2095346565
 30
0.0
 10
9.1711616526
 20
12.2069956793
 30
0.0
 10
9.1808199739
 20
12.204352606
 30
0.0
 10
9.1900525408
 20
12.2016097942
 30
0.0
 10
9.1988440151
 20
12.198771933
 30
0.0
 10
9.2071798021
 20
12.1958437251
 30
0.0
 10
9.2150461082
 20
12.1928300956
 30
0.0
 10
9.2224299655
 20
12.1897360947
 30
0.0
 10
9.2293192325
 20
12.1865667911
 30
0.0
 10
9.2357026981
 20
12.1833274955
 30
0.0
 10
9.2415699882
 20
12.1800233486
 30
0.0
 10
9.246911738
 20
12.176659696
 30
0.0
 10
9.2517194422
 20
12.1732416309
 30
0.0
 10
9.2559855364
 20
12.1697741382
 30
0.0
 10
9.2597032682
 20
12.1662619918
 30
0.0
 10
9.2628664449
 20
12.1627092123
 30
0.0
 10
9.2654690403
 20
12.1591204262
 30
0.0
 10
9.2671904608
 20
12.156057563
 30
0.0
 10
9.2682636006
 20
12.1536051474
 30
0.0
 10
9.2689133215
 20
12.1517880948
 30
0.0
 10
9.2694191313
 20
12.1499674576
 30
0.0
 10
9.2697807547
 20
12.1481439951
 30
0.0
 10
9.269997871
 20
12.1463187549
 30
0.0
 10
9.2700461675
 20
12.1450998194
 30
0.0
 10
9.2700461728
 20
12.1444923857
 30
0.0
  0
SPLINE
  5
3F1
100
AcDbEntity
  8
0
100
AcDbSpline
 62
7
  6
CONTINUOUS
 70
0
 71
3
 72
50
 73
46
 74
0
 42
0.0000001
 43
0.0000001
 44
0.0000000001
 40
0.0
 40
0.0
 40
0.0
 40
0.0
 40
0.0461124908
 40
0.091720265
 40
0.1367609599
 40
0.1811789891
 40
0.2249175239
 40
0.2679210455
 40
0.3101356379
 40
0.3515086717
 40
0.3919891171
 40
0.4315275968
 40
0.4700765488
 40
0.5075904306
 40
0.5440257775
 40
0.5793414067
 40
0.6134987023
 40
0.6464617231
 40
0.6781974524
 40
0.7086762171
 40
0.7378719353
 40
0.7657624976
 40
0.7923304129
 40
0.8051147532
 40
0.8175642814
 40
0.8296783946
 40
0.8414569827
 40
0.8529003105
 40
0.8640092134
 40
0.874785127
 40
0.8852300101
 40
0.8953465737
 40
0.9051382942
 40
0.9146093886
 40
0.9237650769
 40
0.9326115894
 40
0.9411562076
 40
0.9494075512
 40
0.9573755922
 40
0.9650717595
 40
0.972509226
 40
0.9797029216
 40
0.9866696619
 40
0.9934283647
 40
1.0
 40
1.0
 40
1.0
 40
1.0
 10
14.8184416791
 20
10.2012204794
 30
0.0
 10
14.8184416791
 20
10.215320567
 30
0.0
 10
14.8183022678
 20
10.2433666269
 30
0.0
 10
14.8176680661
 20
10.2851807281
 30
0.0
 10
14.8166106221
 20
10.3264680451
 30
0.0
 10
14.8151315006
 20
10.3671704876
 30
0.0
 10
14.8132327622
 20
10.4072319486
 30
0.0
 10
14.8109170825
 20
10.4465966125
 30
0.0
 10
14.8081877008
 20
10.4852097231
 30
0.0
 10
14.8050484437
 20
10.5230176341
 30
0.0
 10
14.8015037406
 20
10.5599677903
 30
0.0
 10
14.7975585437
 20
10.5960088382
 30
0.0
 10
14.7932183735
 20
10.6310907036
 30
0.0
 10
14.7884893497
 20
10.6651646648
 30
0.0
 10
14.7833780935
 20
10.6981834078
 30
0.0
 10
14.7778917453
 20
10.7301011018
 30
0.0
 10
14.7720380348
 20
10.7608734856
 30
0.0
 10
14.7658251697
 20
10.7904579084
 30
0.0
 10
14.7592618175
 20
10.8188134023
 30
0.0
 10
14.7523572027
 20
10.8459007491
 30
0.0
 10
14.7451209935
 20
10.8716826295
 30
0.0
 10
14.7375632547
 20
10.8961232942
 30
0.0
 10
14.7309236719
 20
10.915586727
 30
0.0
 10
14.7254474803
 20
10.9304503869
 30
0.0
 10
14.7213192175
 20
10.9410988508
 30
0.0
 10
14.7171185793
 20
10.9513875652
 30
0.0
 10
14.71284705
 20
10.9613130154
 30
0.0
 10
14.7085060554
 20
10.9708717506
 30
0.0
 10
14.7040970908
 20
10.9800604754
 30
0.0
 10
14.699621728
 20
10.9888760523
 30
0.0
 10
14.6950814307
 20
10.9973154183
 30
0.0
 10
14.6904777653
 20
11.0053756816
 30
0.0
 10
14.6858123426
 20
11.0130541062
 30
0.0
 10
14.6810866575
 20
11.0203480161
 30
0.0
 10
14.676302328
 20
11.0272549318
 30
0.0
 10
14.6714609807
 20
11.0337725162
 30
0.0
 10
14.6665641231
 20
11.0398984711
 30
0.0
 10
14.6616134022
 20
11.0456307212
 30
0.0
 10
14.656610434
 20
11.0509673028
 30
0.0
 10
14.6515567296
 20
11.0559062599
 30
0.0
 10
14.6464539435
 20
11.0604458863
 30
0.0
 10
14.6413037055
 20
11.0645845153
 30
0.0
 10
14.6361074736
 20
11.0683205107
 30
0.0
 10
14.6308672714
 20
11.0716523075
 30
0.0
 10
14.6272989256
 20
11.0736289132
 30
0.0
 10
14.6255105939
 20
11.0745452917
 30
0.0
  0
SPLINE
  5
3F2
100
AcDbEntity
  8
0
100
AcDbSpline
 62
7
  6
CONTINUOUS
 70
0
 71
3
 72
55
 73
51
 74
0
 42
0.0000001
 43
0.0000001
 44
0.0000000001
 40
0.0
 40
0.0
 40
0.0
 40
0.0
 40
0.0401592848
 40
0.0807684595
 40
0.1217162123
 40
0.1628900317
 40
0.2041766192
 40
0.2454622804
 40
0.2866333247
 40
0.3275764618
 40
0.3681791999
 40
0.4083302451
 40
0.4479199034
 40
0.4868404874
 40
0.524986728
 40
0.5622561958
 40
0.5985497349
 40
0.6337719144
 40
0.650952754
 40
0.6678319282
 40
0.6843987385
 40
0.7006428914
 40
0.7165543642
 40
0.732123584
 40
0.7473412865
 40
0.7621987077
 40
0.776687438
 40
0.7907996276
 40
0.804527838
 40
0.8178652626
 40
0.8308055802
 40
0.8433431917
 40
0.8554730809
 40
0.8671910721
 40
0.8784937052
 40
0.88937852
 40
0.8998439561
 40
0.9098896743
 40
0.9195164972
 40
0.9287267815
 40
0.9375244216
 40
0.9459152939
 40
0.9539073523
 40
0.9615111682
 40
0.9687401461
 40
0.9756111714
 40
0.9821449476
 40
0.9883667007
 40
0.9943065385
 40
1.0
 40
1.0
 40
1.0
 40
1.0
 10
14.8184416791
 20
10.2012204794
 30
0.0
 10
14.8184416791
 20
10.1804904058
 30
0.0
 10
14.8181371699
 20
10.1387974461
 30
0.0
 10
14.8167895919
 20
10.0759804992
 30
0.0
 10
14.8145521272
 20
10.0126648335
 30
0.0
 10
14.8114313037
 20
9.949036527
 30
0.0
 10
14.8074362589
 20
9.8852823592
 30
0.0
 10
14.8025787148
 20
9.8215895401
 30
0.0
 10
14.7968729429
 20
9.7581450824
 30
0.0
 10
14.7903357222
 20
9.6951352697
 30
0.0
 10
14.7829862903
 20
9.6327451007
 30
0.0
 10
14.7748462872
 20
9.5711577434
 30
0.0
 10
14.7659396926
 20
9.5105539941
 30
0.0
 10
14.7562927572
 20
9.4511117366
 30
0.0
 10
14.7459339242
 20
9.3930054341
 30
0.0
 10
14.7348937578
 20
9.3364055331
 30
0.0
 10
14.7232048164
 20
9.2814782296
 30
0.0
 10
14.7128686476
 20
9.2368723705
 30
0.0
 10
14.704289816
 20
9.2021528376
 30
0.0
 10
14.6977686349
 20
9.176845687
 30
0.0
 10
14.6911119527
 20
9.1520741674
 30
0.0
 10
14.684324739
 20
9.1278564332
 30
0.0
 10
14.6774118924
 20
9.104210267
 30
0.0
 10
14.6703786019
 20
9.0811530064
 30
0.0
 10
14.663229936
 20
9.0587015743
 30
0.0
 10
14.6559712637
 20
9.0368724227
 30
0.0
 10
14.6486078137
 20
9.0156815678
 30
0.0
 10
14.6411451173
 20
8.9951445236
 30
0.0
 10
14.6335885465
 20
8.9752763512
 30
0.0
 10
14.6259437778
 20
8.9560915767
 30
0.0
 10
14.6182163077
 20
8.9376042596
 30
0.0
 10
14.6104119393
 20
8.9198278898
 30
0.0
 10
14.602536272
 20
8.9027754807
 30
0.0
 10
14.5945952141
 20
8.886459439
 30
0.0
 10
14.5865944431
 20
8.8708916896
 30
0.0
 10
14.5785399451
 20
8.8560835104
 30
0.0
 10
14.5704374443
 20
8.8420456982
 30
0.0
 10
14.5622929694
 20
8.8287883593
 30
0.0
 10
14.5541122483
 20
8.816321128
 30
0.0
 10
14.5459013014
 20
8.8046529029
 30
0.0
 10
14.5376658001
 20
8.7937921352
 30
0.0
 10
14.5294116822
 20
8.7837464986
 30
0.0
 10
14.5211444774
 20
8.7745232745
 30
0.0
 10
14.5128699371
 20
8.7661289439
 30
0.0
 10
14.5045933525
 20
8.7585697116
 30
0.0
 10
14.4963201645
 20
8.7518510039
 30
0.0
 10
14.4880554455
 20
8.7459782147
 30
0.0
 10
14.479804102
 20
8.7409559599
 30
0.0
 10
14.4715720721
 20
8.7367895166
 30
0.0
 10
14.4659930905
 20
8.7345422687
 30
0.0
 10
14.4632181893
 20
8.7335741191
 30
0.0
  0
SPLINE
  5
3F3
100
AcDbEntity
  8
0
100
AcDbSpline
 62
7
  6
CONTINUOUS
 70
0
 71
3
 72
62
 73
58
 74
0
 42
0.0000001
 43
0.0000001
 44
0.0000000001
 40
0.0
 40
0.0
 40
0.0
 40
0.0
 40
0.0427953947
 40
0.0861053008
 40
0.1297856944
 40
0.1736908756
 40
0.2176742457
 40
0.261588852
 40
0.3052880413
 40
0.3486260722
 40
0.3914587437
 40
0.4336440238
 40
0.4750426852
 40
0.5155189514
 40
0.554941158
 40
0.5931824368
 40
0.6118223117
 40
0.630121951
 40
0.6480671385
 40
0.6656441757
 40
0.6828397626
 40
0.6996411782
 40
0.7160361613
 40
0.7320130999
 40
0.7475609157
 40
0.7626692628
 40
0.7773284218
 40
0.7915295094
 40
0.8052643884
 40
0.8185258932
 40
0.8313077649
 40
0.8436048998
 40
0.8554133246
 40
0.8667304798
 40
0.8775552564
 40
0.8878883361
 40
0.8977323199
 40
0.9070921586
 40
0.9159754183
 40
0.9243928474
 40
0.9323588315
 40
0.939892141
 40
0.947016602
 40
0.953761997
 40
0.9601648321
 40
0.9662691058
 40
0.9721266645
 40
0.9749823565
 40
0.9777993047
 40
0.9805859948
 40
0.9833512142
 40
0.9861039693
 40
0.9888534033
 40
0.9916086969
 40
0.9943789637
 40
0.9971731598
 40
1.0
 40
1.0
 40
1.0
 40
1.0
 10
14.7226787115
 20
10.1087205502
 30
0.0
 10
14.7226787115
 20
10.09303739
 30
0.0
 10
14.722424754
 20
10.0614819884
 30
0.0
 10
14.7213028317
 20
10.0139310922
 30
0.0
 10
14.7194411519
 20
9.9659963178
 30
0.0
 10
14.7168463004
 20
9.9178485366
 30
0.0
 10
14.7135274997
 20
9.8696591996
 30
0.0
 10
14.709496568
 20
9.8215999479
 30
0.0
 10
14.7047678829
 20
9.7738419469
 30
0.0
 10
14.6993583271
 20
9.7265552829
 30
0.0
 10
14.6932872296
 20
9.6799083521
 30
0.0
 10
14.686576299
 20
9.63406725
 30
0.0
 10
14.6792495439
 20
9.5891951925
 30
0.0
 10
14.6713332004
 20
9.5454518589
 30
0.0
 10
14.6628556013
 20
9.5029930544
 30
0.0
 10
14.6552856303
 20
9.4685197382
 30
0.0
 10
14.6489621789
 20
9.4417033945
 30
0.0
 10
14.6441390476
 20
9.4221763145
 30
0.0
 10
14.6391992857
 20
9.4030804625
 30
0.0
 10
14.6341473512
 20
9.3844328179
 30
0.0
 10
14.6289876884
 20
9.3662499889
 30
0.0
 10
14.6237249758
 20
9.3485481497
 30
0.0
 10
14.6183638402
 20
9.3313430572
 30
0.0
 10
14.6129091416
 20
9.3146500063
 30
0.0
 10
14.6073656776
 20
9.2984838484
 30
0.0
 10
14.6017384702
 20
9.2828589405
 30
0.0
 10
14.5960324697
 20
9.2677891725
 30
0.0
 10
14.5902528403
 20
9.2532879083
 30
0.0
 10
14.5844046642
 20
9.2393680227
 30
0.0
 10
14.5784932256
 20
9.2260418321
 30
0.0
 10
14.572523715
 20
9.2133211449
 30
0.0
 10
14.5665015099
 20
9.201217178
 30
0.0
 10
14.5604318791
 20
9.189740623
 30
0.0
 10
14.5543202589
 20
9.1789015475
 30
0.0
 10
14.5481719568
 20
9.1687094793
 30
0.0
 10
14.541992418
 20
9.1591732914
 30
0.0
 10
14.5357869295
 20
9.1503013095
 30
0.0
 10
14.5295608705
 20
9.1421011813
 30
0.0
 10
14.5233194168
 20
9.134580018
 30
0.0
 10
14.517067769
 20
9.1277442561
 30
0.0
 10
14.5108108625
 20
9.1215998532
 30
0.0
 10
14.5045535826
 20
9.116152166
 30
0.0
 10
14.4983004971
 20
9.1114062316
 30
0.0
 10
14.4920561782
 20
9.1073666962
 30
0.0
 10
14.485824826
 20
9.1040381592
 30
0.0
 10
14.4796116753
 20
9.101425168
 30
0.0
 10
14.4744081461
 20
9.0998343184
 30
0.0
 10
14.4702773835
 20
9.0989359436
 30
0.0
 10
14.4672141916
 20
9.0984480188
 30
0.0
 10
14.4641609918
 20
9.0981405965
 30
0.0
 10
14.4611184636
 20
9.0980137316
 30
0.0
 10
14.4580874013
 20
9.0980675148
 30
0.0
 10
14.4550685835
 20
9.0983020105
 30
0.0
 10
14.4520628003
 20
9.0987171013
 30
0.0
 10
14.4490707846
 20
9.0993126437
 30
0.0
 10
14.4460934063
 20
9.1000884258
 30
0.0
 10
14.4441317916
 20
9.1007214464
 30
0.0
 10
14.4431550886
 20
9.1010667561
 30
0.0
  0
SPLINE
  5
3F4
100
AcDbEntity
  8
0
100
AcDbSpline
 62
7
  6
CONTINUOUS
 70
0
 71
3
 72
34
 73
30
 74
0
 42
0.0000001
 43
0.0000001
 44
0.0000000001
 40
0.0
 40
0.0
 40
0.0
 40
0.0
 40
0.0701083043
 40
0.1412550102
 40
0.2129869334
 40
0.2848444346
 40
0.3563673738
 40
0.3918607154
 40
0.4270993065
 40
0.4620270047
 40
0.496588302
 40
0.5307284809
 40
0.564393683
 40
0.5975310375
 40
0.6300888484
 40
0.6620166526
 40
0.6932653439
 40
0.7237874009
 40
0.7535369537
 40
0.7824699062
 40
0.8105442115
 40
0.8377199845
 40
0.8639596412
 40
0.8892282395
 40
0.9134937027
 40
0.9367270285
 40
0.9589027585
 40
0.9799994301
 40
1.0
 40
1.0
 40
1.0
 40
1.0
 10
14.4949179518
 20
10.1087205372
 30
0.0
 10
14.4949179518
 20
10.0885347099
 30
0.0
 10
14.494464012
 20
10.0478628115
 30
0.0
 10
14.4924732074
 20
9.9865669287
 30
0.0
 10
14.4891794234
 20
9.9248226307
 30
0.0
 10
14.4846049334
 20
9.8630516268
 30
0.0
 10
14.4797396269
 20
9.8117758778
 30
0.0
 10
14.4752262692
 20
9.7710661515
 30
0.0
 10
14.4715517039
 20
9.7408663815
 30
0.0
 10
14.4675854683
 20
9.7109742375
 30
0.0
 10
14.4633343118
 20
9.681440737
 30
0.0
 10
14.4588055471
 20
9.6523163255
 30
0.0
 10
14.4540069161
 20
9.6236507416
 30
0.0
 10
14.4489466151
 20
9.5954929408
 30
0.0
 10
14.4436333418
 20
9.5678909951
 30
0.0
 10
14.4380761965
 20
9.54089203
 30
0.0
 10
14.4322846723
 20
9.5145421401
 30
0.0
 10
14.4262687236
 20
9.4888862886
 30
0.0
 10
14.4200386696
 20
9.4639682491
 30
0.0
 10
14.4136051588
 20
9.4398305354
 30
0.0
 10
14.406979246
 20
9.4165142958
 30
0.0
 10
14.4001723111
 20
9.3940592588
 30
0.0
 10
14.3931959955
 20
9.3725036769
 30
0.0
 10
14.3860622757
 20
9.3518842237
 30
0.0
 10
14.3787834054
 20
9.3322359217
 30
0.0
 10
14.3713718376
 20
9.3135921458
 30
0.0
 10
14.36384021
 20
9.2959843802
 30
0.0
 10
14.3562015647
 20
9.2794426173
 30
0.0
 10
14.3509037887
 20
9.268859025
 30
0.0
 10
14.3482334551
 20
9.2637569489
 30
0.0
  0
SPLINE
  5
3F5
100
AcDbEntity
  8
0
100
AcDbSpline
 62
7
  6
CONTINUOUS
 70
0
 71
3
 72
28
 73
24
 74
0
 42
0.0000001
 43
0.0000001
 44
0.0000000001
 40
0.0
 40
0.0
 40
0.0
 40
0.0
 40
0.0663188078
 40
0.1335199809
 40
0.2013033635
 40
0.2693637459
 40
0.337395201
 40
0.4050916927
 40
0.4721491693
 40
0.5382672294
 40
0.6031509096
 40
0.6665124763
 40
0.7280732529
 40
0.7580946787
 40
0.7875664629
 40
0.8164572428
 40
0.844736463
 40
0.872374705
 40
0.8993435412
 40
0.9256157619
 40
0.9511654219
 40
0.9759678599
 40
1.0
 40
1.0
 40
1.0
 40
1.0
 10
14.4201458446
 20
10.0975474012
 30
0.0
 10
14.4201458446
 20
10.0820279107
 30
0.0
 10
14.419853833
 20
10.0507817494
 30
0.0
 10
14.4185676702
 20
10.0036892845
 30
0.0
 10
14.4164359122
 20
9.9562194408
 30
0.0
 10
14.4134686751
 20
9.9085998901
 30
0.0
 10
14.4096801982
 20
9.8610590115
 30
0.0
 10
14.405088658
 20
9.8138247264
 30
0.0
 10
14.3997161433
 20
9.7671234983
 30
0.0
 10
14.3935885227
 20
9.7211792193
 30
0.0
 10
14.3867353419
 20
9.6762120547
 30
0.0
 10
14.3791896481
 20
9.6324376465
 30
0.0
 10
14.3722986641
 20
9.5968365106
 30
0.0
 10
14.3664564984
 20
9.5691167036
 30
0.0
 10
14.3619617881
 20
9.5489274649
 30
0.0
 10
14.3573229672
 20
9.5291894218
 30
0.0
 10
14.35254551
 20
9.5099262218
 30
0.0
 10
14.3476352385
 20
9.4911609549
 30
0.0
 10
14.3425980126
 20
9.4729161095
 30
0.0
 10
14.3374399106
 20
9.4552135474
 30
0.0
 10
14.3321671507
 20
9.4380744476
 30
0.0
 10
14.3267860505
 20
9.4215194055
 30
0.0
 10
14.3230710366
 20
9.4107114312
 30
0.0
 10
14.3211945107
 20
9.4054098973
 30
0.0
  0
SPLINE
  5
3F6
100
AcDbEntity
  8
0
100
AcDbSpline
 62
7
  6
CONTINUOUS
 70
0
 71
3
 72
54
 73
50
 74
0
 42
0.0000001
 43
0.0000001
 44
0.0000000001
 40
0.0
 40
0.0
 40
0.0
 40
0.0
 40
0.0499774976
 40
0.0993158726
 40
0.1479274444
 40
0.1957330614
 40
0.2426522441
 40
0.2886071664
 40
0.3335224668
 40
0.3773250835
 40
0.4199448324
 40
0.461314559
 40
0.5013703557
 40
0.5400519278
 40
0.5773030155
 40
0.6130716862
 40
0.6473107772
 40
0.6799785629
 40
0.7110394088
 40
0.7259584109
 40
0.7404655449
 40
0.7545583898
 40
0.7682352653
 40
0.7814950226
 40
0.7943371717
 40
0.8067621193
 40
0.8187709677
 40
0.8303657946
 40
0.8415497853
 40
0.8523271309
 40
0.8627034278
 40
0.8726857178
 40
0.8822825588
 40
0.8915044872
 40
0.9003640253
 40
0.9088759518
 40
0.9170577374
 40
0.924929577
 40
0.9325147665
 40
0.9398399583
 40
0.946935137
 40
0.9538337905
 40
0.9605727132
 40
0.9671916183
 40
0.9737326777
 40
0.9802396989
 40
0.9867572426
 40
0.993329631
 40
1.0
 40
1.0
 40
1.0
 40
1.0
 10
14.7226787115
 20
10.1087205502
 30
0.0
 10
14.7226787115
 20
10.1198162158
 30
0.0
 10
14.7225530806
 20
10.1418658777
 30
0.0
 10
14.7219806562
 20
10.1747034769
 30
0.0
 10
14.7210263156
 20
10.2070498832
 30
0.0
 10
14.719691932
 20
10.2388453134
 30
0.0
 10
14.7179799225
 20
10.2700320171
 30
0.0
 10
14.7158934876
 20
10.300552812
 30
0.0
 10
14.7134365007
 20
10.3303518684
 30
0.0
 10
14.7106134787
 20
10.3593746988
 30
0.0
 10
14.7074296641
 20
10.3875682319
 30
0.0
 10
14.7038909619
 20
10.4148809452
 30
0.0
 10
14.7000039091
 20
10.4412629347
 30
0.0
 10
14.6957756817
 20
10.4666660253
 30
0.0
 10
14.6912141296
 20
10.4910438874
 30
0.0
 10
14.6863276942
 20
10.5143520827
 30
0.0
 10
14.681125389
 20
10.5365482429
 30
0.0
 10
14.6756168081
 20
10.5575918648
 30
0.0
 10
14.6707160943
 20
10.574353879
 30
0.0
 10
14.6666391568
 20
10.5871495124
 30
0.0
 10
14.6635523641
 20
10.5963054577
 30
0.0
 10
14.6603967384
 20
10.6051456551
 30
0.0
 10
14.6571737612
 20
10.6136661145
 30
0.0
 10
14.6538848952
 20
10.621862959
 30
0.0
 10
14.6505315824
 20
10.6297324498
 30
0.0
 10
14.6471154246
 20
10.6372710484
 30
0.0
 10
14.6436379149
 20
10.6444753269
 30
0.0
 10
14.6401006033
 20
10.6513420219
 30
0.0
 10
14.636505146
 20
10.6578680715
 30
0.0
 10
14.6328530596
 20
10.6640505014
 30
0.0
 10
14.6291459858
 20
10.669886547
 30
0.0
 10
14.6253855865
 20
10.6753736191
 30
0.0
 10
14.6215733879
 20
10.6805091946
 30
0.0
 10
14.6177110844
 20
10.6852910093
 30
0.0
 10
14.6138002885
 20
10.6897169046
 30
0.0
 10
14.6098425313
 20
10.6937847808
 30
0.0
 10
14.6058395077
 20
10.6974928142
 30
0.0
 10
14.6017927675
 20
10.7008391662
 30
0.0
 10
14.5977038951
 20
10.7038220802
 30
0.0
 10
14.5935746173
 20
10.7064400312
 30
0.0
 10
14.5894065783
 20
10.7086913558
 30
0.0
 10
14.5852016344
 20
10.710574587
 30
0.0
 10
14.5809618041
 20
10.7120884472
 30
0.0
 10
14.5766892089
 20
10.7132315739
 30
0.0
 10
14.5723862534
 20
10.714003102
 30
0.0
 10
14.5680554805
 20
10.7144024079
 30
0.0
 10
14.563699417
 20
10.7144290394
 30
0.0
 10
14.5593210556
 20
10.7140833297
 30
0.0
 10
14.5564155843
 20
10.7136092213
 30
0.0
 10
14.5549645933
 20
10.713313046
 30
0.0
  0
SPLINE
  5
3F7
100
AcDbEntity
  8
0
100
AcDbSpline
 62
7
  6
CONTINUOUS
 70
0
 71
3
 72
26
 73
22
 74
0
 42
0.0000001
 43
0.0000001
 44
0.0000000001
 40
0.0
 40
0.0
 40
0.0
 40
0.0
 40
0.0762051652
 40
0.1512745741
 40
0.2250387894
 40
0.2973396202
 40
0.3680191481
 40
0.436925867
 40
0.5039135221
 40
0.5688420805
 40
0.6315783828
 40
0.6919968236
 40
0.7499801967
 40
0.8054206789
 40
0.8582209446
 40
0.8836045086
 40
0.9082969454
 40
0.9322897878
 40
0.9555754227
 40
0.9781472502
 40
1.0
 40
1.0
 40
1.0
 40
1.0
 10
14.4949179518
 20
10.1087205372
 30
0.0
 10
14.4949179518
 20
10.1204532487
 30
0.0
 10
14.4947666542
 20
10.1437441205
 30
0.0
 10
14.4940760153
 20
10.1783857213
 30
0.0
 10
14.4929248116
 20
10.2124137374
 30
0.0
 10
14.4913159561
 20
10.2457465952
 30
0.0
 10
14.4892532745
 20
10.2783052021
 30
0.0
 10
14.4867417878
 20
10.3100118421
 30
0.0
 10
14.4837875684
 20
10.3407910356
 30
0.0
 10
14.4803977692
 20
10.3705694981
 30
0.0
 10
14.4765805915
 20
10.3992763737
 30
0.0
 10
14.4723452634
 20
10.4268433794
 30
0.0
 10
14.4677020262
 20
10.4532050722
 30
0.0
 10
14.4626620824
 20
10.478298719
 30
0.0
 10
14.4580836939
 20
10.4983588804
 30
0.0
 10
14.4542196627
 20
10.5137199105
 30
0.0
 10
14.4512681663
 20
10.5247356448
 30
0.0
 10
14.4482269628
 20
10.5353914607
 30
0.0
 10
14.4450978265
 20
10.5456810631
 30
0.0
 10
14.4418826055
 20
10.5555982764
 30
0.0
 10
14.4396466831
 20
10.5620627762
 30
0.0
 10
14.4385133111
 20
10.565230631
 30
0.0
  0
SPLINE
  5
3F8
100
AcDbEntity
  8
0
100
AcDbSpline
 62
7
  6
CONTINUOUS
 70
0
 71
3
 72
20
 73
16
 74
0
 42
0.0000001
 43
0.0000001
 44
0.0000000001
 40
0.0
 40
0.0
 40
0.0
 40
0.0
 40
0.1405840015
 40
0.2779087567
 40
0.4113435594
 40
0.4764114057
 40
0.5402804926
 40
0.6028794673
 40
0.6641389046
 40
0.7239918481
 40
0.7823738523
 40
0.8392229693
 40
0.8944804198
 40
0.9480902031
 40
1.0
 40
1.0
 40
1.0
 40
1.0
 10
14.4201458446
 20
10.0975474012
 30
0.0
 10
14.4201458446
 20
10.1131409597
 30
0.0
 10
14.4198564474
 20
10.143967491
 30
0.0
 10
14.4185267918
 20
10.1895771572
 30
0.0
 10
14.4166669546
 20
10.2267838349
 30
0.0
 10
14.4147268411
 20
10.2558218606
 30
0.0
 10
14.4130666241
 20
10.2770025349
 30
0.0
 10
14.4111913429
 20
10.2977411425
 30
0.0
 10
14.4091033004
 20
10.3180116745
 30
0.0
 10
14.4068051606
 20
10.3377886804
 30
0.0
 10
14.4042998533
 20
10.3570473485
 30
0.0
 10
14.4015904933
 20
10.3757635158
 30
0.0
 10
14.3986805866
 20
10.3939137323
 30
0.0
 10
14.3955737384
 20
10.4114751661
 30
0.0
 10
14.3933371394
 20
10.4229644445
 30
0.0
 10
14.3921842352
 20
10.4286056671
 30
0.0
  0
SPLINE
  5
3F9
100
AcDbEntity
  8
0
100
AcDbSpline
 62
7
  6
CONTINUOUS
 70
0
 71
3
 72
50
 73
46
 74
0
 42
0.0000001
 43
0.0000001
 44
0.0000000001
 40
0.0
 40
0.0
 40
0.0
 40
0.0
 40
0.0461124908
 40
0.091720265
 40
0.1367609599
 40
0.1811789891
 40
0.2249175239
 40
0.2679210455
 40
0.3101356379
 40
0.3515086717
 40
0.3919891171
 40
0.4315275968
 40
0.4700765488
 40
0.5075904306
 40
0.5440257775
 40
0.5793414067
 40
0.6134987023
 40
0.6464617231
 40
0.6781974524
 40
0.7086762171
 40
0.7378719353
 40
0.7657624976
 40
0.7923304129
 40
0.8051147532
 40
0.8175642814
 40
0.8296783946
 40
0.8414569827
 40
0.8529003105
 40
0.8640092134
 40
0.874785127
 40
0.8852300101
 40
0.8953465737
 40
0.9051382942
 40
0.9146093886
 40
0.9237650769
 40
0.9326115894
 40
0.9411562076
 40
0.9494075512
 40
0.9573755922
 40
0.9650717595
 40
0.972509226
 40
0.9797029216
 40
0.9866696619
 40
0.9934283647
 40
1.0
 40
1.0
 40
1.0
 40
1.0
 10
14.8184416791
 20
7.3034428288
 30
0.0
 10
14.8184416791
 20
7.3175429164
 30
0.0
 10
14.8183022678
 20
7.3455889764
 30
0.0
 10
14.8176680661
 20
7.3874030775
 30
0.0
 10
14.8166106221
 20
7.4286903945
 30
0.0
 10
14.8151315006
 20
7.4693928371
 30
0.0
 10
14.8132327622
 20
7.509454298
 30
0.0
 10
14.8109170825
 20
7.548818962
 30
0.0
 10
14.8081877008
 20
7.5874320726
 30
0.0
 10
14.8050484437
 20
7.6252399835
 30
0.0
 10
14.8015037406
 20
7.6621901398
 30
0.0
 10
14.7975585437
 20
7.6982311876
 30
0.0
 10
14.7932183735
 20
7.733313053
 30
0.0
 10
14.7884893497
 20
7.7673870143
 30
0.0
 10
14.7833780935
 20
7.8004057572
 30
0.0
 10
14.7778917453
 20
7.8323234513
 30
0.0
 10
14.7720380348
 20
7.8630958351
 30
0.0
 10
14.7658251697
 20
7.8926802578
 30
0.0
 10
14.7592618175
 20
7.9210357518
 30
0.0
 10
14.7523572027
 20
7.9481230986
 30
0.0
 10
14.7451209935
 20
7.9739049789
 30
0.0
 10
14.7375632547
 20
7.9983456436
 30
0.0
 10
14.7309236719
 20
8.0178090764
 30
0.0
 10
14.7254474803
 20
8.0326727363
 30
0.0
 10
14.7213192175
 20
8.0433212002
 30
0.0
 10
14.7171185793
 20
8.0536099146
 30
0.0
 10
14.71284705
 20
8.0635353648
 30
0.0
 10
14.7085060554
 20
8.0730941
 30
0.0
 10
14.7040970908
 20
8.0822828249
 30
0.0
 10
14.699621728
 20
8.0910984018
 30
0.0
 10
14.6950814307
 20
8.0995377677
 30
0.0
 10
14.6904777653
 20
8.107598031
 30
0.0
 10
14.6858123426
 20
8.1152764556
 30
0.0
 10
14.6810866575
 20
8.1225703656
 30
0.0
 10
14.676302328
 20
8.1294772812
 30
0.0
 10
14.6714609807
 20
8.1359948656
 30
0.0
 10
14.6665641231
 20
8.1421208205
 30
0.0
 10
14.6616134022
 20
8.1478530706
 30
0.0
 10
14.656610434
 20
8.1531896522
 30
0.0
 10
14.6515567296
 20
8.1581286094
 30
0.0
 10
14.6464539435
 20
8.1626682358
 30
0.0
 10
14.6413037055
 20
8.1668068648
 30
0.0
 10
14.6361074736
 20
8.1705428602
 30
0.0
 10
14.6308672714
 20
8.1738746569
 30
0.0
 10
14.6272989256
 20
8.1758512627
 30
0.0
 10
14.6255105939
 20
8.1767676411
 30
0.0
  0
SPLINE
  5
3FA
100
AcDbEntity
  8
0
100
AcDbSpline
 62
7
  6
CONTINUOUS
 70
0
 71
3
 72
55
 73
51
 74
0
 42
0.0000001
 43
0.0000001
 44
0.0000000001
 40
0.0
 40
0.0
 40
0.0
 40
0.0
 40
0.0401592848
 40
0.0807684595
 40
0.1217162123
 40
0.1628900317
 40
0.2041766192
 40
0.2454622804
 40
0.2866333247
 40
0.3275764618
 40
0.3681791999
 40
0.4083302451
 40
0.4479199034
 40
0.4868404874
 40
0.524986728
 40
0.5622561958
 40
0.5985497349
 40
0.6337719144
 40
0.650952754
 40
0.6678319282
 40
0.6843987385
 40
0.7006428914
 40
0.7165543642
 40
0.732123584
 40
0.7473412865
 40
0.7621987077
 40
0.776687438
 40
0.7907996276
 40
0.804527838
 40
0.8178652626
 40
0.8308055802
 40
0.8433431917
 40
0.8554730809
 40
0.8671910721
 40
0.8784937052
 40
0.88937852
 40
0.8998439561
 40
0.9098896743
 40
0.9195164972
 40
0.9287267815
 40
0.9375244216
 40
0.9459152939
 40
0.9539073523
 40
0.9615111682
 40
0.9687401461
 40
0.9756111714
 40
0.9821449476
 40
0.9883667007
 40
0.9943065385
 40
1.0
 40
1.0
 40
1.0
 40
1.0
 10
14.8184416791
 20
7.3034428288
 30
0.0
 10
14.8184416791
 20
7.2827127552
 30
0.0
 10
14.8181371699
 20
7.2410197955
 30
0.0
 10
14.8167895919
 20
7.1782028487
 30
0.0
 10
14.8145521272
 20
7.1148871829
 30
0.0
 10
14.8114313037
 20
7.0512588764
 30
0.0
 10
14.8074362589
 20
6.9875047087
 30
0.0
 10
14.8025787148
 20
6.9238118895
 30
0.0
 10
14.7968729429
 20
6.8603674318
 30
0.0
 10
14.7903357222
 20
6.7973576192
 30
0.0
 10
14.7829862903
 20
6.7349674502
 30
0.0
 10
14.7748462872
 20
6.6733800928
 30
0.0
 10
14.7659396926
 20
6.6127763436
 30
0.0
 10
14.7562927572
 20
6.553334086
 30
0.0
 10
14.7459339242
 20
6.4952277835
 30
0.0
 10
14.7348937578
 20
6.4386278825
 30
0.0
 10
14.7232048164
 20
6.383700579
 30
0.0
 10
14.7128686476
 20
6.3390947199
 30
0.0
 10
14.704289816
 20
6.3043751871
 30
0.0
 10
14.6977686349
 20
6.2790680364
 30
0.0
 10
14.6911119527
 20
6.2542965169
 30
0.0
 10
14.684324739
 20
6.2300787827
 30
0.0
 10
14.6774118924
 20
6.2064326164
 30
0.0
 10
14.6703786019
 20
6.1833753558
 30
0.0
 10
14.663229936
 20
6.1609239237
 30
0.0
 10
14.6559712637
 20
6.1390947721
 30
0.0
 10
14.6486078137
 20
6.1179039172
 30
0.0
 10
14.6411451173
 20
6.097366873
 30
0.0
 10
14.6335885465
 20
6.0774987006
 30
0.0
 10
14.6259437778
 20
6.0583139261
 30
0.0
 10
14.6182163077
 20
6.039826609
 30
0.0
 10
14.6104119393
 20
6.0220502392
 30
0.0
 10
14.602536272
 20
6.0049978302
 30
0.0
 10
14.5945952141
 20
5.9886817884
 30
0.0
 10
14.5865944431
 20
5.973114039
 30
0.0
 10
14.5785399451
 20
5.9583058599
 30
0.0
 10
14.5704374443
 20
5.9442680477
 30
0.0
 10
14.5622929694
 20
5.9310107087
 30
0.0
 10
14.5541122483
 20
5.9185434774
 30
0.0
 10
14.5459013014
 20
5.9068752523
 30
0.0
 10
14.5376658001
 20
5.8960144846
 30
0.0
 10
14.5294116822
 20
5.8859688481
 30
0.0
 10
14.5211444774
 20
5.8767456239
 30
0.0
 10
14.5128699371
 20
5.8683512934
 30
0.0
 10
14.5045933525
 20
5.8607920611
 30
0.0
 10
14.4963201645
 20
5.8540733534
 30
0.0
 10
14.4880554455
 20
5.8482005642
 30
0.0
 10
14.479804102
 20
5.8431783094
 30
0.0
 10
14.4715720721
 20
5.8390118661
 30
0.0
 10
14.4659930905
 20
5.8367646181
 30
0.0
 10
14.4632181893
 20
5.8357964686
 30
0.0
  0
SPLINE
  5
3FB
100
AcDbEntity
  8
0
100
AcDbSpline
 62
7
  6
CONTINUOUS
 70
0
 71
3
 72
62
 73
58
 74
0
 42
0.0000001
 43
0.0000001
 44
0.0000000001
 40
0.0
 40
0.0
 40
0.0
 40
0.0
 40
0.0427953947
 40
0.0861053008
 40
0.1297856944
 40
0.1736908756
 40
0.2176742457
 40
0.261588852
 40
0.3052880413
 40
0.3486260722
 40
0.3914587437
 40
0.4336440238
 40
0.4750426852
 40
0.5155189514
 40
0.554941158
 40
0.5931824368
 40
0.6118223117
 40
0.630121951
 40
0.6480671385
 40
0.6656441757
 40
0.6828397626
 40
0.6996411782
 40
0.7160361613
 40
0.7320130999
 40
0.7475609157
 40
0.7626692628
 40
0.7773284218
 40
0.7915295094
 40
0.8052643884
 40
0.8185258932
 40
0.8313077649
 40
0.8436048998
 40
0.8554133246
 40
0.8667304798
 40
0.8775552564
 40
0.8878883361
 40
0.8977323199
 40
0.9070921586
 40
0.9159754183
 40
0.9243928474
 40
0.9323588315
 40
0.939892141
 40
0.947016602
 40
0.953761997
 40
0.9601648321
 40
0.9662691058
 40
0.9721266645
 40
0.9749823565
 40
0.9777993047
 40
0.9805859948
 40
0.9833512142
 40
0.9861039693
 40
0.9888534033
 40
0.9916086969
 40
0.9943789637
 40
0.9971731598
 40
1.0
 40
1.0
 40
1.0
 40
1.0
 10
14.7226787115
 20
7.2109428997
 30
0.0
 10
14.7226787115
 20
7.1952597394
 30
0.0
 10
14.722424754
 20
7.1637043378
 30
0.0
 10
14.7213028317
 20
7.1161534416
 30
0.0
 10
14.7194411519
 20
7.0682186673
 30
0.0
 10
14.7168463004
 20
7.020070886
 30
0.0
 10
14.7135274997
 20
6.9718815491
 30
0.0
 10
14.709496568
 20
6.9238222973
 30
0.0
 10
14.7047678829
 20
6.8760642963
 30
0.0
 10
14.6993583271
 20
6.8287776324
 30
0.0
 10
14.6932872296
 20
6.7821307015
 30
0.0
 10
14.686576299
 20
6.7362895994
 30
0.0
 10
14.6792495439
 20
6.6914175419
 30
0.0
 10
14.6713332004
 20
6.6476742083
 30
0.0
 10
14.6628556013
 20
6.6052154038
 30
0.0
 10
14.6552856303
 20
6.5707420876
 30
0.0
 10
14.6489621789
 20
6.5439257439
 30
0.0
 10
14.6441390476
 20
6.524398664
 30
0.0
 10
14.6391992857
 20
6.5053028119
 30
0.0
 10
14.6341473512
 20
6.4866551673
 30
0.0
 10
14.6289876884
 20
6.4684723383
 30
0.0
 10
14.6237249758
 20
6.4507704991
 30
0.0
 10
14.6183638402
 20
6.4335654066
 30
0.0
 10
14.6129091416
 20
6.4168723558
 30
0.0
 10
14.6073656776
 20
6.4007061978
 30
0.0
 10
14.6017384702
 20
6.3850812899
 30
0.0
 10
14.5960324697
 20
6.370011522
 30
0.0
 10
14.5902528403
 20
6.3555102577
 30
0.0
 10
14.5844046642
 20
6.3415903721
 30
0.0
 10
14.5784932256
 20
6.3282641816
 30
0.0
 10
14.572523715
 20
6.3155434943
 30
0.0
 10
14.5665015099
 20
6.3034395274
 30
0.0
 10
14.5604318791
 20
6.2919629724
 30
0.0
 10
14.5543202589
 20
6.2811238969
 30
0.0
 10
14.5481719568
 20
6.2709318288
 30
0.0
 10
14.541992418
 20
6.2613956408
 30
0.0
 10
14.5357869295
 20
6.252523659
 30
0.0
 10
14.5295608705
 20
6.2443235307
 30
0.0
 10
14.5233194168
 20
6.2368023675
 30
0.0
 10
14.517067769
 20
6.2299666055
 30
0.0
 10
14.5108108625
 20
6.2238222027
 30
0.0
 10
14.5045535826
 20
6.2183745155
 30
0.0
 10
14.4983004971
 20
6.213628581
 30
0.0
 10
14.4920561782
 20
6.2095890456
 30
0.0
 10
14.485824826
 20
6.2062605086
 30
0.0
 10
14.4796116753
 20
6.2036475175
 30
0.0
 10
14.4744081461
 20
6.2020566679
 30
0.0
 10
14.4702773835
 20
6.201158293
 30
0.0
 10
14.4672141916
 20
6.2006703682
 30
0.0
 10
14.4641609918
 20
6.200362946
 30
0.0
 10
14.4611184636
 20
6.2002360811
 30
0.0
 10
14.4580874013
 20
6.2002898642
 30
0.0
 10
14.4550685835
 20
6.2005243599
 30
0.0
 10
14.4520628003
 20
6.2009394507
 30
0.0
 10
14.4490707846
 20
6.2015349932
 30
0.0
 10
14.4460934063
 20
6.2023107752
 30
0.0
 10
14.4441317916
 20
6.2029437958
 30
0.0
 10
14.4431550886
 20
6.2032891056
 30
0.0
  0
SPLINE
  5
3FC
100
AcDbEntity
  8
0
100
AcDbSpline
 62
7
  6
CONTINUOUS
 70
0
 71
3
 72
34
 73
30
 74
0
 42
0.0000001
 43
0.0000001
 44
0.0000000001
 40
0.0
 40
0.0
 40
0.0
 40
0.0
 40
0.0701083043
 40
0.1412550102
 40
0.2129869334
 40
0.2848444346
 40
0.3563673738
 40
0.3918607154
 40
0.4270993065
 40
0.4620270047
 40
0.496588302
 40
0.5307284809
 40
0.564393683
 40
0.5975310375
 40
0.6300888484
 40
0.6620166526
 40
0.6932653439
 40
0.7237874009
 40
0.7535369537
 40
0.7824699062
 40
0.8105442115
 40
0.8377199845
 40
0.8639596412
 40
0.8892282395
 40
0.9134937027
 40
0.9367270285
 40
0.9589027585
 40
0.9799994301
 40
1.0
 40
1.0
 40
1.0
 40
1.0
 10
14.4949179518
 20
7.2109428866
 30
0.0
 10
14.4949179518
 20
7.1907570594
 30
0.0
 10
14.494464012
 20
7.1500851609
 30
0.0
 10
14.4924732074
 20
7.0887892782
 30
0.0
 10
14.4891794234
 20
7.0270449801
 30
0.0
 10
14.4846049334
 20
6.9652739763
 30
0.0
 10
14.4797396269
 20
6.9139982273
 30
0.0
 10
14.4752262692
 20
6.8732885009
 30
0.0
 10
14.4715517039
 20
6.8430887309
 30
0.0
 10
14.4675854683
 20
6.8131965869
 30
0.0
 10
14.4633343118
 20
6.7836630864
 30
0.0
 10
14.4588055471
 20
6.7545386749
 30
0.0
 10
14.4540069161
 20
6.725873091
 30
0.0
 10
14.4489466151
 20
6.6977152903
 30
0.0
 10
14.4436333418
 20
6.6701133446
 30
0.0
 10
14.4380761965
 20
6.6431143795
 30
0.0
 10
14.4322846723
 20
6.6167644896
 30
0.0
 10
14.4262687236
 20
6.591108638
 30
0.0
 10
14.4200386696
 20
6.5661905986
 30
0.0
 10
14.4136051588
 20
6.5420528848
 30
0.0
 10
14.406979246
 20
6.5187366452
 30
0.0
 10
14.4001723111
 20
6.4962816082
 30
0.0
 10
14.3931959955
 20
6.4747260263
 30
0.0
 10
14.3860622757
 20
6.4541065731
 30
0.0
 10
14.3787834054
 20
6.4344582712
 30
0.0
 10
14.3713718376
 20
6.4158144952
 30
0.0
 10
14.36384021
 20
6.3982067297
 30
0.0
 10
14.3562015647
 20
6.3816649667
 30
0.0
 10
14.3509037887
 20
6.3710813745
 30
0.0
 10
14.3482334551
 20
6.3659792983
 30
0.0
  0
SPLINE
  5
3FD
100
AcDbEntity
  8
0
100
AcDbSpline
 62
7
  6
CONTINUOUS
 70
0
 71
3
 72
28
 73
24
 74
0
 42
0.0000001
 43
0.0000001
 44
0.0000000001
 40
0.0
 40
0.0
 40
0.0
 40
0.0
 40
0.0663188078
 40
0.1335199809
 40
0.2013033635
 40
0.2693637459
 40
0.337395201
 40
0.4050916927
 40
0.4721491693
 40
0.5382672294
 40
0.6031509096
 40
0.6665124763
 40
0.7280732529
 40
0.7580946787
 40
0.7875664629
 40
0.8164572428
 40
0.844736463
 40
0.872374705
 40
0.8993435412
 40
0.9256157619
 40
0.9511654219
 40
0.9759678599
 40
1.0
 40
1.0
 40
1.0
 40
1.0
 10
14.4201458446
 20
7.1997697506
 30
0.0
 10
14.4201458446
 20
7.1842502601
 30
0.0
 10
14.419853833
 20
7.1530040988
 30
0.0
 10
14.4185676702
 20
7.1059116339
 30
0.0
 10
14.4164359122
 20
7.0584417903
 30
0.0
 10
14.4134686751
 20
7.0108222396
 30
0.0
 10
14.4096801982
 20
6.963281361
 30
0.0
 10
14.405088658
 20
6.9160470758
 30
0.0
 10
14.3997161433
 20
6.8693458477
 30
0.0
 10
14.3935885227
 20
6.8234015687
 30
0.0
 10
14.3867353419
 20
6.7784344041
 30
0.0
 10
14.3791896481
 20
6.734659996
 30
0.0
 10
14.3722986641
 20
6.6990588601
 30
0.0
 10
14.3664564984
 20
6.6713390531
 30
0.0
 10
14.3619617881
 20
6.6511498143
 30
0.0
 10
14.3573229672
 20
6.6314117712
 30
0.0
 10
14.35254551
 20
6.6121485712
 30
0.0
 10
14.3476352385
 20
6.5933833044
 30
0.0
 10
14.3425980126
 20
6.5751384589
 30
0.0
 10
14.3374399106
 20
6.5574358969
 30
0.0
 10
14.3321671507
 20
6.540296797
 30
0.0
 10
14.3267860505
 20
6.5237417549
 30
0.0
 10
14.3230710366
 20
6.5129337806
 30
0.0
 10
14.3211945107
 20
6.5076322467
 30
0.0
  0
SPLINE
  5
3FE
100
AcDbEntity
  8
0
100
AcDbSpline
 62
7
  6
CONTINUOUS
 70
0
 71
3
 72
54
 73
50
 74
0
 42
0.0000001
 43
0.0000001
 44
0.0000000001
 40
0.0
 40
0.0
 40
0.0
 40
0.0
 40
0.0499774976
 40
0.0993158726
 40
0.1479274444
 40
0.1957330614
 40
0.2426522441
 40
0.2886071664
 40
0.3335224668
 40
0.3773250835
 40
0.4199448324
 40
0.461314559
 40
0.5013703557
 40
0.5400519278
 40
0.5773030155
 40
0.6130716862
 40
0.6473107772
 40
0.6799785629
 40
0.7110394088
 40
0.7259584109
 40
0.7404655449
 40
0.7545583898
 40
0.7682352653
 40
0.7814950226
 40
0.7943371717
 40
0.8067621193
 40
0.8187709677
 40
0.8303657946
 40
0.8415497853
 40
0.8523271309
 40
0.8627034278
 40
0.8726857178
 40
0.8822825588
 40
0.8915044872
 40
0.9003640253
 40
0.9088759518
 40
0.9170577374
 40
0.924929577
 40
0.9325147665
 40
0.9398399583
 40
0.946935137
 40
0.9538337905
 40
0.9605727132
 40
0.9671916183
 40
0.9737326777
 40
0.9802396989
 40
0.9867572426
 40
0.993329631
 40
1.0
 40
1.0
 40
1.0
 40
1.0
 10
14.7226787115
 20
7.2109428997
 30
0.0
 10
14.7226787115
 20
7.2220385652
 30
0.0
 10
14.7225530806
 20
7.2440882271
 30
0.0
 10
14.7219806562
 20
7.2769258264
 30
0.0
 10
14.7210263156
 20
7.3092722326
 30
0.0
 10
14.719691932
 20
7.3410676628
 30
0.0
 10
14.7179799225
 20
7.3722543666
 30
0.0
 10
14.7158934876
 20
7.4027751615
 30
0.0
 10
14.7134365007
 20
7.4325742179
 30
0.0
 10
14.7106134787
 20
7.4615970482
 30
0.0
 10
14.7074296641
 20
7.4897905813
 30
0.0
 10
14.7038909619
 20
7.5171032946
 30
0.0
 10
14.7000039091
 20
7.5434852842
 30
0.0
 10
14.6957756817
 20
7.5688883748
 30
0.0
 10
14.6912141296
 20
7.5932662368
 30
0.0
 10
14.6863276942
 20
7.6165744322
 30
0.0
 10
14.681125389
 20
7.6387705924
 30
0.0
 10
14.6756168081
 20
7.6598142142
 30
0.0
 10
14.6707160943
 20
7.6765762285
 30
0.0
 10
14.6666391568
 20
7.6893718618
 30
0.0
 10
14.6635523641
 20
7.6985278071
 30
0.0
 10
14.6603967384
 20
7.7073680045
 30
0.0
 10
14.6571737612
 20
7.7158884639
 30
0.0
 10
14.6538848952
 20
7.7240853085
 30
0.0
 10
14.6505315824
 20
7.7319547993
 30
0.0
 10
14.6471154246
 20
7.7394933978
 30
0.0
 10
14.6436379149
 20
7.7466976763
 30
0.0
 10
14.6401006033
 20
7.7535643714
 30
0.0
 10
14.636505146
 20
7.760090421
 30
0.0
 10
14.6328530596
 20
7.7662728508
 30
0.0
 10
14.6291459858
 20
7.7721088964
 30
0.0
 10
14.6253855865
 20
7.7775959685
 30
0.0
 10
14.6215733879
 20
7.7827315441
 30
0.0
 10
14.6177110844
 20
7.7875133588
 30
0.0
 10
14.6138002885
 20
7.791939254
 30
0.0
 10
14.6098425313
 20
7.7960071302
 30
0.0
 10
14.6058395077
 20
7.7997151636
 30
0.0
 10
14.6017927675
 20
7.8030615156
 30
0.0
 10
14.5977038951
 20
7.8060444296
 30
0.0
 10
14.5935746173
 20
7.8086623807
 30
0.0
 10
14.5894065783
 20
7.8109137052
 30
0.0
 10
14.5852016344
 20
7.8127969364
 30
0.0
 10
14.5809618041
 20
7.8143107967
 30
0.0
 10
14.5766892089
 20
7.8154539234
 30
0.0
 10
14.5723862534
 20
7.8162254514
 30
0.0
 10
14.5680554805
 20
7.8166247573
 30
0.0
 10
14.563699417
 20
7.8166513888
 30
0.0
 10
14.5593210556
 20
7.8163056792
 30
0.0
 10
14.5564155843
 20
7.8158315707
 30
0.0
 10
14.5549645933
 20
7.8155353954
 30
0.0
  0
SPLINE
  5
3FF
100
AcDbEntity
  8
0
100
AcDbSpline
 62
7
  6
CONTINUOUS
 70
0
 71
3
 72
26
 73
22
 74
0
 42
0.0000001
 43
0.0000001
 44
0.0000000001
 40
0.0
 40
0.0
 40
0.0
 40
0.0
 40
0.0762051652
 40
0.1512745741
 40
0.2250387894
 40
0.2973396202
 40
0.3680191481
 40
0.436925867
 40
0.5039135221
 40
0.5688420805
 40
0.6315783828
 40
0.6919968236
 40
0.7499801967
 40
0.8054206789
 40
0.8582209446
 40
0.8836045086
 40
0.9082969454
 40
0.9322897878
 40
0.9555754227
 40
0.9781472502
 40
1.0
 40
1.0
 40
1.0
 40
1.0
 10
14.4949179518
 20
7.2109428866
 30
0.0
 10
14.4949179518
 20
7.2226755981
 30
0.0
 10
14.4947666542
 20
7.2459664699
 30
0.0
 10
14.4940760153
 20
7.2806080707
 30
0.0
 10
14.4929248116
 20
7.3146360868
 30
0.0
 10
14.4913159561
 20
7.3479689446
 30
0.0
 10
14.4892532745
 20
7.3805275516
 30
0.0
 10
14.4867417878
 20
7.4122341916
 30
0.0
 10
14.4837875684
 20
7.443013385
 30
0.0
 10
14.4803977692
 20
7.4727918476
 30
0.0
 10
14.4765805915
 20
7.5014987232
 30
0.0
 10
14.4723452634
 20
7.5290657288
 30
0.0
 10
14.4677020262
 20
7.5554274216
 30
0.0
 10
14.4626620824
 20
7.5805210684
 30
0.0
 10
14.4580836939
 20
7.6005812299
 30
0.0
 10
14.4542196627
 20
7.61594226
 30
0.0
 10
14.4512681663
 20
7.6269579942
 30
0.0
 10
14.4482269628
 20
7.6376138101
 30
0.0
 10
14.4450978265
 20
7.6479034125
 30
0.0
 10
14.4418826055
 20
7.6578206259
 30
0.0
 10
14.4396466831
 20
7.6642851256
 30
0.0
 10
14.4385133111
 20
7.6674529805
 30
0.0
  0
SPLINE
  5
400
100
AcDbEntity
  8
0
100
AcDbSpline
 62
7
  6
CONTINUOUS
 70
0
 71
3
 72
20
 73
16
 74
0
 42
0.0000001
 43
0.0000001
 44
0.0000000001
 40
0.0
 40
0.0
 40
0.0
 40
0.0
 40
0.1405840015
 40
0.2779087567
 40
0.4113435594
 40
0.4764114057
 40
0.5402804926
 40
0.6028794673
 40
0.6641389046
 40
0.7239918481
 40
0.7823738523
 40
0.8392229693
 40
0.8944804198
 40
0.9480902031
 40
1.0
 40
1.0
 40
1.0
 40
1.0
 10
14.4201458446
 20
7.1997697506
 30
0.0
 10
14.4201458446
 20
7.2153633091
 30
0.0
 10
14.4198564474
 20
7.2461898404
 30
0.0
 10
14.4185267918
 20
7.2917995066
 30
0.0
 10
14.4166669546
 20
7.3290061844
 30
0.0
 10
14.4147268411
 20
7.35804421
 30
0.0
 10
14.4130666241
 20
7.3792248843
 30
0.0
 10
14.4111913429
 20
7.399963492
 30
0.0
 10
14.4091033004
 20
7.4202340239
 30
0.0
 10
14.4068051606
 20
7.4400110299
 30
0.0
 10
14.4042998533
 20
7.459269698
 30
0.0
 10
14.4015904933
 20
7.4779858653
 30
0.0
 10
14.3986805866
 20
7.4961360817
 30
0.0
 10
14.3955737384
 20
7.5136975155
 30
0.0
 10
14.3933371394
 20
7.525186794
 30
0.0
 10
14.3921842352
 20
7.5308280165
 30
0.0
  0
SPLINE
  5
401
100
AcDbEntity
  8
0
100
AcDbSpline
 62
7
  6
CONTINUOUS
 70
0
 71
3
 72
60
 73
56
 74
0
 42
0.0000001
 43
0.0000001
 44
0.0000000001
 40
0.0
 40
0.0
 40
0.0
 40
0.0
 40
0.0417737215
 40
0.0840362954
 40
0.1266575307
 40
0.1695051874
 40
0.2124464681
 40
0.2553480875
 40
0.2980769527
 40
0.3405006415
 40
0.3824879411
 40
0.4239093736
 40
0.4646377307
 40
0.5045486136
 40
0.543520985
 40
0.5814377367
 40
0.599965091
 40
0.6181867239
 40
0.6360893624
 40
0.6536601077
 40
0.6708864507
 40
0.6877562714
 40
0.7042579206
 40
0.7203801597
 40
0.7361123056
 40
0.7514441249
 40
0.7663660213
 40
0.7808689196
 40
0.7949444585
 40
0.8085849095
 40
0.8217833396
 40
0.8345336065
 40
0.8468304684
 40
0.8586696849
 40
0.8700480724
 40
0.8809637257
 40
0.8914160437
 40
0.9014060712
 40
0.9109365509
 40
0.9200123738
 40
0.9286407389
 40
0.9368317014
 40
0.9445985263
 40
0.9519583321
 40
0.9589326812
 40
0.9655482848
 40
0.9718377328
 40
0.9778400566
 40
0.9836011837
 40
0.9864084827
 40
0.9891757961
 40
0.9919106627
 40
0.9946209124
 40
0.9973146132
 40
1.0
 40
1.0
 40
1.0
 40
1.0
 10
14.8802609371
 20
10.1969332993
 30
0.0
 10
14.8802609371
 20
10.174919334
 30
0.0
 10
14.8799174969
 20
10.1306330953
 30
0.0
 10
14.8783992009
 20
10.063901913
 30
0.0
 10
14.8758792113
 20
9.9966345968
 30
0.0
 10
14.8723657787
 20
9.9290537792
 30
0.0
 10
14.8678705201
 20
9.8613830821
 30
0.0
 10
14.8624082917
 20
9.7938463673
 30
0.0
 10
14.8559971889
 20
9.726667079
 30
0.0
 10
14.8486584641
 20
9.660067461
 30
0.0
 10
14.8404164656
 20
9.5942678306
 30
0.0
 10
14.8312985556
 20
9.5294858341
 30
0.0
 10
14.8213350194
 20
9.4659357433
 30
0.0
 10
14.8105589771
 20
9.4038276576
 30
0.0
 10
14.7990062383
 20
9.3433670874
 30
0.0
 10
14.7886861059
 20
9.2941516384
 30
0.0
 10
14.7800588819
 20
9.2557611025
 30
0.0
 10
14.7734685758
 20
9.2277243729
 30
0.0
 10
14.7667141465
 20
9.2002455719
 30
0.0
 10
14.7598011742
 20
9.1733474046
 30
0.0
 10
14.7527354109
 20
9.1470521208
 30
0.0
 10
14.7455226801
 20
9.1213814639
 30
0.0
 10
14.7381690175
 20
9.0963566528
 30
0.0
 10
14.7306804493
 20
9.0719983783
 30
0.0
 10
14.723063272
 20
9.0483267598
 30
0.0
 10
14.7153237066
 20
9.0253613635
 30
0.0
 10
14.7074682695
 20
9.0031211408
 30
0.0
 10
14.6995033787
 20
8.9816244627
 30
0.0
 10
14.6914357205
 20
8.9608890489
 30
0.0
 10
14.6832719115
 20
8.9409320053
 30
0.0
 10
14.6750187589
 20
8.921769761
 30
0.0
 10
14.6666830702
 20
8.903418087
 30
0.0
 10
14.6582717283
 20
8.8858920662
 30
0.0
 10
14.6497917091
 20
8.8692060665
 30
0.0
 10
14.6412499289
 20
8.8533737716
 30
0.0
 10
14.632653488
 20
8.8384080816
 30
0.0
 10
14.6240092948
 20
8.8243212302
 30
0.0
 10
14.615324497
 20
8.8111245955
 30
0.0
 10
14.6066059473
 20
8.7988289138
 30
0.0
 10
14.5978607187
 20
8.7874440169
 30
0.0
 10
14.5890955359
 20
8.7769791165
 30
0.0
 10
14.5803172284
 20
8.7674425394
 30
0.0
 10
14.5715322763
 20
8.7588420209
 30
0.0
 10
14.562747084
 20
8.7511845684
 30
0.0
 10
14.5539677587
 20
8.7444766738
 30
0.0
 10
14.5452002812
 20
8.7387244805
 30
0.0
 10
14.5364503477
 20
8.733933736
 30
0.0
 10
14.5277246842
 20
8.7301104767
 30
0.0
 10
14.5204146053
 20
8.7277145679
 30
0.0
 10
14.5146073256
 20
8.7263040965
 30
0.0
 10
14.5103007956
 20
8.7254989153
 30
0.0
 10
14.5060073188
 20
8.7249377814
 30
0.0
 10
14.5017277137
 20
8.7246208732
 30
0.0
 10
14.4974631908
 20
8.7245483706
 30
0.0
 10
14.4946289815
 20
8.7246630445
 30
0.0
 10
14.4932172242
 20
8.7247609531
 30
0.0
  0
SPLINE
  5
402
100
AcDbEntity
  8
0
100
AcDbSpline
 62
7
  6
CONTINUOUS
 70
0
 71
3
 72
54
 73
50
 74
0
 42
0.0000001
 43
0.0000001
 44
0.0000000001
 40
0.0
 40
0.0
 40
0.0
 40
0.0
 40
0.0063158427
 40
0.0126705974
 40
0.0191023953
 40
0.0256479035
 40
0.0323417516
 40
0.0392160545
 40
0.0536138127
 40
0.061194488
 40
0.0690562166
 40
0.0772172825
 40
0.0856936302
 40
0.0944989909
 40
0.1036450473
 40
0.113141787
 40
0.1229974971
 40
0.1332190617
 40
0.1438121259
 40
0.1547810799
 40
0.1661293869
 40
0.1778595312
 40
0.189973133
 40
0.2024711534
 40
0.2153537503
 40
0.2286205275
 40
0.2422705277
 40
0.256302183
 40
0.2707135528
 40
0.2855021644
 40
0.300665138
 40
0.316199276
 40
0.3321009043
 40
0.3649900029
 40
0.3992976831
 40
0.4349839512
 40
0.472004695
 40
0.5103120262
 40
0.5498546333
 40
0.5905781015
 40
0.6324251619
 40
0.6753358913
 40
0.7192479428
 40
0.7640967229
 40
0.8098156864
 40
0.8563364658
 40
0.9035883331
 40
0.9515014468
 40
1.0
 40
1.0
 40
1.0
 40
1.0
 10
14.6564922077
 20
8.1813284469
 30
0.0
 10
14.6584866268
 20
8.1811901294
 30
0.0
 10
14.6624783301
 20
8.1807494114
 30
0.0
 10
14.6684211374
 20
8.1796005811
 30
0.0
 10
14.6743242329
 20
8.1779641757
 30
0.0
 10
14.6801841518
 20
8.1758414182
 30
0.0
 10
14.6859985749
 20
8.1732335113
 30
0.0
 10
14.6938058314
 20
8.169048437
 30
0.0
 10
14.701401013
 20
8.1639251794
 30
0.0
 10
14.7087512778
 20
8.1579882152
 30
0.0
 10
14.7143031453
 20
8.152982585
 30
0.0
 10
14.7197957874
 20
8.1475039835
 30
0.0
 10
14.7252277395
 20
8.1415542697
 30
0.0
 10
14.730596787
 20
8.1351360292
 30
0.0
 10
14.7359010337
 20
8.1282519194
 30
0.0
 10
14.7411383266
 20
8.120904681
 30
0.0
 10
14.7463067095
 20
8.113097344
 30
0.0
 10
14.7514041495
 20
8.1048330667
 30
0.0
 10
14.7564285551
 20
8.0961151669
 30
0.0
 10
14.7613780169
 20
8.0869472308
 30
0.0
 10
14.7662504638
 20
8.0773329495
 30
0.0
 10
14.7710439406
 20
8.0672762486
 30
0.0
 10
14.7757565471
 20
8.0567812446
 30
0.0
 10
14.7803862693
 20
8.0458521939
 30
0.0
 10
14.7849312938
 20
8.0344935942
 30
0.0
 10
14.7893897255
 20
8.0227100865
 30
0.0
 10
14.793759698
 20
8.0105064938
 30
0.0
 10
14.798039488
 20
7.9978878408
 30
0.0
 10
14.8022272541
 20
7.9848592922
 30
0.0
 10
14.8063213101
 20
7.9714262107
 30
0.0
 10
14.8103199779
 20
7.9575941252
 30
0.0
 10
14.8142215654
 20
7.9433686995
 30
0.0
 10
14.8193497508
 20
7.923663249
 30
0.0
 10
14.8254918394
 20
7.8980836624
 30
0.0
 10
14.8323701628
 20
7.8662492821
 30
0.0
 10
14.8388250565
 20
7.8329932719
 30
0.0
 10
14.844845775
 20
7.7983704339
 30
0.0
 10
14.8504222869
 20
7.7624376628
 30
0.0
 10
14.8555453113
 20
7.7252541228
 30
0.0
 10
14.8602063092
 20
7.6868810444
 30
0.0
 10
14.8643975002
 20
7.6473816449
 30
0.0
 10
14.8681118991
 20
7.6068210232
 30
0.0
 10
14.8713433248
 20
7.5652660617
 30
0.0
 10
14.8740863945
 20
7.5227852795
 30
0.0
 10
14.8763365247
 20
7.4794487037
 30
0.0
 10
14.878089929
 20
7.4353279682
 30
0.0
 10
14.8793437563
 20
7.3904954342
 30
0.0
 10
14.8800957954
 20
7.3450256435
 30
0.0
 10
14.8802609371
 20
7.3145073253
 30
0.0
 10
14.8802609371
 20
7.2991556487
 30
0.0
  0
SPLINE
  5
403
100
AcDbEntity
  8
0
100
AcDbSpline
 62
7
  6
CONTINUOUS
 70
0
 71
3
 72
51
 73
47
 74
0
 42
0.0000001
 43
0.0000001
 44
0.0000000001
 40
0.0
 40
0.0
 40
0.0
 40
0.0
 40
0.0055575483
 40
0.0111779716
 40
0.01692191
 40
0.0228457685
 40
0.029000541
 40
0.0354309187
 40
0.0421753321
 40
0.0492661787
 40
0.0567301751
 40
0.0645892818
 40
0.072860934
 40
0.0815589354
 40
0.0906938799
 40
0.1002734384
 40
0.1103031157
 40
0.1207861166
 40
0.1317239771
 40
0.1431166596
 40
0.1549625852
 40
0.1672591636
 40
0.1800024627
 40
0.1931876894
 40
0.2068091423
 40
0.2208601567
 40
0.2502201891
 40
0.2812020358
 40
0.3137291498
 40
0.3477165256
 40
0.3830717054
 40
0.4196956132
 40
0.4574832856
 40
0.4963245986
 40
0.5361048951
 40
0.5767055669
 40
0.6180046028
 40
0.6598771293
 40
0.7021959705
 40
0.7448321944
 40
0.7876555817
 40
0.8305351627
 40
0.8733399838
 40
0.9159382941
 40
0.9582023666
 40
1.0
 40
1.0
 40
1.0
 40
1.0
 10
13.894638569
 20
11.7760620537
 30
0.0
 10
13.8946385616
 20
11.7769130439
 30
0.0
 10
13.8947338023
 20
11.7786261339
 30
0.0
 10
13.8951613591
 20
11.781186638
 30
0.0
 10
13.8958729796
 20
11.7837414094
 30
0.0
 10
13.8968671221
 20
11.7862875419
 30
0.0
 10
13.8981423312
 20
11.7888228973
 30
0.0
 10
13.8996967497
 20
11.7913455967
 30
0.0
 10
13.9015286681
 20
11.7938538858
 30
0.0
 10
13.9036363145
 20
11.7963460393
 30
0.0
 10
13.9060177232
 20
11.7988204648
 30
0.0
 10
13.9086709963
 20
11.8012753362
 30
0.0
 10
13.9115938988
 20
11.8037089856
 30
0.0
 10
13.9147841246
 20
11.8061195824
 30
0.0
 10
13.9182391454
 20
11.8085052691
 30
0.0
 10
13.921956166
 20
11.810864285
 30
0.0
 10
13.9259322695
 20
11.813194672
 30
0.0
 10
13.9301642263
 20
11.8154946623
 30
0.0
 10
13.9346486501
 20
11.8177623745
 30
0.0
 10
13.9393819276
 20
11.8199959521
 30
0.0
 10
13.9443602075
 20
11.8221936529
 30
0.0
 10
13.9495794786
 20
11.824353595
 30
0.0
 10
13.9550354776
 20
11.8264740909
 30
0.0
 10
13.9607237717
 20
11.8285533657
 30
0.0
 10
13.9666397342
 20
11.8305897212
 30
0.0
 10
13.9749468248
 20
11.8332849633
 30
0.0
 10
13.9858699018
 20
11.8365247149
 30
0.0
 10
13.9996193554
 20
11.8401611804
 30
0.0
 10
14.0141511474
 20
11.8435890804
 30
0.0
 10
14.0294177857
 20
11.8467970866
 30
0.0
 10
14.0453694984
 20
11.849774562
 30
0.0
 10
14.0619541547
 20
11.8525116451
 30
0.0
 10
14.0791175194
 20
11.8549992857
 30
0.0
 10
14.096803428
 20
11.8572292574
 30
0.0
 10
14.1149539885
 20
11.8591941866
 30
0.0
 10
14.1335097712
 20
11.8608875747
 30
0.0
 10
14.1524100025
 20
11.8623038208
 30
0.0
 10
14.1715927655
 20
11.8634382549
 30
0.0
 10
14.1909952133
 20
11.8642871344
 30
0.0
 10
14.2105537743
 20
11.8648476555
 30
0.0
 10
14.230204359
 20
11.8651179638
 30
0.0
 10
14.2498826062
 20
11.8650971665
 30
0.0
 10
14.2695239242
 20
11.8647853183
 30
0.0
 10
14.289064228
 20
11.8641834982
 30
0.0
 10
14.3084391148
 20
11.8632936192
 30
0.0
 10
14.3212873719
 20
11.8625051794
 30
0.0
 10
14.3276722286
 20
11.8620623881
 30
0.0
  0
SPLINE
  5
404
100
AcDbEntity
  8
0
100
AcDbSpline
 62
7
  6
CONTINUOUS
 70
0
 71
3
 72
51
 73
47
 74
0
 42
0.0000001
 43
0.0000001
 44
0.0000000001
 40
0.0
 40
0.0
 40
0.0
 40
0.0
 40
0.0055575483
 40
0.0111779716
 40
0.01692191
 40
0.0228457685
 40
0.029000541
 40
0.0354309187
 40
0.0421753321
 40
0.0492661787
 40
0.0567301751
 40
0.0645892818
 40
0.072860934
 40
0.0815589354
 40
0.0906938799
 40
0.1002734384
 40
0.1103031157
 40
0.1207861166
 40
0.1317239771
 40
0.1431166596
 40
0.1549625852
 40
0.1672591636
 40
0.1800024627
 40
0.1931876894
 40
0.2068091423
 40
0.2208601567
 40
0.2502201891
 40
0.2812020358
 40
0.3137291498
 40
0.3477165256
 40
0.3830717054
 40
0.4196956132
 40
0.4574832856
 40
0.4963245986
 40
0.5361048951
 40
0.5767055669
 40
0.6180046028
 40
0.6598771293
 40
0.7021959705
 40
0.7448321944
 40
0.7876555817
 40
0.8305351627
 40
0.8733399838
 40
0.9159382941
 40
0.9582023666
 40
1.0
 40
1.0
 40
1.0
 40
1.0
 10
8.5820462096
 20
12.1444915852
 30
0.0
 10
8.5820462022
 20
12.1453425754
 30
0.0
 10
8.582141443
 20
12.1470556654
 30
0.0
 10
8.5825689997
 20
12.1496161695
 30
0.0
 10
8.5832806202
 20
12.1521709408
 30
0.0
 10
8.5842747627
 20
12.1547170733
 30
0.0
 10
8.5855499718
 20
12.1572524287
 30
0.0
 10
8.5871043903
 20
12.1597751281
 30
0.0
 10
8.5889363088
 20
12.1622834173
 30
0.0
 10
8.5910439551
 20
12.1647755708
 30
0.0
 10
8.5934253638
 20
12.1672499963
 30
0.0
 10
8.5960786369
 20
12.1697048676
 30
0.0
 10
8.5990015395
 20
12.172138517
 30
0.0
 10
8.6021917652
 20
12.1745491139
 30
0.0
 10
8.6056467861
 20
12.1769348006
 30
0.0
 10
8.6093638067
 20
12.1792938165
 30
0.0
 10
8.6133399101
 20
12.1816242035
 30
0.0
 10
8.6175718669
 20
12.1839241937
 30
0.0
 10
8.6220562907
 20
12.186191906
 30
0.0
 10
8.6267895682
 20
12.1884254835
 30
0.0
 10
8.6317678481
 20
12.1906231844
 30
0.0
 10
8.6369871192
 20
12.1927831265
 30
0.0
 10
8.6424431182
 20
12.1949036223
 30
0.0
 10
8.6481314123
 20
12.1969828972
 30
0.0
 10
8.6540473749
 20
12.1990192527
 30
0.0
 10
8.6623544654
 20
12.2017144948
 30
0.0
 10
8.6732775425
 20
12.2049542464
 30
0.0
 10
8.687026996
 20
12.2085907119
 30
0.0
 10
8.701558788
 20
12.2120186119
 30
0.0
 10
8.7168254264
 20
12.215226618
 30
0.0
 10
8.732777139
 20
12.2182040935
 30
0.0
 10
8.7493617953
 20
12.2209411765
 30
0.0
 10
8.76652516
 20
12.2234288172
 30
0.0
 10
8.7842110686
 20
12.2256587889
 30
0.0
 10
8.8023616291
 20
12.2276237181
 30
0.0
 10
8.8209174119
 20
12.2293171062
 30
0.0
 10
8.8398176431
 20
12.2307333523
 30
0.0
 10
8.8590004061
 20
12.2318677864
 30
0.0
 10
8.8784028539
 20
12.2327166659
 30
0.0
 10
8.8979614149
 20
12.233277187
 30
0.0
 10
8.9176119996
 20
12.2335474953
 30
0.0
 10
8.9372902468
 20
12.233526698
 30
0.0
 10
8.9569315649
 20
12.2332148497
 30
0.0
 10
8.9764718686
 20
12.2326130297
 30
0.0
 10
8.9958467554
 20
12.2317231507
 30
0.0
 10
9.0086950126
 20
12.2309347109
 30
0.0
 10
9.0150798692
 20
12.2304919195
 30
0.0
  0
SPLINE
  5
405
100
AcDbEntity
  8
0
100
AcDbSpline
 62
7
  6
CONTINUOUS
 70
0
 71
3
 72
54
 73
50
 74
0
 42
0.0000001
 43
0.0000001
 44
0.0000000001
 40
0.0
 40
0.0
 40
0.0
 40
0.0
 40
0.0063158427
 40
0.0126705974
 40
0.0191023953
 40
0.0256479035
 40
0.0323417516
 40
0.0392160545
 40
0.0536138127
 40
0.061194488
 40
0.0690562166
 40
0.0772172825
 40
0.0856936302
 40
0.0944989909
 40
0.1036450473
 40
0.113141787
 40
0.1229974971
 40
0.1332190617
 40
0.1438121259
 40
0.1547810799
 40
0.1661293869
 40
0.1778595312
 40
0.189973133
 40
0.2024711534
 40
0.2153537503
 40
0.2286205275
 40
0.2422705277
 40
0.256302183
 40
0.2707135528
 40
0.2855021644
 40
0.300665138
 40
0.316199276
 40
0.3321009043
 40
0.3649900029
 40
0.3992976831
 40
0.4349839512
 40
0.472004695
 40
0.5103120262
 40
0.5498546333
 40
0.5905781015
 40
0.6324251619
 40
0.6753358913
 40
0.7192479428
 40
0.7640967229
 40
0.8098156864
 40
0.8563364658
 40
0.9035883331
 40
0.9515014468
 40
1.0
 40
1.0
 40
1.0
 40
1.0
 10
14.6564922077
 20
11.0791060974
 30
0.0
 10
14.6584866268
 20
11.07896778
 30
0.0
 10
14.6624783301
 20
11.078527062
 30
0.0
 10
14.6684211374
 20
11.0773782316
 30
0.0
 10
14.6743242329
 20
11.0757418263
 30
0.0
 10
14.6801841518
 20
11.0736190688
 30
0.0
 10
14.6859985749
 20
11.0710111619
 30
0.0
 10
14.6938058314
 20
11.0668260875
 30
0.0
 10
14.701401013
 20
11.06170283
 30
0.0
 10
14.7087512778
 20
11.0557658658
 30
0.0
 10
14.7143031453
 20
11.0507602355
 30
0.0
 10
14.7197957874
 20
11.0452816341
 30
0.0
 10
14.7252277395
 20
11.0393319202
 30
0.0
 10
14.730596787
 20
11.0329136798
 30
0.0
 10
14.7359010337
 20
11.0260295699
 30
0.0
 10
14.7411383266
 20
11.0186823316
 30
0.0
 10
14.7463067095
 20
11.0108749945
 30
0.0
 10
14.7514041495
 20
11.0026107172
 30
0.0
 10
14.7564285551
 20
10.9938928175
 30
0.0
 10
14.7613780169
 20
10.9847248814
 30
0.0
 10
14.7662504638
 20
10.9751106001
 30
0.0
 10
14.7710439406
 20
10.9650538992
 30
0.0
 10
14.7757565471
 20
10.9545588952
 30
0.0
 10
14.7803862693
 20
10.9436298445
 30
0.0
 10
14.7849312938
 20
10.9322712448
 30
0.0
 10
14.7893897255
 20
10.920487737
 30
0.0
 10
14.793759698
 20
10.9082841444
 30
0.0
 10
14.798039488
 20
10.8956654914
 30
0.0
 10
14.8022272541
 20
10.8826369427
 30
0.0
 10
14.8063213101
 20
10.8692038613
 30
0.0
 10
14.8103199779
 20
10.8553717757
 30
0.0
 10
14.8142215654
 20
10.84114635
 30
0.0
 10
14.8193497508
 20
10.8214408995
 30
0.0
 10
14.8254918394
 20
10.795861313
 30
0.0
 10
14.8323701628
 20
10.7640269327
 30
0.0
 10
14.8388250565
 20
10.7307709225
 30
0.0
 10
14.844845775
 20
10.6961480845
 30
0.0
 10
14.8504222869
 20
10.6602153134
 30
0.0
 10
14.8555453113
 20
10.6230317733
 30
0.0
 10
14.8602063092
 20
10.5846586949
 30
0.0
 10
14.8643975002
 20
10.5451592954
 30
0.0
 10
14.8681118991
 20
10.5045986737
 30
0.0
 10
14.8713433248
 20
10.4630437123
 30
0.0
 10
14.8740863945
 20
10.4205629301
 30
0.0
 10
14.8763365247
 20
10.3772263542
 30
0.0
 10
14.878089929
 20
10.3331056187
 30
0.0
 10
14.8793437563
 20
10.2882730848
 30
0.0
 10
14.8800957954
 20
10.2428032941
 30
0.0
 10
14.8802609371
 20
10.2122849759
 30
0.0
 10
14.8802609371
 20
10.1969332993
 30
0.0
  0
ENDSEC
  0
SECTION
  2
OBJECTS
  0
DICTIONARY
  5
C
100
AcDbDictionary
280
0
281
1
  3
ACAD_GROUP
350
D
  3
ACAD_MLINESTYLE
350
17
  3
ACAD_LAYOUT
350
1A
  3
ACAD_PLOTSETTINGS
350
19
  3
ACAD_PLOTSTYLENAME
350
E
  3
ACAD_IMAGE_DICT
350
       407
  3
ACAD_IMAGE_VARS
350
       408
  3
ACAD_TABLESTYLE
350
       409
  0
IMAGEDEF_REACTOR
  5
406
100
AcDbRasterImageDefReactor
 90
2
330
283
  0
DICTIONARY
  5
D
102
{ACAD_REACTORS
330
C
102
}
100
AcDbDictionary
280
0
281
1
  0
ACDBDICTIONARYWDFLT
  5
E
102
{ACAD_REACTORS
330
C
102
}
100
AcDbDictionary
281
1
  3
Normal
350
F
100
AcDbDictionaryWithDefault
340
F
  0
DICTIONARY
  5
407
330
C
100
AcDbDictionary
281
1
  3
EPJ_assy_2_img_1
350
       40C
  0
RASTERVARIABLES
  5
408
330
C
100
AcDbRasterVariables
 90
0
 70
0
 71
1
 72
5
  0
DICTIONARY
  5
17
102
{ACAD_REACTORS
330
C
102
}
100
AcDbDictionary
280
0
281
1
  3
Standard
350
18
  0
DICTIONARY
  5
409
330
C
100
AcDbDictionary
281
1
  3
Standard
350
       40D
  3
Standard1
350
       40E
  0
DICTIONARY
  5
19
102
{ACAD_REACTORS
330
C
102
}
100
AcDbDictionary
281
1
  0
DICTIONARY
  5
1A
102
{ACAD_REACTORS
330
C
102
}
100
AcDbDictionary
281
1
  3
Model
350
40A
  3
Layout1
350
40B
  0
ACDBPLACEHOLDER
  5
F
102
{ACAD_REACTORS
330
E
102
}
  0
MLINESTYLE
  5
18
102
{ACAD_REACTORS
330
17
102
}
100
AcDbMlineStyle
  2
STANDARD
 70
0
  3

 62
256
 51
90.0
 52
90.0
 71
2
 49
0.5
 62
256
  6
BYLAYER
 49
-0.5
 62
256
  6
BYLAYER
  0
LAYOUT
  5
40A
102
{ACAD_REACTORS
330
1A
102
}
100
AcDbPlotSettings
  1

  2
none_device
  4
ANSI_C_(22.00_x_17.00_Inches)
  6

 40
0.0
 41
0.0
 42
0.0
 43
0.0
 44
558.8
 45
431.8
 46
0.0
 47
0.0
 48
0.0
 49
0.0
140
0.0
141
0.0
142
1.0
143
1.0
 70
1024
 72
0
 73
0
 74
0
  7

 75
0
147
1.0
148
0.0
149
0.0
100
AcDbLayout
  1
Model
 70
0
 71
0
 10
0.0
 20
0.0
 11
22.0
 21
17.0
 12
0.0
 22
0.0
 32
0.0
 14
0.0
 24
0.0
 34
0.0
 15
0.0
 25
0.0
 35
0.0
146
0.0
 13
0.0
 23
0.0
 33
0.0
 16
1.0
 26
0.0
 36
0.0
 17
0.0
 27
1.0
 37
0.0
 76
0
330
204
345
0
346
0
  0
LAYOUT
  5
40B
102
{ACAD_REACTORS
330
1A
102
}
100
AcDbPlotSettings
  1

  2
none_device
  4
ANSI_C_(22.00_x_17.00_Inches)
  6

 40
0.0
 41
0.0
 42
0.0
 43
0.0
 44
558.8
 45
431.8
 46
0.0
 47
0.0
 48
0.0
 49
0.0
140
0.0
141
0.0
142
1.0
143
1.0
 70
0
 72
0
 73
0
 74
0
  7

 75
0
147
1.0
148
0.0
149
0.0
100
AcDbLayout
  1
Layout1
 70
0
 71
1
 10
0.0
 20
0.0
 11
22.0
 21
17.0
 12
0.0
 22
0.0
 32
0.0
 14
0.0
 24
0.0
 34
0.0
 15
0.0
 25
0.0
 35
0.0
146
0.0
 13
0.0
 23
0.0
 33
0.0
 16
1.0
 26
0.0
 36
0.0
 17
0.0
 27
1.0
 37
0.0
 76
0
330
205
345
0
346
0
  0
IMAGEDEF
  5
40C
102
{ACAD_REACTORS
330
407
330
406
102
}
100
AcDbRasterImageDef
 90
0
  1
EPJ_assy_2_img_1.png
 10
369.0
 20
92.0
 11
0.0066666667
 21
0.0066666667
280
1
281
0
  0
TABLESTYLE
  5
40D
102
{ACAD_REACTORS
330
409
330
286
330
287
102
}
330
409
100
AcDbTableStyle
  3
Standard
 70
0
 71
0
 40
0.06
 41
0.06
280
1
281
1
  7
Standard
140
0.18
170
1
 62
0
 63
7
283
0
  7
Standard
140
0.18
170
1
 62
0
 63
7
283
0
  7
Standard
140
0.18
170
1
 62
0
 63
7
283
0
  0
TABLESTYLE
  5
40E
102
{ACAD_REACTORS
330
409
330
285
102
}
330
409
100
AcDbTableStyle
  3
Standard1
 70
1
 71
0
 40
0.06
 41
0.06
280
1
281
1
  7
Standard
140
0.18
170
1
 62
0
 63
7
283
0
  7
Standard
140
0.18
170
1
 62
0
 63
7
283
0
  7
Standard
140
0.18
170
1
 62
0
 63
7
283
0
  0
ENDSEC
  0
EOF
