999
DXF file: EPB_assy_2.dxf
999
Pro/ENGINEER 2014200 by Parametric Technology Corporation
  0
SECTION
  2
HEADER
  9
$ACADVER
  1
AC1021
  9
$DWGCODEPAGE
  3
ANSI_1252
  9
$EXTMAX
 10
22.0
 20
17.0
 30
0.0
  9
$EXTMIN
 10
0.0
 20
0.0
 30
0.0
  9
$LIMMIN
 10
0.0
 20
0.0
  9
$LIMMAX
 10
22.0
 20
17.0
  9
$VIEWCTR
 10
11.0
 20
8.5
  9
$VIEWSIZE
 40
17.0
  9
$CLAYER
  8
0
  9
$LTSCALE
 40
1.21
  9
$CELTYPE
  6
BYLAYER
  9
$DIMSCALE
 40
1.0
  9
$DIMASZ
 40
0.1875
  9
$DIMEXO
 40
0.0625
  9
$DIMDLI
 40
0.836
  9
$DIMEXE
 40
0.125
  9
$DIMCEN
 40
0.198
  9
$DIMLFAC
 40
1.0
  9
$DIMBLK
  1
_FILLED
  9
$DIMTXT
 40
0.1
  9
$DIMTOL
 70
0
  9
$DIMLIM
 70
0
  9
$DIMTFAC
 40
1.0
  9
$DIMGAP
 40
0.09
  9
$DIMDSEP
 70
46
  9
$AUNITS
 70
0
  9
$PDMODE
 70
3
  9
$PDSIZE
 40
0.3125
  9
$HANDSEED
  5
3FF
  9
$TILEMODE
 70
1
  9
$MEASUREMENT
 70
0
  9
$INSUNITS
 70
1
  0
ENDSEC
  0
SECTION
  2
CLASSES
  0
CLASS
  1
ACDBDICTIONARYWDFLT
  2
AcDbDictionaryWithDefault
  3
AutoCAD 2000
 90
0
 91
1
280
0
281
0
  0
CLASS
  1
ACDBPLACEHOLDER
  2
AcDbPlaceHolder
  3
AutoCAD 2000
 90
0
 91
1
280
0
281
0
  0
CLASS
  1
LAYOUT
  2
AcDbLayout
  3
AutoCAD 2000
 90
0
 91
0
280
0
281
0
  0
CLASS
  1
RASTERVARIABLES
  2
AcDbRasterVariables
  3
ISM
 90
0
 91
1
280
0
281
0
  0
CLASS
  1
IMAGEDEF
  2
AcDbRasterImageDef
  3
ISM
 90
0
 91
1
280
0
281
0
  0
CLASS
  1
IMAGEDEF_REACTOR
  2
AcDbRasterImageDefReactor
  3
ISM
 90
0
 91
1
280
0
281
0
  0
CLASS
  1
IMAGE
  2
AcDbRasterImage
  3
ISM
 90
127
 91
1
280
0
281
1
  0
CLASS
  1
TABLESTYLE
  2
AcDbTableStyle
  3
ObjectDBX Classes
 90
2047
 91
1
280
0
281
0
  0
CLASS
  1
ACAD_TABLE
  2
AcDbTable
  3
ObjectDBX Classes
 90
1025
 91
3
280
0
281
1
  0
ENDSEC
  0
SECTION
  2
TABLES
  0
TABLE
  2
VPORT
  5
8
100
AcDbSymbolTable
 70
2
  0
VPORT
  5
1F4
100
AcDbSymbolTableRecord
100
AcDbViewportTableRecord
  2
*ACTIVE
 70
0
 10
0.0
 20
0.0
 11
1.0
 21
1.0
 12
11.0
 22
8.5
 13
0.0
 23
0.0
 14
1.0
 24
1.0
 15
0.0
 25
0.0
 16
0.0
 26
0.0
 36
1.0
 17
0.0
 27
0.0
 37
0.0
 40
17.0
 41
1.2941176471
 42
50.0
 43
0.0
 44
0.0
 50
0.0
 51
0.0
 71
0
 72
100
 73
1
 74
1
 75
0
 76
0
 77
0
 78
0
  0
ENDTAB
  0
TABLE
  2
LTYPE
  5
5
100
AcDbSymbolTable
 70
6
  0
LTYPE
  5
14
100
AcDbSymbolTableRecord
100
AcDbLinetypeTableRecord
  2
BYBLOCK
 70
0
  3

 72
65
 73
0
 40
0.0
  0
LTYPE
  5
15
100
AcDbSymbolTableRecord
100
AcDbLinetypeTableRecord
  2
BYLAYER
 70
0
  3

 72
65
 73
0
 40
0.0
  0
LTYPE
  5
16
100
AcDbSymbolTableRecord
100
AcDbLinetypeTableRecord
  2
CONTINUOUS
 70
64
  3
Solid line
 72
65
 73
0
 40
0.0
  0
LTYPE
  5
1F5
100
AcDbSymbolTableRecord
100
AcDbLinetypeTableRecord
  2
CENTER
 70
64
  3
____ _ ____ _ ____ _ ____ _ ____ _ ____ _ ____
 72
65
 73
4
 40
0.6
 49
0.375
 74
0
 49
-0.075
 74
0
 49
0.075
 74
0
 49
-0.075
 74
0
  0
LTYPE
  5
1F6
100
AcDbSymbolTableRecord
100
AcDbLinetypeTableRecord
  2
HIDDEN
 70
64
  3
- - - - - - - - - - - - - - - - - - - -
 72
65
 73
2
 40
0.2
 49
0.1
 74
0
 49
-0.1
 74
0
  0
LTYPE
  5
1F7
100
AcDbSymbolTableRecord
100
AcDbLinetypeTableRecord
  2
PHANTOM
 70
64
  3
_____ _ _ _____ _ _ _____ _ _ _____
 72
65
 73
6
 40
0.8
 49
0.45
 74
0
 49
-0.05
 74
0
 49
0.1
 74
0
 49
-0.05
 74
0
 49
0.1
 74
0
 49
-0.05
 74
0
  0
LTYPE
  5
1F8
100
AcDbSymbolTableRecord
100
AcDbLinetypeTableRecord
  2
DOT
 70
64
  3
. . . . . . . . . . . . . . . . . . . .
 72
65
 73
2
 40
0.2
 49
0.1
 74
0
 49
-0.1
 74
0
  0
LTYPE
  5
1F9
100
AcDbSymbolTableRecord
100
AcDbLinetypeTableRecord
  2
DASHED
 70
64
  3
- - - - - - - - - - - - - - - - - - - -
 72
65
 73
2
 40
0.2
 49
0.1
 74
0
 49
-0.1
 74
0
  0
ENDTAB
  0
TABLE
  2
LAYER
  5
2
100
AcDbSymbolTable
 70
36
  0
LAYER
  5
10
100
AcDbSymbolTableRecord
100
AcDbLayerTableRecord
  2
0
 70
0
 62
7
  6
CONTINUOUS
370
-3
390
F
  0
LAYER
  5
1FA
100
AcDbSymbolTableRecord
100
AcDbLayerTableRecord
  2
DEFAULT_1
 70
0
 62
7
  6
CENTER
370
-3
390
F
  0
LAYER
  5
1FB
100
AcDbSymbolTableRecord
100
AcDbLayerTableRecord
  2
DEFAULT_2
 70
0
 62
8
  6
HIDDEN
370
-3
390
F
  0
LAYER
  5
1FC
100
AcDbSymbolTableRecord
100
AcDbLayerTableRecord
  2
DEFAULT_3
 70
0
 62
7
  6
PHANTOM
370
-3
390
F
  0
LAYER
  5
1FD
100
AcDbSymbolTableRecord
100
AcDbLayerTableRecord
  2
DATUM_PLANES
 70
0
 62
7
  6
CONTINUOUS
370
-3
390
F
  0
LAYER
  5
1FE
100
AcDbSymbolTableRecord
100
AcDbLayerTableRecord
  2
PORT_AREAS
 70
0
 62
7
  6
CONTINUOUS
370
-3
390
F
  0
LAYER
  5
1FF
100
AcDbSymbolTableRecord
100
AcDbLayerTableRecord
  2
SUNNBOMCOSMETIC
 70
0
 62
7
  6
CONTINUOUS
370
-3
390
F
  0
LAYER
  5
200
100
AcDbSymbolTableRecord
100
AcDbLayerTableRecord
  2
SUNNBOMSTAMPING
 70
0
 62
7
  6
CONTINUOUS
370
-3
390
F
  0
LAYER
  5
201
100
AcDbSymbolTableRecord
100
AcDbLayerTableRecord
  2
THREADS
 70
0
 62
7
  6
CONTINUOUS
370
-3
390
F
  0
ENDTAB
  0
TABLE
  2
STYLE
  5
3
100
AcDbSymbolTable
 70
1
  0
STYLE
  5
11
100
AcDbSymbolTableRecord
100
AcDbTextStyleTableRecord
  2
STANDARD
 70
0
 40
0.0
 41
0.8
 50
0.0
 71
0
 42
0.2
  3
txt
  4

  0
STYLE
  5
202
100
AcDbSymbolTableRecord
100
AcDbTextStyleTableRecord
  2
TEXTSTYLE_1
 70
0
 40
0.0
 41
0.8
 50
0.0
 71
0
 42
0.2
  3
gdt
  4

  0
ENDTAB
  0
TABLE
  2
VIEW
  5
6
100
AcDbSymbolTable
 70
0
  0
ENDTAB
  0
TABLE
  2
UCS
  5
7
100
AcDbSymbolTable
 70
0
  0
ENDTAB
  0
TABLE
  2
APPID
  5
9
100
AcDbSymbolTable
 70
1
  0
APPID
  5
203
100
AcDbSymbolTableRecord
100
AcDbRegAppTableRecord
  2
ACAD
 70
0
  0
ENDTAB
  0
TABLE
  2
BLOCK_RECORD
  5
1
100
AcDbSymbolTable
 70
0
  0
BLOCK_RECORD
  5
204
100
AcDbSymbolTableRecord
100
AcDbBlockTableRecord
  2
*Model_Space
  0
BLOCK_RECORD
  5
205
100
AcDbSymbolTableRecord
100
AcDbBlockTableRecord
  2
*Paper_Space
  0
BLOCK_RECORD
  5
206
100
AcDbSymbolTableRecord
100
AcDbBlockTableRecord
  2
SUN_FIRST_THIRD_ANGLE_BL0
  0
BLOCK_RECORD
  5
207
100
AcDbSymbolTableRecord
100
AcDbBlockTableRecord
  2
*T1
  0
BLOCK_RECORD
  5
208
100
AcDbSymbolTableRecord
100
AcDbBlockTableRecord
  2
*T2
  0
BLOCK_RECORD
  5
209
100
AcDbSymbolTableRecord
100
AcDbBlockTableRecord
  2
*T3
  0
ENDTAB
  0
TABLE
  2
DIMSTYLE
  5
A
100
AcDbSymbolTable
 70
1
100
AcDbDimStyleTable
 71
0
  0
DIMSTYLE
105
20A
100
AcDbSymbolTableRecord
100
AcDbDimStyleTableRecord
  2
STANDARD
 70
0
  3

  4

 40
1.0
 41
0.1875
 42
0.0625
 43
0.38
 44
0.125
 45
0.0
 46
0.0
 47
0.001
 48
0.001
140
0.1
141
0.09
142
0.0
143
25.4
144
1.0
145
0.0
146
1.0
147
0.09
 71
0.0
 72
0.0
 73
1
 74
1
 75
0
 76
0
 77
0
 78
4
170
0
171
2
172
0
173
0
174
0
175
0
176
0
177
0
178
0
270
2
271
3
272
3
273
2
274
2
275
0
280
0
281
0
282
0
283
1
284
4
285
0
286
0
287
3
288
0
340
11
278
46
  0
ENDTAB
  0
ENDSEC
  0
SECTION
  2
BLOCKS
  0
BLOCK
  5
20
100
AcDbEntity
  8
0
100
AcDbBlockBegin
  2
*Model_Space
 70
0
 10
0.0
 20
0.0
 30
0.0
  3
*Model_Space
  1

  0
ENDBLK
  5
21
100
AcDbEntity
  8
0
100
AcDbBlockEnd
  0
BLOCK
  5
1C
100
AcDbEntity
  8
0
100
AcDbBlockBegin
  2
*Paper_Space
 70
0
 10
0.0
 20
0.0
 30
0.0
  3
*Paper_Space
  1

  0
ENDBLK
  5
1D
100
AcDbEntity
  8
0
100
AcDbBlockEnd
  0
BLOCK
  5
20B
100
AcDbEntity
  8
0
100
AcDbBlockBegin
 62
2
  6
CONTINUOUS
  2
SUN_FIRST_THIRD_ANGLE_BL0
 70
64
 10
20.4816717061
 20
1.2289683772
  3
SUN_FIRST_THIRD_ANGLE_BL0
  1

  0
TEXT
  5
20C
100
AcDbEntity
  8
0
100
AcDbText
 62
2
  6
CONTINUOUS
 10
19.4750896608
 20
1.4136269581
  7
STANDARD
 40
0.08
  1
FIRST ANGLE
 41
0.8
 72
0
100
AcDbText
  0
TEXT
  5
20D
100
AcDbEntity
  8
0
100
AcDbText
 62
2
  6
CONTINUOUS
 10
20.7842537513
 20
1.4047600029
  7
STANDARD
 40
0.08
  1
THIRD ANGLE
 41
0.8
 72
0
100
AcDbText
  0
LINE
  5
20E
100
AcDbEntity
  8
0
100
AcDbLine
 62
7
  6
CONTINUOUS
 10
19.4767170086
 20
1.1727031207
 11
19.6334271527
 21
1.1717972817
  0
LINE
  5
20F
100
AcDbEntity
  8
0
100
AcDbLine
 62
7
  6
CONTINUOUS
 10
19.6596964832
 20
1.1717972817
 11
19.6950230232
 21
1.171593082
  0
LINE
  5
210
100
AcDbEntity
  8
0
100
AcDbLine
 62
7
  6
CONTINUOUS
 10
19.7194818561
 20
1.1708914427
 11
19.8852396156
 21
1.1699333054
  0
LINE
  5
211
100
AcDbEntity
  8
0
100
AcDbLine
 62
7
  6
CONTINUOUS
 10
19.4758111696
 20
1.2723454088
 11
19.88525039
 21
1.3511534004
  0
LINE
  5
212
100
AcDbEntity
  8
0
100
AcDbLine
 62
7
  6
CONTINUOUS
 10
19.88525039
 20
1.3511534004
 11
19.8831348489
 21
0.9851647912
  0
LINE
  5
213
100
AcDbEntity
  8
0
100
AcDbLine
 62
7
  6
CONTINUOUS
 10
19.8831348489
 20
0.9851647912
 11
19.4767170086
 21
1.0658141206
  0
LINE
  5
214
100
AcDbEntity
  8
0
100
AcDbLine
 62
7
  6
CONTINUOUS
 10
19.4767170086
 20
1.0658141206
 11
19.4779056764
 21
1.2714536432
  0
CIRCLE
  5
215
100
AcDbEntity
  8
0
100
AcDbCircle
 62
7
  6
CONTINUOUS
 10
20.2068232291
 20
1.1717972817
 40
0.175742101
  0
CIRCLE
  5
216
100
AcDbEntity
  8
0
100
AcDbCircle
 62
7
  6
CONTINUOUS
 10
20.2068232291
 20
1.1717972817
 40
0.1005522074
  0
LINE
  5
217
100
AcDbEntity
  8
0
100
AcDbLine
 62
7
  6
CONTINUOUS
 10
20.2077290681
 20
1.3756110529
 11
20.2071171714
 21
1.2379342989
  0
LINE
  5
218
100
AcDbEntity
  8
0
100
AcDbLine
 62
7
  6
CONTINUOUS
 10
20.2077290681
 20
1.2016899681
 11
20.2074674401
 21
1.1428236749
  0
LINE
  5
219
100
AcDbEntity
  8
0
100
AcDbLine
 62
7
  6
CONTINUOUS
 10
20.208634907
 20
1.101141841
 11
20.2080230104
 21
0.963465087
  0
LINE
  5
21A
100
AcDbEntity
  8
0
100
AcDbLine
 62
7
  6
CONTINUOUS
 10
20.0066328138
 20
1.1745147986
 11
20.1443095678
 21
1.1739029019
  0
LINE
  5
21B
100
AcDbEntity
  8
0
100
AcDbLine
 62
7
  6
CONTINUOUS
 10
20.1832714155
 20
1.1727031207
 11
20.238153505
 21
1.172335442
  0
LINE
  5
21C
100
AcDbEntity
  8
0
100
AcDbLine
 62
7
  6
CONTINUOUS
 10
20.2756669918
 20
1.1717972817
 11
20.407916871
 21
1.1712095044
  0
CIRCLE
  5
21D
100
AcDbEntity
  8
0
100
AcDbCircle
 62
7
  6
CONTINUOUS
 10
20.7509457401
 20
1.1693297793
 40
0.1722024983
  0
CIRCLE
  5
21E
100
AcDbEntity
  8
0
100
AcDbCircle
 62
7
  6
CONTINUOUS
 10
20.7509457401
 20
1.1693297793
 40
0.0985164967
  0
LINE
  5
21F
100
AcDbEntity
  8
0
100
AcDbLine
 62
7
  6
CONTINUOUS
 10
20.7169767782
 20
1.170462078
 11
20.7825395137
 21
1.1682766535
  0
LINE
  5
220
100
AcDbEntity
  8
0
100
AcDbLine
 62
7
  6
CONTINUOUS
 10
20.8177513651
 20
1.1693297793
 11
20.947965719
 21
1.1693297793
  0
LINE
  5
221
100
AcDbEntity
  8
0
100
AcDbLine
 62
7
  6
CONTINUOUS
 10
20.6875370113
 20
1.170462078
 11
20.5573226574
 21
1.170462078
  0
LINE
  5
222
100
AcDbEntity
  8
0
100
AcDbLine
 62
7
  6
CONTINUOUS
 10
20.7486811426
 20
1.1987695462
 11
20.7486811426
 21
1.1432869085
  0
LINE
  5
223
100
AcDbEntity
  8
0
100
AcDbLine
 62
7
  6
CONTINUOUS
 10
20.7498134414
 20
1.1059210505
 11
20.7498134414
 21
0.9757066966
  0
LINE
  5
224
100
AcDbEntity
  8
0
100
AcDbLine
 62
7
  6
CONTINUOUS
 10
20.7486811426
 20
1.2338708068
 11
20.7486811426
 21
1.3640851607
  0
LINE
  5
225
100
AcDbEntity
  8
0
100
AcDbLine
 62
7
  6
CONTINUOUS
 10
21.0702539817
 20
1.2701043662
 11
21.4790138229
 21
1.3448360823
  0
LINE
  5
226
100
AcDbEntity
  8
0
100
AcDbLine
 62
7
  6
CONTINUOUS
 10
21.4790138229
 20
1.3448360823
 11
21.4790138229
 21
0.9779712941
  0
LINE
  5
227
100
AcDbEntity
  8
0
100
AcDbLine
 62
7
  6
CONTINUOUS
 10
21.4790138229
 20
0.9779712941
 11
21.069121683
 21
1.0617614
  0
LINE
  5
228
100
AcDbEntity
  8
0
100
AcDbLine
 62
7
  6
CONTINUOUS
 10
21.0702539817
 20
1.2701043662
 11
21.069121683
 21
1.0617614
  0
LINE
  5
229
100
AcDbEntity
  8
0
100
AcDbLine
 62
7
  6
CONTINUOUS
 10
21.4790138229
 20
1.1693297793
 11
21.3159628059
 21
1.1693297793
  0
LINE
  5
22A
100
AcDbEntity
  8
0
100
AcDbLine
 62
7
  6
CONTINUOUS
 10
21.2876553377
 20
1.1693297793
 11
21.2502894796
 21
1.1693297793
  0
LINE
  5
22B
100
AcDbEntity
  8
0
100
AcDbLine
 62
7
  6
CONTINUOUS
 10
21.2208497126
 20
1.1659328831
 11
21.0713862804
 21
1.1659328831
  0
LINE
  5
22C
100
AcDbEntity
  8
0
100
AcDbLine
 62
7
  6
CONTINUOUS
 10
20.4796138713
 20
1.5284908897
 11
20.4766766948
 21
0.9294458646
  0
ENDBLK
  5
22D
100
AcDbEntity
  8
0
  6
BYBLOCK
 62
0
100
AcDbBlockEnd
  0
BLOCK
  5
22E
100
AcDbEntity
  8
0
100
AcDbBlockBegin
  2
*T1
 70
1
 10
0.0
 20
0.0
  3
*T1
  1

  0
LINE
  5
22F
100
AcDbEntity
  8
0
100
AcDbLine
 62
2
  6
CONTINUOUS
 10
9.275
 20
0.0
 11
-0.0
 21
0.0
  0
LINE
  5
230
100
AcDbEntity
  8
0
100
AcDbLine
 62
2
  6
CONTINUOUS
 10
9.275
 20
0.0
 11
9.275
 21
1.25
  0
LINE
  5
231
100
AcDbEntity
  8
0
100
AcDbLine
 62
2
  6
CONTINUOUS
 10
9.275
 20
0.625
 11
-0.0
 21
0.625
  0
LINE
  5
232
100
AcDbEntity
  8
0
100
AcDbLine
 62
2
  6
CONTINUOUS
 10
9.275
 20
1.25
 11
-0.0
 21
1.25
  0
LINE
  5
233
100
AcDbEntity
  8
0
100
AcDbLine
 62
2
  6
CONTINUOUS
 10
6.8
 20
0.0
 11
6.8
 21
1.25
  0
LINE
  5
234
100
AcDbEntity
  8
0
100
AcDbLine
 62
2
  6
CONTINUOUS
 10
6.4
 20
0.0
 11
6.4
 21
0.625
  0
LINE
  5
235
100
AcDbEntity
  8
0
100
AcDbLine
 62
2
  6
CONTINUOUS
 10
5.9
 20
0.0
 11
5.9
 21
0.625
  0
LINE
  5
236
100
AcDbEntity
  8
0
100
AcDbLine
 62
2
  6
CONTINUOUS
 10
5.2
 20
0.0
 11
5.2
 21
0.625
  0
LINE
  5
237
100
AcDbEntity
  8
0
100
AcDbLine
 62
2
  6
CONTINUOUS
 10
4.1
 20
0.0
 11
4.1
 21
1.25
  0
LINE
  5
238
100
AcDbEntity
  8
0
100
AcDbLine
 62
2
  6
CONTINUOUS
 10
-0.0
 20
0.0
 11
-0.0
 21
1.25
  0
MTEXT
  5
239
100
AcDbEntity
  8
0
100
AcDbMText
 62
2
  6
CONTINUOUS
  7
STANDARD
 71
2
 72
1
 10
6.6
 20
0.325
 30
0.0
 11
1.0
 21
0.0
 31
0.0
 44
0.9
  1
2
 40
0.125
 41
0.2
  0
MTEXT
  5
23A
100
AcDbEntity
  8
0
100
AcDbMText
 62
2
  6
CONTINUOUS
  7
STANDARD
 71
2
 72
1
 10
6.15
 20
0.325
 30
0.0
 11
1.0
 21
0.0
 31
0.0
 44
0.9
  1
C
 40
0.125
 41
0.2
  0
MTEXT
  5
23B
100
AcDbEntity
  8
0
100
AcDbMText
 62
2
  6
CONTINUOUS
  7
STANDARD
 71
2
 72
1
 10
5.55
 20
0.325
 30
0.0
 11
1.0
 21
0.0
 31
0.0
 44
0.9
  1
2.000
 40
0.125
 41
1.0
  0
MTEXT
  5
23C
100
AcDbEntity
  8
0
100
AcDbMText
 62
2
  6
CONTINUOUS
  7
STANDARD
 71
2
 72
1
 10
4.65
 20
0.325
 30
0.0
 11
1.0
 21
0.0
 31
0.0
 44
0.9
  1
Jul-24-19
 40
0.125
 41
1.8
  0
MTEXT
  5
23D
100
AcDbEntity
  8
0
100
AcDbMText
 62
2
  6
CONTINUOUS
  7
STANDARD
 71
2
 72
1
 10
2.05
 20
0.4625
 30
0.0
 11
1.0
 21
0.0
 31
0.0
 44
0.9
  1
T-11A Line mount\PCushion lock with make up checks
 40
0.125
 41
6.4
  0
MTEXT
  5
23E
100
AcDbEntity
  8
0
100
AcDbMText
 62
2
  6
CONTINUOUS
  7
STANDARD
 71
1
 72
1
 10
6.45
 20
0.5625
 30
0.0
 11
1.0
 21
0.0
 31
0.0
 44
0.9
  1
SHEET
 40
0.06
 41
0.48
  0
MTEXT
  5
23F
100
AcDbEntity
  8
0
100
AcDbMText
 62
2
  6
CONTINUOUS
  7
STANDARD
 71
1
 72
1
 10
5.95
 20
0.5625
 30
0.0
 11
1.0
 21
0.0
 31
0.0
 44
0.9
  1
DWG SIZE
 40
0.06
 41
0.768
  0
MTEXT
  5
240
100
AcDbEntity
  8
0
100
AcDbMText
 62
2
  6
CONTINUOUS
  7
STANDARD
 71
1
 72
1
 10
5.25
 20
0.5625
 30
0.0
 11
1.0
 21
0.0
 31
0.0
 44
0.9
  1
SCALE
 40
0.06
 41
0.48
  0
MTEXT
  5
241
100
AcDbEntity
  8
0
100
AcDbMText
 62
2
  6
CONTINUOUS
  7
STANDARD
 71
1
 72
1
 10
4.15
 20
0.5625
 30
0.0
 11
1.0
 21
0.0
 31
0.0
 44
0.9
  1
DATE
 40
0.06
 41
0.384
  0
MTEXT
  5
242
100
AcDbEntity
  8
0
100
AcDbMText
 62
2
  6
CONTINUOUS
  7
STANDARD
 71
1
 72
1
 10
0.05
 20
0.5625
 30
0.0
 11
1.0
 21
0.0
 31
0.0
 44
0.9
  1
DESCRIPTION
 40
0.06
 41
1.056
  0
MTEXT
  5
243
100
AcDbEntity
  8
0
100
AcDbMText
 62
2
  6
CONTINUOUS
  7
STANDARD
 71
2
 72
1
 10
5.45
 20
1.0375
 30
0.0
 11
1.0
 21
0.0
 31
0.0
 44
0.9
  1
ALL DIMENSIONS IN INCH\PVIEWS ARE THIRD ANGLE
 40
0.12
 41
4.224
  0
MTEXT
  5
244
100
AcDbEntity
  8
0
100
AcDbMText
 62
2
  6
CONTINUOUS
  7
STANDARD
 71
2
 72
1
 10
2.05
 20
0.95
 30
0.0
 11
1.0
 21
0.0
 31
0.0
 44
0.9
  1
EPB
 40
0.125
 41
0.6
  0
MTEXT
  5
245
100
AcDbEntity
  8
0
100
AcDbMText
 62
2
  6
CONTINUOUS
  7
STANDARD
 71
1
 72
1
 10
0.05
 20
1.1875
 30
0.0
 11
1.0
 21
0.0
 31
0.0
 44
0.9
  1
MODEL
 40
0.06
 41
0.48
  0
ENDBLK
  5
246
100
AcDbEntity
  8
0
  6
BYBLOCK
 62
0
100
AcDbBlockEnd
  0
BLOCK
  5
247
100
AcDbEntity
  8
0
100
AcDbBlockBegin
  2
*T2
 70
1
 10
0.0
 20
0.0
  3
*T2
  1

  0
LINE
  5
248
100
AcDbEntity
  8
0
100
AcDbLine
 62
2
  6
CONTINUOUS
 10
0.0
 20
0.0
 11
9.055
 21
0.0
  0
LINE
  5
249
100
AcDbEntity
  8
0
100
AcDbLine
 62
2
  6
CONTINUOUS
 10
0.0
 20
0.0
 11
0.0
 21
-2.594
  0
LINE
  5
24A
100
AcDbEntity
  8
0
100
AcDbLine
 62
2
  6
CONTINUOUS
 10
0.0
 20
-0.344
 11
9.055
 21
-0.344
  0
LINE
  5
24B
100
AcDbEntity
  8
0
100
AcDbLine
 62
2
  6
CONTINUOUS
 10
0.0
 20
-0.594
 11
9.055
 21
-0.594
  0
LINE
  5
24C
100
AcDbEntity
  8
0
100
AcDbLine
 62
2
  6
CONTINUOUS
 10
0.0
 20
-0.844
 11
9.055
 21
-0.844
  0
LINE
  5
24D
100
AcDbEntity
  8
0
100
AcDbLine
 62
2
  6
CONTINUOUS
 10
0.0
 20
-1.094
 11
9.055
 21
-1.094
  0
LINE
  5
24E
100
AcDbEntity
  8
0
100
AcDbLine
 62
2
  6
CONTINUOUS
 10
0.0
 20
-1.344
 11
9.055
 21
-1.344
  0
LINE
  5
24F
100
AcDbEntity
  8
0
100
AcDbLine
 62
2
  6
CONTINUOUS
 10
0.0
 20
-1.594
 11
9.055
 21
-1.594
  0
LINE
  5
250
100
AcDbEntity
  8
0
100
AcDbLine
 62
2
  6
CONTINUOUS
 10
0.0
 20
-1.844
 11
9.055
 21
-1.844
  0
LINE
  5
251
100
AcDbEntity
  8
0
100
AcDbLine
 62
2
  6
CONTINUOUS
 10
0.0
 20
-2.094
 11
9.055
 21
-2.094
  0
LINE
  5
252
100
AcDbEntity
  8
0
100
AcDbLine
 62
2
  6
CONTINUOUS
 10
0.0
 20
-2.344
 11
9.055
 21
-2.344
  0
LINE
  5
253
100
AcDbEntity
  8
0
100
AcDbLine
 62
2
  6
CONTINUOUS
 10
0.0
 20
-2.594
 11
9.055
 21
-2.594
  0
LINE
  5
254
100
AcDbEntity
  8
0
100
AcDbLine
 62
2
  6
CONTINUOUS
 10
3.055
 20
0.0
 11
3.055
 21
-2.594
  0
LINE
  5
255
100
AcDbEntity
  8
0
100
AcDbLine
 62
2
  6
CONTINUOUS
 10
9.055
 20
0.0
 11
9.055
 21
-2.594
  0
MTEXT
  5
256
100
AcDbEntity
  8
0
100
AcDbMText
 62
2
  6
CONTINUOUS
  7
STANDARD
 71
2
 72
1
 10
1.5275
 20
-0.0995
 30
0.0
 11
1.0
 21
0.0
 31
0.0
 44
0.9
  1
Technical Data
 40
0.145
 41
3.248
  0
MTEXT
  5
257
100
AcDbEntity
  8
0
100
AcDbMText
 62
2
  6
CONTINUOUS
  7
STANDARD
 71
2
 72
1
 10
4.555
 20
-0.0995
 30
0.0
 11
1.0
 21
0.0
 31
0.0
 44
0.9
  1
U.S. Units
 40
0.145
 41
2.32
  0
MTEXT
  5
258
100
AcDbEntity
  8
0
100
AcDbMText
 62
2
  6
CONTINUOUS
  7
STANDARD
 71
2
 72
1
 10
7.555
 20
-0.0995
 30
0.0
 11
1.0
 21
0.0
 31
0.0
 44
0.9
  1
Metric Units
 40
0.145
 41
2.784
  0
MTEXT
  5
259
100
AcDbEntity
  8
0
100
AcDbMText
 62
2
  6
CONTINUOUS
  7
STANDARD
 71
2
 72
1
 10
1.5275
 20
-0.4065
 30
0.0
 11
1.0
 21
0.0
 31
0.0
 44
0.9
  1
Cavity
 40
0.125
 41
1.2
  0
MTEXT
  5
25A
100
AcDbEntity
  8
0
100
AcDbMText
 62
2
  6
CONTINUOUS
  7
STANDARD
 71
2
 72
1
 10
6.055
 20
-0.4065
 30
0.0
 11
1.0
 21
0.0
 31
0.0
 44
0.9
  1
T-11A
 40
0.125
 41
1.0
  0
MTEXT
  5
25B
100
AcDbEntity
  8
0
100
AcDbMText
 62
2
  6
CONTINUOUS
  7
STANDARD
 71
2
 72
1
 10
1.5275
 20
-0.6565
 30
0.0
 11
1.0
 21
0.0
 31
0.0
 44
0.9
  1
Body Features
 40
0.125
 41
2.6
  0
MTEXT
  5
25C
100
AcDbEntity
  8
0
100
AcDbMText
 62
2
  6
CONTINUOUS
  7
STANDARD
 71
2
 72
1
 10
6.055
 20
-0.6565
 30
0.0
 11
1.0
 21
0.0
 31
0.0
 44
0.9
  1
Cushion lock with make up checks
 40
0.125
 41
6.4
  0
MTEXT
  5
25D
100
AcDbEntity
  8
0
100
AcDbMText
 62
2
  6
CONTINUOUS
  7
STANDARD
 71
2
 72
1
 10
1.5275
 20
-0.9065
 30
0.0
 11
1.0
 21
0.0
 31
0.0
 44
0.9
  1
Body Type
 40
0.125
 41
1.8
  0
MTEXT
  5
25E
100
AcDbEntity
  8
0
100
AcDbMText
 62
2
  6
CONTINUOUS
  7
STANDARD
 71
2
 72
1
 10
6.055
 20
-0.9065
 30
0.0
 11
1.0
 21
0.0
 31
0.0
 44
0.9
  1
Line mount
 40
0.125
 41
2.0
  0
MTEXT
  5
25F
100
AcDbEntity
  8
0
100
AcDbMText
 62
2
  6
CONTINUOUS
  7
STANDARD
 71
2
 72
1
 10
1.5275
 20
-1.1565
 30
0.0
 11
1.0
 21
0.0
 31
0.0
 44
0.9
  1
Interface
 40
0.125
 41
1.8
  0
MTEXT
  5
260
100
AcDbEntity
  8
0
100
AcDbMText
 62
2
  6
CONTINUOUS
  7
STANDARD
 71
2
 72
1
 10
6.055
 20
-1.1565
 30
0.0
 11
1.0
 21
0.0
 31
0.0
 44
0.9
  1
None
 40
0.125
 41
0.8
  0
MTEXT
  5
261
100
AcDbEntity
  8
0
100
AcDbMText
 62
2
  6
CONTINUOUS
  7
STANDARD
 71
2
 72
1
 10
1.5275
 20
-1.4065
 30
0.0
 11
1.0
 21
0.0
 31
0.0
 44
0.9
  1
Open Cavity Quantity
 40
0.125
 41
4.0
  0
MTEXT
  5
262
100
AcDbEntity
  8
0
100
AcDbMText
 62
2
  6
CONTINUOUS
  7
STANDARD
 71
2
 72
1
 10
6.055
 20
-1.4065
 30
0.0
 11
1.0
 21
0.0
 31
0.0
 44
0.9
  1
2
 40
0.125
 41
0.2
  0
MTEXT
  5
263
100
AcDbEntity
  8
0
100
AcDbMText
 62
2
  6
CONTINUOUS
  7
STANDARD
 71
2
 72
1
 10
1.5275
 20
-1.6565
 30
0.0
 11
1.0
 21
0.0
 31
0.0
 44
0.9
  1
Weight
 40
0.125
 41
1.2
  0
MTEXT
  5
264
100
AcDbEntity
  8
0
100
AcDbMText
 62
2
  6
CONTINUOUS
  7
STANDARD
 71
2
 72
1
 10
4.555
 20
-1.6565
 30
0.0
 11
1.0
 21
0.0
 31
0.0
 44
0.9
  1
3.278 lb.
 40
0.125
 41
1.8
  0
MTEXT
  5
265
100
AcDbEntity
  8
0
100
AcDbMText
 62
2
  6
CONTINUOUS
  7
STANDARD
 71
2
 72
1
 10
7.555
 20
-1.6565
 30
0.0
 11
1.0
 21
0.0
 31
0.0
 44
0.9
  1
1,487 kg.
 40
0.125
 41
1.8
  0
MTEXT
  5
266
100
AcDbEntity
  8
0
100
AcDbMText
 62
2
  6
CONTINUOUS
  7
STANDARD
 71
2
 72
1
 10
1.5275
 20
-1.9065
 30
0.0
 11
1.0
 21
0.0
 31
0.0
 44
0.9
  1
Mounting Hole Diameter
 40
0.125
 41
4.4
  0
MTEXT
  5
267
100
AcDbEntity
  8
0
100
AcDbMText
 62
2
  6
CONTINUOUS
  7
STANDARD
 71
2
 72
1
 10
4.555
 20
-1.9065
 30
0.0
 11
1.0
 21
0.0
 31
0.0
 44
0.9
  1
.34 in.
 40
0.125
 41
1.4
  0
MTEXT
  5
268
100
AcDbEntity
  8
0
100
AcDbMText
 62
2
  6
CONTINUOUS
  7
STANDARD
 71
2
 72
1
 10
7.555
 20
-1.9065
 30
0.0
 11
1.0
 21
0.0
 31
0.0
 44
0.9
  1
8.6 mm
 40
0.125
 41
1.2
  0
MTEXT
  5
269
100
AcDbEntity
  8
0
100
AcDbMText
 62
2
  6
CONTINUOUS
  7
STANDARD
 71
2
 72
1
 10
1.5275
 20
-2.1565
 30
0.0
 11
1.0
 21
0.0
 31
0.0
 44
0.9
  1
Mounting Hole Depth
 40
0.125
 41
3.8
  0
MTEXT
  5
26A
100
AcDbEntity
  8
0
100
AcDbMText
 62
2
  6
CONTINUOUS
  7
STANDARD
 71
2
 72
1
 10
6.055
 20
-2.1565
 30
0.0
 11
1.0
 21
0.0
 31
0.0
 44
0.9
  1
Through
 40
0.125
 41
1.4
  0
MTEXT
  5
26B
100
AcDbEntity
  8
0
100
AcDbMText
 62
2
  6
CONTINUOUS
  7
STANDARD
 71
2
 72
1
 10
1.5275
 20
-2.4065
 30
0.0
 11
1.0
 21
0.0
 31
0.0
 44
0.9
  1
Mounting Hole Quantity
 40
0.125
 41
4.4
  0
MTEXT
  5
26C
100
AcDbEntity
  8
0
100
AcDbMText
 62
2
  6
CONTINUOUS
  7
STANDARD
 71
2
 72
1
 10
6.055
 20
-2.4065
 30
0.0
 11
1.0
 21
0.0
 31
0.0
 44
0.9
  1
2
 40
0.125
 41
0.2
  0
ENDBLK
  5
26D
100
AcDbEntity
  8
0
  6
BYBLOCK
 62
0
100
AcDbBlockEnd
  0
BLOCK
  5
26E
100
AcDbEntity
  8
0
100
AcDbBlockBegin
  2
*T3
 70
1
 10
0.0
 20
0.0
  3
*T3
  1

  0
LINE
  5
26F
100
AcDbEntity
  8
0
100
AcDbLine
 62
2
  6
CONTINUOUS
 10
0.0
 20
0.0
 11
4.6
 21
0.0
  0
LINE
  5
270
100
AcDbEntity
  8
0
100
AcDbLine
 62
2
  6
CONTINUOUS
 10
0.0
 20
0.0
 11
0.0
 21
-1.18775
  0
LINE
  5
271
100
AcDbEntity
  8
0
100
AcDbLine
 62
2
  6
CONTINUOUS
 10
0.0
 20
-0.34375
 11
4.6
 21
-0.34375
  0
LINE
  5
272
100
AcDbEntity
  8
0
100
AcDbLine
 62
2
  6
CONTINUOUS
 10
0.0
 20
-0.68775
 11
4.6
 21
-0.68775
  0
LINE
  5
273
100
AcDbEntity
  8
0
100
AcDbLine
 62
2
  6
CONTINUOUS
 10
0.0
 20
-0.93775
 11
4.6
 21
-0.93775
  0
LINE
  5
274
100
AcDbEntity
  8
0
100
AcDbLine
 62
2
  6
CONTINUOUS
 10
0.0
 20
-1.18775
 11
4.6
 21
-1.18775
  0
LINE
  5
275
100
AcDbEntity
  8
0
100
AcDbLine
 62
2
  6
CONTINUOUS
 10
1.3
 20
-0.34375
 11
1.3
 21
-1.18775
  0
LINE
  5
276
100
AcDbEntity
  8
0
100
AcDbLine
 62
2
  6
CONTINUOUS
 10
3.3
 20
-0.34375
 11
3.3
 21
-1.18775
  0
LINE
  5
277
100
AcDbEntity
  8
0
100
AcDbLine
 62
2
  6
CONTINUOUS
 10
4.6
 20
0.0
 11
4.6
 21
-1.18775
  0
MTEXT
  5
278
100
AcDbEntity
  8
0
100
AcDbMText
 62
2
  6
CONTINUOUS
  7
STANDARD
 71
2
 72
1
 10
2.3
 20
-0.099375
 30
0.0
 11
1.0
 21
0.0
 31
0.0
 44
0.9
  1
Port Headings
 40
0.145
 41
3.016
  0
MTEXT
  5
279
100
AcDbEntity
  8
0
100
AcDbMText
 62
2
  6
CONTINUOUS
  7
STANDARD
 71
2
 72
1
 10
0.65
 20
-0.44325
 30
0.0
 11
1.0
 21
0.0
 31
0.0
 44
0.9
  1
Product
 40
0.145
 41
1.624
  0
MTEXT
  5
27A
100
AcDbEntity
  8
0
100
AcDbMText
 62
2
  6
CONTINUOUS
  7
STANDARD
 71
2
 72
1
 10
2.3
 20
-0.44325
 30
0.0
 11
1.0
 21
0.0
 31
0.0
 44
0.9
  1
Port
 40
0.145
 41
0.928
  0
MTEXT
  5
27B
100
AcDbEntity
  8
0
100
AcDbMText
 62
2
  6
CONTINUOUS
  7
STANDARD
 71
2
 72
1
 10
3.95
 20
-0.44325
 30
0.0
 11
1.0
 21
0.0
 31
0.0
 44
0.9
  1
Size
 40
0.145
 41
0.928
  0
MTEXT
  5
27C
100
AcDbEntity
  8
0
100
AcDbMText
 62
2
  6
CONTINUOUS
  7
STANDARD
 71
2
 72
1
 10
0.65
 20
-0.75025
 30
0.0
 11
1.0
 21
0.0
 31
0.0
 44
0.9
  1
EPB
 40
0.125
 41
0.6
  0
MTEXT
  5
27D
100
AcDbEntity
  8
0
100
AcDbMText
 62
2
  6
CONTINUOUS
  7
STANDARD
 71
2
 72
1
 10
2.3
 20
-0.75025
 30
0.0
 11
1.0
 21
0.0
 31
0.0
 44
0.9
  1
Ports C1, C2, V1, V2
 40
0.125
 41
4.0
  0
MTEXT
  5
27E
100
AcDbEntity
  8
0
100
AcDbMText
 62
2
  6
CONTINUOUS
  7
STANDARD
 71
2
 72
1
 10
3.95
 20
-0.75025
 30
0.0
 11
1.0
 21
0.0
 31
0.0
 44
0.9
  1
3/8" NPTF
 40
0.125
 41
1.8
  0
MTEXT
  5
27F
100
AcDbEntity
  8
0
100
AcDbMText
 62
2
  6
CONTINUOUS
  7
STANDARD
 71
2
 72
1
 10
0.65
 20
-1.00025
 30
0.0
 11
1.0
 21
0.0
 31
0.0
 44
0.9
  1
EPB
 40
0.125
 41
0.6
  0
MTEXT
  5
280
100
AcDbEntity
  8
0
100
AcDbMText
 62
2
  6
CONTINUOUS
  7
STANDARD
 71
2
 72
1
 10
2.3
 20
-1.00025
 30
0.0
 11
1.0
 21
0.0
 31
0.0
 44
0.9
  1
Port T
 40
0.125
 41
1.2
  0
MTEXT
  5
281
100
AcDbEntity
  8
0
100
AcDbMText
 62
2
  6
CONTINUOUS
  7
STANDARD
 71
2
 72
1
 10
3.95
 20
-1.00025
 30
0.0
 11
1.0
 21
0.0
 31
0.0
 44
0.9
  1
1/2" NPTF
 40
0.125
 41
1.8
  0
ENDBLK
  5
282
100
AcDbEntity
  8
0
  6
BYBLOCK
 62
0
100
AcDbBlockEnd
  0
ENDSEC
  0
SECTION
  2
ENTITIES
  0
IMAGE
  5
283
100
AcDbEntity
  8
0
100
AcDbRasterImage
 62
7
  6
CONTINUOUS
 10
19.2297077316
 20
0.3094318264
 30
0.0
 11
0.0066666667
 21
0.0
 31
0.0
 12
0.0
 22
0.0066666667
 32
0.0
 13
369.0
 23
92.0
340
       3FC
 70
9
280
0
281
50
282
50
283
0
360
       3F6
 71
1
 91
2
 14
-0.5
 24
-0.5
 14
368.5
 24
91.5
  0
INSERT
  5
284
100
AcDbEntity
  8
0
100
AcDbBlockReference
 62
2
  6
CONTINUOUS
  2
SUN_FIRST_THIRD_ANGLE_BL0
 10
20.4816717061
 20
1.2289683772
  0
ACAD_TABLE
  5
285
100
AcDbEntity
  8
0
 62
2
  6
CONTINUOUS
100
AcDbBlockReference
  2
*T1
 10
12.42375
 20
0.30125
 30
0.0
100
AcDbTable
342
       3FE
343
207
 11
1.0
 21
0.0
 31
0.0
 90
6
 91
4
 92
6
 93
20
 94
0
 95
0
 96
0
 70
1
 41
0.0
141
0.525
141
0.1
141
0.525
141
0.1
142
4.1
142
1.1
142
0.7
142
0.5
142
0.4
142
2.475
171
1
172
0
173
0
174
0
175
1
176
1
 91
33
178
0
145
0.0
301
CELL_VALUE
 90
4
  1
T-11A Line mount\PCushion lock with make up checks
304
ACVALUE_END
170
2
140
0.125
171
1
172
0
173
0
174
0
175
1
176
1
 91
33
178
0
145
0.0
301
CELL_VALUE
 90
4
  1
Jul-24-19
304
ACVALUE_END
170
5
140
0.125
171
1
172
0
173
0
174
0
175
1
176
1
 91
33
178
0
145
0.0
301
CELL_VALUE
 90
4
  1
2.000
304
ACVALUE_END
170
5
140
0.125
171
1
172
0
173
0
174
0
175
1
176
1
 91
33
178
0
145
0.0
301
CELL_VALUE
 90
4
  1
C
304
ACVALUE_END
170
5
140
0.125
171
1
172
0
173
0
174
0
175
1
176
1
 91
33
178
0
145
0.0
301
CELL_VALUE
 90
4
  1
2
304
ACVALUE_END
170
5
140
0.125
171
1
172
0
173
0
174
0
175
1
176
1
 91
33
178
0
145
0.0
301
CELL_VALUE
 90
4
  1
 
304
ACVALUE_END
170
1
140
0.125
171
1
172
0
173
0
174
0
175
1
176
1
 91
33
178
0
145
0.0
301
CELL_VALUE
 90
4
  1
DESCRIPTION
304
ACVALUE_END
170
1
140
0.06
171
1
172
0
173
0
174
0
175
1
176
1
 91
33
178
0
145
0.0
301
CELL_VALUE
 90
4
  1
DATE
304
ACVALUE_END
170
1
140
0.06
171
1
172
0
173
0
174
0
175
1
176
1
 91
33
178
0
145
0.0
301
CELL_VALUE
 90
4
  1
SCALE
304
ACVALUE_END
170
1
140
0.06
171
1
172
0
173
0
174
0
175
1
176
1
 91
33
178
0
145
0.0
301
CELL_VALUE
 90
4
  1
DWG SIZE
304
ACVALUE_END
170
1
140
0.06
171
1
172
0
173
0
174
0
175
1
176
1
 91
33
178
0
145
0.0
301
CELL_VALUE
 90
4
  1
SHEET
304
ACVALUE_END
170
1
140
0.06
171
1
172
0
173
0
174
0
175
1
176
1
 91
33
178
0
145
0.0
301
CELL_VALUE
 90
4
  1
 
304
ACVALUE_END
170
1
140
0.125
171
1
172
0
173
0
174
0
175
1
176
1
 91
33
178
0
145
0.0
301
CELL_VALUE
 90
4
  1
EPB
304
ACVALUE_END
170
5
140
0.125
171
1
172
0
173
0
174
0
175
4
176
1
 91
33
178
0
145
0.0
301
CELL_VALUE
 90
4
  1
ALL DIMENSIONS IN INCH\PVIEWS ARE THIRD ANGLE
304
ACVALUE_END
170
5
140
0.12
171
1
172
0
173
1
174
0
175
1
176
1
 91
1
178
0
145
0.0
170
1
171
1
172
0
173
1
174
0
175
1
176
1
 91
1
178
0
145
0.0
170
1
171
1
172
0
173
1
174
0
175
1
176
1
 91
1
178
0
145
0.0
170
5
171
1
172
0
173
0
174
0
175
1
176
1
 91
33
178
0
145
0.0
301
CELL_VALUE
 90
4
  1
 
304
ACVALUE_END
170
1
140
0.125
171
1
172
0
173
0
174
0
175
1
176
1
 91
33
178
0
145
0.0
301
CELL_VALUE
 90
4
  1
MODEL
304
ACVALUE_END
170
1
140
0.06
171
1
172
0
173
0
174
0
175
1
176
1
 91
33
178
0
145
0.0
301
CELL_VALUE
 90
4
  1
 
304
ACVALUE_END
170
1
140
0.125
171
1
172
0
173
0
174
0
175
1
176
1
 91
33
178
0
145
0.0
301
CELL_VALUE
 90
4
  1
 
304
ACVALUE_END
170
1
140
0.125
171
1
172
0
173
0
174
0
175
1
176
1
 91
33
178
0
145
0.0
301
CELL_VALUE
 90
4
  1
 
304
ACVALUE_END
170
1
140
0.125
171
1
172
0
173
0
174
0
175
1
176
1
 91
33
178
0
145
0.0
301
CELL_VALUE
 90
4
  1
 
304
ACVALUE_END
170
1
140
0.125
171
1
172
0
173
0
174
0
175
1
176
1
 91
33
178
0
145
0.0
301
CELL_VALUE
 90
4
  1
 
304
ACVALUE_END
170
1
140
0.125
  0
ACAD_TABLE
  5
286
100
AcDbEntity
  8
0
 62
2
  6
CONTINUOUS
100
AcDbBlockReference
  2
*T2
 10
12.4237499994
 20
16.47875
 30
0.0
100
AcDbTable
342
       3FD
343
208
 11
1.0
 21
0.0
 31
0.0
 90
22
 91
10
 92
3
 93
16
 94
0
 95
0
 96
0
 41
0.028
141
0.344
141
0.25
141
0.25
141
0.25
141
0.25
141
0.25
141
0.25
141
0.25
141
0.25
141
0.25
142
3.055
142
3.0
142
3.0
171
1
172
0
173
0
174
0
175
1
176
1
 91
33
178
0
145
0.0
301
CELL_VALUE
 90
4
  1
Technical Data
304
ACVALUE_END
170
5
140
0.145
171
1
172
0
173
0
174
0
175
1
176
1
 91
33
178
0
145
0.0
301
CELL_VALUE
 90
4
  1
U.S. Units
304
ACVALUE_END
170
5
140
0.145
171
1
172
0
173
0
174
0
175
1
176
1
 91
33
178
0
145
0.0
301
CELL_VALUE
 90
4
  1
Metric Units
304
ACVALUE_END
170
5
140
0.145
171
1
172
0
173
0
174
0
175
1
176
1
 91
33
178
0
145
0.0
301
CELL_VALUE
 90
4
  1
Cavity
304
ACVALUE_END
170
5
140
0.125
171
1
172
0
173
0
174
0
175
2
176
1
 91
33
178
0
145
0.0
301
CELL_VALUE
 90
4
  1
T-11A
304
ACVALUE_END
170
5
140
0.125
171
1
172
0
173
1
174
0
175
1
176
1
 91
1
178
0
145
0.0
170
1
171
1
172
0
173
0
174
0
175
1
176
1
 91
33
178
0
145
0.0
301
CELL_VALUE
 90
4
  1
Body Features
304
ACVALUE_END
170
5
140
0.125
171
1
172
0
173
0
174
0
175
2
176
1
 91
33
178
0
145
0.0
301
CELL_VALUE
 90
4
  1
Cushion lock with make up checks
304
ACVALUE_END
170
5
140
0.125
171
1
172
0
173
1
174
0
175
1
176
1
 91
1
178
0
145
0.0
170
1
171
1
172
0
173
0
174
0
175
1
176
1
 91
33
178
0
145
0.0
301
CELL_VALUE
 90
4
  1
Body Type
304
ACVALUE_END
170
5
140
0.125
171
1
172
0
173
0
174
0
175
2
176
1
 91
33
178
0
145
0.0
301
CELL_VALUE
 90
4
  1
Line mount
304
ACVALUE_END
170
5
140
0.125
171
1
172
0
173
1
174
0
175
1
176
1
 91
1
178
0
145
0.0
170
1
171
1
172
0
173
0
174
0
175
1
176
1
 91
33
178
0
145
0.0
301
CELL_VALUE
 90
4
  1
Interface
304
ACVALUE_END
170
5
140
0.125
171
1
172
0
173
0
174
0
175
2
176
1
 91
33
178
0
145
0.0
301
CELL_VALUE
 90
4
  1
None
304
ACVALUE_END
170
5
140
0.125
171
1
172
0
173
1
174
0
175
1
176
1
 91
1
178
0
145
0.0
170
1
171
1
172
0
173
0
174
0
175
1
176
1
 91
33
178
0
145
0.0
301
CELL_VALUE
 90
4
  1
Open Cavity Quantity
304
ACVALUE_END
170
5
140
0.125
171
1
172
0
173
0
174
0
175
2
176
1
 91
33
178
0
145
0.0
301
CELL_VALUE
 90
4
  1
2
304
ACVALUE_END
170
5
140
0.125
171
1
172
0
173
1
174
0
175
1
176
1
 91
1
178
0
145
0.0
170
1
171
1
172
0
173
0
174
0
175
1
176
1
 91
33
178
0
145
0.0
301
CELL_VALUE
 90
4
  1
Weight
304
ACVALUE_END
170
5
140
0.125
171
1
172
0
173
0
174
0
175
1
176
1
 91
33
178
0
145
0.0
301
CELL_VALUE
 90
4
  1
3.278 lb.
304
ACVALUE_END
170
5
140
0.125
171
1
172
0
173
0
174
0
175
1
176
1
 91
33
178
0
145
0.0
301
CELL_VALUE
 90
4
  1
1,487 kg.
304
ACVALUE_END
170
5
140
0.125
171
1
172
0
173
0
174
0
175
1
176
1
 91
33
178
0
145
0.0
301
CELL_VALUE
 90
4
  1
Mounting Hole Diameter
304
ACVALUE_END
170
5
140
0.125
171
1
172
0
173
0
174
0
175
1
176
1
 91
33
178
0
145
0.0
301
CELL_VALUE
 90
4
  1
.34 in.
304
ACVALUE_END
170
5
140
0.125
171
1
172
0
173
0
174
0
175
1
176
1
 91
33
178
0
145
0.0
301
CELL_VALUE
 90
4
  1
8.6 mm
304
ACVALUE_END
170
5
140
0.125
171
1
172
0
173
0
174
0
175
1
176
1
 91
33
178
0
145
0.0
301
CELL_VALUE
 90
4
  1
Mounting Hole Depth
304
ACVALUE_END
170
5
140
0.125
171
1
172
0
173
0
174
0
175
2
176
1
 91
33
178
0
145
0.0
301
CELL_VALUE
 90
4
  1
Through
304
ACVALUE_END
170
5
140
0.125
171
1
172
0
173
1
174
0
175
1
176
1
 91
1
178
0
145
0.0
170
1
171
1
172
0
173
0
174
0
175
1
176
1
 91
33
178
0
145
0.0
301
CELL_VALUE
 90
4
  1
Mounting Hole Quantity
304
ACVALUE_END
170
5
140
0.125
171
1
172
0
173
0
174
0
175
2
176
1
 91
33
178
0
145
0.0
301
CELL_VALUE
 90
4
  1
2
304
ACVALUE_END
170
5
140
0.125
171
1
172
0
173
1
174
0
175
1
176
1
 91
1
178
0
145
0.0
170
1
  0
ACAD_TABLE
  5
287
100
AcDbEntity
  8
0
 62
2
  6
CONTINUOUS
100
AcDbBlockReference
  2
*T3
 10
0.52125
 20
1.709
 30
0.0
100
AcDbTable
342
       3FD
343
209
 11
1.0
 21
0.0
 31
0.0
 90
22
 91
4
 92
3
 93
16
 94
0
 95
0
 96
0
 41
0.05
141
0.34375
141
0.344
141
0.25
141
0.25
142
1.3
142
2.0
142
1.3
171
1
172
0
173
0
174
0
175
3
176
1
 91
33
178
0
145
0.0
301
CELL_VALUE
 90
4
  1
Port Headings
304
ACVALUE_END
170
5
140
0.145
171
1
172
0
173
1
174
0
175
1
176
1
 91
1
178
0
145
0.0
170
1
171
1
172
0
173
1
174
0
175
1
176
1
 91
1
178
0
145
0.0
170
1
171
1
172
0
173
0
174
0
175
1
176
1
 91
33
178
0
145
0.0
301
CELL_VALUE
 90
4
  1
Product
304
ACVALUE_END
170
5
140
0.145
171
1
172
0
173
0
174
0
175
1
176
1
 91
33
178
0
145
0.0
301
CELL_VALUE
 90
4
  1
Port
304
ACVALUE_END
170
5
140
0.145
171
1
172
0
173
0
174
0
175
1
176
1
 91
33
178
0
145
0.0
301
CELL_VALUE
 90
4
  1
Size
304
ACVALUE_END
170
5
140
0.145
171
1
172
0
173
0
174
0
175
1
176
1
 91
33
178
0
145
0.0
301
CELL_VALUE
 90
4
  1
EPB
304
ACVALUE_END
170
5
140
0.125
171
1
172
0
173
0
174
0
175
1
176
1
 91
33
178
0
145
0.0
301
CELL_VALUE
 90
4
  1
Ports C1, C2, V1, V2
304
ACVALUE_END
170
5
140
0.125
171
1
172
0
173
0
174
0
175
1
176
1
 91
33
178
0
145
0.0
301
CELL_VALUE
 90
4
  1
3/8" NPTF
304
ACVALUE_END
170
5
140
0.125
171
1
172
0
173
0
174
0
175
1
176
1
 91
33
178
0
145
0.0
301
CELL_VALUE
 90
4
  1
EPB
304
ACVALUE_END
170
5
140
0.125
171
1
172
0
173
0
174
0
175
1
176
1
 91
33
178
0
145
0.0
301
CELL_VALUE
 90
4
  1
Port T
304
ACVALUE_END
170
5
140
0.125
171
1
172
0
173
0
174
0
175
1
176
1
 91
33
178
0
145
0.0
301
CELL_VALUE
 90
4
  1
1/2" NPTF
304
ACVALUE_END
170
5
140
0.125
  0
MTEXT
  5
288
100
AcDbEntity
  8
0
100
AcDbMText
 62
2
  6
CONTINUOUS
  7
STANDARD
 71
1
 72
1
 10
0.52125
 20
5.75995
 30
0.0
 11
1.0
 21
0.0
 31
0.0
 44
0.6
  3
Notes\P \P1. Important: Carefully consider\P   the maximum system pressure. The\P   pressure rating of the manifold is\P   dependent on the manifold material,\P   with the port type/size a secondary\P   consideration. Manifolds\P   constructed of alu
  1
minum are not\P   rated for pressures higher than\P   3000 psi (210 bar), regardless of\P   the port type/size specified.
 40
0.1
 41
3.04
  0
LINE
  5
289
100
AcDbEntity
  8
0
100
AcDbLine
 62
7
  6
CONTINUOUS
 10
0.30125
 20
0.30125
 11
0.30125
 21
16.69875
  0
LINE
  5
28A
100
AcDbEntity
  8
0
100
AcDbLine
 62
7
  6
CONTINUOUS
 10
0.30125
 20
0.30125
 11
21.69875
 21
0.30125
  0
LINE
  5
28B
100
AcDbEntity
  8
0
100
AcDbLine
 62
7
  6
CONTINUOUS
 10
0.30125
 20
16.69875
 11
21.69875
 21
16.69875
  0
LINE
  5
28C
100
AcDbEntity
  8
0
100
AcDbLine
 62
7
  6
CONTINUOUS
 10
21.69875
 20
0.30125
 11
21.69875
 21
16.69875
  0
LINE
  5
28D
100
AcDbEntity
  8
0
100
AcDbLine
 62
7
  6
CONTINUOUS
 10
8.3957159022
 20
12.3822322324
 11
6.8428029132
 21
10.8822333815
  0
LINE
  5
28E
100
AcDbEntity
  8
0
100
AcDbLine
 62
7
  6
CONTINUOUS
 10
6.8428029132
 20
10.8822333815
 11
6.8428029132
 21
5.0866780803
  0
LINE
  5
28F
100
AcDbEntity
  8
0
100
AcDbLine
 62
7
  6
CONTINUOUS
 10
6.8428029132
 20
5.0866780803
 11
13.6042840978
 21
4.6177677676
  0
LINE
  5
290
100
AcDbEntity
  8
0
100
AcDbLine
 62
4
  6
CONTINUOUS
 10
8.3496472902
 20
6.276518766
 11
8.3110102563
 21
6.3081760293
  0
LINE
  5
291
100
AcDbEntity
  8
0
100
AcDbLine
 62
4
  6
CONTINUOUS
 10
8.3110102563
 20
6.3081760293
 11
8.2916917384
 21
6.3384935489
  0
LINE
  5
292
100
AcDbEntity
  8
0
100
AcDbLine
 62
4
  6
CONTINUOUS
 10
13.1232530153
 20
5.6605199337
 11
13.0652974636
 21
5.650050277
  0
LINE
  5
293
100
AcDbEntity
  8
0
100
AcDbLine
 62
4
  6
CONTINUOUS
 10
8.2916917384
 20
6.1791157817
 11
8.5235139453
 21
6.0905944174
  0
LINE
  5
294
100
AcDbEntity
  8
0
100
AcDbLine
 62
4
  6
CONTINUOUS
 10
8.3303287741
 20
6.7415029234
 11
8.3110102563
 21
6.7573315551
  0
LINE
  5
295
100
AcDbEntity
  8
0
100
AcDbLine
 62
4
  6
CONTINUOUS
 10
8.3110102563
 20
6.7573315551
 11
8.2916917384
 21
6.7876490747
  0
LINE
  5
296
100
AcDbEntity
  8
0
100
AcDbLine
 62
4
  6
CONTINUOUS
 10
8.5041954327
 20
6.8308674452
 11
8.5235139453
 21
6.8005499259
  0
LINE
  5
297
100
AcDbEntity
  8
0
100
AcDbLine
 62
4
  6
CONTINUOUS
 10
8.2916917384
 20
6.3384935489
 11
8.2916917384
 21
6.3964491006
  0
LINE
  5
298
100
AcDbEntity
  8
0
100
AcDbLine
 62
4
  6
CONTINUOUS
 10
8.2916917384
 20
6.7876490747
 11
8.2916917384
 21
6.8166268506
  0
LINE
  5
299
100
AcDbEntity
  8
0
100
AcDbLine
 62
4
  6
CONTINUOUS
 10
8.2916917384
 20
9.17638399
 11
8.2916917384
 21
9.2343395417
  0
LINE
  5
29A
100
AcDbEntity
  8
0
100
AcDbLine
 62
4
  6
CONTINUOUS
 10
8.2916917384
 20
9.6255395158
 11
8.2916917384
 21
9.6545172917
  0
LINE
  5
29B
100
AcDbEntity
  8
0
100
AcDbLine
 62
4
  6
CONTINUOUS
 10
8.3689658097
 20
8.9826694719
 11
8.3689658097
 21
8.8957361443
  0
LINE
  5
29C
100
AcDbEntity
  8
0
100
AcDbLine
 62
4
  6
CONTINUOUS
 10
8.3689658097
 20
6.1447790308
 11
8.3689658097
 21
6.0578457032
  0
LINE
  5
29D
100
AcDbEntity
  8
0
100
AcDbLine
 62
4
  6
CONTINUOUS
 10
8.2916917384
 20
9.6545172917
 11
8.3110102563
 21
9.6821553238
  0
LINE
  5
29E
100
AcDbEntity
  8
0
100
AcDbLine
 62
4
  6
CONTINUOUS
 10
8.5235139453
 20
9.6094625911
 11
8.5041954327
 21
9.5818245587
  0
LINE
  5
29F
100
AcDbEntity
  8
0
100
AcDbLine
 62
4
  6
CONTINUOUS
 10
13.1232530153
 20
6.1241643475
 11
13.0652974636
 21
6.1136946907
  0
LINE
  5
2A0
100
AcDbEntity
  8
0
100
AcDbLine
 62
4
  6
CONTINUOUS
 10
8.4076028419
 20
6.258010647
 11
8.3496472902
 21
6.276518766
  0
LINE
  5
2A1
100
AcDbEntity
  8
0
100
AcDbLine
 62
4
  6
CONTINUOUS
 10
8.2916917384
 20
6.6282713075
 11
8.5235139453
 21
6.4962832794
  0
LINE
  5
2A2
100
AcDbEntity
  8
0
100
AcDbLine
 62
4
  6
CONTINUOUS
 10
8.4655583936
 20
6.8625247088
 11
8.5041954327
 21
6.8308674452
  0
LINE
  5
2A3
100
AcDbEntity
  8
0
100
AcDbLine
 62
4
  6
CONTINUOUS
 10
8.5235139453
 20
9.638440367
 11
8.5235139453
 21
9.6094625911
  0
LINE
  5
2A4
100
AcDbEntity
  8
0
100
AcDbLine
 62
4
  6
CONTINUOUS
 10
8.5235139453
 20
9.2182626171
 11
8.5235139453
 21
9.1603070653
  0
LINE
  5
2A5
100
AcDbEntity
  8
0
100
AcDbLine
 62
4
  6
CONTINUOUS
 10
8.5235139453
 20
6.8005499259
 11
8.5235139453
 21
6.7715721501
  0
LINE
  5
2A6
100
AcDbEntity
  8
0
100
AcDbLine
 62
4
  6
CONTINUOUS
 10
8.5235139453
 20
6.380372176
 11
8.5235139453
 21
6.3224166243
  0
LINE
  5
2A7
100
AcDbEntity
  8
0
100
AcDbLine
 62
4
  6
CONTINUOUS
 10
8.5235139453
 20
9.1603070653
 11
8.5041954327
 21
9.1326690329
  0
LINE
  5
2A8
100
AcDbEntity
  8
0
100
AcDbLine
 62
7
  6
CONTINUOUS
 10
8.8234232888
 20
9.6832971829
 11
8.5980250425
 21
9.4655791827
  0
LINE
  5
2A9
100
AcDbEntity
  8
0
100
AcDbLine
 62
4
  6
CONTINUOUS
 10
8.3110102563
 20
9.6821553238
 11
8.3496472902
 21
9.7084536122
  0
LINE
  5
2AA
100
AcDbEntity
  8
0
100
AcDbLine
 62
4
  6
CONTINUOUS
 10
8.5041954327
 20
9.5818245587
 11
8.4848769062
 21
9.5686754151
  0
LINE
  5
2AB
100
AcDbEntity
  8
0
100
AcDbLine
 62
4
  6
CONTINUOUS
 10
13.0073419119
 20
6.494425008
 11
13.0652974636
 21
6.5048946648
  0
LINE
  5
2AC
100
AcDbEntity
  8
0
100
AcDbLine
 62
4
  6
CONTINUOUS
 10
8.2916917384
 20
6.3964491006
 11
8.5235139453
 21
6.380372176
  0
LINE
  5
2AD
100
AcDbEntity
  8
0
100
AcDbLine
 62
4
  6
CONTINUOUS
 10
8.4076028419
 20
6.8810328279
 11
8.4655583936
 21
6.8625247088
  0
LINE
  5
2AE
100
AcDbEntity
  8
0
100
AcDbLine
 62
7
  6
CONTINUOUS
 10
9.5542205214
 20
10.0545422016
 11
9.328822275
 21
9.8368242014
  0
LINE
  5
2AF
100
AcDbEntity
  8
0
100
AcDbLine
 62
7
  6
CONTINUOUS
 10
9.6686394122
 20
10.0466072246
 11
9.4432411658
 21
9.8288892243
  0
LINE
  5
2B0
100
AcDbEntity
  8
0
100
AcDbLine
 62
4
  6
CONTINUOUS
 10
8.5041954327
 20
9.1326690329
 11
8.4655583936
 21
9.1063707448
  0
LINE
  5
2B1
100
AcDbEntity
  8
0
100
AcDbLine
 62
4
  6
CONTINUOUS
 10
8.5235139453
 20
9.4500848239
 11
8.2916917384
 21
9.3502506451
  0
LINE
  5
2B2
100
AcDbEntity
  8
0
100
AcDbLine
 62
4
  6
CONTINUOUS
 10
14.2849776254
 20
6.5425619706
 11
14.2694484958
 21
6.5420508703
  0
LINE
  5
2B3
100
AcDbEntity
  8
0
100
AcDbLine
 62
4
  6
CONTINUOUS
 10
13.181208567
 20
6.3664562111
 11
12.9493863602
 21
6.3825331357
  0
LINE
  5
2B4
100
AcDbEntity
  8
0
100
AcDbLine
 62
4
  6
CONTINUOUS
 10
13.0652974636
 20
5.650050277
 11
13.0073419119
 21
5.6685583961
  0
LINE
  5
2B5
100
AcDbEntity
  8
0
100
AcDbLine
 62
4
  6
CONTINUOUS
 10
8.3110102563
 20
9.1460664704
 11
8.2916917384
 21
9.17638399
  0
LINE
  5
2B6
100
AcDbEntity
  8
0
100
AcDbLine
 62
4
  6
CONTINUOUS
 10
8.5235139453
 20
6.0905944174
 11
8.2916917384
 21
6.0342269024
  0
LINE
  5
2B7
100
AcDbEntity
  8
0
100
AcDbLine
 62
4
  6
CONTINUOUS
 10
8.4655583936
 20
6.2684803037
 11
8.4076028419
 21
6.258010647
  0
LINE
  5
2B8
100
AcDbEntity
  8
0
100
AcDbLine
 62
4
  6
CONTINUOUS
 10
13.0652974636
 20
6.1136946907
 11
13.0073419119
 21
6.1322028098
  0
LINE
  5
2B9
100
AcDbEntity
  8
0
100
AcDbLine
 62
4
  6
CONTINUOUS
 10
8.3110102563
 20
9.5952219962
 11
8.2916917384
 21
9.6255395158
  0
LINE
  5
2BA
100
AcDbEntity
  8
0
100
AcDbLine
 62
4
  6
CONTINUOUS
 10
8.5041954327
 20
9.6687578863
 11
8.5235139453
 21
9.638440367
  0
LINE
  5
2BB
100
AcDbEntity
  8
0
100
AcDbLine
 62
4
  6
CONTINUOUS
 10
8.2916917384
 20
6.8166268506
 11
8.3110102563
 21
6.8442648827
  0
LINE
  5
2BC
100
AcDbEntity
  8
0
100
AcDbLine
 62
7
  6
CONTINUOUS
 10
10.3994366448
 20
9.5740002855
 11
10.1740383984
 21
9.3562822852
  0
LINE
  5
2BD
100
AcDbEntity
  8
0
100
AcDbLine
 62
4
  6
CONTINUOUS
 10
8.3496472902
 20
6.8705631711
 11
8.4076028419
 21
6.8810328279
  0
LINE
  5
2BE
100
AcDbEntity
  8
0
100
AcDbLine
 62
4
  6
CONTINUOUS
 10
13.0652974636
 20
6.5048946648
 11
13.1232530153
 21
6.4863865457
  0
LINE
  5
2BF
100
AcDbEntity
  8
0
100
AcDbLine
 62
4
  6
CONTINUOUS
 10
13.181208567
 20
5.9028117974
 11
12.9493863602
 21
6.0347998255
  0
LINE
  5
2C0
100
AcDbEntity
  8
0
100
AcDbLine
 62
4
  6
CONTINUOUS
 10
8.3496472902
 20
9.1144092071
 11
8.3110102563
 21
9.1460664704
  0
LINE
  5
2C1
100
AcDbEntity
  8
0
100
AcDbLine
 62
4
  6
CONTINUOUS
 10
8.5235139453
 20
6.7715721501
 11
8.5041954327
 21
6.7439341176
  0
LINE
  5
2C2
100
AcDbEntity
  8
0
100
AcDbLine
 62
4
  6
CONTINUOUS
 10
8.5235139453
 20
6.3224166243
 11
8.5041954327
 21
6.2947785918
  0
LINE
  5
2C3
100
AcDbEntity
  8
0
100
AcDbLine
 62
7
  6
CONTINUOUS
 10
10.4566460902
 20
9.4709431308
 11
10.2312478438
 21
9.2532251305
  0
LINE
  5
2C4
100
AcDbEntity
  8
0
100
AcDbLine
 62
7
  6
CONTINUOUS
 10
10.9967565268
 20
9.532576011
 11
10.7713582804
 21
9.3148580107
  0
LINE
  5
2C5
100
AcDbEntity
  8
0
100
AcDbLine
 62
4
  6
CONTINUOUS
 10
13.0073419119
 20
5.6685583961
 11
12.9687048728
 21
5.7002156597
  0
LINE
  5
2C6
100
AcDbEntity
  8
0
100
AcDbLine
 62
4
  6
CONTINUOUS
 10
8.3303287741
 20
9.5793933645
 11
8.3110102563
 21
9.5952219962
  0
LINE
  5
2C7
100
AcDbEntity
  8
0
100
AcDbLine
 62
4
  6
CONTINUOUS
 10
13.1425715314
 20
5.7895801815
 11
13.1618900492
 21
5.7737515498
  0
LINE
  5
2C8
100
AcDbEntity
  8
0
100
AcDbLine
 62
7
  6
CONTINUOUS
 10
11.7275537593
 20
9.9038210297
 11
11.5021555129
 21
9.6861030294
  0
LINE
  5
2C9
100
AcDbEntity
  8
0
100
AcDbLine
 62
7
  6
CONTINUOUS
 10
10.4566460902
 20
8.627091173
 11
10.2312478438
 21
8.4093731727
  0
LINE
  5
2CA
100
AcDbEntity
  8
0
100
AcDbLine
 62
7
  6
CONTINUOUS
 10
10.3994366448
 20
8.5319689953
 11
10.1740383984
 21
8.3142509951
  0
LINE
  5
2CB
100
AcDbEntity
  8
0
100
AcDbLine
 62
7
  6
CONTINUOUS
 10
11.8419726501
 20
9.8958860526
 11
11.6165744038
 21
9.6781680524
  0
LINE
  5
2CC
100
AcDbEntity
  8
0
100
AcDbLine
 62
4
  6
CONTINUOUS
 10
8.2916917384
 20
9.0170062228
 11
8.5235139453
 21
8.9284848585
  0
LINE
  5
2CD
100
AcDbEntity
  8
0
100
AcDbLine
 62
4
  6
CONTINUOUS
 10
8.2916917384
 20
9.4661617486
 11
8.5235139453
 21
9.3341737205
  0
LINE
  5
2CE
100
AcDbEntity
  8
0
100
AcDbLine
 62
4
  6
CONTINUOUS
 10
8.4655583936
 20
9.7004151499
 11
8.5041954327
 21
9.6687578863
  0
LINE
  5
2CF
100
AcDbEntity
  8
0
100
AcDbLine
 62
4
  6
CONTINUOUS
 10
13.0073419119
 20
6.1322028098
 11
12.9687048728
 21
6.1638600734
  0
LINE
  5
2D0
100
AcDbEntity
  8
0
100
AcDbLine
 62
4
  6
CONTINUOUS
 10
13.1425715314
 20
6.2532245952
 11
13.1618900492
 21
6.2373959635
  0
LINE
  5
2D1
100
AcDbEntity
  8
0
100
AcDbLine
 62
7
  6
CONTINUOUS
 10
8.8234232888
 20
6.7855195324
 11
8.5980250425
 21
6.5678015321
  0
LINE
  5
2D2
100
AcDbEntity
  8
0
100
AcDbLine
 62
7
  6
CONTINUOUS
 10
9.5542205214
 20
7.1567645511
 11
9.328822275
 21
6.9390465508
  0
LINE
  5
2D3
100
AcDbEntity
  8
0
100
AcDbLine
 62
7
  6
CONTINUOUS
 10
9.6686394122
 20
7.148829574
 11
9.4432411658
 21
6.9311115738
  0
LINE
  5
2D4
100
AcDbEntity
  8
0
100
AcDbLine
 62
4
  6
CONTINUOUS
 10
8.3110102563
 20
6.8442648827
 11
8.3496472902
 21
6.8705631711
  0
LINE
  5
2D5
100
AcDbEntity
  8
0
100
AcDbLine
 62
4
  6
CONTINUOUS
 10
8.5041954327
 20
6.7439341176
 11
8.4848769062
 21
6.730784974
  0
LINE
  5
2D6
100
AcDbEntity
  8
0
100
AcDbLine
 62
4
  6
CONTINUOUS
 10
13.1232530153
 20
8.5582975843
 11
13.0652974636
 21
8.5478279275
  0
LINE
  5
2D7
100
AcDbEntity
  8
0
100
AcDbLine
 62
4
  6
CONTINUOUS
 10
8.4076028419
 20
9.095901088
 11
8.3496472902
 21
9.1144092071
  0
LINE
  5
2D8
100
AcDbEntity
  8
0
100
AcDbLine
 62
4
  6
CONTINUOUS
 10
13.1232530153
 20
6.4863865457
 11
13.1618900492
 21
6.4547292824
  0
LINE
  5
2D9
100
AcDbEntity
  8
0
100
AcDbLine
 62
7
  6
CONTINUOUS
 10
12.5727698827
 20
9.4232791135
 11
12.3473716363
 21
9.2055611132
  0
LINE
  5
2DA
100
AcDbEntity
  8
0
100
AcDbLine
 62
4
  6
CONTINUOUS
 10
12.9687048728
 20
9.3659043705
 11
13.0073419119
 21
9.3922026586
  0
LINE
  5
2DB
100
AcDbEntity
  8
0
100
AcDbLine
 62
4
  6
CONTINUOUS
 10
8.5041954327
 20
6.2947785918
 11
8.4655583936
 21
6.2684803037
  0
LINE
  5
2DC
100
AcDbEntity
  8
0
100
AcDbLine
 62
4
  6
CONTINUOUS
 10
13.1232530153
 20
9.021941998
 11
13.0652974636
 21
9.0114723413
  0
LINE
  5
2DD
100
AcDbEntity
  8
0
100
AcDbLine
 62
4
  6
CONTINUOUS
 10
8.4076028419
 20
9.718923269
 11
8.4655583936
 21
9.7004151499
  0
LINE
  5
2DE
100
AcDbEntity
  8
0
100
AcDbLine
 62
4
  6
CONTINUOUS
 10
12.9687048728
 20
5.7002156597
 11
12.9493863602
 21
5.7305331789
  0
LINE
  5
2DF
100
AcDbEntity
  8
0
100
AcDbLine
 62
4
  6
CONTINUOUS
 10
13.1618900492
 20
5.7737515498
 11
13.181208567
 21
5.7434340302
  0
LINE
  5
2E0
100
AcDbEntity
  8
0
100
AcDbLine
 62
4
  6
CONTINUOUS
 10
12.9687048728
 20
6.1638600734
 11
12.9493863602
 21
6.1941775927
  0
LINE
  5
2E1
100
AcDbEntity
  8
0
100
AcDbLine
 62
7
  6
CONTINUOUS
 10
15.1571970868
 20
11.9133219197
 11
13.6042840978
 21
10.4133230687
  0
LINE
  5
2E2
100
AcDbEntity
  8
0
100
AcDbLine
 62
7
  6
CONTINUOUS
 10
12.6299793281
 20
9.3202219589
 11
12.4045810817
 21
9.1025039586
  0
LINE
  5
2E3
100
AcDbEntity
  8
0
100
AcDbLine
 62
4
  6
CONTINUOUS
 10
12.9687048728
 20
9.1485710516
 11
12.9880233993
 21
9.1617201951
  0
LINE
  5
2E4
100
AcDbEntity
  8
0
100
AcDbLine
 62
4
  6
CONTINUOUS
 10
13.1618900492
 20
9.0482402865
 11
13.1232530153
 21
9.021941998
  0
LINE
  5
2E5
100
AcDbEntity
  8
0
100
AcDbLine
 62
4
  6
CONTINUOUS
 10
12.9493863602
 20
8.8166663726
 11
13.181208567
 21
8.9165005514
  0
LINE
  5
2E6
100
AcDbEntity
  8
0
100
AcDbLine
 62
4
  6
CONTINUOUS
 10
8.5235139453
 20
6.6121943828
 11
8.2916917384
 21
6.5123602041
  0
LINE
  5
2E7
100
AcDbEntity
  8
0
100
AcDbLine
 62
4
  6
CONTINUOUS
 10
13.0073419119
 20
9.3922026586
 11
13.0652974636
 21
9.4026723154
  0
LINE
  5
2E8
100
AcDbEntity
  8
0
100
AcDbLine
 62
4
  6
CONTINUOUS
 10
8.2916917384
 20
9.2343395417
 11
8.5235139453
 21
9.2182626171
  0
LINE
  5
2E9
100
AcDbEntity
  8
0
100
AcDbLine
 62
4
  6
CONTINUOUS
 10
13.0652974636
 20
8.5478279275
 11
13.0073419119
 21
8.5663360466
  0
LINE
  5
2EA
100
AcDbEntity
  8
0
100
AcDbLine
 62
4
  6
CONTINUOUS
 10
13.1618900492
 20
6.2373959635
 11
13.181208567
 21
6.2070784439
  0
LINE
  5
2EB
100
AcDbEntity
  8
0
100
AcDbLine
 62
4
  6
CONTINUOUS
 10
13.1618900492
 20
6.4547292824
 11
13.181208567
 21
6.4244117628
  0
LINE
  5
2EC
100
AcDbEntity
  8
0
100
AcDbLine
 62
4
  6
CONTINUOUS
 10
12.9493863602
 20
9.338266338
 11
12.9687048728
 21
9.3659043705
  0
LINE
  5
2ED
100
AcDbEntity
  8
0
100
AcDbLine
 62
7
  6
CONTINUOUS
 10
10.3994366448
 20
6.6762226349
 11
10.1740383984
 21
6.4585046346
  0
LINE
  5
2EE
100
AcDbEntity
  8
0
100
AcDbLine
 62
7
  6
CONTINUOUS
 10
10.4566460902
 20
6.5731654803
 11
10.2312478438
 21
6.35544748
  0
LINE
  5
2EF
100
AcDbEntity
  8
0
100
AcDbLine
 62
7
  6
CONTINUOUS
 10
12.6299793281
 20
8.476370001
 11
12.4045810817
 21
8.2586520007
  0
LINE
  5
2F0
100
AcDbEntity
  8
0
100
AcDbLine
 62
7
  6
CONTINUOUS
 10
12.5727698827
 20
8.3812478234
 11
12.3473716363
 21
8.1635298231
  0
LINE
  5
2F1
100
AcDbEntity
  8
0
100
AcDbLine
 62
4
  6
CONTINUOUS
 10
12.9687048728
 20
8.6849266378
 11
12.9880233993
 21
8.6980757814
  0
LINE
  5
2F2
100
AcDbEntity
  8
0
100
AcDbLine
 62
4
  6
CONTINUOUS
 10
13.1618900492
 20
8.5845958728
 11
13.1232530153
 21
8.5582975843
  0
LINE
  5
2F3
100
AcDbEntity
  8
0
100
AcDbLine
 62
4
  6
CONTINUOUS
 10
8.5235139453
 20
8.9284848585
 11
8.2916917384
 21
8.8721173435
  0
LINE
  5
2F4
100
AcDbEntity
  8
0
100
AcDbLine
 62
4
  6
CONTINUOUS
 10
8.4655583936
 20
9.1063707448
 11
8.4076028419
 21
9.095901088
  0
LINE
  5
2F5
100
AcDbEntity
  8
0
100
AcDbLine
 62
4
  6
CONTINUOUS
 10
14.2849776254
 20
9.5311366367
 11
14.2694484958
 21
9.5306255365
  0
LINE
  5
2F6
100
AcDbEntity
  8
0
100
AcDbLine
 62
4
  6
CONTINUOUS
 10
13.181208567
 20
9.2642338617
 11
12.9493863602
 21
9.2803107863
  0
LINE
  5
2F7
100
AcDbEntity
  8
0
100
AcDbLine
 62
4
  6
CONTINUOUS
 10
13.0652974636
 20
9.0114723413
 11
13.0073419119
 21
9.0299804604
  0
LINE
  5
2F8
100
AcDbEntity
  8
0
100
AcDbLine
 62
4
  6
CONTINUOUS
 10
12.9493863602
 20
9.1209330191
 11
12.9687048728
 21
9.1485710516
  0
LINE
  5
2F9
100
AcDbEntity
  8
0
100
AcDbLine
 62
4
  6
CONTINUOUS
 10
13.181208567
 20
9.0758783186
 11
13.1618900492
 21
9.0482402865
  0
LINE
  5
2FA
100
AcDbEntity
  8
0
100
AcDbLine
 62
4
  6
CONTINUOUS
 10
12.9493863602
 20
8.6572886054
 11
12.9687048728
 21
8.6849266378
  0
LINE
  5
2FB
100
AcDbEntity
  8
0
100
AcDbLine
 62
4
  6
CONTINUOUS
 10
14.2642721205
 20
9.8878477398
 11
14.2746248711
 21
9.8978477296
  0
LINE
  5
2FC
100
AcDbEntity
  8
0
100
AcDbLine
 62
7
  6
CONTINUOUS
 10
10.9967565268
 20
6.6347983604
 11
10.7713582804
 21
6.4170803601
  0
LINE
  5
2FD
100
AcDbEntity
  8
0
100
AcDbLine
 62
4
  6
CONTINUOUS
 10
14.3005067549
 20
9.8214254955
 11
14.3160358845
 21
9.8219365958
  0
LINE
  5
2FE
100
AcDbEntity
  8
0
100
AcDbLine
 62
4
  6
CONTINUOUS
 10
13.0652974636
 20
9.4026723154
 11
13.1232530153
 21
9.3841641963
  0
LINE
  5
2FF
100
AcDbEntity
  8
0
100
AcDbLine
 62
4
  6
CONTINUOUS
 10
13.181208567
 20
8.8005894479
 11
12.9493863602
 21
8.932577476
  0
LINE
  5
300
100
AcDbEntity
  8
0
100
AcDbLine
 62
4
  6
CONTINUOUS
 10
13.0073419119
 20
8.5663360466
 11
12.9687048728
 21
8.5979933103
  0
LINE
  5
301
100
AcDbEntity
  8
0
100
AcDbLine
 62
4
  6
CONTINUOUS
 10
13.1425715314
 20
8.687357832
 11
13.1618900492
 21
8.6715292003
  0
LINE
  5
302
100
AcDbEntity
  8
0
100
AcDbLine
 62
4
  6
CONTINUOUS
 10
13.181208567
 20
8.6122339049
 11
13.1618900492
 21
8.5845958728
  0
LINE
  5
303
100
AcDbEntity
  8
0
100
AcDbLine
 62
7
  6
CONTINUOUS
 10
11.7275537593
 20
7.0060433791
 11
11.5021555129
 21
6.7883253788
  0
LINE
  5
304
100
AcDbEntity
  8
0
100
AcDbLine
 62
7
  6
CONTINUOUS
 10
10.4566460902
 20
5.7293135224
 11
10.2312478438
 21
5.5115955221
  0
LINE
  5
305
100
AcDbEntity
  8
0
100
AcDbLine
 62
7
  6
CONTINUOUS
 10
10.3994366448
 20
5.6341913448
 11
10.1740383984
 21
5.4164733445
  0
LINE
  5
306
100
AcDbEntity
  8
0
100
AcDbLine
 62
7
  6
CONTINUOUS
 10
11.8419726501
 20
6.9981084021
 11
11.6165744038
 21
6.7803904018
  0
LINE
  5
307
100
AcDbEntity
  8
0
100
AcDbLine
 62
4
  6
CONTINUOUS
 10
8.3496472902
 20
9.7084536122
 11
8.4076028419
 21
9.718923269
  0
LINE
  5
308
100
AcDbEntity
  8
0
100
AcDbLine
 62
4
  6
CONTINUOUS
 10
13.0073419119
 20
9.0299804604
 11
12.9687048728
 21
9.061637724
  0
LINE
  5
309
100
AcDbEntity
  8
0
100
AcDbLine
 62
4
  6
CONTINUOUS
 10
13.1425715314
 20
9.1510022458
 11
13.1618900492
 21
9.1351736141
  0
LINE
  5
30A
100
AcDbEntity
  8
0
100
AcDbLine
 62
4
  6
CONTINUOUS
 10
12.9687048728
 20
8.5979933103
 11
12.9493863602
 21
8.6283108295
  0
LINE
  5
30B
100
AcDbEntity
  8
0
100
AcDbLine
 62
4
  6
CONTINUOUS
 10
13.1618900492
 20
8.6715292003
 11
13.181208567
 21
8.6412116807
  0
LINE
  5
30C
100
AcDbEntity
  8
0
100
AcDbLine
 62
4
  6
CONTINUOUS
 10
14.2694484958
 20
6.5420508703
 11
14.2590957416
 21
6.5610286529
  0
LINE
  5
30D
100
AcDbEntity
  8
0
100
AcDbLine
 62
4
  6
CONTINUOUS
 10
12.9493863602
 20
5.7305331789
 11
12.9493863602
 21
5.7595109548
  0
LINE
  5
30E
100
AcDbEntity
  8
0
100
AcDbLine
 62
4
  6
CONTINUOUS
 10
12.9493863602
 20
6.1941775927
 11
12.9493863602
 21
6.2231553685
  0
LINE
  5
30F
100
AcDbEntity
  8
0
100
AcDbLine
 62
4
  6
CONTINUOUS
 10
12.9493863602
 20
6.3825331357
 11
12.9493863602
 21
6.4404886875
  0
LINE
  5
310
100
AcDbEntity
  8
0
100
AcDbLine
 62
4
  6
CONTINUOUS
 10
12.9493863602
 20
8.6283108295
 11
12.9493863602
 21
8.6572886054
  0
LINE
  5
311
100
AcDbEntity
  8
0
100
AcDbLine
 62
4
  6
CONTINUOUS
 10
12.9493863602
 20
9.0919552432
 11
12.9493863602
 21
9.1209330191
  0
LINE
  5
312
100
AcDbEntity
  8
0
100
AcDbLine
 62
4
  6
CONTINUOUS
 10
12.9493863602
 20
9.2803107863
 11
12.9493863602
 21
9.338266338
  0
LINE
  5
313
100
AcDbEntity
  8
0
100
AcDbLine
 62
4
  6
CONTINUOUS
 10
13.181208567
 20
9.3221894134
 11
13.181208567
 21
9.2642338617
  0
LINE
  5
314
100
AcDbEntity
  8
0
100
AcDbLine
 62
4
  6
CONTINUOUS
 10
13.181208567
 20
9.1048560944
 11
13.181208567
 21
9.0758783186
  0
LINE
  5
315
100
AcDbEntity
  8
0
100
AcDbLine
 62
4
  6
CONTINUOUS
 10
13.181208567
 20
8.6412116807
 11
13.181208567
 21
8.6122339049
  0
LINE
  5
316
100
AcDbEntity
  8
0
100
AcDbLine
 62
4
  6
CONTINUOUS
 10
13.181208567
 20
6.4244117628
 11
13.181208567
 21
6.3664562111
  0
LINE
  5
317
100
AcDbEntity
  8
0
100
AcDbLine
 62
4
  6
CONTINUOUS
 10
13.181208567
 20
6.2070784439
 11
13.181208567
 21
6.178100668
  0
LINE
  5
318
100
AcDbEntity
  8
0
100
AcDbLine
 62
4
  6
CONTINUOUS
 10
13.181208567
 20
5.7434340302
 11
13.181208567
 21
5.7144562543
  0
LINE
  5
319
100
AcDbEntity
  8
0
100
AcDbLine
 62
7
  6
CONTINUOUS
 10
13.6042840978
 20
10.4133230687
 11
6.8428029132
 21
10.8822333815
  0
LINE
  5
31A
100
AcDbEntity
  8
0
100
AcDbLine
 62
4
  6
CONTINUOUS
 10
13.1232530153
 20
9.3841641963
 11
13.1618900492
 21
9.352506933
  0
LINE
  5
31B
100
AcDbEntity
  8
0
100
AcDbLine
 62
4
  6
CONTINUOUS
 10
12.9687048728
 20
9.061637724
 11
12.9493863602
 21
9.0919552432
  0
LINE
  5
31C
100
AcDbEntity
  8
0
100
AcDbLine
 62
4
  6
CONTINUOUS
 10
13.1618900492
 20
9.1351736141
 11
13.181208567
 21
9.1048560944
  0
LINE
  5
31D
100
AcDbEntity
  8
0
100
AcDbLine
 62
4
  6
CONTINUOUS
 10
13.1618900492
 20
9.352506933
 11
13.181208567
 21
9.3221894134
  0
LINE
  5
31E
100
AcDbEntity
  8
0
100
AcDbLine
 62
4
  6
CONTINUOUS
 10
14.3056831311
 20
6.7074508338
 11
14.3108595078
 21
6.6979619421
  0
LINE
  5
31F
100
AcDbEntity
  8
0
100
AcDbLine
 62
7
  6
CONTINUOUS
 10
13.6042840978
 20
4.6177677676
 11
13.6042840978
 21
10.4133230687
  0
LINE
  5
320
100
AcDbEntity
  8
0
100
AcDbLine
 62
4
  6
CONTINUOUS
 10
14.3005067549
 20
9.5606255128
 11
14.2849776254
 21
9.5311366367
  0
LINE
  5
321
100
AcDbEntity
  8
0
100
AcDbLine
 62
7
  6
CONTINUOUS
 10
12.5727698827
 20
6.5255014629
 11
12.3473716363
 21
6.3077834627
  0
LINE
  5
322
100
AcDbEntity
  8
0
100
AcDbLine
 62
7
  6
CONTINUOUS
 10
12.6299793281
 20
6.4224443083
 11
12.4045810817
 21
6.204726308
  0
LINE
  5
323
100
AcDbEntity
  8
0
100
AcDbLine
 62
4
  6
CONTINUOUS
 10
14.2539193663
 20
9.8343810827
 11
14.2590957416
 21
9.8683588534
  0
LINE
  5
324
100
AcDbEntity
  8
0
100
AcDbLine
 62
4
  6
CONTINUOUS
 10
14.2539193663
 20
9.6025588759
 11
14.2590957416
 21
9.6365366466
  0
LINE
  5
325
100
AcDbEntity
  8
0
100
AcDbLine
 62
4
  6
CONTINUOUS
 10
14.2590957416
 20
9.8683588534
 11
14.2642721205
 21
9.8878477398
  0
LINE
  5
326
100
AcDbEntity
  8
0
100
AcDbLine
 62
4
  6
CONTINUOUS
 10
14.2590957416
 20
9.6365366466
 11
14.2642721205
 21
9.656025533
  0
LINE
  5
327
100
AcDbEntity
  8
0
100
AcDbLine
 62
4
  6
CONTINUOUS
 10
14.3108595078
 20
9.5996032806
 11
14.3005067549
 21
9.5606255128
  0
LINE
  5
328
100
AcDbEntity
  8
0
100
AcDbLine
 62
4
  6
CONTINUOUS
 10
12.9493863602
 20
6.4404886875
 11
12.9687048728
 21
6.4681267199
  0
LINE
  5
329
100
AcDbEntity
  8
0
100
AcDbLine
 62
4
  6
CONTINUOUS
 10
12.9493863602
 20
6.2231553685
 11
12.9687048728
 21
6.250793401
  0
LINE
  5
32A
100
AcDbEntity
  8
0
100
AcDbLine
 62
4
  6
CONTINUOUS
 10
12.9687048728
 20
6.4681267199
 11
13.0073419119
 21
6.494425008
  0
LINE
  5
32B
100
AcDbEntity
  8
0
100
AcDbLine
 62
4
  6
CONTINUOUS
 10
12.9687048728
 20
6.250793401
 11
12.9880233993
 21
6.2639425446
  0
LINE
  5
32C
100
AcDbEntity
  8
0
100
AcDbLine
 62
4
  6
CONTINUOUS
 10
14.2590957416
 20
6.5610286529
 11
14.2539193663
 21
6.5850064339
  0
LINE
  5
32D
100
AcDbEntity
  8
0
100
AcDbLine
 62
4
  6
CONTINUOUS
 10
14.3108595078
 20
6.6979619421
 11
14.3160358845
 21
6.6739841624
  0
LINE
  5
32E
100
AcDbEntity
  8
0
100
AcDbLine
 62
4
  6
CONTINUOUS
 10
14.2539193663
 20
6.5850064339
 11
14.2539193663
 21
6.6139842097
  0
LINE
  5
32F
100
AcDbEntity
  8
0
100
AcDbLine
 62
4
  6
CONTINUOUS
 10
14.2539193663
 20
9.5735811
 11
14.2539193663
 21
9.6025588759
  0
LINE
  5
330
100
AcDbEntity
  8
0
100
AcDbLine
 62
4
  6
CONTINUOUS
 10
14.2539193663
 20
9.8054033069
 11
14.2539193663
 21
9.8343810827
  0
LINE
  5
331
100
AcDbEntity
  8
0
100
AcDbLine
 62
4
  6
CONTINUOUS
 10
14.3160358845
 20
9.6625588286
 11
14.3160358845
 21
9.6335810527
  0
LINE
  5
332
100
AcDbEntity
  8
0
100
AcDbLine
 62
4
  6
CONTINUOUS
 10
14.3160358845
 20
6.6739841624
 11
14.3160358845
 21
6.6450063866
  0
LINE
  5
333
100
AcDbEntity
  8
0
100
AcDbLine
 62
4
  6
CONTINUOUS
 10
14.3160358845
 20
9.8219365958
 11
14.3160358845
 21
9.9378476992
  0
LINE
  5
334
100
AcDbEntity
  8
0
100
AcDbLine
 62
4
  6
CONTINUOUS
 10
14.3160358845
 20
9.6335810527
 11
14.3108595078
 21
9.5996032806
  0
LINE
  5
335
100
AcDbEntity
  8
0
100
AcDbLine
 62
4
  6
CONTINUOUS
 10
13.181208567
 20
6.178100668
 11
13.1618900492
 21
6.1504626359
  0
LINE
  5
336
100
AcDbEntity
  8
0
100
AcDbLine
 62
4
  6
CONTINUOUS
 10
12.9493863602
 20
5.7595109548
 11
12.9687048728
 21
5.7871489873
  0
LINE
  5
337
100
AcDbEntity
  8
0
100
AcDbLine
 62
4
  6
CONTINUOUS
 10
13.181208567
 20
5.7144562543
 11
13.1618900492
 21
5.6868182222
  0
LINE
  5
338
100
AcDbEntity
  8
0
100
AcDbLine
 62
7
  6
CONTINUOUS
 10
12.6299793281
 20
5.5785923504
 11
12.4045810817
 21
5.3608743501
  0
LINE
  5
339
100
AcDbEntity
  8
0
100
AcDbLine
 62
7
  6
CONTINUOUS
 10
12.5727698827
 20
5.4834701728
 11
12.3473716363
 21
5.2657521725
  0
LINE
  5
33A
100
AcDbEntity
  8
0
100
AcDbLine
 62
4
  6
CONTINUOUS
 10
14.2539193663
 20
6.8313175287
 11
14.3160358845
 21
6.8913174814
  0
LINE
  5
33B
100
AcDbEntity
  8
0
100
AcDbLine
 62
4
  6
CONTINUOUS
 10
13.1618900492
 20
6.1504626359
 11
13.1232530153
 21
6.1241643475
  0
LINE
  5
33C
100
AcDbEntity
  8
0
100
AcDbLine
 62
4
  6
CONTINUOUS
 10
12.9687048728
 20
5.7871489873
 11
12.9880233993
 21
5.8002981308
  0
LINE
  5
33D
100
AcDbEntity
  8
0
100
AcDbLine
 62
4
  6
CONTINUOUS
 10
12.9493863602
 20
5.918888722
 11
13.181208567
 21
6.0187229008
  0
LINE
  5
33E
100
AcDbEntity
  8
0
100
AcDbLine
 62
4
  6
CONTINUOUS
 10
14.2694484958
 20
9.5306255365
 11
14.2590957416
 21
9.549603319
  0
LINE
  5
33F
100
AcDbEntity
  8
0
100
AcDbLine
 62
4
  6
CONTINUOUS
 10
14.2590957416
 20
9.549603319
 11
14.2539193663
 21
9.5735811
  0
LINE
  5
340
100
AcDbEntity
  8
0
100
AcDbLine
 62
4
  6
CONTINUOUS
 10
14.2590957416
 20
9.7814255259
 11
14.2539193663
 21
9.8054033069
  0
LINE
  5
341
100
AcDbEntity
  8
0
100
AcDbLine
 62
4
  6
CONTINUOUS
 10
14.2539193663
 20
6.6139842097
 11
14.2590957416
 21
6.6479619805
  0
LINE
  5
342
100
AcDbEntity
  8
0
100
AcDbLine
 62
4
  6
CONTINUOUS
 10
14.3160358845
 20
6.6450063866
 11
14.3108595078
 21
6.6110286145
  0
LINE
  5
343
100
AcDbEntity
  8
0
100
AcDbLine
 62
4
  6
CONTINUOUS
 10
14.2590957416
 20
6.6479619805
 11
14.2642721205
 21
6.6674508668
  0
LINE
  5
344
100
AcDbEntity
  8
0
100
AcDbLine
 62
4
  6
CONTINUOUS
 10
14.3108595078
 20
6.6110286145
 11
14.3005067549
 21
6.5720508467
  0
LINE
  5
345
100
AcDbEntity
  8
0
100
AcDbLine
 62
4
  6
CONTINUOUS
 10
14.3005067549
 20
6.5720508467
 11
14.2849776254
 21
6.5425619706
  0
LINE
  5
346
100
AcDbEntity
  8
0
100
AcDbLine
 62
4
  6
CONTINUOUS
 10
13.1618900492
 20
5.6868182222
 11
13.1232530153
 21
5.6605199337
  0
LINE
  5
347
100
AcDbEntity
  8
0
100
AcDbLine
 62
7
  6
CONTINUOUS
 10
15.1571970868
 20
11.9133219197
 11
8.3957159022
 21
12.3822322324
  0
LINE
  5
348
100
AcDbEntity
  8
0
100
AcDbLine
 62
4
  6
CONTINUOUS
 10
14.3056831311
 20
9.6960254999
 11
14.3108595078
 21
9.6865366082
  0
LINE
  5
349
100
AcDbEntity
  8
0
100
AcDbLine
 62
4
  6
CONTINUOUS
 10
14.2642721205
 20
9.7719366364
 11
14.2590957416
 21
9.7814255259
  0
LINE
  5
34A
100
AcDbEntity
  8
0
100
AcDbLine
 62
4
  6
CONTINUOUS
 10
14.2901540025
 20
9.8404032799
 11
14.3005067549
 21
9.8214254955
  0
LINE
  5
34B
100
AcDbEntity
  8
0
100
AcDbLine
 62
4
  6
CONTINUOUS
 10
14.2746248711
 20
9.8978477296
 11
14.2798012501
 21
9.8883588401
  0
LINE
  5
34C
100
AcDbEntity
  8
0
100
AcDbLine
 62
4
  6
CONTINUOUS
 10
14.3108595078
 20
9.6865366082
 11
14.3160358845
 21
9.6625588286
  0
LINE
  5
34D
100
AcDbEntity
  8
0
100
AcDbLine
 62
4
  6
CONTINUOUS
 10
14.2798012501
 20
9.8883588401
 11
14.2901540025
 21
9.8404032799
  0
LINE
  5
34E
100
AcDbEntity
  8
0
100
AcDbLine
 62
7
  6
CONTINUOUS
 10
15.1571970868
 20
6.1177666185
 11
15.1571970868
 21
11.9133219197
  0
LINE
  5
34F
100
AcDbEntity
  8
0
100
AcDbLine
 62
7
  6
CONTINUOUS
 10
15.1571970868
 20
6.1177666185
 11
13.6042840978
 21
4.6177677676
  0
ARC
  5
350
100
AcDbEntity
  8
0
100
AcDbCircle
 62
7
  6
CONTINUOUS
 10
9.5266150211
 20
6.1242911352
 40
1.0326887078
100
AcDbArc
 50
25.7640228377
 51
32.3073428428
  0
ARC
  5
351
100
AcDbEntity
  8
0
100
AcDbCircle
 62
7
  6
CONTINUOUS
 10
9.4708466661
 20
6.0777017417
 40
1.0326887078
100
AcDbArc
 50
205.7640228377
 51
212.3073428428
  0
ARC
  5
352
100
AcDbEntity
  8
0
100
AcDbCircle
 62
7
  6
CONTINUOUS
 10
9.3012167747
 20
5.9065731349
 40
1.0326887078
100
AcDbArc
 50
25.7640228377
 51
32.3073428428
  0
ARC
  5
353
100
AcDbEntity
  8
0
100
AcDbCircle
 62
7
  6
CONTINUOUS
 10
9.4524309619
 20
6.003612593
 40
0.9584534212
100
AcDbArc
 50
262.590107291
 51
266.0275106487
  0
ARC
  5
354
100
AcDbEntity
  8
0
100
AcDbCircle
 62
7
  6
CONTINUOUS
 10
9.3196324789
 20
5.9806622836
 40
0.9584534212
100
AcDbArc
 50
82.590107291
 51
86.0275106487
  0
ARC
  5
355
100
AcDbEntity
  8
0
100
AcDbCircle
 62
7
  6
CONTINUOUS
 10
9.5452276662
 20
6.2003564515
 40
0.9564683598
100
AcDbArc
 50
82.5865392113
 51
86.0310787285
  0
ARC
  5
356
100
AcDbEntity
  8
0
100
AcDbCircle
 62
7
  6
CONTINUOUS
 10
9.5459155136
 20
6.2102740503
 40
0.9465269363
100
AcDbArc
 50
86.0310634489
 51
89.4972694561
  0
ARC
  5
357
100
AcDbEntity
  8
0
100
AcDbCircle
 62
7
  6
CONTINUOUS
 10
9.4515461736
 20
5.9917188265
 40
0.9465269363
100
AcDbArc
 50
266.0310634489
 51
269.4972694561
  0
ARC
  5
358
100
AcDbEntity
  8
0
100
AcDbCircle
 62
7
  6
CONTINUOUS
 10
9.3205172672
 20
5.9925560501
 40
0.9465269363
100
AcDbArc
 50
86.0310634489
 51
89.4972694561
  0
ARC
  5
359
100
AcDbEntity
  8
0
100
AcDbCircle
 62
7
  6
CONTINUOUS
 10
9.6903563132
 20
6.1254192408
 40
0.8626121738
100
AcDbArc
 50
325.2870362755
 51
332.6649360488
  0
ARC
  5
35A
100
AcDbEntity
  8
0
100
AcDbCircle
 62
7
  6
CONTINUOUS
 10
9.307105374
 20
6.076573636
 40
0.8626121738
100
AcDbArc
 50
145.2870362755
 51
152.6649360488
  0
ARC
  5
35B
100
AcDbEntity
  8
0
100
AcDbCircle
 62
7
  6
CONTINUOUS
 10
9.4649580669
 20
5.9077012406
 40
0.8626121738
100
AcDbArc
 50
325.2870362755
 51
332.6649360488
  0
ARC
  5
35C
100
AcDbEntity
  8
0
100
AcDbCircle
 62
7
  6
CONTINUOUS
 10
9.8217132991
 20
6.2761041727
 40
0.756825618
100
AcDbArc
 50
329.2842157959
 51
331.973240189
  0
ARC
  5
35D
100
AcDbEntity
  8
0
100
AcDbCircle
 62
7
  6
CONTINUOUS
 10
9.8218481316
 20
6.2762758945
 40
0.7568243095
100
AcDbArc
 50
329.2722737638
 51
331.7503052801
  0
ARC
  5
35E
100
AcDbEntity
  8
0
100
AcDbCircle
 62
7
  6
CONTINUOUS
 10
9.6846067187
 20
6.4183288604
 40
0.7561352939
100
AcDbArc
 50
116.6853061558
 51
118.1827005096
  0
ARC
  5
35F
100
AcDbEntity
  8
0
100
AcDbCircle
 62
7
  6
CONTINUOUS
 10
9.6828619433
 20
6.4215005268
 40
0.7525156114
100
AcDbArc
 50
118.1796552429
 51
121.8992985452
  0
ARC
  5
360
100
AcDbEntity
  8
0
100
AcDbCircle
 62
7
  6
CONTINUOUS
 10
9.6814733705
 20
6.424252359
 40
0.7494678609
100
AcDbArc
 50
116.458241985
 51
132.4326525149
  0
ARC
  5
361
100
AcDbEntity
  8
0
100
AcDbCircle
 62
7
  6
CONTINUOUS
 10
9.6810883025
 20
6.4243616318
 40
0.7491493543
100
AcDbArc
 50
121.8997655024
 51
124.6287569167
  0
ARC
  5
362
100
AcDbEntity
  8
0
100
AcDbCircle
 62
7
  6
CONTINUOUS
 10
9.6797113115
 20
6.4263214607
 40
0.7467542225
100
AcDbArc
 50
124.6272705245
 51
128.0643911905
  0
ARC
  5
363
100
AcDbEntity
  8
0
100
AcDbCircle
 62
7
  6
CONTINUOUS
 10
9.6786355205
 20
6.427702811
 40
0.7450033846
100
AcDbArc
 50
128.0647508725
 51
132.4742048099
  0
ARC
  5
364
100
AcDbEntity
  8
0
100
AcDbCircle
 62
7
  6
CONTINUOUS
 10
9.5266150211
 20
9.0220687857
 40
1.0326887078
100
AcDbArc
 50
25.7640228377
 51
32.3073428428
  0
ARC
  5
365
100
AcDbEntity
  8
0
100
AcDbCircle
 62
7
  6
CONTINUOUS
 10
9.4708466661
 20
8.9754793922
 40
1.0326887078
100
AcDbArc
 50
205.7640228377
 51
212.3073428428
  0
ARC
  5
366
100
AcDbEntity
  8
0
100
AcDbCircle
 62
7
  6
CONTINUOUS
 10
9.3012167747
 20
8.8043507855
 40
1.0326887078
100
AcDbArc
 50
25.7640228377
 51
32.3073428428
  0
ARC
  5
367
100
AcDbEntity
  8
0
100
AcDbCircle
 62
7
  6
CONTINUOUS
 10
9.4524309619
 20
8.9013902436
 40
0.9584534213
100
AcDbArc
 50
262.590107291
 51
266.0275106487
  0
ARC
  5
368
100
AcDbEntity
  8
0
100
AcDbCircle
 62
7
  6
CONTINUOUS
 10
9.3196324789
 20
8.8784399341
 40
0.9584534212
100
AcDbArc
 50
82.590107291
 51
86.0275106487
  0
ARC
  5
369
100
AcDbEntity
  8
0
100
AcDbCircle
 62
7
  6
CONTINUOUS
 10
9.5452276662
 20
9.0981341021
 40
0.9564683598
100
AcDbArc
 50
82.5865392113
 51
86.0310787285
  0
ARC
  5
36A
100
AcDbEntity
  8
0
100
AcDbCircle
 62
7
  6
CONTINUOUS
 10
9.5459155136
 20
9.1080517009
 40
0.9465269363
100
AcDbArc
 50
86.0310634489
 51
89.4972694561
  0
ARC
  5
36B
100
AcDbEntity
  8
0
100
AcDbCircle
 62
7
  6
CONTINUOUS
 10
9.4515461736
 20
8.8894964771
 40
0.9465269363
100
AcDbArc
 50
266.0310634489
 51
269.4972694561
  0
ARC
  5
36C
100
AcDbEntity
  8
0
100
AcDbCircle
 62
7
  6
CONTINUOUS
 10
9.3205172672
 20
8.8903337006
 40
0.9465269363
100
AcDbArc
 50
86.0310634489
 51
89.4972694561
  0
ARC
  5
36D
100
AcDbEntity
  8
0
100
AcDbCircle
 62
7
  6
CONTINUOUS
 10
9.6903563132
 20
9.0231968914
 40
0.8626121738
100
AcDbArc
 50
325.2870362755
 51
332.6649360488
  0
ARC
  5
36E
100
AcDbEntity
  8
0
100
AcDbCircle
 62
7
  6
CONTINUOUS
 10
9.307105374
 20
8.9743512866
 40
0.8626121738
100
AcDbArc
 50
145.2870362755
 51
152.6649360488
  0
ARC
  5
36F
100
AcDbEntity
  8
0
100
AcDbCircle
 62
7
  6
CONTINUOUS
 10
9.4649580669
 20
8.8054788911
 40
0.8626121738
100
AcDbArc
 50
325.2870362755
 51
332.6649360488
  0
ARC
  5
370
100
AcDbEntity
  8
0
100
AcDbCircle
 62
7
  6
CONTINUOUS
 10
9.8217132991
 20
9.1738818233
 40
0.756825618
100
AcDbArc
 50
329.2842157959
 51
331.9732401889
  0
ARC
  5
371
100
AcDbEntity
  8
0
100
AcDbCircle
 62
7
  6
CONTINUOUS
 10
9.8218481316
 20
9.1740535451
 40
0.7568243095
100
AcDbArc
 50
329.2722737638
 51
331.7503052801
  0
ARC
  5
372
100
AcDbEntity
  8
0
100
AcDbCircle
 62
7
  6
CONTINUOUS
 10
9.6846067187
 20
9.316106511
 40
0.7561352939
100
AcDbArc
 50
116.6853061557
 51
118.1827005096
  0
ARC
  5
373
100
AcDbEntity
  8
0
100
AcDbCircle
 62
7
  6
CONTINUOUS
 10
9.6828619433
 20
9.3192781774
 40
0.7525156114
100
AcDbArc
 50
118.1796552429
 51
121.8992985452
  0
ARC
  5
374
100
AcDbEntity
  8
0
100
AcDbCircle
 62
7
  6
CONTINUOUS
 10
9.6814733705
 20
9.3220300096
 40
0.7494678609
100
AcDbArc
 50
116.458241985
 51
132.4326525149
  0
ARC
  5
375
100
AcDbEntity
  8
0
100
AcDbCircle
 62
7
  6
CONTINUOUS
 10
9.6810883025
 20
9.3221392824
 40
0.7491493544
100
AcDbArc
 50
121.8997655024
 51
124.6287569167
  0
ARC
  5
376
100
AcDbEntity
  8
0
100
AcDbCircle
 62
7
  6
CONTINUOUS
 10
9.6797113115
 20
9.3240991113
 40
0.7467542225
100
AcDbArc
 50
124.6272705244
 51
128.0643911905
  0
ARC
  5
377
100
AcDbEntity
  8
0
100
AcDbCircle
 62
7
  6
CONTINUOUS
 10
9.6786355205
 20
9.3254804615
 40
0.7450033846
100
AcDbArc
 50
128.0647508725
 51
132.4742048099
  0
ARC
  5
378
100
AcDbEntity
  8
0
100
AcDbCircle
 62
7
  6
CONTINUOUS
 10
11.699948259
 20
5.9735699632
 40
1.0326887078
100
AcDbArc
 50
25.7640228377
 51
32.3073428428
  0
ARC
  5
379
100
AcDbEntity
  8
0
100
AcDbCircle
 62
7
  6
CONTINUOUS
 10
11.6441799041
 20
5.9269805697
 40
1.0326887078
100
AcDbArc
 50
205.7640228377
 51
212.3073428428
  0
ARC
  5
37A
100
AcDbEntity
  8
0
100
AcDbCircle
 62
7
  6
CONTINUOUS
 10
11.4745500126
 20
5.7558519629
 40
1.0326887078
100
AcDbArc
 50
25.7640228377
 51
32.3073428428
  0
ARC
  5
37B
100
AcDbEntity
  8
0
100
AcDbCircle
 62
7
  6
CONTINUOUS
 10
11.6257641999
 20
5.852891421
 40
0.9584534212
100
AcDbArc
 50
262.590107291
 51
266.0275106487
  0
ARC
  5
37C
100
AcDbEntity
  8
0
100
AcDbCircle
 62
7
  6
CONTINUOUS
 10
11.4929657168
 20
5.8299411116
 40
0.9584534212
100
AcDbArc
 50
82.590107291
 51
86.0275106487
  0
ARC
  5
37D
100
AcDbEntity
  8
0
100
AcDbCircle
 62
7
  6
CONTINUOUS
 10
11.7185609041
 20
6.0496352795
 40
0.9564683598
100
AcDbArc
 50
82.5865392113
 51
86.0310787284
  0
ARC
  5
37E
100
AcDbEntity
  8
0
100
AcDbCircle
 62
7
  6
CONTINUOUS
 10
11.7192487515
 20
6.0595528784
 40
0.9465269363
100
AcDbArc
 50
86.0310634489
 51
89.4972694561
  0
ARC
  5
37F
100
AcDbEntity
  8
0
100
AcDbCircle
 62
7
  6
CONTINUOUS
 10
11.6248794116
 20
5.8409976545
 40
0.9465269363
100
AcDbArc
 50
266.0310634489
 51
269.4972694561
  0
ARC
  5
380
100
AcDbEntity
  8
0
100
AcDbCircle
 62
7
  6
CONTINUOUS
 10
11.4938505051
 20
5.8418348781
 40
0.9465269363
100
AcDbArc
 50
86.0310634489
 51
89.4972694561
  0
ARC
  5
381
100
AcDbEntity
  8
0
100
AcDbCircle
 62
7
  6
CONTINUOUS
 10
11.8636895512
 20
5.9746980689
 40
0.8626121738
100
AcDbArc
 50
325.2870362755
 51
332.6649360488
  0
ARC
  5
382
100
AcDbEntity
  8
0
100
AcDbCircle
 62
7
  6
CONTINUOUS
 10
11.4804386119
 20
5.925852464
 40
0.8626121738
100
AcDbArc
 50
145.2870362755
 51
152.6649360488
  0
ARC
  5
383
100
AcDbEntity
  8
0
100
AcDbCircle
 62
7
  6
CONTINUOUS
 10
11.6382913048
 20
5.7569800686
 40
0.8626121738
100
AcDbArc
 50
325.2870362755
 51
332.6649360488
  0
ARC
  5
384
100
AcDbEntity
  8
0
100
AcDbCircle
 62
7
  6
CONTINUOUS
 10
11.8348250187
 20
6.1619210295
 40
0.8288161989
100
AcDbArc
 50
86.0323821428
 51
88.2163836344
  0
ARC
  5
385
100
AcDbEntity
  8
0
100
AcDbCircle
 62
7
  6
CONTINUOUS
 10
11.8452997297
 20
6.1740079942
 40
0.8267257901
100
AcDbArc
 50
86.0308063163
 51
90.2302411027
  0
ARC
  5
386
100
AcDbEntity
  8
0
100
AcDbCircle
 62
7
  6
CONTINUOUS
 10
11.845364417
 20
6.1832736663
 40
0.8174604591
100
AcDbArc
 50
90.2373847057
 51
91.5303555387
  0
ARC
  5
387
100
AcDbEntity
  8
0
100
AcDbCircle
 62
7
  6
CONTINUOUS
 10
11.9952496208
 20
6.1252678485
 40
0.7565922608
100
AcDbArc
 50
329.2522496612
 51
331.7710823905
  0
ARC
  5
388
100
AcDbEntity
  8
0
100
AcDbCircle
 62
7
  6
CONTINUOUS
 10
11.9959978355
 20
6.125082719
 40
0.755881446
100
AcDbArc
 50
329.2278705086
 51
330.5722035245
  0
ARC
  5
389
100
AcDbEntity
  8
0
100
AcDbCircle
 62
7
  6
CONTINUOUS
 10
11.8545427931
 20
6.2736980742
 40
0.7491688717
100
AcDbArc
 50
115.4568154934
 51
132.5392488346
  0
ARC
  5
38A
100
AcDbEntity
  8
0
100
AcDbCircle
 62
7
  6
CONTINUOUS
 10
11.8543876038
 20
6.2740868811
 40
0.7487740819
100
AcDbArc
 50
117.9862680632
 51
132.4728303233
  0
ARC
  5
38B
100
AcDbEntity
  8
0
100
AcDbCircle
 62
7
  6
CONTINUOUS
 10
11.699948259
 20
8.8713476138
 40
1.0326887078
100
AcDbArc
 50
25.7640228377
 51
32.3073428428
  0
ARC
  5
38C
100
AcDbEntity
  8
0
100
AcDbCircle
 62
7
  6
CONTINUOUS
 10
11.6441799041
 20
8.8247582203
 40
1.0326887078
100
AcDbArc
 50
205.7640228377
 51
212.3073428428
  0
ARC
  5
38D
100
AcDbEntity
  8
0
100
AcDbCircle
 62
7
  6
CONTINUOUS
 10
11.4745500126
 20
8.6536296135
 40
1.0326887078
100
AcDbArc
 50
25.7640228377
 51
32.3073428428
  0
ARC
  5
38E
100
AcDbEntity
  8
0
100
AcDbCircle
 62
7
  6
CONTINUOUS
 10
11.6257641998
 20
8.7506690716
 40
0.9584534212
100
AcDbArc
 50
262.590107291
 51
266.0275106487
  0
ARC
  5
38F
100
AcDbEntity
  8
0
100
AcDbCircle
 62
7
  6
CONTINUOUS
 10
11.4929657168
 20
8.7277187622
 40
0.9584534213
100
AcDbArc
 50
82.590107291
 51
86.0275106487
  0
ARC
  5
390
100
AcDbEntity
  8
0
100
AcDbCircle
 62
7
  6
CONTINUOUS
 10
11.7185609041
 20
8.9474129301
 40
0.9564683598
100
AcDbArc
 50
82.5865392113
 51
86.0310787284
  0
ARC
  5
391
100
AcDbEntity
  8
0
100
AcDbCircle
 62
7
  6
CONTINUOUS
 10
11.7192487515
 20
8.9573305289
 40
0.9465269363
100
AcDbArc
 50
86.0310634489
 51
89.4972694561
  0
ARC
  5
392
100
AcDbEntity
  8
0
100
AcDbCircle
 62
7
  6
CONTINUOUS
 10
11.6248794116
 20
8.7387753051
 40
0.9465269363
100
AcDbArc
 50
266.0310634489
 51
269.4972694561
  0
ARC
  5
393
100
AcDbEntity
  8
0
100
AcDbCircle
 62
7
  6
CONTINUOUS
 10
11.4938505051
 20
8.7396125287
 40
0.9465269363
100
AcDbArc
 50
86.0310634489
 51
89.4972694561
  0
ARC
  5
394
100
AcDbEntity
  8
0
100
AcDbCircle
 62
7
  6
CONTINUOUS
 10
11.8636895512
 20
8.8724757194
 40
0.8626121738
100
AcDbArc
 50
325.2870362755
 51
332.6649360488
  0
ARC
  5
395
100
AcDbEntity
  8
0
100
AcDbCircle
 62
7
  6
CONTINUOUS
 10
11.4804386119
 20
8.8236301146
 40
0.8626121738
100
AcDbArc
 50
145.2870362755
 51
152.6649360488
  0
ARC
  5
396
100
AcDbEntity
  8
0
100
AcDbCircle
 62
7
  6
CONTINUOUS
 10
11.6382913048
 20
8.6547577192
 40
0.8626121738
100
AcDbArc
 50
325.2870362755
 51
332.6649360488
  0
ARC
  5
397
100
AcDbEntity
  8
0
100
AcDbCircle
 62
7
  6
CONTINUOUS
 10
11.8348250187
 20
9.0596986801
 40
0.8288161989
100
AcDbArc
 50
86.0323821428
 51
88.2163836344
  0
ARC
  5
398
100
AcDbEntity
  8
0
100
AcDbCircle
 62
7
  6
CONTINUOUS
 10
11.8452997297
 20
9.0717856448
 40
0.8267257901
100
AcDbArc
 50
86.0308063163
 51
90.2302411027
  0
ARC
  5
399
100
AcDbEntity
  8
0
100
AcDbCircle
 62
7
  6
CONTINUOUS
 10
11.845364417
 20
9.0810513169
 40
0.8174604591
100
AcDbArc
 50
90.2373847057
 51
91.5303555387
  0
ARC
  5
39A
100
AcDbEntity
  8
0
100
AcDbCircle
 62
7
  6
CONTINUOUS
 10
11.9952496208
 20
9.023045499
 40
0.7565922608
100
AcDbArc
 50
329.2522496612
 51
331.7710823905
  0
ARC
  5
39B
100
AcDbEntity
  8
0
100
AcDbCircle
 62
7
  6
CONTINUOUS
 10
11.9959978356
 20
9.0228603695
 40
0.755881446
100
AcDbArc
 50
329.2278705086
 51
330.5722035245
  0
ARC
  5
39C
100
AcDbEntity
  8
0
100
AcDbCircle
 62
7
  6
CONTINUOUS
 10
11.8545427931
 20
9.1714757247
 40
0.7491688717
100
AcDbArc
 50
115.4568154905
 51
132.5392488317
  0
ARC
  5
39D
100
AcDbEntity
  8
0
100
AcDbCircle
 62
7
  6
CONTINUOUS
 10
11.8543876038
 20
9.1718645317
 40
0.7487740819
100
AcDbArc
 50
117.9862680632
 51
132.4728303233
  0
SPLINE
  5
39E
100
AcDbEntity
  8
0
100
AcDbSpline
 62
7
  6
CONTINUOUS
 70
0
 71
3
 72
20
 73
16
 74
0
 42
0.0000001
 43
0.0000001
 44
0.0000000001
 40
0.0
 40
0.0
 40
0.0
 40
0.0
 40
0.1328004115
 40
0.2663282989
 40
0.3994288484
 40
0.4652765799
 40
0.530307737
 40
0.5942626159
 40
0.6569131493
 40
0.7180845183
 40
0.777666975
 40
0.8356165293
 40
0.89194577
 40
0.9467129545
 40
1.0
 40
1.0
 40
1.0
 40
1.0
 10
10.4566460902
 20
5.7293135224
 30
0.0
 10
10.4606408063
 20
5.7665516547
 30
0.0
 10
10.4679799973
 20
5.8413067993
 30
0.0
 10
10.4765034047
 20
5.9536393788
 30
0.0
 10
10.4810885773
 20
6.0473056864
 30
0.0
 10
10.4829738581
 20
6.1217309961
 30
0.0
 10
10.4834534225
 20
6.1766777833
 30
0.0
 10
10.482989524
 20
6.2307230585
 30
0.0
 10
10.4815949257
 20
6.2836635001
 30
0.0
 10
10.4793072422
 20
6.3353385306
 30
0.0
 10
10.4761839404
 20
6.3856414068
 30
0.0
 10
10.4722955643
 20
6.4345209556
 30
0.0
 10
10.4677187195
 20
6.4819765197
 30
0.0
 10
10.4625301143
 20
6.5280457539
 30
0.0
 10
10.4586612541
 20
6.5582734285
 30
0.0
 10
10.4566460902
 20
6.5731654803
 30
0.0
  0
SPLINE
  5
39F
100
AcDbEntity
  8
0
100
AcDbSpline
 62
7
  6
CONTINUOUS
 70
0
 71
3
 72
22
 73
18
 74
0
 42
0.0000001
 43
0.0000001
 44
0.0000000001
 40
0.0
 40
0.0
 40
0.0
 40
0.0
 40
0.0578967657
 40
0.1168069543
 40
0.1767552214
 40
0.2377418336
 40
0.2997235166
 40
0.3626077374
 40
0.4262490722
 40
0.4904549483
 40
0.5550006938
 40
0.619651431
 40
0.684185502
 40
0.7484135876
 40
0.8121898087
 40
0.87541344
 40
1.0
 40
1.0
 40
1.0
 40
1.0
 10
10.3994366448
 20
6.6762226349
 30
0.0
 10
10.3869296897
 20
6.6875449531
 30
0.0
 10
10.3615167112
 20
6.7101898195
 30
0.0
 10
10.3224863515
 20
6.7438002916
 30
0.0
 10
10.2821549045
 20
6.7772671582
 30
0.0
 10
10.2404761771
 20
6.8104966927
 30
0.0
 10
10.1974367681
 20
6.8433739797
 30
0.0
 10
10.1530680378
 20
6.8757646732
 30
0.0
 10
10.1074518865
 20
6.9075225942
 30
0.0
 10
10.0607205738
 20
6.938500825
 30
0.0
 10
10.0130483127
 20
6.9685654497
 30
0.0
 10
9.9646357274
 20
6.9976086509
 30
0.0
 10
9.9156905206
 20
7.0255580151
 30
0.0
 10
9.8664090961
 20
7.0523800387
 30
0.0
 10
9.8169626481
 20
7.0780780922
 30
0.0
 10
9.751321406
 20
7.1107281404
 30
0.0
 10
9.7017341045
 20
7.1339068852
 30
0.0
 10
9.6686394122
 20
7.148829574
 30
0.0
  0
SPLINE
  5
3A0
100
AcDbEntity
  8
0
100
AcDbSpline
 62
7
  6
CONTINUOUS
 70
0
 71
3
 72
15
 73
11
 74
0
 42
0.0000001
 43
0.0000001
 44
0.0000000001
 40
0.0
 40
0.0
 40
0.0
 40
0.0
 40
0.1024584527
 40
0.2125880165
 40
0.3308751456
 40
0.4568384937
 40
0.5888694915
 40
0.7247080792
 40
0.8622415245
 40
1.0
 40
1.0
 40
1.0
 40
1.0
 10
9.5542205214
 20
7.1567645511
 30
0.0
 10
9.5285336897
 20
7.1456017582
 30
0.0
 10
9.4753991195
 20
7.1220648611
 30
0.0
 10
9.3932527553
 20
7.0842081401
 30
0.0
 10
9.3059127524
 20
7.042296369
 30
0.0
 10
9.2138769373
 20
6.9963608769
 30
0.0
 10
9.1182575321
 20
6.9468885311
 30
0.0
 10
9.0204898885
 20
6.894707214
 30
0.0
 10
8.9219157043
 20
6.8407275901
 30
0.0
 10
8.8562287737
 20
6.8040086243
 30
0.0
 10
8.8234232888
 20
6.7855195324
 30
0.0
  0
SPLINE
  5
3A1
100
AcDbEntity
  8
0
100
AcDbSpline
 62
7
  6
CONTINUOUS
 70
0
 71
3
 72
19
 73
15
 74
0
 42
0.0000001
 43
0.0000001
 44
0.0000000001
 40
0.0
 40
0.0
 40
0.0
 40
0.0
 40
0.1307115674
 40
0.2609268752
 40
0.3901025973
 40
0.4540950503
 40
0.5175739859
 40
0.580457627
 40
0.6426741367
 40
0.7041661724
 40
0.764894827
 40
0.8248387715
 40
0.8839940512
 40
1.0
 40
1.0
 40
1.0
 40
1.0
 10
8.540815597
 20
6.4726793545
 30
0.0
 10
8.5384370566
 20
6.4359575313
 30
0.0
 10
8.534122523
 20
6.3626241016
 30
0.0
 10
8.5292198783
 20
6.2529053851
 30
0.0
 10
8.5266485814
 20
6.1618955001
 30
0.0
 10
8.5256054636
 20
6.0896491443
 30
0.0
 10
8.5253423824
 20
6.0360589362
 30
0.0
 10
8.5256005554
 20
5.9829686958
 30
0.0
 10
8.5263759396
 20
5.9304429058
 30
0.0
 10
8.5276557567
 20
5.8785338753
 30
0.0
 10
8.5294193296
 20
5.8272792484
 30
0.0
 10
8.5316407189
 20
5.7767009056
 30
0.0
 10
8.5351495414
 20
5.7106049786
 30
0.0
 10
8.5384042753
 20
5.6613970084
 30
0.0
 10
8.540815597
 20
5.6288273966
 30
0.0
  0
SPLINE
  5
3A2
100
AcDbEntity
  8
0
100
AcDbSpline
 62
7
  6
CONTINUOUS
 70
0
 71
3
 72
21
 73
17
 74
0
 42
0.0000001
 43
0.0000001
 44
0.0000000001
 40
0.0
 40
0.0
 40
0.0
 40
0.0
 40
0.1211301163
 40
0.1823712755
 40
0.2440509723
 40
0.306143678
 40
0.3686104373
 40
0.4313997375
 40
0.4944481226
 40
0.5576847246
 40
0.6210354942
 40
0.6844273845
 40
0.7477936645
 40
0.8110760547
 40
0.8742266982
 40
1.0
 40
1.0
 40
1.0
 40
1.0
 10
8.5980250425
 20
5.5257702419
 30
0.0
 10
8.6256864104
 20
5.504014107
 30
0.0
 10
8.6676388162
 20
5.4716437096
 30
0.0
 10
8.7244555832
 20
5.4292239328
 30
0.0
 10
8.7678876232
 20
5.3975523299
 30
0.0
 10
8.8119816102
 20
5.3661905123
 30
0.0
 10
8.8567231059
 20
5.3351897657
 30
0.0
 10
8.9020833776
 20
5.3046021192
 30
0.0
 10
8.9480193585
 20
5.2744762113
 30
0.0
 10
8.9944756352
 20
5.2448544951
 30
0.0
 10
9.0413884249
 20
5.215771459
 30
0.0
 10
9.0886890115
 20
5.1872506198
 30
0.0
 10
9.1363076642
 20
5.1593035566
 30
0.0
 10
9.1841781289
 20
5.1319310893
 30
0.0
 10
9.2481714243
 20
5.0962372784
 30
0.0
 10
9.2965028381
 20
5.0702132842
 30
0.0
 10
9.328822275
 20
5.0531633028
 30
0.0
  0
SPLINE
  5
3A3
100
AcDbEntity
  8
0
100
AcDbSpline
 62
7
  6
CONTINUOUS
 70
0
 71
3
 72
15
 73
11
 74
0
 42
0.0000001
 43
0.0000001
 44
0.0000000001
 40
0.0
 40
0.0
 40
0.0
 40
0.0
 40
0.1128124416
 40
0.2295614621
 40
0.3503736449
 40
0.4750619961
 40
0.6031117921
 40
0.7337880193
 40
0.866309584
 40
1.0
 40
1.0
 40
1.0
 40
1.0
 10
9.4432411658
 20
5.0452283258
 30
0.0
 10
9.4711598037
 20
5.0583025504
 30
0.0
 10
9.5278774609
 20
5.085108226
 30
0.0
 10
9.6141255375
 20
5.1266884379
 30
0.0
 10
9.7029384312
 20
5.1704143197
 30
0.0
 10
9.794136811
 20
5.2162782004
 30
0.0
 10
9.8873527481
 20
5.2641217741
 30
0.0
 10
9.9820992585
 20
5.3136639578
 30
0.0
 10
10.0778727481
 20
5.3645628578
 30
0.0
 10
10.1419169139
 20
5.3990687823
 30
0.0
 10
10.1740383984
 20
5.4164733445
 30
0.0
  0
SPLINE
  5
3A4
100
AcDbEntity
  8
0
100
AcDbSpline
 62
7
  6
CONTINUOUS
 70
0
 71
3
 72
64
 73
60
 74
0
 42
0.0000001
 43
0.0000001
 44
0.0000000001
 40
0.0
 40
0.0
 40
0.0
 40
0.0
 40
0.0311830674
 40
0.0467008478
 40
0.0621656035
 40
0.077580314
 40
0.0929469982
 40
0.1082676194
 40
0.1235450534
 40
0.1387827119
 40
0.1539843784
 40
0.169154114
 40
0.1842963866
 40
0.1994159176
 40
0.2145177079
 40
0.2296068972
 40
0.2446888078
 40
0.2597688009
 40
0.2748522991
 40
0.289944644
 40
0.3050511237
 40
0.320176829
 40
0.3353266945
 40
0.3505053557
 40
0.3657171944
 40
0.3809661934
 40
0.3962560015
 40
0.4115897884
 40
0.4269703324
 40
0.4423998859
 40
0.4578802676
 40
0.4734127351
 40
0.4889980873
 40
0.5046365524
 40
0.5203278953
 40
0.5360713376
 40
0.551865648
 40
0.5677090891
 40
0.5835994915
 40
0.5995342345
 40
0.6155103003
 40
0.6315243016
 40
0.6475725053
 40
0.6636508895
 40
0.6797551433
 40
0.6958807523
 40
0.7120229781
 40
0.7281769781
 40
0.7443377676
 40
0.7605003478
 40
0.7766596612
 40
0.7928107186
 40
0.8089485556
 40
0.841156923
 40
0.8732567742
 40
0.9052155383
 40
0.9370054028
 40
0.968605258
 40
1.0
 40
1.0
 40
1.0
 40
1.0
 10
9.368399084
 20
6.8058018782
 30
0.0
 10
9.3413178585
 20
6.8076799676
 30
0.0
 10
9.3005844003
 20
6.8085171434
 30
0.0
 10
9.2465297893
 20
6.8056025031
 30
0.0
 10
9.2063376942
 20
6.801419615
 30
0.0
 10
9.1665378426
 20
6.7952448382
 30
0.0
 10
9.127222436
 20
6.7870953174
 30
0.0
 10
9.0884877299
 20
6.7769879322
 30
0.0
 10
9.0504267621
 20
6.7649491192
 30
0.0
 10
9.013131802
 20
6.7510060314
 30
0.0
 10
8.9766920886
 20
6.7351938946
 30
0.0
 10
8.9411961524
 20
6.7175492287
 30
0.0
 10
8.9067290597
 20
6.6981157793
 30
0.0
 10
8.873374481
 20
6.6769393522
 30
0.0
 10
8.8412124277
 20
6.6540717672
 30
0.0
 10
8.8103208444
 20
6.6295675931
 30
0.0
 10
8.7807740465
 20
6.6034862453
 30
0.0
 10
8.7526433614
 20
6.575890501
 30
0.0
 10
8.7259967554
 20
6.5468468547
 30
0.0
 10
8.7008981758
 20
6.5164256039
 30
0.0
 10
8.6774086675
 20
6.4846997598
 30
0.0
 10
8.655584102
 20
6.4517463772
 30
0.0
 10
8.6354780552
 20
6.417644355
 30
0.0
 10
8.6171377436
 20
6.3824766315
 30
0.0
 10
8.6006087661
 20
6.3463273261
 30
0.0
 10
8.585929239
 20
6.3092843467
 30
0.0
 10
8.5731363495
 20
6.2714363265
 30
0.0
 10
8.5622587728
 20
6.2328751997
 30
0.0
 10
8.5533248891
 20
6.1936933387
 30
0.0
 10
8.5463537266
 20
6.1539857083
 30
0.0
 10
8.541364509
 20
6.1138475919
 30
0.0
 10
8.5383665362
 20
6.0733760068
 30
0.0
 10
8.5373696156
 20
6.0326682906
 30
0.0
 10
8.5383733352
 20
5.99182256
 30
0.0
 10
8.5413778853
 20
5.950937287
 30
0.0
 10
8.546373279
 20
5.9101107306
 30
0.0
 10
8.5533499729
 20
5.8694415207
 30
0.0
 10
8.5622886175
 20
5.8290271481
 30
0.0
 10
8.5731699471
 20
5.7889654255
 30
0.0
 10
8.5859655119
 20
5.7493522137
 30
0.0
 10
8.6006464369
 20
5.710283508
 30
0.0
 10
8.6171755177
 20
5.6718526893
 30
0.0
 10
8.6355145047
 20
5.6341529178
 30
0.0
 10
8.6556178291
 20
5.5972742795
 30
0.0
 10
8.6774382257
 20
5.5613061353
 30
0.0
 10
8.7009221926
 20
5.5263345146
 30
0.0
 10
8.7260138981
 20
5.4924440412
 30
0.0
 10
8.7526524178
 20
5.4597159467
 30
0.0
 10
8.7807739056
 20
5.4282292187
 30
0.0
 10
8.810310626
 20
5.39805954
 30
0.0
 10
8.8411911563
 20
5.3692795969
 30
0.0
 10
8.8733423883
 20
5.3419583105
 30
0.0
 10
8.9177634848
 20
5.3075905174
 30
0.0
 10
8.9760625791
 20
5.2685924775
 30
0.0
 10
9.0498277708
 20
5.2285716511
 30
0.0
 10
9.1266657139
 20
5.1957287431
 30
0.0
 10
9.2058383333
 20
5.1703831852
 30
0.0
 10
9.2865759571
 20
5.1527813082
 30
0.0
 10
9.3411340277
 20
5.1463001966
 30
0.0
 10
9.368399084
 20
5.1444093586
 30
0.0
  0
SPLINE
  5
3A5
100
AcDbEntity
  8
0
100
AcDbSpline
 62
7
  6
CONTINUOUS
 70
0
 71
3
 72
64
 73
60
 74
0
 42
0.0000001
 43
0.0000001
 44
0.0000000001
 40
0.0
 40
0.0
 40
0.0
 40
0.0
 40
0.0311830674
 40
0.0467008478
 40
0.0621656035
 40
0.077580314
 40
0.0929469982
 40
0.1082676194
 40
0.1235450534
 40
0.1387827119
 40
0.1539843784
 40
0.169154114
 40
0.1842963866
 40
0.1994159176
 40
0.2145177079
 40
0.2296068972
 40
0.2446888078
 40
0.2597688009
 40
0.2748522991
 40
0.289944644
 40
0.3050511237
 40
0.320176829
 40
0.3353266945
 40
0.3505053557
 40
0.3657171944
 40
0.3809661934
 40
0.3962560015
 40
0.4115897884
 40
0.4269703324
 40
0.4423998859
 40
0.4578802676
 40
0.4734127351
 40
0.4889980873
 40
0.5046365524
 40
0.5203278953
 40
0.5360713376
 40
0.551865648
 40
0.5677090891
 40
0.5835994915
 40
0.5995342345
 40
0.6155103003
 40
0.6315243016
 40
0.6475725053
 40
0.6636508895
 40
0.6797551433
 40
0.6958807523
 40
0.7120229781
 40
0.7281769781
 40
0.7443377676
 40
0.7605003478
 40
0.7766596612
 40
0.7928107186
 40
0.8089485556
 40
0.841156923
 40
0.8732567742
 40
0.9052155383
 40
0.9370054028
 40
0.968605258
 40
1.0
 40
1.0
 40
1.0
 40
1.0
 10
9.368399084
 20
5.1444093586
 30
0.0
 10
9.3954803095
 20
5.1425312692
 30
0.0
 10
9.4362137678
 20
5.1416940934
 30
0.0
 10
9.4902683787
 20
5.1446087337
 30
0.0
 10
9.5304604738
 20
5.1487916218
 30
0.0
 10
9.5702603254
 20
5.1549663986
 30
0.0
 10
9.6095757321
 20
5.1631159193
 30
0.0
 10
9.6483104381
 20
5.1732233046
 30
0.0
 10
9.686371406
 20
5.1852621175
 30
0.0
 10
9.723666366
 20
5.1992052054
 30
0.0
 10
9.7601060794
 20
5.2150173421
 30
0.0
 10
9.7956020156
 20
5.2326620081
 30
0.0
 10
9.8300691083
 20
5.2520954575
 30
0.0
 10
9.863423687
 20
5.2732718846
 30
0.0
 10
9.8955857403
 20
5.2961394696
 30
0.0
 10
9.9264773236
 20
5.3206436437
 30
0.0
 10
9.9560241215
 20
5.3467249915
 30
0.0
 10
9.9841548066
 20
5.3743207358
 30
0.0
 10
10.0108014127
 20
5.4033643821
 30
0.0
 10
10.0358999922
 20
5.4337856329
 30
0.0
 10
10.0593895005
 20
5.465511477
 30
0.0
 10
10.0812140661
 20
5.4984648596
 30
0.0
 10
10.1013201128
 20
5.5325668818
 30
0.0
 10
10.1196604245
 20
5.5677346053
 30
0.0
 10
10.1361894019
 20
5.6038839106
 30
0.0
 10
10.150868929
 20
5.6409268901
 30
0.0
 10
10.1636618186
 20
5.6787749103
 30
0.0
 10
10.1745393952
 20
5.7173360371
 30
0.0
 10
10.183473279
 20
5.7565178981
 30
0.0
 10
10.1904444414
 20
5.7962255285
 30
0.0
 10
10.1954336591
 20
5.8363636449
 30
0.0
 10
10.1984316319
 20
5.8768352299
 30
0.0
 10
10.1994285525
 20
5.9175429462
 30
0.0
 10
10.1984248328
 20
5.9583886767
 30
0.0
 10
10.1954202828
 20
5.9992739498
 30
0.0
 10
10.190424889
 20
6.0401005062
 30
0.0
 10
10.1834481951
 20
6.080769716
 30
0.0
 10
10.1745095505
 20
6.1211840886
 30
0.0
 10
10.163628221
 20
6.1612458113
 30
0.0
 10
10.1508326562
 20
6.2008590231
 30
0.0
 10
10.1361517312
 20
6.2399277287
 30
0.0
 10
10.1196226503
 20
6.2783585475
 30
0.0
 10
10.1012836633
 20
6.316058319
 30
0.0
 10
10.0811803389
 20
6.3529369572
 30
0.0
 10
10.0593599423
 20
6.3889051015
 30
0.0
 10
10.0358759755
 20
6.4238767222
 30
0.0
 10
10.01078427
 20
6.4577671956
 30
0.0
 10
9.9841457502
 20
6.4904952901
 30
0.0
 10
9.9560242625
 20
6.5219820181
 30
0.0
 10
9.9264875421
 20
6.5521516968
 30
0.0
 10
9.8956070118
 20
6.5809316398
 30
0.0
 10
9.8634557797
 20
6.6082529263
 30
0.0
 10
9.8190346832
 20
6.6426207194
 30
0.0
 10
9.760735589
 20
6.6816187593
 30
0.0
 10
9.6869703973
 20
6.7216395857
 30
0.0
 10
9.6101324541
 20
6.7544824937
 30
0.0
 10
9.5309598347
 20
6.7798280516
 30
0.0
 10
9.4502222109
 20
6.7974299285
 30
0.0
 10
9.3956641403
 20
6.8039110401
 30
0.0
 10
9.368399084
 20
6.8058018782
 30
0.0
  0
SPLINE
  5
3A6
100
AcDbEntity
  8
0
100
AcDbSpline
 62
7
  6
CONTINUOUS
 70
0
 71
3
 72
19
 73
15
 74
0
 42
0.0000001
 43
0.0000001
 44
0.0000000001
 40
0.0
 40
0.0
 40
0.0
 40
0.0
 40
0.1160059488
 40
0.1751612285
 40
0.235105173
 40
0.2958338276
 40
0.3573258634
 40
0.419542373
 40
0.4824260141
 40
0.5459049497
 40
0.6098974028
 40
0.7390731248
 40
0.8692884326
 40
1.0
 40
1.0
 40
1.0
 40
1.0
 10
10.2312478438
 20
5.5115955221
 30
0.0
 10
10.228836522
 20
5.5441651339
 30
0.0
 10
10.2255817881
 20
5.5933731041
 30
0.0
 10
10.2220729656
 20
5.6594690311
 30
0.0
 10
10.2198515764
 20
5.7100473739
 30
0.0
 10
10.2180880035
 20
5.7613020009
 30
0.0
 10
10.2168081863
 20
5.8132110314
 30
0.0
 10
10.2160328022
 20
5.8657368214
 30
0.0
 10
10.2157746291
 20
5.9188270618
 30
0.0
 10
10.2160377104
 20
5.9724172699
 30
0.0
 10
10.2170808281
 20
6.0446636256
 30
0.0
 10
10.219652125
 20
6.1356735106
 30
0.0
 10
10.2245547698
 20
6.2453922271
 30
0.0
 10
10.2288693034
 20
6.3187256568
 30
0.0
 10
10.2312478438
 20
6.35544748
 30
0.0
  0
SPLINE
  5
3A7
100
AcDbEntity
  8
0
100
AcDbSpline
 62
7
  6
CONTINUOUS
 70
0
 71
3
 72
21
 73
17
 74
0
 42
0.0000001
 43
0.0000001
 44
0.0000000001
 40
0.0
 40
0.0
 40
0.0
 40
0.0
 40
0.1257733018
 40
0.1889239453
 40
0.2522063355
 40
0.3155726155
 40
0.3789645059
 40
0.4423152755
 40
0.5055518774
 40
0.5686002626
 40
0.6313895627
 40
0.693856322
 40
0.7559490278
 40
0.8176287245
 40
0.8788698837
 40
1.0
 40
1.0
 40
1.0
 40
1.0
 10
10.1740383984
 20
6.4585046346
 30
0.0
 10
10.1417189615
 20
6.475554616
 30
0.0
 10
10.0933875477
 20
6.5015786102
 30
0.0
 10
10.0293942522
 20
6.5372724211
 30
0.0
 10
9.9815237876
 20
6.5646448884
 30
0.0
 10
9.9339051348
 20
6.5925919517
 30
0.0
 10
9.8866045482
 20
6.6211127908
 30
0.0
 10
9.8396917586
 20
6.6501958269
 30
0.0
 10
9.7932354818
 20
6.6798175431
 30
0.0
 10
9.747299501
 20
6.709943451
 30
0.0
 10
9.7019392293
 20
6.7405310976
 30
0.0
 10
9.6571977335
 20
6.7715318441
 30
0.0
 10
9.6131037465
 20
6.8028936617
 30
0.0
 10
9.5696717065
 20
6.8345652647
 30
0.0
 10
9.5128549396
 20
6.8769850414
 30
0.0
 10
9.4709025337
 20
6.9093554389
 30
0.0
 10
9.4432411658
 20
6.9311115738
 30
0.0
  0
SPLINE
  5
3A8
100
AcDbEntity
  8
0
100
AcDbSpline
 62
7
  6
CONTINUOUS
 70
0
 71
3
 72
15
 73
11
 74
0
 42
0.0000001
 43
0.0000001
 44
0.0000000001
 40
0.0
 40
0.0
 40
0.0
 40
0.0
 40
0.133690416
 40
0.2662119808
 40
0.3968882079
 40
0.524938004
 40
0.6496263551
 40
0.770438538
 40
0.8871875584
 40
1.0
 40
1.0
 40
1.0
 40
1.0
 10
9.328822275
 20
6.9390465508
 30
0.0
 10
9.2967007906
 20
6.9216419887
 30
0.0
 10
9.2326566247
 20
6.8871360641
 30
0.0
 10
9.1368831351
 20
6.8362371641
 30
0.0
 10
9.0421366247
 20
6.7866949804
 30
0.0
 10
8.9489206876
 20
6.7388514067
 30
0.0
 10
8.8577223078
 20
6.692987526
 30
0.0
 10
8.7689094141
 20
6.6492616442
 30
0.0
 10
8.6826613375
 20
6.6076814323
 30
0.0
 10
8.6259436804
 20
6.5808757567
 30
0.0
 10
8.5980250425
 20
6.5678015321
 30
0.0
  0
SPLINE
  5
3A9
100
AcDbEntity
  8
0
100
AcDbSpline
 62
7
  6
CONTINUOUS
 70
0
 71
3
 72
15
 73
11
 74
0
 42
0.0000001
 43
0.0000001
 44
0.0000000001
 40
0.0
 40
0.0
 40
0.0
 40
0.0
 40
0.1259387151
 40
0.2515500552
 40
0.3768604883
 40
0.5018988711
 40
0.6266970376
 40
0.7512889617
 40
0.8757107437
 40
1.0
 40
1.0
 40
1.0
 40
1.0
 10
11.6334098522
 20
6.9651107403
 30
0.0
 10
11.6211752625
 20
6.9619225474
 30
0.0
 10
11.5968883266
 20
6.9549596728
 30
0.0
 10
11.561060035
 20
6.9427610656
 30
0.0
 10
11.5259574022
 20
6.9288498508
 30
0.0
 10
11.4916594392
 20
6.9132550235
 30
0.0
 10
11.4582405574
 20
6.896012534
 30
0.0
 10
11.4257749237
 20
6.8771583565
 30
0.0
 10
11.3943339288
 20
6.8567363176
 30
0.0
 10
11.3740920369
 20
6.8420970643
 30
0.0
 10
11.3641679619
 20
6.8345338171
 30
0.0
  0
SPLINE
  5
3AA
100
AcDbEntity
  8
0
100
AcDbSpline
 62
7
  6
CONTINUOUS
 70
0
 71
3
 72
35
 73
31
 74
0
 42
0.0000001
 43
0.0000001
 44
0.0000000001
 40
0.0
 40
0.0
 40
0.0
 40
0.0
 40
0.0612906693
 40
0.1229878739
 40
0.1539915337
 40
0.1850872977
 40
0.2162696171
 40
0.2475327476
 40
0.2788701874
 40
0.3102745649
 40
0.3417379897
 40
0.3732520333
 40
0.4048078488
 40
0.4363961973
 40
0.468007577
 40
0.4996322754
 40
0.5312604555
 40
0.562882252
 40
0.5944878596
 40
0.6260676278
 40
0.6576121068
 40
0.6891121837
 40
0.720559106
 40
0.7519446068
 40
0.7832608858
 40
0.8145009644
 40
0.845658577
 40
0.8767276093
 40
0.9385638178
 40
1.0
 40
1.0
 40
1.0
 40
1.0
 10
12.7180396502
 20
6.1056101418
 30
0.0
 10
12.7180396502
 20
6.1327176674
 30
0.0
 10
12.7153581289
 20
6.1871463477
 30
0.0
 10
12.7054257249
 20
6.2546353005
 30
0.0
 10
12.6935964586
 20
6.3081126322
 30
0.0
 10
12.6827791362
 20
6.3479423997
 30
0.0
 10
12.6700573242
 20
6.3873249814
 30
0.0
 10
12.6554622157
 20
6.4261667309
 30
0.0
 10
12.6390288958
 20
6.4643739473
 30
0.0
 10
12.6207967635
 20
6.5018546636
 30
0.0
 10
12.6008101992
 20
6.5385188469
 30
0.0
 10
12.5791166678
 20
6.5742778667
 30
0.0
 10
12.555769341
 20
6.6090462348
 30
0.0
 10
12.5308233397
 20
6.6427395222
 30
0.0
 10
12.5043399489
 20
6.6752775536
 30
0.0
 10
12.4763816367
 20
6.7065809565
 30
0.0
 10
12.4470170092
 20
6.7365755434
 30
0.0
 10
12.4163155061
 20
6.7651878906
 30
0.0
 10
12.3843521648
 20
6.7923503364
 30
0.0
 10
12.3512029192
 20
6.8179963297
 30
0.0
 10
12.3169483725
 20
6.842065169
 30
0.0
 10
12.2816703317
 20
6.8644980116
 30
0.0
 10
12.2454541333
 20
6.8852414822
 30
0.0
 10
12.2083867345
 20
6.9042451745
 30
0.0
 10
12.1705573695
 20
6.9214635073
 30
0.0
 10
12.1320573016
 20
6.9368550722
 30
0.0
 10
12.0929780248
 20
6.9503823364
 30
0.0
 10
12.040318935
 20
6.9658638409
 30
0.0
 10
11.9735183122
 20
6.9804283849
 30
0.0
 10
11.9192797964
 20
6.9868709562
 30
0.0
 10
11.8921730198
 20
6.9887508175
 30
0.0
  0
SPLINE
  5
3AB
100
AcDbEntity
  8
0
100
AcDbSpline
 62
7
  6
CONTINUOUS
 70
0
 71
3
 72
16
 73
12
 74
0
 42
0.0000001
 43
0.0000001
 44
0.0000000001
 40
0.0
 40
0.0
 40
0.0
 40
0.0
 40
0.1236450025
 40
0.1855976618
 40
0.2476386809
 40
0.3719893701
 40
0.496733349
 40
0.6218884842
 40
0.7474788994
 40
0.8735266243
 40
1.0
 40
1.0
 40
1.0
 40
1.0
 10
12.6485618384
 20
5.7788694387
 30
0.0
 10
12.6542756535
 20
5.7915081363
 30
0.0
 10
12.6623382635
 20
5.8107182062
 30
0.0
 10
12.672042212
 20
5.8367503982
 30
0.0
 10
12.6810669847
 20
5.8631101566
 30
0.0
 10
12.6910355234
 20
5.896577882
 30
0.0
 10
12.7008572789
 20
5.9374154687
 30
0.0
 10
12.7085230451
 20
5.9788538257
 30
0.0
 10
12.7140122375
 20
6.0207837259
 30
0.0
 10
12.7173087001
 20
6.0630896917
 30
0.0
 10
12.7180396502
 20
6.0914225911
 30
0.0
 10
12.7180396502
 20
6.1056101418
 30
0.0
  0
SPLINE
  5
3AC
100
AcDbEntity
  8
0
100
AcDbSpline
 62
7
  6
CONTINUOUS
 70
0
 71
3
 72
22
 73
18
 74
0
 42
0.0000001
 43
0.0000001
 44
0.0000000001
 40
0.0
 40
0.0
 40
0.0
 40
0.0
 40
0.0662627889
 40
0.1328022627
 40
0.1995323899
 40
0.2663327743
 40
0.3994321266
 40
0.4652792355
 40
0.5303098426
 40
0.5942641163
 40
0.6569139169
 40
0.7180845853
 40
0.777666605
 40
0.8356161461
 40
0.8919456067
 40
0.9467124961
 40
1.0
 40
1.0
 40
1.0
 40
1.0
 10
12.6299793281
 20
5.5785923504
 30
0.0
 10
12.6319725609
 20
5.5971729616
 30
0.0
 10
12.6357997264
 20
5.634430035
 30
0.0
 10
12.6409899992
 20
5.6904625964
 30
0.0
 10
12.6455707136
 20
5.7467008974
 30
0.0
 10
12.6507570518
 20
5.8217171383
 30
0.0
 10
12.6544218058
 20
5.8965853646
 30
0.0
 10
12.6563072094
 20
5.9710101821
 30
0.0
 10
12.6567867969
 20
6.0259567236
 30
0.0
 10
12.6563228714
 20
6.0800016853
 30
0.0
 10
12.6549282085
 20
6.1329417733
 30
0.0
 10
12.6526404783
 20
6.1846164891
 30
0.0
 10
12.6495172149
 20
6.2349192531
 30
0.0
 10
12.6456288949
 20
6.2837989469
 30
0.0
 10
12.6410520334
 20
6.3312546848
 30
0.0
 10
12.6358633692
 20
6.3773242158
 30
0.0
 10
12.6319945178
 20
6.4075520662
 30
0.0
 10
12.6299793281
 20
6.4224443083
 30
0.0
  0
SPLINE
  5
3AD
100
AcDbEntity
  8
0
100
AcDbSpline
 62
7
  6
CONTINUOUS
 70
0
 71
3
 72
22
 73
18
 74
0
 42
0.0000001
 43
0.0000001
 44
0.0000000001
 40
0.0
 40
0.0
 40
0.0
 40
0.0
 40
0.0578974882
 40
0.1168076123
 40
0.1767563582
 40
0.2377431684
 40
0.2997246356
 40
0.362608436
 40
0.4262493434
 40
0.4904549021
 40
0.5550003489
 40
0.6196506978
 40
0.6841843697
 40
0.7484122155
 40
0.8121886095
 40
0.8754127419
 40
1.0
 40
1.0
 40
1.0
 40
1.0
 10
12.5727698827
 20
6.5255014629
 30
0.0
 10
12.5602627714
 20
6.5368239225
 30
0.0
 10
12.5348496239
 20
6.5594688879
 30
0.0
 10
12.4958190336
 20
6.5930795999
 30
0.0
 10
12.455487449
 20
6.626546582
 30
0.0
 10
12.4138085622
 20
6.6597761333
 30
0.0
 10
12.3707692293
 20
6.6926533092
 30
0.0
 10
12.3264007959
 20
6.7250438835
 30
0.0
 10
12.2807849787
 20
6.7568016914
 30
0.0
 10
12.2340539426
 20
6.7877797911
 30
0.0
 10
12.1863819045
 20
6.8178442229
 30
0.0
 10
12.1379695402
 20
6.8468871787
 30
0.0
 10
12.0890245559
 20
6.8748363286
 30
0.0
 10
12.0397432704
 20
6.9016583231
 30
0.0
 10
11.9902967484
 20
6.9273565106
 30
0.0
 10
11.9246551404
 20
6.9600067234
 30
0.0
 10
11.8750675282
 20
6.9831856295
 30
0.0
 10
11.8419726501
 20
6.9981084021
 30
0.0
  0
SPLINE
  5
3AE
100
AcDbEntity
  8
0
100
AcDbSpline
 62
7
  6
CONTINUOUS
 70
0
 71
3
 72
15
 73
11
 74
0
 42
0.0000001
 43
0.0000001
 44
0.0000000001
 40
0.0
 40
0.0
 40
0.0
 40
0.0
 40
0.1024590394
 40
0.2125892926
 40
0.3308757892
 40
0.4568382862
 40
0.5888686932
 40
0.7247066359
 40
0.8622407571
 40
1.0
 40
1.0
 40
1.0
 40
1.0
 10
11.7275537593
 20
7.0060433791
 30
0.0
 10
11.7018667805
 20
6.9948805223
 30
0.0
 10
11.6487318897
 20
6.9713434874
 30
0.0
 10
11.5665853812
 20
6.9334866587
 30
0.0
 10
11.4792455691
 20
6.8915749926
 30
0.0
 10
11.3872102296
 20
6.8456398165
 30
0.0
 10
11.2915913641
 20
6.796167668
 30
0.0
 10
11.1938238571
 20
6.7439864207
 30
0.0
 10
11.0952494676
 20
6.690006717
 30
0.0
 10
11.0295621944
 20
6.6532875553
 30
0.0
 10
10.9967565268
 20
6.6347983604
 30
0.0
  0
SPLINE
  5
3AF
100
AcDbEntity
  8
0
100
AcDbSpline
 62
7
  6
CONTINUOUS
 70
0
 71
3
 72
20
 73
16
 74
0
 42
0.0000001
 43
0.0000001
 44
0.0000000001
 40
0.0
 40
0.0
 40
0.0
 40
0.0
 40
0.1307118504
 40
0.2609271596
 40
0.3256853614
 40
0.3901038075
 40
0.4540959115
 40
0.5175746912
 40
0.5804579524
 40
0.6426740239
 40
0.7041660739
 40
0.7648946165
 40
0.8248383834
 40
0.8839938085
 40
1.0
 40
1.0
 40
1.0
 40
1.0
 10
10.714148835
 20
6.3219581825
 30
0.0
 10
10.7117702865
 20
6.2852362348
 30
0.0
 10
10.7074556876
 20
6.2119027923
 30
0.0
 10
10.7033627931
 20
6.1203011152
 30
0.0
 10
10.701002519
 20
6.0473126752
 30
0.0
 10
10.6997187615
 20
5.9929448904
 30
0.0
 10
10.6989387023
 20
5.9389277343
 30
0.0
 10
10.698675466
 20
5.8853377364
 30
0.0
 10
10.6989338087
 20
5.8322476983
 30
0.0
 10
10.6997092563
 20
5.7797220739
 30
0.0
 10
10.7009889106
 20
5.7278131261
 30
0.0
 10
10.7027525148
 20
5.6765585144
 30
0.0
 10
10.704973971
 20
5.6259801534
 30
0.0
 10
10.7084827288
 20
5.5598840824
 30
0.0
 10
10.7117375052
 20
5.5106759445
 30
0.0
 10
10.714148835
 20
5.4781062246
 30
0.0
  0
SPLINE
  5
3B0
100
AcDbEntity
  8
0
100
AcDbSpline
 62
7
  6
CONTINUOUS
 70
0
 71
3
 72
21
 73
17
 74
0
 42
0.0000001
 43
0.0000001
 44
0.0000000001
 40
0.0
 40
0.0
 40
0.0
 40
0.0
 40
0.1211305215
 40
0.1823718855
 40
0.2440515074
 40
0.3061441797
 40
0.3686109568
 40
0.4313999269
 40
0.4944480864
 40
0.5576845339
 40
0.6210350022
 40
0.684426846
 40
0.7477930962
 40
0.8110754374
 40
0.8742262746
 40
1.0
 40
1.0
 40
1.0
 40
1.0
 10
10.7713582804
 20
5.37504907
 30
0.0
 10
10.7990197409
 20
5.3532928622
 30
0.0
 10
10.8409722624
 20
5.3209223233
 30
0.0
 10
10.8977892107
 20
5.2785025295
 30
0.0
 10
10.9412212222
 20
5.2468308407
 30
0.0
 10
10.9853151636
 20
5.2154690023
 30
0.0
 10
11.0300566986
 20
5.1844684883
 30
0.0
 10
11.0754167926
 20
5.1538808606
 30
0.0
 10
11.1213524703
 20
5.1237548644
 30
0.0
 10
11.1678087107
 20
5.094133457
 30
0.0
 10
11.2147214175
 20
5.0650505673
 30
0.0
 10
11.2620218017
 20
5.0365296046
 30
0.0
 10
11.3096404462
 20
5.008582597
 30
0.0
 10
11.3575109809
 20
4.9812101856
 30
0.0
 10
11.4215043756
 20
4.9455162137
 30
0.0
 10
11.4698359671
 20
4.9194921697
 30
0.0
 10
11.5021555129
 20
4.9024421308
 30
0.0
  0
SPLINE
  5
3B1
100
AcDbEntity
  8
0
100
AcDbSpline
 62
7
  6
CONTINUOUS
 70
0
 71
3
 72
15
 73
11
 74
0
 42
0.0000001
 43
0.0000001
 44
0.0000000001
 40
0.0
 40
0.0
 40
0.0
 40
0.0
 40
0.1128128137
 40
0.2295619377
 40
0.3503742146
 40
0.4750618339
 40
0.6031113457
 40
0.7337873942
 40
0.8663091291
 40
1.0
 40
1.0
 40
1.0
 40
1.0
 10
11.6165744038
 20
4.8945071538
 30
0.0
 10
11.6444931338
 20
4.9075814216
 30
0.0
 10
11.7012109062
 20
4.9343871571
 30
0.0
 10
11.7874591386
 20
4.9759674051
 30
0.0
 10
11.8762718581
 20
5.0196933095
 30
0.0
 10
11.9674700803
 20
5.0655569432
 30
0.0
 10
12.0606856592
 20
5.1134005002
 30
0.0
 10
12.1554321429
 20
5.1629425618
 30
0.0
 10
12.2512057236
 20
5.2138415508
 30
0.0
 10
12.3152500426
 20
5.2483475512
 30
0.0
 10
12.3473716363
 20
5.2657521725
 30
0.0
  0
SPLINE
  5
3B2
100
AcDbEntity
  8
0
100
AcDbSpline
 62
7
  6
CONTINUOUS
 70
0
 71
3
 72
15
 73
11
 74
0
 42
0.0000001
 43
0.0000001
 44
0.0000000001
 40
0.0
 40
0.0
 40
0.0
 40
0.0
 40
0.1235752096
 40
0.2474950402
 40
0.3717979941
 40
0.4965172206
 40
0.6216760548
 40
0.7472994836
 40
0.8734166375
 40
1.0
 40
1.0
 40
1.0
 40
1.0
 10
12.6470480053
 20
5.7638408946
 30
0.0
 10
12.6537206785
 20
5.7772782188
 30
0.0
 10
12.6662916747
 20
5.8045924274
 30
0.0
 10
12.6827300616
 20
5.8466579845
 30
0.0
 10
12.6967273841
 20
5.8897450759
 30
0.0
 10
12.7082375835
 20
5.9337169888
 30
0.0
 10
12.7172269568
 20
5.978435879
 30
0.0
 10
12.7236664676
 20
6.0237640588
 30
0.0
 10
12.7275349647
 20
6.0695554068
 30
0.0
 10
12.7283924035
 20
6.1002420491
 30
0.0
 10
12.7283924035
 20
6.1156101341
 30
0.0
  0
SPLINE
  5
3B3
100
AcDbEntity
  8
0
100
AcDbSpline
 62
7
  6
CONTINUOUS
 70
0
 71
3
 72
67
 73
63
 74
0
 42
0.0000001
 43
0.0000001
 44
0.0000000001
 40
0.0
 40
0.0
 40
0.0
 40
0.0
 40
0.0156208593
 40
0.0311919602
 40
0.0467088386
 40
0.062173276
 40
0.0775878162
 40
0.0929540716
 40
0.1082742252
 40
0.1235512559
 40
0.1387885557
 40
0.153989822
 40
0.1691591733
 40
0.1843010435
 40
0.1994201892
 40
0.2145215786
 40
0.2296103873
 40
0.2446919059
 40
0.2597715155
 40
0.274854618
 40
0.2899465735
 40
0.3050526605
 40
0.3201779774
 40
0.3353274489
 40
0.3505057208
 40
0.3657171655
 40
0.380965775
 40
0.3962551812
 40
0.4115885727
 40
0.4269687104
 40
0.4423978773
 40
0.4578778561
 40
0.4734099318
 40
0.488994865
 40
0.5203145517
 40
0.5518423775
 40
0.5676854147
 40
0.5835753953
 40
0.5995097291
 40
0.6154853795
 40
0.6314989709
 40
0.64754676
 40
0.6636247272
 40
0.6797285675
 40
0.6958537564
 40
0.7119955667
 40
0.728149142
 40
0.744309521
 40
0.7604716816
 40
0.7766305859
 40
0.7927812171
 40
0.8089186391
 40
0.8250380274
 40
0.8411347282
 40
0.8572042684
 40
0.873242422
 40
0.8892452006
 40
0.9052090392
 40
0.9211307392
 40
0.9370071758
 40
0.9686057956
 40
1.0
 40
1.0
 40
1.0
 40
1.0
 10
11.5417323219
 20
6.6550807063
 30
0.0
 10
11.5281658897
 20
6.6560215415
 30
0.0
 10
11.5010256324
 20
6.6572391671
 30
0.0
 10
11.4603470844
 20
6.6570639755
 30
0.0
 10
11.419861937
 20
6.6548813758
 30
0.0
 10
11.3796715189
 20
6.6506982605
 30
0.0
 10
11.3398709477
 20
6.6445239606
 30
0.0
 10
11.3005556209
 20
6.6363740112
 30
0.0
 10
11.2618208973
 20
6.6262669588
 30
0.0
 10
11.2237601072
 20
6.614227743
 30
0.0
 10
11.1864649349
 20
6.6002851552
 30
0.0
 10
11.1500254091
 20
6.5844725071
 30
0.0
 10
11.1145292329
 20
6.5668283375
 30
0.0
 10
11.08006242
 20
6.5473943858
 30
0.0
 10
11.0467075319
 20
6.5262184683
 30
0.0
 10
11.0145458084
 20
6.5033504079
 30
0.0
 10
10.9836538836
 20
6.4788466685
 30
0.0
 10
10.9541074079
 20
6.4527649305
 30
0.0
 10
10.9259764163
 20
6.4251695034
 30
0.0
 10
10.8993300681
 20
6.3961256098
 30
0.0
 10
10.874231303
 20
6.3657045252
 30
0.0
 10
10.8507418994
 20
6.3339785922
 30
0.0
 10
10.8289173348
 20
6.3010252168
 30
0.0
 10
10.8088111716
 20
6.2669232496
 30
0.0
 10
10.7904711043
 20
6.2317554046
 30
0.0
 10
10.7739417494
 20
6.1956062556
 30
0.0
 10
10.7592627346
 20
6.1585630805
 30
0.0
 10
10.7464692011
 20
6.1207152714
 30
0.0
 10
10.7355923966
 20
6.0821539398
 30
0.0
 10
10.7266576268
 20
6.0429722831
 30
0.0
 10
10.7196874479
 20
6.0032644321
 30
0.0
 10
10.7146971582
 20
5.9631266116
 30
0.0
 10
10.7117003325
 20
5.9226542579
 30
0.0
 10
10.7103673497
 20
5.8682967115
 30
0.0
 10
10.7137332806
 20
5.7999829278
 30
0.0
 10
10.7237237274
 20
5.7320964616
 30
0.0
 10
10.7356221421
 20
5.6783066367
 30
0.0
 10
10.7465028345
 20
5.6382439912
 30
0.0
 10
10.7592989899
 20
5.5986311766
 30
0.0
 10
10.7739794309
 20
5.5595622339
 30
0.0
 10
10.7905088716
 20
5.5211315742
 30
0.0
 10
10.8088476249
 20
5.4834316868
 30
0.0
 10
10.8289510609
 20
5.4465530997
 30
0.0
 10
10.8507714567
 20
5.4105849607
 30
0.0
 10
10.8742553218
 20
5.375613262
 30
0.0
 10
10.899347209
 20
5.3417229344
 30
0.0
 10
10.9259854717
 20
5.3089946255
 30
0.0
 10
10.9541072768
 20
5.277508166
 30
0.0
 10
10.9836436266
 20
5.2473381742
 30
0.0
 10
11.014524675
 20
5.2185585008
 30
0.0
 10
11.0466749389
 20
5.1912372057
 30
0.0
 10
11.0800180393
 20
5.1654412363
 30
0.0
 10
11.1144729025
 20
5.1412316467
 30
0.0
 10
11.1499572464
 20
5.118667618
 30
0.0
 10
11.1863852375
 20
5.0978028394
 30
0.0
 10
11.2236694067
 20
5.078688014
 30
0.0
 10
11.2617199946
 20
5.0613689889
 30
0.0
 10
11.3004452069
 20
5.0458874159
 30
0.0
 10
11.3397530174
 20
5.0322810459
 30
0.0
 10
11.3927200559
 20
5.0167090051
 30
0.0
 10
11.4599113266
 20
5.0020592883
 30
0.0
 10
11.5144670264
 20
4.9955790413
 30
0.0
 10
11.5417323219
 20
4.9936881866
 30
0.0
  0
SPLINE
  5
3B4
100
AcDbEntity
  8
0
100
AcDbSpline
 62
7
  6
CONTINUOUS
 70
0
 71
3
 72
67
 73
63
 74
0
 42
0.0000001
 43
0.0000001
 44
0.0000000001
 40
0.0
 40
0.0
 40
0.0
 40
0.0
 40
0.0156208593
 40
0.0311919602
 40
0.0467088386
 40
0.062173276
 40
0.0775878162
 40
0.0929540716
 40
0.1082742252
 40
0.1235512559
 40
0.1387885557
 40
0.153989822
 40
0.1691591733
 40
0.1843010435
 40
0.1994201892
 40
0.2145215786
 40
0.2296103873
 40
0.2446919059
 40
0.2597715155
 40
0.274854618
 40
0.2899465735
 40
0.3050526605
 40
0.3201779774
 40
0.3353274489
 40
0.3505057208
 40
0.3657171655
 40
0.380965775
 40
0.3962551812
 40
0.4115885727
 40
0.4269687104
 40
0.4423978773
 40
0.4578778561
 40
0.4734099318
 40
0.488994865
 40
0.5203145517
 40
0.5518423775
 40
0.5676854147
 40
0.5835753953
 40
0.5995097291
 40
0.6154853795
 40
0.6314989709
 40
0.64754676
 40
0.6636247272
 40
0.6797285675
 40
0.6958537564
 40
0.7119955667
 40
0.728149142
 40
0.744309521
 40
0.7604716816
 40
0.7766305859
 40
0.7927812171
 40
0.8089186391
 40
0.8250380274
 40
0.8411347282
 40
0.8572042684
 40
0.873242422
 40
0.8892452006
 40
0.9052090392
 40
0.9211307392
 40
0.9370071758
 40
0.9686057956
 40
1.0
 40
1.0
 40
1.0
 40
1.0
 10
11.5417323219
 20
4.9936881866
 30
0.0
 10
11.5552987541
 20
4.9927473513
 30
0.0
 10
11.5824390115
 20
4.9915297258
 30
0.0
 10
11.6231175595
 20
4.9917049173
 30
0.0
 10
11.6636027069
 20
4.9938875171
 30
0.0
 10
11.703793125
 20
4.9980706323
 30
0.0
 10
11.7435936962
 20
5.0042449322
 30
0.0
 10
11.782909023
 20
5.0123948817
 30
0.0
 10
11.8216437466
 20
5.0225019341
 30
0.0
 10
11.8597045367
 20
5.0345411499
 30
0.0
 10
11.896999709
 20
5.0484837377
 30
0.0
 10
11.9334392348
 20
5.0642963857
 30
0.0
 10
11.968935411
 20
5.0819405553
 30
0.0
 10
12.0034022239
 20
5.1013745071
 30
0.0
 10
12.036757112
 20
5.1225504245
 30
0.0
 10
12.0689188355
 20
5.145418485
 30
0.0
 10
12.0998107603
 20
5.1699222244
 30
0.0
 10
12.129357236
 20
5.1960039623
 30
0.0
 10
12.1574882276
 20
5.2235993895
 30
0.0
 10
12.1841345758
 20
5.252643283
 30
0.0
 10
12.2092333409
 20
5.2830643676
 30
0.0
 10
12.2327227445
 20
5.3147903007
 30
0.0
 10
12.254547309
 20
5.347743676
 30
0.0
 10
12.2746534722
 20
5.3818456433
 30
0.0
 10
12.2929935395
 20
5.4170134883
 30
0.0
 10
12.3095228945
 20
5.4531626372
 30
0.0
 10
12.3242019093
 20
5.4902058124
 30
0.0
 10
12.3369954428
 20
5.5280536215
 30
0.0
 10
12.3478722473
 20
5.5666149531
 30
0.0
 10
12.3568070171
 20
5.6057966097
 30
0.0
 10
12.363777196
 20
5.6455044607
 30
0.0
 10
12.3687674857
 20
5.6856422812
 30
0.0
 10
12.3717643114
 20
5.726114635
 30
0.0
 10
12.3730972942
 20
5.7804721814
 30
0.0
 10
12.3697313633
 20
5.848785965
 30
0.0
 10
12.3597409165
 20
5.9166724312
 30
0.0
 10
12.3478425018
 20
5.9704622561
 30
0.0
 10
12.3369618094
 20
6.0105249016
 30
0.0
 10
12.324165654
 20
6.0501377162
 30
0.0
 10
12.309485213
 20
6.0892066589
 30
0.0
 10
12.2929557723
 20
6.1276373187
 30
0.0
 10
12.274617019
 20
6.1653372061
 30
0.0
 10
12.254513583
 20
6.2022157931
 30
0.0
 10
12.2326931872
 20
6.2381839321
 30
0.0
 10
12.209209322
 20
6.2731556309
 30
0.0
 10
12.1841174349
 20
6.3070459585
 30
0.0
 10
12.1574791722
 20
6.3397742673
 30
0.0
 10
12.1293573671
 20
6.3712607268
 30
0.0
 10
12.0998210173
 20
6.4014307187
 30
0.0
 10
12.0689399689
 20
6.430210392
 30
0.0
 10
12.036789705
 20
6.4575316871
 30
0.0
 10
12.0034466046
 20
6.4833276566
 30
0.0
 10
11.9689917414
 20
6.5075372461
 30
0.0
 10
11.9335073975
 20
6.5301012748
 30
0.0
 10
11.8970794064
 20
6.5509660534
 30
0.0
 10
11.8597952372
 20
6.5700808788
 30
0.0
 10
11.8217446493
 20
6.5873999039
 30
0.0
 10
11.783019437
 20
6.602881477
 30
0.0
 10
11.7437116265
 20
6.616487847
 30
0.0
 10
11.690744588
 20
6.6320598877
 30
0.0
 10
11.6235533173
 20
6.6467096045
 30
0.0
 10
11.5689976175
 20
6.6531898516
 30
0.0
 10
11.5417323219
 20
6.6550807063
 30
0.0
  0
SPLINE
  5
3B5
100
AcDbEntity
  8
0
100
AcDbSpline
 62
7
  6
CONTINUOUS
 70
0
 71
3
 72
15
 73
11
 74
0
 42
0.0000001
 43
0.0000001
 44
0.0000000001
 40
0.0
 40
0.0
 40
0.0
 40
0.0
 40
0.1261304062
 40
0.251857918
 40
0.3772174985
 40
0.502247911
 40
0.6269926351
 40
0.751498858
 40
0.8758169754
 40
1.0
 40
1.0
 40
1.0
 40
1.0
 10
11.6728453359
 20
6.9820985163
 30
0.0
 10
11.6582761189
 20
6.9788906441
 30
0.0
 10
11.6293597837
 20
6.9716545693
 30
0.0
 10
11.5867493391
 20
6.958349889
 30
0.0
 10
11.5450986359
 20
6.9426515401
 30
0.0
 10
11.5045367256
 20
6.9246071467
 30
0.0
 10
11.4651865207
 20
6.9042725927
 30
0.0
 10
11.4271684545
 20
6.8817082143
 30
0.0
 10
11.3905993941
 20
6.8569851727
 30
0.0
 10
11.3672476272
 20
6.8391034271
 30
0.0
 10
11.3558550719
 20
6.8298328774
 30
0.0
  0
SPLINE
  5
3B6
100
AcDbEntity
  8
0
100
AcDbSpline
 62
7
  6
CONTINUOUS
 70
0
 71
3
 72
35
 73
31
 74
0
 42
0.0000001
 43
0.0000001
 44
0.0000000001
 40
0.0
 40
0.0
 40
0.0
 40
0.0
 40
0.0612906693
 40
0.1229878739
 40
0.1539915337
 40
0.1850872977
 40
0.2162696171
 40
0.2475327476
 40
0.2788701874
 40
0.3102745649
 40
0.3417379897
 40
0.3732520333
 40
0.4048078488
 40
0.4363961973
 40
0.468007577
 40
0.4996322754
 40
0.5312604555
 40
0.562882252
 40
0.5944878596
 40
0.6260676278
 40
0.6576121068
 40
0.6891121837
 40
0.720559106
 40
0.7519446068
 40
0.7832608858
 40
0.8145009644
 40
0.845658577
 40
0.8767276093
 40
0.9385638178
 40
1.0
 40
1.0
 40
1.0
 40
1.0
 10
12.7283924035
 20
6.1156101341
 30
0.0
 10
12.7283924035
 20
6.1427176597
 30
0.0
 10
12.7257108821
 20
6.1971463401
 30
0.0
 10
12.7157784781
 20
6.2646352929
 30
0.0
 10
12.7039492119
 20
6.3181126245
 30
0.0
 10
12.6931318894
 20
6.3579423921
 30
0.0
 10
12.6804100774
 20
6.3973249737
 30
0.0
 10
12.665814969
 20
6.4361667232
 30
0.0
 10
12.649381649
 20
6.4743739396
 30
0.0
 10
12.6311495167
 20
6.5118546559
 30
0.0
 10
12.6111629525
 20
6.5485188392
 30
0.0
 10
12.589469421
 20
6.584277859
 30
0.0
 10
12.5661220943
 20
6.6190462271
 30
0.0
 10
12.5411760929
 20
6.6527395145
 30
0.0
 10
12.5146927021
 20
6.6852775459
 30
0.0
 10
12.48673439
 20
6.7165809488
 30
0.0
 10
12.4573697624
 20
6.7465755357
 30
0.0
 10
12.4266682593
 20
6.775187883
 30
0.0
 10
12.394704918
 20
6.8023503287
 30
0.0
 10
12.3615556724
 20
6.8279963221
 30
0.0
 10
12.3273011258
 20
6.8520651614
 30
0.0
 10
12.2920230849
 20
6.874498004
 30
0.0
 10
12.2558068866
 20
6.8952414746
 30
0.0
 10
12.2187394877
 20
6.9142451668
 30
0.0
 10
12.1809101228
 20
6.9314634997
 30
0.0
 10
12.1424100549
 20
6.9468550646
 30
0.0
 10
12.103330778
 20
6.9603823287
 30
0.0
 10
12.0506716882
 20
6.9758638333
 30
0.0
 10
11.9838710655
 20
6.9904283773
 30
0.0
 10
11.9296325496
 20
6.9968709485
 30
0.0
 10
11.9025257731
 20
6.9987508099
 30
0.0
  0
SPLINE
  5
3B7
100
AcDbEntity
  8
0
100
AcDbSpline
 62
7
  6
CONTINUOUS
 70
0
 71
3
 72
20
 73
16
 74
0
 42
0.0000001
 43
0.0000001
 44
0.0000000001
 40
0.0
 40
0.0
 40
0.0
 40
0.0
 40
0.1160061915
 40
0.1751616166
 40
0.2351053835
 40
0.2958339261
 40
0.3573259761
 40
0.4195420477
 40
0.4824253089
 40
0.5459040886
 40
0.6098961925
 40
0.6743146387
 40
0.7390728404
 40
0.8692881496
 40
1.0
 40
1.0
 40
1.0
 40
1.0
 10
12.4045810817
 20
5.3608743501
 30
0.0
 10
12.4021697519
 20
5.39344407
 30
0.0
 10
12.3989149756
 20
5.4426522079
 30
0.0
 10
12.3954062178
 20
5.5087482789
 30
0.0
 10
12.3931847615
 20
5.5593266399
 30
0.0
 10
12.3914211574
 20
5.6105812517
 30
0.0
 10
12.3901415031
 20
5.6624901995
 30
0.0
 10
12.3893660554
 20
5.7150158238
 30
0.0
 10
12.3891077127
 20
5.768105862
 30
0.0
 10
12.3893709491
 20
5.8216958599
 30
0.0
 10
12.3901510083
 20
5.875713016
 30
0.0
 10
12.3914347658
 20
5.9300808008
 30
0.0
 10
12.3937950398
 20
6.0030692408
 30
0.0
 10
12.3978879344
 20
6.0946709179
 30
0.0
 10
12.4022025332
 20
6.1680043603
 30
0.0
 10
12.4045810817
 20
6.204726308
 30
0.0
  0
SPLINE
  5
3B8
100
AcDbEntity
  8
0
100
AcDbSpline
 62
7
  6
CONTINUOUS
 70
0
 71
3
 72
21
 73
17
 74
0
 42
0.0000001
 43
0.0000001
 44
0.0000000001
 40
0.0
 40
0.0
 40
0.0
 40
0.0
 40
0.1257737254
 40
0.1889245626
 40
0.2522069038
 40
0.3155731541
 40
0.3789649978
 40
0.4423154662
 40
0.5055519136
 40
0.5686000731
 40
0.6313890432
 40
0.6938558204
 40
0.7559484927
 40
0.8176281145
 40
0.8788694786
 40
1.0
 40
1.0
 40
1.0
 40
1.0
 10
12.3473716363
 20
6.3077834627
 30
0.0
 10
12.3150520905
 20
6.3248335015
 30
0.0
 10
12.266720499
 20
6.3508575455
 30
0.0
 10
12.2027271042
 20
6.3865515174
 30
0.0
 10
12.1548565696
 20
6.4139239289
 30
0.0
 10
12.1072379251
 20
6.4418709364
 30
0.0
 10
12.0599375409
 20
6.4703918992
 30
0.0
 10
12.0130248341
 20
6.4994747889
 30
0.0
 10
11.9665685937
 20
6.5290961962
 30
0.0
 10
11.9206329159
 20
6.5592221924
 30
0.0
 10
11.8752728219
 20
6.5898098201
 30
0.0
 10
11.830531287
 20
6.6208103341
 30
0.0
 10
11.7864373456
 20
6.6521721726
 30
0.0
 10
11.743005334
 20
6.6838438614
 30
0.0
 10
11.6861883858
 20
6.7262636551
 30
0.0
 10
11.6442358643
 20
6.7586341941
 30
0.0
 10
11.6165744038
 20
6.7803904018
 30
0.0
  0
SPLINE
  5
3B9
100
AcDbEntity
  8
0
100
AcDbSpline
 62
7
  6
CONTINUOUS
 70
0
 71
3
 72
15
 73
11
 74
0
 42
0.0000001
 43
0.0000001
 44
0.0000000001
 40
0.0
 40
0.0
 40
0.0
 40
0.0
 40
0.1336908709
 40
0.2662126058
 40
0.3968886543
 40
0.5249381662
 40
0.6496257854
 40
0.7704380623
 40
0.8871871863
 40
1.0
 40
1.0
 40
1.0
 40
1.0
 10
11.5021555129
 20
6.7883253788
 30
0.0
 10
11.4700339192
 20
6.7709207575
 30
0.0
 10
11.4059896002
 20
6.7364147571
 30
0.0
 10
11.3102160195
 20
6.6855157681
 30
0.0
 10
11.2154695358
 20
6.6359737065
 30
0.0
 10
11.1222539569
 20
6.5881301495
 30
0.0
 10
11.0310557347
 20
6.5422665158
 30
0.0
 10
10.9422430152
 20
6.4985406114
 30
0.0
 10
10.8559947828
 20
6.4569603634
 30
0.0
 10
10.7992770104
 20
6.4301546279
 30
0.0
 10
10.7713582804
 20
6.4170803601
 30
0.0
  0
SPLINE
  5
3BA
100
AcDbEntity
  8
0
100
AcDbSpline
 62
7
  6
CONTINUOUS
 70
0
 71
3
 72
20
 73
16
 74
0
 42
0.0000001
 43
0.0000001
 44
0.0000000001
 40
0.0
 40
0.0
 40
0.0
 40
0.0
 40
0.1328004115
 40
0.2663282989
 40
0.3994288484
 40
0.4652765799
 40
0.530307737
 40
0.5942626159
 40
0.6569131493
 40
0.7180845183
 40
0.777666975
 40
0.8356165293
 40
0.89194577
 40
0.9467129545
 40
1.0
 40
1.0
 40
1.0
 40
1.0
 10
10.4566460902
 20
8.627091173
 30
0.0
 10
10.4606408063
 20
8.6643293052
 30
0.0
 10
10.4679799973
 20
8.7390844499
 30
0.0
 10
10.4765034047
 20
8.8514170294
 30
0.0
 10
10.4810885773
 20
8.945083337
 30
0.0
 10
10.4829738581
 20
9.0195086466
 30
0.0
 10
10.4834534225
 20
9.0744554339
 30
0.0
 10
10.482989524
 20
9.128500709
 30
0.0
 10
10.4815949257
 20
9.1814411506
 30
0.0
 10
10.4793072422
 20
9.2331161811
 30
0.0
 10
10.4761839404
 20
9.2834190574
 30
0.0
 10
10.4722955643
 20
9.3322986062
 30
0.0
 10
10.4677187195
 20
9.3797541703
 30
0.0
 10
10.4625301143
 20
9.4258234045
 30
0.0
 10
10.4586612541
 20
9.4560510791
 30
0.0
 10
10.4566460902
 20
9.4709431308
 30
0.0
  0
SPLINE
  5
3BB
100
AcDbEntity
  8
0
100
AcDbSpline
 62
7
  6
CONTINUOUS
 70
0
 71
3
 72
22
 73
18
 74
0
 42
0.0000001
 43
0.0000001
 44
0.0000000001
 40
0.0
 40
0.0
 40
0.0
 40
0.0
 40
0.0578967657
 40
0.1168069543
 40
0.1767552214
 40
0.2377418336
 40
0.2997235166
 40
0.3626077374
 40
0.4262490722
 40
0.4904549483
 40
0.5550006938
 40
0.619651431
 40
0.684185502
 40
0.7484135876
 40
0.8121898087
 40
0.87541344
 40
1.0
 40
1.0
 40
1.0
 40
1.0
 10
10.3994366448
 20
9.5740002855
 30
0.0
 10
10.3869296897
 20
9.5853226037
 30
0.0
 10
10.3615167112
 20
9.6079674701
 30
0.0
 10
10.3224863515
 20
9.6415779421
 30
0.0
 10
10.2821549045
 20
9.6750448088
 30
0.0
 10
10.2404761771
 20
9.7082743433
 30
0.0
 10
10.1974367681
 20
9.7411516303
 30
0.0
 10
10.1530680378
 20
9.7735423237
 30
0.0
 10
10.1074518865
 20
9.8053002447
 30
0.0
 10
10.0607205738
 20
9.8362784756
 30
0.0
 10
10.0130483127
 20
9.8663431002
 30
0.0
 10
9.9646357274
 20
9.8953863015
 30
0.0
 10
9.9156905206
 20
9.9233356656
 30
0.0
 10
9.8664090961
 20
9.9501576893
 30
0.0
 10
9.8169626481
 20
9.9758557428
 30
0.0
 10
9.751321406
 20
10.008505791
 30
0.0
 10
9.7017341045
 20
10.0316845358
 30
0.0
 10
9.6686394122
 20
10.0466072246
 30
0.0
  0
SPLINE
  5
3BC
100
AcDbEntity
  8
0
100
AcDbSpline
 62
7
  6
CONTINUOUS
 70
0
 71
3
 72
15
 73
11
 74
0
 42
0.0000001
 43
0.0000001
 44
0.0000000001
 40
0.0
 40
0.0
 40
0.0
 40
0.0
 40
0.1024584527
 40
0.2125880165
 40
0.3308751456
 40
0.4568384937
 40
0.5888694915
 40
0.7247080792
 40
0.8622415245
 40
1.0
 40
1.0
 40
1.0
 40
1.0
 10
9.5542205214
 20
10.0545422016
 30
0.0
 10
9.5285336897
 20
10.0433794087
 30
0.0
 10
9.4753991195
 20
10.0198425117
 30
0.0
 10
9.3932527553
 20
9.9819857907
 30
0.0
 10
9.3059127524
 20
9.9400740195
 30
0.0
 10
9.2138769373
 20
9.8941385275
 30
0.0
 10
9.1182575321
 20
9.8446661816
 30
0.0
 10
9.0204898885
 20
9.7924848646
 30
0.0
 10
8.9219157043
 20
9.7385052407
 30
0.0
 10
8.8562287737
 20
9.7017862748
 30
0.0
 10
8.8234232888
 20
9.6832971829
 30
0.0
  0
SPLINE
  5
3BD
100
AcDbEntity
  8
0
100
AcDbSpline
 62
7
  6
CONTINUOUS
 70
0
 71
3
 72
19
 73
15
 74
0
 42
0.0000001
 43
0.0000001
 44
0.0000000001
 40
0.0
 40
0.0
 40
0.0
 40
0.0
 40
0.1307115674
 40
0.2609268752
 40
0.3901025973
 40
0.4540950503
 40
0.5175739859
 40
0.580457627
 40
0.6426741367
 40
0.7041661724
 40
0.764894827
 40
0.8248387715
 40
0.8839940512
 40
1.0
 40
1.0
 40
1.0
 40
1.0
 10
8.540815597
 20
9.370457005
 30
0.0
 10
8.5384370566
 20
9.3337351818
 30
0.0
 10
8.534122523
 20
9.2604017521
 30
0.0
 10
8.5292198783
 20
9.1506830356
 30
0.0
 10
8.5266485814
 20
9.0596731506
 30
0.0
 10
8.5256054636
 20
8.9874267949
 30
0.0
 10
8.5253423824
 20
8.9338365868
 30
0.0
 10
8.5256005554
 20
8.8807463464
 30
0.0
 10
8.5263759396
 20
8.8282205564
 30
0.0
 10
8.5276557567
 20
8.7763115259
 30
0.0
 10
8.5294193296
 20
8.7250568989
 30
0.0
 10
8.5316407189
 20
8.6744785562
 30
0.0
 10
8.5351495414
 20
8.6083826291
 30
0.0
 10
8.5384042753
 20
8.5591746589
 30
0.0
 10
8.540815597
 20
8.5266050472
 30
0.0
  0
SPLINE
  5
3BE
100
AcDbEntity
  8
0
100
AcDbSpline
 62
7
  6
CONTINUOUS
 70
0
 71
3
 72
21
 73
17
 74
0
 42
0.0000001
 43
0.0000001
 44
0.0000000001
 40
0.0
 40
0.0
 40
0.0
 40
0.0
 40
0.1211301163
 40
0.1823712755
 40
0.2440509723
 40
0.306143678
 40
0.3686104373
 40
0.4313997375
 40
0.4944481226
 40
0.5576847246
 40
0.6210354942
 40
0.6844273845
 40
0.7477936645
 40
0.8110760547
 40
0.8742266982
 40
1.0
 40
1.0
 40
1.0
 40
1.0
 10
8.5980250425
 20
8.4235478925
 30
0.0
 10
8.6256864104
 20
8.4017917576
 30
0.0
 10
8.6676388162
 20
8.3694213601
 30
0.0
 10
8.7244555832
 20
8.3270015834
 30
0.0
 10
8.7678876232
 20
8.2953299805
 30
0.0
 10
8.8119816102
 20
8.2639681629
 30
0.0
 10
8.8567231059
 20
8.2329674163
 30
0.0
 10
8.9020833776
 20
8.2023797697
 30
0.0
 10
8.9480193585
 20
8.1722538618
 30
0.0
 10
8.9944756352
 20
8.1426321456
 30
0.0
 10
9.0413884249
 20
8.1135491096
 30
0.0
 10
9.0886890115
 20
8.0850282704
 30
0.0
 10
9.1363076642
 20
8.0570812071
 30
0.0
 10
9.1841781289
 20
8.0297087398
 30
0.0
 10
9.2481714243
 20
7.994014929
 30
0.0
 10
9.2965028381
 20
7.9679909348
 30
0.0
 10
9.328822275
 20
7.9509409534
 30
0.0
  0
SPLINE
  5
3BF
100
AcDbEntity
  8
0
100
AcDbSpline
 62
7
  6
CONTINUOUS
 70
0
 71
3
 72
15
 73
11
 74
0
 42
0.0000001
 43
0.0000001
 44
0.0000000001
 40
0.0
 40
0.0
 40
0.0
 40
0.0
 40
0.1128124416
 40
0.2295614621
 40
0.3503736449
 40
0.4750619961
 40
0.6031117921
 40
0.7337880193
 40
0.866309584
 40
1.0
 40
1.0
 40
1.0
 40
1.0
 10
9.4432411658
 20
7.9430059763
 30
0.0
 10
9.4711598037
 20
7.956080201
 30
0.0
 10
9.5278774609
 20
7.9828858766
 30
0.0
 10
9.6141255375
 20
8.0244660885
 30
0.0
 10
9.7029384312
 20
8.0681919703
 30
0.0
 10
9.794136811
 20
8.1140558509
 30
0.0
 10
9.8873527481
 20
8.1618994247
 30
0.0
 10
9.9820992585
 20
8.2114416083
 30
0.0
 10
10.0778727481
 20
8.2623405083
 30
0.0
 10
10.1419169139
 20
8.2968464329
 30
0.0
 10
10.1740383984
 20
8.3142509951
 30
0.0
  0
SPLINE
  5
3C0
100
AcDbEntity
  8
0
100
AcDbSpline
 62
7
  6
CONTINUOUS
 70
0
 71
3
 72
64
 73
60
 74
0
 42
0.0000001
 43
0.0000001
 44
0.0000000001
 40
0.0
 40
0.0
 40
0.0
 40
0.0
 40
0.0311830674
 40
0.0467008478
 40
0.0621656035
 40
0.077580314
 40
0.0929469982
 40
0.1082676194
 40
0.1235450534
 40
0.1387827119
 40
0.1539843784
 40
0.169154114
 40
0.1842963866
 40
0.1994159176
 40
0.2145177079
 40
0.2296068972
 40
0.2446888078
 40
0.2597688009
 40
0.2748522991
 40
0.289944644
 40
0.3050511237
 40
0.320176829
 40
0.3353266945
 40
0.3505053557
 40
0.3657171944
 40
0.3809661934
 40
0.3962560015
 40
0.4115897884
 40
0.4269703324
 40
0.4423998859
 40
0.4578802676
 40
0.4734127351
 40
0.4889980873
 40
0.5046365524
 40
0.5203278953
 40
0.5360713376
 40
0.551865648
 40
0.5677090891
 40
0.5835994915
 40
0.5995342345
 40
0.6155103003
 40
0.6315243016
 40
0.6475725053
 40
0.6636508895
 40
0.6797551433
 40
0.6958807523
 40
0.7120229781
 40
0.7281769781
 40
0.7443377676
 40
0.7605003478
 40
0.7766596612
 40
0.7928107186
 40
0.8089485556
 40
0.841156923
 40
0.8732567742
 40
0.9052155383
 40
0.9370054028
 40
0.968605258
 40
1.0
 40
1.0
 40
1.0
 40
1.0
 10
9.368399084
 20
9.7035795288
 30
0.0
 10
9.3413178585
 20
9.7054576182
 30
0.0
 10
9.3005844003
 20
9.706294794
 30
0.0
 10
9.2465297893
 20
9.7033801537
 30
0.0
 10
9.2063376942
 20
9.6991972656
 30
0.0
 10
9.1665378426
 20
9.6930224888
 30
0.0
 10
9.127222436
 20
9.684872968
 30
0.0
 10
9.0884877299
 20
9.6747655828
 30
0.0
 10
9.0504267621
 20
9.6627267698
 30
0.0
 10
9.013131802
 20
9.6487836819
 30
0.0
 10
8.9766920886
 20
9.6329715452
 30
0.0
 10
8.9411961524
 20
9.6153268792
 30
0.0
 10
8.9067290597
 20
9.5958934298
 30
0.0
 10
8.873374481
 20
9.5747170028
 30
0.0
 10
8.8412124277
 20
9.5518494178
 30
0.0
 10
8.8103208444
 20
9.5273452436
 30
0.0
 10
8.7807740465
 20
9.5012638959
 30
0.0
 10
8.7526433614
 20
9.4736681516
 30
0.0
 10
8.7259967554
 20
9.4446245053
 30
0.0
 10
8.7008981758
 20
9.4142032545
 30
0.0
 10
8.6774086675
 20
9.3824774104
 30
0.0
 10
8.655584102
 20
9.3495240278
 30
0.0
 10
8.6354780552
 20
9.3154220056
 30
0.0
 10
8.6171377436
 20
9.2802542821
 30
0.0
 10
8.6006087661
 20
9.2441049767
 30
0.0
 10
8.585929239
 20
9.2070619973
 30
0.0
 10
8.5731363495
 20
9.1692139771
 30
0.0
 10
8.5622587728
 20
9.1306528503
 30
0.0
 10
8.5533248891
 20
9.0914709892
 30
0.0
 10
8.5463537266
 20
9.0517633588
 30
0.0
 10
8.541364509
 20
9.0116252424
 30
0.0
 10
8.5383665362
 20
8.9711536574
 30
0.0
 10
8.5373696156
 20
8.9304459411
 30
0.0
 10
8.5383733352
 20
8.8896002106
 30
0.0
 10
8.5413778853
 20
8.8487149376
 30
0.0
 10
8.546373279
 20
8.8078883811
 30
0.0
 10
8.5533499729
 20
8.7672191713
 30
0.0
 10
8.5622886175
 20
8.7268047987
 30
0.0
 10
8.5731699471
 20
8.686743076
 30
0.0
 10
8.5859655119
 20
8.6471298643
 30
0.0
 10
8.6006464369
 20
8.6080611586
 30
0.0
 10
8.6171755177
 20
8.5696303399
 30
0.0
 10
8.6355145047
 20
8.5319305683
 30
0.0
 10
8.6556178291
 20
8.4950519301
 30
0.0
 10
8.6774382257
 20
8.4590837859
 30
0.0
 10
8.7009221926
 20
8.4241121652
 30
0.0
 10
8.7260138981
 20
8.3902216918
 30
0.0
 10
8.7526524178
 20
8.3574935972
 30
0.0
 10
8.7807739056
 20
8.3260068693
 30
0.0
 10
8.810310626
 20
8.2958371905
 30
0.0
 10
8.8411911563
 20
8.2670572475
 30
0.0
 10
8.8733423883
 20
8.2397359611
 30
0.0
 10
8.9177634848
 20
8.2053681679
 30
0.0
 10
8.9760625791
 20
8.166370128
 30
0.0
 10
9.0498277708
 20
8.1263493017
 30
0.0
 10
9.1266657139
 20
8.0935063936
 30
0.0
 10
9.2058383333
 20
8.0681608358
 30
0.0
 10
9.2865759571
 20
8.0505589588
 30
0.0
 10
9.3411340277
 20
8.0440778472
 30
0.0
 10
9.368399084
 20
8.0421870091
 30
0.0
  0
SPLINE
  5
3C1
100
AcDbEntity
  8
0
100
AcDbSpline
 62
7
  6
CONTINUOUS
 70
0
 71
3
 72
64
 73
60
 74
0
 42
0.0000001
 43
0.0000001
 44
0.0000000001
 40
0.0
 40
0.0
 40
0.0
 40
0.0
 40
0.0311830674
 40
0.0467008478
 40
0.0621656035
 40
0.077580314
 40
0.0929469982
 40
0.1082676194
 40
0.1235450534
 40
0.1387827119
 40
0.1539843784
 40
0.169154114
 40
0.1842963866
 40
0.1994159176
 40
0.2145177079
 40
0.2296068972
 40
0.2446888078
 40
0.2597688009
 40
0.2748522991
 40
0.289944644
 40
0.3050511237
 40
0.320176829
 40
0.3353266945
 40
0.3505053557
 40
0.3657171944
 40
0.3809661934
 40
0.3962560015
 40
0.4115897884
 40
0.4269703324
 40
0.4423998859
 40
0.4578802676
 40
0.4734127351
 40
0.4889980873
 40
0.5046365524
 40
0.5203278953
 40
0.5360713376
 40
0.551865648
 40
0.5677090891
 40
0.5835994915
 40
0.5995342345
 40
0.6155103003
 40
0.6315243016
 40
0.6475725053
 40
0.6636508895
 40
0.6797551433
 40
0.6958807523
 40
0.7120229781
 40
0.7281769781
 40
0.7443377676
 40
0.7605003478
 40
0.7766596612
 40
0.7928107186
 40
0.8089485556
 40
0.841156923
 40
0.8732567742
 40
0.9052155383
 40
0.9370054028
 40
0.968605258
 40
1.0
 40
1.0
 40
1.0
 40
1.0
 10
9.368399084
 20
8.0421870091
 30
0.0
 10
9.3954803095
 20
8.0403089198
 30
0.0
 10
9.4362137678
 20
8.0394717439
 30
0.0
 10
9.4902683787
 20
8.0423863843
 30
0.0
 10
9.5304604738
 20
8.0465692724
 30
0.0
 10
9.5702603254
 20
8.0527440491
 30
0.0
 10
9.6095757321
 20
8.0608935699
 30
0.0
 10
9.6483104381
 20
8.0710009551
 30
0.0
 10
9.686371406
 20
8.0830397681
 30
0.0
 10
9.723666366
 20
8.096982856
 30
0.0
 10
9.7601060794
 20
8.1127949927
 30
0.0
 10
9.7956020156
 20
8.1304396587
 30
0.0
 10
9.8300691083
 20
8.1498731081
 30
0.0
 10
9.863423687
 20
8.1710495351
 30
0.0
 10
9.8955857403
 20
8.1939171201
 30
0.0
 10
9.9264773236
 20
8.2184212943
 30
0.0
 10
9.9560241215
 20
8.244502642
 30
0.0
 10
9.9841548066
 20
8.2720983863
 30
0.0
 10
10.0108014127
 20
8.3011420326
 30
0.0
 10
10.0358999922
 20
8.3315632834
 30
0.0
 10
10.0593895005
 20
8.3632891275
 30
0.0
 10
10.0812140661
 20
8.3962425101
 30
0.0
 10
10.1013201128
 20
8.4303445323
 30
0.0
 10
10.1196604245
 20
8.4655122558
 30
0.0
 10
10.1361894019
 20
8.5016615612
 30
0.0
 10
10.150868929
 20
8.5387045407
 30
0.0
 10
10.1636618186
 20
8.5765525609
 30
0.0
 10
10.1745393952
 20
8.6151136877
 30
0.0
 10
10.183473279
 20
8.6542955487
 30
0.0
 10
10.1904444414
 20
8.6940031791
 30
0.0
 10
10.1954336591
 20
8.7341412955
 30
0.0
 10
10.1984316319
 20
8.7746128805
 30
0.0
 10
10.1994285525
 20
8.8153205968
 30
0.0
 10
10.1984248328
 20
8.8561663273
 30
0.0
 10
10.1954202828
 20
8.8970516004
 30
0.0
 10
10.190424889
 20
8.9378781568
 30
0.0
 10
10.1834481951
 20
8.9785473666
 30
0.0
 10
10.1745095505
 20
9.0189617392
 30
0.0
 10
10.163628221
 20
9.0590234619
 30
0.0
 10
10.1508326562
 20
9.0986366736
 30
0.0
 10
10.1361517312
 20
9.1377053793
 30
0.0
 10
10.1196226503
 20
9.1761361981
 30
0.0
 10
10.1012836633
 20
9.2138359696
 30
0.0
 10
10.0811803389
 20
9.2507146078
 30
0.0
 10
10.0593599423
 20
9.2866827521
 30
0.0
 10
10.0358759755
 20
9.3216543727
 30
0.0
 10
10.01078427
 20
9.3555448462
 30
0.0
 10
9.9841457502
 20
9.3882729407
 30
0.0
 10
9.9560242625
 20
9.4197596686
 30
0.0
 10
9.9264875421
 20
9.4499293474
 30
0.0
 10
9.8956070118
 20
9.4787092904
 30
0.0
 10
9.8634557797
 20
9.5060305769
 30
0.0
 10
9.8190346832
 20
9.54039837
 30
0.0
 10
9.760735589
 20
9.5793964099
 30
0.0
 10
9.6869703973
 20
9.6194172362
 30
0.0
 10
9.6101324541
 20
9.6522601443
 30
0.0
 10
9.5309598347
 20
9.6776057021
 30
0.0
 10
9.4502222109
 20
9.6952075791
 30
0.0
 10
9.3956641403
 20
9.7016886907
 30
0.0
 10
9.368399084
 20
9.7035795288
 30
0.0
  0
SPLINE
  5
3C2
100
AcDbEntity
  8
0
100
AcDbSpline
 62
7
  6
CONTINUOUS
 70
0
 71
3
 72
19
 73
15
 74
0
 42
0.0000001
 43
0.0000001
 44
0.0000000001
 40
0.0
 40
0.0
 40
0.0
 40
0.0
 40
0.1160059488
 40
0.1751612285
 40
0.235105173
 40
0.2958338276
 40
0.3573258634
 40
0.419542373
 40
0.4824260141
 40
0.5459049497
 40
0.6098974028
 40
0.7390731248
 40
0.8692884326
 40
1.0
 40
1.0
 40
1.0
 40
1.0
 10
10.2312478438
 20
8.4093731727
 30
0.0
 10
10.228836522
 20
8.4419427845
 30
0.0
 10
10.2255817881
 20
8.4911507546
 30
0.0
 10
10.2220729656
 20
8.5572466817
 30
0.0
 10
10.2198515764
 20
8.6078250245
 30
0.0
 10
10.2180880035
 20
8.6590796514
 30
0.0
 10
10.2168081863
 20
8.7109886819
 30
0.0
 10
10.2160328022
 20
8.7635144719
 30
0.0
 10
10.2157746291
 20
8.8166047124
 30
0.0
 10
10.2160377104
 20
8.8701949205
 30
0.0
 10
10.2170808281
 20
8.9424412762
 30
0.0
 10
10.219652125
 20
9.0334511612
 30
0.0
 10
10.2245547698
 20
9.1431698776
 30
0.0
 10
10.2288693034
 20
9.2165033073
 30
0.0
 10
10.2312478438
 20
9.2532251305
 30
0.0
  0
SPLINE
  5
3C3
100
AcDbEntity
  8
0
100
AcDbSpline
 62
7
  6
CONTINUOUS
 70
0
 71
3
 72
21
 73
17
 74
0
 42
0.0000001
 43
0.0000001
 44
0.0000000001
 40
0.0
 40
0.0
 40
0.0
 40
0.0
 40
0.1257733018
 40
0.1889239453
 40
0.2522063355
 40
0.3155726155
 40
0.3789645059
 40
0.4423152755
 40
0.5055518774
 40
0.5686002626
 40
0.6313895627
 40
0.693856322
 40
0.7559490278
 40
0.8176287245
 40
0.8788698837
 40
1.0
 40
1.0
 40
1.0
 40
1.0
 10
10.1740383984
 20
9.3562822852
 30
0.0
 10
10.1417189615
 20
9.3733322666
 30
0.0
 10
10.0933875477
 20
9.3993562608
 30
0.0
 10
10.0293942522
 20
9.4350500717
 30
0.0
 10
9.9815237876
 20
9.462422539
 30
0.0
 10
9.9339051348
 20
9.4903696022
 30
0.0
 10
9.8866045482
 20
9.5188904414
 30
0.0
 10
9.8396917586
 20
9.5479734775
 30
0.0
 10
9.7932354818
 20
9.5775951937
 30
0.0
 10
9.747299501
 20
9.6077211016
 30
0.0
 10
9.7019392293
 20
9.6383087481
 30
0.0
 10
9.6571977335
 20
9.6693094947
 30
0.0
 10
9.6131037465
 20
9.7006713123
 30
0.0
 10
9.5696717065
 20
9.7323429152
 30
0.0
 10
9.5128549396
 20
9.774762692
 30
0.0
 10
9.4709025337
 20
9.8071330894
 30
0.0
 10
9.4432411658
 20
9.8288892243
 30
0.0
  0
SPLINE
  5
3C4
100
AcDbEntity
  8
0
100
AcDbSpline
 62
7
  6
CONTINUOUS
 70
0
 71
3
 72
15
 73
11
 74
0
 42
0.0000001
 43
0.0000001
 44
0.0000000001
 40
0.0
 40
0.0
 40
0.0
 40
0.0
 40
0.133690416
 40
0.2662119808
 40
0.3968882079
 40
0.524938004
 40
0.6496263551
 40
0.770438538
 40
0.8871875584
 40
1.0
 40
1.0
 40
1.0
 40
1.0
 10
9.328822275
 20
9.8368242014
 30
0.0
 10
9.2967007906
 20
9.8194196392
 30
0.0
 10
9.2326566247
 20
9.7849137146
 30
0.0
 10
9.1368831351
 20
9.7340148146
 30
0.0
 10
9.0421366247
 20
9.684472631
 30
0.0
 10
8.9489206876
 20
9.6366290572
 30
0.0
 10
8.8577223078
 20
9.5907651766
 30
0.0
 10
8.7689094141
 20
9.5470392948
 30
0.0
 10
8.6826613375
 20
9.5054590829
 30
0.0
 10
8.6259436804
 20
9.4786534073
 30
0.0
 10
8.5980250425
 20
9.4655791827
 30
0.0
  0
SPLINE
  5
3C5
100
AcDbEntity
  8
0
100
AcDbSpline
 62
7
  6
CONTINUOUS
 70
0
 71
3
 72
15
 73
11
 74
0
 42
0.0000001
 43
0.0000001
 44
0.0000000001
 40
0.0
 40
0.0
 40
0.0
 40
0.0
 40
0.1259387151
 40
0.2515500552
 40
0.3768604883
 40
0.5018988711
 40
0.6266970376
 40
0.7512889617
 40
0.8757107437
 40
1.0
 40
1.0
 40
1.0
 40
1.0
 10
11.6334098522
 20
9.8628883909
 30
0.0
 10
11.6211752625
 20
9.8597001979
 30
0.0
 10
11.5968883266
 20
9.8527373234
 30
0.0
 10
11.561060035
 20
9.8405387162
 30
0.0
 10
11.5259574022
 20
9.8266275014
 30
0.0
 10
11.4916594392
 20
9.811032674
 30
0.0
 10
11.4582405574
 20
9.7937901846
 30
0.0
 10
11.4257749237
 20
9.7749360071
 30
0.0
 10
11.3943339288
 20
9.7545139682
 30
0.0
 10
11.3740920369
 20
9.7398747148
 30
0.0
 10
11.3641679619
 20
9.7323114677
 30
0.0
  0
SPLINE
  5
3C6
100
AcDbEntity
  8
0
100
AcDbSpline
 62
7
  6
CONTINUOUS
 70
0
 71
3
 72
35
 73
31
 74
0
 42
0.0000001
 43
0.0000001
 44
0.0000000001
 40
0.0
 40
0.0
 40
0.0
 40
0.0
 40
0.0612906693
 40
0.1229878739
 40
0.1539915337
 40
0.1850872977
 40
0.2162696171
 40
0.2475327476
 40
0.2788701874
 40
0.3102745649
 40
0.3417379897
 40
0.3732520333
 40
0.4048078488
 40
0.4363961973
 40
0.468007577
 40
0.4996322754
 40
0.5312604555
 40
0.562882252
 40
0.5944878596
 40
0.6260676278
 40
0.6576121068
 40
0.6891121837
 40
0.720559106
 40
0.7519446068
 40
0.7832608858
 40
0.8145009644
 40
0.845658577
 40
0.8767276093
 40
0.9385638178
 40
1.0
 40
1.0
 40
1.0
 40
1.0
 10
12.7180396502
 20
9.0033877923
 30
0.0
 10
12.7180396502
 20
9.0304953179
 30
0.0
 10
12.7153581289
 20
9.0849239983
 30
0.0
 10
12.7054257249
 20
9.1524129511
 30
0.0
 10
12.6935964586
 20
9.2058902827
 30
0.0
 10
12.6827791362
 20
9.2457200503
 30
0.0
 10
12.6700573242
 20
9.2851026319
 30
0.0
 10
12.6554622157
 20
9.3239443814
 30
0.0
 10
12.6390288958
 20
9.3621515979
 30
0.0
 10
12.6207967635
 20
9.3996323142
 30
0.0
 10
12.6008101992
 20
9.4362964974
 30
0.0
 10
12.5791166678
 20
9.4720555173
 30
0.0
 10
12.555769341
 20
9.5068238854
 30
0.0
 10
12.5308233397
 20
9.5405171727
 30
0.0
 10
12.5043399489
 20
9.5730552042
 30
0.0
 10
12.4763816367
 20
9.604358607
 30
0.0
 10
12.4470170092
 20
9.6343531939
 30
0.0
 10
12.4163155061
 20
9.6629655412
 30
0.0
 10
12.3843521648
 20
9.690127987
 30
0.0
 10
12.3512029192
 20
9.7157739803
 30
0.0
 10
12.3169483725
 20
9.7398428196
 30
0.0
 10
12.2816703317
 20
9.7622756622
 30
0.0
 10
12.2454541333
 20
9.7830191328
 30
0.0
 10
12.2083867345
 20
9.8020228251
 30
0.0
 10
12.1705573695
 20
9.8192411579
 30
0.0
 10
12.1320573016
 20
9.8346327228
 30
0.0
 10
12.0929780248
 20
9.848159987
 30
0.0
 10
12.040318935
 20
9.8636414915
 30
0.0
 10
11.9735183122
 20
9.8782060355
 30
0.0
 10
11.9192797964
 20
9.8846486068
 30
0.0
 10
11.8921730198
 20
9.8865284681
 30
0.0
  0
SPLINE
  5
3C7
100
AcDbEntity
  8
0
100
AcDbSpline
 62
7
  6
CONTINUOUS
 70
0
 71
3
 72
16
 73
12
 74
0
 42
0.0000001
 43
0.0000001
 44
0.0000000001
 40
0.0
 40
0.0
 40
0.0
 40
0.0
 40
0.1236450025
 40
0.1855976618
 40
0.2476386809
 40
0.3719893701
 40
0.496733349
 40
0.6218884842
 40
0.7474788994
 40
0.8735266243
 40
1.0
 40
1.0
 40
1.0
 40
1.0
 10
12.6485618384
 20
8.6766470893
 30
0.0
 10
12.6542756535
 20
8.6892857869
 30
0.0
 10
12.6623382635
 20
8.7084958568
 30
0.0
 10
12.672042212
 20
8.7345280488
 30
0.0
 10
12.6810669847
 20
8.7608878072
 30
0.0
 10
12.6910355234
 20
8.7943555326
 30
0.0
 10
12.7008572789
 20
8.8351931193
 30
0.0
 10
12.7085230451
 20
8.8766314762
 30
0.0
 10
12.7140122375
 20
8.9185613765
 30
0.0
 10
12.7173087001
 20
8.9608673423
 30
0.0
 10
12.7180396502
 20
8.9892002417
 30
0.0
 10
12.7180396502
 20
9.0033877923
 30
0.0
  0
SPLINE
  5
3C8
100
AcDbEntity
  8
0
100
AcDbSpline
 62
7
  6
CONTINUOUS
 70
0
 71
3
 72
22
 73
18
 74
0
 42
0.0000001
 43
0.0000001
 44
0.0000000001
 40
0.0
 40
0.0
 40
0.0
 40
0.0
 40
0.0662627889
 40
0.1328022627
 40
0.1995323899
 40
0.2663327743
 40
0.3994321266
 40
0.4652792355
 40
0.5303098426
 40
0.5942641163
 40
0.6569139169
 40
0.7180845853
 40
0.777666605
 40
0.8356161461
 40
0.8919456067
 40
0.9467124961
 40
1.0
 40
1.0
 40
1.0
 40
1.0
 10
12.6299793281
 20
8.476370001
 30
0.0
 10
12.6319725609
 20
8.4949506121
 30
0.0
 10
12.6357997264
 20
8.5322076855
 30
0.0
 10
12.6409899992
 20
8.5882402469
 30
0.0
 10
12.6455707136
 20
8.644478548
 30
0.0
 10
12.6507570518
 20
8.7194947889
 30
0.0
 10
12.6544218058
 20
8.7943630152
 30
0.0
 10
12.6563072094
 20
8.8687878326
 30
0.0
 10
12.6567867969
 20
8.9237343742
 30
0.0
 10
12.6563228714
 20
8.9777793359
 30
0.0
 10
12.6549282085
 20
9.0307194238
 30
0.0
 10
12.6526404783
 20
9.0823941397
 30
0.0
 10
12.6495172149
 20
9.1326969037
 30
0.0
 10
12.6456288949
 20
9.1815765974
 30
0.0
 10
12.6410520334
 20
9.2290323354
 30
0.0
 10
12.6358633692
 20
9.2751018663
 30
0.0
 10
12.6319945178
 20
9.3053297168
 30
0.0
 10
12.6299793281
 20
9.3202219589
 30
0.0
  0
SPLINE
  5
3C9
100
AcDbEntity
  8
0
100
AcDbSpline
 62
7
  6
CONTINUOUS
 70
0
 71
3
 72
22
 73
18
 74
0
 42
0.0000001
 43
0.0000001
 44
0.0000000001
 40
0.0
 40
0.0
 40
0.0
 40
0.0
 40
0.0578974882
 40
0.1168076123
 40
0.1767563582
 40
0.2377431684
 40
0.2997246356
 40
0.362608436
 40
0.4262493434
 40
0.4904549021
 40
0.5550003489
 40
0.6196506978
 40
0.6841843697
 40
0.7484122155
 40
0.8121886095
 40
0.8754127419
 40
1.0
 40
1.0
 40
1.0
 40
1.0
 10
12.5727698827
 20
9.4232791135
 30
0.0
 10
12.5602627714
 20
9.4346015731
 30
0.0
 10
12.5348496239
 20
9.4572465385
 30
0.0
 10
12.4958190336
 20
9.4908572505
 30
0.0
 10
12.455487449
 20
9.5243242325
 30
0.0
 10
12.4138085622
 20
9.5575537839
 30
0.0
 10
12.3707692293
 20
9.5904309598
 30
0.0
 10
12.3264007959
 20
9.622821534
 30
0.0
 10
12.2807849787
 20
9.654579342
 30
0.0
 10
12.2340539426
 20
9.6855574417
 30
0.0
 10
12.1863819045
 20
9.7156218735
 30
0.0
 10
12.1379695402
 20
9.7446648292
 30
0.0
 10
12.0890245559
 20
9.7726139792
 30
0.0
 10
12.0397432704
 20
9.7994359737
 30
0.0
 10
11.9902967484
 20
9.8251341612
 30
0.0
 10
11.9246551404
 20
9.857784374
 30
0.0
 10
11.8750675282
 20
9.8809632801
 30
0.0
 10
11.8419726501
 20
9.8958860526
 30
0.0
  0
SPLINE
  5
3CA
100
AcDbEntity
  8
0
100
AcDbSpline
 62
7
  6
CONTINUOUS
 70
0
 71
3
 72
15
 73
11
 74
0
 42
0.0000001
 43
0.0000001
 44
0.0000000001
 40
0.0
 40
0.0
 40
0.0
 40
0.0
 40
0.1024590394
 40
0.2125892926
 40
0.3308757892
 40
0.4568382862
 40
0.5888686932
 40
0.7247066359
 40
0.8622407571
 40
1.0
 40
1.0
 40
1.0
 40
1.0
 10
11.7275537593
 20
9.9038210297
 30
0.0
 10
11.7018667805
 20
9.8926581729
 30
0.0
 10
11.6487318897
 20
9.869121138
 30
0.0
 10
11.5665853812
 20
9.8312643092
 30
0.0
 10
11.4792455691
 20
9.7893526432
 30
0.0
 10
11.3872102296
 20
9.743417467
 30
0.0
 10
11.2915913641
 20
9.6939453186
 30
0.0
 10
11.1938238571
 20
9.6417640713
 30
0.0
 10
11.0952494676
 20
9.5877843676
 30
0.0
 10
11.0295621944
 20
9.5510652059
 30
0.0
 10
10.9967565268
 20
9.532576011
 30
0.0
  0
SPLINE
  5
3CB
100
AcDbEntity
  8
0
100
AcDbSpline
 62
7
  6
CONTINUOUS
 70
0
 71
3
 72
20
 73
16
 74
0
 42
0.0000001
 43
0.0000001
 44
0.0000000001
 40
0.0
 40
0.0
 40
0.0
 40
0.0
 40
0.1307118504
 40
0.2609271596
 40
0.3256853614
 40
0.3901038075
 40
0.4540959115
 40
0.5175746912
 40
0.5804579524
 40
0.6426740239
 40
0.7041660739
 40
0.7648946165
 40
0.8248383834
 40
0.8839938085
 40
1.0
 40
1.0
 40
1.0
 40
1.0
 10
10.714148835
 20
9.2197358331
 30
0.0
 10
10.7117702865
 20
9.1830138853
 30
0.0
 10
10.7074556876
 20
9.1096804429
 30
0.0
 10
10.7033627931
 20
9.0180787658
 30
0.0
 10
10.701002519
 20
8.9450903258
 30
0.0
 10
10.6997187615
 20
8.890722541
 30
0.0
 10
10.6989387023
 20
8.8367053849
 30
0.0
 10
10.698675466
 20
8.783115387
 30
0.0
 10
10.6989338087
 20
8.7300253488
 30
0.0
 10
10.6997092563
 20
8.6774997245
 30
0.0
 10
10.7009889106
 20
8.6255907767
 30
0.0
 10
10.7027525148
 20
8.574336165
 30
0.0
 10
10.704973971
 20
8.5237578039
 30
0.0
 10
10.7084827288
 20
8.4576617329
 30
0.0
 10
10.7117375052
 20
8.4084535951
 30
0.0
 10
10.714148835
 20
8.3758838752
 30
0.0
  0
SPLINE
  5
3CC
100
AcDbEntity
  8
0
100
AcDbSpline
 62
7
  6
CONTINUOUS
 70
0
 71
3
 72
21
 73
17
 74
0
 42
0.0000001
 43
0.0000001
 44
0.0000000001
 40
0.0
 40
0.0
 40
0.0
 40
0.0
 40
0.1211305215
 40
0.1823718855
 40
0.2440515074
 40
0.3061441797
 40
0.3686109568
 40
0.4313999269
 40
0.4944480864
 40
0.5576845339
 40
0.6210350022
 40
0.684426846
 40
0.7477930962
 40
0.8110754374
 40
0.8742262746
 40
1.0
 40
1.0
 40
1.0
 40
1.0
 10
10.7713582804
 20
8.2728267205
 30
0.0
 10
10.7990197409
 20
8.2510705128
 30
0.0
 10
10.8409722624
 20
8.2186999739
 30
0.0
 10
10.8977892107
 20
8.1762801801
 30
0.0
 10
10.9412212222
 20
8.1446084913
 30
0.0
 10
10.9853151636
 20
8.1132466529
 30
0.0
 10
11.0300566986
 20
8.0822461389
 30
0.0
 10
11.0754167926
 20
8.0516585112
 30
0.0
 10
11.1213524703
 20
8.0215325149
 30
0.0
 10
11.1678087107
 20
7.9919111076
 30
0.0
 10
11.2147214175
 20
7.9628282179
 30
0.0
 10
11.2620218017
 20
7.9343072552
 30
0.0
 10
11.3096404462
 20
7.9063602476
 30
0.0
 10
11.3575109809
 20
7.8789878362
 30
0.0
 10
11.4215043756
 20
7.8432938642
 30
0.0
 10
11.4698359671
 20
7.8172698203
 30
0.0
 10
11.5021555129
 20
7.8002197814
 30
0.0
  0
SPLINE
  5
3CD
100
AcDbEntity
  8
0
100
AcDbSpline
 62
7
  6
CONTINUOUS
 70
0
 71
3
 72
15
 73
11
 74
0
 42
0.0000001
 43
0.0000001
 44
0.0000000001
 40
0.0
 40
0.0
 40
0.0
 40
0.0
 40
0.1128128137
 40
0.2295619377
 40
0.3503742146
 40
0.4750618339
 40
0.6031113457
 40
0.7337873942
 40
0.8663091291
 40
1.0
 40
1.0
 40
1.0
 40
1.0
 10
11.6165744038
 20
7.7922848044
 30
0.0
 10
11.6444931338
 20
7.8053590721
 30
0.0
 10
11.7012109062
 20
7.8321648077
 30
0.0
 10
11.7874591386
 20
7.8737450557
 30
0.0
 10
11.8762718581
 20
7.9174709601
 30
0.0
 10
11.9674700803
 20
7.9633345938
 30
0.0
 10
12.0606856592
 20
8.0111781508
 30
0.0
 10
12.1554321429
 20
8.0607202124
 30
0.0
 10
12.2512057236
 20
8.1116192014
 30
0.0
 10
12.3152500426
 20
8.1461252017
 30
0.0
 10
12.3473716363
 20
8.1635298231
 30
0.0
  0
SPLINE
  5
3CE
100
AcDbEntity
  8
0
100
AcDbSpline
 62
7
  6
CONTINUOUS
 70
0
 71
3
 72
15
 73
11
 74
0
 42
0.0000001
 43
0.0000001
 44
0.0000000001
 40
0.0
 40
0.0
 40
0.0
 40
0.0
 40
0.1235752096
 40
0.2474950402
 40
0.3717979941
 40
0.4965172206
 40
0.6216760548
 40
0.7472994836
 40
0.8734166375
 40
1.0
 40
1.0
 40
1.0
 40
1.0
 10
12.6470480053
 20
8.6616185452
 30
0.0
 10
12.6537206785
 20
8.6750558694
 30
0.0
 10
12.6662916747
 20
8.7023700779
 30
0.0
 10
12.6827300616
 20
8.7444356351
 30
0.0
 10
12.6967273841
 20
8.7875227265
 30
0.0
 10
12.7082375835
 20
8.8314946393
 30
0.0
 10
12.7172269568
 20
8.8762135295
 30
0.0
 10
12.7236664676
 20
8.9215417094
 30
0.0
 10
12.7275349647
 20
8.9673330573
 30
0.0
 10
12.7283924035
 20
8.9980196996
 30
0.0
 10
12.7283924035
 20
9.0133877847
 30
0.0
  0
SPLINE
  5
3CF
100
AcDbEntity
  8
0
100
AcDbSpline
 62
7
  6
CONTINUOUS
 70
0
 71
3
 72
67
 73
63
 74
0
 42
0.0000001
 43
0.0000001
 44
0.0000000001
 40
0.0
 40
0.0
 40
0.0
 40
0.0
 40
0.0156208593
 40
0.0311919602
 40
0.0467088386
 40
0.062173276
 40
0.0775878162
 40
0.0929540716
 40
0.1082742252
 40
0.1235512559
 40
0.1387885557
 40
0.153989822
 40
0.1691591733
 40
0.1843010435
 40
0.1994201892
 40
0.2145215786
 40
0.2296103873
 40
0.2446919059
 40
0.2597715155
 40
0.274854618
 40
0.2899465735
 40
0.3050526605
 40
0.3201779774
 40
0.3353274489
 40
0.3505057208
 40
0.3657171655
 40
0.380965775
 40
0.3962551812
 40
0.4115885727
 40
0.4269687104
 40
0.4423978773
 40
0.4578778561
 40
0.4734099318
 40
0.488994865
 40
0.5203145517
 40
0.5518423775
 40
0.5676854147
 40
0.5835753953
 40
0.5995097291
 40
0.6154853795
 40
0.6314989709
 40
0.64754676
 40
0.6636247272
 40
0.6797285675
 40
0.6958537564
 40
0.7119955667
 40
0.728149142
 40
0.744309521
 40
0.7604716816
 40
0.7766305859
 40
0.7927812171
 40
0.8089186391
 40
0.8250380274
 40
0.8411347282
 40
0.8572042684
 40
0.873242422
 40
0.8892452006
 40
0.9052090392
 40
0.9211307392
 40
0.9370071758
 40
0.9686057956
 40
1.0
 40
1.0
 40
1.0
 40
1.0
 10
11.5417323219
 20
9.5528583568
 30
0.0
 10
11.5281658897
 20
9.5537991921
 30
0.0
 10
11.5010256324
 20
9.5550168176
 30
0.0
 10
11.4603470844
 20
9.5548416261
 30
0.0
 10
11.419861937
 20
9.5526590263
 30
0.0
 10
11.3796715189
 20
9.5484759111
 30
0.0
 10
11.3398709477
 20
9.5423016112
 30
0.0
 10
11.3005556209
 20
9.5341516617
 30
0.0
 10
11.2618208973
 20
9.5240446093
 30
0.0
 10
11.2237601072
 20
9.5120053936
 30
0.0
 10
11.1864649349
 20
9.4980628057
 30
0.0
 10
11.1500254091
 20
9.4822501577
 30
0.0
 10
11.1145292329
 20
9.4646059881
 30
0.0
 10
11.08006242
 20
9.4451720363
 30
0.0
 10
11.0467075319
 20
9.4239961189
 30
0.0
 10
11.0145458084
 20
9.4011280585
 30
0.0
 10
10.9836538836
 20
9.376624319
 30
0.0
 10
10.9541074079
 20
9.3505425811
 30
0.0
 10
10.9259764163
 20
9.3229471539
 30
0.0
 10
10.8993300681
 20
9.2939032604
 30
0.0
 10
10.874231303
 20
9.2634821758
 30
0.0
 10
10.8507418994
 20
9.2317562427
 30
0.0
 10
10.8289173348
 20
9.1988028674
 30
0.0
 10
10.8088111716
 20
9.1647009002
 30
0.0
 10
10.7904711043
 20
9.1295330552
 30
0.0
 10
10.7739417494
 20
9.0933839062
 30
0.0
 10
10.7592627346
 20
9.056340731
 30
0.0
 10
10.7464692011
 20
9.0184929219
 30
0.0
 10
10.7355923966
 20
8.9799315904
 30
0.0
 10
10.7266576268
 20
8.9407499337
 30
0.0
 10
10.7196874479
 20
8.9010420827
 30
0.0
 10
10.7146971582
 20
8.8609042622
 30
0.0
 10
10.7117003325
 20
8.8204319084
 30
0.0
 10
10.7103673497
 20
8.7660743621
 30
0.0
 10
10.7137332806
 20
8.6977605784
 30
0.0
 10
10.7237237274
 20
8.6298741122
 30
0.0
 10
10.7356221421
 20
8.5760842873
 30
0.0
 10
10.7465028345
 20
8.5360216418
 30
0.0
 10
10.7592989899
 20
8.4964088272
 30
0.0
 10
10.7739794309
 20
8.4573398845
 30
0.0
 10
10.7905088716
 20
8.4189092248
 30
0.0
 10
10.8088476249
 20
8.3812093373
 30
0.0
 10
10.8289510609
 20
8.3443307503
 30
0.0
 10
10.8507714567
 20
8.3083626113
 30
0.0
 10
10.8742553218
 20
8.2733909125
 30
0.0
 10
10.899347209
 20
8.2395005849
 30
0.0
 10
10.9259854717
 20
8.2067722761
 30
0.0
 10
10.9541072768
 20
8.1752858166
 30
0.0
 10
10.9836436266
 20
8.1451158247
 30
0.0
 10
11.014524675
 20
8.1163361514
 30
0.0
 10
11.0466749389
 20
8.0890148563
 30
0.0
 10
11.0800180393
 20
8.0632188868
 30
0.0
 10
11.1144729025
 20
8.0390092973
 30
0.0
 10
11.1499572464
 20
8.0164452686
 30
0.0
 10
11.1863852375
 20
7.99558049
 30
0.0
 10
11.2236694067
 20
7.9764656646
 30
0.0
 10
11.2617199946
 20
7.9591466395
 30
0.0
 10
11.3004452069
 20
7.9436650664
 30
0.0
 10
11.3397530174
 20
7.9300586964
 30
0.0
 10
11.3927200559
 20
7.9144866557
 30
0.0
 10
11.4599113266
 20
7.8998369389
 30
0.0
 10
11.5144670264
 20
7.8933566918
 30
0.0
 10
11.5417323219
 20
7.8914658372
 30
0.0
  0
SPLINE
  5
3D0
100
AcDbEntity
  8
0
100
AcDbSpline
 62
7
  6
CONTINUOUS
 70
0
 71
3
 72
67
 73
63
 74
0
 42
0.0000001
 43
0.0000001
 44
0.0000000001
 40
0.0
 40
0.0
 40
0.0
 40
0.0
 40
0.0156208593
 40
0.0311919602
 40
0.0467088386
 40
0.062173276
 40
0.0775878162
 40
0.0929540716
 40
0.1082742252
 40
0.1235512559
 40
0.1387885557
 40
0.153989822
 40
0.1691591733
 40
0.1843010435
 40
0.1994201892
 40
0.2145215786
 40
0.2296103873
 40
0.2446919059
 40
0.2597715155
 40
0.274854618
 40
0.2899465735
 40
0.3050526605
 40
0.3201779774
 40
0.3353274489
 40
0.3505057208
 40
0.3657171655
 40
0.380965775
 40
0.3962551812
 40
0.4115885727
 40
0.4269687104
 40
0.4423978773
 40
0.4578778561
 40
0.4734099318
 40
0.488994865
 40
0.5203145517
 40
0.5518423775
 40
0.5676854147
 40
0.5835753953
 40
0.5995097291
 40
0.6154853795
 40
0.6314989709
 40
0.64754676
 40
0.6636247272
 40
0.6797285675
 40
0.6958537564
 40
0.7119955667
 40
0.728149142
 40
0.744309521
 40
0.7604716816
 40
0.7766305859
 40
0.7927812171
 40
0.8089186391
 40
0.8250380274
 40
0.8411347282
 40
0.8572042684
 40
0.873242422
 40
0.8892452006
 40
0.9052090392
 40
0.9211307392
 40
0.9370071758
 40
0.9686057956
 40
1.0
 40
1.0
 40
1.0
 40
1.0
 10
11.5417323219
 20
7.8914658372
 30
0.0
 10
11.5552987541
 20
7.8905250019
 30
0.0
 10
11.5824390115
 20
7.8893073763
 30
0.0
 10
11.6231175595
 20
7.8894825679
 30
0.0
 10
11.6636027069
 20
7.8916651677
 30
0.0
 10
11.703793125
 20
7.8958482829
 30
0.0
 10
11.7435936962
 20
7.9020225828
 30
0.0
 10
11.782909023
 20
7.9101725323
 30
0.0
 10
11.8216437466
 20
7.9202795847
 30
0.0
 10
11.8597045367
 20
7.9323188004
 30
0.0
 10
11.896999709
 20
7.9462613882
 30
0.0
 10
11.9334392348
 20
7.9620740363
 30
0.0
 10
11.968935411
 20
7.9797182059
 30
0.0
 10
12.0034022239
 20
7.9991521577
 30
0.0
 10
12.036757112
 20
8.0203280751
 30
0.0
 10
12.0689188355
 20
8.0431961355
 30
0.0
 10
12.0998107603
 20
8.0676998749
 30
0.0
 10
12.129357236
 20
8.0937816129
 30
0.0
 10
12.1574882276
 20
8.12137704
 30
0.0
 10
12.1841345758
 20
8.1504209336
 30
0.0
 10
12.2092333409
 20
8.1808420182
 30
0.0
 10
12.2327227445
 20
8.2125679513
 30
0.0
 10
12.254547309
 20
8.2455213266
 30
0.0
 10
12.2746534722
 20
8.2796232938
 30
0.0
 10
12.2929935395
 20
8.3147911388
 30
0.0
 10
12.3095228945
 20
8.3509402878
 30
0.0
 10
12.3242019093
 20
8.3879834629
 30
0.0
 10
12.3369954428
 20
8.4258312721
 30
0.0
 10
12.3478722473
 20
8.4643926036
 30
0.0
 10
12.3568070171
 20
8.5035742603
 30
0.0
 10
12.363777196
 20
8.5432821113
 30
0.0
 10
12.3687674857
 20
8.5834199318
 30
0.0
 10
12.3717643114
 20
8.6238922856
 30
0.0
 10
12.3730972942
 20
8.6782498319
 30
0.0
 10
12.3697313633
 20
8.7465636156
 30
0.0
 10
12.3597409165
 20
8.8144500818
 30
0.0
 10
12.3478425018
 20
8.8682399067
 30
0.0
 10
12.3369618094
 20
8.9083025522
 30
0.0
 10
12.324165654
 20
8.9479153668
 30
0.0
 10
12.309485213
 20
8.9869843095
 30
0.0
 10
12.2929557723
 20
9.0254149692
 30
0.0
 10
12.274617019
 20
9.0631148566
 30
0.0
 10
12.254513583
 20
9.0999934437
 30
0.0
 10
12.2326931872
 20
9.1359615827
 30
0.0
 10
12.209209322
 20
9.1709332814
 30
0.0
 10
12.1841174349
 20
9.2048236091
 30
0.0
 10
12.1574791722
 20
9.2375519179
 30
0.0
 10
12.1293573671
 20
9.2690383774
 30
0.0
 10
12.0998210173
 20
9.2992083693
 30
0.0
 10
12.0689399689
 20
9.3279880426
 30
0.0
 10
12.036789705
 20
9.3553093377
 30
0.0
 10
12.0034466046
 20
9.3811053071
 30
0.0
 10
11.9689917414
 20
9.4053148967
 30
0.0
 10
11.9335073975
 20
9.4278789254
 30
0.0
 10
11.8970794064
 20
9.448743704
 30
0.0
 10
11.8597952372
 20
9.4678585294
 30
0.0
 10
11.8217446493
 20
9.4851775545
 30
0.0
 10
11.783019437
 20
9.5006591276
 30
0.0
 10
11.7437116265
 20
9.5142654975
 30
0.0
 10
11.690744588
 20
9.5298375383
 30
0.0
 10
11.6235533173
 20
9.5444872551
 30
0.0
 10
11.5689976175
 20
9.5509675021
 30
0.0
 10
11.5417323219
 20
9.5528583568
 30
0.0
  0
SPLINE
  5
3D1
100
AcDbEntity
  8
0
100
AcDbSpline
 62
7
  6
CONTINUOUS
 70
0
 71
3
 72
15
 73
11
 74
0
 42
0.0000001
 43
0.0000001
 44
0.0000000001
 40
0.0
 40
0.0
 40
0.0
 40
0.0
 40
0.1261304062
 40
0.251857918
 40
0.3772174985
 40
0.502247911
 40
0.6269926351
 40
0.751498858
 40
0.8758169754
 40
1.0
 40
1.0
 40
1.0
 40
1.0
 10
11.6728453359
 20
9.8798761669
 30
0.0
 10
11.6582761189
 20
9.8766682947
 30
0.0
 10
11.6293597837
 20
9.8694322199
 30
0.0
 10
11.5867493391
 20
9.8561275395
 30
0.0
 10
11.5450986359
 20
9.8404291907
 30
0.0
 10
11.5045367256
 20
9.8223847973
 30
0.0
 10
11.4651865207
 20
9.8020502433
 30
0.0
 10
11.4271684545
 20
9.7794858648
 30
0.0
 10
11.3905993941
 20
9.7547628232
 30
0.0
 10
11.3672476272
 20
9.7368810777
 30
0.0
 10
11.3558550719
 20
9.727610528
 30
0.0
  0
SPLINE
  5
3D2
100
AcDbEntity
  8
0
100
AcDbSpline
 62
7
  6
CONTINUOUS
 70
0
 71
3
 72
35
 73
31
 74
0
 42
0.0000001
 43
0.0000001
 44
0.0000000001
 40
0.0
 40
0.0
 40
0.0
 40
0.0
 40
0.0612906693
 40
0.1229878739
 40
0.1539915337
 40
0.1850872977
 40
0.2162696171
 40
0.2475327476
 40
0.2788701874
 40
0.3102745649
 40
0.3417379897
 40
0.3732520333
 40
0.4048078488
 40
0.4363961973
 40
0.468007577
 40
0.4996322754
 40
0.5312604555
 40
0.562882252
 40
0.5944878596
 40
0.6260676278
 40
0.6576121068
 40
0.6891121837
 40
0.720559106
 40
0.7519446068
 40
0.7832608858
 40
0.8145009644
 40
0.845658577
 40
0.8767276093
 40
0.9385638178
 40
1.0
 40
1.0
 40
1.0
 40
1.0
 10
12.7283924035
 20
9.0133877847
 30
0.0
 10
12.7283924035
 20
9.0404953103
 30
0.0
 10
12.7257108821
 20
9.0949239906
 30
0.0
 10
12.7157784781
 20
9.1624129434
 30
0.0
 10
12.7039492119
 20
9.2158902751
 30
0.0
 10
12.6931318894
 20
9.2557200426
 30
0.0
 10
12.6804100774
 20
9.2951026243
 30
0.0
 10
12.665814969
 20
9.3339443738
 30
0.0
 10
12.649381649
 20
9.3721515902
 30
0.0
 10
12.6311495167
 20
9.4096323065
 30
0.0
 10
12.6111629525
 20
9.4462964898
 30
0.0
 10
12.589469421
 20
9.4820555096
 30
0.0
 10
12.5661220943
 20
9.5168238777
 30
0.0
 10
12.5411760929
 20
9.5505171651
 30
0.0
 10
12.5146927021
 20
9.5830551965
 30
0.0
 10
12.48673439
 20
9.6143585994
 30
0.0
 10
12.4573697624
 20
9.6443531863
 30
0.0
 10
12.4266682593
 20
9.6729655335
 30
0.0
 10
12.394704918
 20
9.7001279793
 30
0.0
 10
12.3615556724
 20
9.7257739726
 30
0.0
 10
12.3273011258
 20
9.749842812
 30
0.0
 10
12.2920230849
 20
9.7722756545
 30
0.0
 10
12.2558068866
 20
9.7930191251
 30
0.0
 10
12.2187394877
 20
9.8120228174
 30
0.0
 10
12.1809101228
 20
9.8292411502
 30
0.0
 10
12.1424100549
 20
9.8446327151
 30
0.0
 10
12.103330778
 20
9.8581599793
 30
0.0
 10
12.0506716882
 20
9.8736414838
 30
0.0
 10
11.9838710655
 20
9.8882060278
 30
0.0
 10
11.9296325496
 20
9.8946485991
 30
0.0
 10
11.9025257731
 20
9.8965284604
 30
0.0
  0
SPLINE
  5
3D3
100
AcDbEntity
  8
0
100
AcDbSpline
 62
7
  6
CONTINUOUS
 70
0
 71
3
 72
20
 73
16
 74
0
 42
0.0000001
 43
0.0000001
 44
0.0000000001
 40
0.0
 40
0.0
 40
0.0
 40
0.0
 40
0.1160061915
 40
0.1751616166
 40
0.2351053835
 40
0.2958339261
 40
0.3573259761
 40
0.4195420477
 40
0.4824253089
 40
0.5459040886
 40
0.6098961925
 40
0.6743146387
 40
0.7390728404
 40
0.8692881496
 40
1.0
 40
1.0
 40
1.0
 40
1.0
 10
12.4045810817
 20
8.2586520007
 30
0.0
 10
12.4021697519
 20
8.2912217206
 30
0.0
 10
12.3989149756
 20
8.3404298585
 30
0.0
 10
12.3954062178
 20
8.4065259295
 30
0.0
 10
12.3931847615
 20
8.4571042905
 30
0.0
 10
12.3914211574
 20
8.5083589022
 30
0.0
 10
12.3901415031
 20
8.56026785
 30
0.0
 10
12.3893660554
 20
8.6127934744
 30
0.0
 10
12.3891077127
 20
8.6658835125
 30
0.0
 10
12.3893709491
 20
8.7194735104
 30
0.0
 10
12.3901510083
 20
8.7734906665
 30
0.0
 10
12.3914347658
 20
8.8278584514
 30
0.0
 10
12.3937950398
 20
8.9008468913
 30
0.0
 10
12.3978879344
 20
8.9924485684
 30
0.0
 10
12.4022025332
 20
9.0657820108
 30
0.0
 10
12.4045810817
 20
9.1025039586
 30
0.0
  0
SPLINE
  5
3D4
100
AcDbEntity
  8
0
100
AcDbSpline
 62
7
  6
CONTINUOUS
 70
0
 71
3
 72
21
 73
17
 74
0
 42
0.0000001
 43
0.0000001
 44
0.0000000001
 40
0.0
 40
0.0
 40
0.0
 40
0.0
 40
0.1257737254
 40
0.1889245626
 40
0.2522069038
 40
0.3155731541
 40
0.3789649978
 40
0.4423154662
 40
0.5055519136
 40
0.5686000731
 40
0.6313890432
 40
0.6938558204
 40
0.7559484927
 40
0.8176281145
 40
0.8788694786
 40
1.0
 40
1.0
 40
1.0
 40
1.0
 10
12.3473716363
 20
9.2055611132
 30
0.0
 10
12.3150520905
 20
9.2226111521
 30
0.0
 10
12.266720499
 20
9.2486351961
 30
0.0
 10
12.2027271042
 20
9.284329168
 30
0.0
 10
12.1548565696
 20
9.3117015794
 30
0.0
 10
12.1072379251
 20
9.339648587
 30
0.0
 10
12.0599375409
 20
9.3681695497
 30
0.0
 10
12.0130248341
 20
9.3972524394
 30
0.0
 10
11.9665685937
 20
9.4268738468
 30
0.0
 10
11.9206329159
 20
9.456999843
 30
0.0
 10
11.8752728219
 20
9.4875874707
 30
0.0
 10
11.830531287
 20
9.5185879847
 30
0.0
 10
11.7864373456
 20
9.5499498231
 30
0.0
 10
11.743005334
 20
9.5816215119
 30
0.0
 10
11.6861883858
 20
9.6240413057
 30
0.0
 10
11.6442358643
 20
9.6564118446
 30
0.0
 10
11.6165744038
 20
9.6781680524
 30
0.0
  0
SPLINE
  5
3D5
100
AcDbEntity
  8
0
100
AcDbSpline
 62
7
  6
CONTINUOUS
 70
0
 71
3
 72
15
 73
11
 74
0
 42
0.0000001
 43
0.0000001
 44
0.0000000001
 40
0.0
 40
0.0
 40
0.0
 40
0.0
 40
0.1336908709
 40
0.2662126058
 40
0.3968886543
 40
0.5249381662
 40
0.6496257854
 40
0.7704380623
 40
0.8871871863
 40
1.0
 40
1.0
 40
1.0
 40
1.0
 10
11.5021555129
 20
9.6861030294
 30
0.0
 10
11.4700339192
 20
9.668698408
 30
0.0
 10
11.4059896002
 20
9.6341924077
 30
0.0
 10
11.3102160195
 20
9.5832934187
 30
0.0
 10
11.2154695358
 20
9.5337513571
 30
0.0
 10
11.1222539569
 20
9.4859078001
 30
0.0
 10
11.0310557347
 20
9.4400441664
 30
0.0
 10
10.9422430152
 20
9.396318262
 30
0.0
 10
10.8559947828
 20
9.354738014
 30
0.0
 10
10.7992770104
 20
9.3279322784
 30
0.0
 10
10.7713582804
 20
9.3148580107
 30
0.0
  0
SPLINE
  5
3D6
100
AcDbEntity
  8
0
100
AcDbSpline
 62
7
  6
CONTINUOUS
 70
0
 71
3
 72
19
 73
15
 74
0
 42
0.0000001
 43
0.0000001
 44
0.0000000001
 40
0.0
 40
0.0
 40
0.0
 40
0.0
 40
0.1267318338
 40
0.2529199597
 40
0.3785785478
 40
0.5037278304
 40
0.5661285532
 40
0.6284136505
 40
0.690588007
 40
0.7526569502
 40
0.8146262552
 40
0.8765020901
 40
0.9382910273
 40
1.0
 40
1.0
 40
1.0
 40
1.0
 10
12.7455759874
 20
6.1262082026
 30
0.0
 10
12.7455759874
 20
6.1090150981
 30
0.0
 10
12.7445113296
 20
6.0746928695
 30
0.0
 10
12.739701851
 20
6.0235258826
 30
0.0
 10
12.7317021469
 20
5.9729757555
 30
0.0
 10
12.7223920416
 20
5.9314842989
 30
0.0
 10
12.7133835732
 20
5.8988044239
 30
0.0
 10
12.7058607181
 20
5.8745910991
 30
0.0
 10
12.6975729182
 20
5.8506767018
 30
0.0
 10
12.6885278749
 20
5.827084091
 30
0.0
 10
12.6787345928
 20
5.803836082
 30
0.0
 10
12.6682022425
 20
5.7809551321
 30
0.0
 10
12.6569413805
 20
5.7584635795
 30
0.0
 10
12.6489502859
 20
5.7437336276
 30
0.0
 10
12.6448374023
 20
5.7364418105
 30
0.0
  0
SPLINE
  5
3D7
100
AcDbEntity
  8
0
100
AcDbSpline
 62
7
  6
CONTINUOUS
 70
0
 71
3
 72
19
 73
15
 74
0
 42
0.0000001
 43
0.0000001
 44
0.0000000001
 40
0.0
 40
0.0
 40
0.0
 40
0.0
 40
0.1267315004
 40
0.252919423
 40
0.3785779259
 40
0.5037272279
 40
0.5661279892
 40
0.628413143
 40
0.6905875706
 40
0.7526565956
 40
0.8146259895
 40
0.876501916
 40
0.9382909433
 40
1.0
 40
1.0
 40
1.0
 40
1.0
 10
10.5722427494
 20
6.2769293745
 30
0.0
 10
10.5722427494
 20
6.2597403419
 30
0.0
 10
10.5711785956
 20
6.2254262291
 30
0.0
 10
10.5663713969
 20
6.1742712176
 30
0.0
 10
10.5583754762
 20
6.1237326808
 30
0.0
 10
10.5490697603
 20
6.0822504656
 30
0.0
 10
10.5400655204
 20
6.0495776466
 30
0.0
 10
10.5325461855
 20
6.0253694251
 30
0.0
 10
10.5242622506
 20
6.0014599342
 30
0.0
 10
10.5152214101
 20
5.9778720169
 30
0.0
 10
10.5054326607
 20
5.9546284733
 30
0.0
 10
10.494905163
 20
5.9317517461
 30
0.0
 10
10.4836494655
 20
5.9092641581
 30
0.0
 10
10.4756620157
 20
5.8945366691
 30
0.0
 10
10.4715510026
 20
5.887246035
 30
0.0
  0
SPLINE
  5
3D8
100
AcDbEntity
  8
0
100
AcDbSpline
 62
7
  6
CONTINUOUS
 70
0
 71
3
 72
19
 73
15
 74
0
 42
0.0000001
 43
0.0000001
 44
0.0000000001
 40
0.0
 40
0.0
 40
0.0
 40
0.0
 40
0.1267318338
 40
0.2529199597
 40
0.3785785478
 40
0.5037278304
 40
0.5661285532
 40
0.6284136505
 40
0.690588007
 40
0.7526569502
 40
0.8146262552
 40
0.8765020901
 40
0.9382910273
 40
1.0
 40
1.0
 40
1.0
 40
1.0
 10
12.7455759874
 20
9.0239858531
 30
0.0
 10
12.7455759874
 20
9.0067927487
 30
0.0
 10
12.7445113296
 20
8.9724705201
 30
0.0
 10
12.739701851
 20
8.9213035331
 30
0.0
 10
12.7317021469
 20
8.870753406
 30
0.0
 10
12.7223920416
 20
8.8292619495
 30
0.0
 10
12.7133835732
 20
8.7965820744
 30
0.0
 10
12.7058607181
 20
8.7723687496
 30
0.0
 10
12.6975729182
 20
8.7484543524
 30
0.0
 10
12.6885278749
 20
8.7248617416
 30
0.0
 10
12.6787345928
 20
8.7016137326
 30
0.0
 10
12.6682022425
 20
8.6787327826
 30
0.0
 10
12.6569413805
 20
8.6562412301
 30
0.0
 10
12.6489502859
 20
8.6415112782
 30
0.0
 10
12.6448374023
 20
8.6342194611
 30
0.0
  0
SPLINE
  5
3D9
100
AcDbEntity
  8
0
100
AcDbSpline
 62
7
  6
CONTINUOUS
 70
0
 71
3
 72
19
 73
15
 74
0
 42
0.0000001
 43
0.0000001
 44
0.0000000001
 40
0.0
 40
0.0
 40
0.0
 40
0.0
 40
0.1267315004
 40
0.252919423
 40
0.3785779259
 40
0.5037272279
 40
0.5661279892
 40
0.628413143
 40
0.6905875706
 40
0.7526565956
 40
0.8146259895
 40
0.876501916
 40
0.9382909433
 40
1.0
 40
1.0
 40
1.0
 40
1.0
 10
10.5722427494
 20
9.1747070251
 30
0.0
 10
10.5722427494
 20
9.1575179925
 30
0.0
 10
10.5711785956
 20
9.1232038797
 30
0.0
 10
10.5663713969
 20
9.0720488682
 30
0.0
 10
10.5583754762
 20
9.0215103314
 30
0.0
 10
10.5490697603
 20
8.9800281162
 30
0.0
 10
10.5400655204
 20
8.9473552972
 30
0.0
 10
10.5325461855
 20
8.9231470757
 30
0.0
 10
10.5242622506
 20
8.8992375847
 30
0.0
 10
10.5152214101
 20
8.8756496675
 30
0.0
 10
10.5054326607
 20
8.8524061239
 30
0.0
 10
10.494905163
 20
8.8295293967
 30
0.0
 10
10.4836494655
 20
8.8070418086
 30
0.0
 10
10.4756620157
 20
8.7923143196
 30
0.0
 10
10.4715510026
 20
8.7850236856
 30
0.0
  0
SPLINE
  5
3DA
100
AcDbEntity
  8
0
100
AcDbSpline
 62
7
  6
CONTINUOUS
 70
0
 71
3
 72
48
 73
44
 74
0
 42
0.0000001
 43
0.0000001
 44
0.0000000001
 40
0.0
 40
0.0
 40
0.0
 40
0.0
 40
0.0379399136
 40
0.0762767986
 40
0.1149214277
 40
0.1537871106
 40
0.1927845744
 40
0.2318248651
 40
0.2708187223
 40
0.3096770448
 40
0.3483111358
 40
0.3866329427
 40
0.4245553252
 40
0.4619923137
 40
0.4988593869
 40
0.5350737339
 40
0.5705545232
 40
0.6052231794
 40
0.6390036718
 40
0.6718228337
 40
0.7036106859
 40
0.7343007704
 40
0.7638305296
 40
0.7921417331
 40
0.8191809821
 40
0.8322087227
 40
0.844900968
 40
0.8572527215
 40
0.8692593311
 40
0.8809167463
 40
0.8922213034
 40
0.9031699678
 40
0.9137603029
 40
0.9239904642
 40
0.9338594602
 40
0.9433669743
 40
0.9525136988
 40
0.9613012981
 40
0.9697325451
 40
0.9778116104
 40
0.9855440117
 40
0.9929370776
 40
1.0
 40
1.0
 40
1.0
 40
1.0
 10
14.3936815339
 20
9.7269336593
 30
0.0
 10
14.3936815339
 20
9.7381302786
 30
0.0
 10
14.3938312612
 20
9.7606409313
 30
0.0
 10
14.3944947894
 20
9.7945502976
 30
0.0
 10
14.3955970931
 20
9.8287216288
 30
0.0
 10
14.3971354065
 20
9.8630712201
 30
0.0
 10
14.3991060592
 20
9.8975156743
 30
0.0
 10
14.4015042292
 20
9.931970919
 30
0.0
 10
14.404324082
 20
9.9663530214
 30
0.0
 10
14.4075587319
 20
10.0005781841
 30
0.0
 10
14.4112002823
 20
10.034563002
 30
0.0
 10
14.4152398423
 20
10.0682246591
 30
0.0
 10
14.4196675466
 20
10.1014811268
 30
0.0
 10
14.4244725803
 20
10.1342513695
 30
0.0
 10
14.4296431907
 20
10.1664555473
 30
0.0
 10
14.4351667304
 20
10.1980152111
 30
0.0
 10
14.4410296869
 20
10.2288534914
 30
0.0
 10
14.4472177138
 20
10.2588952865
 30
0.0
 10
14.4537156689
 20
10.2880674507
 30
0.0
 10
14.4605076389
 20
10.3162989837
 30
0.0
 10
14.4675769799
 20
10.343521216
 30
0.0
 10
14.4749063682
 20
10.3696679566
 30
0.0
 10
14.4824778382
 20
10.3946757346
 30
0.0
 10
14.4902728374
 20
10.4184837012
 30
0.0
 10
14.4970199311
 20
10.4375043409
 30
0.0
 10
14.5025246005
 20
10.4520692861
 30
0.0
 10
14.5066458777
 20
10.4625220972
 30
0.0
 10
14.5108085585
 20
10.4726333581
 30
0.0
 10
14.5150102108
 20
10.4823969166
 30
0.0
 10
14.5192481804
 20
10.4918068668
 30
0.0
 10
14.5235199537
 20
10.500857486
 30
0.0
 10
14.5278229079
 20
10.5095432956
 30
0.0
 10
14.5321543994
 20
10.5178590508
 30
0.0
 10
14.5365118752
 20
10.525799697
 30
0.0
 10
14.5408926005
 20
10.5333604811
 30
0.0
 10
14.5452940211
 20
10.540536814
 30
0.0
 10
14.5497134401
 20
10.5473244044
 30
0.0
 10
14.5541482092
 20
10.5537191887
 30
0.0
 10
14.5585957609
 20
10.5597173087
 30
0.0
 10
14.5630533623
 20
10.5653152344
 30
0.0
 10
14.5675185743
 20
10.5705096057
 30
0.0
 10
14.5719885915
 20
10.5752972272
 30
0.0
 10
14.5750385655
 20
10.5782828634
 30
0.0
 10
14.5765643581
 20
10.5797029194
 30
0.0
  0
SPLINE
  5
3DB
100
AcDbEntity
  8
0
100
AcDbSpline
 62
7
  6
CONTINUOUS
 70
0
 71
3
 72
48
 73
44
 74
0
 42
0.0000001
 43
0.0000001
 44
0.0000000001
 40
0.0
 40
0.0
 40
0.0
 40
0.0
 40
0.0379399136
 40
0.0762767986
 40
0.1149214277
 40
0.1537871106
 40
0.1927845744
 40
0.2318248651
 40
0.2708187223
 40
0.3096770448
 40
0.3483111358
 40
0.3866329427
 40
0.4245553252
 40
0.4619923137
 40
0.4988593869
 40
0.5350737339
 40
0.5705545232
 40
0.6052231794
 40
0.6390036718
 40
0.6718228337
 40
0.7036106859
 40
0.7343007704
 40
0.7638305296
 40
0.7921417331
 40
0.8191809821
 40
0.8322087227
 40
0.844900968
 40
0.8572527215
 40
0.8692593311
 40
0.8809167463
 40
0.8922213034
 40
0.9031699678
 40
0.9137603029
 40
0.9239904642
 40
0.9338594602
 40
0.9433669743
 40
0.9525136988
 40
0.9613012981
 40
0.9697325451
 40
0.9778116104
 40
0.9855440117
 40
0.9929370776
 40
1.0
 40
1.0
 40
1.0
 40
1.0
 10
14.3936815339
 20
6.8291560087
 30
0.0
 10
14.3936815339
 20
6.840352628
 30
0.0
 10
14.3938312612
 20
6.8628632808
 30
0.0
 10
14.3944947894
 20
6.896772647
 30
0.0
 10
14.3955970931
 20
6.9309439782
 30
0.0
 10
14.3971354065
 20
6.9652935695
 30
0.0
 10
14.3991060592
 20
6.9997380238
 30
0.0
 10
14.4015042292
 20
7.0341932684
 30
0.0
 10
14.404324082
 20
7.0685753709
 30
0.0
 10
14.4075587319
 20
7.1028005335
 30
0.0
 10
14.4112002823
 20
7.1367853514
 30
0.0
 10
14.4152398423
 20
7.1704470086
 30
0.0
 10
14.4196675466
 20
7.2037034762
 30
0.0
 10
14.4244725803
 20
7.2364737189
 30
0.0
 10
14.4296431907
 20
7.2686778968
 30
0.0
 10
14.4351667304
 20
7.3002375605
 30
0.0
 10
14.4410296869
 20
7.3310758409
 30
0.0
 10
14.4472177138
 20
7.3611176359
 30
0.0
 10
14.4537156689
 20
7.3902898001
 30
0.0
 10
14.4605076389
 20
7.4185213331
 30
0.0
 10
14.4675769799
 20
7.4457435655
 30
0.0
 10
14.4749063682
 20
7.471890306
 30
0.0
 10
14.4824778382
 20
7.4968980841
 30
0.0
 10
14.4902728374
 20
7.5207060507
 30
0.0
 10
14.4970199311
 20
7.5397266904
 30
0.0
 10
14.5025246005
 20
7.5542916355
 30
0.0
 10
14.5066458777
 20
7.5647444466
 30
0.0
 10
14.5108085585
 20
7.5748557075
 30
0.0
 10
14.5150102108
 20
7.584619266
 30
0.0
 10
14.5192481804
 20
7.5940292162
 30
0.0
 10
14.5235199537
 20
7.6030798355
 30
0.0
 10
14.5278229079
 20
7.6117656451
 30
0.0
 10
14.5321543994
 20
7.6200814002
 30
0.0
 10
14.5365118752
 20
7.6280220464
 30
0.0
 10
14.5408926005
 20
7.6355828305
 30
0.0
 10
14.5452940211
 20
7.6427591634
 30
0.0
 10
14.5497134401
 20
7.6495467538
 30
0.0
 10
14.5541482092
 20
7.6559415382
 30
0.0
 10
14.5585957609
 20
7.6619396581
 30
0.0
 10
14.5630533623
 20
7.6675375839
 30
0.0
 10
14.5675185743
 20
7.6727319552
 30
0.0
 10
14.5719885915
 20
7.6775195767
 30
0.0
 10
14.5750385655
 20
7.6805052128
 30
0.0
 10
14.5765643581
 20
7.6819252689
 30
0.0
  0
SPLINE
  5
3DC
100
AcDbEntity
  8
0
100
AcDbSpline
 62
7
  6
CONTINUOUS
 70
0
 71
3
 72
39
 73
35
 74
0
 42
0.0000001
 43
0.0000001
 44
0.0000000001
 40
0.0
 40
0.0
 40
0.0
 40
0.0
 40
0.0958313223
 40
0.1890999066
 40
0.2792396479
 40
0.3229663115
 40
0.3657099292
 40
0.4074081191
 40
0.4480006754
 40
0.4874302648
 40
0.5256424385
 40
0.5625857699
 40
0.5982125807
 40
0.6324786396
 40
0.665344311
 40
0.6967743203
 40
0.7267388303
 40
0.7552139511
 40
0.7821824427
 40
0.807635341
 40
0.8315726205
 40
0.8540058864
 40
0.8749600023
 40
0.8944766962
 40
0.9126183481
 40
0.9294727137
 40
0.94515911
 40
0.9598336921
 40
0.9668557838
 40
0.973702854
 40
0.9804062715
 40
0.9869997015
 40
0.9935186515
 40
1.0
 40
1.0
 40
1.0
 40
1.0
 10
14.1496048725
 20
11.6900625198
 30
0.0
 10
14.1406450556
 20
11.6906838852
 30
0.0
 10
14.1229779231
 20
11.6921070522
 30
0.0
 10
14.0969465188
 20
11.6948237289
 30
0.0
 10
14.0758337087
 20
11.6975636168
 30
0.0
 10
14.0594660907
 20
11.7000299569
 30
0.0
 10
14.047614323
 20
11.7019879623
 30
0.0
 10
14.036081971
 20
11.7040695124
 30
0.0
 10
14.0248882846
 20
11.7062711839
 30
0.0
 10
14.0140519594
 20
11.7085892432
 30
0.0
 10
14.0035910775
 20
11.7110197829
 30
0.0
 10
13.9935230892
 20
11.71355876
 30
0.0
 10
13.9838647679
 20
11.7162018334
 30
0.0
 10
13.9746322009
 20
11.7189446452
 30
0.0
 10
13.9658407266
 20
11.7217825064
 30
0.0
 10
13.9575049397
 20
11.7247107143
 30
0.0
 10
13.9496386336
 20
11.7277243438
 30
0.0
 10
13.9422547762
 20
11.7308183446
 30
0.0
 10
13.9353655093
 20
11.7339876482
 30
0.0
 10
13.9289820436
 20
11.7372269438
 30
0.0
 10
13.9231147535
 20
11.7405310908
 30
0.0
 10
13.9177730038
 20
11.7438947433
 30
0.0
 10
13.9129652996
 20
11.7473128084
 30
0.0
 10
13.9086992054
 20
11.7507803011
 30
0.0
 10
13.9049814736
 20
11.7542924476
 30
0.0
 10
13.9018182969
 20
11.757845227
 30
0.0
 10
13.8992157015
 20
11.7614340132
 30
0.0
 10
13.897494281
 20
11.7644968763
 30
0.0
 10
13.8964211411
 20
11.7669492919
 30
0.0
 10
13.8957714203
 20
11.7687663446
 30
0.0
 10
13.8952656104
 20
11.7705869817
 30
0.0
 10
13.8949039871
 20
11.7724104442
 30
0.0
 10
13.8946868708
 20
11.7742356844
 30
0.0
 10
13.8946385743
 20
11.77545462
 30
0.0
 10
13.894638569
 20
11.7760620537
 30
0.0
  0
SPLINE
  5
3DD
100
AcDbEntity
  8
0
100
AcDbSpline
 62
7
  6
CONTINUOUS
 70
0
 71
3
 72
39
 73
35
 74
0
 42
0.0000001
 43
0.0000001
 44
0.0000000001
 40
0.0
 40
0.0
 40
0.0
 40
0.0
 40
0.0958313223
 40
0.1890999066
 40
0.2792396479
 40
0.3229663115
 40
0.3657099292
 40
0.4074081191
 40
0.4480006754
 40
0.4874302648
 40
0.5256424385
 40
0.5625857699
 40
0.5982125807
 40
0.6324786396
 40
0.665344311
 40
0.6967743203
 40
0.7267388303
 40
0.7552139511
 40
0.7821824427
 40
0.807635341
 40
0.8315726205
 40
0.8540058864
 40
0.8749600023
 40
0.8944766962
 40
0.9126183481
 40
0.9294727137
 40
0.94515911
 40
0.9598336921
 40
0.9668557838
 40
0.973702854
 40
0.9804062715
 40
0.9869997015
 40
0.9935186515
 40
1.0
 40
1.0
 40
1.0
 40
1.0
 10
8.8370125132
 20
12.0584920513
 30
0.0
 10
8.8280526962
 20
12.0591134167
 30
0.0
 10
8.8103855637
 20
12.0605365837
 30
0.0
 10
8.7843541595
 20
12.0632532604
 30
0.0
 10
8.7632413494
 20
12.0659931482
 30
0.0
 10
8.7468737313
 20
12.0684594883
 30
0.0
 10
8.7350219636
 20
12.0704174938
 30
0.0
 10
8.7234896117
 20
12.0724990439
 30
0.0
 10
8.7122959252
 20
12.0747007153
 30
0.0
 10
8.7014596001
 20
12.0770187746
 30
0.0
 10
8.6909987182
 20
12.0794493143
 30
0.0
 10
8.6809307298
 20
12.0819882915
 30
0.0
 10
8.6712724085
 20
12.0846313649
 30
0.0
 10
8.6620398416
 20
12.0873741766
 30
0.0
 10
8.6532483673
 20
12.0902120379
 30
0.0
 10
8.6449125803
 20
12.0931402458
 30
0.0
 10
8.6370462742
 20
12.0961538753
 30
0.0
 10
8.6296624169
 20
12.0992478761
 30
0.0
 10
8.6227731499
 20
12.1024171797
 30
0.0
 10
8.6163896843
 20
12.1056564753
 30
0.0
 10
8.6105223942
 20
12.1089606222
 30
0.0
 10
8.6051806444
 20
12.1123242748
 30
0.0
 10
8.6003729402
 20
12.1157423399
 30
0.0
 10
8.596106846
 20
12.1192098326
 30
0.0
 10
8.5923891142
 20
12.1227219791
 30
0.0
 10
8.5892259375
 20
12.1262747585
 30
0.0
 10
8.5866233421
 20
12.1298635446
 30
0.0
 10
8.5849019216
 20
12.1329264078
 30
0.0
 10
8.5838287818
 20
12.1353788234
 30
0.0
 10
8.5831790609
 20
12.1371958761
 30
0.0
 10
8.5826732511
 20
12.1390165132
 30
0.0
 10
8.5823116277
 20
12.1408399757
 30
0.0
 10
8.5820945114
 20
12.1426652159
 30
0.0
 10
8.5820462149
 20
12.1438841515
 30
0.0
 10
8.5820462096
 20
12.1444915852
 30
0.0
  0
SPLINE
  5
3DE
100
AcDbEntity
  8
0
100
AcDbSpline
 62
7
  6
CONTINUOUS
 70
0
 71
3
 72
23
 73
19
 74
0
 42
0.0000001
 43
0.0000001
 44
0.0000000001
 40
0.0
 40
0.0
 40
0.0
 40
0.0
 40
0.0620139163
 40
0.1240459014
 40
0.1861068922
 40
0.2482076635
 40
0.3103587921
 40
0.372570576
 40
0.4348529956
 40
0.4972156669
 40
0.5596677681
 40
0.6222180262
 40
0.6848746489
 40
0.747645288
 40
0.8105370247
 40
0.8735562978
 40
0.9367089134
 40
1.0
 40
1.0
 40
1.0
 40
1.0
 10
11.3286090301
 20
6.8153053765
 30
0.0
 10
11.3354335976
 20
6.8215928552
 30
0.0
 10
11.3493197343
 20
6.8339172767
 30
0.0
 10
11.3708239084
 20
6.8516208331
 30
0.0
 10
11.3929805684
 20
6.8685227181
 30
0.0
 10
11.4157626103
 20
6.8846024288
 30
0.0
 10
11.4391428006
 20
6.8998407017
 30
0.0
 10
11.4630930575
 20
6.9142191492
 30
0.0
 10
11.4875845298
 20
6.927720659
 30
0.0
 10
11.5125878836
 20
6.9403288532
 30
0.0
 10
11.5380730169
 20
6.9520287152
 30
0.0
 10
11.5640093248
 20
6.9628061932
 30
0.0
 10
11.5903656851
 20
6.9726482519
 30
0.0
 10
11.6171103843
 20
6.9815432576
 30
0.0
 10
11.6442113209
 20
6.9894803685
 30
0.0
 10
11.6716360357
 20
6.9964501808
 30
0.0
 10
11.6993511238
 20
7.0024442964
 30
0.0
 10
11.717979584
 20
7.0057814735
 30
0.0
 10
11.7273298688
 20
7.0072856477
 30
0.0
  0
SPLINE
  5
3DF
100
AcDbEntity
  8
0
100
AcDbSpline
 62
7
  6
CONTINUOUS
 70
0
 71
3
 72
43
 73
39
 74
0
 42
0.0000001
 43
0.0000001
 44
0.0000000001
 40
0.0
 40
0.0
 40
0.0
 40
0.0
 40
0.0151441571
 40
0.0303165622
 40
0.0455177125
 40
0.0607480204
 40
0.0912942078
 40
0.1219595929
 40
0.1373384977
 40
0.1527470289
 40
0.1681849341
 40
0.1836518767
 40
0.2146681459
 40
0.2457943124
 40
0.2770245715
 40
0.3083518709
 40
0.3397680061
 40
0.371263727
 40
0.402828854
 40
0.4344524024
 40
0.466122714
 40
0.4978275937
 40
0.5295544516
 40
0.5612904468
 40
0.5930226344
 40
0.624738113
 40
0.6564241714
 40
0.6880684347
 40
0.7196590064
 40
0.7511846081
 40
0.7826347131
 40
0.8139996733
 40
0.845270841
 40
0.8764406733
 40
0.9075028514
 40
0.9384523148
 40
0.9692854713
 40
1.0
 40
1.0
 40
1.0
 40
1.0
 10
11.7273298688
 20
7.0072856477
 30
0.0
 10
11.7349223148
 20
7.0085070396
 30
0.0
 10
11.750157544
 20
7.0107330267
 30
0.0
 10
11.7731176656
 20
7.0134167822
 30
0.0
 10
11.7961890765
 20
7.0154466736
 30
0.0
 10
11.8271020916
 20
7.0172805718
 30
0.0
 10
11.8659353082
 20
7.0179266572
 30
0.0
 10
11.9048182379
 20
7.0163816535
 30
0.0
 10
11.935922947
 20
7.0138380795
 30
0.0
 10
11.9592584212
 20
7.0112740358
 30
0.0
 10
11.9825580928
 20
7.0080577851
 30
0.0
 10
12.0135782591
 20
7.002898704
 30
0.0
 10
12.0521744218
 20
6.9948281807
 30
0.0
 10
12.0980070221
 20
6.9825967766
 30
0.0
 10
12.1432591956
 20
6.9678477743
 30
0.0
 10
12.1877874617
 20
6.9506279033
 30
0.0
 10
12.2314518371
 20
6.9309914974
 30
0.0
 10
12.2741147453
 20
6.9090005268
 30
0.0
 10
12.315641858
 20
6.884724348
 30
0.0
 10
12.3559024043
 20
6.8582395
 30
0.0
 10
12.3947696089
 20
6.8296294598
 30
0.0
 10
12.4321210806
 20
6.7989843816
 30
0.0
 10
12.4678391975
 20
6.7664008133
 30
0.0
 10
12.5018114742
 20
6.7319813946
 30
0.0
 10
12.5339309141
 20
6.6958345349
 30
0.0
 10
12.5640963444
 20
6.6580740741
 30
0.0
 10
12.5922127331
 20
6.6188189262
 30
0.0
 10
12.6181914866
 20
6.5781927068
 30
0.0
 10
12.6419507277
 20
6.5363233469
 30
0.0
 10
12.6634155528
 20
6.4933426924
 30
0.0
 10
12.6825182662
 20
6.4493860928
 30
0.0
 10
12.6991985957
 20
6.4045919739
 30
0.0
 10
12.7134038766
 20
6.3591014224
 30
0.0
 10
12.7250892327
 20
6.3130576796
 30
0.0
 10
12.7342176877
 20
6.2666059367
 30
0.0
 10
12.7407603444
 20
6.2198919931
 30
0.0
 10
12.7446963807
 20
6.1730650214
 30
0.0
 10
12.7455759874
 20
6.1418047518
 30
0.0
 10
12.7455759874
 20
6.1262082026
 30
0.0
  0
SPLINE
  5
3E0
100
AcDbEntity
  8
0
100
AcDbSpline
 62
7
  6
CONTINUOUS
 70
0
 71
3
 72
23
 73
19
 74
0
 42
0.0000001
 43
0.0000001
 44
0.0000000001
 40
0.0
 40
0.0
 40
0.0
 40
0.0
 40
0.0620139835
 40
0.1240460022
 40
0.1861069985
 40
0.2482077526
 40
0.3103588472
 40
0.3725705853
 40
0.434852953
 40
0.4972155716
 40
0.5596676242
 40
0.6222178428
 40
0.6848744396
 40
0.7476450707
 40
0.810536821
 40
0.873556133
 40
0.9367088156
 40
1.0
 40
1.0
 40
1.0
 40
1.0
 10
9.1552009021
 20
6.9659575428
 30
0.0
 10
9.1620261704
 20
6.9722473816
 30
0.0
 10
9.1759138472
 20
6.984576438
 30
0.0
 10
9.1974207344
 20
7.0022866679
 30
0.0
 10
9.2195804902
 20
7.0191949261
 30
0.0
 10
9.2423659938
 20
7.0352806935
 30
0.0
 10
9.2657499962
 20
7.0505246889
 30
0.0
 10
9.2897043969
 20
7.064908511
 30
0.0
 10
9.3142003273
 20
7.0784150323
 30
0.0
 10
9.3392084345
 20
7.0910278613
 30
0.0
 10
9.364698597
 20
7.1027319699
 30
0.0
 10
9.3906401901
 20
7.1135132935
 30
0.0
 10
9.4170020706
 20
7.1233587872
 30
0.0
 10
9.443752504
 20
7.1322568075
 30
0.0
 10
9.4708593674
 20
7.1401965039
 30
0.0
 10
9.4982901793
 20
7.1471684656
 30
0.0
 10
9.5260115125
 20
7.1531642876
 30
0.0
 10
9.5446442109
 20
7.156502302
 30
0.0
 10
9.5539966309
 20
7.1580068197
 30
0.0
  0
SPLINE
  5
3E1
100
AcDbEntity
  8
0
100
AcDbSpline
 62
7
  6
CONTINUOUS
 70
0
 71
3
 72
43
 73
39
 74
0
 42
0.0000001
 43
0.0000001
 44
0.0000000001
 40
0.0
 40
0.0
 40
0.0
 40
0.0
 40
0.0151441571
 40
0.0303165622
 40
0.0455177125
 40
0.0607480204
 40
0.0912942078
 40
0.1219595929
 40
0.1373384977
 40
0.1527470289
 40
0.1681849341
 40
0.1836518767
 40
0.2146681459
 40
0.2457943124
 40
0.2770245715
 40
0.3083518709
 40
0.3397680061
 40
0.371263727
 40
0.402828854
 40
0.4344524024
 40
0.466122714
 40
0.4978275937
 40
0.5295544516
 40
0.5612904468
 40
0.5930226344
 40
0.624738113
 40
0.6564241714
 40
0.6880684347
 40
0.7196590064
 40
0.7511846081
 40
0.7826347131
 40
0.8139996733
 40
0.845270841
 40
0.8764406733
 40
0.9075028514
 40
0.9384523148
 40
0.9692854713
 40
1.0
 40
1.0
 40
1.0
 40
1.0
 10
9.5539966309
 20
7.1580068197
 30
0.0
 10
9.5615890768
 20
7.1592282115
 30
0.0
 10
9.5768243061
 20
7.1614541986
 30
0.0
 10
9.5997844277
 20
7.1641379541
 30
0.0
 10
9.6228558386
 20
7.1661678456
 30
0.0
 10
9.6537688536
 20
7.1680017438
 30
0.0
 10
9.6926020703
 20
7.1686478292
 30
0.0
 10
9.731485
 20
7.1671028255
 30
0.0
 10
9.7625897091
 20
7.1645592515
 30
0.0
 10
9.7859251833
 20
7.1619952078
 30
0.0
 10
9.8092248549
 20
7.1587789571
 30
0.0
 10
9.8402450211
 20
7.1536198759
 30
0.0
 10
9.8788411839
 20
7.1455493527
 30
0.0
 10
9.9246737842
 20
7.1333179486
 30
0.0
 10
9.9699259576
 20
7.1185689463
 30
0.0
 10
10.0144542238
 20
7.1013490753
 30
0.0
 10
10.0581185992
 20
7.0817126693
 30
0.0
 10
10.1007815074
 20
7.0597216987
 30
0.0
 10
10.1423086201
 20
7.03544552
 30
0.0
 10
10.1825691664
 20
7.008960672
 30
0.0
 10
10.221436371
 20
6.9803506318
 30
0.0
 10
10.2587878427
 20
6.9497055535
 30
0.0
 10
10.2945059596
 20
6.9171219852
 30
0.0
 10
10.3284782363
 20
6.8827025665
 30
0.0
 10
10.3605976762
 20
6.8465557069
 30
0.0
 10
10.3907631065
 20
6.8087952461
 30
0.0
 10
10.4188794952
 20
6.7695400981
 30
0.0
 10
10.4448582487
 20
6.7289138787
 30
0.0
 10
10.4686174898
 20
6.6870445189
 30
0.0
 10
10.4900823149
 20
6.6440638644
 30
0.0
 10
10.5091850283
 20
6.6001072648
 30
0.0
 10
10.5258653578
 20
6.5553131459
 30
0.0
 10
10.5400706387
 20
6.5098225943
 30
0.0
 10
10.5517559948
 20
6.4637788516
 30
0.0
 10
10.5608844498
 20
6.4173271086
 30
0.0
 10
10.5674271065
 20
6.3706131651
 30
0.0
 10
10.5713631428
 20
6.3237861934
 30
0.0
 10
10.5722427494
 20
6.2925259238
 30
0.0
 10
10.5722427494
 20
6.2769293745
 30
0.0
  0
SPLINE
  5
3E2
100
AcDbEntity
  8
0
100
AcDbSpline
 62
7
  6
CONTINUOUS
 70
0
 71
3
 72
23
 73
19
 74
0
 42
0.0000001
 43
0.0000001
 44
0.0000000001
 40
0.0
 40
0.0
 40
0.0
 40
0.0
 40
0.0620139163
 40
0.1240459014
 40
0.1861068922
 40
0.2482076635
 40
0.3103587921
 40
0.372570576
 40
0.4348529956
 40
0.4972156669
 40
0.5596677681
 40
0.6222180262
 40
0.6848746489
 40
0.747645288
 40
0.8105370247
 40
0.8735562978
 40
0.9367089134
 40
1.0
 40
1.0
 40
1.0
 40
1.0
 10
11.3286090301
 20
9.7130830271
 30
0.0
 10
11.3354335976
 20
9.7193705057
 30
0.0
 10
11.3493197343
 20
9.7316949273
 30
0.0
 10
11.3708239084
 20
9.7493984837
 30
0.0
 10
11.3929805684
 20
9.7663003686
 30
0.0
 10
11.4157626103
 20
9.7823800794
 30
0.0
 10
11.4391428006
 20
9.7976183523
 30
0.0
 10
11.4630930575
 20
9.8119967998
 30
0.0
 10
11.4875845298
 20
9.8254983096
 30
0.0
 10
11.5125878836
 20
9.8381065038
 30
0.0
 10
11.5380730169
 20
9.8498063658
 30
0.0
 10
11.5640093248
 20
9.8605838438
 30
0.0
 10
11.5903656851
 20
9.8704259024
 30
0.0
 10
11.6171103843
 20
9.8793209082
 30
0.0
 10
11.6442113209
 20
9.8872580191
 30
0.0
 10
11.6716360357
 20
9.8942278314
 30
0.0
 10
11.6993511238
 20
9.9002219469
 30
0.0
 10
11.717979584
 20
9.9035591241
 30
0.0
 10
11.7273298688
 20
9.9050632983
 30
0.0
  0
SPLINE
  5
3E3
100
AcDbEntity
  8
0
100
AcDbSpline
 62
7
  6
CONTINUOUS
 70
0
 71
3
 72
43
 73
39
 74
0
 42
0.0000001
 43
0.0000001
 44
0.0000000001
 40
0.0
 40
0.0
 40
0.0
 40
0.0
 40
0.0151441571
 40
0.0303165622
 40
0.0455177125
 40
0.0607480204
 40
0.0912942078
 40
0.1219595929
 40
0.1373384977
 40
0.1527470289
 40
0.1681849341
 40
0.1836518767
 40
0.2146681459
 40
0.2457943124
 40
0.2770245715
 40
0.3083518709
 40
0.3397680061
 40
0.371263727
 40
0.402828854
 40
0.4344524024
 40
0.466122714
 40
0.4978275937
 40
0.5295544516
 40
0.5612904468
 40
0.5930226344
 40
0.624738113
 40
0.6564241714
 40
0.6880684347
 40
0.7196590064
 40
0.7511846081
 40
0.7826347131
 40
0.8139996733
 40
0.845270841
 40
0.8764406733
 40
0.9075028514
 40
0.9384523148
 40
0.9692854713
 40
1.0
 40
1.0
 40
1.0
 40
1.0
 10
11.7273298688
 20
9.9050632983
 30
0.0
 10
11.7349223148
 20
9.9062846901
 30
0.0
 10
11.750157544
 20
9.9085106772
 30
0.0
 10
11.7731176656
 20
9.9111944327
 30
0.0
 10
11.7961890765
 20
9.9132243242
 30
0.0
 10
11.8271020916
 20
9.9150582224
 30
0.0
 10
11.8659353082
 20
9.9157043078
 30
0.0
 10
11.9048182379
 20
9.9141593041
 30
0.0
 10
11.935922947
 20
9.9116157301
 30
0.0
 10
11.9592584212
 20
9.9090516864
 30
0.0
 10
11.9825580928
 20
9.9058354357
 30
0.0
 10
12.0135782591
 20
9.9006763545
 30
0.0
 10
12.0521744218
 20
9.8926058313
 30
0.0
 10
12.0980070221
 20
9.8803744272
 30
0.0
 10
12.1432591956
 20
9.8656254249
 30
0.0
 10
12.1877874617
 20
9.8484055539
 30
0.0
 10
12.2314518371
 20
9.8287691479
 30
0.0
 10
12.2741147453
 20
9.8067781773
 30
0.0
 10
12.315641858
 20
9.7825019986
 30
0.0
 10
12.3559024043
 20
9.7560171506
 30
0.0
 10
12.3947696089
 20
9.7274071104
 30
0.0
 10
12.4321210806
 20
9.6967620321
 30
0.0
 10
12.4678391975
 20
9.6641784638
 30
0.0
 10
12.5018114742
 20
9.6297590451
 30
0.0
 10
12.5339309141
 20
9.5936121855
 30
0.0
 10
12.5640963444
 20
9.5558517247
 30
0.0
 10
12.5922127331
 20
9.5165965767
 30
0.0
 10
12.6181914866
 20
9.4759703573
 30
0.0
 10
12.6419507277
 20
9.4341009975
 30
0.0
 10
12.6634155528
 20
9.391120343
 30
0.0
 10
12.6825182662
 20
9.3471637434
 30
0.0
 10
12.6991985957
 20
9.3023696245
 30
0.0
 10
12.7134038766
 20
9.2568790729
 30
0.0
 10
12.7250892327
 20
9.2108353302
 30
0.0
 10
12.7342176877
 20
9.1643835872
 30
0.0
 10
12.7407603444
 20
9.1176696437
 30
0.0
 10
12.7446963807
 20
9.070842672
 30
0.0
 10
12.7455759874
 20
9.0395824024
 30
0.0
 10
12.7455759874
 20
9.0239858531
 30
0.0
  0
SPLINE
  5
3E4
100
AcDbEntity
  8
0
100
AcDbSpline
 62
7
  6
CONTINUOUS
 70
0
 71
3
 72
23
 73
19
 74
0
 42
0.0000001
 43
0.0000001
 44
0.0000000001
 40
0.0
 40
0.0
 40
0.0
 40
0.0
 40
0.0620139835
 40
0.1240460022
 40
0.1861069985
 40
0.2482077526
 40
0.3103588472
 40
0.3725705853
 40
0.434852953
 40
0.4972155716
 40
0.5596676242
 40
0.6222178428
 40
0.6848744396
 40
0.7476450707
 40
0.810536821
 40
0.873556133
 40
0.9367088156
 40
1.0
 40
1.0
 40
1.0
 40
1.0
 10
9.1552009021
 20
9.8637351933
 30
0.0
 10
9.1620261704
 20
9.8700250322
 30
0.0
 10
9.1759138472
 20
9.8823540885
 30
0.0
 10
9.1974207344
 20
9.9000643185
 30
0.0
 10
9.2195804902
 20
9.9169725766
 30
0.0
 10
9.2423659938
 20
9.9330583441
 30
0.0
 10
9.2657499962
 20
9.9483023394
 30
0.0
 10
9.2897043969
 20
9.9626861616
 30
0.0
 10
9.3142003273
 20
9.9761926828
 30
0.0
 10
9.3392084345
 20
9.9888055119
 30
0.0
 10
9.364698597
 20
10.0005096204
 30
0.0
 10
9.3906401901
 20
10.0112909441
 30
0.0
 10
9.4170020706
 20
10.0211364378
 30
0.0
 10
9.443752504
 20
10.0300344581
 30
0.0
 10
9.4708593674
 20
10.0379741545
 30
0.0
 10
9.4982901793
 20
10.0449461162
 30
0.0
 10
9.5260115125
 20
10.0509419381
 30
0.0
 10
9.5446442109
 20
10.0542799525
 30
0.0
 10
9.5539966309
 20
10.0557844703
 30
0.0
  0
SPLINE
  5
3E5
100
AcDbEntity
  8
0
100
AcDbSpline
 62
7
  6
CONTINUOUS
 70
0
 71
3
 72
43
 73
39
 74
0
 42
0.0000001
 43
0.0000001
 44
0.0000000001
 40
0.0
 40
0.0
 40
0.0
 40
0.0
 40
0.0151441571
 40
0.0303165622
 40
0.0455177125
 40
0.0607480204
 40
0.0912942078
 40
0.1219595929
 40
0.1373384977
 40
0.1527470289
 40
0.1681849341
 40
0.1836518767
 40
0.2146681459
 40
0.2457943124
 40
0.2770245715
 40
0.3083518709
 40
0.3397680061
 40
0.371263727
 40
0.402828854
 40
0.4344524024
 40
0.466122714
 40
0.4978275937
 40
0.5295544516
 40
0.5612904468
 40
0.5930226344
 40
0.624738113
 40
0.6564241714
 40
0.6880684347
 40
0.7196590064
 40
0.7511846081
 40
0.7826347131
 40
0.8139996733
 40
0.845270841
 40
0.8764406733
 40
0.9075028514
 40
0.9384523148
 40
0.9692854713
 40
1.0
 40
1.0
 40
1.0
 40
1.0
 10
9.5539966309
 20
10.0557844703
 30
0.0
 10
9.5615890768
 20
10.0570058621
 30
0.0
 10
9.5768243061
 20
10.0592318492
 30
0.0
 10
9.5997844277
 20
10.0619156047
 30
0.0
 10
9.6228558386
 20
10.0639454962
 30
0.0
 10
9.6537688536
 20
10.0657793944
 30
0.0
 10
9.6926020703
 20
10.0664254798
 30
0.0
 10
9.731485
 20
10.0648804761
 30
0.0
 10
9.7625897091
 20
10.0623369021
 30
0.0
 10
9.7859251833
 20
10.0597728584
 30
0.0
 10
9.8092248549
 20
10.0565566077
 30
0.0
 10
9.8402450211
 20
10.0513975265
 30
0.0
 10
9.8788411839
 20
10.0433270032
 30
0.0
 10
9.9246737842
 20
10.0310955992
 30
0.0
 10
9.9699259576
 20
10.0163465968
 30
0.0
 10
10.0144542238
 20
9.9991267259
 30
0.0
 10
10.0581185992
 20
9.9794903199
 30
0.0
 10
10.1007815074
 20
9.9574993493
 30
0.0
 10
10.1423086201
 20
9.9332231705
 30
0.0
 10
10.1825691664
 20
9.9067383226
 30
0.0
 10
10.221436371
 20
9.8781282824
 30
0.0
 10
10.2587878427
 20
9.8474832041
 30
0.0
 10
10.2945059596
 20
9.8148996358
 30
0.0
 10
10.3284782363
 20
9.7804802171
 30
0.0
 10
10.3605976762
 20
9.7443333574
 30
0.0
 10
10.3907631065
 20
9.7065728967
 30
0.0
 10
10.4188794952
 20
9.6673177487
 30
0.0
 10
10.4448582487
 20
9.6266915293
 30
0.0
 10
10.4686174898
 20
9.5848221694
 30
0.0
 10
10.4900823149
 20
9.541841515
 30
0.0
 10
10.5091850283
 20
9.4978849154
 30
0.0
 10
10.5258653578
 20
9.4530907965
 30
0.0
 10
10.5400706387
 20
9.4076002449
 30
0.0
 10
10.5517559948
 20
9.3615565021
 30
0.0
 10
10.5608844498
 20
9.3151047592
 30
0.0
 10
10.5674271065
 20
9.2683908156
 30
0.0
 10
10.5713631428
 20
9.221563844
 30
0.0
 10
10.5722427494
 20
9.1903035744
 30
0.0
 10
10.5722427494
 20
9.1747070251
 30
0.0
  0
SPLINE
  5
3E6
100
AcDbEntity
  8
0
100
AcDbSpline
 62
7
  6
CONTINUOUS
 70
0
 71
3
 72
51
 73
47
 74
0
 42
0.0000001
 43
0.0000001
 44
0.0000000001
 40
0.0
 40
0.0
 40
0.0
 40
0.0
 40
0.0055575483
 40
0.0111779716
 40
0.01692191
 40
0.0228457685
 40
0.029000541
 40
0.0354309187
 40
0.0421753321
 40
0.0492661787
 40
0.0567301751
 40
0.0645892818
 40
0.072860934
 40
0.0815589354
 40
0.0906938799
 40
0.1002734384
 40
0.1103031157
 40
0.1207861166
 40
0.1317239771
 40
0.1431166596
 40
0.1549625852
 40
0.1672591636
 40
0.1800024627
 40
0.1931876894
 40
0.2068091423
 40
0.2208601567
 40
0.2502201891
 40
0.2812020358
 40
0.3137291498
 40
0.3477165256
 40
0.3830717054
 40
0.4196956132
 40
0.4574832856
 40
0.4963245986
 40
0.5361048951
 40
0.5767055669
 40
0.6180046028
 40
0.6598771293
 40
0.7021959705
 40
0.7448321944
 40
0.7876555817
 40
0.8305351627
 40
0.8733399838
 40
0.9159382941
 40
0.9582023666
 40
1.0
 40
1.0
 40
1.0
 40
1.0
 10
14.5826385322
 20
11.7760628542
 30
0.0
 10
14.5826385395
 20
11.775211864
 30
0.0
 10
14.5825432988
 20
11.773498774
 30
0.0
 10
14.5821157421
 20
11.7709382698
 30
0.0
 10
14.5814041215
 20
11.7683834985
 30
0.0
 10
14.5804099791
 20
11.765837366
 30
0.0
 10
14.57913477
 20
11.7633020106
 30
0.0
 10
14.5775803514
 20
11.7607793112
 30
0.0
 10
14.575748433
 20
11.7582710221
 30
0.0
 10
14.5736407866
 20
11.7557788686
 30
0.0
 10
14.571259378
 20
11.7533044431
 30
0.0
 10
14.5686061049
 20
11.7508495717
 30
0.0
 10
14.5656832023
 20
11.7484159223
 30
0.0
 10
14.5624929766
 20
11.7460053254
 30
0.0
 10
14.5590379557
 20
11.7436196388
 30
0.0
 10
14.5553209351
 20
11.7412606229
 30
0.0
 10
14.5513448317
 20
11.7389302358
 30
0.0
 10
14.5471128749
 20
11.7366302456
 30
0.0
 10
14.542628451
 20
11.7343625333
 30
0.0
 10
14.5378951735
 20
11.7321289558
 30
0.0
 10
14.5329168937
 20
11.729931255
 30
0.0
 10
14.5276976226
 20
11.7277713129
 30
0.0
 10
14.5222416235
 20
11.725650817
 30
0.0
 10
14.5165533294
 20
11.7235715422
 30
0.0
 10
14.5106373669
 20
11.7215351867
 30
0.0
 10
14.5023302764
 20
11.7188399446
 30
0.0
 10
14.4914071993
 20
11.715600193
 30
0.0
 10
14.4776577457
 20
11.7119637275
 30
0.0
 10
14.4631259537
 20
11.7085358275
 30
0.0
 10
14.4478593154
 20
11.7053278213
 30
0.0
 10
14.4319076028
 20
11.7023503458
 30
0.0
 10
14.4153229465
 20
11.6996132628
 30
0.0
 10
14.3981595818
 20
11.6971256222
 30
0.0
 10
14.3804736732
 20
11.6948956505
 30
0.0
 10
14.3623231127
 20
11.6929307213
 30
0.0
 10
14.3437673299
 20
11.6912373332
 30
0.0
 10
14.3248670987
 20
11.6898210871
 30
0.0
 10
14.3056843356
 20
11.688686653
 30
0.0
 10
14.2862818879
 20
11.6878377735
 30
0.0
 10
14.2667233269
 20
11.6872772523
 30
0.0
 10
14.2470727422
 20
11.6870069441
 30
0.0
 10
14.2273944949
 20
11.6870277414
 30
0.0
 10
14.2077531769
 20
11.6873395896
 30
0.0
 10
14.1882128732
 20
11.6879414097
 30
0.0
 10
14.1688379863
 20
11.6888312887
 30
0.0
 10
14.1559897292
 20
11.6896197285
 30
0.0
 10
14.1496048725
 20
11.6900625198
 30
0.0
  0
SPLINE
  5
3E7
100
AcDbEntity
  8
0
100
AcDbSpline
 62
7
  6
CONTINUOUS
 70
0
 71
3
 72
51
 73
47
 74
0
 42
0.0000001
 43
0.0000001
 44
0.0000000001
 40
0.0
 40
0.0
 40
0.0
 40
0.0
 40
0.0055575483
 40
0.0111779716
 40
0.01692191
 40
0.0228457685
 40
0.029000541
 40
0.0354309187
 40
0.0421753321
 40
0.0492661787
 40
0.0567301751
 40
0.0645892818
 40
0.072860934
 40
0.0815589354
 40
0.0906938799
 40
0.1002734384
 40
0.1103031157
 40
0.1207861166
 40
0.1317239771
 40
0.1431166596
 40
0.1549625852
 40
0.1672591636
 40
0.1800024627
 40
0.1931876894
 40
0.2068091423
 40
0.2208601567
 40
0.2502201891
 40
0.2812020358
 40
0.3137291498
 40
0.3477165256
 40
0.3830717054
 40
0.4196956132
 40
0.4574832856
 40
0.4963245986
 40
0.5361048951
 40
0.5767055669
 40
0.6180046028
 40
0.6598771293
 40
0.7021959705
 40
0.7448321944
 40
0.7876555817
 40
0.8305351627
 40
0.8733399838
 40
0.9159382941
 40
0.9582023666
 40
1.0
 40
1.0
 40
1.0
 40
1.0
 10
9.2700461728
 20
12.1444923857
 30
0.0
 10
9.2700461802
 20
12.1436413955
 30
0.0
 10
9.2699509394
 20
12.1419283054
 30
0.0
 10
9.2695233827
 20
12.1393678013
 30
0.0
 10
9.2688117622
 20
12.13681303
 30
0.0
 10
9.2678176197
 20
12.1342668975
 30
0.0
 10
9.2665424106
 20
12.1317315421
 30
0.0
 10
9.2649879921
 20
12.1292088427
 30
0.0
 10
9.2631560736
 20
12.1267005535
 30
0.0
 10
9.2610484273
 20
12.1242084001
 30
0.0
 10
9.2586670186
 20
12.1217339746
 30
0.0
 10
9.2560137455
 20
12.1192791032
 30
0.0
 10
9.2530908429
 20
12.1168454538
 30
0.0
 10
9.2499006172
 20
12.1144348569
 30
0.0
 10
9.2464455963
 20
12.1120491702
 30
0.0
 10
9.2427285757
 20
12.1096901544
 30
0.0
 10
9.2387524723
 20
12.1073597673
 30
0.0
 10
9.2345205155
 20
12.1050597771
 30
0.0
 10
9.2300360917
 20
12.1027920648
 30
0.0
 10
9.2253028142
 20
12.1005584873
 30
0.0
 10
9.2203245343
 20
12.0983607865
 30
0.0
 10
9.2151052632
 20
12.0962008444
 30
0.0
 10
9.2096492642
 20
12.0940803485
 30
0.0
 10
9.2039609701
 20
12.0920010737
 30
0.0
 10
9.1980450075
 20
12.0899647182
 30
0.0
 10
9.189737917
 20
12.0872694761
 30
0.0
 10
9.1788148399
 20
12.0840297245
 30
0.0
 10
9.1650653864
 20
12.080393259
 30
0.0
 10
9.1505335944
 20
12.076965359
 30
0.0
 10
9.135266956
 20
12.0737573528
 30
0.0
 10
9.1193152434
 20
12.0707798773
 30
0.0
 10
9.1027305871
 20
12.0680427943
 30
0.0
 10
9.0855672224
 20
12.0655551536
 30
0.0
 10
9.0678813138
 20
12.063325182
 30
0.0
 10
9.0497307533
 20
12.0613602527
 30
0.0
 10
9.0311749705
 20
12.0596668646
 30
0.0
 10
9.0122747393
 20
12.0582506185
 30
0.0
 10
8.9930919763
 20
12.0571161845
 30
0.0
 10
8.9736895285
 20
12.056267305
 30
0.0
 10
8.9541309675
 20
12.0557067838
 30
0.0
 10
8.9344803828
 20
12.0554364756
 30
0.0
 10
8.9148021356
 20
12.0554572729
 30
0.0
 10
8.8951608175
 20
12.0557691211
 30
0.0
 10
8.8756205138
 20
12.0563709412
 30
0.0
 10
8.856245627
 20
12.0572608202
 30
0.0
 10
8.8433973698
 20
12.05804926
 30
0.0
 10
8.8370125132
 20
12.0584920513
 30
0.0
  0
SPLINE
  5
3E8
100
AcDbEntity
  8
0
100
AcDbSpline
 62
7
  6
CONTINUOUS
 70
0
 71
3
 72
34
 73
30
 74
0
 42
0.0000001
 43
0.0000001
 44
0.0000000001
 40
0.0
 40
0.0
 40
0.0
 40
0.0
 40
0.0162144598
 40
0.0334275717
 40
0.0516720479
 40
0.0709711964
 40
0.0913408177
 40
0.1127899359
 40
0.1353223099
 40
0.158936675
 40
0.1836279081
 40
0.2093870653
 40
0.2362022019
 40
0.2640584145
 40
0.2929383196
 40
0.3228222172
 40
0.3536882526
 40
0.3855127414
 40
0.4182700694
 40
0.4519331562
 40
0.4864731813
 40
0.5218601145
 40
0.5580623736
 40
0.5950473358
 40
0.6712274266
 40
0.7501179149
 40
0.8314201541
 40
0.914821556
 40
1.0
 40
1.0
 40
1.0
 40
1.0
 10
14.4829909857
 20
9.2304163766
 30
0.0
 10
14.4812489512
 20
9.2325583145
 30
0.0
 10
14.4778042668
 20
9.2370947991
 30
0.0
 10
14.4728916748
 20
9.2443987731
 30
0.0
 10
14.468087143
 20
9.252393494
 30
0.0
 10
14.463395477
 20
9.2610704341
 30
0.0
 10
14.4588213527
 20
9.2704209712
 30
0.0
 10
14.4543692754
 20
9.2804354801
 30
0.0
 10
14.4500439457
 20
9.2911037257
 30
0.0
 10
14.4458497205
 20
9.3024146578
 30
0.0
 10
14.4417910957
 20
9.3143565702
 30
0.0
 10
14.437872241
 20
9.3269170198
 30
0.0
 10
14.4340973541
 20
9.3400829094
 30
0.0
 10
14.4304703811
 20
9.3538404671
 30
0.0
 10
14.4269951742
 20
9.3681752847
 30
0.0
 10
14.4236754244
 20
9.3830723289
 30
0.0
 10
14.4205146161
 20
9.3985159601
 30
0.0
 10
14.4175161545
 20
9.414489953
 30
0.0
 10
14.4146831488
 20
9.4309775155
 30
0.0
 10
14.4120186865
 20
9.4479613034
 30
0.0
 10
14.4095255029
 20
9.4654234512
 30
0.0
 10
14.4072063398
 20
9.4833455687
 30
0.0
 10
14.4050635444
 20
9.5017088137
 30
0.0
 10
14.4024188306
 20
9.5270048258
 30
0.0
 10
14.3995842972
 20
9.5595868037
 30
0.0
 10
14.3969501307
 20
9.5997514153
 30
0.0
 10
14.3950622188
 20
9.6411888554
 30
0.0
 10
14.3939286767
 20
9.6837244953
 30
0.0
 10
14.3936815339
 20
9.712429977
 30
0.0
 10
14.3936815339
 20
9.7269336593
 30
0.0
  0
SPLINE
  5
3E9
100
AcDbEntity
  8
0
100
AcDbSpline
 62
7
  6
CONTINUOUS
 70
0
 71
3
 72
34
 73
30
 74
0
 42
0.0000001
 43
0.0000001
 44
0.0000000001
 40
0.0
 40
0.0
 40
0.0
 40
0.0
 40
0.0162144598
 40
0.0334275717
 40
0.0516720479
 40
0.0709711964
 40
0.0913408177
 40
0.1127899359
 40
0.1353223099
 40
0.158936675
 40
0.1836279081
 40
0.2093870653
 40
0.2362022019
 40
0.2640584145
 40
0.2929383196
 40
0.3228222172
 40
0.3536882526
 40
0.3855127414
 40
0.4182700694
 40
0.4519331562
 40
0.4864731813
 40
0.5218601145
 40
0.5580623736
 40
0.5950473358
 40
0.6712274266
 40
0.7501179149
 40
0.8314201541
 40
0.914821556
 40
1.0
 40
1.0
 40
1.0
 40
1.0
 10
14.4829909857
 20
6.332638726
 30
0.0
 10
14.4812489512
 20
6.3347806639
 30
0.0
 10
14.4778042668
 20
6.3393171485
 30
0.0
 10
14.4728916748
 20
6.3466211225
 30
0.0
 10
14.468087143
 20
6.3546158434
 30
0.0
 10
14.463395477
 20
6.3632927835
 30
0.0
 10
14.4588213527
 20
6.3726433206
 30
0.0
 10
14.4543692754
 20
6.3826578295
 30
0.0
 10
14.4500439457
 20
6.3933260751
 30
0.0
 10
14.4458497205
 20
6.4046370072
 30
0.0
 10
14.4417910957
 20
6.4165789197
 30
0.0
 10
14.437872241
 20
6.4291393692
 30
0.0
 10
14.4340973541
 20
6.4423052589
 30
0.0
 10
14.4304703811
 20
6.4560628165
 30
0.0
 10
14.4269951742
 20
6.4703976341
 30
0.0
 10
14.4236754244
 20
6.4852946783
 30
0.0
 10
14.4205146161
 20
6.5007383095
 30
0.0
 10
14.4175161545
 20
6.5167123025
 30
0.0
 10
14.4146831488
 20
6.5331998649
 30
0.0
 10
14.4120186865
 20
6.5501836528
 30
0.0
 10
14.4095255029
 20
6.5676458007
 30
0.0
 10
14.4072063398
 20
6.5855679182
 30
0.0
 10
14.4050635444
 20
6.6039311631
 30
0.0
 10
14.4024188306
 20
6.6292271752
 30
0.0
 10
14.3995842972
 20
6.6618091531
 30
0.0
 10
14.3969501307
 20
6.7019737647
 30
0.0
 10
14.3950622188
 20
6.7434112049
 30
0.0
 10
14.3939286767
 20
6.7859468447
 30
0.0
 10
14.3936815339
 20
6.8146523264
 30
0.0
 10
14.3936815339
 20
6.8291560087
 30
0.0
  0
SPLINE
  5
3EA
100
AcDbEntity
  8
0
100
AcDbSpline
 62
7
  6
CONTINUOUS
 70
0
 71
3
 72
65
 73
61
 74
0
 42
0.0000001
 43
0.0000001
 44
0.0000000001
 40
0.0
 40
0.0
 40
0.0
 40
0.0
 40
0.045210231
 40
0.0910011905
 40
0.1371889019
 40
0.18358642
 40
0.2300062103
 40
0.2762604535
 40
0.3221622311
 40
0.367526427
 40
0.4121707166
 40
0.4559165438
 40
0.4985901193
 40
0.5400234436
 40
0.5602246433
 40
0.5800559815
 40
0.5994985401
 40
0.6185340294
 40
0.6371447402
 40
0.6553136297
 40
0.6730243793
 40
0.6902613769
 40
0.7070098976
 40
0.7232559889
 40
0.7389867588
 40
0.7541902097
 40
0.7688555829
 40
0.782973225
 40
0.7965349206
 40
0.809533885
 40
0.8219650412
 40
0.8338252142
 40
0.8451133552
 40
0.8558309942
 40
0.8659824759
 40
0.8755757079
 40
0.8846225442
 40
0.8931398484
 40
0.9011502032
 40
0.9086832621
 40
0.9157768487
 40
0.9224783478
 40
0.928845727
 40
0.9319265805
 40
0.9349507149
 40
0.9379283993
 40
0.9408704256
 40
0.9437880168
 40
0.9466927158
 40
0.9495962298
 40
0.9525102794
 40
0.9554464544
 40
0.9584160538
 40
0.961429963
 40
0.9644985621
 40
0.970835863
 40
0.9775008051
 40
0.9845524907
 40
0.9920393022
 40
1.0
 40
1.0
 40
1.0
 40
1.0
 10
14.756027898
 20
10.0769333912
 30
0.0
 10
14.756027898
 20
10.062008833
 30
0.0
 10
14.7557617266
 20
10.0319674053
 30
0.0
 10
14.7545880496
 20
9.9866925236
 30
0.0
 10
14.7526418707
 20
9.9410518722
 30
0.0
 10
14.7499314974
 20
9.8952423388
 30
0.0
 10
14.746468621
 20
9.8494615031
 30
0.0
 10
14.7422681752
 20
9.803906764
 30
0.0
 10
14.7373483222
 20
9.7587745638
 30
0.0
 10
14.7317303528
 20
9.7142594944
 30
0.0
 10
14.7254386016
 20
9.6705534793
 30
0.0
 10
14.7185003542
 20
9.6278448626
 30
0.0
 10
14.7109456858
 20
9.586317839
 30
0.0
 10
14.70410755
 20
9.5525672761
 30
0.0
 10
14.6983436577
 20
9.526298678
 30
0.0
 10
14.6939241299
 20
9.5071685237
 30
0.0
 10
14.6893763672
 20
9.4884642411
 30
0.0
 10
14.6847053032
 20
9.4702059747
 30
0.0
 10
14.679915975
 20
9.4524134116
 30
0.0
 10
14.6750135609
 20
9.4351057245
 30
0.0
 10
14.6700033884
 20
9.4183015591
 30
0.0
 10
14.6648908303
 20
9.4020190179
 30
0.0
 10
14.6596814853
 20
9.3862756235
 30
0.0
 10
14.6543809031
 20
9.3710883271
 30
0.0
 10
14.6489949126
 20
9.3564734464
 30
0.0
 10
14.6435292362
 20
9.3424467016
 30
0.0
 10
14.6379898766
 20
9.3290231311
 30
0.0
 10
14.6323827289
 20
9.3162171421
 30
0.0
 10
14.6267139047
 20
9.3040424254
 30
0.0
 10
14.6209894627
 20
9.2925119931
 30
0.0
 10
14.6152155558
 20
9.2816381247
 30
0.0
 10
14.6093983727
 20
9.2714323545
 30
0.0
 10
14.6035440341
 20
9.2619054936
 30
0.0
 10
14.5976587833
 20
9.2530675229
 30
0.0
 10
14.5917486161
 20
9.2449277412
 30
0.0
 10
14.5858196853
 20
9.2374945371
 30
0.0
 10
14.579877729
 20
9.2307756974
 30
0.0
 10
14.5739285764
 20
9.2247780976
 30
0.0
 10
14.5679775175
 20
9.219508163
 30
0.0
 10
14.5620298542
 20
9.2149716405
 30
0.0
 10
14.5560902122
 20
9.2111740914
 30
0.0
 10
14.5501641256
 20
9.2081211051
 30
0.0
 10
14.54518578
 20
9.2061808811
 30
0.0
 10
14.5412324477
 20
9.2050231565
 30
0.0
 10
14.5383081101
 20
9.2043526949
 30
0.0
 10
14.5353932454
 20
9.2038709763
 30
0.0
 10
14.5324886441
 20
9.2035781879
 30
0.0
 10
14.5295952242
 20
9.2034745693
 30
0.0
 10
14.5267139066
 20
9.2035601696
 30
0.0
 10
14.5238456148
 20
9.2038349307
 30
0.0
 10
14.520991267
 20
9.2042987723
 30
0.0
 10
14.5181517778
 20
9.2049515775
 30
0.0
 10
14.5153280345
 20
9.2057929993
 30
0.0
 10
14.5125207958
 20
9.206822735
 30
0.0
 10
14.5087612165
 20
9.2084635473
 30
0.0
 10
14.504092402
 20
9.2110080973
 30
0.0
 10
14.4986356183
 20
9.2147748611
 30
0.0
 10
14.4932677611
 20
9.2192816674
 30
0.0
 10
14.4879937171
 20
9.2245217902
 30
0.0
 10
14.4846491273
 20
9.2283775903
 30
0.0
 10
14.4829909857
 20
9.2304163766
 30
0.0
  0
SPLINE
  5
3EB
100
AcDbEntity
  8
0
100
AcDbSpline
 62
7
  6
CONTINUOUS
 70
0
 71
3
 72
39
 73
35
 74
0
 42
0.0000001
 43
0.0000001
 44
0.0000000001
 40
0.0
 40
0.0
 40
0.0
 40
0.0
 40
0.0958313223
 40
0.1890999066
 40
0.2792396479
 40
0.3229663115
 40
0.3657099292
 40
0.4074081191
 40
0.4480006754
 40
0.4874302648
 40
0.5256424385
 40
0.5625857699
 40
0.5982125807
 40
0.6324786396
 40
0.665344311
 40
0.6967743203
 40
0.7267388303
 40
0.7552139511
 40
0.7821824427
 40
0.807635341
 40
0.8315726205
 40
0.8540058864
 40
0.8749600023
 40
0.8944766962
 40
0.9126183481
 40
0.9294727137
 40
0.94515911
 40
0.9598336921
 40
0.9668557838
 40
0.973702854
 40
0.9804062715
 40
0.9869997015
 40
0.9935186515
 40
1.0
 40
1.0
 40
1.0
 40
1.0
 10
9.0150798692
 20
12.2304919195
 30
0.0
 10
9.0240396862
 20
12.2298705541
 30
0.0
 10
9.0417068187
 20
12.2284473871
 30
0.0
 10
9.0677382229
 20
12.2257307105
 30
0.0
 10
9.088851033
 20
12.2229908226
 30
0.0
 10
9.1052186511
 20
12.2205244825
 30
0.0
 10
9.1170704188
 20
12.218566477
 30
0.0
 10
9.1286027707
 20
12.2164849269
 30
0.0
 10
9.1397964572
 20
12.2142832555
 30
0.0
 10
9.1506327823
 20
12.2119651962
 30
0.0
 10
9.1610936642
 20
12.2095346565
 30
0.0
 10
9.1711616526
 20
12.2069956793
 30
0.0
 10
9.1808199739
 20
12.204352606
 30
0.0
 10
9.1900525408
 20
12.2016097942
 30
0.0
 10
9.1988440151
 20
12.198771933
 30
0.0
 10
9.2071798021
 20
12.1958437251
 30
0.0
 10
9.2150461082
 20
12.1928300956
 30
0.0
 10
9.2224299655
 20
12.1897360947
 30
0.0
 10
9.2293192325
 20
12.1865667911
 30
0.0
 10
9.2357026981
 20
12.1833274955
 30
0.0
 10
9.2415699882
 20
12.1800233486
 30
0.0
 10
9.246911738
 20
12.176659696
 30
0.0
 10
9.2517194422
 20
12.1732416309
 30
0.0
 10
9.2559855364
 20
12.1697741382
 30
0.0
 10
9.2597032682
 20
12.1662619918
 30
0.0
 10
9.2628664449
 20
12.1627092123
 30
0.0
 10
9.2654690403
 20
12.1591204262
 30
0.0
 10
9.2671904608
 20
12.156057563
 30
0.0
 10
9.2682636006
 20
12.1536051474
 30
0.0
 10
9.2689133215
 20
12.1517880948
 30
0.0
 10
9.2694191313
 20
12.1499674576
 30
0.0
 10
9.2697807547
 20
12.1481439951
 30
0.0
 10
9.269997871
 20
12.1463187549
 30
0.0
 10
9.2700461675
 20
12.1450998194
 30
0.0
 10
9.2700461728
 20
12.1444923857
 30
0.0
  0
SPLINE
  5
3EC
100
AcDbEntity
  8
0
100
AcDbSpline
 62
7
  6
CONTINUOUS
 70
0
 71
3
 72
49
 73
45
 74
0
 42
0.0000001
 43
0.0000001
 44
0.0000000001
 40
0.0
 40
0.0
 40
0.0
 40
0.0
 40
0.0389754026
 40
0.0783736427
 40
0.1180935796
 40
0.1580379114
 40
0.1981059784
 40
0.23819758
 40
0.2782122896
 40
0.3180499091
 40
0.3576108344
 40
0.3967963214
 40
0.4355088373
 40
0.4736523927
 40
0.511132856
 40
0.5478582791
 40
0.5837392355
 40
0.6186892055
 40
0.6526249395
 40
0.6854668252
 40
0.7171393014
 40
0.7475713277
 40
0.7766969519
 40
0.8044558808
 40
0.8178060679
 40
0.8307949196
 40
0.8434168255
 40
0.8556667742
 40
0.8675401659
 40
0.8790331804
 40
0.8901425594
 40
0.9008657781
 40
0.9112012266
 40
0.9211480275
 40
0.930706472
 40
0.9398778966
 40
0.9486648915
 40
0.95707163
 40
0.9651037864
 40
0.9727690965
 40
0.9800774464
 40
0.9870412206
 40
0.9936758589
 40
1.0
 40
1.0
 40
1.0
 40
1.0
 10
14.5870131273
 20
10.0516776495
 30
0.0
 10
14.5870131273
 20
10.0422644188
 30
0.0
 10
14.5868812901
 20
10.0233355942
 30
0.0
 10
14.5862974974
 20
9.9948191318
 30
0.0
 10
14.5853278618
 20
9.9660789966
 30
0.0
 10
14.583975069
 20
9.9371924231
 30
0.0
 10
14.5822426419
 20
9.9082362086
 30
0.0
 10
14.5801352277
 20
9.8792878284
 30
0.0
 10
14.57765846
 20
9.850424564
 30
0.0
 10
14.574818963
 20
9.8217235038
 30
0.0
 10
14.5716243351
 20
9.7932613021
 30
0.0
 10
14.5680831186
 20
9.7651139708
 30
0.0
 10
14.5642047979
 20
9.737356676
 30
0.0
 10
14.559999774
 20
9.7100635303
 30
0.0
 10
14.5554793192
 20
9.6833073988
 30
0.0
 10
14.5506555536
 20
9.6571597082
 30
0.0
 10
14.5455414066
 20
9.6316902496
 30
0.0
 10
14.5401506075
 20
9.6069669781
 30
0.0
 10
14.5344976359
 20
9.5830558291
 30
0.0
 10
14.5285976747
 20
9.560020541
 30
0.0
 10
14.5224665724
 20
9.5379225025
 30
0.0
 10
14.5161207976
 20
9.5168204968
 30
0.0
 10
14.5095774084
 20
9.4967707693
 30
0.0
 10
14.5039033032
 20
9.480782585
 30
0.0
 10
14.4992695564
 20
9.4685658477
 30
0.0
 10
14.495801043
 20
9.4598182893
 30
0.0
 10
14.4922964003
 20
9.4513721201
 30
0.0
 10
14.488758014
 20
9.4432329328
 30
0.0
 10
14.4851881642
 20
9.4354061659
 30
0.0
 10
14.4815893049
 20
9.4278969955
 30
0.0
 10
14.4779638103
 20
9.4207104083
 30
0.0
 10
14.474314056
 20
9.4138511809
 30
0.0
 10
14.4706425495
 20
9.4073238162
 30
0.0
 10
14.4669516219
 20
9.4011326633
 30
0.0
 10
14.4632437786
 20
9.3952817687
 30
0.0
 10
14.4595214404
 20
9.3897749753
 30
0.0
 10
14.4557869746
 20
9.3846159252
 30
0.0
 10
14.4520428932
 20
9.3798079255
 30
0.0
 10
14.4482914787
 20
9.3753541769
 30
0.0
 10
14.4445351467
 20
9.3712575359
 30
0.0
 10
14.4407762382
 20
9.3675206802
 30
0.0
 10
14.4370168689
 20
9.364146102
 30
0.0
 10
14.4332596196
 20
9.3611361377
 30
0.0
 10
14.4306985712
 20
9.3593325369
 30
0.0
 10
14.4294199448
 20
9.358497054
 30
0.0
  0
SPLINE
  5
3ED
100
AcDbEntity
  8
0
100
AcDbSpline
 62
7
  6
CONTINUOUS
 70
0
 71
3
 72
35
 73
31
 74
0
 42
0.0000001
 43
0.0000001
 44
0.0000000001
 40
0.0
 40
0.0
 40
0.0
 40
0.0
 40
0.0882155182
 40
0.1744330203
 40
0.2582708304
 40
0.3393600819
 40
0.3787643744
 40
0.4173514859
 40
0.4550807436
 40
0.4919128368
 40
0.5278101735
 40
0.5627366217
 40
0.5966581177
 40
0.6295422568
 40
0.6613590625
 40
0.6920805207
 40
0.7216814486
 40
0.7501391008
 40
0.7774340513
 40
0.8035500258
 40
0.828474747
 40
0.8522001501
 40
0.8747232078
 40
0.896046697
 40
0.9161801214
 40
0.9351412234
 40
0.9529572477
 40
0.9696674109
 40
0.9853248283
 40
1.0
 40
1.0
 40
1.0
 40
1.0
 10
14.5870131273
 20
10.0516776495
 30
0.0
 10
14.5870131273
 20
10.0641394526
 30
0.0
 10
14.5867861196
 20
10.0887814958
 30
0.0
 10
14.5857435959
 20
10.1252536535
 30
0.0
 10
14.5840077116
 20
10.1606917404
 30
0.0
 10
14.5819717541
 20
10.1894874957
 30
0.0
 10
14.5799918612
 20
10.211873167
 30
0.0
 10
14.5783539528
 20
10.2281386693
 30
0.0
 10
14.5765509868
 20
10.2440210714
 30
0.0
 10
14.5745850894
 20
10.2595012176
 30
0.0
 10
14.5724587234
 20
10.27456041
 30
0.0
 10
14.5701743971
 20
10.2891804791
 30
0.0
 10
14.5677349852
 20
10.3033437809
 30
0.0
 10
14.5651433536
 20
10.3170332389
 30
0.0
 10
14.5624027685
 20
10.3302323541
 30
0.0
 10
14.5595164502
 20
10.3429252309
 30
0.0
 10
14.5564880222
 20
10.3550966034
 30
0.0
 10
14.5533210579
 20
10.3667318435
 30
0.0
 10
14.550019495
 20
10.377817004
 30
0.0
 10
14.5465872506
 20
10.388338812
 30
0.0
 10
14.5430285246
 20
10.3982847212
 30
0.0
 10
14.539347551
 20
10.4076429052
 30
0.0
 10
14.5355487209
 20
10.4164022957
 30
0.0
 10
14.5316365214
 20
10.424552606
 30
0.0
 10
14.5276154266
 20
10.4320843053
 30
0.0
 10
14.5234900313
 20
10.4389887282
 30
0.0
 10
14.5192647481
 20
10.4452578466
 30
0.0
 10
14.5149438817
 20
10.4508847022
 30
0.0
 10
14.5105320141
 20
10.4558621361
 30
0.0
 10
14.5074373663
 20
10.4588350252
 30
0.0
 10
14.5058764436
 20
10.4601992983
 30
0.0
  0
SPLINE
  5
3EE
100
AcDbEntity
  8
0
100
AcDbSpline
 62
7
  6
CONTINUOUS
 70
0
 71
3
 72
49
 73
45
 74
0
 42
0.0000001
 43
0.0000001
 44
0.0000000001
 40
0.0
 40
0.0
 40
0.0
 40
0.0
 40
0.0389754026
 40
0.0783736427
 40
0.1180935796
 40
0.1580379114
 40
0.1981059784
 40
0.23819758
 40
0.2782122896
 40
0.3180499091
 40
0.3576108344
 40
0.3967963214
 40
0.4355088373
 40
0.4736523927
 40
0.511132856
 40
0.5478582791
 40
0.5837392355
 40
0.6186892055
 40
0.6526249395
 40
0.6854668252
 40
0.7171393014
 40
0.7475713277
 40
0.7766969519
 40
0.8044558808
 40
0.8178060679
 40
0.8307949196
 40
0.8434168255
 40
0.8556667742
 40
0.8675401659
 40
0.8790331804
 40
0.8901425594
 40
0.9008657781
 40
0.9112012266
 40
0.9211480275
 40
0.930706472
 40
0.9398778966
 40
0.9486648915
 40
0.95707163
 40
0.9651037864
 40
0.9727690965
 40
0.9800774464
 40
0.9870412206
 40
0.9936758589
 40
1.0
 40
1.0
 40
1.0
 40
1.0
 10
14.5870131273
 20
7.1538999989
 30
0.0
 10
14.5870131273
 20
7.1444867682
 30
0.0
 10
14.5868812901
 20
7.1255579436
 30
0.0
 10
14.5862974974
 20
7.0970414813
 30
0.0
 10
14.5853278618
 20
7.068301346
 30
0.0
 10
14.583975069
 20
7.0394147725
 30
0.0
 10
14.5822426419
 20
7.0104585581
 30
0.0
 10
14.5801352277
 20
6.9815101778
 30
0.0
 10
14.57765846
 20
6.9526469134
 30
0.0
 10
14.574818963
 20
6.9239458532
 30
0.0
 10
14.5716243351
 20
6.8954836516
 30
0.0
 10
14.5680831186
 20
6.8673363202
 30
0.0
 10
14.5642047979
 20
6.8395790254
 30
0.0
 10
14.559999774
 20
6.8122858797
 30
0.0
 10
14.5554793192
 20
6.7855297483
 30
0.0
 10
14.5506555536
 20
6.7593820576
 30
0.0
 10
14.5455414066
 20
6.733912599
 30
0.0
 10
14.5401506075
 20
6.7091893276
 30
0.0
 10
14.5344976359
 20
6.6852781785
 30
0.0
 10
14.5285976747
 20
6.6622428904
 30
0.0
 10
14.5224665724
 20
6.6401448519
 30
0.0
 10
14.5161207976
 20
6.6190428462
 30
0.0
 10
14.5095774084
 20
6.5989931188
 30
0.0
 10
14.5039033032
 20
6.5830049344
 30
0.0
 10
14.4992695564
 20
6.5707881971
 30
0.0
 10
14.495801043
 20
6.5620406387
 30
0.0
 10
14.4922964003
 20
6.5535944695
 30
0.0
 10
14.488758014
 20
6.5454552822
 30
0.0
 10
14.4851881642
 20
6.5376285153
 30
0.0
 10
14.4815893049
 20
6.530119345
 30
0.0
 10
14.4779638103
 20
6.5229327577
 30
0.0
 10
14.474314056
 20
6.5160735304
 30
0.0
 10
14.4706425495
 20
6.5095461657
 30
0.0
 10
14.4669516219
 20
6.5033550127
 30
0.0
 10
14.4632437786
 20
6.4975041181
 30
0.0
 10
14.4595214404
 20
6.4919973248
 30
0.0
 10
14.4557869746
 20
6.4868382746
 30
0.0
 10
14.4520428932
 20
6.4820302749
 30
0.0
 10
14.4482914787
 20
6.4775765263
 30
0.0
 10
14.4445351467
 20
6.4734798853
 30
0.0
 10
14.4407762382
 20
6.4697430296
 30
0.0
 10
14.4370168689
 20
6.4663684515
 30
0.0
 10
14.4332596196
 20
6.4633584872
 30
0.0
 10
14.4306985712
 20
6.4615548863
 30
0.0
 10
14.4294199448
 20
6.4607194034
 30
0.0
  0
SPLINE
  5
3EF
100
AcDbEntity
  8
0
100
AcDbSpline
 62
7
  6
CONTINUOUS
 70
0
 71
3
 72
35
 73
31
 74
0
 42
0.0000001
 43
0.0000001
 44
0.0000000001
 40
0.0
 40
0.0
 40
0.0
 40
0.0
 40
0.0882155182
 40
0.1744330203
 40
0.2582708304
 40
0.3393600819
 40
0.3787643744
 40
0.4173514859
 40
0.4550807436
 40
0.4919128368
 40
0.5278101735
 40
0.5627366217
 40
0.5966581177
 40
0.6295422568
 40
0.6613590625
 40
0.6920805207
 40
0.7216814486
 40
0.7501391008
 40
0.7774340513
 40
0.8035500258
 40
0.828474747
 40
0.8522001501
 40
0.8747232078
 40
0.896046697
 40
0.9161801214
 40
0.9351412234
 40
0.9529572477
 40
0.9696674109
 40
0.9853248283
 40
1.0
 40
1.0
 40
1.0
 40
1.0
 10
14.5870131273
 20
7.1538999989
 30
0.0
 10
14.5870131273
 20
7.166361802
 30
0.0
 10
14.5867861196
 20
7.1910038453
 30
0.0
 10
14.5857435959
 20
7.227476003
 30
0.0
 10
14.5840077116
 20
7.2629140899
 30
0.0
 10
14.5819717541
 20
7.2917098451
 30
0.0
 10
14.5799918612
 20
7.3140955164
 30
0.0
 10
14.5783539528
 20
7.3303610187
 30
0.0
 10
14.5765509868
 20
7.3462434208
 30
0.0
 10
14.5745850894
 20
7.361723567
 30
0.0
 10
14.5724587234
 20
7.3767827594
 30
0.0
 10
14.5701743971
 20
7.3914028285
 30
0.0
 10
14.5677349852
 20
7.4055661303
 30
0.0
 10
14.5651433536
 20
7.4192555884
 30
0.0
 10
14.5624027685
 20
7.4324547036
 30
0.0
 10
14.5595164502
 20
7.4451475803
 30
0.0
 10
14.5564880222
 20
7.4573189529
 30
0.0
 10
14.5533210579
 20
7.4689541929
 30
0.0
 10
14.550019495
 20
7.4800393535
 30
0.0
 10
14.5465872506
 20
7.4905611614
 30
0.0
 10
14.5430285246
 20
7.5005070707
 30
0.0
 10
14.539347551
 20
7.5098652546
 30
0.0
 10
14.5355487209
 20
7.5186246451
 30
0.0
 10
14.5316365214
 20
7.5267749554
 30
0.0
 10
14.5276154266
 20
7.5343066547
 30
0.0
 10
14.5234900313
 20
7.5412110777
 30
0.0
 10
14.5192647481
 20
7.547480196
 30
0.0
 10
14.5149438817
 20
7.5531070516
 30
0.0
 10
14.5105320141
 20
7.5580844855
 30
0.0
 10
14.5074373663
 20
7.5610573747
 30
0.0
 10
14.5058764436
 20
7.5624216477
 30
0.0
  0
SPLINE
  5
3F0
100
AcDbEntity
  8
0
100
AcDbSpline
 62
7
  6
CONTINUOUS
 70
0
 71
3
 72
39
 73
35
 74
0
 42
0.0000001
 43
0.0000001
 44
0.0000000001
 40
0.0
 40
0.0
 40
0.0
 40
0.0
 40
0.0958313223
 40
0.1890999066
 40
0.2792396479
 40
0.3229663115
 40
0.3657099292
 40
0.4074081191
 40
0.4480006754
 40
0.4874302648
 40
0.5256424385
 40
0.5625857699
 40
0.5982125807
 40
0.6324786396
 40
0.665344311
 40
0.6967743203
 40
0.7267388303
 40
0.7552139511
 40
0.7821824427
 40
0.807635341
 40
0.8315726205
 40
0.8540058864
 40
0.8749600023
 40
0.8944766962
 40
0.9126183481
 40
0.9294727137
 40
0.94515911
 40
0.9598336921
 40
0.9668557838
 40
0.973702854
 40
0.9804062715
 40
0.9869997015
 40
0.9935186515
 40
1.0
 40
1.0
 40
1.0
 40
1.0
 10
14.3276722286
 20
11.8620623881
 30
0.0
 10
14.3366320456
 20
11.8614410226
 30
0.0
 10
14.3542991781
 20
11.8600178556
 30
0.0
 10
14.3803305823
 20
11.857301179
 30
0.0
 10
14.4014433924
 20
11.8545612911
 30
0.0
 10
14.4178110104
 20
11.852094951
 30
0.0
 10
14.4296627781
 20
11.8501369456
 30
0.0
 10
14.4411951301
 20
11.8480553954
 30
0.0
 10
14.4523888166
 20
11.845853724
 30
0.0
 10
14.4632251417
 20
11.8435356647
 30
0.0
 10
14.4736860236
 20
11.841105125
 30
0.0
 10
14.483754012
 20
11.8385661479
 30
0.0
 10
14.4934123333
 20
11.8359230745
 30
0.0
 10
14.5026449002
 20
11.8331802627
 30
0.0
 10
14.5114363745
 20
11.8303424015
 30
0.0
 10
14.5197721615
 20
11.8274141936
 30
0.0
 10
14.5276384676
 20
11.8244005641
 30
0.0
 10
14.5350223249
 20
11.8213065632
 30
0.0
 10
14.5419115919
 20
11.8181372597
 30
0.0
 10
14.5482950575
 20
11.814897964
 30
0.0
 10
14.5541623476
 20
11.8115938171
 30
0.0
 10
14.5595040973
 20
11.8082301645
 30
0.0
 10
14.5643118016
 20
11.8048120995
 30
0.0
 10
14.5685778958
 20
11.8013446068
 30
0.0
 10
14.5722956275
 20
11.7978324603
 30
0.0
 10
14.5754588042
 20
11.7942796809
 30
0.0
 10
14.5780613996
 20
11.7906908947
 30
0.0
 10
14.5797828202
 20
11.7876280316
 30
0.0
 10
14.58085596
 20
11.785175616
 30
0.0
 10
14.5815056809
 20
11.7833585633
 30
0.0
 10
14.5820114907
 20
11.7815379262
 30
0.0
 10
14.5823731141
 20
11.7797144636
 30
0.0
 10
14.5825902304
 20
11.7778892234
 30
0.0
 10
14.5826385269
 20
11.7766702879
 30
0.0
 10
14.5826385322
 20
11.7760628542
 30
0.0
  0
SPLINE
  5
3F1
100
AcDbEntity
  8
0
100
AcDbSpline
 62
7
  6
CONTINUOUS
 70
0
 71
3
 72
51
 73
47
 74
0
 42
0.0000001
 43
0.0000001
 44
0.0000000001
 40
0.0
 40
0.0
 40
0.0
 40
0.0
 40
0.0055575483
 40
0.0111779716
 40
0.01692191
 40
0.0228457685
 40
0.029000541
 40
0.0354309187
 40
0.0421753321
 40
0.0492661787
 40
0.0567301751
 40
0.0645892818
 40
0.072860934
 40
0.0815589354
 40
0.0906938799
 40
0.1002734384
 40
0.1103031157
 40
0.1207861166
 40
0.1317239771
 40
0.1431166596
 40
0.1549625852
 40
0.1672591636
 40
0.1800024627
 40
0.1931876894
 40
0.2068091423
 40
0.2208601567
 40
0.2502201891
 40
0.2812020358
 40
0.3137291498
 40
0.3477165256
 40
0.3830717054
 40
0.4196956132
 40
0.4574832856
 40
0.4963245986
 40
0.5361048951
 40
0.5767055669
 40
0.6180046028
 40
0.6598771293
 40
0.7021959705
 40
0.7448321944
 40
0.7876555817
 40
0.8305351627
 40
0.8733399838
 40
0.9159382941
 40
0.9582023666
 40
1.0
 40
1.0
 40
1.0
 40
1.0
 10
13.894638569
 20
11.7760620537
 30
0.0
 10
13.8946385616
 20
11.7769130439
 30
0.0
 10
13.8947338023
 20
11.7786261339
 30
0.0
 10
13.8951613591
 20
11.781186638
 30
0.0
 10
13.8958729796
 20
11.7837414094
 30
0.0
 10
13.8968671221
 20
11.7862875419
 30
0.0
 10
13.8981423312
 20
11.7888228973
 30
0.0
 10
13.8996967497
 20
11.7913455967
 30
0.0
 10
13.9015286681
 20
11.7938538858
 30
0.0
 10
13.9036363145
 20
11.7963460393
 30
0.0
 10
13.9060177232
 20
11.7988204648
 30
0.0
 10
13.9086709963
 20
11.8012753362
 30
0.0
 10
13.9115938988
 20
11.8037089856
 30
0.0
 10
13.9147841246
 20
11.8061195824
 30
0.0
 10
13.9182391454
 20
11.8085052691
 30
0.0
 10
13.921956166
 20
11.810864285
 30
0.0
 10
13.9259322695
 20
11.813194672
 30
0.0
 10
13.9301642263
 20
11.8154946623
 30
0.0
 10
13.9346486501
 20
11.8177623745
 30
0.0
 10
13.9393819276
 20
11.8199959521
 30
0.0
 10
13.9443602075
 20
11.8221936529
 30
0.0
 10
13.9495794786
 20
11.824353595
 30
0.0
 10
13.9550354776
 20
11.8264740909
 30
0.0
 10
13.9607237717
 20
11.8285533657
 30
0.0
 10
13.9666397342
 20
11.8305897212
 30
0.0
 10
13.9749468248
 20
11.8332849633
 30
0.0
 10
13.9858699018
 20
11.8365247149
 30
0.0
 10
13.9996193554
 20
11.8401611804
 30
0.0
 10
14.0141511474
 20
11.8435890804
 30
0.0
 10
14.0294177857
 20
11.8467970866
 30
0.0
 10
14.0453694984
 20
11.849774562
 30
0.0
 10
14.0619541547
 20
11.8525116451
 30
0.0
 10
14.0791175194
 20
11.8549992857
 30
0.0
 10
14.096803428
 20
11.8572292574
 30
0.0
 10
14.1149539885
 20
11.8591941866
 30
0.0
 10
14.1335097712
 20
11.8608875747
 30
0.0
 10
14.1524100025
 20
11.8623038208
 30
0.0
 10
14.1715927655
 20
11.8634382549
 30
0.0
 10
14.1909952133
 20
11.8642871344
 30
0.0
 10
14.2105537743
 20
11.8648476555
 30
0.0
 10
14.230204359
 20
11.8651179638
 30
0.0
 10
14.2498826062
 20
11.8650971665
 30
0.0
 10
14.2695239242
 20
11.8647853183
 30
0.0
 10
14.289064228
 20
11.8641834982
 30
0.0
 10
14.3084391148
 20
11.8632936192
 30
0.0
 10
14.3212873719
 20
11.8625051794
 30
0.0
 10
14.3276722286
 20
11.8620623881
 30
0.0
  0
SPLINE
  5
3F2
100
AcDbEntity
  8
0
100
AcDbSpline
 62
7
  6
CONTINUOUS
 70
0
 71
3
 72
51
 73
47
 74
0
 42
0.0000001
 43
0.0000001
 44
0.0000000001
 40
0.0
 40
0.0
 40
0.0
 40
0.0
 40
0.0055575483
 40
0.0111779716
 40
0.01692191
 40
0.0228457685
 40
0.029000541
 40
0.0354309187
 40
0.0421753321
 40
0.0492661787
 40
0.0567301751
 40
0.0645892818
 40
0.072860934
 40
0.0815589354
 40
0.0906938799
 40
0.1002734384
 40
0.1103031157
 40
0.1207861166
 40
0.1317239771
 40
0.1431166596
 40
0.1549625852
 40
0.1672591636
 40
0.1800024627
 40
0.1931876894
 40
0.2068091423
 40
0.2208601567
 40
0.2502201891
 40
0.2812020358
 40
0.3137291498
 40
0.3477165256
 40
0.3830717054
 40
0.4196956132
 40
0.4574832856
 40
0.4963245986
 40
0.5361048951
 40
0.5767055669
 40
0.6180046028
 40
0.6598771293
 40
0.7021959705
 40
0.7448321944
 40
0.7876555817
 40
0.8305351627
 40
0.8733399838
 40
0.9159382941
 40
0.9582023666
 40
1.0
 40
1.0
 40
1.0
 40
1.0
 10
8.5820462096
 20
12.1444915852
 30
0.0
 10
8.5820462022
 20
12.1453425754
 30
0.0
 10
8.582141443
 20
12.1470556654
 30
0.0
 10
8.5825689997
 20
12.1496161695
 30
0.0
 10
8.5832806202
 20
12.1521709408
 30
0.0
 10
8.5842747627
 20
12.1547170733
 30
0.0
 10
8.5855499718
 20
12.1572524287
 30
0.0
 10
8.5871043903
 20
12.1597751281
 30
0.0
 10
8.5889363088
 20
12.1622834173
 30
0.0
 10
8.5910439551
 20
12.1647755708
 30
0.0
 10
8.5934253638
 20
12.1672499963
 30
0.0
 10
8.5960786369
 20
12.1697048676
 30
0.0
 10
8.5990015395
 20
12.172138517
 30
0.0
 10
8.6021917652
 20
12.1745491139
 30
0.0
 10
8.6056467861
 20
12.1769348006
 30
0.0
 10
8.6093638067
 20
12.1792938165
 30
0.0
 10
8.6133399101
 20
12.1816242035
 30
0.0
 10
8.6175718669
 20
12.1839241937
 30
0.0
 10
8.6220562907
 20
12.186191906
 30
0.0
 10
8.6267895682
 20
12.1884254835
 30
0.0
 10
8.6317678481
 20
12.1906231844
 30
0.0
 10
8.6369871192
 20
12.1927831265
 30
0.0
 10
8.6424431182
 20
12.1949036223
 30
0.0
 10
8.6481314123
 20
12.1969828972
 30
0.0
 10
8.6540473749
 20
12.1990192527
 30
0.0
 10
8.6623544654
 20
12.2017144948
 30
0.0
 10
8.6732775425
 20
12.2049542464
 30
0.0
 10
8.687026996
 20
12.2085907119
 30
0.0
 10
8.701558788
 20
12.2120186119
 30
0.0
 10
8.7168254264
 20
12.215226618
 30
0.0
 10
8.732777139
 20
12.2182040935
 30
0.0
 10
8.7493617953
 20
12.2209411765
 30
0.0
 10
8.76652516
 20
12.2234288172
 30
0.0
 10
8.7842110686
 20
12.2256587889
 30
0.0
 10
8.8023616291
 20
12.2276237181
 30
0.0
 10
8.8209174119
 20
12.2293171062
 30
0.0
 10
8.8398176431
 20
12.2307333523
 30
0.0
 10
8.8590004061
 20
12.2318677864
 30
0.0
 10
8.8784028539
 20
12.2327166659
 30
0.0
 10
8.8979614149
 20
12.233277187
 30
0.0
 10
8.9176119996
 20
12.2335474953
 30
0.0
 10
8.9372902468
 20
12.233526698
 30
0.0
 10
8.9569315649
 20
12.2332148497
 30
0.0
 10
8.9764718686
 20
12.2326130297
 30
0.0
 10
8.9958467554
 20
12.2317231507
 30
0.0
 10
9.0086950126
 20
12.2309347109
 30
0.0
 10
9.0150798692
 20
12.2304919195
 30
0.0
  0
SPLINE
  5
3F3
100
AcDbEntity
  8
0
100
AcDbSpline
 62
7
  6
CONTINUOUS
 70
0
 71
3
 72
58
 73
54
 74
0
 42
0.0000001
 43
0.0000001
 44
0.0000000001
 40
0.0
 40
0.0
 40
0.0
 40
0.0
 40
0.0095825342
 40
0.0187371173
 40
0.0274869257
 40
0.0358596936
 40
0.0438879086
 40
0.0516093098
 40
0.0590671117
 40
0.0663098203
 40
0.0733909823
 40
0.0803682027
 40
0.0873019509
 40
0.0942539276
 40
0.1012853246
 40
0.1084550861
 40
0.1158185515
 40
0.1234263801
 40
0.1313239483
 40
0.1395512759
 40
0.1481429196
 40
0.1571285332
 40
0.1665331117
 40
0.1763775032
 40
0.1866790184
 40
0.1974515858
 40
0.2087064892
 40
0.2204524552
 40
0.2326960565
 40
0.2454420891
 40
0.2586935036
 40
0.272451963
 40
0.2867176944
 40
0.3014897736
 40
0.3167663135
 40
0.3325442998
 40
0.3488200366
 40
0.3655888935
 40
0.3828455515
 40
0.400584086
 40
0.4374786862
 40
0.4762140109
 40
0.5167221518
 40
0.5589279064
 40
0.6027495477
 40
0.6480995084
 40
0.6948849694
 40
0.7430083311
 40
0.7923676689
 40
0.8428574032
 40
0.8943674893
 40
0.9467877157
 40
1.0
 40
1.0
 40
1.0
 40
1.0
 10
14.5765643581
 20
10.5797029194
 30
0.0
 10
14.5780042931
 20
10.5810430677
 30
0.0
 10
14.5808828595
 20
10.5835970794
 30
0.0
 10
14.5852994579
 20
10.5871131583
 30
0.0
 10
14.5897115125
 20
10.5902223105
 30
0.0
 10
14.5941165427
 20
10.5929224597
 30
0.0
 10
14.5985123579
 20
10.5952116264
 30
0.0
 10
14.6028966349
 20
10.597087877
 30
0.0
 10
14.6072668653
 20
10.598549542
 30
0.0
 10
14.6116204271
 20
10.5995947612
 30
0.0
 10
14.615954284
 20
10.6002222686
 30
0.0
 10
14.6202651712
 20
10.6004308993
 30
0.0
 10
14.6245495298
 20
10.6002201108
 30
0.0
 10
14.6288037492
 20
10.5995901448
 30
0.0
 10
14.6330242645
 20
10.5985415695
 30
0.0
 10
14.6372078624
 20
10.5970759083
 30
0.0
 10
14.6413516065
 20
10.5951947574
 30
0.0
 10
14.6454529377
 20
10.5929001105
 30
0.0
 10
14.6495096382
 20
10.5901941288
 30
0.0
 10
14.6535195142
 20
10.5870788425
 30
0.0
 10
14.6574806863
 20
10.5835566158
 30
0.0
 10
14.6613911086
 20
10.5796296636
 30
0.0
 10
14.6652488423
 20
10.5753004553
 30
0.0
 10
14.6690519502
 20
10.5705716066
 30
0.0
 10
14.6727983204
 20
10.5654458257
 30
0.0
 10
14.676486049
 20
10.5599261695
 30
0.0
 10
14.680113
 20
10.5540157813
 30
0.0
 10
14.6836771751
 20
10.547718116
 30
0.0
 10
14.6871765695
 20
10.5410368414
 30
0.0
 10
14.6906090804
 20
10.5339758212
 30
0.0
 10
14.6939728204
 20
10.5265392213
 30
0.0
 10
14.6972657267
 20
10.5187313697
 30
0.0
 10
14.7004859097
 20
10.5105568708
 30
0.0
 10
14.7036314799
 20
10.5020205371
 30
0.0
 10
14.7067005084
 20
10.4931273899
 30
0.0
 10
14.7096912655
 20
10.4838827002
 30
0.0
 10
14.7126018884
 20
10.4742919185
 30
0.0
 10
14.7154306886
 20
10.4643607358
 30
0.0
 10
14.7181760065
 20
10.4540950206
 30
0.0
 10
14.7217699637
 20
10.439781464
 30
0.0
 10
14.7260283086
 20
10.4210912621
 30
0.0
 10
14.730715972
 20
10.3977136875
 30
0.0
 10
14.7350345696
 20
10.3731575288
 30
0.0
 10
14.7389737049
 20
10.3474810951
 30
0.0
 10
14.7425238741
 20
10.3207452091
 30
0.0
 10
14.7456765139
 20
10.2930133273
 30
0.0
 10
14.7484240137
 20
10.2643512925
 30
0.0
 10
14.7507597359
 20
10.2348271988
 30
0.0
 10
14.7526780454
 20
10.2045111765
 30
0.0
 10
14.754174283
 20
10.1734754311
 30
0.0
 10
14.7552448989
 20
10.1417934413
 30
0.0
 10
14.7558871897
 20
10.1095409932
 30
0.0
 10
14.756027898
 20
10.0878566925
 30
0.0
 10
14.756027898
 20
10.0769333912
 30
0.0
  0
SPLINE
  5
3F4
100
AcDbEntity
  8
0
100
AcDbSpline
 62
7
  6
CONTINUOUS
 70
0
 71
3
 72
58
 73
54
 74
0
 42
0.0000001
 43
0.0000001
 44
0.0000000001
 40
0.0
 40
0.0
 40
0.0
 40
0.0
 40
0.0095825342
 40
0.0187371173
 40
0.0274869257
 40
0.0358596936
 40
0.0438879086
 40
0.0516093098
 40
0.0590671117
 40
0.0663098203
 40
0.0733909823
 40
0.0803682027
 40
0.0873019509
 40
0.0942539276
 40
0.1012853246
 40
0.1084550861
 40
0.1158185515
 40
0.1234263801
 40
0.1313239483
 40
0.1395512759
 40
0.1481429196
 40
0.1571285332
 40
0.1665331117
 40
0.1763775032
 40
0.1866790184
 40
0.1974515858
 40
0.2087064892
 40
0.2204524552
 40
0.2326960565
 40
0.2454420891
 40
0.2586935036
 40
0.272451963
 40
0.2867176944
 40
0.3014897736
 40
0.3167663135
 40
0.3325442998
 40
0.3488200366
 40
0.3655888935
 40
0.3828455515
 40
0.400584086
 40
0.4374786862
 40
0.4762140109
 40
0.5167221518
 40
0.5589279064
 40
0.6027495477
 40
0.6480995084
 40
0.6948849694
 40
0.7430083311
 40
0.7923676689
 40
0.8428574032
 40
0.8943674893
 40
0.9467877157
 40
1.0
 40
1.0
 40
1.0
 40
1.0
 10
14.5765643581
 20
7.6819252689
 30
0.0
 10
14.5780042931
 20
7.6832654171
 30
0.0
 10
14.5808828595
 20
7.6858194288
 30
0.0
 10
14.5852994579
 20
7.6893355078
 30
0.0
 10
14.5897115125
 20
7.6924446599
 30
0.0
 10
14.5941165427
 20
7.6951448091
 30
0.0
 10
14.5985123579
 20
7.6974339759
 30
0.0
 10
14.6028966349
 20
7.6993102264
 30
0.0
 10
14.6072668653
 20
7.7007718914
 30
0.0
 10
14.6116204271
 20
7.7018171106
 30
0.0
 10
14.615954284
 20
7.702444618
 30
0.0
 10
14.6202651712
 20
7.7026532488
 30
0.0
 10
14.6245495298
 20
7.7024424603
 30
0.0
 10
14.6288037492
 20
7.7018124942
 30
0.0
 10
14.6330242645
 20
7.7007639189
 30
0.0
 10
14.6372078624
 20
7.6992982577
 30
0.0
 10
14.6413516065
 20
7.6974171068
 30
0.0
 10
14.6454529377
 20
7.69512246
 30
0.0
 10
14.6495096382
 20
7.6924164782
 30
0.0
 10
14.6535195142
 20
7.689301192
 30
0.0
 10
14.6574806863
 20
7.6857789653
 30
0.0
 10
14.6613911086
 20
7.681852013
 30
0.0
 10
14.6652488423
 20
7.6775228048
 30
0.0
 10
14.6690519502
 20
7.672793956
 30
0.0
 10
14.6727983204
 20
7.6676681751
 30
0.0
 10
14.676486049
 20
7.6621485189
 30
0.0
 10
14.680113
 20
7.6562381307
 30
0.0
 10
14.6836771751
 20
7.6499404655
 30
0.0
 10
14.6871765695
 20
7.6432591909
 30
0.0
 10
14.6906090804
 20
7.6361981706
 30
0.0
 10
14.6939728204
 20
7.6287615708
 30
0.0
 10
14.6972657267
 20
7.6209537192
 30
0.0
 10
14.7004859097
 20
7.6127792202
 30
0.0
 10
14.7036314799
 20
7.6042428865
 30
0.0
 10
14.7067005084
 20
7.5953497394
 30
0.0
 10
14.7096912655
 20
7.5861050496
 30
0.0
 10
14.7126018884
 20
7.5765142679
 30
0.0
 10
14.7154306886
 20
7.5665830852
 30
0.0
 10
14.7181760065
 20
7.55631737
 30
0.0
 10
14.7217699637
 20
7.5420038134
 30
0.0
 10
14.7260283086
 20
7.5233136115
 30
0.0
 10
14.730715972
 20
7.499936037
 30
0.0
 10
14.7350345696
 20
7.4753798783
 30
0.0
 10
14.7389737049
 20
7.4497034446
 30
0.0
 10
14.7425238741
 20
7.4229675585
 30
0.0
 10
14.7456765139
 20
7.3952356767
 30
0.0
 10
14.7484240137
 20
7.3665736419
 30
0.0
 10
14.7507597359
 20
7.3370495483
 30
0.0
 10
14.7526780454
 20
7.3067335259
 30
0.0
 10
14.754174283
 20
7.2756977805
 30
0.0
 10
14.7552448989
 20
7.2440157907
 30
0.0
 10
14.7558871897
 20
7.2117633426
 30
0.0
 10
14.756027898
 20
7.1900790419
 30
0.0
 10
14.756027898
 20
7.1791557406
 30
0.0
  0
SPLINE
  5
3F5
100
AcDbEntity
  8
0
100
AcDbSpline
 62
7
  6
CONTINUOUS
 70
0
 71
3
 72
65
 73
61
 74
0
 42
0.0000001
 43
0.0000001
 44
0.0000000001
 40
0.0
 40
0.0
 40
0.0
 40
0.0
 40
0.045210231
 40
0.0910011905
 40
0.1371889019
 40
0.18358642
 40
0.2300062103
 40
0.2762604535
 40
0.3221622311
 40
0.367526427
 40
0.4121707166
 40
0.4559165438
 40
0.4985901193
 40
0.5400234436
 40
0.5602246433
 40
0.5800559815
 40
0.5994985401
 40
0.6185340294
 40
0.6371447402
 40
0.6553136297
 40
0.6730243793
 40
0.6902613769
 40
0.7070098976
 40
0.7232559889
 40
0.7389867588
 40
0.7541902097
 40
0.7688555829
 40
0.782973225
 40
0.7965349206
 40
0.809533885
 40
0.8219650412
 40
0.8338252142
 40
0.8451133552
 40
0.8558309942
 40
0.8659824759
 40
0.8755757079
 40
0.8846225442
 40
0.8931398484
 40
0.9011502032
 40
0.9086832621
 40
0.9157768487
 40
0.9224783478
 40
0.928845727
 40
0.9319265805
 40
0.9349507149
 40
0.9379283993
 40
0.9408704256
 40
0.9437880168
 40
0.9466927158
 40
0.9495962298
 40
0.9525102794
 40
0.9554464544
 40
0.9584160538
 40
0.961429963
 40
0.9644985621
 40
0.970835863
 40
0.9775008051
 40
0.9845524907
 40
0.9920393022
 40
1.0
 40
1.0
 40
1.0
 40
1.0
 10
14.756027898
 20
7.1791557406
 30
0.0
 10
14.756027898
 20
7.1642311824
 30
0.0
 10
14.7557617266
 20
7.1341897547
 30
0.0
 10
14.7545880496
 20
7.088914873
 30
0.0
 10
14.7526418707
 20
7.0432742217
 30
0.0
 10
14.7499314974
 20
6.9974646882
 30
0.0
 10
14.746468621
 20
6.9516838525
 30
0.0
 10
14.7422681752
 20
6.9061291134
 30
0.0
 10
14.7373483222
 20
6.8609969132
 30
0.0
 10
14.7317303528
 20
6.8164818438
 30
0.0
 10
14.7254386016
 20
6.7727758288
 30
0.0
 10
14.7185003542
 20
6.730067212
 30
0.0
 10
14.7109456858
 20
6.6885401885
 30
0.0
 10
14.70410755
 20
6.6547896255
 30
0.0
 10
14.6983436577
 20
6.6285210274
 30
0.0
 10
14.6939241299
 20
6.6093908731
 30
0.0
 10
14.6893763672
 20
6.5906865905
 30
0.0
 10
14.6847053032
 20
6.5724283241
 30
0.0
 10
14.679915975
 20
6.5546357611
 30
0.0
 10
14.6750135609
 20
6.5373280739
 30
0.0
 10
14.6700033884
 20
6.5205239085
 30
0.0
 10
14.6648908303
 20
6.5042413674
 30
0.0
 10
14.6596814853
 20
6.488497973
 30
0.0
 10
14.6543809031
 20
6.4733106765
 30
0.0
 10
14.6489949126
 20
6.4586957959
 30
0.0
 10
14.6435292362
 20
6.4446690511
 30
0.0
 10
14.6379898766
 20
6.4312454805
 30
0.0
 10
14.6323827289
 20
6.4184394916
 30
0.0
 10
14.6267139047
 20
6.4062647748
 30
0.0
 10
14.6209894627
 20
6.3947343425
 30
0.0
 10
14.6152155558
 20
6.3838604741
 30
0.0
 10
14.6093983727
 20
6.3736547039
 30
0.0
 10
14.6035440341
 20
6.364127843
 30
0.0
 10
14.5976587833
 20
6.3552898723
 30
0.0
 10
14.5917486161
 20
6.3471500906
 30
0.0
 10
14.5858196853
 20
6.3397168865
 30
0.0
 10
14.579877729
 20
6.3329980469
 30
0.0
 10
14.5739285764
 20
6.3270004471
 30
0.0
 10
14.5679775175
 20
6.3217305124
 30
0.0
 10
14.5620298542
 20
6.31719399
 30
0.0
 10
14.5560902122
 20
6.3133964408
 30
0.0
 10
14.5501641256
 20
6.3103434545
 30
0.0
 10
14.54518578
 20
6.3084032306
 30
0.0
 10
14.5412324477
 20
6.3072455059
 30
0.0
 10
14.5383081101
 20
6.3065750443
 30
0.0
 10
14.5353932454
 20
6.3060933257
 30
0.0
 10
14.5324886441
 20
6.3058005373
 30
0.0
 10
14.5295952242
 20
6.3056969187
 30
0.0
 10
14.5267139066
 20
6.3057825191
 30
0.0
 10
14.5238456148
 20
6.3060572801
 30
0.0
 10
14.520991267
 20
6.3065211217
 30
0.0
 10
14.5181517778
 20
6.3071739269
 30
0.0
 10
14.5153280345
 20
6.3080153487
 30
0.0
 10
14.5125207958
 20
6.3090450844
 30
0.0
 10
14.5087612165
 20
6.3106858967
 30
0.0
 10
14.504092402
 20
6.3132304467
 30
0.0
 10
14.4986356183
 20
6.3169972105
 30
0.0
 10
14.4932677611
 20
6.3215040168
 30
0.0
 10
14.4879937171
 20
6.3267441397
 30
0.0
 10
14.4846491273
 20
6.3305999397
 30
0.0
 10
14.4829909857
 20
6.332638726
 30
0.0
  0
ENDSEC
  0
SECTION
  2
OBJECTS
  0
DICTIONARY
  5
C
100
AcDbDictionary
280
0
281
1
  3
ACAD_GROUP
350
D
  3
ACAD_MLINESTYLE
350
17
  3
ACAD_LAYOUT
350
1A
  3
ACAD_PLOTSETTINGS
350
19
  3
ACAD_PLOTSTYLENAME
350
E
  3
ACAD_IMAGE_DICT
350
       3F7
  3
ACAD_IMAGE_VARS
350
       3F8
  3
ACAD_TABLESTYLE
350
       3F9
  0
IMAGEDEF_REACTOR
  5
3F6
100
AcDbRasterImageDefReactor
 90
2
330
283
  0
DICTIONARY
  5
D
102
{ACAD_REACTORS
330
C
102
}
100
AcDbDictionary
280
0
281
1
  0
ACDBDICTIONARYWDFLT
  5
E
102
{ACAD_REACTORS
330
C
102
}
100
AcDbDictionary
281
1
  3
Normal
350
F
100
AcDbDictionaryWithDefault
340
F
  0
DICTIONARY
  5
3F7
330
C
100
AcDbDictionary
281
1
  3
EPB_assy_2_img_1
350
       3FC
  0
RASTERVARIABLES
  5
3F8
330
C
100
AcDbRasterVariables
 90
0
 70
0
 71
1
 72
5
  0
DICTIONARY
  5
17
102
{ACAD_REACTORS
330
C
102
}
100
AcDbDictionary
280
0
281
1
  3
Standard
350
18
  0
DICTIONARY
  5
3F9
330
C
100
AcDbDictionary
281
1
  3
Standard
350
       3FD
  3
Standard1
350
       3FE
  0
DICTIONARY
  5
19
102
{ACAD_REACTORS
330
C
102
}
100
AcDbDictionary
281
1
  0
DICTIONARY
  5
1A
102
{ACAD_REACTORS
330
C
102
}
100
AcDbDictionary
281
1
  3
Model
350
3FA
  3
Layout1
350
3FB
  0
ACDBPLACEHOLDER
  5
F
102
{ACAD_REACTORS
330
E
102
}
  0
MLINESTYLE
  5
18
102
{ACAD_REACTORS
330
17
102
}
100
AcDbMlineStyle
  2
STANDARD
 70
0
  3

 62
256
 51
90.0
 52
90.0
 71
2
 49
0.5
 62
256
  6
BYLAYER
 49
-0.5
 62
256
  6
BYLAYER
  0
LAYOUT
  5
3FA
102
{ACAD_REACTORS
330
1A
102
}
100
AcDbPlotSettings
  1

  2
none_device
  4
ANSI_C_(22.00_x_17.00_Inches)
  6

 40
0.0
 41
0.0
 42
0.0
 43
0.0
 44
558.8
 45
431.8
 46
0.0
 47
0.0
 48
0.0
 49
0.0
140
0.0
141
0.0
142
1.0
143
1.0
 70
1024
 72
0
 73
0
 74
0
  7

 75
0
147
1.0
148
0.0
149
0.0
100
AcDbLayout
  1
Model
 70
0
 71
0
 10
0.0
 20
0.0
 11
22.0
 21
17.0
 12
0.0
 22
0.0
 32
0.0
 14
0.0
 24
0.0
 34
0.0
 15
0.0
 25
0.0
 35
0.0
146
0.0
 13
0.0
 23
0.0
 33
0.0
 16
1.0
 26
0.0
 36
0.0
 17
0.0
 27
1.0
 37
0.0
 76
0
330
204
345
0
346
0
  0
LAYOUT
  5
3FB
102
{ACAD_REACTORS
330
1A
102
}
100
AcDbPlotSettings
  1

  2
none_device
  4
ANSI_C_(22.00_x_17.00_Inches)
  6

 40
0.0
 41
0.0
 42
0.0
 43
0.0
 44
558.8
 45
431.8
 46
0.0
 47
0.0
 48
0.0
 49
0.0
140
0.0
141
0.0
142
1.0
143
1.0
 70
0
 72
0
 73
0
 74
0
  7

 75
0
147
1.0
148
0.0
149
0.0
100
AcDbLayout
  1
Layout1
 70
0
 71
1
 10
0.0
 20
0.0
 11
22.0
 21
17.0
 12
0.0
 22
0.0
 32
0.0
 14
0.0
 24
0.0
 34
0.0
 15
0.0
 25
0.0
 35
0.0
146
0.0
 13
0.0
 23
0.0
 33
0.0
 16
1.0
 26
0.0
 36
0.0
 17
0.0
 27
1.0
 37
0.0
 76
0
330
205
345
0
346
0
  0
IMAGEDEF
  5
3FC
102
{ACAD_REACTORS
330
3F7
330
3F6
102
}
100
AcDbRasterImageDef
 90
0
  1
EPB_assy_2_img_1.png
 10
369.0
 20
92.0
 11
0.0066666667
 21
0.0066666667
280
1
281
0
  0
TABLESTYLE
  5
3FD
102
{ACAD_REACTORS
330
3F9
330
286
330
287
102
}
330
3F9
100
AcDbTableStyle
  3
Standard
 70
0
 71
0
 40
0.06
 41
0.06
280
1
281
1
  7
Standard
140
0.18
170
1
 62
0
 63
7
283
0
  7
Standard
140
0.18
170
1
 62
0
 63
7
283
0
  7
Standard
140
0.18
170
1
 62
0
 63
7
283
0
  0
TABLESTYLE
  5
3FE
102
{ACAD_REACTORS
330
3F9
330
285
102
}
330
3F9
100
AcDbTableStyle
  3
Standard1
 70
1
 71
0
 40
0.06
 41
0.06
280
1
281
1
  7
Standard
140
0.18
170
1
 62
0
 63
7
283
0
  7
Standard
140
0.18
170
1
 62
0
 63
7
283
0
  7
Standard
140
0.18
170
1
 62
0
 63
7
283
0
  0
ENDSEC
  0
EOF
