999
DXF file: EMB_assy_2.dxf
999
Pro/ENGINEER 2014200 by Parametric Technology Corporation
  0
SECTION
  2
HEADER
  9
$ACADVER
  1
AC1021
  9
$DWGCODEPAGE
  3
ANSI_1252
  9
$EXTMAX
 10
22.0
 20
17.0
 30
0.0
  9
$EXTMIN
 10
0.0
 20
0.0
 30
0.0
  9
$LIMMIN
 10
0.0
 20
0.0
  9
$LIMMAX
 10
22.0
 20
17.0
  9
$VIEWCTR
 10
11.0
 20
8.5
  9
$VIEWSIZE
 40
17.0
  9
$CLAYER
  8
0
  9
$LTSCALE
 40
1.21
  9
$CELTYPE
  6
BYLAYER
  9
$DIMSCALE
 40
1.0
  9
$DIMASZ
 40
0.1875
  9
$DIMEXO
 40
0.0625
  9
$DIMDLI
 40
0.836
  9
$DIMEXE
 40
0.125
  9
$DIMCEN
 40
0.198
  9
$DIMLFAC
 40
1.0
  9
$DIMBLK
  1
_FILLED
  9
$DIMTXT
 40
0.1
  9
$DIMTOL
 70
0
  9
$DIMLIM
 70
0
  9
$DIMTFAC
 40
1.0
  9
$DIMGAP
 40
0.09
  9
$DIMDSEP
 70
46
  9
$AUNITS
 70
0
  9
$PDMODE
 70
3
  9
$PDSIZE
 40
0.3125
  9
$HANDSEED
  5
3D1
  9
$TILEMODE
 70
1
  9
$MEASUREMENT
 70
0
  9
$INSUNITS
 70
1
  0
ENDSEC
  0
SECTION
  2
CLASSES
  0
CLASS
  1
ACDBDICTIONARYWDFLT
  2
AcDbDictionaryWithDefault
  3
AutoCAD 2000
 90
0
 91
1
280
0
281
0
  0
CLASS
  1
ACDBPLACEHOLDER
  2
AcDbPlaceHolder
  3
AutoCAD 2000
 90
0
 91
1
280
0
281
0
  0
CLASS
  1
LAYOUT
  2
AcDbLayout
  3
AutoCAD 2000
 90
0
 91
0
280
0
281
0
  0
CLASS
  1
RASTERVARIABLES
  2
AcDbRasterVariables
  3
ISM
 90
0
 91
1
280
0
281
0
  0
CLASS
  1
IMAGEDEF
  2
AcDbRasterImageDef
  3
ISM
 90
0
 91
1
280
0
281
0
  0
CLASS
  1
IMAGEDEF_REACTOR
  2
AcDbRasterImageDefReactor
  3
ISM
 90
0
 91
1
280
0
281
0
  0
CLASS
  1
IMAGE
  2
AcDbRasterImage
  3
ISM
 90
127
 91
1
280
0
281
1
  0
CLASS
  1
TABLESTYLE
  2
AcDbTableStyle
  3
ObjectDBX Classes
 90
2047
 91
1
280
0
281
0
  0
CLASS
  1
ACAD_TABLE
  2
AcDbTable
  3
ObjectDBX Classes
 90
1025
 91
3
280
0
281
1
  0
ENDSEC
  0
SECTION
  2
TABLES
  0
TABLE
  2
VPORT
  5
8
100
AcDbSymbolTable
 70
2
  0
VPORT
  5
1F4
100
AcDbSymbolTableRecord
100
AcDbViewportTableRecord
  2
*ACTIVE
 70
0
 10
0.0
 20
0.0
 11
1.0
 21
1.0
 12
11.0
 22
8.5
 13
0.0
 23
0.0
 14
1.0
 24
1.0
 15
0.0
 25
0.0
 16
0.0
 26
0.0
 36
1.0
 17
0.0
 27
0.0
 37
0.0
 40
17.0
 41
1.2941176471
 42
50.0
 43
0.0
 44
0.0
 50
0.0
 51
0.0
 71
0
 72
100
 73
1
 74
1
 75
0
 76
0
 77
0
 78
0
  0
ENDTAB
  0
TABLE
  2
LTYPE
  5
5
100
AcDbSymbolTable
 70
6
  0
LTYPE
  5
14
100
AcDbSymbolTableRecord
100
AcDbLinetypeTableRecord
  2
BYBLOCK
 70
0
  3

 72
65
 73
0
 40
0.0
  0
LTYPE
  5
15
100
AcDbSymbolTableRecord
100
AcDbLinetypeTableRecord
  2
BYLAYER
 70
0
  3

 72
65
 73
0
 40
0.0
  0
LTYPE
  5
16
100
AcDbSymbolTableRecord
100
AcDbLinetypeTableRecord
  2
CONTINUOUS
 70
64
  3
Solid line
 72
65
 73
0
 40
0.0
  0
LTYPE
  5
1F5
100
AcDbSymbolTableRecord
100
AcDbLinetypeTableRecord
  2
CENTER
 70
64
  3
____ _ ____ _ ____ _ ____ _ ____ _ ____ _ ____
 72
65
 73
4
 40
0.6
 49
0.375
 74
0
 49
-0.075
 74
0
 49
0.075
 74
0
 49
-0.075
 74
0
  0
LTYPE
  5
1F6
100
AcDbSymbolTableRecord
100
AcDbLinetypeTableRecord
  2
HIDDEN
 70
64
  3
- - - - - - - - - - - - - - - - - - - -
 72
65
 73
2
 40
0.2
 49
0.1
 74
0
 49
-0.1
 74
0
  0
LTYPE
  5
1F7
100
AcDbSymbolTableRecord
100
AcDbLinetypeTableRecord
  2
PHANTOM
 70
64
  3
_____ _ _ _____ _ _ _____ _ _ _____
 72
65
 73
6
 40
0.8
 49
0.45
 74
0
 49
-0.05
 74
0
 49
0.1
 74
0
 49
-0.05
 74
0
 49
0.1
 74
0
 49
-0.05
 74
0
  0
LTYPE
  5
1F8
100
AcDbSymbolTableRecord
100
AcDbLinetypeTableRecord
  2
DOT
 70
64
  3
. . . . . . . . . . . . . . . . . . . .
 72
65
 73
2
 40
0.2
 49
0.1
 74
0
 49
-0.1
 74
0
  0
LTYPE
  5
1F9
100
AcDbSymbolTableRecord
100
AcDbLinetypeTableRecord
  2
DASHED
 70
64
  3
- - - - - - - - - - - - - - - - - - - -
 72
65
 73
2
 40
0.2
 49
0.1
 74
0
 49
-0.1
 74
0
  0
ENDTAB
  0
TABLE
  2
LAYER
  5
2
100
AcDbSymbolTable
 70
36
  0
LAYER
  5
10
100
AcDbSymbolTableRecord
100
AcDbLayerTableRecord
  2
0
 70
0
 62
7
  6
CONTINUOUS
370
-3
390
F
  0
LAYER
  5
1FA
100
AcDbSymbolTableRecord
100
AcDbLayerTableRecord
  2
DEFAULT_1
 70
0
 62
7
  6
CENTER
370
-3
390
F
  0
LAYER
  5
1FB
100
AcDbSymbolTableRecord
100
AcDbLayerTableRecord
  2
DEFAULT_2
 70
0
 62
8
  6
HIDDEN
370
-3
390
F
  0
LAYER
  5
1FC
100
AcDbSymbolTableRecord
100
AcDbLayerTableRecord
  2
DEFAULT_3
 70
0
 62
7
  6
PHANTOM
370
-3
390
F
  0
LAYER
  5
1FD
100
AcDbSymbolTableRecord
100
AcDbLayerTableRecord
  2
01___PRT_ALL_DTM_PLN
 70
0
 62
7
  6
CONTINUOUS
370
-3
390
F
  0
LAYER
  5
1FE
100
AcDbSymbolTableRecord
100
AcDbLayerTableRecord
  2
01___PRT_DEF_DTM_PLN
 70
0
 62
7
  6
CONTINUOUS
370
-3
390
F
  0
LAYER
  5
1FF
100
AcDbSymbolTableRecord
100
AcDbLayerTableRecord
  2
02___PRT_ALL_AXES
 70
0
 62
7
  6
CONTINUOUS
370
-3
390
F
  0
LAYER
  5
200
100
AcDbSymbolTableRecord
100
AcDbLayerTableRecord
  2
03___PRT_ALL_CURVES
 70
0
 62
7
  6
CONTINUOUS
370
-3
390
F
  0
LAYER
  5
201
100
AcDbSymbolTableRecord
100
AcDbLayerTableRecord
  2
04___PRT_ALL_DTM_PNT
 70
0
 62
7
  6
CONTINUOUS
370
-3
390
F
  0
LAYER
  5
202
100
AcDbSymbolTableRecord
100
AcDbLayerTableRecord
  2
05___PRT_ALL_DTM_CSYS
 70
0
 62
7
  6
CONTINUOUS
370
-3
390
F
  0
LAYER
  5
203
100
AcDbSymbolTableRecord
100
AcDbLayerTableRecord
  2
05___PRT_DEF_DTM_CSYS
 70
0
 62
7
  6
CONTINUOUS
370
-3
390
F
  0
LAYER
  5
204
100
AcDbSymbolTableRecord
100
AcDbLayerTableRecord
  2
06___PRT_ALL_SURFS
 70
0
 62
7
  6
CONTINUOUS
370
-3
390
F
  0
LAYER
  5
205
100
AcDbSymbolTableRecord
100
AcDbLayerTableRecord
  2
DATUM_PLANES
 70
0
 62
7
  6
CONTINUOUS
370
-3
390
F
  0
LAYER
  5
206
100
AcDbSymbolTableRecord
100
AcDbLayerTableRecord
  2
PORT_AREAS
 70
0
 62
7
  6
CONTINUOUS
370
-3
390
F
  0
LAYER
  5
207
100
AcDbSymbolTableRecord
100
AcDbLayerTableRecord
  2
SUNNBOMCOSMETIC
 70
0
 62
7
  6
CONTINUOUS
370
-3
390
F
  0
LAYER
  5
208
100
AcDbSymbolTableRecord
100
AcDbLayerTableRecord
  2
SUNNBOMSTAMPING
 70
0
 62
7
  6
CONTINUOUS
370
-3
390
F
  0
LAYER
  5
209
100
AcDbSymbolTableRecord
100
AcDbLayerTableRecord
  2
THREADS
 70
0
 62
7
  6
CONTINUOUS
370
-3
390
F
  0
ENDTAB
  0
TABLE
  2
STYLE
  5
3
100
AcDbSymbolTable
 70
1
  0
STYLE
  5
11
100
AcDbSymbolTableRecord
100
AcDbTextStyleTableRecord
  2
STANDARD
 70
0
 40
0.0
 41
0.8
 50
0.0
 71
0
 42
0.2
  3
txt
  4

  0
STYLE
  5
20A
100
AcDbSymbolTableRecord
100
AcDbTextStyleTableRecord
  2
TEXTSTYLE_1
 70
0
 40
0.0
 41
0.8
 50
0.0
 71
0
 42
0.2
  3
gdt
  4

  0
ENDTAB
  0
TABLE
  2
VIEW
  5
6
100
AcDbSymbolTable
 70
0
  0
ENDTAB
  0
TABLE
  2
UCS
  5
7
100
AcDbSymbolTable
 70
0
  0
ENDTAB
  0
TABLE
  2
APPID
  5
9
100
AcDbSymbolTable
 70
1
  0
APPID
  5
20B
100
AcDbSymbolTableRecord
100
AcDbRegAppTableRecord
  2
ACAD
 70
0
  0
ENDTAB
  0
TABLE
  2
BLOCK_RECORD
  5
1
100
AcDbSymbolTable
 70
0
  0
BLOCK_RECORD
  5
20C
100
AcDbSymbolTableRecord
100
AcDbBlockTableRecord
  2
*Model_Space
  0
BLOCK_RECORD
  5
20D
100
AcDbSymbolTableRecord
100
AcDbBlockTableRecord
  2
*Paper_Space
  0
BLOCK_RECORD
  5
20E
100
AcDbSymbolTableRecord
100
AcDbBlockTableRecord
  2
SUN_FIRST_THIRD_ANGLE_BL0
  0
BLOCK_RECORD
  5
20F
100
AcDbSymbolTableRecord
100
AcDbBlockTableRecord
  2
*T1
  0
BLOCK_RECORD
  5
210
100
AcDbSymbolTableRecord
100
AcDbBlockTableRecord
  2
*T2
  0
BLOCK_RECORD
  5
211
100
AcDbSymbolTableRecord
100
AcDbBlockTableRecord
  2
*T3
  0
ENDTAB
  0
TABLE
  2
DIMSTYLE
  5
A
100
AcDbSymbolTable
 70
1
100
AcDbDimStyleTable
 71
0
  0
DIMSTYLE
105
212
100
AcDbSymbolTableRecord
100
AcDbDimStyleTableRecord
  2
STANDARD
 70
0
  3

  4

 40
1.0
 41
0.1875
 42
0.0625
 43
0.38
 44
0.125
 45
0.0
 46
0.0
 47
0.001
 48
0.001
140
0.1
141
0.09
142
0.0
143
25.4
144
1.0
145
0.0
146
1.0
147
0.09
 71
0.0
 72
0.0
 73
1
 74
1
 75
0
 76
0
 77
0
 78
4
170
0
171
2
172
0
173
0
174
0
175
0
176
0
177
0
178
0
270
2
271
3
272
3
273
2
274
2
275
0
280
0
281
0
282
0
283
1
284
4
285
0
286
0
287
3
288
0
340
11
278
46
  0
ENDTAB
  0
ENDSEC
  0
SECTION
  2
BLOCKS
  0
BLOCK
  5
20
100
AcDbEntity
  8
0
100
AcDbBlockBegin
  2
*Model_Space
 70
0
 10
0.0
 20
0.0
 30
0.0
  3
*Model_Space
  1

  0
ENDBLK
  5
21
100
AcDbEntity
  8
0
100
AcDbBlockEnd
  0
BLOCK
  5
1C
100
AcDbEntity
  8
0
100
AcDbBlockBegin
  2
*Paper_Space
 70
0
 10
0.0
 20
0.0
 30
0.0
  3
*Paper_Space
  1

  0
ENDBLK
  5
1D
100
AcDbEntity
  8
0
100
AcDbBlockEnd
  0
BLOCK
  5
213
100
AcDbEntity
  8
0
100
AcDbBlockBegin
 62
2
  6
CONTINUOUS
  2
SUN_FIRST_THIRD_ANGLE_BL0
 70
64
 10
20.4816717061
 20
1.2289683772
  3
SUN_FIRST_THIRD_ANGLE_BL0
  1

  0
TEXT
  5
214
100
AcDbEntity
  8
0
100
AcDbText
 62
2
  6
CONTINUOUS
 10
19.4750896608
 20
1.4136269581
  7
STANDARD
 40
0.08
  1
FIRST ANGLE
 41
0.8
 72
0
100
AcDbText
  0
TEXT
  5
215
100
AcDbEntity
  8
0
100
AcDbText
 62
2
  6
CONTINUOUS
 10
20.7842537513
 20
1.4047600029
  7
STANDARD
 40
0.08
  1
THIRD ANGLE
 41
0.8
 72
0
100
AcDbText
  0
LINE
  5
216
100
AcDbEntity
  8
0
100
AcDbLine
 62
7
  6
CONTINUOUS
 10
19.4767170086
 20
1.1727031207
 11
19.6334271527
 21
1.1717972817
  0
LINE
  5
217
100
AcDbEntity
  8
0
100
AcDbLine
 62
7
  6
CONTINUOUS
 10
19.6596964832
 20
1.1717972817
 11
19.6950230232
 21
1.171593082
  0
LINE
  5
218
100
AcDbEntity
  8
0
100
AcDbLine
 62
7
  6
CONTINUOUS
 10
19.7194818561
 20
1.1708914427
 11
19.8852396156
 21
1.1699333054
  0
LINE
  5
219
100
AcDbEntity
  8
0
100
AcDbLine
 62
7
  6
CONTINUOUS
 10
19.4758111696
 20
1.2723454088
 11
19.88525039
 21
1.3511534004
  0
LINE
  5
21A
100
AcDbEntity
  8
0
100
AcDbLine
 62
7
  6
CONTINUOUS
 10
19.88525039
 20
1.3511534004
 11
19.8831348489
 21
0.9851647912
  0
LINE
  5
21B
100
AcDbEntity
  8
0
100
AcDbLine
 62
7
  6
CONTINUOUS
 10
19.8831348489
 20
0.9851647912
 11
19.4767170086
 21
1.0658141206
  0
LINE
  5
21C
100
AcDbEntity
  8
0
100
AcDbLine
 62
7
  6
CONTINUOUS
 10
19.4767170086
 20
1.0658141206
 11
19.4779056764
 21
1.2714536432
  0
CIRCLE
  5
21D
100
AcDbEntity
  8
0
100
AcDbCircle
 62
7
  6
CONTINUOUS
 10
20.2068232291
 20
1.1717972817
 40
0.175742101
  0
CIRCLE
  5
21E
100
AcDbEntity
  8
0
100
AcDbCircle
 62
7
  6
CONTINUOUS
 10
20.2068232291
 20
1.1717972817
 40
0.1005522074
  0
LINE
  5
21F
100
AcDbEntity
  8
0
100
AcDbLine
 62
7
  6
CONTINUOUS
 10
20.2077290681
 20
1.3756110529
 11
20.2071171714
 21
1.2379342989
  0
LINE
  5
220
100
AcDbEntity
  8
0
100
AcDbLine
 62
7
  6
CONTINUOUS
 10
20.2077290681
 20
1.2016899681
 11
20.2074674401
 21
1.1428236749
  0
LINE
  5
221
100
AcDbEntity
  8
0
100
AcDbLine
 62
7
  6
CONTINUOUS
 10
20.208634907
 20
1.101141841
 11
20.2080230104
 21
0.963465087
  0
LINE
  5
222
100
AcDbEntity
  8
0
100
AcDbLine
 62
7
  6
CONTINUOUS
 10
20.0066328138
 20
1.1745147986
 11
20.1443095678
 21
1.1739029019
  0
LINE
  5
223
100
AcDbEntity
  8
0
100
AcDbLine
 62
7
  6
CONTINUOUS
 10
20.1832714155
 20
1.1727031207
 11
20.238153505
 21
1.172335442
  0
LINE
  5
224
100
AcDbEntity
  8
0
100
AcDbLine
 62
7
  6
CONTINUOUS
 10
20.2756669918
 20
1.1717972817
 11
20.407916871
 21
1.1712095044
  0
CIRCLE
  5
225
100
AcDbEntity
  8
0
100
AcDbCircle
 62
7
  6
CONTINUOUS
 10
20.7509457401
 20
1.1693297793
 40
0.1722024983
  0
CIRCLE
  5
226
100
AcDbEntity
  8
0
100
AcDbCircle
 62
7
  6
CONTINUOUS
 10
20.7509457401
 20
1.1693297793
 40
0.0985164967
  0
LINE
  5
227
100
AcDbEntity
  8
0
100
AcDbLine
 62
7
  6
CONTINUOUS
 10
20.7169767782
 20
1.170462078
 11
20.7825395137
 21
1.1682766535
  0
LINE
  5
228
100
AcDbEntity
  8
0
100
AcDbLine
 62
7
  6
CONTINUOUS
 10
20.8177513651
 20
1.1693297793
 11
20.947965719
 21
1.1693297793
  0
LINE
  5
229
100
AcDbEntity
  8
0
100
AcDbLine
 62
7
  6
CONTINUOUS
 10
20.6875370113
 20
1.170462078
 11
20.5573226574
 21
1.170462078
  0
LINE
  5
22A
100
AcDbEntity
  8
0
100
AcDbLine
 62
7
  6
CONTINUOUS
 10
20.7486811426
 20
1.1987695462
 11
20.7486811426
 21
1.1432869085
  0
LINE
  5
22B
100
AcDbEntity
  8
0
100
AcDbLine
 62
7
  6
CONTINUOUS
 10
20.7498134414
 20
1.1059210505
 11
20.7498134414
 21
0.9757066966
  0
LINE
  5
22C
100
AcDbEntity
  8
0
100
AcDbLine
 62
7
  6
CONTINUOUS
 10
20.7486811426
 20
1.2338708068
 11
20.7486811426
 21
1.3640851607
  0
LINE
  5
22D
100
AcDbEntity
  8
0
100
AcDbLine
 62
7
  6
CONTINUOUS
 10
21.0702539817
 20
1.2701043662
 11
21.4790138229
 21
1.3448360823
  0
LINE
  5
22E
100
AcDbEntity
  8
0
100
AcDbLine
 62
7
  6
CONTINUOUS
 10
21.4790138229
 20
1.3448360823
 11
21.4790138229
 21
0.9779712941
  0
LINE
  5
22F
100
AcDbEntity
  8
0
100
AcDbLine
 62
7
  6
CONTINUOUS
 10
21.4790138229
 20
0.9779712941
 11
21.069121683
 21
1.0617614
  0
LINE
  5
230
100
AcDbEntity
  8
0
100
AcDbLine
 62
7
  6
CONTINUOUS
 10
21.0702539817
 20
1.2701043662
 11
21.069121683
 21
1.0617614
  0
LINE
  5
231
100
AcDbEntity
  8
0
100
AcDbLine
 62
7
  6
CONTINUOUS
 10
21.4790138229
 20
1.1693297793
 11
21.3159628059
 21
1.1693297793
  0
LINE
  5
232
100
AcDbEntity
  8
0
100
AcDbLine
 62
7
  6
CONTINUOUS
 10
21.2876553377
 20
1.1693297793
 11
21.2502894796
 21
1.1693297793
  0
LINE
  5
233
100
AcDbEntity
  8
0
100
AcDbLine
 62
7
  6
CONTINUOUS
 10
21.2208497126
 20
1.1659328831
 11
21.0713862804
 21
1.1659328831
  0
LINE
  5
234
100
AcDbEntity
  8
0
100
AcDbLine
 62
7
  6
CONTINUOUS
 10
20.4796138713
 20
1.5284908897
 11
20.4766766948
 21
0.9294458646
  0
ENDBLK
  5
235
100
AcDbEntity
  8
0
  6
BYBLOCK
 62
0
100
AcDbBlockEnd
  0
BLOCK
  5
236
100
AcDbEntity
  8
0
100
AcDbBlockBegin
  2
*T1
 70
1
 10
0.0
 20
0.0
  3
*T1
  1

  0
LINE
  5
237
100
AcDbEntity
  8
0
100
AcDbLine
 62
2
  6
CONTINUOUS
 10
9.275
 20
0.0
 11
-0.0
 21
0.0
  0
LINE
  5
238
100
AcDbEntity
  8
0
100
AcDbLine
 62
2
  6
CONTINUOUS
 10
9.275
 20
0.0
 11
9.275
 21
1.25
  0
LINE
  5
239
100
AcDbEntity
  8
0
100
AcDbLine
 62
2
  6
CONTINUOUS
 10
9.275
 20
0.625
 11
-0.0
 21
0.625
  0
LINE
  5
23A
100
AcDbEntity
  8
0
100
AcDbLine
 62
2
  6
CONTINUOUS
 10
9.275
 20
1.25
 11
-0.0
 21
1.25
  0
LINE
  5
23B
100
AcDbEntity
  8
0
100
AcDbLine
 62
2
  6
CONTINUOUS
 10
6.8
 20
0.0
 11
6.8
 21
1.25
  0
LINE
  5
23C
100
AcDbEntity
  8
0
100
AcDbLine
 62
2
  6
CONTINUOUS
 10
6.4
 20
0.0
 11
6.4
 21
0.625
  0
LINE
  5
23D
100
AcDbEntity
  8
0
100
AcDbLine
 62
2
  6
CONTINUOUS
 10
5.9
 20
0.0
 11
5.9
 21
0.625
  0
LINE
  5
23E
100
AcDbEntity
  8
0
100
AcDbLine
 62
2
  6
CONTINUOUS
 10
5.2
 20
0.0
 11
5.2
 21
0.625
  0
LINE
  5
23F
100
AcDbEntity
  8
0
100
AcDbLine
 62
2
  6
CONTINUOUS
 10
4.1
 20
0.0
 11
4.1
 21
1.25
  0
LINE
  5
240
100
AcDbEntity
  8
0
100
AcDbLine
 62
2
  6
CONTINUOUS
 10
-0.0
 20
0.0
 11
-0.0
 21
1.25
  0
MTEXT
  5
241
100
AcDbEntity
  8
0
100
AcDbMText
 62
2
  6
CONTINUOUS
  7
STANDARD
 71
2
 72
1
 10
6.6
 20
0.325
 30
0.0
 11
1.0
 21
0.0
 31
0.0
 44
0.9
  1
2
 40
0.125
 41
0.2
  0
MTEXT
  5
242
100
AcDbEntity
  8
0
100
AcDbMText
 62
2
  6
CONTINUOUS
  7
STANDARD
 71
2
 72
1
 10
6.15
 20
0.325
 30
0.0
 11
1.0
 21
0.0
 31
0.0
 44
0.9
  1
C
 40
0.125
 41
0.2
  0
MTEXT
  5
243
100
AcDbEntity
  8
0
100
AcDbMText
 62
2
  6
CONTINUOUS
  7
STANDARD
 71
2
 72
1
 10
5.55
 20
0.325
 30
0.0
 11
1.0
 21
0.0
 31
0.0
 44
0.9
  1
1.000
 40
0.125
 41
1.0
  0
MTEXT
  5
244
100
AcDbEntity
  8
0
100
AcDbMText
 62
2
  6
CONTINUOUS
  7
STANDARD
 71
2
 72
1
 10
4.65
 20
0.325
 30
0.0
 11
1.0
 21
0.0
 31
0.0
 44
0.9
  1
Sep-06-19
 40
0.125
 41
1.8
  0
MTEXT
  5
245
100
AcDbEntity
  8
0
100
AcDbMText
 62
2
  6
CONTINUOUS
  7
STANDARD
 71
2
 72
1
 10
2.05
 20
0.4625
 30
0.0
 11
1.0
 21
0.0
 31
0.0
 44
0.9
  1
T-11A Line mount\PCushion lock
 40
0.125
 41
3.2
  0
MTEXT
  5
246
100
AcDbEntity
  8
0
100
AcDbMText
 62
2
  6
CONTINUOUS
  7
STANDARD
 71
1
 72
1
 10
6.45
 20
0.5625
 30
0.0
 11
1.0
 21
0.0
 31
0.0
 44
0.9
  1
SHEET
 40
0.06
 41
0.48
  0
MTEXT
  5
247
100
AcDbEntity
  8
0
100
AcDbMText
 62
2
  6
CONTINUOUS
  7
STANDARD
 71
1
 72
1
 10
5.95
 20
0.5625
 30
0.0
 11
1.0
 21
0.0
 31
0.0
 44
0.9
  1
DWG SIZE
 40
0.06
 41
0.768
  0
MTEXT
  5
248
100
AcDbEntity
  8
0
100
AcDbMText
 62
2
  6
CONTINUOUS
  7
STANDARD
 71
1
 72
1
 10
5.25
 20
0.5625
 30
0.0
 11
1.0
 21
0.0
 31
0.0
 44
0.9
  1
SCALE
 40
0.06
 41
0.48
  0
MTEXT
  5
249
100
AcDbEntity
  8
0
100
AcDbMText
 62
2
  6
CONTINUOUS
  7
STANDARD
 71
1
 72
1
 10
4.15
 20
0.5625
 30
0.0
 11
1.0
 21
0.0
 31
0.0
 44
0.9
  1
DATE
 40
0.06
 41
0.384
  0
MTEXT
  5
24A
100
AcDbEntity
  8
0
100
AcDbMText
 62
2
  6
CONTINUOUS
  7
STANDARD
 71
1
 72
1
 10
0.05
 20
0.5625
 30
0.0
 11
1.0
 21
0.0
 31
0.0
 44
0.9
  1
DESCRIPTION
 40
0.06
 41
1.056
  0
MTEXT
  5
24B
100
AcDbEntity
  8
0
100
AcDbMText
 62
2
  6
CONTINUOUS
  7
STANDARD
 71
2
 72
1
 10
5.45
 20
1.0375
 30
0.0
 11
1.0
 21
0.0
 31
0.0
 44
0.9
  1
ALL DIMENSIONS IN INCH\PVIEWS ARE THIRD ANGLE
 40
0.12
 41
4.224
  0
MTEXT
  5
24C
100
AcDbEntity
  8
0
100
AcDbMText
 62
2
  6
CONTINUOUS
  7
STANDARD
 71
2
 72
1
 10
2.05
 20
0.95
 30
0.0
 11
1.0
 21
0.0
 31
0.0
 44
0.9
  1
EMB
 40
0.125
 41
0.6
  0
MTEXT
  5
24D
100
AcDbEntity
  8
0
100
AcDbMText
 62
2
  6
CONTINUOUS
  7
STANDARD
 71
1
 72
1
 10
0.05
 20
1.1875
 30
0.0
 11
1.0
 21
0.0
 31
0.0
 44
0.9
  1
MODEL
 40
0.06
 41
0.48
  0
ENDBLK
  5
24E
100
AcDbEntity
  8
0
  6
BYBLOCK
 62
0
100
AcDbBlockEnd
  0
BLOCK
  5
24F
100
AcDbEntity
  8
0
100
AcDbBlockBegin
  2
*T2
 70
1
 10
0.0
 20
0.0
  3
*T2
  1

  0
LINE
  5
250
100
AcDbEntity
  8
0
100
AcDbLine
 62
2
  6
CONTINUOUS
 10
0.0
 20
0.0
 11
9.055
 21
0.0
  0
LINE
  5
251
100
AcDbEntity
  8
0
100
AcDbLine
 62
2
  6
CONTINUOUS
 10
0.0
 20
0.0
 11
0.0
 21
-2.594
  0
LINE
  5
252
100
AcDbEntity
  8
0
100
AcDbLine
 62
2
  6
CONTINUOUS
 10
0.0
 20
-0.344
 11
9.055
 21
-0.344
  0
LINE
  5
253
100
AcDbEntity
  8
0
100
AcDbLine
 62
2
  6
CONTINUOUS
 10
0.0
 20
-0.594
 11
9.055
 21
-0.594
  0
LINE
  5
254
100
AcDbEntity
  8
0
100
AcDbLine
 62
2
  6
CONTINUOUS
 10
0.0
 20
-0.844
 11
9.055
 21
-0.844
  0
LINE
  5
255
100
AcDbEntity
  8
0
100
AcDbLine
 62
2
  6
CONTINUOUS
 10
0.0
 20
-1.094
 11
9.055
 21
-1.094
  0
LINE
  5
256
100
AcDbEntity
  8
0
100
AcDbLine
 62
2
  6
CONTINUOUS
 10
0.0
 20
-1.344
 11
9.055
 21
-1.344
  0
LINE
  5
257
100
AcDbEntity
  8
0
100
AcDbLine
 62
2
  6
CONTINUOUS
 10
0.0
 20
-1.594
 11
9.055
 21
-1.594
  0
LINE
  5
258
100
AcDbEntity
  8
0
100
AcDbLine
 62
2
  6
CONTINUOUS
 10
0.0
 20
-1.844
 11
9.055
 21
-1.844
  0
LINE
  5
259
100
AcDbEntity
  8
0
100
AcDbLine
 62
2
  6
CONTINUOUS
 10
0.0
 20
-2.094
 11
9.055
 21
-2.094
  0
LINE
  5
25A
100
AcDbEntity
  8
0
100
AcDbLine
 62
2
  6
CONTINUOUS
 10
0.0
 20
-2.344
 11
9.055
 21
-2.344
  0
LINE
  5
25B
100
AcDbEntity
  8
0
100
AcDbLine
 62
2
  6
CONTINUOUS
 10
0.0
 20
-2.594
 11
9.055
 21
-2.594
  0
LINE
  5
25C
100
AcDbEntity
  8
0
100
AcDbLine
 62
2
  6
CONTINUOUS
 10
3.055
 20
0.0
 11
3.055
 21
-2.594
  0
LINE
  5
25D
100
AcDbEntity
  8
0
100
AcDbLine
 62
2
  6
CONTINUOUS
 10
9.055
 20
0.0
 11
9.055
 21
-2.594
  0
MTEXT
  5
25E
100
AcDbEntity
  8
0
100
AcDbMText
 62
2
  6
CONTINUOUS
  7
STANDARD
 71
2
 72
1
 10
1.5275
 20
-0.0995
 30
0.0
 11
1.0
 21
0.0
 31
0.0
 44
0.9
  1
Technical Data
 40
0.145
 41
3.248
  0
MTEXT
  5
25F
100
AcDbEntity
  8
0
100
AcDbMText
 62
2
  6
CONTINUOUS
  7
STANDARD
 71
2
 72
1
 10
4.555
 20
-0.0995
 30
0.0
 11
1.0
 21
0.0
 31
0.0
 44
0.9
  1
U.S. Units
 40
0.145
 41
2.32
  0
MTEXT
  5
260
100
AcDbEntity
  8
0
100
AcDbMText
 62
2
  6
CONTINUOUS
  7
STANDARD
 71
2
 72
1
 10
7.555
 20
-0.0995
 30
0.0
 11
1.0
 21
0.0
 31
0.0
 44
0.9
  1
Metric Units
 40
0.145
 41
2.784
  0
MTEXT
  5
261
100
AcDbEntity
  8
0
100
AcDbMText
 62
2
  6
CONTINUOUS
  7
STANDARD
 71
2
 72
1
 10
1.5275
 20
-0.4065
 30
0.0
 11
1.0
 21
0.0
 31
0.0
 44
0.9
  1
Cavity
 40
0.125
 41
1.2
  0
MTEXT
  5
262
100
AcDbEntity
  8
0
100
AcDbMText
 62
2
  6
CONTINUOUS
  7
STANDARD
 71
2
 72
1
 10
6.055
 20
-0.4065
 30
0.0
 11
1.0
 21
0.0
 31
0.0
 44
0.9
  1
T-11A
 40
0.125
 41
1.0
  0
MTEXT
  5
263
100
AcDbEntity
  8
0
100
AcDbMText
 62
2
  6
CONTINUOUS
  7
STANDARD
 71
2
 72
1
 10
1.5275
 20
-0.6565
 30
0.0
 11
1.0
 21
0.0
 31
0.0
 44
0.9
  1
Body Features
 40
0.125
 41
2.6
  0
MTEXT
  5
264
100
AcDbEntity
  8
0
100
AcDbMText
 62
2
  6
CONTINUOUS
  7
STANDARD
 71
2
 72
1
 10
6.055
 20
-0.6565
 30
0.0
 11
1.0
 21
0.0
 31
0.0
 44
0.9
  1
Cushion lock
 40
0.125
 41
2.4
  0
MTEXT
  5
265
100
AcDbEntity
  8
0
100
AcDbMText
 62
2
  6
CONTINUOUS
  7
STANDARD
 71
2
 72
1
 10
1.5275
 20
-0.9065
 30
0.0
 11
1.0
 21
0.0
 31
0.0
 44
0.9
  1
Body Type
 40
0.125
 41
1.8
  0
MTEXT
  5
266
100
AcDbEntity
  8
0
100
AcDbMText
 62
2
  6
CONTINUOUS
  7
STANDARD
 71
2
 72
1
 10
6.055
 20
-0.9065
 30
0.0
 11
1.0
 21
0.0
 31
0.0
 44
0.9
  1
Line mount
 40
0.125
 41
2.0
  0
MTEXT
  5
267
100
AcDbEntity
  8
0
100
AcDbMText
 62
2
  6
CONTINUOUS
  7
STANDARD
 71
2
 72
1
 10
1.5275
 20
-1.1565
 30
0.0
 11
1.0
 21
0.0
 31
0.0
 44
0.9
  1
Interface
 40
0.125
 41
1.8
  0
MTEXT
  5
268
100
AcDbEntity
  8
0
100
AcDbMText
 62
2
  6
CONTINUOUS
  7
STANDARD
 71
2
 72
1
 10
6.055
 20
-1.1565
 30
0.0
 11
1.0
 21
0.0
 31
0.0
 44
0.9
  1
None
 40
0.125
 41
0.8
  0
MTEXT
  5
269
100
AcDbEntity
  8
0
100
AcDbMText
 62
2
  6
CONTINUOUS
  7
STANDARD
 71
2
 72
1
 10
1.5275
 20
-1.4065
 30
0.0
 11
1.0
 21
0.0
 31
0.0
 44
0.9
  1
Open Cavity Quantity
 40
0.125
 41
4.0
  0
MTEXT
  5
26A
100
AcDbEntity
  8
0
100
AcDbMText
 62
2
  6
CONTINUOUS
  7
STANDARD
 71
2
 72
1
 10
6.055
 20
-1.4065
 30
0.0
 11
1.0
 21
0.0
 31
0.0
 44
0.9
  1
2
 40
0.125
 41
0.2
  0
MTEXT
  5
26B
100
AcDbEntity
  8
0
100
AcDbMText
 62
2
  6
CONTINUOUS
  7
STANDARD
 71
2
 72
1
 10
1.5275
 20
-1.6565
 30
0.0
 11
1.0
 21
0.0
 31
0.0
 44
0.9
  1
Weight
 40
0.125
 41
1.2
  0
MTEXT
  5
26C
100
AcDbEntity
  8
0
100
AcDbMText
 62
2
  6
CONTINUOUS
  7
STANDARD
 71
2
 72
1
 10
4.555
 20
-1.6565
 30
0.0
 11
1.0
 21
0.0
 31
0.0
 44
0.9
  1
2.886 lb.
 40
0.125
 41
1.8
  0
MTEXT
  5
26D
100
AcDbEntity
  8
0
100
AcDbMText
 62
2
  6
CONTINUOUS
  7
STANDARD
 71
2
 72
1
 10
7.555
 20
-1.6565
 30
0.0
 11
1.0
 21
0.0
 31
0.0
 44
0.9
  1
1,309 kg.
 40
0.125
 41
1.8
  0
MTEXT
  5
26E
100
AcDbEntity
  8
0
100
AcDbMText
 62
2
  6
CONTINUOUS
  7
STANDARD
 71
2
 72
1
 10
1.5275
 20
-1.9065
 30
0.0
 11
1.0
 21
0.0
 31
0.0
 44
0.9
  1
Mounting Hole Diameter
 40
0.125
 41
4.4
  0
MTEXT
  5
26F
100
AcDbEntity
  8
0
100
AcDbMText
 62
2
  6
CONTINUOUS
  7
STANDARD
 71
2
 72
1
 10
4.555
 20
-1.9065
 30
0.0
 11
1.0
 21
0.0
 31
0.0
 44
0.9
  1
.34 in.
 40
0.125
 41
1.4
  0
MTEXT
  5
270
100
AcDbEntity
  8
0
100
AcDbMText
 62
2
  6
CONTINUOUS
  7
STANDARD
 71
2
 72
1
 10
7.555
 20
-1.9065
 30
0.0
 11
1.0
 21
0.0
 31
0.0
 44
0.9
  1
8.6 mm
 40
0.125
 41
1.2
  0
MTEXT
  5
271
100
AcDbEntity
  8
0
100
AcDbMText
 62
2
  6
CONTINUOUS
  7
STANDARD
 71
2
 72
1
 10
1.5275
 20
-2.1565
 30
0.0
 11
1.0
 21
0.0
 31
0.0
 44
0.9
  1
Mounting Hole Depth
 40
0.125
 41
3.8
  0
MTEXT
  5
272
100
AcDbEntity
  8
0
100
AcDbMText
 62
2
  6
CONTINUOUS
  7
STANDARD
 71
2
 72
1
 10
6.055
 20
-2.1565
 30
0.0
 11
1.0
 21
0.0
 31
0.0
 44
0.9
  1
Through
 40
0.125
 41
1.4
  0
MTEXT
  5
273
100
AcDbEntity
  8
0
100
AcDbMText
 62
2
  6
CONTINUOUS
  7
STANDARD
 71
2
 72
1
 10
1.5275
 20
-2.4065
 30
0.0
 11
1.0
 21
0.0
 31
0.0
 44
0.9
  1
Mounting Hole Quantity
 40
0.125
 41
4.4
  0
MTEXT
  5
274
100
AcDbEntity
  8
0
100
AcDbMText
 62
2
  6
CONTINUOUS
  7
STANDARD
 71
2
 72
1
 10
6.055
 20
-2.4065
 30
0.0
 11
1.0
 21
0.0
 31
0.0
 44
0.9
  1
2
 40
0.125
 41
0.2
  0
ENDBLK
  5
275
100
AcDbEntity
  8
0
  6
BYBLOCK
 62
0
100
AcDbBlockEnd
  0
BLOCK
  5
276
100
AcDbEntity
  8
0
100
AcDbBlockBegin
  2
*T3
 70
1
 10
0.0
 20
0.0
  3
*T3
  1

  0
LINE
  5
277
100
AcDbEntity
  8
0
100
AcDbLine
 62
2
  6
CONTINUOUS
 10
0.0
 20
0.0
 11
4.6
 21
0.0
  0
LINE
  5
278
100
AcDbEntity
  8
0
100
AcDbLine
 62
2
  6
CONTINUOUS
 10
0.0
 20
0.0
 11
0.0
 21
-1.18775
  0
LINE
  5
279
100
AcDbEntity
  8
0
100
AcDbLine
 62
2
  6
CONTINUOUS
 10
0.0
 20
-0.34375
 11
4.6
 21
-0.34375
  0
LINE
  5
27A
100
AcDbEntity
  8
0
100
AcDbLine
 62
2
  6
CONTINUOUS
 10
0.0
 20
-0.68775
 11
4.6
 21
-0.68775
  0
LINE
  5
27B
100
AcDbEntity
  8
0
100
AcDbLine
 62
2
  6
CONTINUOUS
 10
0.0
 20
-0.93775
 11
4.6
 21
-0.93775
  0
LINE
  5
27C
100
AcDbEntity
  8
0
100
AcDbLine
 62
2
  6
CONTINUOUS
 10
0.0
 20
-1.18775
 11
4.6
 21
-1.18775
  0
LINE
  5
27D
100
AcDbEntity
  8
0
100
AcDbLine
 62
2
  6
CONTINUOUS
 10
1.3
 20
-0.34375
 11
1.3
 21
-1.18775
  0
LINE
  5
27E
100
AcDbEntity
  8
0
100
AcDbLine
 62
2
  6
CONTINUOUS
 10
3.3
 20
-0.34375
 11
3.3
 21
-1.18775
  0
LINE
  5
27F
100
AcDbEntity
  8
0
100
AcDbLine
 62
2
  6
CONTINUOUS
 10
4.6
 20
0.0
 11
4.6
 21
-1.18775
  0
MTEXT
  5
280
100
AcDbEntity
  8
0
100
AcDbMText
 62
2
  6
CONTINUOUS
  7
STANDARD
 71
2
 72
1
 10
2.3
 20
-0.099375
 30
0.0
 11
1.0
 21
0.0
 31
0.0
 44
0.9
  1
Port Headings
 40
0.145
 41
3.016
  0
MTEXT
  5
281
100
AcDbEntity
  8
0
100
AcDbMText
 62
2
  6
CONTINUOUS
  7
STANDARD
 71
2
 72
1
 10
0.65
 20
-0.44325
 30
0.0
 11
1.0
 21
0.0
 31
0.0
 44
0.9
  1
Product
 40
0.145
 41
1.624
  0
MTEXT
  5
282
100
AcDbEntity
  8
0
100
AcDbMText
 62
2
  6
CONTINUOUS
  7
STANDARD
 71
2
 72
1
 10
2.3
 20
-0.44325
 30
0.0
 11
1.0
 21
0.0
 31
0.0
 44
0.9
  1
Port
 40
0.145
 41
0.928
  0
MTEXT
  5
283
100
AcDbEntity
  8
0
100
AcDbMText
 62
2
  6
CONTINUOUS
  7
STANDARD
 71
2
 72
1
 10
3.95
 20
-0.44325
 30
0.0
 11
1.0
 21
0.0
 31
0.0
 44
0.9
  1
Size
 40
0.145
 41
0.928
  0
MTEXT
  5
284
100
AcDbEntity
  8
0
100
AcDbMText
 62
2
  6
CONTINUOUS
  7
STANDARD
 71
2
 72
1
 10
0.65
 20
-0.75025
 30
0.0
 11
1.0
 21
0.0
 31
0.0
 44
0.9
  1
EMB
 40
0.125
 41
0.6
  0
MTEXT
  5
285
100
AcDbEntity
  8
0
100
AcDbMText
 62
2
  6
CONTINUOUS
  7
STANDARD
 71
2
 72
1
 10
2.3
 20
-0.75025
 30
0.0
 11
1.0
 21
0.0
 31
0.0
 44
0.9
  1
Ports C1, C2, V1, V2
 40
0.125
 41
4.0
  0
MTEXT
  5
286
100
AcDbEntity
  8
0
100
AcDbMText
 62
2
  6
CONTINUOUS
  7
STANDARD
 71
2
 72
1
 10
3.95
 20
-0.75025
 30
0.0
 11
1.0
 21
0.0
 31
0.0
 44
0.9
  1
3/8" NPTF
 40
0.125
 41
1.8
  0
MTEXT
  5
287
100
AcDbEntity
  8
0
100
AcDbMText
 62
2
  6
CONTINUOUS
  7
STANDARD
 71
2
 72
1
 10
0.65
 20
-1.00025
 30
0.0
 11
1.0
 21
0.0
 31
0.0
 44
0.9
  1
EMB
 40
0.125
 41
0.6
  0
MTEXT
  5
288
100
AcDbEntity
  8
0
100
AcDbMText
 62
2
  6
CONTINUOUS
  7
STANDARD
 71
2
 72
1
 10
2.3
 20
-1.00025
 30
0.0
 11
1.0
 21
0.0
 31
0.0
 44
0.9
  1
Port T
 40
0.125
 41
1.2
  0
MTEXT
  5
289
100
AcDbEntity
  8
0
100
AcDbMText
 62
2
  6
CONTINUOUS
  7
STANDARD
 71
2
 72
1
 10
3.95
 20
-1.00025
 30
0.0
 11
1.0
 21
0.0
 31
0.0
 44
0.9
  1
1/2" NPTF
 40
0.125
 41
1.8
  0
ENDBLK
  5
28A
100
AcDbEntity
  8
0
  6
BYBLOCK
 62
0
100
AcDbBlockEnd
  0
ENDSEC
  0
SECTION
  2
ENTITIES
  0
IMAGE
  5
28B
100
AcDbEntity
  8
0
100
AcDbRasterImage
 62
7
  6
CONTINUOUS
 10
19.2297077316
 20
0.3094318264
 30
0.0
 11
0.0066666667
 21
0.0
 31
0.0
 12
0.0
 22
0.0066666667
 32
0.0
 13
369.0
 23
92.0
340
       3CE
 70
9
280
0
281
50
282
50
283
0
360
       3C8
 71
1
 91
2
 14
-0.5
 24
-0.5
 14
368.5
 24
91.5
  0
INSERT
  5
28C
100
AcDbEntity
  8
0
100
AcDbBlockReference
 62
2
  6
CONTINUOUS
  2
SUN_FIRST_THIRD_ANGLE_BL0
 10
20.4816717061
 20
1.2289683772
  0
ACAD_TABLE
  5
28D
100
AcDbEntity
  8
0
 62
2
  6
CONTINUOUS
100
AcDbBlockReference
  2
*T1
 10
12.42375
 20
0.30125
 30
0.0
100
AcDbTable
342
       3D0
343
20F
 11
1.0
 21
0.0
 31
0.0
 90
6
 91
4
 92
6
 93
20
 94
0
 95
0
 96
0
 70
1
 41
0.0
141
0.525
141
0.1
141
0.525
141
0.1
142
4.1
142
1.1
142
0.7
142
0.5
142
0.4
142
2.475
171
1
172
0
173
0
174
0
175
1
176
1
 91
33
178
0
145
0.0
301
CELL_VALUE
 90
4
  1
T-11A Line mount\PCushion lock
304
ACVALUE_END
170
2
140
0.125
171
1
172
0
173
0
174
0
175
1
176
1
 91
33
178
0
145
0.0
301
CELL_VALUE
 90
4
  1
Sep-06-19
304
ACVALUE_END
170
5
140
0.125
171
1
172
0
173
0
174
0
175
1
176
1
 91
33
178
0
145
0.0
301
CELL_VALUE
 90
4
  1
1.000
304
ACVALUE_END
170
5
140
0.125
171
1
172
0
173
0
174
0
175
1
176
1
 91
33
178
0
145
0.0
301
CELL_VALUE
 90
4
  1
C
304
ACVALUE_END
170
5
140
0.125
171
1
172
0
173
0
174
0
175
1
176
1
 91
33
178
0
145
0.0
301
CELL_VALUE
 90
4
  1
2
304
ACVALUE_END
170
5
140
0.125
171
1
172
0
173
0
174
0
175
1
176
1
 91
33
178
0
145
0.0
301
CELL_VALUE
 90
4
  1
 
304
ACVALUE_END
170
1
140
0.125
171
1
172
0
173
0
174
0
175
1
176
1
 91
33
178
0
145
0.0
301
CELL_VALUE
 90
4
  1
DESCRIPTION
304
ACVALUE_END
170
1
140
0.06
171
1
172
0
173
0
174
0
175
1
176
1
 91
33
178
0
145
0.0
301
CELL_VALUE
 90
4
  1
DATE
304
ACVALUE_END
170
1
140
0.06
171
1
172
0
173
0
174
0
175
1
176
1
 91
33
178
0
145
0.0
301
CELL_VALUE
 90
4
  1
SCALE
304
ACVALUE_END
170
1
140
0.06
171
1
172
0
173
0
174
0
175
1
176
1
 91
33
178
0
145
0.0
301
CELL_VALUE
 90
4
  1
DWG SIZE
304
ACVALUE_END
170
1
140
0.06
171
1
172
0
173
0
174
0
175
1
176
1
 91
33
178
0
145
0.0
301
CELL_VALUE
 90
4
  1
SHEET
304
ACVALUE_END
170
1
140
0.06
171
1
172
0
173
0
174
0
175
1
176
1
 91
33
178
0
145
0.0
301
CELL_VALUE
 90
4
  1
 
304
ACVALUE_END
170
1
140
0.125
171
1
172
0
173
0
174
0
175
1
176
1
 91
33
178
0
145
0.0
301
CELL_VALUE
 90
4
  1
EMB
304
ACVALUE_END
170
5
140
0.125
171
1
172
0
173
0
174
0
175
4
176
1
 91
33
178
0
145
0.0
301
CELL_VALUE
 90
4
  1
ALL DIMENSIONS IN INCH\PVIEWS ARE THIRD ANGLE
304
ACVALUE_END
170
5
140
0.12
171
1
172
0
173
1
174
0
175
1
176
1
 91
1
178
0
145
0.0
170
1
171
1
172
0
173
1
174
0
175
1
176
1
 91
1
178
0
145
0.0
170
1
171
1
172
0
173
1
174
0
175
1
176
1
 91
1
178
0
145
0.0
170
5
171
1
172
0
173
0
174
0
175
1
176
1
 91
33
178
0
145
0.0
301
CELL_VALUE
 90
4
  1
 
304
ACVALUE_END
170
1
140
0.125
171
1
172
0
173
0
174
0
175
1
176
1
 91
33
178
0
145
0.0
301
CELL_VALUE
 90
4
  1
MODEL
304
ACVALUE_END
170
1
140
0.06
171
1
172
0
173
0
174
0
175
1
176
1
 91
33
178
0
145
0.0
301
CELL_VALUE
 90
4
  1
 
304
ACVALUE_END
170
1
140
0.125
171
1
172
0
173
0
174
0
175
1
176
1
 91
33
178
0
145
0.0
301
CELL_VALUE
 90
4
  1
 
304
ACVALUE_END
170
1
140
0.125
171
1
172
0
173
0
174
0
175
1
176
1
 91
33
178
0
145
0.0
301
CELL_VALUE
 90
4
  1
 
304
ACVALUE_END
170
1
140
0.125
171
1
172
0
173
0
174
0
175
1
176
1
 91
33
178
0
145
0.0
301
CELL_VALUE
 90
4
  1
 
304
ACVALUE_END
170
1
140
0.125
171
1
172
0
173
0
174
0
175
1
176
1
 91
33
178
0
145
0.0
301
CELL_VALUE
 90
4
  1
 
304
ACVALUE_END
170
1
140
0.125
  0
ACAD_TABLE
  5
28E
100
AcDbEntity
  8
0
 62
2
  6
CONTINUOUS
100
AcDbBlockReference
  2
*T2
 10
12.4237499994
 20
16.47875
 30
0.0
100
AcDbTable
342
       3CF
343
210
 11
1.0
 21
0.0
 31
0.0
 90
22
 91
10
 92
3
 93
16
 94
0
 95
0
 96
0
 41
0.028
141
0.344
141
0.25
141
0.25
141
0.25
141
0.25
141
0.25
141
0.25
141
0.25
141
0.25
141
0.25
142
3.055
142
3.0
142
3.0
171
1
172
0
173
0
174
0
175
1
176
1
 91
33
178
0
145
0.0
301
CELL_VALUE
 90
4
  1
Technical Data
304
ACVALUE_END
170
5
140
0.145
171
1
172
0
173
0
174
0
175
1
176
1
 91
33
178
0
145
0.0
301
CELL_VALUE
 90
4
  1
U.S. Units
304
ACVALUE_END
170
5
140
0.145
171
1
172
0
173
0
174
0
175
1
176
1
 91
33
178
0
145
0.0
301
CELL_VALUE
 90
4
  1
Metric Units
304
ACVALUE_END
170
5
140
0.145
171
1
172
0
173
0
174
0
175
1
176
1
 91
33
178
0
145
0.0
301
CELL_VALUE
 90
4
  1
Cavity
304
ACVALUE_END
170
5
140
0.125
171
1
172
0
173
0
174
0
175
2
176
1
 91
33
178
0
145
0.0
301
CELL_VALUE
 90
4
  1
T-11A
304
ACVALUE_END
170
5
140
0.125
171
1
172
0
173
1
174
0
175
1
176
1
 91
1
178
0
145
0.0
170
1
171
1
172
0
173
0
174
0
175
1
176
1
 91
33
178
0
145
0.0
301
CELL_VALUE
 90
4
  1
Body Features
304
ACVALUE_END
170
5
140
0.125
171
1
172
0
173
0
174
0
175
2
176
1
 91
33
178
0
145
0.0
301
CELL_VALUE
 90
4
  1
Cushion lock
304
ACVALUE_END
170
5
140
0.125
171
1
172
0
173
1
174
0
175
1
176
1
 91
1
178
0
145
0.0
170
1
171
1
172
0
173
0
174
0
175
1
176
1
 91
33
178
0
145
0.0
301
CELL_VALUE
 90
4
  1
Body Type
304
ACVALUE_END
170
5
140
0.125
171
1
172
0
173
0
174
0
175
2
176
1
 91
33
178
0
145
0.0
301
CELL_VALUE
 90
4
  1
Line mount
304
ACVALUE_END
170
5
140
0.125
171
1
172
0
173
1
174
0
175
1
176
1
 91
1
178
0
145
0.0
170
1
171
1
172
0
173
0
174
0
175
1
176
1
 91
33
178
0
145
0.0
301
CELL_VALUE
 90
4
  1
Interface
304
ACVALUE_END
170
5
140
0.125
171
1
172
0
173
0
174
0
175
2
176
1
 91
33
178
0
145
0.0
301
CELL_VALUE
 90
4
  1
None
304
ACVALUE_END
170
5
140
0.125
171
1
172
0
173
1
174
0
175
1
176
1
 91
1
178
0
145
0.0
170
1
171
1
172
0
173
0
174
0
175
1
176
1
 91
33
178
0
145
0.0
301
CELL_VALUE
 90
4
  1
Open Cavity Quantity
304
ACVALUE_END
170
5
140
0.125
171
1
172
0
173
0
174
0
175
2
176
1
 91
33
178
0
145
0.0
301
CELL_VALUE
 90
4
  1
2
304
ACVALUE_END
170
5
140
0.125
171
1
172
0
173
1
174
0
175
1
176
1
 91
1
178
0
145
0.0
170
1
171
1
172
0
173
0
174
0
175
1
176
1
 91
33
178
0
145
0.0
301
CELL_VALUE
 90
4
  1
Weight
304
ACVALUE_END
170
5
140
0.125
171
1
172
0
173
0
174
0
175
1
176
1
 91
33
178
0
145
0.0
301
CELL_VALUE
 90
4
  1
2.886 lb.
304
ACVALUE_END
170
5
140
0.125
171
1
172
0
173
0
174
0
175
1
176
1
 91
33
178
0
145
0.0
301
CELL_VALUE
 90
4
  1
1,309 kg.
304
ACVALUE_END
170
5
140
0.125
171
1
172
0
173
0
174
0
175
1
176
1
 91
33
178
0
145
0.0
301
CELL_VALUE
 90
4
  1
Mounting Hole Diameter
304
ACVALUE_END
170
5
140
0.125
171
1
172
0
173
0
174
0
175
1
176
1
 91
33
178
0
145
0.0
301
CELL_VALUE
 90
4
  1
.34 in.
304
ACVALUE_END
170
5
140
0.125
171
1
172
0
173
0
174
0
175
1
176
1
 91
33
178
0
145
0.0
301
CELL_VALUE
 90
4
  1
8.6 mm
304
ACVALUE_END
170
5
140
0.125
171
1
172
0
173
0
174
0
175
1
176
1
 91
33
178
0
145
0.0
301
CELL_VALUE
 90
4
  1
Mounting Hole Depth
304
ACVALUE_END
170
5
140
0.125
171
1
172
0
173
0
174
0
175
2
176
1
 91
33
178
0
145
0.0
301
CELL_VALUE
 90
4
  1
Through
304
ACVALUE_END
170
5
140
0.125
171
1
172
0
173
1
174
0
175
1
176
1
 91
1
178
0
145
0.0
170
1
171
1
172
0
173
0
174
0
175
1
176
1
 91
33
178
0
145
0.0
301
CELL_VALUE
 90
4
  1
Mounting Hole Quantity
304
ACVALUE_END
170
5
140
0.125
171
1
172
0
173
0
174
0
175
2
176
1
 91
33
178
0
145
0.0
301
CELL_VALUE
 90
4
  1
2
304
ACVALUE_END
170
5
140
0.125
171
1
172
0
173
1
174
0
175
1
176
1
 91
1
178
0
145
0.0
170
1
  0
ACAD_TABLE
  5
28F
100
AcDbEntity
  8
0
 62
2
  6
CONTINUOUS
100
AcDbBlockReference
  2
*T3
 10
0.52125
 20
1.709
 30
0.0
100
AcDbTable
342
       3CF
343
211
 11
1.0
 21
0.0
 31
0.0
 90
22
 91
4
 92
3
 93
16
 94
0
 95
0
 96
0
 41
0.05
141
0.34375
141
0.344
141
0.25
141
0.25
142
1.3
142
2.0
142
1.3
171
1
172
0
173
0
174
0
175
3
176
1
 91
33
178
0
145
0.0
301
CELL_VALUE
 90
4
  1
Port Headings
304
ACVALUE_END
170
5
140
0.145
171
1
172
0
173
1
174
0
175
1
176
1
 91
1
178
0
145
0.0
170
1
171
1
172
0
173
1
174
0
175
1
176
1
 91
1
178
0
145
0.0
170
1
171
1
172
0
173
0
174
0
175
1
176
1
 91
33
178
0
145
0.0
301
CELL_VALUE
 90
4
  1
Product
304
ACVALUE_END
170
5
140
0.145
171
1
172
0
173
0
174
0
175
1
176
1
 91
33
178
0
145
0.0
301
CELL_VALUE
 90
4
  1
Port
304
ACVALUE_END
170
5
140
0.145
171
1
172
0
173
0
174
0
175
1
176
1
 91
33
178
0
145
0.0
301
CELL_VALUE
 90
4
  1
Size
304
ACVALUE_END
170
5
140
0.145
171
1
172
0
173
0
174
0
175
1
176
1
 91
33
178
0
145
0.0
301
CELL_VALUE
 90
4
  1
EMB
304
ACVALUE_END
170
5
140
0.125
171
1
172
0
173
0
174
0
175
1
176
1
 91
33
178
0
145
0.0
301
CELL_VALUE
 90
4
  1
Ports C1, C2, V1, V2
304
ACVALUE_END
170
5
140
0.125
171
1
172
0
173
0
174
0
175
1
176
1
 91
33
178
0
145
0.0
301
CELL_VALUE
 90
4
  1
3/8" NPTF
304
ACVALUE_END
170
5
140
0.125
171
1
172
0
173
0
174
0
175
1
176
1
 91
33
178
0
145
0.0
301
CELL_VALUE
 90
4
  1
EMB
304
ACVALUE_END
170
5
140
0.125
171
1
172
0
173
0
174
0
175
1
176
1
 91
33
178
0
145
0.0
301
CELL_VALUE
 90
4
  1
Port T
304
ACVALUE_END
170
5
140
0.125
171
1
172
0
173
0
174
0
175
1
176
1
 91
33
178
0
145
0.0
301
CELL_VALUE
 90
4
  1
1/2" NPTF
304
ACVALUE_END
170
5
140
0.125
  0
MTEXT
  5
290
100
AcDbEntity
  8
0
100
AcDbMText
 62
2
  6
CONTINUOUS
  7
STANDARD
 71
1
 72
1
 10
0.52125
 20
5.75995
 30
0.0
 11
1.0
 21
0.0
 31
0.0
 44
0.6
  3
Notes\P \P1. Important: Carefully consider\P   the maximum system pressure. The\P   pressure rating of the manifold is\P   dependent on the manifold material,\P   with the port type/size a secondary\P   consideration. Manifolds\P   constructed of alu
  1
minum are not\P   rated for pressures higher than\P   3000 psi (210 bar), regardless of\P   the port type/size specified.
 40
0.1
 41
3.04
  0
LINE
  5
291
100
AcDbEntity
  8
0
100
AcDbLine
 62
7
  6
CONTINUOUS
 10
0.30125
 20
0.30125
 11
0.30125
 21
16.69875
  0
LINE
  5
292
100
AcDbEntity
  8
0
100
AcDbLine
 62
7
  6
CONTINUOUS
 10
0.30125
 20
0.30125
 11
21.69875
 21
0.30125
  0
LINE
  5
293
100
AcDbEntity
  8
0
100
AcDbLine
 62
7
  6
CONTINUOUS
 10
0.30125
 20
16.69875
 11
21.69875
 21
16.69875
  0
LINE
  5
294
100
AcDbEntity
  8
0
100
AcDbLine
 62
7
  6
CONTINUOUS
 10
21.69875
 20
0.30125
 11
21.69875
 21
16.69875
  0
LINE
  5
295
100
AcDbEntity
  8
0
100
AcDbLine
 62
7
  6
CONTINUOUS
 10
10.0959701147
 20
10.6831999226
 11
10.1211357272
 21
10.6956312533
  0
LINE
  5
296
100
AcDbEntity
  8
0
100
AcDbLine
 62
7
  6
CONTINUOUS
 10
9.0981782196
 20
6.4456929893
 11
11.9959558701
 21
6.2447314267
  0
LINE
  5
297
100
AcDbEntity
  8
0
100
AcDbLine
 62
7
  6
CONTINUOUS
 10
9.0981782196
 20
6.4456929893
 11
9.0981782196
 21
9.3434706399
  0
LINE
  5
298
100
AcDbEntity
  8
0
100
AcDbLine
 62
7
  6
CONTINUOUS
 10
10.0040441299
 20
10.2184699696
 11
9.0981782196
 21
9.3434706399
  0
LINE
  5
299
100
AcDbEntity
  8
0
100
AcDbLine
 62
4
  6
CONTINUOUS
 10
9.2068447981
 20
8.089890227
 11
9.2430670179
 21
7.9714671041
  0
LINE
  5
29A
100
AcDbEntity
  8
0
100
AcDbLine
 62
4
  6
CONTINUOUS
 10
9.3879558972
 20
8.0580116101
 11
9.3879558972
 21
8.0386930974
  0
LINE
  5
29B
100
AcDbEntity
  8
0
100
AcDbLine
 62
7
  6
CONTINUOUS
 10
11.54485894
 20
10.5827191413
 11
11.5700245525
 21
10.595150472
  0
LINE
  5
29C
100
AcDbEntity
  8
0
100
AcDbLine
 62
4
  6
CONTINUOUS
 10
9.3807114532
 20
8.0681732772
 11
9.3879558972
 21
8.0580116101
  0
LINE
  5
29D
100
AcDbEntity
  8
0
100
AcDbLine
 62
4
  6
CONTINUOUS
 10
9.3372447894
 20
7.9939136293
 11
9.3300003455
 21
7.9654382573
  0
LINE
  5
29E
100
AcDbEntity
  8
0
100
AcDbLine
 62
4
  6
CONTINUOUS
 10
9.2430670179
 20
7.9714671041
 11
9.2792892377
 21
8.084866188
  0
LINE
  5
29F
100
AcDbEntity
  8
0
100
AcDbLine
 62
7
  6
CONTINUOUS
 10
10.974359822
 20
10.1577215198
 11
10.9731408515
 21
10.1565659854
  0
LINE
  5
2A0
100
AcDbEntity
  8
0
100
AcDbLine
 62
7
  6
CONTINUOUS
 10
10.9138897194
 20
10.1014265869
 11
10.9731408557
 21
10.1565659893
  0
LINE
  5
2A1
100
AcDbEntity
  8
0
100
AcDbLine
 62
4
  6
CONTINUOUS
 10
9.3662225653
 20
8.0788373413
 11
9.3807114532
 21
8.0681732772
  0
LINE
  5
2A2
100
AcDbEntity
  8
0
100
AcDbLine
 62
7
  6
CONTINUOUS
 10
10.0228866474
 20
10.2157714254
 11
10.0228866474
 21
10.6363706512
  0
LINE
  5
2A3
100
AcDbEntity
  8
0
100
AcDbLine
 62
4
  6
CONTINUOUS
 10
9.3300003455
 20
8.0620308412
 11
9.3372447894
 21
8.0711877006
  0
LINE
  5
2A4
100
AcDbEntity
  8
0
100
AcDbLine
 62
4
  6
CONTINUOUS
 10
9.3517336774
 20
8.0122273376
 11
9.3372447894
 21
7.9939136293
  0
LINE
  5
2A5
100
AcDbEntity
  8
0
100
AcDbLine
 62
4
  6
CONTINUOUS
 10
9.3879558972
 20
8.0386930974
 11
9.3807114532
 21
8.0295362381
  0
LINE
  5
2A6
100
AcDbEntity
  8
0
100
AcDbLine
 62
7
  6
CONTINUOUS
 10
10.0745220649
 20
9.9365183246
 11
10.0745220649
 21
10.1166497586
  0
LINE
  5
2A7
100
AcDbEntity
  8
0
100
AcDbLine
 62
7
  6
CONTINUOUS
 10
10.1359414593
 20
10.1065690495
 11
10.1359414593
 21
10.5271682753
  0
LINE
  5
2A8
100
AcDbEntity
  8
0
100
AcDbLine
 62
7
  6
CONTINUOUS
 10
10.1778216868
 20
10.0957296628
 11
10.1778216868
 21
10.5163288885
  0
LINE
  5
2A9
100
AcDbEntity
  8
0
100
AcDbLine
 62
4
  6
CONTINUOUS
 10
9.3300003455
 20
7.9654382573
 11
9.3879558972
 21
7.9614190262
  0
LINE
  5
2AA
100
AcDbEntity
  8
0
100
AcDbLine
 62
7
  6
CONTINUOUS
 10
10.5997476657
 20
10.0664689968
 11
10.5997476657
 21
10.4870682225
  0
LINE
  5
2AB
100
AcDbEntity
  8
0
100
AcDbLine
 62
4
  6
CONTINUOUS
 10
9.3372447894
 20
8.0711877006
 11
9.3517336774
 21
8.0798421491
  0
LINE
  5
2AC
100
AcDbEntity
  8
0
100
AcDbLine
 62
4
  6
CONTINUOUS
 10
9.3807114532
 20
8.0295362381
 11
9.3517336774
 21
8.0122273376
  0
LINE
  5
2AD
100
AcDbEntity
  8
0
100
AcDbLine
 62
4
  6
CONTINUOUS
 10
9.3517336774
 20
8.0798421491
 11
9.3662225653
 21
8.0788373413
  0
LINE
  5
2AE
100
AcDbEntity
  8
0
100
AcDbLine
 62
7
  6
CONTINUOUS
 10
10.6569571043
 20
10.0704364918
 11
10.6569571043
 21
10.4910357176
  0
LINE
  5
2AF
100
AcDbEntity
  8
0
100
AcDbLine
 62
7
  6
CONTINUOUS
 10
12.3627785447
 20
10.0009458056
 11
12.422029681
 21
10.056085208
  0
LINE
  5
2B0
100
AcDbEntity
  8
0
100
AcDbLine
 62
7
  6
CONTINUOUS
 10
10.9295220649
 20
9.9363790143
 11
10.9295220649
 21
10.1159741255
  0
LINE
  5
2B1
100
AcDbEntity
  8
0
100
AcDbLine
 62
7
  6
CONTINUOUS
 10
10.9658282714
 20
10.1503782017
 11
10.9658282714
 21
10.5709774275
  0
LINE
  5
2B2
100
AcDbEntity
  8
0
100
AcDbLine
 62
7
  6
CONTINUOUS
 10
10.9811574825
 20
10.1651850835
 11
10.9811574825
 21
10.5857843093
  0
LINE
  5
2B3
100
AcDbEntity
  8
0
100
AcDbLine
 62
7
  6
CONTINUOUS
 10
12.4232486473
 20
10.0572407385
 11
12.4220296768
 21
10.0560852041
  0
LINE
  5
2B4
100
AcDbEntity
  8
0
100
AcDbLine
 62
4
  6
CONTINUOUS
 10
12.4721825226
 20
7.9961739892
 11
12.4744009686
 21
7.9955570522
  0
LINE
  5
2B5
100
AcDbEntity
  8
0
100
AcDbLine
 62
4
  6
CONTINUOUS
 10
12.3198491515
 20
7.5277918998
 11
12.3316808694
 21
7.5171421566
  0
LINE
  5
2B6
100
AcDbEntity
  8
0
100
AcDbLine
 62
7
  6
CONTINUOUS
 10
11.9959558701
 20
9.1425090773
 11
12.9018217804
 21
10.017508407
  0
LINE
  5
2B7
100
AcDbEntity
  8
0
100
AcDbLine
 62
7
  6
CONTINUOUS
 10
11.4717754726
 20
10.1152906441
 11
11.4717754726
 21
10.5358898699
  0
LINE
  5
2B8
100
AcDbEntity
  8
0
100
AcDbLine
 62
7
  6
CONTINUOUS
 10
11.5234108902
 20
9.8360375433
 11
11.5234108902
 21
10.0161689773
  0
LINE
  5
2B9
100
AcDbEntity
  8
0
100
AcDbLine
 62
7
  6
CONTINUOUS
 10
11.5848302846
 20
10.0060882682
 11
11.5848302846
 21
10.426687494
  0
LINE
  5
2BA
100
AcDbEntity
  8
0
100
AcDbLine
 62
4
  6
CONTINUOUS
 10
12.5660967707
 20
7.7877271566
 11
12.5779284878
 21
7.7770774108
  0
LINE
  5
2BB
100
AcDbEntity
  8
0
100
AcDbLine
 62
7
  6
CONTINUOUS
 10
10.0901544104
 20
10.1014265869
 11
10.0802180696
 21
10.1106733951
  0
LINE
  5
2BC
100
AcDbEntity
  8
0
100
AcDbLine
 62
4
  6
CONTINUOUS
 10
11.7472299535
 20
7.9137139181
 11
11.7834521733
 21
7.7952907952
  0
LINE
  5
2BD
100
AcDbEntity
  8
0
100
AcDbLine
 62
7
  6
CONTINUOUS
 10
11.6267105121
 20
9.9952488815
 11
11.6267105121
 21
10.4158481072
  0
LINE
  5
2BE
100
AcDbEntity
  8
0
100
AcDbLine
 62
4
  6
CONTINUOUS
 10
12.5919786607
 20
8.3707563119
 11
12.5831048766
 21
8.3677044702
  0
LINE
  5
2BF
100
AcDbEntity
  8
0
100
AcDbLine
 62
7
  6
CONTINUOUS
 10
9.0981782196
 20
9.3434706399
 11
11.9959558701
 21
9.1425090773
  0
LINE
  5
2C0
100
AcDbEntity
  8
0
100
AcDbLine
 62
4
  6
CONTINUOUS
 10
12.4470401232
 20
8.1921193914
 11
12.4426032312
 21
8.1961130474
  0
LINE
  5
2C1
100
AcDbEntity
  8
0
100
AcDbLine
 62
4
  6
CONTINUOUS
 10
12.4891906198
 20
8.232833647
 11
12.4847537277
 21
8.2368273031
  0
LINE
  5
2C2
100
AcDbEntity
  8
0
100
AcDbLine
 62
4
  6
CONTINUOUS
 10
11.8993632768
 20
7.9031634363
 11
11.8993632768
 21
7.7872523328
  0
LINE
  5
2C3
100
AcDbEntity
  8
0
100
AcDbLine
 62
7
  6
CONTINUOUS
 10
11.9959558701
 20
6.2447314267
 11
11.9959558701
 21
9.1425090773
  0
LINE
  5
2C4
100
AcDbEntity
  8
0
100
AcDbLine
 62
4
  6
CONTINUOUS
 10
11.7834521733
 20
7.7952907952
 11
11.8196743932
 21
7.9086898791
  0
LINE
  5
2C5
100
AcDbEntity
  8
0
100
AcDbLine
 62
4
  6
CONTINUOUS
 10
12.3486889627
 20
7.6218839357
 11
12.3531258566
 21
7.6096109183
  0
LINE
  5
2C6
100
AcDbEntity
  8
0
100
AcDbLine
 62
7
  6
CONTINUOUS
 10
12.048636491
 20
9.9659882154
 11
12.048636491
 21
10.3865874412
  0
LINE
  5
2C7
100
AcDbEntity
  8
0
100
AcDbLine
 62
7
  6
CONTINUOUS
 10
12.1058459296
 20
9.9699557105
 11
12.1058459296
 21
10.3905549363
  0
LINE
  5
2C8
100
AcDbEntity
  8
0
100
AcDbLine
 62
4
  6
CONTINUOUS
 10
12.3080174392
 20
8.1737448859
 11
12.3168912274
 21
8.1823163076
  0
LINE
  5
2C9
100
AcDbEntity
  8
0
100
AcDbLine
 62
4
  6
CONTINUOUS
 10
12.5490886845
 20
8.4066018416
 11
12.5498281641
 21
8.407316124
  0
LINE
  5
2CA
100
AcDbEntity
  8
0
100
AcDbLine
 62
4
  6
CONTINUOUS
 10
12.4958459652
 20
8.3220558648
 11
12.4847537277
 21
8.3113415855
  0
LINE
  5
2CB
100
AcDbEntity
  8
0
100
AcDbLine
 62
4
  6
CONTINUOUS
 10
12.4011922141
 20
8.2306273566
 11
12.4122844516
 21
8.2413416359
  0
LINE
  5
2CC
100
AcDbEntity
  8
0
100
AcDbLine
 62
4
  6
CONTINUOUS
 10
12.4470401232
 20
8.2749130387
 11
12.4559139073
 21
8.2834844564
  0
LINE
  5
2CD
100
AcDbEntity
  8
0
100
AcDbLine
 62
4
  6
CONTINUOUS
 10
12.4647877062
 20
8.2920558884
 11
12.4736614902
 21
8.3006273061
  0
LINE
  5
2CE
100
AcDbEntity
  8
0
100
AcDbLine
 62
4
  6
CONTINUOUS
 10
12.5631388402
 20
8.3870557944
 11
12.5720126539
 21
8.3956272408
  0
LINE
  5
2CF
100
AcDbEntity
  8
0
100
AcDbLine
 62
4
  6
CONTINUOUS
 10
12.5831048766
 20
8.4063415058
 11
12.5919786607
 21
8.4149129235
  0
LINE
  5
2D0
100
AcDbEntity
  8
0
100
AcDbLine
 62
4
  6
CONTINUOUS
 10
12.4891906198
 20
8.2742304707
 11
12.4980644039
 21
8.2828018884
  0
LINE
  5
2D1
100
AcDbEntity
  8
0
100
AcDbLine
 62
4
  6
CONTINUOUS
 10
12.4744009686
 20
7.9955570522
 11
12.4788378643
 21
7.986043828
  0
LINE
  5
2D2
100
AcDbEntity
  8
0
100
AcDbLine
 62
4
  6
CONTINUOUS
 10
12.3191096743
 20
8.1016655191
 11
12.3035805448
 21
8.1363417186
  0
LINE
  5
2D3
100
AcDbEntity
  8
0
100
AcDbLine
 62
4
  6
CONTINUOUS
 10
12.3035805448
 20
8.0618274363
 11
12.305798992
 21
8.0556909269
  0
LINE
  5
2D4
100
AcDbEntity
  8
0
100
AcDbLine
 62
4
  6
CONTINUOUS
 10
12.4699640753
 20
7.6231156026
 11
12.4655271833
 21
7.6353886235
  0
LINE
  5
2D5
100
AcDbEntity
  8
0
100
AcDbLine
 62
4
  6
CONTINUOUS
 10
12.3279834621
 20
8.0936782106
 11
12.332420356
 21
8.0814051915
  0
LINE
  5
2D6
100
AcDbEntity
  8
0
100
AcDbLine
 62
4
  6
CONTINUOUS
 10
12.495845948
 20
7.6481155733
 11
12.491409056
 21
7.6603885943
  0
LINE
  5
2D7
100
AcDbEntity
  8
0
100
AcDbLine
 62
4
  6
CONTINUOUS
 10
12.3168912274
 20
8.1823163076
 11
12.3191096743
 21
8.1761797955
  0
LINE
  5
2D8
100
AcDbEntity
  8
0
100
AcDbLine
 62
4
  6
CONTINUOUS
 10
12.5025012935
 20
7.7704552472
 11
12.5069381855
 21
7.758182228
  0
LINE
  5
2D9
100
AcDbEntity
  8
0
100
AcDbLine
 62
4
  6
CONTINUOUS
 10
12.5269042071
 20
7.7940266531
 11
12.5313410991
 21
7.7817536339
  0
LINE
  5
2DA
100
AcDbEntity
  8
0
100
AcDbLine
 62
4
  6
CONTINUOUS
 10
12.4766194183
 20
7.9425041499
 11
12.4810563104
 21
7.9302311307
  0
LINE
  5
2DB
100
AcDbEntity
  8
0
100
AcDbLine
 62
4
  6
CONTINUOUS
 10
12.4233766891
 20
8.2520559152
 11
12.4300320346
 21
8.1756908383
  0
LINE
  5
2DC
100
AcDbEntity
  8
0
100
AcDbLine
 62
4
  6
CONTINUOUS
 10
12.3745708446
 20
7.6468839154
 11
12.3834446361
 21
7.5395442368
  0
LINE
  5
2DD
100
AcDbEntity
  8
0
100
AcDbLine
 62
4
  6
CONTINUOUS
 10
12.3035805448
 20
8.1363417186
 11
12.3035805448
 21
8.1529004467
  0
LINE
  5
2DE
100
AcDbEntity
  8
0
100
AcDbLine
 62
4
  6
CONTINUOUS
 10
12.3191096743
 20
8.0851067893
 11
12.3191096743
 21
8.1016655191
  0
LINE
  5
2DF
100
AcDbEntity
  8
0
100
AcDbLine
 62
4
  6
CONTINUOUS
 10
12.3279834621
 20
8.1930305843
 11
12.3279834621
 21
8.0936782106
  0
LINE
  5
2E0
100
AcDbEntity
  8
0
100
AcDbLine
 62
4
  6
CONTINUOUS
 10
12.3375967289
 20
7.4952585565
 11
12.3375967289
 21
7.61116966
  0
LINE
  5
2E1
100
AcDbEntity
  8
0
100
AcDbLine
 62
4
  6
CONTINUOUS
 10
12.3435125917
 20
8.1086781988
 11
12.3435125917
 21
8.2080305724
  0
LINE
  5
2E2
100
AcDbEntity
  8
0
100
AcDbLine
 62
4
  6
CONTINUOUS
 10
12.3523863794
 20
8.1006908903
 11
12.3523863794
 21
8.2166019938
  0
LINE
  5
2E3
100
AcDbEntity
  8
0
100
AcDbLine
 62
4
  6
CONTINUOUS
 10
12.3531258566
 20
7.6096109183
 11
12.3531258566
 21
7.5268172727
  0
LINE
  5
2E4
100
AcDbEntity
  8
0
100
AcDbLine
 62
4
  6
CONTINUOUS
 10
12.367915509
 20
8.1156908785
 11
12.367915509
 21
8.2316019819
  0
LINE
  5
2E5
100
AcDbEntity
  8
0
100
AcDbLine
 62
7
  6
CONTINUOUS
 10
12.3784108902
 20
9.835898233
 11
12.3784108902
 21
10.0154933442
  0
LINE
  5
2E6
100
AcDbEntity
  8
0
100
AcDbLine
 62
4
  6
CONTINUOUS
 10
12.4011922117
 20
7.5566870794
 11
12.4011922117
 21
7.6725981829
  0
LINE
  5
2E7
100
AcDbEntity
  8
0
100
AcDbLine
 62
4
  6
CONTINUOUS
 10
12.4011922141
 20
8.1478337093
 11
12.4011922141
 21
8.2637448127
  0
LINE
  5
2E8
100
AcDbEntity
  8
0
100
AcDbLine
 62
4
  6
CONTINUOUS
 10
12.3035805448
 20
8.1529004467
 11
12.3080174392
 21
8.1737448859
  0
LINE
  5
2E9
100
AcDbEntity
  8
0
100
AcDbLine
 62
4
  6
CONTINUOUS
 10
12.3146727805
 20
8.0642623489
 11
12.3191096743
 21
8.0851067893
  0
LINE
  5
2EA
100
AcDbEntity
  8
0
100
AcDbLine
 62
4
  6
CONTINUOUS
 10
12.3390756996
 20
8.0878337602
 11
12.3435125917
 21
8.1086781988
  0
LINE
  5
2EB
100
AcDbEntity
  8
0
100
AcDbLine
 62
4
  6
CONTINUOUS
 10
12.5720126539
 20
8.3128335935
 11
12.5631388402
 21
8.3042621472
  0
LINE
  5
2EC
100
AcDbEntity
  8
0
100
AcDbLine
 62
4
  6
CONTINUOUS
 10
12.5357780084
 20
8.2778336116
 11
12.5313411164
 21
8.2735479027
  0
LINE
  5
2ED
100
AcDbEntity
  8
0
100
AcDbLine
 62
4
  6
CONTINUOUS
 10
12.4980644039
 20
8.2414050648
 11
12.4891906198
 21
8.232833647
  0
LINE
  5
2EE
100
AcDbEntity
  8
0
100
AcDbLine
 62
4
  6
CONTINUOUS
 10
12.4559139073
 20
8.2006908091
 11
12.4470401232
 21
8.1921193914
  0
LINE
  5
2EF
100
AcDbEntity
  8
0
100
AcDbLine
 62
4
  6
CONTINUOUS
 10
12.305798992
 20
8.0556909269
 11
12.3146727805
 21
8.0642623489
  0
LINE
  5
2F0
100
AcDbEntity
  8
0
100
AcDbLine
 62
4
  6
CONTINUOUS
 10
12.332420356
 20
8.0814051915
 11
12.3390756996
 21
8.0878337602
  0
LINE
  5
2F1
100
AcDbEntity
  8
0
100
AcDbLine
 62
4
  6
CONTINUOUS
 10
12.5091566414
 20
8.2521193441
 11
12.5202488789
 21
8.2628336234
  0
LINE
  5
2F2
100
AcDbEntity
  8
0
100
AcDbLine
 62
4
  6
CONTINUOUS
 10
12.5831048766
 20
8.3235478585
 11
12.5919786607
 21
8.3321192762
  0
LINE
  5
2F3
100
AcDbEntity
  8
0
100
AcDbLine
 62
4
  6
CONTINUOUS
 10
12.4233766891
 20
8.141664386
 11
12.4278135811
 21
8.1459500949
  0
LINE
  5
2F4
100
AcDbEntity
  8
0
100
AcDbLine
 62
4
  6
CONTINUOUS
 10
12.4167213462
 20
7.9426026034
 11
12.4300320288
 21
7.9554597362
  0
LINE
  5
2F5
100
AcDbEntity
  8
0
100
AcDbLine
 62
4
  6
CONTINUOUS
 10
12.4655271808
 20
7.9897454223
 11
12.4721825226
 21
7.9961739892
  0
LINE
  5
2F6
100
AcDbEntity
  8
0
100
AcDbLine
 62
4
  6
CONTINUOUS
 10
12.5831048766
 20
8.3677044702
 11
12.580886438
 21
8.3710811989
  0
LINE
  5
2F7
100
AcDbEntity
  8
0
100
AcDbLine
 62
4
  6
CONTINUOUS
 10
12.5941970993
 20
8.3673795831
 11
12.5919786607
 21
8.3707563119
  0
LINE
  5
2F8
100
AcDbEntity
  8
0
100
AcDbLine
 62
4
  6
CONTINUOUS
 10
12.4122844516
 20
8.2413416359
 11
12.4145028976
 21
8.2352051228
  0
LINE
  5
2F9
100
AcDbEntity
  8
0
100
AcDbLine
 62
4
  6
CONTINUOUS
 10
12.5069381879
 20
8.2582558474
 11
12.5091566414
 21
8.2521193441
  0
LINE
  5
2FA
100
AcDbEntity
  8
0
100
AcDbLine
 62
4
  6
CONTINUOUS
 10
12.5313411164
 20
8.2735479027
 11
12.5291226629
 21
8.279684406
  0
LINE
  5
2FB
100
AcDbEntity
  8
0
100
AcDbLine
 62
4
  6
CONTINUOUS
 10
12.4736614902
 20
8.3006273061
 11
12.4751404493
 21
8.2937765035
  0
LINE
  5
2FC
100
AcDbEntity
  8
0
100
AcDbLine
 62
4
  6
CONTINUOUS
 10
12.3523863794
 20
8.2166019938
 11
12.367915509
 21
8.1156908785
  0
LINE
  5
2FD
100
AcDbEntity
  8
0
100
AcDbLine
 62
4
  6
CONTINUOUS
 10
12.4389058175
 20
7.9640311584
 11
12.4477796053
 21
7.906367664
  0
LINE
  5
2FE
100
AcDbEntity
  8
0
100
AcDbLine
 62
4
  6
CONTINUOUS
 10
12.4145028976
 20
8.2352051228
 11
12.4145028976
 21
8.160690843
  0
LINE
  5
2FF
100
AcDbEntity
  8
0
100
AcDbLine
 62
7
  6
CONTINUOUS
 10
12.4147170966
 20
10.0498974204
 11
12.4147170966
 21
10.4704966461
  0
LINE
  5
300
100
AcDbEntity
  8
0
100
AcDbLine
 62
4
  6
CONTINUOUS
 10
12.4167213462
 20
7.8266914999
 11
12.4167213462
 21
7.9426026034
  0
LINE
  5
301
100
AcDbEntity
  8
0
100
AcDbLine
 62
4
  6
CONTINUOUS
 10
12.4189397872
 20
7.573829922
 11
12.4189397872
 21
7.6897410255
  0
LINE
  5
302
100
AcDbEntity
  8
0
100
AcDbLine
 62
7
  6
CONTINUOUS
 10
12.4300463078
 20
10.0647043022
 11
12.4300463078
 21
10.485303528
  0
LINE
  5
303
100
AcDbEntity
  8
0
100
AcDbLine
 62
4
  6
CONTINUOUS
 10
12.4389058175
 20
7.848120055
 11
12.4389058175
 21
7.9640311584
  0
LINE
  5
304
100
AcDbEntity
  8
0
100
AcDbLine
 62
4
  6
CONTINUOUS
 10
12.4426032312
 20
8.1961130474
 11
12.4426032312
 21
8.2623479623
  0
LINE
  5
305
100
AcDbEntity
  8
0
100
AcDbLine
 62
4
  6
CONTINUOUS
 10
12.4559139073
 20
8.3166019125
 11
12.4559139073
 21
8.2006908091
  0
LINE
  5
306
100
AcDbEntity
  8
0
100
AcDbLine
 62
4
  6
CONTINUOUS
 10
12.456653393
 20
7.981174001
 11
12.456653393
 21
7.8652628976
  0
LINE
  5
307
100
AcDbEntity
  8
0
100
AcDbLine
 62
4
  6
CONTINUOUS
 10
12.4647877062
 20
8.2092622411
 11
12.4647877062
 21
8.2920558884
  0
LINE
  5
308
100
AcDbEntity
  8
0
100
AcDbLine
 62
4
  6
CONTINUOUS
 10
12.4655271833
 20
7.6353886235
 11
12.4655271833
 21
7.7181822691
  0
LINE
  5
309
100
AcDbEntity
  8
0
100
AcDbLine
 62
4
  6
CONTINUOUS
 10
12.4655271808
 20
7.8738343189
 11
12.4655271808
 21
7.9897454223
  0
LINE
  5
30A
100
AcDbEntity
  8
0
100
AcDbLine
 62
4
  6
CONTINUOUS
 10
12.4751404493
 20
8.2937765035
 11
12.4751404493
 21
8.2772177754
  0
LINE
  5
30B
100
AcDbEntity
  8
0
100
AcDbLine
 62
4
  6
CONTINUOUS
 10
12.4788378643
 20
7.986043828
 11
12.4788378643
 21
7.9612057324
  0
LINE
  5
30C
100
AcDbEntity
  8
0
100
AcDbLine
 62
4
  6
CONTINUOUS
 10
12.4810563104
 20
7.9302311307
 11
12.4810563104
 21
7.9053930369
  0
LINE
  5
30D
100
AcDbEntity
  8
0
100
AcDbLine
 62
4
  6
CONTINUOUS
 10
12.4847537277
 20
8.2368273031
 11
12.4847537277
 21
8.2616653978
  0
LINE
  5
30E
100
AcDbEntity
  8
0
100
AcDbLine
 62
4
  6
CONTINUOUS
 10
12.491409056
 20
7.6603885943
 11
12.491409056
 21
7.7431822398
  0
LINE
  5
30F
100
AcDbEntity
  8
0
100
AcDbLine
 62
4
  6
CONTINUOUS
 10
12.4980644039
 20
8.2414050648
 11
12.4980644039
 21
8.307639984
  0
LINE
  5
310
100
AcDbEntity
  8
0
100
AcDbLine
 62
4
  6
CONTINUOUS
 10
12.5069381879
 20
8.3327701298
 11
12.5069381879
 21
8.2582558474
  0
LINE
  5
311
100
AcDbEntity
  8
0
100
AcDbLine
 62
4
  6
CONTINUOUS
 10
12.5069381855
 20
7.758182228
 11
12.5069381855
 21
7.6753885825
  0
LINE
  5
312
100
AcDbEntity
  8
0
100
AcDbLine
 62
4
  6
CONTINUOUS
 10
12.5158119696
 20
7.6674012704
 11
12.5158119696
 21
7.7833123738
  0
LINE
  5
313
100
AcDbEntity
  8
0
100
AcDbLine
 62
4
  6
CONTINUOUS
 10
12.5202488789
 20
8.2628336234
 11
12.5202488789
 21
8.3456272707
  0
LINE
  5
314
100
AcDbEntity
  8
0
100
AcDbLine
 62
4
  6
CONTINUOUS
 10
12.5291226629
 20
8.279684406
 11
12.5291226629
 21
8.3873161445
  0
LINE
  5
315
100
AcDbEntity
  8
0
100
AcDbLine
 62
4
  6
CONTINUOUS
 10
12.5313410991
 20
7.7817536339
 11
12.5313410991
 21
7.6989599884
  0
LINE
  5
316
100
AcDbEntity
  8
0
100
AcDbLine
 62
4
  6
CONTINUOUS
 10
12.5439123105
 20
7.694544117
 11
12.5439123105
 21
7.8104552205
  0
LINE
  5
317
100
AcDbEntity
  8
0
100
AcDbLine
 62
4
  6
CONTINUOUS
 10
12.5490886845
 20
8.2906907381
 11
12.5490886845
 21
8.3734843854
  0
LINE
  5
318
100
AcDbEntity
  8
0
100
AcDbLine
 62
4
  6
CONTINUOUS
 10
12.5490886845
 20
8.3983224741
 11
12.5490886845
 21
8.4066018416
  0
LINE
  5
319
100
AcDbEntity
  8
0
100
AcDbLine
 62
4
  6
CONTINUOUS
 10
12.5609204016
 20
8.3103986648
 11
12.5609204016
 21
8.3766335797
  0
LINE
  5
31A
100
AcDbEntity
  8
0
100
AcDbLine
 62
4
  6
CONTINUOUS
 10
12.580886438
 20
8.3710811989
 11
12.580886438
 21
8.395919291
  0
LINE
  5
31B
100
AcDbEntity
  8
0
100
AcDbLine
 62
4
  6
CONTINUOUS
 10
12.5941970993
 20
8.3425414884
 11
12.5941970993
 21
8.3673795831
  0
LINE
  5
31C
100
AcDbEntity
  8
0
100
AcDbLine
 62
4
  6
CONTINUOUS
 10
12.3656970569
 20
7.5224013907
 11
12.3745708446
 21
7.6468839154
  0
LINE
  5
31D
100
AcDbEntity
  8
0
100
AcDbLine
 62
4
  6
CONTINUOUS
 10
12.4278135811
 20
8.1459500949
 11
12.4366873652
 21
8.2649130418
  0
LINE
  5
31E
100
AcDbEntity
  8
0
100
AcDbLine
 62
4
  6
CONTINUOUS
 10
12.5498281641
 20
8.407316124
 11
12.5490886845
 21
8.3983224741
  0
LINE
  5
31F
100
AcDbEntity
  8
0
100
AcDbLine
 62
4
  6
CONTINUOUS
 10
12.4477796053
 20
7.906367664
 11
12.456653393
 21
7.981174001
  0
LINE
  5
320
100
AcDbEntity
  8
0
100
AcDbLine
 62
4
  6
CONTINUOUS
 10
12.3531258566
 20
7.5268172727
 11
12.3486889627
 21
7.5059728323
  0
LINE
  5
321
100
AcDbEntity
  8
0
100
AcDbLine
 62
4
  6
CONTINUOUS
 10
12.5609204016
 20
8.3766335797
 11
12.5631388402
 21
8.3870557944
  0
LINE
  5
322
100
AcDbEntity
  8
0
100
AcDbLine
 62
4
  6
CONTINUOUS
 10
12.4788378643
 20
7.9612057324
 11
12.4744009686
 21
7.9403612919
  0
LINE
  5
323
100
AcDbEntity
  8
0
100
AcDbLine
 62
4
  6
CONTINUOUS
 10
12.580886438
 20
8.395919291
 11
12.5831048766
 21
8.4063415058
  0
LINE
  5
324
100
AcDbEntity
  8
0
100
AcDbLine
 62
4
  6
CONTINUOUS
 10
12.4810563104
 20
7.9053930369
 11
12.4766194183
 21
7.8845485982
  0
LINE
  5
325
100
AcDbEntity
  8
0
100
AcDbLine
 62
4
  6
CONTINUOUS
 10
12.5919786607
 20
8.3321192762
 11
12.5941970993
 21
8.3425414884
  0
LINE
  5
326
100
AcDbEntity
  8
0
100
AcDbLine
 62
4
  6
CONTINUOUS
 10
12.4655271833
 20
7.7181822691
 11
12.4699640753
 21
7.739026706
  0
LINE
  5
327
100
AcDbEntity
  8
0
100
AcDbLine
 62
4
  6
CONTINUOUS
 10
12.4426032312
 20
8.2623479623
 11
12.4470401232
 21
8.2749130387
  0
LINE
  5
328
100
AcDbEntity
  8
0
100
AcDbLine
 62
4
  6
CONTINUOUS
 10
12.4847537277
 20
8.2616653978
 11
12.4891906198
 21
8.2742304707
  0
LINE
  5
329
100
AcDbEntity
  8
0
100
AcDbLine
 62
4
  6
CONTINUOUS
 10
12.3316808694
 20
7.56129877
 11
12.3198491515
 21
7.5277918998
  0
LINE
  5
32A
100
AcDbEntity
  8
0
100
AcDbLine
 62
4
  6
CONTINUOUS
 10
12.4255951349
 20
7.9014978413
 11
12.4167213462
 21
7.8929264191
  0
LINE
  5
32B
100
AcDbEntity
  8
0
100
AcDbLine
 62
4
  6
CONTINUOUS
 10
12.4655271808
 20
7.9317898706
 11
12.4766194183
 21
7.9425041499
  0
LINE
  5
32C
100
AcDbEntity
  8
0
100
AcDbLine
 62
4
  6
CONTINUOUS
 10
12.4766194183
 20
7.8845485982
 11
12.4655271808
 21
7.8738343189
  0
LINE
  5
32D
100
AcDbEntity
  8
0
100
AcDbLine
 62
4
  6
CONTINUOUS
 10
12.4167213462
 20
7.8266914999
 11
12.4300320288
 21
7.8395486328
  0
LINE
  5
32E
100
AcDbEntity
  8
0
100
AcDbLine
 62
4
  6
CONTINUOUS
 10
12.3375967289
 20
7.61116966
 11
12.3486889627
 21
7.6218839357
  0
LINE
  5
32F
100
AcDbEntity
  8
0
100
AcDbLine
 62
4
  6
CONTINUOUS
 10
12.3923184202
 20
7.664026758
 11
12.4100659958
 21
7.6811696006
  0
LINE
  5
330
100
AcDbEntity
  8
0
100
AcDbLine
 62
4
  6
CONTINUOUS
 10
12.4189397872
 20
7.6897410255
 11
12.4322504708
 21
7.7025981592
  0
LINE
  5
331
100
AcDbEntity
  8
0
100
AcDbLine
 62
4
  6
CONTINUOUS
 10
12.4699640753
 20
7.739026706
 11
12.4788378594
 21
7.7475981237
  0
LINE
  5
332
100
AcDbEntity
  8
0
100
AcDbLine
 62
4
  6
CONTINUOUS
 10
12.495845948
 20
7.7640266768
 11
12.5025012935
 21
7.7704552472
  0
LINE
  5
333
100
AcDbEntity
  8
0
100
AcDbLine
 62
4
  6
CONTINUOUS
 10
12.5158119696
 20
7.7833123738
 11
12.5269042071
 21
7.7940266531
  0
LINE
  5
334
100
AcDbEntity
  8
0
100
AcDbLine
 62
4
  6
CONTINUOUS
 10
12.5439123105
 20
7.8104552205
 11
12.5572229867
 21
7.823312347
  0
LINE
  5
335
100
AcDbEntity
  8
0
100
AcDbLine
 62
7
  6
CONTINUOUS
 10
11.5390432357
 20
10.0009458056
 11
11.5291068949
 21
10.0101926138
  0
LINE
  5
336
100
AcDbEntity
  8
0
100
AcDbLine
 62
4
  6
CONTINUOUS
 10
12.5631388402
 20
8.3042621472
 11
12.5609204016
 21
8.3103986648
  0
LINE
  5
337
100
AcDbEntity
  8
0
100
AcDbLine
 62
4
  6
CONTINUOUS
 10
12.580886438
 20
8.3296843761
 11
12.5831048766
 21
8.3235478585
  0
LINE
  5
338
100
AcDbEntity
  8
0
100
AcDbLine
 62
4
  6
CONTINUOUS
 10
12.5919786607
 20
8.4149129235
 11
12.5941970993
 21
8.4087764033
  0
LINE
  5
339
100
AcDbEntity
  8
0
100
AcDbLine
 62
4
  6
CONTINUOUS
 10
12.4980644039
 20
8.307639984
 11
12.4958459652
 21
8.3220558648
  0
LINE
  5
33A
100
AcDbEntity
  8
0
100
AcDbLine
 62
4
  6
CONTINUOUS
 10
12.491409056
 20
7.7431822398
 11
12.495845948
 21
7.7640266768
  0
LINE
  5
33B
100
AcDbEntity
  8
0
100
AcDbLine
 62
4
  6
CONTINUOUS
 10
12.5069381855
 20
7.6753885825
 11
12.5025012935
 21
7.6545441438
  0
LINE
  5
33C
100
AcDbEntity
  8
0
100
AcDbLine
 62
4
  6
CONTINUOUS
 10
12.5313410991
 20
7.6989599884
 11
12.5269042071
 21
7.6781155497
  0
LINE
  5
33D
100
AcDbEntity
  8
0
100
AcDbLine
 62
4
  6
CONTINUOUS
 10
12.5779284878
 20
7.7770774108
 11
12.5660967707
 21
7.7435705432
  0
LINE
  5
33E
100
AcDbEntity
  8
0
100
AcDbLine
 62
4
  6
CONTINUOUS
 10
12.5527860946
 20
7.769350454
 11
12.5439123105
 21
7.7607790362
  0
LINE
  5
33F
100
AcDbEntity
  8
0
100
AcDbLine
 62
4
  6
CONTINUOUS
 10
12.4278135787
 20
7.6486362661
 11
12.4189397872
 21
7.6400648413
  0
LINE
  5
340
100
AcDbEntity
  8
0
100
AcDbLine
 62
4
  6
CONTINUOUS
 10
12.3686549861
 20
7.5583759907
 11
12.3804867032
 21
7.5698045524
  0
LINE
  5
341
100
AcDbEntity
  8
0
100
AcDbLine
 62
4
  6
CONTINUOUS
 10
12.5269042071
 20
7.6781155497
 11
12.5158119696
 21
7.6674012704
  0
LINE
  5
342
100
AcDbEntity
  8
0
100
AcDbLine
 62
4
  6
CONTINUOUS
 10
12.5025012935
 20
7.6545441438
 11
12.495845948
 21
7.6481155733
  0
LINE
  5
343
100
AcDbEntity
  8
0
100
AcDbLine
 62
4
  6
CONTINUOUS
 10
12.4788378594
 20
7.6316870203
 11
12.4699640753
 21
7.6231156026
  0
LINE
  5
344
100
AcDbEntity
  8
0
100
AcDbLine
 62
4
  6
CONTINUOUS
 10
12.3486889627
 20
7.5059728323
 11
12.3375967289
 21
7.4952585565
  0
LINE
  5
345
100
AcDbEntity
  8
0
100
AcDbLine
 62
4
  6
CONTINUOUS
 10
12.4189397872
 20
7.573829922
 11
12.4322504708
 21
7.5866870558
  0
LINE
  5
346
100
AcDbEntity
  8
0
100
AcDbLine
 62
4
  6
CONTINUOUS
 10
12.5439123105
 20
7.694544117
 11
12.5572229867
 21
7.7074012436
  0
LINE
  5
347
100
AcDbEntity
  8
0
100
AcDbLine
 62
7
  6
CONTINUOUS
 10
12.9018217804
 20
10.017508407
 11
12.4167263376
 21
10.0511498902
  0
LINE
  5
348
100
AcDbEntity
  8
0
100
AcDbLine
 62
7
  6
CONTINUOUS
 10
11.4717754726
 20
10.1166824553
 11
10.9678375123
 21
10.1516306715
  0
LINE
  5
349
100
AcDbEntity
  8
0
100
AcDbLine
 62
7
  6
CONTINUOUS
 10
10.0228866474
 20
10.2171632366
 11
10.0040441299
 21
10.2184699696
  0
LINE
  5
34A
100
AcDbEntity
  8
0
100
AcDbLine
 62
7
  6
CONTINUOUS
 10
12.9018217804
 20
7.1197307564
 11
12.9018217804
 21
10.017508407
  0
LINE
  5
34B
100
AcDbEntity
  8
0
100
AcDbLine
 62
7
  6
CONTINUOUS
 10
10.8992112269
 20
10.6875779703
 11
10.8829084027
 21
10.6956312533
  0
LINE
  5
34C
100
AcDbEntity
  8
0
100
AcDbLine
 62
7
  6
CONTINUOUS
 10
11.9959558701
 20
6.2447314267
 11
12.9018217804
 21
7.1197307564
  0
LINE
  5
34D
100
AcDbEntity
  8
0
100
AcDbLine
 62
7
  6
CONTINUOUS
 10
12.3481000522
 20
10.587097189
 11
12.331797228
 21
10.595150472
  0
ARC
  5
34E
100
AcDbEntity
  8
0
100
AcDbCircle
 62
7
  6
CONTINUOUS
 10
10.5098243216
 20
11.777572444
 40
1.7134646816
100
AcDbArc
 50
273.0082884861
 51
274.9259735842
  0
ARC
  5
34F
100
AcDbEntity
  8
0
100
AcDbCircle
 62
7
  6
CONTINUOUS
 10
11.9587131469
 20
11.6770916627
 40
1.7134646816
100
AcDbArc
 50
273.0082884861
 51
274.9259735841
  0
ARC
  5
350
100
AcDbEntity
  8
0
100
AcDbCircle
 62
7
  6
CONTINUOUS
 10
11.9587131469
 20
12.0976908884
 40
1.7134646816
100
AcDbArc
 50
273.0082884861
 51
274.9259735842
  0
ARC
  5
351
100
AcDbEntity
  8
0
100
AcDbCircle
 62
7
  6
CONTINUOUS
 10
10.5098243216
 20
12.1981716697
 40
1.7134646816
100
AcDbArc
 50
273.0082884861
 51
274.9259735842
  0
SPLINE
  5
352
100
AcDbEntity
  8
0
100
AcDbSpline
 62
7
  6
CONTINUOUS
 70
0
 71
3
 72
9
 73
5
 74
0
 42
0.0000001
 43
0.0000001
 44
0.0000000001
 40
0.0
 40
0.0
 40
0.0
 40
0.0
 40
0.496008294
 40
1.0
 40
1.0
 40
1.0
 40
1.0
 10
10.0959973538
 20
10.6832133746
 30
0.0
 10
10.0862012869
 20
10.6783741015
 30
0.0
 10
10.0667046225
 20
10.6680995882
 30
0.0
 10
10.0476892058
 20
10.6569664081
 30
0.0
 10
10.0382158585
 20
10.651177533
 30
0.0
  0
SPLINE
  5
353
100
AcDbEntity
  8
0
100
AcDbSpline
 62
7
  6
CONTINUOUS
 70
0
 71
3
 72
46
 73
42
 74
0
 42
0.0000001
 43
0.0000001
 44
0.0000000001
 40
0.0
 40
0.0
 40
0.0
 40
0.0
 40
0.0099874877
 40
0.0204476974
 40
0.0313773321
 40
0.0427709641
 40
0.0546220461
 40
0.0669229866
 40
0.0928356094
 40
0.1204266613
 40
0.1495981687
 40
0.1802404541
 40
0.2122337752
 40
0.2454491038
 40
0.2797499018
 40
0.3149932014
 40
0.3510301972
 40
0.3877076002
 40
0.4248685405
 40
0.462353288
 40
0.500000408
 40
0.5376475404
 40
0.5751322603
 40
0.612293149
 40
0.6489704979
 40
0.6850073789
 40
0.7202505939
 40
0.7545513209
 40
0.7877664595
 40
0.8197596255
 40
0.8504018125
 40
0.8795730869
 40
0.9071639551
 40
0.9203360434
 40
0.9330775683
 40
0.945378314
 40
0.9572292775
 40
0.9686228886
 40
0.9795523843
 40
0.9900125565
 40
1.0
 40
1.0
 40
1.0
 40
1.0
 10
10.882910278
 20
10.6956302732
 30
0.0
 10
10.8805932859
 20
10.6967748334
 30
0.0
 10
10.8758100788
 20
10.699038703
 30
0.0
 10
10.868370492
 20
10.7022923141
 30
0.0
 10
10.8605078519
 20
10.7054786608
 30
0.0
 10
10.8522313629
 20
10.7085942647
 30
0.0
 10
10.8435504389
 20
10.7116355474
 30
0.0
 10
10.8312350997
 20
10.7156563894
 30
0.0
 10
10.8148924292
 20
10.7204507514
 30
0.0
 10
10.7941654902
 20
10.7257590639
 30
0.0
 10
10.7720908436
 20
10.730693184
 30
0.0
 10
10.7487700936
 20
10.7352300163
 30
0.0
 10
10.7243103542
 20
10.7393481086
 30
0.0
 10
10.6988243331
 20
10.7430283129
 30
0.0
 10
10.6724295356
 20
10.7462534299
 30
0.0
 10
10.6452477146
 20
10.7490082133
 30
0.0
 10
10.6174043428
 20
10.7512799004
 30
0.0
 10
10.5890279981
 20
10.7530579233
 30
0.0
 10
10.5602497281
 20
10.7543338232
 30
0.0
 10
10.5312024624
 20
10.7551017408
 30
0.0
 10
10.5020203904
 20
10.7553581502
 30
0.0
 10
10.4728383254
 20
10.7551017054
 30
0.0
 10
10.4437910797
 20
10.7543336839
 30
0.0
 10
10.4150128464
 20
10.7530577438
 30
0.0
 10
10.3866365601
 20
10.7512796943
 30
0.0
 10
10.3587932626
 20
10.7490079039
 30
0.0
 10
10.3316115163
 20
10.7462530788
 30
0.0
 10
10.3052168119
 20
10.7430279444
 30
0.0
 10
10.2797309085
 20
10.7393476423
 30
0.0
 10
10.2552713115
 20
10.7352295032
 30
0.0
 10
10.2319506256
 20
10.7306926863
 30
0.0
 10
10.2098763576
 20
10.7257584136
 30
0.0
 10
10.1923429931
 20
10.721268254
 30
0.0
 10
10.1790263565
 20
10.717479925
 30
0.0
 10
10.169566979
 20
10.7145980524
 30
0.0
 10
10.1604916646
 20
10.711634819
 30
0.0
 10
10.1518108453
 20
10.7085935533
 30
0.0
 10
10.1435344111
 20
10.7054779938
 30
0.0
 10
10.1356718714
 20
10.7022915363
 30
0.0
 10
10.1282323691
 20
10.699037877
 30
0.0
 10
10.1234491762
 20
10.696774027
 30
0.0
 10
10.1211321973
 20
10.6956294659
 30
0.0
  0
SPLINE
  5
354
100
AcDbEntity
  8
0
100
AcDbSpline
 62
7
  6
CONTINUOUS
 70
0
 71
3
 72
9
 73
5
 74
0
 42
0.0000001
 43
0.0000001
 44
0.0000000001
 40
0.0
 40
0.0
 40
0.0
 40
0.0
 40
0.5135789775
 40
1.0
 40
1.0
 40
1.0
 40
1.0
 10
10.974359822
 20
10.1577215198
 30
0.0
 10
10.9756035662
 20
10.1589228845
 30
0.0
 10
10.9779572853
 20
10.1613339487
 30
0.0
 10
10.9801437755
 20
10.1638987334
 30
0.0
 10
10.9811574825
 20
10.1651850835
 30
0.0
  0
SPLINE
  5
355
100
AcDbEntity
  8
0
100
AcDbSpline
 62
7
  6
CONTINUOUS
 70
0
 71
3
 72
9
 73
5
 74
0
 42
0.0000001
 43
0.0000001
 44
0.0000000001
 40
0.0
 40
0.0
 40
0.0
 40
0.0
 40
0.5134917843
 40
1.0
 40
1.0
 40
1.0
 40
1.0
 10
10.0382158585
 20
10.651177533
 30
0.0
 10
10.0366922252
 20
10.6499970389
 30
0.0
 10
10.0337789192
 20
10.6476273345
 30
0.0
 10
10.0309977779
 20
10.6451029296
 30
0.0
 10
10.0296843079
 20
10.6438342149
 30
0.0
  0
SPLINE
  5
356
100
AcDbEntity
  8
0
100
AcDbSpline
 62
7
  6
CONTINUOUS
 70
0
 71
3
 72
9
 73
5
 74
0
 42
0.0000001
 43
0.0000001
 44
0.0000000001
 40
0.0
 40
0.0
 40
0.0
 40
0.0
 40
0.5135789775
 40
1.0
 40
1.0
 40
1.0
 40
1.0
 10
10.0296843079
 20
10.6438342149
 30
0.0
 10
10.0284405636
 20
10.6426328502
 30
0.0
 10
10.0260868445
 20
10.640221786
 30
0.0
 10
10.0239003544
 20
10.6376570013
 30
0.0
 10
10.0228866474
 20
10.6363706512
 30
0.0
  0
SPLINE
  5
357
100
AcDbEntity
  8
0
100
AcDbSpline
 62
7
  6
CONTINUOUS
 70
0
 71
3
 72
23
 73
19
 74
0
 42
0.0000001
 43
0.0000001
 44
0.0000000001
 40
0.0
 40
0.0
 40
0.0
 40
0.0
 40
0.0809714987
 40
0.1598878899
 40
0.2366108848
 40
0.3110078346
 40
0.3829543555
 40
0.452338501
 40
0.5190632519
 40
0.5830593386
 40
0.6442825111
 40
0.7027298252
 40
0.7584316548
 40
0.8114689998
 40
0.8619596659
 40
0.910071818
 40
0.9560056935
 40
1.0
 40
1.0
 40
1.0
 40
1.0
 10
10.9811574825
 20
10.5857843093
 30
0.0
 10
10.979509417
 20
10.5889622574
 30
0.0
 10
10.9762103485
 20
10.5952144375
 30
0.0
 10
10.9711793208
 20
10.6043866727
 30
0.0
 10
10.9661270686
 20
10.6132139881
 30
0.0
 10
10.9610545322
 20
10.6216724456
 30
0.0
 10
10.9559624651
 20
10.6297381295
 30
0.0
 10
10.9508527354
 20
10.6373881637
 30
0.0
 10
10.9457265711
 20
10.6446003287
 30
0.0
 10
10.9405868977
 20
10.6513550863
 30
0.0
 10
10.9354353332
 20
10.6576345224
 30
0.0
 10
10.9302756649
 20
10.6634251594
 30
0.0
 10
10.9251097741
 20
10.6687157687
 30
0.0
 10
10.919941934
 20
10.673501005
 30
0.0
 10
10.9147742148
 20
10.6777778713
 30
0.0
 10
10.9096108218
 20
10.6815499687
 30
0.0
 10
10.9044543495
 20
10.6848226435
 30
0.0
 10
10.9009542189
 20
10.6867169501
 30
0.0
 10
10.8992103376
 20
10.6875784097
 30
0.0
  0
SPLINE
  5
358
100
AcDbEntity
  8
0
100
AcDbSpline
 62
7
  6
CONTINUOUS
 70
0
 71
3
 72
21
 73
17
 74
0
 42
0.0000001
 43
0.0000001
 44
0.0000000001
 40
0.0
 40
0.0
 40
0.0
 40
0.0
 40
0.1552847778
 40
0.3037675224
 40
0.3751527953
 40
0.4444666907
 40
0.5115812513
 40
0.5763697456
 40
0.6387130726
 40
0.6985013802
 40
0.75563826
 40
0.8100514809
 40
0.8616894053
 40
0.9105385226
 40
0.9566200086
 40
1.0
 40
1.0
 40
1.0
 40
1.0
 10
10.0228866474
 20
10.2157714254
 30
0.0
 10
10.0251091384
 20
10.2099200718
 30
0.0
 10
10.0295697273
 20
10.1985160725
 30
0.0
 10
10.0354220836
 20
10.1845705478
 30
0.0
 10
10.0401792339
 20
10.1739286157
 30
0.0
 10
10.0437275133
 20
10.1663402021
 30
0.0
 10
10.0473021701
 20
10.1590591779
 30
0.0
 10
10.0509022655
 20
10.1521054958
 30
0.0
 10
10.0545264348
 20
10.1454991022
 30
0.0
 10
10.0581725195
 20
10.139259317
 30
0.0
 10
10.0618389508
 20
10.1334051564
 30
0.0
 10
10.0655224128
 20
10.1279536349
 30
0.0
 10
10.0692207905
 20
10.1229208644
 30
0.0
 10
10.0729305173
 20
10.1183199752
 30
0.0
 10
10.0766482238
 20
10.114162106
 30
0.0
 10
10.0792055822
 20
10.1116159064
 30
0.0
 10
10.0804855791
 20
10.1104246586
 30
0.0
  0
SPLINE
  5
359
100
AcDbEntity
  8
0
100
AcDbSpline
 62
7
  6
CONTINUOUS
 70
0
 71
3
 72
28
 73
24
 74
0
 42
0.0000001
 43
0.0000001
 44
0.0000000001
 40
0.0
 40
0.0
 40
0.0
 40
0.0
 40
0.0683417894
 40
0.1318944582
 40
0.1911916903
 40
0.2469424229
 40
0.2737771035
 40
0.300072871
 40
0.3259647135
 40
0.3515944959
 40
0.3771085711
 40
0.4026553861
 40
0.4283829391
 40
0.454436097
 40
0.5080318425
 40
0.5644895246
 40
0.594076777
 40
0.6246829784
 40
0.6892404913
 40
0.7587126008
 40
0.8334899805
 40
0.91385377
 40
1.0
 40
1.0
 40
1.0
 40
1.0
 10
10.9173701948
 20
10.6151759661
 30
0.0
 10
10.91883456
 20
10.6165904344
 30
0.0
 10
10.9215553003
 20
10.6194333606
 30
0.0
 10
10.925093634
 20
10.6239089374
 30
0.0
 10
10.9279249854
 20
10.6284275086
 30
0.0
 10
10.929710115
 20
10.6322740649
 30
0.0
 10
10.9307564983
 20
10.6353468956
 30
0.0
 10
10.931351043
 20
10.6376270269
 30
0.0
 10
10.9317645151
 20
10.639910402
 30
0.0
 10
10.9319967929
 20
10.6421959368
 30
0.0
 10
10.9320477175
 20
10.6444824323
 30
0.0
 10
10.9319172499
 20
10.6467686601
 30
0.0
 10
10.931605312
 20
10.6490535083
 30
0.0
 10
10.9309418074
 20
10.652124559
 30
0.0
 10
10.9296375496
 20
10.6559799179
 30
0.0
 10
10.9277726095
 20
10.6597117597
 30
0.0
 10
10.9259459662
 20
10.6626698824
 30
0.0
 10
10.9238157237
 20
10.6657174027
 30
0.0
 10
10.9206847392
 20
10.6695041468
 30
0.0
 10
10.9162941601
 20
10.6739206815
 30
0.0
 10
10.911212735
 20
10.6782836287
 30
0.0
 10
10.9054492506
 20
10.6825868332
 30
0.0
 10
10.9013034188
 20
10.6853158138
 30
0.0
 10
10.899125274
 20
10.6866729659
 30
0.0
  0
SPLINE
  5
35A
100
AcDbEntity
  8
0
100
AcDbSpline
 62
7
  6
CONTINUOUS
 70
0
 71
3
 72
9
 73
5
 74
0
 42
0.0000001
 43
0.0000001
 44
0.0000000001
 40
0.0
 40
0.0
 40
0.0
 40
0.0
 40
0.4830467495
 40
1.0
 40
1.0
 40
1.0
 40
1.0
 10
10.899125274
 20
10.6866729659
 30
0.0
 10
10.8965929669
 20
10.6882507884
 30
0.0
 10
10.8912552867
 20
10.6913655405
 30
0.0
 10
10.8857731008
 20
10.6942160806
 30
0.0
 10
10.882910278
 20
10.6956302732
 30
0.0
  0
SPLINE
  5
35B
100
AcDbEntity
  8
0
100
AcDbSpline
 62
7
  6
CONTINUOUS
 70
0
 71
3
 72
69
 73
65
 74
0
 42
0.0000001
 43
0.0000001
 44
0.0000000001
 40
0.0
 40
0.0
 40
0.0
 40
0.0
 40
0.0078486444
 40
0.011525491
 40
0.0150505467
 40
0.0216952296
 40
0.024852921
 40
0.0279250607
 40
0.0309333397
 40
0.0339009863
 40
0.0368522248
 40
0.0398117036
 40
0.0428038878
 40
0.0458523906
 40
0.0489793775
 40
0.052205239
 40
0.0590208104
 40
0.0626451385
 40
0.0664292117
 40
0.0745139269
 40
0.08334171
 40
0.0929552291
 40
0.1033806187
 40
0.114631552
 40
0.126711678
 40
0.1396167584
 40
0.1533361209
 40
0.1678536007
 40
0.1831486278
 40
0.1991964446
 40
0.2159691279
 40
0.2334353586
 40
0.2515614594
 40
0.2703108941
 40
0.2896453365
 40
0.3095240288
 40
0.3299048522
 40
0.3719941041
 40
0.4155466199
 40
0.4601767864
 40
0.5054862054
 40
0.5510685731
 40
0.5965143891
 40
0.6414157219
 40
0.6853710257
 40
0.7279898963
 40
0.7486810452
 40
0.7688992635
 40
0.7886011676
 40
0.807744993
 40
0.8262908348
 40
0.8442008993
 40
0.8614395705
 40
0.8779739633
 40
0.8937737718
 40
0.9088121872
 40
0.9230656404
 40
0.9365152112
 40
0.9491461963
 40
0.9609499952
 40
0.9719245224
 40
0.9820776763
 40
0.9914266394
 40
1.0
 40
1.0
 40
1.0
 40
1.0
 10
10.086673935
 20
10.6727849474
 30
0.0
 10
10.0849321332
 20
10.671102496
 30
0.0
 10
10.0824859475
 20
10.6685088306
 30
0.0
 10
10.0796119634
 20
10.6648577709
 30
0.0
 10
10.0771871561
 20
10.6613379364
 30
0.0
 10
10.0752022635
 20
10.6577155432
 30
0.0
 10
10.0737320826
 20
10.6540209677
 30
0.0
 10
10.0729066931
 20
10.6512887656
 30
0.0
 10
10.07234146
 20
10.6485508784
 30
0.0
 10
10.0720368951
 20
10.6458092268
 30
0.0
 10
10.0719933165
 20
10.6430660541
 30
0.0
 10
10.0722108215
 20
10.6403236043
 30
0.0
 10
10.0726893824
 20
10.6375841431
 30
0.0
 10
10.0734282487
 20
10.6348498414
 30
0.0
 10
10.0744263913
 20
10.6321224356
 30
0.0
 10
10.0761322668
 20
10.6284307003
 30
0.0
 10
10.078345137
 20
10.6248214312
 30
0.0
 10
10.0809888969
 20
10.6213162825
 30
0.0
 10
10.0840934488
 20
10.6176775766
 30
0.0
 10
10.0886411498
 20
10.6131773595
 30
0.0
 10
10.0949689515
 20
10.6079721847
 30
0.0
 10
10.1022695424
 20
10.602856885
 30
0.0
 10
10.1105259513
 20
10.5978418633
 30
0.0
 10
10.1197199935
 20
10.5929379614
 30
0.0
 10
10.1298305775
 20
10.58815625
 30
0.0
 10
10.1408343308
 20
10.5835079321
 30
0.0
 10
10.1527054672
 20
10.5790040857
 30
0.0
 10
10.1654159531
 20
10.5746554446
 30
0.0
 10
10.1789356149
 20
10.570472637
 30
0.0
 10
10.1932322091
 20
10.5664656161
 30
0.0
 10
10.2082715691
 20
10.562644314
 30
0.0
 10
10.2240176664
 20
10.5590177541
 30
0.0
 10
10.2404327381
 20
10.5555950173
 30
0.0
 10
10.2574773762
 20
10.5523841034
 30
0.0
 10
10.2751106116
 20
10.5493931417
 30
0.0
 10
10.2932900934
 20
10.5466289983
 30
0.0
 10
10.3184696297
 20
10.5432189281
 30
0.0
 10
10.3509860607
 20
10.5395898547
 30
0.0
 10
10.3910490868
 20
10.5362744515
 30
0.0
 10
10.4321789145
 20
10.5339860549
 30
0.0
 10
10.4739800229
 20
10.5327470686
 30
0.0
 10
10.5160507252
 20
10.5325696851
 30
0.0
 10
10.5579865468
 20
10.5334556462
 30
0.0
 10
10.5993844718
 20
10.5353962258
 30
0.0
 10
10.6398463665
 20
10.5383724569
 30
0.0
 10
10.6727778959
 20
10.5417231678
 30
0.0
 10
10.6983526609
 20
10.5449158411
 30
0.0
 10
10.7168720625
 20
10.5475247895
 30
0.0
 10
10.7348742255
 20
10.5503652622
 30
0.0
 10
10.7523159039
 20
10.5534303966
 30
0.0
 10
10.7691551553
 20
10.5567128086
 30
0.0
 10
10.7853515374
 20
10.5602044247
 30
0.0
 10
10.800866161
 20
10.5638969278
 30
0.0
 10
10.8156618464
 20
10.5677811511
 30
0.0
 10
10.8297031466
 20
10.5718479294
 30
0.0
 10
10.8429565632
 20
10.5760870785
 30
0.0
 10
10.8553904971
 20
10.5804887214
 30
0.0
 10
10.8669755549
 20
10.5850418523
 30
0.0
 10
10.8776842686
 20
10.5897360382
 30
0.0
 10
10.8874918005
 20
10.594559511
 30
0.0
 10
10.896375435
 20
10.5995017097
 30
0.0
 10
10.904315672
 20
10.6045515545
 30
0.0
 10
10.9112930174
 20
10.6096978551
 30
0.0
 10
10.9154675612
 20
10.6133381631
 30
0.0
 10
10.9173701948
 20
10.6151759661
 30
0.0
  0
SPLINE
  5
35C
100
AcDbEntity
  8
0
100
AcDbSpline
 62
7
  6
CONTINUOUS
 70
0
 71
3
 72
9
 73
5
 74
0
 42
0.0000001
 43
0.0000001
 44
0.0000000001
 40
0.0
 40
0.0
 40
0.0
 40
0.0
 40
0.5132482879
 40
1.0
 40
1.0
 40
1.0
 40
1.0
 10
10.1778216868
 20
10.0957296628
 30
0.0
 10
10.1706069055
 20
10.0973833587
 30
0.0
 10
10.1565906611
 20
10.1007872182
 30
0.0
 10
10.1426793594
 20
10.1045998785
 30
0.0
 10
10.1359414593
 20
10.1065690495
 30
0.0
  0
SPLINE
  5
35D
100
AcDbEntity
  8
0
100
AcDbSpline
 62
7
  6
CONTINUOUS
 70
0
 71
3
 72
9
 73
5
 74
0
 42
0.0000001
 43
0.0000001
 44
0.0000000001
 40
0.0
 40
0.0
 40
0.0
 40
0.0
 40
0.5135789775
 40
1.0
 40
1.0
 40
1.0
 40
1.0
 10
10.974359822
 20
10.5783207455
 30
0.0
 10
10.9756035662
 20
10.5795221103
 30
0.0
 10
10.9779572853
 20
10.5819331744
 30
0.0
 10
10.9801437755
 20
10.5844979592
 30
0.0
 10
10.9811574825
 20
10.5857843093
 30
0.0
  0
SPLINE
  5
35E
100
AcDbEntity
  8
0
100
AcDbSpline
 62
7
  6
CONTINUOUS
 70
0
 71
3
 72
9
 73
5
 74
0
 42
0.0000001
 43
0.0000001
 44
0.0000000001
 40
0.0
 40
0.0
 40
0.0
 40
0.0
 40
0.4867517121
 40
1.0
 40
1.0
 40
1.0
 40
1.0
 10
10.1359414593
 20
10.5271682753
 30
0.0
 10
10.1426793594
 20
10.5251991043
 30
0.0
 10
10.1565906611
 20
10.5213864439
 30
0.0
 10
10.1706069055
 20
10.5179825845
 30
0.0
 10
10.1778216868
 20
10.5163288885
 30
0.0
  0
SPLINE
  5
35F
100
AcDbEntity
  8
0
100
AcDbSpline
 62
7
  6
CONTINUOUS
 70
0
 71
3
 72
9
 73
5
 74
0
 42
0.0000001
 43
0.0000001
 44
0.0000000001
 40
0.0
 40
0.0
 40
0.0
 40
0.0
 40
0.5134917843
 40
1.0
 40
1.0
 40
1.0
 40
1.0
 10
10.9658282714
 20
10.5709774275
 30
0.0
 10
10.9673519046
 20
10.5721579215
 30
0.0
 10
10.9702652107
 20
10.5745276259
 30
0.0
 10
10.973046352
 20
10.5770520308
 30
0.0
 10
10.974359822
 20
10.5783207455
 30
0.0
  0
SPLINE
  5
360
100
AcDbEntity
  8
0
100
AcDbSpline
 62
7
  6
CONTINUOUS
 70
0
 71
3
 72
21
 73
17
 74
0
 42
0.0000001
 43
0.0000001
 44
0.0000000001
 40
0.0
 40
0.0
 40
0.0
 40
0.0
 40
0.1230814817
 40
0.1847942657
 40
0.2466337258
 40
0.3086097846
 40
0.3707312098
 40
0.4330051319
 40
0.4954352436
 40
0.5580223626
 40
0.6207641208
 40
0.6836547008
 40
0.7466862848
 40
0.8098488395
 40
0.8731308835
 40
1.0
 40
1.0
 40
1.0
 40
1.0
 10
10.1778216868
 20
10.5163288885
 30
0.0
 10
10.1950743273
 20
10.5195812719
 30
0.0
 10
10.2211054649
 20
10.5238319904
 30
0.0
 10
10.2560420551
 20
10.5279993398
 30
0.0
 10
10.2824087528
 20
10.5303213862
 30
0.0
 10
10.3088958195
 20
10.5317810863
 30
0.0
 10
10.3354798787
 20
10.5323312281
 30
0.0
 10
10.3621317429
 20
10.5319347965
 30
0.0
 10
10.3888182358
 20
10.5305698089
 30
0.0
 10
10.4155040076
 20
10.5282309854
 30
0.0
 10
10.4421537107
 20
10.524928696
 30
0.0
 10
10.4687343749
 20
10.5206896763
 30
0.0
 10
10.4952172182
 20
10.5155550351
 30
0.0
 10
10.5215790956
 20
10.5095752873
 30
0.0
 10
10.55656977
 20
10.5005461676
 30
0.0
 10
10.5825482286
 20
10.4926961463
 30
0.0
 10
10.5997476657
 20
10.4870682225
 30
0.0
  0
SPLINE
  5
361
100
AcDbEntity
  8
0
100
AcDbSpline
 62
7
  6
CONTINUOUS
 70
0
 71
3
 72
28
 73
24
 74
0
 42
0.0000001
 43
0.0000001
 44
0.0000000001
 40
0.0
 40
0.0
 40
0.0
 40
0.0
 40
0.0640274484
 40
0.1279405369
 40
0.1917105404
 40
0.2553123355
 40
0.3187161223
 40
0.3818930725
 40
0.4133919091
 40
0.4448254452
 40
0.4761912782
 40
0.5074882562
 40
0.5387156619
 40
0.5698732312
 40
0.6009621492
 40
0.6319833386
 40
0.6938248821
 40
0.7554274775
 40
0.8168179251
 40
0.8780243018
 40
0.9085700262
 40
0.9390802882
 40
1.0
 40
1.0
 40
1.0
 40
1.0
 10
10.1778216868
 20
10.0957296628
 30
0.0
 10
10.1861225375
 20
10.0914465391
 30
0.0
 10
10.2028535972
 20
10.0831631518
 30
0.0
 10
10.2283727635
 20
10.0717011655
 30
0.0
 10
10.2542965417
 20
10.061346903
 30
0.0
 10
10.2806097169
 20
10.052244847
 30
0.0
 10
10.3072775466
 20
10.0445413726
 30
0.0
 10
10.3297729787
 20
10.0393971407
 30
0.0
 10
10.3478770508
 20
10.0361100853
 30
0.0
 10
10.3614843061
 20
10.0340713587
 30
0.0
 10
10.3751196338
 20
10.0324646815
 30
0.0
 10
10.3887694849
 20
10.0312976045
 30
0.0
 10
10.4024194183
 20
10.0305704547
 30
0.0
 10
10.4160553256
 20
10.0302849223
 30
0.0
 10
10.4296633751
 20
10.0304353958
 30
0.0
 10
10.4477321995
 20
10.0312086714
 30
0.0
 10
10.470191689
 20
10.0332240752
 30
0.0
 10
10.4968726458
 20
10.0372251817
 30
0.0
 10
10.5231990075
 20
10.042675896
 30
0.0
 10
10.54482748
 20
10.0483117209
 30
0.0
 10
10.5619230749
 20
10.053403079
 30
0.0
 10
10.5788635961
 20
10.0588533071
 30
0.0
 10
10.5914324406
 20
10.0633317817
 30
0.0
 10
10.5997476657
 20
10.0664689968
 30
0.0
  0
SPLINE
  5
362
100
AcDbEntity
  8
0
100
AcDbSpline
 62
7
  6
CONTINUOUS
 70
0
 71
3
 72
23
 73
19
 74
0
 42
0.0000001
 43
0.0000001
 44
0.0000000001
 40
0.0
 40
0.0
 40
0.0
 40
0.0
 40
0.0678267902
 40
0.1349724863
 40
0.2013861734
 40
0.2670282176
 40
0.331868046
 40
0.3958905056
 40
0.459098674
 40
0.5215154569
 40
0.5831842269
 40
0.6441654231
 40
0.7045325895
 40
0.7643678524
 40
0.8237547389
 40
0.882773787
 40
0.9415010872
 40
1.0
 40
1.0
 40
1.0
 40
1.0
 10
10.6569571043
 20
10.4910357176
 30
0.0
 10
10.663232221
 20
10.494870251
 30
0.0
 10
10.6758155466
 20
10.5023451816
 30
0.0
 10
10.6948955042
 20
10.5129681675
 30
0.0
 10
10.714086236
 20
10.5228855073
 30
0.0
 10
10.7333797017
 20
10.5320337821
 30
0.0
 10
10.7527638842
 20
10.5403530282
 30
0.0
 10
10.7722220468
 20
10.5477896798
 30
0.0
 10
10.7917336875
 20
10.5542989642
 30
0.0
 10
10.8112747002
 20
10.559849675
 30
0.0
 10
10.8308188198
 20
10.5644266062
 30
0.0
 10
10.8503396696
 20
10.5680302738
 30
0.0
 10
10.8698121048
 20
10.5706782523
 30
0.0
 10
10.8892138654
 20
10.5724038174
 30
0.0
 10
10.9085268308
 20
10.5732514202
 30
0.0
 10
10.9277375998
 20
10.5732746525
 30
0.0
 10
10.9468367481
 20
10.57253293
 30
0.0
 10
10.9595131679
 20
10.5715674587
 30
0.0
 10
10.9658282714
 20
10.5709774275
 30
0.0
  0
SPLINE
  5
363
100
AcDbEntity
  8
0
100
AcDbSpline
 62
7
  6
CONTINUOUS
 70
0
 71
3
 72
27
 73
23
 74
0
 42
0.0000001
 43
0.0000001
 44
0.0000000001
 40
0.0
 40
0.0
 40
0.0
 40
0.0
 40
0.0572742999
 40
0.1144994563
 40
0.1717869223
 40
0.2292938811
 40
0.2872150422
 40
0.3457779489
 40
0.3753824125
 40
0.4052383009
 40
0.4353731703
 40
0.4658134574
 40
0.496580671
 40
0.5276935314
 40
0.5591655803
 40
0.5910057323
 40
0.6557946642
 40
0.7220564543
 40
0.7897212757
 40
0.8586828413
 40
0.9288200633
 40
1.0
 40
1.0
 40
1.0
 40
1.0
 10
10.6569571043
 20
10.0704364918
 30
0.0
 10
10.6630323755
 20
10.0683022662
 30
0.0
 10
10.6752900986
 20
10.0643459932
 30
0.0
 10
10.69399388
 20
10.0594841818
 30
0.0
 10
10.7130019438
 20
10.055836715
 30
0.0
 10
10.7323027602
 20
10.0535464344
 30
0.0
 10
10.7518686074
 20
10.0527529144
 30
0.0
 10
10.7682997584
 20
10.0534411931
 30
0.0
 10
10.7814986031
 20
10.0548370801
 30
0.0
 10
10.7914646131
 20
10.0563232411
 30
0.0
 10
10.8014506092
 20
10.0582490889
 30
0.0
 10
10.8114460939
 20
10.0606183689
 30
0.0
 10
10.8214410817
 20
10.0634277054
 30
0.0
 10
10.8314244528
 20
10.0666747838
 30
0.0
 10
10.8413867143
 20
10.0703504256
 30
0.0
 10
10.8547041159
 20
10.0758414342
 30
0.0
 10
10.871246029
 20
10.0837365082
 30
0.0
 10
10.8907552429
 20
10.0946505089
 30
0.0
 10
10.9100009857
 20
10.106914992
 30
0.0
 10
10.9289602066
 20
10.1203805478
 30
0.0
 10
10.9476236398
 20
10.1349023286
 30
0.0
 10
10.9597875606
 20
10.1451292163
 30
0.0
 10
10.9658282714
 20
10.1503782017
 30
0.0
  0
SPLINE
  5
364
100
AcDbEntity
  8
0
100
AcDbSpline
 62
7
  6
CONTINUOUS
 70
0
 71
3
 72
21
 73
17
 74
0
 42
0.0000001
 43
0.0000001
 44
0.0000000001
 40
0.0
 40
0.0
 40
0.0
 40
0.0
 40
0.0777184714
 40
0.1509844854
 40
0.2201919876
 40
0.2858049512
 40
0.3483762676
 40
0.408511364
 40
0.4668501382
 40
0.524040419
 40
0.5806986783
 40
0.6373921441
 40
0.6946119011
 40
0.7527677984
 40
0.8730351627
 40
1.0
 40
1.0
 40
1.0
 40
1.0
 10
10.0804855791
 20
10.1104246586
 30
0.0
 10
10.081647344
 20
10.1093434452
 30
0.0
 10
10.083969618
 20
10.1073112827
 30
0.0
 10
10.0875584429
 20
10.1045956775
 30
0.0
 10
10.0911421441
 20
10.1023033897
 30
0.0
 10
10.0947184902
 20
10.1004320764
 30
0.0
 10
10.0982837731
 20
10.0989747647
 30
0.0
 10
10.1018347891
 20
10.0979230026
 30
0.0
 10
10.1053680672
 20
10.0972664637
 30
0.0
 10
10.1088799354
 20
10.0969911133
 30
0.0
 10
10.1123674315
 20
10.0970827899
 30
0.0
 10
10.1158280629
 20
10.0975244456
 30
0.0
 10
10.1192605027
 20
10.0982988526
 30
0.0
 10
10.123848287
 20
10.0997678712
 30
0.0
 10
10.129534682
 20
10.1023864598
 30
0.0
 10
10.1338183922
 20
10.1050809019
 30
0.0
 10
10.1359414593
 20
10.1065690495
 30
0.0
  0
SPLINE
  5
365
100
AcDbEntity
  8
0
100
AcDbSpline
 62
7
  6
CONTINUOUS
 70
0
 71
3
 72
23
 73
19
 74
0
 42
0.0000001
 43
0.0000001
 44
0.0000000001
 40
0.0
 40
0.0
 40
0.0
 40
0.0
 40
0.0421785856
 40
0.0850534373
 40
0.1291226147
 40
0.1749466526
 40
0.2231084649
 40
0.2741717322
 40
0.3286399951
 40
0.3869169438
 40
0.44928418
 40
0.5158962693
 40
0.5867820207
 40
0.6618606059
 40
0.7409667875
 40
0.8238724696
 40
0.910312794
 40
1.0
 40
1.0
 40
1.0
 40
1.0
 10
10.0228866474
 20
10.6363706512
 30
0.0
 10
10.0252047017
 20
10.6363624028
 30
0.0
 10
10.0298817763
 20
10.6361233856
 30
0.0
 10
10.036907937
 20
10.6350438979
 30
0.0
 10
10.0439768986
 20
10.6331798768
 30
0.0
 10
10.0510800569
 20
10.6304735154
 30
0.0
 10
10.0582086284
 20
10.6268753895
 30
0.0
 10
10.0653534943
 20
10.6223469433
 30
0.0
 10
10.0725056184
 20
10.6168616175
 30
0.0
 10
10.079656881
 20
10.6104077546
 30
0.0
 10
10.0867999361
 20
10.6029889698
 30
0.0
 10
10.0939273309
 20
10.5946234505
 30
0.0
 10
10.1010324733
 20
10.585343814
 30
0.0
 10
10.1081098375
 20
10.5751948425
 30
0.0
 10
10.1151543818
 20
10.5642300343
 30
0.0
 10
10.1221624876
 20
10.5525087829
 30
0.0
 10
10.1291317348
 20
10.5400936119
 30
0.0
 10
10.1336722635
 20
10.5315439428
 30
0.0
 10
10.1359414593
 20
10.5271682753
 30
0.0
  0
SPLINE
  5
366
100
AcDbEntity
  8
0
100
AcDbSpline
 62
7
  6
CONTINUOUS
 70
0
 71
3
 72
55
 73
51
 74
0
 42
0.0000001
 43
0.0000001
 44
0.0000000001
 40
0.0
 40
0.0
 40
0.0
 40
0.0
 40
0.007739844
 40
0.0160542131
 40
0.0249610657
 40
0.0344723786
 40
0.044595309
 40
0.0553322088
 40
0.0666804161
 40
0.0786345038
 40
0.0911857639
 40
0.1043232087
 40
0.1180338488
 40
0.1323021897
 40
0.1471115704
 40
0.1624432859
 40
0.1782773494
 40
0.1945926435
 40
0.2285743356
 40
0.2641967475
 40
0.3012521373
 40
0.3395202428
 40
0.3787705669
 40
0.4187645382
 40
0.4592576062
 40
0.5000012514
 40
0.5407448755
 40
0.5812379126
 40
0.62123185
 40
0.6604821326
 40
0.6987501439
 40
0.7358054074
 40
0.7714277135
 40
0.8054093178
 40
0.8217244933
 40
0.8375585662
 40
0.852890141
 40
0.8676994801
 40
0.8819677476
 40
0.8956782463
 40
0.9088157189
 40
0.9213668247
 40
0.9333208283
 40
0.9446688897
 40
0.9554056755
 40
0.9655288713
 40
0.9750401377
 40
0.9839463598
 40
0.9922596659
 40
1.0
 40
1.0
 40
1.0
 40
1.0
 10
10.9138895077
 20
10.1014264163
 30
0.0
 10
10.9122816325
 20
10.0999302
 30
0.0
 10
10.9088199913
 20
10.0969610525
 30
0.0
 10
10.9031414808
 20
10.0927199269
 30
0.0
 10
10.896804475
 20
10.088542879
 30
0.0
 10
10.8898198901
 20
10.084436617
 30
0.0
 10
10.882198476
 20
10.0804071724
 30
0.0
 10
10.8739521559
 20
10.0764610368
 30
0.0
 10
10.8650942367
 20
10.0726041544
 30
0.0
 10
10.8556389406
 20
10.0688433339
 30
0.0
 10
10.8456017314
 20
10.0651844849
 30
0.0
 10
10.8349989359
 20
10.0616336423
 30
0.0
 10
10.8238478337
 20
10.0581968726
 30
0.0
 10
10.8121667305
 20
10.0548795105
 30
0.0
 10
10.7999747349
 20
10.0516874156
 30
0.0
 10
10.7872919093
 20
10.0486256547
 30
0.0
 10
10.7741390664
 20
10.0456992871
 30
0.0
 10
10.7557539252
 20
10.0419336368
 30
0.0
 10
10.7317530617
 20
10.0376191388
 30
0.0
 10
10.7018188938
 20
10.0331192505
 30
0.0
 10
10.6705697069
 20
10.0292594943
 30
0.0
 10
10.638211155
 20
10.0260656805
 30
0.0
 10
10.6049560157
 20
10.0235591771
 30
0.0
 10
10.5710231652
 20
10.0217567405
 30
0.0
 10
10.5366359661
 20
10.0206704314
 30
0.0
 10
10.5020208322
 20
10.0203075411
 30
0.0
 10
10.4674057079
 20
10.0206705032
 30
0.0
 10
10.4330185346
 20
10.0217568522
 30
0.0
 10
10.3990857162
 20
10.0235593229
 30
0.0
 10
10.3658306276
 20
10.026065863
 30
0.0
 10
10.333472157
 20
10.0292597444
 30
0.0
 10
10.3022230711
 20
10.0331195652
 30
0.0
 10
10.272289004
 20
10.0376195043
 30
0.0
 10
10.2482882231
 20
10.0419339704
 30
0.0
 10
10.2299031637
 20
10.0456997388
 30
0.0
 10
10.216750377
 20
10.0486260331
 30
0.0
 10
10.2040676252
 20
10.0516878924
 30
0.0
 10
10.191875701
 20
10.05487997
 30
0.0
 10
10.1801946691
 20
10.0581973213
 30
0.0
 10
10.1690436547
 20
10.0616341922
 30
0.0
 10
10.1584409101
 20
10.0651849488
 30
0.0
 10
10.1484038058
 20
10.0688439129
 30
0.0
 10
10.1389486083
 20
10.072604681
 30
0.0
 10
10.130090771
 20
10.0764615127
 30
0.0
 10
10.1218445201
 20
10.0804077936
 30
0.0
 10
10.1142230702
 20
10.0844372379
 30
0.0
 10
10.107238702
 20
10.0885436373
 30
0.0
 10
10.1009020513
 20
10.0927203144
 30
0.0
 10
10.0952237343
 20
10.096961141
 30
0.0
 10
10.0917623489
 20
10.0999303391
 30
0.0
 10
10.090154391
 20
10.1014266707
 30
0.0
  0
SPLINE
  5
367
100
AcDbEntity
  8
0
100
AcDbSpline
 62
7
  6
CONTINUOUS
 70
0
 71
3
 72
9
 73
5
 74
0
 42
0.0000001
 43
0.0000001
 44
0.0000000001
 40
0.0
 40
0.0
 40
0.0
 40
0.0
 40
0.2415596122
 40
1.0
 40
1.0
 40
1.0
 40
1.0
 10
10.973140851
 20
10.1565659854
 30
0.0
 10
10.972576094
 20
10.15604042
 30
0.0
 10
10.970210976
 20
10.153893952
 30
0.0
 10
10.9677430433
 20
10.1518617456
 30
0.0
 10
10.9658282714
 20
10.1503782017
 30
0.0
  0
SPLINE
  5
368
100
AcDbEntity
  8
0
100
AcDbSpline
 62
7
  6
CONTINUOUS
 70
0
 71
3
 72
11
 73
7
 74
0
 42
0.0000001
 43
0.0000001
 44
0.0000000001
 40
0.0
 40
0.0
 40
0.0
 40
0.0
 40
0.2706149479
 40
0.5274053283
 40
0.7704747911
 40
1.0
 40
1.0
 40
1.0
 40
1.0
 10
10.1211321973
 20
10.6956294659
 30
0.0
 10
10.1188736483
 20
10.6945137685
 30
0.0
 10
10.1145070171
 20
10.6922671595
 30
0.0
 10
10.108254134
 20
10.688750425
 30
0.0
 10
10.1024770333
 20
10.6851794082
 30
0.0
 10
10.0988442269
 20
10.6826944442
 30
0.0
 10
10.0971136713
 20
10.6814413582
 30
0.0
  0
SPLINE
  5
369
100
AcDbEntity
  8
0
100
AcDbSpline
 62
7
  6
CONTINUOUS
 70
0
 71
3
 72
9
 73
5
 74
0
 42
0.0000001
 43
0.0000001
 44
0.0000000001
 40
0.0
 40
0.0
 40
0.0
 40
0.0
 40
0.5180906156
 40
1.0
 40
1.0
 40
1.0
 40
1.0
 10
10.0971136713
 20
10.6814413582
 30
0.0
 10
10.0952155116
 20
10.680066911
 30
0.0
 10
10.09162833
 20
10.6773057602
 30
0.0
 10
10.0882418125
 20
10.6742994009
 30
0.0
 10
10.086673935
 20
10.6727849474
 30
0.0
  0
SPLINE
  5
36A
100
AcDbEntity
  8
0
100
AcDbSpline
 62
7
  6
CONTINUOUS
 70
0
 71
3
 72
9
 73
5
 74
0
 42
0.0000001
 43
0.0000001
 44
0.0000000001
 40
0.0
 40
0.0
 40
0.0
 40
0.0
 40
0.496008294
 40
1.0
 40
1.0
 40
1.0
 40
1.0
 10
11.5448861791
 20
10.5827325933
 30
0.0
 10
11.5350901122
 20
10.5778933202
 30
0.0
 10
11.5155934478
 20
10.5676188068
 30
0.0
 10
11.4965780311
 20
10.5564856268
 30
0.0
 10
11.4871046838
 20
10.5506967517
 30
0.0
  0
SPLINE
  5
36B
100
AcDbEntity
  8
0
100
AcDbSpline
 62
7
  6
CONTINUOUS
 70
0
 71
3
 72
46
 73
42
 74
0
 42
0.0000001
 43
0.0000001
 44
0.0000000001
 40
0.0
 40
0.0
 40
0.0
 40
0.0
 40
0.0099874877
 40
0.0204476974
 40
0.0313773321
 40
0.0427709641
 40
0.0546220461
 40
0.0669229866
 40
0.0928356094
 40
0.1204266613
 40
0.1495981687
 40
0.1802404541
 40
0.2122337752
 40
0.2454491038
 40
0.2797499018
 40
0.3149932014
 40
0.3510301972
 40
0.3877076002
 40
0.4248685405
 40
0.462353288
 40
0.500000408
 40
0.5376475404
 40
0.5751322603
 40
0.612293149
 40
0.6489704979
 40
0.6850073789
 40
0.7202505939
 40
0.7545513209
 40
0.7877664595
 40
0.8197596255
 40
0.8504018125
 40
0.8795730869
 40
0.9071639551
 40
0.9203360434
 40
0.9330775683
 40
0.945378314
 40
0.9572292775
 40
0.9686228886
 40
0.9795523843
 40
0.9900125565
 40
1.0
 40
1.0
 40
1.0
 40
1.0
 10
12.3317991033
 20
10.5951494919
 30
0.0
 10
12.3294821112
 20
10.5962940521
 30
0.0
 10
12.3246989041
 20
10.5985579217
 30
0.0
 10
12.3172593173
 20
10.6018115328
 30
0.0
 10
12.3093966772
 20
10.6049978795
 30
0.0
 10
12.3011201882
 20
10.6081134834
 30
0.0
 10
12.2924392642
 20
10.6111547661
 30
0.0
 10
12.280123925
 20
10.6151756081
 30
0.0
 10
12.2637812545
 20
10.6199699701
 30
0.0
 10
12.2430543155
 20
10.6252782826
 30
0.0
 10
12.2209796689
 20
10.6302124027
 30
0.0
 10
12.1976589189
 20
10.6347492349
 30
0.0
 10
12.1731991795
 20
10.6388673273
 30
0.0
 10
12.1477131584
 20
10.6425475316
 30
0.0
 10
12.1213183608
 20
10.6457726486
 30
0.0
 10
12.0941365399
 20
10.648527432
 30
0.0
 10
12.0662931681
 20
10.6507991191
 30
0.0
 10
12.0379168234
 20
10.652577142
 30
0.0
 10
12.0091385534
 20
10.6538530418
 30
0.0
 10
11.9800912876
 20
10.6546209595
 30
0.0
 10
11.9509092157
 20
10.6548773689
 30
0.0
 10
11.9217271507
 20
10.6546209241
 30
0.0
 10
11.892679905
 20
10.6538529026
 30
0.0
 10
11.8639016717
 20
10.6525769625
 30
0.0
 10
11.8355253854
 20
10.650798913
 30
0.0
 10
11.8076820878
 20
10.6485271226
 30
0.0
 10
11.7805003416
 20
10.6457722975
 30
0.0
 10
11.7541056372
 20
10.6425471631
 30
0.0
 10
11.7286197337
 20
10.638866861
 30
0.0
 10
11.7041601368
 20
10.6347487218
 30
0.0
 10
11.6808394509
 20
10.630211905
 30
0.0
 10
11.6587651829
 20
10.6252776323
 30
0.0
 10
11.6412318184
 20
10.6207874727
 30
0.0
 10
11.6279151818
 20
10.6169991437
 30
0.0
 10
11.6184558043
 20
10.6141172711
 30
0.0
 10
11.6093804899
 20
10.6111540377
 30
0.0
 10
11.6006996706
 20
10.608112772
 30
0.0
 10
11.5924232364
 20
10.6049972125
 30
0.0
 10
11.5845606966
 20
10.601810755
 30
0.0
 10
11.5771211943
 20
10.5985570957
 30
0.0
 10
11.5723380015
 20
10.5962932457
 30
0.0
 10
11.5700210226
 20
10.5951486846
 30
0.0
  0
SPLINE
  5
36C
100
AcDbEntity
  8
0
100
AcDbSpline
 62
7
  6
CONTINUOUS
 70
0
 71
3
 72
9
 73
5
 74
0
 42
0.0000001
 43
0.0000001
 44
0.0000000001
 40
0.0
 40
0.0
 40
0.0
 40
0.0
 40
0.5135789775
 40
1.0
 40
1.0
 40
1.0
 40
1.0
 10
12.4232486473
 20
10.0572407385
 30
0.0
 10
12.4244923915
 20
10.0584421032
 30
0.0
 10
12.4268461106
 20
10.0608531674
 30
0.0
 10
12.4290326008
 20
10.0634179521
 30
0.0
 10
12.4300463078
 20
10.0647043022
 30
0.0
  0
SPLINE
  5
36D
100
AcDbEntity
  8
0
100
AcDbSpline
 62
7
  6
CONTINUOUS
 70
0
 71
3
 72
9
 73
5
 74
0
 42
0.0000001
 43
0.0000001
 44
0.0000000001
 40
0.0
 40
0.0
 40
0.0
 40
0.0
 40
0.5134917843
 40
1.0
 40
1.0
 40
1.0
 40
1.0
 10
11.4871046838
 20
10.5506967517
 30
0.0
 10
11.4855810505
 20
10.5495162576
 30
0.0
 10
11.4826677445
 20
10.5471465532
 30
0.0
 10
11.4798866032
 20
10.5446221483
 30
0.0
 10
11.4785731332
 20
10.5433534336
 30
0.0
  0
SPLINE
  5
36E
100
AcDbEntity
  8
0
100
AcDbSpline
 62
7
  6
CONTINUOUS
 70
0
 71
3
 72
9
 73
5
 74
0
 42
0.0000001
 43
0.0000001
 44
0.0000000001
 40
0.0
 40
0.0
 40
0.0
 40
0.0
 40
0.5135789775
 40
1.0
 40
1.0
 40
1.0
 40
1.0
 10
11.4785731332
 20
10.5433534336
 30
0.0
 10
11.4773293889
 20
10.5421520689
 30
0.0
 10
11.4749756698
 20
10.5397410047
 30
0.0
 10
11.4727891796
 20
10.53717622
 30
0.0
 10
11.4717754726
 20
10.5358898699
 30
0.0
  0
SPLINE
  5
36F
100
AcDbEntity
  8
0
100
AcDbSpline
 62
7
  6
CONTINUOUS
 70
0
 71
3
 72
23
 73
19
 74
0
 42
0.0000001
 43
0.0000001
 44
0.0000000001
 40
0.0
 40
0.0
 40
0.0
 40
0.0
 40
0.0809714987
 40
0.1598878899
 40
0.2366108848
 40
0.3110078346
 40
0.3829543555
 40
0.452338501
 40
0.5190632519
 40
0.5830593386
 40
0.6442825111
 40
0.7027298252
 40
0.7584316548
 40
0.8114689998
 40
0.8619596659
 40
0.910071818
 40
0.9560056935
 40
1.0
 40
1.0
 40
1.0
 40
1.0
 10
12.4300463078
 20
10.485303528
 30
0.0
 10
12.4283982423
 20
10.4884814761
 30
0.0
 10
12.4250991738
 20
10.4947336562
 30
0.0
 10
12.4200681461
 20
10.5039058914
 30
0.0
 10
12.4150158939
 20
10.5127332068
 30
0.0
 10
12.4099433575
 20
10.5211916643
 30
0.0
 10
12.4048512903
 20
10.5292573482
 30
0.0
 10
12.3997415607
 20
10.5369073824
 30
0.0
 10
12.3946153964
 20
10.5441195474
 30
0.0
 10
12.389475723
 20
10.5508743049
 30
0.0
 10
12.3843241585
 20
10.5571537411
 30
0.0
 10
12.3791644902
 20
10.5629443781
 30
0.0
 10
12.3739985994
 20
10.5682349874
 30
0.0
 10
12.3688307593
 20
10.5730202237
 30
0.0
 10
12.3636630401
 20
10.57729709
 30
0.0
 10
12.358499647
 20
10.5810691874
 30
0.0
 10
12.3533431748
 20
10.5843418622
 30
0.0
 10
12.3498430442
 20
10.5862361688
 30
0.0
 10
12.3480991629
 20
10.5870976283
 30
0.0
  0
SPLINE
  5
370
100
AcDbEntity
  8
0
100
AcDbSpline
 62
7
  6
CONTINUOUS
 70
0
 71
3
 72
21
 73
17
 74
0
 42
0.0000001
 43
0.0000001
 44
0.0000000001
 40
0.0
 40
0.0
 40
0.0
 40
0.0
 40
0.1552847778
 40
0.3037675224
 40
0.3751527953
 40
0.4444666907
 40
0.5115812513
 40
0.5763697456
 40
0.6387130726
 40
0.6985013802
 40
0.75563826
 40
0.8100514809
 40
0.8616894053
 40
0.9105385226
 40
0.9566200086
 40
1.0
 40
1.0
 40
1.0
 40
1.0
 10
11.4717754726
 20
10.1152906441
 30
0.0
 10
11.4739979636
 20
10.1094392905
 30
0.0
 10
11.4784585526
 20
10.0980352912
 30
0.0
 10
11.4843109089
 20
10.0840897665
 30
0.0
 10
11.4890680592
 20
10.0734478344
 30
0.0
 10
11.4926163386
 20
10.0658594208
 30
0.0
 10
11.4961909954
 20
10.0585783965
 30
0.0
 10
11.4997910907
 20
10.0516247145
 30
0.0
 10
11.5034152601
 20
10.0450183209
 30
0.0
 10
11.5070613448
 20
10.0387785357
 30
0.0
 10
11.5107277761
 20
10.0329243751
 30
0.0
 10
11.5144112381
 20
10.0274728536
 30
0.0
 10
11.5181096158
 20
10.0224400831
 30
0.0
 10
11.5218193425
 20
10.0178391938
 30
0.0
 10
11.5255370491
 20
10.0136813246
 30
0.0
 10
11.5280944075
 20
10.011135125
 30
0.0
 10
11.5293744044
 20
10.0099438773
 30
0.0
  0
SPLINE
  5
371
100
AcDbEntity
  8
0
100
AcDbSpline
 62
7
  6
CONTINUOUS
 70
0
 71
3
 72
28
 73
24
 74
0
 42
0.0000001
 43
0.0000001
 44
0.0000000001
 40
0.0
 40
0.0
 40
0.0
 40
0.0
 40
0.0683417894
 40
0.1318944582
 40
0.1911916903
 40
0.2469424229
 40
0.2737771035
 40
0.300072871
 40
0.3259647135
 40
0.3515944959
 40
0.3771085711
 40
0.4026553861
 40
0.4283829391
 40
0.454436097
 40
0.5080318425
 40
0.5644895246
 40
0.594076777
 40
0.6246829784
 40
0.6892404913
 40
0.7587126008
 40
0.8334899805
 40
0.91385377
 40
1.0
 40
1.0
 40
1.0
 40
1.0
 10
12.3662590201
 20
10.5146951848
 30
0.0
 10
12.3677233853
 20
10.5161096531
 30
0.0
 10
12.3704441255
 20
10.5189525793
 30
0.0
 10
12.3739824593
 20
10.5234281561
 30
0.0
 10
12.3768138107
 20
10.5279467273
 30
0.0
 10
12.3785989403
 20
10.5317932836
 30
0.0
 10
12.3796453235
 20
10.5348661143
 30
0.0
 10
12.3802398683
 20
10.5371462455
 30
0.0
 10
12.3806533404
 20
10.5394296207
 30
0.0
 10
12.3808856182
 20
10.5417151555
 30
0.0
 10
12.3809365427
 20
10.544001651
 30
0.0
 10
12.3808060752
 20
10.5462878788
 30
0.0
 10
12.3804941372
 20
10.548572727
 30
0.0
 10
12.3798306327
 20
10.5516437777
 30
0.0
 10
12.3785263749
 20
10.5554991366
 30
0.0
 10
12.3766614348
 20
10.5592309784
 30
0.0
 10
12.3748347915
 20
10.5621891011
 30
0.0
 10
12.372704549
 20
10.5652366214
 30
0.0
 10
12.3695735645
 20
10.5690233655
 30
0.0
 10
12.3651829854
 20
10.5734399002
 30
0.0
 10
12.3601015603
 20
10.5778028474
 30
0.0
 10
12.3543380758
 20
10.5821060519
 30
0.0
 10
12.3501922441
 20
10.5848350325
 30
0.0
 10
12.3480140992
 20
10.5861921846
 30
0.0
  0
SPLINE
  5
372
100
AcDbEntity
  8
0
100
AcDbSpline
 62
7
  6
CONTINUOUS
 70
0
 71
3
 72
9
 73
5
 74
0
 42
0.0000001
 43
0.0000001
 44
0.0000000001
 40
0.0
 40
0.0
 40
0.0
 40
0.0
 40
0.4830467495
 40
1.0
 40
1.0
 40
1.0
 40
1.0
 10
12.3480140992
 20
10.5861921846
 30
0.0
 10
12.3454817922
 20
10.5877700071
 30
0.0
 10
12.340144112
 20
10.5908847592
 30
0.0
 10
12.334661926
 20
10.5937352993
 30
0.0
 10
12.3317991033
 20
10.5951494919
 30
0.0
  0
SPLINE
  5
373
100
AcDbEntity
  8
0
100
AcDbSpline
 62
7
  6
CONTINUOUS
 70
0
 71
3
 72
69
 73
65
 74
0
 42
0.0000001
 43
0.0000001
 44
0.0000000001
 40
0.0
 40
0.0
 40
0.0
 40
0.0
 40
0.0078486444
 40
0.011525491
 40
0.0150505467
 40
0.0216952296
 40
0.024852921
 40
0.0279250607
 40
0.0309333397
 40
0.0339009863
 40
0.0368522248
 40
0.0398117036
 40
0.0428038878
 40
0.0458523906
 40
0.0489793775
 40
0.052205239
 40
0.0590208104
 40
0.0626451385
 40
0.0664292117
 40
0.0745139269
 40
0.08334171
 40
0.0929552291
 40
0.1033806187
 40
0.114631552
 40
0.126711678
 40
0.1396167584
 40
0.1533361209
 40
0.1678536007
 40
0.1831486278
 40
0.1991964446
 40
0.2159691279
 40
0.2334353586
 40
0.2515614594
 40
0.2703108941
 40
0.2896453365
 40
0.3095240288
 40
0.3299048522
 40
0.3719941041
 40
0.4155466199
 40
0.4601767864
 40
0.5054862054
 40
0.5510685731
 40
0.5965143891
 40
0.6414157219
 40
0.6853710257
 40
0.7279898963
 40
0.7486810452
 40
0.7688992635
 40
0.7886011676
 40
0.807744993
 40
0.8262908348
 40
0.8442008993
 40
0.8614395705
 40
0.8779739633
 40
0.8937737718
 40
0.9088121872
 40
0.9230656404
 40
0.9365152112
 40
0.9491461963
 40
0.9609499952
 40
0.9719245224
 40
0.9820776763
 40
0.9914266394
 40
1.0
 40
1.0
 40
1.0
 40
1.0
 10
11.5355627603
 20
10.5723041661
 30
0.0
 10
11.5338209585
 20
10.5706217147
 30
0.0
 10
11.5313747728
 20
10.5680280493
 30
0.0
 10
11.5285007887
 20
10.5643769895
 30
0.0
 10
11.5260759814
 20
10.560857155
 30
0.0
 10
11.5240910888
 20
10.5572347618
 30
0.0
 10
11.5226209079
 20
10.5535401864
 30
0.0
 10
11.5217955184
 20
10.5508079843
 30
0.0
 10
11.5212302853
 20
10.5480700971
 30
0.0
 10
11.5209257203
 20
10.5453284455
 30
0.0
 10
11.5208821418
 20
10.5425852728
 30
0.0
 10
11.5210996468
 20
10.539842823
 30
0.0
 10
11.5215782077
 20
10.5371033618
 30
0.0
 10
11.522317074
 20
10.5343690601
 30
0.0
 10
11.5233152166
 20
10.5316416543
 30
0.0
 10
11.5250210921
 20
10.527949919
 30
0.0
 10
11.5272339622
 20
10.5243406499
 30
0.0
 10
11.5298777222
 20
10.5208355012
 30
0.0
 10
11.5329822741
 20
10.5171967953
 30
0.0
 10
11.5375299751
 20
10.5126965781
 30
0.0
 10
11.5438577768
 20
10.5074914033
 30
0.0
 10
11.5511583677
 20
10.5023761037
 30
0.0
 10
11.5594147766
 20
10.497361082
 30
0.0
 10
11.5686088188
 20
10.49245718
 30
0.0
 10
11.5787194028
 20
10.4876754687
 30
0.0
 10
11.5897231561
 20
10.4830271508
 30
0.0
 10
11.6015942925
 20
10.4785233044
 30
0.0
 10
11.6143047784
 20
10.4741746633
 30
0.0
 10
11.6278244401
 20
10.4699918557
 30
0.0
 10
11.6421210344
 20
10.4659848348
 30
0.0
 10
11.6571603944
 20
10.4621635327
 30
0.0
 10
11.6729064917
 20
10.4585369728
 30
0.0
 10
11.6893215634
 20
10.455114236
 30
0.0
 10
11.7063662015
 20
10.4519033221
 30
0.0
 10
11.7239994368
 20
10.4489123604
 30
0.0
 10
11.7421789187
 20
10.446148217
 30
0.0
 10
11.767358455
 20
10.4427381468
 30
0.0
 10
11.799874886
 20
10.4391090734
 30
0.0
 10
11.8399379121
 20
10.4357936702
 30
0.0
 10
11.8810677398
 20
10.4335052736
 30
0.0
 10
11.9228688482
 20
10.4322662873
 30
0.0
 10
11.9649395505
 20
10.4320889038
 30
0.0
 10
12.0068753721
 20
10.4329748649
 30
0.0
 10
12.0482732971
 20
10.4349154444
 30
0.0
 10
12.0887351918
 20
10.4378916756
 30
0.0
 10
12.1216667212
 20
10.4412423865
 30
0.0
 10
12.1472414861
 20
10.4444350598
 30
0.0
 10
12.1657608878
 20
10.4470440082
 30
0.0
 10
12.1837630508
 20
10.4498844809
 30
0.0
 10
12.2012047292
 20
10.4529496153
 30
0.0
 10
12.2180439806
 20
10.4562320273
 30
0.0
 10
12.2342403627
 20
10.4597236434
 30
0.0
 10
12.2497549863
 20
10.4634161465
 30
0.0
 10
12.2645506717
 20
10.4673003698
 30
0.0
 10
12.2785919719
 20
10.4713671481
 30
0.0
 10
12.2918453885
 20
10.4756062972
 30
0.0
 10
12.3042793224
 20
10.4800079401
 30
0.0
 10
12.3158643802
 20
10.484561071
 30
0.0
 10
12.3265730939
 20
10.4892552569
 30
0.0
 10
12.3363806258
 20
10.4940787297
 30
0.0
 10
12.3452642603
 20
10.4990209284
 30
0.0
 10
12.3532044973
 20
10.5040707732
 30
0.0
 10
12.3601818427
 20
10.5092170738
 30
0.0
 10
12.3643563865
 20
10.5128573817
 30
0.0
 10
12.3662590201
 20
10.5146951848
 30
0.0
  0
SPLINE
  5
374
100
AcDbEntity
  8
0
100
AcDbSpline
 62
7
  6
CONTINUOUS
 70
0
 71
3
 72
9
 73
5
 74
0
 42
0.0000001
 43
0.0000001
 44
0.0000000001
 40
0.0
 40
0.0
 40
0.0
 40
0.0
 40
0.5132482879
 40
1.0
 40
1.0
 40
1.0
 40
1.0
 10
11.6267105121
 20
9.9952488815
 30
0.0
 10
11.6194957307
 20
9.9969025774
 30
0.0
 10
11.6054794864
 20
10.0003064369
 30
0.0
 10
11.5915681846
 20
10.0041190972
 30
0.0
 10
11.5848302846
 20
10.0060882682
 30
0.0
  0
SPLINE
  5
375
100
AcDbEntity
  8
0
100
AcDbSpline
 62
7
  6
CONTINUOUS
 70
0
 71
3
 72
9
 73
5
 74
0
 42
0.0000001
 43
0.0000001
 44
0.0000000001
 40
0.0
 40
0.0
 40
0.0
 40
0.0
 40
0.5135789775
 40
1.0
 40
1.0
 40
1.0
 40
1.0
 10
12.4232486473
 20
10.4778399642
 30
0.0
 10
12.4244923915
 20
10.479041329
 30
0.0
 10
12.4268461106
 20
10.4814523931
 30
0.0
 10
12.4290326008
 20
10.4840171779
 30
0.0
 10
12.4300463078
 20
10.485303528
 30
0.0
  0
SPLINE
  5
376
100
AcDbEntity
  8
0
100
AcDbSpline
 62
7
  6
CONTINUOUS
 70
0
 71
3
 72
9
 73
5
 74
0
 42
0.0000001
 43
0.0000001
 44
0.0000000001
 40
0.0
 40
0.0
 40
0.0
 40
0.0
 40
0.4867517121
 40
1.0
 40
1.0
 40
1.0
 40
1.0
 10
11.5848302846
 20
10.426687494
 30
0.0
 10
11.5915681846
 20
10.424718323
 30
0.0
 10
11.6054794864
 20
10.4209056626
 30
0.0
 10
11.6194957307
 20
10.4175018032
 30
0.0
 10
11.6267105121
 20
10.4158481072
 30
0.0
  0
SPLINE
  5
377
100
AcDbEntity
  8
0
100
AcDbSpline
 62
7
  6
CONTINUOUS
 70
0
 71
3
 72
9
 73
5
 74
0
 42
0.0000001
 43
0.0000001
 44
0.0000000001
 40
0.0
 40
0.0
 40
0.0
 40
0.0
 40
0.5134917843
 40
1.0
 40
1.0
 40
1.0
 40
1.0
 10
12.4147170966
 20
10.4704966461
 30
0.0
 10
12.4162407299
 20
10.4716771402
 30
0.0
 10
12.4191540359
 20
10.4740468446
 30
0.0
 10
12.4219351772
 20
10.4765712495
 30
0.0
 10
12.4232486473
 20
10.4778399642
 30
0.0
  0
SPLINE
  5
378
100
AcDbEntity
  8
0
100
AcDbSpline
 62
7
  6
CONTINUOUS
 70
0
 71
3
 72
21
 73
17
 74
0
 42
0.0000001
 43
0.0000001
 44
0.0000000001
 40
0.0
 40
0.0
 40
0.0
 40
0.0
 40
0.1230814817
 40
0.1847942657
 40
0.2466337258
 40
0.3086097846
 40
0.3707312098
 40
0.4330051319
 40
0.4954352436
 40
0.5580223626
 40
0.6207641208
 40
0.6836547008
 40
0.7466862848
 40
0.8098488395
 40
0.8731308835
 40
1.0
 40
1.0
 40
1.0
 40
1.0
 10
11.6267105121
 20
10.4158481072
 30
0.0
 10
11.6439631526
 20
10.4191004906
 30
0.0
 10
11.6699942902
 20
10.4233512091
 30
0.0
 10
11.7049308804
 20
10.4275185585
 30
0.0
 10
11.7312975781
 20
10.4298406049
 30
0.0
 10
11.7577846448
 20
10.431300305
 30
0.0
 10
11.784368704
 20
10.4318504468
 30
0.0
 10
11.8110205682
 20
10.4314540152
 30
0.0
 10
11.8377070611
 20
10.4300890275
 30
0.0
 10
11.8643928329
 20
10.427750204
 30
0.0
 10
11.891042536
 20
10.4244479147
 30
0.0
 10
11.9176232002
 20
10.420208895
 30
0.0
 10
11.9441060435
 20
10.4150742538
 30
0.0
 10
11.9704679208
 20
10.4090945059
 30
0.0
 10
12.0054585953
 20
10.4000653863
 30
0.0
 10
12.0314370539
 20
10.392215365
 30
0.0
 10
12.048636491
 20
10.3865874412
 30
0.0
  0
SPLINE
  5
379
100
AcDbEntity
  8
0
100
AcDbSpline
 62
7
  6
CONTINUOUS
 70
0
 71
3
 72
28
 73
24
 74
0
 42
0.0000001
 43
0.0000001
 44
0.0000000001
 40
0.0
 40
0.0
 40
0.0
 40
0.0
 40
0.0640274484
 40
0.1279405369
 40
0.1917105404
 40
0.2553123355
 40
0.3187161223
 40
0.3818930725
 40
0.4133919091
 40
0.4448254452
 40
0.4761912782
 40
0.5074882562
 40
0.5387156619
 40
0.5698732312
 40
0.6009621492
 40
0.6319833386
 40
0.6938248821
 40
0.7554274775
 40
0.8168179251
 40
0.8780243018
 40
0.9085700262
 40
0.9390802882
 40
1.0
 40
1.0
 40
1.0
 40
1.0
 10
11.6267105121
 20
9.9952488815
 30
0.0
 10
11.6350113627
 20
9.9909657578
 30
0.0
 10
11.6517424225
 20
9.9826823705
 30
0.0
 10
11.6772615887
 20
9.9712203841
 30
0.0
 10
11.703185367
 20
9.9608661217
 30
0.0
 10
11.7294985422
 20
9.9517640657
 30
0.0
 10
11.7561663719
 20
9.9440605913
 30
0.0
 10
11.7786618039
 20
9.9389163594
 30
0.0
 10
11.7967658761
 20
9.935629304
 30
0.0
 10
11.8103731314
 20
9.9335905773
 30
0.0
 10
11.824008459
 20
9.9319839001
 30
0.0
 10
11.8376583102
 20
9.9308168232
 30
0.0
 10
11.8513082435
 20
9.9300896734
 30
0.0
 10
11.8649441509
 20
9.929804141
 30
0.0
 10
11.8785522003
 20
9.9299546145
 30
0.0
 10
11.8966210248
 20
9.9307278901
 30
0.0
 10
11.9190805143
 20
9.9327432939
 30
0.0
 10
11.945761471
 20
9.9367444004
 30
0.0
 10
11.9720878327
 20
9.9421951147
 30
0.0
 10
11.9937163053
 20
9.9478309396
 30
0.0
 10
12.0108119002
 20
9.9529222977
 30
0.0
 10
12.0277524214
 20
9.9583725258
 30
0.0
 10
12.0403212659
 20
9.9628510004
 30
0.0
 10
12.048636491
 20
9.9659882154
 30
0.0
  0
SPLINE
  5
37A
100
AcDbEntity
  8
0
100
AcDbSpline
 62
7
  6
CONTINUOUS
 70
0
 71
3
 72
23
 73
19
 74
0
 42
0.0000001
 43
0.0000001
 44
0.0000000001
 40
0.0
 40
0.0
 40
0.0
 40
0.0
 40
0.0678267902
 40
0.1349724863
 40
0.2013861734
 40
0.2670282176
 40
0.331868046
 40
0.3958905056
 40
0.459098674
 40
0.5215154569
 40
0.5831842269
 40
0.6441654231
 40
0.7045325895
 40
0.7643678524
 40
0.8237547389
 40
0.882773787
 40
0.9415010872
 40
1.0
 40
1.0
 40
1.0
 40
1.0
 10
12.1058459296
 20
10.3905549363
 30
0.0
 10
12.1121210463
 20
10.3943894697
 30
0.0
 10
12.1247043719
 20
10.4018644003
 30
0.0
 10
12.1437843295
 20
10.4124873862
 30
0.0
 10
12.1629750613
 20
10.422404726
 30
0.0
 10
12.182268527
 20
10.4315530008
 30
0.0
 10
12.2016527095
 20
10.4398722469
 30
0.0
 10
12.2211108721
 20
10.4473088985
 30
0.0
 10
12.2406225128
 20
10.4538181828
 30
0.0
 10
12.2601635255
 20
10.4593688937
 30
0.0
 10
12.279707645
 20
10.4639458249
 30
0.0
 10
12.2992284949
 20
10.4675494925
 30
0.0
 10
12.3187009301
 20
10.470197471
 30
0.0
 10
12.3381026907
 20
10.4719230361
 30
0.0
 10
12.3574156561
 20
10.4727706389
 30
0.0
 10
12.3766264251
 20
10.4727938712
 30
0.0
 10
12.3957255734
 20
10.4720521487
 30
0.0
 10
12.4084019932
 20
10.4710866774
 30
0.0
 10
12.4147170966
 20
10.4704966461
 30
0.0
  0
SPLINE
  5
37B
100
AcDbEntity
  8
0
100
AcDbSpline
 62
7
  6
CONTINUOUS
 70
0
 71
3
 72
27
 73
23
 74
0
 42
0.0000001
 43
0.0000001
 44
0.0000000001
 40
0.0
 40
0.0
 40
0.0
 40
0.0
 40
0.0572742999
 40
0.1144994563
 40
0.1717869223
 40
0.2292938811
 40
0.2872150422
 40
0.3457779489
 40
0.3753824125
 40
0.4052383009
 40
0.4353731703
 40
0.4658134574
 40
0.496580671
 40
0.5276935314
 40
0.5591655803
 40
0.5910057323
 40
0.6557946642
 40
0.7220564543
 40
0.7897212757
 40
0.8586828413
 40
0.9288200633
 40
1.0
 40
1.0
 40
1.0
 40
1.0
 10
12.1058459296
 20
9.9699557105
 30
0.0
 10
12.1119212007
 20
9.9678214849
 30
0.0
 10
12.1241789238
 20
9.9638652119
 30
0.0
 10
12.1428827053
 20
9.9590034005
 30
0.0
 10
12.1618907691
 20
9.9553559337
 30
0.0
 10
12.1811915855
 20
9.9530656531
 30
0.0
 10
12.2007574327
 20
9.9522721331
 30
0.0
 10
12.2171885837
 20
9.9529604118
 30
0.0
 10
12.2303874284
 20
9.9543562988
 30
0.0
 10
12.2403534384
 20
9.9558424598
 30
0.0
 10
12.2503394345
 20
9.9577683076
 30
0.0
 10
12.2603349192
 20
9.9601375876
 30
0.0
 10
12.270329907
 20
9.9629469241
 30
0.0
 10
12.2803132781
 20
9.9661940025
 30
0.0
 10
12.2902755395
 20
9.9698696442
 30
0.0
 10
12.3035929412
 20
9.9753606529
 30
0.0
 10
12.3201348543
 20
9.9832557269
 30
0.0
 10
12.3396440681
 20
9.9941697276
 30
0.0
 10
12.358889811
 20
10.0064342107
 30
0.0
 10
12.3778490319
 20
10.0198997665
 30
0.0
 10
12.3965124651
 20
10.0344215473
 30
0.0
 10
12.4086763859
 20
10.044648435
 30
0.0
 10
12.4147170966
 20
10.0498974204
 30
0.0
  0
SPLINE
  5
37C
100
AcDbEntity
  8
0
100
AcDbSpline
 62
7
  6
CONTINUOUS
 70
0
 71
3
 72
21
 73
17
 74
0
 42
0.0000001
 43
0.0000001
 44
0.0000000001
 40
0.0
 40
0.0
 40
0.0
 40
0.0
 40
0.0777184714
 40
0.1509844854
 40
0.2201919876
 40
0.2858049512
 40
0.3483762676
 40
0.408511364
 40
0.4668501382
 40
0.524040419
 40
0.5806986783
 40
0.6373921441
 40
0.6946119011
 40
0.7527677984
 40
0.8730351627
 40
1.0
 40
1.0
 40
1.0
 40
1.0
 10
11.5293744044
 20
10.0099438773
 30
0.0
 10
11.5305361693
 20
10.0088626639
 30
0.0
 10
11.5328584433
 20
10.0068305014
 30
0.0
 10
11.5364472682
 20
10.0041148962
 30
0.0
 10
11.5400309693
 20
10.0018226083
 30
0.0
 10
11.5436073154
 20
9.999951295
 30
0.0
 10
11.5471725984
 20
9.9984939833
 30
0.0
 10
11.5507236144
 20
9.9974422213
 30
0.0
 10
11.5542568925
 20
9.9967856824
 30
0.0
 10
11.5577687607
 20
9.996510332
 30
0.0
 10
11.5612562568
 20
9.9966020086
 30
0.0
 10
11.5647168882
 20
9.9970436643
 30
0.0
 10
11.568149328
 20
9.9978180713
 30
0.0
 10
11.5727371123
 20
9.9992870899
 30
0.0
 10
11.5784235073
 20
10.0019056785
 30
0.0
 10
11.5827072175
 20
10.0046001206
 30
0.0
 10
11.5848302846
 20
10.0060882682
 30
0.0
  0
SPLINE
  5
37D
100
AcDbEntity
  8
0
100
AcDbSpline
 62
7
  6
CONTINUOUS
 70
0
 71
3
 72
23
 73
19
 74
0
 42
0.0000001
 43
0.0000001
 44
0.0000000001
 40
0.0
 40
0.0
 40
0.0
 40
0.0
 40
0.0421785856
 40
0.0850534373
 40
0.1291226147
 40
0.1749466526
 40
0.2231084649
 40
0.2741717322
 40
0.3286399951
 40
0.3869169438
 40
0.44928418
 40
0.5158962693
 40
0.5867820207
 40
0.6618606059
 40
0.7409667875
 40
0.8238724696
 40
0.910312794
 40
1.0
 40
1.0
 40
1.0
 40
1.0
 10
11.4717754726
 20
10.5358898699
 30
0.0
 10
11.474093527
 20
10.5358816214
 30
0.0
 10
11.4787706016
 20
10.5356426043
 30
0.0
 10
11.4857967623
 20
10.5345631166
 30
0.0
 10
11.4928657238
 20
10.5326990954
 30
0.0
 10
11.4999688822
 20
10.5299927341
 30
0.0
 10
11.5070974537
 20
10.5263946082
 30
0.0
 10
11.5142423195
 20
10.521866162
 30
0.0
 10
11.5213944436
 20
10.5163808362
 30
0.0
 10
11.5285457063
 20
10.5099269733
 30
0.0
 10
11.5356887614
 20
10.5025081885
 30
0.0
 10
11.5428161562
 20
10.4941426692
 30
0.0
 10
11.5499212986
 20
10.4848630326
 30
0.0
 10
11.5569986628
 20
10.4747140612
 30
0.0
 10
11.5640432071
 20
10.463749253
 30
0.0
 10
11.5710513129
 20
10.4520280016
 30
0.0
 10
11.5780205601
 20
10.4396128306
 30
0.0
 10
11.5825610888
 20
10.4310631615
 30
0.0
 10
11.5848302846
 20
10.426687494
 30
0.0
  0
SPLINE
  5
37E
100
AcDbEntity
  8
0
100
AcDbSpline
 62
7
  6
CONTINUOUS
 70
0
 71
3
 72
55
 73
51
 74
0
 42
0.0000001
 43
0.0000001
 44
0.0000000001
 40
0.0
 40
0.0
 40
0.0
 40
0.0
 40
0.007739844
 40
0.0160542131
 40
0.0249610657
 40
0.0344723786
 40
0.044595309
 40
0.0553322088
 40
0.0666804161
 40
0.0786345038
 40
0.0911857639
 40
0.1043232087
 40
0.1180338488
 40
0.1323021897
 40
0.1471115704
 40
0.1624432859
 40
0.1782773494
 40
0.1945926435
 40
0.2285743356
 40
0.2641967475
 40
0.3012521373
 40
0.3395202428
 40
0.3787705669
 40
0.4187645382
 40
0.4592576062
 40
0.5000012514
 40
0.5407448755
 40
0.5812379126
 40
0.62123185
 40
0.6604821326
 40
0.6987501439
 40
0.7358054074
 40
0.7714277135
 40
0.8054093178
 40
0.8217244933
 40
0.8375585662
 40
0.852890141
 40
0.8676994801
 40
0.8819677476
 40
0.8956782463
 40
0.9088157189
 40
0.9213668247
 40
0.9333208283
 40
0.9446688897
 40
0.9554056755
 40
0.9655288713
 40
0.9750401377
 40
0.9839463598
 40
0.9922596659
 40
1.0
 40
1.0
 40
1.0
 40
1.0
 10
12.362778333
 20
10.000945635
 30
0.0
 10
12.3611704578
 20
9.9994494187
 30
0.0
 10
12.3577088166
 20
9.9964802712
 30
0.0
 10
12.3520303061
 20
9.9922391456
 30
0.0
 10
12.3456933003
 20
9.9880620977
 30
0.0
 10
12.3387087154
 20
9.9839558357
 30
0.0
 10
12.3310873013
 20
9.9799263911
 30
0.0
 10
12.3228409812
 20
9.9759802555
 30
0.0
 10
12.3139830619
 20
9.9721233731
 30
0.0
 10
12.3045277659
 20
9.9683625526
 30
0.0
 10
12.2944905567
 20
9.9647037036
 30
0.0
 10
12.2838877612
 20
9.961152861
 30
0.0
 10
12.272736659
 20
9.9577160913
 30
0.0
 10
12.2610555558
 20
9.9543987292
 30
0.0
 10
12.2488635602
 20
9.9512066343
 30
0.0
 10
12.2361807346
 20
9.9481448734
 30
0.0
 10
12.2230278917
 20
9.9452185058
 30
0.0
 10
12.2046427505
 20
9.9414528555
 30
0.0
 10
12.1806418869
 20
9.9371383575
 30
0.0
 10
12.1507077191
 20
9.9326384692
 30
0.0
 10
12.1194585322
 20
9.928778713
 30
0.0
 10
12.0870999803
 20
9.9255848992
 30
0.0
 10
12.0538448409
 20
9.9230783958
 30
0.0
 10
12.0199119905
 20
9.9212759592
 30
0.0
 10
11.9855247914
 20
9.9201896501
 30
0.0
 10
11.9509096575
 20
9.9198267598
 30
0.0
 10
11.9162945332
 20
9.9201897219
 30
0.0
 10
11.8819073599
 20
9.9212760709
 30
0.0
 10
11.8479745415
 20
9.9230785416
 30
0.0
 10
11.8147194529
 20
9.9255850817
 30
0.0
 10
11.7823609823
 20
9.9287789631
 30
0.0
 10
11.7511118964
 20
9.9326387839
 30
0.0
 10
11.7211778293
 20
9.937138723
 30
0.0
 10
11.6971770484
 20
9.941453189
 30
0.0
 10
11.678791989
 20
9.9452189575
 30
0.0
 10
11.6656392023
 20
9.9481452518
 30
0.0
 10
11.6529564505
 20
9.9512071111
 30
0.0
 10
11.6407645263
 20
9.9543991887
 30
0.0
 10
11.6290834944
 20
9.95771654
 30
0.0
 10
11.61793248
 20
9.9611534109
 30
0.0
 10
11.6073297354
 20
9.9647041675
 30
0.0
 10
11.5972926311
 20
9.9683631316
 30
0.0
 10
11.5878374336
 20
9.9721238997
 30
0.0
 10
11.5789795962
 20
9.9759807314
 30
0.0
 10
11.5707333453
 20
9.9799270122
 30
0.0
 10
11.5631118955
 20
9.9839564566
 30
0.0
 10
11.5561275272
 20
9.988062856
 30
0.0
 10
11.5497908765
 20
9.9922395331
 30
0.0
 10
11.5441125596
 20
9.9964803596
 30
0.0
 10
11.5406511742
 20
9.9994495578
 30
0.0
 10
11.5390432163
 20
10.0009458894
 30
0.0
  0
SPLINE
  5
37F
100
AcDbEntity
  8
0
100
AcDbSpline
 62
7
  6
CONTINUOUS
 70
0
 71
3
 72
9
 73
5
 74
0
 42
0.0000001
 43
0.0000001
 44
0.0000000001
 40
0.0
 40
0.0
 40
0.0
 40
0.0
 40
0.2415596122
 40
1.0
 40
1.0
 40
1.0
 40
1.0
 10
12.4220296762
 20
10.0560852041
 30
0.0
 10
12.4214649193
 20
10.0555596387
 30
0.0
 10
12.4190998013
 20
10.0534131707
 30
0.0
 10
12.4166318685
 20
10.0513809643
 30
0.0
 10
12.4147170966
 20
10.0498974204
 30
0.0
  0
SPLINE
  5
380
100
AcDbEntity
  8
0
100
AcDbSpline
 62
7
  6
CONTINUOUS
 70
0
 71
3
 72
11
 73
7
 74
0
 42
0.0000001
 43
0.0000001
 44
0.0000000001
 40
0.0
 40
0.0
 40
0.0
 40
0.0
 40
0.2706149479
 40
0.5274053283
 40
0.7704747911
 40
1.0
 40
1.0
 40
1.0
 40
1.0
 10
11.5700210226
 20
10.5951486846
 30
0.0
 10
11.5677624735
 20
10.5940329872
 30
0.0
 10
11.5633958424
 20
10.5917863781
 30
0.0
 10
11.5571429593
 20
10.5882696437
 30
0.0
 10
11.5513658586
 20
10.5846986269
 30
0.0
 10
11.5477330522
 20
10.5822136629
 30
0.0
 10
11.5460024966
 20
10.5809605769
 30
0.0
  0
SPLINE
  5
381
100
AcDbEntity
  8
0
100
AcDbSpline
 62
7
  6
CONTINUOUS
 70
0
 71
3
 72
9
 73
5
 74
0
 42
0.0000001
 43
0.0000001
 44
0.0000000001
 40
0.0
 40
0.0
 40
0.0
 40
0.0
 40
0.5180906156
 40
1.0
 40
1.0
 40
1.0
 40
1.0
 10
11.5460024966
 20
10.5809605769
 30
0.0
 10
11.5441043369
 20
10.5795861296
 30
0.0
 10
11.5405171553
 20
10.5768249789
 30
0.0
 10
11.5371306378
 20
10.5738186196
 30
0.0
 10
11.5355627603
 20
10.5723041661
 30
0.0
  0
SPLINE
  5
382
100
AcDbEntity
  8
0
100
AcDbSpline
 62
7
  6
CONTINUOUS
 70
0
 71
3
 72
40
 73
36
 74
0
 42
0.0000001
 43
0.0000001
 44
0.0000000001
 40
0.0
 40
0.0
 40
0.0
 40
0.0
 40
0.095831283
 40
0.1891002611
 40
0.2345967754
 40
0.2792417237
 40
0.3229684394
 40
0.3657121019
 40
0.4074102357
 40
0.4480028048
 40
0.4874323846
 40
0.5256444796
 40
0.5625878125
 40
0.5982145324
 40
0.6324805638
 40
0.6653461143
 40
0.6967760656
 40
0.7267404931
 40
0.7552154488
 40
0.7821838752
 40
0.8076366036
 40
0.8315737874
 40
0.854006864
 40
0.8749608568
 40
0.8944774184
 40
0.9126188675
 40
0.9294731325
 40
0.945159366
 40
0.9598338579
 40
0.9668558815
 40
0.9737029099
 40
0.9804063146
 40
0.9869997145
 40
0.9935186475
 40
1.0
 40
1.0
 40
1.0
 40
1.0
 10
11.8394893832
 20
9.7413740477
 30
0.0
 10
11.8282765489
 20
9.7421516604
 30
0.0
 10
11.8061669391
 20
9.7439327381
 30
0.0
 10
11.7787975176
 20
9.7467888813
 30
0.0
 10
11.7574477698
 20
9.7494275001
 30
0.0
 10
11.7418912894
 20
9.751556407
 30
0.0
 10
11.7266843606
 20
9.7538479329
 30
0.0
 10
11.711852373
 20
9.7562982679
 30
0.0
 10
11.6974201146
 20
9.7589032747
 30
0.0
 10
11.6834116875
 20
9.7616585711
 30
0.0
 10
11.6698504863
 20
9.7645595322
 30
0.0
 10
11.6567591446
 20
9.767601282
 30
0.0
 10
11.6441594921
 20
9.7707786936
 30
0.0
 10
11.6320725278
 20
9.7740864249
 30
0.0
 10
11.6205183795
 20
9.7775189289
 30
0.0
 10
11.6095162507
 20
9.7810704288
 30
0.0
 10
11.5990843924
 20
9.7847349599
 30
0.0
 10
11.5892400762
 20
9.7885063959
 30
0.0
 10
11.5799995422
 20
9.7923784493
 30
0.0
 10
11.5713779526
 20
9.7963446811
 30
0.0
 10
11.563389376
 20
9.8003985683
 30
0.0
 10
11.5560467569
 20
9.804533553
 30
0.0
 10
11.5493618595
 20
9.8087430639
 30
0.0
 10
11.5433452823
 20
9.8130206297
 30
0.0
 10
11.5380065063
 20
9.8173600498
 30
0.0
 10
11.5333540359
 20
9.8217554018
 30
0.0
 10
11.5293954991
 20
9.8262015292
 30
0.0
 10
11.5261385923
 20
9.8306927905
 30
0.0
 10
11.523984345
 20
9.8345258161
 30
0.0
 10
11.5226414559
 20
9.8375949324
 30
0.0
 10
11.5218284189
 20
9.8398689035
 30
0.0
 10
11.5211954264
 20
9.8421473473
 30
0.0
 10
11.5207429465
 20
9.8444293452
 30
0.0
 10
11.5204713314
 20
9.8467135621
 30
0.0
 10
11.5204108884
 20
9.848239007
 30
0.0
 10
11.5204108913
 20
9.8489991855
 30
0.0
  0
SPLINE
  5
383
100
AcDbEntity
  8
0
100
AcDbSpline
 62
7
  6
CONTINUOUS
 70
0
 71
3
 72
40
 73
36
 74
0
 42
0.0000001
 43
0.0000001
 44
0.0000000001
 40
0.0
 40
0.0
 40
0.0
 40
0.0
 40
0.095831283
 40
0.1891002611
 40
0.2345967754
 40
0.2792417237
 40
0.3229684394
 40
0.3657121019
 40
0.4074102357
 40
0.4480028048
 40
0.4874323846
 40
0.5256444796
 40
0.5625878125
 40
0.5982145324
 40
0.6324805638
 40
0.6653461143
 40
0.6967760656
 40
0.7267404931
 40
0.7552154488
 40
0.7821838752
 40
0.8076366036
 40
0.8315737874
 40
0.854006864
 40
0.8749608568
 40
0.8944774184
 40
0.9126188675
 40
0.9294731325
 40
0.945159366
 40
0.9598338579
 40
0.9668558815
 40
0.9737029099
 40
0.9804063146
 40
0.9869997145
 40
0.9935186475
 40
1.0
 40
1.0
 40
1.0
 40
1.0
 10
10.390600558
 20
9.841854829
 30
0.0
 10
10.3793877236
 20
9.8426324417
 30
0.0
 10
10.3572781138
 20
9.8444135194
 30
0.0
 10
10.3299086923
 20
9.8472696627
 30
0.0
 10
10.3085589445
 20
9.8499082814
 30
0.0
 10
10.2930024642
 20
9.8520371884
 30
0.0
 10
10.2777955353
 20
9.8543287142
 30
0.0
 10
10.2629635477
 20
9.8567790492
 30
0.0
 10
10.2485312893
 20
9.8593840561
 30
0.0
 10
10.2345228623
 20
9.8621393524
 30
0.0
 10
10.2209616611
 20
9.8650403135
 30
0.0
 10
10.2078703194
 20
9.8680820633
 30
0.0
 10
10.1952706668
 20
9.8712594749
 30
0.0
 10
10.1831837025
 20
9.8745672062
 30
0.0
 10
10.1716295542
 20
9.8779997102
 30
0.0
 10
10.1606274255
 20
9.8815512101
 30
0.0
 10
10.1501955672
 20
9.8852157412
 30
0.0
 10
10.1403512509
 20
9.8889871772
 30
0.0
 10
10.1311107169
 20
9.8928592306
 30
0.0
 10
10.1224891273
 20
9.8968254625
 30
0.0
 10
10.1145005507
 20
9.9008793496
 30
0.0
 10
10.1071579316
 20
9.9050143343
 30
0.0
 10
10.1004730343
 20
9.9092238452
 30
0.0
 10
10.094456457
 20
9.913501411
 30
0.0
 10
10.089117681
 20
9.9178408311
 30
0.0
 10
10.0844652106
 20
9.9222361831
 30
0.0
 10
10.0805066738
 20
9.9266823105
 30
0.0
 10
10.077249767
 20
9.9311735719
 30
0.0
 10
10.0750955197
 20
9.9350065974
 30
0.0
 10
10.0737526306
 20
9.9380757137
 30
0.0
 10
10.0729395936
 20
9.9403496849
 30
0.0
 10
10.0723066011
 20
9.9426281286
 30
0.0
 10
10.0718541212
 20
9.9449101265
 30
0.0
 10
10.0715825061
 20
9.9471943434
 30
0.0
 10
10.0715220631
 20
9.9487197883
 30
0.0
 10
10.071522066
 20
9.9494799668
 30
0.0
  0
SPLINE
  5
384
100
AcDbEntity
  8
0
100
AcDbSpline
 62
7
  6
CONTINUOUS
 70
0
 71
3
 72
43
 73
39
 74
0
 42
0.0000001
 43
0.0000001
 44
0.0000000001
 40
0.0
 40
0.0
 40
0.0
 40
0.0
 40
0.0840366067
 40
0.1695051419
 40
0.2553480795
 40
0.3405006175
 40
0.3824890317
 40
0.423911563
 40
0.4646409869
 40
0.5045528995
 40
0.5435262737
 40
0.581444007
 40
0.6181935033
 40
0.6536672919
 40
0.6877637364
 40
0.7203877842
 40
0.7514517754
 40
0.7808764263
 40
0.8085920333
 40
0.8345400414
 40
0.858675074
 40
0.8809676136
 40
0.891420173
 40
0.9014104073
 40
0.9109410658
 40
0.9200170958
 40
0.9286456087
 40
0.936836736
 40
0.9446037192
 40
0.9519636423
 40
0.9589381497
 40
0.9655538576
 40
0.9718434317
 40
0.9778458824
 40
0.9836071138
 40
0.989179879
 40
0.994622983
 40
1.0
 40
1.0
 40
1.0
 40
1.0
 10
12.7602478796
 20
7.3452030675
 30
0.0
 10
12.7602478796
 20
7.351658117
 30
0.0
 10
12.7604504461
 20
7.3646789469
 30
0.0
 10
12.7613294894
 20
7.3842757212
 30
0.0
 10
12.7627762061
 20
7.4039247953
 30
0.0
 10
12.7644464999
 20
7.4202016552
 30
0.0
 10
12.7660557371
 20
7.4330494337
 30
0.0
 10
12.7673848077
 20
7.4424922676
 30
0.0
 10
12.7688371238
 20
7.451755517
 30
0.0
 10
12.7704078802
 20
7.4608085713
 30
0.0
 10
12.772091845
 20
7.4696214971
 30
0.0
 10
12.7738834169
 20
7.4781651705
 30
0.0
 10
12.7757766317
 20
7.4864113646
 30
0.0
 10
12.7777651873
 20
7.4943328503
 30
0.0
 10
12.7798424566
 20
7.5019034948
 30
0.0
 10
12.782001511
 20
7.5090983561
 30
0.0
 10
12.7842351506
 20
7.5158937679
 30
0.0
 10
12.78653593
 20
7.5222674361
 30
0.0
 10
12.7888961901
 20
7.5281985018
 30
0.0
 10
12.7913081049
 20
7.5336677409
 30
0.0
 10
12.7937636982
 20
7.5386573306
 30
0.0
 10
12.7958829334
 20
7.5424807113
 30
0.0
 10
12.7975999617
 20
7.5452789778
 30
0.0
 10
12.7988659015
 20
7.547202543
 30
0.0
 10
12.8001367471
 20
7.5489947785
 30
0.0
 10
12.8014114706
 20
7.5506542644
 30
0.0
 10
12.8026891187
 20
7.5521796367
 30
0.0
 10
12.8039686704
 20
7.5535696992
 30
0.0
 10
12.8052491865
 20
7.5548233235
 30
0.0
 10
12.8065297549
 20
7.5559394659
 30
0.0
 10
12.8078094415
 20
7.5569172238
 30
0.0
 10
12.8090874316
 20
7.5577556485
 30
0.0
 10
12.8103628252
 20
7.5584539398
 30
0.0
 10
12.8116347712
 20
7.5590112295
 30
0.0
 10
12.8129022937
 20
7.5594266617
 30
0.0
 10
12.8141643277
 20
7.5596995003
 30
0.0
 10
12.815419364
 20
7.5598289919
 30
0.0
 10
12.8162525968
 20
7.5598194642
 30
0.0
 10
12.8166646281
 20
7.5597908849
 30
0.0
  0
SPLINE
  5
385
100
AcDbEntity
  8
0
100
AcDbSpline
 62
7
  6
CONTINUOUS
 70
0
 71
3
 72
43
 73
39
 74
0
 42
0.0000001
 43
0.0000001
 44
0.0000000001
 40
0.0
 40
0.0
 40
0.0
 40
0.0
 40
0.0840366067
 40
0.1695051419
 40
0.2553480795
 40
0.3405006175
 40
0.3824890317
 40
0.423911563
 40
0.4646409869
 40
0.5045528995
 40
0.5435262737
 40
0.581444007
 40
0.6181935033
 40
0.6536672919
 40
0.6877637364
 40
0.7203877842
 40
0.7514517754
 40
0.7808764263
 40
0.8085920333
 40
0.8345400414
 40
0.858675074
 40
0.8809676136
 40
0.891420173
 40
0.9014104073
 40
0.9109410658
 40
0.9200170958
 40
0.9286456087
 40
0.936836736
 40
0.9446037192
 40
0.9519636423
 40
0.9589381497
 40
0.9655538576
 40
0.9718434317
 40
0.9778458824
 40
0.9836071138
 40
0.989179879
 40
0.994622983
 40
1.0
 40
1.0
 40
1.0
 40
1.0
 10
12.0484960929
 20
6.6577035941
 30
0.0
 10
12.0484960929
 20
6.6641586436
 30
0.0
 10
12.0486986595
 20
6.6771794735
 30
0.0
 10
12.0495777027
 20
6.6967762479
 30
0.0
 10
12.0510244194
 20
6.716425322
 30
0.0
 10
12.0526947133
 20
6.7327021818
 30
0.0
 10
12.0543039505
 20
6.7455499603
 30
0.0
 10
12.0556330211
 20
6.7549927942
 30
0.0
 10
12.0570853372
 20
6.7642560436
 30
0.0
 10
12.0586560936
 20
6.7733090979
 30
0.0
 10
12.0603400584
 20
6.7821220238
 30
0.0
 10
12.0621316302
 20
6.7906656971
 30
0.0
 10
12.0640248451
 20
6.7989118912
 30
0.0
 10
12.0660134007
 20
6.806833377
 30
0.0
 10
12.06809067
 20
6.8144040214
 30
0.0
 10
12.0702497243
 20
6.8215988827
 30
0.0
 10
12.072483364
 20
6.8283942946
 30
0.0
 10
12.0747841434
 20
6.8347679627
 30
0.0
 10
12.0771444035
 20
6.8406990285
 30
0.0
 10
12.0795563183
 20
6.8461682675
 30
0.0
 10
12.0820119116
 20
6.8511578572
 30
0.0
 10
12.0841311467
 20
6.854981238
 30
0.0
 10
12.085848175
 20
6.8577795044
 30
0.0
 10
12.0871141148
 20
6.8597030697
 30
0.0
 10
12.0883849605
 20
6.8614953051
 30
0.0
 10
12.0896596839
 20
6.8631547911
 30
0.0
 10
12.090937332
 20
6.8646801634
 30
0.0
 10
12.0922168837
 20
6.8660702259
 30
0.0
 10
12.0934973999
 20
6.8673238502
 30
0.0
 10
12.0947779683
 20
6.8684399925
 30
0.0
 10
12.0960576549
 20
6.8694177505
 30
0.0
 10
12.097335645
 20
6.8702561751
 30
0.0
 10
12.0986110386
 20
6.8709544665
 30
0.0
 10
12.0998829846
 20
6.8715117561
 30
0.0
 10
12.1011505071
 20
6.8719271884
 30
0.0
 10
12.1024125411
 20
6.872200027
 30
0.0
 10
12.1036675773
 20
6.8723295186
 30
0.0
 10
12.1045008101
 20
6.8723199909
 30
0.0
 10
12.1049128415
 20
6.8722914116
 30
0.0
  0
SPLINE
  5
386
100
AcDbEntity
  8
0
100
AcDbSpline
 62
7
  6
CONTINUOUS
 70
0
 71
3
 72
23
 73
19
 74
0
 42
0.0000001
 43
0.0000001
 44
0.0000000001
 40
0.0
 40
0.0
 40
0.0
 40
0.0
 40
0.0637773819
 40
0.1273447421
 40
0.1907019992
 40
0.253856141
 40
0.3168131832
 40
0.3795820983
 40
0.4421733889
 40
0.504599339
 40
0.5668738661
 40
0.6290123801
 40
0.6910316522
 40
0.752949648
 40
0.8147853569
 40
0.876558605
 40
0.9382898554
 40
1.0
 40
1.0
 40
1.0
 40
1.0
 10
11.5760487083
 20
7.3702988494
 30
0.0
 10
11.5760487083
 20
7.363656741
 30
0.0
 10
11.575730801
 20
7.3503921457
 30
0.0
 10
11.5742958683
 20
7.3305759215
 30
0.0
 10
11.5719067355
 20
7.3109168122
 30
0.0
 10
11.5685690538
 20
7.2914608878
 30
0.0
 10
11.5642903374
 20
7.2722526948
 30
0.0
 10
11.559080459
 20
7.2533366148
 30
0.0
 10
11.5529513576
 20
7.2347562362
 30
0.0
 10
11.5459171397
 20
7.2165544082
 30
0.0
 10
11.53799399
 20
7.1987731058
 30
0.0
 10
11.5292001423
 20
7.1814533414
 30
0.0
 10
11.5195558451
 20
7.1646350717
 30
0.0
 10
11.5090832954
 20
7.1483570937
 30
0.0
 10
11.4978066618
 20
7.1326569971
 30
0.0
 10
11.4857518195
 20
7.1175708712
 30
0.0
 10
11.4729470382
 20
7.1031339942
 30
0.0
 10
11.4639285522
 20
7.093962743
 30
0.0
 10
11.4593060282
 20
7.0894977424
 30
0.0
  0
SPLINE
  5
387
100
AcDbEntity
  8
0
100
AcDbSpline
 62
7
  6
CONTINUOUS
 70
0
 71
3
 72
36
 73
32
 74
0
 42
0.0000001
 43
0.0000001
 44
0.0000000001
 40
0.0
 40
0.0
 40
0.0
 40
0.0
 40
0.0080882732
 40
0.0161750704
 40
0.0242973469
 40
0.0324913055
 40
0.0407918811
 40
0.0492322107
 40
0.0666404018
 40
0.0849359599
 40
0.1042862937
 40
0.1248185152
 40
0.1466242184
 40
0.1697645165
 40
0.1942745699
 40
0.2201674625
 40
0.2474374069
 40
0.2760624287
 40
0.3060067649
 40
0.3372231188
 40
0.3696548756
 40
0.4032382388
 40
0.4379042837
 40
0.4735810013
 40
0.5101953605
 40
0.5859246414
 40
0.6645742661
 40
0.7456664615
 40
0.8288040086
 40
0.913666949
 40
1.0
 40
1.0
 40
1.0
 40
1.0
 10
11.2748182402
 20
7.546953388
 30
0.0
 10
11.2742789179
 20
7.5464324426
 30
0.0
 10
11.2731613279
 20
7.5454301937
 30
0.0
 10
11.2713753653
 20
7.54405428
 30
0.0
 10
11.2694838587
 20
7.5428093827
 30
0.0
 10
11.2674888669
 20
7.5416970632
 30
0.0
 10
11.2653922965
 20
7.5407186563
 30
0.0
 10
11.2624347995
 20
7.5395830466
 30
0.0
 10
11.2584715048
 20
7.5385124909
 30
0.0
 10
11.2534047961
 20
7.5378066521
 30
0.0
 10
11.2480020899
 20
7.5376764241
 30
0.0
 10
11.2422921482
 20
7.5381341162
 30
0.0
 10
11.2363063142
 20
7.5391920511
 30
0.0
 10
11.2300799263
 20
7.5408623662
 30
0.0
 10
11.2236520687
 20
7.543155985
 30
0.0
 10
11.2170655017
 20
7.5460817961
 30
0.0
 10
11.2103662711
 20
7.5496458216
 30
0.0
 10
11.2036031571
 20
7.553850471
 30
0.0
 10
11.1968269682
 20
7.5586939632
 30
0.0
 10
11.1900897092
 20
7.5641699214
 30
0.0
 10
11.1834436788
 20
7.5702671667
 30
0.0
 10
11.1769405153
 20
7.5769697347
 30
0.0
 10
11.1706303762
 20
7.5842569945
 30
0.0
 10
11.1645608198
 20
7.5921043994
 30
0.0
 10
11.1567617961
 20
7.603401938
 30
0.0
 10
11.1478875291
 20
7.6187646033
 30
0.0
 10
11.1389373076
 20
7.638714189
 30
0.0
 10
11.1317794872
 20
7.660100375
 30
0.0
 10
11.1265702879
 20
7.6826331989
 30
0.0
 10
11.123412227
 20
7.7060310622
 30
0.0
 10
11.1227183902
 20
7.7219117309
 30
0.0
 10
11.1227183902
 20
7.7299153614
 30
0.0
  0
SPLINE
  5
388
100
AcDbEntity
  8
0
100
AcDbSpline
 62
7
  6
CONTINUOUS
 70
0
 71
3
 72
42
 73
38
 74
0
 42
0.0000001
 43
0.0000001
 44
0.0000000001
 40
0.0
 40
0.0
 40
0.0
 40
0.0
 40
0.0310747994
 40
0.0623068214
 40
0.0936914668
 40
0.1252200761
 40
0.1568812704
 40
0.1886608695
 40
0.2205422655
 40
0.252506785
 40
0.2845340782
 40
0.3166025393
 40
0.348689743
 40
0.3807728914
 40
0.4128292674
 40
0.4448366859
 40
0.476773938
 40
0.5086212222
 40
0.5403605553
 40
0.5719761539
 40
0.6034547822
 40
0.6347860628
 40
0.6659627313
 40
0.6969808354
 40
0.727839872
 40
0.7585428534
 40
0.7890962907
 40
0.8195100975
 40
0.8497974136
 40
0.879974339
 40
0.9100595866
 40
0.9250772215
 40
0.9400799309
 40
0.9550705904
 40
0.9700521462
 40
0.9850276023
 40
1.0
 40
1.0
 40
1.0
 40
1.0
 10
11.5760487083
 20
7.3702988494
 30
0.0
 10
11.5760487083
 20
7.3806040528
 30
0.0
 10
11.5752799595
 20
7.4012745285
 30
0.0
 10
11.5718476845
 20
7.4321812827
 30
0.0
 10
11.5661526969
 20
7.4629065552
 30
0.0
 10
11.5582264649
 20
7.4932794442
 30
0.0
 10
11.5481128488
 20
7.5231337346
 30
0.0
 10
11.5358676518
 20
7.5523054205
 30
0.0
 10
11.5215583099
 20
7.5806344588
 30
0.0
 10
11.5052635095
 20
7.6079653727
 30
0.0
 10
11.4870728381
 20
7.6341482086
 30
0.0
 10
11.4670862441
 20
7.659039312
 30
0.0
 10
11.445413464
 20
7.6825020843
 30
0.0
 10
11.4221734458
 20
7.7044077286
 30
0.0
 10
11.397493758
 20
7.7246360117
 30
0.0
 10
11.3715098261
 20
7.7430758535
 30
0.0
 10
11.3443642022
 20
7.7596259178
 30
0.0
 10
11.3162058288
 20
7.7741952138
 30
0.0
 10
11.2871892295
 20
7.7867036094
 30
0.0
 10
11.2574736379
 20
7.7970822051
 30
0.0
 10
11.2272221497
 20
7.8052737117
 30
0.0
 10
11.1966008658
 20
7.811232862
 30
0.0
 10
11.1657779653
 20
7.8149266026
 30
0.0
 10
11.134922798
 20
7.8163342556
 30
0.0
 10
11.1042049731
 20
7.8154476713
 30
0.0
 10
11.0737934368
 20
7.8122713703
 30
0.0
 10
11.0438555126
 20
7.8068224195
 30
0.0
 10
11.0145561177
 20
7.7991304359
 30
0.0
 10
10.9860563842
 20
7.7892372267
 30
0.0
 10
10.958514425
 20
7.7771976638
 30
0.0
 10
10.936469856
 20
7.7654212977
 30
0.0
 10
10.9194719718
 20
7.7550026262
 30
0.0
 10
10.907060481
 20
7.7467028352
 30
0.0
 10
10.8949974026
 20
7.7379250542
 30
0.0
 10
10.883299032
 20
7.7286811471
 30
0.0
 10
10.8719817084
 20
7.7189841507
 30
0.0
 10
10.8647004748
 20
7.7122254972
 30
0.0
 10
10.8611292028
 20
7.7087759248
 30
0.0
  0
SPLINE
  5
389
100
AcDbEntity
  8
0
100
AcDbSpline
 62
7
  6
CONTINUOUS
 70
0
 71
3
 72
11
 73
7
 74
0
 42
0.0000001
 43
0.0000001
 44
0.0000000001
 40
0.0
 40
0.0
 40
0.0
 40
0.0
 40
0.2465406525
 40
0.4957389936
 40
0.7470980862
 40
1.0
 40
1.0
 40
1.0
 40
1.0
 10
11.1227183902
 20
7.7299153614
 30
0.0
 10
11.1227183902
 20
7.7370923765
 30
0.0
 10
11.1232840023
 20
7.751529532
 30
0.0
 10
11.1257818298
 20
7.7731538635
 30
0.0
 10
11.1298988782
 20
7.7947169144
 30
0.0
 10
11.1336756461
 20
7.8089167472
 30
0.0
 10
11.1358102113
 20
7.8159627089
 30
0.0
  0
SPLINE
  5
38A
100
AcDbEntity
  8
0
100
AcDbSpline
 62
7
  6
CONTINUOUS
 70
0
 71
3
 72
23
 73
19
 74
0
 42
0.0000001
 43
0.0000001
 44
0.0000000001
 40
0.0
 40
0.0
 40
0.0
 40
0.0
 40
0.0637773819
 40
0.1273447421
 40
0.1907019992
 40
0.253856141
 40
0.3168131832
 40
0.3795820983
 40
0.4421733889
 40
0.504599339
 40
0.5668738661
 40
0.6290123801
 40
0.6910316522
 40
0.752949648
 40
0.8147853569
 40
0.876558605
 40
0.9382898554
 40
1.0
 40
1.0
 40
1.0
 40
1.0
 10
10.3686413539
 20
7.4540328338
 30
0.0
 10
10.3686413539
 20
7.4473907254
 30
0.0
 10
10.3683234466
 20
7.4341261301
 30
0.0
 10
10.3668885139
 20
7.414309906
 30
0.0
 10
10.3644993811
 20
7.3946507966
 30
0.0
 10
10.3611616994
 20
7.3751948722
 30
0.0
 10
10.356882983
 20
7.3559866792
 30
0.0
 10
10.3516731046
 20
7.3370705992
 30
0.0
 10
10.3455440032
 20
7.3184902206
 30
0.0
 10
10.3385097853
 20
7.3002883926
 30
0.0
 10
10.3305866356
 20
7.2825070902
 30
0.0
 10
10.3217927879
 20
7.2651873258
 30
0.0
 10
10.3121484907
 20
7.2483690562
 30
0.0
 10
10.301675941
 20
7.2320910782
 30
0.0
 10
10.2903993074
 20
7.2163909815
 30
0.0
 10
10.2783444651
 20
7.2013048556
 30
0.0
 10
10.2655396838
 20
7.1868679786
 30
0.0
 10
10.2565211978
 20
7.1776967274
 30
0.0
 10
10.2518986738
 20
7.1732317269
 30
0.0
  0
SPLINE
  5
38B
100
AcDbEntity
  8
0
100
AcDbSpline
 62
7
  6
CONTINUOUS
 70
0
 71
3
 72
42
 73
38
 74
0
 42
0.0000001
 43
0.0000001
 44
0.0000000001
 40
0.0
 40
0.0
 40
0.0
 40
0.0
 40
0.0310747994
 40
0.0623068214
 40
0.0936914668
 40
0.1252200761
 40
0.1568812704
 40
0.1886608695
 40
0.2205422655
 40
0.252506785
 40
0.2845340782
 40
0.3166025393
 40
0.348689743
 40
0.3807728914
 40
0.4128292674
 40
0.4448366859
 40
0.476773938
 40
0.5086212222
 40
0.5403605553
 40
0.5719761539
 40
0.6034547822
 40
0.6347860628
 40
0.6659627313
 40
0.6969808354
 40
0.727839872
 40
0.7585428534
 40
0.7890962907
 40
0.8195100975
 40
0.8497974136
 40
0.879974339
 40
0.9100595866
 40
0.9250772215
 40
0.9400799309
 40
0.9550705904
 40
0.9700521462
 40
0.9850276023
 40
1.0
 40
1.0
 40
1.0
 40
1.0
 10
10.3686413539
 20
7.4540328338
 30
0.0
 10
10.3686413539
 20
7.4643380372
 30
0.0
 10
10.3678726051
 20
7.4850085129
 30
0.0
 10
10.3644403301
 20
7.5159152671
 30
0.0
 10
10.3587453425
 20
7.5466405396
 30
0.0
 10
10.3508191105
 20
7.5770134287
 30
0.0
 10
10.3407054944
 20
7.606867719
 30
0.0
 10
10.3284602974
 20
7.6360394049
 30
0.0
 10
10.3141509555
 20
7.6643684433
 30
0.0
 10
10.2978561551
 20
7.6916993571
 30
0.0
 10
10.2796654837
 20
7.7178821931
 30
0.0
 10
10.2596788897
 20
7.7427732964
 30
0.0
 10
10.2380061096
 20
7.7662360687
 30
0.0
 10
10.2147660914
 20
7.788141713
 30
0.0
 10
10.1900864036
 20
7.8083699961
 30
0.0
 10
10.1641024717
 20
7.8268098379
 30
0.0
 10
10.1369568478
 20
7.8433599022
 30
0.0
 10
10.1087984744
 20
7.8579291982
 30
0.0
 10
10.0797818751
 20
7.8704375938
 30
0.0
 10
10.0500662835
 20
7.8808161895
 30
0.0
 10
10.0198147953
 20
7.8890076962
 30
0.0
 10
9.9891935113
 20
7.8949668464
 30
0.0
 10
9.9583706109
 20
7.898660587
 30
0.0
 10
9.9275154436
 20
7.90006824
 30
0.0
 10
9.8967976187
 20
7.8991816557
 30
0.0
 10
9.8663860824
 20
7.8960053547
 30
0.0
 10
9.8364481582
 20
7.8905564039
 30
0.0
 10
9.8071487633
 20
7.8828644204
 30
0.0
 10
9.7786490298
 20
7.8729712111
 30
0.0
 10
9.7511070706
 20
7.8609316482
 30
0.0
 10
9.7290625016
 20
7.8491552821
 30
0.0
 10
9.7120646174
 20
7.8387366106
 30
0.0
 10
9.6996531266
 20
7.8304368196
 30
0.0
 10
9.6875900482
 20
7.8216590386
 30
0.0
 10
9.6758916776
 20
7.8124151315
 30
0.0
 10
9.664574354
 20
7.8027181352
 30
0.0
 10
9.6572931204
 20
7.7959594816
 30
0.0
 10
9.6537218484
 20
7.7925099092
 30
0.0
  0
SPLINE
  5
38C
100
AcDbEntity
  8
0
100
AcDbSpline
 62
7
  6
CONTINUOUS
 70
0
 71
3
 72
23
 73
19
 74
0
 42
0.0000001
 43
0.0000001
 44
0.0000000001
 40
0.0
 40
0.0
 40
0.0
 40
0.0
 40
0.0637765977
 40
0.1273450691
 40
0.1907019728
 40
0.2538560883
 40
0.3168132203
 40
0.3795820796
 40
0.4421733855
 40
0.5045993402
 40
0.566873864
 40
0.6290123768
 40
0.6910316495
 40
0.7529496457
 40
0.8147853522
 40
0.8765585995
 40
0.9382898533
 40
1.0
 40
1.0
 40
1.0
 40
1.0
 10
11.5607951302
 20
8.5266190822
 30
0.0
 10
11.5607951302
 20
8.5222836362
 30
0.0
 10
11.5605876007
 20
8.5136254238
 30
0.0
 10
11.5596510109
 20
8.5006907917
 30
0.0
 10
11.5580915396
 20
8.4878586647
 30
0.0
 10
11.5559129464
 20
8.4751592297
 30
0.0
 10
11.5531200895
 20
8.4626214798
 30
0.0
 10
11.5497194372
 20
8.4502743989
 30
0.0
 10
11.5457188152
 20
8.4381464353
 30
0.0
 10
11.5411273773
 20
8.4262655646
 30
0.0
 10
11.5359556913
 20
8.4146591921
 30
0.0
 10
11.5302156878
 20
8.4033540741
 30
0.0
 10
11.523920581
 20
8.39237629
 30
0.0
 10
11.5170848336
 20
8.3817511796
 30
0.0
 10
11.5097242395
 20
8.3715032685
 30
0.0
 10
11.5018556955
 20
8.3616561073
 30
0.0
 10
11.493497657
 20
8.3522327149
 30
0.0
 10
11.4876109949
 20
8.346246401
 30
0.0
 10
11.4845937492
 20
8.3433319518
 30
0.0
  0
SPLINE
  5
38D
100
AcDbEntity
  8
0
100
AcDbSpline
 62
7
  6
CONTINUOUS
 70
0
 71
3
 72
39
 73
35
 74
0
 42
0.0000001
 43
0.0000001
 44
0.0000000001
 40
0.0
 40
0.0
 40
0.0
 40
0.0
 40
0.0310753389
 40
0.0623079046
 40
0.0936931359
 40
0.1252222867
 40
0.1568840447
 40
0.188664204
 40
0.2205461642
 40
0.252511249
 40
0.2845391085
 40
0.3166081366
 40
0.3486959074
 40
0.3807796228
 40
0.4128365654
 40
0.4448445498
 40
0.476782367
 40
0.5086302146
 40
0.5403701085
 40
0.5719862649
 40
0.6034654497
 40
0.6347972845
 40
0.6659745042
 40
0.696993157
 40
0.7278527401
 40
0.7585562641
 40
0.7891102404
 40
0.8195245845
 40
0.8498124362
 40
0.879989895
 40
0.9100756746
 40
0.9400906813
 40
0.9700575289
 40
1.0
 40
1.0
 40
1.0
 40
1.0
 10
11.5607951302
 20
8.5266190822
 30
0.0
 10
11.5607951302
 20
8.533345589
 30
0.0
 10
11.5602933494
 20
8.5468378121
 30
0.0
 10
11.5580529972
 20
8.5670115608
 30
0.0
 10
11.554335707
 20
8.5870668497
 30
0.0
 10
11.5491620113
 20
8.6068921277
 30
0.0
 10
11.5425605733
 20
8.6263789022
 30
0.0
 10
11.5345677759
 20
8.6454201209
 30
0.0
 10
11.5252276445
 20
8.6639113144
 30
0.0
 10
11.5145915534
 20
8.6817510072
 30
0.0
 10
11.5027179689
 20
8.6988413147
 30
0.0
 10
11.4896721239
 20
8.715088463
 30
0.0
 10
11.4755256562
 20
8.7304032964
 30
0.0
 10
11.460356221
 20
8.7447017612
 30
0.0
 10
11.4442470679
 20
8.7579053614
 30
0.0
 10
11.4272865903
 20
8.7699415855
 30
0.0
 10
11.4095678453
 20
8.7807443008
 30
0.0
 10
11.3911880502
 20
8.7902541136
 30
0.0
 10
11.3722480603
 20
8.7984187044
 30
0.0
 10
11.3528518166
 20
8.8051931051
 30
0.0
 10
11.3331057834
 20
8.810539947
 30
0.0
 10
11.3131183732
 20
8.8144296682
 30
0.0
 10
11.2929993601
 20
8.8168406806
 30
0.0
 10
11.2728592857
 20
8.8177594958
 30
0.0
 10
11.2528088589
 20
8.8171808067
 30
0.0
 10
11.2329583534
 20
8.8151075366
 30
0.0
 10
11.2134170024
 20
8.8115508372
 30
0.0
 10
11.1942923962
 20
8.8065300307
 30
0.0
 10
11.1756898969
 20
8.8000725298
 30
0.0
 10
11.1577120148
 20
8.7922136658
 30
0.0
 10
11.1404579689
 20
8.7829966363
 30
0.0
 10
11.1240226201
 20
8.7724717955
 30
0.0
 10
11.1084978143
 20
8.7606981721
 30
0.0
 10
11.0988078507
 20
8.7520558758
 30
0.0
 10
11.0941461646
 20
8.7475530119
 30
0.0
  0
SPLINE
  5
38E
100
AcDbEntity
  8
0
100
AcDbSpline
 62
7
  6
CONTINUOUS
 70
0
 71
3
 72
23
 73
19
 74
0
 42
0.0000001
 43
0.0000001
 44
0.0000000001
 40
0.0
 40
0.0
 40
0.0
 40
0.0
 40
0.0637765977
 40
0.1273450691
 40
0.1907019728
 40
0.2538560883
 40
0.3168132203
 40
0.3795820796
 40
0.4421733855
 40
0.5045993402
 40
0.566873864
 40
0.6290123768
 40
0.6910316495
 40
0.7529496457
 40
0.8147853522
 40
0.8765585995
 40
0.9382898533
 40
1.0
 40
1.0
 40
1.0
 40
1.0
 10
10.1119063049
 20
8.6270998635
 30
0.0
 10
10.1119063049
 20
8.6227644175
 30
0.0
 10
10.1116987754
 20
8.6141062051
 30
0.0
 10
10.1107621856
 20
8.601171573
 30
0.0
 10
10.1092027143
 20
8.588339446
 30
0.0
 10
10.1070241211
 20
8.575640011
 30
0.0
 10
10.1042312642
 20
8.5631022611
 30
0.0
 10
10.100830612
 20
8.5507551802
 30
0.0
 10
10.0968299899
 20
8.5386272166
 30
0.0
 10
10.092238552
 20
8.5267463459
 30
0.0
 10
10.0870668661
 20
8.5151399734
 30
0.0
 10
10.0813268626
 20
8.5038348554
 30
0.0
 10
10.0750317557
 20
8.4928570713
 30
0.0
 10
10.0681960083
 20
8.4822319609
 30
0.0
 10
10.0608354142
 20
8.4719840498
 30
0.0
 10
10.0529668702
 20
8.4621368886
 30
0.0
 10
10.0446088317
 20
8.4527134963
 30
0.0
 10
10.0387221696
 20
8.4467271823
 30
0.0
 10
10.0357049239
 20
8.4438127331
 30
0.0
  0
SPLINE
  5
38F
100
AcDbEntity
  8
0
100
AcDbSpline
 62
7
  6
CONTINUOUS
 70
0
 71
3
 72
39
 73
35
 74
0
 42
0.0000001
 43
0.0000001
 44
0.0000000001
 40
0.0
 40
0.0
 40
0.0
 40
0.0
 40
0.0310753389
 40
0.0623079046
 40
0.0936931359
 40
0.1252222867
 40
0.1568840447
 40
0.188664204
 40
0.2205461642
 40
0.252511249
 40
0.2845391085
 40
0.3166081366
 40
0.3486959074
 40
0.3807796228
 40
0.4128365654
 40
0.4448445498
 40
0.476782367
 40
0.5086302146
 40
0.5403701085
 40
0.5719862649
 40
0.6034654497
 40
0.6347972845
 40
0.6659745042
 40
0.696993157
 40
0.7278527401
 40
0.7585562641
 40
0.7891102404
 40
0.8195245845
 40
0.8498124362
 40
0.879989895
 40
0.9100756746
 40
0.9400906813
 40
0.9700575289
 40
1.0
 40
1.0
 40
1.0
 40
1.0
 10
10.1119063049
 20
8.6270998635
 30
0.0
 10
10.1119063049
 20
8.6338263704
 30
0.0
 10
10.1114045241
 20
8.6473185934
 30
0.0
 10
10.1091641719
 20
8.6674923421
 30
0.0
 10
10.1054468817
 20
8.687547631
 30
0.0
 10
10.100273186
 20
8.707372909
 30
0.0
 10
10.093671748
 20
8.7268596835
 30
0.0
 10
10.0856789506
 20
8.7459009022
 30
0.0
 10
10.0763388192
 20
8.7643920957
 30
0.0
 10
10.0657027281
 20
8.7822317885
 30
0.0
 10
10.0538291437
 20
8.799322096
 30
0.0
 10
10.0407832986
 20
8.8155692443
 30
0.0
 10
10.0266368309
 20
8.8308840777
 30
0.0
 10
10.0114673957
 20
8.8451825425
 30
0.0
 10
9.9953582426
 20
8.8583861427
 30
0.0
 10
9.978397765
 20
8.8704223668
 30
0.0
 10
9.96067902
 20
8.8812250821
 30
0.0
 10
9.9422992249
 20
8.8907348949
 30
0.0
 10
9.9233592351
 20
8.8988994857
 30
0.0
 10
9.9039629913
 20
8.9056738864
 30
0.0
 10
9.8842169581
 20
8.9110207283
 30
0.0
 10
9.8642295479
 20
8.9149104495
 30
0.0
 10
9.8441105348
 20
8.9173214619
 30
0.0
 10
9.8239704604
 20
8.9182402771
 30
0.0
 10
9.8039200337
 20
8.917661588
 30
0.0
 10
9.7840695281
 20
8.9155883179
 30
0.0
 10
9.7645281771
 20
8.9120316185
 30
0.0
 10
9.7454035709
 20
8.907010812
 30
0.0
 10
9.7268010716
 20
8.9005533111
 30
0.0
 10
9.7088231895
 20
8.8926944471
 30
0.0
 10
9.6915691436
 20
8.8834774176
 30
0.0
 10
9.6751337948
 20
8.8729525768
 30
0.0
 10
9.659608989
 20
8.8611789534
 30
0.0
 10
9.6499190254
 20
8.8525366571
 30
0.0
 10
9.6452573393
 20
8.8480337932
 30
0.0
  0
SPLINE
  5
390
100
AcDbEntity
  8
0
100
AcDbSpline
 62
7
  6
CONTINUOUS
 70
0
 71
3
 72
52
 73
48
 74
0
 42
0.0000001
 43
0.0000001
 44
0.0000000001
 40
0.0
 40
0.0
 40
0.0
 40
0.0
 40
0.0055575385
 40
0.0111779654
 40
0.0169219129
 40
0.0228458065
 40
0.0290006049
 40
0.0354310191
 40
0.0421754984
 40
0.0492663608
 40
0.0567304501
 40
0.0645895722
 40
0.0728612975
 40
0.0815593507
 40
0.0906943324
 40
0.1002739614
 40
0.1103036706
 40
0.120786711
 40
0.131724639
 40
0.1431173184
 40
0.1549633281
 40
0.1672598946
 40
0.1800032447
 40
0.1931884924
 40
0.2068099532
 40
0.2208610037
 40
0.2353343665
 40
0.2502219557
 40
0.2812037941
 40
0.3137309028
 40
0.3477182693
 40
0.383073415
 40
0.4196972551
 40
0.4574848508
 40
0.4963260881
 40
0.5361063043
 40
0.5767068783
 40
0.6180057966
 40
0.6598782005
 40
0.7021969227
 40
0.7448330149
 40
0.7876562701
 40
0.8305357432
 40
0.8733402649
 40
0.9159389686
 40
0.9582017827
 40
1.0
 40
1.0
 40
1.0
 40
1.0
 10
12.3814108891
 20
9.8489987449
 30
0.0
 10
12.381410885
 20
9.8479337725
 30
0.0
 10
12.3812916022
 20
9.8457899256
 30
0.0
 10
12.3807564665
 20
9.8425855892
 30
0.0
 10
12.3798658552
 20
9.8393884158
 30
0.0
 10
12.3786216284
 20
9.8362020767
 30
0.0
 10
12.3770257167
 20
9.8330292033
 30
0.0
 10
12.3750803755
 20
9.8298721688
 30
0.0
 10
12.3727877199
 20
9.8267332064
 30
0.0
 10
12.370150087
 20
9.8236143594
 30
0.0
 10
12.3671697576
 20
9.8205178023
 30
0.0
 10
12.3638492973
 20
9.8174456115
 30
0.0
 10
12.3601913479
 20
9.814400058
 30
0.0
 10
12.3561988861
 20
9.8113833177
 30
0.0
 10
12.3518750489
 20
9.8083977468
 30
0.0
 10
12.3472233186
 20
9.8054455835
 30
0.0
 10
12.3422473788
 20
9.8025292165
 30
0.0
 10
12.3369512465
 20
9.7996508977
 30
0.0
 10
12.3313391579
 20
9.7968130032
 30
0.0
 10
12.3254156629
 20
9.7940177614
 30
0.0
 10
12.3191855369
 20
9.7912675049
 30
0.0
 10
12.312653849
 20
9.7885644134
 30
0.0
 10
12.3058258935
 20
9.7859107551
 30
0.0
 10
12.2987072397
 20
9.7833086444
 30
0.0
 10
12.2913036788
 20
9.780760269
 30
0.0
 10
12.2836212612
 20
9.778267671
 30
0.0
 10
12.2756662435
 20
9.7758329255
 30
0.0
 10
12.2645567985
 20
9.7726237062
 30
0.0
 10
12.2500310914
 20
9.7687821197
 30
0.0
 10
12.2318453576
 20
9.7644922737
 30
0.0
 10
12.2127398423
 20
9.7604776449
 30
0.0
 10
12.1927770483
 20
9.7567515036
 30
0.0
 10
12.1720221573
 20
9.7533261938
 30
0.0
 10
12.1505430518
 20
9.7502130492
 30
0.0
 10
12.1284100085
 20
9.7474223683
 30
0.0
 10
12.1056954796
 20
9.744963378
 30
0.0
 10
12.0824738427
 20
9.7428442054
 30
0.0
 10
12.0588211539
 20
9.741071852
 30
0.0
 10
12.0348148941
 20
9.7396521717
 30
0.0
 10
12.0105337118
 20
9.7385898525
 30
0.0
 10
11.9860571632
 20
9.7378884017
 30
0.0
 10
11.9614654493
 20
9.7375501347
 30
0.0
 10
11.9368391494
 20
9.7375761682
 30
0.0
 10
11.9122589635
 20
9.7379664159
 30
0.0
 10
11.8878054141
 20
9.7387195911
 30
0.0
 10
11.8635587046
 20
9.7398332025
 30
0.0
 10
11.8474798435
 20
9.7408199074
 30
0.0
 10
11.8394893832
 20
9.7413740477
 30
0.0
  0
SPLINE
  5
391
100
AcDbEntity
  8
0
100
AcDbSpline
 62
7
  6
CONTINUOUS
 70
0
 71
3
 72
52
 73
48
 74
0
 42
0.0000001
 43
0.0000001
 44
0.0000000001
 40
0.0
 40
0.0
 40
0.0
 40
0.0
 40
0.0055575385
 40
0.0111779654
 40
0.0169219129
 40
0.0228458065
 40
0.0290006049
 40
0.0354310191
 40
0.0421754984
 40
0.0492663608
 40
0.0567304501
 40
0.0645895722
 40
0.0728612975
 40
0.0815593507
 40
0.0906943324
 40
0.1002739614
 40
0.1103036706
 40
0.120786711
 40
0.131724639
 40
0.1431173184
 40
0.1549633281
 40
0.1672598946
 40
0.1800032447
 40
0.1931884924
 40
0.2068099532
 40
0.2208610037
 40
0.2353343665
 40
0.2502219557
 40
0.2812037941
 40
0.3137309028
 40
0.3477182693
 40
0.383073415
 40
0.4196972551
 40
0.4574848508
 40
0.4963260881
 40
0.5361063043
 40
0.5767068783
 40
0.6180057966
 40
0.6598782005
 40
0.7021969227
 40
0.7448330149
 40
0.7876562701
 40
0.8305357432
 40
0.8733402649
 40
0.9159389686
 40
0.9582017827
 40
1.0
 40
1.0
 40
1.0
 40
1.0
 10
10.9325220638
 20
9.9494795262
 30
0.0
 10
10.9325220597
 20
9.9484145538
 30
0.0
 10
10.9324027769
 20
9.9462707069
 30
0.0
 10
10.9318676412
 20
9.9430663705
 30
0.0
 10
10.9309770299
 20
9.9398691971
 30
0.0
 10
10.9297328031
 20
9.936682858
 30
0.0
 10
10.9281368914
 20
9.9335099846
 30
0.0
 10
10.9261915502
 20
9.9303529501
 30
0.0
 10
10.9238988946
 20
9.9272139877
 30
0.0
 10
10.9212612617
 20
9.9240951407
 30
0.0
 10
10.9182809323
 20
9.9209985837
 30
0.0
 10
10.914960472
 20
9.9179263928
 30
0.0
 10
10.9113025226
 20
9.9148808393
 30
0.0
 10
10.9073100608
 20
9.911864099
 30
0.0
 10
10.9029862236
 20
9.9088785282
 30
0.0
 10
10.8983344933
 20
9.9059263648
 30
0.0
 10
10.8933585535
 20
9.9030099978
 30
0.0
 10
10.8880624213
 20
9.900131679
 30
0.0
 10
10.8824503326
 20
9.8972937845
 30
0.0
 10
10.8765268376
 20
9.8944985427
 30
0.0
 10
10.8702967117
 20
9.8917482862
 30
0.0
 10
10.8637650237
 20
9.8890451948
 30
0.0
 10
10.8569370682
 20
9.8863915364
 30
0.0
 10
10.8498184144
 20
9.8837894257
 30
0.0
 10
10.8424148535
 20
9.8812410503
 30
0.0
 10
10.8347324359
 20
9.8787484523
 30
0.0
 10
10.8267774182
 20
9.8763137068
 30
0.0
 10
10.8156679732
 20
9.8731044875
 30
0.0
 10
10.8011422661
 20
9.869262901
 30
0.0
 10
10.7829565323
 20
9.864973055
 30
0.0
 10
10.763851017
 20
9.8609584262
 30
0.0
 10
10.743888223
 20
9.8572322849
 30
0.0
 10
10.723133332
 20
9.8538069751
 30
0.0
 10
10.7016542265
 20
9.8506938305
 30
0.0
 10
10.6795211832
 20
9.8479031496
 30
0.0
 10
10.6568066543
 20
9.8454441593
 30
0.0
 10
10.6335850174
 20
9.8433249867
 30
0.0
 10
10.6099323286
 20
9.8415526333
 30
0.0
 10
10.5859260688
 20
9.8401329531
 30
0.0
 10
10.5616448865
 20
9.8390706339
 30
0.0
 10
10.5371683379
 20
9.838369183
 30
0.0
 10
10.512576624
 20
9.838030916
 30
0.0
 10
10.4879503241
 20
9.8380569495
 30
0.0
 10
10.4633701382
 20
9.8384471972
 30
0.0
 10
10.4389165888
 20
9.8392003724
 30
0.0
 10
10.4146698794
 20
9.8403139838
 30
0.0
 10
10.3985910182
 20
9.8413006887
 30
0.0
 10
10.390600558
 20
9.841854829
 30
0.0
  0
SPLINE
  5
392
100
AcDbEntity
  8
0
100
AcDbSpline
 62
7
  6
CONTINUOUS
 70
0
 71
3
 72
36
 73
32
 74
0
 42
0.0000001
 43
0.0000001
 44
0.0000000001
 40
0.0
 40
0.0
 40
0.0
 40
0.0
 40
0.0063161168
 40
0.0126711619
 40
0.0191032581
 40
0.0256490626
 40
0.0392095001
 40
0.05360793
 40
0.0690454499
 40
0.0856791324
 40
0.1036278316
 40
0.1229783533
 40
0.1437916317
 40
0.1661081543
 40
0.1899514448
 40
0.2153320271
 40
0.2422489508
 40
0.2706924073
 40
0.3006446146
 40
0.3320810971
 40
0.3649717252
 40
0.3992808975
 40
0.4349688229
 40
0.4719911741
 40
0.5103002058
 40
0.5498445536
 40
0.632416346
 40
0.7192407559
 40
0.8098108808
 40
0.9035854839
 40
1.0
 40
1.0
 40
1.0
 40
1.0
 10
12.7928648091
 20
7.2166151842
 30
0.0
 10
12.7925740983
 20
7.2166353485
 30
0.0
 10
12.7919922578
 20
7.2166996015
 30
0.0
 10
12.7911260292
 20
7.216867078
 30
0.0
 10
12.7902655644
 20
7.2171056382
 30
0.0
 10
12.7891133761
 20
7.217522974
 30
0.0
 10
12.7876817247
 20
7.2182325209
 30
0.0
 10
12.7860178308
 20
7.2193551322
 30
0.0
 10
12.7843887778
 20
7.2207555022
 30
0.0
 10
12.7827962996
 20
7.2224303649
 30
0.0
 10
12.7812418728
 20
7.224376815
 30
0.0
 10
12.7797272906
 20
7.2265917475
 30
0.0
 10
12.7782544889
 20
7.2290717567
 30
0.0
 10
12.7768256083
 20
7.2318130447
 30
0.0
 10
12.7754427457
 20
7.234811322
 30
0.0
 10
12.7741081287
 20
7.2380618767
 30
0.0
 10
12.7728238474
 20
7.2415595075
 30
0.0
 10
12.771592028
 20
7.2452985928
 30
0.0
 10
12.7704146835
 20
7.249273072
 30
0.0
 10
12.769293751
 20
7.2534764754
 30
0.0
 10
12.7682311188
 20
7.2579019391
 30
0.0
 10
12.7672285137
 20
7.2625422141
 30
0.0
 10
12.7662876477
 20
7.2673896894
 30
0.0
 10
12.7654100533
 20
7.2724363983
 30
0.0
 10
12.7645972017
 20
7.2776740492
 30
0.0
 10
12.7635870017
 20
7.2850066911
 30
0.0
 10
12.7625039943
 20
7.2945872997
 30
0.0
 10
12.761498544
 20
7.3065406839
 30
0.0
 10
12.7607762818
 20
7.3190322115
 30
0.0
 10
12.7603421068
 20
7.3319795712
 30
0.0
 10
12.7602478796
 20
7.3407547509
 30
0.0
 10
12.7602478796
 20
7.3452030675
 30
0.0
  0
SPLINE
  5
393
100
AcDbEntity
  8
0
100
AcDbSpline
 62
7
  6
CONTINUOUS
 70
0
 71
3
 72
36
 73
32
 74
0
 42
0.0000001
 43
0.0000001
 44
0.0000000001
 40
0.0
 40
0.0
 40
0.0
 40
0.0
 40
0.0063161168
 40
0.0126711619
 40
0.0191032581
 40
0.0256490626
 40
0.0392095001
 40
0.05360793
 40
0.0690454499
 40
0.0856791324
 40
0.1036278316
 40
0.1229783533
 40
0.1437916317
 40
0.1661081543
 40
0.1899514448
 40
0.2153320271
 40
0.2422489508
 40
0.2706924073
 40
0.3006446146
 40
0.3320810971
 40
0.3649717252
 40
0.3992808975
 40
0.4349688229
 40
0.4719911741
 40
0.5103002058
 40
0.5498445536
 40
0.632416346
 40
0.7192407559
 40
0.8098108808
 40
0.9035854839
 40
1.0
 40
1.0
 40
1.0
 40
1.0
 10
12.0811130225
 20
6.5291157109
 30
0.0
 10
12.0808223116
 20
6.5291358751
 30
0.0
 10
12.0802404712
 20
6.5292001282
 30
0.0
 10
12.0793742426
 20
6.5293676046
 30
0.0
 10
12.0785137778
 20
6.5296061648
 30
0.0
 10
12.0773615895
 20
6.5300235006
 30
0.0
 10
12.0759299381
 20
6.5307330475
 30
0.0
 10
12.0742660442
 20
6.5318556589
 30
0.0
 10
12.0726369912
 20
6.5332560289
 30
0.0
 10
12.071044513
 20
6.5349308915
 30
0.0
 10
12.0694900862
 20
6.5368773417
 30
0.0
 10
12.067975504
 20
6.5390922742
 30
0.0
 10
12.0665027022
 20
6.5415722833
 30
0.0
 10
12.0650738217
 20
6.5443135714
 30
0.0
 10
12.063690959
 20
6.5473118486
 30
0.0
 10
12.0623563421
 20
6.5505624033
 30
0.0
 10
12.0610720608
 20
6.5540600341
 30
0.0
 10
12.0598402414
 20
6.5577991195
 30
0.0
 10
12.0586628969
 20
6.5617735986
 30
0.0
 10
12.0575419644
 20
6.565977002
 30
0.0
 10
12.0564793321
 20
6.5704024658
 30
0.0
 10
12.055476727
 20
6.5750427407
 30
0.0
 10
12.054535861
 20
6.579890216
 30
0.0
 10
12.0536582667
 20
6.5849369249
 30
0.0
 10
12.0528454151
 20
6.5901745759
 30
0.0
 10
12.051835215
 20
6.5975072177
 30
0.0
 10
12.0507522077
 20
6.6070878264
 30
0.0
 10
12.0497467574
 20
6.6190412106
 30
0.0
 10
12.0490244952
 20
6.6315327381
 30
0.0
 10
12.0485903202
 20
6.6444800978
 30
0.0
 10
12.0484960929
 20
6.6532552776
 30
0.0
 10
12.0484960929
 20
6.6577035941
 30
0.0
  0
SPLINE
  5
394
100
AcDbEntity
  8
0
100
AcDbSpline
 62
7
  6
CONTINUOUS
 70
0
 71
3
 72
18
 73
14
 74
0
 42
0.0000001
 43
0.0000001
 44
0.0000000001
 40
0.0
 40
0.0
 40
0.0
 40
0.0
 40
0.1526310165
 40
0.2955193057
 40
0.4293293802
 40
0.554927271
 40
0.6733916283
 40
0.7303675205
 40
0.786062179
 40
0.840667757
 40
0.8943883426
 40
0.9474296965
 40
1.0
 40
1.0
 40
1.0
 40
1.0
 10
11.286795291
 20
7.5841085794
 30
0.0
 10
11.2867953893
 20
7.5820684341
 30
0.0
 10
11.2866895761
 20
7.5781170081
 30
0.0
 10
11.286160715
 20
7.572398165
 30
0.0
 10
11.2852562309
 20
7.5670911855
 30
0.0
 10
11.2839679849
 20
7.5621998903
 30
0.0
 10
11.2825508945
 20
7.5584245441
 30
0.0
 10
11.281218533
 20
7.5556354065
 30
0.0
 10
11.2801350546
 20
7.5536779224
 30
0.0
 10
11.278954761
 20
7.551828621
 30
0.0
 10
11.2776779049
 20
7.5500882767
 30
0.0
 10
11.276305276
 20
7.5484578964
 30
0.0
 10
11.2753236474
 20
7.5474415739
 30
0.0
 10
11.2748182402
 20
7.546953388
 30
0.0
  0
SPLINE
  5
395
100
AcDbEntity
  8
0
100
AcDbSpline
 62
7
  6
CONTINUOUS
 70
0
 71
3
 72
15
 73
11
 74
0
 42
0.0000001
 43
0.0000001
 44
0.0000000001
 40
0.0
 40
0.0
 40
0.0
 40
0.0
 40
0.1234612906
 40
0.2472680913
 40
0.3714772124
 40
0.4961382717
 40
0.6212927193
 40
0.7469737937
 40
0.8732042577
 40
1.0
 40
1.0
 40
1.0
 40
1.0
 10
9.7708714046
 20
7.8694012833
 30
0.0
 10
9.7665723704
 20
7.8621392735
 30
0.0
 10
9.7584594922
 20
7.8472940092
 30
0.0
 10
9.7478241789
 20
7.824216001
 30
0.0
 10
9.7387492455
 20
7.8003921226
 30
0.0
 10
9.7312732957
 20
7.7759233573
 30
0.0
 10
9.7254271578
 20
7.7509117517
 30
0.0
 10
9.7212351848
 20
7.725461623
 30
0.0
 10
9.7187146038
 20
7.6996806528
 30
0.0
 10
9.7181566734
 20
7.6823798723
 30
0.0
 10
9.7181566734
 20
7.6737128441
 30
0.0
  0
SPLINE
  5
396
100
AcDbEntity
  8
0
100
AcDbSpline
 62
7
  6
CONTINUOUS
 70
0
 71
3
 72
11
 73
7
 74
0
 42
0.0000001
 43
0.0000001
 44
0.0000000001
 40
0.0
 40
0.0
 40
0.0
 40
0.0
 40
0.2428904077
 40
0.488689197
 40
0.740194528
 40
1.0
 40
1.0
 40
1.0
 40
1.0
 10
10.071522066
 20
9.9494799668
 30
0.0
 10
10.0715220702
 20
9.950575856
 30
0.0
 10
10.0716484506
 20
9.9527827581
 30
0.0
 10
10.0722153768
 20
9.9560806596
 30
0.0
 10
10.0731586232
 20
9.9593703421
 30
0.0
 10
10.0740207132
 20
9.9615149393
 30
0.0
 10
10.0745083621
 20
9.9625808987
 30
0.0
  0
SPLINE
  5
397
100
AcDbEntity
  8
0
100
AcDbSpline
 62
7
  6
CONTINUOUS
 70
0
 71
3
 72
43
 73
39
 74
0
 42
0.0000001
 43
0.0000001
 44
0.0000000001
 40
0.0
 40
0.0
 40
0.0
 40
0.0
 40
0.0149774647
 40
0.0299745946
 40
0.0449933586
 40
0.0600356201
 40
0.0901929848
 40
0.12046382
 40
0.1356473574
 40
0.1508629829
 40
0.166111638
 40
0.1813941159
 40
0.212058625
 40
0.2428641297
 40
0.2738113683
 40
0.304898596
 40
0.336121648
 40
0.3674740423
 40
0.3989471177
 40
0.4305302034
 40
0.4622108158
 40
0.4939748799
 40
0.5258069699
 40
0.5576905666
 40
0.5896083278
 40
0.6215423673
 40
0.6534745404
 40
0.6853867319
 40
0.7172611442
 40
0.7490805813
 40
0.7808287268
 40
0.8124904122
 40
0.8440518691
 40
0.8755009748
 40
0.9068274311
 40
0.9380231031
 40
0.9690817007
 40
1.0
 40
1.0
 40
1.0
 40
1.0
 10
11.540192648
 20
7.2039023183
 30
0.0
 10
11.5363938542
 20
7.20182806
 30
0.0
 10
11.5287174451
 20
7.1978104189
 30
0.0
 10
11.5169906351
 20
7.1921885551
 30
0.0
 10
11.5050566567
 20
7.18697331
 30
0.0
 10
11.4888744328
 20
7.1805649206
 30
0.0
 10
11.4681874323
 20
7.1735991963
 30
0.0
 10
11.4470293049
 20
7.1680696848
 30
0.0
 10
11.4298583827
 20
7.1645133106
 30
0.0
 10
11.4168547343
 20
7.1622801553
 30
0.0
 10
11.4037543465
 20
7.1604866769
 30
0.0
 10
11.3861594557
 20
7.1586821901
 30
0.0
 10
11.3639907216
 20
7.1575378566
 30
0.0
 10
11.337267772
 20
7.157945339
 30
0.0
 10
11.3105081913
 20
7.1601295509
 30
0.0
 10
11.2838304041
 20
7.164080777
 30
0.0
 10
11.2573514165
 20
7.1697814296
 30
0.0
 10
11.2311876053
 20
7.1772062867
 30
0.0
 10
11.2054538622
 20
7.1863225653
 30
0.0
 10
11.1802631901
 20
7.1970900797
 30
0.0
 10
11.1557261868
 20
7.2094614166
 30
0.0
 10
11.1319505729
 20
7.2233821453
 30
0.0
 10
11.1090407176
 20
7.2387910493
 30
0.0
 10
11.0870971876
 20
7.2556204004
 30
0.0
 10
11.0662163112
 20
7.273796256
 30
0.0
 10
11.0464897592
 20
7.2932387812
 30
0.0
 10
11.0280041465
 20
7.3138625969
 30
0.0
 10
11.0108406547
 20
7.3355771517
 30
0.0
 10
10.9950746788
 20
7.3582871152
 30
0.0
 10
10.9807754992
 20
7.3818927942
 30
0.0
 10
10.9680059753
 20
7.4062905621
 30
0.0
 10
10.9568222691
 20
7.4313733133
 30
0.0
 10
10.9472736002
 20
7.4570309195
 30
0.0
 10
10.9394020459
 20
7.4831507516
 30
0.0
 10
10.9332423055
 20
7.5096180088
 30
0.0
 10
10.9288216675
 20
7.5363168111
 30
0.0
 10
10.9261596483
 20
7.5631283656
 30
0.0
 10
10.9255640278
 20
7.5810440484
 30
0.0
 10
10.9255640278
 20
7.5899788596
 30
0.0
  0
SPLINE
  5
398
100
AcDbEntity
  8
0
100
AcDbSpline
 62
7
  6
CONTINUOUS
 70
0
 71
3
 72
42
 73
38
 74
0
 42
0.0000001
 43
0.0000001
 44
0.0000000001
 40
0.0
 40
0.0
 40
0.0
 40
0.0
 40
0.0149723977
 40
0.0299478538
 40
0.0449294096
 40
0.0599200691
 40
0.0749227785
 40
0.0899404134
 40
0.120025661
 40
0.1502025864
 40
0.1804899025
 40
0.2109037093
 40
0.2414571466
 40
0.272160128
 40
0.3030191646
 40
0.3340372687
 40
0.3652139372
 40
0.3965452178
 40
0.4280238461
 40
0.4596394447
 40
0.4913787778
 40
0.523226062
 40
0.5551633141
 40
0.5871707326
 40
0.6192271086
 40
0.651310257
 40
0.6833974607
 40
0.7154659218
 40
0.747493215
 40
0.7794577345
 40
0.8113391305
 40
0.8431187296
 40
0.8747799239
 40
0.9063085332
 40
0.9376931786
 40
0.9689252006
 40
1.0
 40
1.0
 40
1.0
 40
1.0
 10
11.4593060282
 20
7.0894977424
 30
0.0
 10
11.4557347562
 20
7.08604817
 30
0.0
 10
11.4484535225
 20
7.0792895165
 30
0.0
 10
11.4371361989
 20
7.0695925202
 30
0.0
 10
11.4254378283
 20
7.0603486131
 30
0.0
 10
11.4133747499
 20
7.051570832
 30
0.0
 10
11.4009632592
 20
7.0432710411
 30
0.0
 10
11.383965375
 20
7.0328523696
 30
0.0
 10
11.3619208059
 20
7.0210760034
 30
0.0
 10
11.3343788467
 20
7.0090364405
 30
0.0
 10
11.3058791133
 20
6.9991432313
 30
0.0
 10
11.2765797183
 20
6.9914512477
 30
0.0
 10
11.2466417941
 20
6.986002297
 30
0.0
 10
11.2162302579
 20
6.982825996
 30
0.0
 10
11.1855124329
 20
6.9819394116
 30
0.0
 10
11.1546572656
 20
6.9833470646
 30
0.0
 10
11.1238343652
 20
6.9870408053
 30
0.0
 10
11.0932130812
 20
6.9929999555
 30
0.0
 10
11.062961593
 20
7.0011914621
 30
0.0
 10
11.0332460015
 20
7.0115700579
 30
0.0
 10
11.0042294021
 20
7.0240784534
 30
0.0
 10
10.9760710288
 20
7.0386477494
 30
0.0
 10
10.9489254048
 20
7.0551978137
 30
0.0
 10
10.9229414729
 20
7.0736376556
 30
0.0
 10
10.8982617851
 20
7.0938659387
 30
0.0
 10
10.875021767
 20
7.1157715829
 30
0.0
 10
10.8533489868
 20
7.1392343553
 30
0.0
 10
10.8333623928
 20
7.1641254586
 30
0.0
 10
10.8151717214
 20
7.1903082945
 30
0.0
 10
10.798876921
 20
7.2176392084
 30
0.0
 10
10.7845675791
 20
7.2459682467
 30
0.0
 10
10.7723223821
 20
7.2751399326
 30
0.0
 10
10.762208766
 20
7.304994223
 30
0.0
 10
10.754282534
 20
7.335367112
 30
0.0
 10
10.7485875464
 20
7.3660923845
 30
0.0
 10
10.7451552714
 20
7.3969991387
 30
0.0
 10
10.7443865226
 20
7.4176696144
 30
0.0
 10
10.7443865226
 20
7.4279748179
 30
0.0
  0
SPLINE
  5
399
100
AcDbEntity
  8
0
100
AcDbSpline
 62
7
  6
CONTINUOUS
 70
0
 71
3
 72
44
 73
40
 74
0
 42
0.0000001
 43
0.0000001
 44
0.0000000001
 40
0.0
 40
0.0
 40
0.0
 40
0.0
 40
0.0149908002
 40
0.0300033727
 40
0.0450394682
 40
0.0601007322
 40
0.0903004445
 40
0.1206176379
 40
0.1358251995
 40
0.1510652007
 40
0.1816411657
 40
0.2123539016
 40
0.2432052215
 40
0.2741945966
 40
0.305319196
 40
0.3365739633
 40
0.3679517269
 40
0.3994433394
 40
0.4310378456
 40
0.4627226719
 40
0.4944838371
 40
0.526306179
 40
0.5581735953
 40
0.5900692945
 40
0.6219760539
 40
0.6538764825
 40
0.6857532856
 40
0.7175895284
 40
0.7493688954
 40
0.7810759444
 40
0.8126963497
 40
0.844217132
 40
0.8599384456
 40
0.8756307175
 40
0.9069197527
 40
0.9380804372
 40
0.9536125726
 40
0.9691108453
 40
1.0
 40
1.0
 40
1.0
 40
1.0
 10
11.5306805613
 20
7.1844549422
 30
0.0
 10
11.5267440203
 20
7.182542441
 30
0.0
 10
11.5187987483
 20
7.1788497739
 30
0.0
 10
11.5066894034
 20
7.1737187097
 30
0.0
 10
11.4943924173
 20
7.1689967085
 30
0.0
 10
11.4777507895
 20
7.1632484601
 30
0.0
 10
11.4565379764
 20
7.1571108951
 30
0.0
 10
11.4349187241
 20
7.1524066284
 30
0.0
 10
11.4174143536
 20
7.1495064373
 30
0.0
 10
11.399748348
 20
7.1471801115
 30
0.0
 10
11.3774619562
 20
7.1453668478
 30
0.0
 10
11.3505464152
 20
7.1449495371
 30
0.0
 10
11.3235398402
 20
7.1462895513
 30
0.0
 10
11.2965567423
 20
7.1493811555
 30
0.0
 10
11.2697105506
 20
7.1542111102
 30
0.0
 10
11.2431143422
 20
7.1607589096
 30
0.0
 10
11.2168800463
 20
7.1689968247
 30
0.0
 10
11.1911180662
 20
7.1788900359
 30
0.0
 10
11.1659367965
 20
7.1903967784
 30
0.0
 10
11.1414421782
 20
7.2034685206
 30
0.0
 10
11.1177372559
 20
7.2180501656
 30
0.0
 10
11.0949217452
 20
7.2340802801
 30
0.0
 10
11.0730916216
 20
7.2514913579
 30
0.0
 10
11.0523387191
 20
7.2702101017
 30
0.0
 10
11.0327503481
 20
7.2901577296
 30
0.0
 10
11.0144089312
 20
7.311250305
 30
0.0
 10
10.99739166
 20
7.3333990817
 30
0.0
 10
10.9817701677
 20
7.3565108947
 30
0.0
 10
10.9676102517
 20
7.3804884723
 30
0.0
 10
10.9549715116
 20
7.4052311232
 30
0.0
 10
10.9439074042
 20
7.4306341
 30
0.0
 10
10.9360308158
 20
7.4522857251
 30
0.0
 10
10.9305624115
 20
7.4698293436
 30
0.0
 10
10.925662948
 20
7.4874700999
 30
0.0
 10
10.9205939577
 20
7.5097296149
 30
0.0
 10
10.9169496079
 20
7.5322191236
 30
0.0
 10
10.914906157
 20
7.5502631882
 30
0.0
 10
10.9134479254
 20
7.5682837277
 30
0.0
 10
10.9130069913
 20
7.5818316744
 30
0.0
 10
10.9130069913
 20
7.5908496931
 30
0.0
  0
SPLINE
  5
39A
100
AcDbEntity
  8
0
100
AcDbSpline
 62
7
  6
CONTINUOUS
 70
0
 71
3
 72
43
 73
39
 74
0
 42
0.0000001
 43
0.0000001
 44
0.0000000001
 40
0.0
 40
0.0
 40
0.0
 40
0.0
 40
0.0149715086
 40
0.0299613735
 40
0.0449716826
 40
0.0600044223
 40
0.0901399252
 40
0.1203861583
 40
0.1355567482
 40
0.1507591175
 40
0.1659943295
 40
0.1812632979
 40
0.2119009068
 40
0.2426805442
 40
0.2736037138
 40
0.3046693342
 40
0.3358737931
 40
0.3672110443
 40
0.3986727442
 40
0.4302484216
 40
0.4619256784
 40
0.4936904158
 40
0.5255270831
 40
0.5574189444
 40
0.5893483593
 40
0.6212970752
 40
0.6532465256
 40
0.685178132
 40
0.7170736064
 40
0.7489152496
 40
0.7806862438
 40
0.8123709348
 40
0.8439550989
 40
0.8754262004
 40
0.906773585
 40
0.9379888269
 40
0.9690654088
 40
1.0
 40
1.0
 40
1.0
 40
1.0
 10
11.547961431
 20
7.222176343
 30
0.0
 10
11.5442736971
 20
7.2200324402
 30
0.0
 10
11.5368163665
 20
7.215873478
 30
0.0
 10
11.5254084188
 20
7.2100337732
 30
0.0
 10
11.513784134
 20
7.2045955094
 30
0.0
 10
11.4980034822
 20
7.1978831593
 30
0.0
 10
11.4777952094
 20
7.1905260002
 30
0.0
 10
11.4570834136
 20
7.1845931087
 30
0.0
 10
11.4402515731
 20
7.1807082367
 30
0.0
 10
11.4274936017
 20
7.1782258403
 30
0.0
 10
11.4146299074
 20
7.1761807277
 30
0.0
 10
11.397339011
 20
7.1740378372
 30
0.0
 10
11.375527869
 20
7.1724661034
 30
0.0
 10
11.349199244
 20
7.1723572231
 30
0.0
 10
11.3228005989
 20
7.1740231467
 30
0.0
 10
11.2964515628
 20
7.1774562928
 30
0.0
 10
11.2702704703
 20
7.182640969
 30
0.0
 10
11.2443751433
 20
7.1895536634
 30
0.0
 10
11.2188820141
 20
7.1981631033
 30
0.0
 10
11.1939057036
 20
7.208430414
 30
0.0
 10
11.1695584866
 20
7.2203092913
 30
0.0
 10
11.1459498001
 20
7.2337462122
 30
0.0
 10
11.1231857557
 20
7.2486806749
 30
0.0
 10
11.1013686679
 20
7.2650454689
 30
0.0
 10
11.0805965922
 20
7.2827669684
 30
0.0
 10
11.0609628947
 20
7.3017654713
 30
0.0
 10
11.0425558359
 20
7.3219555537
 30
0.0
 10
11.0254581782
 20
7.3432464512
 30
0.0
 10
11.0097468165
 20
7.3655424625
 30
0.0
 10
10.9954924353
 20
7.3887433759
 30
0.0
 10
10.9827591942
 20
7.412744915
 30
0.0
 10
10.9716044342
 20
7.4374392018
 30
0.0
 10
10.9620784165
 20
7.462715226
 30
0.0
 10
10.9542241186
 20
7.4884593874
 30
0.0
 10
10.948076991
 20
7.5145558371
 30
0.0
 10
10.943664917
 20
7.5408875917
 30
0.0
 10
10.9410078404
 20
7.5673346973
 30
0.0
 10
10.9404132669
 20
7.5850083238
 30
0.0
 10
10.9404132669
 20
7.5938221241
 30
0.0
  0
SPLINE
  5
39B
100
AcDbEntity
  8
0
100
AcDbSpline
 62
7
  6
CONTINUOUS
 70
0
 71
3
 72
45
 73
41
 74
0
 42
0.0000001
 43
0.0000001
 44
0.0000000001
 40
0.0
 40
0.0
 40
0.0
 40
0.0
 40
0.01499576
 40
0.0300139035
 40
0.0450561143
 40
0.0601239651
 40
0.0903380608
 40
0.1206706894
 40
0.1358861567
 40
0.1511341269
 40
0.1664152685
 40
0.1817301169
 40
0.2124583003
 40
0.2433241472
 40
0.2743267487
 40
0.3054629515
 40
0.336727438
 40
0.3681128381
 40
0.3996098698
 40
0.4312075051
 40
0.4628931575
 40
0.4946528893
 40
0.5264716336
 40
0.5583334297
 40
0.5902216674
 40
0.6221193389
 40
0.6540092951
 40
0.6858745023
 40
0.717698299
 40
0.7494646477
 40
0.7811583811
 40
0.8127654383
 40
0.844273086
 40
0.8599879576
 40
0.8756739217
 40
0.9069508876
 40
0.938100284
 40
0.9536270628
 40
0.9691202716
 40
1.0
 40
1.0
 40
1.0
 40
1.0
 10
11.5550876348
 20
7.2417059846
 30
0.0
 10
11.5513625385
 20
7.2399655781
 30
0.0
 10
11.5438467585
 20
7.2366090169
 30
0.0
 10
11.5324001175
 20
7.2319567485
 30
0.0
 10
11.5207836597
 20
7.227687964
 30
0.0
 10
11.5050725019
 20
7.2225094505
 30
0.0
 10
11.4850635262
 20
7.2170174985
 30
0.0
 10
11.4646931826
 20
7.2128657099
 30
0.0
 10
11.448212069
 20
7.2103507486
 30
0.0
 10
11.4357551381
 20
7.208868396
 30
0.0
 10
11.4232291125
 20
7.2077935835
 30
0.0
 10
11.4064359981
 20
7.206904451
 30
0.0
 10
11.3853327576
 20
7.2068198328
 30
0.0
 10
11.3599736498
 20
7.2083567287
 30
0.0
 10
11.3346532821
 20
7.2115251709
 30
0.0
 10
11.3094775291
 20
7.2163118887
 30
0.0
 10
11.2845507273
 20
7.2226968293
 30
0.0
 10
11.2599764014
 20
7.2306533401
 30
0.0
 10
11.2358565279
 20
7.2401482584
 30
0.0
 10
11.2122912
 20
7.2511420568
 30
0.0
 10
11.1893781946
 20
7.2635890072
 30
0.0
 10
11.1672125765
 20
7.2774373706
 30
0.0
 10
11.145886307
 20
7.292629612
 30
0.0
 10
11.1254878657
 20
7.3091026377
 30
0.0
 10
11.1061018872
 20
7.3267880562
 30
0.0
 10
11.087808813
 20
7.3456124592
 30
0.0
 10
11.07068456
 20
7.3654977265
 30
0.0
 10
11.0548002082
 20
7.3863613405
 30
0.0
 10
11.0402217016
 20
7.4081167455
 30
0.0
 10
11.027009598
 20
7.4306736345
 30
0.0
 10
11.0152187437
 20
7.4539385836
 30
0.0
 10
11.0048983278
 20
7.4778144559
 30
0.0
 10
10.9975520794
 20
7.4981574532
 30
0.0
 10
10.992452234
 20
7.5146373482
 30
0.0
 10
10.9878831433
 20
7.5312066405
 30
0.0
 10
10.9831562722
 20
7.5521109363
 30
0.0
 10
10.9797581295
 20
7.5732278988
 30
0.0
 10
10.9778527785
 20
7.5901696503
 30
0.0
 10
10.9764930951
 20
7.6070890864
 30
0.0
 10
10.9760819873
 20
7.6198087058
 30
0.0
 10
10.9760819873
 20
7.6282754643
 30
0.0
  0
SPLINE
  5
39C
100
AcDbEntity
  8
0
100
AcDbSpline
 62
7
  6
CONTINUOUS
 70
0
 71
3
 72
44
 73
40
 74
0
 42
0.0000001
 43
0.0000001
 44
0.0000000001
 40
0.0
 40
0.0
 40
0.0
 40
0.0
 40
0.0149737259
 40
0.0299663511
 40
0.0449799118
 40
0.0600163481
 40
0.0901604178
 40
0.1204163707
 40
0.1355920988
 40
0.1507997379
 40
0.1813102162
 40
0.2119585851
 40
0.2427485915
 40
0.2736814245
 40
0.3047557292
 40
0.3359676653
 40
0.3673110059
 40
0.3987772749
 40
0.4303559165
 40
0.4620344944
 40
0.4937989167
 40
0.5256336813
 40
0.5575221388
 40
0.5894467691
 40
0.6213894676
 40
0.6533318386
 40
0.6852554916
 40
0.7171423375
 40
0.7489748818
 40
0.780736511
 40
0.8124117693
 40
0.8439866182
 40
0.8597344782
 40
0.8754527511
 40
0.9067915376
 40
0.9379987318
 40
0.9535528394
 40
0.9690721347
 40
1.0
 40
1.0
 40
1.0
 40
1.0
 10
11.5698620602
 20
7.2987257125
 30
0.0
 10
11.5665306764
 20
7.2968371451
 30
0.0
 10
11.5597959435
 20
7.2931757384
 30
0.0
 10
11.5494992495
 20
7.2880416801
 30
0.0
 10
11.53901279
 20
7.2832677745
 30
0.0
 10
11.5247835955
 20
7.2773857488
 30
0.0
 10
11.5065748658
 20
7.2709596148
 30
0.0
 10
11.4879285201
 20
7.2658090164
 30
0.0
 10
11.4727835526
 20
7.2624595404
 30
0.0
 10
11.4574682461
 20
7.2596217537
 30
0.0
 10
11.4380905407
 20
7.2570550723
 30
0.0
 10
11.4146051606
 20
7.2555578302
 30
0.0
 10
11.3909639489
 20
7.2556459029
 30
0.0
 10
11.3672730284
 20
7.2573188355
 30
0.0
 10
11.3436378246
 20
7.2605689422
 30
0.0
 10
11.3201637178
 20
7.2653815671
 30
0.0
 10
11.2969552773
 20
7.271735096
 30
0.0
 10
11.2741158816
 20
7.2796010726
 30
0.0
 10
11.2517472419
 20
7.2889443237
 30
0.0
 10
11.2299489577
 20
7.2997231144
 30
0.0
 10
11.2088180781
 20
7.311889339
 30
0.0
 10
11.1884486755
 20
7.325388736
 30
0.0
 10
11.1689314303
 20
7.3401611286
 30
0.0
 10
11.1503532325
 20
7.3561406918
 30
0.0
 10
11.1327967978
 20
7.3732562428
 30
0.0
 10
11.1163403029
 20
7.3914315574
 30
0.0
 10
11.1010570416
 20
7.4105857012
 30
0.0
 10
11.087015096
 20
7.4306334063
 30
0.0
 10
11.0742770537
 20
7.4514853746
 30
0.0
 10
11.0628996514
 20
7.4730489355
 30
0.0
 10
11.052933817
 20
7.495227478
 30
0.0
 10
11.0458353826
 20
7.5141587247
 30
0.0
 10
11.0409057434
 20
7.5295115555
 30
0.0
 10
11.0364882996
 20
7.5449567631
 30
0.0
 10
11.0319167459
 20
7.5644586877
 30
0.0
 10
11.0286290319
 20
7.5841752844
 30
0.0
 10
11.0267853782
 20
7.5999988838
 30
0.0
 10
11.0254697105
 20
7.6158027796
 30
0.0
 10
11.0250717759
 20
7.6276863019
 30
0.0
 10
11.0250717759
 20
7.6355959691
 30
0.0
  0
SPLINE
  5
39D
100
AcDbEntity
  8
0
100
AcDbSpline
 62
7
  6
CONTINUOUS
 70
0
 71
3
 72
23
 73
19
 74
0
 42
0.0000001
 43
0.0000001
 44
0.0000000001
 40
0.0
 40
0.0
 40
0.0
 40
0.0
 40
0.0617140062
 40
0.1237225906
 40
0.1859977335
 40
0.2485051265
 40
0.3112050437
 40
0.3740533184
 40
0.4370023864
 40
0.500002386
 40
0.5630023003
 40
0.6259511149
 40
0.6887989756
 40
0.7514983264
 40
0.8140050108
 40
0.8762793219
 40
0.9382869792
 40
1.0
 40
1.0
 40
1.0
 40
1.0
 10
11.5604528022
 20
7.4834855252
 30
0.0
 10
11.5511496764
 20
7.4853857052
 30
0.0
 10
11.5326392279
 20
7.4899214329
 30
0.0
 10
11.5054228136
 20
7.4988504154
 30
0.0
 10
11.4788487423
 20
7.5098671169
 30
0.0
 10
11.4530857271
 20
7.522901769
 30
0.0
 10
11.4282945273
 20
7.5378725402
 30
0.0
 10
11.4046305952
 20
7.5546854419
 30
0.0
 10
11.3822421223
 20
7.57323503
 30
0.0
 10
11.3612693319
 20
7.5934049651
 30
0.0
 10
11.341843628
 20
7.6150688534
 30
0.0
 10
11.3240867879
 20
7.6380909921
 30
0.0
 10
11.3081101087
 20
7.6623271219
 30
0.0
 10
11.2940138107
 20
7.6876254817
 30
0.0
 10
11.2818864741
 20
7.7138274698
 30
0.0
 10
11.2718041876
 20
7.740769531
 30
0.0
 10
11.2638307979
 20
7.7682806338
 30
0.0
 10
11.2599440561
 20
7.7869378494
 30
0.0
 10
11.258369879
 20
7.7963014983
 30
0.0
  0
SPLINE
  5
39E
100
AcDbEntity
  8
0
100
AcDbSpline
 62
7
  6
CONTINUOUS
 70
0
 71
3
 72
23
 73
19
 74
0
 42
0.0000001
 43
0.0000001
 44
0.0000000001
 40
0.0
 40
0.0
 40
0.0
 40
0.0
 40
0.0618325541
 40
0.1239179325
 40
0.186229838
 40
0.2487375694
 40
0.3114066567
 40
0.374199551
 40
0.4370763564
 40
0.4999955933
 40
0.562914983
 40
0.6257922437
 40
0.6885858868
 40
0.7512560024
 40
0.8137650223
 40
0.8760784524
 40
0.9381655634
 40
1.0
 40
1.0
 40
1.0
 40
1.0
 10
11.5506936094
 20
7.5147556017
 30
0.0
 10
11.5428169822
 20
7.5168199131
 30
0.0
 10
11.5271713769
 20
7.5215127512
 30
0.0
 10
11.5042091189
 20
7.5301782007
 30
0.0
 10
11.4818161041
 20
7.5404412951
 30
0.0
 10
11.4601102393
 20
7.5522481207
 30
0.0
 10
11.4392038984
 20
7.565537282
 30
0.0
 10
11.419205823
 20
7.5802395782
 30
0.0
 10
11.4002198979
 20
7.5962785335
 30
0.0
 10
11.3823447973
 20
7.6135707445
 30
0.0
 10
11.3656734328
 20
7.6320263228
 30
0.0
 10
11.3502924693
 20
7.6515493416
 30
0.0
 10
11.336281888
 20
7.6720383315
 30
0.0
 10
11.3237145701
 20
7.693386853
 30
0.0
 10
11.3126559606
 20
7.7154838616
 30
0.0
 10
11.3031635762
 20
7.7382149477
 30
0.0
 10
11.2952872843
 20
7.7614604308
 30
0.0
 10
11.291131398
 20
7.7772576397
 30
0.0
 10
11.2893372288
 20
7.785200412
 30
0.0
  0
SPLINE
  5
39F
100
AcDbEntity
  8
0
100
AcDbSpline
 62
7
  6
CONTINUOUS
 70
0
 71
3
 72
23
 73
19
 74
0
 42
0.0000001
 43
0.0000001
 44
0.0000000001
 40
0.0
 40
0.0
 40
0.0
 40
0.0
 40
0.0617101446
 40
0.123441395
 40
0.1852146431
 40
0.247050352
 40
0.3089683478
 40
0.3709876199
 40
0.4331261339
 40
0.495400661
 40
0.5578266111
 40
0.6204179017
 40
0.6831868168
 40
0.746143859
 40
0.8092980008
 40
0.8726552579
 40
0.9362226181
 40
1.0
 40
1.0
 40
1.0
 40
1.0
 10
10.8611292028
 20
7.7087759248
 30
0.0
 10
10.8565066787
 20
7.7043109243
 30
0.0
 10
10.8474881927
 20
7.6951396731
 30
0.0
 10
10.8346834114
 20
7.680702796
 30
0.0
 10
10.8226285691
 20
7.6656166701
 30
0.0
 10
10.8113519356
 20
7.6499165735
 30
0.0
 10
10.8008793858
 20
7.6336385955
 30
0.0
 10
10.7912350886
 20
7.6168203259
 30
0.0
 10
10.782441241
 20
7.5995005614
 30
0.0
 10
10.7745180913
 20
7.5817192591
 30
0.0
 10
10.7674838734
 20
7.563517431
 30
0.0
 10
10.761354772
 20
7.5449370525
 30
0.0
 10
10.7561448935
 20
7.5260209724
 30
0.0
 10
10.7518661772
 20
7.5068127794
 30
0.0
 10
10.7485284954
 20
7.4873568551
 30
0.0
 10
10.7461393626
 20
7.4676977457
 30
0.0
 10
10.7447044299
 20
7.4478815215
 30
0.0
 10
10.7443865226
 20
7.4346169263
 30
0.0
 10
10.7443865226
 20
7.4279748179
 30
0.0
  0
SPLINE
  5
3A0
100
AcDbEntity
  8
0
100
AcDbSpline
 62
7
  6
CONTINUOUS
 70
0
 71
3
 72
15
 73
11
 74
0
 42
0.0000001
 43
0.0000001
 44
0.0000000001
 40
0.0
 40
0.0
 40
0.0
 40
0.0
 40
0.1235311668
 40
0.2474097107
 40
0.3716794916
 40
0.4963785657
 40
0.6215386323
 40
0.7471847907
 40
0.8733348662
 40
1.0
 40
1.0
 40
1.0
 40
1.0
 10
10.9583862593
 20
7.7765966263
 30
0.0
 10
10.9546708327
 20
7.7695677586
 30
0.0
 10
10.947667413
 20
7.7552538224
 30
0.0
 10
10.9385018806
 20
7.7331424885
 30
0.0
 10
10.9306922563
 20
7.7104363049
 30
0.0
 10
10.9242661467
 20
7.6872153086
 30
0.0
 10
10.9192456122
 20
7.6635600216
 30
0.0
 10
10.9156480267
 20
7.6395524615
 30
0.0
 10
10.9134857393
 20
7.6152771308
 30
0.0
 10
10.9130069913
 20
7.5990018267
 30
0.0
 10
10.9130069913
 20
7.5908496931
 30
0.0
  0
SPLINE
  5
3A1
100
AcDbEntity
  8
0
100
AcDbSpline
 62
7
  6
CONTINUOUS
 70
0
 71
3
 72
15
 73
11
 74
0
 42
0.0000001
 43
0.0000001
 44
0.0000000001
 40
0.0
 40
0.0
 40
0.0
 40
0.0
 40
0.1234302511
 40
0.2472010722
 40
0.3713774057
 40
0.4960161699
 40
0.621165099
 40
0.7468624982
 40
0.8731345952
 40
1.0
 40
1.0
 40
1.0
 40
1.0
 10
10.9968796784
 20
7.792906238
 30
0.0
 10
10.9922856816
 20
7.7856059467
 30
0.0
 10
10.9836101968
 20
7.7706471789
 30
0.0
 10
10.9722255555
 20
7.7473016779
 30
0.0
 10
10.9625028769
 20
7.7231242715
 30
0.0
 10
10.9544876846
 20
7.6982278553
 30
0.0
 10
10.9482163834
 20
7.6727268003
 30
0.0
 10
10.9437177353
 20
7.6467382622
 30
0.0
 10
10.9410120827
 20
7.6203833399
 30
0.0
 10
10.9404132669
 20
7.6026876666
 30
0.0
 10
10.9404132669
 20
7.5938221241
 30
0.0
  0
SPLINE
  5
3A2
100
AcDbEntity
  8
0
100
AcDbSpline
 62
7
  6
CONTINUOUS
 70
0
 71
3
 72
17
 73
13
 74
0
 42
0.0000001
 43
0.0000001
 44
0.0000000001
 40
0.0
 40
0.0
 40
0.0
 40
0.0
 40
0.1235512808
 40
0.1854611434
 40
0.2474628454
 40
0.3717472299
 40
0.4964534348
 40
0.5589808612
 40
0.6216243227
 40
0.7472554957
 40
0.8733776944
 40
1.0
 40
1.0
 40
1.0
 40
1.0
 10
11.0166677421
 20
7.7994260445
 30
0.0
 10
11.0133412826
 20
7.7929155315
 30
0.0
 10
11.0086428503
 20
7.7829878239
 30
0.0
 10
11.0029822167
 20
7.7694809712
 30
0.0
 10
10.9977140164
 20
7.755769281
 30
0.0
 10
10.9918890079
 20
7.7383004222
 30
0.0
 10
10.987105566
 20
7.7204860433
 30
0.0
 10
10.9839065992
 20
7.7060479395
 30
0.0
 10
10.9811236691
 20
7.6914682243
 30
0.0
 10
10.9784417992
 20
7.6730464356
 30
0.0
 10
10.9765098122
 20
7.6507280381
 30
0.0
 10
10.9760819873
 20
7.6357682861
 30
0.0
 10
10.9760819873
 20
7.6282754643
 30
0.0
  0
SPLINE
  5
3A3
100
AcDbEntity
  8
0
100
AcDbSpline
 62
7
  6
CONTINUOUS
 70
0
 71
3
 72
15
 73
11
 74
0
 42
0.0000001
 43
0.0000001
 44
0.0000000001
 40
0.0
 40
0.0
 40
0.0
 40
0.0
 40
0.1234432861
 40
0.2472296877
 40
0.3714204593
 40
0.4960692094
 40
0.6212208018
 40
0.7469112475
 40
0.8731652238
 40
1.0
 40
1.0
 40
1.0
 40
1.0
 10
11.0739310986
 20
7.8118001982
 30
0.0
 10
11.0699517244
 20
7.8053039374
 30
0.0
 10
11.0624392098
 20
7.7920069024
 30
0.0
 10
11.0525853497
 20
7.7712914131
 30
0.0
 10
11.0441732317
 20
7.749868753
 30
0.0
 10
11.0372406356
 20
7.7278347943
 30
0.0
 10
11.0318177405
 20
7.7052865613
 30
0.0
 10
11.027928393
 20
7.6823233449
 30
0.0
 10
11.0255894602
 20
7.6590477218
 30
0.0
 10
11.0250717759
 20
7.6434234622
 30
0.0
 10
11.0250717759
 20
7.6355959691
 30
0.0
  0
SPLINE
  5
3A4
100
AcDbEntity
  8
0
100
AcDbSpline
 62
7
  6
CONTINUOUS
 70
0
 71
3
 72
42
 73
38
 74
0
 42
0.0000001
 43
0.0000001
 44
0.0000000001
 40
0.0
 40
0.0
 40
0.0
 40
0.0
 40
0.0149723977
 40
0.0299478538
 40
0.0449294096
 40
0.0599200691
 40
0.0749227785
 40
0.0899404134
 40
0.120025661
 40
0.1502025864
 40
0.1804899025
 40
0.2109037093
 40
0.2414571466
 40
0.272160128
 40
0.3030191646
 40
0.3340372687
 40
0.3652139372
 40
0.3965452178
 40
0.4280238461
 40
0.4596394447
 40
0.4913787778
 40
0.523226062
 40
0.5551633141
 40
0.5871707326
 40
0.6192271086
 40
0.651310257
 40
0.6833974607
 40
0.7154659218
 40
0.747493215
 40
0.7794577345
 40
0.8113391305
 40
0.8431187296
 40
0.8747799239
 40
0.9063085332
 40
0.9376931786
 40
0.9689252006
 40
1.0
 40
1.0
 40
1.0
 40
1.0
 10
10.2518986738
 20
7.1732317269
 30
0.0
 10
10.2483274018
 20
7.1697821545
 30
0.0
 10
10.2410461681
 20
7.1630235009
 30
0.0
 10
10.2297288445
 20
7.1533265046
 30
0.0
 10
10.2180304739
 20
7.1440825975
 30
0.0
 10
10.2059673955
 20
7.1353048164
 30
0.0
 10
10.1935559048
 20
7.1270050255
 30
0.0
 10
10.1765580206
 20
7.116586354
 30
0.0
 10
10.1545134515
 20
7.1048099879
 30
0.0
 10
10.1269714923
 20
7.092770425
 30
0.0
 10
10.0984717589
 20
7.0828772157
 30
0.0
 10
10.0691723639
 20
7.0751852322
 30
0.0
 10
10.0392344397
 20
7.0697362814
 30
0.0
 10
10.0088229035
 20
7.0665599804
 30
0.0
 10
9.9781050785
 20
7.0656733961
 30
0.0
 10
9.9472499112
 20
7.067081049
 30
0.0
 10
9.9164270108
 20
7.0707747897
 30
0.0
 10
9.8858057268
 20
7.0767339399
 30
0.0
 10
9.8555542386
 20
7.0849254465
 30
0.0
 10
9.8258386471
 20
7.0953040423
 30
0.0
 10
9.7968220477
 20
7.1078124379
 30
0.0
 10
9.7686636744
 20
7.1223817338
 30
0.0
 10
9.7415180504
 20
7.1389317981
 30
0.0
 10
9.7155341185
 20
7.15737164
 30
0.0
 10
9.6908544307
 20
7.1775999231
 30
0.0
 10
9.6676144126
 20
7.1995055674
 30
0.0
 10
9.6459416324
 20
7.2229683397
 30
0.0
 10
9.6259550384
 20
7.247859443
 30
0.0
 10
9.607764367
 20
7.274042279
 30
0.0
 10
9.5914695666
 20
7.3013731928
 30
0.0
 10
9.5771602247
 20
7.3297022311
 30
0.0
 10
9.5649150277
 20
7.3588739171
 30
0.0
 10
9.5548014116
 20
7.3887282074
 30
0.0
 10
9.5468751796
 20
7.4191010965
 30
0.0
 10
9.541180192
 20
7.449826369
 30
0.0
 10
9.537747917
 20
7.4807331231
 30
0.0
 10
9.5369791682
 20
7.5014035989
 30
0.0
 10
9.5369791682
 20
7.5117088023
 30
0.0
  0
SPLINE
  5
3A5
100
AcDbEntity
  8
0
100
AcDbSpline
 62
7
  6
CONTINUOUS
 70
0
 71
3
 72
44
 73
40
 74
0
 42
0.0000001
 43
0.0000001
 44
0.0000000001
 40
0.0
 40
0.0
 40
0.0
 40
0.0
 40
0.0149908002
 40
0.0300033727
 40
0.0450394682
 40
0.0601007322
 40
0.0903004445
 40
0.1206176379
 40
0.1358251995
 40
0.1510652007
 40
0.1816411657
 40
0.2123539016
 40
0.2432052215
 40
0.2741945966
 40
0.305319196
 40
0.3365739633
 40
0.3679517269
 40
0.3994433394
 40
0.4310378456
 40
0.4627226719
 40
0.4944838371
 40
0.526306179
 40
0.5581735953
 40
0.5900692945
 40
0.6219760539
 40
0.6538764825
 40
0.6857532856
 40
0.7175895284
 40
0.7493688954
 40
0.7810759444
 40
0.8126963497
 40
0.844217132
 40
0.8599384456
 40
0.8756307175
 40
0.9069197527
 40
0.9380804372
 40
0.9536125726
 40
0.9691108453
 40
1.0
 40
1.0
 40
1.0
 40
1.0
 10
10.3232732069
 20
7.2681889266
 30
0.0
 10
10.3193366659
 20
7.2662764255
 30
0.0
 10
10.3113913939
 20
7.2625837583
 30
0.0
 10
10.299282049
 20
7.2574526942
 30
0.0
 10
10.2869850629
 20
7.252730693
 30
0.0
 10
10.2703434351
 20
7.2469824445
 30
0.0
 10
10.249130622
 20
7.2408448795
 30
0.0
 10
10.2275113697
 20
7.2361406128
 30
0.0
 10
10.2100069992
 20
7.2332404218
 30
0.0
 10
10.1923409936
 20
7.230914096
 30
0.0
 10
10.1700546018
 20
7.2291008323
 30
0.0
 10
10.1431390608
 20
7.2286835215
 30
0.0
 10
10.1161324858
 20
7.2300235357
 30
0.0
 10
10.0891493879
 20
7.2331151399
 30
0.0
 10
10.0623031962
 20
7.2379450946
 30
0.0
 10
10.0357069877
 20
7.244492894
 30
0.0
 10
10.0094726919
 20
7.2527308091
 30
0.0
 10
9.9837107118
 20
7.2626240203
 30
0.0
 10
9.9585294421
 20
7.2741307629
 30
0.0
 10
9.9340348238
 20
7.287202505
 30
0.0
 10
9.9103299015
 20
7.30178415
 30
0.0
 10
9.8875143908
 20
7.3178142645
 30
0.0
 10
9.8656842672
 20
7.3352253423
 30
0.0
 10
9.8449313646
 20
7.3539440862
 30
0.0
 10
9.8253429937
 20
7.373891714
 30
0.0
 10
9.8070015768
 20
7.3949842894
 30
0.0
 10
9.7899843056
 20
7.4171330661
 30
0.0
 10
9.7743628133
 20
7.4402448791
 30
0.0
 10
9.7602028973
 20
7.4642224567
 30
0.0
 10
9.7475641572
 20
7.4889651077
 30
0.0
 10
9.7365000498
 20
7.5143680845
 30
0.0
 10
9.7286234614
 20
7.5360197095
 30
0.0
 10
9.7231550571
 20
7.5535633281
 30
0.0
 10
9.7182555936
 20
7.5712040843
 30
0.0
 10
9.7131866033
 20
7.5934635993
 30
0.0
 10
9.7095422535
 20
7.6159531081
 30
0.0
 10
9.7074988026
 20
7.6339971726
 30
0.0
 10
9.706040571
 20
7.6520177121
 30
0.0
 10
9.7055996369
 20
7.6655656588
 30
0.0
 10
9.7055996369
 20
7.6745836775
 30
0.0
  0
SPLINE
  5
3A6
100
AcDbEntity
  8
0
100
AcDbSpline
 62
7
  6
CONTINUOUS
 70
0
 71
3
 72
43
 73
39
 74
0
 42
0.0000001
 43
0.0000001
 44
0.0000000001
 40
0.0
 40
0.0
 40
0.0
 40
0.0
 40
0.0149715086
 40
0.0299613735
 40
0.0449716826
 40
0.0600044223
 40
0.0901399252
 40
0.1203861583
 40
0.1355567482
 40
0.1507591175
 40
0.1659943295
 40
0.1812632979
 40
0.2119009068
 40
0.2426805442
 40
0.2736037138
 40
0.3046693342
 40
0.3358737931
 40
0.3672110443
 40
0.3986727442
 40
0.4302484216
 40
0.4619256784
 40
0.4936904158
 40
0.5255270831
 40
0.5574189444
 40
0.5893483593
 40
0.6212970752
 40
0.6532465256
 40
0.685178132
 40
0.7170736064
 40
0.7489152496
 40
0.7806862438
 40
0.8123709348
 40
0.8439550989
 40
0.8754262004
 40
0.906773585
 40
0.9379888269
 40
0.9690654088
 40
1.0
 40
1.0
 40
1.0
 40
1.0
 10
10.3405540766
 20
7.3059103275
 30
0.0
 10
10.3368663427
 20
7.3037664247
 30
0.0
 10
10.3294090121
 20
7.2996074625
 30
0.0
 10
10.3180010644
 20
7.2937677577
 30
0.0
 10
10.3063767796
 20
7.2883294939
 30
0.0
 10
10.2905961278
 20
7.2816171438
 30
0.0
 10
10.270387855
 20
7.2742599847
 30
0.0
 10
10.2496760592
 20
7.2683270931
 30
0.0
 10
10.2328442187
 20
7.2644422211
 30
0.0
 10
10.2200862473
 20
7.2619598248
 30
0.0
 10
10.207222553
 20
7.2599147121
 30
0.0
 10
10.1899316566
 20
7.2577718216
 30
0.0
 10
10.1681205146
 20
7.2562000879
 30
0.0
 10
10.1417918896
 20
7.2560912075
 30
0.0
 10
10.1153932445
 20
7.2577571311
 30
0.0
 10
10.0890442084
 20
7.2611902772
 30
0.0
 10
10.0628631159
 20
7.2663749535
 30
0.0
 10
10.0369677889
 20
7.2732876478
 30
0.0
 10
10.0114746597
 20
7.2818970877
 30
0.0
 10
9.9864983492
 20
7.2921643984
 30
0.0
 10
9.9621511322
 20
7.3040432757
 30
0.0
 10
9.9385424457
 20
7.3174801966
 30
0.0
 10
9.9157784013
 20
7.3324146593
 30
0.0
 10
9.8939613135
 20
7.3487794533
 30
0.0
 10
9.8731892378
 20
7.3665009528
 30
0.0
 10
9.8535555402
 20
7.3854994557
 30
0.0
 10
9.8351484815
 20
7.4056895381
 30
0.0
 10
9.8180508238
 20
7.4269804356
 30
0.0
 10
9.8023394621
 20
7.4492764469
 30
0.0
 10
9.7880850809
 20
7.4724773603
 30
0.0
 10
9.7753518398
 20
7.4964788994
 30
0.0
 10
9.7641970798
 20
7.5211731862
 30
0.0
 10
9.7546710621
 20
7.5464492105
 30
0.0
 10
9.7468167642
 20
7.5721933718
 30
0.0
 10
9.7406696366
 20
7.5982898216
 30
0.0
 10
9.7362575626
 20
7.6246215761
 30
0.0
 10
9.733600486
 20
7.6510686817
 30
0.0
 10
9.7330059125
 20
7.6687423082
 30
0.0
 10
9.7330059125
 20
7.6775561085
 30
0.0
  0
SPLINE
  5
3A7
100
AcDbEntity
  8
0
100
AcDbSpline
 62
7
  6
CONTINUOUS
 70
0
 71
3
 72
45
 73
41
 74
0
 42
0.0000001
 43
0.0000001
 44
0.0000000001
 40
0.0
 40
0.0
 40
0.0
 40
0.0
 40
0.01499576
 40
0.0300139035
 40
0.0450561143
 40
0.0601239651
 40
0.0903380608
 40
0.1206706894
 40
0.1358861567
 40
0.1511341269
 40
0.1664152685
 40
0.1817301169
 40
0.2124583003
 40
0.2433241472
 40
0.2743267487
 40
0.3054629515
 40
0.336727438
 40
0.3681128381
 40
0.3996098698
 40
0.4312075051
 40
0.4628931575
 40
0.4946528893
 40
0.5264716336
 40
0.5583334297
 40
0.5902216674
 40
0.6221193389
 40
0.6540092951
 40
0.6858745023
 40
0.717698299
 40
0.7494646477
 40
0.7811583811
 40
0.8127654383
 40
0.844273086
 40
0.8599879576
 40
0.8756739217
 40
0.9069508876
 40
0.938100284
 40
0.9536270628
 40
0.9691202716
 40
1.0
 40
1.0
 40
1.0
 40
1.0
 10
10.3476802804
 20
7.325439969
 30
0.0
 10
10.3439551841
 20
7.3236995625
 30
0.0
 10
10.3364394041
 20
7.3203430014
 30
0.0
 10
10.3249927631
 20
7.315690733
 30
0.0
 10
10.3133763053
 20
7.3114219484
 30
0.0
 10
10.2976651475
 20
7.3062434349
 30
0.0
 10
10.2776561718
 20
7.300751483
 30
0.0
 10
10.2572858282
 20
7.2965996943
 30
0.0
 10
10.2408047146
 20
7.294084733
 30
0.0
 10
10.2283477837
 20
7.2926023805
 30
0.0
 10
10.2158217581
 20
7.2915275679
 30
0.0
 10
10.1990286437
 20
7.2906384354
 30
0.0
 10
10.1779254032
 20
7.2905538172
 30
0.0
 10
10.1525662954
 20
7.2920907131
 30
0.0
 10
10.1272459277
 20
7.2952591553
 30
0.0
 10
10.1020701747
 20
7.3000458731
 30
0.0
 10
10.0771433729
 20
7.3064308137
 30
0.0
 10
10.052569047
 20
7.3143873245
 30
0.0
 10
10.0284491735
 20
7.3238822428
 30
0.0
 10
10.0048838456
 20
7.3348760412
 30
0.0
 10
9.9819708402
 20
7.3473229916
 30
0.0
 10
9.9598052221
 20
7.361171355
 30
0.0
 10
9.9384789526
 20
7.3763635964
 30
0.0
 10
9.9180805113
 20
7.3928366222
 30
0.0
 10
9.8986945328
 20
7.4105220406
 30
0.0
 10
9.8804014586
 20
7.4293464436
 30
0.0
 10
9.8632772056
 20
7.4492317109
 30
0.0
 10
9.8473928538
 20
7.4700953249
 30
0.0
 10
9.8328143472
 20
7.49185073
 30
0.0
 10
9.8196022436
 20
7.514407619
 30
0.0
 10
9.8078113893
 20
7.537672568
 30
0.0
 10
9.7974909734
 20
7.5615484403
 30
0.0
 10
9.790144725
 20
7.5818914377
 30
0.0
 10
9.7850448796
 20
7.5983713326
 30
0.0
 10
9.7804757889
 20
7.6149406249
 30
0.0
 10
9.7757489178
 20
7.6358449207
 30
0.0
 10
9.7723507751
 20
7.6569618832
 30
0.0
 10
9.7704454241
 20
7.6739036348
 30
0.0
 10
9.7690857407
 20
7.6908230708
 30
0.0
 10
9.7686746329
 20
7.7035426902
 30
0.0
 10
9.7686746329
 20
7.7120094487
 30
0.0
  0
SPLINE
  5
3A8
100
AcDbEntity
  8
0
100
AcDbSpline
 62
7
  6
CONTINUOUS
 70
0
 71
3
 72
44
 73
40
 74
0
 42
0.0000001
 43
0.0000001
 44
0.0000000001
 40
0.0
 40
0.0
 40
0.0
 40
0.0
 40
0.0149737259
 40
0.0299663511
 40
0.0449799118
 40
0.0600163481
 40
0.0901604178
 40
0.1204163707
 40
0.1355920988
 40
0.1507997379
 40
0.1813102162
 40
0.2119585851
 40
0.2427485915
 40
0.2736814245
 40
0.3047557292
 40
0.3359676653
 40
0.3673110059
 40
0.3987772749
 40
0.4303559165
 40
0.4620344944
 40
0.4937989167
 40
0.5256336813
 40
0.5575221388
 40
0.5894467691
 40
0.6213894676
 40
0.6533318386
 40
0.6852554916
 40
0.7171423375
 40
0.7489748818
 40
0.780736511
 40
0.8124117693
 40
0.8439866182
 40
0.8597344782
 40
0.8754527511
 40
0.9067915376
 40
0.9379987318
 40
0.9535528394
 40
0.9690721347
 40
1.0
 40
1.0
 40
1.0
 40
1.0
 10
10.3624547058
 20
7.3824596969
 30
0.0
 10
10.359123322
 20
7.3805711296
 30
0.0
 10
10.3523885891
 20
7.3769097228
 30
0.0
 10
10.3420918951
 20
7.3717756645
 30
0.0
 10
10.3316054356
 20
7.3670017589
 30
0.0
 10
10.3173762411
 20
7.3611197333
 30
0.0
 10
10.2991675114
 20
7.3546935993
 30
0.0
 10
10.2805211657
 20
7.3495430008
 30
0.0
 10
10.2653761982
 20
7.3461935248
 30
0.0
 10
10.2500608917
 20
7.3433557382
 30
0.0
 10
10.2306831863
 20
7.3407890567
 30
0.0
 10
10.2071978062
 20
7.3392918146
 30
0.0
 10
10.1835565945
 20
7.3393798873
 30
0.0
 10
10.159865674
 20
7.34105282
 30
0.0
 10
10.1362304702
 20
7.3443029266
 30
0.0
 10
10.1127563634
 20
7.3491155515
 30
0.0
 10
10.0895479229
 20
7.3554690804
 30
0.0
 10
10.0667085272
 20
7.363335057
 30
0.0
 10
10.0443398875
 20
7.3726783081
 30
0.0
 10
10.0225416033
 20
7.3834570988
 30
0.0
 10
10.0014107237
 20
7.3956233235
 30
0.0
 10
9.9810413211
 20
7.4091227204
 30
0.0
 10
9.9615240759
 20
7.423895113
 30
0.0
 10
9.9429458781
 20
7.4398746762
 30
0.0
 10
9.9253894434
 20
7.4569902272
 30
0.0
 10
9.9089329485
 20
7.4751655419
 30
0.0
 10
9.8936496872
 20
7.4943196857
 30
0.0
 10
9.8796077416
 20
7.5143673907
 30
0.0
 10
9.8668696993
 20
7.535219359
 30
0.0
 10
9.855492297
 20
7.55678292
 30
0.0
 10
9.8455264626
 20
7.5789614625
 30
0.0
 10
9.8384280281
 20
7.5978927091
 30
0.0
 10
9.833498389
 20
7.6132455399
 30
0.0
 10
9.8290809452
 20
7.6286907475
 30
0.0
 10
9.8245093915
 20
7.6481926721
 30
0.0
 10
9.8212216775
 20
7.6679092688
 30
0.0
 10
9.8193780238
 20
7.6837328682
 30
0.0
 10
9.8180623561
 20
7.699536764
 30
0.0
 10
9.8176644215
 20
7.7114202863
 30
0.0
 10
9.8176644215
 20
7.7193299536
 30
0.0
  0
SPLINE
  5
3A9
100
AcDbEntity
  8
0
100
AcDbSpline
 62
7
  6
CONTINUOUS
 70
0
 71
3
 72
23
 73
19
 74
0
 42
0.0000001
 43
0.0000001
 44
0.0000000001
 40
0.0
 40
0.0
 40
0.0
 40
0.0
 40
0.0617140062
 40
0.1237225906
 40
0.1859977335
 40
0.2485051265
 40
0.3112050437
 40
0.3740533184
 40
0.4370023864
 40
0.500002386
 40
0.5630023003
 40
0.6259511149
 40
0.6887989756
 40
0.7514983264
 40
0.8140050108
 40
0.8762793219
 40
0.9382869792
 40
1.0
 40
1.0
 40
1.0
 40
1.0
 10
10.3530454478
 20
7.5672195096
 30
0.0
 10
10.343742322
 20
7.5691196896
 30
0.0
 10
10.3252318735
 20
7.5736554173
 30
0.0
 10
10.2980154592
 20
7.5825843998
 30
0.0
 10
10.2714413879
 20
7.5936011013
 30
0.0
 10
10.2456783727
 20
7.6066357535
 30
0.0
 10
10.2208871729
 20
7.6216065246
 30
0.0
 10
10.1972232408
 20
7.6384194263
 30
0.0
 10
10.1748347679
 20
7.6569690144
 30
0.0
 10
10.1538619775
 20
7.6771389495
 30
0.0
 10
10.1344362736
 20
7.6988028379
 30
0.0
 10
10.1166794335
 20
7.7218249766
 30
0.0
 10
10.1007027543
 20
7.7460611064
 30
0.0
 10
10.0866064563
 20
7.7713594661
 30
0.0
 10
10.0744791197
 20
7.7975614542
 30
0.0
 10
10.0643968332
 20
7.8245035155
 30
0.0
 10
10.0564234435
 20
7.8520146182
 30
0.0
 10
10.0525367017
 20
7.8706718339
 30
0.0
 10
10.0509625246
 20
7.8800354827
 30
0.0
  0
SPLINE
  5
3AA
100
AcDbEntity
  8
0
100
AcDbSpline
 62
7
  6
CONTINUOUS
 70
0
 71
3
 72
23
 73
19
 74
0
 42
0.0000001
 43
0.0000001
 44
0.0000000001
 40
0.0
 40
0.0
 40
0.0
 40
0.0
 40
0.0618325541
 40
0.1239179325
 40
0.186229838
 40
0.2487375694
 40
0.3114066567
 40
0.374199551
 40
0.4370763564
 40
0.4999955933
 40
0.562914983
 40
0.6257922437
 40
0.6885858868
 40
0.7512560024
 40
0.8137650223
 40
0.8760784524
 40
0.9381655634
 40
1.0
 40
1.0
 40
1.0
 40
1.0
 10
10.343286255
 20
7.5984895862
 30
0.0
 10
10.3354096278
 20
7.6005538975
 30
0.0
 10
10.3197640225
 20
7.6052467356
 30
0.0
 10
10.2968017645
 20
7.6139121851
 30
0.0
 10
10.2744087497
 20
7.6241752795
 30
0.0
 10
10.2527028849
 20
7.6359821051
 30
0.0
 10
10.231796544
 20
7.6492712664
 30
0.0
 10
10.2117984686
 20
7.6639735626
 30
0.0
 10
10.1928125435
 20
7.6800125179
 30
0.0
 10
10.1749374429
 20
7.697304729
 30
0.0
 10
10.1582660784
 20
7.7157603072
 30
0.0
 10
10.1428851149
 20
7.735283326
 30
0.0
 10
10.1288745336
 20
7.7557723159
 30
0.0
 10
10.1163072157
 20
7.7771208374
 30
0.0
 10
10.1052486062
 20
7.799217846
 30
0.0
 10
10.0957562218
 20
7.8219489322
 30
0.0
 10
10.0878799299
 20
7.8451944152
 30
0.0
 10
10.0837240436
 20
7.8609916242
 30
0.0
 10
10.0819298744
 20
7.8689343964
 30
0.0
  0
SPLINE
  5
3AB
100
AcDbEntity
  8
0
100
AcDbSpline
 62
7
  6
CONTINUOUS
 70
0
 71
3
 72
23
 73
19
 74
0
 42
0.0000001
 43
0.0000001
 44
0.0000000001
 40
0.0
 40
0.0
 40
0.0
 40
0.0
 40
0.0617101446
 40
0.123441395
 40
0.1852146431
 40
0.247050352
 40
0.3089683478
 40
0.3709876199
 40
0.4331261339
 40
0.495400661
 40
0.5578266111
 40
0.6204179017
 40
0.6831868168
 40
0.746143859
 40
0.8092980008
 40
0.8726552579
 40
0.9362226181
 40
1.0
 40
1.0
 40
1.0
 40
1.0
 10
9.6537218484
 20
7.7925099092
 30
0.0
 10
9.6490993243
 20
7.7880449087
 30
0.0
 10
9.6400808383
 20
7.7788736575
 30
0.0
 10
9.627276057
 20
7.7644367804
 30
0.0
 10
9.6152212147
 20
7.7493506546
 30
0.0
 10
9.6039445812
 20
7.7336505579
 30
0.0
 10
9.5934720314
 20
7.7173725799
 30
0.0
 10
9.5838277342
 20
7.7005543103
 30
0.0
 10
9.5750338866
 20
7.6832345459
 30
0.0
 10
9.5671107369
 20
7.6654532435
 30
0.0
 10
9.560076519
 20
7.6472514155
 30
0.0
 10
9.5539474175
 20
7.6286710369
 30
0.0
 10
9.5487375391
 20
7.6097549569
 30
0.0
 10
9.5444588228
 20
7.5905467639
 30
0.0
 10
9.541121141
 20
7.5710908395
 30
0.0
 10
9.5387320082
 20
7.5514317301
 30
0.0
 10
9.5372970755
 20
7.531615506
 30
0.0
 10
9.5369791682
 20
7.5183509107
 30
0.0
 10
9.5369791682
 20
7.5117088023
 30
0.0
  0
SPLINE
  5
3AC
100
AcDbEntity
  8
0
100
AcDbSpline
 62
7
  6
CONTINUOUS
 70
0
 71
3
 72
15
 73
11
 74
0
 42
0.0000001
 43
0.0000001
 44
0.0000000001
 40
0.0
 40
0.0
 40
0.0
 40
0.0
 40
0.1235311668
 40
0.2474097107
 40
0.3716794916
 40
0.4963785657
 40
0.6215386323
 40
0.7471847907
 40
0.8733348662
 40
1.0
 40
1.0
 40
1.0
 40
1.0
 10
9.7509789049
 20
7.8603306107
 30
0.0
 10
9.7472634783
 20
7.8533017431
 30
0.0
 10
9.7402600586
 20
7.8389878069
 30
0.0
 10
9.7310945262
 20
7.816876473
 30
0.0
 10
9.7232849019
 20
7.7941702893
 30
0.0
 10
9.7168587923
 20
7.770949293
 30
0.0
 10
9.7118382578
 20
7.7472940061
 30
0.0
 10
9.7082406723
 20
7.7232864459
 30
0.0
 10
9.7060783849
 20
7.6990111152
 30
0.0
 10
9.7055996369
 20
7.6827358112
 30
0.0
 10
9.7055996369
 20
7.6745836775
 30
0.0
  0
SPLINE
  5
3AD
100
AcDbEntity
  8
0
100
AcDbSpline
 62
7
  6
CONTINUOUS
 70
0
 71
3
 72
15
 73
11
 74
0
 42
0.0000001
 43
0.0000001
 44
0.0000000001
 40
0.0
 40
0.0
 40
0.0
 40
0.0
 40
0.1234302511
 40
0.2472010722
 40
0.3713774057
 40
0.4960161699
 40
0.621165099
 40
0.7468624982
 40
0.8731345952
 40
1.0
 40
1.0
 40
1.0
 40
1.0
 10
9.789472324
 20
7.8766402224
 30
0.0
 10
9.7848783272
 20
7.8693399312
 30
0.0
 10
9.7762028424
 20
7.8543811633
 30
0.0
 10
9.7648182011
 20
7.8310356623
 30
0.0
 10
9.7550955225
 20
7.806858256
 30
0.0
 10
9.7470803302
 20
7.7819618397
 30
0.0
 10
9.740809029
 20
7.7564607847
 30
0.0
 10
9.7363103809
 20
7.7304722466
 30
0.0
 10
9.7336047283
 20
7.7041173243
 30
0.0
 10
9.7330059125
 20
7.686421651
 30
0.0
 10
9.7330059125
 20
7.6775561085
 30
0.0
  0
SPLINE
  5
3AE
100
AcDbEntity
  8
0
100
AcDbSpline
 62
7
  6
CONTINUOUS
 70
0
 71
3
 72
17
 73
13
 74
0
 42
0.0000001
 43
0.0000001
 44
0.0000000001
 40
0.0
 40
0.0
 40
0.0
 40
0.0
 40
0.1235512808
 40
0.1854611434
 40
0.2474628454
 40
0.3717472299
 40
0.4964534348
 40
0.5589808612
 40
0.6216243227
 40
0.7472554957
 40
0.8733776944
 40
1.0
 40
1.0
 40
1.0
 40
1.0
 10
9.8092603877
 20
7.8831600289
 30
0.0
 10
9.8059339282
 20
7.8766495159
 30
0.0
 10
9.8012354959
 20
7.8667218084
 30
0.0
 10
9.7955748623
 20
7.8532149556
 30
0.0
 10
9.790306662
 20
7.8395032654
 30
0.0
 10
9.7844816535
 20
7.8220344066
 30
0.0
 10
9.7796982116
 20
7.8042200278
 30
0.0
 10
9.7764992448
 20
7.789781924
 30
0.0
 10
9.7737163147
 20
7.7752022087
 30
0.0
 10
9.7710344448
 20
7.75678042
 30
0.0
 10
9.7691024578
 20
7.7344620226
 30
0.0
 10
9.7686746329
 20
7.7195022705
 30
0.0
 10
9.7686746329
 20
7.7120094487
 30
0.0
  0
SPLINE
  5
3AF
100
AcDbEntity
  8
0
100
AcDbSpline
 62
7
  6
CONTINUOUS
 70
0
 71
3
 72
15
 73
11
 74
0
 42
0.0000001
 43
0.0000001
 44
0.0000000001
 40
0.0
 40
0.0
 40
0.0
 40
0.0
 40
0.1234432861
 40
0.2472296877
 40
0.3714204593
 40
0.4960692094
 40
0.6212208018
 40
0.7469112475
 40
0.8731652238
 40
1.0
 40
1.0
 40
1.0
 40
1.0
 10
9.8665237442
 20
7.8955341826
 30
0.0
 10
9.86254437
 20
7.8890379218
 30
0.0
 10
9.8550318554
 20
7.8757408868
 30
0.0
 10
9.8451779953
 20
7.8550253975
 30
0.0
 10
9.8367658773
 20
7.8336027375
 30
0.0
 10
9.8298332812
 20
7.8115687787
 30
0.0
 10
9.8244103861
 20
7.7890205457
 30
0.0
 10
9.8205210386
 20
7.7660573294
 30
0.0
 10
9.8181821057
 20
7.7427817062
 30
0.0
 10
9.8176644215
 20
7.7271574466
 30
0.0
 10
9.8176644215
 20
7.7193299536
 30
0.0
  0
SPLINE
  5
3B0
100
AcDbEntity
  8
0
100
AcDbSpline
 62
7
  6
CONTINUOUS
 70
0
 71
3
 72
29
 73
25
 74
0
 42
0.0000001
 43
0.0000001
 44
0.0000000001
 40
0.0
 40
0.0
 40
0.0
 40
0.0
 40
0.0731880648
 40
0.1464530282
 40
0.2195146061
 40
0.2920694881
 40
0.3637904109
 40
0.4343279496
 40
0.5033156606
 40
0.5703783332
 40
0.6351431971
 40
0.6972539708
 40
0.7272111504
 40
0.7563863153
 40
0.7847465371
 40
0.8122622186
 40
0.8389083368
 40
0.8646641601
 40
0.8895139885
 40
0.9134472725
 40
0.9364588224
 40
0.9585493544
 40
0.9797253898
 40
1.0
 40
1.0
 40
1.0
 40
1.0
 10
11.2486852241
 20
7.7991528259
 30
0.0
 10
11.2491799665
 20
7.793840887
 30
0.0
 10
11.2503135994
 20
7.783224326
 30
0.0
 10
11.2524132933
 20
7.7673600299
 30
0.0
 10
11.254872877
 20
7.7515944009
 30
0.0
 10
11.2576405805
 20
7.7359945537
 30
0.0
 10
11.2606552132
 20
7.7206282716
 30
0.0
 10
11.2638466377
 20
7.7055637035
 30
0.0
 10
11.2671366948
 20
7.6908683743
 30
0.0
 10
11.2704407062
 20
7.6766079548
 30
0.0
 10
11.2736693875
 20
7.6628447834
 30
0.0
 10
11.2762513868
 20
7.6517080175
 30
0.0
 10
11.2781895581
 20
7.6430852903
 30
0.0
 10
11.2795494904
 20
7.6368542825
 30
0.0
 10
11.280822579
 20
7.6307866538
 30
0.0
 10
11.2819983215
 20
7.6248872377
 30
0.0
 10
11.2830667792
 20
7.6191604134
 30
0.0
 10
11.2840184736
 20
7.6136100311
 30
0.0
 10
11.2848444976
 20
7.6082394751
 30
0.0
 10
11.2855366237
 20
7.6030516804
 30
0.0
 10
11.2860871157
 20
7.5980491516
 30
0.0
 10
11.2864891311
 20
7.5932340163
 30
0.0
 10
11.286736189
 20
7.5886081518
 30
0.0
 10
11.2867952197
 20
7.5855864652
 30
0.0
 10
11.286795291
 20
7.5841085794
 30
0.0
  0
SPLINE
  5
3B1
100
AcDbEntity
  8
0
100
AcDbSpline
 62
7
  6
CONTINUOUS
 70
0
 71
3
 72
39
 73
35
 74
0
 42
0.0000001
 43
0.0000001
 44
0.0000000001
 40
0.0
 40
0.0
 40
0.0
 40
0.0
 40
0.0299424711
 40
0.0599093187
 40
0.0899243254
 40
0.120010105
 40
0.1501875638
 40
0.1804754155
 40
0.2108897596
 40
0.2414437359
 40
0.2721472599
 40
0.303006843
 40
0.3340254958
 40
0.3652027155
 40
0.3965345503
 40
0.4280137351
 40
0.4596298915
 40
0.4913697854
 40
0.523217633
 40
0.5551554502
 40
0.5871634346
 40
0.6192203772
 40
0.6513040926
 40
0.6833918634
 40
0.7154608915
 40
0.747488751
 40
0.7794538358
 40
0.811335796
 40
0.8431159553
 40
0.8747777133
 40
0.9063068641
 40
0.9376920954
 40
0.9689246611
 40
1.0
 40
1.0
 40
1.0
 40
1.0
 10
11.4845937492
 20
8.3433319518
 30
0.0
 10
11.4799320631
 20
8.3388290879
 30
0.0
 10
11.4702420995
 20
8.3301867916
 30
0.0
 10
11.4547172936
 20
8.3184131682
 30
0.0
 10
11.4382819448
 20
8.3078883274
 30
0.0
 10
11.4210278989
 20
8.298671298
 30
0.0
 10
11.4030500168
 20
8.2908124339
 30
0.0
 10
11.3844475176
 20
8.284354933
 30
0.0
 10
11.3653229114
 20
8.2793341265
 30
0.0
 10
11.3457815603
 20
8.2757774271
 30
0.0
 10
11.3259310548
 20
8.273704157
 30
0.0
 10
11.3058806281
 20
8.273125468
 30
0.0
 10
11.2857405537
 20
8.2740442831
 30
0.0
 10
11.2656215406
 20
8.2764552955
 30
0.0
 10
11.2456341304
 20
8.2803450167
 30
0.0
 10
11.2258880972
 20
8.2856918586
 30
0.0
 10
11.2064918534
 20
8.2924662593
 30
0.0
 10
11.1875518636
 20
8.3006308501
 30
0.0
 10
11.1691720685
 20
8.3101406629
 30
0.0
 10
11.1514533235
 20
8.3209433782
 30
0.0
 10
11.1344928458
 20
8.3329796023
 30
0.0
 10
11.1183836928
 20
8.3461832025
 30
0.0
 10
11.1032142575
 20
8.3604816673
 30
0.0
 10
11.0890677899
 20
8.3757965007
 30
0.0
 10
11.0760219448
 20
8.392043649
 30
0.0
 10
11.0641483604
 20
8.4091339566
 30
0.0
 10
11.0535122693
 20
8.4269736493
 30
0.0
 10
11.0441721378
 20
8.4454648428
 30
0.0
 10
11.0361793405
 20
8.4645060615
 30
0.0
 10
11.0295779025
 20
8.483992836
 30
0.0
 10
11.0244042068
 20
8.503818114
 30
0.0
 10
11.0206869166
 20
8.5238734029
 30
0.0
 10
11.0184465644
 20
8.5440471516
 30
0.0
 10
11.0179447836
 20
8.5575393747
 30
0.0
 10
11.0179447836
 20
8.5642658816
 30
0.0
  0
SPLINE
  5
3B2
100
AcDbEntity
  8
0
100
AcDbSpline
 62
7
  6
CONTINUOUS
 70
0
 71
3
 72
23
 73
19
 74
0
 42
0.0000001
 43
0.0000001
 44
0.0000000001
 40
0.0
 40
0.0
 40
0.0
 40
0.0
 40
0.0617101467
 40
0.1234414005
 40
0.1852146478
 40
0.2470503543
 40
0.3089683505
 40
0.3709876232
 40
0.433126136
 40
0.4954006598
 40
0.5578266145
 40
0.6204179204
 40
0.6831867797
 40
0.7461439117
 40
0.8092980272
 40
0.8726549309
 40
0.9362234023
 40
1.0
 40
1.0
 40
1.0
 40
1.0
 10
11.0941461646
 20
8.7475530119
 30
0.0
 10
11.0911289189
 20
8.7446385627
 30
0.0
 10
11.0852422567
 20
8.7386522488
 30
0.0
 10
11.0768842183
 20
8.7292288564
 30
0.0
 10
11.0690156742
 20
8.7193816952
 30
0.0
 10
11.0616550802
 20
8.7091337841
 30
0.0
 10
11.0548193328
 20
8.6985086737
 30
0.0
 10
11.0485242259
 20
8.6875308896
 30
0.0
 10
11.0427842224
 20
8.6762257716
 30
0.0
 10
11.0376125365
 20
8.6646193991
 30
0.0
 10
11.0330210986
 20
8.6527385284
 30
0.0
 10
11.0290204765
 20
8.6406105648
 30
0.0
 10
11.0256198242
 20
8.6282634839
 30
0.0
 10
11.0228269674
 20
8.615725734
 30
0.0
 10
11.0206483742
 20
8.603026299
 30
0.0
 10
11.0190889029
 20
8.590194172
 30
0.0
 10
11.0181523131
 20
8.5772595399
 30
0.0
 10
11.0179447836
 20
8.5686013275
 30
0.0
 10
11.0179447836
 20
8.5642658816
 30
0.0
  0
SPLINE
  5
3B3
100
AcDbEntity
  8
0
100
AcDbSpline
 62
7
  6
CONTINUOUS
 70
0
 71
3
 72
39
 73
35
 74
0
 42
0.0000001
 43
0.0000001
 44
0.0000000001
 40
0.0
 40
0.0
 40
0.0
 40
0.0
 40
0.0299424711
 40
0.0599093187
 40
0.0899243254
 40
0.120010105
 40
0.1501875638
 40
0.1804754155
 40
0.2108897596
 40
0.2414437359
 40
0.2721472599
 40
0.303006843
 40
0.3340254958
 40
0.3652027155
 40
0.3965345503
 40
0.4280137351
 40
0.4596298915
 40
0.4913697854
 40
0.523217633
 40
0.5551554502
 40
0.5871634346
 40
0.6192203772
 40
0.6513040926
 40
0.6833918634
 40
0.7154608915
 40
0.747488751
 40
0.7794538358
 40
0.811335796
 40
0.8431159553
 40
0.8747777133
 40
0.9063068641
 40
0.9376920954
 40
0.9689246611
 40
1.0
 40
1.0
 40
1.0
 40
1.0
 10
10.0357049239
 20
8.4438127331
 30
0.0
 10
10.0310432378
 20
8.4393098692
 30
0.0
 10
10.0213532742
 20
8.4306675729
 30
0.0
 10
10.0058284683
 20
8.4188939495
 30
0.0
 10
9.9893931196
 20
8.4083691088
 30
0.0
 10
9.9721390737
 20
8.3991520793
 30
0.0
 10
9.9541611916
 20
8.3912932152
 30
0.0
 10
9.9355586923
 20
8.3848357143
 30
0.0
 10
9.9164340861
 20
8.3798149078
 30
0.0
 10
9.8968927351
 20
8.3762582084
 30
0.0
 10
9.8770422295
 20
8.3741849383
 30
0.0
 10
9.8569918028
 20
8.3736062493
 30
0.0
 10
9.8368517284
 20
8.3745250644
 30
0.0
 10
9.8167327153
 20
8.3769360768
 30
0.0
 10
9.7967453051
 20
8.380825798
 30
0.0
 10
9.7769992719
 20
8.3861726399
 30
0.0
 10
9.7576030281
 20
8.3929470407
 30
0.0
 10
9.7386630383
 20
8.4011116314
 30
0.0
 10
9.7202832432
 20
8.4106214442
 30
0.0
 10
9.7025644982
 20
8.4214241595
 30
0.0
 10
9.6856040206
 20
8.4334603836
 30
0.0
 10
9.6694948675
 20
8.4466639838
 30
0.0
 10
9.6543254322
 20
8.4609624486
 30
0.0
 10
9.6401789646
 20
8.476277282
 30
0.0
 10
9.6271331195
 20
8.4925244304
 30
0.0
 10
9.6152595351
 20
8.5096147379
 30
0.0
 10
9.604623444
 20
8.5274544307
 30
0.0
 10
9.5952833126
 20
8.5459456241
 30
0.0
 10
9.5872905152
 20
8.5649868428
 30
0.0
 10
9.5806890772
 20
8.5844736173
 30
0.0
 10
9.5755153815
 20
8.6042988953
 30
0.0
 10
9.5717980913
 20
8.6243541842
 30
0.0
 10
9.5695577391
 20
8.644527933
 30
0.0
 10
9.5690559583
 20
8.658020156
 30
0.0
 10
9.5690559583
 20
8.6647466629
 30
0.0
  0
SPLINE
  5
3B4
100
AcDbEntity
  8
0
100
AcDbSpline
 62
7
  6
CONTINUOUS
 70
0
 71
3
 72
23
 73
19
 74
0
 42
0.0000001
 43
0.0000001
 44
0.0000000001
 40
0.0
 40
0.0
 40
0.0
 40
0.0
 40
0.0617101467
 40
0.1234414005
 40
0.1852146478
 40
0.2470503543
 40
0.3089683505
 40
0.3709876232
 40
0.433126136
 40
0.4954006598
 40
0.5578266145
 40
0.6204179204
 40
0.6831867797
 40
0.7461439117
 40
0.8092980272
 40
0.8726549309
 40
0.9362234023
 40
1.0
 40
1.0
 40
1.0
 40
1.0
 10
9.6452573393
 20
8.8480337932
 30
0.0
 10
9.6422400936
 20
8.8451193441
 30
0.0
 10
9.6363534314
 20
8.8391330301
 30
0.0
 10
9.627995393
 20
8.8297096377
 30
0.0
 10
9.620126849
 20
8.8198624765
 30
0.0
 10
9.6127662549
 20
8.8096145654
 30
0.0
 10
9.6059305075
 20
8.798989455
 30
0.0
 10
9.5996354006
 20
8.7880116709
 30
0.0
 10
9.5938953971
 20
8.7767065529
 30
0.0
 10
9.5887237112
 20
8.7651001804
 30
0.0
 10
9.5841322733
 20
8.7532193097
 30
0.0
 10
9.5801316512
 20
8.7410913461
 30
0.0
 10
9.576730999
 20
8.7287442652
 30
0.0
 10
9.5739381421
 20
8.7162065153
 30
0.0
 10
9.5717595489
 20
8.7035070803
 30
0.0
 10
9.5702000776
 20
8.6906749533
 30
0.0
 10
9.5692634878
 20
8.6777403212
 30
0.0
 10
9.5690559583
 20
8.6690821088
 30
0.0
 10
9.5690559583
 20
8.6647466629
 30
0.0
  0
SPLINE
  5
3B5
100
AcDbEntity
  8
0
100
AcDbSpline
 62
7
  6
CONTINUOUS
 70
0
 71
3
 72
36
 73
32
 74
0
 42
0.0000001
 43
0.0000001
 44
0.0000000001
 40
0.0
 40
0.0
 40
0.0
 40
0.0
 40
0.0063161168
 40
0.0126711619
 40
0.0191032581
 40
0.0256490626
 40
0.0392095001
 40
0.05360793
 40
0.0690454499
 40
0.0856791324
 40
0.1036278316
 40
0.1229783533
 40
0.1437916317
 40
0.1661081543
 40
0.1899514448
 40
0.2153320271
 40
0.2422489508
 40
0.2706924073
 40
0.3006446146
 40
0.3320810971
 40
0.3649717252
 40
0.3992808975
 40
0.4349688229
 40
0.4719911741
 40
0.5103002058
 40
0.5498445536
 40
0.632416346
 40
0.7192407559
 40
0.8098108808
 40
0.9035854839
 40
1.0
 40
1.0
 40
1.0
 40
1.0
 10
12.8166646281
 20
7.5597908849
 30
0.0
 10
12.8169553389
 20
7.5597707206
 30
0.0
 10
12.8175371794
 20
7.5597064676
 30
0.0
 10
12.818403408
 20
7.5595389912
 30
0.0
 10
12.8192638728
 20
7.559300431
 30
0.0
 10
12.8204160611
 20
7.5588830951
 30
0.0
 10
12.8218477125
 20
7.5581735483
 30
0.0
 10
12.8235116064
 20
7.5570509369
 30
0.0
 10
12.8251406594
 20
7.5556505669
 30
0.0
 10
12.8267331376
 20
7.5539757042
 30
0.0
 10
12.8282875644
 20
7.5520292541
 30
0.0
 10
12.8298021466
 20
7.5498143216
 30
0.0
 10
12.8312749483
 20
7.5473343124
 30
0.0
 10
12.8327038289
 20
7.5445930244
 30
0.0
 10
12.8340866915
 20
7.5415947471
 30
0.0
 10
12.8354213085
 20
7.5383441924
 30
0.0
 10
12.8367055898
 20
7.5348465616
 30
0.0
 10
12.8379374092
 20
7.5311074763
 30
0.0
 10
12.8391147537
 20
7.5271329971
 30
0.0
 10
12.8402356862
 20
7.5229295938
 30
0.0
 10
12.8412983184
 20
7.51850413
 30
0.0
 10
12.8423009235
 20
7.5138638551
 30
0.0
 10
12.8432417895
 20
7.5090163797
 30
0.0
 10
12.8441193839
 20
7.5039696709
 30
0.0
 10
12.8449322355
 20
7.4987320199
 30
0.0
 10
12.8459424355
 20
7.491399378
 30
0.0
 10
12.8470254429
 20
7.4818187694
 30
0.0
 10
12.8480308932
 20
7.4698653852
 30
0.0
 10
12.8487531554
 20
7.4573738576
 30
0.0
 10
12.8491873304
 20
7.444426498
 30
0.0
 10
12.8492815576
 20
7.4356513182
 30
0.0
 10
12.8492815576
 20
7.4312030016
 30
0.0
  0
SPLINE
  5
3B6
100
AcDbEntity
  8
0
100
AcDbSpline
 62
7
  6
CONTINUOUS
 70
0
 71
3
 72
36
 73
32
 74
0
 42
0.0000001
 43
0.0000001
 44
0.0000000001
 40
0.0
 40
0.0
 40
0.0
 40
0.0
 40
0.0063161168
 40
0.0126711619
 40
0.0191032581
 40
0.0256490626
 40
0.0392095001
 40
0.05360793
 40
0.0690454499
 40
0.0856791324
 40
0.1036278316
 40
0.1229783533
 40
0.1437916317
 40
0.1661081543
 40
0.1899514448
 40
0.2153320271
 40
0.2422489508
 40
0.2706924073
 40
0.3006446146
 40
0.3320810971
 40
0.3649717252
 40
0.3992808975
 40
0.4349688229
 40
0.4719911741
 40
0.5103002058
 40
0.5498445536
 40
0.632416346
 40
0.7192407559
 40
0.8098108808
 40
0.9035854839
 40
1.0
 40
1.0
 40
1.0
 40
1.0
 10
12.1049128415
 20
6.8722914116
 30
0.0
 10
12.1052035523
 20
6.8722712473
 30
0.0
 10
12.1057853928
 20
6.8722069943
 30
0.0
 10
12.1066516214
 20
6.8720395178
 30
0.0
 10
12.1075120862
 20
6.8718009576
 30
0.0
 10
12.1086642745
 20
6.8713836218
 30
0.0
 10
12.1100959259
 20
6.8706740749
 30
0.0
 10
12.1117598197
 20
6.8695514635
 30
0.0
 10
12.1133888728
 20
6.8681510935
 30
0.0
 10
12.1149813509
 20
6.8664762309
 30
0.0
 10
12.1165357777
 20
6.8645297807
 30
0.0
 10
12.11805036
 20
6.8623148482
 30
0.0
 10
12.1195231617
 20
6.8598348391
 30
0.0
 10
12.1209520422
 20
6.8570935511
 30
0.0
 10
12.1223349049
 20
6.8540952738
 30
0.0
 10
12.1236695219
 20
6.8508447191
 30
0.0
 10
12.1249538031
 20
6.8473470883
 30
0.0
 10
12.1261856226
 20
6.843608003
 30
0.0
 10
12.127362967
 20
6.8396335238
 30
0.0
 10
12.1284838996
 20
6.8354301204
 30
0.0
 10
12.1295465318
 20
6.8310046566
 30
0.0
 10
12.1305491369
 20
6.8263643817
 30
0.0
 10
12.1314900029
 20
6.8215169064
 30
0.0
 10
12.1323675972
 20
6.8164701975
 30
0.0
 10
12.1331804488
 20
6.8112325466
 30
0.0
 10
12.1341906489
 20
6.8038999047
 30
0.0
 10
12.1352736563
 20
6.794319296
 30
0.0
 10
12.1362791066
 20
6.7823659119
 30
0.0
 10
12.1370013687
 20
6.7698743843
 30
0.0
 10
12.1374355437
 20
6.7569270246
 30
0.0
 10
12.137529771
 20
6.7481518449
 30
0.0
 10
12.137529771
 20
6.7437035283
 30
0.0
  0
SPLINE
  5
3B7
100
AcDbEntity
  8
0
100
AcDbSpline
 62
7
  6
CONTINUOUS
 70
0
 71
3
 72
71
 73
67
 74
0
 42
0.0000001
 43
0.0000001
 44
0.0000000001
 40
0.0
 40
0.0
 40
0.0
 40
0.0
 40
0.0155842752
 40
0.0311159217
 40
0.0465952561
 40
0.062023882
 40
0.0774034483
 40
0.0927362826
 40
0.1080251228
 40
0.1232731737
 40
0.1384840559
 40
0.1536617767
 40
0.1688106901
 40
0.183935453
 40
0.199040978
 40
0.2141323819
 40
0.2292149319
 40
0.2442939897
 40
0.2593749544
 40
0.2744632045
 40
0.289564041
 40
0.3046826303
 40
0.3198239506
 40
0.3349927389
 40
0.3501934431
 40
0.3654301768
 40
0.3807066784
 40
0.3960262758
 40
0.4113918559
 40
0.4268058389
 40
0.4422701586
 40
0.4577862477
 40
0.4733550286
 40
0.4889769093
 40
0.5046517847
 40
0.5203790431
 40
0.5361575764
 40
0.5519857966
 40
0.5678616541
 40
0.583782661
 40
0.5997459175
 40
0.6157481412
 40
0.6317856997
 40
0.6478546449
 40
0.6639507506
 40
0.6800695511
 40
0.6962063816
 40
0.7123564195
 40
0.7285147267
 40
0.7446762933
 40
0.7608360806
 40
0.7769890653
 40
0.7931302837
 40
0.8092548749
 40
0.8253581232
 40
0.8414355003
 40
0.8574827056
 40
0.8734957056
 40
0.8894707712
 40
0.9054045129
 40
0.9212939188
 40
0.9371363627
 40
0.9529297122
 40
0.9686721024
 40
0.9843626029
 40
1.0
 40
1.0
 40
1.0
 40
1.0
 10
11.6018581322
 20
7.3587288166
 30
0.0
 10
11.6018581322
 20
7.3513612574
 30
0.0
 10
11.601497582
 20
7.3366484068
 30
0.0
 10
11.5998700113
 20
7.3146718081
 30
0.0
 10
11.5971603507
 20
7.2928757545
 30
0.0
 10
11.5933752141
 20
7.2713135778
 30
0.0
 10
11.5885235686
 20
7.2500369656
 30
0.0
 10
11.5826171081
 20
7.2290972962
 30
0.0
 10
11.5756699919
 20
7.2085450285
 30
0.0
 10
11.5676989256
 20
7.1884297287
 30
0.0
 10
11.5587230757
 20
7.1687999089
 30
0.0
 10
11.5487640487
 20
7.1497029155
 30
0.0
 10
11.5378458268
 20
7.1311848135
 30
0.0
 10
11.5259947117
 20
7.1132902757
 30
0.0
 10
11.5132392616
 20
7.096062473
 30
0.0
 10
11.4996102227
 20
7.0795429693
 30
0.0
 10
11.4851404544
 20
7.0637716193
 30
0.0
 10
11.4698648502
 20
7.0487864714
 30
0.0
 10
11.4538202528
 20
7.0346236749
 30
0.0
 10
11.4370453694
 20
7.0213173838
 30
0.0
 10
11.4195806708
 20
7.0088996804
 30
0.0
 10
11.4014682922
 20
6.9974004969
 30
0.0
 10
11.3827519299
 20
6.9868475437
 30
0.0
 10
11.3634767348
 20
6.9772662424
 30
0.0
 10
11.3436892023
 20
6.9686796648
 30
0.0
 10
11.3234370583
 20
6.9611084785
 30
0.0
 10
11.3027691441
 20
6.9545708972
 30
0.0
 10
11.2817352991
 20
6.9490826302
 30
0.0
 10
11.2603862363
 20
6.9446568531
 30
0.0
 10
11.2387734199
 20
6.9413041781
 30
0.0
 10
11.2169489406
 20
6.9390326297
 30
0.0
 10
11.1949653905
 20
6.9378476268
 30
0.0
 10
11.1728757366
 20
6.937751971
 30
0.0
 10
11.1507331935
 20
6.9387458412
 30
0.0
 10
11.1285910963
 20
6.9408267943
 30
0.0
 10
11.1065027714
 20
6.9439897633
 30
0.0
 10
11.0845214084
 20
6.9482270793
 30
0.0
 10
11.0626999331
 20
6.9535284908
 30
0.0
 10
11.0410908809
 20
6.959881189
 30
0.0
 10
11.0197462715
 20
6.9672698393
 30
0.0
 10
10.9987174847
 20
6.975676618
 30
0.0
 10
10.9780551378
 20
6.985081256
 30
0.0
 10
10.9578089647
 20
6.9954610869
 30
0.0
 10
10.9380276928
 20
7.0067910948
 30
0.0
 10
10.9187589295
 20
7.0190439818
 30
0.0
 10
10.9000490483
 20
7.0321902344
 30
0.0
 10
10.8819430782
 20
7.0461981936
 30
0.0
 10
10.8644845962
 20
7.0610341309
 30
0.0
 10
10.847715623
 20
7.0766623292
 30
0.0
 10
10.8316765226
 20
7.0930451681
 30
0.0
 10
10.816405906
 20
7.1101432136
 30
0.0
 10
10.8019405314
 20
7.1279153079
 30
0.0
 10
10.7883152227
 20
7.1463186736
 30
0.0
 10
10.7755627854
 20
7.1653090164
 30
0.0
 10
10.7637139289
 20
7.1848406311
 30
0.0
 10
10.7527971922
 20
7.2048665102
 30
0.0
 10
10.7428388762
 20
7.2253384568
 30
0.0
 10
10.7338629798
 20
7.2462071994
 30
0.0
 10
10.7258911438
 20
7.2674225094
 30
0.0
 10
10.7189425857
 20
7.2889333209
 30
0.0
 10
10.7130340766
 20
7.3106878459
 30
0.0
 10
10.7081798558
 20
7.332633741
 30
0.0
 10
10.7043917069
 20
7.3547180787
 30
0.0
 10
10.7016786995
 20
7.376887971
 30
0.0
 10
10.7000475522
 20
7.3990892115
 30
0.0
 10
10.6996833119
 20
7.41390218
 30
0.0
 10
10.6996833119
 20
7.4212948529
 30
0.0
  0
SPLINE
  5
3B8
100
AcDbEntity
  8
0
100
AcDbSpline
 62
7
  6
CONTINUOUS
 70
0
 71
3
 72
71
 73
67
 74
0
 42
0.0000001
 43
0.0000001
 44
0.0000000001
 40
0.0
 40
0.0
 40
0.0
 40
0.0
 40
0.0155842752
 40
0.0311159217
 40
0.0465952561
 40
0.062023882
 40
0.0774034483
 40
0.0927362826
 40
0.1080251228
 40
0.1232731737
 40
0.1384840559
 40
0.1536617767
 40
0.1688106901
 40
0.183935453
 40
0.199040978
 40
0.2141323819
 40
0.2292149319
 40
0.2442939897
 40
0.2593749544
 40
0.2744632045
 40
0.289564041
 40
0.3046826303
 40
0.3198239506
 40
0.3349927389
 40
0.3501934431
 40
0.3654301768
 40
0.3807066784
 40
0.3960262758
 40
0.4113918559
 40
0.4268058389
 40
0.4422701586
 40
0.4577862477
 40
0.4733550286
 40
0.4889769093
 40
0.5046517847
 40
0.5203790431
 40
0.5361575764
 40
0.5519857966
 40
0.5678616541
 40
0.583782661
 40
0.5997459175
 40
0.6157481412
 40
0.6317856997
 40
0.6478546449
 40
0.6639507506
 40
0.6800695511
 40
0.6962063816
 40
0.7123564195
 40
0.7285147267
 40
0.7446762933
 40
0.7608360806
 40
0.7769890653
 40
0.7931302837
 40
0.8092548749
 40
0.8253581232
 40
0.8414355003
 40
0.8574827056
 40
0.8734957056
 40
0.8894707712
 40
0.9054045129
 40
0.9212939188
 40
0.9371363627
 40
0.9529297122
 40
0.9686721024
 40
0.9843626029
 40
1.0
 40
1.0
 40
1.0
 40
1.0
 10
10.6996833119
 20
7.4212948529
 30
0.0
 10
10.6996833119
 20
7.4286624121
 30
0.0
 10
10.7000438621
 20
7.4433752627
 30
0.0
 10
10.7016714329
 20
7.4653518614
 30
0.0
 10
10.7043810935
 20
7.487147915
 30
0.0
 10
10.70816623
 20
7.5087100918
 30
0.0
 10
10.7130178755
 20
7.5299867039
 30
0.0
 10
10.718924336
 20
7.5509263733
 30
0.0
 10
10.7258714522
 20
7.571478641
 30
0.0
 10
10.7338425185
 20
7.5915939409
 30
0.0
 10
10.7428183684
 20
7.6112237606
 30
0.0
 10
10.7527773954
 20
7.6303207541
 30
0.0
 10
10.7636956174
 20
7.6488388561
 30
0.0
 10
10.7755467325
 20
7.6667333938
 30
0.0
 10
10.7883021825
 20
7.6839611965
 30
0.0
 10
10.8019312214
 20
7.7004807003
 30
0.0
 10
10.8164009897
 20
7.7162520503
 30
0.0
 10
10.8316765939
 20
7.7312371981
 30
0.0
 10
10.8477211914
 20
7.7453999946
 30
0.0
 10
10.8644960747
 20
7.7587062857
 30
0.0
 10
10.8819607733
 20
7.7711239892
 30
0.0
 10
10.900073152
 20
7.7826231726
 30
0.0
 10
10.9187895143
 20
7.7931761258
 30
0.0
 10
10.9380647093
 20
7.8027574271
 30
0.0
 10
10.9578522419
 20
7.8113440047
 30
0.0
 10
10.9781043858
 20
7.8189151911
 30
0.0
 10
10.9987723
 20
7.8254527723
 30
0.0
 10
11.019806145
 20
7.8309410393
 30
0.0
 10
11.0411552078
 20
7.8353668164
 30
0.0
 10
11.0627680242
 20
7.8387194914
 30
0.0
 10
11.0845925035
 20
7.8409910398
 30
0.0
 10
11.1065760536
 20
7.8421760427
 30
0.0
 10
11.1286657075
 20
7.8422716985
 30
0.0
 10
11.1508082507
 20
7.8412778283
 30
0.0
 10
11.1729503478
 20
7.8391968752
 30
0.0
 10
11.1950386727
 20
7.8360339062
 30
0.0
 10
11.2170200357
 20
7.8317965902
 30
0.0
 10
11.2388415111
 20
7.8264951788
 30
0.0
 10
11.2604505633
 20
7.8201424805
 30
0.0
 10
11.2817951727
 20
7.8127538303
 30
0.0
 10
11.3028239595
 20
7.8043470515
 30
0.0
 10
11.3234863064
 20
7.7949424135
 30
0.0
 10
11.3437324795
 20
7.7845625826
 30
0.0
 10
11.3635137513
 20
7.7732325748
 30
0.0
 10
11.3827825147
 20
7.7609796877
 30
0.0
 10
11.4014923959
 20
7.7478334351
 30
0.0
 10
11.419598366
 20
7.7338254759
 30
0.0
 10
11.437056848
 20
7.7189895386
 30
0.0
 10
11.4538258212
 20
7.7033613403
 30
0.0
 10
11.4698649215
 20
7.6869785015
 30
0.0
 10
11.4851355382
 20
7.6698804559
 30
0.0
 10
11.4996009127
 20
7.6521083617
 30
0.0
 10
11.5132262215
 20
7.633704996
 30
0.0
 10
11.5259786587
 20
7.6147146531
 30
0.0
 10
11.5378275152
 20
7.5951830384
 30
0.0
 10
11.5487442519
 20
7.5751571593
 30
0.0
 10
11.558702568
 20
7.5546852127
 30
0.0
 10
11.5676784644
 20
7.5338164701
 30
0.0
 10
11.5756503003
 20
7.5126011601
 30
0.0
 10
11.5825988584
 20
7.4910903486
 30
0.0
 10
11.5885073675
 20
7.4693358236
 30
0.0
 10
11.5933615884
 20
7.4473899286
 30
0.0
 10
11.5971497372
 20
7.4253055909
 30
0.0
 10
11.5998627446
 20
7.4031356985
 30
0.0
 10
11.6014938919
 20
7.380934458
 30
0.0
 10
11.6018581322
 20
7.3661214895
 30
0.0
 10
11.6018581322
 20
7.3587288166
 30
0.0
  0
SPLINE
  5
3B9
100
AcDbEntity
  8
0
100
AcDbSpline
 62
7
  6
CONTINUOUS
 70
0
 71
3
 72
15
 73
11
 74
0
 42
0.0000001
 43
0.0000001
 44
0.0000000001
 40
0.0
 40
0.0
 40
0.0
 40
0.0
 40
0.1234612906
 40
0.2472680913
 40
0.3714772124
 40
0.4961382717
 40
0.6212927193
 40
0.7469737937
 40
0.8732042577
 40
1.0
 40
1.0
 40
1.0
 40
1.0
 10
10.978278759
 20
7.7856672989
 30
0.0
 10
10.9739797248
 20
7.778405289
 30
0.0
 10
10.9658668466
 20
7.7635600248
 30
0.0
 10
10.9552315333
 20
7.7404820166
 30
0.0
 10
10.9461565999
 20
7.7166581381
 30
0.0
 10
10.9386806501
 20
7.6921893729
 30
0.0
 10
10.9328345122
 20
7.6671777673
 30
0.0
 10
10.9286425392
 20
7.6417276386
 30
0.0
 10
10.9261219582
 20
7.6159466684
 30
0.0
 10
10.9255640278
 20
7.5986458879
 30
0.0
 10
10.9255640278
 20
7.5899788596
 30
0.0
  0
SPLINE
  5
3BA
100
AcDbEntity
  8
0
100
AcDbSpline
 62
7
  6
CONTINUOUS
 70
0
 71
3
 72
71
 73
67
 74
0
 42
0.0000001
 43
0.0000001
 44
0.0000000001
 40
0.0
 40
0.0
 40
0.0
 40
0.0
 40
0.0155842752
 40
0.0311159217
 40
0.0465952561
 40
0.062023882
 40
0.0774034483
 40
0.0927362826
 40
0.1080251228
 40
0.1232731737
 40
0.1384840559
 40
0.1536617767
 40
0.1688106901
 40
0.183935453
 40
0.199040978
 40
0.2141323819
 40
0.2292149319
 40
0.2442939897
 40
0.2593749544
 40
0.2744632045
 40
0.289564041
 40
0.3046826303
 40
0.3198239506
 40
0.3349927389
 40
0.3501934431
 40
0.3654301768
 40
0.3807066784
 40
0.3960262758
 40
0.4113918559
 40
0.4268058389
 40
0.4422701586
 40
0.4577862477
 40
0.4733550286
 40
0.4889769093
 40
0.5046517847
 40
0.5203790431
 40
0.5361575764
 40
0.5519857966
 40
0.5678616541
 40
0.583782661
 40
0.5997459175
 40
0.6157481412
 40
0.6317856997
 40
0.6478546449
 40
0.6639507506
 40
0.6800695511
 40
0.6962063816
 40
0.7123564195
 40
0.7285147267
 40
0.7446762933
 40
0.7608360806
 40
0.7769890653
 40
0.7931302837
 40
0.8092548749
 40
0.8253581232
 40
0.8414355003
 40
0.8574827056
 40
0.8734957056
 40
0.8894707712
 40
0.9054045129
 40
0.9212939188
 40
0.9371363627
 40
0.9529297122
 40
0.9686721024
 40
0.9843626029
 40
1.0
 40
1.0
 40
1.0
 40
1.0
 10
10.3944507778
 20
7.442462801
 30
0.0
 10
10.3944507778
 20
7.4350952418
 30
0.0
 10
10.3940902276
 20
7.4203823912
 30
0.0
 10
10.3924626569
 20
7.3984057925
 30
0.0
 10
10.3897529963
 20
7.376609739
 30
0.0
 10
10.3859678597
 20
7.3550475622
 30
0.0
 10
10.3811162142
 20
7.33377095
 30
0.0
 10
10.3752097537
 20
7.3128312806
 30
0.0
 10
10.3682626375
 20
7.2922790129
 30
0.0
 10
10.3602915712
 20
7.2721637131
 30
0.0
 10
10.3513157213
 20
7.2525338934
 30
0.0
 10
10.3413566943
 20
7.2334368999
 30
0.0
 10
10.3304384724
 20
7.2149187979
 30
0.0
 10
10.3185873573
 20
7.1970242601
 30
0.0
 10
10.3058319072
 20
7.1797964575
 30
0.0
 10
10.2922028683
 20
7.1632769537
 30
0.0
 10
10.2777331
 20
7.1475056037
 30
0.0
 10
10.2624574958
 20
7.1325204559
 30
0.0
 10
10.2464128984
 20
7.1183576593
 30
0.0
 10
10.229638015
 20
7.1050513683
 30
0.0
 10
10.2121733164
 20
7.0926336648
 30
0.0
 10
10.1940609378
 20
7.0811344813
 30
0.0
 10
10.1753445754
 20
7.0705815282
 30
0.0
 10
10.1560693804
 20
7.0610002268
 30
0.0
 10
10.1362818479
 20
7.0524136493
 30
0.0
 10
10.1160297039
 20
7.0448424629
 30
0.0
 10
10.0953617897
 20
7.0383048817
 30
0.0
 10
10.0743279447
 20
7.0328166146
 30
0.0
 10
10.0529788819
 20
7.0283908375
 30
0.0
 10
10.0313660655
 20
7.0250381626
 30
0.0
 10
10.0095415862
 20
7.0227666141
 30
0.0
 10
9.9875580361
 20
7.0215816112
 30
0.0
 10
9.9654683822
 20
7.0214859554
 30
0.0
 10
9.9433258391
 20
7.0224798257
 30
0.0
 10
9.9211837419
 20
7.0245607788
 30
0.0
 10
9.899095417
 20
7.0277237477
 30
0.0
 10
9.877114054
 20
7.0319610637
 30
0.0
 10
9.8552925787
 20
7.0372624752
 30
0.0
 10
9.8336835265
 20
7.0436151734
 30
0.0
 10
9.812338917
 20
7.0510038237
 30
0.0
 10
9.7913101303
 20
7.0594106025
 30
0.0
 10
9.7706477834
 20
7.0688152404
 30
0.0
 10
9.7504016103
 20
7.0791950714
 30
0.0
 10
9.7306203384
 20
7.0905250792
 30
0.0
 10
9.7113515751
 20
7.1027779663
 30
0.0
 10
9.6926416938
 20
7.1159242189
 30
0.0
 10
9.6745357238
 20
7.129932178
 30
0.0
 10
9.6570772418
 20
7.1447681154
 30
0.0
 10
9.6403082686
 20
7.1603963137
 30
0.0
 10
9.6242691682
 20
7.1767791525
 30
0.0
 10
9.6089985516
 20
7.193877198
 30
0.0
 10
9.594533177
 20
7.2116492923
 30
0.0
 10
9.5809078683
 20
7.230052658
 30
0.0
 10
9.568155431
 20
7.2490430009
 30
0.0
 10
9.5563065745
 20
7.2685746155
 30
0.0
 10
9.5453898378
 20
7.2886004946
 30
0.0
 10
9.5354315218
 20
7.3090724412
 30
0.0
 10
9.5264556254
 20
7.3299411839
 30
0.0
 10
9.5184837894
 20
7.3511564939
 30
0.0
 10
9.5115352313
 20
7.3726673053
 30
0.0
 10
9.5056267222
 20
7.3944218304
 30
0.0
 10
9.5007725014
 20
7.4163677254
 30
0.0
 10
9.4969843525
 20
7.4384520631
 30
0.0
 10
9.4942713451
 20
7.4606219555
 30
0.0
 10
9.4926401978
 20
7.4828231959
 30
0.0
 10
9.4922759575
 20
7.4976361644
 30
0.0
 10
9.4922759575
 20
7.5050288373
 30
0.0
  0
SPLINE
  5
3BB
100
AcDbEntity
  8
0
100
AcDbSpline
 62
7
  6
CONTINUOUS
 70
0
 71
3
 72
71
 73
67
 74
0
 42
0.0000001
 43
0.0000001
 44
0.0000000001
 40
0.0
 40
0.0
 40
0.0
 40
0.0
 40
0.0155842752
 40
0.0311159217
 40
0.0465952561
 40
0.062023882
 40
0.0774034483
 40
0.0927362826
 40
0.1080251228
 40
0.1232731737
 40
0.1384840559
 40
0.1536617767
 40
0.1688106901
 40
0.183935453
 40
0.199040978
 40
0.2141323819
 40
0.2292149319
 40
0.2442939897
 40
0.2593749544
 40
0.2744632045
 40
0.289564041
 40
0.3046826303
 40
0.3198239506
 40
0.3349927389
 40
0.3501934431
 40
0.3654301768
 40
0.3807066784
 40
0.3960262758
 40
0.4113918559
 40
0.4268058389
 40
0.4422701586
 40
0.4577862477
 40
0.4733550286
 40
0.4889769093
 40
0.5046517847
 40
0.5203790431
 40
0.5361575764
 40
0.5519857966
 40
0.5678616541
 40
0.583782661
 40
0.5997459175
 40
0.6157481412
 40
0.6317856997
 40
0.6478546449
 40
0.6639507506
 40
0.6800695511
 40
0.6962063816
 40
0.7123564195
 40
0.7285147267
 40
0.7446762933
 40
0.7608360806
 40
0.7769890653
 40
0.7931302837
 40
0.8092548749
 40
0.8253581232
 40
0.8414355003
 40
0.8574827056
 40
0.8734957056
 40
0.8894707712
 40
0.9054045129
 40
0.9212939188
 40
0.9371363627
 40
0.9529297122
 40
0.9686721024
 40
0.9843626029
 40
1.0
 40
1.0
 40
1.0
 40
1.0
 10
9.4922759575
 20
7.5050288373
 30
0.0
 10
9.4922759575
 20
7.5123963965
 30
0.0
 10
9.4926365077
 20
7.5271092472
 30
0.0
 10
9.4942640785
 20
7.5490858459
 30
0.0
 10
9.4969737391
 20
7.5708818994
 30
0.0
 10
9.5007588756
 20
7.5924440762
 30
0.0
 10
9.5056105211
 20
7.6137206884
 30
0.0
 10
9.5115169816
 20
7.6346603577
 30
0.0
 10
9.5184640978
 20
7.6552126255
 30
0.0
 10
9.5264351641
 20
7.6753279253
 30
0.0
 10
9.535411014
 20
7.694957745
 30
0.0
 10
9.545370041
 20
7.7140547385
 30
0.0
 10
9.556288263
 20
7.7325728405
 30
0.0
 10
9.5681393781
 20
7.7504673783
 30
0.0
 10
9.5808948281
 20
7.7676951809
 30
0.0
 10
9.594523867
 20
7.7842146847
 30
0.0
 10
9.6089936353
 20
7.7999860347
 30
0.0
 10
9.6242692395
 20
7.8149711825
 30
0.0
 10
9.640313837
 20
7.8291339791
 30
0.0
 10
9.6570887203
 20
7.8424402701
 30
0.0
 10
9.6745534189
 20
7.8548579736
 30
0.0
 10
9.6926657976
 20
7.866357157
 30
0.0
 10
9.7113821599
 20
7.8769101102
 30
0.0
 10
9.7306573549
 20
7.8864914116
 30
0.0
 10
9.7504448875
 20
7.8950779891
 30
0.0
 10
9.7706970314
 20
7.9026491755
 30
0.0
 10
9.7913649456
 20
7.9091867567
 30
0.0
 10
9.8123987906
 20
7.9146750238
 30
0.0
 10
9.8337478534
 20
7.9191008008
 30
0.0
 10
9.8553606698
 20
7.9224534758
 30
0.0
 10
9.8771851491
 20
7.9247250242
 30
0.0
 10
9.8991686992
 20
7.9259100272
 30
0.0
 10
9.9212583531
 20
7.926005683
 30
0.0
 10
9.9434008963
 20
7.9250118127
 30
0.0
 10
9.9655429934
 20
7.9229308596
 30
0.0
 10
9.9876313183
 20
7.9197678906
 30
0.0
 10
10.0096126813
 20
7.9155305747
 30
0.0
 10
10.0314341567
 20
7.9102291632
 30
0.0
 10
10.0530432089
 20
7.9038764649
 30
0.0
 10
10.0743878183
 20
7.8964878147
 30
0.0
 10
10.0954166051
 20
7.8880810359
 30
0.0
 10
10.116078952
 20
7.878676398
 30
0.0
 10
10.1363251251
 20
7.868296567
 30
0.0
 10
10.1561063969
 20
7.8569665592
 30
0.0
 10
10.1753751603
 20
7.8447136721
 30
0.0
 10
10.1940850415
 20
7.8315674195
 30
0.0
 10
10.2121910116
 20
7.8175594603
 30
0.0
 10
10.2296494936
 20
7.802723523
 30
0.0
 10
10.2464184668
 20
7.7870953247
 30
0.0
 10
10.2624575671
 20
7.7707124859
 30
0.0
 10
10.2777281838
 20
7.7536144403
 30
0.0
 10
10.2921935583
 20
7.7358423461
 30
0.0
 10
10.3058188671
 20
7.7174389804
 30
0.0
 10
10.3185713043
 20
7.6984486375
 30
0.0
 10
10.3304201608
 20
7.6789170229
 30
0.0
 10
10.3413368975
 20
7.6588911438
 30
0.0
 10
10.3512952136
 20
7.6384191972
 30
0.0
 10
10.36027111
 20
7.6175504545
 30
0.0
 10
10.3682429459
 20
7.5963351445
 30
0.0
 10
10.375191504
 20
7.574824333
 30
0.0
 10
10.3811000131
 20
7.553069808
 30
0.0
 10
10.3859542339
 20
7.531123913
 30
0.0
 10
10.3897423828
 20
7.5090395753
 30
0.0
 10
10.3924553902
 20
7.4868696829
 30
0.0
 10
10.3940865375
 20
7.4646684425
 30
0.0
 10
10.3944507778
 20
7.449855474
 30
0.0
 10
10.3944507778
 20
7.442462801
 30
0.0
  0
SPLINE
  5
3BC
100
AcDbEntity
  8
0
100
AcDbSpline
 62
7
  6
CONTINUOUS
 70
0
 71
3
 72
69
 73
65
 74
0
 42
0.0000001
 43
0.0000001
 44
0.0000000001
 40
0.0
 40
0.0
 40
0.0
 40
0.0
 40
0.0155844514
 40
0.0311164958
 40
0.046596033
 40
0.0620249362
 40
0.0774047641
 40
0.0927378569
 40
0.1080269576
 40
0.123275266
 40
0.1384864062
 40
0.153664385
 40
0.1688135563
 40
0.1839385764
 40
0.1990443578
 40
0.2141360176
 40
0.2292188235
 40
0.2442981374
 40
0.2593793583
 40
0.2744678645
 40
0.289568957
 40
0.3046878029
 40
0.3198293806
 40
0.3349984272
 40
0.3501993899
 40
0.3654363818
 40
0.3807131419
 40
0.3960329989
 40
0.4113988402
 40
0.4268130857
 40
0.4422776684
 40
0.4577940208
 40
0.4733630656
 40
0.4889852114
 40
0.5046603533
 40
0.5203878786
 40
0.5361666795
 40
0.5519951681
 40
0.5678712954
 40
0.5837925735
 40
0.5997561014
 40
0.6157585964
 40
0.6317964263
 40
0.647865644
 40
0.6639620234
 40
0.6800810983
 40
0.7123600122
 40
0.7446719581
 40
0.7608320198
 40
0.7769852785
 40
0.7931267708
 40
0.8092516359
 40
0.8253551583
 40
0.8414328088
 40
0.8574802861
 40
0.8734935573
 40
0.8894688931
 40
0.9054029073
 40
0.9212925817
 40
0.9371352945
 40
0.9529289268
 40
0.968671524
 40
0.9843624254
 40
1.0
 40
1.0
 40
1.0
 40
1.0
 10
11.6095855167
 20
8.5047469794
 30
0.0
 10
11.6095855167
 20
8.4992252857
 30
0.0
 10
11.6093152841
 20
8.488198509
 30
0.0
 10
11.6080954985
 20
8.4717278291
 30
0.0
 10
11.6060646823
 20
8.4553924285
 30
0.0
 10
11.6032278746
 20
8.4392323528
 30
0.0
 10
11.5995917418
 20
8.4232862783
 30
0.0
 10
11.5951650526
 20
8.4075927385
 30
0.0
 10
11.5899584247
 20
8.3921895451
 30
0.0
 10
11.5839843866
 20
8.3771138422
 30
0.0
 10
11.5772573104
 20
8.3624019848
 30
0.0
 10
11.5697933824
 20
8.3480894579
 30
0.0
 10
11.5616105658
 20
8.3342107921
 30
0.0
 10
11.5527285679
 20
8.3207994726
 30
0.0
 10
11.5431688039
 20
8.3078878481
 30
0.0
 10
11.5329543201
 20
8.2955070658
 30
0.0
 10
11.5221097434
 20
8.2836869945
 30
0.0
 10
11.5106612214
 20
8.2724561531
 30
0.0
 10
11.4986363601
 20
8.2618416413
 30
0.0
 10
11.4860641764
 20
8.2518690498
 30
0.0
 10
11.4729750039
 20
8.2425624189
 30
0.0
 10
11.4594004205
 20
8.2339441821
 30
0.0
 10
11.4453731722
 20
8.2260351104
 30
0.0
 10
11.4309270922
 20
8.2188542686
 30
0.0
 10
11.4160970315
 20
8.2124189435
 30
0.0
 10
11.4009187645
 20
8.2067446126
 30
0.0
 10
11.3854288964
 20
8.2018449215
 30
0.0
 10
11.369664777
 20
8.197731648
 30
0.0
 10
11.3536644103
 20
8.1944146792
 30
0.0
 10
11.3374663672
 20
8.1919019749
 30
0.0
 10
11.321109691
 20
8.1901995363
 30
0.0
 10
11.3046337979
 20
8.1893114203
 30
0.0
 10
11.288078384
 20
8.1892397261
 30
0.0
 10
11.2714833309
 20
8.1899845925
 30
0.0
 10
11.2548886126
 20
8.1915441975
 30
0.0
 10
11.238334195
 20
8.1939147342
 30
0.0
 10
11.221859941
 20
8.1970904508
 30
0.0
 10
11.2055055159
 20
8.2010636649
 30
0.0
 10
11.1893102932
 20
8.205824781
 30
0.0
 10
11.1733132648
 20
8.211362318
 30
0.0
 10
11.157552936
 20
8.217662913
 30
0.0
 10
11.1420672444
 20
8.224711358
 30
0.0
 10
11.1268934376
 20
8.2324906812
 30
0.0
 10
11.1120681226
 20
8.2409820653
 30
0.0
 10
11.0976266607
 20
8.2501653383
 30
0.0
 10
11.0789241047
 20
8.2633063076
 30
0.0
 10
11.0566816996
 20
8.2813470307
 30
0.0
 10
11.0361737948
 20
8.301357976
 30
0.0
 10
11.0209170102
 20
8.3184407197
 30
0.0
 10
11.0100755312
 20
8.3317604606
 30
0.0
 10
10.9998638952
 20
8.3455530821
 30
0.0
 10
10.9903063753
 20
8.359785682
 30
0.0
 10
10.9814260741
 20
8.3744239297
 30
0.0
 10
10.9732443695
 20
8.3894326215
 30
0.0
 10
10.9657809744
 20
8.4047756258
 30
0.0
 10
10.9590538632
 20
8.4204160117
 30
0.0
 10
10.9530792484
 20
8.4363161339
 30
0.0
 10
10.94787154
 20
8.4524377228
 30
0.0
 10
10.9434433156
 20
8.4687419685
 30
0.0
 10
10.9398052524
 20
8.4851896465
 30
0.0
 10
10.9369661869
 20
8.5017410628
 30
0.0
 10
10.9349328628
 20
8.5183566421
 30
0.0
 10
10.9337103964
 20
8.5349956833
 30
0.0
 10
10.9334373983
 20
8.5460974951
 30
0.0
 10
10.9334373983
 20
8.5516380107
 30
0.0
  0
SPLINE
  5
3BD
100
AcDbEntity
  8
0
100
AcDbSpline
 62
7
  6
CONTINUOUS
 70
0
 71
3
 72
69
 73
65
 74
0
 42
0.0000001
 43
0.0000001
 44
0.0000000001
 40
0.0
 40
0.0
 40
0.0
 40
0.0
 40
0.0155844514
 40
0.0311164958
 40
0.046596033
 40
0.0620249362
 40
0.0774047641
 40
0.0927378569
 40
0.1080269576
 40
0.123275266
 40
0.1384864062
 40
0.153664385
 40
0.1688135563
 40
0.1839385764
 40
0.1990443578
 40
0.2141360176
 40
0.2292188235
 40
0.2442981374
 40
0.2593793583
 40
0.2744678645
 40
0.289568957
 40
0.3046878029
 40
0.3198293806
 40
0.3349984272
 40
0.3501993899
 40
0.3654363818
 40
0.3807131419
 40
0.3960329989
 40
0.4113988402
 40
0.4268130857
 40
0.4422776684
 40
0.4577940208
 40
0.4733630656
 40
0.4889852114
 40
0.5046603533
 40
0.5203878786
 40
0.5361666795
 40
0.5519951681
 40
0.5678712954
 40
0.5837925735
 40
0.5997561014
 40
0.6157585964
 40
0.6317964263
 40
0.647865644
 40
0.6639620234
 40
0.6800810983
 40
0.7123600122
 40
0.7446719581
 40
0.7608320198
 40
0.7769852785
 40
0.7931267708
 40
0.8092516359
 40
0.8253551583
 40
0.8414328088
 40
0.8574802861
 40
0.8734935573
 40
0.8894688931
 40
0.9054029073
 40
0.9212925817
 40
0.9371352945
 40
0.9529289268
 40
0.968671524
 40
0.9843624254
 40
1.0
 40
1.0
 40
1.0
 40
1.0
 10
10.9334373983
 20
8.5516380107
 30
0.0
 10
10.9334373983
 20
8.5571597044
 30
0.0
 10
10.9337076309
 20
8.5681864811
 30
0.0
 10
10.9349274165
 20
8.5846571611
 30
0.0
 10
10.9369582327
 20
8.6009925616
 30
0.0
 10
10.9397950404
 20
8.6171526373
 30
0.0
 10
10.9434311732
 20
8.6330987118
 30
0.0
 10
10.9478578624
 20
8.6487922516
 30
0.0
 10
10.9530644903
 20
8.664195445
 30
0.0
 10
10.9590385284
 20
8.6792711479
 30
0.0
 10
10.9657656046
 20
8.6939830053
 30
0.0
 10
10.9732295326
 20
8.7082955322
 30
0.0
 10
10.9814123492
 20
8.722174198
 30
0.0
 10
10.9902943471
 20
8.7355855175
 30
0.0
 10
10.9998541111
 20
8.7484971421
 30
0.0
 10
11.0100685949
 20
8.7608779244
 30
0.0
 10
11.0209131716
 20
8.7726979956
 30
0.0
 10
11.0323616936
 20
8.783928837
 30
0.0
 10
11.0443865549
 20
8.7945433488
 30
0.0
 10
11.0569587386
 20
8.8045159404
 30
0.0
 10
11.0700479111
 20
8.8138225712
 30
0.0
 10
11.0836224945
 20
8.8224408081
 30
0.0
 10
11.0976497428
 20
8.8303498797
 30
0.0
 10
11.1120958228
 20
8.8375307215
 30
0.0
 10
11.1269258835
 20
8.8439660467
 30
0.0
 10
11.1421041505
 20
8.8496403775
 30
0.0
 10
11.1575940186
 20
8.8545400686
 30
0.0
 10
11.173358138
 20
8.8586533421
 30
0.0
 10
11.1893585047
 20
8.8619703109
 30
0.0
 10
11.2055565478
 20
8.8644830152
 30
0.0
 10
11.221913224
 20
8.8661854539
 30
0.0
 10
11.2383891171
 20
8.8670735699
 30
0.0
 10
11.2549445311
 20
8.867145264
 30
0.0
 10
11.2715395841
 20
8.8664003976
 30
0.0
 10
11.2881343024
 20
8.8648407926
 30
0.0
 10
11.30468872
 20
8.8624702559
 30
0.0
 10
11.321162974
 20
8.8592945393
 30
0.0
 10
11.3375173991
 20
8.8553213253
 30
0.0
 10
11.3537126218
 20
8.8505602091
 30
0.0
 10
11.3697096502
 20
8.8450226721
 30
0.0
 10
11.385469979
 20
8.8387220771
 30
0.0
 10
11.4009556706
 20
8.8316736322
 30
0.0
 10
11.4161294775
 20
8.823894309
 30
0.0
 10
11.4309547924
 20
8.8154029248
 30
0.0
 10
11.4453962543
 20
8.8062196519
 30
0.0
 10
11.4640988103
 20
8.7930786826
 30
0.0
 10
11.4863412155
 20
8.7750379595
 30
0.0
 10
11.5068491202
 20
8.7550270142
 30
0.0
 10
11.5221059048
 20
8.7379442704
 30
0.0
 10
11.5329473839
 20
8.7246245295
 30
0.0
 10
11.5431590198
 20
8.7108319081
 30
0.0
 10
11.5527165397
 20
8.6965993081
 30
0.0
 10
11.561596841
 20
8.6819610605
 30
0.0
 10
11.5697785455
 20
8.6669523686
 30
0.0
 10
11.5772419406
 20
8.6516093643
 30
0.0
 10
11.5839690518
 20
8.6359689784
 30
0.0
 10
11.5899436666
 20
8.6200688563
 30
0.0
 10
11.595151375
 20
8.6039472673
 30
0.0
 10
11.5995795995
 20
8.5876430216
 30
0.0
 10
11.6032176626
 20
8.5711953436
 30
0.0
 10
11.6060567281
 20
8.5546439274
 30
0.0
 10
11.6080900522
 20
8.538028348
 30
0.0
 10
11.6093125187
 20
8.5213893069
 30
0.0
 10
11.6095855167
 20
8.5102874951
 30
0.0
 10
11.6095855167
 20
8.5047469794
 30
0.0
  0
SPLINE
  5
3BE
100
AcDbEntity
  8
0
100
AcDbSpline
 62
7
  6
CONTINUOUS
 70
0
 71
3
 72
69
 73
65
 74
0
 42
0.0000001
 43
0.0000001
 44
0.0000000001
 40
0.0
 40
0.0
 40
0.0
 40
0.0
 40
0.0155844514
 40
0.0311164958
 40
0.046596033
 40
0.0620249362
 40
0.0774047641
 40
0.0927378569
 40
0.1080269576
 40
0.123275266
 40
0.1384864062
 40
0.153664385
 40
0.1688135563
 40
0.1839385764
 40
0.1990443578
 40
0.2141360176
 40
0.2292188235
 40
0.2442981374
 40
0.2593793583
 40
0.2744678645
 40
0.289568957
 40
0.3046878029
 40
0.3198293806
 40
0.3349984272
 40
0.3501993899
 40
0.3654363818
 40
0.3807131419
 40
0.3960329989
 40
0.4113988402
 40
0.4268130857
 40
0.4422776684
 40
0.4577940208
 40
0.4733630656
 40
0.4889852114
 40
0.5046603533
 40
0.5203878786
 40
0.5361666795
 40
0.5519951681
 40
0.5678712954
 40
0.5837925735
 40
0.5997561014
 40
0.6157585964
 40
0.6317964263
 40
0.647865644
 40
0.6639620234
 40
0.6800810983
 40
0.7123600122
 40
0.7446719581
 40
0.7608320198
 40
0.7769852785
 40
0.7931267708
 40
0.8092516359
 40
0.8253551583
 40
0.8414328088
 40
0.8574802861
 40
0.8734935573
 40
0.8894688931
 40
0.9054029073
 40
0.9212925817
 40
0.9371352945
 40
0.9529289268
 40
0.968671524
 40
0.9843624254
 40
1.0
 40
1.0
 40
1.0
 40
1.0
 10
10.1606966915
 20
8.6052277607
 30
0.0
 10
10.1606966915
 20
8.5997060671
 30
0.0
 10
10.1604264589
 20
8.5886792904
 30
0.0
 10
10.1592066732
 20
8.5722086104
 30
0.0
 10
10.157175857
 20
8.5558732098
 30
0.0
 10
10.1543390493
 20
8.5397131341
 30
0.0
 10
10.1507029165
 20
8.5237670596
 30
0.0
 10
10.1462762273
 20
8.5080735198
 30
0.0
 10
10.1410695995
 20
8.4926703264
 30
0.0
 10
10.1350955613
 20
8.4775946235
 30
0.0
 10
10.1283684851
 20
8.4628827661
 30
0.0
 10
10.1209045572
 20
8.4485702393
 30
0.0
 10
10.1127217405
 20
8.4346915734
 30
0.0
 10
10.1038397426
 20
8.421280254
 30
0.0
 10
10.0942799786
 20
8.4083686294
 30
0.0
 10
10.0840654948
 20
8.3959878471
 30
0.0
 10
10.0732209181
 20
8.3841677759
 30
0.0
 10
10.0617723961
 20
8.3729369344
 30
0.0
 10
10.0497475349
 20
8.3623224226
 30
0.0
 10
10.0371753511
 20
8.3523498311
 30
0.0
 10
10.0240861786
 20
8.3430432003
 30
0.0
 10
10.0105115952
 20
8.3344249634
 30
0.0
 10
9.9964843469
 20
8.3265158917
 30
0.0
 10
9.9820382669
 20
8.3193350499
 30
0.0
 10
9.9672082062
 20
8.3128997248
 30
0.0
 10
9.9520299392
 20
8.3072253939
 30
0.0
 10
9.9365400711
 20
8.3023257028
 30
0.0
 10
9.9207759517
 20
8.2982124293
 30
0.0
 10
9.904775585
 20
8.2948954605
 30
0.0
 10
9.8885775419
 20
8.2923827562
 30
0.0
 10
9.8722208657
 20
8.2906803176
 30
0.0
 10
9.8557449726
 20
8.2897922016
 30
0.0
 10
9.8391895587
 20
8.2897205074
 30
0.0
 10
9.8225945057
 20
8.2904653738
 30
0.0
 10
9.8059997873
 20
8.2920249788
 30
0.0
 10
9.7894453697
 20
8.2943955155
 30
0.0
 10
9.7729711157
 20
8.2975712322
 30
0.0
 10
9.7566166906
 20
8.3015444462
 30
0.0
 10
9.740421468
 20
8.3063055623
 30
0.0
 10
9.7244244396
 20
8.3118430994
 30
0.0
 10
9.7086641107
 20
8.3181436943
 30
0.0
 10
9.6931784191
 20
8.3251921393
 30
0.0
 10
9.6780046123
 20
8.3329714625
 30
0.0
 10
9.6631792974
 20
8.3414628466
 30
0.0
 10
9.6487378354
 20
8.3506461196
 30
0.0
 10
9.6300352795
 20
8.3637870889
 30
0.0
 10
9.6077928743
 20
8.381827812
 30
0.0
 10
9.5872849695
 20
8.4018387573
 30
0.0
 10
9.5720281849
 20
8.418921501
 30
0.0
 10
9.5611867059
 20
8.432241242
 30
0.0
 10
9.5509750699
 20
8.4460338634
 30
0.0
 10
9.54141755
 20
8.4602664633
 30
0.0
 10
9.5325372488
 20
8.474904711
 30
0.0
 10
9.5243555442
 20
8.4899134028
 30
0.0
 10
9.5168921491
 20
8.5052564071
 30
0.0
 10
9.5101650379
 20
8.520896793
 30
0.0
 10
9.5041904231
 20
8.5367969152
 30
0.0
 10
9.4989827148
 20
8.5529185042
 30
0.0
 10
9.4945544903
 20
8.5692227499
 30
0.0
 10
9.4909164271
 20
8.5856704278
 30
0.0
 10
9.4880773617
 20
8.6022218441
 30
0.0
 10
9.4860440375
 20
8.6188374234
 30
0.0
 10
9.4848215711
 20
8.6354764646
 30
0.0
 10
9.484548573
 20
8.6465782764
 30
0.0
 10
9.484548573
 20
8.652118792
 30
0.0
  0
SPLINE
  5
3BF
100
AcDbEntity
  8
0
100
AcDbSpline
 62
7
  6
CONTINUOUS
 70
0
 71
3
 72
69
 73
65
 74
0
 42
0.0000001
 43
0.0000001
 44
0.0000000001
 40
0.0
 40
0.0
 40
0.0
 40
0.0
 40
0.0155844514
 40
0.0311164958
 40
0.046596033
 40
0.0620249362
 40
0.0774047641
 40
0.0927378569
 40
0.1080269576
 40
0.123275266
 40
0.1384864062
 40
0.153664385
 40
0.1688135563
 40
0.1839385764
 40
0.1990443578
 40
0.2141360176
 40
0.2292188235
 40
0.2442981374
 40
0.2593793583
 40
0.2744678645
 40
0.289568957
 40
0.3046878029
 40
0.3198293806
 40
0.3349984272
 40
0.3501993899
 40
0.3654363818
 40
0.3807131419
 40
0.3960329989
 40
0.4113988402
 40
0.4268130857
 40
0.4422776684
 40
0.4577940208
 40
0.4733630656
 40
0.4889852114
 40
0.5046603533
 40
0.5203878786
 40
0.5361666795
 40
0.5519951681
 40
0.5678712954
 40
0.5837925735
 40
0.5997561014
 40
0.6157585964
 40
0.6317964263
 40
0.647865644
 40
0.6639620234
 40
0.6800810983
 40
0.7123600122
 40
0.7446719581
 40
0.7608320198
 40
0.7769852785
 40
0.7931267708
 40
0.8092516359
 40
0.8253551583
 40
0.8414328088
 40
0.8574802861
 40
0.8734935573
 40
0.8894688931
 40
0.9054029073
 40
0.9212925817
 40
0.9371352945
 40
0.9529289268
 40
0.968671524
 40
0.9843624254
 40
1.0
 40
1.0
 40
1.0
 40
1.0
 10
9.484548573
 20
8.652118792
 30
0.0
 10
9.484548573
 20
8.6576404857
 30
0.0
 10
9.4848188056
 20
8.6686672624
 30
0.0
 10
9.4860385912
 20
8.6851379424
 30
0.0
 10
9.4880694074
 20
8.7014733429
 30
0.0
 10
9.4909062151
 20
8.7176334186
 30
0.0
 10
9.4945423479
 20
8.7335794932
 30
0.0
 10
9.4989690372
 20
8.7492730329
 30
0.0
 10
9.504175665
 20
8.7646762264
 30
0.0
 10
9.5101497031
 20
8.7797519292
 30
0.0
 10
9.5168767793
 20
8.7944637866
 30
0.0
 10
9.5243407073
 20
8.8087763135
 30
0.0
 10
9.532523524
 20
8.8226549794
 30
0.0
 10
9.5414055218
 20
8.8360662988
 30
0.0
 10
9.5509652858
 20
8.8489779234
 30
0.0
 10
9.5611797696
 20
8.8613587057
 30
0.0
 10
9.5720243463
 20
8.8731787769
 30
0.0
 10
9.5834728684
 20
8.8844096183
 30
0.0
 10
9.5954977296
 20
8.8950241302
 30
0.0
 10
9.6080699134
 20
8.9049967217
 30
0.0
 10
9.6211590858
 20
8.9143033525
 30
0.0
 10
9.6347336692
 20
8.9229215894
 30
0.0
 10
9.6487609175
 20
8.9308306611
 30
0.0
 10
9.6632069975
 20
8.9380115028
 30
0.0
 10
9.6780370583
 20
8.944446828
 30
0.0
 10
9.6932153253
 20
8.9501211589
 30
0.0
 10
9.7087051933
 20
8.9550208499
 30
0.0
 10
9.7244693127
 20
8.9591341235
 30
0.0
 10
9.7404696794
 20
8.9624510922
 30
0.0
 10
9.7566677225
 20
8.9649637965
 30
0.0
 10
9.7730243987
 20
8.9666662352
 30
0.0
 10
9.7895002918
 20
8.9675543512
 30
0.0
 10
9.8060557058
 20
8.9676260453
 30
0.0
 10
9.8226507588
 20
8.9668811789
 30
0.0
 10
9.8392454771
 20
8.965321574
 30
0.0
 10
9.8557998947
 20
8.9629510372
 30
0.0
 10
9.8722741487
 20
8.9597753206
 30
0.0
 10
9.8886285738
 20
8.9558021066
 30
0.0
 10
9.9048237965
 20
8.9510409904
 30
0.0
 10
9.9208208249
 20
8.9455034534
 30
0.0
 10
9.9365811538
 20
8.9392028584
 30
0.0
 10
9.9520668454
 20
8.9321544135
 30
0.0
 10
9.9672406522
 20
8.9243750903
 30
0.0
 10
9.9820659671
 20
8.9158837062
 30
0.0
 10
9.9965074291
 20
8.9067004332
 30
0.0
 10
10.015209985
 20
8.8935594639
 30
0.0
 10
10.0374523902
 20
8.8755187408
 30
0.0
 10
10.0579602949
 20
8.8555077955
 30
0.0
 10
10.0732170795
 20
8.8384250517
 30
0.0
 10
10.0840585586
 20
8.8251053108
 30
0.0
 10
10.0942701945
 20
8.8113126894
 30
0.0
 10
10.1038277144
 20
8.7970800895
 30
0.0
 10
10.1127080157
 20
8.7824418418
 30
0.0
 10
10.1208897203
 20
8.7674331499
 30
0.0
 10
10.1283531153
 20
8.7520901456
 30
0.0
 10
10.1350802266
 20
8.7364497597
 30
0.0
 10
10.1410548413
 20
8.7205496376
 30
0.0
 10
10.1462625497
 20
8.7044280486
 30
0.0
 10
10.1506907742
 20
8.6881238029
 30
0.0
 10
10.1543288373
 20
8.6716761249
 30
0.0
 10
10.1571679028
 20
8.6551247087
 30
0.0
 10
10.159201227
 20
8.6385091293
 30
0.0
 10
10.1604236934
 20
8.6218700882
 30
0.0
 10
10.1606966915
 20
8.6107682764
 30
0.0
 10
10.1606966915
 20
8.6052277607
 30
0.0
  0
SPLINE
  5
3C0
100
AcDbEntity
  8
0
100
AcDbSpline
 62
7
  6
CONTINUOUS
 70
0
 71
3
 72
11
 73
7
 74
0
 42
0.0000001
 43
0.0000001
 44
0.0000000001
 40
0.0
 40
0.0
 40
0.0
 40
0.0
 40
0.2428904077
 40
0.488689197
 40
0.740194528
 40
1.0
 40
1.0
 40
1.0
 40
1.0
 10
11.5204108913
 20
9.8489991855
 30
0.0
 10
11.5204108955
 20
9.8500950747
 30
0.0
 10
11.5205372759
 20
9.8523019768
 30
0.0
 10
11.5211042021
 20
9.8555998783
 30
0.0
 10
11.5220474485
 20
9.8588895608
 30
0.0
 10
11.5229095384
 20
9.861034158
 30
0.0
 10
11.5233971874
 20
9.8621001174
 30
0.0
  0
SPLINE
  5
3C1
100
AcDbEntity
  8
0
100
AcDbSpline
 62
7
  6
CONTINUOUS
 70
0
 71
3
 72
43
 73
39
 74
0
 42
0.0000001
 43
0.0000001
 44
0.0000000001
 40
0.0
 40
0.0
 40
0.0
 40
0.0
 40
0.0840366067
 40
0.1695051419
 40
0.2553480795
 40
0.3405006175
 40
0.3824890317
 40
0.423911563
 40
0.4646409869
 40
0.5045528995
 40
0.5435262737
 40
0.581444007
 40
0.6181935033
 40
0.6536672919
 40
0.6877637364
 40
0.7203877842
 40
0.7514517754
 40
0.7808764263
 40
0.8085920333
 40
0.8345400414
 40
0.858675074
 40
0.8809676136
 40
0.891420173
 40
0.9014104073
 40
0.9109410658
 40
0.9200170958
 40
0.9286456087
 40
0.936836736
 40
0.9446037192
 40
0.9519636423
 40
0.9589381497
 40
0.9655538576
 40
0.9718434317
 40
0.9778458824
 40
0.9836071138
 40
0.989179879
 40
0.994622983
 40
1.0
 40
1.0
 40
1.0
 40
1.0
 10
12.8492815576
 20
7.4312030016
 30
0.0
 10
12.8492815576
 20
7.4247479522
 30
0.0
 10
12.8490789911
 20
7.4117271223
 30
0.0
 10
12.8481999479
 20
7.3921303479
 30
0.0
 10
12.8467532311
 20
7.3724812738
 30
0.0
 10
12.8450829373
 20
7.356204414
 30
0.0
 10
12.8434737001
 20
7.3433566354
 30
0.0
 10
12.8421446295
 20
7.3339138016
 30
0.0
 10
12.8406923134
 20
7.3246505522
 30
0.0
 10
12.839121557
 20
7.3155974978
 30
0.0
 10
12.8374375922
 20
7.306784572
 30
0.0
 10
12.8356460203
 20
7.2982408987
 30
0.0
 10
12.8337528055
 20
7.2899947046
 30
0.0
 10
12.8317642499
 20
7.2820732188
 30
0.0
 10
12.8296869806
 20
7.2745025743
 30
0.0
 10
12.8275279262
 20
7.2673077131
 30
0.0
 10
12.8252942866
 20
7.2605123012
 30
0.0
 10
12.8229935072
 20
7.254138633
 30
0.0
 10
12.8206332471
 20
7.2482075673
 30
0.0
 10
12.8182213323
 20
7.2427383282
 30
0.0
 10
12.815765739
 20
7.2377487386
 30
0.0
 10
12.8136465038
 20
7.2339253578
 30
0.0
 10
12.8119294755
 20
7.2311270914
 30
0.0
 10
12.8106635357
 20
7.2292035261
 30
0.0
 10
12.8093926901
 20
7.2274112906
 30
0.0
 10
12.8081179666
 20
7.2257518047
 30
0.0
 10
12.8068403186
 20
7.2242264324
 30
0.0
 10
12.8055607669
 20
7.2228363699
 30
0.0
 10
12.8042802507
 20
7.2215827456
 30
0.0
 10
12.8029996823
 20
7.2204666032
 30
0.0
 10
12.8017199957
 20
7.2194888453
 30
0.0
 10
12.8004420056
 20
7.2186504207
 30
0.0
 10
12.799166612
 20
7.2179521293
 30
0.0
 10
12.797894666
 20
7.2173948396
 30
0.0
 10
12.7966271435
 20
7.2169794074
 30
0.0
 10
12.7953651095
 20
7.2167065688
 30
0.0
 10
12.7941100732
 20
7.2165770772
 30
0.0
 10
12.7932768404
 20
7.2165866049
 30
0.0
 10
12.7928648091
 20
7.2166151842
 30
0.0
  0
SPLINE
  5
3C2
100
AcDbEntity
  8
0
100
AcDbSpline
 62
7
  6
CONTINUOUS
 70
0
 71
3
 72
11
 73
7
 74
0
 42
0.0000001
 43
0.0000001
 44
0.0000000001
 40
0.0
 40
0.0
 40
0.0
 40
0.0
 40
0.2596146901
 40
0.5110885634
 40
0.7569690064
 40
1.0
 40
1.0
 40
1.0
 40
1.0
 10
12.3784871223
 20
9.8619626985
 30
0.0
 10
12.3789647569
 20
9.860907422
 30
0.0
 10
12.3798089973
 20
9.8587844791
 30
0.0
 10
12.3807323237
 20
9.8555294146
 30
0.0
 10
12.3812872366
 20
9.8522664323
 30
0.0
 10
12.3814108932
 20
9.850083089
 30
0.0
 10
12.3814108891
 20
9.8489987449
 30
0.0
  0
SPLINE
  5
3C3
100
AcDbEntity
  8
0
100
AcDbSpline
 62
7
  6
CONTINUOUS
 70
0
 71
3
 72
43
 73
39
 74
0
 42
0.0000001
 43
0.0000001
 44
0.0000000001
 40
0.0
 40
0.0
 40
0.0
 40
0.0
 40
0.0840366067
 40
0.1695051419
 40
0.2553480795
 40
0.3405006175
 40
0.3824890317
 40
0.423911563
 40
0.4646409869
 40
0.5045528995
 40
0.5435262737
 40
0.581444007
 40
0.6181935033
 40
0.6536672919
 40
0.6877637364
 40
0.7203877842
 40
0.7514517754
 40
0.7808764263
 40
0.8085920333
 40
0.8345400414
 40
0.858675074
 40
0.8809676136
 40
0.891420173
 40
0.9014104073
 40
0.9109410658
 40
0.9200170958
 40
0.9286456087
 40
0.936836736
 40
0.9446037192
 40
0.9519636423
 40
0.9589381497
 40
0.9655538576
 40
0.9718434317
 40
0.9778458824
 40
0.9836071138
 40
0.989179879
 40
0.994622983
 40
1.0
 40
1.0
 40
1.0
 40
1.0
 10
12.137529771
 20
6.7437035283
 30
0.0
 10
12.137529771
 20
6.7372484788
 30
0.0
 10
12.1373272045
 20
6.7242276489
 30
0.0
 10
12.1364481612
 20
6.7046308745
 30
0.0
 10
12.1350014445
 20
6.6849818004
 30
0.0
 10
12.1333311507
 20
6.6687049406
 30
0.0
 10
12.1317219135
 20
6.6558571621
 30
0.0
 10
12.1303928428
 20
6.6464143282
 30
0.0
 10
12.1289405268
 20
6.6371510788
 30
0.0
 10
12.1273697704
 20
6.6280980245
 30
0.0
 10
12.1256858055
 20
6.6192850986
 30
0.0
 10
12.1238942337
 20
6.6107414253
 30
0.0
 10
12.1220010188
 20
6.6024952312
 30
0.0
 10
12.1200124632
 20
6.5945737455
 30
0.0
 10
12.117935194
 20
6.587003101
 30
0.0
 10
12.1157761396
 20
6.5798082397
 30
0.0
 10
12.1135425
 20
6.5730128278
 30
0.0
 10
12.1112417205
 20
6.5666391597
 30
0.0
 10
12.1088814604
 20
6.5607080939
 30
0.0
 10
12.1064695457
 20
6.5552388549
 30
0.0
 10
12.1040139524
 20
6.5502492652
 30
0.0
 10
12.1018947172
 20
6.5464258845
 30
0.0
 10
12.1001776889
 20
6.543627618
 30
0.0
 10
12.0989117491
 20
6.5417040527
 30
0.0
 10
12.0976409035
 20
6.5399118173
 30
0.0
 10
12.09636618
 20
6.5382523314
 30
0.0
 10
12.0950885319
 20
6.5367269591
 30
0.0
 10
12.0938089802
 20
6.5353368965
 30
0.0
 10
12.092528464
 20
6.5340832722
 30
0.0
 10
12.0912478956
 20
6.5329671299
 30
0.0
 10
12.089968209
 20
6.531989372
 30
0.0
 10
12.0886902189
 20
6.5311509473
 30
0.0
 10
12.0874148254
 20
6.5304526559
 30
0.0
 10
12.0861428794
 20
6.5298953663
 30
0.0
 10
12.0848753568
 20
6.5294799341
 30
0.0
 10
12.0836133229
 20
6.5292070954
 30
0.0
 10
12.0823582866
 20
6.5290776039
 30
0.0
 10
12.0815250538
 20
6.5290871316
 30
0.0
 10
12.0811130225
 20
6.5291157109
 30
0.0
  0
SPLINE
  5
3C4
100
AcDbEntity
  8
0
100
AcDbSpline
 62
7
  6
CONTINUOUS
 70
0
 71
3
 72
43
 73
39
 74
0
 42
0.0000001
 43
0.0000001
 44
0.0000000001
 40
0.0
 40
0.0
 40
0.0
 40
0.0
 40
0.0149774647
 40
0.0299745946
 40
0.0449933586
 40
0.0600356201
 40
0.0901929848
 40
0.12046382
 40
0.1356473574
 40
0.1508629829
 40
0.166111638
 40
0.1813941159
 40
0.212058625
 40
0.2428641297
 40
0.2738113683
 40
0.304898596
 40
0.336121648
 40
0.3674740423
 40
0.3989471177
 40
0.4305302034
 40
0.4622108158
 40
0.4939748799
 40
0.5258069699
 40
0.5576905666
 40
0.5896083278
 40
0.6215423673
 40
0.6534745404
 40
0.6853867319
 40
0.7172611442
 40
0.7490805813
 40
0.7808287268
 40
0.8124904122
 40
0.8440518691
 40
0.8755009748
 40
0.9068274311
 40
0.9380231031
 40
0.9690817007
 40
1.0
 40
1.0
 40
1.0
 40
1.0
 10
10.3327852936
 20
7.2876363027
 30
0.0
 10
10.3289864998
 20
7.2855620444
 30
0.0
 10
10.3213100907
 20
7.2815444034
 30
0.0
 10
10.3095832807
 20
7.2759225395
 30
0.0
 10
10.2976493023
 20
7.2707072944
 30
0.0
 10
10.2814670784
 20
7.2642989051
 30
0.0
 10
10.2607800779
 20
7.2573331807
 30
0.0
 10
10.2396219505
 20
7.2518036693
 30
0.0
 10
10.2224510283
 20
7.248247295
 30
0.0
 10
10.2094473799
 20
7.2460141397
 30
0.0
 10
10.1963469921
 20
7.2442206613
 30
0.0
 10
10.1787521013
 20
7.2424161745
 30
0.0
 10
10.1565833672
 20
7.241271841
 30
0.0
 10
10.1298604176
 20
7.2416793234
 30
0.0
 10
10.1031008369
 20
7.2438635353
 30
0.0
 10
10.0764230497
 20
7.2478147615
 30
0.0
 10
10.0499440621
 20
7.253515414
 30
0.0
 10
10.0237802509
 20
7.2609402711
 30
0.0
 10
9.9980465078
 20
7.2700565497
 30
0.0
 10
9.9728558357
 20
7.2808240641
 30
0.0
 10
9.9483188324
 20
7.293195401
 30
0.0
 10
9.9245432185
 20
7.3071161297
 30
0.0
 10
9.9016333632
 20
7.3225250337
 30
0.0
 10
9.8796898332
 20
7.3393543848
 30
0.0
 10
9.8588089568
 20
7.3575302404
 30
0.0
 10
9.8390824048
 20
7.3769727656
 30
0.0
 10
9.8205967921
 20
7.3975965813
 30
0.0
 10
9.8034333003
 20
7.4193111361
 30
0.0
 10
9.7876673244
 20
7.4420210996
 30
0.0
 10
9.7733681448
 20
7.4656267786
 30
0.0
 10
9.7605986209
 20
7.4900245465
 30
0.0
 10
9.7494149147
 20
7.5151072978
 30
0.0
 10
9.7398662458
 20
7.540764904
 30
0.0
 10
9.7319946915
 20
7.566884736
 30
0.0
 10
9.725834951
 20
7.5933519932
 30
0.0
 10
9.7214143131
 20
7.6200507955
 30
0.0
 10
9.7187522939
 20
7.64686235
 30
0.0
 10
9.7181566734
 20
7.6647780328
 30
0.0
 10
9.7181566734
 20
7.6737128441
 30
0.0
  0
SPLINE
  5
3C5
100
AcDbEntity
  8
0
100
AcDbSpline
 62
7
  6
CONTINUOUS
 70
0
 71
3
 72
11
 73
7
 74
0
 42
0.0000001
 43
0.0000001
 44
0.0000000001
 40
0.0
 40
0.0
 40
0.0
 40
0.0
 40
0.2596146901
 40
0.5110885634
 40
0.7569690064
 40
1.0
 40
1.0
 40
1.0
 40
1.0
 10
10.929598297
 20
9.9624434798
 30
0.0
 10
10.9300759317
 20
9.9613882033
 30
0.0
 10
10.930920172
 20
9.9592652604
 30
0.0
 10
10.9318434984
 20
9.9560101959
 30
0.0
 10
10.9323984114
 20
9.9527472137
 30
0.0
 10
10.932522068
 20
9.9505638703
 30
0.0
 10
10.9325220638
 20
9.9494795262
 30
0.0
  0
SPLINE
  5
3C6
100
AcDbEntity
  8
0
100
AcDbSpline
 62
4
  6
CONTINUOUS
 70
0
 71
3
 72
319
 73
315
 74
0
 42
0.0000001
 43
0.0000001
 44
0.0000000001
 40
0.0
 40
0.0
 40
0.0
 40
0.0
 40
0.015625
 40
0.0234375
 40
0.03125
 40
0.0390625
 40
0.04296875
 40
0.046875
 40
0.05078125
 40
0.0546875
 40
0.056640625
 40
0.05859375
 40
0.060546875
 40
0.0615234375
 40
0.0620117188
 40
0.0625
 40
0.0629882812
 40
0.0634765625
 40
0.064453125
 40
0.06640625
 40
0.068359375
 40
0.0703125
 40
0.07421875
 40
0.078125
 40
0.08203125
 40
0.0859375
 40
0.09375
 40
0.1015625
 40
0.109375
 40
0.11328125
 40
0.1171875
 40
0.119140625
 40
0.12109375
 40
0.123046875
 40
0.1240234375
 40
0.1245117188
 40
0.125
 40
0.1254882812
 40
0.1259765625
 40
0.126953125
 40
0.12890625
 40
0.130859375
 40
0.1328125
 40
0.13671875
 40
0.140625
 40
0.1484375
 40
0.15625
 40
0.1640625
 40
0.171875
 40
0.17578125
 40
0.1796875
 40
0.181640625
 40
0.18359375
 40
0.185546875
 40
0.1865234375
 40
0.1870117188
 40
0.1875
 40
0.1879882812
 40
0.1884765625
 40
0.189453125
 40
0.19140625
 40
0.193359375
 40
0.1953125
 40
0.19921875
 40
0.203125
 40
0.2109375
 40
0.21875
 40
0.2265625
 40
0.234375
 40
0.23828125
 40
0.2421875
 40
0.244140625
 40
0.24609375
 40
0.248046875
 40
0.2490234375
 40
0.2495117188
 40
0.25
 40
0.2504882812
 40
0.2509765625
 40
0.251953125
 40
0.25390625
 40
0.255859375
 40
0.2578125
 40
0.26171875
 40
0.265625
 40
0.2734375
 40
0.28125
 40
0.2890625
 40
0.296875
 40
0.30078125
 40
0.3046875
 40
0.30859375
 40
0.310546875
 40
0.3115234375
 40
0.3125
 40
0.3134765625
 40
0.314453125
 40
0.31640625
 40
0.3203125
 40
0.32421875
 40
0.328125
 40
0.3359375
 40
0.34375
 40
0.3515625
 40
0.359375
 40
0.36328125
 40
0.3671875
 40
0.37109375
 40
0.373046875
 40
0.3740234375
 40
0.375
 40
0.3759765625
 40
0.376953125
 40
0.37890625
 40
0.3828125
 40
0.38671875
 40
0.390625
 40
0.3984375
 40
0.40625
 40
0.4140625
 40
0.421875
 40
0.42578125
 40
0.4296875
 40
0.43359375
 40
0.435546875
 40
0.4365234375
 40
0.4375
 40
0.4384765625
 40
0.439453125
 40
0.44140625
 40
0.4453125
 40
0.44921875
 40
0.453125
 40
0.4609375
 40
0.46875
 40
0.4765625
 40
0.484375
 40
0.48828125
 40
0.4921875
 40
0.49609375
 40
0.498046875
 40
0.4990234375
 40
0.5
 40
0.5009765625
 40
0.501953125
 40
0.50390625
 40
0.5078125
 40
0.51171875
 40
0.515625
 40
0.5234375
 40
0.53125
 40
0.5390625
 40
0.546875
 40
0.55078125
 40
0.5546875
 40
0.556640625
 40
0.55859375
 40
0.560546875
 40
0.5615234375
 40
0.5620117188
 40
0.5625
 40
0.5629882812
 40
0.5634765625
 40
0.564453125
 40
0.56640625
 40
0.568359375
 40
0.5703125
 40
0.57421875
 40
0.578125
 40
0.5859375
 40
0.59375
 40
0.6015625
 40
0.609375
 40
0.61328125
 40
0.6171875
 40
0.619140625
 40
0.62109375
 40
0.623046875
 40
0.6240234375
 40
0.6245117188
 40
0.625
 40
0.6254882812
 40
0.6259765625
 40
0.626953125
 40
0.62890625
 40
0.630859375
 40
0.6328125
 40
0.63671875
 40
0.640625
 40
0.6484375
 40
0.65625
 40
0.6640625
 40
0.671875
 40
0.67578125
 40
0.6796875
 40
0.681640625
 40
0.68359375
 40
0.685546875
 40
0.6865234375
 40
0.6870117188
 40
0.6875
 40
0.6879882812
 40
0.6884765625
 40
0.689453125
 40
0.69140625
 40
0.693359375
 40
0.6953125
 40
0.69921875
 40
0.703125
 40
0.7109375
 40
0.71875
 40
0.7265625
 40
0.73046875
 40
0.734375
 40
0.73828125
 40
0.7421875
 40
0.744140625
 40
0.74609375
 40
0.7470703125
 40
0.748046875
 40
0.7490234375
 40
0.7495117188
 40
0.75
 40
0.7504882812
 40
0.7509765625
 40
0.751953125
 40
0.7529296875
 40
0.75390625
 40
0.755859375
 40
0.7578125
 40
0.76171875
 40
0.765625
 40
0.76953125
 40
0.7734375
 40
0.78125
 40
0.7890625
 40
0.79296875
 40
0.796875
 40
0.80078125
 40
0.8046875
 40
0.806640625
 40
0.80859375
 40
0.8095703125
 40
0.810546875
 40
0.8115234375
 40
0.8120117188
 40
0.8125
 40
0.8129882812
 40
0.8134765625
 40
0.814453125
 40
0.8154296875
 40
0.81640625
 40
0.818359375
 40
0.8203125
 40
0.82421875
 40
0.828125
 40
0.83203125
 40
0.8359375
 40
0.84375
 40
0.8515625
 40
0.85546875
 40
0.859375
 40
0.86328125
 40
0.8671875
 40
0.869140625
 40
0.87109375
 40
0.8720703125
 40
0.873046875
 40
0.8740234375
 40
0.8745117188
 40
0.8747558594
 40
0.875
 40
0.8752441406
 40
0.8754882812
 40
0.8759765625
 40
0.876953125
 40
0.8779296875
 40
0.87890625
 40
0.880859375
 40
0.8828125
 40
0.88671875
 40
0.890625
 40
0.89453125
 40
0.8984375
 40
0.90625
 40
0.9140625
 40
0.91796875
 40
0.921875
 40
0.92578125
 40
0.9296875
 40
0.931640625
 40
0.93359375
 40
0.9345703125
 40
0.935546875
 40
0.9365234375
 40
0.9370117188
 40
0.9372558594
 40
0.9375
 40
0.9377441406
 40
0.9379882812
 40
0.9384765625
 40
0.939453125
 40
0.9404296875
 40
0.94140625
 40
0.943359375
 40
0.9453125
 40
0.94921875
 40
0.953125
 40
0.95703125
 40
0.9609375
 40
0.96875
 40
0.9765625
 40
0.984375
 40
1.0
 40
1.0
 40
1.0
 40
1.0
 10
12.3349050144
 20
7.9481891964
 30
0.0
 10
12.3357445486
 20
7.9493073358
 30
0.0
 10
12.3370038498
 20
7.950984545
 30
0.0
 10
12.3386829182
 20
7.9532208237
 30
0.0
 10
12.3399422194
 20
7.9548980334
 30
0.0
 10
12.3409916372
 20
7.9562957061
 30
0.0
 10
12.3418311712
 20
7.9574138488
 30
0.0
 10
12.3424608223
 20
7.9582524436
 30
0.0
 10
12.3430904709
 20
7.9590910847
 30
0.0
 10
12.3436151861
 20
7.9597898082
 30
0.0
 10
12.3440349402
 20
7.9603491097
 30
0.0
 10
12.3443498051
 20
7.9607677043
 30
0.0
 10
12.3446120357
 20
7.961119337
 30
0.0
 10
12.3447959049
 20
7.9613599774
 30
0.0
 10
12.3449004925
 20
7.9615060779
 30
0.0
 10
12.3449802866
 20
7.9615914504
 30
0.0
 10
12.3450549072
 20
7.9617693384
 30
0.0
 10
12.345156206
 20
7.961974252
 30
0.0
 10
12.3453326379
 20
7.9623478863
 30
0.0
 10
12.3455851232
 20
7.9628737888
 30
0.0
 10
12.3458879173
 20
7.9635082364
 30
0.0
 10
12.3462917085
 20
7.9643529912
 30
0.0
 10
12.346796425
 20
7.9654093381
 30
0.0
 10
12.3474020945
 20
7.9666767815
 30
0.0
 10
12.3480077614
 20
7.9679442711
 30
0.0
 10
12.3488153181
 20
7.9696342413
 30
0.0
 10
12.3498247639
 20
7.9717467078
 30
0.0
 10
12.351036098
 20
7.9742816733
 30
0.0
 10
12.3520455461
 20
7.9763941206
 30
0.0
 10
12.3528530978
 20
7.9780841331
 30
0.0
 10
12.3533578331
 20
7.9791402662
 30
0.0
 10
12.3537615859
 20
7.9799854584
 30
0.0
 10
12.3540644973
 20
7.9806185703
 30
0.0
 10
12.3543166158
 20
7.9811486518
 30
0.0
 10
12.3544937024
 20
7.9815148258
 30
0.0
 10
12.3545939522
 20
7.9817316926
 30
0.0
 10
12.3546717949
 20
7.9818728643
 30
0.0
 10
12.3547394874
 20
7.9820961372
 30
0.0
 10
12.3548332847
 20
7.9823651966
 30
0.0
 10
12.3549957803
 20
7.9828493935
 30
0.0
 10
12.3552287792
 20
7.9835341275
 30
0.0
 10
12.3555080089
 20
7.9843587941
 30
0.0
 10
12.355880444
 20
7.9854573068
 30
0.0
 10
12.3563459437
 20
7.9868308046
 30
0.0
 10
12.357090768
 20
7.9890282016
 30
0.0
 10
12.3580217898
 20
7.9917750167
 30
0.0
 10
12.3591390199
 20
7.9950711635
 30
0.0
 10
12.3602562478
 20
7.9983673256
 30
0.0
 10
12.3611872751
 20
8.0011141026
 30
0.0
 10
12.3619320883
 20
8.0033115758
 30
0.0
 10
12.3623976163
 20
8.00468488
 30
0.0
 10
12.3627699934
 20
8.0057837901
 30
0.0
 10
12.3630494002
 20
8.0066072424
 30
0.0
 10
12.3632818449
 20
8.0072957759
 30
0.0
 10
12.36344533
 20
8.0077731899
 30
0.0
 10
12.3635375418
 20
8.0080531171
 30
0.0
 10
12.3636101044
 20
8.0082430076
 30
0.0
 10
12.363669656
 20
8.0085095583
 30
0.0
 10
12.3637535966
 20
8.0088382192
 30
0.0
 10
12.3638983781
 20
8.0094258344
 30
0.0
 10
12.3641063143
 20
8.0102587713
 30
0.0
 10
12.3643553646
 20
8.0112610835
 30
0.0
 10
12.3646875968
 20
8.012596526
 30
0.0
 10
12.3651028306
 20
8.0142661625
 30
0.0
 10
12.3657672363
 20
8.0169373946
 30
0.0
 10
12.3665977324
 20
8.0202764989
 30
0.0
 10
12.3675943329
 20
8.0242833954
 30
0.0
 10
12.3685909302
 20
8.0282903036
 30
0.0
 10
12.3694214344
 20
8.0316293787
 30
0.0
 10
12.3700858238
 20
8.0343006692
 30
0.0
 10
12.3705010989
 20
8.0359701572
 30
0.0
 10
12.3708332463
 20
8.0373059045
 30
0.0
 10
12.3710825557
 20
8.0383072855
 30
0.0
 10
12.3712896812
 20
8.0391431359
 30
0.0
 10
12.37143591
 20
8.0397255499
 30
0.0
 10
12.3715175316
 20
8.0400625446
 30
0.0
 10
12.3715842063
 20
8.0403034967
 30
0.0
 10
12.3716300159
 20
8.0405895308
 30
0.0
 10
12.3716983734
 20
8.0409551846
 30
0.0
 10
12.371814608
 20
8.0416024052
 30
0.0
 10
12.3719824303
 20
8.0425231757
 30
0.0
 10
12.3721830582
 20
8.0436297398
 30
0.0
 10
12.3724508271
 20
8.045104586
 30
0.0
 10
12.3727854475
 20
8.0469483399
 30
0.0
 10
12.373320891
 20
8.0498982361
 30
0.0
 10
12.3739901767
 20
8.0535856461
 30
0.0
 10
12.374793333
 20
8.0580105126
 30
0.0
 10
12.3755964651
 20
8.0624354175
 30
0.0
 10
12.3762658113
 20
8.0661227316
 30
0.0
 10
12.3768011338
 20
8.0690728197
 30
0.0
 10
12.3772030474
 20
8.0712847393
 30
0.0
 10
12.3775366338
 20
8.0731300617
 30
0.0
 10
12.3777727772
 20
8.0744177525
 30
0.0
 10
12.3779036052
 20
8.0751598759
 30
0.0
 10
12.3780133071
 20
8.0756987212
 30
0.0
 10
12.3780787412
 20
8.0763054054
 30
0.0
 10
12.3781814277
 20
8.0770906546
 30
0.0
 10
12.3783539349
 20
8.0784758658
 30
0.0
 10
12.3786041349
 20
8.080448975
 30
0.0
 10
12.378902765
 20
8.0828191732
 30
0.0
 10
12.379301501
 20
8.0859785756
 30
0.0
 10
12.3797997266
 20
8.0899281251
 30
0.0
 10
12.3803976869
 20
8.0946674538
 30
0.0
 10
12.3809956002
 20
8.099406831
 30
0.0
 10
12.381493943
 20
8.1033562592
 30
0.0
 10
12.3818924446
 20
8.1065159041
 30
0.0
 10
12.3821917896
 20
8.1088853623
 30
0.0
 10
12.3824397532
 20
8.1108607866
 30
0.0
 10
12.3826162528
 20
8.1122418649
 30
0.0
 10
12.3827125424
 20
8.1130337362
 30
0.0
 10
12.3827976258
 20
8.1136200798
 30
0.0
 10
12.3828335283
 20
8.1142353209
 30
0.0
 10
12.3828985532
 20
8.1150455626
 30
0.0
 10
12.383004354
 20
8.116468182
 30
0.0
 10
12.3831596768
 20
8.1184980401
 30
0.0
 10
12.3833442753
 20
8.1209349208
 30
0.0
 10
12.3835910318
 20
8.1241837279
 30
0.0
 10
12.3838992615
 20
8.1282448629
 30
0.0
 10
12.3842692361
 20
8.13311817
 30
0.0
 10
12.3846391599
 20
8.1379914951
 30
0.0
 10
12.3849475167
 20
8.142052585
 30
0.0
 10
12.3851940189
 20
8.1453014823
 30
0.0
 10
12.3853793932
 20
8.1477380877
 30
0.0
 10
12.3855322893
 20
8.1497688069
 30
0.0
 10
12.385642422
 20
8.1511898891
 30
0.0
 10
12.3857005061
 20
8.1520025939
 30
0.0
 10
12.3857577283
 20
8.1526102693
 30
0.0
 10
12.3857627386
 20
8.1532250283
 30
0.0
 10
12.3857876311
 20
8.1540422361
 30
0.0
 10
12.3858227075
 20
8.155473501
 30
0.0
 10
12.3858772529
 20
8.1575175632
 30
0.0
 10
12.3859408086
 20
8.1599706954
 30
0.0
 10
12.3860262129
 20
8.1632414487
 30
0.0
 10
12.3861327391
 20
8.1673299191
 30
0.0
 10
12.3862606756
 20
8.17223608
 30
0.0
 10
12.3863885587
 20
8.1771422092
 30
0.0
 10
12.3864952184
 20
8.1812307589
 30
0.0
 10
12.3865803558
 20
8.1845013537
 30
0.0
 10
12.3866447257
 20
8.1869549692
 30
0.0
 10
12.3866967238
 20
8.1889975197
 30
0.0
 10
12.3867363477
 20
8.1904314832
 30
0.0
 10
12.3867539539
 20
8.1912443672
 30
0.0
 10
12.3867813451
 20
8.1918724074
 30
0.0
 10
12.3867545082
 20
8.1924302007
 30
0.0
 10
12.3867376411
 20
8.1931984281
 30
0.0
 10
12.3866993106
 20
8.1945314096
 30
0.0
 10
12.3866491602
 20
8.1964416375
 30
0.0
 10
12.3865870076
 20
8.1987313562
 30
0.0
 10
12.3865048264
 20
8.201785207
 30
0.0
 10
12.3864018634
 20
8.2056022139
 30
0.0
 10
12.3862784098
 20
8.2101827547
 30
0.0
 10
12.3861549265
 20
8.214763256
 30
0.0
 10
12.3860520377
 20
8.2185803617
 30
0.0
 10
12.385969708
 20
8.2216340149
 30
0.0
 10
12.3859182917
 20
8.223542616
 30
0.0
 10
12.3858770678
 20
8.2250693418
 30
0.0
 10
12.3858463987
 20
8.2262148106
 30
0.0
 10
12.3858200493
 20
8.2271680178
 30
0.0
 10
12.3858031588
 20
8.2278379124
 30
0.0
 10
12.3857910806
 20
8.2282165724
 30
0.0
 10
12.3857888573
 20
8.228512221
 30
0.0
 10
12.3857605056
 20
8.2287633235
 30
0.0
 10
12.3857318172
 20
8.2291136649
 30
0.0
 10
12.3856773663
 20
8.229719523
 30
0.0
 10
12.3856017992
 20
8.2305888193
 30
0.0
 10
12.3855101684
 20
8.2316303549
 30
0.0
 10
12.385388326
 20
8.2330196349
 30
0.0
 10
12.3852359093
 20
8.2347560411
 30
0.0
 10
12.3849921061
 20
8.2375343994
 30
0.0
 10
12.3846873303
 20
8.2410073098
 30
0.0
 10
12.3843216092
 20
8.2451748198
 30
0.0
 10
12.3839558832
 20
8.2493423196
 30
0.0
 10
12.3836511195
 20
8.2528152554
 30
0.0
 10
12.383407292
 20
8.2555935627
 30
0.0
 10
12.3832549372
 20
8.2573300985
 30
0.0
 10
12.3831329677
 20
8.2587191126
 30
0.0
 10
12.3830417252
 20
8.2597614606
 30
0.0
 10
12.3829649434
 20
8.260628215
 30
0.0
 10
12.3829126609
 20
8.2612386109
 30
0.0
 10
12.3828804981
 20
8.2615816816
 30
0.0
 10
12.3828628185
 20
8.2618551174
 30
0.0
 10
12.3828205128
 20
8.2620668857
 30
0.0
 10
12.3827726952
 20
8.2623707537
 30
0.0
 10
12.382685012
 20
8.2628925006
 30
0.0
 10
12.3825618428
 20
8.2636430931
 30
0.0
 10
12.3824131441
 20
8.2645415613
 30
0.0
 10
12.382215192
 20
8.2657403022
 30
0.0
 10
12.3819676448
 20
8.2672384601
 30
0.0
 10
12.3815716291
 20
8.2696356628
 30
0.0
 10
12.3810765888
 20
8.2726321143
 30
0.0
 10
12.38048255
 20
8.27622788
 30
0.0
 10
12.3798885064
 20
8.2798236329
 30
0.0
 10
12.3793934778
 20
8.2828201164
 30
0.0
 10
12.3789974388
 20
8.2852172551
 30
0.0
 10
12.3787499508
 20
8.2867155757
 30
0.0
 10
12.3785518772
 20
8.2879139828
 30
0.0
 10
12.3784035497
 20
8.2888134708
 30
0.0
 10
12.378279219
 20
8.2895608726
 30
0.0
 10
12.3781936094
 20
8.2900883154
 30
0.0
 10
12.3781424693
 20
8.2903830572
 30
0.0
 10
12.378110369
 20
8.2906228582
 30
0.0
 10
12.3780543601
 20
8.2907910078
 30
0.0
 10
12.3779880211
 20
8.2910402
 30
0.0
 10
12.3778680424
 20
8.2914646419
 30
0.0
 10
12.3776986757
 20
8.2920770753
 30
0.0
 10
12.377494566
 20
8.2928093895
 30
0.0
 10
12.3772227236
 20
8.2937867187
 30
0.0
 10
12.3768828166
 20
8.2950080686
 30
0.0
 10
12.3763390234
 20
8.2969624025
 30
0.0
 10
12.375659262
 20
8.2994052601
 30
0.0
 10
12.3748435569
 20
8.3023367151
 30
0.0
 10
12.3741638006
 20
8.3047795879
 30
0.0
 10
12.3736199962
 20
8.3067338885
 30
0.0
 10
12.3732121423
 20
8.3081996105
 30
0.0
 10
12.3728042907
 20
8.3096653453
 30
0.0
 10
12.372464407
 20
8.3108867511
 30
0.0
 10
12.3721925165
 20
8.311863965
 30
0.0
 10
12.3720225475
 20
8.3124745205
 30
0.0
 10
12.3718866581
 20
8.3129634302
 30
0.0
 10
12.3717845061
 20
8.3133288388
 30
0.0
 10
12.3717001268
 20
8.3136373974
 30
0.0
 10
12.3716309471
 20
8.3138751576
 30
0.0
 10
12.3715836428
 20
8.3140783072
 30
0.0
 10
12.3715188547
 20
8.3141866822
 30
0.0
 10
12.371438578
 20
8.3143642883
 30
0.0
 10
12.3713361366
 20
8.3145749374
 30
0.0
 10
12.3712141039
 20
8.3148325781
 30
0.0
 10
12.3710510803
 20
8.315174401
 30
0.0
 10
12.3708474082
 20
8.3156022609
 30
0.0
 10
12.3705214727
 20
8.3162865119
 30
0.0
 10
12.370114074
 20
8.3171419372
 30
0.0
 10
12.3696251867
 20
8.3181683997
 30
0.0
 10
12.3691363018
 20
8.319194875
 30
0.0
 10
12.3684844544
 20
8.3205635043
 30
0.0
 10
12.3676696454
 20
8.3222742925
 30
0.0
 10
12.3668548363
 20
8.3239850796
 30
0.0
 10
12.3662029892
 20
8.3253537107
 30
0.0
 10
12.3657141033
 20
8.3263801805
 30
0.0
 10
12.3652252195
 20
8.3274066635
 30
0.0
 10
12.36481781
 20
8.3282620252
 30
0.0
 10
12.3644918964
 20
8.3289464058
 30
0.0
 10
12.3642881687
 20
8.3293739359
 30
0.0
 10
12.3641252592
 20
8.3297164358
 30
0.0
 10
12.3640028779
 20
8.3299720081
 30
0.0
 10
12.3639015271
 20
8.3301891289
 30
0.0
 10
12.3638190255
 20
8.3303535314
 30
0.0
 10
12.363761032
 20
8.3305022295
 30
0.0
 10
12.363688218
 20
8.3305539894
 30
0.0
 10
12.3635963097
 20
8.3306568644
 30
0.0
 10
12.3634796481
 20
8.3307738404
 30
0.0
 10
12.3633404144
 20
8.3309191843
 30
0.0
 10
12.3631545039
 20
8.3311112393
 30
0.0
 10
12.3629222068
 20
8.3313519027
 30
0.0
 10
12.3625504805
 20
8.3317366319
 30
0.0
 10
12.3620858401
 20
8.3322176574
 30
0.0
 10
12.3615282642
 20
8.3327948391
 30
0.0
 10
12.3609706903
 20
8.3333720339
 30
0.0
 10
12.3602272577
 20
8.3341416223
 30
0.0
 10
12.3592979672
 20
8.3351036094
 30
0.0
 10
12.3583686766
 20
8.3360655962
 30
0.0
 10
12.3576252441
 20
8.3368351852
 30
0.0
 10
12.3570676699
 20
8.3374123783
 30
0.0
 10
12.3565100951
 20
8.3379895665
 30
0.0
 10
12.3560454511
 20
8.3384705718
 30
0.0
 10
12.3556737324
 20
8.3388553421
 30
0.0
 10
12.355441416
 20
8.3390959008
 30
0.0
 10
12.355255545
 20
8.3392881708
 30
0.0
 10
12.3551161906
 20
8.3394328577
 30
0.0
 10
12.3549999068
 20
8.3395518895
 30
0.0
 10
12.3549188125
 20
8.339638235
 30
0.0
 10
12.3548719977
 20
8.3396828548
 30
0.0
 10
12.3548382254
 20
8.3397296172
 30
0.0
 10
12.3547993352
 20
8.3397255497
 30
0.0
 10
12.3547492667
 20
8.3397378564
 30
0.0
 10
12.3546608152
 20
8.3397511324
 30
0.0
 10
12.3545348907
 20
8.3397744169
 30
0.0
 10
12.3543835952
 20
8.3398005096
 30
0.0
 10
12.3541819329
 20
8.3398359457
 30
0.0
 10
12.3539298327
 20
8.3398800197
 30
0.0
 10
12.3535264849
 20
8.3399506616
 30
0.0
 10
12.3530222958
 20
8.3400389217
 30
0.0
 10
12.3524172708
 20
8.3401448519
 30
0.0
 10
12.3518122452
 20
8.3402507772
 30
0.0
 10
12.3510055447
 20
8.3403920128
 30
0.0
 10
12.349997169
 20
8.3405685565
 30
0.0
 10
12.3489887933
 20
8.3407451007
 30
0.0
 10
12.3481820927
 20
8.3408863355
 30
0.0
 10
12.3475770673
 20
8.3409922629
 30
0.0
 10
12.3469720416
 20
8.3410981853
 30
0.0
 10
12.3464678547
 20
8.3411864697
 30
0.0
 10
12.3460645025
 20
8.3412570621
 30
0.0
 10
12.3458124133
 20
8.3413012621
 30
0.0
 10
12.3456107285
 20
8.3413364396
 30
0.0
 10
12.3454595016
 20
8.3413633222
 30
0.0
 10
12.3453333625
 20
8.3413841353
 30
0.0
 10
12.3452452942
 20
8.3414018232
 30
0.0
 10
12.3451946117
 20
8.3414070609
 30
0.0
 10
12.3451576077
 20
8.3414247069
 30
0.0
 10
12.3451167509
 20
8.3413899169
 30
0.0
 10
12.345063619
 20
8.3413618205
 30
0.0
 10
12.3449700121
 20
8.3413041299
 30
0.0
 10
12.3448366153
 20
8.3412261701
 30
0.0
 10
12.344676399
 20
8.3411307114
 30
0.0
 10
12.3444628263
 20
8.3410040991
 30
0.0
 10
12.3441958435
 20
8.3408456057
 30
0.0
 10
12.3437686806
 20
8.3405921438
 30
0.0
 10
12.3432347236
 20
8.3402752726
 30
0.0
 10
12.3425939767
 20
8.3398950459
 30
0.0
 10
12.3419532294
 20
8.3395148142
 30
0.0
 10
12.3410988998
 20
8.3390078404
 30
0.0
 10
12.3400309877
 20
8.3383741225
 30
0.0
 10
12.3387494933
 20
8.3376136613
 30
0.0
 10
12.337040834
 20
8.3365997129
 30
0.0
 10
12.3357593395
 20
8.3358392516
 30
0.0
 10
12.3349050099
 20
8.3353322774
 30
0.0
  0
SPLINE
  5
3C7
100
AcDbEntity
  8
0
100
AcDbSpline
 62
4
  6
CONTINUOUS
 70
0
 71
3
 72
319
 73
315
 74
0
 42
0.0000001
 43
0.0000001
 44
0.0000000001
 40
0.0
 40
0.0
 40
0.0
 40
0.0
 40
0.015625
 40
0.0234375
 40
0.03125
 40
0.0390625
 40
0.04296875
 40
0.046875
 40
0.05078125
 40
0.0546875
 40
0.056640625
 40
0.05859375
 40
0.060546875
 40
0.0615234375
 40
0.0620117188
 40
0.0625
 40
0.0629882812
 40
0.0634765625
 40
0.064453125
 40
0.06640625
 40
0.068359375
 40
0.0703125
 40
0.07421875
 40
0.078125
 40
0.08203125
 40
0.0859375
 40
0.09375
 40
0.1015625
 40
0.109375
 40
0.11328125
 40
0.1171875
 40
0.119140625
 40
0.12109375
 40
0.123046875
 40
0.1240234375
 40
0.1245117188
 40
0.125
 40
0.1254882812
 40
0.1259765625
 40
0.126953125
 40
0.12890625
 40
0.130859375
 40
0.1328125
 40
0.13671875
 40
0.140625
 40
0.1484375
 40
0.15625
 40
0.1640625
 40
0.171875
 40
0.17578125
 40
0.1796875
 40
0.181640625
 40
0.18359375
 40
0.185546875
 40
0.1865234375
 40
0.1870117188
 40
0.1875
 40
0.1879882812
 40
0.1884765625
 40
0.189453125
 40
0.19140625
 40
0.193359375
 40
0.1953125
 40
0.19921875
 40
0.203125
 40
0.2109375
 40
0.21875
 40
0.2265625
 40
0.234375
 40
0.23828125
 40
0.2421875
 40
0.244140625
 40
0.24609375
 40
0.248046875
 40
0.2490234375
 40
0.2495117188
 40
0.25
 40
0.2504882812
 40
0.2509765625
 40
0.251953125
 40
0.25390625
 40
0.255859375
 40
0.2578125
 40
0.26171875
 40
0.265625
 40
0.2734375
 40
0.28125
 40
0.2890625
 40
0.296875
 40
0.30078125
 40
0.3046875
 40
0.30859375
 40
0.310546875
 40
0.3115234375
 40
0.3125
 40
0.3134765625
 40
0.314453125
 40
0.31640625
 40
0.3203125
 40
0.32421875
 40
0.328125
 40
0.3359375
 40
0.34375
 40
0.3515625
 40
0.359375
 40
0.36328125
 40
0.3671875
 40
0.37109375
 40
0.373046875
 40
0.3740234375
 40
0.375
 40
0.3759765625
 40
0.376953125
 40
0.37890625
 40
0.3828125
 40
0.38671875
 40
0.390625
 40
0.3984375
 40
0.40625
 40
0.4140625
 40
0.421875
 40
0.42578125
 40
0.4296875
 40
0.43359375
 40
0.435546875
 40
0.4365234375
 40
0.4375
 40
0.4384765625
 40
0.439453125
 40
0.44140625
 40
0.4453125
 40
0.44921875
 40
0.453125
 40
0.4609375
 40
0.46875
 40
0.4765625
 40
0.484375
 40
0.48828125
 40
0.4921875
 40
0.49609375
 40
0.498046875
 40
0.4990234375
 40
0.5
 40
0.5009765625
 40
0.501953125
 40
0.50390625
 40
0.5078125
 40
0.51171875
 40
0.515625
 40
0.5234375
 40
0.53125
 40
0.5390625
 40
0.546875
 40
0.55078125
 40
0.5546875
 40
0.556640625
 40
0.55859375
 40
0.560546875
 40
0.5615234375
 40
0.5620117188
 40
0.5625
 40
0.5629882812
 40
0.5634765625
 40
0.564453125
 40
0.56640625
 40
0.568359375
 40
0.5703125
 40
0.57421875
 40
0.578125
 40
0.5859375
 40
0.59375
 40
0.6015625
 40
0.609375
 40
0.61328125
 40
0.6171875
 40
0.619140625
 40
0.62109375
 40
0.623046875
 40
0.6240234375
 40
0.6245117188
 40
0.625
 40
0.6254882812
 40
0.6259765625
 40
0.626953125
 40
0.62890625
 40
0.630859375
 40
0.6328125
 40
0.63671875
 40
0.640625
 40
0.6484375
 40
0.65625
 40
0.6640625
 40
0.671875
 40
0.67578125
 40
0.6796875
 40
0.681640625
 40
0.68359375
 40
0.685546875
 40
0.6865234375
 40
0.6870117188
 40
0.6875
 40
0.6879882812
 40
0.6884765625
 40
0.689453125
 40
0.69140625
 40
0.693359375
 40
0.6953125
 40
0.69921875
 40
0.703125
 40
0.7109375
 40
0.71875
 40
0.7265625
 40
0.73046875
 40
0.734375
 40
0.73828125
 40
0.7421875
 40
0.744140625
 40
0.74609375
 40
0.7470703125
 40
0.748046875
 40
0.7490234375
 40
0.7495117188
 40
0.75
 40
0.7504882812
 40
0.7509765625
 40
0.751953125
 40
0.7529296875
 40
0.75390625
 40
0.755859375
 40
0.7578125
 40
0.76171875
 40
0.765625
 40
0.76953125
 40
0.7734375
 40
0.78125
 40
0.7890625
 40
0.79296875
 40
0.796875
 40
0.80078125
 40
0.8046875
 40
0.806640625
 40
0.80859375
 40
0.8095703125
 40
0.810546875
 40
0.8115234375
 40
0.8120117188
 40
0.8125
 40
0.8129882812
 40
0.8134765625
 40
0.814453125
 40
0.8154296875
 40
0.81640625
 40
0.818359375
 40
0.8203125
 40
0.82421875
 40
0.828125
 40
0.83203125
 40
0.8359375
 40
0.84375
 40
0.8515625
 40
0.85546875
 40
0.859375
 40
0.86328125
 40
0.8671875
 40
0.869140625
 40
0.87109375
 40
0.8720703125
 40
0.873046875
 40
0.8740234375
 40
0.8745117188
 40
0.8747558594
 40
0.875
 40
0.8752441406
 40
0.8754882812
 40
0.8759765625
 40
0.876953125
 40
0.8779296875
 40
0.87890625
 40
0.880859375
 40
0.8828125
 40
0.88671875
 40
0.890625
 40
0.89453125
 40
0.8984375
 40
0.90625
 40
0.9140625
 40
0.91796875
 40
0.921875
 40
0.92578125
 40
0.9296875
 40
0.931640625
 40
0.93359375
 40
0.9345703125
 40
0.935546875
 40
0.9365234375
 40
0.9370117188
 40
0.9372558594
 40
0.9375
 40
0.9377441406
 40
0.9379882812
 40
0.9384765625
 40
0.939453125
 40
0.9404296875
 40
0.94140625
 40
0.943359375
 40
0.9453125
 40
0.94921875
 40
0.953125
 40
0.95703125
 40
0.9609375
 40
0.96875
 40
0.9765625
 40
0.984375
 40
1.0
 40
1.0
 40
1.0
 40
1.0
 10
12.3349050144
 20
8.3353322818
 30
0.0
 10
12.3340654803
 20
8.3342141424
 30
0.0
 10
12.332806179
 20
8.3325369332
 30
0.0
 10
12.3311271107
 20
8.3303006544
 30
0.0
 10
12.3298678095
 20
8.3286234448
 30
0.0
 10
12.3288183917
 20
8.327225772
 30
0.0
 10
12.3279788577
 20
8.3261076294
 30
0.0
 10
12.3273492065
 20
8.3252690346
 30
0.0
 10
12.326719558
 20
8.3244303935
 30
0.0
 10
12.3261948428
 20
8.3237316699
 30
0.0
 10
12.3257750886
 20
8.3231723685
 30
0.0
 10
12.3254602238
 20
8.3227537739
 30
0.0
 10
12.3251979931
 20
8.3224021412
 30
0.0
 10
12.325014124
 20
8.3221615008
 30
0.0
 10
12.3249095364
 20
8.3220154003
 30
0.0
 10
12.3248297422
 20
8.3219300278
 30
0.0
 10
12.3247551216
 20
8.3217521397
 30
0.0
 10
12.3246538229
 20
8.3215472261
 30
0.0
 10
12.324477391
 20
8.3211735919
 30
0.0
 10
12.3242249057
 20
8.3206476894
 30
0.0
 10
12.3239221116
 20
8.3200132418
 30
0.0
 10
12.3235183203
 20
8.3191684869
 30
0.0
 10
12.3230136038
 20
8.3181121401
 30
0.0
 10
12.3224079344
 20
8.3168446967
 30
0.0
 10
12.3218022675
 20
8.3155772071
 30
0.0
 10
12.3209947108
 20
8.3138872369
 30
0.0
 10
12.319985265
 20
8.3117747704
 30
0.0
 10
12.3187739308
 20
8.3092398049
 30
0.0
 10
12.3177644828
 20
8.3071273576
 30
0.0
 10
12.3169569311
 20
8.3054373451
 30
0.0
 10
12.3164521958
 20
8.304381212
 30
0.0
 10
12.316048443
 20
8.3035360198
 30
0.0
 10
12.3157455316
 20
8.3029029079
 30
0.0
 10
12.3154934131
 20
8.3023728264
 30
0.0
 10
12.3153163264
 20
8.3020066524
 30
0.0
 10
12.3152160767
 20
8.3017897856
 30
0.0
 10
12.315138234
 20
8.3016486139
 30
0.0
 10
12.3150705414
 20
8.301425341
 30
0.0
 10
12.3149767442
 20
8.3011562815
 30
0.0
 10
12.3148142486
 20
8.3006720847
 30
0.0
 10
12.3145812496
 20
8.2999873507
 30
0.0
 10
12.31430202
 20
8.2991626841
 30
0.0
 10
12.3139295849
 20
8.2980641714
 30
0.0
 10
12.3134640851
 20
8.2966906735
 30
0.0
 10
12.3127192609
 20
8.2944932766
 30
0.0
 10
12.3117882391
 20
8.2917464614
 30
0.0
 10
12.310671009
 20
8.2884503146
 30
0.0
 10
12.3095537811
 20
8.2851541526
 30
0.0
 10
12.3086227537
 20
8.2824073756
 30
0.0
 10
12.3078779406
 20
8.2802099024
 30
0.0
 10
12.3074124126
 20
8.2788365982
 30
0.0
 10
12.3070400355
 20
8.2777376881
 30
0.0
 10
12.3067606287
 20
8.2769142358
 30
0.0
 10
12.306528184
 20
8.2762257023
 30
0.0
 10
12.3063646989
 20
8.2757482883
 30
0.0
 10
12.3062724871
 20
8.275468361
 30
0.0
 10
12.3061999245
 20
8.2752784706
 30
0.0
 10
12.3061403728
 20
8.2750119199
 30
0.0
 10
12.3060564323
 20
8.274683259
 30
0.0
 10
12.3059116508
 20
8.2740956437
 30
0.0
 10
12.3057037146
 20
8.2732627069
 30
0.0
 10
12.3054546643
 20
8.2722603947
 30
0.0
 10
12.305122432
 20
8.2709249522
 30
0.0
 10
12.3047071983
 20
8.2692553157
 30
0.0
 10
12.3040427926
 20
8.2665840836
 30
0.0
 10
12.3032122965
 20
8.2632449793
 30
0.0
 10
12.302215696
 20
8.2592380828
 30
0.0
 10
12.3012190987
 20
8.2552311745
 30
0.0
 10
12.3003885945
 20
8.2518920995
 30
0.0
 10
12.2997242051
 20
8.249220809
 30
0.0
 10
12.29930893
 20
8.2475513209
 30
0.0
 10
12.2989767825
 20
8.2462155737
 30
0.0
 10
12.2987274732
 20
8.2452141927
 30
0.0
 10
12.2985203477
 20
8.2443783422
 30
0.0
 10
12.2983741189
 20
8.2437959282
 30
0.0
 10
12.2982924973
 20
8.2434589336
 30
0.0
 10
12.2982258225
 20
8.2432179815
 30
0.0
 10
12.2981800129
 20
8.2429319473
 30
0.0
 10
12.2981116555
 20
8.2425662936
 30
0.0
 10
12.2979954209
 20
8.241919073
 30
0.0
 10
12.2978275986
 20
8.2409983025
 30
0.0
 10
12.2976269707
 20
8.2398917383
 30
0.0
 10
12.2973592017
 20
8.2384168922
 30
0.0
 10
12.2970245814
 20
8.2365731383
 30
0.0
 10
12.2964891379
 20
8.233623242
 30
0.0
 10
12.2958198522
 20
8.2299358321
 30
0.0
 10
12.2950166959
 20
8.2255109655
 30
0.0
 10
12.2942135638
 20
8.2210860607
 30
0.0
 10
12.2935442176
 20
8.2173987466
 30
0.0
 10
12.2930088951
 20
8.2144486585
 30
0.0
 10
12.2926069815
 20
8.2122367389
 30
0.0
 10
12.2922733951
 20
8.2103914165
 30
0.0
 10
12.2920372517
 20
8.2091037256
 30
0.0
 10
12.2919064237
 20
8.2083616023
 30
0.0
 10
12.2917967218
 20
8.207822757
 30
0.0
 10
12.2917312877
 20
8.2072160728
 30
0.0
 10
12.2916286012
 20
8.2064308236
 30
0.0
 10
12.291456094
 20
8.2050456123
 30
0.0
 10
12.2912058939
 20
8.2030725032
 30
0.0
 10
12.2909072639
 20
8.2007023049
 30
0.0
 10
12.2905085278
 20
8.1975429026
 30
0.0
 10
12.2900103022
 20
8.1935933531
 30
0.0
 10
12.289412342
 20
8.1888540244
 30
0.0
 10
12.2888144287
 20
8.1841146472
 30
0.0
 10
12.2883160859
 20
8.180165219
 30
0.0
 10
12.2879175843
 20
8.177005574
 30
0.0
 10
12.2876182393
 20
8.1746361159
 30
0.0
 10
12.2873702757
 20
8.1726606915
 30
0.0
 10
12.2871937761
 20
8.1712796132
 30
0.0
 10
12.2870974864
 20
8.170487742
 30
0.0
 10
12.2870124031
 20
8.1699013984
 30
0.0
 10
12.2869765005
 20
8.1692861573
 30
0.0
 10
12.2869114757
 20
8.1684759155
 30
0.0
 10
12.2868056748
 20
8.1670532962
 30
0.0
 10
12.2866503521
 20
8.1650234381
 30
0.0
 10
12.2864657535
 20
8.1625865574
 30
0.0
 10
12.286218997
 20
8.1593377503
 30
0.0
 10
12.2859107674
 20
8.1552766153
 30
0.0
 10
12.2855407927
 20
8.1504033082
 30
0.0
 10
12.2851708689
 20
8.1455299831
 30
0.0
 10
12.2848625121
 20
8.1414688932
 30
0.0
 10
12.28461601
 20
8.1382199959
 30
0.0
 10
12.2844306357
 20
8.1357833904
 30
0.0
 10
12.2842777396
 20
8.1337526712
 30
0.0
 10
12.2841676069
 20
8.1323315891
 30
0.0
 10
12.2841095227
 20
8.1315188843
 30
0.0
 10
12.2840523005
 20
8.1309112089
 30
0.0
 10
12.2840472903
 20
8.1302964499
 30
0.0
 10
12.2840223978
 20
8.1294792421
 30
0.0
 10
12.2839873214
 20
8.1280479772
 30
0.0
 10
12.2839327759
 20
8.126003915
 30
0.0
 10
12.2838692203
 20
8.1235507827
 30
0.0
 10
12.283783816
 20
8.1202800294
 30
0.0
 10
12.2836772897
 20
8.116191559
 30
0.0
 10
12.2835493532
 20
8.1112853981
 30
0.0
 10
12.2834214701
 20
8.1063792689
 30
0.0
 10
12.2833148104
 20
8.1022907193
 30
0.0
 10
12.283229673
 20
8.0990201245
 30
0.0
 10
12.2831653032
 20
8.096566509
 30
0.0
 10
12.2831133051
 20
8.0945239584
 30
0.0
 10
12.2830736812
 20
8.093089995
 30
0.0
 10
12.2830560749
 20
8.092277111
 30
0.0
 10
12.2830286838
 20
8.0916490708
 30
0.0
 10
12.2830555206
 20
8.0910912774
 30
0.0
 10
12.2830723878
 20
8.0903230501
 30
0.0
 10
12.2831107183
 20
8.0889900686
 30
0.0
 10
12.2831608686
 20
8.0870798407
 30
0.0
 10
12.2832230212
 20
8.0847901219
 30
0.0
 10
12.2833052024
 20
8.0817362712
 30
0.0
 10
12.2834081655
 20
8.0779192643
 30
0.0
 10
12.2835316191
 20
8.0733387235
 30
0.0
 10
12.2836551024
 20
8.0687582222
 30
0.0
 10
12.2837579912
 20
8.0649411165
 30
0.0
 10
12.2838403209
 20
8.0618874633
 30
0.0
 10
12.2838917372
 20
8.0599788622
 30
0.0
 10
12.2839329611
 20
8.0584521364
 30
0.0
 10
12.2839636301
 20
8.0573066676
 30
0.0
 10
12.2839899795
 20
8.0563534603
 30
0.0
 10
12.2840068701
 20
8.0556835658
 30
0.0
 10
12.2840189483
 20
8.0553049058
 30
0.0
 10
12.2840211716
 20
8.0550092572
 30
0.0
 10
12.2840495233
 20
8.0547581547
 30
0.0
 10
12.2840782116
 20
8.0544078133
 30
0.0
 10
12.2841326626
 20
8.0538019552
 30
0.0
 10
12.2842082297
 20
8.0529326588
 30
0.0
 10
12.2842998604
 20
8.0518911233
 30
0.0
 10
12.2844217029
 20
8.0505018433
 30
0.0
 10
12.2845741196
 20
8.048765437
 30
0.0
 10
12.2848179227
 20
8.0459870787
 30
0.0
 10
12.2851226986
 20
8.0425141684
 30
0.0
 10
12.2854884197
 20
8.0383466584
 30
0.0
 10
12.2858541456
 20
8.0341791586
 30
0.0
 10
12.2861589094
 20
8.0307062228
 30
0.0
 10
12.2864027369
 20
8.0279279155
 30
0.0
 10
12.2865550916
 20
8.0261913797
 30
0.0
 10
12.2866770612
 20
8.0248023656
 30
0.0
 10
12.2867683037
 20
8.0237600176
 30
0.0
 10
12.2868450854
 20
8.0228932631
 30
0.0
 10
12.286897368
 20
8.0222828673
 30
0.0
 10
12.2869295307
 20
8.0219397966
 30
0.0
 10
12.2869472104
 20
8.0216663608
 30
0.0
 10
12.286989516
 20
8.0214545925
 30
0.0
 10
12.2870373337
 20
8.0211507245
 30
0.0
 10
12.2871250168
 20
8.0206289775
 30
0.0
 10
12.2872481861
 20
8.0198783851
 30
0.0
 10
12.2873968848
 20
8.0189799169
 30
0.0
 10
12.2875948368
 20
8.017781176
 30
0.0
 10
12.2878423841
 20
8.016283018
 30
0.0
 10
12.2882383997
 20
8.0138858154
 30
0.0
 10
12.28873344
 20
8.0108893639
 30
0.0
 10
12.2893274789
 20
8.0072935982
 30
0.0
 10
12.2899215225
 20
8.0036978452
 30
0.0
 10
12.2904165511
 20
8.0007013618
 30
0.0
 10
12.2908125901
 20
7.9983042231
 30
0.0
 10
12.2910600781
 20
7.9968059025
 30
0.0
 10
12.2912581517
 20
7.9956074954
 30
0.0
 10
12.2914064791
 20
7.9947080074
 30
0.0
 10
12.2915308099
 20
7.9939606056
 30
0.0
 10
12.2916164195
 20
7.9934331628
 30
0.0
 10
12.2916675595
 20
7.993138421
 30
0.0
 10
12.2916996599
 20
7.99289862
 30
0.0
 10
12.2917556688
 20
7.9927304704
 30
0.0
 10
12.2918220077
 20
7.9924812782
 30
0.0
 10
12.2919419865
 20
7.9920568363
 30
0.0
 10
12.2921113532
 20
7.9914444029
 30
0.0
 10
12.2923154628
 20
7.9907120886
 30
0.0
 10
12.2925873053
 20
7.9897347594
 30
0.0
 10
12.2929272123
 20
7.9885134096
 30
0.0
 10
12.2934710055
 20
7.9865590757
 30
0.0
 10
12.2941507669
 20
7.984116218
 30
0.0
 10
12.294966472
 20
7.9811847631
 30
0.0
 10
12.2956462282
 20
7.9787418903
 30
0.0
 10
12.2961900326
 20
7.9767875897
 30
0.0
 10
12.2965978866
 20
7.9753218677
 30
0.0
 10
12.2970057382
 20
7.9738561329
 30
0.0
 10
12.2973456219
 20
7.9726347271
 30
0.0
 10
12.2976175124
 20
7.9716575132
 30
0.0
 10
12.2977874814
 20
7.9710469576
 30
0.0
 10
12.2979233708
 20
7.970558048
 30
0.0
 10
12.2980255228
 20
7.9701926394
 30
0.0
 10
12.2981099021
 20
7.9698840808
 30
0.0
 10
12.2981790818
 20
7.9696463206
 30
0.0
 10
12.2982263861
 20
7.969443171
 30
0.0
 10
12.2982911742
 20
7.9693347959
 30
0.0
 10
12.2983714509
 20
7.9691571899
 30
0.0
 10
12.2984738923
 20
7.9689465408
 30
0.0
 10
12.298595925
 20
7.9686889001
 30
0.0
 10
12.2987589485
 20
7.9683470772
 30
0.0
 10
12.2989626207
 20
7.9679192172
 30
0.0
 10
12.2992885562
 20
7.9672349662
 30
0.0
 10
12.2996959549
 20
7.966379541
 30
0.0
 10
12.3001848422
 20
7.9653530785
 30
0.0
 10
12.3006737271
 20
7.9643266032
 30
0.0
 10
12.3013255745
 20
7.9629579739
 30
0.0
 10
12.3021403835
 20
7.9612471857
 30
0.0
 10
12.3029551926
 20
7.9595363986
 30
0.0
 10
12.3036070397
 20
7.9581677675
 30
0.0
 10
12.3040959256
 20
7.9571412976
 30
0.0
 10
12.3045848094
 20
7.9561148147
 30
0.0
 10
12.3049922188
 20
7.955259453
 30
0.0
 10
12.3053181324
 20
7.9545750724
 30
0.0
 10
12.3055218602
 20
7.9541475423
 30
0.0
 10
12.3056847697
 20
7.9538050424
 30
0.0
 10
12.3058071509
 20
7.9535494701
 30
0.0
 10
12.3059085018
 20
7.9533323493
 30
0.0
 10
12.3059910034
 20
7.9531679468
 30
0.0
 10
12.3060489968
 20
7.9530192486
 30
0.0
 10
12.3061218109
 20
7.9529674887
 30
0.0
 10
12.3062137192
 20
7.9528646137
 30
0.0
 10
12.3063303808
 20
7.9527476378
 30
0.0
 10
12.3064696145
 20
7.9526022939
 30
0.0
 10
12.306655525
 20
7.9524102389
 30
0.0
 10
12.3068878221
 20
7.9521695754
 30
0.0
 10
12.3072595484
 20
7.9517848463
 30
0.0
 10
12.3077241887
 20
7.9513038208
 30
0.0
 10
12.3082817646
 20
7.9507266391
 30
0.0
 10
12.3088393386
 20
7.9501494443
 30
0.0
 10
12.3095827712
 20
7.9493798559
 30
0.0
 10
12.3105120617
 20
7.9484178687
 30
0.0
 10
12.3114413523
 20
7.947455882
 30
0.0
 10
12.3121847848
 20
7.946686293
 30
0.0
 10
12.312742359
 20
7.9461090999
 30
0.0
 10
12.3132999337
 20
7.9455319117
 30
0.0
 10
12.3137645778
 20
7.9450509064
 30
0.0
 10
12.3141362965
 20
7.9446661361
 30
0.0
 10
12.3143686129
 20
7.9444255774
 30
0.0
 10
12.3145544838
 20
7.9442333073
 30
0.0
 10
12.3146938383
 20
7.9440886205
 30
0.0
 10
12.3148101221
 20
7.9439695887
 30
0.0
 10
12.3148912163
 20
7.9438832432
 30
0.0
 10
12.3149380312
 20
7.9438386234
 30
0.0
 10
12.3149718035
 20
7.943791861
 30
0.0
 10
12.3150106937
 20
7.9437959285
 30
0.0
 10
12.3150607621
 20
7.9437836218
 30
0.0
 10
12.3151492137
 20
7.9437703458
 30
0.0
 10
12.3152751382
 20
7.9437470613
 30
0.0
 10
12.3154264337
 20
7.9437209685
 30
0.0
 10
12.315628096
 20
7.9436855325
 30
0.0
 10
12.3158801962
 20
7.9436414585
 30
0.0
 10
12.316283544
 20
7.9435708165
 30
0.0
 10
12.3167877331
 20
7.9434825565
 30
0.0
 10
12.3173927581
 20
7.9433766263
 30
0.0
 10
12.3179977836
 20
7.9432707009
 30
0.0
 10
12.3188044842
 20
7.9431294654
 30
0.0
 10
12.3198128599
 20
7.9429529217
 30
0.0
 10
12.3208212356
 20
7.9427763775
 30
0.0
 10
12.3216279362
 20
7.9426351427
 30
0.0
 10
12.3222329615
 20
7.9425292153
 30
0.0
 10
12.3228379873
 20
7.9424232928
 30
0.0
 10
12.3233421742
 20
7.9423350085
 30
0.0
 10
12.3237455263
 20
7.9422644161
 30
0.0
 10
12.3239976156
 20
7.9422202161
 30
0.0
 10
12.3241993004
 20
7.9421850386
 30
0.0
 10
12.3243505272
 20
7.9421581559
 30
0.0
 10
12.3244766664
 20
7.9421373429
 30
0.0
 10
12.3245647347
 20
7.942119655
 30
0.0
 10
12.3246154172
 20
7.9421144173
 30
0.0
 10
12.3246524212
 20
7.9420967712
 30
0.0
 10
12.324693278
 20
7.9421315613
 30
0.0
 10
12.3247464099
 20
7.9421596577
 30
0.0
 10
12.3248400168
 20
7.9422173483
 30
0.0
 10
12.3249734136
 20
7.9422953081
 30
0.0
 10
12.3251336299
 20
7.9423907668
 30
0.0
 10
12.3253472026
 20
7.9425173791
 30
0.0
 10
12.3256141853
 20
7.9426758725
 30
0.0
 10
12.3260413483
 20
7.9429293344
 30
0.0
 10
12.3265753052
 20
7.9432462056
 30
0.0
 10
12.3272160522
 20
7.9436264323
 30
0.0
 10
12.3278567995
 20
7.944006664
 30
0.0
 10
12.3287111291
 20
7.9445136378
 30
0.0
 10
12.3297790411
 20
7.9451473557
 30
0.0
 10
12.3310605356
 20
7.9459078169
 30
0.0
 10
12.3327691949
 20
7.9469217653
 30
0.0
 10
12.3340506893
 20
7.9476822266
 30
0.0
 10
12.334905019
 20
7.9481892007
 30
0.0
  0
ENDSEC
  0
SECTION
  2
OBJECTS
  0
DICTIONARY
  5
C
100
AcDbDictionary
280
0
281
1
  3
ACAD_GROUP
350
D
  3
ACAD_MLINESTYLE
350
17
  3
ACAD_LAYOUT
350
1A
  3
ACAD_PLOTSETTINGS
350
19
  3
ACAD_PLOTSTYLENAME
350
E
  3
ACAD_IMAGE_DICT
350
       3C9
  3
ACAD_IMAGE_VARS
350
       3CA
  3
ACAD_TABLESTYLE
350
       3CB
  0
IMAGEDEF_REACTOR
  5
3C8
100
AcDbRasterImageDefReactor
 90
2
330
28B
  0
DICTIONARY
  5
D
102
{ACAD_REACTORS
330
C
102
}
100
AcDbDictionary
280
0
281
1
  0
ACDBDICTIONARYWDFLT
  5
E
102
{ACAD_REACTORS
330
C
102
}
100
AcDbDictionary
281
1
  3
Normal
350
F
100
AcDbDictionaryWithDefault
340
F
  0
DICTIONARY
  5
3C9
330
C
100
AcDbDictionary
281
1
  3
EMB_assy_2_img_1
350
       3CE
  0
RASTERVARIABLES
  5
3CA
330
C
100
AcDbRasterVariables
 90
0
 70
0
 71
1
 72
5
  0
DICTIONARY
  5
17
102
{ACAD_REACTORS
330
C
102
}
100
AcDbDictionary
280
0
281
1
  3
Standard
350
18
  0
DICTIONARY
  5
3CB
330
C
100
AcDbDictionary
281
1
  3
Standard
350
       3CF
  3
Standard1
350
       3D0
  0
DICTIONARY
  5
19
102
{ACAD_REACTORS
330
C
102
}
100
AcDbDictionary
281
1
  0
DICTIONARY
  5
1A
102
{ACAD_REACTORS
330
C
102
}
100
AcDbDictionary
281
1
  3
Model
350
3CC
  3
Layout1
350
3CD
  0
ACDBPLACEHOLDER
  5
F
102
{ACAD_REACTORS
330
E
102
}
  0
MLINESTYLE
  5
18
102
{ACAD_REACTORS
330
17
102
}
100
AcDbMlineStyle
  2
STANDARD
 70
0
  3

 62
256
 51
90.0
 52
90.0
 71
2
 49
0.5
 62
256
  6
BYLAYER
 49
-0.5
 62
256
  6
BYLAYER
  0
LAYOUT
  5
3CC
102
{ACAD_REACTORS
330
1A
102
}
100
AcDbPlotSettings
  1

  2
none_device
  4
ANSI_C_(22.00_x_17.00_Inches)
  6

 40
0.0
 41
0.0
 42
0.0
 43
0.0
 44
558.8
 45
431.8
 46
0.0
 47
0.0
 48
0.0
 49
0.0
140
0.0
141
0.0
142
1.0
143
1.0
 70
1024
 72
0
 73
0
 74
0
  7

 75
0
147
1.0
148
0.0
149
0.0
100
AcDbLayout
  1
Model
 70
0
 71
0
 10
0.0
 20
0.0
 11
22.0
 21
17.0
 12
0.0
 22
0.0
 32
0.0
 14
0.0
 24
0.0
 34
0.0
 15
0.0
 25
0.0
 35
0.0
146
0.0
 13
0.0
 23
0.0
 33
0.0
 16
1.0
 26
0.0
 36
0.0
 17
0.0
 27
1.0
 37
0.0
 76
0
330
20C
345
0
346
0
  0
LAYOUT
  5
3CD
102
{ACAD_REACTORS
330
1A
102
}
100
AcDbPlotSettings
  1

  2
none_device
  4
ANSI_C_(22.00_x_17.00_Inches)
  6

 40
0.0
 41
0.0
 42
0.0
 43
0.0
 44
558.8
 45
431.8
 46
0.0
 47
0.0
 48
0.0
 49
0.0
140
0.0
141
0.0
142
1.0
143
1.0
 70
0
 72
0
 73
0
 74
0
  7

 75
0
147
1.0
148
0.0
149
0.0
100
AcDbLayout
  1
Layout1
 70
0
 71
1
 10
0.0
 20
0.0
 11
22.0
 21
17.0
 12
0.0
 22
0.0
 32
0.0
 14
0.0
 24
0.0
 34
0.0
 15
0.0
 25
0.0
 35
0.0
146
0.0
 13
0.0
 23
0.0
 33
0.0
 16
1.0
 26
0.0
 36
0.0
 17
0.0
 27
1.0
 37
0.0
 76
0
330
20D
345
0
346
0
  0
IMAGEDEF
  5
3CE
102
{ACAD_REACTORS
330
3C9
330
3C8
102
}
100
AcDbRasterImageDef
 90
0
  1
EMB_assy_2_img_1.png
 10
369.0
 20
92.0
 11
0.0066666667
 21
0.0066666667
280
1
281
0
  0
TABLESTYLE
  5
3CF
102
{ACAD_REACTORS
330
3CB
330
28E
330
28F
102
}
330
3CB
100
AcDbTableStyle
  3
Standard
 70
0
 71
0
 40
0.06
 41
0.06
280
1
281
1
  7
Standard
140
0.18
170
1
 62
0
 63
7
283
0
  7
Standard
140
0.18
170
1
 62
0
 63
7
283
0
  7
Standard
140
0.18
170
1
 62
0
 63
7
283
0
  0
TABLESTYLE
  5
3D0
102
{ACAD_REACTORS
330
3CB
330
28D
102
}
330
3CB
100
AcDbTableStyle
  3
Standard1
 70
1
 71
0
 40
0.06
 41
0.06
280
1
281
1
  7
Standard
140
0.18
170
1
 62
0
 63
7
283
0
  7
Standard
140
0.18
170
1
 62
0
 63
7
283
0
  7
Standard
140
0.18
170
1
 62
0
 63
7
283
0
  0
ENDSEC
  0
EOF
