999
DXF file: EGV_assy_2.dxf
999
Pro/ENGINEER 2014200 by Parametric Technology Corporation
  0
SECTION
  2
HEADER
  9
$ACADVER
  1
AC1021
  9
$DWGCODEPAGE
  3
ANSI_1252
  9
$EXTMAX
 10
22.0
 20
17.0
 30
0.0
  9
$EXTMIN
 10
0.0
 20
0.0
 30
0.0
  9
$LIMMIN
 10
0.0
 20
0.0
  9
$LIMMAX
 10
22.0
 20
17.0
  9
$VIEWCTR
 10
11.0
 20
8.5
  9
$VIEWSIZE
 40
17.0
  9
$CLAYER
  8
0
  9
$LTSCALE
 40
1.21
  9
$CELTYPE
  6
BYLAYER
  9
$DIMSCALE
 40
1.0
  9
$DIMASZ
 40
0.1875
  9
$DIMEXO
 40
0.0625
  9
$DIMDLI
 40
0.836
  9
$DIMEXE
 40
0.125
  9
$DIMCEN
 40
0.198
  9
$DIMLFAC
 40
1.0
  9
$DIMBLK
  1
_FILLED
  9
$DIMTXT
 40
0.1
  9
$DIMTOL
 70
0
  9
$DIMLIM
 70
0
  9
$DIMTFAC
 40
1.0
  9
$DIMGAP
 40
0.09
  9
$DIMDSEP
 70
46
  9
$AUNITS
 70
0
  9
$PDMODE
 70
3
  9
$PDSIZE
 40
0.3125
  9
$HANDSEED
  5
309
  9
$TILEMODE
 70
1
  9
$MEASUREMENT
 70
0
  9
$INSUNITS
 70
1
  0
ENDSEC
  0
SECTION
  2
CLASSES
  0
CLASS
  1
ACDBDICTIONARYWDFLT
  2
AcDbDictionaryWithDefault
  3
AutoCAD 2000
 90
0
 91
1
280
0
281
0
  0
CLASS
  1
ACDBPLACEHOLDER
  2
AcDbPlaceHolder
  3
AutoCAD 2000
 90
0
 91
1
280
0
281
0
  0
CLASS
  1
LAYOUT
  2
AcDbLayout
  3
AutoCAD 2000
 90
0
 91
0
280
0
281
0
  0
CLASS
  1
RASTERVARIABLES
  2
AcDbRasterVariables
  3
ISM
 90
0
 91
1
280
0
281
0
  0
CLASS
  1
IMAGEDEF
  2
AcDbRasterImageDef
  3
ISM
 90
0
 91
1
280
0
281
0
  0
CLASS
  1
IMAGEDEF_REACTOR
  2
AcDbRasterImageDefReactor
  3
ISM
 90
0
 91
1
280
0
281
0
  0
CLASS
  1
IMAGE
  2
AcDbRasterImage
  3
ISM
 90
127
 91
1
280
0
281
1
  0
CLASS
  1
TABLESTYLE
  2
AcDbTableStyle
  3
ObjectDBX Classes
 90
2047
 91
1
280
0
281
0
  0
CLASS
  1
ACAD_TABLE
  2
AcDbTable
  3
ObjectDBX Classes
 90
1025
 91
3
280
0
281
1
  0
ENDSEC
  0
SECTION
  2
TABLES
  0
TABLE
  2
VPORT
  5
8
100
AcDbSymbolTable
 70
2
  0
VPORT
  5
1F4
100
AcDbSymbolTableRecord
100
AcDbViewportTableRecord
  2
*ACTIVE
 70
0
 10
0.0
 20
0.0
 11
1.0
 21
1.0
 12
11.0
 22
8.5
 13
0.0
 23
0.0
 14
1.0
 24
1.0
 15
0.0
 25
0.0
 16
0.0
 26
0.0
 36
1.0
 17
0.0
 27
0.0
 37
0.0
 40
17.0
 41
1.2941176471
 42
50.0
 43
0.0
 44
0.0
 50
0.0
 51
0.0
 71
0
 72
100
 73
1
 74
1
 75
0
 76
0
 77
0
 78
0
  0
ENDTAB
  0
TABLE
  2
LTYPE
  5
5
100
AcDbSymbolTable
 70
6
  0
LTYPE
  5
14
100
AcDbSymbolTableRecord
100
AcDbLinetypeTableRecord
  2
BYBLOCK
 70
0
  3

 72
65
 73
0
 40
0.0
  0
LTYPE
  5
15
100
AcDbSymbolTableRecord
100
AcDbLinetypeTableRecord
  2
BYLAYER
 70
0
  3

 72
65
 73
0
 40
0.0
  0
LTYPE
  5
16
100
AcDbSymbolTableRecord
100
AcDbLinetypeTableRecord
  2
CONTINUOUS
 70
64
  3
Solid line
 72
65
 73
0
 40
0.0
  0
LTYPE
  5
1F5
100
AcDbSymbolTableRecord
100
AcDbLinetypeTableRecord
  2
CENTER
 70
64
  3
____ _ ____ _ ____ _ ____ _ ____ _ ____ _ ____
 72
65
 73
4
 40
0.6
 49
0.375
 74
0
 49
-0.075
 74
0
 49
0.075
 74
0
 49
-0.075
 74
0
  0
LTYPE
  5
1F6
100
AcDbSymbolTableRecord
100
AcDbLinetypeTableRecord
  2
HIDDEN
 70
64
  3
- - - - - - - - - - - - - - - - - - - -
 72
65
 73
2
 40
0.2
 49
0.1
 74
0
 49
-0.1
 74
0
  0
LTYPE
  5
1F7
100
AcDbSymbolTableRecord
100
AcDbLinetypeTableRecord
  2
PHANTOM
 70
64
  3
_____ _ _ _____ _ _ _____ _ _ _____
 72
65
 73
6
 40
0.8
 49
0.45
 74
0
 49
-0.05
 74
0
 49
0.1
 74
0
 49
-0.05
 74
0
 49
0.1
 74
0
 49
-0.05
 74
0
  0
LTYPE
  5
1F8
100
AcDbSymbolTableRecord
100
AcDbLinetypeTableRecord
  2
DOT
 70
64
  3
. . . . . . . . . . . . . . . . . . . .
 72
65
 73
2
 40
0.2
 49
0.1
 74
0
 49
-0.1
 74
0
  0
LTYPE
  5
1F9
100
AcDbSymbolTableRecord
100
AcDbLinetypeTableRecord
  2
DASHED
 70
64
  3
- - - - - - - - - - - - - - - - - - - -
 72
65
 73
2
 40
0.2
 49
0.1
 74
0
 49
-0.1
 74
0
  0
ENDTAB
  0
TABLE
  2
LAYER
  5
2
100
AcDbSymbolTable
 70
36
  0
LAYER
  5
10
100
AcDbSymbolTableRecord
100
AcDbLayerTableRecord
  2
0
 70
0
 62
7
  6
CONTINUOUS
370
-3
390
F
  0
LAYER
  5
1FA
100
AcDbSymbolTableRecord
100
AcDbLayerTableRecord
  2
DEFAULT_1
 70
0
 62
7
  6
CENTER
370
-3
390
F
  0
LAYER
  5
1FB
100
AcDbSymbolTableRecord
100
AcDbLayerTableRecord
  2
DEFAULT_2
 70
0
 62
8
  6
HIDDEN
370
-3
390
F
  0
LAYER
  5
1FC
100
AcDbSymbolTableRecord
100
AcDbLayerTableRecord
  2
DEFAULT_3
 70
0
 62
7
  6
PHANTOM
370
-3
390
F
  0
LAYER
  5
1FD
100
AcDbSymbolTableRecord
100
AcDbLayerTableRecord
  2
01___PRT_ALL_DTM_PLN
 70
0
 62
7
  6
CONTINUOUS
370
-3
390
F
  0
LAYER
  5
1FE
100
AcDbSymbolTableRecord
100
AcDbLayerTableRecord
  2
01___PRT_DEF_DTM_PLN
 70
0
 62
7
  6
CONTINUOUS
370
-3
390
F
  0
LAYER
  5
1FF
100
AcDbSymbolTableRecord
100
AcDbLayerTableRecord
  2
02___PRT_ALL_AXES
 70
0
 62
7
  6
CONTINUOUS
370
-3
390
F
  0
LAYER
  5
200
100
AcDbSymbolTableRecord
100
AcDbLayerTableRecord
  2
03___PRT_ALL_CURVES
 70
0
 62
7
  6
CONTINUOUS
370
-3
390
F
  0
LAYER
  5
201
100
AcDbSymbolTableRecord
100
AcDbLayerTableRecord
  2
04___PRT_ALL_DTM_PNT
 70
0
 62
7
  6
CONTINUOUS
370
-3
390
F
  0
LAYER
  5
202
100
AcDbSymbolTableRecord
100
AcDbLayerTableRecord
  2
05___PRT_ALL_DTM_CSYS
 70
0
 62
7
  6
CONTINUOUS
370
-3
390
F
  0
LAYER
  5
203
100
AcDbSymbolTableRecord
100
AcDbLayerTableRecord
  2
05___PRT_DEF_DTM_CSYS
 70
0
 62
7
  6
CONTINUOUS
370
-3
390
F
  0
LAYER
  5
204
100
AcDbSymbolTableRecord
100
AcDbLayerTableRecord
  2
06___PRT_ALL_SURFS
 70
0
 62
7
  6
CONTINUOUS
370
-3
390
F
  0
LAYER
  5
205
100
AcDbSymbolTableRecord
100
AcDbLayerTableRecord
  2
DATUM_PLANES
 70
0
 62
7
  6
CONTINUOUS
370
-3
390
F
  0
LAYER
  5
206
100
AcDbSymbolTableRecord
100
AcDbLayerTableRecord
  2
DIMENSIONS
 70
0
 62
7
  6
CONTINUOUS
370
-3
390
F
  0
LAYER
  5
207
100
AcDbSymbolTableRecord
100
AcDbLayerTableRecord
  2
PARAMETERDIMENSIONS
 70
0
 62
7
  6
CONTINUOUS
370
-3
390
F
  0
LAYER
  5
208
100
AcDbSymbolTableRecord
100
AcDbLayerTableRecord
  2
PORT_AREAS
 70
0
 62
7
  6
CONTINUOUS
370
-3
390
F
  0
LAYER
  5
209
100
AcDbSymbolTableRecord
100
AcDbLayerTableRecord
  2
SUNNBOMCOSMETIC
 70
0
 62
7
  6
CONTINUOUS
370
-3
390
F
  0
LAYER
  5
20A
100
AcDbSymbolTableRecord
100
AcDbLayerTableRecord
  2
SUNNBOMSTAMPING
 70
0
 62
7
  6
CONTINUOUS
370
-3
390
F
  0
LAYER
  5
20B
100
AcDbSymbolTableRecord
100
AcDbLayerTableRecord
  2
THREADS
 70
0
 62
7
  6
CONTINUOUS
370
-3
390
F
  0
ENDTAB
  0
TABLE
  2
STYLE
  5
3
100
AcDbSymbolTable
 70
1
  0
STYLE
  5
11
100
AcDbSymbolTableRecord
100
AcDbTextStyleTableRecord
  2
STANDARD
 70
0
 40
0.0
 41
0.8
 50
0.0
 71
0
 42
0.2
  3
txt
  4

  0
STYLE
  5
20C
100
AcDbSymbolTableRecord
100
AcDbTextStyleTableRecord
  2
TEXTSTYLE_1
 70
0
 40
0.0
 41
0.8
 50
0.0
 71
0
 42
0.2
  3
gdt
  4

  0
ENDTAB
  0
TABLE
  2
VIEW
  5
6
100
AcDbSymbolTable
 70
0
  0
ENDTAB
  0
TABLE
  2
UCS
  5
7
100
AcDbSymbolTable
 70
0
  0
ENDTAB
  0
TABLE
  2
APPID
  5
9
100
AcDbSymbolTable
 70
1
  0
APPID
  5
20D
100
AcDbSymbolTableRecord
100
AcDbRegAppTableRecord
  2
ACAD
 70
0
  0
ENDTAB
  0
TABLE
  2
BLOCK_RECORD
  5
1
100
AcDbSymbolTable
 70
0
  0
BLOCK_RECORD
  5
20E
100
AcDbSymbolTableRecord
100
AcDbBlockTableRecord
  2
*Model_Space
  0
BLOCK_RECORD
  5
20F
100
AcDbSymbolTableRecord
100
AcDbBlockTableRecord
  2
*Paper_Space
  0
BLOCK_RECORD
  5
210
100
AcDbSymbolTableRecord
100
AcDbBlockTableRecord
  2
SUN_FIRST_THIRD_ANGLE_BL0
  0
BLOCK_RECORD
  5
211
100
AcDbSymbolTableRecord
100
AcDbBlockTableRecord
  2
*T1
  0
BLOCK_RECORD
  5
212
100
AcDbSymbolTableRecord
100
AcDbBlockTableRecord
  2
*T2
  0
BLOCK_RECORD
  5
213
100
AcDbSymbolTableRecord
100
AcDbBlockTableRecord
  2
*T3
  0
ENDTAB
  0
TABLE
  2
DIMSTYLE
  5
A
100
AcDbSymbolTable
 70
1
100
AcDbDimStyleTable
 71
0
  0
DIMSTYLE
105
214
100
AcDbSymbolTableRecord
100
AcDbDimStyleTableRecord
  2
STANDARD
 70
0
  3

  4

 40
1.0
 41
0.1875
 42
0.0625
 43
0.38
 44
0.125
 45
0.0
 46
0.0
 47
0.001
 48
0.001
140
0.1
141
0.09
142
0.0
143
25.4
144
1.0
145
0.0
146
1.0
147
0.09
 71
0.0
 72
0.0
 73
1
 74
1
 75
0
 76
0
 77
0
 78
4
170
0
171
2
172
0
173
0
174
0
175
0
176
0
177
0
178
0
270
2
271
3
272
3
273
2
274
2
275
0
280
0
281
0
282
0
283
1
284
4
285
0
286
0
287
3
288
0
340
11
278
46
  0
ENDTAB
  0
ENDSEC
  0
SECTION
  2
BLOCKS
  0
BLOCK
  5
20
100
AcDbEntity
  8
0
100
AcDbBlockBegin
  2
*Model_Space
 70
0
 10
0.0
 20
0.0
 30
0.0
  3
*Model_Space
  1

  0
ENDBLK
  5
21
100
AcDbEntity
  8
0
100
AcDbBlockEnd
  0
BLOCK
  5
1C
100
AcDbEntity
  8
0
100
AcDbBlockBegin
  2
*Paper_Space
 70
0
 10
0.0
 20
0.0
 30
0.0
  3
*Paper_Space
  1

  0
ENDBLK
  5
1D
100
AcDbEntity
  8
0
100
AcDbBlockEnd
  0
BLOCK
  5
215
100
AcDbEntity
  8
0
100
AcDbBlockBegin
 62
2
  6
CONTINUOUS
  2
SUN_FIRST_THIRD_ANGLE_BL0
 70
64
 10
20.4816717061
 20
1.2289683772
  3
SUN_FIRST_THIRD_ANGLE_BL0
  1

  0
TEXT
  5
216
100
AcDbEntity
  8
0
100
AcDbText
 62
2
  6
CONTINUOUS
 10
19.4750896608
 20
1.4136269581
  7
STANDARD
 40
0.08
  1
FIRST ANGLE
 41
0.8
 72
0
100
AcDbText
  0
TEXT
  5
217
100
AcDbEntity
  8
0
100
AcDbText
 62
2
  6
CONTINUOUS
 10
20.7842537513
 20
1.4047600029
  7
STANDARD
 40
0.08
  1
THIRD ANGLE
 41
0.8
 72
0
100
AcDbText
  0
LINE
  5
218
100
AcDbEntity
  8
0
100
AcDbLine
 62
7
  6
CONTINUOUS
 10
19.4767170086
 20
1.1727031207
 11
19.6334271527
 21
1.1717972817
  0
LINE
  5
219
100
AcDbEntity
  8
0
100
AcDbLine
 62
7
  6
CONTINUOUS
 10
19.6596964832
 20
1.1717972817
 11
19.6950230232
 21
1.171593082
  0
LINE
  5
21A
100
AcDbEntity
  8
0
100
AcDbLine
 62
7
  6
CONTINUOUS
 10
19.7194818561
 20
1.1708914427
 11
19.8852396156
 21
1.1699333054
  0
LINE
  5
21B
100
AcDbEntity
  8
0
100
AcDbLine
 62
7
  6
CONTINUOUS
 10
19.4758111696
 20
1.2723454088
 11
19.88525039
 21
1.3511534004
  0
LINE
  5
21C
100
AcDbEntity
  8
0
100
AcDbLine
 62
7
  6
CONTINUOUS
 10
19.88525039
 20
1.3511534004
 11
19.8831348489
 21
0.9851647912
  0
LINE
  5
21D
100
AcDbEntity
  8
0
100
AcDbLine
 62
7
  6
CONTINUOUS
 10
19.8831348489
 20
0.9851647912
 11
19.4767170086
 21
1.0658141206
  0
LINE
  5
21E
100
AcDbEntity
  8
0
100
AcDbLine
 62
7
  6
CONTINUOUS
 10
19.4767170086
 20
1.0658141206
 11
19.4779056764
 21
1.2714536432
  0
CIRCLE
  5
21F
100
AcDbEntity
  8
0
100
AcDbCircle
 62
7
  6
CONTINUOUS
 10
20.2068232291
 20
1.1717972817
 40
0.175742101
  0
CIRCLE
  5
220
100
AcDbEntity
  8
0
100
AcDbCircle
 62
7
  6
CONTINUOUS
 10
20.2068232291
 20
1.1717972817
 40
0.1005522074
  0
LINE
  5
221
100
AcDbEntity
  8
0
100
AcDbLine
 62
7
  6
CONTINUOUS
 10
20.2077290681
 20
1.3756110529
 11
20.2071171714
 21
1.2379342989
  0
LINE
  5
222
100
AcDbEntity
  8
0
100
AcDbLine
 62
7
  6
CONTINUOUS
 10
20.2077290681
 20
1.2016899681
 11
20.2074674401
 21
1.1428236749
  0
LINE
  5
223
100
AcDbEntity
  8
0
100
AcDbLine
 62
7
  6
CONTINUOUS
 10
20.208634907
 20
1.101141841
 11
20.2080230104
 21
0.963465087
  0
LINE
  5
224
100
AcDbEntity
  8
0
100
AcDbLine
 62
7
  6
CONTINUOUS
 10
20.0066328138
 20
1.1745147986
 11
20.1443095678
 21
1.1739029019
  0
LINE
  5
225
100
AcDbEntity
  8
0
100
AcDbLine
 62
7
  6
CONTINUOUS
 10
20.1832714155
 20
1.1727031207
 11
20.238153505
 21
1.172335442
  0
LINE
  5
226
100
AcDbEntity
  8
0
100
AcDbLine
 62
7
  6
CONTINUOUS
 10
20.2756669918
 20
1.1717972817
 11
20.407916871
 21
1.1712095044
  0
CIRCLE
  5
227
100
AcDbEntity
  8
0
100
AcDbCircle
 62
7
  6
CONTINUOUS
 10
20.7509457401
 20
1.1693297793
 40
0.1722024983
  0
CIRCLE
  5
228
100
AcDbEntity
  8
0
100
AcDbCircle
 62
7
  6
CONTINUOUS
 10
20.7509457401
 20
1.1693297793
 40
0.0985164967
  0
LINE
  5
229
100
AcDbEntity
  8
0
100
AcDbLine
 62
7
  6
CONTINUOUS
 10
20.7169767782
 20
1.170462078
 11
20.7825395137
 21
1.1682766535
  0
LINE
  5
22A
100
AcDbEntity
  8
0
100
AcDbLine
 62
7
  6
CONTINUOUS
 10
20.8177513651
 20
1.1693297793
 11
20.947965719
 21
1.1693297793
  0
LINE
  5
22B
100
AcDbEntity
  8
0
100
AcDbLine
 62
7
  6
CONTINUOUS
 10
20.6875370113
 20
1.170462078
 11
20.5573226574
 21
1.170462078
  0
LINE
  5
22C
100
AcDbEntity
  8
0
100
AcDbLine
 62
7
  6
CONTINUOUS
 10
20.7486811426
 20
1.1987695462
 11
20.7486811426
 21
1.1432869085
  0
LINE
  5
22D
100
AcDbEntity
  8
0
100
AcDbLine
 62
7
  6
CONTINUOUS
 10
20.7498134414
 20
1.1059210505
 11
20.7498134414
 21
0.9757066966
  0
LINE
  5
22E
100
AcDbEntity
  8
0
100
AcDbLine
 62
7
  6
CONTINUOUS
 10
20.7486811426
 20
1.2338708068
 11
20.7486811426
 21
1.3640851607
  0
LINE
  5
22F
100
AcDbEntity
  8
0
100
AcDbLine
 62
7
  6
CONTINUOUS
 10
21.0702539817
 20
1.2701043662
 11
21.4790138229
 21
1.3448360823
  0
LINE
  5
230
100
AcDbEntity
  8
0
100
AcDbLine
 62
7
  6
CONTINUOUS
 10
21.4790138229
 20
1.3448360823
 11
21.4790138229
 21
0.9779712941
  0
LINE
  5
231
100
AcDbEntity
  8
0
100
AcDbLine
 62
7
  6
CONTINUOUS
 10
21.4790138229
 20
0.9779712941
 11
21.069121683
 21
1.0617614
  0
LINE
  5
232
100
AcDbEntity
  8
0
100
AcDbLine
 62
7
  6
CONTINUOUS
 10
21.0702539817
 20
1.2701043662
 11
21.069121683
 21
1.0617614
  0
LINE
  5
233
100
AcDbEntity
  8
0
100
AcDbLine
 62
7
  6
CONTINUOUS
 10
21.4790138229
 20
1.1693297793
 11
21.3159628059
 21
1.1693297793
  0
LINE
  5
234
100
AcDbEntity
  8
0
100
AcDbLine
 62
7
  6
CONTINUOUS
 10
21.2876553377
 20
1.1693297793
 11
21.2502894796
 21
1.1693297793
  0
LINE
  5
235
100
AcDbEntity
  8
0
100
AcDbLine
 62
7
  6
CONTINUOUS
 10
21.2208497126
 20
1.1659328831
 11
21.0713862804
 21
1.1659328831
  0
LINE
  5
236
100
AcDbEntity
  8
0
100
AcDbLine
 62
7
  6
CONTINUOUS
 10
20.4796138713
 20
1.5284908897
 11
20.4766766948
 21
0.9294458646
  0
ENDBLK
  5
237
100
AcDbEntity
  8
0
  6
BYBLOCK
 62
0
100
AcDbBlockEnd
  0
BLOCK
  5
238
100
AcDbEntity
  8
0
100
AcDbBlockBegin
  2
*T1
 70
1
 10
0.0
 20
0.0
  3
*T1
  1

  0
LINE
  5
239
100
AcDbEntity
  8
0
100
AcDbLine
 62
2
  6
CONTINUOUS
 10
9.275
 20
0.0
 11
-0.0
 21
0.0
  0
LINE
  5
23A
100
AcDbEntity
  8
0
100
AcDbLine
 62
2
  6
CONTINUOUS
 10
9.275
 20
0.0
 11
9.275
 21
1.25
  0
LINE
  5
23B
100
AcDbEntity
  8
0
100
AcDbLine
 62
2
  6
CONTINUOUS
 10
9.275
 20
0.625
 11
-0.0
 21
0.625
  0
LINE
  5
23C
100
AcDbEntity
  8
0
100
AcDbLine
 62
2
  6
CONTINUOUS
 10
9.275
 20
1.25
 11
-0.0
 21
1.25
  0
LINE
  5
23D
100
AcDbEntity
  8
0
100
AcDbLine
 62
2
  6
CONTINUOUS
 10
6.8
 20
0.0
 11
6.8
 21
1.25
  0
LINE
  5
23E
100
AcDbEntity
  8
0
100
AcDbLine
 62
2
  6
CONTINUOUS
 10
6.4
 20
0.0
 11
6.4
 21
0.625
  0
LINE
  5
23F
100
AcDbEntity
  8
0
100
AcDbLine
 62
2
  6
CONTINUOUS
 10
5.9
 20
0.0
 11
5.9
 21
0.625
  0
LINE
  5
240
100
AcDbEntity
  8
0
100
AcDbLine
 62
2
  6
CONTINUOUS
 10
5.2
 20
0.0
 11
5.2
 21
0.625
  0
LINE
  5
241
100
AcDbEntity
  8
0
100
AcDbLine
 62
2
  6
CONTINUOUS
 10
4.1
 20
0.0
 11
4.1
 21
1.25
  0
LINE
  5
242
100
AcDbEntity
  8
0
100
AcDbLine
 62
2
  6
CONTINUOUS
 10
-0.0
 20
0.0
 11
-0.0
 21
1.25
  0
MTEXT
  5
243
100
AcDbEntity
  8
0
100
AcDbMText
 62
2
  6
CONTINUOUS
  7
STANDARD
 71
2
 72
1
 10
6.6
 20
0.325
 30
0.0
 11
1.0
 21
0.0
 31
0.0
 44
0.9
  1
2
 40
0.125
 41
0.2
  0
MTEXT
  5
244
100
AcDbEntity
  8
0
100
AcDbMText
 62
2
  6
CONTINUOUS
  7
STANDARD
 71
2
 72
1
 10
6.15
 20
0.325
 30
0.0
 11
1.0
 21
0.0
 31
0.0
 44
0.9
  1
C
 40
0.125
 41
0.2
  0
MTEXT
  5
245
100
AcDbEntity
  8
0
100
AcDbMText
 62
2
  6
CONTINUOUS
  7
STANDARD
 71
2
 72
1
 10
5.55
 20
0.325
 30
0.0
 11
1.0
 21
0.0
 31
0.0
 44
0.9
  1
2.000
 40
0.125
 41
1.0
  0
MTEXT
  5
246
100
AcDbEntity
  8
0
100
AcDbMText
 62
2
  6
CONTINUOUS
  7
STANDARD
 71
2
 72
1
 10
4.65
 20
0.325
 30
0.0
 11
1.0
 21
0.0
 31
0.0
 44
0.9
  1
Aug-20-19
 40
0.125
 41
1.8
  0
MTEXT
  5
247
100
AcDbEntity
  8
0
100
AcDbMText
 62
2
  6
CONTINUOUS
  7
STANDARD
 71
2
 72
1
 10
2.05
 20
0.4625
 30
0.0
 11
1.0
 21
0.0
 31
0.0
 44
0.9
  1
T-11A Line mount\PNinety degree with shuttle
 40
0.125
 41
5.2
  0
MTEXT
  5
248
100
AcDbEntity
  8
0
100
AcDbMText
 62
2
  6
CONTINUOUS
  7
STANDARD
 71
1
 72
1
 10
6.45
 20
0.5625
 30
0.0
 11
1.0
 21
0.0
 31
0.0
 44
0.9
  1
SHEET
 40
0.06
 41
0.48
  0
MTEXT
  5
249
100
AcDbEntity
  8
0
100
AcDbMText
 62
2
  6
CONTINUOUS
  7
STANDARD
 71
1
 72
1
 10
5.95
 20
0.5625
 30
0.0
 11
1.0
 21
0.0
 31
0.0
 44
0.9
  1
DWG SIZE
 40
0.06
 41
0.768
  0
MTEXT
  5
24A
100
AcDbEntity
  8
0
100
AcDbMText
 62
2
  6
CONTINUOUS
  7
STANDARD
 71
1
 72
1
 10
5.25
 20
0.5625
 30
0.0
 11
1.0
 21
0.0
 31
0.0
 44
0.9
  1
SCALE
 40
0.06
 41
0.48
  0
MTEXT
  5
24B
100
AcDbEntity
  8
0
100
AcDbMText
 62
2
  6
CONTINUOUS
  7
STANDARD
 71
1
 72
1
 10
4.15
 20
0.5625
 30
0.0
 11
1.0
 21
0.0
 31
0.0
 44
0.9
  1
DATE
 40
0.06
 41
0.384
  0
MTEXT
  5
24C
100
AcDbEntity
  8
0
100
AcDbMText
 62
2
  6
CONTINUOUS
  7
STANDARD
 71
1
 72
1
 10
0.05
 20
0.5625
 30
0.0
 11
1.0
 21
0.0
 31
0.0
 44
0.9
  1
DESCRIPTION
 40
0.06
 41
1.056
  0
MTEXT
  5
24D
100
AcDbEntity
  8
0
100
AcDbMText
 62
2
  6
CONTINUOUS
  7
STANDARD
 71
2
 72
1
 10
5.45
 20
1.0375
 30
0.0
 11
1.0
 21
0.0
 31
0.0
 44
0.9
  1
ALL DIMENSIONS IN INCH\PVIEWS ARE THIRD ANGLE
 40
0.12
 41
4.224
  0
MTEXT
  5
24E
100
AcDbEntity
  8
0
100
AcDbMText
 62
2
  6
CONTINUOUS
  7
STANDARD
 71
2
 72
1
 10
2.05
 20
0.95
 30
0.0
 11
1.0
 21
0.0
 31
0.0
 44
0.9
  1
EGV
 40
0.125
 41
0.6
  0
MTEXT
  5
24F
100
AcDbEntity
  8
0
100
AcDbMText
 62
2
  6
CONTINUOUS
  7
STANDARD
 71
1
 72
1
 10
0.05
 20
1.1875
 30
0.0
 11
1.0
 21
0.0
 31
0.0
 44
0.9
  1
MODEL
 40
0.06
 41
0.48
  0
ENDBLK
  5
250
100
AcDbEntity
  8
0
  6
BYBLOCK
 62
0
100
AcDbBlockEnd
  0
BLOCK
  5
251
100
AcDbEntity
  8
0
100
AcDbBlockBegin
  2
*T2
 70
1
 10
0.0
 20
0.0
  3
*T2
  1

  0
LINE
  5
252
100
AcDbEntity
  8
0
100
AcDbLine
 62
2
  6
CONTINUOUS
 10
0.0
 20
0.0
 11
9.055
 21
0.0
  0
LINE
  5
253
100
AcDbEntity
  8
0
100
AcDbLine
 62
2
  6
CONTINUOUS
 10
0.0
 20
0.0
 11
0.0
 21
-1.844
  0
LINE
  5
254
100
AcDbEntity
  8
0
100
AcDbLine
 62
2
  6
CONTINUOUS
 10
0.0
 20
-0.344
 11
9.055
 21
-0.344
  0
LINE
  5
255
100
AcDbEntity
  8
0
100
AcDbLine
 62
2
  6
CONTINUOUS
 10
0.0
 20
-0.594
 11
9.055
 21
-0.594
  0
LINE
  5
256
100
AcDbEntity
  8
0
100
AcDbLine
 62
2
  6
CONTINUOUS
 10
0.0
 20
-0.844
 11
9.055
 21
-0.844
  0
LINE
  5
257
100
AcDbEntity
  8
0
100
AcDbLine
 62
2
  6
CONTINUOUS
 10
0.0
 20
-1.094
 11
9.055
 21
-1.094
  0
LINE
  5
258
100
AcDbEntity
  8
0
100
AcDbLine
 62
2
  6
CONTINUOUS
 10
0.0
 20
-1.344
 11
9.055
 21
-1.344
  0
LINE
  5
259
100
AcDbEntity
  8
0
100
AcDbLine
 62
2
  6
CONTINUOUS
 10
0.0
 20
-1.594
 11
9.055
 21
-1.594
  0
LINE
  5
25A
100
AcDbEntity
  8
0
100
AcDbLine
 62
2
  6
CONTINUOUS
 10
0.0
 20
-1.844
 11
9.055
 21
-1.844
  0
LINE
  5
25B
100
AcDbEntity
  8
0
100
AcDbLine
 62
2
  6
CONTINUOUS
 10
3.055
 20
0.0
 11
3.055
 21
-1.844
  0
LINE
  5
25C
100
AcDbEntity
  8
0
100
AcDbLine
 62
2
  6
CONTINUOUS
 10
9.055
 20
0.0
 11
9.055
 21
-1.844
  0
MTEXT
  5
25D
100
AcDbEntity
  8
0
100
AcDbMText
 62
2
  6
CONTINUOUS
  7
STANDARD
 71
2
 72
1
 10
1.5275
 20
-0.0995
 30
0.0
 11
1.0
 21
0.0
 31
0.0
 44
0.9
  1
Technical Data
 40
0.145
 41
3.248
  0
MTEXT
  5
25E
100
AcDbEntity
  8
0
100
AcDbMText
 62
2
  6
CONTINUOUS
  7
STANDARD
 71
2
 72
1
 10
4.555
 20
-0.0995
 30
0.0
 11
1.0
 21
0.0
 31
0.0
 44
0.9
  1
U.S. Units
 40
0.145
 41
2.32
  0
MTEXT
  5
25F
100
AcDbEntity
  8
0
100
AcDbMText
 62
2
  6
CONTINUOUS
  7
STANDARD
 71
2
 72
1
 10
7.555
 20
-0.0995
 30
0.0
 11
1.0
 21
0.0
 31
0.0
 44
0.9
  1
Metric Units
 40
0.145
 41
2.784
  0
MTEXT
  5
260
100
AcDbEntity
  8
0
100
AcDbMText
 62
2
  6
CONTINUOUS
  7
STANDARD
 71
2
 72
1
 10
1.5275
 20
-0.4065
 30
0.0
 11
1.0
 21
0.0
 31
0.0
 44
0.9
  1
Cavity
 40
0.125
 41
1.2
  0
MTEXT
  5
261
100
AcDbEntity
  8
0
100
AcDbMText
 62
2
  6
CONTINUOUS
  7
STANDARD
 71
2
 72
1
 10
6.055
 20
-0.4065
 30
0.0
 11
1.0
 21
0.0
 31
0.0
 44
0.9
  1
T-11A
 40
0.125
 41
1.0
  0
MTEXT
  5
262
100
AcDbEntity
  8
0
100
AcDbMText
 62
2
  6
CONTINUOUS
  7
STANDARD
 71
2
 72
1
 10
1.5275
 20
-0.6565
 30
0.0
 11
1.0
 21
0.0
 31
0.0
 44
0.9
  1
Body Features
 40
0.125
 41
2.6
  0
MTEXT
  5
263
100
AcDbEntity
  8
0
100
AcDbMText
 62
2
  6
CONTINUOUS
  7
STANDARD
 71
2
 72
1
 10
6.055
 20
-0.6565
 30
0.0
 11
1.0
 21
0.0
 31
0.0
 44
0.9
  1
Ninety degree with shuttle
 40
0.125
 41
5.2
  0
MTEXT
  5
264
100
AcDbEntity
  8
0
100
AcDbMText
 62
2
  6
CONTINUOUS
  7
STANDARD
 71
2
 72
1
 10
1.5275
 20
-0.9065
 30
0.0
 11
1.0
 21
0.0
 31
0.0
 44
0.9
  1
Body Type
 40
0.125
 41
1.8
  0
MTEXT
  5
265
100
AcDbEntity
  8
0
100
AcDbMText
 62
2
  6
CONTINUOUS
  7
STANDARD
 71
2
 72
1
 10
6.055
 20
-0.9065
 30
0.0
 11
1.0
 21
0.0
 31
0.0
 44
0.9
  1
Line mount
 40
0.125
 41
2.0
  0
MTEXT
  5
266
100
AcDbEntity
  8
0
100
AcDbMText
 62
2
  6
CONTINUOUS
  7
STANDARD
 71
2
 72
1
 10
1.5275
 20
-1.1565
 30
0.0
 11
1.0
 21
0.0
 31
0.0
 44
0.9
  1
Interface
 40
0.125
 41
1.8
  0
MTEXT
  5
267
100
AcDbEntity
  8
0
100
AcDbMText
 62
2
  6
CONTINUOUS
  7
STANDARD
 71
2
 72
1
 10
6.055
 20
-1.1565
 30
0.0
 11
1.0
 21
0.0
 31
0.0
 44
0.9
  1
None
 40
0.125
 41
0.8
  0
MTEXT
  5
268
100
AcDbEntity
  8
0
100
AcDbMText
 62
2
  6
CONTINUOUS
  7
STANDARD
 71
2
 72
1
 10
1.5275
 20
-1.4065
 30
0.0
 11
1.0
 21
0.0
 31
0.0
 44
0.9
  1
Open Cavity Quantity
 40
0.125
 41
4.0
  0
MTEXT
  5
269
100
AcDbEntity
  8
0
100
AcDbMText
 62
2
  6
CONTINUOUS
  7
STANDARD
 71
2
 72
1
 10
6.055
 20
-1.4065
 30
0.0
 11
1.0
 21
0.0
 31
0.0
 44
0.9
  1
1
 40
0.125
 41
0.2
  0
MTEXT
  5
26A
100
AcDbEntity
  8
0
100
AcDbMText
 62
2
  6
CONTINUOUS
  7
STANDARD
 71
2
 72
1
 10
1.5275
 20
-1.6565
 30
0.0
 11
1.0
 21
0.0
 31
0.0
 44
0.9
  1
Weight
 40
0.125
 41
1.2
  0
MTEXT
  5
26B
100
AcDbEntity
  8
0
100
AcDbMText
 62
2
  6
CONTINUOUS
  7
STANDARD
 71
2
 72
1
 10
4.555
 20
-1.6565
 30
0.0
 11
1.0
 21
0.0
 31
0.0
 44
0.9
  1
0.893 lb.
 40
0.125
 41
1.8
  0
MTEXT
  5
26C
100
AcDbEntity
  8
0
100
AcDbMText
 62
2
  6
CONTINUOUS
  7
STANDARD
 71
2
 72
1
 10
7.555
 20
-1.6565
 30
0.0
 11
1.0
 21
0.0
 31
0.0
 44
0.9
  1
0,405 kg.
 40
0.125
 41
1.8
  0
ENDBLK
  5
26D
100
AcDbEntity
  8
0
  6
BYBLOCK
 62
0
100
AcDbBlockEnd
  0
BLOCK
  5
26E
100
AcDbEntity
  8
0
100
AcDbBlockBegin
  2
*T3
 70
1
 10
0.0
 20
0.0
  3
*T3
  1

  0
LINE
  5
26F
100
AcDbEntity
  8
0
100
AcDbLine
 62
2
  6
CONTINUOUS
 10
0.0
 20
0.0
 11
4.6
 21
0.0
  0
LINE
  5
270
100
AcDbEntity
  8
0
100
AcDbLine
 62
2
  6
CONTINUOUS
 10
0.0
 20
0.0
 11
0.0
 21
-1.18775
  0
LINE
  5
271
100
AcDbEntity
  8
0
100
AcDbLine
 62
2
  6
CONTINUOUS
 10
0.0
 20
-0.34375
 11
4.6
 21
-0.34375
  0
LINE
  5
272
100
AcDbEntity
  8
0
100
AcDbLine
 62
2
  6
CONTINUOUS
 10
0.0
 20
-0.68775
 11
4.6
 21
-0.68775
  0
LINE
  5
273
100
AcDbEntity
  8
0
100
AcDbLine
 62
2
  6
CONTINUOUS
 10
0.0
 20
-0.93775
 11
4.6
 21
-0.93775
  0
LINE
  5
274
100
AcDbEntity
  8
0
100
AcDbLine
 62
2
  6
CONTINUOUS
 10
0.0
 20
-1.18775
 11
4.6
 21
-1.18775
  0
LINE
  5
275
100
AcDbEntity
  8
0
100
AcDbLine
 62
2
  6
CONTINUOUS
 10
1.3
 20
-0.34375
 11
1.3
 21
-1.18775
  0
LINE
  5
276
100
AcDbEntity
  8
0
100
AcDbLine
 62
2
  6
CONTINUOUS
 10
3.3
 20
-0.34375
 11
3.3
 21
-1.18775
  0
LINE
  5
277
100
AcDbEntity
  8
0
100
AcDbLine
 62
2
  6
CONTINUOUS
 10
4.6
 20
0.0
 11
4.6
 21
-1.18775
  0
MTEXT
  5
278
100
AcDbEntity
  8
0
100
AcDbMText
 62
2
  6
CONTINUOUS
  7
STANDARD
 71
2
 72
1
 10
2.3
 20
-0.099375
 30
0.0
 11
1.0
 21
0.0
 31
0.0
 44
0.9
  1
Port Headings
 40
0.145
 41
3.016
  0
MTEXT
  5
279
100
AcDbEntity
  8
0
100
AcDbMText
 62
2
  6
CONTINUOUS
  7
STANDARD
 71
2
 72
1
 10
0.65
 20
-0.44325
 30
0.0
 11
1.0
 21
0.0
 31
0.0
 44
0.9
  1
Product
 40
0.145
 41
1.624
  0
MTEXT
  5
27A
100
AcDbEntity
  8
0
100
AcDbMText
 62
2
  6
CONTINUOUS
  7
STANDARD
 71
2
 72
1
 10
2.3
 20
-0.44325
 30
0.0
 11
1.0
 21
0.0
 31
0.0
 44
0.9
  1
Port
 40
0.145
 41
0.928
  0
MTEXT
  5
27B
100
AcDbEntity
  8
0
100
AcDbMText
 62
2
  6
CONTINUOUS
  7
STANDARD
 71
2
 72
1
 10
3.95
 20
-0.44325
 30
0.0
 11
1.0
 21
0.0
 31
0.0
 44
0.9
  1
Size
 40
0.145
 41
0.928
  0
MTEXT
  5
27C
100
AcDbEntity
  8
0
100
AcDbMText
 62
2
  6
CONTINUOUS
  7
STANDARD
 71
2
 72
1
 10
0.65
 20
-0.75025
 30
0.0
 11
1.0
 21
0.0
 31
0.0
 44
0.9
  1
EGV
 40
0.125
 41
0.6
  0
MTEXT
  5
27D
100
AcDbEntity
  8
0
100
AcDbMText
 62
2
  6
CONTINUOUS
  7
STANDARD
 71
2
 72
1
 10
2.3
 20
-0.75025
 30
0.0
 11
1.0
 21
0.0
 31
0.0
 44
0.9
  1
Ports 1 &  2
 40
0.125
 41
2.4
  0
MTEXT
  5
27E
100
AcDbEntity
  8
0
100
AcDbMText
 62
2
  6
CONTINUOUS
  7
STANDARD
 71
2
 72
1
 10
3.95
 20
-0.75025
 30
0.0
 11
1.0
 21
0.0
 31
0.0
 44
0.9
  1
1/2" BSPP
 40
0.125
 41
1.8
  0
MTEXT
  5
27F
100
AcDbEntity
  8
0
100
AcDbMText
 62
2
  6
CONTINUOUS
  7
STANDARD
 71
2
 72
1
 10
0.65
 20
-1.00025
 30
0.0
 11
1.0
 21
0.0
 31
0.0
 44
0.9
  1
EGV
 40
0.125
 41
0.6
  0
MTEXT
  5
280
100
AcDbEntity
  8
0
100
AcDbMText
 62
2
  6
CONTINUOUS
  7
STANDARD
 71
2
 72
1
 10
2.3
 20
-1.00025
 30
0.0
 11
1.0
 21
0.0
 31
0.0
 44
0.9
  1
Ports 3 & S
 40
0.125
 41
2.2
  0
MTEXT
  5
281
100
AcDbEntity
  8
0
100
AcDbMText
 62
2
  6
CONTINUOUS
  7
STANDARD
 71
2
 72
1
 10
3.95
 20
-1.00025
 30
0.0
 11
1.0
 21
0.0
 31
0.0
 44
0.9
  1
1/4" BSPP
 40
0.125
 41
1.8
  0
ENDBLK
  5
282
100
AcDbEntity
  8
0
  6
BYBLOCK
 62
0
100
AcDbBlockEnd
  0
ENDSEC
  0
SECTION
  2
ENTITIES
  0
IMAGE
  5
283
100
AcDbEntity
  8
0
100
AcDbRasterImage
 62
7
  6
CONTINUOUS
 10
19.2297077316
 20
0.3094318264
 30
0.0
 11
0.0066666667
 21
0.0
 31
0.0
 12
0.0
 22
0.0066666667
 32
0.0
 13
369.0
 23
92.0
340
       306
 70
9
280
0
281
50
282
50
283
0
360
       300
 71
1
 91
2
 14
-0.5
 24
-0.5
 14
368.5
 24
91.5
  0
INSERT
  5
284
100
AcDbEntity
  8
0
100
AcDbBlockReference
 62
2
  6
CONTINUOUS
  2
SUN_FIRST_THIRD_ANGLE_BL0
 10
20.4816717061
 20
1.2289683772
  0
ACAD_TABLE
  5
285
100
AcDbEntity
  8
0
 62
2
  6
CONTINUOUS
100
AcDbBlockReference
  2
*T1
 10
12.42375
 20
0.30125
 30
0.0
100
AcDbTable
342
       308
343
211
 11
1.0
 21
0.0
 31
0.0
 90
6
 91
4
 92
6
 93
20
 94
0
 95
0
 96
0
 70
1
 41
0.0
141
0.525
141
0.1
141
0.525
141
0.1
142
4.1
142
1.1
142
0.7
142
0.5
142
0.4
142
2.475
171
1
172
0
173
0
174
0
175
1
176
1
 91
33
178
0
145
0.0
301
CELL_VALUE
 90
4
  1
T-11A Line mount\PNinety degree with shuttle
304
ACVALUE_END
170
2
140
0.125
171
1
172
0
173
0
174
0
175
1
176
1
 91
33
178
0
145
0.0
301
CELL_VALUE
 90
4
  1
Aug-20-19
304
ACVALUE_END
170
5
140
0.125
171
1
172
0
173
0
174
0
175
1
176
1
 91
33
178
0
145
0.0
301
CELL_VALUE
 90
4
  1
2.000
304
ACVALUE_END
170
5
140
0.125
171
1
172
0
173
0
174
0
175
1
176
1
 91
33
178
0
145
0.0
301
CELL_VALUE
 90
4
  1
C
304
ACVALUE_END
170
5
140
0.125
171
1
172
0
173
0
174
0
175
1
176
1
 91
33
178
0
145
0.0
301
CELL_VALUE
 90
4
  1
2
304
ACVALUE_END
170
5
140
0.125
171
1
172
0
173
0
174
0
175
1
176
1
 91
33
178
0
145
0.0
301
CELL_VALUE
 90
4
  1
 
304
ACVALUE_END
170
1
140
0.125
171
1
172
0
173
0
174
0
175
1
176
1
 91
33
178
0
145
0.0
301
CELL_VALUE
 90
4
  1
DESCRIPTION
304
ACVALUE_END
170
1
140
0.06
171
1
172
0
173
0
174
0
175
1
176
1
 91
33
178
0
145
0.0
301
CELL_VALUE
 90
4
  1
DATE
304
ACVALUE_END
170
1
140
0.06
171
1
172
0
173
0
174
0
175
1
176
1
 91
33
178
0
145
0.0
301
CELL_VALUE
 90
4
  1
SCALE
304
ACVALUE_END
170
1
140
0.06
171
1
172
0
173
0
174
0
175
1
176
1
 91
33
178
0
145
0.0
301
CELL_VALUE
 90
4
  1
DWG SIZE
304
ACVALUE_END
170
1
140
0.06
171
1
172
0
173
0
174
0
175
1
176
1
 91
33
178
0
145
0.0
301
CELL_VALUE
 90
4
  1
SHEET
304
ACVALUE_END
170
1
140
0.06
171
1
172
0
173
0
174
0
175
1
176
1
 91
33
178
0
145
0.0
301
CELL_VALUE
 90
4
  1
 
304
ACVALUE_END
170
1
140
0.125
171
1
172
0
173
0
174
0
175
1
176
1
 91
33
178
0
145
0.0
301
CELL_VALUE
 90
4
  1
EGV
304
ACVALUE_END
170
5
140
0.125
171
1
172
0
173
0
174
0
175
4
176
1
 91
33
178
0
145
0.0
301
CELL_VALUE
 90
4
  1
ALL DIMENSIONS IN INCH\PVIEWS ARE THIRD ANGLE
304
ACVALUE_END
170
5
140
0.12
171
1
172
0
173
1
174
0
175
1
176
1
 91
1
178
0
145
0.0
170
1
171
1
172
0
173
1
174
0
175
1
176
1
 91
1
178
0
145
0.0
170
1
171
1
172
0
173
1
174
0
175
1
176
1
 91
1
178
0
145
0.0
170
5
171
1
172
0
173
0
174
0
175
1
176
1
 91
33
178
0
145
0.0
301
CELL_VALUE
 90
4
  1
 
304
ACVALUE_END
170
1
140
0.125
171
1
172
0
173
0
174
0
175
1
176
1
 91
33
178
0
145
0.0
301
CELL_VALUE
 90
4
  1
MODEL
304
ACVALUE_END
170
1
140
0.06
171
1
172
0
173
0
174
0
175
1
176
1
 91
33
178
0
145
0.0
301
CELL_VALUE
 90
4
  1
 
304
ACVALUE_END
170
1
140
0.125
171
1
172
0
173
0
174
0
175
1
176
1
 91
33
178
0
145
0.0
301
CELL_VALUE
 90
4
  1
 
304
ACVALUE_END
170
1
140
0.125
171
1
172
0
173
0
174
0
175
1
176
1
 91
33
178
0
145
0.0
301
CELL_VALUE
 90
4
  1
 
304
ACVALUE_END
170
1
140
0.125
171
1
172
0
173
0
174
0
175
1
176
1
 91
33
178
0
145
0.0
301
CELL_VALUE
 90
4
  1
 
304
ACVALUE_END
170
1
140
0.125
171
1
172
0
173
0
174
0
175
1
176
1
 91
33
178
0
145
0.0
301
CELL_VALUE
 90
4
  1
 
304
ACVALUE_END
170
1
140
0.125
  0
ACAD_TABLE
  5
286
100
AcDbEntity
  8
0
 62
2
  6
CONTINUOUS
100
AcDbBlockReference
  2
*T2
 10
12.4237499994
 20
16.47875
 30
0.0
100
AcDbTable
342
       307
343
212
 11
1.0
 21
0.0
 31
0.0
 90
22
 91
7
 92
3
 93
16
 94
0
 95
0
 96
0
 41
0.028
141
0.344
141
0.25
141
0.25
141
0.25
141
0.25
141
0.25
141
0.25
142
3.055
142
3.0
142
3.0
171
1
172
0
173
0
174
0
175
1
176
1
 91
33
178
0
145
0.0
301
CELL_VALUE
 90
4
  1
Technical Data
304
ACVALUE_END
170
5
140
0.145
171
1
172
0
173
0
174
0
175
1
176
1
 91
33
178
0
145
0.0
301
CELL_VALUE
 90
4
  1
U.S. Units
304
ACVALUE_END
170
5
140
0.145
171
1
172
0
173
0
174
0
175
1
176
1
 91
33
178
0
145
0.0
301
CELL_VALUE
 90
4
  1
Metric Units
304
ACVALUE_END
170
5
140
0.145
171
1
172
0
173
0
174
0
175
1
176
1
 91
33
178
0
145
0.0
301
CELL_VALUE
 90
4
  1
Cavity
304
ACVALUE_END
170
5
140
0.125
171
1
172
0
173
0
174
0
175
2
176
1
 91
33
178
0
145
0.0
301
CELL_VALUE
 90
4
  1
T-11A
304
ACVALUE_END
170
5
140
0.125
171
1
172
0
173
1
174
0
175
1
176
1
 91
1
178
0
145
0.0
170
1
171
1
172
0
173
0
174
0
175
1
176
1
 91
33
178
0
145
0.0
301
CELL_VALUE
 90
4
  1
Body Features
304
ACVALUE_END
170
5
140
0.125
171
1
172
0
173
0
174
0
175
2
176
1
 91
33
178
0
145
0.0
301
CELL_VALUE
 90
4
  1
Ninety degree with shuttle
304
ACVALUE_END
170
5
140
0.125
171
1
172
0
173
1
174
0
175
1
176
1
 91
1
178
0
145
0.0
170
1
171
1
172
0
173
0
174
0
175
1
176
1
 91
33
178
0
145
0.0
301
CELL_VALUE
 90
4
  1
Body Type
304
ACVALUE_END
170
5
140
0.125
171
1
172
0
173
0
174
0
175
2
176
1
 91
33
178
0
145
0.0
301
CELL_VALUE
 90
4
  1
Line mount
304
ACVALUE_END
170
5
140
0.125
171
1
172
0
173
1
174
0
175
1
176
1
 91
1
178
0
145
0.0
170
1
171
1
172
0
173
0
174
0
175
1
176
1
 91
33
178
0
145
0.0
301
CELL_VALUE
 90
4
  1
Interface
304
ACVALUE_END
170
5
140
0.125
171
1
172
0
173
0
174
0
175
2
176
1
 91
33
178
0
145
0.0
301
CELL_VALUE
 90
4
  1
None
304
ACVALUE_END
170
5
140
0.125
171
1
172
0
173
1
174
0
175
1
176
1
 91
1
178
0
145
0.0
170
1
171
1
172
0
173
0
174
0
175
1
176
1
 91
33
178
0
145
0.0
301
CELL_VALUE
 90
4
  1
Open Cavity Quantity
304
ACVALUE_END
170
5
140
0.125
171
1
172
0
173
0
174
0
175
2
176
1
 91
33
178
0
145
0.0
301
CELL_VALUE
 90
4
  1
1
304
ACVALUE_END
170
5
140
0.125
171
1
172
0
173
1
174
0
175
1
176
1
 91
1
178
0
145
0.0
170
1
171
1
172
0
173
0
174
0
175
1
176
1
 91
33
178
0
145
0.0
301
CELL_VALUE
 90
4
  1
Weight
304
ACVALUE_END
170
5
140
0.125
171
1
172
0
173
0
174
0
175
1
176
1
 91
33
178
0
145
0.0
301
CELL_VALUE
 90
4
  1
0.893 lb.
304
ACVALUE_END
170
5
140
0.125
171
1
172
0
173
0
174
0
175
1
176
1
 91
33
178
0
145
0.0
301
CELL_VALUE
 90
4
  1
0,405 kg.
304
ACVALUE_END
170
5
140
0.125
  0
ACAD_TABLE
  5
287
100
AcDbEntity
  8
0
 62
2
  6
CONTINUOUS
100
AcDbBlockReference
  2
*T3
 10
0.52125
 20
1.709
 30
0.0
100
AcDbTable
342
       307
343
213
 11
1.0
 21
0.0
 31
0.0
 90
22
 91
4
 92
3
 93
16
 94
0
 95
0
 96
0
 41
0.05
141
0.34375
141
0.344
141
0.25
141
0.25
142
1.3
142
2.0
142
1.3
171
1
172
0
173
0
174
0
175
3
176
1
 91
33
178
0
145
0.0
301
CELL_VALUE
 90
4
  1
Port Headings
304
ACVALUE_END
170
5
140
0.145
171
1
172
0
173
1
174
0
175
1
176
1
 91
1
178
0
145
0.0
170
1
171
1
172
0
173
1
174
0
175
1
176
1
 91
1
178
0
145
0.0
170
1
171
1
172
0
173
0
174
0
175
1
176
1
 91
33
178
0
145
0.0
301
CELL_VALUE
 90
4
  1
Product
304
ACVALUE_END
170
5
140
0.145
171
1
172
0
173
0
174
0
175
1
176
1
 91
33
178
0
145
0.0
301
CELL_VALUE
 90
4
  1
Port
304
ACVALUE_END
170
5
140
0.145
171
1
172
0
173
0
174
0
175
1
176
1
 91
33
178
0
145
0.0
301
CELL_VALUE
 90
4
  1
Size
304
ACVALUE_END
170
5
140
0.145
171
1
172
0
173
0
174
0
175
1
176
1
 91
33
178
0
145
0.0
301
CELL_VALUE
 90
4
  1
EGV
304
ACVALUE_END
170
5
140
0.125
171
1
172
0
173
0
174
0
175
1
176
1
 91
33
178
0
145
0.0
301
CELL_VALUE
 90
4
  1
Ports 1 &  2
304
ACVALUE_END
170
5
140
0.125
171
1
172
0
173
0
174
0
175
1
176
1
 91
33
178
0
145
0.0
301
CELL_VALUE
 90
4
  1
1/2" BSPP
304
ACVALUE_END
170
5
140
0.125
171
1
172
0
173
0
174
0
175
1
176
1
 91
33
178
0
145
0.0
301
CELL_VALUE
 90
4
  1
EGV
304
ACVALUE_END
170
5
140
0.125
171
1
172
0
173
0
174
0
175
1
176
1
 91
33
178
0
145
0.0
301
CELL_VALUE
 90
4
  1
Ports 3 & S
304
ACVALUE_END
170
5
140
0.125
171
1
172
0
173
0
174
0
175
1
176
1
 91
33
178
0
145
0.0
301
CELL_VALUE
 90
4
  1
1/4" BSPP
304
ACVALUE_END
170
5
140
0.125
  0
MTEXT
  5
288
100
AcDbEntity
  8
0
100
AcDbMText
 62
2
  6
CONTINUOUS
  7
STANDARD
 71
1
 72
1
 10
0.52125
 20
5.75995
 30
0.0
 11
1.0
 21
0.0
 31
0.0
 44
0.6
  3
Notes\P \P1. Important: Carefully consider\P   the maximum system pressure. The\P   pressure rating of the manifold is\P   dependent on the manifold material,\P   with the port type/size a secondary\P   consideration. Manifolds\P   constructed of alu
  1
minum are not\P   rated for pressures higher than\P   3000 psi (210 bar), regardless of\P   the port type/size specified.
 40
0.1
 41
3.04
  0
LINE
  5
289
100
AcDbEntity
  8
0
100
AcDbLine
 62
7
  6
CONTINUOUS
 10
0.30125
 20
0.30125
 11
0.30125
 21
16.69875
  0
LINE
  5
28A
100
AcDbEntity
  8
0
100
AcDbLine
 62
7
  6
CONTINUOUS
 10
0.30125
 20
0.30125
 11
21.69875
 21
0.30125
  0
LINE
  5
28B
100
AcDbEntity
  8
0
100
AcDbLine
 62
7
  6
CONTINUOUS
 10
0.30125
 20
16.69875
 11
21.69875
 21
16.69875
  0
LINE
  5
28C
100
AcDbEntity
  8
0
100
AcDbLine
 62
7
  6
CONTINUOUS
 10
21.69875
 20
0.30125
 11
21.69875
 21
16.69875
  0
LINE
  5
28D
100
AcDbEntity
  8
0
100
AcDbLine
 62
7
  6
CONTINUOUS
 10
7.3257658549
 20
9.1583694915
 11
7.3257658549
 21
6.7435547827
  0
LINE
  5
28E
100
AcDbEntity
  8
0
100
AcDbLine
 62
7
  6
CONTINUOUS
 10
8.8786788439
 20
10.6583683425
 11
7.3257658549
 21
9.1583694915
  0
LINE
  5
28F
100
AcDbEntity
  8
0
100
AcDbLine
 62
7
  6
CONTINUOUS
 10
7.3257658549
 20
6.7435547827
 11
13.1213211561
 21
6.3416316575
  0
LINE
  5
290
100
AcDbEntity
  8
0
100
AcDbLine
 62
7
  6
CONTINUOUS
 10
11.2339062324
 20
7.5288837962
 11
11.4142069578
 21
7.5163798985
  0
LINE
  5
291
100
AcDbEntity
  8
0
100
AcDbLine
 62
7
  6
CONTINUOUS
 10
11.1290628495
 20
7.7177487756
 11
11.2339062324
 21
7.5288837962
  0
LINE
  5
292
100
AcDbEntity
  8
0
100
AcDbLine
 62
7
  6
CONTINUOUS
 10
10.875138
 20
8.038147329
 11
10.9181019261
 21
8.0796472972
  0
LINE
  5
293
100
AcDbEntity
  8
0
100
AcDbLine
 62
7
  6
CONTINUOUS
 10
11.1880897149
 20
7.8158927785
 11
11.1290628495
 21
7.7177487756
  0
LINE
  5
294
100
AcDbEntity
  8
0
100
AcDbLine
 62
7
  6
CONTINUOUS
 10
13.1213211561
 20
8.7564463663
 11
7.3257658549
 21
9.1583694915
  0
LINE
  5
295
100
AcDbEntity
  8
0
100
AcDbLine
 62
7
  6
CONTINUOUS
 10
11.0488073483
 20
7.6402279097
 11
11.1290628495
 21
7.7177487756
  0
LINE
  5
296
100
AcDbEntity
  8
0
100
AcDbLine
 62
7
  6
CONTINUOUS
 10
11.1536507312
 20
7.4513629303
 11
11.2339062324
 21
7.5288837962
  0
LINE
  5
297
100
AcDbEntity
  8
0
100
AcDbLine
 62
7
  6
CONTINUOUS
 10
14.6742341451
 20
10.2564452173
 11
13.1213211561
 21
8.7564463663
  0
LINE
  5
298
100
AcDbEntity
  8
0
100
AcDbLine
 62
7
  6
CONTINUOUS
 10
11.657422685
 20
7.2282666763
 11
11.7003866111
 21
7.2697666445
  0
LINE
  5
299
100
AcDbEntity
  8
0
100
AcDbLine
 62
7
  6
CONTINUOUS
 10
14.6742341451
 20
10.2564452173
 11
8.8786788439
 21
10.6583683425
  0
LINE
  5
29A
100
AcDbEntity
  8
0
100
AcDbLine
 62
7
  6
CONTINUOUS
 10
13.1213211561
 20
6.3416316575
 11
13.1213211561
 21
8.7564463663
  0
LINE
  5
29B
100
AcDbEntity
  8
0
100
AcDbLine
 62
7
  6
CONTINUOUS
 10
14.6742341451
 20
7.8416305085
 11
13.1213211561
 21
6.3416316575
  0
LINE
  5
29C
100
AcDbEntity
  8
0
100
AcDbLine
 62
7
  6
CONTINUOUS
 10
14.6742341451
 20
7.8416305085
 11
14.6742341451
 21
10.2564452173
  0
ARC
  5
29D
100
AcDbEntity
  8
0
100
AcDbCircle
 62
7
  6
CONTINUOUS
 10
11.2653667205
 20
7.7532804696
 40
0.5850018602
100
AcDbArc
 50
135.4310642854
 51
136.2602298818
  0
ARC
  5
29E
100
AcDbEntity
  8
0
100
AcDbCircle
 62
7
  6
CONTINUOUS
 10
11.3862619067
 20
7.6281188737
 40
0.5849835138
100
AcDbArc
 50
311.7543434699
 51
312.8318813403
  0
ARC
  5
29F
100
AcDbEntity
  8
0
100
AcDbCircle
 62
7
  6
CONTINUOUS
 10
11.3166234771
 20
7.5810764886
 40
0.4905285445
100
AcDbArc
 50
314.0079595978
 51
320.9194365638
  0
ARC
  5
2A0
100
AcDbEntity
  8
0
100
AcDbCircle
 62
7
  6
CONTINUOUS
 10
11.2584312718
 20
7.6105367551
 40
0.2111046366
100
AcDbArc
 50
0.000016169
 51
0.1942870747
  0
ARC
  5
2A1
100
AcDbEntity
  8
0
100
AcDbCircle
 62
7
  6
CONTINUOUS
 10
11.2398362555
 20
7.6432788269
 40
0.193436197
100
AcDbArc
 50
116.670196073
 51
116.9298134187
  0
ARC
  5
2A2
100
AcDbEntity
  8
0
100
AcDbCircle
 62
7
  6
CONTINUOUS
 10
11.3229922192
 20
7.7198018729
 40
0.1651298769
100
AcDbArc
 50
144.2241106635
 51
148.9755858344
  0
ARC
  5
2A3
100
AcDbEntity
  8
0
100
AcDbCircle
 62
7
  6
CONTINUOUS
 10
13.8731858378
 20
8.8093054923
 40
0.0294836696
100
AcDbArc
 50
86.0359543457
 51
92.1792431363
  0
ARC
  5
2A4
100
AcDbEntity
  8
0
100
AcDbCircle
 62
7
  6
CONTINUOUS
 10
13.2747967517
 20
8.2313059856
 40
0.0294836696
100
AcDbArc
 50
86.0359543457
 51
92.1792431364
  0
ARC
  5
2A5
100
AcDbEntity
  8
0
100
AcDbCircle
 62
7
  6
CONTINUOUS
 10
13.8122319895
 20
7.9303834167
 40
0.0294831676
100
AcDbArc
 50
259.6511165696
 51
266.0305639099
  0
ARC
  5
2A6
100
AcDbEntity
  8
0
100
AcDbCircle
 62
7
  6
CONTINUOUS
 10
13.2138429034
 20
7.35238391
 40
0.0294831676
100
AcDbArc
 50
259.6511165696
 51
266.0305639099
  0
SPLINE
  5
2A7
100
AcDbEntity
  8
0
100
AcDbSpline
 62
7
  6
CONTINUOUS
 70
0
 71
3
 72
59
 73
55
 74
0
 42
0.0000001
 43
0.0000001
 44
0.0000000001
 40
0.0
 40
0.0
 40
0.0
 40
0.0
 40
0.0311322829
 40
0.0624363742
 40
0.0938813008
 40
0.1254584073
 40
0.157162211
 40
0.1889779177
 40
0.2208868241
 40
0.2528701084
 40
0.2688858219
 40
0.2849126181
 40
0.3009477636
 40
0.3169884637
 40
0.3490708353
 40
0.3651116875
 40
0.3811470337
 40
0.3971741272
 40
0.4131903361
 40
0.4291930363
 40
0.4451796074
 40
0.4611475164
 40
0.4770944087
 40
0.4930180215
 40
0.5089161278
 40
0.5247866157
 40
0.540627598
 40
0.5564373559
 40
0.5722142367
 40
0.5879567259
 40
0.6036635642
 40
0.63496127
 40
0.6505554416
 40
0.666110719
 40
0.6816268764
 40
0.6971037981
 40
0.7125415269
 40
0.7279403733
 40
0.743300953
 40
0.7586239982
 40
0.7739103911
 40
0.7891612643
 40
0.8043780481
 40
0.8195622797
 40
0.8347156224
 40
0.8498399573
 40
0.8649374268
 40
0.8800102516
 40
0.895060739
 40
0.9100913671
 40
0.9400981012
 40
0.955085347
 40
0.9700637171
 40
1.0
 40
1.0
 40
1.0
 40
1.0
 10
11.2662803425
 20
7.0893907302
 30
0.0
 10
11.2530049455
 20
7.0903113821
 30
0.0
 10
11.2264387586
 20
7.0931323762
 30
0.0
 10
11.1869090519
 20
7.100228153
 30
0.0
 10
11.1478006456
 20
7.1101747307
 30
0.0
 10
11.1093304976
 20
7.1229097685
 30
0.0
 10
11.0717014531
 20
7.138370376
 30
0.0
 10
11.0351089124
 20
7.1564676451
 30
0.0
 10
10.9997533131
 20
7.1771116823
 30
0.0
 10
10.9714846452
 20
7.1963344553
 30
0.0
 10
10.9496704404
 20
7.2128679046
 30
0.0
 10
10.9337234858
 20
7.2258365517
 30
0.0
 10
10.918220058
 20
7.2393486606
 30
0.0
 10
10.8981691423
 20
7.2580637668
 30
0.0
 10
10.8790860918
 20
7.2777982145
 30
0.0
 10
10.861052058
 20
7.2984639825
 30
0.0
 10
10.848065833
 20
7.314410939
 30
0.0
 10
10.8356386775
 20
7.3307836852
 30
0.0
 10
10.8237870537
 20
7.3475607592
 30
0.0
 10
10.8125257008
 20
7.3647188702
 30
0.0
 10
10.8018695505
 20
7.3822351309
 30
0.0
 10
10.7918337774
 20
7.4000867321
 30
0.0
 10
10.7824322926
 20
7.4182500827
 30
0.0
 10
10.7736762856
 20
7.4367002362
 30
0.0
 10
10.7655773051
 20
7.4554125453
 30
0.0
 10
10.7581470263
 20
7.4743624124
 30
0.0
 10
10.7513962088
 20
7.4935248091
 30
0.0
 10
10.7453323582
 20
7.5128736581
 30
0.0
 10
10.7399633721
 20
7.5323829841
 30
0.0
 10
10.7352971053
 20
7.5520274375
 30
0.0
 10
10.7300291629
 20
7.5783300532
 30
0.0
 10
10.7261778712
 20
7.6048365704
 30
0.0
 10
10.7237720378
 20
7.6314249516
 30
0.0
 10
10.7226951867
 20
7.6513474305
 30
0.0
 10
10.7223439438
 20
7.6712454319
 30
0.0
 10
10.7227182886
 20
7.6910928866
 30
0.0
 10
10.723818226
 20
7.7108631802
 30
0.0
 10
10.7256438537
 20
7.7305298067
 30
0.0
 10
10.7281912902
 20
7.7500665972
 30
0.0
 10
10.7314565842
 20
7.7694475923
 30
0.0
 10
10.7354357407
 20
7.7886468721
 30
0.0
 10
10.7401250758
 20
7.8076384094
 30
0.0
 10
10.7455170948
 20
7.8263970986
 30
0.0
 10
10.7516039084
 20
7.8448981344
 30
0.0
 10
10.7583776513
 20
7.8631167567
 30
0.0
 10
10.7658308519
 20
7.8810279903
 30
0.0
 10
10.7739526287
 20
7.8986082761
 30
0.0
 10
10.7827312368
 20
7.9158344349
 30
0.0
 10
10.7921554415
 20
7.9326838367
 30
0.0
 10
10.8055568998
 20
7.9546001679
 30
0.0
 10
10.8202128343
 20
7.9756970585
 30
0.0
 10
10.8360485626
 20
7.9958626226
 30
0.0
 10
10.852641171
 20
8.0153697748
 30
0.0
 10
10.8659349738
 20
8.0292566896
 30
0.0
 10
10.8751384326
 20
8.0381468812
 30
0.0
  0
SPLINE
  5
2A8
100
AcDbEntity
  8
0
100
AcDbSpline
 62
7
  6
CONTINUOUS
 70
0
 71
3
 72
59
 73
55
 74
0
 42
0.0000001
 43
0.0000001
 44
0.0000000001
 40
0.0
 40
0.0
 40
0.0
 40
0.0
 40
0.0311322829
 40
0.0624363742
 40
0.0938813008
 40
0.1254584073
 40
0.157162211
 40
0.1889779177
 40
0.2208868241
 40
0.2528701084
 40
0.2688858219
 40
0.2849126181
 40
0.3009477636
 40
0.3169884637
 40
0.3490708353
 40
0.3651116875
 40
0.3811470337
 40
0.3971741272
 40
0.4131903361
 40
0.4291930363
 40
0.4451796074
 40
0.4611475164
 40
0.4770944087
 40
0.4930180215
 40
0.5089161278
 40
0.5247866157
 40
0.540627598
 40
0.5564373559
 40
0.5722142367
 40
0.5879567259
 40
0.6036635642
 40
0.63496127
 40
0.6505554416
 40
0.666110719
 40
0.6816268764
 40
0.6971037981
 40
0.7125415269
 40
0.7279403733
 40
0.743300953
 40
0.7586239982
 40
0.7739103911
 40
0.7891612643
 40
0.8043780481
 40
0.8195622797
 40
0.8347156224
 40
0.8498399573
 40
0.8649374268
 40
0.8800102516
 40
0.895060739
 40
0.9100913671
 40
0.9400981012
 40
0.955085347
 40
0.9700637171
 40
1.0
 40
1.0
 40
1.0
 40
1.0
 10
11.3092442686
 20
8.2185232433
 30
0.0
 10
11.3225196656
 20
8.2176025914
 30
0.0
 10
11.3490858525
 20
8.2147815974
 30
0.0
 10
11.3886155592
 20
8.2076858205
 30
0.0
 10
11.4277239656
 20
8.1977392428
 30
0.0
 10
11.4661941135
 20
8.1850042051
 30
0.0
 10
11.503823158
 20
8.1695435975
 30
0.0
 10
11.5404156987
 20
8.1514463284
 30
0.0
 10
11.575771298
 20
8.1308022912
 30
0.0
 10
11.6040399659
 20
8.1115795183
 30
0.0
 10
11.6258541707
 20
8.095046069
 30
0.0
 10
11.6418011253
 20
8.0820774218
 30
0.0
 10
11.6573045531
 20
8.0685653129
 30
0.0
 10
11.6773554688
 20
8.0498502067
 30
0.0
 10
11.6964385193
 20
8.030115759
 30
0.0
 10
11.7144725531
 20
8.009449991
 30
0.0
 10
11.7274587781
 20
7.9935030346
 30
0.0
 10
11.7398859336
 20
7.9771302883
 30
0.0
 10
11.7517375575
 20
7.9603532143
 30
0.0
 10
11.7629989103
 20
7.9431951033
 30
0.0
 10
11.7736550606
 20
7.9256788427
 30
0.0
 10
11.7836908338
 20
7.9078272415
 30
0.0
 10
11.7930923185
 20
7.8896638908
 30
0.0
 10
11.8018483255
 20
7.8712137373
 30
0.0
 10
11.809947306
 20
7.8525014282
 30
0.0
 10
11.8173775848
 20
7.8335515611
 30
0.0
 10
11.8241284023
 20
7.8143891645
 30
0.0
 10
11.830192253
 20
7.7950403155
 30
0.0
 10
11.835561239
 20
7.7755309894
 30
0.0
 10
11.8402275059
 20
7.755886536
 30
0.0
 10
11.8454954483
 20
7.7295839203
 30
0.0
 10
11.84934674
 20
7.7030774031
 30
0.0
 10
11.8517525733
 20
7.6764890219
 30
0.0
 10
11.8528294244
 20
7.656566543
 30
0.0
 10
11.8531806674
 20
7.6366685416
 30
0.0
 10
11.8528063225
 20
7.616821087
 30
0.0
 10
11.8517063851
 20
7.5970507933
 30
0.0
 10
11.8498807575
 20
7.5773841668
 30
0.0
 10
11.847333321
 20
7.5578473763
 30
0.0
 10
11.8440680269
 20
7.5384663813
 30
0.0
 10
11.8400888704
 20
7.5192671014
 30
0.0
 10
11.8353995353
 20
7.5002755642
 30
0.0
 10
11.8300075163
 20
7.4815168749
 30
0.0
 10
11.8239207028
 20
7.4630158391
 30
0.0
 10
11.8171469598
 20
7.4447972169
 30
0.0
 10
11.8096937592
 20
7.4268859832
 30
0.0
 10
11.8015719824
 20
7.4093056974
 30
0.0
 10
11.7927933743
 20
7.3920795386
 30
0.0
 10
11.7833691697
 20
7.3752301369
 30
0.0
 10
11.7699677114
 20
7.3533138056
 30
0.0
 10
11.7553117768
 20
7.332216915
 30
0.0
 10
11.7394760485
 20
7.3120513509
 30
0.0
 10
11.7228834401
 20
7.2925441987
 30
0.0
 10
11.7095896374
 20
7.2786572839
 30
0.0
 10
11.7003861785
 20
7.2697670924
 30
0.0
  0
SPLINE
  5
2A9
100
AcDbEntity
  8
0
100
AcDbSpline
 62
7
  6
CONTINUOUS
 70
0
 71
3
 72
15
 73
11
 74
0
 42
0.0000001
 43
0.0000001
 44
0.0000000001
 40
0.0
 40
0.0
 40
0.0
 40
0.0
 40
0.0990493905
 40
0.2066666987
 40
0.3238642713
 40
0.4503538694
 40
0.5840557736
 40
0.7218634703
 40
0.8610624569
 40
1.0
 40
1.0
 40
1.0
 40
1.0
 10
11.46818088
 20
7.6111442565
 30
0.0
 10
11.465074085
 20
7.6051862392
 30
0.0
 10
11.4585070826
 20
7.5927987514
 30
0.0
 10
11.4479304533
 20
7.5735405907
 30
0.0
 10
11.4361266614
 20
7.5528358232
 30
0.0
 10
11.4230908338
 20
7.5308003269
 30
0.0
 10
11.4089976938
 20
7.5077695151
 30
0.0
 10
11.3941519885
 20
7.4841913911
 30
0.0
 10
11.378872357
 20
7.460468816
 30
0.0
 10
11.3685286525
 20
7.4446880654
 30
0.0
 10
11.3633374971
 20
7.4368211037
 30
0.0
  0
SPLINE
  5
2AA
100
AcDbEntity
  8
0
100
AcDbSpline
 62
7
  6
CONTINUOUS
 70
0
 71
3
 72
16
 73
12
 74
0
 42
0.0000001
 43
0.0000001
 44
0.0000000001
 40
0.0
 40
0.0
 40
0.0
 40
0.0
 40
0.0568203632
 40
0.1148013582
 40
0.2344680642
 40
0.3590834873
 40
0.4876536601
 40
0.6180302345
 40
0.7477956069
 40
0.8753224375
 40
1.0
 40
1.0
 40
1.0
 40
1.0
 10
11.3633374971
 20
7.8000092359
 30
0.0
 10
11.3659499503
 20
7.7968309345
 30
0.0
 10
11.3711758771
 20
7.7903660758
 30
0.0
 10
11.3816083627
 20
7.7769717134
 30
0.0
 10
11.3945364505
 20
7.7593031855
 30
0.0
 10
11.409447992
 20
7.736784665
 30
0.0
 10
11.423566856
 20
7.7128534193
 30
0.0
 10
11.43657364
 20
7.6878795442
 30
0.0
 10
11.448309505
 20
7.6623699295
 30
0.0
 10
11.4588077582
 20
7.6367756809
 30
0.0
 10
11.4651583052
 20
7.6196507245
 30
0.0
 10
11.46818088
 20
7.6111442565
 30
0.0
  0
SPLINE
  5
2AB
100
AcDbEntity
  8
0
100
AcDbSpline
 62
7
  6
CONTINUOUS
 70
0
 71
3
 72
13
 73
9
 74
0
 42
0.0000001
 43
0.0000001
 44
0.0000000001
 40
0.0
 40
0.0
 40
0.0
 40
0.0
 40
0.1120229119
 40
0.2274286538
 40
0.4694282775
 40
0.7273369597
 40
0.8620712305
 40
1.0
 40
1.0
 40
1.0
 40
1.0
 10
11.3633374971
 20
7.8000092359
 30
0.0
 10
11.3597527639
 20
7.8008319603
 30
0.0
 10
11.35246191
 20
7.8024457951
 30
0.0
 10
11.3373595127
 20
7.8055236718
 30
0.0
 10
11.3174557933
 20
7.8090126668
 30
0.0
 10
11.2967958888
 20
7.8117715212
 30
0.0
 10
11.2794636537
 20
7.8135254701
 30
0.0
 10
11.2705391459
 20
7.8142377708
 30
0.0
 10
11.2660215237
 20
7.814551069
 30
0.0
  0
SPLINE
  5
2AC
100
AcDbEntity
  8
0
100
AcDbSpline
 62
7
  6
CONTINUOUS
 70
0
 71
3
 72
23
 73
19
 74
0
 42
0.0000001
 43
0.0000001
 44
0.0000000001
 40
0.0
 40
0.0
 40
0.0
 40
0.0
 40
0.0616482049
 40
0.1233194645
 40
0.1850366601
 40
0.2468215803
 40
0.3086958874
 40
0.3706805387
 40
0.4327949852
 40
0.4950576208
 40
0.5574833124
 40
0.620084195
 40
0.682872566
 40
0.7458647459
 40
0.8090766705
 40
0.8725171946
 40
0.9361676357
 40
1.0
 40
1.0
 40
1.0
 40
1.0
 10
10.9181023587
 20
8.0796468494
 30
0.0
 10
10.9244202593
 20
8.0857497012
 30
0.0
 10
10.9373891189
 20
8.0976206506
 30
0.0
 10
10.9577767394
 20
8.1143574464
 30
0.0
 10
10.9790490099
 20
8.1299885196
 30
0.0
 10
11.0011514092
 20
8.1444744382
 30
0.0
 10
11.0240304069
 20
8.1577757752
 30
0.0
 10
11.047626696
 20
8.1698616737
 30
0.0
 10
11.0718810329
 20
8.1807022053
 30
0.0
 10
11.0967336275
 20
8.190266564
 30
0.0
 10
11.1221199557
 20
8.1985339731
 30
0.0
 10
11.1479755754
 20
8.2054841908
 30
0.0
 10
11.174236633
 20
8.2110965611
 30
0.0
 10
11.2008382076
 20
8.2153596459
 30
0.0
 10
11.2277157202
 20
8.2182625713
 30
0.0
 10
11.2548001034
 20
8.219794336
 30
0.0
 10
11.2820147874
 20
8.2199563689
 30
0.0
 10
11.3001707312
 20
8.2191524952
 30
0.0
 10
11.3092442686
 20
8.2185232433
 30
0.0
  0
SPLINE
  5
2AD
100
AcDbEntity
  8
0
100
AcDbSpline
 62
7
  6
CONTINUOUS
 70
0
 71
3
 72
14
 73
10
 74
0
 42
0.0000001
 43
0.0000001
 44
0.0000000001
 40
0.0
 40
0.0
 40
0.0
 40
0.0
 40
0.1231136216
 40
0.2478936142
 40
0.3735912418
 40
0.499638844
 40
0.6255751812
 40
0.7510900589
 40
1.0
 40
1.0
 40
1.0
 40
1.0
 10
11.2660215237
 20
7.814551069
 30
0.0
 10
11.2614183002
 20
7.8148703036
 30
0.0
 10
11.2521424975
 20
7.815414916
 30
0.0
 10
11.2381501837
 20
7.8159606342
 30
0.0
 10
11.2240402451
 20
7.816248092
 30
0.0
 10
11.2098842872
 20
7.8162980468
 30
0.0
 10
11.1957361594
 20
7.8161311623
 30
0.0
 10
11.1769883343
 20
7.8156546855
 30
0.0
 10
11.1629667805
 20
7.8150444725
 30
0.0
 10
11.1536507312
 20
7.8145510625
 30
0.0
  0
SPLINE
  5
2AE
100
AcDbEntity
  8
0
100
AcDbSpline
 62
7
  6
CONTINUOUS
 70
0
 71
3
 72
23
 73
19
 74
0
 42
0.0000001
 43
0.0000001
 44
0.0000000001
 40
0.0
 40
0.0
 40
0.0
 40
0.0
 40
0.0616482049
 40
0.1233194645
 40
0.1850366601
 40
0.2468215803
 40
0.3086958874
 40
0.3706805387
 40
0.4327949852
 40
0.4950576208
 40
0.5574833124
 40
0.620084195
 40
0.682872566
 40
0.7458647459
 40
0.8090766705
 40
0.8725171946
 40
0.9361676357
 40
1.0
 40
1.0
 40
1.0
 40
1.0
 10
11.6574222524
 20
7.2282671242
 30
0.0
 10
11.6511043519
 20
7.2221642723
 30
0.0
 10
11.6381354922
 20
7.210293323
 30
0.0
 10
11.6177478718
 20
7.1935565271
 30
0.0
 10
11.5964756012
 20
7.1779254539
 30
0.0
 10
11.5743732019
 20
7.1634395353
 30
0.0
 10
11.5514942042
 20
7.1501381983
 30
0.0
 10
11.5278979151
 20
7.1380522999
 30
0.0
 10
11.5036435782
 20
7.1272117682
 30
0.0
 10
11.4787909836
 20
7.1176474095
 30
0.0
 10
11.4534046554
 20
7.1093800004
 30
0.0
 10
11.4275490358
 20
7.1024297827
 30
0.0
 10
11.4012879781
 20
7.0968174124
 30
0.0
 10
11.3746864035
 20
7.0925543276
 30
0.0
 10
11.3478088909
 20
7.0896514022
 30
0.0
 10
11.3207245077
 20
7.0881196375
 30
0.0
 10
11.2935098237
 20
7.0879576046
 30
0.0
 10
11.2753538799
 20
7.0887614783
 30
0.0
 10
11.2662803425
 20
7.0893907302
 30
0.0
  0
SPLINE
  5
2AF
100
AcDbEntity
  8
0
100
AcDbSpline
 62
7
  6
CONTINUOUS
 70
0
 71
3
 72
66
 73
62
 74
0
 42
0.0000001
 43
0.0000001
 44
0.0000000001
 40
0.0
 40
0.0
 40
0.0
 40
0.0
 40
0.0313892319
 40
0.0471734483
 40
0.0630045494
 40
0.0947922188
 40
0.1107556328
 40
0.126758753
 40
0.1427973822
 40
0.1588672385
 40
0.174964115
 40
0.1910835842
 40
0.2072211173
 40
0.2233719516
 40
0.2395310416
 40
0.2556933588
 40
0.2718539342
 40
0.2880076864
 40
0.3041496364
 40
0.32027501
 40
0.3363790385
 40
0.3524571444
 40
0.368505122
 40
0.3845189036
 40
0.4004946911
 40
0.4164291943
 40
0.4323193802
 40
0.4481625505
 40
0.4639566204
 40
0.4796998632
 40
0.4953909309
 40
0.5110291558
 40
0.5266142955
 40
0.542146505
 40
0.5576266393
 40
0.5730560022
 40
0.5884362808
 40
0.6037698305
 40
0.619059427
 40
0.6343081765
 40
0.6495197715
 40
0.6646982401
 40
0.6798478494
 40
0.6949733256
 40
0.7100795921
 40
0.7251716853
 40
0.7402549452
 40
0.7553347395
 40
0.7704164033
 40
0.7855053917
 40
0.8006069684
 40
0.8157262041
 40
0.83086817
 40
0.8460376768
 40
0.8612392288
 40
0.8764770253
 40
0.9070640933
 40
0.9378335392
 40
0.9533006817
 40
0.9688224861
 40
1.0
 40
1.0
 40
1.0
 40
1.0
 10
11.2579981399
 20
7.1123003646
 30
0.0
 10
11.2411662607
 20
7.1134676594
 30
0.0
 10
11.215935167
 20
7.1164677184
 30
0.0
 10
11.1826716212
 20
7.1228771401
 30
0.0
 10
11.1495439558
 20
7.1309253457
 30
0.0
 10
11.116936513
 20
7.1413635568
 30
0.0
 10
11.0851079917
 20
7.1540897903
 30
0.0
 10
11.061613524
 20
7.1647835509
 30
0.0
 10
11.0385919766
 20
7.1765847474
 30
0.0
 10
11.0160998441
 20
7.1894681984
 30
0.0
 10
10.9941906017
 20
7.2034005641
 30
0.0
 10
10.972916129
 20
7.2183475823
 30
0.0
 10
10.9523293447
 20
7.2342758233
 30
0.0
 10
10.9324785656
 20
7.2511452216
 30
0.0
 10
10.9134107316
 20
7.2689143763
 30
0.0
 10
10.89517397
 20
7.2875428341
 30
0.0
 10
10.877810985
 20
7.3069843796
 30
0.0
 10
10.8613623952
 20
7.3271913621
 30
0.0
 10
10.8458702189
 20
7.3481171205
 30
0.0
 10
10.8313706244
 20
7.3697102808
 30
0.0
 10
10.8178970582
 20
7.3919180457
 30
0.0
 10
10.8054845921
 20
7.4146885696
 30
0.0
 10
10.7941621543
 20
7.4379663492
 30
0.0
 10
10.7839552372
 20
7.461694626
 30
0.0
 10
10.7748911692
 20
7.4858174939
 30
0.0
 10
10.7669910588
 20
7.5102764424
 30
0.0
 10
10.7602718694
 20
7.5350120377
 30
0.0
 10
10.7547525833
 20
7.5599655332
 30
0.0
 10
10.7504460729
 20
7.585076583
 30
0.0
 10
10.747360382
 20
7.6102844222
 30
0.0
 10
10.7455057133
 20
7.6355287506
 30
0.0
 10
10.7448864461
 20
7.66074859
 30
0.0
 10
10.7455015196
 20
7.6858832205
 30
0.0
 10
10.7473521113
 20
7.7108721181
 30
0.0
 10
10.7504340157
 20
7.735654883
 30
0.0
 10
10.7547370891
 20
7.7601722162
 30
0.0
 10
10.7602534329
 20
7.7843647168
 30
0.0
 10
10.7669703272
 20
7.8081737621
 30
0.0
 10
10.7748687763
 20
7.831542818
 30
0.0
 10
10.7839319534
 20
7.854414945
 30
0.0
 10
10.7941388575
 20
7.8767344657
 30
0.0
 10
10.8054620797
 20
7.8984488901
 30
0.0
 10
10.8178762201
 20
7.9195050395
 30
0.0
 10
10.8313523885
 20
7.9398513016
 30
0.0
 10
10.8458553896
 20
7.9594404128
 30
0.0
 10
10.861351801
 20
7.9782241895
 30
0.0
 10
10.8778054016
 20
7.996156139
 30
0.0
 10
10.8951740474
 20
8.013195269
 30
0.0
 10
10.9134170711
 20
8.0292995066
 30
0.0
 10
10.9324916086
 20
8.0444284294
 30
0.0
 10
10.9523494572
 20
8.0585482323
 30
0.0
 10
10.9729435577
 20
8.0716239727
 30
0.0
 10
10.9942253788
 20
8.0836222014
 30
0.0
 10
11.0161418355
 20
8.0945168667
 30
0.0
 10
11.0386415722
 20
8.1042810549
 30
0.0
 10
11.0693794769
 20
8.11577051
 30
0.0
 10
11.1090137337
 20
8.1271943891
 30
0.0
 10
11.1497222603
 20
8.1345531549
 30
0.0
 10
11.1827526651
 20
8.137991139
 30
0.0
 10
11.2161299847
 20
8.1397875404
 30
0.0
 10
11.2412797904
 20
8.1392730744
 30
0.0
 10
11.2579981399
 20
8.1381136529
 30
0.0
  0
SPLINE
  5
2B0
100
AcDbEntity
  8
0
100
AcDbSpline
 62
7
  6
CONTINUOUS
 70
0
 71
3
 72
33
 73
29
 74
0
 42
0.0000001
 43
0.0000001
 44
0.0000000001
 40
0.0
 40
0.0
 40
0.0
 40
0.0
 40
0.0607663237
 40
0.091331568
 40
0.1220124065
 40
0.1528084241
 40
0.1837173208
 40
0.2147358851
 40
0.2458601834
 40
0.2770843894
 40
0.3084013868
 40
0.3712616898
 40
0.4343894808
 40
0.4977003293
 40
0.5294057045
 40
0.5611213219
 40
0.5928355414
 40
0.6245364484
 40
0.6562120085
 40
0.6878507642
 40
0.7194411705
 40
0.7509711995
 40
0.782429246
 40
0.813806578
 40
0.8450987421
 40
0.8763022432
 40
0.9384000084
 40
1.0
 40
1.0
 40
1.0
 40
1.0
 10
11.2320788567
 20
7.8160697759
 30
0.0
 10
11.2309669938
 20
7.8096374491
 30
0.0
 10
11.2298351191
 20
7.7998653472
 30
0.0
 10
11.2293981454
 20
7.7867614042
 30
0.0
 10
11.2296080295
 20
7.7768708478
 30
0.0
 10
11.2303541675
 20
7.7669698958
 30
0.0
 10
11.2316333474
 20
7.7570869247
 30
0.0
 10
11.2334431098
 20
7.7472514031
 30
0.0
 10
11.2357790598
 20
7.7374927017
 30
0.0
 10
11.2386323371
 20
7.7278389006
 30
0.0
 10
11.2431194832
 20
7.7151318317
 30
0.0
 10
11.2499857003
 20
7.6996553338
 30
0.0
 10
11.2601081591
 20
7.6819797324
 30
0.0
 10
11.2700295314
 20
7.6681498346
 30
0.0
 10
11.2787846111
 20
7.6577183306
 30
0.0
 10
11.2857467206
 20
7.6502305638
 30
0.0
 10
11.2930796192
 20
7.6431066509
 30
0.0
 10
11.3007606566
 20
7.6363659954
 30
0.0
 10
11.3087674302
 20
7.6300287036
 30
0.0
 10
11.3170776175
 20
7.6241152645
 30
0.0
 10
11.3256654936
 20
7.6186419345
 30
0.0
 10
11.334504876
 20
7.6136239988
 30
0.0
 10
11.3435700552
 20
7.6090771669
 30
0.0
 10
11.35283503
 20
7.605015994
 30
0.0
 10
11.3622729259
 20
7.6014506766
 30
0.0
 10
11.3750282856
 20
7.5973790251
 30
0.0
 10
11.3912615277
 20
7.5935787585
 30
0.0
 10
11.404477232
 20
7.5919351765
 30
0.0
 10
11.411078647
 20
7.5914773668
 30
0.0
  0
SPLINE
  5
2B1
100
AcDbEntity
  8
0
100
AcDbSpline
 62
7
  6
CONTINUOUS
 70
0
 71
3
 72
15
 73
11
 74
0
 42
0.0000001
 43
0.0000001
 44
0.0000000001
 40
0.0
 40
0.0
 40
0.0
 40
0.0
 40
0.1267721213
 40
0.2530848049
 40
0.3788484787
 40
0.5040309115
 40
0.6286806203
 40
0.7528576716
 40
0.876615375
 40
1.0
 40
1.0
 40
1.0
 40
1.0
 10
11.2579981399
 20
7.8367447773
 30
0.0
 10
11.2534344312
 20
7.8370612716
 30
0.0
 10
11.2443003114
 20
7.8373983291
 30
0.0
 10
11.2306254358
 20
7.8370135544
 30
0.0
 10
11.2170616273
 20
7.8357370508
 30
0.0
 10
11.203671999
 20
7.8335710359
 30
0.0
 10
11.1905126164
 20
7.8305284924
 30
0.0
 10
11.1776375021
 20
7.8266194954
 30
0.0
 10
11.1651006523
 20
7.8218620299
 30
0.0
 10
11.1569903135
 20
7.8181328714
 30
0.0
 10
11.1530116009
 20
7.8161343783
 30
0.0
  0
SPLINE
  5
2B2
100
AcDbEntity
  8
0
100
AcDbSpline
 62
7
  6
CONTINUOUS
 70
0
 71
3
 72
44
 73
40
 74
0
 42
0.0000001
 43
0.0000001
 44
0.0000000001
 40
0.0
 40
0.0
 40
0.0
 40
0.0
 40
0.0301887775
 40
0.060307189
 40
0.0903838176
 40
0.1204483681
 40
0.150530331
 40
0.1806592903
 40
0.1957536387
 40
0.2108700789
 40
0.2411744884
 40
0.2563750715
 40
0.2716091147
 40
0.3021796441
 40
0.3175266352
 40
0.3329146523
 40
0.3638118197
 40
0.3948836434
 40
0.4261319821
 40
0.4575531672
 40
0.4891397401
 40
0.5208793779
 40
0.5527562983
 40
0.584751048
 40
0.6168412608
 40
0.6490024641
 40
0.6812080575
 40
0.7134308435
 40
0.7295427041
 40
0.7456483331
 40
0.7778217557
 40
0.8099305437
 40
0.8419493306
 40
0.8738525474
 40
0.9056216359
 40
0.937248854
 40
0.9530093839
 40
0.9687263067
 40
1.0
 40
1.0
 40
1.0
 40
1.0
 10
11.1522292557
 20
7.8157391872
 30
0.0
 10
11.1472421016
 20
7.8132057936
 30
0.0
 10
11.1374938279
 20
7.8077093584
 30
0.0
 10
11.1236593435
 20
7.798235042
 30
0.0
 10
11.1107245967
 20
7.7875991896
 30
0.0
 10
11.0987744585
 20
7.775877804
 30
0.0
 10
11.0878922524
 20
7.7631466339
 30
0.0
 10
11.0797758154
 20
7.7517730766
 30
0.0
 10
11.073887324
 20
7.7422653233
 30
0.0
 10
11.0684023263
 20
7.7324822304
 30
0.0
 10
11.0635495978
 20
7.7223335749
 30
0.0
 10
11.059356929
 20
7.7118862602
 30
0.0
 10
11.0555996201
 20
7.701222228
 30
0.0
 10
11.0525208616
 20
7.6903009033
 30
0.0
 10
11.0501341543
 20
7.67919237
 30
0.0
 10
11.0482061381
 20
7.667933346
 30
0.0
 10
11.0466751411
 20
7.6536637613
 30
0.0
 10
11.046253118
 20
7.6363775453
 30
0.0
 10
11.0472496778
 20
7.6190174522
 30
0.0
 10
11.0496529989
 20
7.6016998194
 30
0.0
 10
11.053452178
 20
7.5845410068
 30
0.0
 10
11.0586159557
 20
7.5676543465
 30
0.0
 10
11.065115138
 20
7.5511542426
 30
0.0
 10
11.0729010099
 20
7.5351488183
 30
0.0
 10
11.0819259611
 20
7.5197470117
 30
0.0
 10
11.0921259898
 20
7.5050493799
 30
0.0
 10
11.1034353907
 20
7.4911562494
 30
0.0
 10
11.1137222818
 20
7.480323062
 30
0.0
 10
11.1224275316
 20
7.4721469944
 30
0.0
 10
11.13143239
 20
7.4643160716
 30
0.0
 10
11.143225306
 20
7.4551911494
 30
0.0
 10
11.1581473406
 20
7.4453754538
 30
0.0
 10
11.1737377991
 20
7.4367623247
 30
0.0
 10
11.1898906682
 20
7.429406845
 30
0.0
 10
11.2065006642
 20
7.4233614463
 30
0.0
 10
11.220651505
 20
7.4194413055
 30
0.0
 10
11.2320895322
 20
7.4170002285
 30
0.0
 10
11.2435506851
 20
7.4150291157
 30
0.0
 10
11.2522172712
 20
7.4140701449
 30
0.0
 10
11.2579981399
 20
7.4136692403
 30
0.0
  0
SPLINE
  5
2B3
100
AcDbEntity
  8
0
100
AcDbSpline
 62
7
  6
CONTINUOUS
 70
0
 71
3
 72
11
 73
7
 74
0
 42
0.0000001
 43
0.0000001
 44
0.0000000001
 40
0.0
 40
0.0
 40
0.0
 40
0.0
 40
0.2483001361
 40
0.4978174108
 40
0.748450087
 40
1.0
 40
1.0
 40
1.0
 40
1.0
 10
11.460174439
 20
7.5948352023
 30
0.0
 10
11.45617758
 20
7.5939899041
 30
0.0
 10
11.4481014386
 20
7.5925782946
 30
0.0
 10
11.4358425204
 20
7.5913149073
 30
0.0
 10
11.4234723526
 20
7.5909008187
 30
0.0
 10
11.4152074662
 20
7.5911910322
 30
0.0
 10
11.411078647
 20
7.5914773668
 30
0.0
  0
SPLINE
  5
2B4
100
AcDbEntity
  8
0
100
AcDbSpline
 62
7
  6
CONTINUOUS
 70
0
 71
3
 72
15
 73
11
 74
0
 42
0.0000001
 43
0.0000001
 44
0.0000000001
 40
0.0
 40
0.0
 40
0.0
 40
0.0
 40
0.123395243
 40
0.2471616739
 40
0.3713457372
 40
0.4960009522
 40
0.6211855472
 40
0.7469455322
 40
0.8732462823
 40
1.0
 40
1.0
 40
1.0
 40
1.0
 10
11.4279337485
 20
7.5388367182
 30
0.0
 10
11.4245459258
 20
7.5371617396
 30
0.0
 10
11.4176434522
 20
7.5340371111
 30
0.0
 10
11.4069820115
 20
7.5300531291
 30
0.0
 10
11.3960398717
 20
7.5267821476
 30
0.0
 10
11.3848618911
 20
7.5242384588
 30
0.0
 10
11.3734928052
 20
7.5224304686
 30
0.0
 10
11.3619792605
 20
7.5213689407
 30
0.0
 10
11.3503737397
 20
7.5210553916
 30
0.0
 10
11.3426224465
 20
7.5213443012
 30
0.0
 10
11.3387496154
 20
7.5216128829
 30
0.0
  0
SPLINE
  5
2B5
100
AcDbEntity
  8
0
100
AcDbSpline
 62
7
  6
CONTINUOUS
 70
0
 71
3
 72
15
 73
11
 74
0
 42
0.0000001
 43
0.0000001
 44
0.0000000001
 40
0.0
 40
0.0
 40
0.0
 40
0.0
 40
0.1267968404
 40
0.2531255205
 40
0.3788942022
 40
0.5040739396
 40
0.6287161924
 40
0.7528830504
 40
0.8766282758
 40
1.0
 40
1.0
 40
1.0
 40
1.0
 10
11.2579981399
 20
7.4136692403
 30
0.0
 10
11.2626326007
 20
7.4133478393
 30
0.0
 10
11.2719084227
 20
7.4130102118
 30
0.0
 10
11.2857939639
 20
7.4134219658
 30
0.0
 10
11.2995629898
 20
7.414753481
 30
0.0
 10
11.313149631
 20
7.4170018792
 30
0.0
 10
11.3264953868
 20
7.4201535336
 30
0.0
 10
11.3395436081
 20
7.4241978295
 30
0.0
 10
11.352237946
 20
7.4291150599
 30
0.0
 10
11.36044131
 20
7.4329667024
 30
0.0
 10
11.3644629543
 20
7.4350301226
 30
0.0
  0
SPLINE
  5
2B6
100
AcDbEntity
  8
0
100
AcDbSpline
 62
7
  6
CONTINUOUS
 70
0
 71
3
 72
21
 73
17
 74
0
 42
0.0000001
 43
0.0000001
 44
0.0000000001
 40
0.0
 40
0.0
 40
0.0
 40
0.0
 40
0.0621604898
 40
0.1241984835
 40
0.1861504711
 40
0.2480554595
 40
0.3099518597
 40
0.3718783665
 40
0.4959005071
 40
0.620486259
 40
0.683105919
 40
0.7459548873
 40
0.8090539876
 40
0.8724203926
 40
0.9360668682
 40
1.0
 40
1.0
 40
1.0
 40
1.0
 10
11.3644629543
 20
7.4350301226
 30
0.0
 10
11.3684310089
 20
7.4370660471
 30
0.0
 10
11.3762211952
 20
7.4414098375
 30
0.0
 10
11.3874159021
 20
7.4487126372
 30
0.0
 10
11.3980608199
 20
7.4567668268
 30
0.0
 10
11.4081089793
 20
7.4655382537
 30
0.0
 10
11.4175204043
 20
7.4749879784
 30
0.0
 10
11.4291650384
 20
7.4884432436
 30
0.0
 10
11.4419499389
 20
7.5067840514
 30
0.0
 10
11.4520936342
 20
7.5267614493
 30
0.0
 10
11.458540429
 20
7.5435163264
 30
0.0
 10
11.4625311461
 20
7.556455023
 30
0.0
 10
11.4656536023
 20
7.5696844702
 30
0.0
 10
11.4678916542
 20
7.5831501517
 30
0.0
 10
11.4692372809
 20
7.5967933491
 30
0.0
 10
11.4695359084
 20
7.6059497611
 30
0.0
 10
11.4695359084
 20
7.6105368147
 30
0.0
  0
SPLINE
  5
2B7
100
AcDbEntity
  8
0
100
AcDbSpline
 62
7
  6
CONTINUOUS
 70
0
 71
3
 72
23
 73
19
 74
0
 42
0.0000001
 43
0.0000001
 44
0.0000000001
 40
0.0
 40
0.0
 40
0.0
 40
0.0
 40
0.0611123718
 40
0.1224974328
 40
0.1841476917
 40
0.2460524529
 40
0.3081953791
 40
0.3705571335
 40
0.4331151964
 40
0.4958427636
 40
0.5587116368
 40
0.6216909416
 40
0.6847475563
 40
0.7478483251
 40
0.8109582777
 40
0.8740423262
 40
0.9370672663
 40
1.0
 40
1.0
 40
1.0
 40
1.0
 10
11.4695346947
 20
7.6112525989
 30
0.0
 10
11.469519082
 20
7.6158571901
 30
0.0
 10
11.4691858279
 20
7.6250886151
 30
0.0
 10
11.4677925743
 20
7.6389025001
 30
0.0
 10
11.4655091711
 20
7.652658491
 30
0.0
 10
11.4623443658
 20
7.6662971061
 30
0.0
 10
11.458314667
 20
7.679761567
 30
0.0
 10
11.4534339937
 20
7.6929938539
 30
0.0
 10
11.4477246894
 20
7.7059382935
 30
0.0
 10
11.4412119683
 20
7.7185407164
 30
0.0
 10
11.4339205922
 20
7.7307461312
 30
0.0
 10
11.4258844315
 20
7.7425045074
 30
0.0
 10
11.4171362754
 20
7.7537654081
 30
0.0
 10
11.4077122732
 20
7.7644801471
 30
0.0
 10
11.3976548013
 20
7.7746054839
 30
0.0
 10
11.3870040274
 20
7.7840964737
 30
0.0
 10
11.3758065599
 20
7.792913342
 30
0.0
 10
11.3680006378
 20
7.7983235238
 30
0.0
 10
11.364022291
 20
7.8009036782
 30
0.0
  0
LINE
  5
2B8
100
AcDbEntity
  8
0
100
AcDbLine
 62
7
  6
CONTINUOUS
 10
11.364022291
 20
7.8009036782
 11
11.3637670242
 21
7.8010689931
  0
SPLINE
  5
2B9
100
AcDbEntity
  8
0
100
AcDbSpline
 62
7
  6
CONTINUOUS
 70
0
 71
3
 72
14
 73
10
 74
0
 42
0.0000001
 43
0.0000001
 44
0.0000000001
 40
0.0
 40
0.0
 40
0.0
 40
0.0
 40
0.2524683501
 40
0.37822438
 40
0.5035561126
 40
0.6284438742
 40
0.7528706101
 40
0.8767610755
 40
1.0
 40
1.0
 40
1.0
 40
1.0
 10
11.3637670242
 20
7.8010689931
 30
0.0
 10
11.3557970228
 20
7.8062230679
 30
0.0
 10
11.3433639507
 20
7.8132205083
 30
0.0
 10
11.3260664913
 20
7.8209332752
 30
0.0
 10
11.3128129818
 20
7.8258741923
 30
0.0
 10
11.2993238097
 20
7.8299575084
 30
0.0
 10
11.2856544881
 20
7.833162586
 30
0.0
 10
11.2718701036
 20
7.8354774084
 30
0.0
 10
11.2626201015
 20
7.8364242432
 30
0.0
 10
11.2579981399
 20
7.8367447773
 30
0.0
  0
SPLINE
  5
2BA
100
AcDbEntity
  8
0
100
AcDbSpline
 62
7
  6
CONTINUOUS
 70
0
 71
3
 72
20
 73
16
 74
0
 42
0.0000001
 43
0.0000001
 44
0.0000000001
 40
0.0
 40
0.0
 40
0.0
 40
0.0
 40
0.064283381
 40
0.1284469336
 40
0.1924130566
 40
0.2561327067
 40
0.3195962377
 40
0.3827990426
 40
0.5083222639
 40
0.6327140719
 40
0.6945237837
 40
0.7560701403
 40
0.81738136
 40
0.8784876953
 40
1.0
 40
1.0
 40
1.0
 40
1.0
 10
11.1814845409
 20
7.6233162859
 30
0.0
 10
11.1795075148
 20
7.6268777029
 30
0.0
 10
11.175776185
 20
7.6341180506
 30
0.0
 10
11.1708678912
 20
7.6452869504
 30
0.0
 10
11.1666763197
 20
7.6567067778
 30
0.0
 10
11.1632238678
 20
7.6683248762
 30
0.0
 10
11.1605221248
 20
7.6800911363
 30
0.0
 10
11.1579449037
 20
7.6958712273
 30
0.0
 10
11.1566351673
 20
7.7157280579
 30
0.0
 10
11.1579276457
 20
7.7355001636
 30
0.0
 10
11.1605123793
 20
7.7509947745
 30
0.0
 10
11.163211633
 20
7.7623900601
 30
0.0
 10
11.1666627801
 20
7.7735347125
 30
0.0
 10
11.1722370631
 20
7.7879599435
 30
0.0
 10
11.1775161241
 20
7.7983120632
 30
0.0
 10
11.1814845409
 20
7.804910352
 30
0.0
  0
SPLINE
  5
2BB
100
AcDbEntity
  8
0
100
AcDbSpline
 62
7
  6
CONTINUOUS
 70
0
 71
3
 72
22
 73
18
 74
0
 42
0.0000001
 43
0.0000001
 44
0.0000000001
 40
0.0
 40
0.0
 40
0.0
 40
0.0
 40
0.1225783061
 40
0.1843271989
 40
0.2463048976
 40
0.3085027642
 40
0.3709108754
 40
0.4335077155
 40
0.4962624701
 40
0.5591432843
 40
0.622115833
 40
0.6851434569
 40
0.7481951323
 40
0.8112474555
 40
0.8742753569
 40
0.9372202319
 40
1.0
 40
1.0
 40
1.0
 40
1.0
 10
11.3387496154
 20
7.5216128829
 30
0.0
 10
11.3307973468
 20
7.5221643746
 30
0.0
 10
11.3188756002
 20
7.5237809176
 30
0.0
 10
11.3032743369
 20
7.5274392899
 30
0.0
 10
11.2916936257
 20
7.5309448429
 30
0.0
 10
11.2803170161
 20
7.5351859891
 30
0.0
 10
11.26919108
 20
7.5401470916
 30
0.0
 10
11.258362553
 20
7.5458057961
 30
0.0
 10
11.2478772092
 20
7.5521372967
 30
0.0
 10
11.2377820662
 20
7.559117002
 30
0.0
 10
11.2281188604
 20
7.5667120312
 30
0.0
 10
11.2189292779
 20
7.5748905106
 30
0.0
 10
11.2102530338
 20
7.5836189549
 30
0.0
 10
11.2021247383
 20
7.5928598364
 30
0.0
 10
11.1945816889
 20
7.6025757375
 30
0.0
 10
11.1876569732
 20
7.612719493
 30
0.0
 10
11.1834660579
 20
7.6197467792
 30
0.0
 10
11.1814845409
 20
7.6233162859
 30
0.0
  0
SPLINE
  5
2BC
100
AcDbEntity
  8
0
100
AcDbSpline
 62
7
  6
CONTINUOUS
 70
0
 71
3
 72
15
 73
11
 74
0
 42
0.0000001
 43
0.0000001
 44
0.0000000001
 40
0.0
 40
0.0
 40
0.0
 40
0.0
 40
0.1389375432
 40
0.2781365294
 40
0.4159442255
 40
0.5496461298
 40
0.676135728
 40
0.7933333011
 40
0.9009506095
 40
1.0
 40
1.0
 40
1.0
 40
1.0
 10
11.0488073483
 20
7.6402279097
 30
0.0
 10
11.0539985037
 20
7.6480948714
 30
0.0
 10
11.0643422081
 20
7.663875622
 30
0.0
 10
11.0796218396
 20
7.687598197
 30
0.0
 10
11.0944675449
 20
7.711176321
 30
0.0
 10
11.1085606849
 20
7.7342071328
 30
0.0
 10
11.1215965125
 20
7.7562426291
 30
0.0
 10
11.1334003044
 20
7.7769473967
 30
0.0
 10
11.1439769338
 20
7.7962055574
 30
0.0
 10
11.1505439362
 20
7.8085930452
 30
0.0
 10
11.1536507312
 20
7.8145510625
 30
0.0
  0
SPLINE
  5
2BD
100
AcDbEntity
  8
0
100
AcDbSpline
 62
7
  6
CONTINUOUS
 70
0
 71
3
 72
23
 73
19
 74
0
 42
0.0000001
 43
0.0000001
 44
0.0000000001
 40
0.0
 40
0.0
 40
0.0
 40
0.0
 40
0.0616482049
 40
0.1233194645
 40
0.1850366601
 40
0.2468215803
 40
0.3086958874
 40
0.3706805387
 40
0.4327949852
 40
0.4950576208
 40
0.5574833124
 40
0.620084195
 40
0.682872566
 40
0.7458647459
 40
0.8090766705
 40
0.8725171946
 40
0.9361676357
 40
1.0
 40
1.0
 40
1.0
 40
1.0
 10
10.8751384326
 20
8.0381468812
 30
0.0
 10
10.8814563332
 20
8.044249733
 30
0.0
 10
10.8944251929
 20
8.0561206823
 30
0.0
 10
10.9148128133
 20
8.0728574782
 30
0.0
 10
10.9360850839
 20
8.0884885514
 30
0.0
 10
10.9581874832
 20
8.10297447
 30
0.0
 10
10.9810664809
 20
8.116275807
 30
0.0
 10
11.00466277
 20
8.1283617055
 30
0.0
 10
11.0289171069
 20
8.1392022371
 30
0.0
 10
11.0537697015
 20
8.1487665958
 30
0.0
 10
11.0791560297
 20
8.1570340049
 30
0.0
 10
11.1050116493
 20
8.1639842226
 30
0.0
 10
11.131272707
 20
8.1695965929
 30
0.0
 10
11.1578742816
 20
8.1738596777
 30
0.0
 10
11.1847517942
 20
8.1767626031
 30
0.0
 10
11.2118361774
 20
8.1782943678
 30
0.0
 10
11.2390508614
 20
8.1784564007
 30
0.0
 10
11.2572068052
 20
8.177652527
 30
0.0
 10
11.2662803425
 20
8.1770232751
 30
0.0
  0
SPLINE
  5
2BE
100
AcDbEntity
  8
0
100
AcDbSpline
 62
7
  6
CONTINUOUS
 70
0
 71
3
 72
16
 73
12
 74
0
 42
0.0000001
 43
0.0000001
 44
0.0000000001
 40
0.0
 40
0.0
 40
0.0
 40
0.0
 40
0.1246775626
 40
0.2522043928
 40
0.3819697647
 40
0.512346339
 40
0.6409165119
 40
0.7655319355
 40
0.8851986419
 40
0.9431796369
 40
1.0
 40
1.0
 40
1.0
 40
1.0
 10
11.1536507312
 20
7.4513629303
 30
0.0
 10
11.1506281563
 20
7.4598693983
 30
0.0
 10
11.1442776093
 20
7.4769943547
 30
0.0
 10
11.1337793561
 20
7.5025886032
 30
0.0
 10
11.1220434912
 20
7.5280982178
 30
0.0
 10
11.1090367073
 20
7.5530720929
 30
0.0
 10
11.0949178433
 20
7.5770033386
 30
0.0
 10
11.0800063017
 20
7.5995218593
 30
0.0
 10
11.0670782139
 20
7.6171903872
 30
0.0
 10
11.0566457283
 20
7.6305847496
 30
0.0
 10
11.0514198015
 20
7.6370496083
 30
0.0
 10
11.0488073483
 20
7.6402279097
 30
0.0
  0
SPLINE
  5
2BF
100
AcDbEntity
  8
0
100
AcDbSpline
 62
7
  6
CONTINUOUS
 70
0
 71
3
 72
13
 73
9
 74
0
 42
0.0000001
 43
0.0000001
 44
0.0000000001
 40
0.0
 40
0.0
 40
0.0
 40
0.0
 40
0.1379287965
 40
0.272663193
 40
0.5305718957
 40
0.7725714046
 40
0.8879771085
 40
1.0
 40
1.0
 40
1.0
 40
1.0
 10
11.2660215237
 20
7.4513629367
 30
0.0
 10
11.2705391468
 20
7.4510496385
 30
0.0
 10
11.2794636594
 20
7.4503373357
 30
0.0
 10
11.2967959004
 20
7.4485833888
 30
0.0
 10
11.3174558058
 20
7.4458245322
 30
0.0
 10
11.3373595208
 20
7.4423355378
 30
0.0
 10
11.3524619124
 20
7.4392576621
 30
0.0
 10
11.3597527645
 20
7.437643828
 30
0.0
 10
11.3633374971
 20
7.4368211037
 30
0.0
  0
SPLINE
  5
2C0
100
AcDbEntity
  8
0
100
AcDbSpline
 62
7
  6
CONTINUOUS
 70
0
 71
3
 72
14
 73
10
 74
0
 42
0.0000001
 43
0.0000001
 44
0.0000000001
 40
0.0
 40
0.0
 40
0.0
 40
0.0
 40
0.2489100079
 40
0.3744249398
 40
0.5003613314
 40
0.6264089266
 40
0.7521065273
 40
0.8768864172
 40
1.0
 40
1.0
 40
1.0
 40
1.0
 10
11.1536507312
 20
7.4513629303
 30
0.0
 10
11.162966783
 20
7.4518563404
 30
0.0
 10
11.1769883413
 20
7.4524665542
 30
0.0
 10
11.1957361731
 20
7.45294303
 30
0.0
 10
11.2098843046
 20
7.4531099149
 30
0.0
 10
11.2240402633
 20
7.4530599595
 30
0.0
 10
11.2381501968
 20
7.452772501
 30
0.0
 10
11.2521425044
 20
7.4522267851
 30
0.0
 10
11.2614183017
 20
7.4516821713
 30
0.0
 10
11.2660215237
 20
7.4513629367
 30
0.0
  0
SPLINE
  5
2C1
100
AcDbEntity
  8
0
100
AcDbSpline
 62
7
  6
CONTINUOUS
 70
0
 71
3
 72
66
 73
62
 74
0
 42
0.0000001
 43
0.0000001
 44
0.0000000001
 40
0.0
 40
0.0
 40
0.0
 40
0.0
 40
0.0313892319
 40
0.0471734483
 40
0.0630045494
 40
0.0947922188
 40
0.1107556328
 40
0.126758753
 40
0.1427973822
 40
0.1588672385
 40
0.174964115
 40
0.1910835842
 40
0.2072211173
 40
0.2233719516
 40
0.2395310416
 40
0.2556933588
 40
0.2718539342
 40
0.2880076864
 40
0.3041496364
 40
0.32027501
 40
0.3363790385
 40
0.3524571444
 40
0.368505122
 40
0.3845189036
 40
0.4004946911
 40
0.4164291943
 40
0.4323193802
 40
0.4481625505
 40
0.4639566204
 40
0.4796998632
 40
0.4953909309
 40
0.5110291558
 40
0.5266142955
 40
0.542146505
 40
0.5576266393
 40
0.5730560022
 40
0.5884362808
 40
0.6037698305
 40
0.619059427
 40
0.6343081765
 40
0.6495197715
 40
0.6646982401
 40
0.6798478494
 40
0.6949733256
 40
0.7100795921
 40
0.7251716853
 40
0.7402549452
 40
0.7553347395
 40
0.7704164033
 40
0.7855053917
 40
0.8006069684
 40
0.8157262041
 40
0.83086817
 40
0.8460376768
 40
0.8612392288
 40
0.8764770253
 40
0.9070640933
 40
0.9378335392
 40
0.9533006817
 40
0.9688224861
 40
1.0
 40
1.0
 40
1.0
 40
1.0
 10
11.2579981399
 20
8.1381136529
 30
0.0
 10
11.2748300192
 20
8.1369463581
 30
0.0
 10
11.3000611129
 20
8.1339462992
 30
0.0
 10
11.3333246587
 20
8.1275368775
 30
0.0
 10
11.3664523241
 20
8.1194886719
 30
0.0
 10
11.3990597669
 20
8.1090504607
 30
0.0
 10
11.4308882882
 20
8.0963242272
 30
0.0
 10
11.4543827559
 20
8.0856304667
 30
0.0
 10
11.4774043033
 20
8.0738292701
 30
0.0
 10
11.4998964358
 20
8.0609458192
 30
0.0
 10
11.5218056782
 20
8.0470134535
 30
0.0
 10
11.5430801509
 20
8.0320664353
 30
0.0
 10
11.5636669352
 20
8.0161381943
 30
0.0
 10
11.5835177143
 20
7.999268796
 30
0.0
 10
11.6025855483
 20
7.9814996412
 30
0.0
 10
11.6208223099
 20
7.9628711835
 30
0.0
 10
11.6381852948
 20
7.9434296379
 30
0.0
 10
11.6546338847
 20
7.9232226554
 30
0.0
 10
11.6701260609
 20
7.9022968971
 30
0.0
 10
11.6846256554
 20
7.8807037368
 30
0.0
 10
11.6980992217
 20
7.8584959718
 30
0.0
 10
11.7105116878
 20
7.835725448
 30
0.0
 10
11.7218341256
 20
7.8124476684
 30
0.0
 10
11.7320410427
 20
7.7887193916
 30
0.0
 10
11.7411051106
 20
7.7645965237
 30
0.0
 10
11.749005221
 20
7.7401375752
 30
0.0
 10
11.7557244105
 20
7.7154019798
 30
0.0
 10
11.7612436965
 20
7.6904484844
 30
0.0
 10
11.7655502069
 20
7.6653374346
 30
0.0
 10
11.7686358978
 20
7.6401295954
 30
0.0
 10
11.7704905666
 20
7.614885267
 30
0.0
 10
11.7711098337
 20
7.5896654276
 30
0.0
 10
11.7704947603
 20
7.564530797
 30
0.0
 10
11.7686441686
 20
7.5395418994
 30
0.0
 10
11.7655622642
 20
7.5147591346
 30
0.0
 10
11.7612591907
 20
7.4902418014
 30
0.0
 10
11.7557428469
 20
7.4660493007
 30
0.0
 10
11.7490259527
 20
7.4422402555
 30
0.0
 10
11.7411275036
 20
7.4188711995
 30
0.0
 10
11.7320643265
 20
7.3959990726
 30
0.0
 10
11.7218574224
 20
7.3736795519
 30
0.0
 10
11.7105342001
 20
7.3519651275
 30
0.0
 10
11.6981200597
 20
7.3309089781
 30
0.0
 10
11.6846438913
 20
7.3105627159
 30
0.0
 10
11.6701408903
 20
7.2909736048
 30
0.0
 10
11.6546444788
 20
7.2721898281
 30
0.0
 10
11.6381908783
 20
7.2542578786
 30
0.0
 10
11.6208222325
 20
7.2372187485
 30
0.0
 10
11.6025792088
 20
7.221114511
 30
0.0
 10
11.5835046713
 20
7.2059855882
 30
0.0
 10
11.5636468226
 20
7.1918657853
 30
0.0
 10
11.5430527222
 20
7.1787900449
 30
0.0
 10
11.5217709011
 20
7.1667918162
 30
0.0
 10
11.4998544444
 20
7.1558971509
 30
0.0
 10
11.4773547076
 20
7.1461329627
 30
0.0
 10
11.4466168029
 20
7.1346435076
 30
0.0
 10
11.4069825461
 20
7.1232196285
 30
0.0
 10
11.3662740195
 20
7.1158608627
 30
0.0
 10
11.3332436147
 20
7.1124228786
 30
0.0
 10
11.2998662952
 20
7.1106264771
 30
0.0
 10
11.2747164895
 20
7.1111409432
 30
0.0
 10
11.2579981399
 20
7.1123003646
 30
0.0
  0
SPLINE
  5
2C2
100
AcDbEntity
  8
0
100
AcDbSpline
 62
7
  6
CONTINUOUS
 70
0
 71
3
 72
48
 73
44
 74
0
 42
0.0000001
 43
0.0000001
 44
0.0000000001
 40
0.0
 40
0.0
 40
0.0
 40
0.0
 40
0.0310641289
 40
0.0466623032
 40
0.0622976282
 40
0.0779662267
 40
0.0936665963
 40
0.1093984811
 40
0.1251614885
 40
0.1567739125
 40
0.1884967449
 40
0.2043964948
 40
0.2203175331
 40
0.2522108023
 40
0.2681828666
 40
0.2841674683
 40
0.3161605366
 40
0.3481743355
 40
0.380188979
 40
0.4121843742
 40
0.4441409293
 40
0.4760396708
 40
0.5078625487
 40
0.5395930816
 40
0.5712161079
 40
0.6027188151
 40
0.6184237047
 40
0.6340946027
 40
0.6653263084
 40
0.6808901082
 40
0.6964169838
 40
0.7273545292
 40
0.7427697494
 40
0.7581479226
 40
0.7887904552
 40
0.8192923625
 40
0.834495533
 40
0.8496669669
 40
0.8799154749
 40
0.9100562917
 40
0.9401052937
 40
0.9700800588
 40
1.0
 40
1.0
 40
1.0
 40
1.0
 10
11.2662803425
 20
8.1770232751
 30
0.0
 10
11.2789150179
 20
8.1761470574
 30
0.0
 10
11.2978564379
 20
8.1741694566
 30
0.0
 10
11.3229531044
 20
8.1702407302
 30
0.0
 10
11.3417375066
 20
8.1666405458
 30
0.0
 10
11.3604287125
 20
8.1623940507
 30
0.0
 10
11.3790035071
 20
8.157507055
 30
0.0
 10
11.3974402448
 20
8.1519864071
 30
0.0
 10
11.4218308216
 20
8.1437827599
 30
0.0
 10
11.4518661492
 20
8.1319713282
 30
0.0
 10
11.481103136
 20
8.118173212
 30
0.0
 10
11.5039616175
 20
8.105971406
 30
0.0
 10
11.5264658532
 20
8.0929892696
 30
0.0
 10
11.5483449671
 20
8.0788907713
 30
0.0
 10
11.5695149257
 20
8.0637353382
 30
0.0
 10
11.5902117827
 20
8.0478722722
 30
0.0
 10
11.6151167037
 20
8.0267778344
 30
0.0
 10
11.6433052612
 20
7.9995727123
 30
0.0
 10
11.6696694245
 20
7.9705938153
 30
0.0
 10
11.694085713
 20
7.9399857697
 30
0.0
 10
11.7164307311
 20
7.9078918443
 30
0.0
 10
11.7366027668
 20
7.8744714167
 30
0.0
 10
11.7544975372
 20
7.8398818346
 30
0.0
 10
11.7700351771
 20
7.8042934174
 30
0.0
 10
11.7831340578
 20
7.7678762146
 30
0.0
 10
11.7919787177
 20
7.7369503019
 30
0.0
 10
11.7977746333
 20
7.7119737161
 30
0.0
 10
11.8027005487
 20
7.6869241829
 30
0.0
 10
11.8063420336
 20
7.6616942686
 30
0.0
 10
11.8086743634
 20
7.6363882042
 30
0.0
 10
11.8101260703
 20
7.611136615
 30
0.0
 10
11.8102679198
 20
7.5858841987
 30
0.0
 10
11.8090905026
 20
7.5607395591
 30
0.0
 10
11.8070401811
 20
7.5357712268
 30
0.0
 10
11.8028444884
 20
7.504828103
 30
0.0
 10
11.7964742845
 20
7.4743306316
 30
0.0
 10
11.7900939153
 20
7.4503401154
 30
0.0
 10
11.7828836673
 20
7.426694032
 30
0.0
 10
11.772304576
 20
7.3977294196
 30
0.0
 10
11.7571451814
 20
7.3640823791
 30
0.0
 10
11.739612108
 20
7.3317338232
 30
0.0
 10
11.7197851501
 20
7.3008475575
 30
0.0
 10
11.7050914193
 20
7.2813103938
 30
0.0
 10
11.697401316
 20
7.271841157
 30
0.0
  0
SPLINE
  5
2C3
100
AcDbEntity
  8
0
100
AcDbSpline
 62
7
  6
CONTINUOUS
 70
0
 71
3
 72
55
 73
51
 74
0
 42
0.0000001
 43
0.0000001
 44
0.0000000001
 40
0.0
 40
0.0
 40
0.0
 40
0.0
 40
0.0311423829
 40
0.0624377778
 40
0.093880312
 40
0.125460263
 40
0.1571654449
 40
0.188981101
 40
0.2208902864
 40
0.2528742194
 40
0.2849126594
 40
0.3169843077
 40
0.3490672249
 40
0.3811392539
 40
0.4131784475
 40
0.4451634934
 40
0.4770741292
 40
0.5088915435
 40
0.5247623142
 40
0.5406035882
 40
0.5564135909
 40
0.5721906992
 40
0.587933461
 40
0.6036405973
 40
0.6193110081
 40
0.6349437882
 40
0.6505382227
 40
0.666093798
 40
0.6816102083
 40
0.6970873494
 40
0.7125253318
 40
0.7279244759
 40
0.7432853089
 40
0.7586085732
 40
0.7738952136
 40
0.7891463785
 40
0.8043634177
 40
0.8195478679
 40
0.8347014538
 40
0.8498260762
 40
0.8649237983
 40
0.8799968426
 40
0.8950475728
 40
0.9100784807
 40
0.925092178
 40
0.940091374
 40
0.9550788642
 40
0.9700575152
 40
0.9850302429
 40
1.0
 40
1.0
 40
1.0
 40
1.0
 10
11.3092442686
 20
8.3238091646
 30
0.0
 10
11.3250947276
 20
8.3227099315
 30
0.0
 10
11.3568048594
 20
8.3193458773
 30
0.0
 10
11.4039856099
 20
8.3108717133
 30
0.0
 10
11.4506610107
 20
8.2990019997
 30
0.0
 10
11.4965789954
 20
8.2838005136
 30
0.0
 10
11.54149559
 20
8.2653487031
 30
0.0
 10
11.5851712125
 20
8.24374532
 30
0.0
 10
11.6273732057
 20
8.2191058166
 30
0.0
 10
11.6678766821
 20
8.1915617291
 30
0.0
 10
11.7064658193
 20
8.1612600079
 30
0.0
 10
11.7429350281
 20
8.1283623017
 30
0.0
 10
11.7770899686
 20
8.0930440141
 30
0.0
 10
11.8087485833
 20
8.0554933436
 30
0.0
 10
11.8377420238
 20
8.0159104965
 30
0.0
 10
11.8639158369
 20
7.9745060229
 30
0.0
 10
11.8871298047
 20
7.9315020116
 30
0.0
 10
11.90392127
 20
7.8944864662
 30
0.0
 10
11.9157544615
 20
7.8643058654
 30
0.0
 10
11.9238132274
 20
7.841433604
 30
0.0
 10
11.9310513616
 20
7.8183389011
 30
0.0
 10
11.9374592361
 20
7.795052209
 30
0.0
 10
11.9430283656
 20
7.7716047383
 30
0.0
 10
11.9477512588
 20
7.7480277468
 30
0.0
 10
11.9516215454
 20
7.7243527087
 30
0.0
 10
11.9546341639
 20
7.7006112462
 30
0.0
 10
11.9567849552
 20
7.6768350382
 30
0.0
 10
11.9580710806
 20
7.6530558368
 30
0.0
 10
11.9584908624
 20
7.6293053907
 30
0.0
 10
11.9580435909
 20
7.6056154114
 30
0.0
 10
11.9567299705
 20
7.5820175332
 30
0.0
 10
11.9545516986
 20
7.5585432664
 30
0.0
 10
11.9515115975
 20
7.5352239711
 30
0.0
 10
11.9476138396
 20
7.5120907749
 30
0.0
 10
11.9428634992
 20
7.4891745925
 30
0.0
 10
11.9372669334
 20
7.4665060332
 30
0.0
 10
11.9308316726
 20
7.4441153573
 30
0.0
 10
11.9235661631
 20
7.4220325165
 30
0.0
 10
11.9154802051
 20
7.4002869815
 30
0.0
 10
11.9065845666
 20
7.3789078084
 30
0.0
 10
11.8968910363
 20
7.3579236016
 30
0.0
 10
11.8864126776
 20
7.3373623434
 30
0.0
 10
11.8751633848
 20
7.3172515543
 30
0.0
 10
11.8631581863
 20
7.2976181099
 30
0.0
 10
11.8504131931
 20
7.2784881984
 30
0.0
 10
11.8369453035
 20
7.2598874576
 30
0.0
 10
11.8227726151
 20
7.2418407135
 30
0.0
 10
11.8079139746
 20
7.2243719891
 30
0.0
 10
11.792389475
 20
7.2075050347
 30
0.0
 10
11.7816086477
 20
7.1966753556
 30
0.0
 10
11.7761154081
 20
7.1913692754
 30
0.0
  0
SPLINE
  5
2C4
100
AcDbEntity
  8
0
100
AcDbSpline
 62
7
  6
CONTINUOUS
 70
0
 71
3
 72
60
 73
56
 74
0
 42
0.0000001
 43
0.0000001
 44
0.0000000001
 40
0.0
 40
0.0
 40
0.0
 40
0.0
 40
0.0417736946
 40
0.084036273
 40
0.1266574884
 40
0.1695051326
 40
0.2124463996
 40
0.2553480056
 40
0.2980768578
 40
0.340500534
 40
0.3824878216
 40
0.423909243
 40
0.4646375902
 40
0.5045484653
 40
0.5435208314
 40
0.5814375809
 40
0.5999649312
 40
0.618186568
 40
0.6360891978
 40
0.6536599534
 40
0.6708862834
 40
0.6877561191
 40
0.7042577531
 40
0.72038001
 40
0.7361121415
 40
0.751443978
 40
0.7663658649
 40
0.7808687762
 40
0.7949443138
 40
0.8085847706
 40
0.8217832093
 40
0.8345334736
 40
0.8468303542
 40
0.8586695603
 40
0.8700479747
 40
0.8809636125
 40
0.8914159615
 40
0.9014059734
 40
0.910936483
 40
0.9200122954
 40
0.9286406842
 40
0.9368316446
 40
0.9445984841
 40
0.9519582967
 40
0.958932651
 40
0.9655482683
 40
0.9718377143
 40
0.9778400536
 40
0.9836011758
 40
0.9864084793
 40
0.9891757987
 40
0.9919106634
 40
0.9946209114
 40
0.9973146136
 40
1.0
 40
1.0
 40
1.0
 40
1.0
 10
13.7347217867
 20
8.141538558
 30
0.0
 10
13.7347217867
 20
8.1579557392
 30
0.0
 10
13.7349779118
 20
8.1909827503
 30
0.0
 10
13.7361101978
 20
8.2407483529
 30
0.0
 10
13.7379895109
 20
8.2909137897
 30
0.0
 10
13.7406096949
 20
8.3413130171
 30
0.0
 10
13.7439620882
 20
8.3917792758
 30
0.0
 10
13.7480356109
 20
8.4421456153
 30
0.0
 10
13.7528167684
 20
8.4922454001
 30
0.0
 10
13.7582897113
 20
8.541912889
 30
0.0
 10
13.7644362815
 20
8.590983778
 30
0.0
 10
13.7712360731
 20
8.6392957548
 30
0.0
 10
13.7786665006
 20
8.6866890242
 30
0.0
 10
13.7867028634
 20
8.7330069029
 30
0.0
 10
13.795318458
 20
8.778096129
 30
0.0
 10
13.8030148162
 20
8.8147991672
 30
0.0
 10
13.8094486786
 20
8.8434293913
 30
0.0
 10
13.8143634692
 20
8.8643381349
 30
0.0
 10
13.8194006816
 20
8.8848307959
 30
0.0
 10
13.8245560941
 20
8.9048904443
 30
0.0
 10
13.8298254972
 20
8.9245004824
 30
0.0
 10
13.8352044506
 20
8.9436447014
 30
0.0
 10
13.8406885639
 20
8.9623072685
 30
0.0
 10
13.8462732234
 20
8.9804727641
 30
0.0
 10
13.8519538563
 20
8.9981261713
 30
0.0
 10
13.8577257031
 20
9.0152529125
 30
0.0
 10
13.8635840146
 20
9.03183884
 30
0.0
 10
13.8695239107
 20
9.0478702671
 30
0.0
 10
13.8755404758
 20
9.0633339675
 30
0.0
 10
13.8816287333
 20
9.0782171917
 30
0.0
 10
13.8877836158
 20
9.0925076862
 30
0.0
 10
13.8940000734
 20
9.1061936826
 30
0.0
 10
13.9002729089
 20
9.1192639498
 30
0.0
 10
13.9065970212
 20
9.1317077433
 30
0.0
 10
13.9129671161
 20
9.1435149017
 30
0.0
 10
13.9193780657
 20
9.1546757461
 30
0.0
 10
13.9258245264
 20
9.165181227
 30
0.0
 10
13.9323013744
 20
9.1750227711
 30
0.0
 10
13.9388032885
 20
9.1841924708
 30
0.0
 10
13.9453251968
 20
9.1926828885
 30
0.0
 10
13.9518619011
 20
9.2004872595
 30
0.0
 10
13.9584084608
 20
9.2075992774
 30
0.0
 10
13.9649599301
 20
9.2140132518
 30
0.0
 10
13.9715116007
 20
9.2197239078
 30
0.0
 10
13.9780588984
 20
9.2247264119
 30
0.0
 10
13.9845973355
 20
9.2290162273
 30
0.0
 10
13.9911227323
 20
9.2325889607
 30
0.0
 10
13.9976299753
 20
9.2354402843
 30
0.0
 10
14.0030815795
 20
9.2372270228
 30
0.0
 10
14.007412425
 20
9.2382789287
 30
0.0
 10
14.010624069
 20
9.2388794509
 30
0.0
 10
14.013825987
 20
9.23929791
 30
0.0
 10
14.0170175563
 20
9.2395342271
 30
0.0
 10
14.020197876
 20
9.23958834
 30
0.0
 10
14.0223115253
 20
9.2395028449
 30
0.0
 10
14.0233643611
 20
9.2394298302
 30
0.0
  0
SPLINE
  5
2C5
100
AcDbEntity
  8
0
100
AcDbSpline
 62
7
  6
CONTINUOUS
 70
0
 71
3
 72
60
 73
56
 74
0
 42
0.0000001
 43
0.0000001
 44
0.0000000001
 40
0.0
 40
0.0
 40
0.0
 40
0.0
 40
0.0417736946
 40
0.084036273
 40
0.1266574884
 40
0.1695051326
 40
0.2124463996
 40
0.2553480056
 40
0.2980768578
 40
0.340500534
 40
0.3824878216
 40
0.423909243
 40
0.4646375902
 40
0.5045484653
 40
0.5435208314
 40
0.5814375809
 40
0.5999649312
 40
0.618186568
 40
0.6360891978
 40
0.6536599534
 40
0.6708862834
 40
0.6877561191
 40
0.7042577531
 40
0.72038001
 40
0.7361121415
 40
0.751443978
 40
0.7663658649
 40
0.7808687762
 40
0.7949443138
 40
0.8085847706
 40
0.8217832093
 40
0.8345334736
 40
0.8468303542
 40
0.8586695603
 40
0.8700479747
 40
0.8809636125
 40
0.8914159615
 40
0.9014059734
 40
0.910936483
 40
0.9200122954
 40
0.9286406842
 40
0.9368316446
 40
0.9445984841
 40
0.9519582967
 40
0.958932651
 40
0.9655482683
 40
0.9718377143
 40
0.9778400536
 40
0.9836011758
 40
0.9864084793
 40
0.9891757987
 40
0.9919106634
 40
0.9946209114
 40
0.9973146136
 40
1.0
 40
1.0
 40
1.0
 40
1.0
 10
13.1363327006
 20
7.5635390513
 30
0.0
 10
13.1363327006
 20
7.5799562325
 30
0.0
 10
13.1365888256
 20
7.6129832436
 30
0.0
 10
13.1377211117
 20
7.6627488462
 30
0.0
 10
13.1396004248
 20
7.712914283
 30
0.0
 10
13.1422206088
 20
7.7633135104
 30
0.0
 10
13.1455730021
 20
7.8137797691
 30
0.0
 10
13.1496465248
 20
7.8641461086
 30
0.0
 10
13.1544276823
 20
7.9142458934
 30
0.0
 10
13.1599006252
 20
7.9639133823
 30
0.0
 10
13.1660471954
 20
8.0129842713
 30
0.0
 10
13.172846987
 20
8.0612962481
 30
0.0
 10
13.1802774144
 20
8.1086895175
 30
0.0
 10
13.1883137773
 20
8.1550073962
 30
0.0
 10
13.1969293719
 20
8.2000966223
 30
0.0
 10
13.20462573
 20
8.2367996605
 30
0.0
 10
13.2110595925
 20
8.2654298846
 30
0.0
 10
13.2159743831
 20
8.2863386282
 30
0.0
 10
13.2210115955
 20
8.3068312892
 30
0.0
 10
13.226167008
 20
8.3268909376
 30
0.0
 10
13.2314364111
 20
8.3465009757
 30
0.0
 10
13.2368153645
 20
8.3656451947
 30
0.0
 10
13.2422994778
 20
8.3843077618
 30
0.0
 10
13.2478841373
 20
8.4024732574
 30
0.0
 10
13.2535647702
 20
8.4201266646
 30
0.0
 10
13.259336617
 20
8.4372534058
 30
0.0
 10
13.2651949285
 20
8.4538393333
 30
0.0
 10
13.2711348246
 20
8.4698707604
 30
0.0
 10
13.2771513897
 20
8.4853344608
 30
0.0
 10
13.2832396472
 20
8.500217685
 30
0.0
 10
13.2893945297
 20
8.5145081795
 30
0.0
 10
13.2956109872
 20
8.5281941759
 30
0.0
 10
13.3018838227
 20
8.5412644431
 30
0.0
 10
13.3082079351
 20
8.5537082366
 30
0.0
 10
13.31457803
 20
8.565515395
 30
0.0
 10
13.3209889796
 20
8.5766762394
 30
0.0
 10
13.3274354403
 20
8.5871817203
 30
0.0
 10
13.3339122883
 20
8.5970232644
 30
0.0
 10
13.3404142024
 20
8.6061929641
 30
0.0
 10
13.3469361107
 20
8.6146833818
 30
0.0
 10
13.3534728149
 20
8.6224877528
 30
0.0
 10
13.3600193747
 20
8.6295997707
 30
0.0
 10
13.366570844
 20
8.6360137451
 30
0.0
 10
13.3731225146
 20
8.6417244011
 30
0.0
 10
13.3796698123
 20
8.6467269052
 30
0.0
 10
13.3862082494
 20
8.6510167207
 30
0.0
 10
13.3927336462
 20
8.654589454
 30
0.0
 10
13.3992408892
 20
8.6574407776
 30
0.0
 10
13.4046924933
 20
8.6592275161
 30
0.0
 10
13.4090233389
 20
8.660279422
 30
0.0
 10
13.4122349828
 20
8.6608799442
 30
0.0
 10
13.4154369009
 20
8.6612984033
 30
0.0
 10
13.4186284701
 20
8.6615347204
 30
0.0
 10
13.4218087899
 20
8.6615888333
 30
0.0
 10
13.4239224392
 20
8.6615033382
 30
0.0
 10
13.424975275
 20
8.6614303236
 30
0.0
  0
SPLINE
  5
2C6
100
AcDbEntity
  8
0
100
AcDbSpline
 62
7
  6
CONTINUOUS
 70
0
 71
3
 72
52
 73
48
 74
0
 42
0.0000001
 43
0.0000001
 44
0.0000000001
 40
0.0
 40
0.0
 40
0.0
 40
0.0
 40
0.0417978167
 40
0.0840615308
 40
0.1266599452
 40
0.1694647093
 40
0.2123442471
 40
0.2551676124
 40
0.2978038023
 40
0.340122612
 40
0.381995097
 40
0.4232940911
 40
0.4638947378
 40
0.5036750193
 40
0.5425163039
 40
0.5803039261
 40
0.6169277796
 40
0.6522829323
 40
0.686270301
 40
0.7187974019
 40
0.7497792075
 40
0.7646667639
 40
0.7791400971
 40
0.7931911326
 40
0.8068125303
 40
0.8199977802
 40
0.8327410449
 40
0.8450376044
 40
0.8568835364
 40
0.868276178
 40
0.8792140523
 40
0.8896970245
 40
0.8997266904
 40
0.9093062438
 40
0.9184411643
 40
0.9271391635
 40
0.9354108014
 40
0.9432698937
 40
0.9507338843
 40
0.9578247196
 40
0.9645691193
 40
0.9709994962
 40
0.9771542504
 40
0.983078108
 40
0.9888220398
 40
0.9944424548
 40
1.0
 40
1.0
 40
1.0
 40
1.0
 10
9.2873642855
 20
10.3031281887
 30
0.0
 10
9.2937491766
 20
10.302685395
 30
0.0
 10
9.3065974196
 20
10.3018969518
 30
0.0
 10
9.3259723154
 20
10.3010070793
 30
0.0
 10
9.3455125909
 20
10.3004052557
 30
0.0
 10
9.3651539294
 20
10.3000934122
 30
0.0
 10
9.3848321776
 20
10.3000726166
 30
0.0
 10
9.404482767
 20
10.3003429187
 30
0.0
 10
9.4240413343
 20
10.3009034385
 30
0.0
 10
9.443443785
 20
10.3017523209
 30
0.0
 10
9.4626265495
 20
10.3028867609
 30
0.0
 10
9.4815267828
 20
10.3043030116
 30
0.0
 10
9.5000825721
 20
10.3059963955
 30
0.0
 10
9.5182331411
 20
10.3079613191
 30
0.0
 10
9.5359190534
 20
10.3101912919
 30
0.0
 10
9.5530824134
 20
10.31267894
 30
0.0
 10
9.5696670673
 20
10.3154160306
 30
0.0
 10
9.5856187748
 20
10.3183935063
 30
0.0
 10
9.6008854513
 20
10.3216015031
 30
0.0
 10
9.6154171496
 20
10.325029418
 30
0.0
 10
9.6270242175
 20
10.3280991407
 30
0.0
 10
9.6359014425
 20
10.330663556
 30
0.0
 10
9.6422580561
 20
10.332609109
 30
0.0
 10
9.6483968437
 20
10.3346008718
 30
0.0
 10
9.6543127967
 20
10.336637242
 30
0.0
 10
9.6600010962
 20
10.3387164967
 30
0.0
 10
9.6654570913
 20
10.3408370052
 30
0.0
 10
9.6706763588
 20
10.3429969516
 30
0.0
 10
9.6756546423
 20
10.345194638
 30
0.0
 10
9.6803879116
 20
10.3474282375
 30
0.0
 10
9.6848723412
 20
10.3496959306
 30
0.0
 10
9.689104292
 20
10.351995934
 30
0.0
 10
9.6930803931
 20
10.35432632
 30
0.0
 10
9.696797415
 20
10.3566853308
 30
0.0
 10
9.7002524279
 20
10.3590710278
 30
0.0
 10
9.7034426562
 20
10.3614816176
 30
0.0
 10
9.7063655548
 20
10.3639152707
 30
0.0
 10
9.7090188229
 20
10.3663701448
 30
0.0
 10
9.7114002317
 20
10.3688445681
 30
0.0
 10
9.7135078759
 20
10.3713367222
 30
0.0
 10
9.715339783
 20
10.3738450177
 30
0.0
 10
9.716894214
 20
10.3763677077
 30
0.0
 10
9.7181693985
 20
10.3789030753
 30
0.0
 10
9.7191635524
 20
10.3814492009
 30
0.0
 10
9.719875173
 20
10.3840039742
 30
0.0
 10
9.7203027011
 20
10.3865644817
 30
0.0
 10
9.7203979656
 20
10.38827757
 30
0.0
 10
9.7203979575
 20
10.3891285606
 30
0.0
  0
SPLINE
  5
2C7
100
AcDbEntity
  8
0
100
AcDbSpline
 62
7
  6
CONTINUOUS
 70
0
 71
3
 72
52
 73
48
 74
0
 42
0.0000001
 43
0.0000001
 44
0.0000000001
 40
0.0
 40
0.0
 40
0.0
 40
0.0
 40
0.0417978167
 40
0.0840615308
 40
0.1266599452
 40
0.1694647093
 40
0.2123442471
 40
0.2551676124
 40
0.2978038023
 40
0.340122612
 40
0.381995097
 40
0.4232940911
 40
0.4638947378
 40
0.5036750193
 40
0.5425163039
 40
0.5803039261
 40
0.6169277796
 40
0.6522829323
 40
0.686270301
 40
0.7187974019
 40
0.7497792075
 40
0.7646667639
 40
0.7791400971
 40
0.7931911326
 40
0.8068125303
 40
0.8199977802
 40
0.8327410449
 40
0.8450376044
 40
0.8568835364
 40
0.868276178
 40
0.8792140523
 40
0.8896970245
 40
0.8997266904
 40
0.9093062438
 40
0.9184411643
 40
0.9271391635
 40
0.9354108014
 40
0.9432698937
 40
0.9507338843
 40
0.9578247196
 40
0.9645691193
 40
0.9709994962
 40
0.9771542504
 40
0.983078108
 40
0.9888220398
 40
0.9944424548
 40
1.0
 40
1.0
 40
1.0
 40
1.0
 10
8.1879018672
 20
9.2411289809
 30
0.0
 10
8.1942867582
 20
9.2406861872
 30
0.0
 10
8.2071350013
 20
9.239897744
 30
0.0
 10
8.226509897
 20
9.2390078715
 30
0.0
 10
8.2460501726
 20
9.2384060479
 30
0.0
 10
8.2656915111
 20
9.2380942044
 30
0.0
 10
8.2853697593
 20
9.2380734088
 30
0.0
 10
8.3050203486
 20
9.2383437109
 30
0.0
 10
8.3245789159
 20
9.2389042307
 30
0.0
 10
8.3439813667
 20
9.2397531131
 30
0.0
 10
8.3631641312
 20
9.2408875531
 30
0.0
 10
8.3820643645
 20
9.2423038038
 30
0.0
 10
8.4006201538
 20
9.2439971877
 30
0.0
 10
8.4187707228
 20
9.2459621113
 30
0.0
 10
8.436456635
 20
9.2481920841
 30
0.0
 10
8.4536199951
 20
9.2506797322
 30
0.0
 10
8.470204649
 20
9.2534168228
 30
0.0
 10
8.4861563564
 20
9.2563942985
 30
0.0
 10
8.501423033
 20
9.2596022953
 30
0.0
 10
8.5159547313
 20
9.2630302102
 30
0.0
 10
8.5275617992
 20
9.2660999329
 30
0.0
 10
8.5364390242
 20
9.2686643482
 30
0.0
 10
8.5427956378
 20
9.2706099012
 30
0.0
 10
8.5489344254
 20
9.272601664
 30
0.0
 10
8.5548503784
 20
9.2746380342
 30
0.0
 10
8.5605386778
 20
9.2767172889
 30
0.0
 10
8.5659946729
 20
9.2788377974
 30
0.0
 10
8.5712139405
 20
9.2809977438
 30
0.0
 10
8.576192224
 20
9.2831954302
 30
0.0
 10
8.5809254933
 20
9.2854290297
 30
0.0
 10
8.5854099229
 20
9.2876967228
 30
0.0
 10
8.5896418737
 20
9.2899967262
 30
0.0
 10
8.5936179747
 20
9.2923271122
 30
0.0
 10
8.5973349967
 20
9.294686123
 30
0.0
 10
8.6007900096
 20
9.29707182
 30
0.0
 10
8.6039802379
 20
9.2994824097
 30
0.0
 10
8.6069031364
 20
9.3019160629
 30
0.0
 10
8.6095564045
 20
9.304370937
 30
0.0
 10
8.6119378133
 20
9.3068453603
 30
0.0
 10
8.6140454575
 20
9.3093375143
 30
0.0
 10
8.6158773647
 20
9.3118458099
 30
0.0
 10
8.6174317956
 20
9.3143684999
 30
0.0
 10
8.6187069802
 20
9.3169038675
 30
0.0
 10
8.6197011341
 20
9.3194499931
 30
0.0
 10
8.6204127546
 20
9.3220047664
 30
0.0
 10
8.6208402828
 20
9.3245652738
 30
0.0
 10
8.6209355473
 20
9.3262783622
 30
0.0
 10
8.6209355392
 20
9.3271293528
 30
0.0
  0
SPLINE
  5
2C8
100
AcDbEntity
  8
0
100
AcDbSpline
 62
7
  6
CONTINUOUS
 70
0
 71
3
 72
26
 73
22
 74
0
 42
0.0000001
 43
0.0000001
 44
0.0000000001
 40
0.0
 40
0.0
 40
0.0
 40
0.0
 40
0.0616472485
 40
0.1233175239
 40
0.1850335958
 40
0.2468177229
 40
0.3086914072
 40
0.3706751586
 40
0.4327882739
 40
0.4950486325
 40
0.5574725132
 40
0.6200744243
 40
0.6514488025
 40
0.6828722567
 40
0.7143460244
 40
0.7458712251
 40
0.8090747671
 40
0.872494008
 40
0.9042883495
 40
0.9361389233
 40
1.0
 40
1.0
 40
1.0
 40
1.0
 10
9.1612975316
 20
8.4210223416
 30
0.0
 10
9.1709597299
 20
8.4303553002
 30
0.0
 10
9.1907939594
 20
8.4485086863
 30
0.0
 10
9.221971805
 20
8.4741056457
 30
0.0
 10
9.2545035191
 20
8.4980106826
 30
0.0
 10
9.288306017
 20
8.520162525
 30
0.0
 10
9.3232943974
 20
8.5405056873
 30
0.0
 10
9.3593804166
 20
8.5589888963
 30
0.0
 10
9.3964731057
 20
8.5755656709
 30
0.0
 10
9.4344791795
 20
8.5901943657
 30
0.0
 10
9.4733021832
 20
8.6028380946
 30
0.0
 10
9.5062319123
 20
8.6116878417
 30
0.0
 10
9.5328801691
 20
8.617747336
 30
0.0
 10
9.5530252945
 20
8.6217821429
 30
0.0
 10
9.5733002467
 20
8.6253009888
 30
0.0
 10
9.6005107281
 20
8.6293048535
 30
0.0
 10
9.6347897158
 20
8.6330066447
 30
0.0
 10
9.6692709635
 20
8.6349599374
 30
0.0
 10
9.6969575242
 20
8.6354763221
 30
0.0
 10
9.7247440055
 20
8.6352936235
 30
0.0
 10
9.745591655
 20
8.6343691199
 30
0.0
 10
9.7594743505
 20
8.6334063517
 30
0.0
  0
SPLINE
  5
2C9
100
AcDbEntity
  8
0
100
AcDbSpline
 62
7
  6
CONTINUOUS
 70
0
 71
3
 72
67
 73
63
 74
0
 42
0.0000001
 43
0.0000001
 44
0.0000000001
 40
0.0
 40
0.0
 40
0.0
 40
0.0
 40
0.0149688907
 40
0.0299407519
 40
0.044918535
 40
0.0599051571
 40
0.0749034842
 40
0.0899163111
 40
0.1049463479
 40
0.1199962052
 40
0.1350683756
 40
0.1501652221
 40
0.1652889668
 40
0.1804416742
 40
0.1956252431
 40
0.210841399
 40
0.2260916799
 40
0.2413774323
 40
0.2566998075
 40
0.2720597503
 40
0.2874579993
 40
0.3028950866
 40
0.3183713304
 40
0.3338868388
 40
0.3494415129
 40
0.3650350428
 40
0.380666915
 40
0.3963364184
 40
0.4120426432
 40
0.4277844918
 40
0.4435606865
 40
0.4593697719
 40
0.4752101279
 40
0.4910799792
 40
0.5069774001
 40
0.5229003299
 40
0.538846583
 40
0.5548138562
 40
0.5707997452
 40
0.5868017558
 40
0.6188390944
 40
0.650909267
 40
0.6829903275
 40
0.7150601199
 40
0.7310862538
 40
0.7471013881
 40
0.7631028868
 40
0.7790881776
 40
0.7950547675
 40
0.8110002567
 40
0.826922346
 40
0.8428188528
 40
0.8586877217
 40
0.8745270316
 40
0.8903350148
 40
0.9061100505
 40
0.9218506867
 40
0.9375557005
 40
0.9532238978
 40
0.9688543336
 40
0.9844470081
 40
1.0
 40
1.0
 40
1.0
 40
1.0
 10
10.3576511695
 20
7.1824659904
 30
0.0
 10
10.3646894068
 20
7.1892643996
 30
0.0
 10
10.3785024482
 20
7.203139857
 30
0.0
 10
10.398393276
 20
7.2247506392
 30
0.0
 10
10.4174310127
 20
7.2471324034
 30
0.0
 10
10.435589883
 20
7.2702547545
 30
0.0
 10
10.4528456911
 20
7.2940869461
 30
0.0
 10
10.469175326
 20
7.3185971152
 30
0.0
 10
10.4845570722
 20
7.3437524571
 30
0.0
 10
10.4989703277
 20
7.369519392
 30
0.0
 10
10.5123958229
 20
7.3958634956
 30
0.0
 10
10.5248157247
 20
7.4227495194
 30
0.0
 10
10.536213389
 20
7.4501415712
 30
0.0
 10
10.5465735876
 20
7.4780030531
 30
0.0
 10
10.5558825903
 20
7.5062967068
 30
0.0
 10
10.5641279065
 20
7.5349847586
 30
0.0
 10
10.5712985321
 20
7.5640288812
 30
0.0
 10
10.5773850006
 20
7.5933902556
 30
0.0
 10
10.5823791234
 20
7.6230296809
 30
0.0
 10
10.5862742496
 20
7.6529075644
 30
0.0
 10
10.5890652873
 20
7.6829839922
 30
0.0
 10
10.5907484449
 20
7.7132188073
 30
0.0
 10
10.5913215026
 20
7.743571629
 30
0.0
 10
10.5907838002
 20
7.7740019269
 30
0.0
 10
10.589135987
 20
7.804469069
 30
0.0
 10
10.5863802979
 20
7.8349323727
 30
0.0
 10
10.5825205099
 20
7.8653511759
 30
0.0
 10
10.5775617036
 20
7.8956848577
 30
0.0
 10
10.5715105393
 20
7.9258929227
 30
0.0
 10
10.564375184
 20
7.9559350623
 30
0.0
 10
10.5561650875
 20
7.9857711529
 30
0.0
 10
10.5468912535
 20
8.0153613723
 30
0.0
 10
10.5365661402
 20
8.0446662466
 30
0.0
 10
10.5252034526
 20
8.0736466289
 30
0.0
 10
10.5128184033
 20
8.1022638496
 30
0.0
 10
10.499427597
 20
8.1304797334
 30
0.0
 10
10.4850488081
 20
8.1582566059
 30
0.0
 10
10.4697013547
 20
8.1855573095
 30
0.0
 10
10.4534054894
 20
8.2123458144
 30
0.0
 10
10.4304360535
 20
8.2473425457
 30
0.0
 10
10.3994644238
 20
8.2896266933
 30
0.0
 10
10.3589022055
 20
8.3377377344
 30
0.0
 10
10.3151419659
 20
8.382988952
 30
0.0
 10
10.2761904792
 20
8.4181255643
 30
0.0
 10
10.2436686796
 20
8.4445716562
 30
0.0
 10
10.2186336556
 20
8.4635458206
 30
0.0
 10
10.1929858367
 20
8.4816361946
 30
0.0
 10
10.1667590478
 20
8.4988188662
 30
0.0
 10
10.1399884277
 20
8.5150708656
 30
0.0
 10
10.1127096921
 20
8.5303705411
 30
0.0
 10
10.0849592059
 20
8.5446973652
 30
0.0
 10
10.0567740434
 20
8.5580322731
 30
0.0
 10
10.0281918297
 20
8.5703574751
 30
0.0
 10
9.9992506729
 20
8.5816564131
 30
0.0
 10
9.9699892359
 20
8.5919140622
 30
0.0
 10
9.9404465826
 20
8.6011167347
 30
0.0
 10
9.9106620975
 20
8.6092520472
 30
0.0
 10
9.8806755803
 20
8.6163091595
 30
0.0
 10
9.8505271716
 20
8.6222786782
 30
0.0
 10
9.8202565979
 20
8.6271526219
 30
0.0
 10
9.789905277
 20
8.6309242247
 30
0.0
 10
9.7696172834
 20
8.6327029369
 30
0.0
 10
9.7594743505
 20
8.6334063517
 30
0.0
  0
SPLINE
  5
2CA
100
AcDbEntity
  8
0
100
AcDbSpline
 62
7
  6
CONTINUOUS
 70
0
 71
3
 72
28
 73
24
 74
0
 42
0.0000001
 43
0.0000001
 44
0.0000000001
 40
0.0
 40
0.0
 40
0.0
 40
0.0
 40
0.0616465572
 40
0.0924798212
 40
0.1233217026
 40
0.1850370795
 40
0.2468205085
 40
0.2777472544
 40
0.3086990012
 40
0.3396782733
 40
0.3706875295
 40
0.43279994
 40
0.4950595942
 40
0.5574827697
 40
0.6200839761
 40
0.6828758318
 40
0.71434923
 40
0.7458740756
 40
0.8090769614
 40
0.8724953205
 40
0.9042893743
 40
0.9361398561
 40
1.0
 40
1.0
 40
1.0
 40
1.0
 10
10.842373129
 20
8.1580446663
 30
0.0
 10
10.849914371
 20
8.1653289717
 30
0.0
 10
10.8615245027
 20
8.1759552702
 30
0.0
 10
10.8775564437
 20
8.1894823373
 30
0.0
 10
10.8939553696
 20
8.2025816958
 30
0.0
 10
10.9151192984
 20
8.2181335761
 30
0.0
 10
10.93709826
 20
8.2325370178
 30
0.0
 10
10.9551393123
 20
8.2433522189
 30
0.0
 10
10.9688985729
 20
8.2511091003
 30
0.0
 10
10.9828719635
 20
8.2585033111
 30
0.0
 10
11.0017857838
 20
8.2678767061
 30
0.0
 10
11.0259254658
 20
8.27866493
 30
0.0
 10
11.0555883958
 20
8.2900823586
 30
0.0
 10
11.0858898912
 20
8.29995085
 30
0.0
 10
11.1167525793
 20
8.3082452652
 30
0.0
 10
11.1428558181
 20
8.313824167
 30
0.0
 10
11.163937023
 20
8.3174829204
 30
0.0
 10
11.1851746599
 20
8.3206079413
 30
0.0
 10
11.2119290264
 20
8.3234971466
 30
0.0
 10
11.2388413298
 20
8.3250217061
 30
0.0
 10
11.2604504638
 20
8.3254247576
 30
0.0
 10
11.2821375793
 20
8.3252821421
 30
0.0
 10
11.2984089881
 20
8.3245605938
 30
0.0
 10
11.3092442686
 20
8.3238091646
 30
0.0
  0
SPLINE
  5
2CB
100
AcDbEntity
  8
0
100
AcDbSpline
 62
7
  6
CONTINUOUS
 70
0
 71
3
 72
47
 73
43
 74
0
 42
0.0000001
 43
0.0000001
 44
0.0000000001
 40
0.0
 40
0.0
 40
0.0
 40
0.0
 40
0.0098734261
 40
0.0200867194
 40
0.0306246507
 40
0.0414714399
 40
0.0526107111
 40
0.0640266133
 40
0.075703822
 40
0.0876276389
 40
0.0997848467
 40
0.1121625143
 40
0.1247496223
 40
0.1375355593
 40
0.1636654788
 40
0.1904921166
 40
0.2179674379
 40
0.2460561618
 40
0.2747340384
 40
0.3039863028
 40
0.3338061171
 40
0.3641929565
 40
0.3951509517
 40
0.4266872381
 40
0.4588100605
 40
0.4915267302
 40
0.5248415198
 40
0.5587534974
 40
0.5932544556
 40
0.6283271121
 40
0.6639439116
 40
0.700066517
 40
0.7366461064
 40
0.7736246912
 40
0.810936821
 40
0.8296977454
 40
0.8485153513
 40
0.8862807198
 40
0.9241631415
 40
0.9431272063
 40
0.9620939972
 40
1.0
 40
1.0
 40
1.0
 40
1.0
 10
9.9675353845
 20
7.9750261531
 30
0.0
 10
9.964813479
 20
7.9752140467
 30
0.0
 10
9.9592850146
 20
7.9757381717
 30
0.0
 10
9.9509032698
 20
7.9769243682
 30
0.0
 10
9.9423151125
 20
7.9785146816
 30
0.0
 10
9.9335473491
 20
7.9805000166
 30
0.0
 10
9.9246249863
 20
7.982871583
 30
0.0
 10
9.9155718923
 20
7.9856213319
 30
0.0
 10
9.906410561
 20
7.9887417084
 30
0.0
 10
9.8971621711
 20
7.9922258433
 30
0.0
 10
9.887846867
 20
7.9960675857
 30
0.0
 10
9.8784834931
 20
8.0002612651
 30
0.0
 10
9.8690900579
 20
8.0048020774
 30
0.0
 10
9.8564573655
 20
8.0113605785
 30
0.0
 10
9.8406945185
 20
8.020412946
 30
0.0
 10
9.8220477769
 20
8.0325282144
 30
0.0
 10
9.8036485791
 20
8.0459573265
 30
0.0
 10
9.785607813
 20
8.0606875015
 30
0.0
 10
9.7680328728
 20
8.0767094915
 30
0.0
 10
9.7510300895
 20
8.0940154051
 30
0.0
 10
9.734705883
 20
8.1125970324
 30
0.0
 10
9.719167738
 20
8.1324438206
 30
0.0
 10
9.7045246158
 20
8.1535407466
 30
0.0
 10
9.6908868792
 20
8.1758660643
 30
0.0
 10
9.6783656075
 20
8.1993889607
 30
0.0
 10
9.6670712671
 20
8.2240672192
 30
0.0
 10
9.6571116939
 20
8.249845069
 30
0.0
 10
9.6485894039
 20
8.2766514293
 30
0.0
 10
9.6415983672
 20
8.304398792
 30
0.0
 10
9.6362204104
 20
8.3329830148
 30
0.0
 10
9.6325216028
 20
8.3622842688
 30
0.0
 10
9.6305489666
 20
8.3921691355
 30
0.0
 10
9.6303279841
 20
8.4224941775
 30
0.0
 10
9.6318610962
 20
8.4531092987
 30
0.0
 10
9.6345785155
 20
8.4786928978
 30
0.0
 10
9.6375955627
 20
8.4991688645
 30
0.0
 10
9.641176736
 20
8.5196809971
 30
0.0
 10
9.6466725359
 20
8.5452126293
 30
0.0
 10
9.6534515644
 20
8.5704745432
 30
0.0
 10
9.6596076978
 20
8.590501402
 30
0.0
 10
9.6662350066
 20
8.6103838374
 30
0.0
 10
9.671718197
 20
8.625119733
 30
0.0
 10
9.6755858555
 20
8.6348543363
 30
0.0
  0
SPLINE
  5
2CC
100
AcDbEntity
  8
0
100
AcDbSpline
 62
7
  6
CONTINUOUS
 70
0
 71
3
 72
41
 73
37
 74
0
 42
0.0000001
 43
0.0000001
 44
0.0000000001
 40
0.0
 40
0.0
 40
0.0
 40
0.0
 40
0.0064813001
 40
0.0130002022
 40
0.0195935713
 40
0.0262969408
 40
0.033143984
 40
0.0401660036
 40
0.0548404992
 40
0.0625494615
 40
0.0705324261
 40
0.0873867396
 40
0.1055281833
 40
0.1250447914
 40
0.1459987457
 40
0.1684318082
 40
0.1923689961
 40
0.2178215978
 40
0.2447899859
 40
0.2732648338
 40
0.3032291259
 40
0.3346589397
 40
0.3675242831
 40
0.4017901748
 40
0.4374166385
 40
0.474359728
 40
0.5125716018
 40
0.5520008604
 40
0.5925931493
 40
0.6342909643
 40
0.677034307
 40
0.7207606156
 40
0.7654052435
 40
0.8109015514
 40
0.9041693911
 40
1.0
 40
1.0
 40
1.0
 40
1.0
 10
9.0323979695
 20
10.3891276851
 30
0.0
 10
9.0323979753
 20
10.3885202514
 30
0.0
 10
9.0324462949
 20
10.3873013162
 30
0.0
 10
9.0326634169
 20
10.3854760793
 30
0.0
 10
9.0330250165
 20
10.3836526118
 30
0.0
 10
9.03353083
 20
10.3818319772
 30
0.0
 10
9.0341805952
 20
10.3800149231
 30
0.0
 10
9.0352536591
 20
10.3775625671
 30
0.0
 10
9.0366080205
 20
10.375152813
 30
0.0
 10
9.0382088711
 20
10.3727986681
 30
0.0
 10
9.0400581549
 20
10.3703711551
 30
0.0
 10
9.0427410637
 20
10.367358001
 30
0.0
 10
9.0464585924
 20
10.3638459531
 30
0.0
 10
9.0507247642
 20
10.3603784512
 30
0.0
 10
9.05553245
 20
10.3569603938
 30
0.0
 10
9.0608741986
 20
10.3535967181
 30
0.0
 10
9.0667415058
 20
10.3502926162
 30
0.0
 10
9.0731249544
 20
10.3470532699
 30
0.0
 10
9.0800142367
 20
10.3438840138
 30
0.0
 10
9.0873980867
 20
10.3407899864
 30
0.0
 10
9.0952643943
 20
10.3377763627
 30
0.0
 10
9.103600184
 20
10.334848174
 30
0.0
 10
9.1123916528
 20
10.3320102808
 30
0.0
 10
9.1216242244
 20
10.3292675088
 30
0.0
 10
9.1312825413
 20
10.3266244049
 30
0.0
 10
9.141350529
 20
10.324085447
 30
0.0
 10
9.1518114089
 20
10.3216549061
 30
0.0
 10
9.1626477307
 20
10.3193368356
 30
0.0
 10
9.1738414147
 20
10.3171351869
 30
0.0
 10
9.1853737675
 20
10.315053612
 30
0.0
 10
9.1972255228
 20
10.3130956402
 30
0.0
 10
9.2093768827
 20
10.3112645642
 30
0.0
 10
9.2218075685
 20
10.3095634162
 30
0.0
 10
9.2388674377
 20
10.3074550129
 30
0.0
 10
9.2607374303
 20
10.3051727436
 30
0.0
 10
9.2784044682
 20
10.3037495541
 30
0.0
 10
9.2873642855
 20
10.3031281887
 30
0.0
  0
SPLINE
  5
2CD
100
AcDbEntity
  8
0
100
AcDbSpline
 62
7
  6
CONTINUOUS
 70
0
 71
3
 72
41
 73
37
 74
0
 42
0.0000001
 43
0.0000001
 44
0.0000000001
 40
0.0
 40
0.0
 40
0.0
 40
0.0
 40
0.0064813001
 40
0.0130002022
 40
0.0195935713
 40
0.0262969408
 40
0.033143984
 40
0.0401660036
 40
0.0548404992
 40
0.0625494615
 40
0.0705324261
 40
0.0873867396
 40
0.1055281833
 40
0.1250447914
 40
0.1459987457
 40
0.1684318082
 40
0.1923689961
 40
0.2178215978
 40
0.2447899859
 40
0.2732648338
 40
0.3032291259
 40
0.3346589397
 40
0.3675242831
 40
0.4017901748
 40
0.4374166385
 40
0.474359728
 40
0.5125716018
 40
0.5520008604
 40
0.5925931493
 40
0.6342909643
 40
0.677034307
 40
0.7207606156
 40
0.7654052435
 40
0.8109015514
 40
0.9041693911
 40
1.0
 40
1.0
 40
1.0
 40
1.0
 10
7.9329355512
 20
9.3271284773
 30
0.0
 10
7.932935557
 20
9.3265210436
 30
0.0
 10
7.9329838765
 20
9.3253021084
 30
0.0
 10
7.9332009985
 20
9.3234768715
 30
0.0
 10
7.9335625982
 20
9.321653404
 30
0.0
 10
7.9340684117
 20
9.3198327694
 30
0.0
 10
7.9347181769
 20
9.3180157153
 30
0.0
 10
7.9357912408
 20
9.3155633593
 30
0.0
 10
7.9371456022
 20
9.3131536052
 30
0.0
 10
7.9387464528
 20
9.3107994603
 30
0.0
 10
7.9405957366
 20
9.3083719473
 30
0.0
 10
7.9432786454
 20
9.3053587932
 30
0.0
 10
7.9469961741
 20
9.3018467453
 30
0.0
 10
7.9512623459
 20
9.2983792434
 30
0.0
 10
7.9560700317
 20
9.294961186
 30
0.0
 10
7.9614117803
 20
9.2915975103
 30
0.0
 10
7.9672790874
 20
9.2882934084
 30
0.0
 10
7.973662536
 20
9.2850540621
 30
0.0
 10
7.9805518184
 20
9.281884806
 30
0.0
 10
7.9879356684
 20
9.2787907786
 30
0.0
 10
7.995801976
 20
9.2757771549
 30
0.0
 10
8.0041377656
 20
9.2728489661
 30
0.0
 10
8.0129292345
 20
9.270011073
 30
0.0
 10
8.0221618061
 20
9.2672683009
 30
0.0
 10
8.031820123
 20
9.2646251971
 30
0.0
 10
8.0418881107
 20
9.2620862391
 30
0.0
 10
8.0523489905
 20
9.2596556983
 30
0.0
 10
8.0631853124
 20
9.2573376278
 30
0.0
 10
8.0743789964
 20
9.2551359791
 30
0.0
 10
8.0859113492
 20
9.2530544042
 30
0.0
 10
8.0977631045
 20
9.2510964323
 30
0.0
 10
8.1099144644
 20
9.2492653564
 30
0.0
 10
8.1223451502
 20
9.2475642084
 30
0.0
 10
8.1394050194
 20
9.2454558051
 30
0.0
 10
8.161275012
 20
9.2431735357
 30
0.0
 10
8.1789420499
 20
9.2417503463
 30
0.0
 10
8.1879018672
 20
9.2411289809
 30
0.0
  0
SPLINE
  5
2CE
100
AcDbEntity
  8
0
100
AcDbSpline
 62
7
  6
CONTINUOUS
 70
0
 71
3
 72
53
 73
49
 74
0
 42
0.0000001
 43
0.0000001
 44
0.0000000001
 40
0.0
 40
0.0
 40
0.0
 40
0.0
 40
0.0063158505
 40
0.0126706065
 40
0.0191024059
 40
0.025647925
 40
0.0323417594
 40
0.0392160732
 40
0.0536138138
 40
0.0611945116
 40
0.0690562199
 40
0.0772172833
 40
0.0856936463
 40
0.0944989782
 40
0.1036450547
 40
0.113141788
 40
0.1229974785
 40
0.1332190725
 40
0.143812113
 40
0.1547810712
 40
0.1661293938
 40
0.1778595131
 40
0.1899731419
 40
0.202471156
 40
0.2153537422
 40
0.2286205498
 40
0.2422705327
 40
0.2563022009
 40
0.2707135857
 40
0.2855021832
 40
0.3006651871
 40
0.3321002773
 40
0.3649893983
 40
0.3992971141
 40
0.4349834107
 40
0.4720041701
 40
0.5103115331
 40
0.5498541823
 40
0.5905776893
 40
0.6324247808
 40
0.6753355513
 40
0.7192476511
 40
0.7640964723
 40
0.8098154905
 40
0.8563363112
 40
0.9035882029
 40
0.951501464
 40
1.0
 40
1.0
 40
1.0
 40
1.0
 10
13.9016003558
 20
7.4836469487
 30
0.0
 10
13.900112991
 20
7.4837500982
 30
0.0
 10
13.8971361317
 20
7.4840788114
 30
0.0
 10
13.8927041969
 20
7.4849355026
 30
0.0
 10
13.888301878
 20
7.4861558522
 30
0.0
 10
13.8839317868
 20
7.4877389626
 30
0.0
 10
13.8795955715
 20
7.4896837643
 30
0.0
 10
13.8737732424
 20
7.4928048812
 30
0.0
 10
13.8681089835
 20
7.4966255328
 30
0.0
 10
13.8626274727
 20
7.5010531436
 30
0.0
 10
13.8584870629
 20
7.5047861128
 30
0.0
 10
13.854390853
 20
7.5088718437
 30
0.0
 10
13.850339927
 20
7.5133089282
 30
0.0
 10
13.8463358477
 20
7.5180953749
 30
0.0
 10
13.8423801663
 20
7.523229302
 30
0.0
 10
13.8384743766
 20
7.5287085838
 30
0.0
 10
13.8346199633
 20
7.5345309858
 30
0.0
 10
13.8308185155
 20
7.5406941885
 30
0.0
 10
13.8270714665
 20
7.5471956519
 30
0.0
 10
13.8233803463
 20
7.554032755
 30
0.0
 10
13.8197466683
 20
7.5612027278
 30
0.0
 10
13.8161718382
 20
7.5687026252
 30
0.0
 10
13.8126573758
 20
7.576529414
 30
0.0
 10
13.8092046868
 20
7.5846798845
 30
0.0
 10
13.8058151606
 20
7.5931506979
 30
0.0
 10
13.8024902504
 20
7.6019384034
 30
0.0
 10
13.7992312606
 20
7.6110393801
 30
0.0
 10
13.7960395574
 20
7.6204499021
 30
0.0
 10
13.7929164848
 20
7.6301661062
 30
0.0
 10
13.7898632531
 20
7.6401840006
 30
0.0
 10
13.7858388203
 20
7.654105511
 30
0.0
 10
13.781003399
 20
7.6722382137
 30
0.0
 10
13.7755665804
 20
7.6948800555
 30
0.0
 10
13.7704369929
 20
7.7186210651
 30
0.0
 10
13.7656231665
 20
7.7434221356
 30
0.0
 10
13.7611331264
 20
7.7692425709
 30
0.0
 10
13.7569743673
 20
7.7960398992
 30
0.0
 10
13.7531538051
 20
7.8237700129
 30
0.0
 10
13.7496778038
 20
7.8523872384
 30
0.0
 10
13.7465521608
 20
7.8818444313
 30
0.0
 10
13.7437820972
 20
7.9120930466
 30
0.0
 10
13.7413722196
 20
7.9430832058
 30
0.0
 10
13.7393265379
 20
7.9747638104
 30
0.0
 10
13.7376484709
 20
8.0070826321
 30
0.0
 10
13.7363408456
 20
8.0399862467
 30
0.0
 10
13.7354057862
 20
8.0734207158
 30
0.0
 10
13.734844945
 20
8.1073304133
 30
0.0
 10
13.7347217867
 20
8.1300898587
 30
0.0
 10
13.7347217867
 20
8.141538558
 30
0.0
  0
SPLINE
  5
2CF
100
AcDbEntity
  8
0
100
AcDbSpline
 62
7
  6
CONTINUOUS
 70
0
 71
3
 72
35
 73
31
 74
0
 42
0.0000001
 43
0.0000001
 44
0.0000000001
 40
0.0
 40
0.0
 40
0.0
 40
0.0
 40
0.0162142982
 40
0.0334273567
 40
0.0516716566
 40
0.0709707697
 40
0.0913402133
 40
0.1127893072
 40
0.1353215159
 40
0.1589358589
 40
0.1836269519
 40
0.2093860824
 40
0.2362011118
 40
0.2640572896
 40
0.2929371234
 40
0.3228209777
 40
0.3536869764
 40
0.385511416
 40
0.4182687365
 40
0.4519317734
 40
0.4864718131
 40
0.5218587016
 40
0.5580609861
 40
0.5950459189
 40
0.6327796692
 40
0.6712271923
 40
0.750117733
 40
0.8314199733
 40
0.9148215789
 40
1.0
 40
1.0
 40
1.0
 40
1.0
 10
13.8311096416
 20
7.8573905475
 30
0.0
 10
13.8297906746
 20
7.8590122839
 30
0.0
 10
13.8271824956
 20
7.8624469876
 30
0.0
 10
13.8234629962
 20
7.8679771285
 30
0.0
 10
13.8198251937
 20
7.8740302089
 30
0.0
 10
13.8162729688
 20
7.8805998828
 30
0.0
 10
13.8128096183
 20
7.8876795273
 30
0.0
 10
13.8094387935
 20
7.8952619342
 30
0.0
 10
13.8061638239
 20
7.9033392892
 30
0.0
 10
13.8029882204
 20
7.9119032764
 30
0.0
 10
13.7999151984
 20
7.9209449951
 30
0.0
 10
13.7969480763
 20
7.93045505
 30
0.0
 10
13.7940899011
 20
7.9404235078
 30
0.0
 10
13.7913437607
 20
7.950839951
 30
0.0
 10
13.788712503
 20
7.9616934655
 30
0.0
 10
13.7861989612
 20
7.9729726706
 30
0.0
 10
13.7838057632
 20
7.9846657248
 30
0.0
 10
13.7815354721
 20
7.9967603425
 30
0.0
 10
13.7793904796
 20
8.0092438095
 30
0.0
 10
13.777373067
 20
8.0221029949
 30
0.0
 10
13.7754853769
 20
8.0353243686
 30
0.0
 10
13.7737294005
 20
8.0488940134
 30
0.0
 10
13.7721070182
 20
8.0627976438
 30
0.0
 10
13.7706199292
 20
8.0770206172
 30
0.0
 10
13.7692697268
 20
8.091547966
 30
0.0
 10
13.7676399462
 20
8.1114739687
 30
0.0
 10
13.7659639569
 20
8.1370302286
 30
0.0
 10
13.7645344949
 20
8.1684043325
 30
0.0
 10
13.7636762467
 20
8.2006100415
 30
0.0
 10
13.7634891197
 20
8.2223442792
 30
0.0
 10
13.7634891197
 20
8.2333256711
 30
0.0
  0
SPLINE
  5
2D0
100
AcDbEntity
  8
0
100
AcDbSpline
 62
7
  6
CONTINUOUS
 70
0
 71
3
 72
48
 73
44
 74
0
 42
0.0000001
 43
0.0000001
 44
0.0000000001
 40
0.0
 40
0.0
 40
0.0
 40
0.0
 40
0.0070629268
 40
0.0144559992
 40
0.0221883994
 40
0.0302674717
 40
0.0386987257
 40
0.0474863192
 40
0.0566330589
 40
0.0661405655
 40
0.076009569
 40
0.0862397427
 40
0.0968300619
 40
0.1077787491
 40
0.119083293
 40
0.1307407152
 40
0.1427473409
 40
0.1550990709
 40
0.1677913442
 40
0.1808190676
 40
0.20785834
 40
0.2361695457
 40
0.2656992903
 40
0.2963893633
 40
0.3281772259
 40
0.3609964047
 40
0.3947768965
 40
0.4294455367
 40
0.4649263157
 40
0.5011406685
 40
0.5380077477
 40
0.5754447325
 40
0.6133671035
 40
0.6516889043
 40
0.6903229946
 40
0.729181313
 40
0.7681751677
 40
0.807215444
 40
0.8462129145
 40
0.8850786
 40
0.9237231426
 40
0.9620602333
 40
1.0
 40
1.0
 40
1.0
 40
1.0
 10
13.9019574943
 20
8.8789937786
 30
0.0
 10
13.9008022511
 20
8.8779185924
 30
0.0
 10
13.8984929854
 20
8.8756580357
 30
0.0
 10
13.8951085477
 20
8.8720331165
 30
0.0
 10
13.8917277403
 20
8.8681002359
 30
0.0
 10
13.8883527026
 20
8.8638618006
 30
0.0
 10
13.8849852753
 20
8.8593203621
 30
0.0
 10
13.8816275123
 20
8.8544785994
 30
0.0
 10
13.8782813949
 20
8.8493394149
 30
0.0
 10
13.8749488804
 20
8.8439059089
 30
0.0
 10
13.8716320498
 20
8.8381813101
 30
0.0
 10
13.8683328277
 20
8.8321691014
 30
0.0
 10
13.865053253
 20
8.8258728914
 30
0.0
 10
13.8617953233
 20
8.8192964845
 30
0.0
 10
13.8585609662
 20
8.8124438765
 30
0.0
 10
13.8553522226
 20
8.8053191959
 30
0.0
 10
13.8521709842
 20
8.7979267831
 30
0.0
 10
13.8490192185
 20
8.7902711189
 30
0.0
 10
13.8458988486
 20
8.7823568415
 30
0.0
 10
13.8417310043
 20
8.7713290993
 30
0.0
 10
13.8366225136
 20
8.7569277489
 30
0.0
 10
13.8307205826
 20
8.7389017179
 30
0.0
 10
13.8249878971
 20
8.7199672653
 30
0.0
 10
13.8194384994
 20
8.7001704543
 30
0.0
 10
13.814086004
 20
8.6795593326
 30
0.0
 10
13.8089435216
 20
8.6581840231
 30
0.0
 10
13.804023644
 20
8.636096529
 30
0.0
 10
13.7993384193
 20
8.613350608
 30
0.0
 10
13.7948993202
 20
8.590001632
 30
0.0
 10
13.7907172177
 20
8.5661064591
 30
0.0
 10
13.7868023342
 20
8.5417232955
 30
0.0
 10
13.7831642405
 20
8.5169115445
 30
0.0
 10
13.7798118308
 20
8.4917316557
 30
0.0
 10
13.7767533042
 20
8.4662449795
 30
0.0
 10
13.7739961355
 20
8.4405136219
 30
0.0
 10
13.771547048
 20
8.4146002884
 30
0.0
 10
13.7694120193
 20
8.3885681323
 30
0.0
 10
13.7675962574
 20
8.3624805952
 30
0.0
 10
13.7661041912
 20
8.3364012265
 30
0.0
 10
13.764939473
 20
8.3103936986
 30
0.0
 10
13.7641048681
 20
8.2845210948
 30
0.0
 10
13.7636024882
 20
8.258846869
 30
0.0
 10
13.7634891197
 20
8.2418030777
 30
0.0
 10
13.7634891197
 20
8.2333256711
 30
0.0
  0
SPLINE
  5
2D1
100
AcDbEntity
  8
0
100
AcDbSpline
 62
7
  6
CONTINUOUS
 70
0
 71
3
 72
53
 73
49
 74
0
 42
0.0000001
 43
0.0000001
 44
0.0000000001
 40
0.0
 40
0.0
 40
0.0
 40
0.0
 40
0.0063158505
 40
0.0126706065
 40
0.0191024059
 40
0.025647925
 40
0.0323417594
 40
0.0392160732
 40
0.0536138138
 40
0.0611945116
 40
0.0690562199
 40
0.0772172833
 40
0.0856936463
 40
0.0944989782
 40
0.1036450547
 40
0.113141788
 40
0.1229974785
 40
0.1332190725
 40
0.143812113
 40
0.1547810712
 40
0.1661293938
 40
0.1778595131
 40
0.1899731419
 40
0.202471156
 40
0.2153537422
 40
0.2286205498
 40
0.2422705327
 40
0.2563022009
 40
0.2707135857
 40
0.2855021832
 40
0.3006651871
 40
0.3321002773
 40
0.3649893983
 40
0.3992971141
 40
0.4349834107
 40
0.4720041701
 40
0.5103115331
 40
0.5498541823
 40
0.5905776893
 40
0.6324247808
 40
0.6753355513
 40
0.7192476511
 40
0.7640964723
 40
0.8098154905
 40
0.8563363112
 40
0.9035882029
 40
0.951501464
 40
1.0
 40
1.0
 40
1.0
 40
1.0
 10
13.3032112697
 20
6.9056474421
 30
0.0
 10
13.3017239049
 20
6.9057505915
 30
0.0
 10
13.2987470456
 20
6.9060793047
 30
0.0
 10
13.2943151108
 20
6.906935996
 30
0.0
 10
13.2899127919
 20
6.9081563455
 30
0.0
 10
13.2855427006
 20
6.9097394559
 30
0.0
 10
13.2812064854
 20
6.9116842576
 30
0.0
 10
13.2753841562
 20
6.9148053745
 30
0.0
 10
13.2697198974
 20
6.9186260261
 30
0.0
 10
13.2642383866
 20
6.9230536369
 30
0.0
 10
13.2600979767
 20
6.9267866061
 30
0.0
 10
13.2560017669
 20
6.930872337
 30
0.0
 10
13.2519508408
 20
6.9353094215
 30
0.0
 10
13.2479467616
 20
6.9400958682
 30
0.0
 10
13.2439910802
 20
6.9452297953
 30
0.0
 10
13.2400852905
 20
6.9507090771
 30
0.0
 10
13.2362308772
 20
6.9565314791
 30
0.0
 10
13.2324294293
 20
6.9626946818
 30
0.0
 10
13.2286823804
 20
6.9691961452
 30
0.0
 10
13.2249912602
 20
6.9760332483
 30
0.0
 10
13.2213575822
 20
6.9832032212
 30
0.0
 10
13.217782752
 20
6.9907031185
 30
0.0
 10
13.2142682897
 20
6.9985299073
 30
0.0
 10
13.2108156007
 20
7.0066803779
 30
0.0
 10
13.2074260745
 20
7.0151511912
 30
0.0
 10
13.2041011642
 20
7.0239388967
 30
0.0
 10
13.2008421744
 20
7.0330398734
 30
0.0
 10
13.1976504713
 20
7.0424503954
 30
0.0
 10
13.1945273987
 20
7.0521665995
 30
0.0
 10
13.191474167
 20
7.0621844939
 30
0.0
 10
13.1874497342
 20
7.0761060043
 30
0.0
 10
13.1826143129
 20
7.094238707
 30
0.0
 10
13.1771774943
 20
7.1168805488
 30
0.0
 10
13.1720479068
 20
7.1406215584
 30
0.0
 10
13.1672340804
 20
7.1654226289
 30
0.0
 10
13.1627440403
 20
7.1912430642
 30
0.0
 10
13.1585852812
 20
7.2180403925
 30
0.0
 10
13.154764719
 20
7.2457705062
 30
0.0
 10
13.1512887177
 20
7.2743877317
 30
0.0
 10
13.1481630747
 20
7.3038449246
 30
0.0
 10
13.1453930111
 20
7.3340935399
 30
0.0
 10
13.1429831335
 20
7.3650836991
 30
0.0
 10
13.1409374518
 20
7.3967643037
 30
0.0
 10
13.1392593848
 20
7.4290831254
 30
0.0
 10
13.1379517595
 20
7.46198674
 30
0.0
 10
13.1370167001
 20
7.4954212091
 30
0.0
 10
13.1364558589
 20
7.5293309066
 30
0.0
 10
13.1363327006
 20
7.552090352
 30
0.0
 10
13.1363327006
 20
7.5635390513
 30
0.0
  0
SPLINE
  5
2D2
100
AcDbEntity
  8
0
100
AcDbSpline
 62
7
  6
CONTINUOUS
 70
0
 71
3
 72
35
 73
31
 74
0
 42
0.0000001
 43
0.0000001
 44
0.0000000001
 40
0.0
 40
0.0
 40
0.0
 40
0.0
 40
0.0162142982
 40
0.0334273567
 40
0.0516716566
 40
0.0709707697
 40
0.0913402133
 40
0.1127893072
 40
0.1353215159
 40
0.1589358589
 40
0.1836269519
 40
0.2093860824
 40
0.2362011118
 40
0.2640572896
 40
0.2929371234
 40
0.3228209777
 40
0.3536869764
 40
0.385511416
 40
0.4182687365
 40
0.4519317734
 40
0.4864718131
 40
0.5218587016
 40
0.5580609861
 40
0.5950459189
 40
0.6327796692
 40
0.6712271923
 40
0.750117733
 40
0.8314199733
 40
0.9148215789
 40
1.0
 40
1.0
 40
1.0
 40
1.0
 10
13.2327205555
 20
7.2793910408
 30
0.0
 10
13.2314015885
 20
7.2810127772
 30
0.0
 10
13.2287934095
 20
7.284447481
 30
0.0
 10
13.2250739101
 20
7.2899776218
 30
0.0
 10
13.2214361076
 20
7.2960307022
 30
0.0
 10
13.2178838827
 20
7.3026003761
 30
0.0
 10
13.2144205322
 20
7.3096800206
 30
0.0
 10
13.2110497074
 20
7.3172624275
 30
0.0
 10
13.2077747378
 20
7.3253397825
 30
0.0
 10
13.2045991343
 20
7.3339037697
 30
0.0
 10
13.2015261123
 20
7.3429454884
 30
0.0
 10
13.1985589902
 20
7.3524555433
 30
0.0
 10
13.195700815
 20
7.3624240011
 30
0.0
 10
13.1929546746
 20
7.3728404443
 30
0.0
 10
13.1903234169
 20
7.3836939589
 30
0.0
 10
13.187809875
 20
7.3949731639
 30
0.0
 10
13.1854166771
 20
7.4066662181
 30
0.0
 10
13.183146386
 20
7.4187608358
 30
0.0
 10
13.1810013935
 20
7.4312443028
 30
0.0
 10
13.1789839809
 20
7.4441034882
 30
0.0
 10
13.1770962907
 20
7.4573248619
 30
0.0
 10
13.1753403144
 20
7.4708945068
 30
0.0
 10
13.1737179321
 20
7.4847981371
 30
0.0
 10
13.1722308431
 20
7.4990211105
 30
0.0
 10
13.1708806407
 20
7.5135484593
 30
0.0
 10
13.1692508601
 20
7.533474462
 30
0.0
 10
13.1675748708
 20
7.5590307219
 30
0.0
 10
13.1661454088
 20
7.5904048258
 30
0.0
 10
13.1652871606
 20
7.6226105348
 30
0.0
 10
13.1651000336
 20
7.6443447725
 30
0.0
 10
13.1651000336
 20
7.6553261644
 30
0.0
  0
SPLINE
  5
2D3
100
AcDbEntity
  8
0
100
AcDbSpline
 62
7
  6
CONTINUOUS
 70
0
 71
3
 72
48
 73
44
 74
0
 42
0.0000001
 43
0.0000001
 44
0.0000000001
 40
0.0
 40
0.0
 40
0.0
 40
0.0
 40
0.0070629268
 40
0.0144559992
 40
0.0221883994
 40
0.0302674717
 40
0.0386987257
 40
0.0474863192
 40
0.0566330589
 40
0.0661405655
 40
0.076009569
 40
0.0862397427
 40
0.0968300619
 40
0.1077787491
 40
0.119083293
 40
0.1307407152
 40
0.1427473409
 40
0.1550990709
 40
0.1677913442
 40
0.1808190676
 40
0.20785834
 40
0.2361695457
 40
0.2656992903
 40
0.2963893633
 40
0.3281772259
 40
0.3609964047
 40
0.3947768965
 40
0.4294455367
 40
0.4649263157
 40
0.5011406685
 40
0.5380077477
 40
0.5754447325
 40
0.6133671035
 40
0.6516889043
 40
0.6903229946
 40
0.729181313
 40
0.7681751677
 40
0.807215444
 40
0.8462129145
 40
0.8850786
 40
0.9237231426
 40
0.9620602333
 40
1.0
 40
1.0
 40
1.0
 40
1.0
 10
13.3035684081
 20
8.3009942719
 30
0.0
 10
13.3024131649
 20
8.2999190857
 30
0.0
 10
13.3001038993
 20
8.2976585291
 30
0.0
 10
13.2967194616
 20
8.2940336098
 30
0.0
 10
13.2933386542
 20
8.2901007292
 30
0.0
 10
13.2899636165
 20
8.2858622939
 30
0.0
 10
13.2865961892
 20
8.2813208555
 30
0.0
 10
13.2832384262
 20
8.2764790927
 30
0.0
 10
13.2798923088
 20
8.2713399082
 30
0.0
 10
13.2765597943
 20
8.2659064022
 30
0.0
 10
13.2732429637
 20
8.2601818035
 30
0.0
 10
13.2699437416
 20
8.2541695947
 30
0.0
 10
13.2666641669
 20
8.2478733847
 30
0.0
 10
13.2634062372
 20
8.2412969778
 30
0.0
 10
13.2601718801
 20
8.2344443698
 30
0.0
 10
13.2569631365
 20
8.2273196892
 30
0.0
 10
13.253781898
 20
8.2199272764
 30
0.0
 10
13.2506301324
 20
8.2122716122
 30
0.0
 10
13.2475097625
 20
8.2043573349
 30
0.0
 10
13.2433419182
 20
8.1933295926
 30
0.0
 10
13.2382334275
 20
8.1789282422
 30
0.0
 10
13.2323314965
 20
8.1609022112
 30
0.0
 10
13.226598811
 20
8.1419677586
 30
0.0
 10
13.2210494133
 20
8.1221709476
 30
0.0
 10
13.2156969179
 20
8.1015598259
 30
0.0
 10
13.2105544355
 20
8.0801845164
 30
0.0
 10
13.2056345579
 20
8.0580970223
 30
0.0
 10
13.2009493332
 20
8.0353511013
 30
0.0
 10
13.196510234
 20
8.0120021253
 30
0.0
 10
13.1923281316
 20
7.9881069524
 30
0.0
 10
13.1884132481
 20
7.9637237888
 30
0.0
 10
13.1847751544
 20
7.9389120378
 30
0.0
 10
13.1814227447
 20
7.913732149
 30
0.0
 10
13.1783642181
 20
7.8882454728
 30
0.0
 10
13.1756070494
 20
7.8625141152
 30
0.0
 10
13.1731579619
 20
7.8366007817
 30
0.0
 10
13.1710229332
 20
7.8105686256
 30
0.0
 10
13.1692071713
 20
7.7844810885
 30
0.0
 10
13.1677151051
 20
7.7584017198
 30
0.0
 10
13.1665503869
 20
7.7323941919
 30
0.0
 10
13.165715782
 20
7.7065215881
 30
0.0
 10
13.1652134021
 20
7.6808473623
 30
0.0
 10
13.1651000336
 20
7.663803571
 30
0.0
 10
13.1651000336
 20
7.6553261644
 30
0.0
  0
SPLINE
  5
2D4
100
AcDbEntity
  8
0
100
AcDbSpline
 62
7
  6
CONTINUOUS
 70
0
 71
3
 72
50
 73
46
 74
0
 42
0.0000001
 43
0.0000001
 44
0.0000000001
 40
0.0
 40
0.0
 40
0.0
 40
0.0
 40
0.0830097588
 40
0.1658070749
 40
0.2475796565
 40
0.287864914
 40
0.3276487351
 40
0.3668656189
 40
0.4054566116
 40
0.4433683325
 40
0.4805515969
 40
0.5169602863
 40
0.5525503883
 40
0.5872784984
 40
0.6211007345
 40
0.6539716965
 40
0.6858430271
 40
0.7166628399
 40
0.7316609283
 40
0.7463745884
 40
0.7607957021
 40
0.774916312
 40
0.7887278886
 40
0.8022214241
 40
0.8153882905
 40
0.8282192443
 40
0.8407051663
 40
0.8528375782
 40
0.8646078374
 40
0.876008631
 40
0.8870336602
 40
0.897678264
 40
0.9079404896
 40
0.9178211697
 40
0.9273255497
 40
0.9364636979
 40
0.9452520218
 40
0.9495226906
 40
0.9537154159
 40
0.9618830321
 40
0.9697965607
 40
0.9775051431
 40
0.9850660143
 40
0.9925425934
 40
1.0
 40
1.0
 40
1.0
 40
1.0
 10
9.9247315226
 20
8.605049326
 30
0.0
 10
9.9260330173
 20
8.5876063944
 30
0.0
 10
9.9293609204
 20
8.5528158254
 30
0.0
 10
9.9363288583
 20
8.5011033808
 30
0.0
 10
9.9436047829
 20
8.4585457989
 30
0.0
 10
9.9501612313
 20
8.4250784444
 30
0.0
 10
9.9553656015
 20
8.400486785
 30
0.0
 10
9.9608384642
 20
8.376319614
 30
0.0
 10
9.9665361338
 20
8.3526100827
 30
0.0
 10
9.9724139568
 20
8.3293864772
 30
0.0
 10
9.9784263114
 20
8.3066728156
 30
0.0
 10
9.9845264864
 20
8.2844896559
 30
0.0
 10
9.990666214
 20
8.2628547953
 30
0.0
 10
9.9967951942
 20
8.2417839904
 30
0.0
 10
10.0028609249
 20
8.2212918192
 30
0.0
 10
10.0088077684
 20
8.201392358
 30
0.0
 10
10.0145759255
 20
8.1820998131
 30
0.0
 10
10.0192219726
 20
8.1664025743
 30
0.0
 10
10.0227834508
 20
8.1541549372
 30
0.0
 10
10.0253427895
 20
8.1452145522
 30
0.0
 10
10.0278045325
 20
8.136438669
 30
0.0
 10
10.030158745
 20
8.1278302153
 30
0.0
 10
10.032394738
 20
8.1193923125
 30
0.0
 10
10.0345009836
 20
8.1111282868
 30
0.0
 10
10.0364661294
 20
8.1030420178
 30
0.0
 10
10.0382777531
 20
8.0951375844
 30
0.0
 10
10.0399229242
 20
8.0874194885
 30
0.0
 10
10.041388678
 20
8.0798927902
 30
0.0
 10
10.0426609408
 20
8.0725628103
 30
0.0
 10
10.0437256123
 20
8.0654354928
 30
0.0
 10
10.0445681663
 20
8.0585171924
 30
0.0
 10
10.0451736332
 20
8.0518147189
 30
0.0
 10
10.0455270574
 20
8.0453353928
 30
0.0
 10
10.0456135161
 20
8.0390869073
 30
0.0
 10
10.0454178777
 20
8.0330773475
 30
0.0
 10
10.0449261265
 20
8.0273153012
 30
0.0
 10
10.0442512188
 20
8.0226834868
 30
0.0
 10
10.0435456963
 20
8.0191167152
 30
0.0
 10
10.0427446331
 20
8.0157044808
 30
0.0
 10
10.0415380522
 20
8.0116015579
 30
0.0
 10
10.0397329214
 20
8.0069185302
 30
0.0
 10
10.0375743531
 20
8.0025286167
 30
0.0
 10
10.0350576917
 20
7.9984405683
 30
0.0
 10
10.0321803387
 20
7.9946642377
 30
0.0
 10
10.0300257619
 20
7.9923620043
 30
0.0
 10
10.0288955332
 20
7.9912702871
 30
0.0
  0
SPLINE
  5
2D5
100
AcDbEntity
  8
0
100
AcDbSpline
 62
7
  6
CONTINUOUS
 70
0
 71
3
 72
39
 73
35
 74
0
 42
0.0000001
 43
0.0000001
 44
0.0000000001
 40
0.0
 40
0.0
 40
0.0
 40
0.0
 40
0.0308190831
 40
0.061714653
 40
0.0926838729
 40
0.1237235079
 40
0.1548298168
 40
0.1859986911
 40
0.2172256618
 40
0.2485059161
 40
0.2798343284
 40
0.3112054998
 40
0.3426137864
 40
0.3740533262
 40
0.4055180829
 40
0.4370018779
 40
0.4684984191
 40
0.5000013459
 40
0.5315042627
 40
0.5630007692
 40
0.5944845049
 40
0.6259491833
 40
0.6573886208
 40
0.6887967818
 40
0.7201678106
 40
0.7514960584
 40
0.7827761269
 40
0.8140028976
 40
0.8451715551
 40
0.8762776268
 40
0.9073170101
 40
0.938285989
 40
0.9691812689
 40
1.0
 40
1.0
 40
1.0
 40
1.0
 10
10.5599118648
 20
7.9704482745
 30
0.0
 10
10.5506201553
 20
7.972346564
 30
0.0
 10
10.5320853931
 20
7.976509002
 30
0.0
 10
10.5045128401
 20
7.9838276436
 30
0.0
 10
10.4771758565
 20
7.9922179146
 30
0.0
 10
10.4501178674
 20
8.0016665162
 30
0.0
 10
10.423381208
 20
8.0121587313
 30
0.0
 10
10.3970078503
 20
8.0236779911
 30
0.0
 10
10.3710391487
 20
8.0362061843
 30
0.0
 10
10.3455158919
 20
8.0497237219
 30
0.0
 10
10.320478102
 20
8.0642093288
 30
0.0
 10
10.2959650371
 20
8.0796402275
 30
0.0
 10
10.2720152031
 20
8.0959922697
 30
0.0
 10
10.2486661629
 20
8.1132397633
 30
0.0
 10
10.2259545113
 20
8.1313555904
 30
0.0
 10
10.2039159288
 20
8.1503113812
 30
0.0
 10
10.1825849969
 20
8.1700773864
 30
0.0
 10
10.1619951313
 20
8.1906225338
 30
0.0
 10
10.1421786808
 20
8.2119146303
 30
0.0
 10
10.1231667639
 20
8.2339202839
 30
0.0
 10
10.1049891479
 20
8.2566049098
 30
0.0
 10
10.0876743905
 20
8.2799329454
 30
0.0
 10
10.0712497116
 20
8.3038678196
 30
0.0
 10
10.0557408139
 20
8.3283719261
 30
0.0
 10
10.0411720585
 20
8.3534068353
 30
0.0
 10
10.0275663828
 20
8.3789333039
 30
0.0
 10
10.0149450679
 20
8.4049112372
 30
0.0
 10
10.0033279327
 20
8.4312998822
 30
0.0
 10
9.9927333049
 20
8.458057866
 30
0.0
 10
9.9831777495
 20
8.4851431823
 30
0.0
 10
9.9746762695
 20
8.5125132903
 30
0.0
 10
9.967242288
 20
8.5401254177
 30
0.0
 10
9.960887539
 20
8.5679356626
 30
0.0
 10
9.9573724514
 20
8.5866038169
 30
0.0
 10
9.9557986525
 20
8.5959558473
 30
0.0
  0
SPLINE
  5
2D6
100
AcDbEntity
  8
0
100
AcDbSpline
 62
7
  6
CONTINUOUS
 70
0
 71
3
 72
25
 73
21
 74
0
 42
0.0000001
 43
0.0000001
 44
0.0000000001
 40
0.0
 40
0.0
 40
0.0
 40
0.0
 40
0.030887643
 40
0.061841381
 40
0.0928583857
 40
0.123935495
 40
0.1862468149
 40
0.2487539191
 40
0.3114223179
 40
0.3742144432
 40
0.4370903818
 40
0.5000086375
 40
0.5629269173
 40
0.6258029279
 40
0.6885951723
 40
0.7512637329
 40
0.8137710395
 40
0.8760826016
 40
0.9381676959
 40
1.0
 40
1.0
 40
1.0
 40
1.0
 10
10.5403455324
 20
8.033002871
 30
0.0
 10
10.5324750261
 20
8.0350666055
 30
0.0
 10
10.5167882236
 20
8.0394751269
 30
0.0
 10
10.4934799815
 20
8.0469117599
 30
0.0
 10
10.4703964479
 20
8.0551701449
 30
0.0
 10
10.4399354647
 20
8.0672717584
 30
0.0
 10
10.4025732069
 20
8.0844019215
 30
0.0
 10
10.3591585064
 20
8.1080260997
 30
0.0
 10
10.3173429214
 20
8.1346160007
 30
0.0
 10
10.2773452663
 20
8.1640326226
 30
0.0
 10
10.2393730537
 20
8.1961230382
 30
0.0
 10
10.2036238136
 20
8.2307203097
 30
0.0
 10
10.1702833663
 20
8.2676445055
 30
0.0
 10
10.1395250842
 20
8.3067036372
 30
0.0
 10
10.1115089758
 20
8.3476946458
 30
0.0
 10
10.0863808652
 20
8.3904045384
 30
0.0
 10
10.0642716374
 20
8.4346110712
 30
0.0
 10
10.0452962874
 20
8.4800852676
 30
0.0
 10
10.0295545095
 20
8.526587627
 30
0.0
 10
10.0212508973
 20
8.5581891957
 30
0.0
 10
10.0176668741
 20
8.5740781645
 30
0.0
  0
SPLINE
  5
2D7
100
AcDbEntity
  8
0
100
AcDbSpline
 62
7
  6
CONTINUOUS
 70
0
 71
3
 72
26
 73
22
 74
0
 42
0.0000001
 43
0.0000001
 44
0.0000000001
 40
0.0
 40
0.0
 40
0.0
 40
0.0
 40
0.063823911
 40
0.127438084
 40
0.1908404865
 40
0.254036968
 40
0.2855616076
 40
0.3170367514
 40
0.3798378923
 40
0.4424542568
 40
0.5048967709
 40
0.5671780737
 40
0.6293123693
 40
0.6913153167
 40
0.7222752844
 40
0.7532088805
 40
0.8150011735
 40
0.8767162776
 40
0.9075535934
 40
0.9383791103
 40
1.0
 40
1.0
 40
1.0
 40
1.0
 10
11.3258086742
 20
7.0416047653
 30
0.0
 10
11.3361496202
 20
7.0408876182
 30
0.0
 10
11.3568350355
 20
7.0399467236
 30
0.0
 10
11.3878412388
 20
7.040024526
 30
0.0
 10
11.4187062507
 20
7.0415937147
 30
0.0
 10
11.4442716667
 20
7.0441433059
 30
0.0
 10
11.4645796588
 20
7.0469248796
 30
0.0
 10
11.4847499087
 20
7.0501934582
 30
0.0
 10
11.5097466238
 20
7.0551967801
 30
0.0
 10
11.5393427053
 20
7.0626618744
 30
0.0
 10
11.5684500635
 20
7.0715667653
 30
0.0
 10
11.5970016002
 20
7.0818910749
 30
0.0
 10
11.6249315008
 20
7.0936109753
 30
0.0
 10
11.6476473806
 20
7.1045242613
 30
0.0
 10
11.6654417808
 20
7.1139232885
 30
0.0
 10
11.6829617471
 20
7.1237547986
 30
0.0
 10
11.7043613976
 20
7.1368619368
 30
0.0
 10
11.7250509905
 20
7.1510358274
 30
0.0
 10
11.7411365774
 20
7.1629882007
 30
0.0
 10
11.7568984552
 20
7.1753387947
 30
0.0
 10
11.768358762
 20
7.1850524381
 30
0.0
 10
11.7758247872
 20
7.1917171396
 30
0.0
  0
SPLINE
  5
2D8
100
AcDbEntity
  8
0
100
AcDbSpline
 62
7
  6
CONTINUOUS
 70
0
 71
3
 72
52
 73
48
 74
0
 42
0.0000001
 43
0.0000001
 44
0.0000000001
 40
0.0
 40
0.0
 40
0.0
 40
0.0
 40
0.0311208547
 40
0.0623922951
 40
0.0938087376
 40
0.1253608425
 40
0.1570369732
 40
0.1888229969
 40
0.2207026768
 40
0.2526579912
 40
0.2846694876
 40
0.3167166569
 40
0.3487783216
 40
0.3808330335
 40
0.4128594745
 40
0.4448368553
 40
0.4767453069
 40
0.5085662622
 40
0.5402828175
 40
0.5718800705
 40
0.6033454296
 40
0.6190278265
 40
0.6346737297
 40
0.6502823326
 40
0.6658530113
 40
0.6813853417
 40
0.6968790891
 40
0.7123342204
 40
0.7277509047
 40
0.7431295061
 40
0.7584705962
 40
0.7737749406
 40
0.7890435022
 40
0.8042774397
 40
0.8194780933
 40
0.8346469911
 40
0.8497858319
 40
0.8648964803
 40
0.8799809614
 40
0.8950414412
 40
0.9100802247
 40
0.9250997385
 40
0.9401025158
 40
0.9550911894
 40
0.9700684687
 40
0.98503713
 40
1.0
 40
1.0
 40
1.0
 40
1.0
 10
11.3258086742
 20
7.0416047653
 30
0.0
 10
11.3102073594
 20
7.0426867201
 30
0.0
 10
11.2789959292
 20
7.0459797813
 30
0.0
 10
11.2325472046
 20
7.0542413718
 30
0.0
 10
11.1865804413
 20
7.065794471
 30
0.0
 10
11.1413361592
 20
7.0805789422
 30
0.0
 10
11.0970472872
 20
7.0985180062
 30
0.0
 10
11.0539427435
 20
7.1195187047
 30
0.0
 10
11.0122450113
 20
7.1434722647
 30
0.0
 10
10.9721693782
 20
7.1702547571
 30
0.0
 10
10.9339227371
 20
7.199727712
 30
0.0
 10
10.8977025722
 20
7.2317388403
 30
0.0
 10
10.8636958985
 20
7.2661227604
 30
0.0
 10
10.8320783192
 20
7.3027018712
 30
0.0
 10
10.8030131554
 20
7.3412872906
 30
0.0
 10
10.7766506084
 20
7.3816797971
 30
0.0
 10
10.7531269892
 20
7.4236708948
 30
0.0
 10
10.7325639795
 20
7.4670436605
 30
0.0
 10
10.7150679524
 20
7.511574562
 30
0.0
 10
10.7007298499
 20
7.55703211
 30
0.0
 10
10.6914636828
 20
7.5955387118
 30
0.0
 10
10.6857019495
 20
7.6265685853
 30
0.0
 10
10.6822129272
 20
7.6499009049
 30
0.0
 10
10.6795565905
 20
7.6732858724
 30
0.0
 10
10.6777363769
 20
7.6966936
 30
0.0
 10
10.6767545278
 20
7.720093702
 30
0.0
 10
10.6766124853
 20
7.743455941
 30
0.0
 10
10.6773103488
 20
7.7667500812
 30
0.0
 10
10.6788472255
 20
7.7899459916
 30
0.0
 10
10.6812212558
 20
7.8130136485
 30
0.0
 10
10.6844292179
 20
7.8359232208
 30
0.0
 10
10.6884671274
 20
7.8586450445
 30
0.0
 10
10.6933297052
 20
7.8811497227
 30
0.0
 10
10.6990106343
 20
7.9034081432
 30
0.0
 10
10.705502714
 20
7.9253914601
 30
0.0
 10
10.7127973903
 20
7.9470712673
 30
0.0
 10
10.7208853631
 20
7.968419463
 30
0.0
 10
10.7297561428
 20
7.9894084191
 30
0.0
 10
10.7393981905
 20
8.010010998
 30
0.0
 10
10.7497991826
 20
8.0302004564
 30
0.0
 10
10.7609455127
 20
8.0499507323
 30
0.0
 10
10.7728228551
 20
8.069236204
 30
0.0
 10
10.7854158469
 20
8.0880319016
 30
0.0
 10
10.7987080816
 20
8.1063135302
 30
0.0
 10
10.8126825812
 20
8.1240573978
 30
0.0
 10
10.827320814
 20
8.1412403202
 30
0.0
 10
10.8375116428
 20
8.1523089762
 30
0.0
 10
10.8427102377
 20
8.1577414368
 30
0.0
  0
SPLINE
  5
2D9
100
AcDbEntity
  8
0
100
AcDbSpline
 62
7
  6
CONTINUOUS
 70
0
 71
3
 72
52
 73
48
 74
0
 42
0.0000001
 43
0.0000001
 44
0.0000000001
 40
0.0
 40
0.0
 40
0.0
 40
0.0
 40
0.0417978167
 40
0.0840615308
 40
0.1266599452
 40
0.1694647093
 40
0.2123442471
 40
0.2551676124
 40
0.2978038023
 40
0.340122612
 40
0.381995097
 40
0.4232940911
 40
0.4638947378
 40
0.5036750193
 40
0.5425163039
 40
0.5803039261
 40
0.6169277796
 40
0.6522829323
 40
0.686270301
 40
0.7187974019
 40
0.7497792075
 40
0.7646667639
 40
0.7791400971
 40
0.7931911326
 40
0.8068125303
 40
0.8199977802
 40
0.8327410449
 40
0.8450376044
 40
0.8568835364
 40
0.868276178
 40
0.8792140523
 40
0.8896970245
 40
0.8997266904
 40
0.9093062438
 40
0.9184411643
 40
0.9271391635
 40
0.9354108014
 40
0.9432698937
 40
0.9507338843
 40
0.9578247196
 40
0.9645691193
 40
0.9709994962
 40
0.9771542504
 40
0.983078108
 40
0.9888220398
 40
0.9944424548
 40
1.0
 40
1.0
 40
1.0
 40
1.0
 10
9.4654316416
 20
10.475128057
 30
0.0
 10
9.4590467505
 20
10.4755708507
 30
0.0
 10
9.4461985074
 20
10.4763592939
 30
0.0
 10
9.4268236117
 20
10.4772491663
 30
0.0
 10
9.4072833362
 20
10.47785099
 30
0.0
 10
9.3876419977
 20
10.4781628334
 30
0.0
 10
9.3679637494
 20
10.4781836291
 30
0.0
 10
9.3483131601
 20
10.477913327
 30
0.0
 10
9.3287545928
 20
10.4773528071
 30
0.0
 10
9.309352142
 20
10.4765039248
 30
0.0
 10
9.2901693776
 20
10.4753694848
 30
0.0
 10
9.2712691443
 20
10.473953234
 30
0.0
 10
9.2527133549
 20
10.4722598501
 30
0.0
 10
9.234562786
 20
10.4702949265
 30
0.0
 10
9.2168768737
 20
10.4680649538
 30
0.0
 10
9.1997135136
 20
10.4655773057
 30
0.0
 10
9.1831288597
 20
10.4628402151
 30
0.0
 10
9.1671771523
 20
10.4598627394
 30
0.0
 10
9.1519104758
 20
10.4566547426
 30
0.0
 10
9.1373787774
 20
10.4532268276
 30
0.0
 10
9.1257717096
 20
10.450157105
 30
0.0
 10
9.1168944846
 20
10.4475926896
 30
0.0
 10
9.1105378709
 20
10.4456471367
 30
0.0
 10
9.1043990834
 20
10.4436553738
 30
0.0
 10
9.0984831303
 20
10.4416190036
 30
0.0
 10
9.0927948309
 20
10.439539749
 30
0.0
 10
9.0873388358
 20
10.4374192404
 30
0.0
 10
9.0821195682
 20
10.435259294
 30
0.0
 10
9.0771412848
 20
10.4330616076
 30
0.0
 10
9.0724080154
 20
10.4308280081
 30
0.0
 10
9.0679235859
 20
10.428560315
 30
0.0
 10
9.0636916351
 20
10.4262603116
 30
0.0
 10
9.059715534
 20
10.4239299257
 30
0.0
 10
9.055998512
 20
10.4215709149
 30
0.0
 10
9.0525434991
 20
10.4191852178
 30
0.0
 10
9.0493532708
 20
10.4167746281
 30
0.0
 10
9.0464303723
 20
10.414340975
 30
0.0
 10
9.0437771042
 20
10.4118861008
 30
0.0
 10
9.0413956954
 20
10.4094116775
 30
0.0
 10
9.0392880512
 20
10.4069195235
 30
0.0
 10
9.037456144
 20
10.4044112279
 30
0.0
 10
9.0359017131
 20
10.401888538
 30
0.0
 10
9.0346265285
 20
10.3993531704
 30
0.0
 10
9.0336323746
 20
10.3968070447
 30
0.0
 10
9.0329207541
 20
10.3942522714
 30
0.0
 10
9.032493226
 20
10.391691764
 30
0.0
 10
9.0323979615
 20
10.3899786757
 30
0.0
 10
9.0323979695
 20
10.3891276851
 30
0.0
  0
SPLINE
  5
2DA
100
AcDbEntity
  8
0
100
AcDbSpline
 62
7
  6
CONTINUOUS
 70
0
 71
3
 72
26
 73
22
 74
0
 42
0.0000001
 43
0.0000001
 44
0.0000000001
 40
0.0
 40
0.0
 40
0.0
 40
0.0
 40
0.0638610767
 40
0.0957116505
 40
0.127505992
 40
0.1909252329
 40
0.2541287749
 40
0.2856539756
 40
0.3171277433
 40
0.3485511975
 40
0.3799255757
 40
0.4425274868
 40
0.5049513675
 40
0.5672117261
 40
0.6293248414
 40
0.6913085928
 40
0.7531822771
 40
0.8149664042
 40
0.8766824761
 40
0.9383527515
 40
1.0
 40
1.0
 40
1.0
 40
1.0
 10
9.7594743505
 20
6.9700819803
 30
0.0
 10
9.773357046
 20
6.9691192121
 30
0.0
 10
9.7942046955
 20
6.9681947085
 30
0.0
 10
9.8219911768
 20
6.9680120099
 30
0.0
 10
9.8496777375
 20
6.9685283946
 30
0.0
 10
9.8841589852
 20
6.9704816872
 30
0.0
 10
9.9184379729
 20
6.9741834785
 30
0.0
 10
9.9456484544
 20
6.9781873432
 30
0.0
 10
9.9659234066
 20
6.9817061891
 30
0.0
 10
9.9860685319
 20
6.9857409959
 30
0.0
 10
10.0127167888
 20
6.9918004903
 30
0.0
 10
10.0456465179
 20
7.0006502373
 30
0.0
 10
10.0844695216
 20
7.0132939663
 30
0.0
 10
10.1224755953
 20
7.027922661
 30
0.0
 10
10.1595682844
 20
7.0444994357
 30
0.0
 10
10.1956543036
 20
7.0629826447
 30
0.0
 10
10.2306426841
 20
7.0833258069
 30
0.0
 10
10.264445182
 20
7.1054776494
 30
0.0
 10
10.296976896
 20
7.1293826863
 30
0.0
 10
10.3281547416
 20
7.1549796456
 30
0.0
 10
10.3479889711
 20
7.1731330318
 30
0.0
 10
10.3576511695
 20
7.1824659904
 30
0.0
  0
SPLINE
  5
2DB
100
AcDbEntity
  8
0
100
AcDbSpline
 62
7
  6
CONTINUOUS
 70
0
 71
3
 72
76
 73
72
 74
0
 42
0.0000001
 43
0.0000001
 44
0.0000000001
 40
0.0
 40
0.0
 40
0.0
 40
0.0
 40
0.0156747358
 40
0.0235325428
 40
0.0314031247
 40
0.0471815269
 40
0.0630096691
 40
0.0709422965
 40
0.0788865455
 40
0.0948074602
 40
0.1107706217
 40
0.1267727506
 40
0.1428102138
 40
0.1588790637
 40
0.1749750744
 40
0.1910937801
 40
0.2072305158
 40
0.2233804587
 40
0.2395386706
 40
0.2557001414
 40
0.2718598329
 40
0.2880127219
 40
0.304153845
 40
0.320278341
 40
0.3363814943
 40
0.3524587764
 40
0.3685058868
 40
0.384518792
 40
0.4004937632
 40
0.4164274116
 40
0.4323167216
 40
0.4481590813
 40
0.4639523095
 40
0.4796946803
 40
0.495384943
 40
0.5110223391
 40
0.5266066138
 40
0.542138024
 40
0.5576173411
 40
0.5730458482
 40
0.588425333
 40
0.6037580745
 40
0.6190468249
 40
0.6342947854
 40
0.6495055776
 40
0.6646832087
 40
0.6798320327
 40
0.6949567064
 40
0.7100621422
 40
0.7251534568
 40
0.7402359175
 40
0.7553148859
 40
0.7703957613
 40
0.7854839223
 40
0.8005846697
 40
0.8157031702
 40
0.8308444015
 40
0.8460131006
 40
0.8612137152
 40
0.8764503585
 40
0.8917267695
 40
0.9070462755
 40
0.9147237276
 40
0.9224129992
 40
0.9301143742
 40
0.9378281071
 40
0.9532923509
 40
0.9688083105
 40
0.9765865615
 40
0.9843782585
 40
1.0
 40
1.0
 40
1.0
 40
1.0
 10
9.7405805637
 20
8.6856689886
 30
0.0
 10
9.7553657895
 20
8.6846436297
 30
0.0
 10
9.7775301282
 20
8.6825605724
 30
0.0
 10
9.8069735342
 20
8.6787091205
 30
0.0
 10
9.8364127008
 20
8.6741318004
 30
0.0
 10
9.8730792197
 20
8.6670637182
 30
0.0
 10
9.9094221148
 20
8.6582343208
 30
0.0
 10
9.9382838433
 20
8.6501221102
 30
0.0
 10
9.9670287889
 20
8.6413016372
 30
0.0
 10
10.002629766
 20
8.6289780686
 30
0.0
 10
10.044686952
 20
8.6121646107
 30
0.0
 10
10.0860117467
 20
8.5933553031
 30
0.0
 10
10.1265040681
 20
8.5725956575
 30
0.0
 10
10.1660666256
 20
8.549935652
 30
0.0
 10
10.204604157
 20
8.5254298884
 30
0.0
 10
10.2420239246
 20
8.4991373877
 30
0.0
 10
10.2782358647
 20
8.4711214671
 30
0.0
 10
10.3131528231
 20
8.441449584
 30
0.0
 10
10.3466907607
 20
8.4101931775
 30
0.0
 10
10.3787689538
 20
8.3774274932
 30
0.0
 10
10.4093101878
 20
8.3432314037
 30
0.0
 10
10.4382409415
 20
8.3076872196
 30
0.0
 10
10.4654915641
 20
8.270880492
 30
0.0
 10
10.4909964416
 20
8.2328998079
 30
0.0
 10
10.5146941543
 20
8.193836578
 30
0.0
 10
10.5365276242
 20
8.1537848178
 30
0.0
 10
10.5564442519
 20
8.1128409227
 30
0.0
 10
10.5743960432
 20
8.0711034373
 30
0.0
 10
10.5903397244
 20
8.0286728198
 30
0.0
 10
10.6042368467
 20
7.9856512012
 30
0.0
 10
10.61605388
 20
7.9421421421
 30
0.0
 10
10.6257622963
 20
7.898250384
 30
0.0
 10
10.6333386354
 20
7.8540815984
 30
0.0
 10
10.6387645634
 20
7.8097421341
 30
0.0
 10
10.6420269177
 20
7.7653387623
 30
0.0
 10
10.6431177404
 20
7.7209784211
 30
0.0
 10
10.6420342991
 20
7.6767679594
 30
0.0
 10
10.6387790958
 20
7.6328138808
 30
0.0
 10
10.633359863
 20
7.5892220871
 30
0.0
 10
10.6257895476
 20
7.5460976249
 30
0.0
 10
10.6160862825
 20
7.5035444314
 30
0.0
 10
10.6042733461
 20
7.4616650844
 30
0.0
 10
10.5903791077
 20
7.4205605543
 30
0.0
 10
10.5744369656
 20
7.380329958
 30
0.0
 10
10.5564852673
 20
7.3410703186
 30
0.0
 10
10.5365672178
 20
7.3028763293
 30
0.0
 10
10.5147307775
 20
7.2658401229
 30
0.0
 10
10.4910285476
 20
7.2300510466
 30
0.0
 10
10.4655176445
 20
7.1955954433
 30
0.0
 10
10.4382595614
 20
7.1625564403
 30
0.0
 10
10.4093200202
 20
7.1310137453
 30
0.0
 10
10.3787688113
 20
7.1010434514
 30
0.0
 10
10.346679624
 20
7.0727178506
 30
0.0
 10
10.313129866
 20
7.0461052573
 30
0.0
 10
10.2782004745
 20
7.0212698412
 30
0.0
 10
10.2419757164
 20
6.9982714718
 30
0.0
 10
10.2045429894
 20
6.9771655711
 30
0.0
 10
10.1659925841
 20
6.9580029779
 30
0.0
 10
10.1264175446
 20
6.9408298419
 30
0.0
 10
10.0859131357
 20
6.9256874561
 30
0.0
 10
10.0445777533
 20
6.9126123729
 30
0.0
 10
10.0095454116
 20
6.9034716373
 30
0.0
 10
9.9812099257
 20
6.8972201408
 30
0.0
 10
9.9597962643
 20
6.8930616583
 30
0.0
 10
9.9382506298
 20
6.889439523
 30
0.0
 10
9.9093424236
 20
6.8853249861
 30
0.0
 10
9.872936977
 20
6.8815357018
 30
0.0
 10
9.8363274062
 20
6.8795623818
 30
0.0
 10
9.8069365301
 20
6.8790703156
 30
0.0
 10
9.7774430294
 20
6.8793042941
 30
0.0
 10
9.7553158025
 20
6.8802974557
 30
0.0
 10
9.7405805637
 20
6.8813193479
 30
0.0
  0
SPLINE
  5
2DC
100
AcDbEntity
  8
0
100
AcDbSpline
 62
7
  6
CONTINUOUS
 70
0
 71
3
 72
52
 73
48
 74
0
 42
0.0000001
 43
0.0000001
 44
0.0000000001
 40
0.0
 40
0.0
 40
0.0
 40
0.0
 40
0.0417978167
 40
0.0840615308
 40
0.1266599452
 40
0.1694647093
 40
0.2123442471
 40
0.2551676124
 40
0.2978038023
 40
0.340122612
 40
0.381995097
 40
0.4232940911
 40
0.4638947378
 40
0.5036750193
 40
0.5425163039
 40
0.5803039261
 40
0.6169277796
 40
0.6522829323
 40
0.686270301
 40
0.7187974019
 40
0.7497792075
 40
0.7646667639
 40
0.7791400971
 40
0.7931911326
 40
0.8068125303
 40
0.8199977802
 40
0.8327410449
 40
0.8450376044
 40
0.8568835364
 40
0.868276178
 40
0.8792140523
 40
0.8896970245
 40
0.8997266904
 40
0.9093062438
 40
0.9184411643
 40
0.9271391635
 40
0.9354108014
 40
0.9432698937
 40
0.9507338843
 40
0.9578247196
 40
0.9645691193
 40
0.9709994962
 40
0.9771542504
 40
0.983078108
 40
0.9888220398
 40
0.9944424548
 40
1.0
 40
1.0
 40
1.0
 40
1.0
 10
8.3659692232
 20
9.4131288491
 30
0.0
 10
8.3595843322
 20
9.4135716428
 30
0.0
 10
8.3467360891
 20
9.414360086
 30
0.0
 10
8.3273611934
 20
9.4152499585
 30
0.0
 10
8.3078209178
 20
9.4158517822
 30
0.0
 10
8.2881795793
 20
9.4161636256
 30
0.0
 10
8.2685013311
 20
9.4161844213
 30
0.0
 10
8.2488507418
 20
9.4159141192
 30
0.0
 10
8.2292921745
 20
9.4153535993
 30
0.0
 10
8.2098897237
 20
9.4145047169
 30
0.0
 10
8.1907069592
 20
9.4133702769
 30
0.0
 10
8.1718067259
 20
9.4119540262
 30
0.0
 10
8.1532509366
 20
9.4102606423
 30
0.0
 10
8.1351003676
 20
9.4082957187
 30
0.0
 10
8.1174144554
 20
9.4060657459
 30
0.0
 10
8.1002510953
 20
9.4035780979
 30
0.0
 10
8.0836664414
 20
9.4008410073
 30
0.0
 10
8.067714734
 20
9.3978635316
 30
0.0
 10
8.0524480574
 20
9.3946555347
 30
0.0
 10
8.0379163591
 20
9.3912276198
 30
0.0
 10
8.0263092912
 20
9.3881578972
 30
0.0
 10
8.0174320662
 20
9.3855934818
 30
0.0
 10
8.0110754526
 20
9.3836479289
 30
0.0
 10
8.004936665
 20
9.381656166
 30
0.0
 10
7.999020712
 20
9.3796197958
 30
0.0
 10
7.9933324126
 20
9.3775405412
 30
0.0
 10
7.9878764175
 20
9.3754200326
 30
0.0
 10
7.9826571499
 20
9.3732600862
 30
0.0
 10
7.9776788664
 20
9.3710623998
 30
0.0
 10
7.9729455971
 20
9.3688288003
 30
0.0
 10
7.9684611675
 20
9.3665611072
 30
0.0
 10
7.9642292167
 20
9.3642611038
 30
0.0
 10
7.9602531157
 20
9.3619307178
 30
0.0
 10
7.9565360937
 20
9.3595717071
 30
0.0
 10
7.9530810808
 20
9.35718601
 30
0.0
 10
7.9498908525
 20
9.3547754203
 30
0.0
 10
7.946967954
 20
9.3523417671
 30
0.0
 10
7.9443146859
 20
9.349886893
 30
0.0
 10
7.9419332771
 20
9.3474124697
 30
0.0
 10
7.9398256329
 20
9.3449203157
 30
0.0
 10
7.9379937257
 20
9.3424120201
 30
0.0
 10
7.9364392948
 20
9.3398893301
 30
0.0
 10
7.9351641102
 20
9.3373539626
 30
0.0
 10
7.9341699563
 20
9.3348078369
 30
0.0
 10
7.9334583358
 20
9.3322530636
 30
0.0
 10
7.9330308076
 20
9.3296925562
 30
0.0
 10
7.9329355431
 20
9.3279794679
 30
0.0
 10
7.9329355512
 20
9.3271284773
 30
0.0
  0
SPLINE
  5
2DD
100
AcDbEntity
  8
0
100
AcDbSpline
 62
7
  6
CONTINUOUS
 70
0
 71
3
 72
55
 73
51
 74
0
 42
0.0000001
 43
0.0000001
 44
0.0000000001
 40
0.0
 40
0.0
 40
0.0
 40
0.0
 40
0.0311423829
 40
0.0624377778
 40
0.093880312
 40
0.125460263
 40
0.1571654449
 40
0.188981101
 40
0.2208902864
 40
0.2528742194
 40
0.2849126594
 40
0.3169843077
 40
0.3490672249
 40
0.3811392539
 40
0.4131784475
 40
0.4451634934
 40
0.4770741292
 40
0.5088915435
 40
0.5247623142
 40
0.5406035882
 40
0.5564135909
 40
0.5721906992
 40
0.587933461
 40
0.6036405973
 40
0.6193110081
 40
0.6349437882
 40
0.6505382227
 40
0.666093798
 40
0.6816102083
 40
0.6970873494
 40
0.7125253318
 40
0.7279244759
 40
0.7432853089
 40
0.7586085732
 40
0.7738952136
 40
0.7891463785
 40
0.8043634177
 40
0.8195478679
 40
0.8347014538
 40
0.8498260762
 40
0.8649237983
 40
0.8799968426
 40
0.8950475728
 40
0.9100784807
 40
0.925092178
 40
0.940091374
 40
0.9550788642
 40
0.9700575152
 40
0.9850302429
 40
1.0
 40
1.0
 40
1.0
 40
1.0
 10
11.3092442686
 20
7.0256047771
 30
0.0
 10
11.2933938095
 20
7.0267040102
 30
0.0
 10
11.2616836777
 20
7.0300680645
 30
0.0
 10
11.2145029273
 20
7.0385422284
 30
0.0
 10
11.1678275265
 20
7.050411942
 30
0.0
 10
11.1219095417
 20
7.0656134281
 30
0.0
 10
11.0769929471
 20
7.0840652387
 30
0.0
 10
11.0333173247
 20
7.1056686218
 30
0.0
 10
10.9911153315
 20
7.1303081252
 30
0.0
 10
10.9506118551
 20
7.1578522126
 30
0.0
 10
10.9120227178
 20
7.1881539338
 30
0.0
 10
10.8755535091
 20
7.22105164
 30
0.0
 10
10.8413985686
 20
7.2563699276
 30
0.0
 10
10.8097399538
 20
7.2939205981
 30
0.0
 10
10.7807465134
 20
7.3335034453
 30
0.0
 10
10.7545727003
 20
7.3749079189
 30
0.0
 10
10.7313587324
 20
7.4179119301
 30
0.0
 10
10.7145672672
 20
7.4549274755
 30
0.0
 10
10.7027340757
 20
7.4851080763
 30
0.0
 10
10.6946753098
 20
7.5079803377
 30
0.0
 10
10.6874371756
 20
7.5310750406
 30
0.0
 10
10.681029301
 20
7.5543617327
 30
0.0
 10
10.6754601715
 20
7.5778092034
 30
0.0
 10
10.6707372784
 20
7.6013861949
 30
0.0
 10
10.6668669917
 20
7.625061233
 30
0.0
 10
10.6638543732
 20
7.6488026955
 30
0.0
 10
10.661703582
 20
7.6725789035
 30
0.0
 10
10.6604174565
 20
7.6963581049
 30
0.0
 10
10.6599976748
 20
7.720108551
 30
0.0
 10
10.6604449462
 20
7.7437985303
 30
0.0
 10
10.6617585667
 20
7.7673964086
 30
0.0
 10
10.6639368386
 20
7.7908706753
 30
0.0
 10
10.6669769396
 20
7.8141899706
 30
0.0
 10
10.6708746976
 20
7.8373231668
 30
0.0
 10
10.675625038
 20
7.8602393493
 30
0.0
 10
10.6812216038
 20
7.8829079086
 30
0.0
 10
10.6876568646
 20
7.9052985845
 30
0.0
 10
10.694922374
 20
7.9273814252
 30
0.0
 10
10.703008332
 20
7.9491269602
 30
0.0
 10
10.7119039706
 20
7.9705061334
 30
0.0
 10
10.7215975009
 20
7.9914903402
 30
0.0
 10
10.7320758596
 20
8.0120515983
 30
0.0
 10
10.7433251524
 20
8.0321623874
 30
0.0
 10
10.7553303508
 20
8.0517958319
 30
0.0
 10
10.768075344
 20
8.0709257434
 30
0.0
 10
10.7815432337
 20
8.0895264842
 30
0.0
 10
10.7957159221
 20
8.1075732282
 30
0.0
 10
10.8105745625
 20
8.1250419527
 30
0.0
 10
10.8260990621
 20
8.1419089071
 30
0.0
 10
10.8368798895
 20
8.1527385861
 30
0.0
 10
10.842373129
 20
8.1580446663
 30
0.0
  0
SPLINE
  5
2DE
100
AcDbEntity
  8
0
100
AcDbSpline
 62
7
  6
CONTINUOUS
 70
0
 71
3
 72
23
 73
19
 74
0
 42
0.0000001
 43
0.0000001
 44
0.0000000001
 40
0.0
 40
0.0
 40
0.0
 40
0.0
 40
0.0635433362
 40
0.1269389642
 40
0.190180529
 40
0.2532717655
 40
0.316215
 40
0.3790120733
 40
0.4416663486
 40
0.5041818772
 40
0.5665632324
 40
0.6288157291
 40
0.6909453293
 40
0.7529586034
 40
0.8148627272
 40
0.8766654193
 40
0.9383749329
 40
1.0
 40
1.0
 40
1.0
 40
1.0
 10
10.096715288
 20
7.3209458037
 30
0.0
 10
10.1059758673
 20
7.3203035804
 30
0.0
 10
10.1244990944
 20
7.3193377478
 30
0.0
 10
10.1522828532
 20
7.318848313
 30
0.0
 10
10.1800012312
 20
7.3193207904
 30
0.0
 10
10.2076203044
 20
7.3207545469
 30
0.0
 10
10.2351077142
 20
7.3231477233
 30
0.0
 10
10.2624307054
 20
7.3264977332
 30
0.0
 10
10.289556726
 20
7.330800464
 30
0.0
 10
10.3164535336
 20
7.3360508095
 30
0.0
 10
10.343089109
 20
7.3422426572
 30
0.0
 10
10.3694317924
 20
7.3493684972
 30
0.0
 10
10.3954502068
 20
7.3574199959
 30
0.0
 10
10.4211134101
 20
7.3663875498
 30
0.0
 10
10.4463908607
 20
7.376260421
 30
0.0
 10
10.4712525303
 20
7.3870270839
 30
0.0
 10
10.4956684826
 20
7.3986743483
 30
0.0
 10
10.5116404107
 20
7.4070229854
 30
0.0
 10
10.5195410491
 20
7.4113388302
 30
0.0
  0
SPLINE
  5
2DF
100
AcDbEntity
  8
0
100
AcDbSpline
 62
7
  6
CONTINUOUS
 70
0
 71
3
 72
60
 73
56
 74
0
 42
0.0000001
 43
0.0000001
 44
0.0000000001
 40
0.0
 40
0.0
 40
0.0
 40
0.0
 40
0.0417736946
 40
0.084036273
 40
0.1266574884
 40
0.1695051326
 40
0.2124463996
 40
0.2553480056
 40
0.2980768578
 40
0.340500534
 40
0.3824878216
 40
0.423909243
 40
0.4646375902
 40
0.5045484653
 40
0.5435208314
 40
0.5814375809
 40
0.5999649312
 40
0.618186568
 40
0.6360891978
 40
0.6536599534
 40
0.6708862834
 40
0.6877561191
 40
0.7042577531
 40
0.72038001
 40
0.7361121415
 40
0.751443978
 40
0.7663658649
 40
0.7808687762
 40
0.7949443138
 40
0.8085847706
 40
0.8217832093
 40
0.8345334736
 40
0.8468303542
 40
0.8586695603
 40
0.8700479747
 40
0.8809636125
 40
0.8914159615
 40
0.9014059734
 40
0.910936483
 40
0.9200122954
 40
0.9286406842
 40
0.9368316446
 40
0.9445984841
 40
0.9519582967
 40
0.958932651
 40
0.9655482683
 40
0.9718377143
 40
0.9778400536
 40
0.9836011758
 40
0.9864084793
 40
0.9891757987
 40
0.9919106634
 40
0.9946209114
 40
0.9973146136
 40
1.0
 40
1.0
 40
1.0
 40
1.0
 10
14.1902429302
 20
8.581538221
 30
0.0
 10
14.1902429302
 20
8.5651210398
 30
0.0
 10
14.1899868051
 20
8.5320940287
 30
0.0
 10
14.1888545191
 20
8.4823284261
 30
0.0
 10
14.1869752059
 20
8.4321629893
 30
0.0
 10
14.1843550219
 20
8.3817637619
 30
0.0
 10
14.1810026287
 20
8.3312975032
 30
0.0
 10
14.176929106
 20
8.2809311637
 30
0.0
 10
14.1721479485
 20
8.2308313789
 30
0.0
 10
14.1666750056
 20
8.18116389
 30
0.0
 10
14.1605284354
 20
8.132093001
 30
0.0
 10
14.1537286438
 20
8.0837810242
 30
0.0
 10
14.1462982163
 20
8.0363877548
 30
0.0
 10
14.1382618534
 20
7.9900698761
 30
0.0
 10
14.1296462589
 20
7.94498065
 30
0.0
 10
14.1219499007
 20
7.9082776118
 30
0.0
 10
14.1155160383
 20
7.8796473877
 30
0.0
 10
14.1106012477
 20
7.8587386441
 30
0.0
 10
14.1055640353
 20
7.8382459831
 30
0.0
 10
14.1004086228
 20
7.8181863347
 30
0.0
 10
14.0951392197
 20
7.7985762966
 30
0.0
 10
14.0897602663
 20
7.7794320776
 30
0.0
 10
14.084276153
 20
7.7607695105
 30
0.0
 10
14.0786914935
 20
7.7426040149
 30
0.0
 10
14.0730108605
 20
7.7249506077
 30
0.0
 10
14.0672390138
 20
7.7078238665
 30
0.0
 10
14.0613807023
 20
7.691237939
 30
0.0
 10
14.0554408062
 20
7.6752065119
 30
0.0
 10
14.0494242411
 20
7.6597428115
 30
0.0
 10
14.0433359836
 20
7.6448595873
 30
0.0
 10
14.0371811011
 20
7.6305690928
 30
0.0
 10
14.0309646435
 20
7.6168830964
 30
0.0
 10
14.024691808
 20
7.6038128292
 30
0.0
 10
14.0183676956
 20
7.5913690357
 30
0.0
 10
14.0119976008
 20
7.5795618773
 30
0.0
 10
14.0055866512
 20
7.5684010329
 30
0.0
 10
13.9991401905
 20
7.557895552
 30
0.0
 10
13.9926633425
 20
7.5480540079
 30
0.0
 10
13.9861614284
 20
7.5388843082
 30
0.0
 10
13.9796395201
 20
7.5303938905
 30
0.0
 10
13.9731028158
 20
7.5225895195
 30
0.0
 10
13.9665562561
 20
7.5154775016
 30
0.0
 10
13.9600047867
 20
7.5090635272
 30
0.0
 10
13.9534531162
 20
7.5033528712
 30
0.0
 10
13.9469058185
 20
7.4983503671
 30
0.0
 10
13.9403673814
 20
7.4940605516
 30
0.0
 10
13.9338419846
 20
7.4904878183
 30
0.0
 10
13.9273347416
 20
7.4876364947
 30
0.0
 10
13.9218831374
 20
7.4858497562
 30
0.0
 10
13.9175522919
 20
7.4847978503
 30
0.0
 10
13.9143406479
 20
7.4841973281
 30
0.0
 10
13.9111387299
 20
7.483778869
 30
0.0
 10
13.9079471606
 20
7.4835425519
 30
0.0
 10
13.9047668409
 20
7.483488439
 30
0.0
 10
13.9026531915
 20
7.4835739341
 30
0.0
 10
13.9016003558
 20
7.4836469487
 30
0.0
  0
SPLINE
  5
2E0
100
AcDbEntity
  8
0
100
AcDbSpline
 62
7
  6
CONTINUOUS
 70
0
 71
3
 72
23
 73
19
 74
0
 42
0.0000001
 43
0.0000001
 44
0.0000000001
 40
0.0
 40
0.0
 40
0.0
 40
0.0
 40
0.0635820697
 40
0.12700901
 40
0.1902749383
 40
0.2533840246
 40
0.3163384736
 40
0.3791406575
 40
0.4417945082
 40
0.5043046154
 40
0.5666762591
 40
0.6289155362
 40
0.6910292782
 40
0.7530249896
 40
0.8149108449
 40
0.8766956415
 40
0.9383887323
 40
1.0
 40
1.0
 40
1.0
 40
1.0
 10
10.1061293227
 20
7.350323507
 30
0.0
 10
10.1155707888
 20
7.3496687391
 30
0.0
 10
10.1344559216
 20
7.3486989054
 30
0.0
 10
10.1627807916
 20
7.3482672819
 30
0.0
 10
10.1910327263
 20
7.3488614123
 30
0.0
 10
10.2191739854
 20
7.3504804599
 30
0.0
 10
10.2471684549
 20
7.3531222141
 30
0.0
 10
10.2749796218
 20
7.3567834022
 30
0.0
 10
10.3025712497
 20
7.3614592671
 30
0.0
 10
10.329907476
 20
7.3671436377
 30
0.0
 10
10.3569527007
 20
7.3738292555
 30
0.0
 10
10.383671722
 20
7.3815074054
 30
0.0
 10
10.4100297859
 20
7.3901680372
 30
0.0
 10
10.4359925502
 20
7.3998000261
 30
0.0
 10
10.4615262078
 20
7.4103907532
 30
0.0
 10
10.4865976599
 20
7.4219264909
 30
0.0
 10
10.5111737424
 20
7.4343920948
 30
0.0
 10
10.5272171696
 20
7.4433175779
 30
0.0
 10
10.53514415
 20
7.4479291268
 30
0.0
  0
SPLINE
  5
2E1
100
AcDbEntity
  8
0
100
AcDbSpline
 62
7
  6
CONTINUOUS
 70
0
 71
3
 72
60
 73
56
 74
0
 42
0.0000001
 43
0.0000001
 44
0.0000000001
 40
0.0
 40
0.0
 40
0.0
 40
0.0
 40
0.0417736946
 40
0.084036273
 40
0.1266574884
 40
0.1695051326
 40
0.2124463996
 40
0.2553480056
 40
0.2980768578
 40
0.340500534
 40
0.3824878216
 40
0.423909243
 40
0.4646375902
 40
0.5045484653
 40
0.5435208314
 40
0.5814375809
 40
0.5999649312
 40
0.618186568
 40
0.6360891978
 40
0.6536599534
 40
0.6708862834
 40
0.6877561191
 40
0.7042577531
 40
0.72038001
 40
0.7361121415
 40
0.751443978
 40
0.7663658649
 40
0.7808687762
 40
0.7949443138
 40
0.8085847706
 40
0.8217832093
 40
0.8345334736
 40
0.8468303542
 40
0.8586695603
 40
0.8700479747
 40
0.8809636125
 40
0.8914159615
 40
0.9014059734
 40
0.910936483
 40
0.9200122954
 40
0.9286406842
 40
0.9368316446
 40
0.9445984841
 40
0.9519582967
 40
0.958932651
 40
0.9655482683
 40
0.9718377143
 40
0.9778400536
 40
0.9836011758
 40
0.9864084793
 40
0.9891757987
 40
0.9919106634
 40
0.9946209114
 40
0.9973146136
 40
1.0
 40
1.0
 40
1.0
 40
1.0
 10
13.5918538441
 20
8.0035387143
 30
0.0
 10
13.5918538441
 20
7.9871215331
 30
0.0
 10
13.591597719
 20
7.954094522
 30
0.0
 10
13.5904654329
 20
7.9043289194
 30
0.0
 10
13.5885861198
 20
7.8541634826
 30
0.0
 10
13.5859659358
 20
7.8037642552
 30
0.0
 10
13.5826135426
 20
7.7532979965
 30
0.0
 10
13.5785400199
 20
7.702931657
 30
0.0
 10
13.5737588624
 20
7.6528318722
 30
0.0
 10
13.5682859195
 20
7.6031643833
 30
0.0
 10
13.5621393493
 20
7.5540934943
 30
0.0
 10
13.5553395577
 20
7.5057815175
 30
0.0
 10
13.5479091302
 20
7.4583882481
 30
0.0
 10
13.5398727673
 20
7.4120703694
 30
0.0
 10
13.5312571728
 20
7.3669811433
 30
0.0
 10
13.5235608146
 20
7.3302781051
 30
0.0
 10
13.5171269522
 20
7.301647881
 30
0.0
 10
13.5122121616
 20
7.2807391374
 30
0.0
 10
13.5071749492
 20
7.2602464764
 30
0.0
 10
13.5020195367
 20
7.2401868281
 30
0.0
 10
13.4967501336
 20
7.22057679
 30
0.0
 10
13.4913711802
 20
7.2014325709
 30
0.0
 10
13.4858870668
 20
7.1827700038
 30
0.0
 10
13.4803024074
 20
7.1646045082
 30
0.0
 10
13.4746217744
 20
7.146951101
 30
0.0
 10
13.4688499277
 20
7.1298243598
 30
0.0
 10
13.4629916161
 20
7.1132384323
 30
0.0
 10
13.4570517201
 20
7.0972070052
 30
0.0
 10
13.451035155
 20
7.0817433048
 30
0.0
 10
13.4449468975
 20
7.0668600806
 30
0.0
 10
13.438792015
 20
7.0525695862
 30
0.0
 10
13.4325755574
 20
7.0388835897
 30
0.0
 10
13.4263027219
 20
7.0258133225
 30
0.0
 10
13.4199786095
 20
7.013369529
 30
0.0
 10
13.4136085147
 20
7.0015623706
 30
0.0
 10
13.4071975651
 20
6.9904015262
 30
0.0
 10
13.4007511044
 20
6.9798960453
 30
0.0
 10
13.3942742564
 20
6.9700545012
 30
0.0
 10
13.3877723423
 20
6.9608848015
 30
0.0
 10
13.381250434
 20
6.9523943839
 30
0.0
 10
13.3747137297
 20
6.9445900128
 30
0.0
 10
13.3681671699
 20
6.9374779949
 30
0.0
 10
13.3616157006
 20
6.9310640205
 30
0.0
 10
13.3550640301
 20
6.9253533645
 30
0.0
 10
13.3485167324
 20
6.9203508604
 30
0.0
 10
13.3419782953
 20
6.916061045
 30
0.0
 10
13.3354528985
 20
6.9124883116
 30
0.0
 10
13.3289456555
 20
6.909636988
 30
0.0
 10
13.3234940513
 20
6.9078502495
 30
0.0
 10
13.3191632058
 20
6.9067983436
 30
0.0
 10
13.3159515618
 20
6.9061978214
 30
0.0
 10
13.3127496437
 20
6.9057793623
 30
0.0
 10
13.3095580745
 20
6.9055430452
 30
0.0
 10
13.3063777548
 20
6.9054889323
 30
0.0
 10
13.3042641054
 20
6.9055744274
 30
0.0
 10
13.3032112697
 20
6.9056474421
 30
0.0
  0
SPLINE
  5
2E2
100
AcDbEntity
  8
0
100
AcDbSpline
 62
7
  6
CONTINUOUS
 70
0
 71
3
 72
21
 73
17
 74
0
 42
0.0000001
 43
0.0000001
 44
0.0000000001
 40
0.0
 40
0.0
 40
0.0
 40
0.0
 40
0.1267542116
 40
0.2529675567
 40
0.3158817647
 40
0.3786646309
 40
0.4413181528
 40
0.5038452478
 40
0.5662492151
 40
0.6285337326
 40
0.6907030269
 40
0.752761773
 40
0.8147150978
 40
0.8765685432
 40
0.9383280628
 40
1.0
 40
1.0
 40
1.0
 40
1.0
 10
10.1774667634
 20
7.4192301875
 30
0.0
 10
10.1935697667
 20
7.4181134405
 30
0.0
 10
10.2257835618
 20
7.4168671574
 30
0.0
 10
10.2660261106
 20
7.4177992444
 30
0.0
 10
10.2980319558
 20
7.420041935
 30
0.0
 10
10.321898915
 20
7.4224669069
 30
0.0
 10
10.3456288452
 20
7.4256342206
 30
0.0
 10
10.3691994729
 20
7.4295409476
 30
0.0
 10
10.3925884303
 20
7.434183248
 30
0.0
 10
10.4157735163
 20
7.4395569261
 30
0.0
 10
10.4387327837
 20
7.4456566781
 30
0.0
 10
10.4614444119
 20
7.4524769487
 30
0.0
 10
10.4838869002
 20
7.4600110675
 30
0.0
 10
10.5060389901
 20
7.4682521033
 30
0.0
 10
10.5278794198
 20
7.4771919829
 30
0.0
 10
10.5422284985
 20
7.4836168907
 30
0.0
 10
10.5493432429
 20
7.4869426852
 30
0.0
  0
SPLINE
  5
2E3
100
AcDbEntity
  8
0
100
AcDbSpline
 62
7
  6
CONTINUOUS
 70
0
 71
3
 72
28
 73
24
 74
0
 42
0.0000001
 43
0.0000001
 44
0.0000000001
 40
0.0
 40
0.0
 40
0.0
 40
0.0
 40
0.0616465572
 40
0.0924798212
 40
0.1233217026
 40
0.1850370795
 40
0.2468205085
 40
0.2777472544
 40
0.3086990012
 40
0.3396782733
 40
0.3706875295
 40
0.43279994
 40
0.4950595942
 40
0.5574827697
 40
0.6200839761
 40
0.6828758318
 40
0.71434923
 40
0.7458740756
 40
0.8090769614
 40
0.8724953205
 40
0.9042893743
 40
0.9361398561
 40
1.0
 40
1.0
 40
1.0
 40
1.0
 10
11.7761154081
 20
7.1913692754
 30
0.0
 10
11.7685741662
 20
7.18408497
 30
0.0
 10
11.7569640345
 20
7.1734586715
 30
0.0
 10
11.7409320935
 20
7.1599316045
 30
0.0
 10
11.7245331676
 20
7.1468322459
 30
0.0
 10
11.7033692387
 20
7.1312803657
 30
0.0
 10
11.6813902772
 20
7.1168769239
 30
0.0
 10
11.6633492249
 20
7.1060617229
 30
0.0
 10
11.6495899642
 20
7.0983048414
 30
0.0
 10
11.6356165737
 20
7.0909106306
 30
0.0
 10
11.6167027534
 20
7.0815372356
 30
0.0
 10
11.5925630714
 20
7.0707490117
 30
0.0
 10
11.5629001413
 20
7.0593315832
 30
0.0
 10
11.5325986459
 20
7.0494630917
 30
0.0
 10
11.5017359578
 20
7.0411686765
 30
0.0
 10
11.4756327191
 20
7.0355897747
 30
0.0
 10
11.4545515141
 20
7.0319310213
 30
0.0
 10
11.4333138773
 20
7.0288060004
 30
0.0
 10
11.4065595108
 20
7.0259167951
 30
0.0
 10
11.3796472073
 20
7.0243922357
 30
0.0
 10
11.3580380734
 20
7.0239891841
 30
0.0
 10
11.3363509579
 20
7.0241317997
 30
0.0
 10
11.320079549
 20
7.0248533479
 30
0.0
 10
11.3092442686
 20
7.0256047771
 30
0.0
  0
SPLINE
  5
2E4
100
AcDbEntity
  8
0
100
AcDbSpline
 62
7
  6
CONTINUOUS
 70
0
 71
3
 72
23
 73
19
 74
0
 42
0.0000001
 43
0.0000001
 44
0.0000000001
 40
0.0
 40
0.0
 40
0.0
 40
0.0
 40
0.0635649727
 40
0.1269786635
 40
0.1902341712
 40
0.2533354576
 40
0.3162851627
 40
0.379085275
 40
0.4417394177
 40
0.5042519939
 40
0.5666279573
 40
0.6288730509
 40
0.6909937105
 40
0.7529970293
 40
0.8148907363
 40
0.8766831365
 40
0.938383103
 40
1.0
 40
1.0
 40
1.0
 40
1.0
 10
10.1981722699
 20
7.5165042429
 30
0.0
 10
10.2065223528
 20
7.5159251627
 30
0.0
 10
10.2232245073
 20
7.5150616872
 30
0.0
 10
10.2482759312
 20
7.5146538325
 30
0.0
 10
10.2732653337
 20
7.5151357379
 30
0.0
 10
10.2981605139
 20
7.5165067203
 30
0.0
 10
10.3229307918
 20
7.5187649083
 30
0.0
 10
10.3475451116
 20
7.5219077499
 30
0.0
 10
10.371972616
 20
7.5259311538
 30
0.0
 10
10.3961827448
 20
7.530830139
 30
0.0
 10
10.4201451779
 20
7.5365986654
 30
0.0
 10
10.4438299457
 20
7.5432293802
 30
0.0
 10
10.4672073479
 20
7.5507141593
 30
0.0
 10
10.4902481529
 20
7.5590435401
 30
0.0
 10
10.5129234836
 20
7.5682070989
 30
0.0
 10
10.5352050051
 20
7.5781935361
 30
0.0
 10
10.5570644981
 20
7.5889899665
 30
0.0
 10
10.5713476669
 20
7.5967240643
 30
0.0
 10
10.578408515
 20
7.6007209675
 30
0.0
  0
SPLINE
  5
2E5
100
AcDbEntity
  8
0
100
AcDbSpline
 62
7
  6
CONTINUOUS
 70
0
 71
3
 72
67
 73
63
 74
0
 42
0.0000001
 43
0.0000001
 44
0.0000000001
 40
0.0
 40
0.0
 40
0.0
 40
0.0
 40
0.0155529919
 40
0.0311456664
 40
0.0467761022
 40
0.0624442995
 40
0.0781493133
 40
0.0938899495
 40
0.1096649852
 40
0.1254729684
 40
0.1413122783
 40
0.1571811472
 40
0.173077654
 40
0.1889997433
 40
0.2049452325
 40
0.2209118224
 40
0.2368971132
 40
0.2528986119
 40
0.2689137462
 40
0.2849398801
 40
0.3170096725
 40
0.349090733
 40
0.3811609056
 40
0.4131982442
 40
0.4292002548
 40
0.4451861438
 40
0.461153417
 40
0.4770996701
 40
0.4930225999
 40
0.5089200208
 40
0.5247898721
 40
0.5406302281
 40
0.5564393135
 40
0.5722155082
 40
0.5879573568
 40
0.6036635816
 40
0.619333085
 40
0.6349649572
 40
0.6505584871
 40
0.6661131612
 40
0.6816286696
 40
0.6971049134
 40
0.7125420007
 40
0.7279402497
 40
0.7433001925
 40
0.7586225677
 40
0.7739083201
 40
0.789158601
 40
0.8043747569
 40
0.8195583258
 40
0.8347110332
 40
0.8498347779
 40
0.8649316244
 40
0.8800037948
 40
0.8950536521
 40
0.9100836889
 40
0.9250965158
 40
0.9400948429
 40
0.955081465
 40
0.9700592481
 40
0.9850311093
 40
1.0
 40
1.0
 40
1.0
 40
1.0
 10
9.7594743505
 20
6.9700819803
 30
0.0
 10
9.7493314177
 20
6.9707853951
 30
0.0
 10
9.729043424
 20
6.9725641073
 30
0.0
 10
9.6986921031
 20
6.9763357101
 30
0.0
 10
9.6684215294
 20
6.9812096538
 30
0.0
 10
9.6382731208
 20
6.9871791725
 30
0.0
 10
9.6082866035
 20
6.9942362848
 30
0.0
 10
9.5785021184
 20
7.0023715973
 30
0.0
 10
9.5489594652
 20
7.0115742698
 30
0.0
 10
9.5196980282
 20
7.0218319189
 30
0.0
 10
9.4907568713
 20
7.0331308569
 30
0.0
 10
9.4621746576
 20
7.0454560589
 30
0.0
 10
9.4339894951
 20
7.0587909668
 30
0.0
 10
9.4062390089
 20
7.0731177908
 30
0.0
 10
9.3789602733
 20
7.0884174664
 30
0.0
 10
9.3521896532
 20
7.1046694658
 30
0.0
 10
9.3259628644
 20
7.1218521373
 30
0.0
 10
9.3003150455
 20
7.1399425114
 30
0.0
 10
9.2752800215
 20
7.1589166758
 30
0.0
 10
9.2427582219
 20
7.1853627677
 30
0.0
 10
9.2038067351
 20
7.2204993799
 30
0.0
 10
9.1600464955
 20
7.2657505975
 30
0.0
 10
9.1194842772
 20
7.3138616386
 30
0.0
 10
9.0885126476
 20
7.3561457863
 30
0.0
 10
9.0655432116
 20
7.3911425176
 30
0.0
 10
9.0492473464
 20
7.4179310225
 30
0.0
 10
9.0338998929
 20
7.445231726
 30
0.0
 10
9.0195211041
 20
7.4730085985
 30
0.0
 10
9.0061302978
 20
7.5012244823
 30
0.0
 10
8.9937452485
 20
7.5298417031
 30
0.0
 10
8.9823825608
 20
7.5588220853
 30
0.0
 10
8.9720574475
 20
7.5881269597
 30
0.0
 10
8.9627836136
 20
7.6177171791
 30
0.0
 10
8.954573517
 20
7.6475532697
 30
0.0
 10
8.9474381617
 20
7.6775954093
 30
0.0
 10
8.9413869974
 20
7.7078034743
 30
0.0
 10
8.9364281911
 20
7.7381371561
 30
0.0
 10
8.9325684031
 20
7.7685559593
 30
0.0
 10
8.929812714
 20
7.799019263
 30
0.0
 10
8.9281649009
 20
7.8294864051
 30
0.0
 10
8.9276271985
 20
7.859916703
 30
0.0
 10
8.9282002561
 20
7.8902695247
 30
0.0
 10
8.9298834138
 20
7.9205043398
 30
0.0
 10
8.9326744514
 20
7.9505807676
 30
0.0
 10
8.9365695776
 20
7.9804586511
 30
0.0
 10
8.9415637004
 20
8.0100980764
 30
0.0
 10
8.947650169
 20
8.0394594507
 30
0.0
 10
8.9548207945
 20
8.0685035734
 30
0.0
 10
8.9630661108
 20
8.0971916252
 30
0.0
 10
8.9723751134
 20
8.1254852789
 30
0.0
 10
8.9827353121
 20
8.1533467608
 30
0.0
 10
8.9941329763
 20
8.1807388126
 30
0.0
 10
9.0065528782
 20
8.2076248364
 30
0.0
 10
9.0199783733
 20
8.23396894
 30
0.0
 10
9.0343916288
 20
8.2597358749
 30
0.0
 10
9.0497733751
 20
8.2848912168
 30
0.0
 10
9.06610301
 20
8.3094013858
 30
0.0
 10
9.0833588181
 20
8.3332335775
 30
0.0
 10
9.1015176883
 20
8.3563559286
 30
0.0
 10
9.120555425
 20
8.3787376928
 30
0.0
 10
9.1404462528
 20
8.400348475
 30
0.0
 10
9.1542592942
 20
8.4142239324
 30
0.0
 10
9.1612975316
 20
8.4210223416
 30
0.0
  0
SPLINE
  5
2E6
100
AcDbEntity
  8
0
100
AcDbSpline
 62
7
  6
CONTINUOUS
 70
0
 71
3
 72
23
 73
19
 74
0
 42
0.0000001
 43
0.0000001
 44
0.0000000001
 40
0.0
 40
0.0
 40
0.0
 40
0.0
 40
0.054182209
 40
0.110053679
 40
0.1675024666
 40
0.2264117452
 40
0.2866602903
 40
0.348122932
 40
0.4106709865
 40
0.474172673
 40
0.5384935148
 40
0.6034967539
 40
0.6690437505
 40
0.7349943737
 40
0.8012073887
 40
0.8675408429
 40
0.9338524535
 40
1.0
 40
1.0
 40
1.0
 40
1.0
 10
9.7543743716
 20
8.0907956882
 30
0.0
 10
9.7569022478
 20
8.1002294602
 30
0.0
 10
9.7618567857
 20
8.1194397687
 30
0.0
 10
9.7688893646
 20
8.1488037807
 30
0.0
 10
9.7756255633
 20
8.1791106726
 30
0.0
 10
9.7820498686
 20
8.2102910743
 30
0.0
 10
9.7881475367
 20
8.2422737758
 30
0.0
 10
9.7939045637
 20
8.2749856708
 30
0.0
 10
9.7993077346
 20
8.3083519872
 30
0.0
 10
9.8043446468
 20
8.3422964407
 30
0.0
 10
9.8090037486
 20
8.376741415
 30
0.0
 10
9.8132743583
 20
8.4116081419
 30
0.0
 10
9.8171466868
 20
8.4468168851
 30
0.0
 10
9.82061186
 20
8.4822871254
 30
0.0
 10
9.8236619389
 20
8.5179377362
 30
0.0
 10
9.8262899373
 20
8.5536871991
 30
0.0
 10
9.8284898424
 20
8.58945368
 30
0.0
 10
9.8296700081
 20
8.6133015356
 30
0.0
 10
9.8301873105
 20
8.6252137008
 30
0.0
  0
SPLINE
  5
2E7
100
AcDbEntity
  8
0
100
AcDbSpline
 62
7
  6
CONTINUOUS
 70
0
 71
3
 72
32
 73
28
 74
0
 42
0.0000001
 43
0.0000001
 44
0.0000000001
 40
0.0
 40
0.0
 40
0.0
 40
0.0
 40
0.0204892025
 40
0.0419550483
 40
0.0643836959
 40
0.0877583632
 40
0.1120593665
 40
0.1372645851
 40
0.1633496865
 40
0.1902881573
 40
0.2180517332
 40
0.2466102997
 40
0.2759321672
 40
0.3059842033
 40
0.3367317885
 40
0.3681391369
 40
0.4001691957
 40
0.4327838356
 40
0.465943959
 40
0.4996094575
 40
0.568291359
 40
0.6384943999
 40
0.7098725552
 40
0.7820722461
 40
0.8547346568
 40
0.9274980361
 40
1.0
 40
1.0
 40
1.0
 40
1.0
 10
9.7809180848
 20
8.0651995464
 30
0.0
 10
9.7826684483
 20
8.0686224963
 30
0.0
 10
9.7861447305
 20
8.0756871262
 30
0.0
 10
9.7911806657
 20
8.086669584
 30
0.0
 10
9.7961539832
 20
8.0982719929
 30
0.0
 10
9.8010579449
 20
8.1104789635
 30
0.0
 10
9.8058860881
 20
8.1232744253
 30
0.0
 10
9.8106319777
 20
8.1366414669
 30
0.0
 10
9.8152892592
 20
8.1505624203
 30
0.0
 10
9.8198517809
 20
8.1650188478
 30
0.0
 10
9.8243134118
 20
8.1799916079
 30
0.0
 10
9.8286682346
 20
8.1954608508
 30
0.0
 10
9.8329104511
 20
8.2114060637
 30
0.0
 10
9.8370343741
 20
8.2278061005
 30
0.0
 10
9.8410345584
 20
8.2446391959
 30
0.0
 10
9.8449056322
 20
8.2618830133
 30
0.0
 10
9.8486424613
 20
8.2795146638
 30
0.0
 10
9.8522400737
 20
8.2975107338
 30
0.0
 10
9.8556936646
 20
8.315847352
 30
0.0
 10
9.8601297114
 20
8.3408839664
 30
0.0
 10
9.8652735144
 20
8.3728520378
 30
0.0
 10
9.8707636821
 20
8.4119236668
 30
0.0
 10
9.8755823013
 20
8.4517487335
 30
0.0
 10
9.8797036838
 20
8.4921157573
 30
0.0
 10
9.8831058561
 20
8.5328105829
 30
0.0
 10
9.8857707233
 20
8.5736170129
 30
0.0
 10
9.8870507832
 20
8.6008458409
 30
0.0
 10
9.88756364
 20
8.6144401886
 30
0.0
  0
SPLINE
  5
2E8
100
AcDbEntity
  8
0
100
AcDbSpline
 62
7
  6
CONTINUOUS
 70
0
 71
3
 72
48
 73
44
 74
0
 42
0.0000001
 43
0.0000001
 44
0.0000000001
 40
0.0
 40
0.0
 40
0.0
 40
0.0
 40
0.0453113341
 40
0.0901438706
 40
0.1344391973
 40
0.1781460276
 40
0.2212119738
 40
0.2635853967
 40
0.3052162756
 40
0.3460557736
 40
0.3860563415
 40
0.4251719337
 40
0.4633581626
 40
0.5005722908
 40
0.5367734447
 40
0.5719228218
 40
0.6059837006
 40
0.6389217322
 40
0.6707051805
 40
0.7013050047
 40
0.7306952833
 40
0.75885354
 40
0.7857609971
 40
0.811403237
 40
0.8237471471
 40
0.8357716287
 40
0.8474763546
 40
0.8588614916
 40
0.8699275663
 40
0.8806755881
 40
0.891107186
 40
0.901224488
 40
0.911030248
 40
0.9205280151
 40
0.9297220361
 40
0.9386173928
 40
0.9472202044
 40
0.9555375646
 40
0.963577691
 40
0.9713501566
 40
0.9788658612
 40
0.9861371847
 40
1.0
 40
1.0
 40
1.0
 40
1.0
 10
14.1284236722
 20
8.5858254011
 30
0.0
 10
14.1284236722
 20
8.5960252069
 30
0.0
 10
14.1283258251
 20
8.6163171848
 30
0.0
 10
14.1278808712
 20
8.6465773234
 30
0.0
 10
14.1271389522
 20
8.6764703939
 30
0.0
 10
14.1261010953
 20
8.7059567555
 30
0.0
 10
14.1247686892
 20
8.7349982242
 30
0.0
 10
14.1231434709
 20
8.7635567559
 30
0.0
 10
14.1212275764
 20
8.7915949604
 30
0.0
 10
14.1190235634
 20
8.8190762025
 30
0.0
 10
14.1165343239
 20
8.8459645465
 30
0.0
 10
14.1137631228
 20
8.8722248376
 30
0.0
 10
14.1107136493
 20
8.8978227571
 30
0.0
 10
14.1073899043
 20
8.922724854
 30
0.0
 10
14.1037962567
 20
8.9468985964
 30
0.0
 10
14.099937481
 20
8.9703124218
 30
0.0
 10
14.0958186383
 20
8.9929357674
 30
0.0
 10
14.0914451511
 20
9.0147391228
 30
0.0
 10
14.08682282
 20
9.0356940761
 30
0.0
 10
14.0819576992
 20
9.0557733427
 30
0.0
 10
14.0768561928
 20
9.0749508023
 30
0.0
 10
14.071525039
 20
9.0932016209
 30
0.0
 10
14.0659711923
 20
9.1105019955
 30
0.0
 10
14.0611037412
 20
9.1242777631
 30
0.0
 10
14.057095766
 20
9.1347982527
 30
0.0
 10
14.0540768131
 20
9.1423368861
 30
0.0
 10
14.0510077052
 20
9.1496216138
 30
0.0
 10
14.047889466
 20
9.1566501012
 30
0.0
 10
14.0447230926
 20
9.1634200557
 30
0.0
 10
14.041509579
 20
9.1699292676
 30
0.0
 10
14.038250013
 20
9.1761756539
 30
0.0
 10
14.0349454256
 20
9.182157186
 30
0.0
 10
14.0315968395
 20
9.1878719093
 30
0.0
 10
14.0282053752
 20
9.1933180103
 30
0.0
 10
14.0247720927
 20
9.1984937259
 30
0.0
 10
14.0212980312
 20
9.2033973559
 30
0.0
 10
14.017784328
 20
9.2080273578
 30
0.0
 10
14.0142320668
 20
9.2123822238
 30
0.0
 10
14.010642263
 20
9.2164605181
 30
0.0
 10
14.0070161536
 20
9.2202608786
 30
0.0
 10
14.0033544922
 20
9.2237823058
 30
0.0
 10
13.9985047105
 20
9.2280353027
 30
0.0
 10
13.9947012949
 20
9.2309119448
 30
0.0
 10
13.9921089901
 20
9.2326491921
 30
0.0
  0
SPLINE
  5
2E9
100
AcDbEntity
  8
0
100
AcDbSpline
 62
7
  6
CONTINUOUS
 70
0
 71
3
 72
53
 73
49
 74
0
 42
0.0000001
 43
0.0000001
 44
0.0000000001
 40
0.0
 40
0.0
 40
0.0
 40
0.0
 40
0.0396357253
 40
0.0797088507
 40
0.1201136755
 40
0.1607438263
 40
0.2014919033
 40
0.2422502259
 40
0.2829110365
 40
0.3233669191
 40
0.3635111418
 40
0.4032380261
 40
0.4424433103
 40
0.4810245185
 40
0.5188813344
 40
0.555915982
 40
0.5920336165
 40
0.6271427306
 40
0.6611555805
 40
0.6939886414
 40
0.7099381638
 40
0.7255635872
 40
0.7408559088
 40
0.7558064598
 40
0.7704069875
 40
0.7846496379
 40
0.7985270045
 40
0.8120321573
 40
0.8251586548
 40
0.8379006258
 40
0.8502527458
 40
0.8622103756
 40
0.8737695067
 40
0.8849269606
 40
0.8956803139
 40
0.9060281601
 40
0.9159700322
 40
0.9255067297
 40
0.9346402645
 40
0.9433742574
 40
0.9517139413
 40
0.9596666351
 40
0.9672418438
 40
0.9744518154
 40
0.9813117696
 40
0.9878405243
 40
0.9940608348
 40
1.0
 40
1.0
 40
1.0
 40
1.0
 10
14.1284236722
 20
8.5858254011
 30
0.0
 10
14.1284236722
 20
8.5706804523
 30
0.0
 10
14.1282057422
 20
8.5402230144
 30
0.0
 10
14.127240994
 20
8.4943359363
 30
0.0
 10
14.1256389679
 20
8.4480864196
 30
0.0
 10
14.1234041694
 20
8.4016050062
 30
0.0
 10
14.1205428655
 20
8.3550226264
 30
0.0
 10
14.1170631227
 20
8.3084706133
 30
0.0
 10
14.1129747497
 20
8.2620801699
 30
0.0
 10
14.1082892878
 20
8.2159820563
 30
0.0
 10
14.1030199702
 20
8.170306199
 30
0.0
 10
14.0971816881
 20
8.1251813286
 30
0.0
 10
14.0907909483
 20
8.0807346131
 30
0.0
 10
14.0838658276
 20
8.0370912957
 30
0.0
 10
14.0764259226
 20
7.9943743399
 30
0.0
 10
14.0684922957
 20
7.9527040729
 30
0.0
 10
14.0600874152
 20
7.9121978593
 30
0.0
 10
14.0512350989
 20
7.8729696956
 30
0.0
 10
14.0419604274
 20
7.8351301187
 30
0.0
 10
14.0338250358
 20
7.8045550722
 30
0.0
 10
14.0271153768
 20
7.780876413
 30
0.0
 10
14.0220426784
 20
7.7637013292
 30
0.0
 10
14.0168845956
 20
7.7469506803
 30
0.0
 10
14.0116447244
 20
7.7306362481
 30
0.0
 10
14.0063267871
 20
7.7147695198
 30
0.0
 10
14.0009345311
 20
7.6993616603
 30
0.0
 10
13.9954717611
 20
7.6844235104
 30
0.0
 10
13.9899423473
 20
7.6699655717
 30
0.0
 10
13.9843501684
 20
7.6559980108
 30
0.0
 10
13.978699205
 20
7.6425306311
 30
0.0
 10
13.972993396
 20
7.6295728958
 30
0.0
 10
13.9672368191
 20
7.6171338772
 30
0.0
 10
13.9614334583
 20
7.605222307
 30
0.0
 10
13.9555874718
 20
7.5938464945
 30
0.0
 10
13.9497028714
 20
7.5830144133
 30
0.0
 10
13.9437838736
 20
7.572733579
 30
0.0
 10
13.9378344966
 20
7.5630111828
 30
0.0
 10
13.931858984
 20
7.5538539191
 30
0.0
 10
13.9258613324
 20
7.5452681769
 30
0.0
 10
13.9198457666
 20
7.5372598101
 30
0.0
 10
13.913816222
 20
7.5298343975
 30
0.0
 10
13.9077768399
 20
7.5229969542
 30
0.0
 10
13.901731443
 20
7.5167522707
 30
0.0
 10
13.8956839977
 20
7.5111045696
 30
0.0
 10
13.8896382003
 20
7.5060579568
 30
0.0
 10
13.88359764
 20
7.5016159442
 30
0.0
 10
13.8775664088
 20
7.4977823713
 30
0.0
 10
13.8734652353
 20
7.4955869131
 30
0.0
 10
13.871421566
 20
7.4946002614
 30
0.0
  0
SPLINE
  5
2EA
100
AcDbEntity
  8
0
100
AcDbSpline
 62
7
  6
CONTINUOUS
 70
0
 71
3
 72
64
 73
60
 74
0
 42
0.0000001
 43
0.0000001
 44
0.0000000001
 40
0.0
 40
0.0
 40
0.0
 40
0.0
 40
0.0452101678
 40
0.0910011722
 40
0.1371888434
 40
0.1835863495
 40
0.2300061232
 40
0.2762603525
 40
0.3221621186
 40
0.3675263057
 40
0.4121705903
 40
0.4559164172
 40
0.4985899991
 40
0.5400233384
 40
0.5800552903
 40
0.5994978801
 40
0.618533373
 40
0.6371441099
 40
0.6553130172
 40
0.6730237857
 40
0.6902608165
 40
0.7070093494
 40
0.7232554879
 40
0.738986267
 40
0.7541897748
 40
0.7688551594
 40
0.7829728622
 40
0.7965345754
 40
0.8095336001
 40
0.8219647827
 40
0.8338250125
 40
0.8451131892
 40
0.8558308808
 40
0.8659824056
 40
0.8755756875
 40
0.8846225698
 40
0.8931399233
 40
0.9011503209
 40
0.9086834279
 40
0.9157770493
 40
0.9224785902
 40
0.9288459932
 40
0.9319268633
 40
0.9349510088
 40
0.9379286982
 40
0.9408707294
 40
0.9437883259
 40
0.9466930252
 40
0.9495965375
 40
0.9525105823
 40
0.955446746
 40
0.9584163373
 40
0.9614302388
 40
0.9644988188
 40
0.9708360807
 40
0.9775009731
 40
0.9845526118
 40
0.9920393488
 40
1.0
 40
1.0
 40
1.0
 40
1.0
 10
14.0378370811
 20
8.4983254681
 30
0.0
 10
14.0378370811
 20
8.4870254802
 30
0.0
 10
14.0376355513
 20
8.4642798704
 30
0.0
 10
14.0367469171
 20
8.430000389
 30
0.0
 10
14.035273386
 20
8.3954439554
 30
0.0
 10
14.0332212559
 20
8.3607596693
 30
0.0
 10
14.0305993738
 20
8.3260971048
 30
0.0
 10
14.0274190484
 20
8.2916057273
 30
0.0
 10
14.0236940306
 20
8.2574342687
 30
0.0
 10
14.01944044
 20
8.2237300657
 30
0.0
 10
14.0146767038
 20
8.1906384188
 30
0.0
 10
14.0094234733
 20
8.1583019737
 30
0.0
 10
14.0037035475
 20
8.1268600337
 30
0.0
 10
13.9975417449
 20
8.0964481695
 30
0.0
 10
13.9920086508
 20
8.0718389859
 30
0.0
 10
13.9873725622
 20
8.0527710304
 30
0.0
 10
13.9838358821
 20
8.0389469166
 30
0.0
 10
13.9802097032
 20
8.0254754122
 30
0.0
 10
13.9764978827
 20
8.012371025
 30
0.0
 10
13.9727044767
 20
7.9996478734
 30
0.0
 10
13.9688335619
 20
7.9873196624
 30
0.0
 10
13.9648893405
 20
7.9753996627
 30
0.0
 10
13.9608760764
 20
7.9639007011
 30
0.0
 10
13.9567980996
 20
7.9528351443
 30
0.0
 10
13.9526598424
 20
7.9422148784
 30
0.0
 10
13.9484657392
 20
7.9320513098
 30
0.0
 10
13.9442203688
 20
7.9223553234
 30
0.0
 10
13.9399282438
 20
7.9131373113
 30
0.0
 10
13.9355940605
 20
7.9044070975
 30
0.0
 10
13.9312223782
 20
7.8961740082
 30
0.0
 10
13.926817969
 20
7.8884467483
 30
0.0
 10
13.9223853957
 20
7.8812335293
 30
0.0
 10
13.9179294411
 20
7.8745418858
 30
0.0
 10
13.913454604
 20
7.8683788763
 30
0.0
 10
13.9089655712
 20
7.862750838
 30
0.0
 10
13.9044666675
 20
7.8576636782
 30
0.0
 10
13.8999623231
 20
7.8531225906
 30
0.0
 10
13.8954565243
 20
7.8491324571
 30
0.0
 10
13.8909533108
 20
7.8456976019
 30
0.0
 10
13.8864561509
 20
7.8428222789
 30
0.0
 10
13.8819692772
 20
7.8405106546
 30
0.0
 10
13.8781999524
 20
7.8390416065
 30
0.0
 10
13.8752067248
 20
7.838164985
 30
0.0
 10
13.8729925865
 20
7.8376573152
 30
0.0
 10
13.8707856185
 20
7.8372925684
 30
0.0
 10
13.8685864233
 20
7.8370708635
 30
0.0
 10
13.8663956943
 20
7.83699235
 30
0.0
 10
13.8642141264
 20
7.8370571346
 30
0.0
 10
13.8620424236
 20
7.837265153
 30
0.0
 10
13.8598812784
 20
7.8376163152
 30
0.0
 10
13.8577313742
 20
7.8381105166
 30
0.0
 10
13.8555934011
 20
7.8387475733
 30
0.0
 10
13.8534679291
 20
7.8395272157
 30
0.0
 10
13.8506213829
 20
7.8407694731
 30
0.0
 10
13.8470864331
 20
7.8426960102
 30
0.0
 10
13.8429548581
 20
7.8455478992
 30
0.0
 10
13.8388906415
 20
7.8489601369
 30
0.0
 10
13.8348974093
 20
7.8529275572
 30
0.0
 10
13.8323650888
 20
7.855846912
 30
0.0
 10
13.8311096416
 20
7.8573905475
 30
0.0
  0
SPLINE
  5
2EB
100
AcDbEntity
  8
0
100
AcDbSpline
 62
7
  6
CONTINUOUS
 70
0
 71
3
 72
53
 73
49
 74
0
 42
0.0000001
 43
0.0000001
 44
0.0000000001
 40
0.0
 40
0.0
 40
0.0
 40
0.0
 40
0.0417737268
 40
0.0840371615
 40
0.1266584861
 40
0.1695065864
 40
0.2124481812
 40
0.2553501572
 40
0.2980793668
 40
0.3405034027
 40
0.3824910465
 40
0.4239128186
 40
0.4646415077
 40
0.5045527151
 40
0.5435254045
 40
0.5814424688
 40
0.6181913201
 40
0.653664513
 40
0.6877604169
 40
0.7203839578
 40
0.7361162162
 40
0.7514481964
 40
0.7663701919
 40
0.7808732472
 40
0.7949488823
 40
0.8085894742
 40
0.8217880085
 40
0.8345383923
 40
0.8468353718
 40
0.858674679
 40
0.870053196
 40
0.8809689181
 40
0.8914213683
 40
0.9014114537
 40
0.9109420542
 40
0.9200179381
 40
0.928646402
 40
0.9368374364
 40
0.9446043346
 40
0.9519642227
 40
0.9589386234
 40
0.965554312
 40
0.9718437996
 40
0.9778461989
 40
0.9836073653
 40
0.9891800503
 40
0.994623078
 40
1.0
 40
1.0
 40
1.0
 40
1.0
 10
13.9643523982
 20
8.4873447108
 30
0.0
 10
13.9643523982
 20
8.4785765113
 30
0.0
 10
13.9642155968
 20
8.4609370482
 30
0.0
 10
13.963610869
 20
8.434357708
 30
0.0
 10
13.9626071263
 20
8.407564734
 30
0.0
 10
13.9612077208
 20
8.3806470056
 30
0.0
 10
13.9594172326
 20
8.3536934229
 30
0.0
 10
13.9572416049
 20
8.3267932261
 30
0.0
 10
13.9546880331
 20
8.3000353862
 30
0.0
 10
13.9517649864
 20
8.2735084329
 30
0.0
 10
13.9484821608
 20
8.247300117
 30
0.0
 10
13.9448504544
 20
8.2214971311
 30
0.0
 10
13.9408819302
 20
8.1961848159
 30
0.0
 10
13.9365897787
 20
8.1714468739
 30
0.0
 10
13.9319882731
 20
8.1473650898
 30
0.0
 10
13.9270927237
 20
8.1240190501
 30
0.0
 10
13.9219194258
 20
8.1014858904
 30
0.0
 10
13.9164856158
 20
8.079839969
 30
0.0
 10
13.9108093811
 20
8.0591528259
 30
0.0
 10
13.9058347164
 20
8.0425747305
 30
0.0
 10
13.9017398279
 20
8.0298490832
 30
0.0
 10
13.8986571363
 20
8.020701839
 30
0.0
 10
13.8955282518
 20
8.0118434498
 30
0.0
 10
13.8923558268
 20
8.0032812066
 30
0.0
 10
13.8891424141
 20
7.9950221886
 30
0.0
 10
13.8858907501
 20
7.9870731904
 30
0.0
 10
13.8826034683
 20
7.9794407704
 30
0.0
 10
13.8792833256
 20
7.9721312017
 30
0.0
 10
13.8759330566
 20
7.9651504914
 30
0.0
 10
13.8725554052
 20
7.9585043745
 30
0.0
 10
13.869153202
 20
7.9521982752
 30
0.0
 10
13.865729162
 20
7.9462373732
 30
0.0
 10
13.8622861792
 20
7.9406264849
 30
0.0
 10
13.8588269407
 20
7.9353702113
 30
0.0
 10
13.8553543384
 20
7.9304727521
 30
0.0
 10
13.8518710406
 20
7.9259380998
 30
0.0
 10
13.8483798467
 20
7.921769856
 30
0.0
 10
13.8448833954
 20
7.9179713851
 30
0.0
 10
13.8413843027
 20
7.9145457507
 30
0.0
 10
13.8378851326
 20
7.9114957205
 30
0.0
 10
13.8343882633
 20
7.9088239535
 30
0.0
 10
13.8308961502
 20
7.9065327677
 30
0.0
 10
13.827411031
 20
7.9046246422
 30
0.0
 10
13.823935393
 20
7.9031017185
 30
0.0
 10
13.8204718208
 20
7.901966447
 30
0.0
 10
13.8170232405
 20
7.9012208683
 30
0.0
 10
13.8135937941
 20
7.9008668951
 30
0.0
 10
13.8113169359
 20
7.9008929032
 30
0.0
 10
13.8101910372
 20
7.9009709757
 30
0.0
  0
SPLINE
  5
2EC
100
AcDbEntity
  8
0
100
AcDbSpline
 62
7
  6
CONTINUOUS
 70
0
 71
3
 72
15
 73
11
 74
0
 42
0.0000001
 43
0.0000001
 44
0.0000000001
 40
0.0
 40
0.0
 40
0.0
 40
0.0
 40
0.1268090487
 40
0.2530613889
 40
0.3787673749
 40
0.5039434462
 40
0.6286161836
 40
0.7528202036
 40
0.8765981611
 40
1.0
 40
1.0
 40
1.0
 40
1.0
 10
10.096715288
 20
7.2958317307
 30
0.0
 10
10.1142356513
 20
7.2946166894
 30
0.0
 10
10.1492860743
 20
7.2932914753
 30
0.0
 10
10.2017600411
 20
7.2946465879
 30
0.0
 10
10.25381652
 20
7.2993430327
 30
0.0
 10
10.3052440595
 20
7.3073626905
 30
0.0
 10
10.3558366083
 20
7.3186734943
 30
0.0
 10
10.40539155
 20
7.3332307873
 30
0.0
 10
10.4537070883
 20
7.3509751098
 30
0.0
 10
10.4850113798
 20
7.3649043534
 30
0.0
 10
10.5003839189
 20
7.3723724429
 30
0.0
  0
SPLINE
  5
2ED
100
AcDbEntity
  8
0
100
AcDbSpline
 62
7
  6
CONTINUOUS
 70
0
 71
3
 72
58
 73
54
 74
0
 42
0.0000001
 43
0.0000001
 44
0.0000000001
 40
0.0
 40
0.0
 40
0.0
 40
0.0
 40
0.0532120784
 40
0.105632612
 40
0.1571425959
 40
0.2076323446
 40
0.2569916968
 40
0.3051150367
 40
0.3519005107
 40
0.3972504891
 40
0.4410721366
 40
0.4832778646
 40
0.523785991
 40
0.5625213347
 40
0.5994159618
 40
0.6171544418
 40
0.6344111427
 40
0.6511799817
 40
0.6674556951
 40
0.6832337305
 40
0.698510209
 40
0.7132823273
 40
0.7275480486
 40
0.7413064762
 40
0.7545579423
 40
0.7673039144
 40
0.7795475465
 40
0.7912935111
 40
0.8025483785
 40
0.8133209913
 40
0.8236224565
 40
0.8334668673
 40
0.8428714511
 40
0.8518570324
 40
0.8604487067
 40
0.8686760037
 40
0.8765735796
 40
0.884181414
 40
0.8915448629
 40
0.8987146346
 40
0.9057460249
 40
0.9126980027
 40
0.9196317509
 40
0.926608977
 40
0.9336901355
 40
0.940932852
 40
0.9483906576
 40
0.9561120563
 40
0.9641402864
 40
0.9725130537
 40
0.9812628696
 40
0.9904174625
 40
1.0
 40
1.0
 40
1.0
 40
1.0
 10
14.0378370811
 20
8.4983254681
 30
0.0
 10
14.0378370811
 20
8.5065959368
 30
0.0
 10
14.0377305411
 20
8.5230140682
 30
0.0
 10
14.0372442407
 20
8.5474337822
 30
0.0
 10
14.0364336275
 20
8.5714216118
 30
0.0
 10
14.0353007656
 20
8.5949200968
 30
0.0
 10
14.0338483279
 20
8.6178736607
 30
0.0
 10
14.0320798469
 20
8.6402276209
 30
0.0
 10
14.0299995992
 20
8.6619288804
 30
0.0
 10
14.0276126038
 20
8.6829258857
 30
0.0
 10
14.0249246204
 20
8.7031687737
 30
0.0
 10
14.0219421214
 20
8.7226094976
 30
0.0
 10
14.0186723232
 20
8.7412020166
 30
0.0
 10
14.0151230897
 20
8.7589021867
 30
0.0
 10
14.0118989397
 20
8.7730533466
 30
0.0
 10
14.0091777629
 20
8.7838907482
 30
0.0
 10
14.0070991898
 20
8.791663364
 30
0.0
 10
14.0049573756
 20
8.7991826875
 30
0.0
 10
14.0027536003
 20
8.8064442759
 30
0.0
 10
14.0004892052
 20
8.8134438336
 30
0.0
 10
13.9981654705
 20
8.8201772075
 30
0.0
 10
13.9957838514
 20
8.8266404368
 30
0.0
 10
13.9933457091
 20
8.8328296999
 30
0.0
 10
13.990852483
 20
8.8387413502
 30
0.0
 10
13.9883056936
 20
8.8443719321
 30
0.0
 10
13.985706747
 20
8.8497181159
 30
0.0
 10
13.9830572305
 20
8.8547768031
 30
0.0
 10
13.9803586434
 20
8.8595450376
 30
0.0
 10
13.977612491
 20
8.8640200273
 30
0.0
 10
13.9748203992
 20
8.8681992196
 30
0.0
 10
13.9719838174
 20
8.8720801398
 30
0.0
 10
13.9691043415
 20
8.8756605642
 30
0.0
 10
13.9661834942
 20
8.878938402
 30
0.0
 10
13.9632227122
 20
8.8819116321
 30
0.0
 10
13.9602235787
 20
8.8845784993
 30
0.0
 10
13.9571874955
 20
8.8869371764
 30
0.0
 10
13.9541160059
 20
8.8889860018
 30
0.0
 10
13.9510107196
 20
8.8907233952
 30
0.0
 10
13.9478732923
 20
8.8921476465
 30
0.0
 10
13.9447057292
 20
8.8932574083
 30
0.0
 10
13.9415101829
 20
8.8940512873
 30
0.0
 10
13.9382891349
 20
8.8945282686
 30
0.0
 10
13.9350452608
 20
8.8946878843
 30
0.0
 10
13.9317813053
 20
8.8945298774
 30
0.0
 10
13.9284999505
 20
8.8940547963
 30
0.0
 10
13.9252036855
 20
8.8932633899
 30
0.0
 10
13.9218947964
 20
8.8921566997
 30
0.0
 10
13.9185752649
 20
8.890736118
 30
0.0
 10
13.9152470134
 20
8.8890028701
 30
0.0
 10
13.9119117682
 20
8.8869584778
 30
0.0
 10
13.9085712142
 20
8.8846043969
 30
0.0
 10
13.905227219
 20
8.8819422162
 30
0.0
 10
13.9030477309
 20
8.8800084632
 30
0.0
 10
13.9019574943
 20
8.8789937786
 30
0.0
  0
SPLINE
  5
2EE
100
AcDbEntity
  8
0
100
AcDbSpline
 62
7
  6
CONTINUOUS
 70
0
 71
3
 72
49
 73
45
 74
0
 42
0.0000001
 43
0.0000001
 44
0.0000000001
 40
0.0
 40
0.0
 40
0.0
 40
0.0
 40
0.0484977591
 40
0.0964124095
 40
0.1436644782
 40
0.1901851275
 40
0.2359045137
 40
0.2807535295
 40
0.3246657516
 40
0.3675767279
 40
0.4094239822
 40
0.4501476548
 40
0.489690486
 40
0.527997965
 40
0.565018896
 40
0.6007053598
 40
0.6350131765
 40
0.6679024476
 40
0.6993376667
 40
0.7292885995
 40
0.7577308847
 40
0.7846466668
 40
0.8100260987
 40
0.8221397633
 40
0.8338699797
 40
0.8452183077
 40
0.8561873037
 40
0.8667804243
 40
0.8770020292
 40
0.8868577551
 40
0.8963545465
 40
0.9055006518
 40
0.9143060078
 40
0.9227824095
 40
0.9309435203
 40
0.9388052391
 40
0.9463859654
 40
0.9607837612
 40
0.9676581026
 40
0.974351983
 40
0.9808975113
 40
0.9873293386
 40
0.9936841261
 40
1.0
 40
1.0
 40
1.0
 40
1.0
 10
13.9643523982
 20
8.4873447108
 30
0.0
 10
13.9643523982
 20
8.4934592345
 30
0.0
 10
13.9642866085
 20
8.5056148755
 30
0.0
 10
13.9639870857
 20
8.5237257634
 30
0.0
 10
13.9634876802
 20
8.5415829135
 30
0.0
 10
13.9627892672
 20
8.5591564102
 30
0.0
 10
13.9618930463
 20
8.5764175796
 30
0.0
 10
13.9608004649
 20
8.5933379207
 30
0.0
 10
13.9595133599
 20
8.609889481
 30
0.0
 10
13.9580339047
 20
8.6260449889
 30
0.0
 10
13.9563645211
 20
8.6417778109
 30
0.0
 10
13.9545080195
 20
8.657062013
 30
0.0
 10
13.9524675022
 20
8.6718724143
 30
0.0
 10
13.9502463296
 20
8.6861846222
 30
0.0
 10
13.9478482483
 20
8.6999750831
 30
0.0
 10
13.9452772352
 20
8.7132211161
 30
0.0
 10
13.9425375523
 20
8.7259009567
 30
0.0
 10
13.9396338084
 20
8.7379938064
 30
0.0
 10
13.9365707868
 20
8.7494798606
 30
0.0
 10
13.9333535815
 20
8.7603403441
 30
0.0
 10
13.9299875444
 20
8.7705576367
 30
0.0
 10
13.9264781585
 20
8.7801149985
 30
0.0
 10
13.923392959
 20
8.7876293123
 30
0.0
 10
13.9208506581
 20
8.7932911761
 30
0.0
 10
13.918941386
 20
8.7972968201
 30
0.0
 10
13.9170006546
 20
8.8011262265
 30
0.0
 10
13.9150292568
 20
8.8047778578
 30
0.0
 10
13.9130280124
 20
8.8082502422
 30
0.0
 10
13.9109976763
 20
8.8115419428
 30
0.0
 10
13.9089390692
 20
8.8146516321
 30
0.0
 10
13.9068530319
 20
8.8175780747
 30
0.0
 10
13.9047403334
 20
8.8203200549
 30
0.0
 10
13.9026017877
 20
8.8228764472
 30
0.0
 10
13.9004382242
 20
8.8252462539
 30
0.0
 10
13.8982504871
 20
8.8274284171
 30
0.0
 10
13.8960391181
 20
8.8294221455
 30
0.0
 10
13.8931114974
 20
8.8317868912
 30
0.0
 10
13.8900862697
 20
8.8338274706
 30
0.0
 10
13.8869766075
 20
8.8354944149
 30
0.0
 10
13.884660693
 20
8.8365331597
 30
0.0
 10
13.8823266484
 20
8.8373786381
 30
0.0
 10
13.8799754147
 20
8.8380304197
 30
0.0
 10
13.8776083639
 20
8.8384880092
 30
0.0
 10
13.8760184458
 20
8.8386635413
 30
0.0
 10
13.8752240576
 20
8.838718626
 30
0.0
  0
SPLINE
  5
2EF
100
AcDbEntity
  8
0
100
AcDbSpline
 62
7
  6
CONTINUOUS
 70
0
 71
3
 72
48
 73
44
 74
0
 42
0.0000001
 43
0.0000001
 44
0.0000000001
 40
0.0
 40
0.0
 40
0.0
 40
0.0
 40
0.0453113341
 40
0.0901438706
 40
0.1344391973
 40
0.1781460276
 40
0.2212119738
 40
0.2635853967
 40
0.3052162756
 40
0.3460557736
 40
0.3860563415
 40
0.4251719337
 40
0.4633581626
 40
0.5005722908
 40
0.5367734447
 40
0.5719228218
 40
0.6059837006
 40
0.6389217322
 40
0.6707051805
 40
0.7013050047
 40
0.7306952833
 40
0.75885354
 40
0.7857609971
 40
0.811403237
 40
0.8237471471
 40
0.8357716287
 40
0.8474763546
 40
0.8588614916
 40
0.8699275663
 40
0.8806755881
 40
0.891107186
 40
0.901224488
 40
0.911030248
 40
0.9205280151
 40
0.9297220361
 40
0.9386173928
 40
0.9472202044
 40
0.9555375646
 40
0.963577691
 40
0.9713501566
 40
0.9788658612
 40
0.9861371847
 40
1.0
 40
1.0
 40
1.0
 40
1.0
 10
13.530034586
 20
8.0078258944
 30
0.0
 10
13.530034586
 20
8.0180257002
 30
0.0
 10
13.529936739
 20
8.0383176782
 30
0.0
 10
13.5294917851
 20
8.0685778167
 30
0.0
 10
13.5287498661
 20
8.0984708872
 30
0.0
 10
13.5277120092
 20
8.1279572488
 30
0.0
 10
13.526379603
 20
8.1569987175
 30
0.0
 10
13.5247543848
 20
8.1855572492
 30
0.0
 10
13.5228384903
 20
8.2135954537
 30
0.0
 10
13.5206344773
 20
8.2410766958
 30
0.0
 10
13.5181452377
 20
8.2679650398
 30
0.0
 10
13.5153740367
 20
8.2942253309
 30
0.0
 10
13.5123245632
 20
8.3198232504
 30
0.0
 10
13.5090008182
 20
8.3447253473
 30
0.0
 10
13.5054071705
 20
8.3688990897
 30
0.0
 10
13.5015483949
 20
8.3923129151
 30
0.0
 10
13.4974295522
 20
8.4149362607
 30
0.0
 10
13.493056065
 20
8.4367396161
 30
0.0
 10
13.4884337339
 20
8.4576945694
 30
0.0
 10
13.4835686131
 20
8.477773836
 30
0.0
 10
13.4784671067
 20
8.4969512956
 30
0.0
 10
13.4731359529
 20
8.5152021142
 30
0.0
 10
13.4675821062
 20
8.5325024888
 30
0.0
 10
13.4627146551
 20
8.5462782564
 30
0.0
 10
13.4587066799
 20
8.5567987461
 30
0.0
 10
13.455687727
 20
8.5643373794
 30
0.0
 10
13.452618619
 20
8.5716221071
 30
0.0
 10
13.4495003799
 20
8.5786505945
 30
0.0
 10
13.4463340065
 20
8.585420549
 30
0.0
 10
13.4431204928
 20
8.5919297609
 30
0.0
 10
13.4398609268
 20
8.5981761472
 30
0.0
 10
13.4365563395
 20
8.6041576793
 30
0.0
 10
13.4332077534
 20
8.6098724026
 30
0.0
 10
13.4298162891
 20
8.6153185036
 30
0.0
 10
13.4263830066
 20
8.6204942192
 30
0.0
 10
13.4229089451
 20
8.6253978492
 30
0.0
 10
13.4193952419
 20
8.6300278511
 30
0.0
 10
13.4158429807
 20
8.6343827172
 30
0.0
 10
13.4122531769
 20
8.6384610114
 30
0.0
 10
13.4086270675
 20
8.6422613719
 30
0.0
 10
13.4049654061
 20
8.6457827991
 30
0.0
 10
13.4001156244
 20
8.650035796
 30
0.0
 10
13.3963122088
 20
8.6529124381
 30
0.0
 10
13.393719904
 20
8.6546496854
 30
0.0
  0
SPLINE
  5
2F0
100
AcDbEntity
  8
0
100
AcDbSpline
 62
7
  6
CONTINUOUS
 70
0
 71
3
 72
41
 73
37
 74
0
 42
0.0000001
 43
0.0000001
 44
0.0000000001
 40
0.0
 40
0.0
 40
0.0
 40
0.0
 40
0.0064813001
 40
0.0130002022
 40
0.0195935713
 40
0.0262969408
 40
0.033143984
 40
0.0401660036
 40
0.0548404992
 40
0.0625494615
 40
0.0705324261
 40
0.0873867396
 40
0.1055281833
 40
0.1250447914
 40
0.1459987457
 40
0.1684318082
 40
0.1923689961
 40
0.2178215978
 40
0.2447899859
 40
0.2732648338
 40
0.3032291259
 40
0.3346589397
 40
0.3675242831
 40
0.4017901748
 40
0.4374166385
 40
0.474359728
 40
0.5125716018
 40
0.5520008604
 40
0.5925931493
 40
0.6342909643
 40
0.677034307
 40
0.7207606156
 40
0.7654052435
 40
0.8109015514
 40
0.9041693911
 40
1.0
 40
1.0
 40
1.0
 40
1.0
 10
9.7203979575
 20
10.3891285606
 30
0.0
 10
9.7203979517
 20
10.3897359943
 30
0.0
 10
9.7203496322
 20
10.3909549294
 30
0.0
 10
9.7201325102
 20
10.3927801664
 30
0.0
 10
9.7197709106
 20
10.3946036338
 30
0.0
 10
9.7192650971
 20
10.3964242684
 30
0.0
 10
9.7186153318
 20
10.3982413226
 30
0.0
 10
9.7175422679
 20
10.4006936785
 30
0.0
 10
9.7161879065
 20
10.4031034327
 30
0.0
 10
9.7145870559
 20
10.4054575776
 30
0.0
 10
9.7127377722
 20
10.4078850905
 30
0.0
 10
9.7100548634
 20
10.4108982446
 30
0.0
 10
9.7063373347
 20
10.4144102926
 30
0.0
 10
9.7020711628
 20
10.4178777944
 30
0.0
 10
9.697263477
 20
10.4212958518
 30
0.0
 10
9.6919217284
 20
10.4246595276
 30
0.0
 10
9.6860544213
 20
10.4279636294
 30
0.0
 10
9.6796709727
 20
10.4312029758
 30
0.0
 10
9.6727816903
 20
10.4343722318
 30
0.0
 10
9.6653978403
 20
10.4374662592
 30
0.0
 10
9.6575315327
 20
10.4404798829
 30
0.0
 10
9.6491957431
 20
10.4434080717
 30
0.0
 10
9.6404042743
 20
10.4462459648
 30
0.0
 10
9.6311717026
 20
10.4489887369
 30
0.0
 10
9.6215133858
 20
10.4516318408
 30
0.0
 10
9.611445398
 20
10.4541707987
 30
0.0
 10
9.6009845182
 20
10.4566013395
 30
0.0
 10
9.5901481963
 20
10.4589194101
 30
0.0
 10
9.5789545124
 20
10.4611210587
 30
0.0
 10
9.5674221595
 20
10.4632026336
 30
0.0
 10
9.5555704043
 20
10.4651606055
 30
0.0
 10
9.5434190444
 20
10.4669916815
 30
0.0
 10
9.5309883586
 20
10.4686928295
 30
0.0
 10
9.5139284893
 20
10.4708012327
 30
0.0
 10
9.4920584968
 20
10.4730835021
 30
0.0
 10
9.4743914588
 20
10.4745066915
 30
0.0
 10
9.4654316416
 20
10.475128057
 30
0.0
  0
SPLINE
  5
2F1
100
AcDbEntity
  8
0
100
AcDbSpline
 62
7
  6
CONTINUOUS
 70
0
 71
3
 72
53
 73
49
 74
0
 42
0.0000001
 43
0.0000001
 44
0.0000000001
 40
0.0
 40
0.0
 40
0.0
 40
0.0
 40
0.0396357253
 40
0.0797088507
 40
0.1201136755
 40
0.1607438263
 40
0.2014919033
 40
0.2422502259
 40
0.2829110365
 40
0.3233669191
 40
0.3635111418
 40
0.4032380261
 40
0.4424433103
 40
0.4810245185
 40
0.5188813344
 40
0.555915982
 40
0.5920336165
 40
0.6271427306
 40
0.6611555805
 40
0.6939886414
 40
0.7099381638
 40
0.7255635872
 40
0.7408559088
 40
0.7558064598
 40
0.7704069875
 40
0.7846496379
 40
0.7985270045
 40
0.8120321573
 40
0.8251586548
 40
0.8379006258
 40
0.8502527458
 40
0.8622103756
 40
0.8737695067
 40
0.8849269606
 40
0.8956803139
 40
0.9060281601
 40
0.9159700322
 40
0.9255067297
 40
0.9346402645
 40
0.9433742574
 40
0.9517139413
 40
0.9596666351
 40
0.9672418438
 40
0.9744518154
 40
0.9813117696
 40
0.9878405243
 40
0.9940608348
 40
1.0
 40
1.0
 40
1.0
 40
1.0
 10
13.530034586
 20
8.0078258944
 30
0.0
 10
13.530034586
 20
7.9926809456
 30
0.0
 10
13.5298166561
 20
7.9622235077
 30
0.0
 10
13.5288519079
 20
7.9163364296
 30
0.0
 10
13.5272498818
 20
7.8700869129
 30
0.0
 10
13.5250150833
 20
7.8236054995
 30
0.0
 10
13.5221537794
 20
7.7770231197
 30
0.0
 10
13.5186740365
 20
7.7304711067
 30
0.0
 10
13.5145856636
 20
7.6840806632
 30
0.0
 10
13.5099002017
 20
7.6379825496
 30
0.0
 10
13.5046308841
 20
7.5923066923
 30
0.0
 10
13.498792602
 20
7.5471818219
 30
0.0
 10
13.4924018622
 20
7.5027351064
 30
0.0
 10
13.4854767415
 20
7.459091789
 30
0.0
 10
13.4780368365
 20
7.4163748332
 30
0.0
 10
13.4701032096
 20
7.3747045662
 30
0.0
 10
13.461698329
 20
7.3341983526
 30
0.0
 10
13.4528460127
 20
7.2949701889
 30
0.0
 10
13.4435713413
 20
7.257130612
 30
0.0
 10
13.4354359497
 20
7.2265555655
 30
0.0
 10
13.4287262907
 20
7.2028769063
 30
0.0
 10
13.4236535923
 20
7.1857018225
 30
0.0
 10
13.4184955095
 20
7.1689511736
 30
0.0
 10
13.4132556383
 20
7.1526367415
 30
0.0
 10
13.407937701
 20
7.1367700131
 30
0.0
 10
13.402545445
 20
7.1213621536
 30
0.0
 10
13.397082675
 20
7.1064240037
 30
0.0
 10
13.3915532612
 20
7.091966065
 30
0.0
 10
13.3859610823
 20
7.0779985041
 30
0.0
 10
13.3803101189
 20
7.0645311244
 30
0.0
 10
13.3746043099
 20
7.0515733891
 30
0.0
 10
13.368847733
 20
7.0391343705
 30
0.0
 10
13.3630443722
 20
7.0272228003
 30
0.0
 10
13.3571983857
 20
7.0158469878
 30
0.0
 10
13.3513137853
 20
7.0050149066
 30
0.0
 10
13.3453947874
 20
6.9947340723
 30
0.0
 10
13.3394454105
 20
6.9850116761
 30
0.0
 10
13.3334698979
 20
6.9758544124
 30
0.0
 10
13.3274722462
 20
6.9672686702
 30
0.0
 10
13.3214566805
 20
6.9592603034
 30
0.0
 10
13.3154271359
 20
6.9518348908
 30
0.0
 10
13.3093877538
 20
6.9449974475
 30
0.0
 10
13.3033423569
 20
6.938752764
 30
0.0
 10
13.2972949116
 20
6.9331050629
 30
0.0
 10
13.2912491142
 20
6.9280584501
 30
0.0
 10
13.2852085539
 20
6.9236164375
 30
0.0
 10
13.2791773226
 20
6.9197828646
 30
0.0
 10
13.2750761492
 20
6.9175874064
 30
0.0
 10
13.2730324799
 20
6.9166007547
 30
0.0
  0
SPLINE
  5
2F2
100
AcDbEntity
  8
0
100
AcDbSpline
 62
7
  6
CONTINUOUS
 70
0
 71
3
 72
64
 73
60
 74
0
 42
0.0000001
 43
0.0000001
 44
0.0000000001
 40
0.0
 40
0.0
 40
0.0
 40
0.0
 40
0.0452101678
 40
0.0910011722
 40
0.1371888434
 40
0.1835863495
 40
0.2300061232
 40
0.2762603525
 40
0.3221621186
 40
0.3675263057
 40
0.4121705903
 40
0.4559164172
 40
0.4985899991
 40
0.5400233384
 40
0.5800552903
 40
0.5994978801
 40
0.618533373
 40
0.6371441099
 40
0.6553130172
 40
0.6730237857
 40
0.6902608165
 40
0.7070093494
 40
0.7232554879
 40
0.738986267
 40
0.7541897748
 40
0.7688551594
 40
0.7829728622
 40
0.7965345754
 40
0.8095336001
 40
0.8219647827
 40
0.8338250125
 40
0.8451131892
 40
0.8558308808
 40
0.8659824056
 40
0.8755756875
 40
0.8846225698
 40
0.8931399233
 40
0.9011503209
 40
0.9086834279
 40
0.9157770493
 40
0.9224785902
 40
0.9288459932
 40
0.9319268633
 40
0.9349510088
 40
0.9379286982
 40
0.9408707294
 40
0.9437883259
 40
0.9466930252
 40
0.9495965375
 40
0.9525105823
 40
0.955446746
 40
0.9584163373
 40
0.9614302388
 40
0.9644988188
 40
0.9708360807
 40
0.9775009731
 40
0.9845526118
 40
0.9920393488
 40
1.0
 40
1.0
 40
1.0
 40
1.0
 10
13.439447995
 20
7.9203259614
 30
0.0
 10
13.439447995
 20
7.9090259735
 30
0.0
 10
13.4392464652
 20
7.8862803638
 30
0.0
 10
13.438357831
 20
7.8520008823
 30
0.0
 10
13.4368842998
 20
7.8174444487
 30
0.0
 10
13.4348321698
 20
7.7827601626
 30
0.0
 10
13.4322102877
 20
7.7480975981
 30
0.0
 10
13.4290299623
 20
7.7136062206
 30
0.0
 10
13.4253049444
 20
7.679434762
 30
0.0
 10
13.4210513539
 20
7.645730559
 30
0.0
 10
13.4162876177
 20
7.6126389121
 30
0.0
 10
13.4110343872
 20
7.580302467
 30
0.0
 10
13.4053144614
 20
7.548860527
 30
0.0
 10
13.3991526588
 20
7.5184486628
 30
0.0
 10
13.3936195647
 20
7.4938394792
 30
0.0
 10
13.3889834761
 20
7.4747715237
 30
0.0
 10
13.385446796
 20
7.4609474099
 30
0.0
 10
13.3818206171
 20
7.4474759055
 30
0.0
 10
13.3781087966
 20
7.4343715183
 30
0.0
 10
13.3743153906
 20
7.4216483667
 30
0.0
 10
13.3704444757
 20
7.4093201557
 30
0.0
 10
13.3665002544
 20
7.397400156
 30
0.0
 10
13.3624869902
 20
7.3859011944
 30
0.0
 10
13.3584090135
 20
7.3748356376
 30
0.0
 10
13.3542707563
 20
7.3642153717
 30
0.0
 10
13.3500766531
 20
7.3540518031
 30
0.0
 10
13.3458312827
 20
7.3443558167
 30
0.0
 10
13.3415391577
 20
7.3351378046
 30
0.0
 10
13.3372049744
 20
7.3264075909
 30
0.0
 10
13.332833292
 20
7.3181745015
 30
0.0
 10
13.3284288829
 20
7.3104472416
 30
0.0
 10
13.3239963096
 20
7.3032340226
 30
0.0
 10
13.3195403549
 20
7.2965423791
 30
0.0
 10
13.3150655179
 20
7.2903793696
 30
0.0
 10
13.3105764851
 20
7.2847513313
 30
0.0
 10
13.3060775814
 20
7.2796641715
 30
0.0
 10
13.301573237
 20
7.275123084
 30
0.0
 10
13.2970674382
 20
7.2711329504
 30
0.0
 10
13.2925642247
 20
7.2676980952
 30
0.0
 10
13.2880670648
 20
7.2648227723
 30
0.0
 10
13.2835801911
 20
7.2625111479
 30
0.0
 10
13.2798108663
 20
7.2610420998
 30
0.0
 10
13.2768176387
 20
7.2601654783
 30
0.0
 10
13.2746035004
 20
7.2596578085
 30
0.0
 10
13.2723965324
 20
7.2592930617
 30
0.0
 10
13.2701973372
 20
7.2590713568
 30
0.0
 10
13.2680066082
 20
7.2589928433
 30
0.0
 10
13.2658250403
 20
7.2590576279
 30
0.0
 10
13.2636533375
 20
7.2592656463
 30
0.0
 10
13.2614921923
 20
7.2596168085
 30
0.0
 10
13.2593422881
 20
7.2601110099
 30
0.0
 10
13.257204315
 20
7.2607480666
 30
0.0
 10
13.255078843
 20
7.261527709
 30
0.0
 10
13.2522322968
 20
7.2627699664
 30
0.0
 10
13.2486973469
 20
7.2646965035
 30
0.0
 10
13.244565772
 20
7.2675483925
 30
0.0
 10
13.2405015554
 20
7.2709606302
 30
0.0
 10
13.2365083231
 20
7.2749280505
 30
0.0
 10
13.2339760027
 20
7.2778474053
 30
0.0
 10
13.2327205555
 20
7.2793910408
 30
0.0
  0
SPLINE
  5
2F3
100
AcDbEntity
  8
0
100
AcDbSpline
 62
7
  6
CONTINUOUS
 70
0
 71
3
 72
53
 73
49
 74
0
 42
0.0000001
 43
0.0000001
 44
0.0000000001
 40
0.0
 40
0.0
 40
0.0
 40
0.0
 40
0.0417737268
 40
0.0840371615
 40
0.1266584861
 40
0.1695065864
 40
0.2124481812
 40
0.2553501572
 40
0.2980793668
 40
0.3405034027
 40
0.3824910465
 40
0.4239128186
 40
0.4646415077
 40
0.5045527151
 40
0.5435254045
 40
0.5814424688
 40
0.6181913201
 40
0.653664513
 40
0.6877604169
 40
0.7203839578
 40
0.7361162162
 40
0.7514481964
 40
0.7663701919
 40
0.7808732472
 40
0.7949488823
 40
0.8085894742
 40
0.8217880085
 40
0.8345383923
 40
0.8468353718
 40
0.858674679
 40
0.870053196
 40
0.8809689181
 40
0.8914213683
 40
0.9014114537
 40
0.9109420542
 40
0.9200179381
 40
0.928646402
 40
0.9368374364
 40
0.9446043346
 40
0.9519642227
 40
0.9589386234
 40
0.965554312
 40
0.9718437996
 40
0.9778461989
 40
0.9836073653
 40
0.9891800503
 40
0.994623078
 40
1.0
 40
1.0
 40
1.0
 40
1.0
 10
13.3659633121
 20
7.9093452042
 30
0.0
 10
13.3659633121
 20
7.9005770046
 30
0.0
 10
13.3658265107
 20
7.8829375415
 30
0.0
 10
13.3652217829
 20
7.8563582013
 30
0.0
 10
13.3642180402
 20
7.8295652273
 30
0.0
 10
13.3628186347
 20
7.8026474989
 30
0.0
 10
13.3610281465
 20
7.7756939162
 30
0.0
 10
13.3588525188
 20
7.7487937194
 30
0.0
 10
13.3562989469
 20
7.7220358795
 30
0.0
 10
13.3533759003
 20
7.6955089262
 30
0.0
 10
13.3500930747
 20
7.6693006103
 30
0.0
 10
13.3464613683
 20
7.6434976244
 30
0.0
 10
13.3424928441
 20
7.6181853092
 30
0.0
 10
13.3382006926
 20
7.5934473672
 30
0.0
 10
13.333599187
 20
7.5693655831
 30
0.0
 10
13.3287036376
 20
7.5460195434
 30
0.0
 10
13.3235303396
 20
7.5234863837
 30
0.0
 10
13.3180965297
 20
7.5018404623
 30
0.0
 10
13.312420295
 20
7.4811533192
 30
0.0
 10
13.3074456303
 20
7.4645752238
 30
0.0
 10
13.3033507418
 20
7.4518495765
 30
0.0
 10
13.3002680502
 20
7.4427023323
 30
0.0
 10
13.2971391657
 20
7.4338439431
 30
0.0
 10
13.2939667407
 20
7.4252816999
 30
0.0
 10
13.290753328
 20
7.4170226819
 30
0.0
 10
13.287501664
 20
7.4090736837
 30
0.0
 10
13.2842143822
 20
7.4014412637
 30
0.0
 10
13.2808942395
 20
7.394131695
 30
0.0
 10
13.2775439705
 20
7.3871509847
 30
0.0
 10
13.274166319
 20
7.3805048678
 30
0.0
 10
13.2707641159
 20
7.3741987685
 30
0.0
 10
13.2673400758
 20
7.3682378665
 30
0.0
 10
13.2638970931
 20
7.3626269782
 30
0.0
 10
13.2604378546
 20
7.3573707046
 30
0.0
 10
13.2569652523
 20
7.3524732454
 30
0.0
 10
13.2534819545
 20
7.3479385931
 30
0.0
 10
13.2499907606
 20
7.3437703493
 30
0.0
 10
13.2464943093
 20
7.3399718784
 30
0.0
 10
13.2429952166
 20
7.336546244
 30
0.0
 10
13.2394960465
 20
7.3334962138
 30
0.0
 10
13.2359991772
 20
7.3308244468
 30
0.0
 10
13.2325070641
 20
7.328533261
 30
0.0
 10
13.2290219449
 20
7.3266251355
 30
0.0
 10
13.2255463069
 20
7.3251022118
 30
0.0
 10
13.2220827347
 20
7.3239669403
 30
0.0
 10
13.2186341544
 20
7.3232213616
 30
0.0
 10
13.215204708
 20
7.3228673885
 30
0.0
 10
13.2129278498
 20
7.3228933965
 30
0.0
 10
13.2118019511
 20
7.322971469
 30
0.0
  0
SPLINE
  5
2F4
100
AcDbEntity
  8
0
100
AcDbSpline
 62
7
  6
CONTINUOUS
 70
0
 71
3
 72
41
 73
37
 74
0
 42
0.0000001
 43
0.0000001
 44
0.0000000001
 40
0.0
 40
0.0
 40
0.0
 40
0.0
 40
0.0064813001
 40
0.0130002022
 40
0.0195935713
 40
0.0262969408
 40
0.033143984
 40
0.0401660036
 40
0.0548404992
 40
0.0625494615
 40
0.0705324261
 40
0.0873867396
 40
0.1055281833
 40
0.1250447914
 40
0.1459987457
 40
0.1684318082
 40
0.1923689961
 40
0.2178215978
 40
0.2447899859
 40
0.2732648338
 40
0.3032291259
 40
0.3346589397
 40
0.3675242831
 40
0.4017901748
 40
0.4374166385
 40
0.474359728
 40
0.5125716018
 40
0.5520008604
 40
0.5925931493
 40
0.6342909643
 40
0.677034307
 40
0.7207606156
 40
0.7654052435
 40
0.8109015514
 40
0.9041693911
 40
1.0
 40
1.0
 40
1.0
 40
1.0
 10
8.6209355392
 20
9.3271293528
 30
0.0
 10
8.6209355334
 20
9.3277367865
 30
0.0
 10
8.6208872139
 20
9.3289557216
 30
0.0
 10
8.6206700919
 20
9.3307809586
 30
0.0
 10
8.6203084922
 20
9.332604426
 30
0.0
 10
8.6198026787
 20
9.3344250606
 30
0.0
 10
8.6191529135
 20
9.3362421148
 30
0.0
 10
8.6180798496
 20
9.3386944707
 30
0.0
 10
8.6167254882
 20
9.3411042249
 30
0.0
 10
8.6151246376
 20
9.3434583698
 30
0.0
 10
8.6132753538
 20
9.3458858827
 30
0.0
 10
8.610592445
 20
9.3488990368
 30
0.0
 10
8.6068749163
 20
9.3524110847
 30
0.0
 10
8.6026087445
 20
9.3558785866
 30
0.0
 10
8.5978010587
 20
9.359296644
 30
0.0
 10
8.5924593101
 20
9.3626603197
 30
0.0
 10
8.586592003
 20
9.3659644216
 30
0.0
 10
8.5802085544
 20
9.369203768
 30
0.0
 10
8.573319272
 20
9.372373024
 30
0.0
 10
8.565935422
 20
9.3754670514
 30
0.0
 10
8.5580691144
 20
9.3784806751
 30
0.0
 10
8.5497333248
 20
9.3814088639
 30
0.0
 10
8.5409418559
 20
9.384246757
 30
0.0
 10
8.5317092843
 20
9.3869895291
 30
0.0
 10
8.5220509674
 20
9.389632633
 30
0.0
 10
8.5119829797
 20
9.3921715909
 30
0.0
 10
8.5015220999
 20
9.3946021317
 30
0.0
 10
8.490685778
 20
9.3969202023
 30
0.0
 10
8.479492094
 20
9.3991218509
 30
0.0
 10
8.4679597412
 20
9.4012034258
 30
0.0
 10
8.4561079859
 20
9.4031613977
 30
0.0
 10
8.443956626
 20
9.4049924736
 30
0.0
 10
8.4315259402
 20
9.4066936217
 30
0.0
 10
8.414466071
 20
9.4088020249
 30
0.0
 10
8.3925960784
 20
9.4110842943
 30
0.0
 10
8.3749290405
 20
9.4125074837
 30
0.0
 10
8.3659692232
 20
9.4131288491
 30
0.0
  0
SPLINE
  5
2F5
100
AcDbEntity
  8
0
100
AcDbSpline
 62
7
  6
CONTINUOUS
 70
0
 71
3
 72
58
 73
54
 74
0
 42
0.0000001
 43
0.0000001
 44
0.0000000001
 40
0.0
 40
0.0
 40
0.0
 40
0.0
 40
0.0532120784
 40
0.105632612
 40
0.1571425959
 40
0.2076323446
 40
0.2569916968
 40
0.3051150367
 40
0.3519005107
 40
0.3972504891
 40
0.4410721366
 40
0.4832778646
 40
0.523785991
 40
0.5625213347
 40
0.5994159618
 40
0.6171544418
 40
0.6344111427
 40
0.6511799817
 40
0.6674556951
 40
0.6832337305
 40
0.698510209
 40
0.7132823273
 40
0.7275480486
 40
0.7413064762
 40
0.7545579423
 40
0.7673039144
 40
0.7795475465
 40
0.7912935111
 40
0.8025483785
 40
0.8133209913
 40
0.8236224565
 40
0.8334668673
 40
0.8428714511
 40
0.8518570324
 40
0.8604487067
 40
0.8686760037
 40
0.8765735796
 40
0.884181414
 40
0.8915448629
 40
0.8987146346
 40
0.9057460249
 40
0.9126980027
 40
0.9196317509
 40
0.926608977
 40
0.9336901355
 40
0.940932852
 40
0.9483906576
 40
0.9561120563
 40
0.9641402864
 40
0.9725130537
 40
0.9812628696
 40
0.9904174625
 40
1.0
 40
1.0
 40
1.0
 40
1.0
 10
13.439447995
 20
7.9203259614
 30
0.0
 10
13.439447995
 20
7.9285964301
 30
0.0
 10
13.439341455
 20
7.9450145615
 30
0.0
 10
13.4388551546
 20
7.9694342755
 30
0.0
 10
13.4380445413
 20
7.9934221051
 30
0.0
 10
13.4369116795
 20
8.0169205901
 30
0.0
 10
13.4354592418
 20
8.039874154
 30
0.0
 10
13.4336907608
 20
8.0622281142
 30
0.0
 10
13.4316105131
 20
8.0839293737
 30
0.0
 10
13.4292235177
 20
8.104926379
 30
0.0
 10
13.4265355343
 20
8.125169267
 30
0.0
 10
13.4235530353
 20
8.1446099909
 30
0.0
 10
13.4202832371
 20
8.1632025099
 30
0.0
 10
13.4167340035
 20
8.18090268
 30
0.0
 10
13.4135098536
 20
8.1950538399
 30
0.0
 10
13.4107886768
 20
8.2058912415
 30
0.0
 10
13.4087101037
 20
8.2136638573
 30
0.0
 10
13.4065682895
 20
8.2211831808
 30
0.0
 10
13.4043645142
 20
8.2284447692
 30
0.0
 10
13.4021001191
 20
8.2354443269
 30
0.0
 10
13.3997763844
 20
8.2421777008
 30
0.0
 10
13.3973947653
 20
8.2486409301
 30
0.0
 10
13.394956623
 20
8.2548301932
 30
0.0
 10
13.3924633969
 20
8.2607418435
 30
0.0
 10
13.3899166075
 20
8.2663724254
 30
0.0
 10
13.3873176609
 20
8.2717186092
 30
0.0
 10
13.3846681444
 20
8.2767772964
 30
0.0
 10
13.3819695573
 20
8.2815455309
 30
0.0
 10
13.3792234048
 20
8.2860205206
 30
0.0
 10
13.3764313131
 20
8.290199713
 30
0.0
 10
13.3735947313
 20
8.2940806331
 30
0.0
 10
13.3707152553
 20
8.2976610575
 30
0.0
 10
13.3677944081
 20
8.3009388953
 30
0.0
 10
13.364833626
 20
8.3039121254
 30
0.0
 10
13.3618344926
 20
8.3065789926
 30
0.0
 10
13.3587984093
 20
8.3089376697
 30
0.0
 10
13.3557269198
 20
8.3109864951
 30
0.0
 10
13.3526216334
 20
8.3127238885
 30
0.0
 10
13.3494842062
 20
8.3141481398
 30
0.0
 10
13.3463166431
 20
8.3152579016
 30
0.0
 10
13.3431210968
 20
8.3160517806
 30
0.0
 10
13.3399000488
 20
8.3165287619
 30
0.0
 10
13.3366561747
 20
8.3166883776
 30
0.0
 10
13.3333922192
 20
8.3165303707
 30
0.0
 10
13.3301108644
 20
8.3160552896
 30
0.0
 10
13.3268145994
 20
8.3152638832
 30
0.0
 10
13.3235057103
 20
8.314157193
 30
0.0
 10
13.3201861788
 20
8.3127366113
 30
0.0
 10
13.3168579273
 20
8.3110033635
 30
0.0
 10
13.3135226821
 20
8.3089589711
 30
0.0
 10
13.3101821281
 20
8.3066048902
 30
0.0
 10
13.3068381329
 20
8.3039427095
 30
0.0
 10
13.3046586448
 20
8.3020089565
 30
0.0
 10
13.3035684081
 20
8.3009942719
 30
0.0
  0
SPLINE
  5
2F6
100
AcDbEntity
  8
0
100
AcDbSpline
 62
7
  6
CONTINUOUS
 70
0
 71
3
 72
49
 73
45
 74
0
 42
0.0000001
 43
0.0000001
 44
0.0000000001
 40
0.0
 40
0.0
 40
0.0
 40
0.0
 40
0.0484977591
 40
0.0964124095
 40
0.1436644782
 40
0.1901851275
 40
0.2359045137
 40
0.2807535295
 40
0.3246657516
 40
0.3675767279
 40
0.4094239822
 40
0.4501476548
 40
0.489690486
 40
0.527997965
 40
0.565018896
 40
0.6007053598
 40
0.6350131765
 40
0.6679024476
 40
0.6993376667
 40
0.7292885995
 40
0.7577308847
 40
0.7846466668
 40
0.8100260987
 40
0.8221397633
 40
0.8338699797
 40
0.8452183077
 40
0.8561873037
 40
0.8667804243
 40
0.8770020292
 40
0.8868577551
 40
0.8963545465
 40
0.9055006518
 40
0.9143060078
 40
0.9227824095
 40
0.9309435203
 40
0.9388052391
 40
0.9463859654
 40
0.9607837612
 40
0.9676581026
 40
0.974351983
 40
0.9808975113
 40
0.9873293386
 40
0.9936841261
 40
1.0
 40
1.0
 40
1.0
 40
1.0
 10
13.3659633121
 20
7.9093452042
 30
0.0
 10
13.3659633121
 20
7.9154597278
 30
0.0
 10
13.3658975224
 20
7.9276153688
 30
0.0
 10
13.3655979996
 20
7.9457262567
 30
0.0
 10
13.3650985941
 20
7.9635834068
 30
0.0
 10
13.3644001811
 20
7.9811569035
 30
0.0
 10
13.3635039601
 20
7.9984180729
 30
0.0
 10
13.3624113788
 20
8.015338414
 30
0.0
 10
13.3611242738
 20
8.0318899743
 30
0.0
 10
13.3596448186
 20
8.0480454823
 30
0.0
 10
13.357975435
 20
8.0637783042
 30
0.0
 10
13.3561189334
 20
8.0790625063
 30
0.0
 10
13.3540784161
 20
8.0938729076
 30
0.0
 10
13.3518572435
 20
8.1081851155
 30
0.0
 10
13.3494591622
 20
8.1219755764
 30
0.0
 10
13.3468881491
 20
8.1352216094
 30
0.0
 10
13.3441484662
 20
8.14790145
 30
0.0
 10
13.3412447223
 20
8.1599942997
 30
0.0
 10
13.3381817007
 20
8.1714803539
 30
0.0
 10
13.3349644954
 20
8.1823408374
 30
0.0
 10
13.3315984583
 20
8.19255813
 30
0.0
 10
13.3280890724
 20
8.2021154918
 30
0.0
 10
13.3250038729
 20
8.2096298056
 30
0.0
 10
13.3224615719
 20
8.2152916694
 30
0.0
 10
13.3205522999
 20
8.2192973134
 30
0.0
 10
13.3186115685
 20
8.2231267198
 30
0.0
 10
13.3166401706
 20
8.2267783511
 30
0.0
 10
13.3146389263
 20
8.2302507355
 30
0.0
 10
13.3126085902
 20
8.2335424361
 30
0.0
 10
13.3105499831
 20
8.2366521254
 30
0.0
 10
13.3084639458
 20
8.239578568
 30
0.0
 10
13.3063512473
 20
8.2423205482
 30
0.0
 10
13.3042127015
 20
8.2448769405
 30
0.0
 10
13.302049138
 20
8.2472467472
 30
0.0
 10
13.299861401
 20
8.2494289104
 30
0.0
 10
13.297650032
 20
8.2514226388
 30
0.0
 10
13.2947224113
 20
8.2537873845
 30
0.0
 10
13.2916971836
 20
8.2558279639
 30
0.0
 10
13.2885875214
 20
8.2574949082
 30
0.0
 10
13.2862716069
 20
8.258533653
 30
0.0
 10
13.2839375623
 20
8.2593791314
 30
0.0
 10
13.2815863286
 20
8.260030913
 30
0.0
 10
13.2792192778
 20
8.2604885025
 30
0.0
 10
13.2776293597
 20
8.2606640346
 30
0.0
 10
13.2768349715
 20
8.2607191193
 30
0.0
  0
SPLINE
  5
2F7
100
AcDbEntity
  8
0
100
AcDbSpline
 62
7
  6
CONTINUOUS
 70
0
 71
3
 72
53
 73
49
 74
0
 42
0.0000001
 43
0.0000001
 44
0.0000000001
 40
0.0
 40
0.0
 40
0.0
 40
0.0
 40
0.0063158505
 40
0.0126706065
 40
0.0191024059
 40
0.025647925
 40
0.0323417594
 40
0.0392160732
 40
0.0536138138
 40
0.0611945116
 40
0.0690562199
 40
0.0772172833
 40
0.0856936463
 40
0.0944989782
 40
0.1036450547
 40
0.113141788
 40
0.1229974785
 40
0.1332190725
 40
0.143812113
 40
0.1547810712
 40
0.1661293938
 40
0.1778595131
 40
0.1899731419
 40
0.202471156
 40
0.2153537422
 40
0.2286205498
 40
0.2422705327
 40
0.2563022009
 40
0.2707135857
 40
0.2855021832
 40
0.3006651871
 40
0.3321002773
 40
0.3649893983
 40
0.3992971141
 40
0.4349834107
 40
0.4720041701
 40
0.5103115331
 40
0.5498541823
 40
0.5905776893
 40
0.6324247808
 40
0.6753355513
 40
0.7192476511
 40
0.7640964723
 40
0.8098154905
 40
0.8563363112
 40
0.9035882029
 40
0.951501464
 40
1.0
 40
1.0
 40
1.0
 40
1.0
 10
14.0233643611
 20
9.2394298302
 30
0.0
 10
14.0248517259
 20
9.2393266808
 30
0.0
 10
14.0278285852
 20
9.2389979676
 30
0.0
 10
14.0322605199
 20
9.2381412764
 30
0.0
 10
14.0366628388
 20
9.2369209268
 30
0.0
 10
14.0410329301
 20
9.2353378164
 30
0.0
 10
14.0453691454
 20
9.2333930147
 30
0.0
 10
14.0511914745
 20
9.2302718978
 30
0.0
 10
14.0568557334
 20
9.2264512462
 30
0.0
 10
14.0623372442
 20
9.2220236354
 30
0.0
 10
14.066477654
 20
9.2182906662
 30
0.0
 10
14.0705738638
 20
9.2142049353
 30
0.0
 10
14.0746247899
 20
9.2097678508
 30
0.0
 10
14.0786288691
 20
9.2049814041
 30
0.0
 10
14.0825845506
 20
9.199847477
 30
0.0
 10
14.0864903403
 20
9.1943681952
 30
0.0
 10
14.0903447536
 20
9.1885457932
 30
0.0
 10
14.0941462014
 20
9.1823825905
 30
0.0
 10
14.0978932504
 20
9.1758811271
 30
0.0
 10
14.1015843706
 20
9.169044024
 30
0.0
 10
14.1052180486
 20
9.1618740512
 30
0.0
 10
14.1087928787
 20
9.1543741538
 30
0.0
 10
14.1123073411
 20
9.146547365
 30
0.0
 10
14.1157600301
 20
9.1383968945
 30
0.0
 10
14.1191495563
 20
9.1299260811
 30
0.0
 10
14.1224744665
 20
9.1211383756
 30
0.0
 10
14.1257334563
 20
9.1120373989
 30
0.0
 10
14.1289251595
 20
9.1026268769
 30
0.0
 10
14.1320482321
 20
9.0929106728
 30
0.0
 10
14.1351014638
 20
9.0828927784
 30
0.0
 10
14.1391258965
 20
9.068971268
 30
0.0
 10
14.1439613179
 20
9.0508385653
 30
0.0
 10
14.1493981365
 20
9.0281967235
 30
0.0
 10
14.154527724
 20
9.0044557139
 30
0.0
 10
14.1593415504
 20
8.9796546434
 30
0.0
 10
14.1638315905
 20
8.9538342081
 30
0.0
 10
14.1679903496
 20
8.9270368798
 30
0.0
 10
14.1718109118
 20
8.8993067661
 30
0.0
 10
14.1752869131
 20
8.8706895406
 30
0.0
 10
14.1784125561
 20
8.8412323477
 30
0.0
 10
14.1811826197
 20
8.8109837324
 30
0.0
 10
14.1835924973
 20
8.7799935732
 30
0.0
 10
14.185638179
 20
8.7483129686
 30
0.0
 10
14.187316246
 20
8.7159941469
 30
0.0
 10
14.1886238713
 20
8.6830905323
 30
0.0
 10
14.1895589307
 20
8.6496560632
 30
0.0
 10
14.1901197719
 20
8.6157463657
 30
0.0
 10
14.1902429302
 20
8.5929869203
 30
0.0
 10
14.1902429302
 20
8.581538221
 30
0.0
  0
SPLINE
  5
2F8
100
AcDbEntity
  8
0
100
AcDbSpline
 62
7
  6
CONTINUOUS
 70
0
 71
3
 72
45
 73
41
 74
0
 42
0.0000001
 43
0.0000001
 44
0.0000000001
 40
0.0
 40
0.0
 40
0.0
 40
0.0
 40
0.0309546486
 40
0.0620427229
 40
0.093260249
 40
0.1246005098
 40
0.1560552137
 40
0.1876142124
 40
0.219265789
 40
0.2509968248
 40
0.2827930111
 40
0.31463907
 40
0.3465189852
 40
0.3784162412
 40
0.4103140671
 40
0.4421956834
 40
0.4740445494
 40
0.5058446073
 40
0.5375805219
 40
0.569237912
 40
0.600803572
 40
0.6322656803
 40
0.6636139928
 40
0.694840016
 40
0.7259371581
 40
0.7569008558
 40
0.787728672
 40
0.8184203627
 40
0.8337176982
 40
0.8489819333
 40
0.8642136644
 40
0.8794136208
 40
0.8945826717
 40
0.9097218118
 40
0.9248321689
 40
0.9399149922
 40
0.95497165
 40
0.9700036271
 40
0.9850125121
 40
1.0
 40
1.0
 40
1.0
 40
1.0
 10
10.096715288
 20
7.2958317307
 30
0.0
 10
10.0789856497
 20
7.2970612853
 30
0.0
 10
10.0435183754
 20
7.3006579851
 30
0.0
 10
9.9906600604
 20
7.3094072611
 30
0.0
 10
9.938233024
 20
7.3214871082
 30
0.0
 10
9.8864532602
 20
7.3368480503
 30
0.0
 10
9.8355306955
 20
7.3554272718
 30
0.0
 10
9.7856725931
 20
7.3771489877
 30
0.0
 10
9.7370816372
 20
7.4019246405
 30
0.0
 10
9.6899554017
 20
7.4296532867
 30
0.0
 10
9.6444854733
 20
7.4602220053
 30
0.0
 10
9.6008567107
 20
7.4935063706
 30
0.0
 10
9.5592464929
 20
7.5293709522
 30
0.0
 10
9.5198240067
 20
7.5676698616
 30
0.0
 10
9.4827495675
 20
7.6082473435
 30
0.0
 10
9.4481739624
 20
7.6509383935
 30
0.0
 10
9.4162378304
 20
7.6955694195
 30
0.0
 10
9.3870711142
 20
7.7419589598
 30
0.0
 10
9.3607925323
 20
7.7899184102
 30
0.0
 10
9.3375090998
 20
7.8392527837
 30
0.0
 10
9.3173156947
 20
7.8897614944
 30
0.0
 10
9.3002946727
 20
7.9412391662
 30
0.0
 10
9.2865155006
 20
7.99347644
 30
0.0
 10
9.2760345044
 20
8.0462608741
 30
0.0
 10
9.2688946146
 20
8.0993776257
 30
0.0
 10
9.2651252652
 20
8.1526109542
 30
0.0
 10
9.264741968
 20
8.2057427168
 30
0.0
 10
9.2672492535
 20
8.2498081384
 30
0.0
 10
9.2709478905
 20
8.2847859813
 30
0.0
 10
9.2745599412
 20
8.3108332246
 30
0.0
 10
9.2790092532
 20
8.3366936071
 30
0.0
 10
9.2842913831
 20
8.3623411242
 30
0.0
 10
9.2904008174
 20
8.3877495897
 30
0.0
 10
9.2973315322
 20
8.4128931029
 30
0.0
 10
9.3050762947
 20
8.437746091
 30
0.0
 10
9.3136273647
 20
8.4622832063
 30
0.0
 10
9.3229759729
 20
8.4864794419
 30
0.0
 10
9.3331126199
 20
8.5103102566
 30
0.0
 10
9.3440269276
 20
8.5337509739
 30
0.0
 10
9.3518197408
 20
8.5491133913
 30
0.0
 10
9.3558416402
 20
8.5567205093
 30
0.0
  0
SPLINE
  5
2F9
100
AcDbEntity
  8
0
100
AcDbSpline
 62
7
  6
CONTINUOUS
 70
0
 71
3
 72
46
 73
42
 74
0
 42
0.0000001
 43
0.0000001
 44
0.0000000001
 40
0.0
 40
0.0
 40
0.0
 40
0.0
 40
0.0309845287
 40
0.0621054833
 40
0.0933586366
 40
0.1247368504
 40
0.1562313024
 40
0.1878312058
 40
0.2195241168
 40
0.2512961224
 40
0.283132073
 40
0.3150158261
 40
0.3469305006
 40
0.3788587391
 40
0.4107829752
 40
0.4426857043
 40
0.4745497524
 40
0.5063585428
 40
0.538096354
 40
0.5697485705
 40
0.601301919
 40
0.6327446912
 40
0.6640669456
 40
0.6952606873
 40
0.7263200208
 40
0.7572412743
 40
0.7880230895
 40
0.8033640146
 40
0.8186706599
 40
0.8339435248
 40
0.8491832535
 40
0.8643906411
 40
0.8795666193
 40
0.8947122657
 40
0.9098287901
 40
0.9249175342
 40
0.9399799679
 40
0.9550176767
 40
0.9700323645
 40
0.9850258369
 40
1.0
 40
1.0
 40
1.0
 40
1.0
 10
10.096715288
 20
7.3209458037
 30
0.0
 10
10.0791384084
 20
7.3221647645
 30
0.0
 10
10.0439763874
 20
7.3257556678
 30
0.0
 10
9.9915856465
 20
7.3345403403
 30
0.0
 10
9.9396416418
 20
7.3466981527
 30
0.0
 10
9.8883679753
 20
7.3621770719
 30
0.0
 10
9.8379818386
 20
7.3809109567
 30
0.0
 10
9.7886975051
 20
7.4028199621
 30
0.0
 10
9.7407243059
 20
7.4278107621
 30
0.0
 10
9.6942660422
 20
7.4557769668
 30
0.0
 10
9.6495200504
 20
7.4865995859
 30
0.0
 10
9.6066764004
 20
7.5201475404
 30
0.0
 10
9.5659170901
 20
7.5562782138
 30
0.0
 10
9.5274152811
 20
7.5948380534
 30
0.0
 10
9.4913345736
 20
7.6356632202
 30
0.0
 10
9.4578282925
 20
7.6785802577
 30
0.0
 10
9.4270388519
 20
7.7234068387
 30
0.0
 10
9.3990971639
 20
7.7699525402
 30
0.0
 10
9.3741220848
 20
7.8180196424
 30
0.0
 10
9.3522199117
 20
7.8674039581
 30
0.0
 10
9.3334839383
 20
7.9178956956
 30
0.0
 10
9.3179940295
 20
7.9692803175
 30
0.0
 10
9.3058162899
 20
8.0213394979
 30
0.0
 10
9.2970027817
 20
8.0738518665
 30
0.0
 10
9.2915913561
 20
8.1265945988
 30
0.0
 10
9.2896052521
 20
8.1793418979
 30
0.0
 10
9.290813808
 20
8.2231699285
 30
0.0
 10
9.293500088
 20
8.2580030276
 30
0.0
 10
9.2963673127
 20
8.2839624366
 30
0.0
 10
9.3000862147
 20
8.3097551916
 30
0.0
 10
9.3046528844
 20
8.3353541938
 30
0.0
 10
9.3100623502
 20
8.3607321271
 30
0.0
 10
9.3163090516
 20
8.3858619668
 30
0.0
 10
9.3233861582
 20
8.4107170045
 30
0.0
 10
9.3312863028
 20
8.4352707457
 30
0.0
 10
9.3400010113
 20
8.4594970712
 30
0.0
 10
9.3495210031
 20
8.4833702093
 30
0.0
 10
9.3598362497
 20
8.5068646732
 30
0.0
 10
9.3709356651
 20
8.5299556202
 30
0.0
 10
9.3828074342
 20
8.5526180239
 30
0.0
 10
9.3912338599
 20
8.5674343346
 30
0.0
 10
9.3955710469
 20
8.5747618795
 30
0.0
  0
SPLINE
  5
2FA
100
AcDbEntity
  8
0
100
AcDbSpline
 62
7
  6
CONTINUOUS
 70
0
 71
3
 72
76
 73
72
 74
0
 42
0.0000001
 43
0.0000001
 44
0.0000000001
 40
0.0
 40
0.0
 40
0.0
 40
0.0
 40
0.0156747358
 40
0.0235325428
 40
0.0314031247
 40
0.0471815269
 40
0.0630096691
 40
0.0709422965
 40
0.0788865455
 40
0.0948074602
 40
0.1107706217
 40
0.1267727506
 40
0.1428102138
 40
0.1588790637
 40
0.1749750744
 40
0.1910937801
 40
0.2072305158
 40
0.2233804587
 40
0.2395386706
 40
0.2557001414
 40
0.2718598329
 40
0.2880127219
 40
0.304153845
 40
0.320278341
 40
0.3363814943
 40
0.3524587764
 40
0.3685058868
 40
0.384518792
 40
0.4004937632
 40
0.4164274116
 40
0.4323167216
 40
0.4481590813
 40
0.4639523095
 40
0.4796946803
 40
0.495384943
 40
0.5110223391
 40
0.5266066138
 40
0.542138024
 40
0.5576173411
 40
0.5730458482
 40
0.588425333
 40
0.6037580745
 40
0.6190468249
 40
0.6342947854
 40
0.6495055776
 40
0.6646832087
 40
0.6798320327
 40
0.6949567064
 40
0.7100621422
 40
0.7251534568
 40
0.7402359175
 40
0.7553148859
 40
0.7703957613
 40
0.7854839223
 40
0.8005846697
 40
0.8157031702
 40
0.8308444015
 40
0.8460131006
 40
0.8612137152
 40
0.8764503585
 40
0.8917267695
 40
0.9070462755
 40
0.9147237276
 40
0.9224129992
 40
0.9301143742
 40
0.9378281071
 40
0.9532923509
 40
0.9688083105
 40
0.9765865615
 40
0.9843782585
 40
1.0
 40
1.0
 40
1.0
 40
1.0
 10
9.7405805637
 20
6.8813193479
 30
0.0
 10
9.7257953379
 20
6.8823447068
 30
0.0
 10
9.7036309992
 20
6.8844277642
 30
0.0
 10
9.6741875932
 20
6.888279216
 30
0.0
 10
9.6447484267
 20
6.8928565362
 30
0.0
 10
9.6080819077
 20
6.8999246184
 30
0.0
 10
9.5717390126
 20
6.9087540158
 30
0.0
 10
9.5428772842
 20
6.9168662263
 30
0.0
 10
9.5141323385
 20
6.9256866994
 30
0.0
 10
9.4785313614
 20
6.938010268
 30
0.0
 10
9.4364741754
 20
6.9548237259
 30
0.0
 10
9.3951493808
 20
6.9736330335
 30
0.0
 10
9.3546570594
 20
6.9943926791
 30
0.0
 10
9.3150945019
 20
7.0170526846
 30
0.0
 10
9.2765569704
 20
7.0415584481
 30
0.0
 10
9.2391372028
 20
7.0678509489
 30
0.0
 10
9.2029252628
 20
7.0958668695
 30
0.0
 10
9.1680083043
 20
7.1255387525
 30
0.0
 10
9.1344703667
 20
7.1567951591
 30
0.0
 10
9.1023921736
 20
7.1895608434
 30
0.0
 10
9.0718509397
 20
7.2237569329
 30
0.0
 10
9.042920186
 20
7.259301117
 30
0.0
 10
9.0156695633
 20
7.2961078446
 30
0.0
 10
8.9901646858
 20
7.3340885287
 30
0.0
 10
8.9664669731
 20
7.3731517586
 30
0.0
 10
8.9446335033
 20
7.4132035188
 30
0.0
 10
8.9247168756
 20
7.4541474139
 30
0.0
 10
8.9067650843
 20
7.4958848993
 30
0.0
 10
8.890821403
 20
7.5383155168
 30
0.0
 10
8.8769242808
 20
7.5813371353
 30
0.0
 10
8.8651072474
 20
7.6248461945
 30
0.0
 10
8.8553988311
 20
7.6687379526
 30
0.0
 10
8.847822492
 20
7.7129067381
 30
0.0
 10
8.842396564
 20
7.7572462024
 30
0.0
 10
8.8391342097
 20
7.8016495743
 30
0.0
 10
8.8380433871
 20
7.8460099155
 30
0.0
 10
8.8391268283
 20
7.8902203771
 30
0.0
 10
8.8423820316
 20
7.9341744558
 30
0.0
 10
8.8478012645
 20
7.9777662494
 30
0.0
 10
8.8553715799
 20
8.0208907117
 30
0.0
 10
8.8650748449
 20
8.0634439052
 30
0.0
 10
8.8768877814
 20
8.1053232521
 30
0.0
 10
8.8907820197
 20
8.1464277823
 30
0.0
 10
8.9067241619
 20
8.1866583785
 30
0.0
 10
8.9246758602
 20
8.225918018
 30
0.0
 10
8.9445939097
 20
8.2641120073
 30
0.0
 10
8.96643035
 20
8.3011482137
 30
0.0
 10
8.9901325798
 20
8.33693729
 30
0.0
 10
9.015643483
 20
8.3713928933
 30
0.0
 10
9.0429015661
 20
8.4044318963
 30
0.0
 10
9.0718411073
 20
8.4359745913
 30
0.0
 10
9.1023923161
 20
8.4659448852
 30
0.0
 10
9.1344815034
 20
8.494270486
 30
0.0
 10
9.1680312615
 20
8.5208830793
 30
0.0
 10
9.202960653
 20
8.5457184954
 30
0.0
 10
9.239185411
 20
8.5687168648
 30
0.0
 10
9.2766181381
 20
8.5898227655
 30
0.0
 10
9.3151685433
 20
8.6089853586
 30
0.0
 10
9.3547435828
 20
8.6261584947
 30
0.0
 10
9.3952479917
 20
8.6413008804
 30
0.0
 10
9.4365833741
 20
8.6543759637
 30
0.0
 10
9.4716157159
 20
8.6635166993
 30
0.0
 10
9.4999512017
 20
8.6697681958
 30
0.0
 10
9.5213648632
 20
8.6739266783
 30
0.0
 10
9.5429104977
 20
8.6775488136
 30
0.0
 10
9.5718187038
 20
8.6816633505
 30
0.0
 10
9.6082241505
 20
8.6854526348
 30
0.0
 10
9.6448337213
 20
8.6874259547
 30
0.0
 10
9.6742245973
 20
8.6879180209
 30
0.0
 10
9.7037180981
 20
8.6876840425
 30
0.0
 10
9.7258453249
 20
8.6866908809
 30
0.0
 10
9.7405805637
 20
8.6856689886
 30
0.0
  0
SPLINE
  5
2FB
100
AcDbEntity
  8
0
100
AcDbSpline
 62
7
  6
CONTINUOUS
 70
0
 71
3
 72
48
 73
44
 74
0
 42
0.0000001
 43
0.0000001
 44
0.0000000001
 40
0.0
 40
0.0
 40
0.0
 40
0.0
 40
0.0310009945
 40
0.0621400892
 40
0.0934129125
 40
0.1248120869
 40
0.1563284798
 40
0.1879509389
 40
0.2196666018
 40
0.2514610998
 40
0.2833188023
 40
0.3152230743
 40
0.3471565432
 40
0.379101376
 40
0.4110395605
 40
0.4429531895
 40
0.474824743
 40
0.5066373659
 40
0.538375139
 40
0.5700233388
 40
0.6015686843
 40
0.6329995655
 40
0.66430625
 40
0.6954810657
 40
0.7265185541
 40
0.7419868179
 40
0.7574197811
 40
0.7728174332
 40
0.7881799148
 40
0.8035075271
 40
0.8188007193
 40
0.8340600997
 40
0.8492864257
 40
0.8644806036
 40
0.8796436897
 40
0.8947768773
 40
0.9098815027
 40
0.9249590316
 40
0.9400110561
 40
0.9550392906
 40
0.970045557
 40
0.9850317859
 40
1.0
 40
1.0
 40
1.0
 40
1.0
 10
10.1061293227
 20
7.350323507
 30
0.0
 10
10.0887858829
 20
7.3515262787
 30
0.0
 10
10.0540906663
 20
7.3550833958
 30
0.0
 10
10.0024025285
 20
7.363812513
 30
0.0
 10
9.9511659534
 20
7.3759092443
 30
0.0
 10
9.9006068815
 20
7.3913205498
 30
0.0
 10
9.8509447029
 20
7.4099789723
 30
0.0
 10
9.8023957696
 20
7.4318030496
 30
0.0
 10
9.755171316
 20
7.4566975404
 30
0.0
 10
9.7094768524
 20
7.4845538718
 30
0.0
 10
9.6655112073
 20
7.5152506347
 30
0.0
 10
9.6234656948
 20
7.548654105
 30
0.0
 10
9.5835232846
 20
7.5846188218
 30
0.0
 10
9.5458578213
 20
7.6229882192
 30
0.0
 10
9.5106332444
 20
7.6635952743
 30
0.0
 10
9.4780028929
 20
7.706263247
 30
0.0
 10
9.4481088561
 20
7.750806454
 30
0.0
 10
9.4210813575
 20
7.7970310636
 30
0.0
 10
9.3970381932
 20
7.8447359346
 30
0.0
 10
9.3760842201
 20
7.8937134666
 30
0.0
 10
9.3583108613
 20
7.9437505281
 30
0.0
 10
9.3437957493
 20
7.9946292183
 30
0.0
 10
9.3326023722
 20
8.046128457
 30
0.0
 10
9.3247798399
 20
8.0980225011
 30
0.0
 10
9.3210944726
 20
8.1414628885
 30
0.0
 10
9.3198646292
 20
8.1761809696
 30
0.0
 10
9.3198001487
 20
8.2021498439
 30
0.0
 10
9.3205928636
 20
8.2280471026
 30
0.0
 10
9.3222419371
 20
8.2538448632
 30
0.0
 10
9.3247454572
 20
8.2795149194
 30
0.0
 10
9.3281008895
 20
8.3050292935
 30
0.0
 10
9.3323044162
 20
8.3303601823
 30
0.0
 10
9.3373515762
 20
8.3554799557
 30
0.0
 10
9.3432368654
 20
8.3803612225
 30
0.0
 10
9.3499537963
 20
8.4049768755
 30
0.0
 10
9.3574952151
 20
8.4293000278
 30
0.0
 10
9.3658527298
 20
8.4533042102
 30
0.0
 10
9.3750173869
 20
8.4769631945
 30
0.0
 10
9.3849791323
 20
8.5002512093
 30
0.0
 10
9.395727077
 20
8.5231428441
 30
0.0
 10
9.4072496783
 20
8.5456131687
 30
0.0
 10
9.4195339908
 20
8.5676374173
 30
0.0
 10
9.4282279119
 20
8.5820156054
 30
0.0
 10
9.4326967267
 20
8.5891212185
 30
0.0
  0
SPLINE
  5
2FC
100
AcDbEntity
  8
0
100
AcDbSpline
 62
7
  6
CONTINUOUS
 70
0
 71
3
 72
44
 73
40
 74
0
 42
0.0000001
 43
0.0000001
 44
0.0000000001
 40
0.0
 40
0.0
 40
0.0
 40
0.0
 40
0.0309456505
 40
0.0620238281
 40
0.0932306164
 40
0.1245594247
 40
0.156002124
 40
0.1875487514
 40
0.219187807
 40
0.2509064083
 40
0.2826904972
 40
0.3145250535
 40
0.3463943203
 40
0.3782820352
 40
0.4101716683
 40
0.4420466618
 40
0.4738906702
 40
0.5056877985
 40
0.5374228358
 40
0.5690814822
 40
0.6006505656
 40
0.6321182458
 40
0.6634742041
 40
0.6947098149
 40
0.7258182957
 40
0.7567948345
 40
0.7876366899
 40
0.8030087861
 40
0.8183471674
 40
0.8336521026
 40
0.84892399
 40
0.864163371
 40
0.8793709155
 40
0.9096897904
 40
0.9398926055
 40
0.9549555944
 40
0.9699934565
 40
0.9850077153
 40
1.0
 40
1.0
 40
1.0
 40
1.0
 10
10.1774667634
 20
7.4192301875
 30
0.0
 10
10.1608182864
 20
7.4203847633
 30
0.0
 10
10.1275139103
 20
7.4237548856
 30
0.0
 10
10.0778754518
 20
7.4319387358
 30
0.0
 10
10.0286365306
 20
7.4432295291
 30
0.0
 10
9.9799972866
 20
7.4575816434
 30
0.0
 10
9.9321522631
 20
7.4749371719
 30
0.0
 10
9.8852935807
 20
7.4952262743
 30
0.0
 10
9.8396091686
 20
7.5183673336
 30
0.0
 10
9.7952822925
 20
7.5442673448
 30
0.0
 10
9.7524907472
 20
7.5728222602
 30
0.0
 10
9.7114061653
 20
7.6039174066
 30
0.0
 10
9.6721933373
 20
7.637427955
 30
0.0
 10
9.6350095565
 20
7.6732194171
 30
0.0
 10
9.6000039938
 20
7.7111481811
 30
0.0
 10
9.5673171047
 20
7.7510620833
 30
0.0
 10
9.5370800689
 20
7.7928010136
 30
0.0
 10
9.5094142706
 20
7.8361975532
 30
0.0
 10
9.4844308018
 20
7.881077633
 30
0.0
 10
9.4622300212
 20
7.9272612299
 30
0.0
 10
9.4429011613
 20
7.9745630892
 30
0.0
 10
9.4265219682
 20
8.0227934481
 30
0.0
 10
9.4131583914
 20
8.0717588315
 30
0.0
 10
9.402864309
 20
8.1212626611
 30
0.0
 10
9.3956813389
 20
8.1711066232
 30
0.0
 10
9.3916385479
 20
8.2210892782
 30
0.0
 10
9.3908995599
 20
8.2627405898
 30
0.0
 10
9.3918936332
 20
8.2959244499
 30
0.0
 10
9.3934276328
 20
8.3206967511
 30
0.0
 10
9.3957492692
 20
8.3453531976
 30
0.0
 10
9.3988563582
 20
8.369869235
 30
0.0
 10
9.4027456766
 20
8.3942204796
 30
0.0
 10
9.4089623328
 20
8.4264002545
 30
0.0
 10
9.4186639825
 20
8.4661025633
 30
0.0
 10
9.4309287322
 20
8.5050082764
 30
0.0
 10
9.4422363338
 20
8.535505169
 30
0.0
 10
9.4514489552
 20
8.5580284456
 30
0.0
 10
9.4613909833
 20
8.5801970635
 30
0.0
 10
9.468503865
 20
8.5947360018
 30
0.0
 10
9.4721782033
 20
8.6019379343
 30
0.0
  0
SPLINE
  5
2FD
100
AcDbEntity
  8
0
100
AcDbSpline
 62
7
  6
CONTINUOUS
 70
0
 71
3
 72
53
 73
49
 74
0
 42
0.0000001
 43
0.0000001
 44
0.0000000001
 40
0.0
 40
0.0
 40
0.0
 40
0.0
 40
0.0063158505
 40
0.0126706065
 40
0.0191024059
 40
0.025647925
 40
0.0323417594
 40
0.0392160732
 40
0.0536138138
 40
0.0611945116
 40
0.0690562199
 40
0.0772172833
 40
0.0856936463
 40
0.0944989782
 40
0.1036450547
 40
0.113141788
 40
0.1229974785
 40
0.1332190725
 40
0.143812113
 40
0.1547810712
 40
0.1661293938
 40
0.1778595131
 40
0.1899731419
 40
0.202471156
 40
0.2153537422
 40
0.2286205498
 40
0.2422705327
 40
0.2563022009
 40
0.2707135857
 40
0.2855021832
 40
0.3006651871
 40
0.3321002773
 40
0.3649893983
 40
0.3992971141
 40
0.4349834107
 40
0.4720041701
 40
0.5103115331
 40
0.5498541823
 40
0.5905776893
 40
0.6324247808
 40
0.6753355513
 40
0.7192476511
 40
0.7640964723
 40
0.8098154905
 40
0.8563363112
 40
0.9035882029
 40
0.951501464
 40
1.0
 40
1.0
 40
1.0
 40
1.0
 10
13.424975275
 20
8.6614303236
 30
0.0
 10
13.4264626398
 20
8.6613271741
 30
0.0
 10
13.4294394991
 20
8.6609984609
 30
0.0
 10
13.4338714338
 20
8.6601417697
 30
0.0
 10
13.4382737527
 20
8.6589214201
 30
0.0
 10
13.442643844
 20
8.6573383097
 30
0.0
 10
13.4469800592
 20
8.655393508
 30
0.0
 10
13.4528023884
 20
8.6522723911
 30
0.0
 10
13.4584666472
 20
8.6484517395
 30
0.0
 10
13.4639481581
 20
8.6440241287
 30
0.0
 10
13.4680885679
 20
8.6402911595
 30
0.0
 10
13.4721847777
 20
8.6362054286
 30
0.0
 10
13.4762357038
 20
8.6317683441
 30
0.0
 10
13.480239783
 20
8.6269818974
 30
0.0
 10
13.4841954645
 20
8.6218479703
 30
0.0
 10
13.4881012542
 20
8.6163686885
 30
0.0
 10
13.4919556675
 20
8.6105462865
 30
0.0
 10
13.4957571153
 20
8.6043830838
 30
0.0
 10
13.4995041643
 20
8.5978816204
 30
0.0
 10
13.5031952845
 20
8.5910445173
 30
0.0
 10
13.5068289624
 20
8.5838745445
 30
0.0
 10
13.5104037926
 20
8.5763746471
 30
0.0
 10
13.513918255
 20
8.5685478583
 30
0.0
 10
13.517370944
 20
8.5603973878
 30
0.0
 10
13.5207604702
 20
8.5519265744
 30
0.0
 10
13.5240853804
 20
8.5431388689
 30
0.0
 10
13.5273443702
 20
8.5340378922
 30
0.0
 10
13.5305360734
 20
8.5246273702
 30
0.0
 10
13.533659146
 20
8.5149111661
 30
0.0
 10
13.5367123777
 20
8.5048932717
 30
0.0
 10
13.5407368104
 20
8.4909717613
 30
0.0
 10
13.5455722318
 20
8.4728390586
 30
0.0
 10
13.5510090504
 20
8.4501972168
 30
0.0
 10
13.5561386378
 20
8.4264562072
 30
0.0
 10
13.5609524643
 20
8.4016551367
 30
0.0
 10
13.5654425044
 20
8.3758347014
 30
0.0
 10
13.5696012635
 20
8.3490373731
 30
0.0
 10
13.5734218257
 20
8.3213072594
 30
0.0
 10
13.576897827
 20
8.2926900339
 30
0.0
 10
13.58002347
 20
8.263232841
 30
0.0
 10
13.5827935336
 20
8.2329842257
 30
0.0
 10
13.5852034112
 20
8.2019940665
 30
0.0
 10
13.5872490929
 20
8.1703134619
 30
0.0
 10
13.5889271599
 20
8.1379946402
 30
0.0
 10
13.5902347851
 20
8.1050910256
 30
0.0
 10
13.5911698446
 20
8.0716565565
 30
0.0
 10
13.5917306858
 20
8.037746859
 30
0.0
 10
13.5918538441
 20
8.0149874137
 30
0.0
 10
13.5918538441
 20
8.0035387143
 30
0.0
  0
SPLINE
  5
2FE
100
AcDbEntity
  8
0
100
AcDbSpline
 62
7
  6
CONTINUOUS
 70
0
 71
3
 72
39
 73
35
 74
0
 42
0.0000001
 43
0.0000001
 44
0.0000000001
 40
0.0
 40
0.0
 40
0.0
 40
0.0
 40
0.0309949962
 40
0.0621273934
 40
0.0933928598
 40
0.1247841195
 40
0.1562921856
 40
0.1879060572
 40
0.2196130556
 40
0.2513990089
 40
0.2832484946
 40
0.3151450898
 40
0.3470716336
 40
0.379010498
 40
0.4109438629
 40
0.442853994
 40
0.474723519
 40
0.5065357007
 40
0.5382747029
 40
0.5699258461
 40
0.6014758499
 40
0.6329130582
 40
0.6642276447
 40
0.6954117934
 40
0.7264598532
 40
0.7573684594
 40
0.7881366229
 40
0.8187657783
 40
0.8492597925
 40
0.8796249286
 40
0.909869765
 40
0.940005068
 40
0.9700436194
 40
1.0
 40
1.0
 40
1.0
 40
1.0
 10
10.1981722699
 20
7.5165042429
 30
0.0
 10
10.1826144779
 20
7.5175831794
 30
0.0
 10
10.151491478
 20
7.5207686832
 30
0.0
 10
10.1051223999
 20
7.5285754245
 30
0.0
 10
10.0591542136
 20
7.5393878735
 30
0.0
 10
10.0137875452
 20
7.5531591136
 30
0.0
 10
9.9692172198
 20
7.5698294748
 30
0.0
 10
9.925635399
 20
7.5893269238
 30
0.0
 10
9.8832297494
 20
7.6115672441
 30
0.0
 10
9.8421829191
 20
7.6364544623
 30
0.0
 10
9.8026716797
 20
7.6638812332
 30
0.0
 10
9.764866187
 20
7.6937293005
 30
0.0
 10
9.7289292576
 20
7.7258700163
 30
0.0
 10
9.6950156751
 20
7.7601648894
 30
0.0
 10
9.6632715288
 20
7.796466178
 30
0.0
 10
9.6338335907
 20
7.8346175209
 30
0.0
 10
9.6068287303
 20
7.874454604
 30
0.0
 10
9.5823733741
 20
7.9158058631
 30
0.0
 10
9.5605729957
 20
7.9584932094
 30
0.0
 10
9.5415216632
 20
8.0023327912
 30
0.0
 10
9.5253016444
 20
8.0471357843
 30
0.0
 10
9.5119830501
 20
8.0927091941
 30
0.0
 10
9.5016235308
 20
8.1388566776
 30
0.0
 10
9.4942680243
 20
8.1853793801
 30
0.0
 10
9.4899485558
 20
8.2320767811
 30
0.0
 10
9.4886840939
 20
8.2787475508
 30
0.0
 10
9.4904804401
 20
8.3251904078
 30
0.0
 10
9.4953302062
 20
8.3712049898
 30
0.0
 10
9.5032128241
 20
8.4165926917
 30
0.0
 10
9.5140946652
 20
8.461157599
 30
0.0
 10
9.5279289927
 20
8.504707044
 30
0.0
 10
9.5446567999
 20
8.5470535228
 30
0.0
 10
9.5642046242
 20
8.5880115045
 30
0.0
 10
9.5790818257
 20
8.6143105714
 30
0.0
 10
9.5869571803
 20
8.627162086
 30
0.0
  0
SPLINE
  5
2FF
100
AcDbEntity
  8
0
100
AcDbSpline
 62
7
  6
CONTINUOUS
 70
0
 71
3
 72
23
 73
19
 74
0
 42
0.0000001
 43
0.0000001
 44
0.0000000001
 40
0.0
 40
0.0
 40
0.0
 40
0.0
 40
0.0532701143
 40
0.1070475034
 40
0.161558016
 40
0.2170113984
 40
0.273595562
 40
0.3314765984
 40
0.3907897441
 40
0.4516439276
 40
0.5141256387
 40
0.5782959705
 40
0.6441969182
 40
0.7118529384
 40
0.7812716164
 40
0.8524475774
 40
0.925365199
 40
1.0
 40
1.0
 40
1.0
 40
1.0
 10
10.0288955332
 20
7.9912702871
 30
0.0
 10
10.0280612071
 20
7.9904643899
 30
0.0
 10
10.0263236786
 20
7.9889067402
 30
0.0
 10
10.0235378568
 20
7.9867536138
 30
0.0
 10
10.0205666114
 20
7.9847772713
 30
0.0
 10
10.0174141326
 20
7.9829788657
 30
0.0
 10
10.0140851195
 20
7.9813581264
 30
0.0
 10
10.0105843733
 20
7.9799152983
 30
0.0
 10
10.0069175162
 20
7.9786495073
 30
0.0
 10
10.0030904527
 20
7.9775598404
 30
0.0
 10
9.9991093707
 20
7.9766454273
 30
0.0
 10
9.9949808557
 20
7.9759045327
 30
0.0
 10
9.9907116036
 20
7.9753356369
 30
0.0
 10
9.9863084758
 20
7.9749370062
 30
0.0
 10
9.9817784594
 20
7.9747065224
 30
0.0
 10
9.9771285475
 20
7.9746421987
 30
0.0
 10
9.972365791
 20
7.9747419006
 30
0.0
 10
9.9691567415
 20
7.9749142305
 30
0.0
 10
9.9675353845
 20
7.9750261531
 30
0.0
  0
ENDSEC
  0
SECTION
  2
OBJECTS
  0
DICTIONARY
  5
C
100
AcDbDictionary
280
0
281
1
  3
ACAD_GROUP
350
D
  3
ACAD_MLINESTYLE
350
17
  3
ACAD_LAYOUT
350
1A
  3
ACAD_PLOTSETTINGS
350
19
  3
ACAD_PLOTSTYLENAME
350
E
  3
ACAD_IMAGE_DICT
350
       301
  3
ACAD_IMAGE_VARS
350
       302
  3
ACAD_TABLESTYLE
350
       303
  0
IMAGEDEF_REACTOR
  5
300
100
AcDbRasterImageDefReactor
 90
2
330
283
  0
DICTIONARY
  5
D
102
{ACAD_REACTORS
330
C
102
}
100
AcDbDictionary
280
0
281
1
  0
ACDBDICTIONARYWDFLT
  5
E
102
{ACAD_REACTORS
330
C
102
}
100
AcDbDictionary
281
1
  3
Normal
350
F
100
AcDbDictionaryWithDefault
340
F
  0
DICTIONARY
  5
301
330
C
100
AcDbDictionary
281
1
  3
EGV_assy_2_img_1
350
       306
  0
RASTERVARIABLES
  5
302
330
C
100
AcDbRasterVariables
 90
0
 70
0
 71
1
 72
5
  0
DICTIONARY
  5
17
102
{ACAD_REACTORS
330
C
102
}
100
AcDbDictionary
280
0
281
1
  3
Standard
350
18
  0
DICTIONARY
  5
303
330
C
100
AcDbDictionary
281
1
  3
Standard
350
       307
  3
Standard1
350
       308
  0
DICTIONARY
  5
19
102
{ACAD_REACTORS
330
C
102
}
100
AcDbDictionary
281
1
  0
DICTIONARY
  5
1A
102
{ACAD_REACTORS
330
C
102
}
100
AcDbDictionary
281
1
  3
Model
350
304
  3
Layout1
350
305
  0
ACDBPLACEHOLDER
  5
F
102
{ACAD_REACTORS
330
E
102
}
  0
MLINESTYLE
  5
18
102
{ACAD_REACTORS
330
17
102
}
100
AcDbMlineStyle
  2
STANDARD
 70
0
  3

 62
256
 51
90.0
 52
90.0
 71
2
 49
0.5
 62
256
  6
BYLAYER
 49
-0.5
 62
256
  6
BYLAYER
  0
LAYOUT
  5
304
102
{ACAD_REACTORS
330
1A
102
}
100
AcDbPlotSettings
  1

  2
none_device
  4
ANSI_C_(22.00_x_17.00_Inches)
  6

 40
0.0
 41
0.0
 42
0.0
 43
0.0
 44
558.8
 45
431.8
 46
0.0
 47
0.0
 48
0.0
 49
0.0
140
0.0
141
0.0
142
1.0
143
1.0
 70
1024
 72
0
 73
0
 74
0
  7

 75
0
147
1.0
148
0.0
149
0.0
100
AcDbLayout
  1
Model
 70
0
 71
0
 10
0.0
 20
0.0
 11
22.0
 21
17.0
 12
0.0
 22
0.0
 32
0.0
 14
0.0
 24
0.0
 34
0.0
 15
0.0
 25
0.0
 35
0.0
146
0.0
 13
0.0
 23
0.0
 33
0.0
 16
1.0
 26
0.0
 36
0.0
 17
0.0
 27
1.0
 37
0.0
 76
0
330
20E
345
0
346
0
  0
LAYOUT
  5
305
102
{ACAD_REACTORS
330
1A
102
}
100
AcDbPlotSettings
  1

  2
none_device
  4
ANSI_C_(22.00_x_17.00_Inches)
  6

 40
0.0
 41
0.0
 42
0.0
 43
0.0
 44
558.8
 45
431.8
 46
0.0
 47
0.0
 48
0.0
 49
0.0
140
0.0
141
0.0
142
1.0
143
1.0
 70
0
 72
0
 73
0
 74
0
  7

 75
0
147
1.0
148
0.0
149
0.0
100
AcDbLayout
  1
Layout1
 70
0
 71
1
 10
0.0
 20
0.0
 11
22.0
 21
17.0
 12
0.0
 22
0.0
 32
0.0
 14
0.0
 24
0.0
 34
0.0
 15
0.0
 25
0.0
 35
0.0
146
0.0
 13
0.0
 23
0.0
 33
0.0
 16
1.0
 26
0.0
 36
0.0
 17
0.0
 27
1.0
 37
0.0
 76
0
330
20F
345
0
346
0
  0
IMAGEDEF
  5
306
102
{ACAD_REACTORS
330
301
330
300
102
}
100
AcDbRasterImageDef
 90
0
  1
EGV_assy_2_img_1.png
 10
369.0
 20
92.0
 11
0.0066666667
 21
0.0066666667
280
1
281
0
  0
TABLESTYLE
  5
307
102
{ACAD_REACTORS
330
303
330
286
330
287
102
}
330
303
100
AcDbTableStyle
  3
Standard
 70
0
 71
0
 40
0.06
 41
0.06
280
1
281
1
  7
Standard
140
0.18
170
1
 62
0
 63
7
283
0
  7
Standard
140
0.18
170
1
 62
0
 63
7
283
0
  7
Standard
140
0.18
170
1
 62
0
 63
7
283
0
  0
TABLESTYLE
  5
308
102
{ACAD_REACTORS
330
303
330
285
102
}
330
303
100
AcDbTableStyle
  3
Standard1
 70
1
 71
0
 40
0.06
 41
0.06
280
1
281
1
  7
Standard
140
0.18
170
1
 62
0
 63
7
283
0
  7
Standard
140
0.18
170
1
 62
0
 63
7
283
0
  7
Standard
140
0.18
170
1
 62
0
 63
7
283
0
  0
ENDSEC
  0
EOF
