999
DXF file: EGT_assy_2.dxf
999
Pro/ENGINEER 2014200 by Parametric Technology Corporation
  0
SECTION
  2
HEADER
  9
$ACADVER
  1
AC1021
  9
$DWGCODEPAGE
  3
ANSI_1252
  9
$EXTMAX
 10
22.0
 20
17.0
 30
0.0
  9
$EXTMIN
 10
0.0
 20
0.0
 30
0.0
  9
$LIMMIN
 10
0.0
 20
0.0
  9
$LIMMAX
 10
22.0
 20
17.0
  9
$VIEWCTR
 10
11.0
 20
8.5
  9
$VIEWSIZE
 40
17.0
  9
$CLAYER
  8
0
  9
$LTSCALE
 40
1.21
  9
$CELTYPE
  6
BYLAYER
  9
$DIMSCALE
 40
1.0
  9
$DIMASZ
 40
0.1875
  9
$DIMEXO
 40
0.0625
  9
$DIMDLI
 40
0.836
  9
$DIMEXE
 40
0.125
  9
$DIMCEN
 40
0.198
  9
$DIMLFAC
 40
1.0
  9
$DIMBLK
  1
_FILLED
  9
$DIMTXT
 40
0.1
  9
$DIMTOL
 70
0
  9
$DIMLIM
 70
0
  9
$DIMTFAC
 40
1.0
  9
$DIMGAP
 40
0.09
  9
$DIMDSEP
 70
46
  9
$AUNITS
 70
0
  9
$PDMODE
 70
3
  9
$PDSIZE
 40
0.3125
  9
$HANDSEED
  5
311
  9
$TILEMODE
 70
1
  9
$MEASUREMENT
 70
0
  9
$INSUNITS
 70
1
  0
ENDSEC
  0
SECTION
  2
CLASSES
  0
CLASS
  1
ACDBDICTIONARYWDFLT
  2
AcDbDictionaryWithDefault
  3
AutoCAD 2000
 90
0
 91
1
280
0
281
0
  0
CLASS
  1
ACDBPLACEHOLDER
  2
AcDbPlaceHolder
  3
AutoCAD 2000
 90
0
 91
1
280
0
281
0
  0
CLASS
  1
LAYOUT
  2
AcDbLayout
  3
AutoCAD 2000
 90
0
 91
0
280
0
281
0
  0
CLASS
  1
RASTERVARIABLES
  2
AcDbRasterVariables
  3
ISM
 90
0
 91
1
280
0
281
0
  0
CLASS
  1
IMAGEDEF
  2
AcDbRasterImageDef
  3
ISM
 90
0
 91
1
280
0
281
0
  0
CLASS
  1
IMAGEDEF_REACTOR
  2
AcDbRasterImageDefReactor
  3
ISM
 90
0
 91
1
280
0
281
0
  0
CLASS
  1
IMAGE
  2
AcDbRasterImage
  3
ISM
 90
127
 91
1
280
0
281
1
  0
CLASS
  1
TABLESTYLE
  2
AcDbTableStyle
  3
ObjectDBX Classes
 90
2047
 91
1
280
0
281
0
  0
CLASS
  1
ACAD_TABLE
  2
AcDbTable
  3
ObjectDBX Classes
 90
1025
 91
3
280
0
281
1
  0
ENDSEC
  0
SECTION
  2
TABLES
  0
TABLE
  2
VPORT
  5
8
100
AcDbSymbolTable
 70
2
  0
VPORT
  5
1F4
100
AcDbSymbolTableRecord
100
AcDbViewportTableRecord
  2
*ACTIVE
 70
0
 10
0.0
 20
0.0
 11
1.0
 21
1.0
 12
11.0
 22
8.5
 13
0.0
 23
0.0
 14
1.0
 24
1.0
 15
0.0
 25
0.0
 16
0.0
 26
0.0
 36
1.0
 17
0.0
 27
0.0
 37
0.0
 40
17.0
 41
1.2941176471
 42
50.0
 43
0.0
 44
0.0
 50
0.0
 51
0.0
 71
0
 72
100
 73
1
 74
1
 75
0
 76
0
 77
0
 78
0
  0
ENDTAB
  0
TABLE
  2
LTYPE
  5
5
100
AcDbSymbolTable
 70
6
  0
LTYPE
  5
14
100
AcDbSymbolTableRecord
100
AcDbLinetypeTableRecord
  2
BYBLOCK
 70
0
  3

 72
65
 73
0
 40
0.0
  0
LTYPE
  5
15
100
AcDbSymbolTableRecord
100
AcDbLinetypeTableRecord
  2
BYLAYER
 70
0
  3

 72
65
 73
0
 40
0.0
  0
LTYPE
  5
16
100
AcDbSymbolTableRecord
100
AcDbLinetypeTableRecord
  2
CONTINUOUS
 70
64
  3
Solid line
 72
65
 73
0
 40
0.0
  0
LTYPE
  5
1F5
100
AcDbSymbolTableRecord
100
AcDbLinetypeTableRecord
  2
CENTER
 70
64
  3
____ _ ____ _ ____ _ ____ _ ____ _ ____ _ ____
 72
65
 73
4
 40
0.6
 49
0.375
 74
0
 49
-0.075
 74
0
 49
0.075
 74
0
 49
-0.075
 74
0
  0
LTYPE
  5
1F6
100
AcDbSymbolTableRecord
100
AcDbLinetypeTableRecord
  2
HIDDEN
 70
64
  3
- - - - - - - - - - - - - - - - - - - -
 72
65
 73
2
 40
0.2
 49
0.1
 74
0
 49
-0.1
 74
0
  0
LTYPE
  5
1F7
100
AcDbSymbolTableRecord
100
AcDbLinetypeTableRecord
  2
PHANTOM
 70
64
  3
_____ _ _ _____ _ _ _____ _ _ _____
 72
65
 73
6
 40
0.8
 49
0.45
 74
0
 49
-0.05
 74
0
 49
0.1
 74
0
 49
-0.05
 74
0
 49
0.1
 74
0
 49
-0.05
 74
0
  0
LTYPE
  5
1F8
100
AcDbSymbolTableRecord
100
AcDbLinetypeTableRecord
  2
DOT
 70
64
  3
. . . . . . . . . . . . . . . . . . . .
 72
65
 73
2
 40
0.2
 49
0.1
 74
0
 49
-0.1
 74
0
  0
LTYPE
  5
1F9
100
AcDbSymbolTableRecord
100
AcDbLinetypeTableRecord
  2
DASHED
 70
64
  3
- - - - - - - - - - - - - - - - - - - -
 72
65
 73
2
 40
0.2
 49
0.1
 74
0
 49
-0.1
 74
0
  0
ENDTAB
  0
TABLE
  2
LAYER
  5
2
100
AcDbSymbolTable
 70
36
  0
LAYER
  5
10
100
AcDbSymbolTableRecord
100
AcDbLayerTableRecord
  2
0
 70
0
 62
7
  6
CONTINUOUS
370
-3
390
F
  0
LAYER
  5
1FA
100
AcDbSymbolTableRecord
100
AcDbLayerTableRecord
  2
DEFAULT_1
 70
0
 62
7
  6
CENTER
370
-3
390
F
  0
LAYER
  5
1FB
100
AcDbSymbolTableRecord
100
AcDbLayerTableRecord
  2
DEFAULT_2
 70
0
 62
8
  6
HIDDEN
370
-3
390
F
  0
LAYER
  5
1FC
100
AcDbSymbolTableRecord
100
AcDbLayerTableRecord
  2
DEFAULT_3
 70
0
 62
7
  6
PHANTOM
370
-3
390
F
  0
LAYER
  5
1FD
100
AcDbSymbolTableRecord
100
AcDbLayerTableRecord
  2
01___PRT_ALL_DTM_PLN
 70
0
 62
7
  6
CONTINUOUS
370
-3
390
F
  0
LAYER
  5
1FE
100
AcDbSymbolTableRecord
100
AcDbLayerTableRecord
  2
01___PRT_DEF_DTM_PLN
 70
0
 62
7
  6
CONTINUOUS
370
-3
390
F
  0
LAYER
  5
1FF
100
AcDbSymbolTableRecord
100
AcDbLayerTableRecord
  2
02___PRT_ALL_AXES
 70
0
 62
7
  6
CONTINUOUS
370
-3
390
F
  0
LAYER
  5
200
100
AcDbSymbolTableRecord
100
AcDbLayerTableRecord
  2
03___PRT_ALL_CURVES
 70
0
 62
7
  6
CONTINUOUS
370
-3
390
F
  0
LAYER
  5
201
100
AcDbSymbolTableRecord
100
AcDbLayerTableRecord
  2
04___PRT_ALL_DTM_PNT
 70
0
 62
7
  6
CONTINUOUS
370
-3
390
F
  0
LAYER
  5
202
100
AcDbSymbolTableRecord
100
AcDbLayerTableRecord
  2
05___PRT_ALL_DTM_CSYS
 70
0
 62
7
  6
CONTINUOUS
370
-3
390
F
  0
LAYER
  5
203
100
AcDbSymbolTableRecord
100
AcDbLayerTableRecord
  2
05___PRT_DEF_DTM_CSYS
 70
0
 62
7
  6
CONTINUOUS
370
-3
390
F
  0
LAYER
  5
204
100
AcDbSymbolTableRecord
100
AcDbLayerTableRecord
  2
06___PRT_ALL_SURFS
 70
0
 62
7
  6
CONTINUOUS
370
-3
390
F
  0
LAYER
  5
205
100
AcDbSymbolTableRecord
100
AcDbLayerTableRecord
  2
DATUM_PLANES
 70
0
 62
7
  6
CONTINUOUS
370
-3
390
F
  0
LAYER
  5
206
100
AcDbSymbolTableRecord
100
AcDbLayerTableRecord
  2
DIMENSIONS
 70
0
 62
7
  6
CONTINUOUS
370
-3
390
F
  0
LAYER
  5
207
100
AcDbSymbolTableRecord
100
AcDbLayerTableRecord
  2
PARAMETERDIMENSIONS
 70
0
 62
7
  6
CONTINUOUS
370
-3
390
F
  0
LAYER
  5
208
100
AcDbSymbolTableRecord
100
AcDbLayerTableRecord
  2
PORT_AREAS
 70
0
 62
7
  6
CONTINUOUS
370
-3
390
F
  0
LAYER
  5
209
100
AcDbSymbolTableRecord
100
AcDbLayerTableRecord
  2
SUNNBOMCOSMETIC
 70
0
 62
7
  6
CONTINUOUS
370
-3
390
F
  0
LAYER
  5
20A
100
AcDbSymbolTableRecord
100
AcDbLayerTableRecord
  2
SUNNBOMSTAMPING
 70
0
 62
7
  6
CONTINUOUS
370
-3
390
F
  0
LAYER
  5
20B
100
AcDbSymbolTableRecord
100
AcDbLayerTableRecord
  2
THREADS
 70
0
 62
7
  6
CONTINUOUS
370
-3
390
F
  0
ENDTAB
  0
TABLE
  2
STYLE
  5
3
100
AcDbSymbolTable
 70
1
  0
STYLE
  5
11
100
AcDbSymbolTableRecord
100
AcDbTextStyleTableRecord
  2
STANDARD
 70
0
 40
0.0
 41
0.8
 50
0.0
 71
0
 42
0.2
  3
txt
  4

  0
STYLE
  5
20C
100
AcDbSymbolTableRecord
100
AcDbTextStyleTableRecord
  2
TEXTSTYLE_1
 70
0
 40
0.0
 41
0.8
 50
0.0
 71
0
 42
0.2
  3
gdt
  4

  0
ENDTAB
  0
TABLE
  2
VIEW
  5
6
100
AcDbSymbolTable
 70
0
  0
ENDTAB
  0
TABLE
  2
UCS
  5
7
100
AcDbSymbolTable
 70
0
  0
ENDTAB
  0
TABLE
  2
APPID
  5
9
100
AcDbSymbolTable
 70
1
  0
APPID
  5
20D
100
AcDbSymbolTableRecord
100
AcDbRegAppTableRecord
  2
ACAD
 70
0
  0
ENDTAB
  0
TABLE
  2
BLOCK_RECORD
  5
1
100
AcDbSymbolTable
 70
0
  0
BLOCK_RECORD
  5
20E
100
AcDbSymbolTableRecord
100
AcDbBlockTableRecord
  2
*Model_Space
  0
BLOCK_RECORD
  5
20F
100
AcDbSymbolTableRecord
100
AcDbBlockTableRecord
  2
*Paper_Space
  0
BLOCK_RECORD
  5
210
100
AcDbSymbolTableRecord
100
AcDbBlockTableRecord
  2
SUN_FIRST_THIRD_ANGLE_BL0
  0
BLOCK_RECORD
  5
211
100
AcDbSymbolTableRecord
100
AcDbBlockTableRecord
  2
*T1
  0
BLOCK_RECORD
  5
212
100
AcDbSymbolTableRecord
100
AcDbBlockTableRecord
  2
*T2
  0
BLOCK_RECORD
  5
213
100
AcDbSymbolTableRecord
100
AcDbBlockTableRecord
  2
*T3
  0
ENDTAB
  0
TABLE
  2
DIMSTYLE
  5
A
100
AcDbSymbolTable
 70
1
100
AcDbDimStyleTable
 71
0
  0
DIMSTYLE
105
214
100
AcDbSymbolTableRecord
100
AcDbDimStyleTableRecord
  2
STANDARD
 70
0
  3

  4

 40
1.0
 41
0.1875
 42
0.0625
 43
0.38
 44
0.125
 45
0.0
 46
0.0
 47
0.001
 48
0.001
140
0.1
141
0.09
142
0.0
143
25.4
144
1.0
145
0.0
146
1.0
147
0.09
 71
0.0
 72
0.0
 73
1
 74
1
 75
0
 76
0
 77
0
 78
4
170
0
171
2
172
0
173
0
174
0
175
0
176
0
177
0
178
0
270
2
271
3
272
3
273
2
274
2
275
0
280
0
281
0
282
0
283
1
284
4
285
0
286
0
287
3
288
0
340
11
278
46
  0
ENDTAB
  0
ENDSEC
  0
SECTION
  2
BLOCKS
  0
BLOCK
  5
20
100
AcDbEntity
  8
0
100
AcDbBlockBegin
  2
*Model_Space
 70
0
 10
0.0
 20
0.0
 30
0.0
  3
*Model_Space
  1

  0
ENDBLK
  5
21
100
AcDbEntity
  8
0
100
AcDbBlockEnd
  0
BLOCK
  5
1C
100
AcDbEntity
  8
0
100
AcDbBlockBegin
  2
*Paper_Space
 70
0
 10
0.0
 20
0.0
 30
0.0
  3
*Paper_Space
  1

  0
ENDBLK
  5
1D
100
AcDbEntity
  8
0
100
AcDbBlockEnd
  0
BLOCK
  5
215
100
AcDbEntity
  8
0
100
AcDbBlockBegin
 62
2
  6
CONTINUOUS
  2
SUN_FIRST_THIRD_ANGLE_BL0
 70
64
 10
20.4816717061
 20
1.2289683772
  3
SUN_FIRST_THIRD_ANGLE_BL0
  1

  0
TEXT
  5
216
100
AcDbEntity
  8
0
100
AcDbText
 62
2
  6
CONTINUOUS
 10
19.4750896608
 20
1.4136269581
  7
STANDARD
 40
0.08
  1
FIRST ANGLE
 41
0.8
 72
0
100
AcDbText
  0
TEXT
  5
217
100
AcDbEntity
  8
0
100
AcDbText
 62
2
  6
CONTINUOUS
 10
20.7842537513
 20
1.4047600029
  7
STANDARD
 40
0.08
  1
THIRD ANGLE
 41
0.8
 72
0
100
AcDbText
  0
LINE
  5
218
100
AcDbEntity
  8
0
100
AcDbLine
 62
7
  6
CONTINUOUS
 10
19.4767170086
 20
1.1727031207
 11
19.6334271527
 21
1.1717972817
  0
LINE
  5
219
100
AcDbEntity
  8
0
100
AcDbLine
 62
7
  6
CONTINUOUS
 10
19.6596964832
 20
1.1717972817
 11
19.6950230232
 21
1.171593082
  0
LINE
  5
21A
100
AcDbEntity
  8
0
100
AcDbLine
 62
7
  6
CONTINUOUS
 10
19.7194818561
 20
1.1708914427
 11
19.8852396156
 21
1.1699333054
  0
LINE
  5
21B
100
AcDbEntity
  8
0
100
AcDbLine
 62
7
  6
CONTINUOUS
 10
19.4758111696
 20
1.2723454088
 11
19.88525039
 21
1.3511534004
  0
LINE
  5
21C
100
AcDbEntity
  8
0
100
AcDbLine
 62
7
  6
CONTINUOUS
 10
19.88525039
 20
1.3511534004
 11
19.8831348489
 21
0.9851647912
  0
LINE
  5
21D
100
AcDbEntity
  8
0
100
AcDbLine
 62
7
  6
CONTINUOUS
 10
19.8831348489
 20
0.9851647912
 11
19.4767170086
 21
1.0658141206
  0
LINE
  5
21E
100
AcDbEntity
  8
0
100
AcDbLine
 62
7
  6
CONTINUOUS
 10
19.4767170086
 20
1.0658141206
 11
19.4779056764
 21
1.2714536432
  0
CIRCLE
  5
21F
100
AcDbEntity
  8
0
100
AcDbCircle
 62
7
  6
CONTINUOUS
 10
20.2068232291
 20
1.1717972817
 40
0.175742101
  0
CIRCLE
  5
220
100
AcDbEntity
  8
0
100
AcDbCircle
 62
7
  6
CONTINUOUS
 10
20.2068232291
 20
1.1717972817
 40
0.1005522074
  0
LINE
  5
221
100
AcDbEntity
  8
0
100
AcDbLine
 62
7
  6
CONTINUOUS
 10
20.2077290681
 20
1.3756110529
 11
20.2071171714
 21
1.2379342989
  0
LINE
  5
222
100
AcDbEntity
  8
0
100
AcDbLine
 62
7
  6
CONTINUOUS
 10
20.2077290681
 20
1.2016899681
 11
20.2074674401
 21
1.1428236749
  0
LINE
  5
223
100
AcDbEntity
  8
0
100
AcDbLine
 62
7
  6
CONTINUOUS
 10
20.208634907
 20
1.101141841
 11
20.2080230104
 21
0.963465087
  0
LINE
  5
224
100
AcDbEntity
  8
0
100
AcDbLine
 62
7
  6
CONTINUOUS
 10
20.0066328138
 20
1.1745147986
 11
20.1443095678
 21
1.1739029019
  0
LINE
  5
225
100
AcDbEntity
  8
0
100
AcDbLine
 62
7
  6
CONTINUOUS
 10
20.1832714155
 20
1.1727031207
 11
20.238153505
 21
1.172335442
  0
LINE
  5
226
100
AcDbEntity
  8
0
100
AcDbLine
 62
7
  6
CONTINUOUS
 10
20.2756669918
 20
1.1717972817
 11
20.407916871
 21
1.1712095044
  0
CIRCLE
  5
227
100
AcDbEntity
  8
0
100
AcDbCircle
 62
7
  6
CONTINUOUS
 10
20.7509457401
 20
1.1693297793
 40
0.1722024983
  0
CIRCLE
  5
228
100
AcDbEntity
  8
0
100
AcDbCircle
 62
7
  6
CONTINUOUS
 10
20.7509457401
 20
1.1693297793
 40
0.0985164967
  0
LINE
  5
229
100
AcDbEntity
  8
0
100
AcDbLine
 62
7
  6
CONTINUOUS
 10
20.7169767782
 20
1.170462078
 11
20.7825395137
 21
1.1682766535
  0
LINE
  5
22A
100
AcDbEntity
  8
0
100
AcDbLine
 62
7
  6
CONTINUOUS
 10
20.8177513651
 20
1.1693297793
 11
20.947965719
 21
1.1693297793
  0
LINE
  5
22B
100
AcDbEntity
  8
0
100
AcDbLine
 62
7
  6
CONTINUOUS
 10
20.6875370113
 20
1.170462078
 11
20.5573226574
 21
1.170462078
  0
LINE
  5
22C
100
AcDbEntity
  8
0
100
AcDbLine
 62
7
  6
CONTINUOUS
 10
20.7486811426
 20
1.1987695462
 11
20.7486811426
 21
1.1432869085
  0
LINE
  5
22D
100
AcDbEntity
  8
0
100
AcDbLine
 62
7
  6
CONTINUOUS
 10
20.7498134414
 20
1.1059210505
 11
20.7498134414
 21
0.9757066966
  0
LINE
  5
22E
100
AcDbEntity
  8
0
100
AcDbLine
 62
7
  6
CONTINUOUS
 10
20.7486811426
 20
1.2338708068
 11
20.7486811426
 21
1.3640851607
  0
LINE
  5
22F
100
AcDbEntity
  8
0
100
AcDbLine
 62
7
  6
CONTINUOUS
 10
21.0702539817
 20
1.2701043662
 11
21.4790138229
 21
1.3448360823
  0
LINE
  5
230
100
AcDbEntity
  8
0
100
AcDbLine
 62
7
  6
CONTINUOUS
 10
21.4790138229
 20
1.3448360823
 11
21.4790138229
 21
0.9779712941
  0
LINE
  5
231
100
AcDbEntity
  8
0
100
AcDbLine
 62
7
  6
CONTINUOUS
 10
21.4790138229
 20
0.9779712941
 11
21.069121683
 21
1.0617614
  0
LINE
  5
232
100
AcDbEntity
  8
0
100
AcDbLine
 62
7
  6
CONTINUOUS
 10
21.0702539817
 20
1.2701043662
 11
21.069121683
 21
1.0617614
  0
LINE
  5
233
100
AcDbEntity
  8
0
100
AcDbLine
 62
7
  6
CONTINUOUS
 10
21.4790138229
 20
1.1693297793
 11
21.3159628059
 21
1.1693297793
  0
LINE
  5
234
100
AcDbEntity
  8
0
100
AcDbLine
 62
7
  6
CONTINUOUS
 10
21.2876553377
 20
1.1693297793
 11
21.2502894796
 21
1.1693297793
  0
LINE
  5
235
100
AcDbEntity
  8
0
100
AcDbLine
 62
7
  6
CONTINUOUS
 10
21.2208497126
 20
1.1659328831
 11
21.0713862804
 21
1.1659328831
  0
LINE
  5
236
100
AcDbEntity
  8
0
100
AcDbLine
 62
7
  6
CONTINUOUS
 10
20.4796138713
 20
1.5284908897
 11
20.4766766948
 21
0.9294458646
  0
ENDBLK
  5
237
100
AcDbEntity
  8
0
  6
BYBLOCK
 62
0
100
AcDbBlockEnd
  0
BLOCK
  5
238
100
AcDbEntity
  8
0
100
AcDbBlockBegin
  2
*T1
 70
1
 10
0.0
 20
0.0
  3
*T1
  1

  0
LINE
  5
239
100
AcDbEntity
  8
0
100
AcDbLine
 62
2
  6
CONTINUOUS
 10
9.275
 20
0.0
 11
-0.0
 21
0.0
  0
LINE
  5
23A
100
AcDbEntity
  8
0
100
AcDbLine
 62
2
  6
CONTINUOUS
 10
9.275
 20
0.0
 11
9.275
 21
1.25
  0
LINE
  5
23B
100
AcDbEntity
  8
0
100
AcDbLine
 62
2
  6
CONTINUOUS
 10
9.275
 20
0.625
 11
-0.0
 21
0.625
  0
LINE
  5
23C
100
AcDbEntity
  8
0
100
AcDbLine
 62
2
  6
CONTINUOUS
 10
9.275
 20
1.25
 11
-0.0
 21
1.25
  0
LINE
  5
23D
100
AcDbEntity
  8
0
100
AcDbLine
 62
2
  6
CONTINUOUS
 10
6.8
 20
0.0
 11
6.8
 21
1.25
  0
LINE
  5
23E
100
AcDbEntity
  8
0
100
AcDbLine
 62
2
  6
CONTINUOUS
 10
6.4
 20
0.0
 11
6.4
 21
0.625
  0
LINE
  5
23F
100
AcDbEntity
  8
0
100
AcDbLine
 62
2
  6
CONTINUOUS
 10
5.9
 20
0.0
 11
5.9
 21
0.625
  0
LINE
  5
240
100
AcDbEntity
  8
0
100
AcDbLine
 62
2
  6
CONTINUOUS
 10
5.2
 20
0.0
 11
5.2
 21
0.625
  0
LINE
  5
241
100
AcDbEntity
  8
0
100
AcDbLine
 62
2
  6
CONTINUOUS
 10
4.1
 20
0.0
 11
4.1
 21
1.25
  0
LINE
  5
242
100
AcDbEntity
  8
0
100
AcDbLine
 62
2
  6
CONTINUOUS
 10
-0.0
 20
0.0
 11
-0.0
 21
1.25
  0
MTEXT
  5
243
100
AcDbEntity
  8
0
100
AcDbMText
 62
2
  6
CONTINUOUS
  7
STANDARD
 71
2
 72
1
 10
6.6
 20
0.325
 30
0.0
 11
1.0
 21
0.0
 31
0.0
 44
0.9
  1
2
 40
0.125
 41
0.2
  0
MTEXT
  5
244
100
AcDbEntity
  8
0
100
AcDbMText
 62
2
  6
CONTINUOUS
  7
STANDARD
 71
2
 72
1
 10
6.15
 20
0.325
 30
0.0
 11
1.0
 21
0.0
 31
0.0
 44
0.9
  1
C
 40
0.125
 41
0.2
  0
MTEXT
  5
245
100
AcDbEntity
  8
0
100
AcDbMText
 62
2
  6
CONTINUOUS
  7
STANDARD
 71
2
 72
1
 10
5.55
 20
0.325
 30
0.0
 11
1.0
 21
0.0
 31
0.0
 44
0.9
  1
2.000
 40
0.125
 41
1.0
  0
MTEXT
  5
246
100
AcDbEntity
  8
0
100
AcDbMText
 62
2
  6
CONTINUOUS
  7
STANDARD
 71
2
 72
1
 10
4.65
 20
0.325
 30
0.0
 11
1.0
 21
0.0
 31
0.0
 44
0.9
  1
Jul-06-22
 40
0.125
 41
1.8
  0
MTEXT
  5
247
100
AcDbEntity
  8
0
100
AcDbMText
 62
2
  6
CONTINUOUS
  7
STANDARD
 71
2
 72
1
 10
2.05
 20
0.4625
 30
0.0
 11
1.0
 21
0.0
 31
0.0
 44
0.9
  1
T-11A Line mount\PNinety degree with shuttle
 40
0.125
 41
5.2
  0
MTEXT
  5
248
100
AcDbEntity
  8
0
100
AcDbMText
 62
2
  6
CONTINUOUS
  7
STANDARD
 71
1
 72
1
 10
6.45
 20
0.5625
 30
0.0
 11
1.0
 21
0.0
 31
0.0
 44
0.9
  1
SHEET
 40
0.06
 41
0.48
  0
MTEXT
  5
249
100
AcDbEntity
  8
0
100
AcDbMText
 62
2
  6
CONTINUOUS
  7
STANDARD
 71
1
 72
1
 10
5.95
 20
0.5625
 30
0.0
 11
1.0
 21
0.0
 31
0.0
 44
0.9
  1
DWG SIZE
 40
0.06
 41
0.768
  0
MTEXT
  5
24A
100
AcDbEntity
  8
0
100
AcDbMText
 62
2
  6
CONTINUOUS
  7
STANDARD
 71
1
 72
1
 10
5.25
 20
0.5625
 30
0.0
 11
1.0
 21
0.0
 31
0.0
 44
0.9
  1
SCALE
 40
0.06
 41
0.48
  0
MTEXT
  5
24B
100
AcDbEntity
  8
0
100
AcDbMText
 62
2
  6
CONTINUOUS
  7
STANDARD
 71
1
 72
1
 10
4.15
 20
0.5625
 30
0.0
 11
1.0
 21
0.0
 31
0.0
 44
0.9
  1
DATE
 40
0.06
 41
0.384
  0
MTEXT
  5
24C
100
AcDbEntity
  8
0
100
AcDbMText
 62
2
  6
CONTINUOUS
  7
STANDARD
 71
1
 72
1
 10
0.05
 20
0.5625
 30
0.0
 11
1.0
 21
0.0
 31
0.0
 44
0.9
  1
DESCRIPTION
 40
0.06
 41
1.056
  0
MTEXT
  5
24D
100
AcDbEntity
  8
0
100
AcDbMText
 62
2
  6
CONTINUOUS
  7
STANDARD
 71
2
 72
1
 10
5.45
 20
1.0375
 30
0.0
 11
1.0
 21
0.0
 31
0.0
 44
0.9
  1
ALL DIMENSIONS IN INCH\PVIEWS ARE THIRD ANGLE
 40
0.12
 41
4.224
  0
MTEXT
  5
24E
100
AcDbEntity
  8
0
100
AcDbMText
 62
2
  6
CONTINUOUS
  7
STANDARD
 71
2
 72
1
 10
2.05
 20
0.95
 30
0.0
 11
1.0
 21
0.0
 31
0.0
 44
0.9
  1
EGT
 40
0.125
 41
0.6
  0
MTEXT
  5
24F
100
AcDbEntity
  8
0
100
AcDbMText
 62
2
  6
CONTINUOUS
  7
STANDARD
 71
1
 72
1
 10
0.05
 20
1.1875
 30
0.0
 11
1.0
 21
0.0
 31
0.0
 44
0.9
  1
MODEL
 40
0.06
 41
0.48
  0
ENDBLK
  5
250
100
AcDbEntity
  8
0
  6
BYBLOCK
 62
0
100
AcDbBlockEnd
  0
BLOCK
  5
251
100
AcDbEntity
  8
0
100
AcDbBlockBegin
  2
*T2
 70
1
 10
0.0
 20
0.0
  3
*T2
  1

  0
LINE
  5
252
100
AcDbEntity
  8
0
100
AcDbLine
 62
2
  6
CONTINUOUS
 10
0.0
 20
0.0
 11
9.055
 21
0.0
  0
LINE
  5
253
100
AcDbEntity
  8
0
100
AcDbLine
 62
2
  6
CONTINUOUS
 10
0.0
 20
0.0
 11
0.0
 21
-2.594
  0
LINE
  5
254
100
AcDbEntity
  8
0
100
AcDbLine
 62
2
  6
CONTINUOUS
 10
0.0
 20
-0.344
 11
9.055
 21
-0.344
  0
LINE
  5
255
100
AcDbEntity
  8
0
100
AcDbLine
 62
2
  6
CONTINUOUS
 10
0.0
 20
-0.594
 11
9.055
 21
-0.594
  0
LINE
  5
256
100
AcDbEntity
  8
0
100
AcDbLine
 62
2
  6
CONTINUOUS
 10
0.0
 20
-0.844
 11
9.055
 21
-0.844
  0
LINE
  5
257
100
AcDbEntity
  8
0
100
AcDbLine
 62
2
  6
CONTINUOUS
 10
0.0
 20
-1.094
 11
9.055
 21
-1.094
  0
LINE
  5
258
100
AcDbEntity
  8
0
100
AcDbLine
 62
2
  6
CONTINUOUS
 10
0.0
 20
-1.344
 11
9.055
 21
-1.344
  0
LINE
  5
259
100
AcDbEntity
  8
0
100
AcDbLine
 62
2
  6
CONTINUOUS
 10
0.0
 20
-1.594
 11
9.055
 21
-1.594
  0
LINE
  5
25A
100
AcDbEntity
  8
0
100
AcDbLine
 62
2
  6
CONTINUOUS
 10
0.0
 20
-1.844
 11
9.055
 21
-1.844
  0
LINE
  5
25B
100
AcDbEntity
  8
0
100
AcDbLine
 62
2
  6
CONTINUOUS
 10
0.0
 20
-2.094
 11
9.055
 21
-2.094
  0
LINE
  5
25C
100
AcDbEntity
  8
0
100
AcDbLine
 62
2
  6
CONTINUOUS
 10
0.0
 20
-2.344
 11
9.055
 21
-2.344
  0
LINE
  5
25D
100
AcDbEntity
  8
0
100
AcDbLine
 62
2
  6
CONTINUOUS
 10
0.0
 20
-2.594
 11
9.055
 21
-2.594
  0
LINE
  5
25E
100
AcDbEntity
  8
0
100
AcDbLine
 62
2
  6
CONTINUOUS
 10
3.055
 20
0.0
 11
3.055
 21
-2.594
  0
LINE
  5
25F
100
AcDbEntity
  8
0
100
AcDbLine
 62
2
  6
CONTINUOUS
 10
9.055
 20
0.0
 11
9.055
 21
-2.594
  0
MTEXT
  5
260
100
AcDbEntity
  8
0
100
AcDbMText
 62
2
  6
CONTINUOUS
  7
STANDARD
 71
2
 72
1
 10
1.5275
 20
-0.0995
 30
0.0
 11
1.0
 21
0.0
 31
0.0
 44
0.9
  1
Technical Data
 40
0.145
 41
3.248
  0
MTEXT
  5
261
100
AcDbEntity
  8
0
100
AcDbMText
 62
2
  6
CONTINUOUS
  7
STANDARD
 71
2
 72
1
 10
4.555
 20
-0.0995
 30
0.0
 11
1.0
 21
0.0
 31
0.0
 44
0.9
  1
U.S. Units
 40
0.145
 41
2.32
  0
MTEXT
  5
262
100
AcDbEntity
  8
0
100
AcDbMText
 62
2
  6
CONTINUOUS
  7
STANDARD
 71
2
 72
1
 10
7.555
 20
-0.0995
 30
0.0
 11
1.0
 21
0.0
 31
0.0
 44
0.9
  1
Metric Units
 40
0.145
 41
2.784
  0
MTEXT
  5
263
100
AcDbEntity
  8
0
100
AcDbMText
 62
2
  6
CONTINUOUS
  7
STANDARD
 71
2
 72
1
 10
1.5275
 20
-0.4065
 30
0.0
 11
1.0
 21
0.0
 31
0.0
 44
0.9
  1
Cavity
 40
0.125
 41
1.2
  0
MTEXT
  5
264
100
AcDbEntity
  8
0
100
AcDbMText
 62
2
  6
CONTINUOUS
  7
STANDARD
 71
2
 72
1
 10
6.055
 20
-0.4065
 30
0.0
 11
1.0
 21
0.0
 31
0.0
 44
0.9
  1
T-11A
 40
0.125
 41
1.0
  0
MTEXT
  5
265
100
AcDbEntity
  8
0
100
AcDbMText
 62
2
  6
CONTINUOUS
  7
STANDARD
 71
2
 72
1
 10
1.5275
 20
-0.6565
 30
0.0
 11
1.0
 21
0.0
 31
0.0
 44
0.9
  1
Body Features
 40
0.125
 41
2.6
  0
MTEXT
  5
266
100
AcDbEntity
  8
0
100
AcDbMText
 62
2
  6
CONTINUOUS
  7
STANDARD
 71
2
 72
1
 10
6.055
 20
-0.6565
 30
0.0
 11
1.0
 21
0.0
 31
0.0
 44
0.9
  1
Ninety degree with shuttle
 40
0.125
 41
5.2
  0
MTEXT
  5
267
100
AcDbEntity
  8
0
100
AcDbMText
 62
2
  6
CONTINUOUS
  7
STANDARD
 71
2
 72
1
 10
1.5275
 20
-0.9065
 30
0.0
 11
1.0
 21
0.0
 31
0.0
 44
0.9
  1
Body Type
 40
0.125
 41
1.8
  0
MTEXT
  5
268
100
AcDbEntity
  8
0
100
AcDbMText
 62
2
  6
CONTINUOUS
  7
STANDARD
 71
2
 72
1
 10
6.055
 20
-0.9065
 30
0.0
 11
1.0
 21
0.0
 31
0.0
 44
0.9
  1
Line mount
 40
0.125
 41
2.0
  0
MTEXT
  5
269
100
AcDbEntity
  8
0
100
AcDbMText
 62
2
  6
CONTINUOUS
  7
STANDARD
 71
2
 72
1
 10
1.5275
 20
-1.1565
 30
0.0
 11
1.0
 21
0.0
 31
0.0
 44
0.9
  1
Interface
 40
0.125
 41
1.8
  0
MTEXT
  5
26A
100
AcDbEntity
  8
0
100
AcDbMText
 62
2
  6
CONTINUOUS
  7
STANDARD
 71
2
 72
1
 10
6.055
 20
-1.1565
 30
0.0
 11
1.0
 21
0.0
 31
0.0
 44
0.9
  1
None
 40
0.125
 41
0.8
  0
MTEXT
  5
26B
100
AcDbEntity
  8
0
100
AcDbMText
 62
2
  6
CONTINUOUS
  7
STANDARD
 71
2
 72
1
 10
1.5275
 20
-1.4065
 30
0.0
 11
1.0
 21
0.0
 31
0.0
 44
0.9
  1
Open Cavity Quantity
 40
0.125
 41
4.0
  0
MTEXT
  5
26C
100
AcDbEntity
  8
0
100
AcDbMText
 62
2
  6
CONTINUOUS
  7
STANDARD
 71
2
 72
1
 10
6.055
 20
-1.4065
 30
0.0
 11
1.0
 21
0.0
 31
0.0
 44
0.9
  1
1
 40
0.125
 41
0.2
  0
MTEXT
  5
26D
100
AcDbEntity
  8
0
100
AcDbMText
 62
2
  6
CONTINUOUS
  7
STANDARD
 71
2
 72
1
 10
1.5275
 20
-1.6565
 30
0.0
 11
1.0
 21
0.0
 31
0.0
 44
0.9
  1
Weight
 40
0.125
 41
1.2
  0
MTEXT
  5
26E
100
AcDbEntity
  8
0
100
AcDbMText
 62
2
  6
CONTINUOUS
  7
STANDARD
 71
2
 72
1
 10
4.555
 20
-1.6565
 30
0.0
 11
1.0
 21
0.0
 31
0.0
 44
0.9
  1
0.939 lb.
 40
0.125
 41
1.8
  0
MTEXT
  5
26F
100
AcDbEntity
  8
0
100
AcDbMText
 62
2
  6
CONTINUOUS
  7
STANDARD
 71
2
 72
1
 10
7.555
 20
-1.6565
 30
0.0
 11
1.0
 21
0.0
 31
0.0
 44
0.9
  1
0,426 kg.
 40
0.125
 41
1.8
  0
MTEXT
  5
270
100
AcDbEntity
  8
0
100
AcDbMText
 62
2
  6
CONTINUOUS
  7
STANDARD
 71
2
 72
1
 10
1.5275
 20
-1.9065
 30
0.0
 11
1.0
 21
0.0
 31
0.0
 44
0.9
  1
Mounting Hole Diameter
 40
0.125
 41
4.4
  0
MTEXT
  5
271
100
AcDbEntity
  8
0
100
AcDbMText
 62
2
  6
CONTINUOUS
  7
STANDARD
 71
2
 72
1
 10
4.555
 20
-1.9065
 30
0.0
 11
1.0
 21
0.0
 31
0.0
 44
0.9
  1
.34 in.
 40
0.125
 41
1.4
  0
MTEXT
  5
272
100
AcDbEntity
  8
0
100
AcDbMText
 62
2
  6
CONTINUOUS
  7
STANDARD
 71
2
 72
1
 10
7.555
 20
-1.9065
 30
0.0
 11
1.0
 21
0.0
 31
0.0
 44
0.9
  1
8.6 mm
 40
0.125
 41
1.2
  0
MTEXT
  5
273
100
AcDbEntity
  8
0
100
AcDbMText
 62
2
  6
CONTINUOUS
  7
STANDARD
 71
2
 72
1
 10
1.5275
 20
-2.1565
 30
0.0
 11
1.0
 21
0.0
 31
0.0
 44
0.9
  1
Mounting Hole Depth
 40
0.125
 41
3.8
  0
MTEXT
  5
274
100
AcDbEntity
  8
0
100
AcDbMText
 62
2
  6
CONTINUOUS
  7
STANDARD
 71
2
 72
1
 10
6.055
 20
-2.1565
 30
0.0
 11
1.0
 21
0.0
 31
0.0
 44
0.9
  1
Through
 40
0.125
 41
1.4
  0
MTEXT
  5
275
100
AcDbEntity
  8
0
100
AcDbMText
 62
2
  6
CONTINUOUS
  7
STANDARD
 71
2
 72
1
 10
1.5275
 20
-2.4065
 30
0.0
 11
1.0
 21
0.0
 31
0.0
 44
0.9
  1
Mounting Hole Quantity
 40
0.125
 41
4.4
  0
MTEXT
  5
276
100
AcDbEntity
  8
0
100
AcDbMText
 62
2
  6
CONTINUOUS
  7
STANDARD
 71
2
 72
1
 10
6.055
 20
-2.4065
 30
0.0
 11
1.0
 21
0.0
 31
0.0
 44
0.9
  1
2
 40
0.125
 41
0.2
  0
ENDBLK
  5
277
100
AcDbEntity
  8
0
  6
BYBLOCK
 62
0
100
AcDbBlockEnd
  0
BLOCK
  5
278
100
AcDbEntity
  8
0
100
AcDbBlockBegin
  2
*T3
 70
1
 10
0.0
 20
0.0
  3
*T3
  1

  0
LINE
  5
279
100
AcDbEntity
  8
0
100
AcDbLine
 62
2
  6
CONTINUOUS
 10
0.0
 20
0.0
 11
4.6
 21
0.0
  0
LINE
  5
27A
100
AcDbEntity
  8
0
100
AcDbLine
 62
2
  6
CONTINUOUS
 10
0.0
 20
0.0
 11
0.0
 21
-1.18775
  0
LINE
  5
27B
100
AcDbEntity
  8
0
100
AcDbLine
 62
2
  6
CONTINUOUS
 10
0.0
 20
-0.34375
 11
4.6
 21
-0.34375
  0
LINE
  5
27C
100
AcDbEntity
  8
0
100
AcDbLine
 62
2
  6
CONTINUOUS
 10
0.0
 20
-0.68775
 11
4.6
 21
-0.68775
  0
LINE
  5
27D
100
AcDbEntity
  8
0
100
AcDbLine
 62
2
  6
CONTINUOUS
 10
0.0
 20
-0.93775
 11
4.6
 21
-0.93775
  0
LINE
  5
27E
100
AcDbEntity
  8
0
100
AcDbLine
 62
2
  6
CONTINUOUS
 10
0.0
 20
-1.18775
 11
4.6
 21
-1.18775
  0
LINE
  5
27F
100
AcDbEntity
  8
0
100
AcDbLine
 62
2
  6
CONTINUOUS
 10
1.3
 20
-0.34375
 11
1.3
 21
-1.18775
  0
LINE
  5
280
100
AcDbEntity
  8
0
100
AcDbLine
 62
2
  6
CONTINUOUS
 10
3.3
 20
-0.34375
 11
3.3
 21
-1.18775
  0
LINE
  5
281
100
AcDbEntity
  8
0
100
AcDbLine
 62
2
  6
CONTINUOUS
 10
4.6
 20
0.0
 11
4.6
 21
-1.18775
  0
MTEXT
  5
282
100
AcDbEntity
  8
0
100
AcDbMText
 62
2
  6
CONTINUOUS
  7
STANDARD
 71
2
 72
1
 10
2.3
 20
-0.099375
 30
0.0
 11
1.0
 21
0.0
 31
0.0
 44
0.9
  1
Port Headings
 40
0.145
 41
3.016
  0
MTEXT
  5
283
100
AcDbEntity
  8
0
100
AcDbMText
 62
2
  6
CONTINUOUS
  7
STANDARD
 71
2
 72
1
 10
0.65
 20
-0.44325
 30
0.0
 11
1.0
 21
0.0
 31
0.0
 44
0.9
  1
Product
 40
0.145
 41
1.624
  0
MTEXT
  5
284
100
AcDbEntity
  8
0
100
AcDbMText
 62
2
  6
CONTINUOUS
  7
STANDARD
 71
2
 72
1
 10
2.3
 20
-0.44325
 30
0.0
 11
1.0
 21
0.0
 31
0.0
 44
0.9
  1
Port
 40
0.145
 41
0.928
  0
MTEXT
  5
285
100
AcDbEntity
  8
0
100
AcDbMText
 62
2
  6
CONTINUOUS
  7
STANDARD
 71
2
 72
1
 10
3.95
 20
-0.44325
 30
0.0
 11
1.0
 21
0.0
 31
0.0
 44
0.9
  1
Size
 40
0.145
 41
0.928
  0
MTEXT
  5
286
100
AcDbEntity
  8
0
100
AcDbMText
 62
2
  6
CONTINUOUS
  7
STANDARD
 71
2
 72
1
 10
0.65
 20
-0.75025
 30
0.0
 11
1.0
 21
0.0
 31
0.0
 44
0.9
  1
EGT
 40
0.125
 41
0.6
  0
MTEXT
  5
287
100
AcDbEntity
  8
0
100
AcDbMText
 62
2
  6
CONTINUOUS
  7
STANDARD
 71
2
 72
1
 10
2.3
 20
-0.75025
 30
0.0
 11
1.0
 21
0.0
 31
0.0
 44
0.9
  1
Ports 1 &  2
 40
0.125
 41
2.4
  0
MTEXT
  5
288
100
AcDbEntity
  8
0
100
AcDbMText
 62
2
  6
CONTINUOUS
  7
STANDARD
 71
2
 72
1
 10
3.95
 20
-0.75025
 30
0.0
 11
1.0
 21
0.0
 31
0.0
 44
0.9
  1
1/4" BSPP
 40
0.125
 41
1.8
  0
MTEXT
  5
289
100
AcDbEntity
  8
0
100
AcDbMText
 62
2
  6
CONTINUOUS
  7
STANDARD
 71
2
 72
1
 10
0.65
 20
-1.00025
 30
0.0
 11
1.0
 21
0.0
 31
0.0
 44
0.9
  1
EGT
 40
0.125
 41
0.6
  0
MTEXT
  5
28A
100
AcDbEntity
  8
0
100
AcDbMText
 62
2
  6
CONTINUOUS
  7
STANDARD
 71
2
 72
1
 10
2.3
 20
-1.00025
 30
0.0
 11
1.0
 21
0.0
 31
0.0
 44
0.9
  1
Ports 3 & S
 40
0.125
 41
2.2
  0
MTEXT
  5
28B
100
AcDbEntity
  8
0
100
AcDbMText
 62
2
  6
CONTINUOUS
  7
STANDARD
 71
2
 72
1
 10
3.95
 20
-1.00025
 30
0.0
 11
1.0
 21
0.0
 31
0.0
 44
0.9
  1
1/4" BSPP
 40
0.125
 41
1.8
  0
ENDBLK
  5
28C
100
AcDbEntity
  8
0
  6
BYBLOCK
 62
0
100
AcDbBlockEnd
  0
ENDSEC
  0
SECTION
  2
ENTITIES
  0
IMAGE
  5
28D
100
AcDbEntity
  8
0
100
AcDbRasterImage
 62
7
  6
CONTINUOUS
 10
19.2297077316
 20
0.3094318264
 30
0.0
 11
0.0066666667
 21
0.0
 31
0.0
 12
0.0
 22
0.0066666667
 32
0.0
 13
369.0
 23
92.0
340
       30E
 70
9
280
0
281
50
282
50
283
0
360
       308
 71
1
 91
2
 14
-0.5
 24
-0.5
 14
368.5
 24
91.5
  0
INSERT
  5
28E
100
AcDbEntity
  8
0
100
AcDbBlockReference
 62
2
  6
CONTINUOUS
  2
SUN_FIRST_THIRD_ANGLE_BL0
 10
20.4816717061
 20
1.2289683772
  0
ACAD_TABLE
  5
28F
100
AcDbEntity
  8
0
 62
2
  6
CONTINUOUS
100
AcDbBlockReference
  2
*T1
 10
12.42375
 20
0.30125
 30
0.0
100
AcDbTable
342
       310
343
211
 11
1.0
 21
0.0
 31
0.0
 90
6
 91
4
 92
6
 93
20
 94
0
 95
0
 96
0
 70
1
 41
0.0
141
0.525
141
0.1
141
0.525
141
0.1
142
4.1
142
1.1
142
0.7
142
0.5
142
0.4
142
2.475
171
1
172
0
173
0
174
0
175
1
176
1
 91
33
178
0
145
0.0
301
CELL_VALUE
 90
4
  1
T-11A Line mount\PNinety degree with shuttle
304
ACVALUE_END
170
2
140
0.125
171
1
172
0
173
0
174
0
175
1
176
1
 91
33
178
0
145
0.0
301
CELL_VALUE
 90
4
  1
Jul-06-22
304
ACVALUE_END
170
5
140
0.125
171
1
172
0
173
0
174
0
175
1
176
1
 91
33
178
0
145
0.0
301
CELL_VALUE
 90
4
  1
2.000
304
ACVALUE_END
170
5
140
0.125
171
1
172
0
173
0
174
0
175
1
176
1
 91
33
178
0
145
0.0
301
CELL_VALUE
 90
4
  1
C
304
ACVALUE_END
170
5
140
0.125
171
1
172
0
173
0
174
0
175
1
176
1
 91
33
178
0
145
0.0
301
CELL_VALUE
 90
4
  1
2
304
ACVALUE_END
170
5
140
0.125
171
1
172
0
173
0
174
0
175
1
176
1
 91
33
178
0
145
0.0
301
CELL_VALUE
 90
4
  1
 
304
ACVALUE_END
170
1
140
0.125
171
1
172
0
173
0
174
0
175
1
176
1
 91
33
178
0
145
0.0
301
CELL_VALUE
 90
4
  1
DESCRIPTION
304
ACVALUE_END
170
1
140
0.06
171
1
172
0
173
0
174
0
175
1
176
1
 91
33
178
0
145
0.0
301
CELL_VALUE
 90
4
  1
DATE
304
ACVALUE_END
170
1
140
0.06
171
1
172
0
173
0
174
0
175
1
176
1
 91
33
178
0
145
0.0
301
CELL_VALUE
 90
4
  1
SCALE
304
ACVALUE_END
170
1
140
0.06
171
1
172
0
173
0
174
0
175
1
176
1
 91
33
178
0
145
0.0
301
CELL_VALUE
 90
4
  1
DWG SIZE
304
ACVALUE_END
170
1
140
0.06
171
1
172
0
173
0
174
0
175
1
176
1
 91
33
178
0
145
0.0
301
CELL_VALUE
 90
4
  1
SHEET
304
ACVALUE_END
170
1
140
0.06
171
1
172
0
173
0
174
0
175
1
176
1
 91
33
178
0
145
0.0
301
CELL_VALUE
 90
4
  1
 
304
ACVALUE_END
170
1
140
0.125
171
1
172
0
173
0
174
0
175
1
176
1
 91
33
178
0
145
0.0
301
CELL_VALUE
 90
4
  1
EGT
304
ACVALUE_END
170
5
140
0.125
171
1
172
0
173
0
174
0
175
4
176
1
 91
33
178
0
145
0.0
301
CELL_VALUE
 90
4
  1
ALL DIMENSIONS IN INCH\PVIEWS ARE THIRD ANGLE
304
ACVALUE_END
170
5
140
0.12
171
1
172
0
173
1
174
0
175
1
176
1
 91
1
178
0
145
0.0
170
1
171
1
172
0
173
1
174
0
175
1
176
1
 91
1
178
0
145
0.0
170
1
171
1
172
0
173
1
174
0
175
1
176
1
 91
1
178
0
145
0.0
170
5
171
1
172
0
173
0
174
0
175
1
176
1
 91
33
178
0
145
0.0
301
CELL_VALUE
 90
4
  1
 
304
ACVALUE_END
170
1
140
0.125
171
1
172
0
173
0
174
0
175
1
176
1
 91
33
178
0
145
0.0
301
CELL_VALUE
 90
4
  1
MODEL
304
ACVALUE_END
170
1
140
0.06
171
1
172
0
173
0
174
0
175
1
176
1
 91
33
178
0
145
0.0
301
CELL_VALUE
 90
4
  1
 
304
ACVALUE_END
170
1
140
0.125
171
1
172
0
173
0
174
0
175
1
176
1
 91
33
178
0
145
0.0
301
CELL_VALUE
 90
4
  1
 
304
ACVALUE_END
170
1
140
0.125
171
1
172
0
173
0
174
0
175
1
176
1
 91
33
178
0
145
0.0
301
CELL_VALUE
 90
4
  1
 
304
ACVALUE_END
170
1
140
0.125
171
1
172
0
173
0
174
0
175
1
176
1
 91
33
178
0
145
0.0
301
CELL_VALUE
 90
4
  1
 
304
ACVALUE_END
170
1
140
0.125
171
1
172
0
173
0
174
0
175
1
176
1
 91
33
178
0
145
0.0
301
CELL_VALUE
 90
4
  1
 
304
ACVALUE_END
170
1
140
0.125
  0
ACAD_TABLE
  5
290
100
AcDbEntity
  8
0
 62
2
  6
CONTINUOUS
100
AcDbBlockReference
  2
*T2
 10
12.4237499994
 20
16.47875
 30
0.0
100
AcDbTable
342
       30F
343
212
 11
1.0
 21
0.0
 31
0.0
 90
22
 91
10
 92
3
 93
16
 94
0
 95
0
 96
0
 41
0.028
141
0.344
141
0.25
141
0.25
141
0.25
141
0.25
141
0.25
141
0.25
141
0.25
141
0.25
141
0.25
142
3.055
142
3.0
142
3.0
171
1
172
0
173
0
174
0
175
1
176
1
 91
33
178
0
145
0.0
301
CELL_VALUE
 90
4
  1
Technical Data
304
ACVALUE_END
170
5
140
0.145
171
1
172
0
173
0
174
0
175
1
176
1
 91
33
178
0
145
0.0
301
CELL_VALUE
 90
4
  1
U.S. Units
304
ACVALUE_END
170
5
140
0.145
171
1
172
0
173
0
174
0
175
1
176
1
 91
33
178
0
145
0.0
301
CELL_VALUE
 90
4
  1
Metric Units
304
ACVALUE_END
170
5
140
0.145
171
1
172
0
173
0
174
0
175
1
176
1
 91
33
178
0
145
0.0
301
CELL_VALUE
 90
4
  1
Cavity
304
ACVALUE_END
170
5
140
0.125
171
1
172
0
173
0
174
0
175
2
176
1
 91
33
178
0
145
0.0
301
CELL_VALUE
 90
4
  1
T-11A
304
ACVALUE_END
170
5
140
0.125
171
1
172
0
173
1
174
0
175
1
176
1
 91
1
178
0
145
0.0
170
1
171
1
172
0
173
0
174
0
175
1
176
1
 91
33
178
0
145
0.0
301
CELL_VALUE
 90
4
  1
Body Features
304
ACVALUE_END
170
5
140
0.125
171
1
172
0
173
0
174
0
175
2
176
1
 91
33
178
0
145
0.0
301
CELL_VALUE
 90
4
  1
Ninety degree with shuttle
304
ACVALUE_END
170
5
140
0.125
171
1
172
0
173
1
174
0
175
1
176
1
 91
1
178
0
145
0.0
170
1
171
1
172
0
173
0
174
0
175
1
176
1
 91
33
178
0
145
0.0
301
CELL_VALUE
 90
4
  1
Body Type
304
ACVALUE_END
170
5
140
0.125
171
1
172
0
173
0
174
0
175
2
176
1
 91
33
178
0
145
0.0
301
CELL_VALUE
 90
4
  1
Line mount
304
ACVALUE_END
170
5
140
0.125
171
1
172
0
173
1
174
0
175
1
176
1
 91
1
178
0
145
0.0
170
1
171
1
172
0
173
0
174
0
175
1
176
1
 91
33
178
0
145
0.0
301
CELL_VALUE
 90
4
  1
Interface
304
ACVALUE_END
170
5
140
0.125
171
1
172
0
173
0
174
0
175
2
176
1
 91
33
178
0
145
0.0
301
CELL_VALUE
 90
4
  1
None
304
ACVALUE_END
170
5
140
0.125
171
1
172
0
173
1
174
0
175
1
176
1
 91
1
178
0
145
0.0
170
1
171
1
172
0
173
0
174
0
175
1
176
1
 91
33
178
0
145
0.0
301
CELL_VALUE
 90
4
  1
Open Cavity Quantity
304
ACVALUE_END
170
5
140
0.125
171
1
172
0
173
0
174
0
175
2
176
1
 91
33
178
0
145
0.0
301
CELL_VALUE
 90
4
  1
1
304
ACVALUE_END
170
5
140
0.125
171
1
172
0
173
1
174
0
175
1
176
1
 91
1
178
0
145
0.0
170
1
171
1
172
0
173
0
174
0
175
1
176
1
 91
33
178
0
145
0.0
301
CELL_VALUE
 90
4
  1
Weight
304
ACVALUE_END
170
5
140
0.125
171
1
172
0
173
0
174
0
175
1
176
1
 91
33
178
0
145
0.0
301
CELL_VALUE
 90
4
  1
0.939 lb.
304
ACVALUE_END
170
5
140
0.125
171
1
172
0
173
0
174
0
175
1
176
1
 91
33
178
0
145
0.0
301
CELL_VALUE
 90
4
  1
0,426 kg.
304
ACVALUE_END
170
5
140
0.125
171
1
172
0
173
0
174
0
175
1
176
1
 91
33
178
0
145
0.0
301
CELL_VALUE
 90
4
  1
Mounting Hole Diameter
304
ACVALUE_END
170
5
140
0.125
171
1
172
0
173
0
174
0
175
1
176
1
 91
33
178
0
145
0.0
301
CELL_VALUE
 90
4
  1
.34 in.
304
ACVALUE_END
170
5
140
0.125
171
1
172
0
173
0
174
0
175
1
176
1
 91
33
178
0
145
0.0
301
CELL_VALUE
 90
4
  1
8.6 mm
304
ACVALUE_END
170
5
140
0.125
171
1
172
0
173
0
174
0
175
1
176
1
 91
33
178
0
145
0.0
301
CELL_VALUE
 90
4
  1
Mounting Hole Depth
304
ACVALUE_END
170
5
140
0.125
171
1
172
0
173
0
174
0
175
2
176
1
 91
33
178
0
145
0.0
301
CELL_VALUE
 90
4
  1
Through
304
ACVALUE_END
170
5
140
0.125
171
1
172
0
173
1
174
0
175
1
176
1
 91
1
178
0
145
0.0
170
1
171
1
172
0
173
0
174
0
175
1
176
1
 91
33
178
0
145
0.0
301
CELL_VALUE
 90
4
  1
Mounting Hole Quantity
304
ACVALUE_END
170
5
140
0.125
171
1
172
0
173
0
174
0
175
2
176
1
 91
33
178
0
145
0.0
301
CELL_VALUE
 90
4
  1
2
304
ACVALUE_END
170
5
140
0.125
171
1
172
0
173
1
174
0
175
1
176
1
 91
1
178
0
145
0.0
170
1
  0
ACAD_TABLE
  5
291
100
AcDbEntity
  8
0
 62
2
  6
CONTINUOUS
100
AcDbBlockReference
  2
*T3
 10
0.52125
 20
1.709
 30
0.0
100
AcDbTable
342
       30F
343
213
 11
1.0
 21
0.0
 31
0.0
 90
22
 91
4
 92
3
 93
16
 94
0
 95
0
 96
0
 41
0.05
141
0.34375
141
0.344
141
0.25
141
0.25
142
1.3
142
2.0
142
1.3
171
1
172
0
173
0
174
0
175
3
176
1
 91
33
178
0
145
0.0
301
CELL_VALUE
 90
4
  1
Port Headings
304
ACVALUE_END
170
5
140
0.145
171
1
172
0
173
1
174
0
175
1
176
1
 91
1
178
0
145
0.0
170
1
171
1
172
0
173
1
174
0
175
1
176
1
 91
1
178
0
145
0.0
170
1
171
1
172
0
173
0
174
0
175
1
176
1
 91
33
178
0
145
0.0
301
CELL_VALUE
 90
4
  1
Product
304
ACVALUE_END
170
5
140
0.145
171
1
172
0
173
0
174
0
175
1
176
1
 91
33
178
0
145
0.0
301
CELL_VALUE
 90
4
  1
Port
304
ACVALUE_END
170
5
140
0.145
171
1
172
0
173
0
174
0
175
1
176
1
 91
33
178
0
145
0.0
301
CELL_VALUE
 90
4
  1
Size
304
ACVALUE_END
170
5
140
0.145
171
1
172
0
173
0
174
0
175
1
176
1
 91
33
178
0
145
0.0
301
CELL_VALUE
 90
4
  1
EGT
304
ACVALUE_END
170
5
140
0.125
171
1
172
0
173
0
174
0
175
1
176
1
 91
33
178
0
145
0.0
301
CELL_VALUE
 90
4
  1
Ports 1 &  2
304
ACVALUE_END
170
5
140
0.125
171
1
172
0
173
0
174
0
175
1
176
1
 91
33
178
0
145
0.0
301
CELL_VALUE
 90
4
  1
1/4" BSPP
304
ACVALUE_END
170
5
140
0.125
171
1
172
0
173
0
174
0
175
1
176
1
 91
33
178
0
145
0.0
301
CELL_VALUE
 90
4
  1
EGT
304
ACVALUE_END
170
5
140
0.125
171
1
172
0
173
0
174
0
175
1
176
1
 91
33
178
0
145
0.0
301
CELL_VALUE
 90
4
  1
Ports 3 & S
304
ACVALUE_END
170
5
140
0.125
171
1
172
0
173
0
174
0
175
1
176
1
 91
33
178
0
145
0.0
301
CELL_VALUE
 90
4
  1
1/4" BSPP
304
ACVALUE_END
170
5
140
0.125
  0
MTEXT
  5
292
100
AcDbEntity
  8
0
100
AcDbMText
 62
2
  6
CONTINUOUS
  7
STANDARD
 71
1
 72
1
 10
0.52125
 20
5.75995
 30
0.0
 11
1.0
 21
0.0
 31
0.0
 44
0.6
  3
Notes\P \P1. Important: Carefully consider\P   the maximum system pressure. The\P   pressure rating of the manifold is\P   dependent on the manifold material,\P   with the port type/size a secondary\P   consideration. Manifolds\P   constructed of alu
  1
minum are not\P   rated for pressures higher than\P   3000 psi (210 bar), regardless of\P   the port type/size specified.
 40
0.1
 41
3.04
  0
LINE
  5
293
100
AcDbEntity
  8
0
100
AcDbLine
 62
7
  6
CONTINUOUS
 10
0.30125
 20
0.30125
 11
0.30125
 21
16.69875
  0
LINE
  5
294
100
AcDbEntity
  8
0
100
AcDbLine
 62
7
  6
CONTINUOUS
 10
0.30125
 20
0.30125
 11
21.69875
 21
0.30125
  0
LINE
  5
295
100
AcDbEntity
  8
0
100
AcDbLine
 62
7
  6
CONTINUOUS
 10
0.30125
 20
16.69875
 11
21.69875
 21
16.69875
  0
LINE
  5
296
100
AcDbEntity
  8
0
100
AcDbLine
 62
7
  6
CONTINUOUS
 10
21.69875
 20
0.30125
 11
21.69875
 21
16.69875
  0
LINE
  5
297
100
AcDbEntity
  8
0
100
AcDbLine
 62
7
  6
CONTINUOUS
 10
7.3257658549
 20
9.1583694915
 11
7.3257658549
 21
6.7435547827
  0
LINE
  5
298
100
AcDbEntity
  8
0
100
AcDbLine
 62
7
  6
CONTINUOUS
 10
8.8786788439
 20
10.6583683425
 11
7.3257658549
 21
9.1583694915
  0
LINE
  5
299
100
AcDbEntity
  8
0
100
AcDbLine
 62
7
  6
CONTINUOUS
 10
7.3257658549
 20
6.7435547827
 11
13.1213211561
 21
6.3416316575
  0
LINE
  5
29A
100
AcDbEntity
  8
0
100
AcDbLine
 62
7
  6
CONTINUOUS
 10
11.2339062324
 20
7.5288837962
 11
11.4142069578
 21
7.5163798985
  0
LINE
  5
29B
100
AcDbEntity
  8
0
100
AcDbLine
 62
7
  6
CONTINUOUS
 10
11.1290628495
 20
7.7177487756
 11
11.2339062324
 21
7.5288837962
  0
LINE
  5
29C
100
AcDbEntity
  8
0
100
AcDbLine
 62
7
  6
CONTINUOUS
 10
10.875138
 20
8.038147329
 11
10.9181019261
 21
8.0796472972
  0
LINE
  5
29D
100
AcDbEntity
  8
0
100
AcDbLine
 62
7
  6
CONTINUOUS
 10
11.1880897149
 20
7.8158927785
 11
11.1290628495
 21
7.7177487756
  0
LINE
  5
29E
100
AcDbEntity
  8
0
100
AcDbLine
 62
7
  6
CONTINUOUS
 10
13.1213211561
 20
8.7564463663
 11
7.3257658549
 21
9.1583694915
  0
LINE
  5
29F
100
AcDbEntity
  8
0
100
AcDbLine
 62
7
  6
CONTINUOUS
 10
11.0488073483
 20
7.6402279097
 11
11.1290628495
 21
7.7177487756
  0
LINE
  5
2A0
100
AcDbEntity
  8
0
100
AcDbLine
 62
7
  6
CONTINUOUS
 10
11.1536507312
 20
7.4513629303
 11
11.2339062324
 21
7.5288837962
  0
LINE
  5
2A1
100
AcDbEntity
  8
0
100
AcDbLine
 62
7
  6
CONTINUOUS
 10
14.6742341451
 20
10.2564452173
 11
13.1213211561
 21
8.7564463663
  0
LINE
  5
2A2
100
AcDbEntity
  8
0
100
AcDbLine
 62
7
  6
CONTINUOUS
 10
11.657422685
 20
7.2282666763
 11
11.7003866111
 21
7.2697666445
  0
LINE
  5
2A3
100
AcDbEntity
  8
0
100
AcDbLine
 62
7
  6
CONTINUOUS
 10
14.6742341451
 20
10.2564452173
 11
8.8786788439
 21
10.6583683425
  0
LINE
  5
2A4
100
AcDbEntity
  8
0
100
AcDbLine
 62
7
  6
CONTINUOUS
 10
13.1213211561
 20
6.3416316575
 11
13.1213211561
 21
8.7564463663
  0
LINE
  5
2A5
100
AcDbEntity
  8
0
100
AcDbLine
 62
7
  6
CONTINUOUS
 10
14.6742341451
 20
7.8416305085
 11
13.1213211561
 21
6.3416316575
  0
LINE
  5
2A6
100
AcDbEntity
  8
0
100
AcDbLine
 62
7
  6
CONTINUOUS
 10
14.6742341451
 20
7.8416305085
 11
14.6742341451
 21
10.2564452173
  0
ARC
  5
2A7
100
AcDbEntity
  8
0
100
AcDbCircle
 62
7
  6
CONTINUOUS
 10
11.2653667205
 20
7.7532804696
 40
0.5850018602
100
AcDbArc
 50
135.4310642854
 51
136.2602298818
  0
ARC
  5
2A8
100
AcDbEntity
  8
0
100
AcDbCircle
 62
7
  6
CONTINUOUS
 10
11.3862619067
 20
7.6281188737
 40
0.5849835138
100
AcDbArc
 50
311.7543434699
 51
312.8318813403
  0
ARC
  5
2A9
100
AcDbEntity
  8
0
100
AcDbCircle
 62
7
  6
CONTINUOUS
 10
11.3166234771
 20
7.5810764886
 40
0.4905285445
100
AcDbArc
 50
314.0079595978
 51
320.9194365638
  0
ARC
  5
2AA
100
AcDbEntity
  8
0
100
AcDbCircle
 62
7
  6
CONTINUOUS
 10
11.2584312718
 20
7.6105367551
 40
0.2111046366
100
AcDbArc
 50
0.000016169
 51
0.1942870747
  0
ARC
  5
2AB
100
AcDbEntity
  8
0
100
AcDbCircle
 62
7
  6
CONTINUOUS
 10
11.2398362555
 20
7.6432788269
 40
0.193436197
100
AcDbArc
 50
116.670196073
 51
116.9298134187
  0
ARC
  5
2AC
100
AcDbEntity
  8
0
100
AcDbCircle
 62
7
  6
CONTINUOUS
 10
11.3229922192
 20
7.7198018729
 40
0.1651298769
100
AcDbArc
 50
144.2241106635
 51
148.9755858344
  0
ARC
  5
2AD
100
AcDbEntity
  8
0
100
AcDbCircle
 62
7
  6
CONTINUOUS
 10
13.9040954661
 20
8.8071619023
 40
0.0294836696
100
AcDbArc
 50
86.0359543457
 51
92.1792431362
  0
ARC
  5
2AE
100
AcDbEntity
  8
0
100
AcDbCircle
 62
7
  6
CONTINUOUS
 10
13.3057063799
 20
8.2291623956
 40
0.0294836696
100
AcDbArc
 50
86.0359543458
 51
92.1792431361
  0
ARC
  5
2AF
100
AcDbEntity
  8
0
100
AcDbCircle
 62
7
  6
CONTINUOUS
 10
13.8431416178
 20
7.9282398267
 40
0.0294831676
100
AcDbArc
 50
259.6511165696
 51
266.0305639099
  0
ARC
  5
2B0
100
AcDbEntity
  8
0
100
AcDbCircle
 62
7
  6
CONTINUOUS
 10
13.2447525317
 20
7.35024032
 40
0.0294831676
100
AcDbArc
 50
259.6511165697
 51
266.0305639099
  0
SPLINE
  5
2B1
100
AcDbEntity
  8
0
100
AcDbSpline
 62
7
  6
CONTINUOUS
 70
0
 71
3
 72
59
 73
55
 74
0
 42
0.0000001
 43
0.0000001
 44
0.0000000001
 40
0.0
 40
0.0
 40
0.0
 40
0.0
 40
0.0311322829
 40
0.0624363742
 40
0.0938813008
 40
0.1254584073
 40
0.157162211
 40
0.1889779177
 40
0.2208868241
 40
0.2528701084
 40
0.2688858219
 40
0.2849126181
 40
0.3009477636
 40
0.3169884637
 40
0.3490708353
 40
0.3651116875
 40
0.3811470337
 40
0.3971741272
 40
0.4131903361
 40
0.4291930363
 40
0.4451796074
 40
0.4611475164
 40
0.4770944087
 40
0.4930180215
 40
0.5089161278
 40
0.5247866157
 40
0.540627598
 40
0.5564373559
 40
0.5722142367
 40
0.5879567259
 40
0.6036635642
 40
0.63496127
 40
0.6505554416
 40
0.666110719
 40
0.6816268764
 40
0.6971037981
 40
0.7125415269
 40
0.7279403733
 40
0.743300953
 40
0.7586239982
 40
0.7739103911
 40
0.7891612643
 40
0.8043780481
 40
0.8195622797
 40
0.8347156224
 40
0.8498399573
 40
0.8649374268
 40
0.8800102516
 40
0.895060739
 40
0.9100913671
 40
0.9400981012
 40
0.955085347
 40
0.9700637171
 40
1.0
 40
1.0
 40
1.0
 40
1.0
 10
11.2662803425
 20
7.0893907302
 30
0.0
 10
11.2530049455
 20
7.0903113821
 30
0.0
 10
11.2264387586
 20
7.0931323762
 30
0.0
 10
11.1869090519
 20
7.100228153
 30
0.0
 10
11.1478006456
 20
7.1101747307
 30
0.0
 10
11.1093304976
 20
7.1229097685
 30
0.0
 10
11.0717014531
 20
7.138370376
 30
0.0
 10
11.0351089124
 20
7.1564676451
 30
0.0
 10
10.9997533131
 20
7.1771116823
 30
0.0
 10
10.9714846452
 20
7.1963344553
 30
0.0
 10
10.9496704404
 20
7.2128679046
 30
0.0
 10
10.9337234858
 20
7.2258365517
 30
0.0
 10
10.918220058
 20
7.2393486606
 30
0.0
 10
10.8981691423
 20
7.2580637668
 30
0.0
 10
10.8790860918
 20
7.2777982145
 30
0.0
 10
10.861052058
 20
7.2984639825
 30
0.0
 10
10.848065833
 20
7.314410939
 30
0.0
 10
10.8356386775
 20
7.3307836852
 30
0.0
 10
10.8237870537
 20
7.3475607592
 30
0.0
 10
10.8125257008
 20
7.3647188702
 30
0.0
 10
10.8018695505
 20
7.3822351309
 30
0.0
 10
10.7918337774
 20
7.4000867321
 30
0.0
 10
10.7824322926
 20
7.4182500827
 30
0.0
 10
10.7736762856
 20
7.4367002362
 30
0.0
 10
10.7655773051
 20
7.4554125453
 30
0.0
 10
10.7581470263
 20
7.4743624124
 30
0.0
 10
10.7513962088
 20
7.4935248091
 30
0.0
 10
10.7453323582
 20
7.5128736581
 30
0.0
 10
10.7399633721
 20
7.5323829841
 30
0.0
 10
10.7352971053
 20
7.5520274375
 30
0.0
 10
10.7300291629
 20
7.5783300532
 30
0.0
 10
10.7261778712
 20
7.6048365704
 30
0.0
 10
10.7237720378
 20
7.6314249516
 30
0.0
 10
10.7226951867
 20
7.6513474305
 30
0.0
 10
10.7223439438
 20
7.6712454319
 30
0.0
 10
10.7227182886
 20
7.6910928866
 30
0.0
 10
10.723818226
 20
7.7108631802
 30
0.0
 10
10.7256438537
 20
7.7305298067
 30
0.0
 10
10.7281912902
 20
7.7500665972
 30
0.0
 10
10.7314565842
 20
7.7694475923
 30
0.0
 10
10.7354357407
 20
7.7886468721
 30
0.0
 10
10.7401250758
 20
7.8076384094
 30
0.0
 10
10.7455170948
 20
7.8263970986
 30
0.0
 10
10.7516039084
 20
7.8448981344
 30
0.0
 10
10.7583776513
 20
7.8631167567
 30
0.0
 10
10.7658308519
 20
7.8810279903
 30
0.0
 10
10.7739526287
 20
7.8986082761
 30
0.0
 10
10.7827312368
 20
7.9158344349
 30
0.0
 10
10.7921554415
 20
7.9326838367
 30
0.0
 10
10.8055568998
 20
7.9546001679
 30
0.0
 10
10.8202128343
 20
7.9756970585
 30
0.0
 10
10.8360485626
 20
7.9958626226
 30
0.0
 10
10.852641171
 20
8.0153697748
 30
0.0
 10
10.8659349738
 20
8.0292566896
 30
0.0
 10
10.8751384326
 20
8.0381468812
 30
0.0
  0
SPLINE
  5
2B2
100
AcDbEntity
  8
0
100
AcDbSpline
 62
7
  6
CONTINUOUS
 70
0
 71
3
 72
59
 73
55
 74
0
 42
0.0000001
 43
0.0000001
 44
0.0000000001
 40
0.0
 40
0.0
 40
0.0
 40
0.0
 40
0.0311322829
 40
0.0624363742
 40
0.0938813008
 40
0.1254584073
 40
0.157162211
 40
0.1889779177
 40
0.2208868241
 40
0.2528701084
 40
0.2688858219
 40
0.2849126181
 40
0.3009477636
 40
0.3169884637
 40
0.3490708353
 40
0.3651116875
 40
0.3811470337
 40
0.3971741272
 40
0.4131903361
 40
0.4291930363
 40
0.4451796074
 40
0.4611475164
 40
0.4770944087
 40
0.4930180215
 40
0.5089161278
 40
0.5247866157
 40
0.540627598
 40
0.5564373559
 40
0.5722142367
 40
0.5879567259
 40
0.6036635642
 40
0.63496127
 40
0.6505554416
 40
0.666110719
 40
0.6816268764
 40
0.6971037981
 40
0.7125415269
 40
0.7279403733
 40
0.743300953
 40
0.7586239982
 40
0.7739103911
 40
0.7891612643
 40
0.8043780481
 40
0.8195622797
 40
0.8347156224
 40
0.8498399573
 40
0.8649374268
 40
0.8800102516
 40
0.895060739
 40
0.9100913671
 40
0.9400981012
 40
0.955085347
 40
0.9700637171
 40
1.0
 40
1.0
 40
1.0
 40
1.0
 10
11.3092442686
 20
8.2185232433
 30
0.0
 10
11.3225196656
 20
8.2176025914
 30
0.0
 10
11.3490858525
 20
8.2147815974
 30
0.0
 10
11.3886155592
 20
8.2076858205
 30
0.0
 10
11.4277239656
 20
8.1977392428
 30
0.0
 10
11.4661941135
 20
8.1850042051
 30
0.0
 10
11.503823158
 20
8.1695435975
 30
0.0
 10
11.5404156987
 20
8.1514463284
 30
0.0
 10
11.575771298
 20
8.1308022912
 30
0.0
 10
11.6040399659
 20
8.1115795183
 30
0.0
 10
11.6258541707
 20
8.095046069
 30
0.0
 10
11.6418011253
 20
8.0820774218
 30
0.0
 10
11.6573045531
 20
8.0685653129
 30
0.0
 10
11.6773554688
 20
8.0498502067
 30
0.0
 10
11.6964385193
 20
8.030115759
 30
0.0
 10
11.7144725531
 20
8.009449991
 30
0.0
 10
11.7274587781
 20
7.9935030346
 30
0.0
 10
11.7398859336
 20
7.9771302883
 30
0.0
 10
11.7517375575
 20
7.9603532143
 30
0.0
 10
11.7629989103
 20
7.9431951033
 30
0.0
 10
11.7736550606
 20
7.9256788427
 30
0.0
 10
11.7836908338
 20
7.9078272415
 30
0.0
 10
11.7930923185
 20
7.8896638908
 30
0.0
 10
11.8018483255
 20
7.8712137373
 30
0.0
 10
11.809947306
 20
7.8525014282
 30
0.0
 10
11.8173775848
 20
7.8335515611
 30
0.0
 10
11.8241284023
 20
7.8143891645
 30
0.0
 10
11.830192253
 20
7.7950403155
 30
0.0
 10
11.835561239
 20
7.7755309894
 30
0.0
 10
11.8402275059
 20
7.755886536
 30
0.0
 10
11.8454954483
 20
7.7295839203
 30
0.0
 10
11.84934674
 20
7.7030774031
 30
0.0
 10
11.8517525733
 20
7.6764890219
 30
0.0
 10
11.8528294244
 20
7.656566543
 30
0.0
 10
11.8531806674
 20
7.6366685416
 30
0.0
 10
11.8528063225
 20
7.616821087
 30
0.0
 10
11.8517063851
 20
7.5970507933
 30
0.0
 10
11.8498807575
 20
7.5773841668
 30
0.0
 10
11.847333321
 20
7.5578473763
 30
0.0
 10
11.8440680269
 20
7.5384663813
 30
0.0
 10
11.8400888704
 20
7.5192671014
 30
0.0
 10
11.8353995353
 20
7.5002755642
 30
0.0
 10
11.8300075163
 20
7.4815168749
 30
0.0
 10
11.8239207028
 20
7.4630158391
 30
0.0
 10
11.8171469598
 20
7.4447972169
 30
0.0
 10
11.8096937592
 20
7.4268859832
 30
0.0
 10
11.8015719824
 20
7.4093056974
 30
0.0
 10
11.7927933743
 20
7.3920795386
 30
0.0
 10
11.7833691697
 20
7.3752301369
 30
0.0
 10
11.7699677114
 20
7.3533138056
 30
0.0
 10
11.7553117768
 20
7.332216915
 30
0.0
 10
11.7394760485
 20
7.3120513509
 30
0.0
 10
11.7228834401
 20
7.2925441987
 30
0.0
 10
11.7095896374
 20
7.2786572839
 30
0.0
 10
11.7003861785
 20
7.2697670924
 30
0.0
  0
SPLINE
  5
2B3
100
AcDbEntity
  8
0
100
AcDbSpline
 62
7
  6
CONTINUOUS
 70
0
 71
3
 72
15
 73
11
 74
0
 42
0.0000001
 43
0.0000001
 44
0.0000000001
 40
0.0
 40
0.0
 40
0.0
 40
0.0
 40
0.0990493905
 40
0.2066666987
 40
0.3238642713
 40
0.4503538694
 40
0.5840557736
 40
0.7218634703
 40
0.8610624569
 40
1.0
 40
1.0
 40
1.0
 40
1.0
 10
11.46818088
 20
7.6111442565
 30
0.0
 10
11.465074085
 20
7.6051862392
 30
0.0
 10
11.4585070826
 20
7.5927987514
 30
0.0
 10
11.4479304533
 20
7.5735405907
 30
0.0
 10
11.4361266614
 20
7.5528358232
 30
0.0
 10
11.4230908338
 20
7.5308003269
 30
0.0
 10
11.4089976938
 20
7.5077695151
 30
0.0
 10
11.3941519885
 20
7.4841913911
 30
0.0
 10
11.378872357
 20
7.460468816
 30
0.0
 10
11.3685286525
 20
7.4446880654
 30
0.0
 10
11.3633374971
 20
7.4368211037
 30
0.0
  0
SPLINE
  5
2B4
100
AcDbEntity
  8
0
100
AcDbSpline
 62
7
  6
CONTINUOUS
 70
0
 71
3
 72
16
 73
12
 74
0
 42
0.0000001
 43
0.0000001
 44
0.0000000001
 40
0.0
 40
0.0
 40
0.0
 40
0.0
 40
0.0568203632
 40
0.1148013582
 40
0.2344680642
 40
0.3590834873
 40
0.4876536601
 40
0.6180302345
 40
0.7477956069
 40
0.8753224375
 40
1.0
 40
1.0
 40
1.0
 40
1.0
 10
11.3633374971
 20
7.8000092359
 30
0.0
 10
11.3659499503
 20
7.7968309345
 30
0.0
 10
11.3711758771
 20
7.7903660758
 30
0.0
 10
11.3816083627
 20
7.7769717134
 30
0.0
 10
11.3945364505
 20
7.7593031855
 30
0.0
 10
11.409447992
 20
7.736784665
 30
0.0
 10
11.423566856
 20
7.7128534193
 30
0.0
 10
11.43657364
 20
7.6878795442
 30
0.0
 10
11.448309505
 20
7.6623699295
 30
0.0
 10
11.4588077582
 20
7.6367756809
 30
0.0
 10
11.4651583052
 20
7.6196507245
 30
0.0
 10
11.46818088
 20
7.6111442565
 30
0.0
  0
SPLINE
  5
2B5
100
AcDbEntity
  8
0
100
AcDbSpline
 62
7
  6
CONTINUOUS
 70
0
 71
3
 72
13
 73
9
 74
0
 42
0.0000001
 43
0.0000001
 44
0.0000000001
 40
0.0
 40
0.0
 40
0.0
 40
0.0
 40
0.1120229119
 40
0.2274286538
 40
0.4694282775
 40
0.7273369597
 40
0.8620712305
 40
1.0
 40
1.0
 40
1.0
 40
1.0
 10
11.3633374971
 20
7.8000092359
 30
0.0
 10
11.3597527639
 20
7.8008319603
 30
0.0
 10
11.35246191
 20
7.8024457951
 30
0.0
 10
11.3373595127
 20
7.8055236718
 30
0.0
 10
11.3174557933
 20
7.8090126668
 30
0.0
 10
11.2967958888
 20
7.8117715212
 30
0.0
 10
11.2794636537
 20
7.8135254701
 30
0.0
 10
11.2705391459
 20
7.8142377708
 30
0.0
 10
11.2660215237
 20
7.814551069
 30
0.0
  0
SPLINE
  5
2B6
100
AcDbEntity
  8
0
100
AcDbSpline
 62
7
  6
CONTINUOUS
 70
0
 71
3
 72
23
 73
19
 74
0
 42
0.0000001
 43
0.0000001
 44
0.0000000001
 40
0.0
 40
0.0
 40
0.0
 40
0.0
 40
0.0616482049
 40
0.1233194645
 40
0.1850366601
 40
0.2468215803
 40
0.3086958874
 40
0.3706805387
 40
0.4327949852
 40
0.4950576208
 40
0.5574833124
 40
0.620084195
 40
0.682872566
 40
0.7458647459
 40
0.8090766705
 40
0.8725171946
 40
0.9361676357
 40
1.0
 40
1.0
 40
1.0
 40
1.0
 10
10.9181023587
 20
8.0796468494
 30
0.0
 10
10.9244202593
 20
8.0857497012
 30
0.0
 10
10.9373891189
 20
8.0976206506
 30
0.0
 10
10.9577767394
 20
8.1143574464
 30
0.0
 10
10.9790490099
 20
8.1299885196
 30
0.0
 10
11.0011514092
 20
8.1444744382
 30
0.0
 10
11.0240304069
 20
8.1577757752
 30
0.0
 10
11.047626696
 20
8.1698616737
 30
0.0
 10
11.0718810329
 20
8.1807022053
 30
0.0
 10
11.0967336275
 20
8.190266564
 30
0.0
 10
11.1221199557
 20
8.1985339731
 30
0.0
 10
11.1479755754
 20
8.2054841908
 30
0.0
 10
11.174236633
 20
8.2110965611
 30
0.0
 10
11.2008382076
 20
8.2153596459
 30
0.0
 10
11.2277157202
 20
8.2182625713
 30
0.0
 10
11.2548001034
 20
8.219794336
 30
0.0
 10
11.2820147874
 20
8.2199563689
 30
0.0
 10
11.3001707312
 20
8.2191524952
 30
0.0
 10
11.3092442686
 20
8.2185232433
 30
0.0
  0
SPLINE
  5
2B7
100
AcDbEntity
  8
0
100
AcDbSpline
 62
7
  6
CONTINUOUS
 70
0
 71
3
 72
14
 73
10
 74
0
 42
0.0000001
 43
0.0000001
 44
0.0000000001
 40
0.0
 40
0.0
 40
0.0
 40
0.0
 40
0.1231136216
 40
0.2478936142
 40
0.3735912418
 40
0.499638844
 40
0.6255751812
 40
0.7510900589
 40
1.0
 40
1.0
 40
1.0
 40
1.0
 10
11.2660215237
 20
7.814551069
 30
0.0
 10
11.2614183002
 20
7.8148703036
 30
0.0
 10
11.2521424975
 20
7.815414916
 30
0.0
 10
11.2381501837
 20
7.8159606342
 30
0.0
 10
11.2240402451
 20
7.816248092
 30
0.0
 10
11.2098842872
 20
7.8162980468
 30
0.0
 10
11.1957361594
 20
7.8161311623
 30
0.0
 10
11.1769883343
 20
7.8156546855
 30
0.0
 10
11.1629667805
 20
7.8150444725
 30
0.0
 10
11.1536507312
 20
7.8145510625
 30
0.0
  0
SPLINE
  5
2B8
100
AcDbEntity
  8
0
100
AcDbSpline
 62
7
  6
CONTINUOUS
 70
0
 71
3
 72
23
 73
19
 74
0
 42
0.0000001
 43
0.0000001
 44
0.0000000001
 40
0.0
 40
0.0
 40
0.0
 40
0.0
 40
0.0616482049
 40
0.1233194645
 40
0.1850366601
 40
0.2468215803
 40
0.3086958874
 40
0.3706805387
 40
0.4327949852
 40
0.4950576208
 40
0.5574833124
 40
0.620084195
 40
0.682872566
 40
0.7458647459
 40
0.8090766705
 40
0.8725171946
 40
0.9361676357
 40
1.0
 40
1.0
 40
1.0
 40
1.0
 10
11.6574222524
 20
7.2282671242
 30
0.0
 10
11.6511043519
 20
7.2221642723
 30
0.0
 10
11.6381354922
 20
7.210293323
 30
0.0
 10
11.6177478718
 20
7.1935565271
 30
0.0
 10
11.5964756012
 20
7.1779254539
 30
0.0
 10
11.5743732019
 20
7.1634395353
 30
0.0
 10
11.5514942042
 20
7.1501381983
 30
0.0
 10
11.5278979151
 20
7.1380522999
 30
0.0
 10
11.5036435782
 20
7.1272117682
 30
0.0
 10
11.4787909836
 20
7.1176474095
 30
0.0
 10
11.4534046554
 20
7.1093800004
 30
0.0
 10
11.4275490358
 20
7.1024297827
 30
0.0
 10
11.4012879781
 20
7.0968174124
 30
0.0
 10
11.3746864035
 20
7.0925543276
 30
0.0
 10
11.3478088909
 20
7.0896514022
 30
0.0
 10
11.3207245077
 20
7.0881196375
 30
0.0
 10
11.2935098237
 20
7.0879576046
 30
0.0
 10
11.2753538799
 20
7.0887614783
 30
0.0
 10
11.2662803425
 20
7.0893907302
 30
0.0
  0
SPLINE
  5
2B9
100
AcDbEntity
  8
0
100
AcDbSpline
 62
7
  6
CONTINUOUS
 70
0
 71
3
 72
66
 73
62
 74
0
 42
0.0000001
 43
0.0000001
 44
0.0000000001
 40
0.0
 40
0.0
 40
0.0
 40
0.0
 40
0.0313892319
 40
0.0471734483
 40
0.0630045494
 40
0.0947922188
 40
0.1107556328
 40
0.126758753
 40
0.1427973822
 40
0.1588672385
 40
0.174964115
 40
0.1910835842
 40
0.2072211173
 40
0.2233719516
 40
0.2395310416
 40
0.2556933588
 40
0.2718539342
 40
0.2880076864
 40
0.3041496364
 40
0.32027501
 40
0.3363790385
 40
0.3524571444
 40
0.368505122
 40
0.3845189036
 40
0.4004946911
 40
0.4164291943
 40
0.4323193802
 40
0.4481625505
 40
0.4639566204
 40
0.4796998632
 40
0.4953909309
 40
0.5110291558
 40
0.5266142955
 40
0.542146505
 40
0.5576266393
 40
0.5730560022
 40
0.5884362808
 40
0.6037698305
 40
0.619059427
 40
0.6343081765
 40
0.6495197715
 40
0.6646982401
 40
0.6798478494
 40
0.6949733256
 40
0.7100795921
 40
0.7251716853
 40
0.7402549452
 40
0.7553347395
 40
0.7704164033
 40
0.7855053917
 40
0.8006069684
 40
0.8157262041
 40
0.83086817
 40
0.8460376768
 40
0.8612392288
 40
0.8764770253
 40
0.9070640933
 40
0.9378335392
 40
0.9533006817
 40
0.9688224861
 40
1.0
 40
1.0
 40
1.0
 40
1.0
 10
11.2579981399
 20
7.1123003646
 30
0.0
 10
11.2411662607
 20
7.1134676594
 30
0.0
 10
11.215935167
 20
7.1164677184
 30
0.0
 10
11.1826716212
 20
7.1228771401
 30
0.0
 10
11.1495439558
 20
7.1309253457
 30
0.0
 10
11.116936513
 20
7.1413635568
 30
0.0
 10
11.0851079917
 20
7.1540897903
 30
0.0
 10
11.061613524
 20
7.1647835509
 30
0.0
 10
11.0385919766
 20
7.1765847474
 30
0.0
 10
11.0160998441
 20
7.1894681984
 30
0.0
 10
10.9941906017
 20
7.2034005641
 30
0.0
 10
10.972916129
 20
7.2183475823
 30
0.0
 10
10.9523293447
 20
7.2342758233
 30
0.0
 10
10.9324785656
 20
7.2511452216
 30
0.0
 10
10.9134107316
 20
7.2689143763
 30
0.0
 10
10.89517397
 20
7.2875428341
 30
0.0
 10
10.877810985
 20
7.3069843796
 30
0.0
 10
10.8613623952
 20
7.3271913621
 30
0.0
 10
10.8458702189
 20
7.3481171205
 30
0.0
 10
10.8313706244
 20
7.3697102808
 30
0.0
 10
10.8178970582
 20
7.3919180457
 30
0.0
 10
10.8054845921
 20
7.4146885696
 30
0.0
 10
10.7941621543
 20
7.4379663492
 30
0.0
 10
10.7839552372
 20
7.461694626
 30
0.0
 10
10.7748911692
 20
7.4858174939
 30
0.0
 10
10.7669910588
 20
7.5102764424
 30
0.0
 10
10.7602718694
 20
7.5350120377
 30
0.0
 10
10.7547525833
 20
7.5599655332
 30
0.0
 10
10.7504460729
 20
7.585076583
 30
0.0
 10
10.747360382
 20
7.6102844222
 30
0.0
 10
10.7455057133
 20
7.6355287506
 30
0.0
 10
10.7448864461
 20
7.66074859
 30
0.0
 10
10.7455015196
 20
7.6858832205
 30
0.0
 10
10.7473521113
 20
7.7108721181
 30
0.0
 10
10.7504340157
 20
7.735654883
 30
0.0
 10
10.7547370891
 20
7.7601722162
 30
0.0
 10
10.7602534329
 20
7.7843647168
 30
0.0
 10
10.7669703272
 20
7.8081737621
 30
0.0
 10
10.7748687763
 20
7.831542818
 30
0.0
 10
10.7839319534
 20
7.854414945
 30
0.0
 10
10.7941388575
 20
7.8767344657
 30
0.0
 10
10.8054620797
 20
7.8984488901
 30
0.0
 10
10.8178762201
 20
7.9195050395
 30
0.0
 10
10.8313523885
 20
7.9398513016
 30
0.0
 10
10.8458553896
 20
7.9594404128
 30
0.0
 10
10.861351801
 20
7.9782241895
 30
0.0
 10
10.8778054016
 20
7.996156139
 30
0.0
 10
10.8951740474
 20
8.013195269
 30
0.0
 10
10.9134170711
 20
8.0292995066
 30
0.0
 10
10.9324916086
 20
8.0444284294
 30
0.0
 10
10.9523494572
 20
8.0585482323
 30
0.0
 10
10.9729435577
 20
8.0716239727
 30
0.0
 10
10.9942253788
 20
8.0836222014
 30
0.0
 10
11.0161418355
 20
8.0945168667
 30
0.0
 10
11.0386415722
 20
8.1042810549
 30
0.0
 10
11.0693794769
 20
8.11577051
 30
0.0
 10
11.1090137337
 20
8.1271943891
 30
0.0
 10
11.1497222603
 20
8.1345531549
 30
0.0
 10
11.1827526651
 20
8.137991139
 30
0.0
 10
11.2161299847
 20
8.1397875404
 30
0.0
 10
11.2412797904
 20
8.1392730744
 30
0.0
 10
11.2579981399
 20
8.1381136529
 30
0.0
  0
SPLINE
  5
2BA
100
AcDbEntity
  8
0
100
AcDbSpline
 62
7
  6
CONTINUOUS
 70
0
 71
3
 72
33
 73
29
 74
0
 42
0.0000001
 43
0.0000001
 44
0.0000000001
 40
0.0
 40
0.0
 40
0.0
 40
0.0
 40
0.0607663237
 40
0.091331568
 40
0.1220124065
 40
0.1528084241
 40
0.1837173208
 40
0.2147358851
 40
0.2458601834
 40
0.2770843894
 40
0.3084013868
 40
0.3712616898
 40
0.4343894808
 40
0.4977003293
 40
0.5294057045
 40
0.5611213219
 40
0.5928355414
 40
0.6245364484
 40
0.6562120085
 40
0.6878507642
 40
0.7194411705
 40
0.7509711995
 40
0.782429246
 40
0.813806578
 40
0.8450987421
 40
0.8763022432
 40
0.9384000084
 40
1.0
 40
1.0
 40
1.0
 40
1.0
 10
11.2320788567
 20
7.8160697759
 30
0.0
 10
11.2309669938
 20
7.8096374491
 30
0.0
 10
11.2298351191
 20
7.7998653472
 30
0.0
 10
11.2293981454
 20
7.7867614042
 30
0.0
 10
11.2296080295
 20
7.7768708478
 30
0.0
 10
11.2303541675
 20
7.7669698958
 30
0.0
 10
11.2316333474
 20
7.7570869247
 30
0.0
 10
11.2334431098
 20
7.7472514031
 30
0.0
 10
11.2357790598
 20
7.7374927017
 30
0.0
 10
11.2386323371
 20
7.7278389006
 30
0.0
 10
11.2431194832
 20
7.7151318317
 30
0.0
 10
11.2499857003
 20
7.6996553338
 30
0.0
 10
11.2601081591
 20
7.6819797324
 30
0.0
 10
11.2700295314
 20
7.6681498346
 30
0.0
 10
11.2787846111
 20
7.6577183306
 30
0.0
 10
11.2857467206
 20
7.6502305638
 30
0.0
 10
11.2930796192
 20
7.6431066509
 30
0.0
 10
11.3007606566
 20
7.6363659954
 30
0.0
 10
11.3087674302
 20
7.6300287036
 30
0.0
 10
11.3170776175
 20
7.6241152645
 30
0.0
 10
11.3256654936
 20
7.6186419345
 30
0.0
 10
11.334504876
 20
7.6136239988
 30
0.0
 10
11.3435700552
 20
7.6090771669
 30
0.0
 10
11.35283503
 20
7.605015994
 30
0.0
 10
11.3622729259
 20
7.6014506766
 30
0.0
 10
11.3750282856
 20
7.5973790251
 30
0.0
 10
11.3912615277
 20
7.5935787585
 30
0.0
 10
11.404477232
 20
7.5919351765
 30
0.0
 10
11.411078647
 20
7.5914773668
 30
0.0
  0
SPLINE
  5
2BB
100
AcDbEntity
  8
0
100
AcDbSpline
 62
7
  6
CONTINUOUS
 70
0
 71
3
 72
15
 73
11
 74
0
 42
0.0000001
 43
0.0000001
 44
0.0000000001
 40
0.0
 40
0.0
 40
0.0
 40
0.0
 40
0.1267721213
 40
0.2530848049
 40
0.3788484787
 40
0.5040309115
 40
0.6286806203
 40
0.7528576716
 40
0.876615375
 40
1.0
 40
1.0
 40
1.0
 40
1.0
 10
11.2579981399
 20
7.8367447773
 30
0.0
 10
11.2534344312
 20
7.8370612716
 30
0.0
 10
11.2443003114
 20
7.8373983291
 30
0.0
 10
11.2306254358
 20
7.8370135544
 30
0.0
 10
11.2170616273
 20
7.8357370508
 30
0.0
 10
11.203671999
 20
7.8335710359
 30
0.0
 10
11.1905126164
 20
7.8305284924
 30
0.0
 10
11.1776375021
 20
7.8266194954
 30
0.0
 10
11.1651006523
 20
7.8218620299
 30
0.0
 10
11.1569903135
 20
7.8181328714
 30
0.0
 10
11.1530116009
 20
7.8161343783
 30
0.0
  0
SPLINE
  5
2BC
100
AcDbEntity
  8
0
100
AcDbSpline
 62
7
  6
CONTINUOUS
 70
0
 71
3
 72
44
 73
40
 74
0
 42
0.0000001
 43
0.0000001
 44
0.0000000001
 40
0.0
 40
0.0
 40
0.0
 40
0.0
 40
0.0301887775
 40
0.060307189
 40
0.0903838176
 40
0.1204483681
 40
0.150530331
 40
0.1806592903
 40
0.1957536387
 40
0.2108700789
 40
0.2411744884
 40
0.2563750715
 40
0.2716091147
 40
0.3021796441
 40
0.3175266352
 40
0.3329146523
 40
0.3638118197
 40
0.3948836434
 40
0.4261319821
 40
0.4575531672
 40
0.4891397401
 40
0.5208793779
 40
0.5527562983
 40
0.584751048
 40
0.6168412608
 40
0.6490024641
 40
0.6812080575
 40
0.7134308435
 40
0.7295427041
 40
0.7456483331
 40
0.7778217557
 40
0.8099305437
 40
0.8419493306
 40
0.8738525474
 40
0.9056216359
 40
0.937248854
 40
0.9530093839
 40
0.9687263067
 40
1.0
 40
1.0
 40
1.0
 40
1.0
 10
11.1522292557
 20
7.8157391872
 30
0.0
 10
11.1472421016
 20
7.8132057936
 30
0.0
 10
11.1374938279
 20
7.8077093584
 30
0.0
 10
11.1236593435
 20
7.798235042
 30
0.0
 10
11.1107245967
 20
7.7875991896
 30
0.0
 10
11.0987744585
 20
7.775877804
 30
0.0
 10
11.0878922524
 20
7.7631466339
 30
0.0
 10
11.0797758154
 20
7.7517730766
 30
0.0
 10
11.073887324
 20
7.7422653233
 30
0.0
 10
11.0684023263
 20
7.7324822304
 30
0.0
 10
11.0635495978
 20
7.7223335749
 30
0.0
 10
11.059356929
 20
7.7118862602
 30
0.0
 10
11.0555996201
 20
7.701222228
 30
0.0
 10
11.0525208616
 20
7.6903009033
 30
0.0
 10
11.0501341543
 20
7.67919237
 30
0.0
 10
11.0482061381
 20
7.667933346
 30
0.0
 10
11.0466751411
 20
7.6536637613
 30
0.0
 10
11.046253118
 20
7.6363775453
 30
0.0
 10
11.0472496778
 20
7.6190174522
 30
0.0
 10
11.0496529989
 20
7.6016998194
 30
0.0
 10
11.053452178
 20
7.5845410068
 30
0.0
 10
11.0586159557
 20
7.5676543465
 30
0.0
 10
11.065115138
 20
7.5511542426
 30
0.0
 10
11.0729010099
 20
7.5351488183
 30
0.0
 10
11.0819259611
 20
7.5197470117
 30
0.0
 10
11.0921259898
 20
7.5050493799
 30
0.0
 10
11.1034353907
 20
7.4911562494
 30
0.0
 10
11.1137222818
 20
7.480323062
 30
0.0
 10
11.1224275316
 20
7.4721469944
 30
0.0
 10
11.13143239
 20
7.4643160716
 30
0.0
 10
11.143225306
 20
7.4551911494
 30
0.0
 10
11.1581473406
 20
7.4453754538
 30
0.0
 10
11.1737377991
 20
7.4367623247
 30
0.0
 10
11.1898906682
 20
7.429406845
 30
0.0
 10
11.2065006642
 20
7.4233614463
 30
0.0
 10
11.220651505
 20
7.4194413055
 30
0.0
 10
11.2320895322
 20
7.4170002285
 30
0.0
 10
11.2435506851
 20
7.4150291157
 30
0.0
 10
11.2522172712
 20
7.4140701449
 30
0.0
 10
11.2579981399
 20
7.4136692403
 30
0.0
  0
SPLINE
  5
2BD
100
AcDbEntity
  8
0
100
AcDbSpline
 62
7
  6
CONTINUOUS
 70
0
 71
3
 72
11
 73
7
 74
0
 42
0.0000001
 43
0.0000001
 44
0.0000000001
 40
0.0
 40
0.0
 40
0.0
 40
0.0
 40
0.2483001361
 40
0.4978174108
 40
0.748450087
 40
1.0
 40
1.0
 40
1.0
 40
1.0
 10
11.460174439
 20
7.5948352023
 30
0.0
 10
11.45617758
 20
7.5939899041
 30
0.0
 10
11.4481014386
 20
7.5925782946
 30
0.0
 10
11.4358425204
 20
7.5913149073
 30
0.0
 10
11.4234723526
 20
7.5909008187
 30
0.0
 10
11.4152074662
 20
7.5911910322
 30
0.0
 10
11.411078647
 20
7.5914773668
 30
0.0
  0
SPLINE
  5
2BE
100
AcDbEntity
  8
0
100
AcDbSpline
 62
7
  6
CONTINUOUS
 70
0
 71
3
 72
15
 73
11
 74
0
 42
0.0000001
 43
0.0000001
 44
0.0000000001
 40
0.0
 40
0.0
 40
0.0
 40
0.0
 40
0.123395243
 40
0.2471616739
 40
0.3713457372
 40
0.4960009522
 40
0.6211855472
 40
0.7469455322
 40
0.8732462823
 40
1.0
 40
1.0
 40
1.0
 40
1.0
 10
11.4279337485
 20
7.5388367182
 30
0.0
 10
11.4245459258
 20
7.5371617396
 30
0.0
 10
11.4176434522
 20
7.5340371111
 30
0.0
 10
11.4069820115
 20
7.5300531291
 30
0.0
 10
11.3960398717
 20
7.5267821476
 30
0.0
 10
11.3848618911
 20
7.5242384588
 30
0.0
 10
11.3734928052
 20
7.5224304686
 30
0.0
 10
11.3619792605
 20
7.5213689407
 30
0.0
 10
11.3503737397
 20
7.5210553916
 30
0.0
 10
11.3426224465
 20
7.5213443012
 30
0.0
 10
11.3387496154
 20
7.5216128829
 30
0.0
  0
SPLINE
  5
2BF
100
AcDbEntity
  8
0
100
AcDbSpline
 62
7
  6
CONTINUOUS
 70
0
 71
3
 72
15
 73
11
 74
0
 42
0.0000001
 43
0.0000001
 44
0.0000000001
 40
0.0
 40
0.0
 40
0.0
 40
0.0
 40
0.1267968404
 40
0.2531255205
 40
0.3788942022
 40
0.5040739396
 40
0.6287161924
 40
0.7528830504
 40
0.8766282758
 40
1.0
 40
1.0
 40
1.0
 40
1.0
 10
11.2579981399
 20
7.4136692403
 30
0.0
 10
11.2626326007
 20
7.4133478393
 30
0.0
 10
11.2719084227
 20
7.4130102118
 30
0.0
 10
11.2857939639
 20
7.4134219658
 30
0.0
 10
11.2995629898
 20
7.414753481
 30
0.0
 10
11.313149631
 20
7.4170018792
 30
0.0
 10
11.3264953868
 20
7.4201535336
 30
0.0
 10
11.3395436081
 20
7.4241978295
 30
0.0
 10
11.352237946
 20
7.4291150599
 30
0.0
 10
11.36044131
 20
7.4329667024
 30
0.0
 10
11.3644629543
 20
7.4350301226
 30
0.0
  0
SPLINE
  5
2C0
100
AcDbEntity
  8
0
100
AcDbSpline
 62
7
  6
CONTINUOUS
 70
0
 71
3
 72
21
 73
17
 74
0
 42
0.0000001
 43
0.0000001
 44
0.0000000001
 40
0.0
 40
0.0
 40
0.0
 40
0.0
 40
0.0621604898
 40
0.1241984835
 40
0.1861504711
 40
0.2480554595
 40
0.3099518597
 40
0.3718783665
 40
0.4959005071
 40
0.620486259
 40
0.683105919
 40
0.7459548873
 40
0.8090539876
 40
0.8724203926
 40
0.9360668682
 40
1.0
 40
1.0
 40
1.0
 40
1.0
 10
11.3644629543
 20
7.4350301226
 30
0.0
 10
11.3684310089
 20
7.4370660471
 30
0.0
 10
11.3762211952
 20
7.4414098375
 30
0.0
 10
11.3874159021
 20
7.4487126372
 30
0.0
 10
11.3980608199
 20
7.4567668268
 30
0.0
 10
11.4081089793
 20
7.4655382537
 30
0.0
 10
11.4175204043
 20
7.4749879784
 30
0.0
 10
11.4291650384
 20
7.4884432436
 30
0.0
 10
11.4419499389
 20
7.5067840514
 30
0.0
 10
11.4520936342
 20
7.5267614493
 30
0.0
 10
11.458540429
 20
7.5435163264
 30
0.0
 10
11.4625311461
 20
7.556455023
 30
0.0
 10
11.4656536023
 20
7.5696844702
 30
0.0
 10
11.4678916542
 20
7.5831501517
 30
0.0
 10
11.4692372809
 20
7.5967933491
 30
0.0
 10
11.4695359084
 20
7.6059497611
 30
0.0
 10
11.4695359084
 20
7.6105368147
 30
0.0
  0
SPLINE
  5
2C1
100
AcDbEntity
  8
0
100
AcDbSpline
 62
7
  6
CONTINUOUS
 70
0
 71
3
 72
23
 73
19
 74
0
 42
0.0000001
 43
0.0000001
 44
0.0000000001
 40
0.0
 40
0.0
 40
0.0
 40
0.0
 40
0.0611123718
 40
0.1224974328
 40
0.1841476917
 40
0.2460524529
 40
0.3081953791
 40
0.3705571335
 40
0.4331151964
 40
0.4958427636
 40
0.5587116368
 40
0.6216909416
 40
0.6847475563
 40
0.7478483251
 40
0.8109582777
 40
0.8740423262
 40
0.9370672663
 40
1.0
 40
1.0
 40
1.0
 40
1.0
 10
11.4695346947
 20
7.6112525989
 30
0.0
 10
11.469519082
 20
7.6158571901
 30
0.0
 10
11.4691858279
 20
7.6250886151
 30
0.0
 10
11.4677925743
 20
7.6389025001
 30
0.0
 10
11.4655091711
 20
7.652658491
 30
0.0
 10
11.4623443658
 20
7.6662971061
 30
0.0
 10
11.458314667
 20
7.679761567
 30
0.0
 10
11.4534339937
 20
7.6929938539
 30
0.0
 10
11.4477246894
 20
7.7059382935
 30
0.0
 10
11.4412119683
 20
7.7185407164
 30
0.0
 10
11.4339205922
 20
7.7307461312
 30
0.0
 10
11.4258844315
 20
7.7425045074
 30
0.0
 10
11.4171362754
 20
7.7537654081
 30
0.0
 10
11.4077122732
 20
7.7644801471
 30
0.0
 10
11.3976548013
 20
7.7746054839
 30
0.0
 10
11.3870040274
 20
7.7840964737
 30
0.0
 10
11.3758065599
 20
7.792913342
 30
0.0
 10
11.3680006378
 20
7.7983235238
 30
0.0
 10
11.364022291
 20
7.8009036782
 30
0.0
  0
LINE
  5
2C2
100
AcDbEntity
  8
0
100
AcDbLine
 62
7
  6
CONTINUOUS
 10
11.364022291
 20
7.8009036782
 11
11.3637670242
 21
7.8010689931
  0
SPLINE
  5
2C3
100
AcDbEntity
  8
0
100
AcDbSpline
 62
7
  6
CONTINUOUS
 70
0
 71
3
 72
14
 73
10
 74
0
 42
0.0000001
 43
0.0000001
 44
0.0000000001
 40
0.0
 40
0.0
 40
0.0
 40
0.0
 40
0.2524683501
 40
0.37822438
 40
0.5035561126
 40
0.6284438742
 40
0.7528706101
 40
0.8767610755
 40
1.0
 40
1.0
 40
1.0
 40
1.0
 10
11.3637670242
 20
7.8010689931
 30
0.0
 10
11.3557970228
 20
7.8062230679
 30
0.0
 10
11.3433639507
 20
7.8132205083
 30
0.0
 10
11.3260664913
 20
7.8209332752
 30
0.0
 10
11.3128129818
 20
7.8258741923
 30
0.0
 10
11.2993238097
 20
7.8299575084
 30
0.0
 10
11.2856544881
 20
7.833162586
 30
0.0
 10
11.2718701036
 20
7.8354774084
 30
0.0
 10
11.2626201015
 20
7.8364242432
 30
0.0
 10
11.2579981399
 20
7.8367447773
 30
0.0
  0
SPLINE
  5
2C4
100
AcDbEntity
  8
0
100
AcDbSpline
 62
7
  6
CONTINUOUS
 70
0
 71
3
 72
20
 73
16
 74
0
 42
0.0000001
 43
0.0000001
 44
0.0000000001
 40
0.0
 40
0.0
 40
0.0
 40
0.0
 40
0.064283381
 40
0.1284469336
 40
0.1924130566
 40
0.2561327067
 40
0.3195962377
 40
0.3827990426
 40
0.5083222639
 40
0.6327140719
 40
0.6945237837
 40
0.7560701403
 40
0.81738136
 40
0.8784876953
 40
1.0
 40
1.0
 40
1.0
 40
1.0
 10
11.1814845409
 20
7.6233162859
 30
0.0
 10
11.1795075148
 20
7.6268777029
 30
0.0
 10
11.175776185
 20
7.6341180506
 30
0.0
 10
11.1708678912
 20
7.6452869504
 30
0.0
 10
11.1666763197
 20
7.6567067778
 30
0.0
 10
11.1632238678
 20
7.6683248762
 30
0.0
 10
11.1605221248
 20
7.6800911363
 30
0.0
 10
11.1579449037
 20
7.6958712273
 30
0.0
 10
11.1566351673
 20
7.7157280579
 30
0.0
 10
11.1579276457
 20
7.7355001636
 30
0.0
 10
11.1605123793
 20
7.7509947745
 30
0.0
 10
11.163211633
 20
7.7623900601
 30
0.0
 10
11.1666627801
 20
7.7735347125
 30
0.0
 10
11.1722370631
 20
7.7879599435
 30
0.0
 10
11.1775161241
 20
7.7983120632
 30
0.0
 10
11.1814845409
 20
7.804910352
 30
0.0
  0
SPLINE
  5
2C5
100
AcDbEntity
  8
0
100
AcDbSpline
 62
7
  6
CONTINUOUS
 70
0
 71
3
 72
22
 73
18
 74
0
 42
0.0000001
 43
0.0000001
 44
0.0000000001
 40
0.0
 40
0.0
 40
0.0
 40
0.0
 40
0.1225783061
 40
0.1843271989
 40
0.2463048976
 40
0.3085027642
 40
0.3709108754
 40
0.4335077155
 40
0.4962624701
 40
0.5591432843
 40
0.622115833
 40
0.6851434569
 40
0.7481951323
 40
0.8112474555
 40
0.8742753569
 40
0.9372202319
 40
1.0
 40
1.0
 40
1.0
 40
1.0
 10
11.3387496154
 20
7.5216128829
 30
0.0
 10
11.3307973468
 20
7.5221643746
 30
0.0
 10
11.3188756002
 20
7.5237809176
 30
0.0
 10
11.3032743369
 20
7.5274392899
 30
0.0
 10
11.2916936257
 20
7.5309448429
 30
0.0
 10
11.2803170161
 20
7.5351859891
 30
0.0
 10
11.26919108
 20
7.5401470916
 30
0.0
 10
11.258362553
 20
7.5458057961
 30
0.0
 10
11.2478772092
 20
7.5521372967
 30
0.0
 10
11.2377820662
 20
7.559117002
 30
0.0
 10
11.2281188604
 20
7.5667120312
 30
0.0
 10
11.2189292779
 20
7.5748905106
 30
0.0
 10
11.2102530338
 20
7.5836189549
 30
0.0
 10
11.2021247383
 20
7.5928598364
 30
0.0
 10
11.1945816889
 20
7.6025757375
 30
0.0
 10
11.1876569732
 20
7.612719493
 30
0.0
 10
11.1834660579
 20
7.6197467792
 30
0.0
 10
11.1814845409
 20
7.6233162859
 30
0.0
  0
SPLINE
  5
2C6
100
AcDbEntity
  8
0
100
AcDbSpline
 62
7
  6
CONTINUOUS
 70
0
 71
3
 72
15
 73
11
 74
0
 42
0.0000001
 43
0.0000001
 44
0.0000000001
 40
0.0
 40
0.0
 40
0.0
 40
0.0
 40
0.1389375432
 40
0.2781365294
 40
0.4159442255
 40
0.5496461298
 40
0.676135728
 40
0.7933333011
 40
0.9009506095
 40
1.0
 40
1.0
 40
1.0
 40
1.0
 10
11.0488073483
 20
7.6402279097
 30
0.0
 10
11.0539985037
 20
7.6480948714
 30
0.0
 10
11.0643422081
 20
7.663875622
 30
0.0
 10
11.0796218396
 20
7.687598197
 30
0.0
 10
11.0944675449
 20
7.711176321
 30
0.0
 10
11.1085606849
 20
7.7342071328
 30
0.0
 10
11.1215965125
 20
7.7562426291
 30
0.0
 10
11.1334003044
 20
7.7769473967
 30
0.0
 10
11.1439769338
 20
7.7962055574
 30
0.0
 10
11.1505439362
 20
7.8085930452
 30
0.0
 10
11.1536507312
 20
7.8145510625
 30
0.0
  0
SPLINE
  5
2C7
100
AcDbEntity
  8
0
100
AcDbSpline
 62
7
  6
CONTINUOUS
 70
0
 71
3
 72
23
 73
19
 74
0
 42
0.0000001
 43
0.0000001
 44
0.0000000001
 40
0.0
 40
0.0
 40
0.0
 40
0.0
 40
0.0616482049
 40
0.1233194645
 40
0.1850366601
 40
0.2468215803
 40
0.3086958874
 40
0.3706805387
 40
0.4327949852
 40
0.4950576208
 40
0.5574833124
 40
0.620084195
 40
0.682872566
 40
0.7458647459
 40
0.8090766705
 40
0.8725171946
 40
0.9361676357
 40
1.0
 40
1.0
 40
1.0
 40
1.0
 10
10.8751384326
 20
8.0381468812
 30
0.0
 10
10.8814563332
 20
8.044249733
 30
0.0
 10
10.8944251929
 20
8.0561206823
 30
0.0
 10
10.9148128133
 20
8.0728574782
 30
0.0
 10
10.9360850839
 20
8.0884885514
 30
0.0
 10
10.9581874832
 20
8.10297447
 30
0.0
 10
10.9810664809
 20
8.116275807
 30
0.0
 10
11.00466277
 20
8.1283617055
 30
0.0
 10
11.0289171069
 20
8.1392022371
 30
0.0
 10
11.0537697015
 20
8.1487665958
 30
0.0
 10
11.0791560297
 20
8.1570340049
 30
0.0
 10
11.1050116493
 20
8.1639842226
 30
0.0
 10
11.131272707
 20
8.1695965929
 30
0.0
 10
11.1578742816
 20
8.1738596777
 30
0.0
 10
11.1847517942
 20
8.1767626031
 30
0.0
 10
11.2118361774
 20
8.1782943678
 30
0.0
 10
11.2390508614
 20
8.1784564007
 30
0.0
 10
11.2572068052
 20
8.177652527
 30
0.0
 10
11.2662803425
 20
8.1770232751
 30
0.0
  0
SPLINE
  5
2C8
100
AcDbEntity
  8
0
100
AcDbSpline
 62
7
  6
CONTINUOUS
 70
0
 71
3
 72
16
 73
12
 74
0
 42
0.0000001
 43
0.0000001
 44
0.0000000001
 40
0.0
 40
0.0
 40
0.0
 40
0.0
 40
0.1246775626
 40
0.2522043928
 40
0.3819697647
 40
0.512346339
 40
0.6409165119
 40
0.7655319355
 40
0.8851986419
 40
0.9431796369
 40
1.0
 40
1.0
 40
1.0
 40
1.0
 10
11.1536507312
 20
7.4513629303
 30
0.0
 10
11.1506281563
 20
7.4598693983
 30
0.0
 10
11.1442776093
 20
7.4769943547
 30
0.0
 10
11.1337793561
 20
7.5025886032
 30
0.0
 10
11.1220434912
 20
7.5280982178
 30
0.0
 10
11.1090367073
 20
7.5530720929
 30
0.0
 10
11.0949178433
 20
7.5770033386
 30
0.0
 10
11.0800063017
 20
7.5995218593
 30
0.0
 10
11.0670782139
 20
7.6171903872
 30
0.0
 10
11.0566457283
 20
7.6305847496
 30
0.0
 10
11.0514198015
 20
7.6370496083
 30
0.0
 10
11.0488073483
 20
7.6402279097
 30
0.0
  0
SPLINE
  5
2C9
100
AcDbEntity
  8
0
100
AcDbSpline
 62
7
  6
CONTINUOUS
 70
0
 71
3
 72
13
 73
9
 74
0
 42
0.0000001
 43
0.0000001
 44
0.0000000001
 40
0.0
 40
0.0
 40
0.0
 40
0.0
 40
0.1379287965
 40
0.272663193
 40
0.5305718957
 40
0.7725714046
 40
0.8879771085
 40
1.0
 40
1.0
 40
1.0
 40
1.0
 10
11.2660215237
 20
7.4513629367
 30
0.0
 10
11.2705391468
 20
7.4510496385
 30
0.0
 10
11.2794636594
 20
7.4503373357
 30
0.0
 10
11.2967959004
 20
7.4485833888
 30
0.0
 10
11.3174558058
 20
7.4458245322
 30
0.0
 10
11.3373595208
 20
7.4423355378
 30
0.0
 10
11.3524619124
 20
7.4392576621
 30
0.0
 10
11.3597527645
 20
7.437643828
 30
0.0
 10
11.3633374971
 20
7.4368211037
 30
0.0
  0
SPLINE
  5
2CA
100
AcDbEntity
  8
0
100
AcDbSpline
 62
7
  6
CONTINUOUS
 70
0
 71
3
 72
14
 73
10
 74
0
 42
0.0000001
 43
0.0000001
 44
0.0000000001
 40
0.0
 40
0.0
 40
0.0
 40
0.0
 40
0.2489100079
 40
0.3744249398
 40
0.5003613314
 40
0.6264089266
 40
0.7521065273
 40
0.8768864172
 40
1.0
 40
1.0
 40
1.0
 40
1.0
 10
11.1536507312
 20
7.4513629303
 30
0.0
 10
11.162966783
 20
7.4518563404
 30
0.0
 10
11.1769883413
 20
7.4524665542
 30
0.0
 10
11.1957361731
 20
7.45294303
 30
0.0
 10
11.2098843046
 20
7.4531099149
 30
0.0
 10
11.2240402633
 20
7.4530599595
 30
0.0
 10
11.2381501968
 20
7.452772501
 30
0.0
 10
11.2521425044
 20
7.4522267851
 30
0.0
 10
11.2614183017
 20
7.4516821713
 30
0.0
 10
11.2660215237
 20
7.4513629367
 30
0.0
  0
SPLINE
  5
2CB
100
AcDbEntity
  8
0
100
AcDbSpline
 62
7
  6
CONTINUOUS
 70
0
 71
3
 72
66
 73
62
 74
0
 42
0.0000001
 43
0.0000001
 44
0.0000000001
 40
0.0
 40
0.0
 40
0.0
 40
0.0
 40
0.0313892319
 40
0.0471734483
 40
0.0630045494
 40
0.0947922188
 40
0.1107556328
 40
0.126758753
 40
0.1427973822
 40
0.1588672385
 40
0.174964115
 40
0.1910835842
 40
0.2072211173
 40
0.2233719516
 40
0.2395310416
 40
0.2556933588
 40
0.2718539342
 40
0.2880076864
 40
0.3041496364
 40
0.32027501
 40
0.3363790385
 40
0.3524571444
 40
0.368505122
 40
0.3845189036
 40
0.4004946911
 40
0.4164291943
 40
0.4323193802
 40
0.4481625505
 40
0.4639566204
 40
0.4796998632
 40
0.4953909309
 40
0.5110291558
 40
0.5266142955
 40
0.542146505
 40
0.5576266393
 40
0.5730560022
 40
0.5884362808
 40
0.6037698305
 40
0.619059427
 40
0.6343081765
 40
0.6495197715
 40
0.6646982401
 40
0.6798478494
 40
0.6949733256
 40
0.7100795921
 40
0.7251716853
 40
0.7402549452
 40
0.7553347395
 40
0.7704164033
 40
0.7855053917
 40
0.8006069684
 40
0.8157262041
 40
0.83086817
 40
0.8460376768
 40
0.8612392288
 40
0.8764770253
 40
0.9070640933
 40
0.9378335392
 40
0.9533006817
 40
0.9688224861
 40
1.0
 40
1.0
 40
1.0
 40
1.0
 10
11.2579981399
 20
8.1381136529
 30
0.0
 10
11.2748300192
 20
8.1369463581
 30
0.0
 10
11.3000611129
 20
8.1339462992
 30
0.0
 10
11.3333246587
 20
8.1275368775
 30
0.0
 10
11.3664523241
 20
8.1194886719
 30
0.0
 10
11.3990597669
 20
8.1090504607
 30
0.0
 10
11.4308882882
 20
8.0963242272
 30
0.0
 10
11.4543827559
 20
8.0856304667
 30
0.0
 10
11.4774043033
 20
8.0738292701
 30
0.0
 10
11.4998964358
 20
8.0609458192
 30
0.0
 10
11.5218056782
 20
8.0470134535
 30
0.0
 10
11.5430801509
 20
8.0320664353
 30
0.0
 10
11.5636669352
 20
8.0161381943
 30
0.0
 10
11.5835177143
 20
7.999268796
 30
0.0
 10
11.6025855483
 20
7.9814996412
 30
0.0
 10
11.6208223099
 20
7.9628711835
 30
0.0
 10
11.6381852948
 20
7.9434296379
 30
0.0
 10
11.6546338847
 20
7.9232226554
 30
0.0
 10
11.6701260609
 20
7.9022968971
 30
0.0
 10
11.6846256554
 20
7.8807037368
 30
0.0
 10
11.6980992217
 20
7.8584959718
 30
0.0
 10
11.7105116878
 20
7.835725448
 30
0.0
 10
11.7218341256
 20
7.8124476684
 30
0.0
 10
11.7320410427
 20
7.7887193916
 30
0.0
 10
11.7411051106
 20
7.7645965237
 30
0.0
 10
11.749005221
 20
7.7401375752
 30
0.0
 10
11.7557244105
 20
7.7154019798
 30
0.0
 10
11.7612436965
 20
7.6904484844
 30
0.0
 10
11.7655502069
 20
7.6653374346
 30
0.0
 10
11.7686358978
 20
7.6401295954
 30
0.0
 10
11.7704905666
 20
7.614885267
 30
0.0
 10
11.7711098337
 20
7.5896654276
 30
0.0
 10
11.7704947603
 20
7.564530797
 30
0.0
 10
11.7686441686
 20
7.5395418994
 30
0.0
 10
11.7655622642
 20
7.5147591346
 30
0.0
 10
11.7612591907
 20
7.4902418014
 30
0.0
 10
11.7557428469
 20
7.4660493007
 30
0.0
 10
11.7490259527
 20
7.4422402555
 30
0.0
 10
11.7411275036
 20
7.4188711995
 30
0.0
 10
11.7320643265
 20
7.3959990726
 30
0.0
 10
11.7218574224
 20
7.3736795519
 30
0.0
 10
11.7105342001
 20
7.3519651275
 30
0.0
 10
11.6981200597
 20
7.3309089781
 30
0.0
 10
11.6846438913
 20
7.3105627159
 30
0.0
 10
11.6701408903
 20
7.2909736048
 30
0.0
 10
11.6546444788
 20
7.2721898281
 30
0.0
 10
11.6381908783
 20
7.2542578786
 30
0.0
 10
11.6208222325
 20
7.2372187485
 30
0.0
 10
11.6025792088
 20
7.221114511
 30
0.0
 10
11.5835046713
 20
7.2059855882
 30
0.0
 10
11.5636468226
 20
7.1918657853
 30
0.0
 10
11.5430527222
 20
7.1787900449
 30
0.0
 10
11.5217709011
 20
7.1667918162
 30
0.0
 10
11.4998544444
 20
7.1558971509
 30
0.0
 10
11.4773547076
 20
7.1461329627
 30
0.0
 10
11.4466168029
 20
7.1346435076
 30
0.0
 10
11.4069825461
 20
7.1232196285
 30
0.0
 10
11.3662740195
 20
7.1158608627
 30
0.0
 10
11.3332436147
 20
7.1124228786
 30
0.0
 10
11.2998662952
 20
7.1106264771
 30
0.0
 10
11.2747164895
 20
7.1111409432
 30
0.0
 10
11.2579981399
 20
7.1123003646
 30
0.0
  0
SPLINE
  5
2CC
100
AcDbEntity
  8
0
100
AcDbSpline
 62
7
  6
CONTINUOUS
 70
0
 71
3
 72
48
 73
44
 74
0
 42
0.0000001
 43
0.0000001
 44
0.0000000001
 40
0.0
 40
0.0
 40
0.0
 40
0.0
 40
0.0310641289
 40
0.0466623032
 40
0.0622976282
 40
0.0779662267
 40
0.0936665963
 40
0.1093984811
 40
0.1251614885
 40
0.1567739125
 40
0.1884967449
 40
0.2043964948
 40
0.2203175331
 40
0.2522108023
 40
0.2681828666
 40
0.2841674683
 40
0.3161605366
 40
0.3481743355
 40
0.380188979
 40
0.4121843742
 40
0.4441409293
 40
0.4760396708
 40
0.5078625487
 40
0.5395930816
 40
0.5712161079
 40
0.6027188151
 40
0.6184237047
 40
0.6340946027
 40
0.6653263084
 40
0.6808901082
 40
0.6964169838
 40
0.7273545292
 40
0.7427697494
 40
0.7581479226
 40
0.7887904552
 40
0.8192923625
 40
0.834495533
 40
0.8496669669
 40
0.8799154749
 40
0.9100562917
 40
0.9401052937
 40
0.9700800588
 40
1.0
 40
1.0
 40
1.0
 40
1.0
 10
11.2662803425
 20
8.1770232751
 30
0.0
 10
11.2789150179
 20
8.1761470574
 30
0.0
 10
11.2978564379
 20
8.1741694566
 30
0.0
 10
11.3229531044
 20
8.1702407302
 30
0.0
 10
11.3417375066
 20
8.1666405458
 30
0.0
 10
11.3604287125
 20
8.1623940507
 30
0.0
 10
11.3790035071
 20
8.157507055
 30
0.0
 10
11.3974402448
 20
8.1519864071
 30
0.0
 10
11.4218308216
 20
8.1437827599
 30
0.0
 10
11.4518661492
 20
8.1319713282
 30
0.0
 10
11.481103136
 20
8.118173212
 30
0.0
 10
11.5039616175
 20
8.105971406
 30
0.0
 10
11.5264658532
 20
8.0929892696
 30
0.0
 10
11.5483449671
 20
8.0788907713
 30
0.0
 10
11.5695149257
 20
8.0637353382
 30
0.0
 10
11.5902117827
 20
8.0478722722
 30
0.0
 10
11.6151167037
 20
8.0267778344
 30
0.0
 10
11.6433052612
 20
7.9995727123
 30
0.0
 10
11.6696694245
 20
7.9705938153
 30
0.0
 10
11.694085713
 20
7.9399857697
 30
0.0
 10
11.7164307311
 20
7.9078918443
 30
0.0
 10
11.7366027668
 20
7.8744714167
 30
0.0
 10
11.7544975372
 20
7.8398818346
 30
0.0
 10
11.7700351771
 20
7.8042934174
 30
0.0
 10
11.7831340578
 20
7.7678762146
 30
0.0
 10
11.7919787177
 20
7.7369503019
 30
0.0
 10
11.7977746333
 20
7.7119737161
 30
0.0
 10
11.8027005487
 20
7.6869241829
 30
0.0
 10
11.8063420336
 20
7.6616942686
 30
0.0
 10
11.8086743634
 20
7.6363882042
 30
0.0
 10
11.8101260703
 20
7.611136615
 30
0.0
 10
11.8102679198
 20
7.5858841987
 30
0.0
 10
11.8090905026
 20
7.5607395591
 30
0.0
 10
11.8070401811
 20
7.5357712268
 30
0.0
 10
11.8028444884
 20
7.504828103
 30
0.0
 10
11.7964742845
 20
7.4743306316
 30
0.0
 10
11.7900939153
 20
7.4503401154
 30
0.0
 10
11.7828836673
 20
7.426694032
 30
0.0
 10
11.772304576
 20
7.3977294196
 30
0.0
 10
11.7571451814
 20
7.3640823791
 30
0.0
 10
11.739612108
 20
7.3317338232
 30
0.0
 10
11.7197851501
 20
7.3008475575
 30
0.0
 10
11.7050914193
 20
7.2813103938
 30
0.0
 10
11.697401316
 20
7.271841157
 30
0.0
  0
SPLINE
  5
2CD
100
AcDbEntity
  8
0
100
AcDbSpline
 62
7
  6
CONTINUOUS
 70
0
 71
3
 72
55
 73
51
 74
0
 42
0.0000001
 43
0.0000001
 44
0.0000000001
 40
0.0
 40
0.0
 40
0.0
 40
0.0
 40
0.0311423829
 40
0.0624377778
 40
0.093880312
 40
0.125460263
 40
0.1571654449
 40
0.188981101
 40
0.2208902864
 40
0.2528742194
 40
0.2849126594
 40
0.3169843077
 40
0.3490672249
 40
0.3811392539
 40
0.4131784475
 40
0.4451634934
 40
0.4770741292
 40
0.5088915435
 40
0.5247623142
 40
0.5406035882
 40
0.5564135909
 40
0.5721906992
 40
0.587933461
 40
0.6036405973
 40
0.6193110081
 40
0.6349437882
 40
0.6505382227
 40
0.666093798
 40
0.6816102083
 40
0.6970873494
 40
0.7125253318
 40
0.7279244759
 40
0.7432853089
 40
0.7586085732
 40
0.7738952136
 40
0.7891463785
 40
0.8043634177
 40
0.8195478679
 40
0.8347014538
 40
0.8498260762
 40
0.8649237983
 40
0.8799968426
 40
0.8950475728
 40
0.9100784807
 40
0.925092178
 40
0.940091374
 40
0.9550788642
 40
0.9700575152
 40
0.9850302429
 40
1.0
 40
1.0
 40
1.0
 40
1.0
 10
11.3092442686
 20
8.3238091646
 30
0.0
 10
11.3250947276
 20
8.3227099315
 30
0.0
 10
11.3568048594
 20
8.3193458773
 30
0.0
 10
11.4039856099
 20
8.3108717133
 30
0.0
 10
11.4506610107
 20
8.2990019997
 30
0.0
 10
11.4965789954
 20
8.2838005136
 30
0.0
 10
11.54149559
 20
8.2653487031
 30
0.0
 10
11.5851712125
 20
8.24374532
 30
0.0
 10
11.6273732057
 20
8.2191058166
 30
0.0
 10
11.6678766821
 20
8.1915617291
 30
0.0
 10
11.7064658193
 20
8.1612600079
 30
0.0
 10
11.7429350281
 20
8.1283623017
 30
0.0
 10
11.7770899686
 20
8.0930440141
 30
0.0
 10
11.8087485833
 20
8.0554933436
 30
0.0
 10
11.8377420238
 20
8.0159104965
 30
0.0
 10
11.8639158369
 20
7.9745060229
 30
0.0
 10
11.8871298047
 20
7.9315020116
 30
0.0
 10
11.90392127
 20
7.8944864662
 30
0.0
 10
11.9157544615
 20
7.8643058654
 30
0.0
 10
11.9238132274
 20
7.841433604
 30
0.0
 10
11.9310513616
 20
7.8183389011
 30
0.0
 10
11.9374592361
 20
7.795052209
 30
0.0
 10
11.9430283656
 20
7.7716047383
 30
0.0
 10
11.9477512588
 20
7.7480277468
 30
0.0
 10
11.9516215454
 20
7.7243527087
 30
0.0
 10
11.9546341639
 20
7.7006112462
 30
0.0
 10
11.9567849552
 20
7.6768350382
 30
0.0
 10
11.9580710806
 20
7.6530558368
 30
0.0
 10
11.9584908624
 20
7.6293053907
 30
0.0
 10
11.9580435909
 20
7.6056154114
 30
0.0
 10
11.9567299705
 20
7.5820175332
 30
0.0
 10
11.9545516986
 20
7.5585432664
 30
0.0
 10
11.9515115975
 20
7.5352239711
 30
0.0
 10
11.9476138396
 20
7.5120907749
 30
0.0
 10
11.9428634992
 20
7.4891745925
 30
0.0
 10
11.9372669334
 20
7.4665060332
 30
0.0
 10
11.9308316726
 20
7.4441153573
 30
0.0
 10
11.9235661631
 20
7.4220325165
 30
0.0
 10
11.9154802051
 20
7.4002869815
 30
0.0
 10
11.9065845666
 20
7.3789078084
 30
0.0
 10
11.8968910363
 20
7.3579236016
 30
0.0
 10
11.8864126776
 20
7.3373623434
 30
0.0
 10
11.8751633848
 20
7.3172515543
 30
0.0
 10
11.8631581863
 20
7.2976181099
 30
0.0
 10
11.8504131931
 20
7.2784881984
 30
0.0
 10
11.8369453035
 20
7.2598874576
 30
0.0
 10
11.8227726151
 20
7.2418407135
 30
0.0
 10
11.8079139746
 20
7.2243719891
 30
0.0
 10
11.792389475
 20
7.2075050347
 30
0.0
 10
11.7816086477
 20
7.1966753556
 30
0.0
 10
11.7761154081
 20
7.1913692754
 30
0.0
  0
SPLINE
  5
2CE
100
AcDbEntity
  8
0
100
AcDbSpline
 62
7
  6
CONTINUOUS
 70
0
 71
3
 72
60
 73
56
 74
0
 42
0.0000001
 43
0.0000001
 44
0.0000000001
 40
0.0
 40
0.0
 40
0.0
 40
0.0
 40
0.0417736946
 40
0.084036273
 40
0.1266574884
 40
0.1695051326
 40
0.2124463996
 40
0.2553480056
 40
0.2980768578
 40
0.340500534
 40
0.3824878216
 40
0.423909243
 40
0.4646375902
 40
0.5045484653
 40
0.5435208314
 40
0.5814375809
 40
0.5999649312
 40
0.618186568
 40
0.6360891978
 40
0.6536599534
 40
0.6708862834
 40
0.6877561191
 40
0.7042577531
 40
0.72038001
 40
0.7361121415
 40
0.751443978
 40
0.7663658649
 40
0.7808687762
 40
0.7949443138
 40
0.8085847706
 40
0.8217832093
 40
0.8345334736
 40
0.8468303542
 40
0.8586695603
 40
0.8700479747
 40
0.8809636125
 40
0.8914159615
 40
0.9014059734
 40
0.910936483
 40
0.9200122954
 40
0.9286406842
 40
0.9368316446
 40
0.9445984841
 40
0.9519582967
 40
0.958932651
 40
0.9655482683
 40
0.9718377143
 40
0.9778400536
 40
0.9836011758
 40
0.9864084793
 40
0.9891757987
 40
0.9919106634
 40
0.9946209114
 40
0.9973146136
 40
1.0
 40
1.0
 40
1.0
 40
1.0
 10
13.7347217867
 20
8.141538558
 30
0.0
 10
13.7347217867
 20
8.1579557392
 30
0.0
 10
13.7349779118
 20
8.1909827503
 30
0.0
 10
13.7361101978
 20
8.2407483529
 30
0.0
 10
13.7379895109
 20
8.2909137897
 30
0.0
 10
13.7406096949
 20
8.3413130171
 30
0.0
 10
13.7439620882
 20
8.3917792758
 30
0.0
 10
13.7480356109
 20
8.4421456153
 30
0.0
 10
13.7528167684
 20
8.4922454001
 30
0.0
 10
13.7582897113
 20
8.541912889
 30
0.0
 10
13.7644362815
 20
8.590983778
 30
0.0
 10
13.7712360731
 20
8.6392957548
 30
0.0
 10
13.7786665006
 20
8.6866890242
 30
0.0
 10
13.7867028634
 20
8.7330069029
 30
0.0
 10
13.795318458
 20
8.778096129
 30
0.0
 10
13.8030148162
 20
8.8147991672
 30
0.0
 10
13.8094486786
 20
8.8434293913
 30
0.0
 10
13.8143634692
 20
8.8643381349
 30
0.0
 10
13.8194006816
 20
8.8848307959
 30
0.0
 10
13.8245560941
 20
8.9048904443
 30
0.0
 10
13.8298254972
 20
8.9245004824
 30
0.0
 10
13.8352044506
 20
8.9436447014
 30
0.0
 10
13.8406885639
 20
8.9623072685
 30
0.0
 10
13.8462732234
 20
8.9804727641
 30
0.0
 10
13.8519538563
 20
8.9981261713
 30
0.0
 10
13.8577257031
 20
9.0152529125
 30
0.0
 10
13.8635840146
 20
9.03183884
 30
0.0
 10
13.8695239107
 20
9.0478702671
 30
0.0
 10
13.8755404758
 20
9.0633339675
 30
0.0
 10
13.8816287333
 20
9.0782171917
 30
0.0
 10
13.8877836158
 20
9.0925076862
 30
0.0
 10
13.8940000734
 20
9.1061936826
 30
0.0
 10
13.9002729089
 20
9.1192639498
 30
0.0
 10
13.9065970212
 20
9.1317077433
 30
0.0
 10
13.9129671161
 20
9.1435149017
 30
0.0
 10
13.9193780657
 20
9.1546757461
 30
0.0
 10
13.9258245264
 20
9.165181227
 30
0.0
 10
13.9323013744
 20
9.1750227711
 30
0.0
 10
13.9388032885
 20
9.1841924708
 30
0.0
 10
13.9453251968
 20
9.1926828885
 30
0.0
 10
13.9518619011
 20
9.2004872595
 30
0.0
 10
13.9584084608
 20
9.2075992774
 30
0.0
 10
13.9649599301
 20
9.2140132518
 30
0.0
 10
13.9715116007
 20
9.2197239078
 30
0.0
 10
13.9780588984
 20
9.2247264119
 30
0.0
 10
13.9845973355
 20
9.2290162273
 30
0.0
 10
13.9911227323
 20
9.2325889607
 30
0.0
 10
13.9976299753
 20
9.2354402843
 30
0.0
 10
14.0030815795
 20
9.2372270228
 30
0.0
 10
14.007412425
 20
9.2382789287
 30
0.0
 10
14.010624069
 20
9.2388794509
 30
0.0
 10
14.013825987
 20
9.23929791
 30
0.0
 10
14.0170175563
 20
9.2395342271
 30
0.0
 10
14.020197876
 20
9.23958834
 30
0.0
 10
14.0223115253
 20
9.2395028449
 30
0.0
 10
14.0233643611
 20
9.2394298302
 30
0.0
  0
SPLINE
  5
2CF
100
AcDbEntity
  8
0
100
AcDbSpline
 62
7
  6
CONTINUOUS
 70
0
 71
3
 72
60
 73
56
 74
0
 42
0.0000001
 43
0.0000001
 44
0.0000000001
 40
0.0
 40
0.0
 40
0.0
 40
0.0
 40
0.0417736946
 40
0.084036273
 40
0.1266574884
 40
0.1695051326
 40
0.2124463996
 40
0.2553480056
 40
0.2980768578
 40
0.340500534
 40
0.3824878216
 40
0.423909243
 40
0.4646375902
 40
0.5045484653
 40
0.5435208314
 40
0.5814375809
 40
0.5999649312
 40
0.618186568
 40
0.6360891978
 40
0.6536599534
 40
0.6708862834
 40
0.6877561191
 40
0.7042577531
 40
0.72038001
 40
0.7361121415
 40
0.751443978
 40
0.7663658649
 40
0.7808687762
 40
0.7949443138
 40
0.8085847706
 40
0.8217832093
 40
0.8345334736
 40
0.8468303542
 40
0.8586695603
 40
0.8700479747
 40
0.8809636125
 40
0.8914159615
 40
0.9014059734
 40
0.910936483
 40
0.9200122954
 40
0.9286406842
 40
0.9368316446
 40
0.9445984841
 40
0.9519582967
 40
0.958932651
 40
0.9655482683
 40
0.9718377143
 40
0.9778400536
 40
0.9836011758
 40
0.9864084793
 40
0.9891757987
 40
0.9919106634
 40
0.9946209114
 40
0.9973146136
 40
1.0
 40
1.0
 40
1.0
 40
1.0
 10
13.1363327006
 20
7.5635390513
 30
0.0
 10
13.1363327006
 20
7.5799562325
 30
0.0
 10
13.1365888256
 20
7.6129832436
 30
0.0
 10
13.1377211117
 20
7.6627488462
 30
0.0
 10
13.1396004248
 20
7.712914283
 30
0.0
 10
13.1422206088
 20
7.7633135104
 30
0.0
 10
13.1455730021
 20
7.8137797691
 30
0.0
 10
13.1496465248
 20
7.8641461086
 30
0.0
 10
13.1544276823
 20
7.9142458934
 30
0.0
 10
13.1599006252
 20
7.9639133823
 30
0.0
 10
13.1660471954
 20
8.0129842713
 30
0.0
 10
13.172846987
 20
8.0612962481
 30
0.0
 10
13.1802774144
 20
8.1086895175
 30
0.0
 10
13.1883137773
 20
8.1550073962
 30
0.0
 10
13.1969293719
 20
8.2000966223
 30
0.0
 10
13.20462573
 20
8.2367996605
 30
0.0
 10
13.2110595925
 20
8.2654298846
 30
0.0
 10
13.2159743831
 20
8.2863386282
 30
0.0
 10
13.2210115955
 20
8.3068312892
 30
0.0
 10
13.226167008
 20
8.3268909376
 30
0.0
 10
13.2314364111
 20
8.3465009757
 30
0.0
 10
13.2368153645
 20
8.3656451947
 30
0.0
 10
13.2422994778
 20
8.3843077618
 30
0.0
 10
13.2478841373
 20
8.4024732574
 30
0.0
 10
13.2535647702
 20
8.4201266646
 30
0.0
 10
13.259336617
 20
8.4372534058
 30
0.0
 10
13.2651949285
 20
8.4538393333
 30
0.0
 10
13.2711348246
 20
8.4698707604
 30
0.0
 10
13.2771513897
 20
8.4853344608
 30
0.0
 10
13.2832396472
 20
8.500217685
 30
0.0
 10
13.2893945297
 20
8.5145081795
 30
0.0
 10
13.2956109872
 20
8.5281941759
 30
0.0
 10
13.3018838227
 20
8.5412644431
 30
0.0
 10
13.3082079351
 20
8.5537082366
 30
0.0
 10
13.31457803
 20
8.565515395
 30
0.0
 10
13.3209889796
 20
8.5766762394
 30
0.0
 10
13.3274354403
 20
8.5871817203
 30
0.0
 10
13.3339122883
 20
8.5970232644
 30
0.0
 10
13.3404142024
 20
8.6061929641
 30
0.0
 10
13.3469361107
 20
8.6146833818
 30
0.0
 10
13.3534728149
 20
8.6224877528
 30
0.0
 10
13.3600193747
 20
8.6295997707
 30
0.0
 10
13.366570844
 20
8.6360137451
 30
0.0
 10
13.3731225146
 20
8.6417244011
 30
0.0
 10
13.3796698123
 20
8.6467269052
 30
0.0
 10
13.3862082494
 20
8.6510167207
 30
0.0
 10
13.3927336462
 20
8.654589454
 30
0.0
 10
13.3992408892
 20
8.6574407776
 30
0.0
 10
13.4046924933
 20
8.6592275161
 30
0.0
 10
13.4090233389
 20
8.660279422
 30
0.0
 10
13.4122349828
 20
8.6608799442
 30
0.0
 10
13.4154369009
 20
8.6612984033
 30
0.0
 10
13.4186284701
 20
8.6615347204
 30
0.0
 10
13.4218087899
 20
8.6615888333
 30
0.0
 10
13.4239224392
 20
8.6615033382
 30
0.0
 10
13.424975275
 20
8.6614303236
 30
0.0
  0
SPLINE
  5
2D0
100
AcDbEntity
  8
0
100
AcDbSpline
 62
7
  6
CONTINUOUS
 70
0
 71
3
 72
52
 73
48
 74
0
 42
0.0000001
 43
0.0000001
 44
0.0000000001
 40
0.0
 40
0.0
 40
0.0
 40
0.0
 40
0.0417978167
 40
0.0840615308
 40
0.1266599452
 40
0.1694647093
 40
0.2123442471
 40
0.2551676124
 40
0.2978038023
 40
0.340122612
 40
0.381995097
 40
0.4232940911
 40
0.4638947378
 40
0.5036750193
 40
0.5425163039
 40
0.5803039261
 40
0.6169277796
 40
0.6522829323
 40
0.686270301
 40
0.7187974019
 40
0.7497792075
 40
0.7646667639
 40
0.7791400971
 40
0.7931911326
 40
0.8068125303
 40
0.8199977802
 40
0.8327410449
 40
0.8450376044
 40
0.8568835364
 40
0.868276178
 40
0.8792140523
 40
0.8896970245
 40
0.8997266904
 40
0.9093062438
 40
0.9184411643
 40
0.9271391635
 40
0.9354108014
 40
0.9432698937
 40
0.9507338843
 40
0.9578247196
 40
0.9645691193
 40
0.9709994962
 40
0.9771542504
 40
0.983078108
 40
0.9888220398
 40
0.9944424548
 40
1.0
 40
1.0
 40
1.0
 40
1.0
 10
9.2873642855
 20
10.3031281887
 30
0.0
 10
9.2937491766
 20
10.302685395
 30
0.0
 10
9.3065974196
 20
10.3018969518
 30
0.0
 10
9.3259723154
 20
10.3010070793
 30
0.0
 10
9.3455125909
 20
10.3004052557
 30
0.0
 10
9.3651539294
 20
10.3000934122
 30
0.0
 10
9.3848321776
 20
10.3000726166
 30
0.0
 10
9.404482767
 20
10.3003429187
 30
0.0
 10
9.4240413343
 20
10.3009034385
 30
0.0
 10
9.443443785
 20
10.3017523209
 30
0.0
 10
9.4626265495
 20
10.3028867609
 30
0.0
 10
9.4815267828
 20
10.3043030116
 30
0.0
 10
9.5000825721
 20
10.3059963955
 30
0.0
 10
9.5182331411
 20
10.3079613191
 30
0.0
 10
9.5359190534
 20
10.3101912919
 30
0.0
 10
9.5530824134
 20
10.31267894
 30
0.0
 10
9.5696670673
 20
10.3154160306
 30
0.0
 10
9.5856187748
 20
10.3183935063
 30
0.0
 10
9.6008854513
 20
10.3216015031
 30
0.0
 10
9.6154171496
 20
10.325029418
 30
0.0
 10
9.6270242175
 20
10.3280991407
 30
0.0
 10
9.6359014425
 20
10.330663556
 30
0.0
 10
9.6422580561
 20
10.332609109
 30
0.0
 10
9.6483968437
 20
10.3346008718
 30
0.0
 10
9.6543127967
 20
10.336637242
 30
0.0
 10
9.6600010962
 20
10.3387164967
 30
0.0
 10
9.6654570913
 20
10.3408370052
 30
0.0
 10
9.6706763588
 20
10.3429969516
 30
0.0
 10
9.6756546423
 20
10.345194638
 30
0.0
 10
9.6803879116
 20
10.3474282375
 30
0.0
 10
9.6848723412
 20
10.3496959306
 30
0.0
 10
9.689104292
 20
10.351995934
 30
0.0
 10
9.6930803931
 20
10.35432632
 30
0.0
 10
9.696797415
 20
10.3566853308
 30
0.0
 10
9.7002524279
 20
10.3590710278
 30
0.0
 10
9.7034426562
 20
10.3614816176
 30
0.0
 10
9.7063655548
 20
10.3639152707
 30
0.0
 10
9.7090188229
 20
10.3663701448
 30
0.0
 10
9.7114002317
 20
10.3688445681
 30
0.0
 10
9.7135078759
 20
10.3713367222
 30
0.0
 10
9.715339783
 20
10.3738450177
 30
0.0
 10
9.716894214
 20
10.3763677077
 30
0.0
 10
9.7181693985
 20
10.3789030753
 30
0.0
 10
9.7191635524
 20
10.3814492009
 30
0.0
 10
9.719875173
 20
10.3840039742
 30
0.0
 10
9.7203027011
 20
10.3865644817
 30
0.0
 10
9.7203979656
 20
10.38827757
 30
0.0
 10
9.7203979575
 20
10.3891285606
 30
0.0
  0
SPLINE
  5
2D1
100
AcDbEntity
  8
0
100
AcDbSpline
 62
7
  6
CONTINUOUS
 70
0
 71
3
 72
52
 73
48
 74
0
 42
0.0000001
 43
0.0000001
 44
0.0000000001
 40
0.0
 40
0.0
 40
0.0
 40
0.0
 40
0.0417978167
 40
0.0840615308
 40
0.1266599452
 40
0.1694647093
 40
0.2123442471
 40
0.2551676124
 40
0.2978038023
 40
0.340122612
 40
0.381995097
 40
0.4232940911
 40
0.4638947378
 40
0.5036750193
 40
0.5425163039
 40
0.5803039261
 40
0.6169277796
 40
0.6522829323
 40
0.686270301
 40
0.7187974019
 40
0.7497792075
 40
0.7646667639
 40
0.7791400971
 40
0.7931911326
 40
0.8068125303
 40
0.8199977802
 40
0.8327410449
 40
0.8450376044
 40
0.8568835364
 40
0.868276178
 40
0.8792140523
 40
0.8896970245
 40
0.8997266904
 40
0.9093062438
 40
0.9184411643
 40
0.9271391635
 40
0.9354108014
 40
0.9432698937
 40
0.9507338843
 40
0.9578247196
 40
0.9645691193
 40
0.9709994962
 40
0.9771542504
 40
0.983078108
 40
0.9888220398
 40
0.9944424548
 40
1.0
 40
1.0
 40
1.0
 40
1.0
 10
8.1879018672
 20
9.2411289809
 30
0.0
 10
8.1942867582
 20
9.2406861872
 30
0.0
 10
8.2071350013
 20
9.239897744
 30
0.0
 10
8.226509897
 20
9.2390078715
 30
0.0
 10
8.2460501726
 20
9.2384060479
 30
0.0
 10
8.2656915111
 20
9.2380942044
 30
0.0
 10
8.2853697593
 20
9.2380734088
 30
0.0
 10
8.3050203486
 20
9.2383437109
 30
0.0
 10
8.3245789159
 20
9.2389042307
 30
0.0
 10
8.3439813667
 20
9.2397531131
 30
0.0
 10
8.3631641312
 20
9.2408875531
 30
0.0
 10
8.3820643645
 20
9.2423038038
 30
0.0
 10
8.4006201538
 20
9.2439971877
 30
0.0
 10
8.4187707228
 20
9.2459621113
 30
0.0
 10
8.436456635
 20
9.2481920841
 30
0.0
 10
8.4536199951
 20
9.2506797322
 30
0.0
 10
8.470204649
 20
9.2534168228
 30
0.0
 10
8.4861563564
 20
9.2563942985
 30
0.0
 10
8.501423033
 20
9.2596022953
 30
0.0
 10
8.5159547313
 20
9.2630302102
 30
0.0
 10
8.5275617992
 20
9.2660999329
 30
0.0
 10
8.5364390242
 20
9.2686643482
 30
0.0
 10
8.5427956378
 20
9.2706099012
 30
0.0
 10
8.5489344254
 20
9.272601664
 30
0.0
 10
8.5548503784
 20
9.2746380342
 30
0.0
 10
8.5605386778
 20
9.2767172889
 30
0.0
 10
8.5659946729
 20
9.2788377974
 30
0.0
 10
8.5712139405
 20
9.2809977438
 30
0.0
 10
8.576192224
 20
9.2831954302
 30
0.0
 10
8.5809254933
 20
9.2854290297
 30
0.0
 10
8.5854099229
 20
9.2876967228
 30
0.0
 10
8.5896418737
 20
9.2899967262
 30
0.0
 10
8.5936179747
 20
9.2923271122
 30
0.0
 10
8.5973349967
 20
9.294686123
 30
0.0
 10
8.6007900096
 20
9.29707182
 30
0.0
 10
8.6039802379
 20
9.2994824097
 30
0.0
 10
8.6069031364
 20
9.3019160629
 30
0.0
 10
8.6095564045
 20
9.304370937
 30
0.0
 10
8.6119378133
 20
9.3068453603
 30
0.0
 10
8.6140454575
 20
9.3093375143
 30
0.0
 10
8.6158773647
 20
9.3118458099
 30
0.0
 10
8.6174317956
 20
9.3143684999
 30
0.0
 10
8.6187069802
 20
9.3169038675
 30
0.0
 10
8.6197011341
 20
9.3194499931
 30
0.0
 10
8.6204127546
 20
9.3220047664
 30
0.0
 10
8.6208402828
 20
9.3245652738
 30
0.0
 10
8.6209355473
 20
9.3262783622
 30
0.0
 10
8.6209355392
 20
9.3271293528
 30
0.0
  0
SPLINE
  5
2D2
100
AcDbEntity
  8
0
100
AcDbSpline
 62
7
  6
CONTINUOUS
 70
0
 71
3
 72
26
 73
22
 74
0
 42
0.0000001
 43
0.0000001
 44
0.0000000001
 40
0.0
 40
0.0
 40
0.0
 40
0.0
 40
0.0616472485
 40
0.1233175239
 40
0.1850335958
 40
0.2468177229
 40
0.3086914072
 40
0.3706751586
 40
0.4327882739
 40
0.4950486325
 40
0.5574725132
 40
0.6200744243
 40
0.6514488025
 40
0.6828722567
 40
0.7143460244
 40
0.7458712251
 40
0.8090747671
 40
0.872494008
 40
0.9042883495
 40
0.9361389233
 40
1.0
 40
1.0
 40
1.0
 40
1.0
 10
9.1612975316
 20
8.4210223416
 30
0.0
 10
9.1709597299
 20
8.4303553002
 30
0.0
 10
9.1907939594
 20
8.4485086863
 30
0.0
 10
9.221971805
 20
8.4741056457
 30
0.0
 10
9.2545035191
 20
8.4980106826
 30
0.0
 10
9.288306017
 20
8.520162525
 30
0.0
 10
9.3232943974
 20
8.5405056873
 30
0.0
 10
9.3593804166
 20
8.5589888963
 30
0.0
 10
9.3964731057
 20
8.5755656709
 30
0.0
 10
9.4344791795
 20
8.5901943657
 30
0.0
 10
9.4733021832
 20
8.6028380946
 30
0.0
 10
9.5062319123
 20
8.6116878417
 30
0.0
 10
9.5328801691
 20
8.617747336
 30
0.0
 10
9.5530252945
 20
8.6217821429
 30
0.0
 10
9.5733002467
 20
8.6253009888
 30
0.0
 10
9.6005107281
 20
8.6293048535
 30
0.0
 10
9.6347897158
 20
8.6330066447
 30
0.0
 10
9.6692709635
 20
8.6349599374
 30
0.0
 10
9.6969575242
 20
8.6354763221
 30
0.0
 10
9.7247440055
 20
8.6352936235
 30
0.0
 10
9.745591655
 20
8.6343691199
 30
0.0
 10
9.7594743505
 20
8.6334063517
 30
0.0
  0
SPLINE
  5
2D3
100
AcDbEntity
  8
0
100
AcDbSpline
 62
7
  6
CONTINUOUS
 70
0
 71
3
 72
67
 73
63
 74
0
 42
0.0000001
 43
0.0000001
 44
0.0000000001
 40
0.0
 40
0.0
 40
0.0
 40
0.0
 40
0.0149688907
 40
0.0299407519
 40
0.044918535
 40
0.0599051571
 40
0.0749034842
 40
0.0899163111
 40
0.1049463479
 40
0.1199962052
 40
0.1350683756
 40
0.1501652221
 40
0.1652889668
 40
0.1804416742
 40
0.1956252431
 40
0.210841399
 40
0.2260916799
 40
0.2413774323
 40
0.2566998075
 40
0.2720597503
 40
0.2874579993
 40
0.3028950866
 40
0.3183713304
 40
0.3338868388
 40
0.3494415129
 40
0.3650350428
 40
0.380666915
 40
0.3963364184
 40
0.4120426432
 40
0.4277844918
 40
0.4435606865
 40
0.4593697719
 40
0.4752101279
 40
0.4910799792
 40
0.5069774001
 40
0.5229003299
 40
0.538846583
 40
0.5548138562
 40
0.5707997452
 40
0.5868017558
 40
0.6188390944
 40
0.650909267
 40
0.6829903275
 40
0.7150601199
 40
0.7310862538
 40
0.7471013881
 40
0.7631028868
 40
0.7790881776
 40
0.7950547675
 40
0.8110002567
 40
0.826922346
 40
0.8428188528
 40
0.8586877217
 40
0.8745270316
 40
0.8903350148
 40
0.9061100505
 40
0.9218506867
 40
0.9375557005
 40
0.9532238978
 40
0.9688543336
 40
0.9844470081
 40
1.0
 40
1.0
 40
1.0
 40
1.0
 10
10.3576511695
 20
7.1824659904
 30
0.0
 10
10.3646894068
 20
7.1892643996
 30
0.0
 10
10.3785024482
 20
7.203139857
 30
0.0
 10
10.398393276
 20
7.2247506392
 30
0.0
 10
10.4174310127
 20
7.2471324034
 30
0.0
 10
10.435589883
 20
7.2702547545
 30
0.0
 10
10.4528456911
 20
7.2940869461
 30
0.0
 10
10.469175326
 20
7.3185971152
 30
0.0
 10
10.4845570722
 20
7.3437524571
 30
0.0
 10
10.4989703277
 20
7.369519392
 30
0.0
 10
10.5123958229
 20
7.3958634956
 30
0.0
 10
10.5248157247
 20
7.4227495194
 30
0.0
 10
10.536213389
 20
7.4501415712
 30
0.0
 10
10.5465735876
 20
7.4780030531
 30
0.0
 10
10.5558825903
 20
7.5062967068
 30
0.0
 10
10.5641279065
 20
7.5349847586
 30
0.0
 10
10.5712985321
 20
7.5640288812
 30
0.0
 10
10.5773850006
 20
7.5933902556
 30
0.0
 10
10.5823791234
 20
7.6230296809
 30
0.0
 10
10.5862742496
 20
7.6529075644
 30
0.0
 10
10.5890652873
 20
7.6829839922
 30
0.0
 10
10.5907484449
 20
7.7132188073
 30
0.0
 10
10.5913215026
 20
7.743571629
 30
0.0
 10
10.5907838002
 20
7.7740019269
 30
0.0
 10
10.589135987
 20
7.804469069
 30
0.0
 10
10.5863802979
 20
7.8349323727
 30
0.0
 10
10.5825205099
 20
7.8653511759
 30
0.0
 10
10.5775617036
 20
7.8956848577
 30
0.0
 10
10.5715105393
 20
7.9258929227
 30
0.0
 10
10.564375184
 20
7.9559350623
 30
0.0
 10
10.5561650875
 20
7.9857711529
 30
0.0
 10
10.5468912535
 20
8.0153613723
 30
0.0
 10
10.5365661402
 20
8.0446662466
 30
0.0
 10
10.5252034526
 20
8.0736466289
 30
0.0
 10
10.5128184033
 20
8.1022638496
 30
0.0
 10
10.499427597
 20
8.1304797334
 30
0.0
 10
10.4850488081
 20
8.1582566059
 30
0.0
 10
10.4697013547
 20
8.1855573095
 30
0.0
 10
10.4534054894
 20
8.2123458144
 30
0.0
 10
10.4304360535
 20
8.2473425457
 30
0.0
 10
10.3994644238
 20
8.2896266933
 30
0.0
 10
10.3589022055
 20
8.3377377344
 30
0.0
 10
10.3151419659
 20
8.382988952
 30
0.0
 10
10.2761904792
 20
8.4181255643
 30
0.0
 10
10.2436686796
 20
8.4445716562
 30
0.0
 10
10.2186336556
 20
8.4635458206
 30
0.0
 10
10.1929858367
 20
8.4816361946
 30
0.0
 10
10.1667590478
 20
8.4988188662
 30
0.0
 10
10.1399884277
 20
8.5150708656
 30
0.0
 10
10.1127096921
 20
8.5303705411
 30
0.0
 10
10.0849592059
 20
8.5446973652
 30
0.0
 10
10.0567740434
 20
8.5580322731
 30
0.0
 10
10.0281918297
 20
8.5703574751
 30
0.0
 10
9.9992506729
 20
8.5816564131
 30
0.0
 10
9.9699892359
 20
8.5919140622
 30
0.0
 10
9.9404465826
 20
8.6011167347
 30
0.0
 10
9.9106620975
 20
8.6092520472
 30
0.0
 10
9.8806755803
 20
8.6163091595
 30
0.0
 10
9.8505271716
 20
8.6222786782
 30
0.0
 10
9.8202565979
 20
8.6271526219
 30
0.0
 10
9.789905277
 20
8.6309242247
 30
0.0
 10
9.7696172834
 20
8.6327029369
 30
0.0
 10
9.7594743505
 20
8.6334063517
 30
0.0
  0
SPLINE
  5
2D4
100
AcDbEntity
  8
0
100
AcDbSpline
 62
7
  6
CONTINUOUS
 70
0
 71
3
 72
28
 73
24
 74
0
 42
0.0000001
 43
0.0000001
 44
0.0000000001
 40
0.0
 40
0.0
 40
0.0
 40
0.0
 40
0.0616465572
 40
0.0924798212
 40
0.1233217026
 40
0.1850370795
 40
0.2468205085
 40
0.2777472544
 40
0.3086990012
 40
0.3396782733
 40
0.3706875295
 40
0.43279994
 40
0.4950595942
 40
0.5574827697
 40
0.6200839761
 40
0.6828758318
 40
0.71434923
 40
0.7458740756
 40
0.8090769614
 40
0.8724953205
 40
0.9042893743
 40
0.9361398561
 40
1.0
 40
1.0
 40
1.0
 40
1.0
 10
10.842373129
 20
8.1580446663
 30
0.0
 10
10.849914371
 20
8.1653289717
 30
0.0
 10
10.8615245027
 20
8.1759552702
 30
0.0
 10
10.8775564437
 20
8.1894823373
 30
0.0
 10
10.8939553696
 20
8.2025816958
 30
0.0
 10
10.9151192984
 20
8.2181335761
 30
0.0
 10
10.93709826
 20
8.2325370178
 30
0.0
 10
10.9551393123
 20
8.2433522189
 30
0.0
 10
10.9688985729
 20
8.2511091003
 30
0.0
 10
10.9828719635
 20
8.2585033111
 30
0.0
 10
11.0017857838
 20
8.2678767061
 30
0.0
 10
11.0259254658
 20
8.27866493
 30
0.0
 10
11.0555883958
 20
8.2900823586
 30
0.0
 10
11.0858898912
 20
8.29995085
 30
0.0
 10
11.1167525793
 20
8.3082452652
 30
0.0
 10
11.1428558181
 20
8.313824167
 30
0.0
 10
11.163937023
 20
8.3174829204
 30
0.0
 10
11.1851746599
 20
8.3206079413
 30
0.0
 10
11.2119290264
 20
8.3234971466
 30
0.0
 10
11.2388413298
 20
8.3250217061
 30
0.0
 10
11.2604504638
 20
8.3254247576
 30
0.0
 10
11.2821375793
 20
8.3252821421
 30
0.0
 10
11.2984089881
 20
8.3245605938
 30
0.0
 10
11.3092442686
 20
8.3238091646
 30
0.0
  0
SPLINE
  5
2D5
100
AcDbEntity
  8
0
100
AcDbSpline
 62
7
  6
CONTINUOUS
 70
0
 71
3
 72
45
 73
41
 74
0
 42
0.0000001
 43
0.0000001
 44
0.0000000001
 40
0.0
 40
0.0
 40
0.0
 40
0.0
 40
0.0083236728
 40
0.016933736
 40
0.0258387477
 40
0.0350438972
 40
0.04455148
 40
0.0543615116
 40
0.0644723515
 40
0.0748808829
 40
0.0855831641
 40
0.0965745069
 40
0.1078497495
 40
0.119403658
 40
0.1312306749
 40
0.1433255265
 40
0.1682949011
 40
0.1942754843
 40
0.221232217
 40
0.249134769
 40
0.2779573596
 40
0.307678002
 40
0.3382774033
 40
0.3697376892
 40
0.4020409496
 40
0.4351676385
 40
0.4690949046
 40
0.5037949994
 40
0.5392339321
 40
0.5753703063
 40
0.6121546836
 40
0.6495294069
 40
0.6874289054
 40
0.7257806479
 40
0.7645063775
 40
0.8035237236
 40
0.8427478949
 40
0.882093235
 40
0.9214746255
 40
1.0
 40
1.0
 40
1.0
 40
1.0
 10
9.8655267842
 20
8.122436735
 30
0.0
 10
9.8638597532
 20
8.1225518999
 30
0.0
 10
9.8604753288
 20
8.1228992331
 30
0.0
 10
9.8553541642
 20
8.1237416193
 30
0.0
 10
9.8501159811
 20
8.1249098185
 30
0.0
 10
9.8447731009
 20
8.1263996639
 30
0.0
 10
9.8393374314
 20
8.1282067673
 30
0.0
 10
9.833820988
 20
8.1303268405
 30
0.0
 10
9.8282356614
 20
8.1327555309
 30
0.0
 10
9.8225932161
 20
8.1354885692
 30
0.0
 10
9.8169052837
 20
8.1385217763
 30
0.0
 10
9.8111833077
 20
8.1418510584
 30
0.0
 10
9.8054385429
 20
8.1454724733
 30
0.0
 10
9.7996820976
 20
8.1493821913
 30
0.0
 10
9.7939247739
 20
8.1535765733
 30
0.0
 10
9.7861796037
 20
8.159607776
 30
0.0
 10
9.7765646814
 20
8.1678513652
 30
0.0
 10
9.7653104234
 20
8.1787242911
 30
0.0
 10
9.754299201
 20
8.1906579961
 30
0.0
 10
9.7436100579
 20
8.203629136
 30
0.0
 10
9.7333203602
 20
8.2176145486
 30
0.0
 10
9.7235065242
 20
8.2325896633
 30
0.0
 10
9.7142438895
 20
8.2485275137
 30
0.0
 10
9.7056065583
 20
8.2653975025
 30
0.0
 10
9.697666915
 20
8.2831642202
 30
0.0
 10
9.6904948839
 20
8.3017862939
 30
0.0
 10
9.6841569064
 20
8.3212153725
 30
0.0
 10
9.6787146659
 20
8.3413953586
 30
0.0
 10
9.6742236128
 20
8.362261972
 30
0.0
 10
9.6707314034
 20
8.383742759
 30
0.0
 10
9.6682763635
 20
8.405757587
 30
0.0
 10
9.6668861181
 20
8.4282196555
 30
0.0
 10
9.6665765189
 20
8.4510369926
 30
0.0
 10
9.6673510247
 20
8.4741143287
 30
0.0
 10
9.669200545
 20
8.4973551969
 30
0.0
 10
9.6721038652
 20
8.5206641732
 30
0.0
 10
9.676028399
 20
8.5439486283
 30
0.0
 10
9.6809317697
 20
8.5671215615
 30
0.0
 10
9.6886973781
 20
8.5977264768
 30
0.0
 10
9.695835854
 20
8.6203242917
 30
0.0
 10
9.7011118027
 20
8.6351794297
 30
0.0
  0
SPLINE
  5
2D6
100
AcDbEntity
  8
0
100
AcDbSpline
 62
7
  6
CONTINUOUS
 70
0
 71
3
 72
41
 73
37
 74
0
 42
0.0000001
 43
0.0000001
 44
0.0000000001
 40
0.0
 40
0.0
 40
0.0
 40
0.0
 40
0.0064813001
 40
0.0130002022
 40
0.0195935713
 40
0.0262969408
 40
0.033143984
 40
0.0401660036
 40
0.0548404992
 40
0.0625494615
 40
0.0705324261
 40
0.0873867396
 40
0.1055281833
 40
0.1250447914
 40
0.1459987457
 40
0.1684318082
 40
0.1923689961
 40
0.2178215978
 40
0.2447899859
 40
0.2732648338
 40
0.3032291259
 40
0.3346589397
 40
0.3675242831
 40
0.4017901748
 40
0.4374166385
 40
0.474359728
 40
0.5125716018
 40
0.5520008604
 40
0.5925931493
 40
0.6342909643
 40
0.677034307
 40
0.7207606156
 40
0.7654052435
 40
0.8109015514
 40
0.9041693911
 40
1.0
 40
1.0
 40
1.0
 40
1.0
 10
9.0323979695
 20
10.3891276851
 30
0.0
 10
9.0323979753
 20
10.3885202514
 30
0.0
 10
9.0324462949
 20
10.3873013162
 30
0.0
 10
9.0326634169
 20
10.3854760793
 30
0.0
 10
9.0330250165
 20
10.3836526118
 30
0.0
 10
9.03353083
 20
10.3818319772
 30
0.0
 10
9.0341805952
 20
10.3800149231
 30
0.0
 10
9.0352536591
 20
10.3775625671
 30
0.0
 10
9.0366080205
 20
10.375152813
 30
0.0
 10
9.0382088711
 20
10.3727986681
 30
0.0
 10
9.0400581549
 20
10.3703711551
 30
0.0
 10
9.0427410637
 20
10.367358001
 30
0.0
 10
9.0464585924
 20
10.3638459531
 30
0.0
 10
9.0507247642
 20
10.3603784512
 30
0.0
 10
9.05553245
 20
10.3569603938
 30
0.0
 10
9.0608741986
 20
10.3535967181
 30
0.0
 10
9.0667415058
 20
10.3502926162
 30
0.0
 10
9.0731249544
 20
10.3470532699
 30
0.0
 10
9.0800142367
 20
10.3438840138
 30
0.0
 10
9.0873980867
 20
10.3407899864
 30
0.0
 10
9.0952643943
 20
10.3377763627
 30
0.0
 10
9.103600184
 20
10.334848174
 30
0.0
 10
9.1123916528
 20
10.3320102808
 30
0.0
 10
9.1216242244
 20
10.3292675088
 30
0.0
 10
9.1312825413
 20
10.3266244049
 30
0.0
 10
9.141350529
 20
10.324085447
 30
0.0
 10
9.1518114089
 20
10.3216549061
 30
0.0
 10
9.1626477307
 20
10.3193368356
 30
0.0
 10
9.1738414147
 20
10.3171351869
 30
0.0
 10
9.1853737675
 20
10.315053612
 30
0.0
 10
9.1972255228
 20
10.3130956402
 30
0.0
 10
9.2093768827
 20
10.3112645642
 30
0.0
 10
9.2218075685
 20
10.3095634162
 30
0.0
 10
9.2388674377
 20
10.3074550129
 30
0.0
 10
9.2607374303
 20
10.3051727436
 30
0.0
 10
9.2784044682
 20
10.3037495541
 30
0.0
 10
9.2873642855
 20
10.3031281887
 30
0.0
  0
SPLINE
  5
2D7
100
AcDbEntity
  8
0
100
AcDbSpline
 62
7
  6
CONTINUOUS
 70
0
 71
3
 72
41
 73
37
 74
0
 42
0.0000001
 43
0.0000001
 44
0.0000000001
 40
0.0
 40
0.0
 40
0.0
 40
0.0
 40
0.0064813001
 40
0.0130002022
 40
0.0195935713
 40
0.0262969408
 40
0.033143984
 40
0.0401660036
 40
0.0548404992
 40
0.0625494615
 40
0.0705324261
 40
0.0873867396
 40
0.1055281833
 40
0.1250447914
 40
0.1459987457
 40
0.1684318082
 40
0.1923689961
 40
0.2178215978
 40
0.2447899859
 40
0.2732648338
 40
0.3032291259
 40
0.3346589397
 40
0.3675242831
 40
0.4017901748
 40
0.4374166385
 40
0.474359728
 40
0.5125716018
 40
0.5520008604
 40
0.5925931493
 40
0.6342909643
 40
0.677034307
 40
0.7207606156
 40
0.7654052435
 40
0.8109015514
 40
0.9041693911
 40
1.0
 40
1.0
 40
1.0
 40
1.0
 10
7.9329355512
 20
9.3271284773
 30
0.0
 10
7.932935557
 20
9.3265210436
 30
0.0
 10
7.9329838765
 20
9.3253021084
 30
0.0
 10
7.9332009985
 20
9.3234768715
 30
0.0
 10
7.9335625982
 20
9.321653404
 30
0.0
 10
7.9340684117
 20
9.3198327694
 30
0.0
 10
7.9347181769
 20
9.3180157153
 30
0.0
 10
7.9357912408
 20
9.3155633593
 30
0.0
 10
7.9371456022
 20
9.3131536052
 30
0.0
 10
7.9387464528
 20
9.3107994603
 30
0.0
 10
7.9405957366
 20
9.3083719473
 30
0.0
 10
7.9432786454
 20
9.3053587932
 30
0.0
 10
7.9469961741
 20
9.3018467453
 30
0.0
 10
7.9512623459
 20
9.2983792434
 30
0.0
 10
7.9560700317
 20
9.294961186
 30
0.0
 10
7.9614117803
 20
9.2915975103
 30
0.0
 10
7.9672790874
 20
9.2882934084
 30
0.0
 10
7.973662536
 20
9.2850540621
 30
0.0
 10
7.9805518184
 20
9.281884806
 30
0.0
 10
7.9879356684
 20
9.2787907786
 30
0.0
 10
7.995801976
 20
9.2757771549
 30
0.0
 10
8.0041377656
 20
9.2728489661
 30
0.0
 10
8.0129292345
 20
9.270011073
 30
0.0
 10
8.0221618061
 20
9.2672683009
 30
0.0
 10
8.031820123
 20
9.2646251971
 30
0.0
 10
8.0418881107
 20
9.2620862391
 30
0.0
 10
8.0523489905
 20
9.2596556983
 30
0.0
 10
8.0631853124
 20
9.2573376278
 30
0.0
 10
8.0743789964
 20
9.2551359791
 30
0.0
 10
8.0859113492
 20
9.2530544042
 30
0.0
 10
8.0977631045
 20
9.2510964323
 30
0.0
 10
8.1099144644
 20
9.2492653564
 30
0.0
 10
8.1223451502
 20
9.2475642084
 30
0.0
 10
8.1394050194
 20
9.2454558051
 30
0.0
 10
8.161275012
 20
9.2431735357
 30
0.0
 10
8.1789420499
 20
9.2417503463
 30
0.0
 10
8.1879018672
 20
9.2411289809
 30
0.0
  0
SPLINE
  5
2D8
100
AcDbEntity
  8
0
100
AcDbSpline
 62
7
  6
CONTINUOUS
 70
0
 71
3
 72
53
 73
49
 74
0
 42
0.0000001
 43
0.0000001
 44
0.0000000001
 40
0.0
 40
0.0
 40
0.0
 40
0.0
 40
0.0063158505
 40
0.0126706065
 40
0.0191024059
 40
0.025647925
 40
0.0323417594
 40
0.0392160732
 40
0.0536138138
 40
0.0611945116
 40
0.0690562199
 40
0.0772172833
 40
0.0856936463
 40
0.0944989782
 40
0.1036450547
 40
0.113141788
 40
0.1229974785
 40
0.1332190725
 40
0.143812113
 40
0.1547810712
 40
0.1661293938
 40
0.1778595131
 40
0.1899731419
 40
0.202471156
 40
0.2153537422
 40
0.2286205498
 40
0.2422705327
 40
0.2563022009
 40
0.2707135857
 40
0.2855021832
 40
0.3006651871
 40
0.3321002773
 40
0.3649893983
 40
0.3992971141
 40
0.4349834107
 40
0.4720041701
 40
0.5103115331
 40
0.5498541823
 40
0.5905776893
 40
0.6324247808
 40
0.6753355513
 40
0.7192476511
 40
0.7640964723
 40
0.8098154905
 40
0.8563363112
 40
0.9035882029
 40
0.951501464
 40
1.0
 40
1.0
 40
1.0
 40
1.0
 10
13.9016003558
 20
7.4836469487
 30
0.0
 10
13.900112991
 20
7.4837500982
 30
0.0
 10
13.8971361317
 20
7.4840788114
 30
0.0
 10
13.8927041969
 20
7.4849355026
 30
0.0
 10
13.888301878
 20
7.4861558522
 30
0.0
 10
13.8839317868
 20
7.4877389626
 30
0.0
 10
13.8795955715
 20
7.4896837643
 30
0.0
 10
13.8737732424
 20
7.4928048812
 30
0.0
 10
13.8681089835
 20
7.4966255328
 30
0.0
 10
13.8626274727
 20
7.5010531436
 30
0.0
 10
13.8584870629
 20
7.5047861128
 30
0.0
 10
13.854390853
 20
7.5088718437
 30
0.0
 10
13.850339927
 20
7.5133089282
 30
0.0
 10
13.8463358477
 20
7.5180953749
 30
0.0
 10
13.8423801663
 20
7.523229302
 30
0.0
 10
13.8384743766
 20
7.5287085838
 30
0.0
 10
13.8346199633
 20
7.5345309858
 30
0.0
 10
13.8308185155
 20
7.5406941885
 30
0.0
 10
13.8270714665
 20
7.5471956519
 30
0.0
 10
13.8233803463
 20
7.554032755
 30
0.0
 10
13.8197466683
 20
7.5612027278
 30
0.0
 10
13.8161718382
 20
7.5687026252
 30
0.0
 10
13.8126573758
 20
7.576529414
 30
0.0
 10
13.8092046868
 20
7.5846798845
 30
0.0
 10
13.8058151606
 20
7.5931506979
 30
0.0
 10
13.8024902504
 20
7.6019384034
 30
0.0
 10
13.7992312606
 20
7.6110393801
 30
0.0
 10
13.7960395574
 20
7.6204499021
 30
0.0
 10
13.7929164848
 20
7.6301661062
 30
0.0
 10
13.7898632531
 20
7.6401840006
 30
0.0
 10
13.7858388203
 20
7.654105511
 30
0.0
 10
13.781003399
 20
7.6722382137
 30
0.0
 10
13.7755665804
 20
7.6948800555
 30
0.0
 10
13.7704369929
 20
7.7186210651
 30
0.0
 10
13.7656231665
 20
7.7434221356
 30
0.0
 10
13.7611331264
 20
7.7692425709
 30
0.0
 10
13.7569743673
 20
7.7960398992
 30
0.0
 10
13.7531538051
 20
7.8237700129
 30
0.0
 10
13.7496778038
 20
7.8523872384
 30
0.0
 10
13.7465521608
 20
7.8818444313
 30
0.0
 10
13.7437820972
 20
7.9120930466
 30
0.0
 10
13.7413722196
 20
7.9430832058
 30
0.0
 10
13.7393265379
 20
7.9747638104
 30
0.0
 10
13.7376484709
 20
8.0070826321
 30
0.0
 10
13.7363408456
 20
8.0399862467
 30
0.0
 10
13.7354057862
 20
8.0734207158
 30
0.0
 10
13.734844945
 20
8.1073304133
 30
0.0
 10
13.7347217867
 20
8.1300898587
 30
0.0
 10
13.7347217867
 20
8.141538558
 30
0.0
  0
SPLINE
  5
2D9
100
AcDbEntity
  8
0
100
AcDbSpline
 62
7
  6
CONTINUOUS
 70
0
 71
3
 72
35
 73
31
 74
0
 42
0.0000001
 43
0.0000001
 44
0.0000000001
 40
0.0
 40
0.0
 40
0.0
 40
0.0
 40
0.0162142982
 40
0.0334273567
 40
0.0516716566
 40
0.0709707697
 40
0.0913402133
 40
0.1127893072
 40
0.1353215159
 40
0.1589358589
 40
0.1836269519
 40
0.2093860824
 40
0.2362011118
 40
0.2640572896
 40
0.2929371234
 40
0.3228209777
 40
0.3536869764
 40
0.385511416
 40
0.4182687365
 40
0.4519317734
 40
0.4864718131
 40
0.5218587016
 40
0.5580609861
 40
0.5950459189
 40
0.6327796692
 40
0.6712271923
 40
0.750117733
 40
0.8314199733
 40
0.9148215789
 40
1.0
 40
1.0
 40
1.0
 40
1.0
 10
13.8620192699
 20
7.8552469575
 30
0.0
 10
13.8607003029
 20
7.8568686939
 30
0.0
 10
13.8580921239
 20
7.8603033976
 30
0.0
 10
13.8543726245
 20
7.8658335385
 30
0.0
 10
13.850734822
 20
7.8718866189
 30
0.0
 10
13.8471825971
 20
7.8784562928
 30
0.0
 10
13.8437192466
 20
7.8855359373
 30
0.0
 10
13.8403484218
 20
7.8931183442
 30
0.0
 10
13.8370734522
 20
7.9011956992
 30
0.0
 10
13.8338978487
 20
7.9097596864
 30
0.0
 10
13.8308248267
 20
7.9188014051
 30
0.0
 10
13.8278577045
 20
7.92831146
 30
0.0
 10
13.8249995294
 20
7.9382799178
 30
0.0
 10
13.822253389
 20
7.948696361
 30
0.0
 10
13.8196221312
 20
7.9595498755
 30
0.0
 10
13.8171085894
 20
7.9708290806
 30
0.0
 10
13.8147153915
 20
7.9825221348
 30
0.0
 10
13.8124451004
 20
7.9946167525
 30
0.0
 10
13.8103001079
 20
8.0071002195
 30
0.0
 10
13.8082826953
 20
8.0199594049
 30
0.0
 10
13.8063950051
 20
8.0331807786
 30
0.0
 10
13.8046390288
 20
8.0467504234
 30
0.0
 10
13.8030166465
 20
8.0606540538
 30
0.0
 10
13.8015295574
 20
8.0748770272
 30
0.0
 10
13.8001793551
 20
8.089404376
 30
0.0
 10
13.7985495745
 20
8.1093303787
 30
0.0
 10
13.7968735852
 20
8.1348866386
 30
0.0
 10
13.7954441232
 20
8.1662607425
 30
0.0
 10
13.794585875
 20
8.1984664515
 30
0.0
 10
13.794398748
 20
8.2202006892
 30
0.0
 10
13.794398748
 20
8.2311820811
 30
0.0
  0
SPLINE
  5
2DA
100
AcDbEntity
  8
0
100
AcDbSpline
 62
7
  6
CONTINUOUS
 70
0
 71
3
 72
48
 73
44
 74
0
 42
0.0000001
 43
0.0000001
 44
0.0000000001
 40
0.0
 40
0.0
 40
0.0
 40
0.0
 40
0.0070629268
 40
0.0144559992
 40
0.0221883994
 40
0.0302674717
 40
0.0386987257
 40
0.0474863192
 40
0.0566330589
 40
0.0661405655
 40
0.076009569
 40
0.0862397427
 40
0.0968300619
 40
0.1077787491
 40
0.119083293
 40
0.1307407152
 40
0.1427473409
 40
0.1550990709
 40
0.1677913442
 40
0.1808190676
 40
0.20785834
 40
0.2361695457
 40
0.2656992903
 40
0.2963893633
 40
0.3281772259
 40
0.3609964047
 40
0.3947768965
 40
0.4294455367
 40
0.4649263157
 40
0.5011406685
 40
0.5380077477
 40
0.5754447325
 40
0.6133671035
 40
0.6516889043
 40
0.6903229946
 40
0.729181313
 40
0.7681751677
 40
0.807215444
 40
0.8462129145
 40
0.8850786
 40
0.9237231426
 40
0.9620602333
 40
1.0
 40
1.0
 40
1.0
 40
1.0
 10
13.9328671225
 20
8.8768501886
 30
0.0
 10
13.9317118793
 20
8.8757750024
 30
0.0
 10
13.9294026137
 20
8.8735144457
 30
0.0
 10
13.926018176
 20
8.8698895265
 30
0.0
 10
13.9226373686
 20
8.8659566459
 30
0.0
 10
13.9192623309
 20
8.8617182106
 30
0.0
 10
13.9158949036
 20
8.8571767721
 30
0.0
 10
13.9125371406
 20
8.8523350094
 30
0.0
 10
13.9091910232
 20
8.8471958249
 30
0.0
 10
13.9058585087
 20
8.8417623189
 30
0.0
 10
13.9025416781
 20
8.8360377201
 30
0.0
 10
13.899242456
 20
8.8300255114
 30
0.0
 10
13.8959628813
 20
8.8237293014
 30
0.0
 10
13.8927049515
 20
8.8171528945
 30
0.0
 10
13.8894705944
 20
8.8103002865
 30
0.0
 10
13.8862618509
 20
8.8031756059
 30
0.0
 10
13.8830806124
 20
8.7957831931
 30
0.0
 10
13.8799288468
 20
8.7881275289
 30
0.0
 10
13.8768084768
 20
8.7802132515
 30
0.0
 10
13.8726406326
 20
8.7691855093
 30
0.0
 10
13.8675321419
 20
8.7547841589
 30
0.0
 10
13.8616302109
 20
8.7367581279
 30
0.0
 10
13.8558975254
 20
8.7178236753
 30
0.0
 10
13.8503481277
 20
8.6980268643
 30
0.0
 10
13.8449956323
 20
8.6774157426
 30
0.0
 10
13.8398531498
 20
8.6560404331
 30
0.0
 10
13.8349332722
 20
8.633952939
 30
0.0
 10
13.8302480475
 20
8.611207018
 30
0.0
 10
13.8258089484
 20
8.587858042
 30
0.0
 10
13.821626846
 20
8.5639628691
 30
0.0
 10
13.8177119625
 20
8.5395797055
 30
0.0
 10
13.8140738688
 20
8.5147679545
 30
0.0
 10
13.8107214591
 20
8.4895880657
 30
0.0
 10
13.8076629325
 20
8.4641013895
 30
0.0
 10
13.8049057638
 20
8.4383700319
 30
0.0
 10
13.8024566763
 20
8.4124566984
 30
0.0
 10
13.8003216476
 20
8.3864245423
 30
0.0
 10
13.7985058856
 20
8.3603370052
 30
0.0
 10
13.7970138194
 20
8.3342576365
 30
0.0
 10
13.7958491013
 20
8.3082501086
 30
0.0
 10
13.7950144963
 20
8.2823775047
 30
0.0
 10
13.7945121165
 20
8.256703279
 30
0.0
 10
13.794398748
 20
8.2396594877
 30
0.0
 10
13.794398748
 20
8.2311820811
 30
0.0
  0
SPLINE
  5
2DB
100
AcDbEntity
  8
0
100
AcDbSpline
 62
7
  6
CONTINUOUS
 70
0
 71
3
 72
53
 73
49
 74
0
 42
0.0000001
 43
0.0000001
 44
0.0000000001
 40
0.0
 40
0.0
 40
0.0
 40
0.0
 40
0.0063158505
 40
0.0126706065
 40
0.0191024059
 40
0.025647925
 40
0.0323417594
 40
0.0392160732
 40
0.0536138138
 40
0.0611945116
 40
0.0690562199
 40
0.0772172833
 40
0.0856936463
 40
0.0944989782
 40
0.1036450547
 40
0.113141788
 40
0.1229974785
 40
0.1332190725
 40
0.143812113
 40
0.1547810712
 40
0.1661293938
 40
0.1778595131
 40
0.1899731419
 40
0.202471156
 40
0.2153537422
 40
0.2286205498
 40
0.2422705327
 40
0.2563022009
 40
0.2707135857
 40
0.2855021832
 40
0.3006651871
 40
0.3321002773
 40
0.3649893983
 40
0.3992971141
 40
0.4349834107
 40
0.4720041701
 40
0.5103115331
 40
0.5498541823
 40
0.5905776893
 40
0.6324247808
 40
0.6753355513
 40
0.7192476511
 40
0.7640964723
 40
0.8098154905
 40
0.8563363112
 40
0.9035882029
 40
0.951501464
 40
1.0
 40
1.0
 40
1.0
 40
1.0
 10
13.3032112697
 20
6.9056474421
 30
0.0
 10
13.3017239049
 20
6.9057505915
 30
0.0
 10
13.2987470456
 20
6.9060793047
 30
0.0
 10
13.2943151108
 20
6.906935996
 30
0.0
 10
13.2899127919
 20
6.9081563455
 30
0.0
 10
13.2855427006
 20
6.9097394559
 30
0.0
 10
13.2812064854
 20
6.9116842576
 30
0.0
 10
13.2753841562
 20
6.9148053745
 30
0.0
 10
13.2697198974
 20
6.9186260261
 30
0.0
 10
13.2642383866
 20
6.9230536369
 30
0.0
 10
13.2600979767
 20
6.9267866061
 30
0.0
 10
13.2560017669
 20
6.930872337
 30
0.0
 10
13.2519508408
 20
6.9353094215
 30
0.0
 10
13.2479467616
 20
6.9400958682
 30
0.0
 10
13.2439910802
 20
6.9452297953
 30
0.0
 10
13.2400852905
 20
6.9507090771
 30
0.0
 10
13.2362308772
 20
6.9565314791
 30
0.0
 10
13.2324294293
 20
6.9626946818
 30
0.0
 10
13.2286823804
 20
6.9691961452
 30
0.0
 10
13.2249912602
 20
6.9760332483
 30
0.0
 10
13.2213575822
 20
6.9832032212
 30
0.0
 10
13.217782752
 20
6.9907031185
 30
0.0
 10
13.2142682897
 20
6.9985299073
 30
0.0
 10
13.2108156007
 20
7.0066803779
 30
0.0
 10
13.2074260745
 20
7.0151511912
 30
0.0
 10
13.2041011642
 20
7.0239388967
 30
0.0
 10
13.2008421744
 20
7.0330398734
 30
0.0
 10
13.1976504713
 20
7.0424503954
 30
0.0
 10
13.1945273987
 20
7.0521665995
 30
0.0
 10
13.191474167
 20
7.0621844939
 30
0.0
 10
13.1874497342
 20
7.0761060043
 30
0.0
 10
13.1826143129
 20
7.094238707
 30
0.0
 10
13.1771774943
 20
7.1168805488
 30
0.0
 10
13.1720479068
 20
7.1406215584
 30
0.0
 10
13.1672340804
 20
7.1654226289
 30
0.0
 10
13.1627440403
 20
7.1912430642
 30
0.0
 10
13.1585852812
 20
7.2180403925
 30
0.0
 10
13.154764719
 20
7.2457705062
 30
0.0
 10
13.1512887177
 20
7.2743877317
 30
0.0
 10
13.1481630747
 20
7.3038449246
 30
0.0
 10
13.1453930111
 20
7.3340935399
 30
0.0
 10
13.1429831335
 20
7.3650836991
 30
0.0
 10
13.1409374518
 20
7.3967643037
 30
0.0
 10
13.1392593848
 20
7.4290831254
 30
0.0
 10
13.1379517595
 20
7.46198674
 30
0.0
 10
13.1370167001
 20
7.4954212091
 30
0.0
 10
13.1364558589
 20
7.5293309066
 30
0.0
 10
13.1363327006
 20
7.552090352
 30
0.0
 10
13.1363327006
 20
7.5635390513
 30
0.0
  0
SPLINE
  5
2DC
100
AcDbEntity
  8
0
100
AcDbSpline
 62
7
  6
CONTINUOUS
 70
0
 71
3
 72
35
 73
31
 74
0
 42
0.0000001
 43
0.0000001
 44
0.0000000001
 40
0.0
 40
0.0
 40
0.0
 40
0.0
 40
0.0162142982
 40
0.0334273567
 40
0.0516716566
 40
0.0709707697
 40
0.0913402133
 40
0.1127893072
 40
0.1353215159
 40
0.1589358589
 40
0.1836269519
 40
0.2093860824
 40
0.2362011118
 40
0.2640572896
 40
0.2929371234
 40
0.3228209777
 40
0.3536869764
 40
0.385511416
 40
0.4182687365
 40
0.4519317734
 40
0.4864718131
 40
0.5218587016
 40
0.5580609861
 40
0.5950459189
 40
0.6327796692
 40
0.6712271923
 40
0.750117733
 40
0.8314199733
 40
0.9148215789
 40
1.0
 40
1.0
 40
1.0
 40
1.0
 10
13.2636301838
 20
7.2772474508
 30
0.0
 10
13.2623112168
 20
7.2788691872
 30
0.0
 10
13.2597030377
 20
7.282303891
 30
0.0
 10
13.2559835384
 20
7.2878340318
 30
0.0
 10
13.2523457359
 20
7.2938871122
 30
0.0
 10
13.248793511
 20
7.3004567861
 30
0.0
 10
13.2453301604
 20
7.3075364306
 30
0.0
 10
13.2419593357
 20
7.3151188375
 30
0.0
 10
13.2386843661
 20
7.3231961925
 30
0.0
 10
13.2355087626
 20
7.3317601797
 30
0.0
 10
13.2324357406
 20
7.3408018984
 30
0.0
 10
13.2294686184
 20
7.3503119533
 30
0.0
 10
13.2266104433
 20
7.3602804111
 30
0.0
 10
13.2238643029
 20
7.3706968543
 30
0.0
 10
13.2212330451
 20
7.3815503689
 30
0.0
 10
13.2187195033
 20
7.3928295739
 30
0.0
 10
13.2163263054
 20
7.4045226281
 30
0.0
 10
13.2140560143
 20
7.4166172458
 30
0.0
 10
13.2119110218
 20
7.4291007128
 30
0.0
 10
13.2098936092
 20
7.4419598982
 30
0.0
 10
13.208005919
 20
7.4551812719
 30
0.0
 10
13.2062499427
 20
7.4687509168
 30
0.0
 10
13.2046275604
 20
7.4826545471
 30
0.0
 10
13.2031404713
 20
7.4968775205
 30
0.0
 10
13.201790269
 20
7.5114048693
 30
0.0
 10
13.2001604883
 20
7.531330872
 30
0.0
 10
13.1984844991
 20
7.5568871319
 30
0.0
 10
13.1970550371
 20
7.5882612358
 30
0.0
 10
13.1961967889
 20
7.6204669448
 30
0.0
 10
13.1960096619
 20
7.6422011825
 30
0.0
 10
13.1960096619
 20
7.6531825744
 30
0.0
  0
SPLINE
  5
2DD
100
AcDbEntity
  8
0
100
AcDbSpline
 62
7
  6
CONTINUOUS
 70
0
 71
3
 72
48
 73
44
 74
0
 42
0.0000001
 43
0.0000001
 44
0.0000000001
 40
0.0
 40
0.0
 40
0.0
 40
0.0
 40
0.0070629268
 40
0.0144559992
 40
0.0221883994
 40
0.0302674717
 40
0.0386987257
 40
0.0474863192
 40
0.0566330589
 40
0.0661405655
 40
0.076009569
 40
0.0862397427
 40
0.0968300619
 40
0.1077787491
 40
0.119083293
 40
0.1307407152
 40
0.1427473409
 40
0.1550990709
 40
0.1677913442
 40
0.1808190676
 40
0.20785834
 40
0.2361695457
 40
0.2656992903
 40
0.2963893633
 40
0.3281772259
 40
0.3609964047
 40
0.3947768965
 40
0.4294455367
 40
0.4649263157
 40
0.5011406685
 40
0.5380077477
 40
0.5754447325
 40
0.6133671035
 40
0.6516889043
 40
0.6903229946
 40
0.729181313
 40
0.7681751677
 40
0.807215444
 40
0.8462129145
 40
0.8850786
 40
0.9237231426
 40
0.9620602333
 40
1.0
 40
1.0
 40
1.0
 40
1.0
 10
13.3344780364
 20
8.2988506819
 30
0.0
 10
13.3333227932
 20
8.2977754957
 30
0.0
 10
13.3310135276
 20
8.2955149391
 30
0.0
 10
13.3276290899
 20
8.2918900198
 30
0.0
 10
13.3242482825
 20
8.2879571392
 30
0.0
 10
13.3208732448
 20
8.2837187039
 30
0.0
 10
13.3175058174
 20
8.2791772654
 30
0.0
 10
13.3141480545
 20
8.2743355027
 30
0.0
 10
13.3108019371
 20
8.2691963182
 30
0.0
 10
13.3074694226
 20
8.2637628122
 30
0.0
 10
13.304152592
 20
8.2580382135
 30
0.0
 10
13.3008533699
 20
8.2520260047
 30
0.0
 10
13.2975737952
 20
8.2457297947
 30
0.0
 10
13.2943158654
 20
8.2391533878
 30
0.0
 10
13.2910815083
 20
8.2323007798
 30
0.0
 10
13.2878727647
 20
8.2251760992
 30
0.0
 10
13.2846915263
 20
8.2177836864
 30
0.0
 10
13.2815397607
 20
8.2101280222
 30
0.0
 10
13.2784193907
 20
8.2022137449
 30
0.0
 10
13.2742515464
 20
8.1911860026
 30
0.0
 10
13.2691430558
 20
8.1767846522
 30
0.0
 10
13.2632411248
 20
8.1587586212
 30
0.0
 10
13.2575084393
 20
8.1398241686
 30
0.0
 10
13.2519590416
 20
8.1200273576
 30
0.0
 10
13.2466065462
 20
8.0994162359
 30
0.0
 10
13.2414640637
 20
8.0780409264
 30
0.0
 10
13.2365441861
 20
8.0559534323
 30
0.0
 10
13.2318589614
 20
8.0332075113
 30
0.0
 10
13.2274198623
 20
8.0098585353
 30
0.0
 10
13.2232377599
 20
7.9859633624
 30
0.0
 10
13.2193228763
 20
7.9615801988
 30
0.0
 10
13.2156847827
 20
7.9367684478
 30
0.0
 10
13.212332373
 20
7.911588559
 30
0.0
 10
13.2092738464
 20
7.8861018828
 30
0.0
 10
13.2065166777
 20
7.8603705252
 30
0.0
 10
13.2040675901
 20
7.8344571917
 30
0.0
 10
13.2019325615
 20
7.8084250356
 30
0.0
 10
13.2001167995
 20
7.7823374985
 30
0.0
 10
13.1986247333
 20
7.7562581298
 30
0.0
 10
13.1974600152
 20
7.7302506019
 30
0.0
 10
13.1966254102
 20
7.7043779981
 30
0.0
 10
13.1961230304
 20
7.6787037723
 30
0.0
 10
13.1960096619
 20
7.661659981
 30
0.0
 10
13.1960096619
 20
7.6531825744
 30
0.0
  0
SPLINE
  5
2DE
100
AcDbEntity
  8
0
100
AcDbSpline
 62
7
  6
CONTINUOUS
 70
0
 71
3
 72
76
 73
72
 74
0
 42
0.0000001
 43
0.0000001
 44
0.0000000001
 40
0.0
 40
0.0
 40
0.0
 40
0.0
 40
0.0156747358
 40
0.0235325428
 40
0.0314031247
 40
0.0471815269
 40
0.0630096691
 40
0.0709422965
 40
0.0788865455
 40
0.0948074602
 40
0.1107706217
 40
0.1267727506
 40
0.1428102138
 40
0.1588790637
 40
0.1749750744
 40
0.1910937801
 40
0.2072305158
 40
0.2233804587
 40
0.2395386706
 40
0.2557001414
 40
0.2718598329
 40
0.2880127219
 40
0.304153845
 40
0.320278341
 40
0.3363814943
 40
0.3524587764
 40
0.3685058868
 40
0.384518792
 40
0.4004937632
 40
0.4164274116
 40
0.4323167216
 40
0.4481590813
 40
0.4639523095
 40
0.4796946803
 40
0.495384943
 40
0.5110223391
 40
0.5266066138
 40
0.542138024
 40
0.5576173411
 40
0.5730458482
 40
0.588425333
 40
0.6037580745
 40
0.6190468249
 40
0.6342947854
 40
0.6495055776
 40
0.6646832087
 40
0.6798320327
 40
0.6949567064
 40
0.7100621422
 40
0.7251534568
 40
0.7402359175
 40
0.7553148859
 40
0.7703957613
 40
0.7854839223
 40
0.8005846697
 40
0.8157031702
 40
0.8308444015
 40
0.8460131006
 40
0.8612137152
 40
0.8764503585
 40
0.8917267695
 40
0.9070462755
 40
0.9147237276
 40
0.9224129992
 40
0.9301143742
 40
0.9378281071
 40
0.9532923509
 40
0.9688083105
 40
0.9765865615
 40
0.9843782585
 40
1.0
 40
1.0
 40
1.0
 40
1.0
 10
9.7405805637
 20
8.6856689886
 30
0.0
 10
9.7553657895
 20
8.6846436297
 30
0.0
 10
9.7775301282
 20
8.6825605724
 30
0.0
 10
9.8069735342
 20
8.6787091205
 30
0.0
 10
9.8364127008
 20
8.6741318004
 30
0.0
 10
9.8730792197
 20
8.6670637182
 30
0.0
 10
9.9094221148
 20
8.6582343208
 30
0.0
 10
9.9382838433
 20
8.6501221102
 30
0.0
 10
9.9670287889
 20
8.6413016372
 30
0.0
 10
10.002629766
 20
8.6289780686
 30
0.0
 10
10.044686952
 20
8.6121646107
 30
0.0
 10
10.0860117467
 20
8.5933553031
 30
0.0
 10
10.1265040681
 20
8.5725956575
 30
0.0
 10
10.1660666256
 20
8.549935652
 30
0.0
 10
10.204604157
 20
8.5254298884
 30
0.0
 10
10.2420239246
 20
8.4991373877
 30
0.0
 10
10.2782358647
 20
8.4711214671
 30
0.0
 10
10.3131528231
 20
8.441449584
 30
0.0
 10
10.3466907607
 20
8.4101931775
 30
0.0
 10
10.3787689538
 20
8.3774274932
 30
0.0
 10
10.4093101878
 20
8.3432314037
 30
0.0
 10
10.4382409415
 20
8.3076872196
 30
0.0
 10
10.4654915641
 20
8.270880492
 30
0.0
 10
10.4909964416
 20
8.2328998079
 30
0.0
 10
10.5146941543
 20
8.193836578
 30
0.0
 10
10.5365276242
 20
8.1537848178
 30
0.0
 10
10.5564442519
 20
8.1128409227
 30
0.0
 10
10.5743960432
 20
8.0711034373
 30
0.0
 10
10.5903397244
 20
8.0286728198
 30
0.0
 10
10.6042368467
 20
7.9856512012
 30
0.0
 10
10.61605388
 20
7.9421421421
 30
0.0
 10
10.6257622963
 20
7.898250384
 30
0.0
 10
10.6333386354
 20
7.8540815984
 30
0.0
 10
10.6387645634
 20
7.8097421341
 30
0.0
 10
10.6420269177
 20
7.7653387623
 30
0.0
 10
10.6431177404
 20
7.7209784211
 30
0.0
 10
10.6420342991
 20
7.6767679594
 30
0.0
 10
10.6387790958
 20
7.6328138808
 30
0.0
 10
10.633359863
 20
7.5892220871
 30
0.0
 10
10.6257895476
 20
7.5460976249
 30
0.0
 10
10.6160862825
 20
7.5035444314
 30
0.0
 10
10.6042733461
 20
7.4616650844
 30
0.0
 10
10.5903791077
 20
7.4205605543
 30
0.0
 10
10.5744369656
 20
7.380329958
 30
0.0
 10
10.5564852673
 20
7.3410703186
 30
0.0
 10
10.5365672178
 20
7.3028763293
 30
0.0
 10
10.5147307775
 20
7.2658401229
 30
0.0
 10
10.4910285476
 20
7.2300510466
 30
0.0
 10
10.4655176445
 20
7.1955954433
 30
0.0
 10
10.4382595614
 20
7.1625564403
 30
0.0
 10
10.4093200202
 20
7.1310137453
 30
0.0
 10
10.3787688113
 20
7.1010434514
 30
0.0
 10
10.346679624
 20
7.0727178506
 30
0.0
 10
10.313129866
 20
7.0461052573
 30
0.0
 10
10.2782004745
 20
7.0212698412
 30
0.0
 10
10.2419757164
 20
6.9982714718
 30
0.0
 10
10.2045429894
 20
6.9771655711
 30
0.0
 10
10.1659925841
 20
6.9580029779
 30
0.0
 10
10.1264175446
 20
6.9408298419
 30
0.0
 10
10.0859131357
 20
6.9256874561
 30
0.0
 10
10.0445777533
 20
6.9126123729
 30
0.0
 10
10.0095454116
 20
6.9034716373
 30
0.0
 10
9.9812099257
 20
6.8972201408
 30
0.0
 10
9.9597962643
 20
6.8930616583
 30
0.0
 10
9.9382506298
 20
6.889439523
 30
0.0
 10
9.9093424236
 20
6.8853249861
 30
0.0
 10
9.872936977
 20
6.8815357018
 30
0.0
 10
9.8363274062
 20
6.8795623818
 30
0.0
 10
9.8069365301
 20
6.8790703156
 30
0.0
 10
9.7774430294
 20
6.8793042941
 30
0.0
 10
9.7553158025
 20
6.8802974557
 30
0.0
 10
9.7405805637
 20
6.8813193479
 30
0.0
  0
SPLINE
  5
2DF
100
AcDbEntity
  8
0
100
AcDbSpline
 62
7
  6
CONTINUOUS
 70
0
 71
3
 72
39
 73
35
 74
0
 42
0.0000001
 43
0.0000001
 44
0.0000000001
 40
0.0
 40
0.0
 40
0.0
 40
0.0
 40
0.0308190831
 40
0.061714653
 40
0.0926838729
 40
0.1237235079
 40
0.1548298168
 40
0.1859986911
 40
0.2172256618
 40
0.2485059161
 40
0.2798343284
 40
0.3112054998
 40
0.3426137864
 40
0.3740533262
 40
0.4055180829
 40
0.4370018779
 40
0.4684984191
 40
0.5000013459
 40
0.5315042627
 40
0.5630007692
 40
0.5944845049
 40
0.6259491833
 40
0.6573886208
 40
0.6887967818
 40
0.7201678106
 40
0.7514960584
 40
0.7827761269
 40
0.8140028976
 40
0.8451715551
 40
0.8762776268
 40
0.9073170101
 40
0.938285989
 40
0.9691812689
 40
1.0
 40
1.0
 40
1.0
 40
1.0
 10
10.5599118648
 20
7.9704482745
 30
0.0
 10
10.5506201553
 20
7.972346564
 30
0.0
 10
10.5320853931
 20
7.976509002
 30
0.0
 10
10.5045128401
 20
7.9838276436
 30
0.0
 10
10.4771758565
 20
7.9922179146
 30
0.0
 10
10.4501178674
 20
8.0016665162
 30
0.0
 10
10.423381208
 20
8.0121587313
 30
0.0
 10
10.3970078503
 20
8.0236779911
 30
0.0
 10
10.3710391487
 20
8.0362061843
 30
0.0
 10
10.3455158919
 20
8.0497237219
 30
0.0
 10
10.320478102
 20
8.0642093288
 30
0.0
 10
10.2959650371
 20
8.0796402275
 30
0.0
 10
10.2720152031
 20
8.0959922697
 30
0.0
 10
10.2486661629
 20
8.1132397633
 30
0.0
 10
10.2259545113
 20
8.1313555904
 30
0.0
 10
10.2039159288
 20
8.1503113812
 30
0.0
 10
10.1825849969
 20
8.1700773864
 30
0.0
 10
10.1619951313
 20
8.1906225338
 30
0.0
 10
10.1421786808
 20
8.2119146303
 30
0.0
 10
10.1231667639
 20
8.2339202839
 30
0.0
 10
10.1049891479
 20
8.2566049098
 30
0.0
 10
10.0876743905
 20
8.2799329454
 30
0.0
 10
10.0712497116
 20
8.3038678196
 30
0.0
 10
10.0557408139
 20
8.3283719261
 30
0.0
 10
10.0411720585
 20
8.3534068353
 30
0.0
 10
10.0275663828
 20
8.3789333039
 30
0.0
 10
10.0149450679
 20
8.4049112372
 30
0.0
 10
10.0033279327
 20
8.4312998822
 30
0.0
 10
9.9927333049
 20
8.458057866
 30
0.0
 10
9.9831777495
 20
8.4851431823
 30
0.0
 10
9.9746762695
 20
8.5125132903
 30
0.0
 10
9.967242288
 20
8.5401254177
 30
0.0
 10
9.960887539
 20
8.5679356626
 30
0.0
 10
9.9573724514
 20
8.5866038169
 30
0.0
 10
9.9557986525
 20
8.5959558473
 30
0.0
  0
SPLINE
  5
2E0
100
AcDbEntity
  8
0
100
AcDbSpline
 62
7
  6
CONTINUOUS
 70
0
 71
3
 72
25
 73
21
 74
0
 42
0.0000001
 43
0.0000001
 44
0.0000000001
 40
0.0
 40
0.0
 40
0.0
 40
0.0
 40
0.030887643
 40
0.061841381
 40
0.0928583857
 40
0.123935495
 40
0.1862468149
 40
0.2487539191
 40
0.3114223179
 40
0.3742144432
 40
0.4370903818
 40
0.5000086375
 40
0.5629269173
 40
0.6258029279
 40
0.6885951723
 40
0.7512637329
 40
0.8137710395
 40
0.8760826016
 40
0.9381676959
 40
1.0
 40
1.0
 40
1.0
 40
1.0
 10
10.5403455324
 20
8.033002871
 30
0.0
 10
10.5324750261
 20
8.0350666055
 30
0.0
 10
10.5167882236
 20
8.0394751269
 30
0.0
 10
10.4934799815
 20
8.0469117599
 30
0.0
 10
10.4703964479
 20
8.0551701449
 30
0.0
 10
10.4399354647
 20
8.0672717584
 30
0.0
 10
10.4025732069
 20
8.0844019215
 30
0.0
 10
10.3591585064
 20
8.1080260997
 30
0.0
 10
10.3173429214
 20
8.1346160007
 30
0.0
 10
10.2773452663
 20
8.1640326226
 30
0.0
 10
10.2393730537
 20
8.1961230382
 30
0.0
 10
10.2036238136
 20
8.2307203097
 30
0.0
 10
10.1702833663
 20
8.2676445055
 30
0.0
 10
10.1395250842
 20
8.3067036372
 30
0.0
 10
10.1115089758
 20
8.3476946458
 30
0.0
 10
10.0863808652
 20
8.3904045384
 30
0.0
 10
10.0642716374
 20
8.4346110712
 30
0.0
 10
10.0452962874
 20
8.4800852676
 30
0.0
 10
10.0295545095
 20
8.526587627
 30
0.0
 10
10.0212508973
 20
8.5581891957
 30
0.0
 10
10.0176668741
 20
8.5740781645
 30
0.0
  0
SPLINE
  5
2E1
100
AcDbEntity
  8
0
100
AcDbSpline
 62
7
  6
CONTINUOUS
 70
0
 71
3
 72
26
 73
22
 74
0
 42
0.0000001
 43
0.0000001
 44
0.0000000001
 40
0.0
 40
0.0
 40
0.0
 40
0.0
 40
0.063823911
 40
0.127438084
 40
0.1908404865
 40
0.254036968
 40
0.2855616076
 40
0.3170367514
 40
0.3798378923
 40
0.4424542568
 40
0.5048967709
 40
0.5671780737
 40
0.6293123693
 40
0.6913153167
 40
0.7222752844
 40
0.7532088805
 40
0.8150011735
 40
0.8767162776
 40
0.9075535934
 40
0.9383791103
 40
1.0
 40
1.0
 40
1.0
 40
1.0
 10
11.3258086742
 20
7.0416047653
 30
0.0
 10
11.3361496202
 20
7.0408876182
 30
0.0
 10
11.3568350355
 20
7.0399467236
 30
0.0
 10
11.3878412388
 20
7.040024526
 30
0.0
 10
11.4187062507
 20
7.0415937147
 30
0.0
 10
11.4442716667
 20
7.0441433059
 30
0.0
 10
11.4645796588
 20
7.0469248796
 30
0.0
 10
11.4847499087
 20
7.0501934582
 30
0.0
 10
11.5097466238
 20
7.0551967801
 30
0.0
 10
11.5393427053
 20
7.0626618744
 30
0.0
 10
11.5684500635
 20
7.0715667653
 30
0.0
 10
11.5970016002
 20
7.0818910749
 30
0.0
 10
11.6249315008
 20
7.0936109753
 30
0.0
 10
11.6476473806
 20
7.1045242613
 30
0.0
 10
11.6654417808
 20
7.1139232885
 30
0.0
 10
11.6829617471
 20
7.1237547986
 30
0.0
 10
11.7043613976
 20
7.1368619368
 30
0.0
 10
11.7250509905
 20
7.1510358274
 30
0.0
 10
11.7411365774
 20
7.1629882007
 30
0.0
 10
11.7568984552
 20
7.1753387947
 30
0.0
 10
11.768358762
 20
7.1850524381
 30
0.0
 10
11.7758247872
 20
7.1917171396
 30
0.0
  0
SPLINE
  5
2E2
100
AcDbEntity
  8
0
100
AcDbSpline
 62
7
  6
CONTINUOUS
 70
0
 71
3
 72
52
 73
48
 74
0
 42
0.0000001
 43
0.0000001
 44
0.0000000001
 40
0.0
 40
0.0
 40
0.0
 40
0.0
 40
0.0311208547
 40
0.0623922951
 40
0.0938087376
 40
0.1253608425
 40
0.1570369732
 40
0.1888229969
 40
0.2207026768
 40
0.2526579912
 40
0.2846694876
 40
0.3167166569
 40
0.3487783216
 40
0.3808330335
 40
0.4128594745
 40
0.4448368553
 40
0.4767453069
 40
0.5085662622
 40
0.5402828175
 40
0.5718800705
 40
0.6033454296
 40
0.6190278265
 40
0.6346737297
 40
0.6502823326
 40
0.6658530113
 40
0.6813853417
 40
0.6968790891
 40
0.7123342204
 40
0.7277509047
 40
0.7431295061
 40
0.7584705962
 40
0.7737749406
 40
0.7890435022
 40
0.8042774397
 40
0.8194780933
 40
0.8346469911
 40
0.8497858319
 40
0.8648964803
 40
0.8799809614
 40
0.8950414412
 40
0.9100802247
 40
0.9250997385
 40
0.9401025158
 40
0.9550911894
 40
0.9700684687
 40
0.98503713
 40
1.0
 40
1.0
 40
1.0
 40
1.0
 10
11.3258086742
 20
7.0416047653
 30
0.0
 10
11.3102073594
 20
7.0426867201
 30
0.0
 10
11.2789959292
 20
7.0459797813
 30
0.0
 10
11.2325472046
 20
7.0542413718
 30
0.0
 10
11.1865804413
 20
7.065794471
 30
0.0
 10
11.1413361592
 20
7.0805789422
 30
0.0
 10
11.0970472872
 20
7.0985180062
 30
0.0
 10
11.0539427435
 20
7.1195187047
 30
0.0
 10
11.0122450113
 20
7.1434722647
 30
0.0
 10
10.9721693782
 20
7.1702547571
 30
0.0
 10
10.9339227371
 20
7.199727712
 30
0.0
 10
10.8977025722
 20
7.2317388403
 30
0.0
 10
10.8636958985
 20
7.2661227604
 30
0.0
 10
10.8320783192
 20
7.3027018712
 30
0.0
 10
10.8030131554
 20
7.3412872906
 30
0.0
 10
10.7766506084
 20
7.3816797971
 30
0.0
 10
10.7531269892
 20
7.4236708948
 30
0.0
 10
10.7325639795
 20
7.4670436605
 30
0.0
 10
10.7150679524
 20
7.511574562
 30
0.0
 10
10.7007298499
 20
7.55703211
 30
0.0
 10
10.6914636828
 20
7.5955387118
 30
0.0
 10
10.6857019495
 20
7.6265685853
 30
0.0
 10
10.6822129272
 20
7.6499009049
 30
0.0
 10
10.6795565905
 20
7.6732858724
 30
0.0
 10
10.6777363769
 20
7.6966936
 30
0.0
 10
10.6767545278
 20
7.720093702
 30
0.0
 10
10.6766124853
 20
7.743455941
 30
0.0
 10
10.6773103488
 20
7.7667500812
 30
0.0
 10
10.6788472255
 20
7.7899459916
 30
0.0
 10
10.6812212558
 20
7.8130136485
 30
0.0
 10
10.6844292179
 20
7.8359232208
 30
0.0
 10
10.6884671274
 20
7.8586450445
 30
0.0
 10
10.6933297052
 20
7.8811497227
 30
0.0
 10
10.6990106343
 20
7.9034081432
 30
0.0
 10
10.705502714
 20
7.9253914601
 30
0.0
 10
10.7127973903
 20
7.9470712673
 30
0.0
 10
10.7208853631
 20
7.968419463
 30
0.0
 10
10.7297561428
 20
7.9894084191
 30
0.0
 10
10.7393981905
 20
8.010010998
 30
0.0
 10
10.7497991826
 20
8.0302004564
 30
0.0
 10
10.7609455127
 20
8.0499507323
 30
0.0
 10
10.7728228551
 20
8.069236204
 30
0.0
 10
10.7854158469
 20
8.0880319016
 30
0.0
 10
10.7987080816
 20
8.1063135302
 30
0.0
 10
10.8126825812
 20
8.1240573978
 30
0.0
 10
10.827320814
 20
8.1412403202
 30
0.0
 10
10.8375116428
 20
8.1523089762
 30
0.0
 10
10.8427102377
 20
8.1577414368
 30
0.0
  0
SPLINE
  5
2E3
100
AcDbEntity
  8
0
100
AcDbSpline
 62
7
  6
CONTINUOUS
 70
0
 71
3
 72
52
 73
48
 74
0
 42
0.0000001
 43
0.0000001
 44
0.0000000001
 40
0.0
 40
0.0
 40
0.0
 40
0.0
 40
0.0417978167
 40
0.0840615308
 40
0.1266599452
 40
0.1694647093
 40
0.2123442471
 40
0.2551676124
 40
0.2978038023
 40
0.340122612
 40
0.381995097
 40
0.4232940911
 40
0.4638947378
 40
0.5036750193
 40
0.5425163039
 40
0.5803039261
 40
0.6169277796
 40
0.6522829323
 40
0.686270301
 40
0.7187974019
 40
0.7497792075
 40
0.7646667639
 40
0.7791400971
 40
0.7931911326
 40
0.8068125303
 40
0.8199977802
 40
0.8327410449
 40
0.8450376044
 40
0.8568835364
 40
0.868276178
 40
0.8792140523
 40
0.8896970245
 40
0.8997266904
 40
0.9093062438
 40
0.9184411643
 40
0.9271391635
 40
0.9354108014
 40
0.9432698937
 40
0.9507338843
 40
0.9578247196
 40
0.9645691193
 40
0.9709994962
 40
0.9771542504
 40
0.983078108
 40
0.9888220398
 40
0.9944424548
 40
1.0
 40
1.0
 40
1.0
 40
1.0
 10
8.3659692232
 20
9.4131288491
 30
0.0
 10
8.3595843322
 20
9.4135716428
 30
0.0
 10
8.3467360891
 20
9.414360086
 30
0.0
 10
8.3273611934
 20
9.4152499585
 30
0.0
 10
8.3078209178
 20
9.4158517822
 30
0.0
 10
8.2881795793
 20
9.4161636256
 30
0.0
 10
8.2685013311
 20
9.4161844213
 30
0.0
 10
8.2488507418
 20
9.4159141192
 30
0.0
 10
8.2292921745
 20
9.4153535993
 30
0.0
 10
8.2098897237
 20
9.4145047169
 30
0.0
 10
8.1907069592
 20
9.4133702769
 30
0.0
 10
8.1718067259
 20
9.4119540262
 30
0.0
 10
8.1532509366
 20
9.4102606423
 30
0.0
 10
8.1351003676
 20
9.4082957187
 30
0.0
 10
8.1174144554
 20
9.4060657459
 30
0.0
 10
8.1002510953
 20
9.4035780979
 30
0.0
 10
8.0836664414
 20
9.4008410073
 30
0.0
 10
8.067714734
 20
9.3978635316
 30
0.0
 10
8.0524480574
 20
9.3946555347
 30
0.0
 10
8.0379163591
 20
9.3912276198
 30
0.0
 10
8.0263092912
 20
9.3881578972
 30
0.0
 10
8.0174320662
 20
9.3855934818
 30
0.0
 10
8.0110754526
 20
9.3836479289
 30
0.0
 10
8.004936665
 20
9.381656166
 30
0.0
 10
7.999020712
 20
9.3796197958
 30
0.0
 10
7.9933324126
 20
9.3775405412
 30
0.0
 10
7.9878764175
 20
9.3754200326
 30
0.0
 10
7.9826571499
 20
9.3732600862
 30
0.0
 10
7.9776788664
 20
9.3710623998
 30
0.0
 10
7.9729455971
 20
9.3688288003
 30
0.0
 10
7.9684611675
 20
9.3665611072
 30
0.0
 10
7.9642292167
 20
9.3642611038
 30
0.0
 10
7.9602531157
 20
9.3619307178
 30
0.0
 10
7.9565360937
 20
9.3595717071
 30
0.0
 10
7.9530810808
 20
9.35718601
 30
0.0
 10
7.9498908525
 20
9.3547754203
 30
0.0
 10
7.946967954
 20
9.3523417671
 30
0.0
 10
7.9443146859
 20
9.349886893
 30
0.0
 10
7.9419332771
 20
9.3474124697
 30
0.0
 10
7.9398256329
 20
9.3449203157
 30
0.0
 10
7.9379937257
 20
9.3424120201
 30
0.0
 10
7.9364392948
 20
9.3398893301
 30
0.0
 10
7.9351641102
 20
9.3373539626
 30
0.0
 10
7.9341699563
 20
9.3348078369
 30
0.0
 10
7.9334583358
 20
9.3322530636
 30
0.0
 10
7.9330308076
 20
9.3296925562
 30
0.0
 10
7.9329355431
 20
9.3279794679
 30
0.0
 10
7.9329355512
 20
9.3271284773
 30
0.0
  0
SPLINE
  5
2E4
100
AcDbEntity
  8
0
100
AcDbSpline
 62
7
  6
CONTINUOUS
 70
0
 71
3
 72
26
 73
22
 74
0
 42
0.0000001
 43
0.0000001
 44
0.0000000001
 40
0.0
 40
0.0
 40
0.0
 40
0.0
 40
0.0638610767
 40
0.0957116505
 40
0.127505992
 40
0.1909252329
 40
0.2541287749
 40
0.2856539756
 40
0.3171277433
 40
0.3485511975
 40
0.3799255757
 40
0.4425274868
 40
0.5049513675
 40
0.5672117261
 40
0.6293248414
 40
0.6913085928
 40
0.7531822771
 40
0.8149664042
 40
0.8766824761
 40
0.9383527515
 40
1.0
 40
1.0
 40
1.0
 40
1.0
 10
9.7594743505
 20
6.9700819803
 30
0.0
 10
9.773357046
 20
6.9691192121
 30
0.0
 10
9.7942046955
 20
6.9681947085
 30
0.0
 10
9.8219911768
 20
6.9680120099
 30
0.0
 10
9.8496777375
 20
6.9685283946
 30
0.0
 10
9.8841589852
 20
6.9704816872
 30
0.0
 10
9.9184379729
 20
6.9741834785
 30
0.0
 10
9.9456484544
 20
6.9781873432
 30
0.0
 10
9.9659234066
 20
6.9817061891
 30
0.0
 10
9.9860685319
 20
6.9857409959
 30
0.0
 10
10.0127167888
 20
6.9918004903
 30
0.0
 10
10.0456465179
 20
7.0006502373
 30
0.0
 10
10.0844695216
 20
7.0132939663
 30
0.0
 10
10.1224755953
 20
7.027922661
 30
0.0
 10
10.1595682844
 20
7.0444994357
 30
0.0
 10
10.1956543036
 20
7.0629826447
 30
0.0
 10
10.2306426841
 20
7.0833258069
 30
0.0
 10
10.264445182
 20
7.1054776494
 30
0.0
 10
10.296976896
 20
7.1293826863
 30
0.0
 10
10.3281547416
 20
7.1549796456
 30
0.0
 10
10.3479889711
 20
7.1731330318
 30
0.0
 10
10.3576511695
 20
7.1824659904
 30
0.0
  0
SPLINE
  5
2E5
100
AcDbEntity
  8
0
100
AcDbSpline
 62
7
  6
CONTINUOUS
 70
0
 71
3
 72
55
 73
51
 74
0
 42
0.0000001
 43
0.0000001
 44
0.0000000001
 40
0.0
 40
0.0
 40
0.0
 40
0.0
 40
0.0311423829
 40
0.0624377778
 40
0.093880312
 40
0.125460263
 40
0.1571654449
 40
0.188981101
 40
0.2208902864
 40
0.2528742194
 40
0.2849126594
 40
0.3169843077
 40
0.3490672249
 40
0.3811392539
 40
0.4131784475
 40
0.4451634934
 40
0.4770741292
 40
0.5088915435
 40
0.5247623142
 40
0.5406035882
 40
0.5564135909
 40
0.5721906992
 40
0.587933461
 40
0.6036405973
 40
0.6193110081
 40
0.6349437882
 40
0.6505382227
 40
0.666093798
 40
0.6816102083
 40
0.6970873494
 40
0.7125253318
 40
0.7279244759
 40
0.7432853089
 40
0.7586085732
 40
0.7738952136
 40
0.7891463785
 40
0.8043634177
 40
0.8195478679
 40
0.8347014538
 40
0.8498260762
 40
0.8649237983
 40
0.8799968426
 40
0.8950475728
 40
0.9100784807
 40
0.925092178
 40
0.940091374
 40
0.9550788642
 40
0.9700575152
 40
0.9850302429
 40
1.0
 40
1.0
 40
1.0
 40
1.0
 10
11.3092442686
 20
7.0256047771
 30
0.0
 10
11.2933938095
 20
7.0267040102
 30
0.0
 10
11.2616836777
 20
7.0300680645
 30
0.0
 10
11.2145029273
 20
7.0385422284
 30
0.0
 10
11.1678275265
 20
7.050411942
 30
0.0
 10
11.1219095417
 20
7.0656134281
 30
0.0
 10
11.0769929471
 20
7.0840652387
 30
0.0
 10
11.0333173247
 20
7.1056686218
 30
0.0
 10
10.9911153315
 20
7.1303081252
 30
0.0
 10
10.9506118551
 20
7.1578522126
 30
0.0
 10
10.9120227178
 20
7.1881539338
 30
0.0
 10
10.8755535091
 20
7.22105164
 30
0.0
 10
10.8413985686
 20
7.2563699276
 30
0.0
 10
10.8097399538
 20
7.2939205981
 30
0.0
 10
10.7807465134
 20
7.3335034453
 30
0.0
 10
10.7545727003
 20
7.3749079189
 30
0.0
 10
10.7313587324
 20
7.4179119301
 30
0.0
 10
10.7145672672
 20
7.4549274755
 30
0.0
 10
10.7027340757
 20
7.4851080763
 30
0.0
 10
10.6946753098
 20
7.5079803377
 30
0.0
 10
10.6874371756
 20
7.5310750406
 30
0.0
 10
10.681029301
 20
7.5543617327
 30
0.0
 10
10.6754601715
 20
7.5778092034
 30
0.0
 10
10.6707372784
 20
7.6013861949
 30
0.0
 10
10.6668669917
 20
7.625061233
 30
0.0
 10
10.6638543732
 20
7.6488026955
 30
0.0
 10
10.661703582
 20
7.6725789035
 30
0.0
 10
10.6604174565
 20
7.6963581049
 30
0.0
 10
10.6599976748
 20
7.720108551
 30
0.0
 10
10.6604449462
 20
7.7437985303
 30
0.0
 10
10.6617585667
 20
7.7673964086
 30
0.0
 10
10.6639368386
 20
7.7908706753
 30
0.0
 10
10.6669769396
 20
7.8141899706
 30
0.0
 10
10.6708746976
 20
7.8373231668
 30
0.0
 10
10.675625038
 20
7.8602393493
 30
0.0
 10
10.6812216038
 20
7.8829079086
 30
0.0
 10
10.6876568646
 20
7.9052985845
 30
0.0
 10
10.694922374
 20
7.9273814252
 30
0.0
 10
10.703008332
 20
7.9491269602
 30
0.0
 10
10.7119039706
 20
7.9705061334
 30
0.0
 10
10.7215975009
 20
7.9914903402
 30
0.0
 10
10.7320758596
 20
8.0120515983
 30
0.0
 10
10.7433251524
 20
8.0321623874
 30
0.0
 10
10.7553303508
 20
8.0517958319
 30
0.0
 10
10.768075344
 20
8.0709257434
 30
0.0
 10
10.7815432337
 20
8.0895264842
 30
0.0
 10
10.7957159221
 20
8.1075732282
 30
0.0
 10
10.8105745625
 20
8.1250419527
 30
0.0
 10
10.8260990621
 20
8.1419089071
 30
0.0
 10
10.8368798895
 20
8.1527385861
 30
0.0
 10
10.842373129
 20
8.1580446663
 30
0.0
  0
SPLINE
  5
2E6
100
AcDbEntity
  8
0
100
AcDbSpline
 62
7
  6
CONTINUOUS
 70
0
 71
3
 72
23
 73
19
 74
0
 42
0.0000001
 43
0.0000001
 44
0.0000000001
 40
0.0
 40
0.0
 40
0.0
 40
0.0
 40
0.0635433362
 40
0.1269389642
 40
0.190180529
 40
0.2532717655
 40
0.316215
 40
0.3790120733
 40
0.4416663486
 40
0.5041818772
 40
0.5665632324
 40
0.6288157291
 40
0.6909453293
 40
0.7529586034
 40
0.8148627272
 40
0.8766654193
 40
0.9383749329
 40
1.0
 40
1.0
 40
1.0
 40
1.0
 10
10.096715288
 20
7.3209458037
 30
0.0
 10
10.1059758673
 20
7.3203035804
 30
0.0
 10
10.1244990944
 20
7.3193377478
 30
0.0
 10
10.1522828532
 20
7.318848313
 30
0.0
 10
10.1800012312
 20
7.3193207904
 30
0.0
 10
10.2076203044
 20
7.3207545469
 30
0.0
 10
10.2351077142
 20
7.3231477233
 30
0.0
 10
10.2624307054
 20
7.3264977332
 30
0.0
 10
10.289556726
 20
7.330800464
 30
0.0
 10
10.3164535336
 20
7.3360508095
 30
0.0
 10
10.343089109
 20
7.3422426572
 30
0.0
 10
10.3694317924
 20
7.3493684972
 30
0.0
 10
10.3954502068
 20
7.3574199959
 30
0.0
 10
10.4211134101
 20
7.3663875498
 30
0.0
 10
10.4463908607
 20
7.376260421
 30
0.0
 10
10.4712525303
 20
7.3870270839
 30
0.0
 10
10.4956684826
 20
7.3986743483
 30
0.0
 10
10.5116404107
 20
7.4070229854
 30
0.0
 10
10.5195410491
 20
7.4113388302
 30
0.0
  0
SPLINE
  5
2E7
100
AcDbEntity
  8
0
100
AcDbSpline
 62
7
  6
CONTINUOUS
 70
0
 71
3
 72
23
 73
19
 74
0
 42
0.0000001
 43
0.0000001
 44
0.0000000001
 40
0.0
 40
0.0
 40
0.0
 40
0.0
 40
0.0635820697
 40
0.12700901
 40
0.1902749383
 40
0.2533840246
 40
0.3163384736
 40
0.3791406575
 40
0.4417945082
 40
0.5043046154
 40
0.5666762591
 40
0.6289155362
 40
0.6910292782
 40
0.7530249896
 40
0.8149108449
 40
0.8766956415
 40
0.9383887323
 40
1.0
 40
1.0
 40
1.0
 40
1.0
 10
10.1061293227
 20
7.350323507
 30
0.0
 10
10.1155707888
 20
7.3496687391
 30
0.0
 10
10.1344559216
 20
7.3486989054
 30
0.0
 10
10.1627807916
 20
7.3482672819
 30
0.0
 10
10.1910327263
 20
7.3488614123
 30
0.0
 10
10.2191739854
 20
7.3504804599
 30
0.0
 10
10.2471684549
 20
7.3531222141
 30
0.0
 10
10.2749796218
 20
7.3567834022
 30
0.0
 10
10.3025712497
 20
7.3614592671
 30
0.0
 10
10.329907476
 20
7.3671436377
 30
0.0
 10
10.3569527007
 20
7.3738292555
 30
0.0
 10
10.383671722
 20
7.3815074054
 30
0.0
 10
10.4100297859
 20
7.3901680372
 30
0.0
 10
10.4359925502
 20
7.3998000261
 30
0.0
 10
10.4615262078
 20
7.4103907532
 30
0.0
 10
10.4865976599
 20
7.4219264909
 30
0.0
 10
10.5111737424
 20
7.4343920948
 30
0.0
 10
10.5272171696
 20
7.4433175779
 30
0.0
 10
10.53514415
 20
7.4479291268
 30
0.0
  0
SPLINE
  5
2E8
100
AcDbEntity
  8
0
100
AcDbSpline
 62
7
  6
CONTINUOUS
 70
0
 71
3
 72
76
 73
72
 74
0
 42
0.0000001
 43
0.0000001
 44
0.0000000001
 40
0.0
 40
0.0
 40
0.0
 40
0.0
 40
0.0156747358
 40
0.0235325428
 40
0.0314031247
 40
0.0471815269
 40
0.0630096691
 40
0.0709422965
 40
0.0788865455
 40
0.0948074602
 40
0.1107706217
 40
0.1267727506
 40
0.1428102138
 40
0.1588790637
 40
0.1749750744
 40
0.1910937801
 40
0.2072305158
 40
0.2233804587
 40
0.2395386706
 40
0.2557001414
 40
0.2718598329
 40
0.2880127219
 40
0.304153845
 40
0.320278341
 40
0.3363814943
 40
0.3524587764
 40
0.3685058868
 40
0.384518792
 40
0.4004937632
 40
0.4164274116
 40
0.4323167216
 40
0.4481590813
 40
0.4639523095
 40
0.4796946803
 40
0.495384943
 40
0.5110223391
 40
0.5266066138
 40
0.542138024
 40
0.5576173411
 40
0.5730458482
 40
0.588425333
 40
0.6037580745
 40
0.6190468249
 40
0.6342947854
 40
0.6495055776
 40
0.6646832087
 40
0.6798320327
 40
0.6949567064
 40
0.7100621422
 40
0.7251534568
 40
0.7402359175
 40
0.7553148859
 40
0.7703957613
 40
0.7854839223
 40
0.8005846697
 40
0.8157031702
 40
0.8308444015
 40
0.8460131006
 40
0.8612137152
 40
0.8764503585
 40
0.8917267695
 40
0.9070462755
 40
0.9147237276
 40
0.9224129992
 40
0.9301143742
 40
0.9378281071
 40
0.9532923509
 40
0.9688083105
 40
0.9765865615
 40
0.9843782585
 40
1.0
 40
1.0
 40
1.0
 40
1.0
 10
9.7405805637
 20
6.8813193479
 30
0.0
 10
9.7257953379
 20
6.8823447068
 30
0.0
 10
9.7036309992
 20
6.8844277642
 30
0.0
 10
9.6741875932
 20
6.888279216
 30
0.0
 10
9.6447484267
 20
6.8928565362
 30
0.0
 10
9.6080819077
 20
6.8999246184
 30
0.0
 10
9.5717390126
 20
6.9087540158
 30
0.0
 10
9.5428772842
 20
6.9168662263
 30
0.0
 10
9.5141323385
 20
6.9256866994
 30
0.0
 10
9.4785313614
 20
6.938010268
 30
0.0
 10
9.4364741754
 20
6.9548237259
 30
0.0
 10
9.3951493808
 20
6.9736330335
 30
0.0
 10
9.3546570594
 20
6.9943926791
 30
0.0
 10
9.3150945019
 20
7.0170526846
 30
0.0
 10
9.2765569704
 20
7.0415584481
 30
0.0
 10
9.2391372028
 20
7.0678509489
 30
0.0
 10
9.2029252628
 20
7.0958668695
 30
0.0
 10
9.1680083043
 20
7.1255387525
 30
0.0
 10
9.1344703667
 20
7.1567951591
 30
0.0
 10
9.1023921736
 20
7.1895608434
 30
0.0
 10
9.0718509397
 20
7.2237569329
 30
0.0
 10
9.042920186
 20
7.259301117
 30
0.0
 10
9.0156695633
 20
7.2961078446
 30
0.0
 10
8.9901646858
 20
7.3340885287
 30
0.0
 10
8.9664669731
 20
7.3731517586
 30
0.0
 10
8.9446335033
 20
7.4132035188
 30
0.0
 10
8.9247168756
 20
7.4541474139
 30
0.0
 10
8.9067650843
 20
7.4958848993
 30
0.0
 10
8.890821403
 20
7.5383155168
 30
0.0
 10
8.8769242808
 20
7.5813371353
 30
0.0
 10
8.8651072474
 20
7.6248461945
 30
0.0
 10
8.8553988311
 20
7.6687379526
 30
0.0
 10
8.847822492
 20
7.7129067381
 30
0.0
 10
8.842396564
 20
7.7572462024
 30
0.0
 10
8.8391342097
 20
7.8016495743
 30
0.0
 10
8.8380433871
 20
7.8460099155
 30
0.0
 10
8.8391268283
 20
7.8902203771
 30
0.0
 10
8.8423820316
 20
7.9341744558
 30
0.0
 10
8.8478012645
 20
7.9777662494
 30
0.0
 10
8.8553715799
 20
8.0208907117
 30
0.0
 10
8.8650748449
 20
8.0634439052
 30
0.0
 10
8.8768877814
 20
8.1053232521
 30
0.0
 10
8.8907820197
 20
8.1464277823
 30
0.0
 10
8.9067241619
 20
8.1866583785
 30
0.0
 10
8.9246758602
 20
8.225918018
 30
0.0
 10
8.9445939097
 20
8.2641120073
 30
0.0
 10
8.96643035
 20
8.3011482137
 30
0.0
 10
8.9901325798
 20
8.33693729
 30
0.0
 10
9.015643483
 20
8.3713928933
 30
0.0
 10
9.0429015661
 20
8.4044318963
 30
0.0
 10
9.0718411073
 20
8.4359745913
 30
0.0
 10
9.1023923161
 20
8.4659448852
 30
0.0
 10
9.1344815034
 20
8.494270486
 30
0.0
 10
9.1680312615
 20
8.5208830793
 30
0.0
 10
9.202960653
 20
8.5457184954
 30
0.0
 10
9.239185411
 20
8.5687168648
 30
0.0
 10
9.2766181381
 20
8.5898227655
 30
0.0
 10
9.3151685433
 20
8.6089853586
 30
0.0
 10
9.3547435828
 20
8.6261584947
 30
0.0
 10
9.3952479917
 20
8.6413008804
 30
0.0
 10
9.4365833741
 20
8.6543759637
 30
0.0
 10
9.4716157159
 20
8.6635166993
 30
0.0
 10
9.4999512017
 20
8.6697681958
 30
0.0
 10
9.5213648632
 20
8.6739266783
 30
0.0
 10
9.5429104977
 20
8.6775488136
 30
0.0
 10
9.5718187038
 20
8.6816633505
 30
0.0
 10
9.6082241505
 20
8.6854526348
 30
0.0
 10
9.6448337213
 20
8.6874259547
 30
0.0
 10
9.6742245973
 20
8.6879180209
 30
0.0
 10
9.7037180981
 20
8.6876840425
 30
0.0
 10
9.7258453249
 20
8.6866908809
 30
0.0
 10
9.7405805637
 20
8.6856689886
 30
0.0
  0
SPLINE
  5
2E9
100
AcDbEntity
  8
0
100
AcDbSpline
 62
7
  6
CONTINUOUS
 70
0
 71
3
 72
67
 73
63
 74
0
 42
0.0000001
 43
0.0000001
 44
0.0000000001
 40
0.0
 40
0.0
 40
0.0
 40
0.0
 40
0.0155529919
 40
0.0311456664
 40
0.0467761022
 40
0.0624442995
 40
0.0781493133
 40
0.0938899495
 40
0.1096649852
 40
0.1254729684
 40
0.1413122783
 40
0.1571811472
 40
0.173077654
 40
0.1889997433
 40
0.2049452325
 40
0.2209118224
 40
0.2368971132
 40
0.2528986119
 40
0.2689137462
 40
0.2849398801
 40
0.3170096725
 40
0.349090733
 40
0.3811609056
 40
0.4131982442
 40
0.4292002548
 40
0.4451861438
 40
0.461153417
 40
0.4770996701
 40
0.4930225999
 40
0.5089200208
 40
0.5247898721
 40
0.5406302281
 40
0.5564393135
 40
0.5722155082
 40
0.5879573568
 40
0.6036635816
 40
0.619333085
 40
0.6349649572
 40
0.6505584871
 40
0.6661131612
 40
0.6816286696
 40
0.6971049134
 40
0.7125420007
 40
0.7279402497
 40
0.7433001925
 40
0.7586225677
 40
0.7739083201
 40
0.789158601
 40
0.8043747569
 40
0.8195583258
 40
0.8347110332
 40
0.8498347779
 40
0.8649316244
 40
0.8800037948
 40
0.8950536521
 40
0.9100836889
 40
0.9250965158
 40
0.9400948429
 40
0.955081465
 40
0.9700592481
 40
0.9850311093
 40
1.0
 40
1.0
 40
1.0
 40
1.0
 10
9.7594743505
 20
6.9700819803
 30
0.0
 10
9.7493314177
 20
6.9707853951
 30
0.0
 10
9.729043424
 20
6.9725641073
 30
0.0
 10
9.6986921031
 20
6.9763357101
 30
0.0
 10
9.6684215294
 20
6.9812096538
 30
0.0
 10
9.6382731208
 20
6.9871791725
 30
0.0
 10
9.6082866035
 20
6.9942362848
 30
0.0
 10
9.5785021184
 20
7.0023715973
 30
0.0
 10
9.5489594652
 20
7.0115742698
 30
0.0
 10
9.5196980282
 20
7.0218319189
 30
0.0
 10
9.4907568713
 20
7.0331308569
 30
0.0
 10
9.4621746576
 20
7.0454560589
 30
0.0
 10
9.4339894951
 20
7.0587909668
 30
0.0
 10
9.4062390089
 20
7.0731177908
 30
0.0
 10
9.3789602733
 20
7.0884174664
 30
0.0
 10
9.3521896532
 20
7.1046694658
 30
0.0
 10
9.3259628644
 20
7.1218521373
 30
0.0
 10
9.3003150455
 20
7.1399425114
 30
0.0
 10
9.2752800215
 20
7.1589166758
 30
0.0
 10
9.2427582219
 20
7.1853627677
 30
0.0
 10
9.2038067351
 20
7.2204993799
 30
0.0
 10
9.1600464955
 20
7.2657505975
 30
0.0
 10
9.1194842772
 20
7.3138616386
 30
0.0
 10
9.0885126476
 20
7.3561457863
 30
0.0
 10
9.0655432116
 20
7.3911425176
 30
0.0
 10
9.0492473464
 20
7.4179310225
 30
0.0
 10
9.0338998929
 20
7.445231726
 30
0.0
 10
9.0195211041
 20
7.4730085985
 30
0.0
 10
9.0061302978
 20
7.5012244823
 30
0.0
 10
8.9937452485
 20
7.5298417031
 30
0.0
 10
8.9823825608
 20
7.5588220853
 30
0.0
 10
8.9720574475
 20
7.5881269597
 30
0.0
 10
8.9627836136
 20
7.6177171791
 30
0.0
 10
8.954573517
 20
7.6475532697
 30
0.0
 10
8.9474381617
 20
7.6775954093
 30
0.0
 10
8.9413869974
 20
7.7078034743
 30
0.0
 10
8.9364281911
 20
7.7381371561
 30
0.0
 10
8.9325684031
 20
7.7685559593
 30
0.0
 10
8.929812714
 20
7.799019263
 30
0.0
 10
8.9281649009
 20
7.8294864051
 30
0.0
 10
8.9276271985
 20
7.859916703
 30
0.0
 10
8.9282002561
 20
7.8902695247
 30
0.0
 10
8.9298834138
 20
7.9205043398
 30
0.0
 10
8.9326744514
 20
7.9505807676
 30
0.0
 10
8.9365695776
 20
7.9804586511
 30
0.0
 10
8.9415637004
 20
8.0100980764
 30
0.0
 10
8.947650169
 20
8.0394594507
 30
0.0
 10
8.9548207945
 20
8.0685035734
 30
0.0
 10
8.9630661108
 20
8.0971916252
 30
0.0
 10
8.9723751134
 20
8.1254852789
 30
0.0
 10
8.9827353121
 20
8.1533467608
 30
0.0
 10
8.9941329763
 20
8.1807388126
 30
0.0
 10
9.0065528782
 20
8.2076248364
 30
0.0
 10
9.0199783733
 20
8.23396894
 30
0.0
 10
9.0343916288
 20
8.2597358749
 30
0.0
 10
9.0497733751
 20
8.2848912168
 30
0.0
 10
9.06610301
 20
8.3094013858
 30
0.0
 10
9.0833588181
 20
8.3332335775
 30
0.0
 10
9.1015176883
 20
8.3563559286
 30
0.0
 10
9.120555425
 20
8.3787376928
 30
0.0
 10
9.1404462528
 20
8.400348475
 30
0.0
 10
9.1542592942
 20
8.4142239324
 30
0.0
 10
9.1612975316
 20
8.4210223416
 30
0.0
  0
SPLINE
  5
2EA
100
AcDbEntity
  8
0
100
AcDbSpline
 62
7
  6
CONTINUOUS
 70
0
 71
3
 72
15
 73
11
 74
0
 42
0.0000001
 43
0.0000001
 44
0.0000000001
 40
0.0
 40
0.0
 40
0.0
 40
0.0
 40
0.1268090487
 40
0.2530613889
 40
0.3787673749
 40
0.5039434462
 40
0.6286161836
 40
0.7528202036
 40
0.8765981611
 40
1.0
 40
1.0
 40
1.0
 40
1.0
 10
10.096715288
 20
7.2958317307
 30
0.0
 10
10.1142356513
 20
7.2946166894
 30
0.0
 10
10.1492860743
 20
7.2932914753
 30
0.0
 10
10.2017600411
 20
7.2946465879
 30
0.0
 10
10.25381652
 20
7.2993430327
 30
0.0
 10
10.3052440595
 20
7.3073626905
 30
0.0
 10
10.3558366083
 20
7.3186734943
 30
0.0
 10
10.40539155
 20
7.3332307873
 30
0.0
 10
10.4537070883
 20
7.3509751098
 30
0.0
 10
10.4850113798
 20
7.3649043534
 30
0.0
 10
10.5003839189
 20
7.3723724429
 30
0.0
  0
SPLINE
  5
2EB
100
AcDbEntity
  8
0
100
AcDbSpline
 62
7
  6
CONTINUOUS
 70
0
 71
3
 72
28
 73
24
 74
0
 42
0.0000001
 43
0.0000001
 44
0.0000000001
 40
0.0
 40
0.0
 40
0.0
 40
0.0
 40
0.0616465572
 40
0.0924798212
 40
0.1233217026
 40
0.1850370795
 40
0.2468205085
 40
0.2777472544
 40
0.3086990012
 40
0.3396782733
 40
0.3706875295
 40
0.43279994
 40
0.4950595942
 40
0.5574827697
 40
0.6200839761
 40
0.6828758318
 40
0.71434923
 40
0.7458740756
 40
0.8090769614
 40
0.8724953205
 40
0.9042893743
 40
0.9361398561
 40
1.0
 40
1.0
 40
1.0
 40
1.0
 10
11.7761154081
 20
7.1913692754
 30
0.0
 10
11.7685741662
 20
7.18408497
 30
0.0
 10
11.7569640345
 20
7.1734586715
 30
0.0
 10
11.7409320935
 20
7.1599316045
 30
0.0
 10
11.7245331676
 20
7.1468322459
 30
0.0
 10
11.7033692387
 20
7.1312803657
 30
0.0
 10
11.6813902772
 20
7.1168769239
 30
0.0
 10
11.6633492249
 20
7.1060617229
 30
0.0
 10
11.6495899642
 20
7.0983048414
 30
0.0
 10
11.6356165737
 20
7.0909106306
 30
0.0
 10
11.6167027534
 20
7.0815372356
 30
0.0
 10
11.5925630714
 20
7.0707490117
 30
0.0
 10
11.5629001413
 20
7.0593315832
 30
0.0
 10
11.5325986459
 20
7.0494630917
 30
0.0
 10
11.5017359578
 20
7.0411686765
 30
0.0
 10
11.4756327191
 20
7.0355897747
 30
0.0
 10
11.4545515141
 20
7.0319310213
 30
0.0
 10
11.4333138773
 20
7.0288060004
 30
0.0
 10
11.4065595108
 20
7.0259167951
 30
0.0
 10
11.3796472073
 20
7.0243922357
 30
0.0
 10
11.3580380734
 20
7.0239891841
 30
0.0
 10
11.3363509579
 20
7.0241317997
 30
0.0
 10
11.320079549
 20
7.0248533479
 30
0.0
 10
11.3092442686
 20
7.0256047771
 30
0.0
  0
SPLINE
  5
2EC
100
AcDbEntity
  8
0
100
AcDbSpline
 62
7
  6
CONTINUOUS
 70
0
 71
3
 72
21
 73
17
 74
0
 42
0.0000001
 43
0.0000001
 44
0.0000000001
 40
0.0
 40
0.0
 40
0.0
 40
0.0
 40
0.1267542116
 40
0.2529675567
 40
0.3158817647
 40
0.3786646309
 40
0.4413181528
 40
0.5038452478
 40
0.5662492151
 40
0.6285337326
 40
0.6907030269
 40
0.752761773
 40
0.8147150978
 40
0.8765685432
 40
0.9383280628
 40
1.0
 40
1.0
 40
1.0
 40
1.0
 10
10.1774667634
 20
7.4192301875
 30
0.0
 10
10.1935697667
 20
7.4181134405
 30
0.0
 10
10.2257835618
 20
7.4168671574
 30
0.0
 10
10.2660261106
 20
7.4177992444
 30
0.0
 10
10.2980319558
 20
7.420041935
 30
0.0
 10
10.321898915
 20
7.4224669069
 30
0.0
 10
10.3456288452
 20
7.4256342206
 30
0.0
 10
10.3691994729
 20
7.4295409476
 30
0.0
 10
10.3925884303
 20
7.434183248
 30
0.0
 10
10.4157735163
 20
7.4395569261
 30
0.0
 10
10.4387327837
 20
7.4456566781
 30
0.0
 10
10.4614444119
 20
7.4524769487
 30
0.0
 10
10.4838869002
 20
7.4600110675
 30
0.0
 10
10.5060389901
 20
7.4682521033
 30
0.0
 10
10.5278794198
 20
7.4771919829
 30
0.0
 10
10.5422284985
 20
7.4836168907
 30
0.0
 10
10.5493432429
 20
7.4869426852
 30
0.0
  0
SPLINE
  5
2ED
100
AcDbEntity
  8
0
100
AcDbSpline
 62
7
  6
CONTINUOUS
 70
0
 71
3
 72
45
 73
41
 74
0
 42
0.0000001
 43
0.0000001
 44
0.0000000001
 40
0.0
 40
0.0
 40
0.0
 40
0.0
 40
0.0309546486
 40
0.0620427229
 40
0.093260249
 40
0.1246005098
 40
0.1560552137
 40
0.1876142124
 40
0.219265789
 40
0.2509968248
 40
0.2827930111
 40
0.31463907
 40
0.3465189852
 40
0.3784162412
 40
0.4103140671
 40
0.4421956834
 40
0.4740445494
 40
0.5058446073
 40
0.5375805219
 40
0.569237912
 40
0.600803572
 40
0.6322656803
 40
0.6636139928
 40
0.694840016
 40
0.7259371581
 40
0.7569008558
 40
0.787728672
 40
0.8184203627
 40
0.8337176982
 40
0.8489819333
 40
0.8642136644
 40
0.8794136208
 40
0.8945826717
 40
0.9097218118
 40
0.9248321689
 40
0.9399149922
 40
0.95497165
 40
0.9700036271
 40
0.9850125121
 40
1.0
 40
1.0
 40
1.0
 40
1.0
 10
10.096715288
 20
7.2958317307
 30
0.0
 10
10.0789856497
 20
7.2970612853
 30
0.0
 10
10.0435183754
 20
7.3006579851
 30
0.0
 10
9.9906600604
 20
7.3094072611
 30
0.0
 10
9.938233024
 20
7.3214871082
 30
0.0
 10
9.8864532602
 20
7.3368480503
 30
0.0
 10
9.8355306955
 20
7.3554272718
 30
0.0
 10
9.7856725931
 20
7.3771489877
 30
0.0
 10
9.7370816372
 20
7.4019246405
 30
0.0
 10
9.6899554017
 20
7.4296532867
 30
0.0
 10
9.6444854733
 20
7.4602220053
 30
0.0
 10
9.6008567107
 20
7.4935063706
 30
0.0
 10
9.5592464929
 20
7.5293709522
 30
0.0
 10
9.5198240067
 20
7.5676698616
 30
0.0
 10
9.4827495675
 20
7.6082473435
 30
0.0
 10
9.4481739624
 20
7.6509383935
 30
0.0
 10
9.4162378304
 20
7.6955694195
 30
0.0
 10
9.3870711142
 20
7.7419589598
 30
0.0
 10
9.3607925323
 20
7.7899184102
 30
0.0
 10
9.3375090998
 20
7.8392527837
 30
0.0
 10
9.3173156947
 20
7.8897614944
 30
0.0
 10
9.3002946727
 20
7.9412391662
 30
0.0
 10
9.2865155006
 20
7.99347644
 30
0.0
 10
9.2760345044
 20
8.0462608741
 30
0.0
 10
9.2688946146
 20
8.0993776257
 30
0.0
 10
9.2651252652
 20
8.1526109542
 30
0.0
 10
9.264741968
 20
8.2057427168
 30
0.0
 10
9.2672492535
 20
8.2498081384
 30
0.0
 10
9.2709478905
 20
8.2847859813
 30
0.0
 10
9.2745599412
 20
8.3108332246
 30
0.0
 10
9.2790092532
 20
8.3366936071
 30
0.0
 10
9.2842913831
 20
8.3623411242
 30
0.0
 10
9.2904008174
 20
8.3877495897
 30
0.0
 10
9.2973315322
 20
8.4128931029
 30
0.0
 10
9.3050762947
 20
8.437746091
 30
0.0
 10
9.3136273647
 20
8.4622832063
 30
0.0
 10
9.3229759729
 20
8.4864794419
 30
0.0
 10
9.3331126199
 20
8.5103102566
 30
0.0
 10
9.3440269276
 20
8.5337509739
 30
0.0
 10
9.3518197408
 20
8.5491133913
 30
0.0
 10
9.3558416402
 20
8.5567205093
 30
0.0
  0
SPLINE
  5
2EE
100
AcDbEntity
  8
0
100
AcDbSpline
 62
7
  6
CONTINUOUS
 70
0
 71
3
 72
46
 73
42
 74
0
 42
0.0000001
 43
0.0000001
 44
0.0000000001
 40
0.0
 40
0.0
 40
0.0
 40
0.0
 40
0.0309845287
 40
0.0621054833
 40
0.0933586366
 40
0.1247368504
 40
0.1562313024
 40
0.1878312058
 40
0.2195241168
 40
0.2512961224
 40
0.283132073
 40
0.3150158261
 40
0.3469305006
 40
0.3788587391
 40
0.4107829752
 40
0.4426857043
 40
0.4745497524
 40
0.5063585428
 40
0.538096354
 40
0.5697485705
 40
0.601301919
 40
0.6327446912
 40
0.6640669456
 40
0.6952606873
 40
0.7263200208
 40
0.7572412743
 40
0.7880230895
 40
0.8033640146
 40
0.8186706599
 40
0.8339435248
 40
0.8491832535
 40
0.8643906411
 40
0.8795666193
 40
0.8947122657
 40
0.9098287901
 40
0.9249175342
 40
0.9399799679
 40
0.9550176767
 40
0.9700323645
 40
0.9850258369
 40
1.0
 40
1.0
 40
1.0
 40
1.0
 10
10.096715288
 20
7.3209458037
 30
0.0
 10
10.0791384084
 20
7.3221647645
 30
0.0
 10
10.0439763874
 20
7.3257556678
 30
0.0
 10
9.9915856465
 20
7.3345403403
 30
0.0
 10
9.9396416418
 20
7.3466981527
 30
0.0
 10
9.8883679753
 20
7.3621770719
 30
0.0
 10
9.8379818386
 20
7.3809109567
 30
0.0
 10
9.7886975051
 20
7.4028199621
 30
0.0
 10
9.7407243059
 20
7.4278107621
 30
0.0
 10
9.6942660422
 20
7.4557769668
 30
0.0
 10
9.6495200504
 20
7.4865995859
 30
0.0
 10
9.6066764004
 20
7.5201475404
 30
0.0
 10
9.5659170901
 20
7.5562782138
 30
0.0
 10
9.5274152811
 20
7.5948380534
 30
0.0
 10
9.4913345736
 20
7.6356632202
 30
0.0
 10
9.4578282925
 20
7.6785802577
 30
0.0
 10
9.4270388519
 20
7.7234068387
 30
0.0
 10
9.3990971639
 20
7.7699525402
 30
0.0
 10
9.3741220848
 20
7.8180196424
 30
0.0
 10
9.3522199117
 20
7.8674039581
 30
0.0
 10
9.3334839383
 20
7.9178956956
 30
0.0
 10
9.3179940295
 20
7.9692803175
 30
0.0
 10
9.3058162899
 20
8.0213394979
 30
0.0
 10
9.2970027817
 20
8.0738518665
 30
0.0
 10
9.2915913561
 20
8.1265945988
 30
0.0
 10
9.2896052521
 20
8.1793418979
 30
0.0
 10
9.290813808
 20
8.2231699285
 30
0.0
 10
9.293500088
 20
8.2580030276
 30
0.0
 10
9.2963673127
 20
8.2839624366
 30
0.0
 10
9.3000862147
 20
8.3097551916
 30
0.0
 10
9.3046528844
 20
8.3353541938
 30
0.0
 10
9.3100623502
 20
8.3607321271
 30
0.0
 10
9.3163090516
 20
8.3858619668
 30
0.0
 10
9.3233861582
 20
8.4107170045
 30
0.0
 10
9.3312863028
 20
8.4352707457
 30
0.0
 10
9.3400010113
 20
8.4594970712
 30
0.0
 10
9.3495210031
 20
8.4833702093
 30
0.0
 10
9.3598362497
 20
8.5068646732
 30
0.0
 10
9.3709356651
 20
8.5299556202
 30
0.0
 10
9.3828074342
 20
8.5526180239
 30
0.0
 10
9.3912338599
 20
8.5674343346
 30
0.0
 10
9.3955710469
 20
8.5747618795
 30
0.0
  0
SPLINE
  5
2EF
100
AcDbEntity
  8
0
100
AcDbSpline
 62
7
  6
CONTINUOUS
 70
0
 71
3
 72
23
 73
19
 74
0
 42
0.0000001
 43
0.0000001
 44
0.0000000001
 40
0.0
 40
0.0
 40
0.0
 40
0.0
 40
0.0635649727
 40
0.1269786635
 40
0.1902341712
 40
0.2533354576
 40
0.3162851627
 40
0.379085275
 40
0.4417394177
 40
0.5042519939
 40
0.5666279573
 40
0.6288730509
 40
0.6909937105
 40
0.7529970293
 40
0.8148907363
 40
0.8766831365
 40
0.938383103
 40
1.0
 40
1.0
 40
1.0
 40
1.0
 10
10.1981722699
 20
7.5165042429
 30
0.0
 10
10.2065223528
 20
7.5159251627
 30
0.0
 10
10.2232245073
 20
7.5150616872
 30
0.0
 10
10.2482759312
 20
7.5146538325
 30
0.0
 10
10.2732653337
 20
7.5151357379
 30
0.0
 10
10.2981605139
 20
7.5165067203
 30
0.0
 10
10.3229307918
 20
7.5187649083
 30
0.0
 10
10.3475451116
 20
7.5219077499
 30
0.0
 10
10.371972616
 20
7.5259311538
 30
0.0
 10
10.3961827448
 20
7.530830139
 30
0.0
 10
10.4201451779
 20
7.5365986654
 30
0.0
 10
10.4438299457
 20
7.5432293802
 30
0.0
 10
10.4672073479
 20
7.5507141593
 30
0.0
 10
10.4902481529
 20
7.5590435401
 30
0.0
 10
10.5129234836
 20
7.5682070989
 30
0.0
 10
10.5352050051
 20
7.5781935361
 30
0.0
 10
10.5570644981
 20
7.5889899665
 30
0.0
 10
10.5713476669
 20
7.5967240643
 30
0.0
 10
10.578408515
 20
7.6007209675
 30
0.0
  0
SPLINE
  5
2F0
100
AcDbEntity
  8
0
100
AcDbSpline
 62
7
  6
CONTINUOUS
 70
0
 71
3
 72
52
 73
48
 74
0
 42
0.0000001
 43
0.0000001
 44
0.0000000001
 40
0.0
 40
0.0
 40
0.0
 40
0.0
 40
0.0417978167
 40
0.0840615308
 40
0.1266599452
 40
0.1694647093
 40
0.2123442471
 40
0.2551676124
 40
0.2978038023
 40
0.340122612
 40
0.381995097
 40
0.4232940911
 40
0.4638947378
 40
0.5036750193
 40
0.5425163039
 40
0.5803039261
 40
0.6169277796
 40
0.6522829323
 40
0.686270301
 40
0.7187974019
 40
0.7497792075
 40
0.7646667639
 40
0.7791400971
 40
0.7931911326
 40
0.8068125303
 40
0.8199977802
 40
0.8327410449
 40
0.8450376044
 40
0.8568835364
 40
0.868276178
 40
0.8792140523
 40
0.8896970245
 40
0.8997266904
 40
0.9093062438
 40
0.9184411643
 40
0.9271391635
 40
0.9354108014
 40
0.9432698937
 40
0.9507338843
 40
0.9578247196
 40
0.9645691193
 40
0.9709994962
 40
0.9771542504
 40
0.983078108
 40
0.9888220398
 40
0.9944424548
 40
1.0
 40
1.0
 40
1.0
 40
1.0
 10
9.4654316416
 20
10.475128057
 30
0.0
 10
9.4590467505
 20
10.4755708507
 30
0.0
 10
9.4461985074
 20
10.4763592939
 30
0.0
 10
9.4268236117
 20
10.4772491663
 30
0.0
 10
9.4072833362
 20
10.47785099
 30
0.0
 10
9.3876419977
 20
10.4781628334
 30
0.0
 10
9.3679637494
 20
10.4781836291
 30
0.0
 10
9.3483131601
 20
10.477913327
 30
0.0
 10
9.3287545928
 20
10.4773528071
 30
0.0
 10
9.309352142
 20
10.4765039248
 30
0.0
 10
9.2901693776
 20
10.4753694848
 30
0.0
 10
9.2712691443
 20
10.473953234
 30
0.0
 10
9.2527133549
 20
10.4722598501
 30
0.0
 10
9.234562786
 20
10.4702949265
 30
0.0
 10
9.2168768737
 20
10.4680649538
 30
0.0
 10
9.1997135136
 20
10.4655773057
 30
0.0
 10
9.1831288597
 20
10.4628402151
 30
0.0
 10
9.1671771523
 20
10.4598627394
 30
0.0
 10
9.1519104758
 20
10.4566547426
 30
0.0
 10
9.1373787774
 20
10.4532268276
 30
0.0
 10
9.1257717096
 20
10.450157105
 30
0.0
 10
9.1168944846
 20
10.4475926896
 30
0.0
 10
9.1105378709
 20
10.4456471367
 30
0.0
 10
9.1043990834
 20
10.4436553738
 30
0.0
 10
9.0984831303
 20
10.4416190036
 30
0.0
 10
9.0927948309
 20
10.439539749
 30
0.0
 10
9.0873388358
 20
10.4374192404
 30
0.0
 10
9.0821195682
 20
10.435259294
 30
0.0
 10
9.0771412848
 20
10.4330616076
 30
0.0
 10
9.0724080154
 20
10.4308280081
 30
0.0
 10
9.0679235859
 20
10.428560315
 30
0.0
 10
9.0636916351
 20
10.4262603116
 30
0.0
 10
9.059715534
 20
10.4239299257
 30
0.0
 10
9.055998512
 20
10.4215709149
 30
0.0
 10
9.0525434991
 20
10.4191852178
 30
0.0
 10
9.0493532708
 20
10.4167746281
 30
0.0
 10
9.0464303723
 20
10.414340975
 30
0.0
 10
9.0437771042
 20
10.4118861008
 30
0.0
 10
9.0413956954
 20
10.4094116775
 30
0.0
 10
9.0392880512
 20
10.4069195235
 30
0.0
 10
9.037456144
 20
10.4044112279
 30
0.0
 10
9.0359017131
 20
10.401888538
 30
0.0
 10
9.0346265285
 20
10.3993531704
 30
0.0
 10
9.0336323746
 20
10.3968070447
 30
0.0
 10
9.0329207541
 20
10.3942522714
 30
0.0
 10
9.032493226
 20
10.391691764
 30
0.0
 10
9.0323979615
 20
10.3899786757
 30
0.0
 10
9.0323979695
 20
10.3891276851
 30
0.0
  0
SPLINE
  5
2F1
100
AcDbEntity
  8
0
100
AcDbSpline
 62
7
  6
CONTINUOUS
 70
0
 71
3
 72
51
 73
47
 74
0
 42
0.0000001
 43
0.0000001
 44
0.0000000001
 40
0.0
 40
0.0
 40
0.0
 40
0.0
 40
0.0469251338
 40
0.0933190708
 40
0.1391146975
 40
0.1842519817
 40
0.2286696051
 40
0.272307819
 40
0.315108618
 40
0.3570154452
 40
0.3979735774
 40
0.4379301729
 40
0.4768344261
 40
0.5146378418
 40
0.5512943269
 40
0.5867603754
 40
0.6209954164
 40
0.6539620199
 40
0.6856261391
 40
0.7159575733
 40
0.7449304221
 40
0.7589009163
 40
0.772524291
 40
0.7857986997
 40
0.7987227975
 40
0.8112956256
 40
0.8235166125
 40
0.835385802
 40
0.8469037153
 40
0.8580714228
 40
0.8688907592
 40
0.8793641904
 40
0.8894949619
 40
0.8992872913
 40
0.9087462724
 40
0.9178780992
 40
0.9266902359
 40
0.935191384
 40
0.9433917721
 40
0.951303301
 40
0.9589395815
 40
0.9734456685
 40
0.9803585138
 40
0.9870717153
 40
0.9936099123
 40
1.0
 40
1.0
 40
1.0
 40
1.0
 10
14.1593333004
 20
8.5836818111
 30
0.0
 10
14.1593333004
 20
8.594513973
 30
0.0
 10
14.1592229968
 20
8.6160558514
 30
0.0
 10
14.1587210438
 20
8.6481656361
 30
0.0
 10
14.1578841216
 20
8.6798556477
 30
0.0
 10
14.1567135476
 20
8.7110785814
 30
0.0
 10
14.1552110456
 20
8.7417887365
 30
0.0
 10
14.1533788689
 20
8.7719406945
 30
0.0
 10
14.1512197448
 20
8.8014899432
 30
0.0
 10
14.1487368779
 20
8.8303929037
 30
0.0
 10
14.1459339903
 20
8.8586069331
 30
0.0
 10
14.1428152516
 20
8.8860904148
 30
0.0
 10
14.1393852851
 20
8.9128028194
 30
0.0
 10
14.1356492243
 20
8.9387047751
 30
0.0
 10
14.1316126379
 20
8.963758118
 30
0.0
 10
14.1272815106
 20
8.9879259447
 30
0.0
 10
14.122662308
 20
9.011172697
 30
0.0
 10
14.1177619214
 20
9.0334641908
 30
0.0
 10
14.1125876218
 20
9.0547677273
 30
0.0
 10
14.1071470861
 20
9.0750519237
 30
0.0
 10
14.1023418018
 20
9.0912721292
 30
0.0
 10
14.098361935
 20
9.1037090897
 30
0.0
 10
14.0953517674
 20
9.1126503726
 30
0.0
 10
14.0922811853
 20
9.1213152489
 30
0.0
 10
14.0891513373
 20
9.1297005581
 30
0.0
 10
14.0859633937
 20
9.1378032244
 30
0.0
 10
14.0827184696
 20
9.1456202567
 30
0.0
 10
14.0794178067
 20
9.1531488087
 30
0.0
 10
14.0760626111
 20
9.160386126
 30
0.0
 10
14.0726540572
 20
9.1673295402
 30
0.0
 10
14.0691934455
 20
9.1739765428
 30
0.0
 10
14.0656820109
 20
9.1803247043
 30
0.0
 10
14.0621209798
 20
9.1863716905
 30
0.0
 10
14.0585116927
 20
9.1921153381
 30
0.0
 10
14.0548553975
 20
9.1975535414
 30
0.0
 10
14.0511533586
 20
9.2026843079
 30
0.0
 10
14.047406939
 20
9.2075058091
 30
0.0
 10
14.0436173549
 20
9.2120162714
 30
0.0
 10
14.0397859843
 20
9.216213952
 30
0.0
 10
14.0359138654
 20
9.2200976171
 30
0.0
 10
14.0307871481
 20
9.2247741303
 30
0.0
 10
14.0254951439
 20
9.2289206981
 30
0.0
 10
14.02004674
 20
9.2324604629
 30
0.0
 10
14.0159914856
 20
9.2347521389
 30
0.0
 10
14.0119040668
 20
9.2367217196
 30
0.0
 10
14.0091302334
 20
9.237830623
 30
0.0
 10
14.0077416468
 20
9.2383283146
 30
0.0
  0
SPLINE
  5
2F2
100
AcDbEntity
  8
0
100
AcDbSpline
 62
7
  6
CONTINUOUS
 70
0
 71
3
 72
47
 73
43
 74
0
 42
0.0000001
 43
0.0000001
 44
0.0000000001
 40
0.0
 40
0.0
 40
0.0
 40
0.0
 40
0.0812192391
 40
0.1628100372
 40
0.2439358222
 40
0.2840833186
 40
0.3238357259
 40
0.3631115483
 40
0.4018343723
 40
0.4399326587
 40
0.4773390736
 40
0.5139896207
 40
0.5498231653
 40
0.5847806838
 40
0.6188044289
 40
0.6518376035
 40
0.6838238213
 40
0.7147069446
 40
0.7444313476
 40
0.7588419396
 40
0.7729425131
 40
0.7867264255
 40
0.8001874455
 40
0.8133196652
 40
0.8261174058
 40
0.8385757091
 40
0.850690188
 40
0.8624571913
 40
0.8738742172
 40
0.8849398296
 40
0.8956540544
 40
0.906018663
 40
0.9160373031
 40
0.9257159513
 40
0.935063183
 40
0.9440904472
 40
0.9528124343
 40
0.9694091386
 40
0.9773388562
 40
0.985058501
 40
0.9926006394
 40
1.0
 40
1.0
 40
1.0
 40
1.0
 10
9.8858313214
 20
8.6147738922
 30
0.0
 10
9.8862326533
 20
8.6016001662
 30
0.0
 10
9.8873940623
 20
8.5752022177
 30
0.0
 10
9.8901033512
 20
8.5357071126
 30
0.0
 10
9.8930711591
 20
8.5029189818
 30
0.0
 10
9.8957900244
 20
8.4769301627
 30
0.0
 10
9.8979629625
 20
8.4577131838
 30
0.0
 10
9.9002498518
 20
8.438742351
 30
0.0
 10
9.9026223903
 20
8.4200526251
 30
0.0
 10
9.9050509263
 20
8.4016760881
 30
0.0
 10
9.907504544
 20
8.3836422354
 30
0.0
 10
9.909951221
 20
8.3659784096
 30
0.0
 10
9.9123577767
 20
8.3487102294
 30
0.0
 10
9.9146897253
 20
8.3318620329
 30
0.0
 10
9.9169114315
 20
8.3154573762
 30
0.0
 10
9.918986022
 20
8.2995195189
 30
0.0
 10
9.9208751816
 20
8.2840718203
 30
0.0
 10
9.9225393077
 20
8.2691382751
 30
0.0
 10
9.923716547
 20
8.2570211735
 30
0.0
 10
9.9245006972
 20
8.2476034596
 30
0.0
 10
9.9250000421
 20
8.2407580853
 30
0.0
 10
9.9254113105
 20
8.2340612033
 30
0.0
 10
9.9257290364
 20
8.227516516
 30
0.0
 10
9.9259477704
 20
8.2211278539
 30
0.0
 10
9.9260620659
 20
8.2148991637
 30
0.0
 10
9.9260664449
 20
8.208834523
 30
0.0
 10
9.9259555504
 20
8.2029381198
 30
0.0
 10
9.9257241377
 20
8.1972142444
 30
0.0
 10
9.9253668933
 20
8.1916672987
 30
0.0
 10
9.9248789316
 20
8.1863017384
 30
0.0
 10
9.9242553775
 20
8.1811220907
 30
0.0
 10
9.9234915083
 20
8.1761329385
 30
0.0
 10
9.9225832748
 20
8.1713388134
 30
0.0
 10
9.9215263591
 20
8.1667442983
 30
0.0
 10
9.920317391
 20
8.1623539584
 30
0.0
 10
9.9189529757
 20
8.1581718385
 30
0.0
 10
9.9169562711
 20
8.1529667141
 30
0.0
 10
9.9146130668
 20
8.1480894994
 30
0.0
 10
9.9118949058
 20
8.1436142658
 30
0.0
 10
9.9097232969
 20
8.1405366024
 30
0.0
 10
9.9073886812
 20
8.1376913021
 30
0.0
 10
9.9057109385
 20
8.1359368875
 30
0.0
 10
9.904847308
 20
8.1351026844
 30
0.0
  0
SPLINE
  5
2F3
100
AcDbEntity
  8
0
100
AcDbSpline
 62
7
  6
CONTINUOUS
 70
0
 71
3
 72
55
 73
51
 74
0
 42
0.0000001
 43
0.0000001
 44
0.0000000001
 40
0.0
 40
0.0
 40
0.0
 40
0.0
 40
0.0406911961
 40
0.0818451072
 40
0.1233443079
 40
0.1650700693
 40
0.2069028591
 40
0.2487227467
 40
0.2904098514
 40
0.3318447747
 40
0.3729090385
 40
0.4134855239
 40
0.4534589135
 40
0.4927161385
 40
0.5311468329
 40
0.5686437993
 40
0.6051034888
 40
0.6404265043
 40
0.6576321791
 40
0.6745185971
 40
0.6910747111
 40
0.7072899178
 40
0.723153928
 40
0.7386569456
 40
0.7537895345
 40
0.7685428093
 40
0.7829083004
 40
0.7968781575
 40
0.8104450169
 40
0.8236022198
 40
0.8363436859
 40
0.8486641499
 40
0.8605590489
 40
0.8720247818
 40
0.883058621
 40
0.8936590034
 40
0.9038254802
 40
0.9135590545
 40
0.9228621901
 40
0.931739215
 40
0.9401964199
 40
0.9482425542
 40
0.9558890471
 40
0.9631506216
 40
0.9700456587
 40
0.9765969137
 40
0.9828319706
 40
0.9887839153
 40
0.9944916273
 40
1.0
 40
1.0
 40
1.0
 40
1.0
 10
14.1593333004
 20
8.5836818111
 30
0.0
 10
14.1593333004
 20
8.5679060956
 30
0.0
 10
14.1590968189
 20
8.5361748133
 30
0.0
 10
14.1580506527
 20
8.488364924
 30
0.0
 10
14.1563138434
 20
8.4401737126
 30
0.0
 10
14.153891665
 20
8.3917486122
 30
0.0
 10
14.1507915015
 20
8.3432376069
 30
0.0
 10
14.1470228231
 20
8.2947889863
 30
0.0
 10
14.142597158
 20
8.2465508379
 30
0.0
 10
14.137528057
 20
8.1986706044
 30
0.0
 10
14.1318310518
 20
8.1512946271
 30
0.0
 10
14.1255236086
 20
8.1045676959
 30
0.0
 10
14.118625075
 20
8.058632604
 30
0.0
 10
14.1111566225
 20
8.0136297027
 30
0.0
 10
14.1031411805
 20
7.9696964839
 30
0.0
 10
14.0946033767
 20
7.9269670894
 30
0.0
 10
14.0855694303
 20
7.8855721221
 30
0.0
 10
14.077582709
 20
7.8520066212
 30
0.0
 10
14.0709566649
 20
7.8259228755
 30
0.0
 10
14.0659241787
 20
7.8069423347
 30
0.0
 10
14.0607891201
 20
7.7883874145
 30
0.0
 10
14.0555554735
 20
7.7702722687
 30
0.0
 10
14.050227178
 20
7.7526107428
 30
0.0
 10
14.0448083911
 20
7.7354163148
 30
0.0
 10
14.0393031853
 20
7.7187021195
 30
0.0
 10
14.0337158577
 20
7.7024809031
 30
0.0
 10
14.0280506059
 20
7.6867650514
 30
0.0
 10
14.0223118517
 20
7.6715665363
 30
0.0
 10
14.0165039036
 20
7.6568969553
 30
0.0
 10
14.010631293
 20
7.6427674652
 30
0.0
 10
14.0046984233
 20
7.6291888372
 30
0.0
 10
13.998709919
 20
7.6161713739
 30
0.0
 10
13.9926702594
 20
7.6037249836
 30
0.0
 10
13.9865841421
 20
7.5918590768
 30
0.0
 10
13.9804560997
 20
7.5805826642
 30
0.0
 10
13.974290877
 20
7.5699042275
 30
0.0
 10
13.9680930295
 20
7.5598318482
 30
0.0
 10
13.9618673135
 20
7.5503730463
 30
0.0
 10
13.9556182647
 20
7.5415349494
 30
0.0
 10
13.9493505985
 20
7.5333240932
 30
0.0
 10
13.9430687684
 20
7.5257466454
 30
0.0
 10
13.9367773726
 20
7.5188081631
 30
0.0
 10
13.9304806996
 20
7.5125138948
 30
0.0
 10
13.9241831354
 20
7.5068684943
 30
0.0
 10
13.9178887314
 20
7.5018764345
 30
0.0
 10
13.9116015971
 20
7.4975416741
 30
0.0
 10
13.9053256677
 20
7.4938682242
 30
0.0
 10
13.8990647614
 20
7.4908596577
 30
0.0
 10
13.892823955
 20
7.4885200101
 30
0.0
 10
13.8886156557
 20
7.4873913675
 30
0.0
 10
13.8865269224
 20
7.4869466063
 30
0.0
  0
SPLINE
  5
2F4
100
AcDbEntity
  8
0
100
AcDbSpline
 62
7
  6
CONTINUOUS
 70
0
 71
3
 72
64
 73
60
 74
0
 42
0.0000001
 43
0.0000001
 44
0.0000000001
 40
0.0
 40
0.0
 40
0.0
 40
0.0
 40
0.0452101678
 40
0.0910011722
 40
0.1371888434
 40
0.1835863495
 40
0.2300061232
 40
0.2762603525
 40
0.3221621186
 40
0.3675263057
 40
0.4121705903
 40
0.4559164172
 40
0.4985899991
 40
0.5400233384
 40
0.5800552903
 40
0.5994978801
 40
0.618533373
 40
0.6371441099
 40
0.6553130172
 40
0.6730237857
 40
0.6902608165
 40
0.7070093494
 40
0.7232554879
 40
0.738986267
 40
0.7541897748
 40
0.7688551594
 40
0.7829728622
 40
0.7965345754
 40
0.8095336001
 40
0.8219647827
 40
0.8338250125
 40
0.8451131892
 40
0.8558308808
 40
0.8659824056
 40
0.8755756875
 40
0.8846225698
 40
0.8931399233
 40
0.9011503209
 40
0.9086834279
 40
0.9157770493
 40
0.9224785902
 40
0.9288459932
 40
0.9319268633
 40
0.9349510088
 40
0.9379286982
 40
0.9408707294
 40
0.9437883259
 40
0.9466930252
 40
0.9495965375
 40
0.9525105823
 40
0.955446746
 40
0.9584163373
 40
0.9614302388
 40
0.9644988188
 40
0.9708360807
 40
0.9775009731
 40
0.9845526118
 40
0.9920393488
 40
1.0
 40
1.0
 40
1.0
 40
1.0
 10
14.0687467094
 20
8.4961818781
 30
0.0
 10
14.0687467094
 20
8.4848818902
 30
0.0
 10
14.0685451796
 20
8.4621362804
 30
0.0
 10
14.0676565454
 20
8.427856799
 30
0.0
 10
14.0661830142
 20
8.3933003654
 30
0.0
 10
14.0641308841
 20
8.3586160793
 30
0.0
 10
14.0615090021
 20
8.3239535148
 30
0.0
 10
14.0583286767
 20
8.2894621373
 30
0.0
 10
14.0546036588
 20
8.2552906787
 30
0.0
 10
14.0503500683
 20
8.2215864757
 30
0.0
 10
14.045586332
 20
8.1884948288
 30
0.0
 10
14.0403331016
 20
8.1561583837
 30
0.0
 10
14.0346131758
 20
8.1247164437
 30
0.0
 10
14.0284513732
 20
8.0943045795
 30
0.0
 10
14.0229182791
 20
8.0696953959
 30
0.0
 10
14.0182821905
 20
8.0506274404
 30
0.0
 10
14.0147455103
 20
8.0368033266
 30
0.0
 10
14.0111193315
 20
8.0233318222
 30
0.0
 10
14.007407511
 20
8.010227435
 30
0.0
 10
14.0036141049
 20
7.9975042834
 30
0.0
 10
13.9997431901
 20
7.9851760724
 30
0.0
 10
13.9957989687
 20
7.9732560727
 30
0.0
 10
13.9917857046
 20
7.9617571111
 30
0.0
 10
13.9877077279
 20
7.9506915543
 30
0.0
 10
13.9835694707
 20
7.9400712884
 30
0.0
 10
13.9793753675
 20
7.9299077198
 30
0.0
 10
13.9751299971
 20
7.9202117334
 30
0.0
 10
13.9708378721
 20
7.9109937213
 30
0.0
 10
13.9665036888
 20
7.9022635075
 30
0.0
 10
13.9621320064
 20
7.8940304182
 30
0.0
 10
13.9577275973
 20
7.8863031583
 30
0.0
 10
13.953295024
 20
7.8790899393
 30
0.0
 10
13.9488390693
 20
7.8723982958
 30
0.0
 10
13.9443642322
 20
7.8662352863
 30
0.0
 10
13.9398751995
 20
7.860607248
 30
0.0
 10
13.9353762958
 20
7.8555200882
 30
0.0
 10
13.9308719514
 20
7.8509790006
 30
0.0
 10
13.9263661525
 20
7.8469888671
 30
0.0
 10
13.9218629391
 20
7.8435540119
 30
0.0
 10
13.9173657792
 20
7.8406786889
 30
0.0
 10
13.9128789055
 20
7.8383670646
 30
0.0
 10
13.9091095806
 20
7.8368980165
 30
0.0
 10
13.9061163531
 20
7.836021395
 30
0.0
 10
13.9039022148
 20
7.8355137252
 30
0.0
 10
13.9016952468
 20
7.8351489784
 30
0.0
 10
13.8994960516
 20
7.8349272735
 30
0.0
 10
13.8973053226
 20
7.83484876
 30
0.0
 10
13.8951237547
 20
7.8349135446
 30
0.0
 10
13.8929520518
 20
7.835121563
 30
0.0
 10
13.8907909067
 20
7.8354727252
 30
0.0
 10
13.8886410025
 20
7.8359669265
 30
0.0
 10
13.8865030293
 20
7.8366039833
 30
0.0
 10
13.8843775573
 20
7.8373836257
 30
0.0
 10
13.8815310112
 20
7.8386258831
 30
0.0
 10
13.8779960613
 20
7.8405524202
 30
0.0
 10
13.8738644864
 20
7.8434043092
 30
0.0
 10
13.8698002698
 20
7.8468165469
 30
0.0
 10
13.8658070375
 20
7.8507839672
 30
0.0
 10
13.8632747171
 20
7.853703322
 30
0.0
 10
13.8620192699
 20
7.8552469575
 30
0.0
  0
SPLINE
  5
2F5
100
AcDbEntity
  8
0
100
AcDbSpline
 62
7
  6
CONTINUOUS
 70
0
 71
3
 72
53
 73
49
 74
0
 42
0.0000001
 43
0.0000001
 44
0.0000000001
 40
0.0
 40
0.0
 40
0.0
 40
0.0
 40
0.0417737268
 40
0.0840371615
 40
0.1266584861
 40
0.1695065864
 40
0.2124481812
 40
0.2553501572
 40
0.2980793668
 40
0.3405034027
 40
0.3824910465
 40
0.4239128186
 40
0.4646415077
 40
0.5045527151
 40
0.5435254045
 40
0.5814424688
 40
0.6181913201
 40
0.653664513
 40
0.6877604169
 40
0.7203839578
 40
0.7361162162
 40
0.7514481964
 40
0.7663701919
 40
0.7808732472
 40
0.7949488823
 40
0.8085894742
 40
0.8217880085
 40
0.8345383923
 40
0.8468353718
 40
0.858674679
 40
0.870053196
 40
0.8809689181
 40
0.8914213683
 40
0.9014114537
 40
0.9109420542
 40
0.9200179381
 40
0.928646402
 40
0.9368374364
 40
0.9446043346
 40
0.9519642227
 40
0.9589386234
 40
0.965554312
 40
0.9718437996
 40
0.9778461989
 40
0.9836073653
 40
0.9891800503
 40
0.994623078
 40
1.0
 40
1.0
 40
1.0
 40
1.0
 10
13.9952620265
 20
8.4852011208
 30
0.0
 10
13.9952620265
 20
8.4764329213
 30
0.0
 10
13.9951252251
 20
8.4587934582
 30
0.0
 10
13.9945204973
 20
8.432214118
 30
0.0
 10
13.9935167545
 20
8.405421144
 30
0.0
 10
13.9921173491
 20
8.3785034156
 30
0.0
 10
13.9903268609
 20
8.3515498329
 30
0.0
 10
13.9881512332
 20
8.3246496361
 30
0.0
 10
13.9855976613
 20
8.2978917962
 30
0.0
 10
13.9826746147
 20
8.2713648429
 30
0.0
 10
13.979391789
 20
8.2451565269
 30
0.0
 10
13.9757600827
 20
8.2193535411
 30
0.0
 10
13.9717915584
 20
8.1940412259
 30
0.0
 10
13.967499407
 20
8.1693032839
 30
0.0
 10
13.9628979014
 20
8.1452214998
 30
0.0
 10
13.958002352
 20
8.1218754601
 30
0.0
 10
13.952829054
 20
8.0993423004
 30
0.0
 10
13.9473952441
 20
8.077696379
 30
0.0
 10
13.9417190094
 20
8.0570092359
 30
0.0
 10
13.9367443447
 20
8.0404311405
 30
0.0
 10
13.9326494562
 20
8.0277054932
 30
0.0
 10
13.9295667646
 20
8.018558249
 30
0.0
 10
13.9264378801
 20
8.0096998598
 30
0.0
 10
13.9232654551
 20
8.0011376166
 30
0.0
 10
13.9200520424
 20
7.9928785986
 30
0.0
 10
13.9168003784
 20
7.9849296004
 30
0.0
 10
13.9135130966
 20
7.9772971804
 30
0.0
 10
13.9101929539
 20
7.9699876117
 30
0.0
 10
13.9068426849
 20
7.9630069014
 30
0.0
 10
13.9034650334
 20
7.9563607845
 30
0.0
 10
13.9000628303
 20
7.9500546852
 30
0.0
 10
13.8966387902
 20
7.9440937832
 30
0.0
 10
13.8931958075
 20
7.9384828948
 30
0.0
 10
13.889736569
 20
7.9332266213
 30
0.0
 10
13.8862639667
 20
7.9283291621
 30
0.0
 10
13.8827806689
 20
7.9237945098
 30
0.0
 10
13.879289475
 20
7.919626266
 30
0.0
 10
13.8757930237
 20
7.9158277951
 30
0.0
 10
13.872293931
 20
7.9124021607
 30
0.0
 10
13.8687947609
 20
7.9093521305
 30
0.0
 10
13.8652978916
 20
7.9066803635
 30
0.0
 10
13.8618057785
 20
7.9043891777
 30
0.0
 10
13.8583206593
 20
7.9024810522
 30
0.0
 10
13.8548450213
 20
7.9009581285
 30
0.0
 10
13.8513814491
 20
7.899822857
 30
0.0
 10
13.8479328688
 20
7.8990772783
 30
0.0
 10
13.8445034223
 20
7.8987233051
 30
0.0
 10
13.8422265642
 20
7.8987493132
 30
0.0
 10
13.8411006655
 20
7.8988273857
 30
0.0
  0
SPLINE
  5
2F6
100
AcDbEntity
  8
0
100
AcDbSpline
 62
7
  6
CONTINUOUS
 70
0
 71
3
 72
48
 73
44
 74
0
 42
0.0000001
 43
0.0000001
 44
0.0000000001
 40
0.0
 40
0.0
 40
0.0
 40
0.0
 40
0.0310009945
 40
0.0621400892
 40
0.0934129125
 40
0.1248120869
 40
0.1563284798
 40
0.1879509389
 40
0.2196666018
 40
0.2514610998
 40
0.2833188023
 40
0.3152230743
 40
0.3471565432
 40
0.379101376
 40
0.4110395605
 40
0.4429531895
 40
0.474824743
 40
0.5066373659
 40
0.538375139
 40
0.5700233388
 40
0.6015686843
 40
0.6329995655
 40
0.66430625
 40
0.6954810657
 40
0.7265185541
 40
0.7419868179
 40
0.7574197811
 40
0.7728174332
 40
0.7881799148
 40
0.8035075271
 40
0.8188007193
 40
0.8340600997
 40
0.8492864257
 40
0.8644806036
 40
0.8796436897
 40
0.8947768773
 40
0.9098815027
 40
0.9249590316
 40
0.9400110561
 40
0.9550392906
 40
0.970045557
 40
0.9850317859
 40
1.0
 40
1.0
 40
1.0
 40
1.0
 10
10.1061293227
 20
7.350323507
 30
0.0
 10
10.0887858829
 20
7.3515262787
 30
0.0
 10
10.0540906663
 20
7.3550833958
 30
0.0
 10
10.0024025285
 20
7.363812513
 30
0.0
 10
9.9511659534
 20
7.3759092443
 30
0.0
 10
9.9006068815
 20
7.3913205498
 30
0.0
 10
9.8509447029
 20
7.4099789723
 30
0.0
 10
9.8023957696
 20
7.4318030496
 30
0.0
 10
9.755171316
 20
7.4566975404
 30
0.0
 10
9.7094768524
 20
7.4845538718
 30
0.0
 10
9.6655112073
 20
7.5152506347
 30
0.0
 10
9.6234656948
 20
7.548654105
 30
0.0
 10
9.5835232846
 20
7.5846188218
 30
0.0
 10
9.5458578213
 20
7.6229882192
 30
0.0
 10
9.5106332444
 20
7.6635952743
 30
0.0
 10
9.4780028929
 20
7.706263247
 30
0.0
 10
9.4481088561
 20
7.750806454
 30
0.0
 10
9.4210813575
 20
7.7970310636
 30
0.0
 10
9.3970381932
 20
7.8447359346
 30
0.0
 10
9.3760842201
 20
7.8937134666
 30
0.0
 10
9.3583108613
 20
7.9437505281
 30
0.0
 10
9.3437957493
 20
7.9946292183
 30
0.0
 10
9.3326023722
 20
8.046128457
 30
0.0
 10
9.3247798399
 20
8.0980225011
 30
0.0
 10
9.3210944726
 20
8.1414628885
 30
0.0
 10
9.3198646292
 20
8.1761809696
 30
0.0
 10
9.3198001487
 20
8.2021498439
 30
0.0
 10
9.3205928636
 20
8.2280471026
 30
0.0
 10
9.3222419371
 20
8.2538448632
 30
0.0
 10
9.3247454572
 20
8.2795149194
 30
0.0
 10
9.3281008895
 20
8.3050292935
 30
0.0
 10
9.3323044162
 20
8.3303601823
 30
0.0
 10
9.3373515762
 20
8.3554799557
 30
0.0
 10
9.3432368654
 20
8.3803612225
 30
0.0
 10
9.3499537963
 20
8.4049768755
 30
0.0
 10
9.3574952151
 20
8.4293000278
 30
0.0
 10
9.3658527298
 20
8.4533042102
 30
0.0
 10
9.3750173869
 20
8.4769631945
 30
0.0
 10
9.3849791323
 20
8.5002512093
 30
0.0
 10
9.395727077
 20
8.5231428441
 30
0.0
 10
9.4072496783
 20
8.5456131687
 30
0.0
 10
9.4195339908
 20
8.5676374173
 30
0.0
 10
9.4282279119
 20
8.5820156054
 30
0.0
 10
9.4326967267
 20
8.5891212185
 30
0.0
  0
SPLINE
  5
2F7
100
AcDbEntity
  8
0
100
AcDbSpline
 62
7
  6
CONTINUOUS
 70
0
 71
3
 72
58
 73
54
 74
0
 42
0.0000001
 43
0.0000001
 44
0.0000000001
 40
0.0
 40
0.0
 40
0.0
 40
0.0
 40
0.0532120784
 40
0.105632612
 40
0.1571425959
 40
0.2076323446
 40
0.2569916968
 40
0.3051150367
 40
0.3519005107
 40
0.3972504891
 40
0.4410721366
 40
0.4832778646
 40
0.523785991
 40
0.5625213347
 40
0.5994159618
 40
0.6171544418
 40
0.6344111427
 40
0.6511799817
 40
0.6674556951
 40
0.6832337305
 40
0.698510209
 40
0.7132823273
 40
0.7275480486
 40
0.7413064762
 40
0.7545579423
 40
0.7673039144
 40
0.7795475465
 40
0.7912935111
 40
0.8025483785
 40
0.8133209913
 40
0.8236224565
 40
0.8334668673
 40
0.8428714511
 40
0.8518570324
 40
0.8604487067
 40
0.8686760037
 40
0.8765735796
 40
0.884181414
 40
0.8915448629
 40
0.8987146346
 40
0.9057460249
 40
0.9126980027
 40
0.9196317509
 40
0.926608977
 40
0.9336901355
 40
0.940932852
 40
0.9483906576
 40
0.9561120563
 40
0.9641402864
 40
0.9725130537
 40
0.9812628696
 40
0.9904174625
 40
1.0
 40
1.0
 40
1.0
 40
1.0
 10
14.0687467094
 20
8.4961818781
 30
0.0
 10
14.0687467094
 20
8.5044523468
 30
0.0
 10
14.0686401694
 20
8.5208704782
 30
0.0
 10
14.068153869
 20
8.5452901922
 30
0.0
 10
14.0673432557
 20
8.5692780218
 30
0.0
 10
14.0662103939
 20
8.5927765068
 30
0.0
 10
14.0647579562
 20
8.6157300707
 30
0.0
 10
14.0629894752
 20
8.6380840309
 30
0.0
 10
14.0609092275
 20
8.6597852904
 30
0.0
 10
14.0585222321
 20
8.6807822957
 30
0.0
 10
14.0558342487
 20
8.7010251837
 30
0.0
 10
14.0528517497
 20
8.7204659076
 30
0.0
 10
14.0495819515
 20
8.7390584265
 30
0.0
 10
14.0460327179
 20
8.7567585967
 30
0.0
 10
14.042808568
 20
8.7709097566
 30
0.0
 10
14.0400873912
 20
8.7817471582
 30
0.0
 10
14.038008818
 20
8.789519774
 30
0.0
 10
14.0358670039
 20
8.7970390975
 30
0.0
 10
14.0336632286
 20
8.8043006859
 30
0.0
 10
14.0313988335
 20
8.8113002436
 30
0.0
 10
14.0290750988
 20
8.8180336175
 30
0.0
 10
14.0266934797
 20
8.8244968468
 30
0.0
 10
14.0242553374
 20
8.8306861099
 30
0.0
 10
14.0217621113
 20
8.8365977602
 30
0.0
 10
14.0192153219
 20
8.8422283421
 30
0.0
 10
14.0166163752
 20
8.8475745259
 30
0.0
 10
14.0139668588
 20
8.8526332131
 30
0.0
 10
14.0112682717
 20
8.8574014476
 30
0.0
 10
14.0085221192
 20
8.8618764373
 30
0.0
 10
14.0057300275
 20
8.8660556296
 30
0.0
 10
14.0028934456
 20
8.8699365498
 30
0.0
 10
14.0000139697
 20
8.8735169742
 30
0.0
 10
13.9970931225
 20
8.876794812
 30
0.0
 10
13.9941323404
 20
8.8797680421
 30
0.0
 10
13.9911332069
 20
8.8824349093
 30
0.0
 10
13.9880971237
 20
8.8847935864
 30
0.0
 10
13.9850256342
 20
8.8868424118
 30
0.0
 10
13.9819203478
 20
8.8885798051
 30
0.0
 10
13.9787829206
 20
8.8900040565
 30
0.0
 10
13.9756153575
 20
8.8911138183
 30
0.0
 10
13.9724198112
 20
8.8919076973
 30
0.0
 10
13.9691987632
 20
8.8923846786
 30
0.0
 10
13.9659548891
 20
8.8925442943
 30
0.0
 10
13.9626909336
 20
8.8923862874
 30
0.0
 10
13.9594095788
 20
8.8919112063
 30
0.0
 10
13.9561133138
 20
8.8911197999
 30
0.0
 10
13.9528044247
 20
8.8900131097
 30
0.0
 10
13.9494848932
 20
8.888592528
 30
0.0
 10
13.9461566417
 20
8.8868592801
 30
0.0
 10
13.9428213965
 20
8.8848148878
 30
0.0
 10
13.9394808424
 20
8.8824608069
 30
0.0
 10
13.9361368473
 20
8.8797986262
 30
0.0
 10
13.9339573592
 20
8.8778648732
 30
0.0
 10
13.9328671225
 20
8.8768501886
 30
0.0
  0
SPLINE
  5
2F8
100
AcDbEntity
  8
0
100
AcDbSpline
 62
7
  6
CONTINUOUS
 70
0
 71
3
 72
49
 73
45
 74
0
 42
0.0000001
 43
0.0000001
 44
0.0000000001
 40
0.0
 40
0.0
 40
0.0
 40
0.0
 40
0.0484977591
 40
0.0964124095
 40
0.1436644782
 40
0.1901851275
 40
0.2359045137
 40
0.2807535295
 40
0.3246657516
 40
0.3675767279
 40
0.4094239822
 40
0.4501476548
 40
0.489690486
 40
0.527997965
 40
0.565018896
 40
0.6007053598
 40
0.6350131765
 40
0.6679024476
 40
0.6993376667
 40
0.7292885995
 40
0.7577308847
 40
0.7846466668
 40
0.8100260987
 40
0.8221397633
 40
0.8338699797
 40
0.8452183077
 40
0.8561873037
 40
0.8667804243
 40
0.8770020292
 40
0.8868577551
 40
0.8963545465
 40
0.9055006518
 40
0.9143060078
 40
0.9227824095
 40
0.9309435203
 40
0.9388052391
 40
0.9463859654
 40
0.9607837612
 40
0.9676581026
 40
0.974351983
 40
0.9808975113
 40
0.9873293386
 40
0.9936841261
 40
1.0
 40
1.0
 40
1.0
 40
1.0
 10
13.9952620265
 20
8.4852011208
 30
0.0
 10
13.9952620265
 20
8.4913156445
 30
0.0
 10
13.9951962368
 20
8.5034712855
 30
0.0
 10
13.994896714
 20
8.5215821734
 30
0.0
 10
13.9943973085
 20
8.5394393235
 30
0.0
 10
13.9936988954
 20
8.5570128202
 30
0.0
 10
13.9928026745
 20
8.5742739896
 30
0.0
 10
13.9917100932
 20
8.5911943307
 30
0.0
 10
13.9904229882
 20
8.607745891
 30
0.0
 10
13.988943533
 20
8.6239013989
 30
0.0
 10
13.9872741494
 20
8.6396342209
 30
0.0
 10
13.9854176478
 20
8.654918423
 30
0.0
 10
13.9833771304
 20
8.6697288243
 30
0.0
 10
13.9811559579
 20
8.6840410322
 30
0.0
 10
13.9787578766
 20
8.6978314931
 30
0.0
 10
13.9761868635
 20
8.7110775261
 30
0.0
 10
13.9734471806
 20
8.7237573667
 30
0.0
 10
13.9705434367
 20
8.7358502164
 30
0.0
 10
13.967480415
 20
8.7473362705
 30
0.0
 10
13.9642632098
 20
8.7581967541
 30
0.0
 10
13.9608971727
 20
8.7684140467
 30
0.0
 10
13.9573877868
 20
8.7779714084
 30
0.0
 10
13.9543025873
 20
8.7854857223
 30
0.0
 10
13.9517602863
 20
8.7911475861
 30
0.0
 10
13.9498510143
 20
8.7951532301
 30
0.0
 10
13.9479102829
 20
8.7989826365
 30
0.0
 10
13.945938885
 20
8.8026342678
 30
0.0
 10
13.9439376407
 20
8.8061066522
 30
0.0
 10
13.9419073046
 20
8.8093983528
 30
0.0
 10
13.9398486975
 20
8.8125080421
 30
0.0
 10
13.9377626602
 20
8.8154344847
 30
0.0
 10
13.9356499617
 20
8.8181764649
 30
0.0
 10
13.9335114159
 20
8.8207328572
 30
0.0
 10
13.9313478524
 20
8.8231026639
 30
0.0
 10
13.9291601154
 20
8.8252848271
 30
0.0
 10
13.9269487464
 20
8.8272785555
 30
0.0
 10
13.9240211257
 20
8.8296433012
 30
0.0
 10
13.9209958979
 20
8.8316838806
 30
0.0
 10
13.9178862358
 20
8.8333508249
 30
0.0
 10
13.9155703213
 20
8.8343895697
 30
0.0
 10
13.9132362767
 20
8.8352350481
 30
0.0
 10
13.9108850429
 20
8.8358868297
 30
0.0
 10
13.9085179922
 20
8.8363444192
 30
0.0
 10
13.9069280741
 20
8.8365199513
 30
0.0
 10
13.9061336859
 20
8.836575036
 30
0.0
  0
SPLINE
  5
2F9
100
AcDbEntity
  8
0
100
AcDbSpline
 62
7
  6
CONTINUOUS
 70
0
 71
3
 72
41
 73
37
 74
0
 42
0.0000001
 43
0.0000001
 44
0.0000000001
 40
0.0
 40
0.0
 40
0.0
 40
0.0
 40
0.0064813001
 40
0.0130002022
 40
0.0195935713
 40
0.0262969408
 40
0.033143984
 40
0.0401660036
 40
0.0548404992
 40
0.0625494615
 40
0.0705324261
 40
0.0873867396
 40
0.1055281833
 40
0.1250447914
 40
0.1459987457
 40
0.1684318082
 40
0.1923689961
 40
0.2178215978
 40
0.2447899859
 40
0.2732648338
 40
0.3032291259
 40
0.3346589397
 40
0.3675242831
 40
0.4017901748
 40
0.4374166385
 40
0.474359728
 40
0.5125716018
 40
0.5520008604
 40
0.5925931493
 40
0.6342909643
 40
0.677034307
 40
0.7207606156
 40
0.7654052435
 40
0.8109015514
 40
0.9041693911
 40
1.0
 40
1.0
 40
1.0
 40
1.0
 10
9.7203979575
 20
10.3891285606
 30
0.0
 10
9.7203979517
 20
10.3897359943
 30
0.0
 10
9.7203496322
 20
10.3909549294
 30
0.0
 10
9.7201325102
 20
10.3927801664
 30
0.0
 10
9.7197709106
 20
10.3946036338
 30
0.0
 10
9.7192650971
 20
10.3964242684
 30
0.0
 10
9.7186153318
 20
10.3982413226
 30
0.0
 10
9.7175422679
 20
10.4006936785
 30
0.0
 10
9.7161879065
 20
10.4031034327
 30
0.0
 10
9.7145870559
 20
10.4054575776
 30
0.0
 10
9.7127377722
 20
10.4078850905
 30
0.0
 10
9.7100548634
 20
10.4108982446
 30
0.0
 10
9.7063373347
 20
10.4144102926
 30
0.0
 10
9.7020711628
 20
10.4178777944
 30
0.0
 10
9.697263477
 20
10.4212958518
 30
0.0
 10
9.6919217284
 20
10.4246595276
 30
0.0
 10
9.6860544213
 20
10.4279636294
 30
0.0
 10
9.6796709727
 20
10.4312029758
 30
0.0
 10
9.6727816903
 20
10.4343722318
 30
0.0
 10
9.6653978403
 20
10.4374662592
 30
0.0
 10
9.6575315327
 20
10.4404798829
 30
0.0
 10
9.6491957431
 20
10.4434080717
 30
0.0
 10
9.6404042743
 20
10.4462459648
 30
0.0
 10
9.6311717026
 20
10.4489887369
 30
0.0
 10
9.6215133858
 20
10.4516318408
 30
0.0
 10
9.611445398
 20
10.4541707987
 30
0.0
 10
9.6009845182
 20
10.4566013395
 30
0.0
 10
9.5901481963
 20
10.4589194101
 30
0.0
 10
9.5789545124
 20
10.4611210587
 30
0.0
 10
9.5674221595
 20
10.4632026336
 30
0.0
 10
9.5555704043
 20
10.4651606055
 30
0.0
 10
9.5434190444
 20
10.4669916815
 30
0.0
 10
9.5309883586
 20
10.4686928295
 30
0.0
 10
9.5139284893
 20
10.4708012327
 30
0.0
 10
9.4920584968
 20
10.4730835021
 30
0.0
 10
9.4743914588
 20
10.4745066915
 30
0.0
 10
9.4654316416
 20
10.475128057
 30
0.0
  0
SPLINE
  5
2FA
100
AcDbEntity
  8
0
100
AcDbSpline
 62
7
  6
CONTINUOUS
 70
0
 71
3
 72
41
 73
37
 74
0
 42
0.0000001
 43
0.0000001
 44
0.0000000001
 40
0.0
 40
0.0
 40
0.0
 40
0.0
 40
0.0064813001
 40
0.0130002022
 40
0.0195935713
 40
0.0262969408
 40
0.033143984
 40
0.0401660036
 40
0.0548404992
 40
0.0625494615
 40
0.0705324261
 40
0.0873867396
 40
0.1055281833
 40
0.1250447914
 40
0.1459987457
 40
0.1684318082
 40
0.1923689961
 40
0.2178215978
 40
0.2447899859
 40
0.2732648338
 40
0.3032291259
 40
0.3346589397
 40
0.3675242831
 40
0.4017901748
 40
0.4374166385
 40
0.474359728
 40
0.5125716018
 40
0.5520008604
 40
0.5925931493
 40
0.6342909643
 40
0.677034307
 40
0.7207606156
 40
0.7654052435
 40
0.8109015514
 40
0.9041693911
 40
1.0
 40
1.0
 40
1.0
 40
1.0
 10
8.6209355392
 20
9.3271293528
 30
0.0
 10
8.6209355334
 20
9.3277367865
 30
0.0
 10
8.6208872139
 20
9.3289557216
 30
0.0
 10
8.6206700919
 20
9.3307809586
 30
0.0
 10
8.6203084922
 20
9.332604426
 30
0.0
 10
8.6198026787
 20
9.3344250606
 30
0.0
 10
8.6191529135
 20
9.3362421148
 30
0.0
 10
8.6180798496
 20
9.3386944707
 30
0.0
 10
8.6167254882
 20
9.3411042249
 30
0.0
 10
8.6151246376
 20
9.3434583698
 30
0.0
 10
8.6132753538
 20
9.3458858827
 30
0.0
 10
8.610592445
 20
9.3488990368
 30
0.0
 10
8.6068749163
 20
9.3524110847
 30
0.0
 10
8.6026087445
 20
9.3558785866
 30
0.0
 10
8.5978010587
 20
9.359296644
 30
0.0
 10
8.5924593101
 20
9.3626603197
 30
0.0
 10
8.586592003
 20
9.3659644216
 30
0.0
 10
8.5802085544
 20
9.369203768
 30
0.0
 10
8.573319272
 20
9.372373024
 30
0.0
 10
8.565935422
 20
9.3754670514
 30
0.0
 10
8.5580691144
 20
9.3784806751
 30
0.0
 10
8.5497333248
 20
9.3814088639
 30
0.0
 10
8.5409418559
 20
9.384246757
 30
0.0
 10
8.5317092843
 20
9.3869895291
 30
0.0
 10
8.5220509674
 20
9.389632633
 30
0.0
 10
8.5119829797
 20
9.3921715909
 30
0.0
 10
8.5015220999
 20
9.3946021317
 30
0.0
 10
8.490685778
 20
9.3969202023
 30
0.0
 10
8.479492094
 20
9.3991218509
 30
0.0
 10
8.4679597412
 20
9.4012034258
 30
0.0
 10
8.4561079859
 20
9.4031613977
 30
0.0
 10
8.443956626
 20
9.4049924736
 30
0.0
 10
8.4315259402
 20
9.4066936217
 30
0.0
 10
8.414466071
 20
9.4088020249
 30
0.0
 10
8.3925960784
 20
9.4110842943
 30
0.0
 10
8.3749290405
 20
9.4125074837
 30
0.0
 10
8.3659692232
 20
9.4131288491
 30
0.0
  0
SPLINE
  5
2FB
100
AcDbEntity
  8
0
100
AcDbSpline
 62
7
  6
CONTINUOUS
 70
0
 71
3
 72
51
 73
47
 74
0
 42
0.0000001
 43
0.0000001
 44
0.0000000001
 40
0.0
 40
0.0
 40
0.0
 40
0.0
 40
0.0469251338
 40
0.0933190708
 40
0.1391146975
 40
0.1842519817
 40
0.2286696051
 40
0.272307819
 40
0.315108618
 40
0.3570154452
 40
0.3979735774
 40
0.4379301729
 40
0.4768344261
 40
0.5146378418
 40
0.5512943269
 40
0.5867603754
 40
0.6209954164
 40
0.6539620199
 40
0.6856261391
 40
0.7159575733
 40
0.7449304221
 40
0.7589009163
 40
0.772524291
 40
0.7857986997
 40
0.7987227975
 40
0.8112956256
 40
0.8235166125
 40
0.835385802
 40
0.8469037153
 40
0.8580714228
 40
0.8688907592
 40
0.8793641904
 40
0.8894949619
 40
0.8992872913
 40
0.9087462724
 40
0.9178780992
 40
0.9266902359
 40
0.935191384
 40
0.9433917721
 40
0.951303301
 40
0.9589395815
 40
0.9734456685
 40
0.9803585138
 40
0.9870717153
 40
0.9936099123
 40
1.0
 40
1.0
 40
1.0
 40
1.0
 10
13.5609442143
 20
8.0056823044
 30
0.0
 10
13.5609442143
 20
8.0165144663
 30
0.0
 10
13.5608339107
 20
8.0380563447
 30
0.0
 10
13.5603319577
 20
8.0701661294
 30
0.0
 10
13.5594950355
 20
8.101856141
 30
0.0
 10
13.5583244615
 20
8.1330790748
 30
0.0
 10
13.5568219595
 20
8.1637892298
 30
0.0
 10
13.5549897828
 20
8.1939411878
 30
0.0
 10
13.5528306587
 20
8.2234904365
 30
0.0
 10
13.5503477918
 20
8.252393397
 30
0.0
 10
13.5475449042
 20
8.2806074264
 30
0.0
 10
13.5444261654
 20
8.3080909081
 30
0.0
 10
13.540996199
 20
8.3348033127
 30
0.0
 10
13.5372601382
 20
8.3607052684
 30
0.0
 10
13.5332235518
 20
8.3857586113
 30
0.0
 10
13.5288924245
 20
8.409926438
 30
0.0
 10
13.5242732218
 20
8.4331731903
 30
0.0
 10
13.5193728353
 20
8.4554646841
 30
0.0
 10
13.5141985356
 20
8.4767682206
 30
0.0
 10
13.508758
 20
8.497052417
 30
0.0
 10
13.5039527156
 20
8.5132726225
 30
0.0
 10
13.4999728489
 20
8.525709583
 30
0.0
 10
13.4969626812
 20
8.5346508659
 30
0.0
 10
13.4938920992
 20
8.5433157422
 30
0.0
 10
13.4907622512
 20
8.5517010514
 30
0.0
 10
13.4875743076
 20
8.5598037177
 30
0.0
 10
13.4843293835
 20
8.56762075
 30
0.0
 10
13.4810287206
 20
8.575149302
 30
0.0
 10
13.4776735249
 20
8.5823866193
 30
0.0
 10
13.4742649711
 20
8.5893300335
 30
0.0
 10
13.4708043594
 20
8.5959770362
 30
0.0
 10
13.4672929248
 20
8.6023251976
 30
0.0
 10
13.4637318936
 20
8.6083721838
 30
0.0
 10
13.4601226066
 20
8.6141158314
 30
0.0
 10
13.4564663114
 20
8.6195540347
 30
0.0
 10
13.4527642725
 20
8.6246848012
 30
0.0
 10
13.4490178529
 20
8.6295063024
 30
0.0
 10
13.4452282688
 20
8.6340167647
 30
0.0
 10
13.4413968981
 20
8.6382144454
 30
0.0
 10
13.4375247793
 20
8.6420981104
 30
0.0
 10
13.432398062
 20
8.6467746236
 30
0.0
 10
13.4271060578
 20
8.6509211914
 30
0.0
 10
13.4216576539
 20
8.6544609563
 30
0.0
 10
13.4176023995
 20
8.6567526322
 30
0.0
 10
13.4135149807
 20
8.658722213
 30
0.0
 10
13.4107411473
 20
8.6598311163
 30
0.0
 10
13.4093525607
 20
8.6603288079
 30
0.0
  0
SPLINE
  5
2FC
100
AcDbEntity
  8
0
100
AcDbSpline
 62
7
  6
CONTINUOUS
 70
0
 71
3
 72
55
 73
51
 74
0
 42
0.0000001
 43
0.0000001
 44
0.0000000001
 40
0.0
 40
0.0
 40
0.0
 40
0.0
 40
0.0406911961
 40
0.0818451072
 40
0.1233443079
 40
0.1650700693
 40
0.2069028591
 40
0.2487227467
 40
0.2904098514
 40
0.3318447747
 40
0.3729090385
 40
0.4134855239
 40
0.4534589135
 40
0.4927161385
 40
0.5311468329
 40
0.5686437993
 40
0.6051034888
 40
0.6404265043
 40
0.6576321791
 40
0.6745185971
 40
0.6910747111
 40
0.7072899178
 40
0.723153928
 40
0.7386569456
 40
0.7537895345
 40
0.7685428093
 40
0.7829083004
 40
0.7968781575
 40
0.8104450169
 40
0.8236022198
 40
0.8363436859
 40
0.8486641499
 40
0.8605590489
 40
0.8720247818
 40
0.883058621
 40
0.8936590034
 40
0.9038254802
 40
0.9135590545
 40
0.9228621901
 40
0.931739215
 40
0.9401964199
 40
0.9482425542
 40
0.9558890471
 40
0.9631506216
 40
0.9700456587
 40
0.9765969137
 40
0.9828319706
 40
0.9887839153
 40
0.9944916273
 40
1.0
 40
1.0
 40
1.0
 40
1.0
 10
13.5609442143
 20
8.0056823044
 30
0.0
 10
13.5609442143
 20
7.9899065889
 30
0.0
 10
13.5607077327
 20
7.9581753066
 30
0.0
 10
13.5596615666
 20
7.9103654173
 30
0.0
 10
13.5579247573
 20
7.8621742059
 30
0.0
 10
13.5555025789
 20
7.8137491055
 30
0.0
 10
13.5524024154
 20
7.7652381002
 30
0.0
 10
13.5486337369
 20
7.7167894796
 30
0.0
 10
13.5442080719
 20
7.6685513312
 30
0.0
 10
13.5391389709
 20
7.6206710977
 30
0.0
 10
13.5334419657
 20
7.5732951204
 30
0.0
 10
13.5271345225
 20
7.5265681892
 30
0.0
 10
13.5202359889
 20
7.4806330973
 30
0.0
 10
13.5127675364
 20
7.435630196
 30
0.0
 10
13.5047520943
 20
7.3916969772
 30
0.0
 10
13.4962142906
 20
7.3489675827
 30
0.0
 10
13.4871803442
 20
7.3075726154
 30
0.0
 10
13.4791936229
 20
7.2740071145
 30
0.0
 10
13.4725675787
 20
7.2479233688
 30
0.0
 10
13.4675350926
 20
7.228942828
 30
0.0
 10
13.462400034
 20
7.2103879079
 30
0.0
 10
13.4571663874
 20
7.192272762
 30
0.0
 10
13.4518380919
 20
7.1746112362
 30
0.0
 10
13.446419305
 20
7.1574168081
 30
0.0
 10
13.4409140992
 20
7.1407026128
 30
0.0
 10
13.4353267716
 20
7.1244813964
 30
0.0
 10
13.4296615198
 20
7.1087655447
 30
0.0
 10
13.4239227656
 20
7.0935670296
 30
0.0
 10
13.4181148175
 20
7.0788974486
 30
0.0
 10
13.4122422069
 20
7.0647679585
 30
0.0
 10
13.4063093372
 20
7.0511893305
 30
0.0
 10
13.4003208328
 20
7.0381718672
 30
0.0
 10
13.3942811732
 20
7.0257254769
 30
0.0
 10
13.388195056
 20
7.0138595701
 30
0.0
 10
13.3820670135
 20
7.0025831575
 30
0.0
 10
13.3759017909
 20
6.9919047209
 30
0.0
 10
13.3697039434
 20
6.9818323415
 30
0.0
 10
13.3634782274
 20
6.9723735396
 30
0.0
 10
13.3572291786
 20
6.9635354427
 30
0.0
 10
13.3509615124
 20
6.9553245865
 30
0.0
 10
13.3446796823
 20
6.9477471387
 30
0.0
 10
13.3383882865
 20
6.9408086564
 30
0.0
 10
13.3320916135
 20
6.9345143881
 30
0.0
 10
13.3257940493
 20
6.9288689876
 30
0.0
 10
13.3194996453
 20
6.9238769278
 30
0.0
 10
13.313212511
 20
6.9195421674
 30
0.0
 10
13.3069365816
 20
6.9158687175
 30
0.0
 10
13.3006756752
 20
6.912860151
 30
0.0
 10
13.2944348689
 20
6.9105205034
 30
0.0
 10
13.2902265696
 20
6.9093918608
 30
0.0
 10
13.2881378362
 20
6.9089470997
 30
0.0
  0
SPLINE
  5
2FD
100
AcDbEntity
  8
0
100
AcDbSpline
 62
7
  6
CONTINUOUS
 70
0
 71
3
 72
64
 73
60
 74
0
 42
0.0000001
 43
0.0000001
 44
0.0000000001
 40
0.0
 40
0.0
 40
0.0
 40
0.0
 40
0.0452101678
 40
0.0910011722
 40
0.1371888434
 40
0.1835863495
 40
0.2300061232
 40
0.2762603525
 40
0.3221621186
 40
0.3675263057
 40
0.4121705903
 40
0.4559164172
 40
0.4985899991
 40
0.5400233384
 40
0.5800552903
 40
0.5994978801
 40
0.618533373
 40
0.6371441099
 40
0.6553130172
 40
0.6730237857
 40
0.6902608165
 40
0.7070093494
 40
0.7232554879
 40
0.738986267
 40
0.7541897748
 40
0.7688551594
 40
0.7829728622
 40
0.7965345754
 40
0.8095336001
 40
0.8219647827
 40
0.8338250125
 40
0.8451131892
 40
0.8558308808
 40
0.8659824056
 40
0.8755756875
 40
0.8846225698
 40
0.8931399233
 40
0.9011503209
 40
0.9086834279
 40
0.9157770493
 40
0.9224785902
 40
0.9288459932
 40
0.9319268633
 40
0.9349510088
 40
0.9379286982
 40
0.9408707294
 40
0.9437883259
 40
0.9466930252
 40
0.9495965375
 40
0.9525105823
 40
0.955446746
 40
0.9584163373
 40
0.9614302388
 40
0.9644988188
 40
0.9708360807
 40
0.9775009731
 40
0.9845526118
 40
0.9920393488
 40
1.0
 40
1.0
 40
1.0
 40
1.0
 10
13.4703576233
 20
7.9181823714
 30
0.0
 10
13.4703576233
 20
7.9068823835
 30
0.0
 10
13.4701560934
 20
7.8841367738
 30
0.0
 10
13.4692674593
 20
7.8498572923
 30
0.0
 10
13.4677939281
 20
7.8153008587
 30
0.0
 10
13.465741798
 20
7.7806165726
 30
0.0
 10
13.4631199159
 20
7.7459540081
 30
0.0
 10
13.4599395905
 20
7.7114626306
 30
0.0
 10
13.4562145727
 20
7.677291172
 30
0.0
 10
13.4519609822
 20
7.643586969
 30
0.0
 10
13.4471972459
 20
7.6104953221
 30
0.0
 10
13.4419440154
 20
7.578158877
 30
0.0
 10
13.4362240897
 20
7.546716937
 30
0.0
 10
13.4300622871
 20
7.5163050728
 30
0.0
 10
13.424529193
 20
7.4916958892
 30
0.0
 10
13.4198931044
 20
7.4726279337
 30
0.0
 10
13.4163564242
 20
7.4588038199
 30
0.0
 10
13.4127302454
 20
7.4453323155
 30
0.0
 10
13.4090184249
 20
7.4322279283
 30
0.0
 10
13.4052250188
 20
7.4195047767
 30
0.0
 10
13.401354104
 20
7.4071765657
 30
0.0
 10
13.3974098826
 20
7.395256566
 30
0.0
 10
13.3933966185
 20
7.3837576044
 30
0.0
 10
13.3893186418
 20
7.3726920476
 30
0.0
 10
13.3851803846
 20
7.3620717817
 30
0.0
 10
13.3809862814
 20
7.3519082131
 30
0.0
 10
13.376740911
 20
7.3422122267
 30
0.0
 10
13.372448786
 20
7.3329942146
 30
0.0
 10
13.3681146027
 20
7.3242640008
 30
0.0
 10
13.3637429203
 20
7.3160309115
 30
0.0
 10
13.3593385112
 20
7.3083036516
 30
0.0
 10
13.3549059379
 20
7.3010904326
 30
0.0
 10
13.3504499832
 20
7.2943987891
 30
0.0
 10
13.3459751461
 20
7.2882357796
 30
0.0
 10
13.3414861134
 20
7.2826077413
 30
0.0
 10
13.3369872097
 20
7.2775205815
 30
0.0
 10
13.3324828652
 20
7.272979494
 30
0.0
 10
13.3279770664
 20
7.2689893604
 30
0.0
 10
13.323473853
 20
7.2655545052
 30
0.0
 10
13.3189766931
 20
7.2626791823
 30
0.0
 10
13.3144898193
 20
7.2603675579
 30
0.0
 10
13.3107204945
 20
7.2588985098
 30
0.0
 10
13.307727267
 20
7.2580218883
 30
0.0
 10
13.3055131287
 20
7.2575142185
 30
0.0
 10
13.3033061607
 20
7.2571494717
 30
0.0
 10
13.3011069655
 20
7.2569277668
 30
0.0
 10
13.2989162365
 20
7.2568492533
 30
0.0
 10
13.2967346685
 20
7.2569140379
 30
0.0
 10
13.2945629657
 20
7.2571220563
 30
0.0
 10
13.2924018205
 20
7.2574732185
 30
0.0
 10
13.2902519164
 20
7.2579674199
 30
0.0
 10
13.2881139432
 20
7.2586044766
 30
0.0
 10
13.2859884712
 20
7.259384119
 30
0.0
 10
13.2831419251
 20
7.2606263764
 30
0.0
 10
13.2796069752
 20
7.2625529135
 30
0.0
 10
13.2754754002
 20
7.2654048025
 30
0.0
 10
13.2714111837
 20
7.2688170402
 30
0.0
 10
13.2674179514
 20
7.2727844605
 30
0.0
 10
13.264885631
 20
7.2757038153
 30
0.0
 10
13.2636301838
 20
7.2772474508
 30
0.0
  0
SPLINE
  5
2FE
100
AcDbEntity
  8
0
100
AcDbSpline
 62
7
  6
CONTINUOUS
 70
0
 71
3
 72
53
 73
49
 74
0
 42
0.0000001
 43
0.0000001
 44
0.0000000001
 40
0.0
 40
0.0
 40
0.0
 40
0.0
 40
0.0417737268
 40
0.0840371615
 40
0.1266584861
 40
0.1695065864
 40
0.2124481812
 40
0.2553501572
 40
0.2980793668
 40
0.3405034027
 40
0.3824910465
 40
0.4239128186
 40
0.4646415077
 40
0.5045527151
 40
0.5435254045
 40
0.5814424688
 40
0.6181913201
 40
0.653664513
 40
0.6877604169
 40
0.7203839578
 40
0.7361162162
 40
0.7514481964
 40
0.7663701919
 40
0.7808732472
 40
0.7949488823
 40
0.8085894742
 40
0.8217880085
 40
0.8345383923
 40
0.8468353718
 40
0.858674679
 40
0.870053196
 40
0.8809689181
 40
0.8914213683
 40
0.9014114537
 40
0.9109420542
 40
0.9200179381
 40
0.928646402
 40
0.9368374364
 40
0.9446043346
 40
0.9519642227
 40
0.9589386234
 40
0.965554312
 40
0.9718437996
 40
0.9778461989
 40
0.9836073653
 40
0.9891800503
 40
0.994623078
 40
1.0
 40
1.0
 40
1.0
 40
1.0
 10
13.3968729404
 20
7.9072016142
 30
0.0
 10
13.3968729404
 20
7.8984334146
 30
0.0
 10
13.396736139
 20
7.8807939515
 30
0.0
 10
13.3961314112
 20
7.8542146113
 30
0.0
 10
13.3951276684
 20
7.8274216373
 30
0.0
 10
13.393728263
 20
7.8005039089
 30
0.0
 10
13.3919377748
 20
7.7735503262
 30
0.0
 10
13.3897621471
 20
7.7466501294
 30
0.0
 10
13.3872085752
 20
7.7198922895
 30
0.0
 10
13.3842855285
 20
7.6933653362
 30
0.0
 10
13.3810027029
 20
7.6671570203
 30
0.0
 10
13.3773709966
 20
7.6413540344
 30
0.0
 10
13.3734024723
 20
7.6160417192
 30
0.0
 10
13.3691103209
 20
7.5913037772
 30
0.0
 10
13.3645088153
 20
7.5672219931
 30
0.0
 10
13.3596132659
 20
7.5438759534
 30
0.0
 10
13.3544399679
 20
7.5213427937
 30
0.0
 10
13.3490061579
 20
7.4996968723
 30
0.0
 10
13.3433299233
 20
7.4790097292
 30
0.0
 10
13.3383552586
 20
7.4624316338
 30
0.0
 10
13.3342603701
 20
7.4497059865
 30
0.0
 10
13.3311776785
 20
7.4405587423
 30
0.0
 10
13.328048794
 20
7.4317003531
 30
0.0
 10
13.324876369
 20
7.4231381099
 30
0.0
 10
13.3216629563
 20
7.4148790919
 30
0.0
 10
13.3184112923
 20
7.4069300937
 30
0.0
 10
13.3151240104
 20
7.3992976737
 30
0.0
 10
13.3118038678
 20
7.391988105
 30
0.0
 10
13.3084535988
 20
7.3850073947
 30
0.0
 10
13.3050759473
 20
7.3783612778
 30
0.0
 10
13.3016737442
 20
7.3720551785
 30
0.0
 10
13.2982497041
 20
7.3660942765
 30
0.0
 10
13.2948067214
 20
7.3604833882
 30
0.0
 10
13.2913474829
 20
7.3552271146
 30
0.0
 10
13.2878748806
 20
7.3503296554
 30
0.0
 10
13.2843915828
 20
7.3457950031
 30
0.0
 10
13.2809003889
 20
7.3416267593
 30
0.0
 10
13.2774039376
 20
7.3378282884
 30
0.0
 10
13.2739048449
 20
7.334402654
 30
0.0
 10
13.2704056748
 20
7.3313526238
 30
0.0
 10
13.2669088055
 20
7.3286808568
 30
0.0
 10
13.2634166924
 20
7.326389671
 30
0.0
 10
13.2599315731
 20
7.3244815455
 30
0.0
 10
13.2564559352
 20
7.3229586218
 30
0.0
 10
13.252992363
 20
7.3218233503
 30
0.0
 10
13.2495437826
 20
7.3210777716
 30
0.0
 10
13.2461143362
 20
7.3207237985
 30
0.0
 10
13.2438374781
 20
7.3207498065
 30
0.0
 10
13.2427115794
 20
7.320827879
 30
0.0
  0
SPLINE
  5
2FF
100
AcDbEntity
  8
0
100
AcDbSpline
 62
7
  6
CONTINUOUS
 70
0
 71
3
 72
53
 73
49
 74
0
 42
0.0000001
 43
0.0000001
 44
0.0000000001
 40
0.0
 40
0.0
 40
0.0
 40
0.0
 40
0.0063158505
 40
0.0126706065
 40
0.0191024059
 40
0.025647925
 40
0.0323417594
 40
0.0392160732
 40
0.0536138138
 40
0.0611945116
 40
0.0690562199
 40
0.0772172833
 40
0.0856936463
 40
0.0944989782
 40
0.1036450547
 40
0.113141788
 40
0.1229974785
 40
0.1332190725
 40
0.143812113
 40
0.1547810712
 40
0.1661293938
 40
0.1778595131
 40
0.1899731419
 40
0.202471156
 40
0.2153537422
 40
0.2286205498
 40
0.2422705327
 40
0.2563022009
 40
0.2707135857
 40
0.2855021832
 40
0.3006651871
 40
0.3321002773
 40
0.3649893983
 40
0.3992971141
 40
0.4349834107
 40
0.4720041701
 40
0.5103115331
 40
0.5498541823
 40
0.5905776893
 40
0.6324247808
 40
0.6753355513
 40
0.7192476511
 40
0.7640964723
 40
0.8098154905
 40
0.8563363112
 40
0.9035882029
 40
0.951501464
 40
1.0
 40
1.0
 40
1.0
 40
1.0
 10
14.0233643611
 20
9.2394298302
 30
0.0
 10
14.0248517259
 20
9.2393266808
 30
0.0
 10
14.0278285852
 20
9.2389979676
 30
0.0
 10
14.0322605199
 20
9.2381412764
 30
0.0
 10
14.0366628388
 20
9.2369209268
 30
0.0
 10
14.0410329301
 20
9.2353378164
 30
0.0
 10
14.0453691454
 20
9.2333930147
 30
0.0
 10
14.0511914745
 20
9.2302718978
 30
0.0
 10
14.0568557334
 20
9.2264512462
 30
0.0
 10
14.0623372442
 20
9.2220236354
 30
0.0
 10
14.066477654
 20
9.2182906662
 30
0.0
 10
14.0705738638
 20
9.2142049353
 30
0.0
 10
14.0746247899
 20
9.2097678508
 30
0.0
 10
14.0786288691
 20
9.2049814041
 30
0.0
 10
14.0825845506
 20
9.199847477
 30
0.0
 10
14.0864903403
 20
9.1943681952
 30
0.0
 10
14.0903447536
 20
9.1885457932
 30
0.0
 10
14.0941462014
 20
9.1823825905
 30
0.0
 10
14.0978932504
 20
9.1758811271
 30
0.0
 10
14.1015843706
 20
9.169044024
 30
0.0
 10
14.1052180486
 20
9.1618740512
 30
0.0
 10
14.1087928787
 20
9.1543741538
 30
0.0
 10
14.1123073411
 20
9.146547365
 30
0.0
 10
14.1157600301
 20
9.1383968945
 30
0.0
 10
14.1191495563
 20
9.1299260811
 30
0.0
 10
14.1224744665
 20
9.1211383756
 30
0.0
 10
14.1257334563
 20
9.1120373989
 30
0.0
 10
14.1289251595
 20
9.1026268769
 30
0.0
 10
14.1320482321
 20
9.0929106728
 30
0.0
 10
14.1351014638
 20
9.0828927784
 30
0.0
 10
14.1391258965
 20
9.068971268
 30
0.0
 10
14.1439613179
 20
9.0508385653
 30
0.0
 10
14.1493981365
 20
9.0281967235
 30
0.0
 10
14.154527724
 20
9.0044557139
 30
0.0
 10
14.1593415504
 20
8.9796546434
 30
0.0
 10
14.1638315905
 20
8.9538342081
 30
0.0
 10
14.1679903496
 20
8.9270368798
 30
0.0
 10
14.1718109118
 20
8.8993067661
 30
0.0
 10
14.1752869131
 20
8.8706895406
 30
0.0
 10
14.1784125561
 20
8.8412323477
 30
0.0
 10
14.1811826197
 20
8.8109837324
 30
0.0
 10
14.1835924973
 20
8.7799935732
 30
0.0
 10
14.185638179
 20
8.7483129686
 30
0.0
 10
14.187316246
 20
8.7159941469
 30
0.0
 10
14.1886238713
 20
8.6830905323
 30
0.0
 10
14.1895589307
 20
8.6496560632
 30
0.0
 10
14.1901197719
 20
8.6157463657
 30
0.0
 10
14.1902429302
 20
8.5929869203
 30
0.0
 10
14.1902429302
 20
8.581538221
 30
0.0
  0
SPLINE
  5
300
100
AcDbEntity
  8
0
100
AcDbSpline
 62
7
  6
CONTINUOUS
 70
0
 71
3
 72
58
 73
54
 74
0
 42
0.0000001
 43
0.0000001
 44
0.0000000001
 40
0.0
 40
0.0
 40
0.0
 40
0.0
 40
0.0532120784
 40
0.105632612
 40
0.1571425959
 40
0.2076323446
 40
0.2569916968
 40
0.3051150367
 40
0.3519005107
 40
0.3972504891
 40
0.4410721366
 40
0.4832778646
 40
0.523785991
 40
0.5625213347
 40
0.5994159618
 40
0.6171544418
 40
0.6344111427
 40
0.6511799817
 40
0.6674556951
 40
0.6832337305
 40
0.698510209
 40
0.7132823273
 40
0.7275480486
 40
0.7413064762
 40
0.7545579423
 40
0.7673039144
 40
0.7795475465
 40
0.7912935111
 40
0.8025483785
 40
0.8133209913
 40
0.8236224565
 40
0.8334668673
 40
0.8428714511
 40
0.8518570324
 40
0.8604487067
 40
0.8686760037
 40
0.8765735796
 40
0.884181414
 40
0.8915448629
 40
0.8987146346
 40
0.9057460249
 40
0.9126980027
 40
0.9196317509
 40
0.926608977
 40
0.9336901355
 40
0.940932852
 40
0.9483906576
 40
0.9561120563
 40
0.9641402864
 40
0.9725130537
 40
0.9812628696
 40
0.9904174625
 40
1.0
 40
1.0
 40
1.0
 40
1.0
 10
13.4703576233
 20
7.9181823714
 30
0.0
 10
13.4703576233
 20
7.9264528401
 30
0.0
 10
13.4702510833
 20
7.9428709715
 30
0.0
 10
13.4697647828
 20
7.9672906855
 30
0.0
 10
13.4689541696
 20
7.9912785151
 30
0.0
 10
13.4678213078
 20
8.0147770001
 30
0.0
 10
13.4663688701
 20
8.037730564
 30
0.0
 10
13.4646003891
 20
8.0600845242
 30
0.0
 10
13.4625201414
 20
8.0817857837
 30
0.0
 10
13.460133146
 20
8.102782789
 30
0.0
 10
13.4574451626
 20
8.123025677
 30
0.0
 10
13.4544626636
 20
8.1424664009
 30
0.0
 10
13.4511928654
 20
8.1610589199
 30
0.0
 10
13.4476436318
 20
8.17875909
 30
0.0
 10
13.4444194819
 20
8.1929102499
 30
0.0
 10
13.441698305
 20
8.2037476515
 30
0.0
 10
13.4396197319
 20
8.2115202673
 30
0.0
 10
13.4374779178
 20
8.2190395908
 30
0.0
 10
13.4352741425
 20
8.2263011792
 30
0.0
 10
13.4330097474
 20
8.2333007369
 30
0.0
 10
13.4306860127
 20
8.2400341108
 30
0.0
 10
13.4283043936
 20
8.2464973401
 30
0.0
 10
13.4258662512
 20
8.2526866032
 30
0.0
 10
13.4233730252
 20
8.2585982535
 30
0.0
 10
13.4208262358
 20
8.2642288354
 30
0.0
 10
13.4182272891
 20
8.2695750192
 30
0.0
 10
13.4155777727
 20
8.2746337064
 30
0.0
 10
13.4128791856
 20
8.2794019409
 30
0.0
 10
13.4101330331
 20
8.2838769306
 30
0.0
 10
13.4073409413
 20
8.288056123
 30
0.0
 10
13.4045043595
 20
8.2919370431
 30
0.0
 10
13.4016248836
 20
8.2955174675
 30
0.0
 10
13.3987040363
 20
8.2987953053
 30
0.0
 10
13.3957432543
 20
8.3017685354
 30
0.0
 10
13.3927441208
 20
8.3044354026
 30
0.0
 10
13.3897080376
 20
8.3067940797
 30
0.0
 10
13.386636548
 20
8.3088429051
 30
0.0
 10
13.3835312617
 20
8.3105802985
 30
0.0
 10
13.3803938345
 20
8.3120045498
 30
0.0
 10
13.3772262713
 20
8.3131143116
 30
0.0
 10
13.3740307251
 20
8.3139081906
 30
0.0
 10
13.370809677
 20
8.3143851719
 30
0.0
 10
13.367565803
 20
8.3145447876
 30
0.0
 10
13.3643018474
 20
8.3143867807
 30
0.0
 10
13.3610204927
 20
8.3139116996
 30
0.0
 10
13.3577242277
 20
8.3131202932
 30
0.0
 10
13.3544153386
 20
8.312013603
 30
0.0
 10
13.351095807
 20
8.3105930213
 30
0.0
 10
13.3477675556
 20
8.3088597735
 30
0.0
 10
13.3444323103
 20
8.3068153811
 30
0.0
 10
13.3410917563
 20
8.3044613002
 30
0.0
 10
13.3377477611
 20
8.3017991195
 30
0.0
 10
13.3355682731
 20
8.2998653665
 30
0.0
 10
13.3344780364
 20
8.2988506819
 30
0.0
  0
SPLINE
  5
301
100
AcDbEntity
  8
0
100
AcDbSpline
 62
7
  6
CONTINUOUS
 70
0
 71
3
 72
49
 73
45
 74
0
 42
0.0000001
 43
0.0000001
 44
0.0000000001
 40
0.0
 40
0.0
 40
0.0
 40
0.0
 40
0.0484977591
 40
0.0964124095
 40
0.1436644782
 40
0.1901851275
 40
0.2359045137
 40
0.2807535295
 40
0.3246657516
 40
0.3675767279
 40
0.4094239822
 40
0.4501476548
 40
0.489690486
 40
0.527997965
 40
0.565018896
 40
0.6007053598
 40
0.6350131765
 40
0.6679024476
 40
0.6993376667
 40
0.7292885995
 40
0.7577308847
 40
0.7846466668
 40
0.8100260987
 40
0.8221397633
 40
0.8338699797
 40
0.8452183077
 40
0.8561873037
 40
0.8667804243
 40
0.8770020292
 40
0.8868577551
 40
0.8963545465
 40
0.9055006518
 40
0.9143060078
 40
0.9227824095
 40
0.9309435203
 40
0.9388052391
 40
0.9463859654
 40
0.9607837612
 40
0.9676581026
 40
0.974351983
 40
0.9808975113
 40
0.9873293386
 40
0.9936841261
 40
1.0
 40
1.0
 40
1.0
 40
1.0
 10
13.3968729404
 20
7.9072016142
 30
0.0
 10
13.3968729404
 20
7.9133161378
 30
0.0
 10
13.3968071507
 20
7.9254717788
 30
0.0
 10
13.3965076279
 20
7.9435826667
 30
0.0
 10
13.3960082224
 20
7.9614398168
 30
0.0
 10
13.3953098093
 20
7.9790133135
 30
0.0
 10
13.3944135884
 20
7.9962744829
 30
0.0
 10
13.3933210071
 20
8.013194824
 30
0.0
 10
13.392033902
 20
8.0297463843
 30
0.0
 10
13.3905544469
 20
8.0459018923
 30
0.0
 10
13.3888850633
 20
8.0616347142
 30
0.0
 10
13.3870285617
 20
8.0769189163
 30
0.0
 10
13.3849880443
 20
8.0917293176
 30
0.0
 10
13.3827668718
 20
8.1060415255
 30
0.0
 10
13.3803687905
 20
8.1198319864
 30
0.0
 10
13.3777977773
 20
8.1330780194
 30
0.0
 10
13.3750580945
 20
8.14575786
 30
0.0
 10
13.3721543505
 20
8.1578507097
 30
0.0
 10
13.3690913289
 20
8.1693367639
 30
0.0
 10
13.3658741237
 20
8.1801972474
 30
0.0
 10
13.3625080865
 20
8.19041454
 30
0.0
 10
13.3589987007
 20
8.1999719018
 30
0.0
 10
13.3559135012
 20
8.2074862156
 30
0.0
 10
13.3533712002
 20
8.2131480794
 30
0.0
 10
13.3514619282
 20
8.2171537234
 30
0.0
 10
13.3495211968
 20
8.2209831298
 30
0.0
 10
13.3475497989
 20
8.2246347611
 30
0.0
 10
13.3455485545
 20
8.2281071455
 30
0.0
 10
13.3435182184
 20
8.2313988461
 30
0.0
 10
13.3414596113
 20
8.2345085354
 30
0.0
 10
13.3393735741
 20
8.237434978
 30
0.0
 10
13.3372608755
 20
8.2401769582
 30
0.0
 10
13.3351223298
 20
8.2427333505
 30
0.0
 10
13.3329587663
 20
8.2451031572
 30
0.0
 10
13.3307710293
 20
8.2472853204
 30
0.0
 10
13.3285596603
 20
8.2492790488
 30
0.0
 10
13.3256320395
 20
8.2516437945
 30
0.0
 10
13.3226068118
 20
8.2536843739
 30
0.0
 10
13.3194971497
 20
8.2553513182
 30
0.0
 10
13.3171812352
 20
8.256390063
 30
0.0
 10
13.3148471906
 20
8.2572355414
 30
0.0
 10
13.3124959568
 20
8.257887323
 30
0.0
 10
13.3101289061
 20
8.2583449125
 30
0.0
 10
13.308538988
 20
8.2585204446
 30
0.0
 10
13.3077445998
 20
8.2585755293
 30
0.0
  0
SPLINE
  5
302
100
AcDbEntity
  8
0
100
AcDbSpline
 62
7
  6
CONTINUOUS
 70
0
 71
3
 72
60
 73
56
 74
0
 42
0.0000001
 43
0.0000001
 44
0.0000000001
 40
0.0
 40
0.0
 40
0.0
 40
0.0
 40
0.0417736946
 40
0.084036273
 40
0.1266574884
 40
0.1695051326
 40
0.2124463996
 40
0.2553480056
 40
0.2980768578
 40
0.340500534
 40
0.3824878216
 40
0.423909243
 40
0.4646375902
 40
0.5045484653
 40
0.5435208314
 40
0.5814375809
 40
0.5999649312
 40
0.618186568
 40
0.6360891978
 40
0.6536599534
 40
0.6708862834
 40
0.6877561191
 40
0.7042577531
 40
0.72038001
 40
0.7361121415
 40
0.751443978
 40
0.7663658649
 40
0.7808687762
 40
0.7949443138
 40
0.8085847706
 40
0.8217832093
 40
0.8345334736
 40
0.8468303542
 40
0.8586695603
 40
0.8700479747
 40
0.8809636125
 40
0.8914159615
 40
0.9014059734
 40
0.910936483
 40
0.9200122954
 40
0.9286406842
 40
0.9368316446
 40
0.9445984841
 40
0.9519582967
 40
0.958932651
 40
0.9655482683
 40
0.9718377143
 40
0.9778400536
 40
0.9836011758
 40
0.9864084793
 40
0.9891757987
 40
0.9919106634
 40
0.9946209114
 40
0.9973146136
 40
1.0
 40
1.0
 40
1.0
 40
1.0
 10
14.1902429302
 20
8.581538221
 30
0.0
 10
14.1902429302
 20
8.5651210398
 30
0.0
 10
14.1899868051
 20
8.5320940287
 30
0.0
 10
14.1888545191
 20
8.4823284261
 30
0.0
 10
14.1869752059
 20
8.4321629893
 30
0.0
 10
14.1843550219
 20
8.3817637619
 30
0.0
 10
14.1810026287
 20
8.3312975032
 30
0.0
 10
14.176929106
 20
8.2809311637
 30
0.0
 10
14.1721479485
 20
8.2308313789
 30
0.0
 10
14.1666750056
 20
8.18116389
 30
0.0
 10
14.1605284354
 20
8.132093001
 30
0.0
 10
14.1537286438
 20
8.0837810242
 30
0.0
 10
14.1462982163
 20
8.0363877548
 30
0.0
 10
14.1382618534
 20
7.9900698761
 30
0.0
 10
14.1296462589
 20
7.94498065
 30
0.0
 10
14.1219499007
 20
7.9082776118
 30
0.0
 10
14.1155160383
 20
7.8796473877
 30
0.0
 10
14.1106012477
 20
7.8587386441
 30
0.0
 10
14.1055640353
 20
7.8382459831
 30
0.0
 10
14.1004086228
 20
7.8181863347
 30
0.0
 10
14.0951392197
 20
7.7985762966
 30
0.0
 10
14.0897602663
 20
7.7794320776
 30
0.0
 10
14.084276153
 20
7.7607695105
 30
0.0
 10
14.0786914935
 20
7.7426040149
 30
0.0
 10
14.0730108605
 20
7.7249506077
 30
0.0
 10
14.0672390138
 20
7.7078238665
 30
0.0
 10
14.0613807023
 20
7.691237939
 30
0.0
 10
14.0554408062
 20
7.6752065119
 30
0.0
 10
14.0494242411
 20
7.6597428115
 30
0.0
 10
14.0433359836
 20
7.6448595873
 30
0.0
 10
14.0371811011
 20
7.6305690928
 30
0.0
 10
14.0309646435
 20
7.6168830964
 30
0.0
 10
14.024691808
 20
7.6038128292
 30
0.0
 10
14.0183676956
 20
7.5913690357
 30
0.0
 10
14.0119976008
 20
7.5795618773
 30
0.0
 10
14.0055866512
 20
7.5684010329
 30
0.0
 10
13.9991401905
 20
7.557895552
 30
0.0
 10
13.9926633425
 20
7.5480540079
 30
0.0
 10
13.9861614284
 20
7.5388843082
 30
0.0
 10
13.9796395201
 20
7.5303938905
 30
0.0
 10
13.9731028158
 20
7.5225895195
 30
0.0
 10
13.9665562561
 20
7.5154775016
 30
0.0
 10
13.9600047867
 20
7.5090635272
 30
0.0
 10
13.9534531162
 20
7.5033528712
 30
0.0
 10
13.9469058185
 20
7.4983503671
 30
0.0
 10
13.9403673814
 20
7.4940605516
 30
0.0
 10
13.9338419846
 20
7.4904878183
 30
0.0
 10
13.9273347416
 20
7.4876364947
 30
0.0
 10
13.9218831374
 20
7.4858497562
 30
0.0
 10
13.9175522919
 20
7.4847978503
 30
0.0
 10
13.9143406479
 20
7.4841973281
 30
0.0
 10
13.9111387299
 20
7.483778869
 30
0.0
 10
13.9079471606
 20
7.4835425519
 30
0.0
 10
13.9047668409
 20
7.483488439
 30
0.0
 10
13.9026531915
 20
7.4835739341
 30
0.0
 10
13.9016003558
 20
7.4836469487
 30
0.0
  0
SPLINE
  5
303
100
AcDbEntity
  8
0
100
AcDbSpline
 62
7
  6
CONTINUOUS
 70
0
 71
3
 72
44
 73
40
 74
0
 42
0.0000001
 43
0.0000001
 44
0.0000000001
 40
0.0
 40
0.0
 40
0.0
 40
0.0
 40
0.0309456505
 40
0.0620238281
 40
0.0932306164
 40
0.1245594247
 40
0.156002124
 40
0.1875487514
 40
0.219187807
 40
0.2509064083
 40
0.2826904972
 40
0.3145250535
 40
0.3463943203
 40
0.3782820352
 40
0.4101716683
 40
0.4420466618
 40
0.4738906702
 40
0.5056877985
 40
0.5374228358
 40
0.5690814822
 40
0.6006505656
 40
0.6321182458
 40
0.6634742041
 40
0.6947098149
 40
0.7258182957
 40
0.7567948345
 40
0.7876366899
 40
0.8030087861
 40
0.8183471674
 40
0.8336521026
 40
0.84892399
 40
0.864163371
 40
0.8793709155
 40
0.9096897904
 40
0.9398926055
 40
0.9549555944
 40
0.9699934565
 40
0.9850077153
 40
1.0
 40
1.0
 40
1.0
 40
1.0
 10
10.1774667634
 20
7.4192301875
 30
0.0
 10
10.1608182864
 20
7.4203847633
 30
0.0
 10
10.1275139103
 20
7.4237548856
 30
0.0
 10
10.0778754518
 20
7.4319387358
 30
0.0
 10
10.0286365306
 20
7.4432295291
 30
0.0
 10
9.9799972866
 20
7.4575816434
 30
0.0
 10
9.9321522631
 20
7.4749371719
 30
0.0
 10
9.8852935807
 20
7.4952262743
 30
0.0
 10
9.8396091686
 20
7.5183673336
 30
0.0
 10
9.7952822925
 20
7.5442673448
 30
0.0
 10
9.7524907472
 20
7.5728222602
 30
0.0
 10
9.7114061653
 20
7.6039174066
 30
0.0
 10
9.6721933373
 20
7.637427955
 30
0.0
 10
9.6350095565
 20
7.6732194171
 30
0.0
 10
9.6000039938
 20
7.7111481811
 30
0.0
 10
9.5673171047
 20
7.7510620833
 30
0.0
 10
9.5370800689
 20
7.7928010136
 30
0.0
 10
9.5094142706
 20
7.8361975532
 30
0.0
 10
9.4844308018
 20
7.881077633
 30
0.0
 10
9.4622300212
 20
7.9272612299
 30
0.0
 10
9.4429011613
 20
7.9745630892
 30
0.0
 10
9.4265219682
 20
8.0227934481
 30
0.0
 10
9.4131583914
 20
8.0717588315
 30
0.0
 10
9.402864309
 20
8.1212626611
 30
0.0
 10
9.3956813389
 20
8.1711066232
 30
0.0
 10
9.3916385479
 20
8.2210892782
 30
0.0
 10
9.3908995599
 20
8.2627405898
 30
0.0
 10
9.3918936332
 20
8.2959244499
 30
0.0
 10
9.3934276328
 20
8.3206967511
 30
0.0
 10
9.3957492692
 20
8.3453531976
 30
0.0
 10
9.3988563582
 20
8.369869235
 30
0.0
 10
9.4027456766
 20
8.3942204796
 30
0.0
 10
9.4089623328
 20
8.4264002545
 30
0.0
 10
9.4186639825
 20
8.4661025633
 30
0.0
 10
9.4309287322
 20
8.5050082764
 30
0.0
 10
9.4422363338
 20
8.535505169
 30
0.0
 10
9.4514489552
 20
8.5580284456
 30
0.0
 10
9.4613909833
 20
8.5801970635
 30
0.0
 10
9.468503865
 20
8.5947360018
 30
0.0
 10
9.4721782033
 20
8.6019379343
 30
0.0
  0
SPLINE
  5
304
100
AcDbEntity
  8
0
100
AcDbSpline
 62
7
  6
CONTINUOUS
 70
0
 71
3
 72
39
 73
35
 74
0
 42
0.0000001
 43
0.0000001
 44
0.0000000001
 40
0.0
 40
0.0
 40
0.0
 40
0.0
 40
0.0309949962
 40
0.0621273934
 40
0.0933928598
 40
0.1247841195
 40
0.1562921856
 40
0.1879060572
 40
0.2196130556
 40
0.2513990089
 40
0.2832484946
 40
0.3151450898
 40
0.3470716336
 40
0.379010498
 40
0.4109438629
 40
0.442853994
 40
0.474723519
 40
0.5065357007
 40
0.5382747029
 40
0.5699258461
 40
0.6014758499
 40
0.6329130582
 40
0.6642276447
 40
0.6954117934
 40
0.7264598532
 40
0.7573684594
 40
0.7881366229
 40
0.8187657783
 40
0.8492597925
 40
0.8796249286
 40
0.909869765
 40
0.940005068
 40
0.9700436194
 40
1.0
 40
1.0
 40
1.0
 40
1.0
 10
10.1981722699
 20
7.5165042429
 30
0.0
 10
10.1826144779
 20
7.5175831794
 30
0.0
 10
10.151491478
 20
7.5207686832
 30
0.0
 10
10.1051223999
 20
7.5285754245
 30
0.0
 10
10.0591542136
 20
7.5393878735
 30
0.0
 10
10.0137875452
 20
7.5531591136
 30
0.0
 10
9.9692172198
 20
7.5698294748
 30
0.0
 10
9.925635399
 20
7.5893269238
 30
0.0
 10
9.8832297494
 20
7.6115672441
 30
0.0
 10
9.8421829191
 20
7.6364544623
 30
0.0
 10
9.8026716797
 20
7.6638812332
 30
0.0
 10
9.764866187
 20
7.6937293005
 30
0.0
 10
9.7289292576
 20
7.7258700163
 30
0.0
 10
9.6950156751
 20
7.7601648894
 30
0.0
 10
9.6632715288
 20
7.796466178
 30
0.0
 10
9.6338335907
 20
7.8346175209
 30
0.0
 10
9.6068287303
 20
7.874454604
 30
0.0
 10
9.5823733741
 20
7.9158058631
 30
0.0
 10
9.5605729957
 20
7.9584932094
 30
0.0
 10
9.5415216632
 20
8.0023327912
 30
0.0
 10
9.5253016444
 20
8.0471357843
 30
0.0
 10
9.5119830501
 20
8.0927091941
 30
0.0
 10
9.5016235308
 20
8.1388566776
 30
0.0
 10
9.4942680243
 20
8.1853793801
 30
0.0
 10
9.4899485558
 20
8.2320767811
 30
0.0
 10
9.4886840939
 20
8.2787475508
 30
0.0
 10
9.4904804401
 20
8.3251904078
 30
0.0
 10
9.4953302062
 20
8.3712049898
 30
0.0
 10
9.5032128241
 20
8.4165926917
 30
0.0
 10
9.5140946652
 20
8.461157599
 30
0.0
 10
9.5279289927
 20
8.504707044
 30
0.0
 10
9.5446567999
 20
8.5470535228
 30
0.0
 10
9.5642046242
 20
8.5880115045
 30
0.0
 10
9.5790818257
 20
8.6143105714
 30
0.0
 10
9.5869571803
 20
8.627162086
 30
0.0
  0
SPLINE
  5
305
100
AcDbEntity
  8
0
100
AcDbSpline
 62
7
  6
CONTINUOUS
 70
0
 71
3
 72
53
 73
49
 74
0
 42
0.0000001
 43
0.0000001
 44
0.0000000001
 40
0.0
 40
0.0
 40
0.0
 40
0.0
 40
0.0063158505
 40
0.0126706065
 40
0.0191024059
 40
0.025647925
 40
0.0323417594
 40
0.0392160732
 40
0.0536138138
 40
0.0611945116
 40
0.0690562199
 40
0.0772172833
 40
0.0856936463
 40
0.0944989782
 40
0.1036450547
 40
0.113141788
 40
0.1229974785
 40
0.1332190725
 40
0.143812113
 40
0.1547810712
 40
0.1661293938
 40
0.1778595131
 40
0.1899731419
 40
0.202471156
 40
0.2153537422
 40
0.2286205498
 40
0.2422705327
 40
0.2563022009
 40
0.2707135857
 40
0.2855021832
 40
0.3006651871
 40
0.3321002773
 40
0.3649893983
 40
0.3992971141
 40
0.4349834107
 40
0.4720041701
 40
0.5103115331
 40
0.5498541823
 40
0.5905776893
 40
0.6324247808
 40
0.6753355513
 40
0.7192476511
 40
0.7640964723
 40
0.8098154905
 40
0.8563363112
 40
0.9035882029
 40
0.951501464
 40
1.0
 40
1.0
 40
1.0
 40
1.0
 10
13.424975275
 20
8.6614303236
 30
0.0
 10
13.4264626398
 20
8.6613271741
 30
0.0
 10
13.4294394991
 20
8.6609984609
 30
0.0
 10
13.4338714338
 20
8.6601417697
 30
0.0
 10
13.4382737527
 20
8.6589214201
 30
0.0
 10
13.442643844
 20
8.6573383097
 30
0.0
 10
13.4469800592
 20
8.655393508
 30
0.0
 10
13.4528023884
 20
8.6522723911
 30
0.0
 10
13.4584666472
 20
8.6484517395
 30
0.0
 10
13.4639481581
 20
8.6440241287
 30
0.0
 10
13.4680885679
 20
8.6402911595
 30
0.0
 10
13.4721847777
 20
8.6362054286
 30
0.0
 10
13.4762357038
 20
8.6317683441
 30
0.0
 10
13.480239783
 20
8.6269818974
 30
0.0
 10
13.4841954645
 20
8.6218479703
 30
0.0
 10
13.4881012542
 20
8.6163686885
 30
0.0
 10
13.4919556675
 20
8.6105462865
 30
0.0
 10
13.4957571153
 20
8.6043830838
 30
0.0
 10
13.4995041643
 20
8.5978816204
 30
0.0
 10
13.5031952845
 20
8.5910445173
 30
0.0
 10
13.5068289624
 20
8.5838745445
 30
0.0
 10
13.5104037926
 20
8.5763746471
 30
0.0
 10
13.513918255
 20
8.5685478583
 30
0.0
 10
13.517370944
 20
8.5603973878
 30
0.0
 10
13.5207604702
 20
8.5519265744
 30
0.0
 10
13.5240853804
 20
8.5431388689
 30
0.0
 10
13.5273443702
 20
8.5340378922
 30
0.0
 10
13.5305360734
 20
8.5246273702
 30
0.0
 10
13.533659146
 20
8.5149111661
 30
0.0
 10
13.5367123777
 20
8.5048932717
 30
0.0
 10
13.5407368104
 20
8.4909717613
 30
0.0
 10
13.5455722318
 20
8.4728390586
 30
0.0
 10
13.5510090504
 20
8.4501972168
 30
0.0
 10
13.5561386378
 20
8.4264562072
 30
0.0
 10
13.5609524643
 20
8.4016551367
 30
0.0
 10
13.5654425044
 20
8.3758347014
 30
0.0
 10
13.5696012635
 20
8.3490373731
 30
0.0
 10
13.5734218257
 20
8.3213072594
 30
0.0
 10
13.576897827
 20
8.2926900339
 30
0.0
 10
13.58002347
 20
8.263232841
 30
0.0
 10
13.5827935336
 20
8.2329842257
 30
0.0
 10
13.5852034112
 20
8.2019940665
 30
0.0
 10
13.5872490929
 20
8.1703134619
 30
0.0
 10
13.5889271599
 20
8.1379946402
 30
0.0
 10
13.5902347851
 20
8.1050910256
 30
0.0
 10
13.5911698446
 20
8.0716565565
 30
0.0
 10
13.5917306858
 20
8.037746859
 30
0.0
 10
13.5918538441
 20
8.0149874137
 30
0.0
 10
13.5918538441
 20
8.0035387143
 30
0.0
  0
SPLINE
  5
306
100
AcDbEntity
  8
0
100
AcDbSpline
 62
7
  6
CONTINUOUS
 70
0
 71
3
 72
60
 73
56
 74
0
 42
0.0000001
 43
0.0000001
 44
0.0000000001
 40
0.0
 40
0.0
 40
0.0
 40
0.0
 40
0.0417736946
 40
0.084036273
 40
0.1266574884
 40
0.1695051326
 40
0.2124463996
 40
0.2553480056
 40
0.2980768578
 40
0.340500534
 40
0.3824878216
 40
0.423909243
 40
0.4646375902
 40
0.5045484653
 40
0.5435208314
 40
0.5814375809
 40
0.5999649312
 40
0.618186568
 40
0.6360891978
 40
0.6536599534
 40
0.6708862834
 40
0.6877561191
 40
0.7042577531
 40
0.72038001
 40
0.7361121415
 40
0.751443978
 40
0.7663658649
 40
0.7808687762
 40
0.7949443138
 40
0.8085847706
 40
0.8217832093
 40
0.8345334736
 40
0.8468303542
 40
0.8586695603
 40
0.8700479747
 40
0.8809636125
 40
0.8914159615
 40
0.9014059734
 40
0.910936483
 40
0.9200122954
 40
0.9286406842
 40
0.9368316446
 40
0.9445984841
 40
0.9519582967
 40
0.958932651
 40
0.9655482683
 40
0.9718377143
 40
0.9778400536
 40
0.9836011758
 40
0.9864084793
 40
0.9891757987
 40
0.9919106634
 40
0.9946209114
 40
0.9973146136
 40
1.0
 40
1.0
 40
1.0
 40
1.0
 10
13.5918538441
 20
8.0035387143
 30
0.0
 10
13.5918538441
 20
7.9871215331
 30
0.0
 10
13.591597719
 20
7.954094522
 30
0.0
 10
13.5904654329
 20
7.9043289194
 30
0.0
 10
13.5885861198
 20
7.8541634826
 30
0.0
 10
13.5859659358
 20
7.8037642552
 30
0.0
 10
13.5826135426
 20
7.7532979965
 30
0.0
 10
13.5785400199
 20
7.702931657
 30
0.0
 10
13.5737588624
 20
7.6528318722
 30
0.0
 10
13.5682859195
 20
7.6031643833
 30
0.0
 10
13.5621393493
 20
7.5540934943
 30
0.0
 10
13.5553395577
 20
7.5057815175
 30
0.0
 10
13.5479091302
 20
7.4583882481
 30
0.0
 10
13.5398727673
 20
7.4120703694
 30
0.0
 10
13.5312571728
 20
7.3669811433
 30
0.0
 10
13.5235608146
 20
7.3302781051
 30
0.0
 10
13.5171269522
 20
7.301647881
 30
0.0
 10
13.5122121616
 20
7.2807391374
 30
0.0
 10
13.5071749492
 20
7.2602464764
 30
0.0
 10
13.5020195367
 20
7.2401868281
 30
0.0
 10
13.4967501336
 20
7.22057679
 30
0.0
 10
13.4913711802
 20
7.2014325709
 30
0.0
 10
13.4858870668
 20
7.1827700038
 30
0.0
 10
13.4803024074
 20
7.1646045082
 30
0.0
 10
13.4746217744
 20
7.146951101
 30
0.0
 10
13.4688499277
 20
7.1298243598
 30
0.0
 10
13.4629916161
 20
7.1132384323
 30
0.0
 10
13.4570517201
 20
7.0972070052
 30
0.0
 10
13.451035155
 20
7.0817433048
 30
0.0
 10
13.4449468975
 20
7.0668600806
 30
0.0
 10
13.438792015
 20
7.0525695862
 30
0.0
 10
13.4325755574
 20
7.0388835897
 30
0.0
 10
13.4263027219
 20
7.0258133225
 30
0.0
 10
13.4199786095
 20
7.013369529
 30
0.0
 10
13.4136085147
 20
7.0015623706
 30
0.0
 10
13.4071975651
 20
6.9904015262
 30
0.0
 10
13.4007511044
 20
6.9798960453
 30
0.0
 10
13.3942742564
 20
6.9700545012
 30
0.0
 10
13.3877723423
 20
6.9608848015
 30
0.0
 10
13.381250434
 20
6.9523943839
 30
0.0
 10
13.3747137297
 20
6.9445900128
 30
0.0
 10
13.3681671699
 20
6.9374779949
 30
0.0
 10
13.3616157006
 20
6.9310640205
 30
0.0
 10
13.3550640301
 20
6.9253533645
 30
0.0
 10
13.3485167324
 20
6.9203508604
 30
0.0
 10
13.3419782953
 20
6.916061045
 30
0.0
 10
13.3354528985
 20
6.9124883116
 30
0.0
 10
13.3289456555
 20
6.909636988
 30
0.0
 10
13.3234940513
 20
6.9078502495
 30
0.0
 10
13.3191632058
 20
6.9067983436
 30
0.0
 10
13.3159515618
 20
6.9061978214
 30
0.0
 10
13.3127496437
 20
6.9057793623
 30
0.0
 10
13.3095580745
 20
6.9055430452
 30
0.0
 10
13.3063777548
 20
6.9054889323
 30
0.0
 10
13.3042641054
 20
6.9055744274
 30
0.0
 10
13.3032112697
 20
6.9056474421
 30
0.0
  0
SPLINE
  5
307
100
AcDbEntity
  8
0
100
AcDbSpline
 62
7
  6
CONTINUOUS
 70
0
 71
3
 72
19
 73
15
 74
0
 42
0.0000001
 43
0.0000001
 44
0.0000000001
 40
0.0
 40
0.0
 40
0.0
 40
0.0
 40
0.060315303
 40
0.1201915475
 40
0.1797967015
 40
0.2393007669
 40
0.298873796
 40
0.3586827545
 40
0.4188897874
 40
0.4796478708
 40
0.6033263037
 40
0.7307674951
 40
0.8627824189
 40
1.0
 40
1.0
 40
1.0
 40
1.0
 10
9.904847308
 20
8.1351026844
 30
0.0
 10
9.9042314285
 20
8.1345077905
 30
0.0
 10
9.9029703182
 20
8.1333567582
 30
0.0
 10
9.9009878319
 20
8.1317467805
 30
0.0
 10
9.8989241542
 20
8.1302617407
 30
0.0
 10
9.8967806215
 20
8.1289025493
 30
0.0
 10
9.8945587966
 20
8.127669554
 30
0.0
 10
9.8922603945
 20
8.1265628858
 30
0.0
 10
9.8898870115
 20
8.1255827539
 30
0.0
 10
9.8866063552
 20
8.1244380442
 30
0.0
 10
9.8823113986
 20
8.1233254491
 30
0.0
 10
9.8769256344
 20
8.1225056169
 30
0.0
 10
9.8712957323
 20
8.1221868951
 30
0.0
 10
9.8674701809
 20
8.1223024777
 30
0.0
 10
9.8655267842
 20
8.122436735
 30
0.0
  0
ENDSEC
  0
SECTION
  2
OBJECTS
  0
DICTIONARY
  5
C
100
AcDbDictionary
280
0
281
1
  3
ACAD_GROUP
350
D
  3
ACAD_MLINESTYLE
350
17
  3
ACAD_LAYOUT
350
1A
  3
ACAD_PLOTSETTINGS
350
19
  3
ACAD_PLOTSTYLENAME
350
E
  3
ACAD_IMAGE_DICT
350
       309
  3
ACAD_IMAGE_VARS
350
       30A
  3
ACAD_TABLESTYLE
350
       30B
  0
IMAGEDEF_REACTOR
  5
308
100
AcDbRasterImageDefReactor
 90
2
330
28D
  0
DICTIONARY
  5
D
102
{ACAD_REACTORS
330
C
102
}
100
AcDbDictionary
280
0
281
1
  0
ACDBDICTIONARYWDFLT
  5
E
102
{ACAD_REACTORS
330
C
102
}
100
AcDbDictionary
281
1
  3
Normal
350
F
100
AcDbDictionaryWithDefault
340
F
  0
DICTIONARY
  5
309
330
C
100
AcDbDictionary
281
1
  3
EGT_assy_2_img_1
350
       30E
  0
RASTERVARIABLES
  5
30A
330
C
100
AcDbRasterVariables
 90
0
 70
0
 71
1
 72
5
  0
DICTIONARY
  5
17
102
{ACAD_REACTORS
330
C
102
}
100
AcDbDictionary
280
0
281
1
  3
Standard
350
18
  0
DICTIONARY
  5
30B
330
C
100
AcDbDictionary
281
1
  3
Standard
350
       30F
  3
Standard1
350
       310
  0
DICTIONARY
  5
19
102
{ACAD_REACTORS
330
C
102
}
100
AcDbDictionary
281
1
  0
DICTIONARY
  5
1A
102
{ACAD_REACTORS
330
C
102
}
100
AcDbDictionary
281
1
  3
Model
350
30C
  3
Layout1
350
30D
  0
ACDBPLACEHOLDER
  5
F
102
{ACAD_REACTORS
330
E
102
}
  0
MLINESTYLE
  5
18
102
{ACAD_REACTORS
330
17
102
}
100
AcDbMlineStyle
  2
STANDARD
 70
0
  3

 62
256
 51
90.0
 52
90.0
 71
2
 49
0.5
 62
256
  6
BYLAYER
 49
-0.5
 62
256
  6
BYLAYER
  0
LAYOUT
  5
30C
102
{ACAD_REACTORS
330
1A
102
}
100
AcDbPlotSettings
  1

  2
none_device
  4
ANSI_C_(22.00_x_17.00_Inches)
  6

 40
0.0
 41
0.0
 42
0.0
 43
0.0
 44
558.8
 45
431.8
 46
0.0
 47
0.0
 48
0.0
 49
0.0
140
0.0
141
0.0
142
1.0
143
1.0
 70
1024
 72
0
 73
0
 74
0
  7

 75
0
147
1.0
148
0.0
149
0.0
100
AcDbLayout
  1
Model
 70
0
 71
0
 10
0.0
 20
0.0
 11
22.0
 21
17.0
 12
0.0
 22
0.0
 32
0.0
 14
0.0
 24
0.0
 34
0.0
 15
0.0
 25
0.0
 35
0.0
146
0.0
 13
0.0
 23
0.0
 33
0.0
 16
1.0
 26
0.0
 36
0.0
 17
0.0
 27
1.0
 37
0.0
 76
0
330
20E
345
0
346
0
  0
LAYOUT
  5
30D
102
{ACAD_REACTORS
330
1A
102
}
100
AcDbPlotSettings
  1

  2
none_device
  4
ANSI_C_(22.00_x_17.00_Inches)
  6

 40
0.0
 41
0.0
 42
0.0
 43
0.0
 44
558.8
 45
431.8
 46
0.0
 47
0.0
 48
0.0
 49
0.0
140
0.0
141
0.0
142
1.0
143
1.0
 70
0
 72
0
 73
0
 74
0
  7

 75
0
147
1.0
148
0.0
149
0.0
100
AcDbLayout
  1
Layout1
 70
0
 71
1
 10
0.0
 20
0.0
 11
22.0
 21
17.0
 12
0.0
 22
0.0
 32
0.0
 14
0.0
 24
0.0
 34
0.0
 15
0.0
 25
0.0
 35
0.0
146
0.0
 13
0.0
 23
0.0
 33
0.0
 16
1.0
 26
0.0
 36
0.0
 17
0.0
 27
1.0
 37
0.0
 76
0
330
20F
345
0
346
0
  0
IMAGEDEF
  5
30E
102
{ACAD_REACTORS
330
309
330
308
102
}
100
AcDbRasterImageDef
 90
0
  1
EGT_assy_2_img_1.png
 10
369.0
 20
92.0
 11
0.0066666667
 21
0.0066666667
280
1
281
0
  0
TABLESTYLE
  5
30F
102
{ACAD_REACTORS
330
30B
330
290
330
291
102
}
330
30B
100
AcDbTableStyle
  3
Standard
 70
0
 71
0
 40
0.06
 41
0.06
280
1
281
1
  7
Standard
140
0.18
170
1
 62
0
 63
7
283
0
  7
Standard
140
0.18
170
1
 62
0
 63
7
283
0
  7
Standard
140
0.18
170
1
 62
0
 63
7
283
0
  0
TABLESTYLE
  5
310
102
{ACAD_REACTORS
330
30B
330
28F
102
}
330
30B
100
AcDbTableStyle
  3
Standard1
 70
1
 71
0
 40
0.06
 41
0.06
280
1
281
1
  7
Standard
140
0.18
170
1
 62
0
 63
7
283
0
  7
Standard
140
0.18
170
1
 62
0
 63
7
283
0
  7
Standard
140
0.18
170
1
 62
0
 63
7
283
0
  0
ENDSEC
  0
EOF
