999
DXF file: EGK_assy_2.dxf
999
Pro/ENGINEER 2014200 by Parametric Technology Corporation
  0
SECTION
  2
HEADER
  9
$ACADVER
  1
AC1021
  9
$DWGCODEPAGE
  3
ANSI_1252
  9
$EXTMAX
 10
22.0
 20
17.0
 30
0.0
  9
$EXTMIN
 10
0.0
 20
0.0
 30
0.0
  9
$LIMMIN
 10
0.0
 20
0.0
  9
$LIMMAX
 10
22.0
 20
17.0
  9
$VIEWCTR
 10
11.0
 20
8.5
  9
$VIEWSIZE
 40
17.0
  9
$CLAYER
  8
0
  9
$LTSCALE
 40
1.21
  9
$CELTYPE
  6
BYLAYER
  9
$DIMSCALE
 40
1.0
  9
$DIMASZ
 40
0.1875
  9
$DIMEXO
 40
0.0625
  9
$DIMDLI
 40
0.836
  9
$DIMEXE
 40
0.125
  9
$DIMCEN
 40
0.198
  9
$DIMLFAC
 40
1.0
  9
$DIMBLK
  1
_FILLED
  9
$DIMTXT
 40
0.1
  9
$DIMTOL
 70
0
  9
$DIMLIM
 70
0
  9
$DIMTFAC
 40
1.0
  9
$DIMGAP
 40
0.09
  9
$DIMDSEP
 70
46
  9
$AUNITS
 70
0
  9
$PDMODE
 70
3
  9
$PDSIZE
 40
0.3125
  9
$HANDSEED
  5
31D
  9
$TILEMODE
 70
1
  9
$MEASUREMENT
 70
0
  9
$INSUNITS
 70
1
  0
ENDSEC
  0
SECTION
  2
CLASSES
  0
CLASS
  1
ACDBDICTIONARYWDFLT
  2
AcDbDictionaryWithDefault
  3
AutoCAD 2000
 90
0
 91
1
280
0
281
0
  0
CLASS
  1
ACDBPLACEHOLDER
  2
AcDbPlaceHolder
  3
AutoCAD 2000
 90
0
 91
1
280
0
281
0
  0
CLASS
  1
LAYOUT
  2
AcDbLayout
  3
AutoCAD 2000
 90
0
 91
0
280
0
281
0
  0
CLASS
  1
RASTERVARIABLES
  2
AcDbRasterVariables
  3
ISM
 90
0
 91
1
280
0
281
0
  0
CLASS
  1
IMAGEDEF
  2
AcDbRasterImageDef
  3
ISM
 90
0
 91
1
280
0
281
0
  0
CLASS
  1
IMAGEDEF_REACTOR
  2
AcDbRasterImageDefReactor
  3
ISM
 90
0
 91
1
280
0
281
0
  0
CLASS
  1
IMAGE
  2
AcDbRasterImage
  3
ISM
 90
127
 91
1
280
0
281
1
  0
CLASS
  1
TABLESTYLE
  2
AcDbTableStyle
  3
ObjectDBX Classes
 90
2047
 91
1
280
0
281
0
  0
CLASS
  1
ACAD_TABLE
  2
AcDbTable
  3
ObjectDBX Classes
 90
1025
 91
3
280
0
281
1
  0
ENDSEC
  0
SECTION
  2
TABLES
  0
TABLE
  2
VPORT
  5
8
100
AcDbSymbolTable
 70
2
  0
VPORT
  5
1F4
100
AcDbSymbolTableRecord
100
AcDbViewportTableRecord
  2
*ACTIVE
 70
0
 10
0.0
 20
0.0
 11
1.0
 21
1.0
 12
11.0
 22
8.5
 13
0.0
 23
0.0
 14
1.0
 24
1.0
 15
0.0
 25
0.0
 16
0.0
 26
0.0
 36
1.0
 17
0.0
 27
0.0
 37
0.0
 40
17.0
 41
1.2941176471
 42
50.0
 43
0.0
 44
0.0
 50
0.0
 51
0.0
 71
0
 72
100
 73
1
 74
1
 75
0
 76
0
 77
0
 78
0
  0
ENDTAB
  0
TABLE
  2
LTYPE
  5
5
100
AcDbSymbolTable
 70
6
  0
LTYPE
  5
14
100
AcDbSymbolTableRecord
100
AcDbLinetypeTableRecord
  2
BYBLOCK
 70
0
  3

 72
65
 73
0
 40
0.0
  0
LTYPE
  5
15
100
AcDbSymbolTableRecord
100
AcDbLinetypeTableRecord
  2
BYLAYER
 70
0
  3

 72
65
 73
0
 40
0.0
  0
LTYPE
  5
16
100
AcDbSymbolTableRecord
100
AcDbLinetypeTableRecord
  2
CONTINUOUS
 70
64
  3
Solid line
 72
65
 73
0
 40
0.0
  0
LTYPE
  5
1F5
100
AcDbSymbolTableRecord
100
AcDbLinetypeTableRecord
  2
CENTER
 70
64
  3
____ _ ____ _ ____ _ ____ _ ____ _ ____ _ ____
 72
65
 73
4
 40
0.6
 49
0.375
 74
0
 49
-0.075
 74
0
 49
0.075
 74
0
 49
-0.075
 74
0
  0
LTYPE
  5
1F6
100
AcDbSymbolTableRecord
100
AcDbLinetypeTableRecord
  2
HIDDEN
 70
64
  3
- - - - - - - - - - - - - - - - - - - -
 72
65
 73
2
 40
0.2
 49
0.1
 74
0
 49
-0.1
 74
0
  0
LTYPE
  5
1F7
100
AcDbSymbolTableRecord
100
AcDbLinetypeTableRecord
  2
PHANTOM
 70
64
  3
_____ _ _ _____ _ _ _____ _ _ _____
 72
65
 73
6
 40
0.8
 49
0.45
 74
0
 49
-0.05
 74
0
 49
0.1
 74
0
 49
-0.05
 74
0
 49
0.1
 74
0
 49
-0.05
 74
0
  0
LTYPE
  5
1F8
100
AcDbSymbolTableRecord
100
AcDbLinetypeTableRecord
  2
DOT
 70
64
  3
. . . . . . . . . . . . . . . . . . . .
 72
65
 73
2
 40
0.2
 49
0.1
 74
0
 49
-0.1
 74
0
  0
LTYPE
  5
1F9
100
AcDbSymbolTableRecord
100
AcDbLinetypeTableRecord
  2
DASHED
 70
64
  3
- - - - - - - - - - - - - - - - - - - -
 72
65
 73
2
 40
0.2
 49
0.1
 74
0
 49
-0.1
 74
0
  0
ENDTAB
  0
TABLE
  2
LAYER
  5
2
100
AcDbSymbolTable
 70
36
  0
LAYER
  5
10
100
AcDbSymbolTableRecord
100
AcDbLayerTableRecord
  2
0
 70
0
 62
7
  6
CONTINUOUS
370
-3
390
F
  0
LAYER
  5
1FA
100
AcDbSymbolTableRecord
100
AcDbLayerTableRecord
  2
DEFAULT_1
 70
0
 62
7
  6
CENTER
370
-3
390
F
  0
LAYER
  5
1FB
100
AcDbSymbolTableRecord
100
AcDbLayerTableRecord
  2
DEFAULT_2
 70
0
 62
8
  6
HIDDEN
370
-3
390
F
  0
LAYER
  5
1FC
100
AcDbSymbolTableRecord
100
AcDbLayerTableRecord
  2
DEFAULT_3
 70
0
 62
7
  6
PHANTOM
370
-3
390
F
  0
LAYER
  5
1FD
100
AcDbSymbolTableRecord
100
AcDbLayerTableRecord
  2
DATUM_PLANES
 70
0
 62
7
  6
CONTINUOUS
370
-3
390
F
  0
LAYER
  5
1FE
100
AcDbSymbolTableRecord
100
AcDbLayerTableRecord
  2
DIMENSIONS
 70
0
 62
7
  6
CONTINUOUS
370
-3
390
F
  0
LAYER
  5
1FF
100
AcDbSymbolTableRecord
100
AcDbLayerTableRecord
  2
PARAMETERDIMENSIONS
 70
0
 62
7
  6
CONTINUOUS
370
-3
390
F
  0
LAYER
  5
200
100
AcDbSymbolTableRecord
100
AcDbLayerTableRecord
  2
PORT_AREAS
 70
0
 62
7
  6
CONTINUOUS
370
-3
390
F
  0
LAYER
  5
201
100
AcDbSymbolTableRecord
100
AcDbLayerTableRecord
  2
SUNNBOMCOSMETIC
 70
0
 62
7
  6
CONTINUOUS
370
-3
390
F
  0
LAYER
  5
202
100
AcDbSymbolTableRecord
100
AcDbLayerTableRecord
  2
SUNNBOMSTAMPING
 70
0
 62
7
  6
CONTINUOUS
370
-3
390
F
  0
LAYER
  5
203
100
AcDbSymbolTableRecord
100
AcDbLayerTableRecord
  2
THREADS
 70
0
 62
7
  6
CONTINUOUS
370
-3
390
F
  0
ENDTAB
  0
TABLE
  2
STYLE
  5
3
100
AcDbSymbolTable
 70
1
  0
STYLE
  5
11
100
AcDbSymbolTableRecord
100
AcDbTextStyleTableRecord
  2
STANDARD
 70
0
 40
0.0
 41
0.8
 50
0.0
 71
0
 42
0.2
  3
txt
  4

  0
STYLE
  5
204
100
AcDbSymbolTableRecord
100
AcDbTextStyleTableRecord
  2
TEXTSTYLE_1
 70
0
 40
0.0
 41
0.8
 50
0.0
 71
0
 42
0.2
  3
gdt
  4

  0
ENDTAB
  0
TABLE
  2
VIEW
  5
6
100
AcDbSymbolTable
 70
0
  0
ENDTAB
  0
TABLE
  2
UCS
  5
7
100
AcDbSymbolTable
 70
0
  0
ENDTAB
  0
TABLE
  2
APPID
  5
9
100
AcDbSymbolTable
 70
1
  0
APPID
  5
205
100
AcDbSymbolTableRecord
100
AcDbRegAppTableRecord
  2
ACAD
 70
0
  0
ENDTAB
  0
TABLE
  2
BLOCK_RECORD
  5
1
100
AcDbSymbolTable
 70
0
  0
BLOCK_RECORD
  5
206
100
AcDbSymbolTableRecord
100
AcDbBlockTableRecord
  2
*Model_Space
  0
BLOCK_RECORD
  5
207
100
AcDbSymbolTableRecord
100
AcDbBlockTableRecord
  2
*Paper_Space
  0
BLOCK_RECORD
  5
208
100
AcDbSymbolTableRecord
100
AcDbBlockTableRecord
  2
SUN_FIRST_THIRD_ANGLE_BL0
  0
BLOCK_RECORD
  5
209
100
AcDbSymbolTableRecord
100
AcDbBlockTableRecord
  2
*T1
  0
BLOCK_RECORD
  5
20A
100
AcDbSymbolTableRecord
100
AcDbBlockTableRecord
  2
*T2
  0
BLOCK_RECORD
  5
20B
100
AcDbSymbolTableRecord
100
AcDbBlockTableRecord
  2
*T3
  0
ENDTAB
  0
TABLE
  2
DIMSTYLE
  5
A
100
AcDbSymbolTable
 70
1
100
AcDbDimStyleTable
 71
0
  0
DIMSTYLE
105
20C
100
AcDbSymbolTableRecord
100
AcDbDimStyleTableRecord
  2
STANDARD
 70
0
  3

  4

 40
1.0
 41
0.1875
 42
0.0625
 43
0.38
 44
0.125
 45
0.0
 46
0.0
 47
0.001
 48
0.001
140
0.1
141
0.09
142
0.0
143
25.4
144
1.0
145
0.0
146
1.0
147
0.09
 71
0.0
 72
0.0
 73
1
 74
1
 75
0
 76
0
 77
0
 78
4
170
0
171
2
172
0
173
0
174
0
175
0
176
0
177
0
178
0
270
2
271
3
272
3
273
2
274
2
275
0
280
0
281
0
282
0
283
1
284
4
285
0
286
0
287
3
288
0
340
11
278
46
  0
ENDTAB
  0
ENDSEC
  0
SECTION
  2
BLOCKS
  0
BLOCK
  5
20
100
AcDbEntity
  8
0
100
AcDbBlockBegin
  2
*Model_Space
 70
0
 10
0.0
 20
0.0
 30
0.0
  3
*Model_Space
  1

  0
ENDBLK
  5
21
100
AcDbEntity
  8
0
100
AcDbBlockEnd
  0
BLOCK
  5
1C
100
AcDbEntity
  8
0
100
AcDbBlockBegin
  2
*Paper_Space
 70
0
 10
0.0
 20
0.0
 30
0.0
  3
*Paper_Space
  1

  0
ENDBLK
  5
1D
100
AcDbEntity
  8
0
100
AcDbBlockEnd
  0
BLOCK
  5
20D
100
AcDbEntity
  8
0
100
AcDbBlockBegin
 62
2
  6
CONTINUOUS
  2
SUN_FIRST_THIRD_ANGLE_BL0
 70
64
 10
20.4816717061
 20
1.2289683772
  3
SUN_FIRST_THIRD_ANGLE_BL0
  1

  0
TEXT
  5
20E
100
AcDbEntity
  8
0
100
AcDbText
 62
2
  6
CONTINUOUS
 10
19.4750896608
 20
1.4136269581
  7
STANDARD
 40
0.08
  1
FIRST ANGLE
 41
0.8
 72
0
100
AcDbText
  0
TEXT
  5
20F
100
AcDbEntity
  8
0
100
AcDbText
 62
2
  6
CONTINUOUS
 10
20.7842537513
 20
1.4047600029
  7
STANDARD
 40
0.08
  1
THIRD ANGLE
 41
0.8
 72
0
100
AcDbText
  0
LINE
  5
210
100
AcDbEntity
  8
0
100
AcDbLine
 62
7
  6
CONTINUOUS
 10
19.4767170086
 20
1.1727031207
 11
19.6334271527
 21
1.1717972817
  0
LINE
  5
211
100
AcDbEntity
  8
0
100
AcDbLine
 62
7
  6
CONTINUOUS
 10
19.6596964832
 20
1.1717972817
 11
19.6950230232
 21
1.171593082
  0
LINE
  5
212
100
AcDbEntity
  8
0
100
AcDbLine
 62
7
  6
CONTINUOUS
 10
19.7194818561
 20
1.1708914427
 11
19.8852396156
 21
1.1699333054
  0
LINE
  5
213
100
AcDbEntity
  8
0
100
AcDbLine
 62
7
  6
CONTINUOUS
 10
19.4758111696
 20
1.2723454088
 11
19.88525039
 21
1.3511534004
  0
LINE
  5
214
100
AcDbEntity
  8
0
100
AcDbLine
 62
7
  6
CONTINUOUS
 10
19.88525039
 20
1.3511534004
 11
19.8831348489
 21
0.9851647912
  0
LINE
  5
215
100
AcDbEntity
  8
0
100
AcDbLine
 62
7
  6
CONTINUOUS
 10
19.8831348489
 20
0.9851647912
 11
19.4767170086
 21
1.0658141206
  0
LINE
  5
216
100
AcDbEntity
  8
0
100
AcDbLine
 62
7
  6
CONTINUOUS
 10
19.4767170086
 20
1.0658141206
 11
19.4779056764
 21
1.2714536432
  0
CIRCLE
  5
217
100
AcDbEntity
  8
0
100
AcDbCircle
 62
7
  6
CONTINUOUS
 10
20.2068232291
 20
1.1717972817
 40
0.175742101
  0
CIRCLE
  5
218
100
AcDbEntity
  8
0
100
AcDbCircle
 62
7
  6
CONTINUOUS
 10
20.2068232291
 20
1.1717972817
 40
0.1005522074
  0
LINE
  5
219
100
AcDbEntity
  8
0
100
AcDbLine
 62
7
  6
CONTINUOUS
 10
20.2077290681
 20
1.3756110529
 11
20.2071171714
 21
1.2379342989
  0
LINE
  5
21A
100
AcDbEntity
  8
0
100
AcDbLine
 62
7
  6
CONTINUOUS
 10
20.2077290681
 20
1.2016899681
 11
20.2074674401
 21
1.1428236749
  0
LINE
  5
21B
100
AcDbEntity
  8
0
100
AcDbLine
 62
7
  6
CONTINUOUS
 10
20.208634907
 20
1.101141841
 11
20.2080230104
 21
0.963465087
  0
LINE
  5
21C
100
AcDbEntity
  8
0
100
AcDbLine
 62
7
  6
CONTINUOUS
 10
20.0066328138
 20
1.1745147986
 11
20.1443095678
 21
1.1739029019
  0
LINE
  5
21D
100
AcDbEntity
  8
0
100
AcDbLine
 62
7
  6
CONTINUOUS
 10
20.1832714155
 20
1.1727031207
 11
20.238153505
 21
1.172335442
  0
LINE
  5
21E
100
AcDbEntity
  8
0
100
AcDbLine
 62
7
  6
CONTINUOUS
 10
20.2756669918
 20
1.1717972817
 11
20.407916871
 21
1.1712095044
  0
CIRCLE
  5
21F
100
AcDbEntity
  8
0
100
AcDbCircle
 62
7
  6
CONTINUOUS
 10
20.7509457401
 20
1.1693297793
 40
0.1722024983
  0
CIRCLE
  5
220
100
AcDbEntity
  8
0
100
AcDbCircle
 62
7
  6
CONTINUOUS
 10
20.7509457401
 20
1.1693297793
 40
0.0985164967
  0
LINE
  5
221
100
AcDbEntity
  8
0
100
AcDbLine
 62
7
  6
CONTINUOUS
 10
20.7169767782
 20
1.170462078
 11
20.7825395137
 21
1.1682766535
  0
LINE
  5
222
100
AcDbEntity
  8
0
100
AcDbLine
 62
7
  6
CONTINUOUS
 10
20.8177513651
 20
1.1693297793
 11
20.947965719
 21
1.1693297793
  0
LINE
  5
223
100
AcDbEntity
  8
0
100
AcDbLine
 62
7
  6
CONTINUOUS
 10
20.6875370113
 20
1.170462078
 11
20.5573226574
 21
1.170462078
  0
LINE
  5
224
100
AcDbEntity
  8
0
100
AcDbLine
 62
7
  6
CONTINUOUS
 10
20.7486811426
 20
1.1987695462
 11
20.7486811426
 21
1.1432869085
  0
LINE
  5
225
100
AcDbEntity
  8
0
100
AcDbLine
 62
7
  6
CONTINUOUS
 10
20.7498134414
 20
1.1059210505
 11
20.7498134414
 21
0.9757066966
  0
LINE
  5
226
100
AcDbEntity
  8
0
100
AcDbLine
 62
7
  6
CONTINUOUS
 10
20.7486811426
 20
1.2338708068
 11
20.7486811426
 21
1.3640851607
  0
LINE
  5
227
100
AcDbEntity
  8
0
100
AcDbLine
 62
7
  6
CONTINUOUS
 10
21.0702539817
 20
1.2701043662
 11
21.4790138229
 21
1.3448360823
  0
LINE
  5
228
100
AcDbEntity
  8
0
100
AcDbLine
 62
7
  6
CONTINUOUS
 10
21.4790138229
 20
1.3448360823
 11
21.4790138229
 21
0.9779712941
  0
LINE
  5
229
100
AcDbEntity
  8
0
100
AcDbLine
 62
7
  6
CONTINUOUS
 10
21.4790138229
 20
0.9779712941
 11
21.069121683
 21
1.0617614
  0
LINE
  5
22A
100
AcDbEntity
  8
0
100
AcDbLine
 62
7
  6
CONTINUOUS
 10
21.0702539817
 20
1.2701043662
 11
21.069121683
 21
1.0617614
  0
LINE
  5
22B
100
AcDbEntity
  8
0
100
AcDbLine
 62
7
  6
CONTINUOUS
 10
21.4790138229
 20
1.1693297793
 11
21.3159628059
 21
1.1693297793
  0
LINE
  5
22C
100
AcDbEntity
  8
0
100
AcDbLine
 62
7
  6
CONTINUOUS
 10
21.2876553377
 20
1.1693297793
 11
21.2502894796
 21
1.1693297793
  0
LINE
  5
22D
100
AcDbEntity
  8
0
100
AcDbLine
 62
7
  6
CONTINUOUS
 10
21.2208497126
 20
1.1659328831
 11
21.0713862804
 21
1.1659328831
  0
LINE
  5
22E
100
AcDbEntity
  8
0
100
AcDbLine
 62
7
  6
CONTINUOUS
 10
20.4796138713
 20
1.5284908897
 11
20.4766766948
 21
0.9294458646
  0
ENDBLK
  5
22F
100
AcDbEntity
  8
0
  6
BYBLOCK
 62
0
100
AcDbBlockEnd
  0
BLOCK
  5
230
100
AcDbEntity
  8
0
100
AcDbBlockBegin
  2
*T1
 70
1
 10
0.0
 20
0.0
  3
*T1
  1

  0
LINE
  5
231
100
AcDbEntity
  8
0
100
AcDbLine
 62
2
  6
CONTINUOUS
 10
9.275
 20
0.0
 11
-0.0
 21
0.0
  0
LINE
  5
232
100
AcDbEntity
  8
0
100
AcDbLine
 62
2
  6
CONTINUOUS
 10
9.275
 20
0.0
 11
9.275
 21
1.25
  0
LINE
  5
233
100
AcDbEntity
  8
0
100
AcDbLine
 62
2
  6
CONTINUOUS
 10
9.275
 20
0.625
 11
-0.0
 21
0.625
  0
LINE
  5
234
100
AcDbEntity
  8
0
100
AcDbLine
 62
2
  6
CONTINUOUS
 10
9.275
 20
1.25
 11
-0.0
 21
1.25
  0
LINE
  5
235
100
AcDbEntity
  8
0
100
AcDbLine
 62
2
  6
CONTINUOUS
 10
6.8
 20
0.0
 11
6.8
 21
1.25
  0
LINE
  5
236
100
AcDbEntity
  8
0
100
AcDbLine
 62
2
  6
CONTINUOUS
 10
6.4
 20
0.0
 11
6.4
 21
0.625
  0
LINE
  5
237
100
AcDbEntity
  8
0
100
AcDbLine
 62
2
  6
CONTINUOUS
 10
5.9
 20
0.0
 11
5.9
 21
0.625
  0
LINE
  5
238
100
AcDbEntity
  8
0
100
AcDbLine
 62
2
  6
CONTINUOUS
 10
5.2
 20
0.0
 11
5.2
 21
0.625
  0
LINE
  5
239
100
AcDbEntity
  8
0
100
AcDbLine
 62
2
  6
CONTINUOUS
 10
4.1
 20
0.0
 11
4.1
 21
1.25
  0
LINE
  5
23A
100
AcDbEntity
  8
0
100
AcDbLine
 62
2
  6
CONTINUOUS
 10
-0.0
 20
0.0
 11
-0.0
 21
1.25
  0
MTEXT
  5
23B
100
AcDbEntity
  8
0
100
AcDbMText
 62
2
  6
CONTINUOUS
  7
STANDARD
 71
2
 72
1
 10
6.6
 20
0.325
 30
0.0
 11
1.0
 21
0.0
 31
0.0
 44
0.9
  1
2
 40
0.125
 41
0.2
  0
MTEXT
  5
23C
100
AcDbEntity
  8
0
100
AcDbMText
 62
2
  6
CONTINUOUS
  7
STANDARD
 71
2
 72
1
 10
6.15
 20
0.325
 30
0.0
 11
1.0
 21
0.0
 31
0.0
 44
0.9
  1
C
 40
0.125
 41
0.2
  0
MTEXT
  5
23D
100
AcDbEntity
  8
0
100
AcDbMText
 62
2
  6
CONTINUOUS
  7
STANDARD
 71
2
 72
1
 10
5.55
 20
0.325
 30
0.0
 11
1.0
 21
0.0
 31
0.0
 44
0.9
  1
2.000
 40
0.125
 41
1.0
  0
MTEXT
  5
23E
100
AcDbEntity
  8
0
100
AcDbMText
 62
2
  6
CONTINUOUS
  7
STANDARD
 71
2
 72
1
 10
4.65
 20
0.325
 30
0.0
 11
1.0
 21
0.0
 31
0.0
 44
0.9
  1
Jul-28-21
 40
0.125
 41
1.8
  0
MTEXT
  5
23F
100
AcDbEntity
  8
0
100
AcDbMText
 62
2
  6
CONTINUOUS
  7
STANDARD
 71
2
 72
1
 10
2.05
 20
0.4625
 30
0.0
 11
1.0
 21
0.0
 31
0.0
 44
0.9
  1
T-11A Line mount\PNinety degree with shuttle
 40
0.125
 41
5.2
  0
MTEXT
  5
240
100
AcDbEntity
  8
0
100
AcDbMText
 62
2
  6
CONTINUOUS
  7
STANDARD
 71
1
 72
1
 10
6.45
 20
0.5625
 30
0.0
 11
1.0
 21
0.0
 31
0.0
 44
0.9
  1
SHEET
 40
0.06
 41
0.48
  0
MTEXT
  5
241
100
AcDbEntity
  8
0
100
AcDbMText
 62
2
  6
CONTINUOUS
  7
STANDARD
 71
1
 72
1
 10
5.95
 20
0.5625
 30
0.0
 11
1.0
 21
0.0
 31
0.0
 44
0.9
  1
DWG SIZE
 40
0.06
 41
0.768
  0
MTEXT
  5
242
100
AcDbEntity
  8
0
100
AcDbMText
 62
2
  6
CONTINUOUS
  7
STANDARD
 71
1
 72
1
 10
5.25
 20
0.5625
 30
0.0
 11
1.0
 21
0.0
 31
0.0
 44
0.9
  1
SCALE
 40
0.06
 41
0.48
  0
MTEXT
  5
243
100
AcDbEntity
  8
0
100
AcDbMText
 62
2
  6
CONTINUOUS
  7
STANDARD
 71
1
 72
1
 10
4.15
 20
0.5625
 30
0.0
 11
1.0
 21
0.0
 31
0.0
 44
0.9
  1
DATE
 40
0.06
 41
0.384
  0
MTEXT
  5
244
100
AcDbEntity
  8
0
100
AcDbMText
 62
2
  6
CONTINUOUS
  7
STANDARD
 71
1
 72
1
 10
0.05
 20
0.5625
 30
0.0
 11
1.0
 21
0.0
 31
0.0
 44
0.9
  1
DESCRIPTION
 40
0.06
 41
1.056
  0
MTEXT
  5
245
100
AcDbEntity
  8
0
100
AcDbMText
 62
2
  6
CONTINUOUS
  7
STANDARD
 71
2
 72
1
 10
5.45
 20
1.0375
 30
0.0
 11
1.0
 21
0.0
 31
0.0
 44
0.9
  1
ALL DIMENSIONS IN INCH\PVIEWS ARE THIRD ANGLE
 40
0.12
 41
4.224
  0
MTEXT
  5
246
100
AcDbEntity
  8
0
100
AcDbMText
 62
2
  6
CONTINUOUS
  7
STANDARD
 71
2
 72
1
 10
2.05
 20
0.95
 30
0.0
 11
1.0
 21
0.0
 31
0.0
 44
0.9
  1
EGK
 40
0.125
 41
0.6
  0
MTEXT
  5
247
100
AcDbEntity
  8
0
100
AcDbMText
 62
2
  6
CONTINUOUS
  7
STANDARD
 71
1
 72
1
 10
0.05
 20
1.1875
 30
0.0
 11
1.0
 21
0.0
 31
0.0
 44
0.9
  1
MODEL
 40
0.06
 41
0.48
  0
ENDBLK
  5
248
100
AcDbEntity
  8
0
  6
BYBLOCK
 62
0
100
AcDbBlockEnd
  0
BLOCK
  5
249
100
AcDbEntity
  8
0
100
AcDbBlockBegin
  2
*T2
 70
1
 10
0.0
 20
0.0
  3
*T2
  1

  0
LINE
  5
24A
100
AcDbEntity
  8
0
100
AcDbLine
 62
2
  6
CONTINUOUS
 10
0.0
 20
0.0
 11
9.055
 21
0.0
  0
LINE
  5
24B
100
AcDbEntity
  8
0
100
AcDbLine
 62
2
  6
CONTINUOUS
 10
0.0
 20
0.0
 11
0.0
 21
-2.844
  0
LINE
  5
24C
100
AcDbEntity
  8
0
100
AcDbLine
 62
2
  6
CONTINUOUS
 10
0.0
 20
-0.344
 11
9.055
 21
-0.344
  0
LINE
  5
24D
100
AcDbEntity
  8
0
100
AcDbLine
 62
2
  6
CONTINUOUS
 10
0.0
 20
-0.594
 11
9.055
 21
-0.594
  0
LINE
  5
24E
100
AcDbEntity
  8
0
100
AcDbLine
 62
2
  6
CONTINUOUS
 10
0.0
 20
-0.844
 11
9.055
 21
-0.844
  0
LINE
  5
24F
100
AcDbEntity
  8
0
100
AcDbLine
 62
2
  6
CONTINUOUS
 10
0.0
 20
-1.094
 11
9.055
 21
-1.094
  0
LINE
  5
250
100
AcDbEntity
  8
0
100
AcDbLine
 62
2
  6
CONTINUOUS
 10
0.0
 20
-1.344
 11
9.055
 21
-1.344
  0
LINE
  5
251
100
AcDbEntity
  8
0
100
AcDbLine
 62
2
  6
CONTINUOUS
 10
0.0
 20
-1.594
 11
9.055
 21
-1.594
  0
LINE
  5
252
100
AcDbEntity
  8
0
100
AcDbLine
 62
2
  6
CONTINUOUS
 10
0.0
 20
-1.844
 11
9.055
 21
-1.844
  0
LINE
  5
253
100
AcDbEntity
  8
0
100
AcDbLine
 62
2
  6
CONTINUOUS
 10
0.0
 20
-2.094
 11
9.055
 21
-2.094
  0
LINE
  5
254
100
AcDbEntity
  8
0
100
AcDbLine
 62
2
  6
CONTINUOUS
 10
0.0
 20
-2.344
 11
9.055
 21
-2.344
  0
LINE
  5
255
100
AcDbEntity
  8
0
100
AcDbLine
 62
2
  6
CONTINUOUS
 10
0.0
 20
-2.594
 11
9.055
 21
-2.594
  0
LINE
  5
256
100
AcDbEntity
  8
0
100
AcDbLine
 62
2
  6
CONTINUOUS
 10
0.0
 20
-2.844
 11
9.055
 21
-2.844
  0
LINE
  5
257
100
AcDbEntity
  8
0
100
AcDbLine
 62
2
  6
CONTINUOUS
 10
3.055
 20
0.0
 11
3.055
 21
-2.844
  0
LINE
  5
258
100
AcDbEntity
  8
0
100
AcDbLine
 62
2
  6
CONTINUOUS
 10
9.055
 20
0.0
 11
9.055
 21
-2.844
  0
MTEXT
  5
259
100
AcDbEntity
  8
0
100
AcDbMText
 62
2
  6
CONTINUOUS
  7
STANDARD
 71
2
 72
1
 10
1.5275
 20
-0.0995
 30
0.0
 11
1.0
 21
0.0
 31
0.0
 44
0.9
  1
Technical Data
 40
0.145
 41
3.248
  0
MTEXT
  5
25A
100
AcDbEntity
  8
0
100
AcDbMText
 62
2
  6
CONTINUOUS
  7
STANDARD
 71
2
 72
1
 10
4.555
 20
-0.0995
 30
0.0
 11
1.0
 21
0.0
 31
0.0
 44
0.9
  1
U.S. Units
 40
0.145
 41
2.32
  0
MTEXT
  5
25B
100
AcDbEntity
  8
0
100
AcDbMText
 62
2
  6
CONTINUOUS
  7
STANDARD
 71
2
 72
1
 10
7.555
 20
-0.0995
 30
0.0
 11
1.0
 21
0.0
 31
0.0
 44
0.9
  1
Metric Units
 40
0.145
 41
2.784
  0
MTEXT
  5
25C
100
AcDbEntity
  8
0
100
AcDbMText
 62
2
  6
CONTINUOUS
  7
STANDARD
 71
2
 72
1
 10
1.5275
 20
-0.4065
 30
0.0
 11
1.0
 21
0.0
 31
0.0
 44
0.9
  1
Cavity
 40
0.125
 41
1.2
  0
MTEXT
  5
25D
100
AcDbEntity
  8
0
100
AcDbMText
 62
2
  6
CONTINUOUS
  7
STANDARD
 71
2
 72
1
 10
6.055
 20
-0.4065
 30
0.0
 11
1.0
 21
0.0
 31
0.0
 44
0.9
  1
T-11A
 40
0.125
 41
1.0
  0
MTEXT
  5
25E
100
AcDbEntity
  8
0
100
AcDbMText
 62
2
  6
CONTINUOUS
  7
STANDARD
 71
2
 72
1
 10
1.5275
 20
-0.6565
 30
0.0
 11
1.0
 21
0.0
 31
0.0
 44
0.9
  1
Body Features
 40
0.125
 41
2.6
  0
MTEXT
  5
25F
100
AcDbEntity
  8
0
100
AcDbMText
 62
2
  6
CONTINUOUS
  7
STANDARD
 71
2
 72
1
 10
6.055
 20
-0.6565
 30
0.0
 11
1.0
 21
0.0
 31
0.0
 44
0.9
  1
Ninety degree with shuttle
 40
0.125
 41
5.2
  0
MTEXT
  5
260
100
AcDbEntity
  8
0
100
AcDbMText
 62
2
  6
CONTINUOUS
  7
STANDARD
 71
2
 72
1
 10
1.5275
 20
-0.9065
 30
0.0
 11
1.0
 21
0.0
 31
0.0
 44
0.9
  1
Body Type
 40
0.125
 41
1.8
  0
MTEXT
  5
261
100
AcDbEntity
  8
0
100
AcDbMText
 62
2
  6
CONTINUOUS
  7
STANDARD
 71
2
 72
1
 10
6.055
 20
-0.9065
 30
0.0
 11
1.0
 21
0.0
 31
0.0
 44
0.9
  1
Line mount
 40
0.125
 41
2.0
  0
MTEXT
  5
262
100
AcDbEntity
  8
0
100
AcDbMText
 62
2
  6
CONTINUOUS
  7
STANDARD
 71
2
 72
1
 10
1.5275
 20
-1.1565
 30
0.0
 11
1.0
 21
0.0
 31
0.0
 44
0.9
  1
Interface
 40
0.125
 41
1.8
  0
MTEXT
  5
263
100
AcDbEntity
  8
0
100
AcDbMText
 62
2
  6
CONTINUOUS
  7
STANDARD
 71
2
 72
1
 10
6.055
 20
-1.1565
 30
0.0
 11
1.0
 21
0.0
 31
0.0
 44
0.9
  1
None
 40
0.125
 41
0.8
  0
MTEXT
  5
264
100
AcDbEntity
  8
0
100
AcDbMText
 62
2
  6
CONTINUOUS
  7
STANDARD
 71
2
 72
1
 10
1.5275
 20
-1.4065
 30
0.0
 11
1.0
 21
0.0
 31
0.0
 44
0.9
  1
Open Cavity Quantity
 40
0.125
 41
4.0
  0
MTEXT
  5
265
100
AcDbEntity
  8
0
100
AcDbMText
 62
2
  6
CONTINUOUS
  7
STANDARD
 71
2
 72
1
 10
6.055
 20
-1.4065
 30
0.0
 11
1.0
 21
0.0
 31
0.0
 44
0.9
  1
1
 40
0.125
 41
0.2
  0
MTEXT
  5
266
100
AcDbEntity
  8
0
100
AcDbMText
 62
2
  6
CONTINUOUS
  7
STANDARD
 71
2
 72
1
 10
1.5275
 20
-1.6565
 30
0.0
 11
1.0
 21
0.0
 31
0.0
 44
0.9
  1
Weight
 40
0.125
 41
1.2
  0
MTEXT
  5
267
100
AcDbEntity
  8
0
100
AcDbMText
 62
2
  6
CONTINUOUS
  7
STANDARD
 71
2
 72
1
 10
4.555
 20
-1.6565
 30
0.0
 11
1.0
 21
0.0
 31
0.0
 44
0.9
  1
0.871 lb.
 40
0.125
 41
1.8
  0
MTEXT
  5
268
100
AcDbEntity
  8
0
100
AcDbMText
 62
2
  6
CONTINUOUS
  7
STANDARD
 71
2
 72
1
 10
7.555
 20
-1.6565
 30
0.0
 11
1.0
 21
0.0
 31
0.0
 44
0.9
  1
0,395 kg.
 40
0.125
 41
1.8
  0
MTEXT
  5
269
100
AcDbEntity
  8
0
100
AcDbMText
 62
2
  6
CONTINUOUS
  7
STANDARD
 71
2
 72
1
 10
1.5275
 20
-1.9065
 30
0.0
 11
1.0
 21
0.0
 31
0.0
 44
0.9
  1
Mounting Hole Diameter
 40
0.125
 41
4.4
  0
MTEXT
  5
26A
100
AcDbEntity
  8
0
100
AcDbMText
 62
2
  6
CONTINUOUS
  7
STANDARD
 71
2
 72
1
 10
4.555
 20
-1.9065
 30
0.0
 11
1.0
 21
0.0
 31
0.0
 44
0.9
  1
.34 in.
 40
0.125
 41
1.4
  0
MTEXT
  5
26B
100
AcDbEntity
  8
0
100
AcDbMText
 62
2
  6
CONTINUOUS
  7
STANDARD
 71
2
 72
1
 10
7.555
 20
-1.9065
 30
0.0
 11
1.0
 21
0.0
 31
0.0
 44
0.9
  1
8.6 mm
 40
0.125
 41
1.2
  0
MTEXT
  5
26C
100
AcDbEntity
  8
0
100
AcDbMText
 62
2
  6
CONTINUOUS
  7
STANDARD
 71
2
 72
1
 10
1.5275
 20
-2.1565
 30
0.0
 11
1.0
 21
0.0
 31
0.0
 44
0.9
  1
Mounting Hole Depth
 40
0.125
 41
3.8
  0
MTEXT
  5
26D
100
AcDbEntity
  8
0
100
AcDbMText
 62
2
  6
CONTINUOUS
  7
STANDARD
 71
2
 72
1
 10
6.055
 20
-2.1565
 30
0.0
 11
1.0
 21
0.0
 31
0.0
 44
0.9
  1
Through
 40
0.125
 41
1.4
  0
MTEXT
  5
26E
100
AcDbEntity
  8
0
100
AcDbMText
 62
2
  6
CONTINUOUS
  7
STANDARD
 71
2
 72
1
 10
1.5275
 20
-2.4065
 30
0.0
 11
1.0
 21
0.0
 31
0.0
 44
0.9
  1
Mounting Hole Quantity
 40
0.125
 41
4.4
  0
MTEXT
  5
26F
100
AcDbEntity
  8
0
100
AcDbMText
 62
2
  6
CONTINUOUS
  7
STANDARD
 71
2
 72
1
 10
6.055
 20
-2.4065
 30
0.0
 11
1.0
 21
0.0
 31
0.0
 44
0.9
  1
2
 40
0.125
 41
0.2
  0
MTEXT
  5
270
100
AcDbEntity
  8
0
100
AcDbMText
 62
2
  6
CONTINUOUS
  7
STANDARD
 71
2
 72
1
 10
1.5275
 20
-2.6565
 30
0.0
 11
1.0
 21
0.0
 31
0.0
 44
0.9
  1
Includes integral cartridge(s)
 40
0.125
 41
6.0
  0
MTEXT
  5
271
100
AcDbEntity
  8
0
100
AcDbMText
 62
2
  6
CONTINUOUS
  7
STANDARD
 71
2
 72
1
 10
6.055
 20
-2.6565
 30
0.0
 11
1.0
 21
0.0
 31
0.0
 44
0.9
  1
Yes (see Included Components)
 40
0.125
 41
5.8
  0
ENDBLK
  5
272
100
AcDbEntity
  8
0
  6
BYBLOCK
 62
0
100
AcDbBlockEnd
  0
BLOCK
  5
273
100
AcDbEntity
  8
0
100
AcDbBlockBegin
  2
*T3
 70
1
 10
0.0
 20
0.0
  3
*T3
  1

  0
LINE
  5
274
100
AcDbEntity
  8
0
100
AcDbLine
 62
2
  6
CONTINUOUS
 10
0.0
 20
0.0
 11
4.6
 21
0.0
  0
LINE
  5
275
100
AcDbEntity
  8
0
100
AcDbLine
 62
2
  6
CONTINUOUS
 10
0.0
 20
0.0
 11
0.0
 21
-1.18775
  0
LINE
  5
276
100
AcDbEntity
  8
0
100
AcDbLine
 62
2
  6
CONTINUOUS
 10
0.0
 20
-0.34375
 11
4.6
 21
-0.34375
  0
LINE
  5
277
100
AcDbEntity
  8
0
100
AcDbLine
 62
2
  6
CONTINUOUS
 10
0.0
 20
-0.68775
 11
4.6
 21
-0.68775
  0
LINE
  5
278
100
AcDbEntity
  8
0
100
AcDbLine
 62
2
  6
CONTINUOUS
 10
0.0
 20
-0.93775
 11
4.6
 21
-0.93775
  0
LINE
  5
279
100
AcDbEntity
  8
0
100
AcDbLine
 62
2
  6
CONTINUOUS
 10
0.0
 20
-1.18775
 11
4.6
 21
-1.18775
  0
LINE
  5
27A
100
AcDbEntity
  8
0
100
AcDbLine
 62
2
  6
CONTINUOUS
 10
1.3
 20
-0.34375
 11
1.3
 21
-1.18775
  0
LINE
  5
27B
100
AcDbEntity
  8
0
100
AcDbLine
 62
2
  6
CONTINUOUS
 10
3.3
 20
-0.34375
 11
3.3
 21
-1.18775
  0
LINE
  5
27C
100
AcDbEntity
  8
0
100
AcDbLine
 62
2
  6
CONTINUOUS
 10
4.6
 20
0.0
 11
4.6
 21
-1.18775
  0
MTEXT
  5
27D
100
AcDbEntity
  8
0
100
AcDbMText
 62
2
  6
CONTINUOUS
  7
STANDARD
 71
2
 72
1
 10
2.3
 20
-0.099375
 30
0.0
 11
1.0
 21
0.0
 31
0.0
 44
0.9
  1
Port Headings
 40
0.145
 41
3.016
  0
MTEXT
  5
27E
100
AcDbEntity
  8
0
100
AcDbMText
 62
2
  6
CONTINUOUS
  7
STANDARD
 71
2
 72
1
 10
0.65
 20
-0.44325
 30
0.0
 11
1.0
 21
0.0
 31
0.0
 44
0.9
  1
Product
 40
0.145
 41
1.624
  0
MTEXT
  5
27F
100
AcDbEntity
  8
0
100
AcDbMText
 62
2
  6
CONTINUOUS
  7
STANDARD
 71
2
 72
1
 10
2.3
 20
-0.44325
 30
0.0
 11
1.0
 21
0.0
 31
0.0
 44
0.9
  1
Port
 40
0.145
 41
0.928
  0
MTEXT
  5
280
100
AcDbEntity
  8
0
100
AcDbMText
 62
2
  6
CONTINUOUS
  7
STANDARD
 71
2
 72
1
 10
3.95
 20
-0.44325
 30
0.0
 11
1.0
 21
0.0
 31
0.0
 44
0.9
  1
Size
 40
0.145
 41
0.928
  0
MTEXT
  5
281
100
AcDbEntity
  8
0
100
AcDbMText
 62
2
  6
CONTINUOUS
  7
STANDARD
 71
2
 72
1
 10
0.65
 20
-0.75025
 30
0.0
 11
1.0
 21
0.0
 31
0.0
 44
0.9
  1
EGK
 40
0.125
 41
0.6
  0
MTEXT
  5
282
100
AcDbEntity
  8
0
100
AcDbMText
 62
2
  6
CONTINUOUS
  7
STANDARD
 71
2
 72
1
 10
2.3
 20
-0.75025
 30
0.0
 11
1.0
 21
0.0
 31
0.0
 44
0.9
  1
Ports 1 &  2
 40
0.125
 41
2.4
  0
MTEXT
  5
283
100
AcDbEntity
  8
0
100
AcDbMText
 62
2
  6
CONTINUOUS
  7
STANDARD
 71
2
 72
1
 10
3.95
 20
-0.75025
 30
0.0
 11
1.0
 21
0.0
 31
0.0
 44
0.9
  1
SAE 10
 40
0.125
 41
1.2
  0
MTEXT
  5
284
100
AcDbEntity
  8
0
100
AcDbMText
 62
2
  6
CONTINUOUS
  7
STANDARD
 71
2
 72
1
 10
0.65
 20
-1.00025
 30
0.0
 11
1.0
 21
0.0
 31
0.0
 44
0.9
  1
EGK
 40
0.125
 41
0.6
  0
MTEXT
  5
285
100
AcDbEntity
  8
0
100
AcDbMText
 62
2
  6
CONTINUOUS
  7
STANDARD
 71
2
 72
1
 10
2.3
 20
-1.00025
 30
0.0
 11
1.0
 21
0.0
 31
0.0
 44
0.9
  1
Ports 3 & S
 40
0.125
 41
2.2
  0
MTEXT
  5
286
100
AcDbEntity
  8
0
100
AcDbMText
 62
2
  6
CONTINUOUS
  7
STANDARD
 71
2
 72
1
 10
3.95
 20
-1.00025
 30
0.0
 11
1.0
 21
0.0
 31
0.0
 44
0.9
  1
SAE 6
 40
0.125
 41
1.0
  0
ENDBLK
  5
287
100
AcDbEntity
  8
0
  6
BYBLOCK
 62
0
100
AcDbBlockEnd
  0
ENDSEC
  0
SECTION
  2
ENTITIES
  0
IMAGE
  5
288
100
AcDbEntity
  8
0
100
AcDbRasterImage
 62
7
  6
CONTINUOUS
 10
19.2297077316
 20
0.3094318264
 30
0.0
 11
0.0066666667
 21
0.0
 31
0.0
 12
0.0
 22
0.0066666667
 32
0.0
 13
369.0
 23
92.0
340
       31A
 70
9
280
0
281
50
282
50
283
0
360
       314
 71
1
 91
2
 14
-0.5
 24
-0.5
 14
368.5
 24
91.5
  0
INSERT
  5
289
100
AcDbEntity
  8
0
100
AcDbBlockReference
 62
2
  6
CONTINUOUS
  2
SUN_FIRST_THIRD_ANGLE_BL0
 10
20.4816717061
 20
1.2289683772
  0
ACAD_TABLE
  5
28A
100
AcDbEntity
  8
0
 62
2
  6
CONTINUOUS
100
AcDbBlockReference
  2
*T1
 10
12.42375
 20
0.30125
 30
0.0
100
AcDbTable
342
       31C
343
209
 11
1.0
 21
0.0
 31
0.0
 90
6
 91
4
 92
6
 93
20
 94
0
 95
0
 96
0
 70
1
 41
0.0
141
0.525
141
0.1
141
0.525
141
0.1
142
4.1
142
1.1
142
0.7
142
0.5
142
0.4
142
2.475
171
1
172
0
173
0
174
0
175
1
176
1
 91
33
178
0
145
0.0
301
CELL_VALUE
 90
4
  1
T-11A Line mount\PNinety degree with shuttle
304
ACVALUE_END
170
2
140
0.125
171
1
172
0
173
0
174
0
175
1
176
1
 91
33
178
0
145
0.0
301
CELL_VALUE
 90
4
  1
Jul-28-21
304
ACVALUE_END
170
5
140
0.125
171
1
172
0
173
0
174
0
175
1
176
1
 91
33
178
0
145
0.0
301
CELL_VALUE
 90
4
  1
2.000
304
ACVALUE_END
170
5
140
0.125
171
1
172
0
173
0
174
0
175
1
176
1
 91
33
178
0
145
0.0
301
CELL_VALUE
 90
4
  1
C
304
ACVALUE_END
170
5
140
0.125
171
1
172
0
173
0
174
0
175
1
176
1
 91
33
178
0
145
0.0
301
CELL_VALUE
 90
4
  1
2
304
ACVALUE_END
170
5
140
0.125
171
1
172
0
173
0
174
0
175
1
176
1
 91
33
178
0
145
0.0
301
CELL_VALUE
 90
4
  1
 
304
ACVALUE_END
170
1
140
0.125
171
1
172
0
173
0
174
0
175
1
176
1
 91
33
178
0
145
0.0
301
CELL_VALUE
 90
4
  1
DESCRIPTION
304
ACVALUE_END
170
1
140
0.06
171
1
172
0
173
0
174
0
175
1
176
1
 91
33
178
0
145
0.0
301
CELL_VALUE
 90
4
  1
DATE
304
ACVALUE_END
170
1
140
0.06
171
1
172
0
173
0
174
0
175
1
176
1
 91
33
178
0
145
0.0
301
CELL_VALUE
 90
4
  1
SCALE
304
ACVALUE_END
170
1
140
0.06
171
1
172
0
173
0
174
0
175
1
176
1
 91
33
178
0
145
0.0
301
CELL_VALUE
 90
4
  1
DWG SIZE
304
ACVALUE_END
170
1
140
0.06
171
1
172
0
173
0
174
0
175
1
176
1
 91
33
178
0
145
0.0
301
CELL_VALUE
 90
4
  1
SHEET
304
ACVALUE_END
170
1
140
0.06
171
1
172
0
173
0
174
0
175
1
176
1
 91
33
178
0
145
0.0
301
CELL_VALUE
 90
4
  1
 
304
ACVALUE_END
170
1
140
0.125
171
1
172
0
173
0
174
0
175
1
176
1
 91
33
178
0
145
0.0
301
CELL_VALUE
 90
4
  1
EGK
304
ACVALUE_END
170
5
140
0.125
171
1
172
0
173
0
174
0
175
4
176
1
 91
33
178
0
145
0.0
301
CELL_VALUE
 90
4
  1
ALL DIMENSIONS IN INCH\PVIEWS ARE THIRD ANGLE
304
ACVALUE_END
170
5
140
0.12
171
1
172
0
173
1
174
0
175
1
176
1
 91
1
178
0
145
0.0
170
1
171
1
172
0
173
1
174
0
175
1
176
1
 91
1
178
0
145
0.0
170
1
171
1
172
0
173
1
174
0
175
1
176
1
 91
1
178
0
145
0.0
170
5
171
1
172
0
173
0
174
0
175
1
176
1
 91
33
178
0
145
0.0
301
CELL_VALUE
 90
4
  1
 
304
ACVALUE_END
170
1
140
0.125
171
1
172
0
173
0
174
0
175
1
176
1
 91
33
178
0
145
0.0
301
CELL_VALUE
 90
4
  1
MODEL
304
ACVALUE_END
170
1
140
0.06
171
1
172
0
173
0
174
0
175
1
176
1
 91
33
178
0
145
0.0
301
CELL_VALUE
 90
4
  1
 
304
ACVALUE_END
170
1
140
0.125
171
1
172
0
173
0
174
0
175
1
176
1
 91
33
178
0
145
0.0
301
CELL_VALUE
 90
4
  1
 
304
ACVALUE_END
170
1
140
0.125
171
1
172
0
173
0
174
0
175
1
176
1
 91
33
178
0
145
0.0
301
CELL_VALUE
 90
4
  1
 
304
ACVALUE_END
170
1
140
0.125
171
1
172
0
173
0
174
0
175
1
176
1
 91
33
178
0
145
0.0
301
CELL_VALUE
 90
4
  1
 
304
ACVALUE_END
170
1
140
0.125
171
1
172
0
173
0
174
0
175
1
176
1
 91
33
178
0
145
0.0
301
CELL_VALUE
 90
4
  1
 
304
ACVALUE_END
170
1
140
0.125
  0
ACAD_TABLE
  5
28B
100
AcDbEntity
  8
0
 62
2
  6
CONTINUOUS
100
AcDbBlockReference
  2
*T2
 10
12.4237499994
 20
16.47875
 30
0.0
100
AcDbTable
342
       31B
343
20A
 11
1.0
 21
0.0
 31
0.0
 90
22
 91
11
 92
3
 93
16
 94
0
 95
0
 96
0
 41
0.028
141
0.344
141
0.25
141
0.25
141
0.25
141
0.25
141
0.25
141
0.25
141
0.25
141
0.25
141
0.25
141
0.25
142
3.055
142
3.0
142
3.0
171
1
172
0
173
0
174
0
175
1
176
1
 91
33
178
0
145
0.0
301
CELL_VALUE
 90
4
  1
Technical Data
304
ACVALUE_END
170
5
140
0.145
171
1
172
0
173
0
174
0
175
1
176
1
 91
33
178
0
145
0.0
301
CELL_VALUE
 90
4
  1
U.S. Units
304
ACVALUE_END
170
5
140
0.145
171
1
172
0
173
0
174
0
175
1
176
1
 91
33
178
0
145
0.0
301
CELL_VALUE
 90
4
  1
Metric Units
304
ACVALUE_END
170
5
140
0.145
171
1
172
0
173
0
174
0
175
1
176
1
 91
33
178
0
145
0.0
301
CELL_VALUE
 90
4
  1
Cavity
304
ACVALUE_END
170
5
140
0.125
171
1
172
0
173
0
174
0
175
2
176
1
 91
33
178
0
145
0.0
301
CELL_VALUE
 90
4
  1
T-11A
304
ACVALUE_END
170
5
140
0.125
171
1
172
0
173
1
174
0
175
1
176
1
 91
1
178
0
145
0.0
170
1
171
1
172
0
173
0
174
0
175
1
176
1
 91
33
178
0
145
0.0
301
CELL_VALUE
 90
4
  1
Body Features
304
ACVALUE_END
170
5
140
0.125
171
1
172
0
173
0
174
0
175
2
176
1
 91
33
178
0
145
0.0
301
CELL_VALUE
 90
4
  1
Ninety degree with shuttle
304
ACVALUE_END
170
5
140
0.125
171
1
172
0
173
1
174
0
175
1
176
1
 91
1
178
0
145
0.0
170
1
171
1
172
0
173
0
174
0
175
1
176
1
 91
33
178
0
145
0.0
301
CELL_VALUE
 90
4
  1
Body Type
304
ACVALUE_END
170
5
140
0.125
171
1
172
0
173
0
174
0
175
2
176
1
 91
33
178
0
145
0.0
301
CELL_VALUE
 90
4
  1
Line mount
304
ACVALUE_END
170
5
140
0.125
171
1
172
0
173
1
174
0
175
1
176
1
 91
1
178
0
145
0.0
170
1
171
1
172
0
173
0
174
0
175
1
176
1
 91
33
178
0
145
0.0
301
CELL_VALUE
 90
4
  1
Interface
304
ACVALUE_END
170
5
140
0.125
171
1
172
0
173
0
174
0
175
2
176
1
 91
33
178
0
145
0.0
301
CELL_VALUE
 90
4
  1
None
304
ACVALUE_END
170
5
140
0.125
171
1
172
0
173
1
174
0
175
1
176
1
 91
1
178
0
145
0.0
170
1
171
1
172
0
173
0
174
0
175
1
176
1
 91
33
178
0
145
0.0
301
CELL_VALUE
 90
4
  1
Open Cavity Quantity
304
ACVALUE_END
170
5
140
0.125
171
1
172
0
173
0
174
0
175
2
176
1
 91
33
178
0
145
0.0
301
CELL_VALUE
 90
4
  1
1
304
ACVALUE_END
170
5
140
0.125
171
1
172
0
173
1
174
0
175
1
176
1
 91
1
178
0
145
0.0
170
1
171
1
172
0
173
0
174
0
175
1
176
1
 91
33
178
0
145
0.0
301
CELL_VALUE
 90
4
  1
Weight
304
ACVALUE_END
170
5
140
0.125
171
1
172
0
173
0
174
0
175
1
176
1
 91
33
178
0
145
0.0
301
CELL_VALUE
 90
4
  1
0.871 lb.
304
ACVALUE_END
170
5
140
0.125
171
1
172
0
173
0
174
0
175
1
176
1
 91
33
178
0
145
0.0
301
CELL_VALUE
 90
4
  1
0,395 kg.
304
ACVALUE_END
170
5
140
0.125
171
1
172
0
173
0
174
0
175
1
176
1
 91
33
178
0
145
0.0
301
CELL_VALUE
 90
4
  1
Mounting Hole Diameter
304
ACVALUE_END
170
5
140
0.125
171
1
172
0
173
0
174
0
175
1
176
1
 91
33
178
0
145
0.0
301
CELL_VALUE
 90
4
  1
.34 in.
304
ACVALUE_END
170
5
140
0.125
171
1
172
0
173
0
174
0
175
1
176
1
 91
33
178
0
145
0.0
301
CELL_VALUE
 90
4
  1
8.6 mm
304
ACVALUE_END
170
5
140
0.125
171
1
172
0
173
0
174
0
175
1
176
1
 91
33
178
0
145
0.0
301
CELL_VALUE
 90
4
  1
Mounting Hole Depth
304
ACVALUE_END
170
5
140
0.125
171
1
172
0
173
0
174
0
175
2
176
1
 91
33
178
0
145
0.0
301
CELL_VALUE
 90
4
  1
Through
304
ACVALUE_END
170
5
140
0.125
171
1
172
0
173
1
174
0
175
1
176
1
 91
1
178
0
145
0.0
170
1
171
1
172
0
173
0
174
0
175
1
176
1
 91
33
178
0
145
0.0
301
CELL_VALUE
 90
4
  1
Mounting Hole Quantity
304
ACVALUE_END
170
5
140
0.125
171
1
172
0
173
0
174
0
175
2
176
1
 91
33
178
0
145
0.0
301
CELL_VALUE
 90
4
  1
2
304
ACVALUE_END
170
5
140
0.125
171
1
172
0
173
1
174
0
175
1
176
1
 91
1
178
0
145
0.0
170
1
171
1
172
0
173
0
174
0
175
1
176
1
 91
33
178
0
145
0.0
301
CELL_VALUE
 90
4
  1
Includes integral cartridge(s)
304
ACVALUE_END
170
5
140
0.125
171
1
172
0
173
0
174
0
175
2
176
1
 91
33
178
0
145
0.0
301
CELL_VALUE
 90
4
  1
Yes (see Included Components)
304
ACVALUE_END
170
5
140
0.125
171
1
172
0
173
1
174
0
175
1
176
1
 91
1
178
0
145
0.0
170
1
  0
ACAD_TABLE
  5
28C
100
AcDbEntity
  8
0
 62
2
  6
CONTINUOUS
100
AcDbBlockReference
  2
*T3
 10
0.52125
 20
1.709
 30
0.0
100
AcDbTable
342
       31B
343
20B
 11
1.0
 21
0.0
 31
0.0
 90
22
 91
4
 92
3
 93
16
 94
0
 95
0
 96
0
 41
0.05
141
0.34375
141
0.344
141
0.25
141
0.25
142
1.3
142
2.0
142
1.3
171
1
172
0
173
0
174
0
175
3
176
1
 91
33
178
0
145
0.0
301
CELL_VALUE
 90
4
  1
Port Headings
304
ACVALUE_END
170
5
140
0.145
171
1
172
0
173
1
174
0
175
1
176
1
 91
1
178
0
145
0.0
170
1
171
1
172
0
173
1
174
0
175
1
176
1
 91
1
178
0
145
0.0
170
1
171
1
172
0
173
0
174
0
175
1
176
1
 91
33
178
0
145
0.0
301
CELL_VALUE
 90
4
  1
Product
304
ACVALUE_END
170
5
140
0.145
171
1
172
0
173
0
174
0
175
1
176
1
 91
33
178
0
145
0.0
301
CELL_VALUE
 90
4
  1
Port
304
ACVALUE_END
170
5
140
0.145
171
1
172
0
173
0
174
0
175
1
176
1
 91
33
178
0
145
0.0
301
CELL_VALUE
 90
4
  1
Size
304
ACVALUE_END
170
5
140
0.145
171
1
172
0
173
0
174
0
175
1
176
1
 91
33
178
0
145
0.0
301
CELL_VALUE
 90
4
  1
EGK
304
ACVALUE_END
170
5
140
0.125
171
1
172
0
173
0
174
0
175
1
176
1
 91
33
178
0
145
0.0
301
CELL_VALUE
 90
4
  1
Ports 1 &  2
304
ACVALUE_END
170
5
140
0.125
171
1
172
0
173
0
174
0
175
1
176
1
 91
33
178
0
145
0.0
301
CELL_VALUE
 90
4
  1
SAE 10
304
ACVALUE_END
170
5
140
0.125
171
1
172
0
173
0
174
0
175
1
176
1
 91
33
178
0
145
0.0
301
CELL_VALUE
 90
4
  1
EGK
304
ACVALUE_END
170
5
140
0.125
171
1
172
0
173
0
174
0
175
1
176
1
 91
33
178
0
145
0.0
301
CELL_VALUE
 90
4
  1
Ports 3 & S
304
ACVALUE_END
170
5
140
0.125
171
1
172
0
173
0
174
0
175
1
176
1
 91
33
178
0
145
0.0
301
CELL_VALUE
 90
4
  1
SAE 6
304
ACVALUE_END
170
5
140
0.125
  0
MTEXT
  5
28D
100
AcDbEntity
  8
0
100
AcDbMText
 62
2
  6
CONTINUOUS
  7
STANDARD
 71
1
 72
1
 10
0.52125
 20
5.75995
 30
0.0
 11
1.0
 21
0.0
 31
0.0
 44
0.6
  3
Notes\P \P1. Important: Carefully consider\P   the maximum system pressure. The\P   pressure rating of the manifold is\P   dependent on the manifold material,\P   with the port type/size a secondary\P   consideration. Manifolds\P   constructed of alu
  1
minum are not\P   rated for pressures higher than\P   3000 psi (210 bar), regardless of\P   the port type/size specified.\P2. Items without balloons are\P   shipped loose.
 40
0.1
 41
3.04
  0
LINE
  5
28E
100
AcDbEntity
  8
0
100
AcDbLine
 62
7
  6
CONTINUOUS
 10
0.30125
 20
0.30125
 11
0.30125
 21
16.69875
  0
LINE
  5
28F
100
AcDbEntity
  8
0
100
AcDbLine
 62
7
  6
CONTINUOUS
 10
0.30125
 20
0.30125
 11
21.69875
 21
0.30125
  0
LINE
  5
290
100
AcDbEntity
  8
0
100
AcDbLine
 62
7
  6
CONTINUOUS
 10
0.30125
 20
16.69875
 11
21.69875
 21
16.69875
  0
LINE
  5
291
100
AcDbEntity
  8
0
100
AcDbLine
 62
7
  6
CONTINUOUS
 10
21.69875
 20
0.30125
 11
21.69875
 21
16.69875
  0
LINE
  5
292
100
AcDbEntity
  8
0
100
AcDbLine
 62
7
  6
CONTINUOUS
 10
7.3257658549
 20
9.1583694915
 11
7.3257658549
 21
6.7435547827
  0
LINE
  5
293
100
AcDbEntity
  8
0
100
AcDbLine
 62
7
  6
CONTINUOUS
 10
8.8786788439
 20
10.6583683425
 11
8.1943674962
 21
9.9973742994
  0
LINE
  5
294
100
AcDbEntity
  8
0
100
AcDbLine
 62
7
  6
CONTINUOUS
 10
7.9458900949
 20
9.757363546
 11
7.3257658549
 21
9.1583694915
  0
LINE
  5
295
100
AcDbEntity
  8
0
100
AcDbLine
 62
7
  6
CONTINUOUS
 10
8.0077093529
 20
9.7530763659
 11
8.2561867542
 21
9.9930871192
  0
LINE
  5
296
100
AcDbEntity
  8
0
100
AcDbLine
 62
7
  6
CONTINUOUS
 10
7.3257658549
 20
6.7435547827
 11
13.1213211561
 21
6.3416316575
  0
LINE
  5
297
100
AcDbEntity
  8
0
100
AcDbLine
 62
7
  6
CONTINUOUS
 10
10.8298279995
 20
10.523055689
 11
10.8132635939
 21
10.5070557009
  0
LINE
  5
298
100
AcDbEntity
  8
0
100
AcDbLine
 62
7
  6
CONTINUOUS
 10
11.757159106
 20
10.4587450583
 11
11.7405947004
 21
10.4427450702
  0
LINE
  5
299
100
AcDbEntity
  8
0
100
AcDbLine
 62
7
  6
CONTINUOUS
 10
13.1213211561
 20
7.2618297243
 11
13.059501898
 21
7.2661169044
  0
LINE
  5
29A
100
AcDbEntity
  8
0
100
AcDbLine
 62
7
  6
CONTINUOUS
 10
11.2339062324
 20
7.5288837962
 11
11.4142069578
 21
7.5163798985
  0
LINE
  5
29B
100
AcDbEntity
  8
0
100
AcDbLine
 62
7
  6
CONTINUOUS
 10
13.1213211561
 20
7.8362482995
 11
13.059501898
 21
7.8405354796
  0
LINE
  5
29C
100
AcDbEntity
  8
0
100
AcDbLine
 62
7
  6
CONTINUOUS
 10
11.1290628495
 20
7.7177487756
 11
11.2339062324
 21
7.5288837962
  0
LINE
  5
29D
100
AcDbEntity
  8
0
100
AcDbLine
 62
7
  6
CONTINUOUS
 10
10.875138
 20
8.038147329
 11
10.9181019261
 21
8.0796472972
  0
LINE
  5
29E
100
AcDbEntity
  8
0
100
AcDbLine
 62
7
  6
CONTINUOUS
 10
11.1880897149
 20
7.8158927785
 11
11.1290628495
 21
7.7177487756
  0
LINE
  5
29F
100
AcDbEntity
  8
0
100
AcDbLine
 62
7
  6
CONTINUOUS
 10
13.1213211561
 20
8.7564463663
 11
7.3257658549
 21
9.1583694915
  0
LINE
  5
2A0
100
AcDbEntity
  8
0
100
AcDbLine
 62
7
  6
CONTINUOUS
 10
11.0488073483
 20
7.6402279097
 11
11.1290628495
 21
7.7177487756
  0
LINE
  5
2A1
100
AcDbEntity
  8
0
100
AcDbLine
 62
7
  6
CONTINUOUS
 10
11.1536507312
 20
7.4513629303
 11
11.2339062324
 21
7.5288837962
  0
LINE
  5
2A2
100
AcDbEntity
  8
0
100
AcDbLine
 62
7
  6
CONTINUOUS
 10
7.9458900949
 20
9.757363546
 11
8.0077093529
 21
9.7530763659
  0
LINE
  5
2A3
100
AcDbEntity
  8
0
100
AcDbLine
 62
7
  6
CONTINUOUS
 10
14.6742341451
 20
10.2564452173
 11
13.1213211561
 21
8.7564463663
  0
LINE
  5
2A4
100
AcDbEntity
  8
0
100
AcDbLine
 62
7
  6
CONTINUOUS
 10
11.657422685
 20
7.2282666763
 11
11.7003866111
 21
7.2697666445
  0
LINE
  5
2A5
100
AcDbEntity
  8
0
100
AcDbLine
 62
7
  6
CONTINUOUS
 10
8.1943674962
 20
9.9973742994
 11
8.2561867542
 21
9.9930871192
  0
LINE
  5
2A6
100
AcDbEntity
  8
0
100
AcDbLine
 62
7
  6
CONTINUOUS
 10
11.7405947004
 20
10.4427450702
 11
10.8132635939
 21
10.5070557009
  0
LINE
  5
2A7
100
AcDbEntity
  8
0
100
AcDbLine
 62
7
  6
CONTINUOUS
 10
14.6742341451
 20
10.2564452173
 11
11.757159106
 21
10.4587450583
  0
LINE
  5
2A8
100
AcDbEntity
  8
0
100
AcDbLine
 62
7
  6
CONTINUOUS
 10
10.8298279995
 20
10.523055689
 11
8.8786788439
 21
10.6583683425
  0
LINE
  5
2A9
100
AcDbEntity
  8
0
100
AcDbLine
 62
7
  6
CONTINUOUS
 10
13.059501898
 20
7.8405354796
 11
13.059501898
 21
7.2661169044
  0
LINE
  5
2AA
100
AcDbEntity
  8
0
100
AcDbLine
 62
7
  6
CONTINUOUS
 10
13.1213211561
 20
6.3416316575
 11
13.1213211561
 21
7.2618297243
  0
LINE
  5
2AB
100
AcDbEntity
  8
0
100
AcDbLine
 62
7
  6
CONTINUOUS
 10
13.1213211561
 20
7.8362482995
 11
13.1213211561
 21
8.7564463663
  0
LINE
  5
2AC
100
AcDbEntity
  8
0
100
AcDbLine
 62
7
  6
CONTINUOUS
 10
14.6742341451
 20
7.8416305085
 11
13.1213211561
 21
6.3416316575
  0
LINE
  5
2AD
100
AcDbEntity
  8
0
100
AcDbLine
 62
7
  6
CONTINUOUS
 10
14.6742341451
 20
7.8416305085
 11
14.6742341451
 21
10.2564452173
  0
ARC
  5
2AE
100
AcDbEntity
  8
0
100
AcDbCircle
 62
7
  6
CONTINUOUS
 10
6.6619677431
 20
8.7676597688
 40
3.1990355725
100
AcDbArc
 50
353.3406298202
 51
357.3661094634
  0
ARC
  5
2AF
100
AcDbEntity
  8
0
100
AcDbCircle
 62
7
  6
CONTINUOUS
 10
6.8303659347
 20
8.7491412059
 40
3.0296236858
100
AcDbArc
 50
352.7511377527
 51
353.3191664631
  0
ARC
  5
2B0
100
AcDbEntity
  8
0
100
AcDbCircle
 62
7
  6
CONTINUOUS
 10
11.3977767478
 20
7.9338133346
 40
1.7697004048
100
AcDbArc
 50
359.991806999
 51
1.3315257233
  0
ARC
  5
2B1
100
AcDbEntity
  8
0
100
AcDbCircle
 62
7
  6
CONTINUOUS
 10
11.9961658339
 20
8.5118128413
 40
1.7697004047
100
AcDbArc
 50
359.991806999
 51
1.3315257233
  0
ARC
  5
2B2
100
AcDbEntity
  8
0
100
AcDbCircle
 62
7
  6
CONTINUOUS
 10
11.4416321996
 20
7.8988977007
 40
1.7233581998
100
AcDbArc
 50
350.7188475584
 51
351.1222609749
  0
ARC
  5
2B3
100
AcDbEntity
  8
0
100
AcDbCircle
 62
7
  6
CONTINUOUS
 10
12.0400212861
 20
8.4768972073
 40
1.7233581994
100
AcDbArc
 50
350.7188475583
 51
351.1222609749
  0
ARC
  5
2B4
100
AcDbEntity
  8
0
100
AcDbCircle
 62
7
  6
CONTINUOUS
 10
11.2653667205
 20
7.7532804696
 40
0.5850018602
100
AcDbArc
 50
135.4310642854
 51
136.2602298818
  0
ARC
  5
2B5
100
AcDbEntity
  8
0
100
AcDbCircle
 62
7
  6
CONTINUOUS
 10
11.3862619067
 20
7.6281188737
 40
0.5849835138
100
AcDbArc
 50
311.7543434699
 51
312.8318813403
  0
ARC
  5
2B6
100
AcDbEntity
  8
0
100
AcDbCircle
 62
7
  6
CONTINUOUS
 10
11.3166234771
 20
7.5810764886
 40
0.4905285445
100
AcDbArc
 50
314.0079595978
 51
320.9194365638
  0
ARC
  5
2B7
100
AcDbEntity
  8
0
100
AcDbCircle
 62
7
  6
CONTINUOUS
 10
11.2584312718
 20
7.6105367551
 40
0.2111046366
100
AcDbArc
 50
0.000016169
 51
0.1942870747
  0
ARC
  5
2B8
100
AcDbEntity
  8
0
100
AcDbCircle
 62
7
  6
CONTINUOUS
 10
11.2398362555
 20
7.6432788269
 40
0.193436197
100
AcDbArc
 50
116.670196073
 51
116.9298134187
  0
ARC
  5
2B9
100
AcDbEntity
  8
0
100
AcDbCircle
 62
7
  6
CONTINUOUS
 10
11.3229922192
 20
7.7198018729
 40
0.1651298769
100
AcDbArc
 50
144.2241106635
 51
148.9755858344
  0
SPLINE
  5
2BA
100
AcDbEntity
  8
0
100
AcDbSpline
 62
7
  6
CONTINUOUS
 70
0
 71
3
 72
59
 73
55
 74
0
 42
0.0000001
 43
0.0000001
 44
0.0000000001
 40
0.0
 40
0.0
 40
0.0
 40
0.0
 40
0.0311322829
 40
0.0624363742
 40
0.0938813008
 40
0.1254584073
 40
0.157162211
 40
0.1889779177
 40
0.2208868241
 40
0.2528701084
 40
0.2688858219
 40
0.2849126181
 40
0.3009477636
 40
0.3169884637
 40
0.3490708353
 40
0.3651116875
 40
0.3811470337
 40
0.3971741272
 40
0.4131903361
 40
0.4291930363
 40
0.4451796074
 40
0.4611475164
 40
0.4770944087
 40
0.4930180215
 40
0.5089161278
 40
0.5247866157
 40
0.540627598
 40
0.5564373559
 40
0.5722142367
 40
0.5879567259
 40
0.6036635642
 40
0.63496127
 40
0.6505554416
 40
0.666110719
 40
0.6816268764
 40
0.6971037981
 40
0.7125415269
 40
0.7279403733
 40
0.743300953
 40
0.7586239982
 40
0.7739103911
 40
0.7891612643
 40
0.8043780481
 40
0.8195622797
 40
0.8347156224
 40
0.8498399573
 40
0.8649374268
 40
0.8800102516
 40
0.895060739
 40
0.9100913671
 40
0.9400981012
 40
0.955085347
 40
0.9700637171
 40
1.0
 40
1.0
 40
1.0
 40
1.0
 10
11.2662803425
 20
7.0893907302
 30
0.0
 10
11.2530049455
 20
7.0903113821
 30
0.0
 10
11.2264387586
 20
7.0931323762
 30
0.0
 10
11.1869090519
 20
7.100228153
 30
0.0
 10
11.1478006456
 20
7.1101747307
 30
0.0
 10
11.1093304976
 20
7.1229097685
 30
0.0
 10
11.0717014531
 20
7.138370376
 30
0.0
 10
11.0351089124
 20
7.1564676451
 30
0.0
 10
10.9997533131
 20
7.1771116823
 30
0.0
 10
10.9714846452
 20
7.1963344553
 30
0.0
 10
10.9496704404
 20
7.2128679046
 30
0.0
 10
10.9337234858
 20
7.2258365517
 30
0.0
 10
10.918220058
 20
7.2393486606
 30
0.0
 10
10.8981691423
 20
7.2580637668
 30
0.0
 10
10.8790860918
 20
7.2777982145
 30
0.0
 10
10.861052058
 20
7.2984639825
 30
0.0
 10
10.848065833
 20
7.314410939
 30
0.0
 10
10.8356386775
 20
7.3307836852
 30
0.0
 10
10.8237870537
 20
7.3475607592
 30
0.0
 10
10.8125257008
 20
7.3647188702
 30
0.0
 10
10.8018695505
 20
7.3822351309
 30
0.0
 10
10.7918337774
 20
7.4000867321
 30
0.0
 10
10.7824322926
 20
7.4182500827
 30
0.0
 10
10.7736762856
 20
7.4367002362
 30
0.0
 10
10.7655773051
 20
7.4554125453
 30
0.0
 10
10.7581470263
 20
7.4743624124
 30
0.0
 10
10.7513962088
 20
7.4935248091
 30
0.0
 10
10.7453323582
 20
7.5128736581
 30
0.0
 10
10.7399633721
 20
7.5323829841
 30
0.0
 10
10.7352971053
 20
7.5520274375
 30
0.0
 10
10.7300291629
 20
7.5783300532
 30
0.0
 10
10.7261778712
 20
7.6048365704
 30
0.0
 10
10.7237720378
 20
7.6314249516
 30
0.0
 10
10.7226951867
 20
7.6513474305
 30
0.0
 10
10.7223439438
 20
7.6712454319
 30
0.0
 10
10.7227182886
 20
7.6910928866
 30
0.0
 10
10.723818226
 20
7.7108631802
 30
0.0
 10
10.7256438537
 20
7.7305298067
 30
0.0
 10
10.7281912902
 20
7.7500665972
 30
0.0
 10
10.7314565842
 20
7.7694475923
 30
0.0
 10
10.7354357407
 20
7.7886468721
 30
0.0
 10
10.7401250758
 20
7.8076384094
 30
0.0
 10
10.7455170948
 20
7.8263970986
 30
0.0
 10
10.7516039084
 20
7.8448981344
 30
0.0
 10
10.7583776513
 20
7.8631167567
 30
0.0
 10
10.7658308519
 20
7.8810279903
 30
0.0
 10
10.7739526287
 20
7.8986082761
 30
0.0
 10
10.7827312368
 20
7.9158344349
 30
0.0
 10
10.7921554415
 20
7.9326838367
 30
0.0
 10
10.8055568998
 20
7.9546001679
 30
0.0
 10
10.8202128343
 20
7.9756970585
 30
0.0
 10
10.8360485626
 20
7.9958626226
 30
0.0
 10
10.852641171
 20
8.0153697748
 30
0.0
 10
10.8659349738
 20
8.0292566896
 30
0.0
 10
10.8751384326
 20
8.0381468812
 30
0.0
  0
SPLINE
  5
2BB
100
AcDbEntity
  8
0
100
AcDbSpline
 62
7
  6
CONTINUOUS
 70
0
 71
3
 72
59
 73
55
 74
0
 42
0.0000001
 43
0.0000001
 44
0.0000000001
 40
0.0
 40
0.0
 40
0.0
 40
0.0
 40
0.0311322829
 40
0.0624363742
 40
0.0938813008
 40
0.1254584073
 40
0.157162211
 40
0.1889779177
 40
0.2208868241
 40
0.2528701084
 40
0.2688858219
 40
0.2849126181
 40
0.3009477636
 40
0.3169884637
 40
0.3490708353
 40
0.3651116875
 40
0.3811470337
 40
0.3971741272
 40
0.4131903361
 40
0.4291930363
 40
0.4451796074
 40
0.4611475164
 40
0.4770944087
 40
0.4930180215
 40
0.5089161278
 40
0.5247866157
 40
0.540627598
 40
0.5564373559
 40
0.5722142367
 40
0.5879567259
 40
0.6036635642
 40
0.63496127
 40
0.6505554416
 40
0.666110719
 40
0.6816268764
 40
0.6971037981
 40
0.7125415269
 40
0.7279403733
 40
0.743300953
 40
0.7586239982
 40
0.7739103911
 40
0.7891612643
 40
0.8043780481
 40
0.8195622797
 40
0.8347156224
 40
0.8498399573
 40
0.8649374268
 40
0.8800102516
 40
0.895060739
 40
0.9100913671
 40
0.9400981012
 40
0.955085347
 40
0.9700637171
 40
1.0
 40
1.0
 40
1.0
 40
1.0
 10
11.3092442686
 20
8.2185232433
 30
0.0
 10
11.3225196656
 20
8.2176025914
 30
0.0
 10
11.3490858525
 20
8.2147815974
 30
0.0
 10
11.3886155592
 20
8.2076858205
 30
0.0
 10
11.4277239656
 20
8.1977392428
 30
0.0
 10
11.4661941135
 20
8.1850042051
 30
0.0
 10
11.503823158
 20
8.1695435975
 30
0.0
 10
11.5404156987
 20
8.1514463284
 30
0.0
 10
11.575771298
 20
8.1308022912
 30
0.0
 10
11.6040399659
 20
8.1115795183
 30
0.0
 10
11.6258541707
 20
8.095046069
 30
0.0
 10
11.6418011253
 20
8.0820774218
 30
0.0
 10
11.6573045531
 20
8.0685653129
 30
0.0
 10
11.6773554688
 20
8.0498502067
 30
0.0
 10
11.6964385193
 20
8.030115759
 30
0.0
 10
11.7144725531
 20
8.009449991
 30
0.0
 10
11.7274587781
 20
7.9935030346
 30
0.0
 10
11.7398859336
 20
7.9771302883
 30
0.0
 10
11.7517375575
 20
7.9603532143
 30
0.0
 10
11.7629989103
 20
7.9431951033
 30
0.0
 10
11.7736550606
 20
7.9256788427
 30
0.0
 10
11.7836908338
 20
7.9078272415
 30
0.0
 10
11.7930923185
 20
7.8896638908
 30
0.0
 10
11.8018483255
 20
7.8712137373
 30
0.0
 10
11.809947306
 20
7.8525014282
 30
0.0
 10
11.8173775848
 20
7.8335515611
 30
0.0
 10
11.8241284023
 20
7.8143891645
 30
0.0
 10
11.830192253
 20
7.7950403155
 30
0.0
 10
11.835561239
 20
7.7755309894
 30
0.0
 10
11.8402275059
 20
7.755886536
 30
0.0
 10
11.8454954483
 20
7.7295839203
 30
0.0
 10
11.84934674
 20
7.7030774031
 30
0.0
 10
11.8517525733
 20
7.6764890219
 30
0.0
 10
11.8528294244
 20
7.656566543
 30
0.0
 10
11.8531806674
 20
7.6366685416
 30
0.0
 10
11.8528063225
 20
7.616821087
 30
0.0
 10
11.8517063851
 20
7.5970507933
 30
0.0
 10
11.8498807575
 20
7.5773841668
 30
0.0
 10
11.847333321
 20
7.5578473763
 30
0.0
 10
11.8440680269
 20
7.5384663813
 30
0.0
 10
11.8400888704
 20
7.5192671014
 30
0.0
 10
11.8353995353
 20
7.5002755642
 30
0.0
 10
11.8300075163
 20
7.4815168749
 30
0.0
 10
11.8239207028
 20
7.4630158391
 30
0.0
 10
11.8171469598
 20
7.4447972169
 30
0.0
 10
11.8096937592
 20
7.4268859832
 30
0.0
 10
11.8015719824
 20
7.4093056974
 30
0.0
 10
11.7927933743
 20
7.3920795386
 30
0.0
 10
11.7833691697
 20
7.3752301369
 30
0.0
 10
11.7699677114
 20
7.3533138056
 30
0.0
 10
11.7553117768
 20
7.332216915
 30
0.0
 10
11.7394760485
 20
7.3120513509
 30
0.0
 10
11.7228834401
 20
7.2925441987
 30
0.0
 10
11.7095896374
 20
7.2786572839
 30
0.0
 10
11.7003861785
 20
7.2697670924
 30
0.0
  0
SPLINE
  5
2BC
100
AcDbEntity
  8
0
100
AcDbSpline
 62
7
  6
CONTINUOUS
 70
0
 71
3
 72
15
 73
11
 74
0
 42
0.0000001
 43
0.0000001
 44
0.0000000001
 40
0.0
 40
0.0
 40
0.0
 40
0.0
 40
0.0990493905
 40
0.2066666987
 40
0.3238642713
 40
0.4503538694
 40
0.5840557736
 40
0.7218634703
 40
0.8610624569
 40
1.0
 40
1.0
 40
1.0
 40
1.0
 10
11.46818088
 20
7.6111442565
 30
0.0
 10
11.465074085
 20
7.6051862392
 30
0.0
 10
11.4585070826
 20
7.5927987514
 30
0.0
 10
11.4479304533
 20
7.5735405907
 30
0.0
 10
11.4361266614
 20
7.5528358232
 30
0.0
 10
11.4230908338
 20
7.5308003269
 30
0.0
 10
11.4089976938
 20
7.5077695151
 30
0.0
 10
11.3941519885
 20
7.4841913911
 30
0.0
 10
11.378872357
 20
7.460468816
 30
0.0
 10
11.3685286525
 20
7.4446880654
 30
0.0
 10
11.3633374971
 20
7.4368211037
 30
0.0
  0
SPLINE
  5
2BD
100
AcDbEntity
  8
0
100
AcDbSpline
 62
7
  6
CONTINUOUS
 70
0
 71
3
 72
16
 73
12
 74
0
 42
0.0000001
 43
0.0000001
 44
0.0000000001
 40
0.0
 40
0.0
 40
0.0
 40
0.0
 40
0.0568203632
 40
0.1148013582
 40
0.2344680642
 40
0.3590834873
 40
0.4876536601
 40
0.6180302345
 40
0.7477956069
 40
0.8753224375
 40
1.0
 40
1.0
 40
1.0
 40
1.0
 10
11.3633374971
 20
7.8000092359
 30
0.0
 10
11.3659499503
 20
7.7968309345
 30
0.0
 10
11.3711758771
 20
7.7903660758
 30
0.0
 10
11.3816083627
 20
7.7769717134
 30
0.0
 10
11.3945364505
 20
7.7593031855
 30
0.0
 10
11.409447992
 20
7.736784665
 30
0.0
 10
11.423566856
 20
7.7128534193
 30
0.0
 10
11.43657364
 20
7.6878795442
 30
0.0
 10
11.448309505
 20
7.6623699295
 30
0.0
 10
11.4588077582
 20
7.6367756809
 30
0.0
 10
11.4651583052
 20
7.6196507245
 30
0.0
 10
11.46818088
 20
7.6111442565
 30
0.0
  0
SPLINE
  5
2BE
100
AcDbEntity
  8
0
100
AcDbSpline
 62
7
  6
CONTINUOUS
 70
0
 71
3
 72
13
 73
9
 74
0
 42
0.0000001
 43
0.0000001
 44
0.0000000001
 40
0.0
 40
0.0
 40
0.0
 40
0.0
 40
0.1120229119
 40
0.2274286538
 40
0.4694282775
 40
0.7273369597
 40
0.8620712305
 40
1.0
 40
1.0
 40
1.0
 40
1.0
 10
11.3633374971
 20
7.8000092359
 30
0.0
 10
11.3597527639
 20
7.8008319603
 30
0.0
 10
11.35246191
 20
7.8024457951
 30
0.0
 10
11.3373595127
 20
7.8055236718
 30
0.0
 10
11.3174557933
 20
7.8090126668
 30
0.0
 10
11.2967958888
 20
7.8117715212
 30
0.0
 10
11.2794636537
 20
7.8135254701
 30
0.0
 10
11.2705391459
 20
7.8142377708
 30
0.0
 10
11.2660215237
 20
7.814551069
 30
0.0
  0
SPLINE
  5
2BF
100
AcDbEntity
  8
0
100
AcDbSpline
 62
7
  6
CONTINUOUS
 70
0
 71
3
 72
23
 73
19
 74
0
 42
0.0000001
 43
0.0000001
 44
0.0000000001
 40
0.0
 40
0.0
 40
0.0
 40
0.0
 40
0.0616482049
 40
0.1233194645
 40
0.1850366601
 40
0.2468215803
 40
0.3086958874
 40
0.3706805387
 40
0.4327949852
 40
0.4950576208
 40
0.5574833124
 40
0.620084195
 40
0.682872566
 40
0.7458647459
 40
0.8090766705
 40
0.8725171946
 40
0.9361676357
 40
1.0
 40
1.0
 40
1.0
 40
1.0
 10
10.9181023587
 20
8.0796468494
 30
0.0
 10
10.9244202593
 20
8.0857497012
 30
0.0
 10
10.9373891189
 20
8.0976206506
 30
0.0
 10
10.9577767394
 20
8.1143574464
 30
0.0
 10
10.9790490099
 20
8.1299885196
 30
0.0
 10
11.0011514092
 20
8.1444744382
 30
0.0
 10
11.0240304069
 20
8.1577757752
 30
0.0
 10
11.047626696
 20
8.1698616737
 30
0.0
 10
11.0718810329
 20
8.1807022053
 30
0.0
 10
11.0967336275
 20
8.190266564
 30
0.0
 10
11.1221199557
 20
8.1985339731
 30
0.0
 10
11.1479755754
 20
8.2054841908
 30
0.0
 10
11.174236633
 20
8.2110965611
 30
0.0
 10
11.2008382076
 20
8.2153596459
 30
0.0
 10
11.2277157202
 20
8.2182625713
 30
0.0
 10
11.2548001034
 20
8.219794336
 30
0.0
 10
11.2820147874
 20
8.2199563689
 30
0.0
 10
11.3001707312
 20
8.2191524952
 30
0.0
 10
11.3092442686
 20
8.2185232433
 30
0.0
  0
SPLINE
  5
2C0
100
AcDbEntity
  8
0
100
AcDbSpline
 62
7
  6
CONTINUOUS
 70
0
 71
3
 72
14
 73
10
 74
0
 42
0.0000001
 43
0.0000001
 44
0.0000000001
 40
0.0
 40
0.0
 40
0.0
 40
0.0
 40
0.1231136216
 40
0.2478936142
 40
0.3735912418
 40
0.499638844
 40
0.6255751812
 40
0.7510900589
 40
1.0
 40
1.0
 40
1.0
 40
1.0
 10
11.2660215237
 20
7.814551069
 30
0.0
 10
11.2614183002
 20
7.8148703036
 30
0.0
 10
11.2521424975
 20
7.815414916
 30
0.0
 10
11.2381501837
 20
7.8159606342
 30
0.0
 10
11.2240402451
 20
7.816248092
 30
0.0
 10
11.2098842872
 20
7.8162980468
 30
0.0
 10
11.1957361594
 20
7.8161311623
 30
0.0
 10
11.1769883343
 20
7.8156546855
 30
0.0
 10
11.1629667805
 20
7.8150444725
 30
0.0
 10
11.1536507312
 20
7.8145510625
 30
0.0
  0
SPLINE
  5
2C1
100
AcDbEntity
  8
0
100
AcDbSpline
 62
7
  6
CONTINUOUS
 70
0
 71
3
 72
23
 73
19
 74
0
 42
0.0000001
 43
0.0000001
 44
0.0000000001
 40
0.0
 40
0.0
 40
0.0
 40
0.0
 40
0.0616482049
 40
0.1233194645
 40
0.1850366601
 40
0.2468215803
 40
0.3086958874
 40
0.3706805387
 40
0.4327949852
 40
0.4950576208
 40
0.5574833124
 40
0.620084195
 40
0.682872566
 40
0.7458647459
 40
0.8090766705
 40
0.8725171946
 40
0.9361676357
 40
1.0
 40
1.0
 40
1.0
 40
1.0
 10
11.6574222524
 20
7.2282671242
 30
0.0
 10
11.6511043519
 20
7.2221642723
 30
0.0
 10
11.6381354922
 20
7.210293323
 30
0.0
 10
11.6177478718
 20
7.1935565271
 30
0.0
 10
11.5964756012
 20
7.1779254539
 30
0.0
 10
11.5743732019
 20
7.1634395353
 30
0.0
 10
11.5514942042
 20
7.1501381983
 30
0.0
 10
11.5278979151
 20
7.1380522999
 30
0.0
 10
11.5036435782
 20
7.1272117682
 30
0.0
 10
11.4787909836
 20
7.1176474095
 30
0.0
 10
11.4534046554
 20
7.1093800004
 30
0.0
 10
11.4275490358
 20
7.1024297827
 30
0.0
 10
11.4012879781
 20
7.0968174124
 30
0.0
 10
11.3746864035
 20
7.0925543276
 30
0.0
 10
11.3478088909
 20
7.0896514022
 30
0.0
 10
11.3207245077
 20
7.0881196375
 30
0.0
 10
11.2935098237
 20
7.0879576046
 30
0.0
 10
11.2753538799
 20
7.0887614783
 30
0.0
 10
11.2662803425
 20
7.0893907302
 30
0.0
  0
SPLINE
  5
2C2
100
AcDbEntity
  8
0
100
AcDbSpline
 62
7
  6
CONTINUOUS
 70
0
 71
3
 72
66
 73
62
 74
0
 42
0.0000001
 43
0.0000001
 44
0.0000000001
 40
0.0
 40
0.0
 40
0.0
 40
0.0
 40
0.0313892319
 40
0.0471734483
 40
0.0630045494
 40
0.0947922188
 40
0.1107556328
 40
0.126758753
 40
0.1427973822
 40
0.1588672385
 40
0.174964115
 40
0.1910835842
 40
0.2072211173
 40
0.2233719516
 40
0.2395310416
 40
0.2556933588
 40
0.2718539342
 40
0.2880076864
 40
0.3041496364
 40
0.32027501
 40
0.3363790385
 40
0.3524571444
 40
0.368505122
 40
0.3845189036
 40
0.4004946911
 40
0.4164291943
 40
0.4323193802
 40
0.4481625505
 40
0.4639566204
 40
0.4796998632
 40
0.4953909309
 40
0.5110291558
 40
0.5266142955
 40
0.542146505
 40
0.5576266393
 40
0.5730560022
 40
0.5884362808
 40
0.6037698305
 40
0.619059427
 40
0.6343081765
 40
0.6495197715
 40
0.6646982401
 40
0.6798478494
 40
0.6949733256
 40
0.7100795921
 40
0.7251716853
 40
0.7402549452
 40
0.7553347395
 40
0.7704164033
 40
0.7855053917
 40
0.8006069684
 40
0.8157262041
 40
0.83086817
 40
0.8460376768
 40
0.8612392288
 40
0.8764770253
 40
0.9070640933
 40
0.9378335392
 40
0.9533006817
 40
0.9688224861
 40
1.0
 40
1.0
 40
1.0
 40
1.0
 10
11.2579981399
 20
7.1123003646
 30
0.0
 10
11.2411662607
 20
7.1134676594
 30
0.0
 10
11.215935167
 20
7.1164677184
 30
0.0
 10
11.1826716212
 20
7.1228771401
 30
0.0
 10
11.1495439558
 20
7.1309253457
 30
0.0
 10
11.116936513
 20
7.1413635568
 30
0.0
 10
11.0851079917
 20
7.1540897903
 30
0.0
 10
11.061613524
 20
7.1647835509
 30
0.0
 10
11.0385919766
 20
7.1765847474
 30
0.0
 10
11.0160998441
 20
7.1894681984
 30
0.0
 10
10.9941906017
 20
7.2034005641
 30
0.0
 10
10.972916129
 20
7.2183475823
 30
0.0
 10
10.9523293447
 20
7.2342758233
 30
0.0
 10
10.9324785656
 20
7.2511452216
 30
0.0
 10
10.9134107316
 20
7.2689143763
 30
0.0
 10
10.89517397
 20
7.2875428341
 30
0.0
 10
10.877810985
 20
7.3069843796
 30
0.0
 10
10.8613623952
 20
7.3271913621
 30
0.0
 10
10.8458702189
 20
7.3481171205
 30
0.0
 10
10.8313706244
 20
7.3697102808
 30
0.0
 10
10.8178970582
 20
7.3919180457
 30
0.0
 10
10.8054845921
 20
7.4146885696
 30
0.0
 10
10.7941621543
 20
7.4379663492
 30
0.0
 10
10.7839552372
 20
7.461694626
 30
0.0
 10
10.7748911692
 20
7.4858174939
 30
0.0
 10
10.7669910588
 20
7.5102764424
 30
0.0
 10
10.7602718694
 20
7.5350120377
 30
0.0
 10
10.7547525833
 20
7.5599655332
 30
0.0
 10
10.7504460729
 20
7.585076583
 30
0.0
 10
10.747360382
 20
7.6102844222
 30
0.0
 10
10.7455057133
 20
7.6355287506
 30
0.0
 10
10.7448864461
 20
7.66074859
 30
0.0
 10
10.7455015196
 20
7.6858832205
 30
0.0
 10
10.7473521113
 20
7.7108721181
 30
0.0
 10
10.7504340157
 20
7.735654883
 30
0.0
 10
10.7547370891
 20
7.7601722162
 30
0.0
 10
10.7602534329
 20
7.7843647168
 30
0.0
 10
10.7669703272
 20
7.8081737621
 30
0.0
 10
10.7748687763
 20
7.831542818
 30
0.0
 10
10.7839319534
 20
7.854414945
 30
0.0
 10
10.7941388575
 20
7.8767344657
 30
0.0
 10
10.8054620797
 20
7.8984488901
 30
0.0
 10
10.8178762201
 20
7.9195050395
 30
0.0
 10
10.8313523885
 20
7.9398513016
 30
0.0
 10
10.8458553896
 20
7.9594404128
 30
0.0
 10
10.861351801
 20
7.9782241895
 30
0.0
 10
10.8778054016
 20
7.996156139
 30
0.0
 10
10.8951740474
 20
8.013195269
 30
0.0
 10
10.9134170711
 20
8.0292995066
 30
0.0
 10
10.9324916086
 20
8.0444284294
 30
0.0
 10
10.9523494572
 20
8.0585482323
 30
0.0
 10
10.9729435577
 20
8.0716239727
 30
0.0
 10
10.9942253788
 20
8.0836222014
 30
0.0
 10
11.0161418355
 20
8.0945168667
 30
0.0
 10
11.0386415722
 20
8.1042810549
 30
0.0
 10
11.0693794769
 20
8.11577051
 30
0.0
 10
11.1090137337
 20
8.1271943891
 30
0.0
 10
11.1497222603
 20
8.1345531549
 30
0.0
 10
11.1827526651
 20
8.137991139
 30
0.0
 10
11.2161299847
 20
8.1397875404
 30
0.0
 10
11.2412797904
 20
8.1392730744
 30
0.0
 10
11.2579981399
 20
8.1381136529
 30
0.0
  0
SPLINE
  5
2C3
100
AcDbEntity
  8
0
100
AcDbSpline
 62
7
  6
CONTINUOUS
 70
0
 71
3
 72
33
 73
29
 74
0
 42
0.0000001
 43
0.0000001
 44
0.0000000001
 40
0.0
 40
0.0
 40
0.0
 40
0.0
 40
0.0607663237
 40
0.091331568
 40
0.1220124065
 40
0.1528084241
 40
0.1837173208
 40
0.2147358851
 40
0.2458601834
 40
0.2770843894
 40
0.3084013868
 40
0.3712616898
 40
0.4343894808
 40
0.4977003293
 40
0.5294057045
 40
0.5611213219
 40
0.5928355414
 40
0.6245364484
 40
0.6562120085
 40
0.6878507642
 40
0.7194411705
 40
0.7509711995
 40
0.782429246
 40
0.813806578
 40
0.8450987421
 40
0.8763022432
 40
0.9384000084
 40
1.0
 40
1.0
 40
1.0
 40
1.0
 10
11.2320788567
 20
7.8160697759
 30
0.0
 10
11.2309669938
 20
7.8096374491
 30
0.0
 10
11.2298351191
 20
7.7998653472
 30
0.0
 10
11.2293981454
 20
7.7867614042
 30
0.0
 10
11.2296080295
 20
7.7768708478
 30
0.0
 10
11.2303541675
 20
7.7669698958
 30
0.0
 10
11.2316333474
 20
7.7570869247
 30
0.0
 10
11.2334431098
 20
7.7472514031
 30
0.0
 10
11.2357790598
 20
7.7374927017
 30
0.0
 10
11.2386323371
 20
7.7278389006
 30
0.0
 10
11.2431194832
 20
7.7151318317
 30
0.0
 10
11.2499857003
 20
7.6996553338
 30
0.0
 10
11.2601081591
 20
7.6819797324
 30
0.0
 10
11.2700295314
 20
7.6681498346
 30
0.0
 10
11.2787846111
 20
7.6577183306
 30
0.0
 10
11.2857467206
 20
7.6502305638
 30
0.0
 10
11.2930796192
 20
7.6431066509
 30
0.0
 10
11.3007606566
 20
7.6363659954
 30
0.0
 10
11.3087674302
 20
7.6300287036
 30
0.0
 10
11.3170776175
 20
7.6241152645
 30
0.0
 10
11.3256654936
 20
7.6186419345
 30
0.0
 10
11.334504876
 20
7.6136239988
 30
0.0
 10
11.3435700552
 20
7.6090771669
 30
0.0
 10
11.35283503
 20
7.605015994
 30
0.0
 10
11.3622729259
 20
7.6014506766
 30
0.0
 10
11.3750282856
 20
7.5973790251
 30
0.0
 10
11.3912615277
 20
7.5935787585
 30
0.0
 10
11.404477232
 20
7.5919351765
 30
0.0
 10
11.411078647
 20
7.5914773668
 30
0.0
  0
SPLINE
  5
2C4
100
AcDbEntity
  8
0
100
AcDbSpline
 62
7
  6
CONTINUOUS
 70
0
 71
3
 72
15
 73
11
 74
0
 42
0.0000001
 43
0.0000001
 44
0.0000000001
 40
0.0
 40
0.0
 40
0.0
 40
0.0
 40
0.1267721213
 40
0.2530848049
 40
0.3788484787
 40
0.5040309115
 40
0.6286806203
 40
0.7528576716
 40
0.876615375
 40
1.0
 40
1.0
 40
1.0
 40
1.0
 10
11.2579981399
 20
7.8367447773
 30
0.0
 10
11.2534344312
 20
7.8370612716
 30
0.0
 10
11.2443003114
 20
7.8373983291
 30
0.0
 10
11.2306254358
 20
7.8370135544
 30
0.0
 10
11.2170616273
 20
7.8357370508
 30
0.0
 10
11.203671999
 20
7.8335710359
 30
0.0
 10
11.1905126164
 20
7.8305284924
 30
0.0
 10
11.1776375021
 20
7.8266194954
 30
0.0
 10
11.1651006523
 20
7.8218620299
 30
0.0
 10
11.1569903135
 20
7.8181328714
 30
0.0
 10
11.1530116009
 20
7.8161343783
 30
0.0
  0
SPLINE
  5
2C5
100
AcDbEntity
  8
0
100
AcDbSpline
 62
7
  6
CONTINUOUS
 70
0
 71
3
 72
44
 73
40
 74
0
 42
0.0000001
 43
0.0000001
 44
0.0000000001
 40
0.0
 40
0.0
 40
0.0
 40
0.0
 40
0.0301887775
 40
0.060307189
 40
0.0903838176
 40
0.1204483681
 40
0.150530331
 40
0.1806592903
 40
0.1957536387
 40
0.2108700789
 40
0.2411744884
 40
0.2563750715
 40
0.2716091147
 40
0.3021796441
 40
0.3175266352
 40
0.3329146523
 40
0.3638118197
 40
0.3948836434
 40
0.4261319821
 40
0.4575531672
 40
0.4891397401
 40
0.5208793779
 40
0.5527562983
 40
0.584751048
 40
0.6168412608
 40
0.6490024641
 40
0.6812080575
 40
0.7134308435
 40
0.7295427041
 40
0.7456483331
 40
0.7778217557
 40
0.8099305437
 40
0.8419493306
 40
0.8738525474
 40
0.9056216359
 40
0.937248854
 40
0.9530093839
 40
0.9687263067
 40
1.0
 40
1.0
 40
1.0
 40
1.0
 10
11.1522292557
 20
7.8157391872
 30
0.0
 10
11.1472421016
 20
7.8132057936
 30
0.0
 10
11.1374938279
 20
7.8077093584
 30
0.0
 10
11.1236593435
 20
7.798235042
 30
0.0
 10
11.1107245967
 20
7.7875991896
 30
0.0
 10
11.0987744585
 20
7.775877804
 30
0.0
 10
11.0878922524
 20
7.7631466339
 30
0.0
 10
11.0797758154
 20
7.7517730766
 30
0.0
 10
11.073887324
 20
7.7422653233
 30
0.0
 10
11.0684023263
 20
7.7324822304
 30
0.0
 10
11.0635495978
 20
7.7223335749
 30
0.0
 10
11.059356929
 20
7.7118862602
 30
0.0
 10
11.0555996201
 20
7.701222228
 30
0.0
 10
11.0525208616
 20
7.6903009033
 30
0.0
 10
11.0501341543
 20
7.67919237
 30
0.0
 10
11.0482061381
 20
7.667933346
 30
0.0
 10
11.0466751411
 20
7.6536637613
 30
0.0
 10
11.046253118
 20
7.6363775453
 30
0.0
 10
11.0472496778
 20
7.6190174522
 30
0.0
 10
11.0496529989
 20
7.6016998194
 30
0.0
 10
11.053452178
 20
7.5845410068
 30
0.0
 10
11.0586159557
 20
7.5676543465
 30
0.0
 10
11.065115138
 20
7.5511542426
 30
0.0
 10
11.0729010099
 20
7.5351488183
 30
0.0
 10
11.0819259611
 20
7.5197470117
 30
0.0
 10
11.0921259898
 20
7.5050493799
 30
0.0
 10
11.1034353907
 20
7.4911562494
 30
0.0
 10
11.1137222818
 20
7.480323062
 30
0.0
 10
11.1224275316
 20
7.4721469944
 30
0.0
 10
11.13143239
 20
7.4643160716
 30
0.0
 10
11.143225306
 20
7.4551911494
 30
0.0
 10
11.1581473406
 20
7.4453754538
 30
0.0
 10
11.1737377991
 20
7.4367623247
 30
0.0
 10
11.1898906682
 20
7.429406845
 30
0.0
 10
11.2065006642
 20
7.4233614463
 30
0.0
 10
11.220651505
 20
7.4194413055
 30
0.0
 10
11.2320895322
 20
7.4170002285
 30
0.0
 10
11.2435506851
 20
7.4150291157
 30
0.0
 10
11.2522172712
 20
7.4140701449
 30
0.0
 10
11.2579981399
 20
7.4136692403
 30
0.0
  0
SPLINE
  5
2C6
100
AcDbEntity
  8
0
100
AcDbSpline
 62
7
  6
CONTINUOUS
 70
0
 71
3
 72
11
 73
7
 74
0
 42
0.0000001
 43
0.0000001
 44
0.0000000001
 40
0.0
 40
0.0
 40
0.0
 40
0.0
 40
0.2483001361
 40
0.4978174108
 40
0.748450087
 40
1.0
 40
1.0
 40
1.0
 40
1.0
 10
11.460174439
 20
7.5948352023
 30
0.0
 10
11.45617758
 20
7.5939899041
 30
0.0
 10
11.4481014386
 20
7.5925782946
 30
0.0
 10
11.4358425204
 20
7.5913149073
 30
0.0
 10
11.4234723526
 20
7.5909008187
 30
0.0
 10
11.4152074662
 20
7.5911910322
 30
0.0
 10
11.411078647
 20
7.5914773668
 30
0.0
  0
SPLINE
  5
2C7
100
AcDbEntity
  8
0
100
AcDbSpline
 62
7
  6
CONTINUOUS
 70
0
 71
3
 72
15
 73
11
 74
0
 42
0.0000001
 43
0.0000001
 44
0.0000000001
 40
0.0
 40
0.0
 40
0.0
 40
0.0
 40
0.123395243
 40
0.2471616739
 40
0.3713457372
 40
0.4960009522
 40
0.6211855472
 40
0.7469455322
 40
0.8732462823
 40
1.0
 40
1.0
 40
1.0
 40
1.0
 10
11.4279337485
 20
7.5388367182
 30
0.0
 10
11.4245459258
 20
7.5371617396
 30
0.0
 10
11.4176434522
 20
7.5340371111
 30
0.0
 10
11.4069820115
 20
7.5300531291
 30
0.0
 10
11.3960398717
 20
7.5267821476
 30
0.0
 10
11.3848618911
 20
7.5242384588
 30
0.0
 10
11.3734928052
 20
7.5224304686
 30
0.0
 10
11.3619792605
 20
7.5213689407
 30
0.0
 10
11.3503737397
 20
7.5210553916
 30
0.0
 10
11.3426224465
 20
7.5213443012
 30
0.0
 10
11.3387496154
 20
7.5216128829
 30
0.0
  0
SPLINE
  5
2C8
100
AcDbEntity
  8
0
100
AcDbSpline
 62
7
  6
CONTINUOUS
 70
0
 71
3
 72
15
 73
11
 74
0
 42
0.0000001
 43
0.0000001
 44
0.0000000001
 40
0.0
 40
0.0
 40
0.0
 40
0.0
 40
0.1267968404
 40
0.2531255205
 40
0.3788942022
 40
0.5040739396
 40
0.6287161924
 40
0.7528830504
 40
0.8766282758
 40
1.0
 40
1.0
 40
1.0
 40
1.0
 10
11.2579981399
 20
7.4136692403
 30
0.0
 10
11.2626326007
 20
7.4133478393
 30
0.0
 10
11.2719084227
 20
7.4130102118
 30
0.0
 10
11.2857939639
 20
7.4134219658
 30
0.0
 10
11.2995629898
 20
7.414753481
 30
0.0
 10
11.313149631
 20
7.4170018792
 30
0.0
 10
11.3264953868
 20
7.4201535336
 30
0.0
 10
11.3395436081
 20
7.4241978295
 30
0.0
 10
11.352237946
 20
7.4291150599
 30
0.0
 10
11.36044131
 20
7.4329667024
 30
0.0
 10
11.3644629543
 20
7.4350301226
 30
0.0
  0
SPLINE
  5
2C9
100
AcDbEntity
  8
0
100
AcDbSpline
 62
7
  6
CONTINUOUS
 70
0
 71
3
 72
21
 73
17
 74
0
 42
0.0000001
 43
0.0000001
 44
0.0000000001
 40
0.0
 40
0.0
 40
0.0
 40
0.0
 40
0.0621604898
 40
0.1241984835
 40
0.1861504711
 40
0.2480554595
 40
0.3099518597
 40
0.3718783665
 40
0.4959005071
 40
0.620486259
 40
0.683105919
 40
0.7459548873
 40
0.8090539876
 40
0.8724203926
 40
0.9360668682
 40
1.0
 40
1.0
 40
1.0
 40
1.0
 10
11.3644629543
 20
7.4350301226
 30
0.0
 10
11.3684310089
 20
7.4370660471
 30
0.0
 10
11.3762211952
 20
7.4414098375
 30
0.0
 10
11.3874159021
 20
7.4487126372
 30
0.0
 10
11.3980608199
 20
7.4567668268
 30
0.0
 10
11.4081089793
 20
7.4655382537
 30
0.0
 10
11.4175204043
 20
7.4749879784
 30
0.0
 10
11.4291650384
 20
7.4884432436
 30
0.0
 10
11.4419499389
 20
7.5067840514
 30
0.0
 10
11.4520936342
 20
7.5267614493
 30
0.0
 10
11.458540429
 20
7.5435163264
 30
0.0
 10
11.4625311461
 20
7.556455023
 30
0.0
 10
11.4656536023
 20
7.5696844702
 30
0.0
 10
11.4678916542
 20
7.5831501517
 30
0.0
 10
11.4692372809
 20
7.5967933491
 30
0.0
 10
11.4695359084
 20
7.6059497611
 30
0.0
 10
11.4695359084
 20
7.6105368147
 30
0.0
  0
SPLINE
  5
2CA
100
AcDbEntity
  8
0
100
AcDbSpline
 62
7
  6
CONTINUOUS
 70
0
 71
3
 72
23
 73
19
 74
0
 42
0.0000001
 43
0.0000001
 44
0.0000000001
 40
0.0
 40
0.0
 40
0.0
 40
0.0
 40
0.0611123718
 40
0.1224974328
 40
0.1841476917
 40
0.2460524529
 40
0.3081953791
 40
0.3705571335
 40
0.4331151964
 40
0.4958427636
 40
0.5587116368
 40
0.6216909416
 40
0.6847475563
 40
0.7478483251
 40
0.8109582777
 40
0.8740423262
 40
0.9370672663
 40
1.0
 40
1.0
 40
1.0
 40
1.0
 10
11.4695346947
 20
7.6112525989
 30
0.0
 10
11.469519082
 20
7.6158571901
 30
0.0
 10
11.4691858279
 20
7.6250886151
 30
0.0
 10
11.4677925743
 20
7.6389025001
 30
0.0
 10
11.4655091711
 20
7.652658491
 30
0.0
 10
11.4623443658
 20
7.6662971061
 30
0.0
 10
11.458314667
 20
7.679761567
 30
0.0
 10
11.4534339937
 20
7.6929938539
 30
0.0
 10
11.4477246894
 20
7.7059382935
 30
0.0
 10
11.4412119683
 20
7.7185407164
 30
0.0
 10
11.4339205922
 20
7.7307461312
 30
0.0
 10
11.4258844315
 20
7.7425045074
 30
0.0
 10
11.4171362754
 20
7.7537654081
 30
0.0
 10
11.4077122732
 20
7.7644801471
 30
0.0
 10
11.3976548013
 20
7.7746054839
 30
0.0
 10
11.3870040274
 20
7.7840964737
 30
0.0
 10
11.3758065599
 20
7.792913342
 30
0.0
 10
11.3680006378
 20
7.7983235238
 30
0.0
 10
11.364022291
 20
7.8009036782
 30
0.0
  0
LINE
  5
2CB
100
AcDbEntity
  8
0
100
AcDbLine
 62
7
  6
CONTINUOUS
 10
11.364022291
 20
7.8009036782
 11
11.3637670242
 21
7.8010689931
  0
SPLINE
  5
2CC
100
AcDbEntity
  8
0
100
AcDbSpline
 62
7
  6
CONTINUOUS
 70
0
 71
3
 72
14
 73
10
 74
0
 42
0.0000001
 43
0.0000001
 44
0.0000000001
 40
0.0
 40
0.0
 40
0.0
 40
0.0
 40
0.2524683501
 40
0.37822438
 40
0.5035561126
 40
0.6284438742
 40
0.7528706101
 40
0.8767610755
 40
1.0
 40
1.0
 40
1.0
 40
1.0
 10
11.3637670242
 20
7.8010689931
 30
0.0
 10
11.3557970228
 20
7.8062230679
 30
0.0
 10
11.3433639507
 20
7.8132205083
 30
0.0
 10
11.3260664913
 20
7.8209332752
 30
0.0
 10
11.3128129818
 20
7.8258741923
 30
0.0
 10
11.2993238097
 20
7.8299575084
 30
0.0
 10
11.2856544881
 20
7.833162586
 30
0.0
 10
11.2718701036
 20
7.8354774084
 30
0.0
 10
11.2626201015
 20
7.8364242432
 30
0.0
 10
11.2579981399
 20
7.8367447773
 30
0.0
  0
SPLINE
  5
2CD
100
AcDbEntity
  8
0
100
AcDbSpline
 62
7
  6
CONTINUOUS
 70
0
 71
3
 72
20
 73
16
 74
0
 42
0.0000001
 43
0.0000001
 44
0.0000000001
 40
0.0
 40
0.0
 40
0.0
 40
0.0
 40
0.064283381
 40
0.1284469336
 40
0.1924130566
 40
0.2561327067
 40
0.3195962377
 40
0.3827990426
 40
0.5083222639
 40
0.6327140719
 40
0.6945237837
 40
0.7560701403
 40
0.81738136
 40
0.8784876953
 40
1.0
 40
1.0
 40
1.0
 40
1.0
 10
11.1814845409
 20
7.6233162859
 30
0.0
 10
11.1795075148
 20
7.6268777029
 30
0.0
 10
11.175776185
 20
7.6341180506
 30
0.0
 10
11.1708678912
 20
7.6452869504
 30
0.0
 10
11.1666763197
 20
7.6567067778
 30
0.0
 10
11.1632238678
 20
7.6683248762
 30
0.0
 10
11.1605221248
 20
7.6800911363
 30
0.0
 10
11.1579449037
 20
7.6958712273
 30
0.0
 10
11.1566351673
 20
7.7157280579
 30
0.0
 10
11.1579276457
 20
7.7355001636
 30
0.0
 10
11.1605123793
 20
7.7509947745
 30
0.0
 10
11.163211633
 20
7.7623900601
 30
0.0
 10
11.1666627801
 20
7.7735347125
 30
0.0
 10
11.1722370631
 20
7.7879599435
 30
0.0
 10
11.1775161241
 20
7.7983120632
 30
0.0
 10
11.1814845409
 20
7.804910352
 30
0.0
  0
SPLINE
  5
2CE
100
AcDbEntity
  8
0
100
AcDbSpline
 62
7
  6
CONTINUOUS
 70
0
 71
3
 72
22
 73
18
 74
0
 42
0.0000001
 43
0.0000001
 44
0.0000000001
 40
0.0
 40
0.0
 40
0.0
 40
0.0
 40
0.1225783061
 40
0.1843271989
 40
0.2463048976
 40
0.3085027642
 40
0.3709108754
 40
0.4335077155
 40
0.4962624701
 40
0.5591432843
 40
0.622115833
 40
0.6851434569
 40
0.7481951323
 40
0.8112474555
 40
0.8742753569
 40
0.9372202319
 40
1.0
 40
1.0
 40
1.0
 40
1.0
 10
11.3387496154
 20
7.5216128829
 30
0.0
 10
11.3307973468
 20
7.5221643746
 30
0.0
 10
11.3188756002
 20
7.5237809176
 30
0.0
 10
11.3032743369
 20
7.5274392899
 30
0.0
 10
11.2916936257
 20
7.5309448429
 30
0.0
 10
11.2803170161
 20
7.5351859891
 30
0.0
 10
11.26919108
 20
7.5401470916
 30
0.0
 10
11.258362553
 20
7.5458057961
 30
0.0
 10
11.2478772092
 20
7.5521372967
 30
0.0
 10
11.2377820662
 20
7.559117002
 30
0.0
 10
11.2281188604
 20
7.5667120312
 30
0.0
 10
11.2189292779
 20
7.5748905106
 30
0.0
 10
11.2102530338
 20
7.5836189549
 30
0.0
 10
11.2021247383
 20
7.5928598364
 30
0.0
 10
11.1945816889
 20
7.6025757375
 30
0.0
 10
11.1876569732
 20
7.612719493
 30
0.0
 10
11.1834660579
 20
7.6197467792
 30
0.0
 10
11.1814845409
 20
7.6233162859
 30
0.0
  0
SPLINE
  5
2CF
100
AcDbEntity
  8
0
100
AcDbSpline
 62
7
  6
CONTINUOUS
 70
0
 71
3
 72
15
 73
11
 74
0
 42
0.0000001
 43
0.0000001
 44
0.0000000001
 40
0.0
 40
0.0
 40
0.0
 40
0.0
 40
0.1389375432
 40
0.2781365294
 40
0.4159442255
 40
0.5496461298
 40
0.676135728
 40
0.7933333011
 40
0.9009506095
 40
1.0
 40
1.0
 40
1.0
 40
1.0
 10
11.0488073483
 20
7.6402279097
 30
0.0
 10
11.0539985037
 20
7.6480948714
 30
0.0
 10
11.0643422081
 20
7.663875622
 30
0.0
 10
11.0796218396
 20
7.687598197
 30
0.0
 10
11.0944675449
 20
7.711176321
 30
0.0
 10
11.1085606849
 20
7.7342071328
 30
0.0
 10
11.1215965125
 20
7.7562426291
 30
0.0
 10
11.1334003044
 20
7.7769473967
 30
0.0
 10
11.1439769338
 20
7.7962055574
 30
0.0
 10
11.1505439362
 20
7.8085930452
 30
0.0
 10
11.1536507312
 20
7.8145510625
 30
0.0
  0
SPLINE
  5
2D0
100
AcDbEntity
  8
0
100
AcDbSpline
 62
7
  6
CONTINUOUS
 70
0
 71
3
 72
23
 73
19
 74
0
 42
0.0000001
 43
0.0000001
 44
0.0000000001
 40
0.0
 40
0.0
 40
0.0
 40
0.0
 40
0.0616482049
 40
0.1233194645
 40
0.1850366601
 40
0.2468215803
 40
0.3086958874
 40
0.3706805387
 40
0.4327949852
 40
0.4950576208
 40
0.5574833124
 40
0.620084195
 40
0.682872566
 40
0.7458647459
 40
0.8090766705
 40
0.8725171946
 40
0.9361676357
 40
1.0
 40
1.0
 40
1.0
 40
1.0
 10
10.8751384326
 20
8.0381468812
 30
0.0
 10
10.8814563332
 20
8.044249733
 30
0.0
 10
10.8944251929
 20
8.0561206823
 30
0.0
 10
10.9148128133
 20
8.0728574782
 30
0.0
 10
10.9360850839
 20
8.0884885514
 30
0.0
 10
10.9581874832
 20
8.10297447
 30
0.0
 10
10.9810664809
 20
8.116275807
 30
0.0
 10
11.00466277
 20
8.1283617055
 30
0.0
 10
11.0289171069
 20
8.1392022371
 30
0.0
 10
11.0537697015
 20
8.1487665958
 30
0.0
 10
11.0791560297
 20
8.1570340049
 30
0.0
 10
11.1050116493
 20
8.1639842226
 30
0.0
 10
11.131272707
 20
8.1695965929
 30
0.0
 10
11.1578742816
 20
8.1738596777
 30
0.0
 10
11.1847517942
 20
8.1767626031
 30
0.0
 10
11.2118361774
 20
8.1782943678
 30
0.0
 10
11.2390508614
 20
8.1784564007
 30
0.0
 10
11.2572068052
 20
8.177652527
 30
0.0
 10
11.2662803425
 20
8.1770232751
 30
0.0
  0
SPLINE
  5
2D1
100
AcDbEntity
  8
0
100
AcDbSpline
 62
7
  6
CONTINUOUS
 70
0
 71
3
 72
16
 73
12
 74
0
 42
0.0000001
 43
0.0000001
 44
0.0000000001
 40
0.0
 40
0.0
 40
0.0
 40
0.0
 40
0.1246775626
 40
0.2522043928
 40
0.3819697647
 40
0.512346339
 40
0.6409165119
 40
0.7655319355
 40
0.8851986419
 40
0.9431796369
 40
1.0
 40
1.0
 40
1.0
 40
1.0
 10
11.1536507312
 20
7.4513629303
 30
0.0
 10
11.1506281563
 20
7.4598693983
 30
0.0
 10
11.1442776093
 20
7.4769943547
 30
0.0
 10
11.1337793561
 20
7.5025886032
 30
0.0
 10
11.1220434912
 20
7.5280982178
 30
0.0
 10
11.1090367073
 20
7.5530720929
 30
0.0
 10
11.0949178433
 20
7.5770033386
 30
0.0
 10
11.0800063017
 20
7.5995218593
 30
0.0
 10
11.0670782139
 20
7.6171903872
 30
0.0
 10
11.0566457283
 20
7.6305847496
 30
0.0
 10
11.0514198015
 20
7.6370496083
 30
0.0
 10
11.0488073483
 20
7.6402279097
 30
0.0
  0
SPLINE
  5
2D2
100
AcDbEntity
  8
0
100
AcDbSpline
 62
7
  6
CONTINUOUS
 70
0
 71
3
 72
13
 73
9
 74
0
 42
0.0000001
 43
0.0000001
 44
0.0000000001
 40
0.0
 40
0.0
 40
0.0
 40
0.0
 40
0.1379287965
 40
0.272663193
 40
0.5305718957
 40
0.7725714046
 40
0.8879771085
 40
1.0
 40
1.0
 40
1.0
 40
1.0
 10
11.2660215237
 20
7.4513629367
 30
0.0
 10
11.2705391468
 20
7.4510496385
 30
0.0
 10
11.2794636594
 20
7.4503373357
 30
0.0
 10
11.2967959004
 20
7.4485833888
 30
0.0
 10
11.3174558058
 20
7.4458245322
 30
0.0
 10
11.3373595208
 20
7.4423355378
 30
0.0
 10
11.3524619124
 20
7.4392576621
 30
0.0
 10
11.3597527645
 20
7.437643828
 30
0.0
 10
11.3633374971
 20
7.4368211037
 30
0.0
  0
SPLINE
  5
2D3
100
AcDbEntity
  8
0
100
AcDbSpline
 62
7
  6
CONTINUOUS
 70
0
 71
3
 72
14
 73
10
 74
0
 42
0.0000001
 43
0.0000001
 44
0.0000000001
 40
0.0
 40
0.0
 40
0.0
 40
0.0
 40
0.2489100079
 40
0.3744249398
 40
0.5003613314
 40
0.6264089266
 40
0.7521065273
 40
0.8768864172
 40
1.0
 40
1.0
 40
1.0
 40
1.0
 10
11.1536507312
 20
7.4513629303
 30
0.0
 10
11.162966783
 20
7.4518563404
 30
0.0
 10
11.1769883413
 20
7.4524665542
 30
0.0
 10
11.1957361731
 20
7.45294303
 30
0.0
 10
11.2098843046
 20
7.4531099149
 30
0.0
 10
11.2240402633
 20
7.4530599595
 30
0.0
 10
11.2381501968
 20
7.452772501
 30
0.0
 10
11.2521425044
 20
7.4522267851
 30
0.0
 10
11.2614183017
 20
7.4516821713
 30
0.0
 10
11.2660215237
 20
7.4513629367
 30
0.0
  0
SPLINE
  5
2D4
100
AcDbEntity
  8
0
100
AcDbSpline
 62
7
  6
CONTINUOUS
 70
0
 71
3
 72
66
 73
62
 74
0
 42
0.0000001
 43
0.0000001
 44
0.0000000001
 40
0.0
 40
0.0
 40
0.0
 40
0.0
 40
0.0313892319
 40
0.0471734483
 40
0.0630045494
 40
0.0947922188
 40
0.1107556328
 40
0.126758753
 40
0.1427973822
 40
0.1588672385
 40
0.174964115
 40
0.1910835842
 40
0.2072211173
 40
0.2233719516
 40
0.2395310416
 40
0.2556933588
 40
0.2718539342
 40
0.2880076864
 40
0.3041496364
 40
0.32027501
 40
0.3363790385
 40
0.3524571444
 40
0.368505122
 40
0.3845189036
 40
0.4004946911
 40
0.4164291943
 40
0.4323193802
 40
0.4481625505
 40
0.4639566204
 40
0.4796998632
 40
0.4953909309
 40
0.5110291558
 40
0.5266142955
 40
0.542146505
 40
0.5576266393
 40
0.5730560022
 40
0.5884362808
 40
0.6037698305
 40
0.619059427
 40
0.6343081765
 40
0.6495197715
 40
0.6646982401
 40
0.6798478494
 40
0.6949733256
 40
0.7100795921
 40
0.7251716853
 40
0.7402549452
 40
0.7553347395
 40
0.7704164033
 40
0.7855053917
 40
0.8006069684
 40
0.8157262041
 40
0.83086817
 40
0.8460376768
 40
0.8612392288
 40
0.8764770253
 40
0.9070640933
 40
0.9378335392
 40
0.9533006817
 40
0.9688224861
 40
1.0
 40
1.0
 40
1.0
 40
1.0
 10
11.2579981399
 20
8.1381136529
 30
0.0
 10
11.2748300192
 20
8.1369463581
 30
0.0
 10
11.3000611129
 20
8.1339462992
 30
0.0
 10
11.3333246587
 20
8.1275368775
 30
0.0
 10
11.3664523241
 20
8.1194886719
 30
0.0
 10
11.3990597669
 20
8.1090504607
 30
0.0
 10
11.4308882882
 20
8.0963242272
 30
0.0
 10
11.4543827559
 20
8.0856304667
 30
0.0
 10
11.4774043033
 20
8.0738292701
 30
0.0
 10
11.4998964358
 20
8.0609458192
 30
0.0
 10
11.5218056782
 20
8.0470134535
 30
0.0
 10
11.5430801509
 20
8.0320664353
 30
0.0
 10
11.5636669352
 20
8.0161381943
 30
0.0
 10
11.5835177143
 20
7.999268796
 30
0.0
 10
11.6025855483
 20
7.9814996412
 30
0.0
 10
11.6208223099
 20
7.9628711835
 30
0.0
 10
11.6381852948
 20
7.9434296379
 30
0.0
 10
11.6546338847
 20
7.9232226554
 30
0.0
 10
11.6701260609
 20
7.9022968971
 30
0.0
 10
11.6846256554
 20
7.8807037368
 30
0.0
 10
11.6980992217
 20
7.8584959718
 30
0.0
 10
11.7105116878
 20
7.835725448
 30
0.0
 10
11.7218341256
 20
7.8124476684
 30
0.0
 10
11.7320410427
 20
7.7887193916
 30
0.0
 10
11.7411051106
 20
7.7645965237
 30
0.0
 10
11.749005221
 20
7.7401375752
 30
0.0
 10
11.7557244105
 20
7.7154019798
 30
0.0
 10
11.7612436965
 20
7.6904484844
 30
0.0
 10
11.7655502069
 20
7.6653374346
 30
0.0
 10
11.7686358978
 20
7.6401295954
 30
0.0
 10
11.7704905666
 20
7.614885267
 30
0.0
 10
11.7711098337
 20
7.5896654276
 30
0.0
 10
11.7704947603
 20
7.564530797
 30
0.0
 10
11.7686441686
 20
7.5395418994
 30
0.0
 10
11.7655622642
 20
7.5147591346
 30
0.0
 10
11.7612591907
 20
7.4902418014
 30
0.0
 10
11.7557428469
 20
7.4660493007
 30
0.0
 10
11.7490259527
 20
7.4422402555
 30
0.0
 10
11.7411275036
 20
7.4188711995
 30
0.0
 10
11.7320643265
 20
7.3959990726
 30
0.0
 10
11.7218574224
 20
7.3736795519
 30
0.0
 10
11.7105342001
 20
7.3519651275
 30
0.0
 10
11.6981200597
 20
7.3309089781
 30
0.0
 10
11.6846438913
 20
7.3105627159
 30
0.0
 10
11.6701408903
 20
7.2909736048
 30
0.0
 10
11.6546444788
 20
7.2721898281
 30
0.0
 10
11.6381908783
 20
7.2542578786
 30
0.0
 10
11.6208222325
 20
7.2372187485
 30
0.0
 10
11.6025792088
 20
7.221114511
 30
0.0
 10
11.5835046713
 20
7.2059855882
 30
0.0
 10
11.5636468226
 20
7.1918657853
 30
0.0
 10
11.5430527222
 20
7.1787900449
 30
0.0
 10
11.5217709011
 20
7.1667918162
 30
0.0
 10
11.4998544444
 20
7.1558971509
 30
0.0
 10
11.4773547076
 20
7.1461329627
 30
0.0
 10
11.4466168029
 20
7.1346435076
 30
0.0
 10
11.4069825461
 20
7.1232196285
 30
0.0
 10
11.3662740195
 20
7.1158608627
 30
0.0
 10
11.3332436147
 20
7.1124228786
 30
0.0
 10
11.2998662952
 20
7.1106264771
 30
0.0
 10
11.2747164895
 20
7.1111409432
 30
0.0
 10
11.2579981399
 20
7.1123003646
 30
0.0
  0
SPLINE
  5
2D5
100
AcDbEntity
  8
0
100
AcDbSpline
 62
7
  6
CONTINUOUS
 70
0
 71
3
 72
48
 73
44
 74
0
 42
0.0000001
 43
0.0000001
 44
0.0000000001
 40
0.0
 40
0.0
 40
0.0
 40
0.0
 40
0.0310641289
 40
0.0466623032
 40
0.0622976282
 40
0.0779662267
 40
0.0936665963
 40
0.1093984811
 40
0.1251614885
 40
0.1567739125
 40
0.1884967449
 40
0.2043964948
 40
0.2203175331
 40
0.2522108023
 40
0.2681828666
 40
0.2841674683
 40
0.3161605366
 40
0.3481743355
 40
0.380188979
 40
0.4121843742
 40
0.4441409293
 40
0.4760396708
 40
0.5078625487
 40
0.5395930816
 40
0.5712161079
 40
0.6027188151
 40
0.6184237047
 40
0.6340946027
 40
0.6653263084
 40
0.6808901082
 40
0.6964169838
 40
0.7273545292
 40
0.7427697494
 40
0.7581479226
 40
0.7887904552
 40
0.8192923625
 40
0.834495533
 40
0.8496669669
 40
0.8799154749
 40
0.9100562917
 40
0.9401052937
 40
0.9700800588
 40
1.0
 40
1.0
 40
1.0
 40
1.0
 10
11.2662803425
 20
8.1770232751
 30
0.0
 10
11.2789150179
 20
8.1761470574
 30
0.0
 10
11.2978564379
 20
8.1741694566
 30
0.0
 10
11.3229531044
 20
8.1702407302
 30
0.0
 10
11.3417375066
 20
8.1666405458
 30
0.0
 10
11.3604287125
 20
8.1623940507
 30
0.0
 10
11.3790035071
 20
8.157507055
 30
0.0
 10
11.3974402448
 20
8.1519864071
 30
0.0
 10
11.4218308216
 20
8.1437827599
 30
0.0
 10
11.4518661492
 20
8.1319713282
 30
0.0
 10
11.481103136
 20
8.118173212
 30
0.0
 10
11.5039616175
 20
8.105971406
 30
0.0
 10
11.5264658532
 20
8.0929892696
 30
0.0
 10
11.5483449671
 20
8.0788907713
 30
0.0
 10
11.5695149257
 20
8.0637353382
 30
0.0
 10
11.5902117827
 20
8.0478722722
 30
0.0
 10
11.6151167037
 20
8.0267778344
 30
0.0
 10
11.6433052612
 20
7.9995727123
 30
0.0
 10
11.6696694245
 20
7.9705938153
 30
0.0
 10
11.694085713
 20
7.9399857697
 30
0.0
 10
11.7164307311
 20
7.9078918443
 30
0.0
 10
11.7366027668
 20
7.8744714167
 30
0.0
 10
11.7544975372
 20
7.8398818346
 30
0.0
 10
11.7700351771
 20
7.8042934174
 30
0.0
 10
11.7831340578
 20
7.7678762146
 30
0.0
 10
11.7919787177
 20
7.7369503019
 30
0.0
 10
11.7977746333
 20
7.7119737161
 30
0.0
 10
11.8027005487
 20
7.6869241829
 30
0.0
 10
11.8063420336
 20
7.6616942686
 30
0.0
 10
11.8086743634
 20
7.6363882042
 30
0.0
 10
11.8101260703
 20
7.611136615
 30
0.0
 10
11.8102679198
 20
7.5858841987
 30
0.0
 10
11.8090905026
 20
7.5607395591
 30
0.0
 10
11.8070401811
 20
7.5357712268
 30
0.0
 10
11.8028444884
 20
7.504828103
 30
0.0
 10
11.7964742845
 20
7.4743306316
 30
0.0
 10
11.7900939153
 20
7.4503401154
 30
0.0
 10
11.7828836673
 20
7.426694032
 30
0.0
 10
11.772304576
 20
7.3977294196
 30
0.0
 10
11.7571451814
 20
7.3640823791
 30
0.0
 10
11.739612108
 20
7.3317338232
 30
0.0
 10
11.7197851501
 20
7.3008475575
 30
0.0
 10
11.7050914193
 20
7.2813103938
 30
0.0
 10
11.697401316
 20
7.271841157
 30
0.0
  0
SPLINE
  5
2D6
100
AcDbEntity
  8
0
100
AcDbSpline
 62
7
  6
CONTINUOUS
 70
0
 71
3
 72
55
 73
51
 74
0
 42
0.0000001
 43
0.0000001
 44
0.0000000001
 40
0.0
 40
0.0
 40
0.0
 40
0.0
 40
0.0311423829
 40
0.0624377778
 40
0.093880312
 40
0.125460263
 40
0.1571654449
 40
0.188981101
 40
0.2208902864
 40
0.2528742194
 40
0.2849126594
 40
0.3169843077
 40
0.3490672249
 40
0.3811392539
 40
0.4131784475
 40
0.4451634934
 40
0.4770741292
 40
0.5088915435
 40
0.5247623142
 40
0.5406035882
 40
0.5564135909
 40
0.5721906992
 40
0.587933461
 40
0.6036405973
 40
0.6193110081
 40
0.6349437882
 40
0.6505382227
 40
0.666093798
 40
0.6816102083
 40
0.6970873494
 40
0.7125253318
 40
0.7279244759
 40
0.7432853089
 40
0.7586085732
 40
0.7738952136
 40
0.7891463785
 40
0.8043634177
 40
0.8195478679
 40
0.8347014538
 40
0.8498260762
 40
0.8649237983
 40
0.8799968426
 40
0.8950475728
 40
0.9100784807
 40
0.925092178
 40
0.940091374
 40
0.9550788642
 40
0.9700575152
 40
0.9850302429
 40
1.0
 40
1.0
 40
1.0
 40
1.0
 10
11.3092442686
 20
8.3238091646
 30
0.0
 10
11.3250947276
 20
8.3227099315
 30
0.0
 10
11.3568048594
 20
8.3193458773
 30
0.0
 10
11.4039856099
 20
8.3108717133
 30
0.0
 10
11.4506610107
 20
8.2990019997
 30
0.0
 10
11.4965789954
 20
8.2838005136
 30
0.0
 10
11.54149559
 20
8.2653487031
 30
0.0
 10
11.5851712125
 20
8.24374532
 30
0.0
 10
11.6273732057
 20
8.2191058166
 30
0.0
 10
11.6678766821
 20
8.1915617291
 30
0.0
 10
11.7064658193
 20
8.1612600079
 30
0.0
 10
11.7429350281
 20
8.1283623017
 30
0.0
 10
11.7770899686
 20
8.0930440141
 30
0.0
 10
11.8087485833
 20
8.0554933436
 30
0.0
 10
11.8377420238
 20
8.0159104965
 30
0.0
 10
11.8639158369
 20
7.9745060229
 30
0.0
 10
11.8871298047
 20
7.9315020116
 30
0.0
 10
11.90392127
 20
7.8944864662
 30
0.0
 10
11.9157544615
 20
7.8643058654
 30
0.0
 10
11.9238132274
 20
7.841433604
 30
0.0
 10
11.9310513616
 20
7.8183389011
 30
0.0
 10
11.9374592361
 20
7.795052209
 30
0.0
 10
11.9430283656
 20
7.7716047383
 30
0.0
 10
11.9477512588
 20
7.7480277468
 30
0.0
 10
11.9516215454
 20
7.7243527087
 30
0.0
 10
11.9546341639
 20
7.7006112462
 30
0.0
 10
11.9567849552
 20
7.6768350382
 30
0.0
 10
11.9580710806
 20
7.6530558368
 30
0.0
 10
11.9584908624
 20
7.6293053907
 30
0.0
 10
11.9580435909
 20
7.6056154114
 30
0.0
 10
11.9567299705
 20
7.5820175332
 30
0.0
 10
11.9545516986
 20
7.5585432664
 30
0.0
 10
11.9515115975
 20
7.5352239711
 30
0.0
 10
11.9476138396
 20
7.5120907749
 30
0.0
 10
11.9428634992
 20
7.4891745925
 30
0.0
 10
11.9372669334
 20
7.4665060332
 30
0.0
 10
11.9308316726
 20
7.4441153573
 30
0.0
 10
11.9235661631
 20
7.4220325165
 30
0.0
 10
11.9154802051
 20
7.4002869815
 30
0.0
 10
11.9065845666
 20
7.3789078084
 30
0.0
 10
11.8968910363
 20
7.3579236016
 30
0.0
 10
11.8864126776
 20
7.3373623434
 30
0.0
 10
11.8751633848
 20
7.3172515543
 30
0.0
 10
11.8631581863
 20
7.2976181099
 30
0.0
 10
11.8504131931
 20
7.2784881984
 30
0.0
 10
11.8369453035
 20
7.2598874576
 30
0.0
 10
11.8227726151
 20
7.2418407135
 30
0.0
 10
11.8079139746
 20
7.2243719891
 30
0.0
 10
11.792389475
 20
7.2075050347
 30
0.0
 10
11.7816086477
 20
7.1966753556
 30
0.0
 10
11.7761154081
 20
7.1913692754
 30
0.0
  0
SPLINE
  5
2D7
100
AcDbEntity
  8
0
100
AcDbSpline
 62
7
  6
CONTINUOUS
 70
0
 71
3
 72
61
 73
57
 74
0
 42
0.0000001
 43
0.0000001
 44
0.0000000001
 40
0.0
 40
0.0
 40
0.0
 40
0.0
 40
0.0417736088
 40
0.0840360431
 40
0.126657155
 40
0.1695046842
 40
0.2124458378
 40
0.2553473321
 40
0.2980760744
 40
0.3404996436
 40
0.3824868274
 40
0.4239081481
 40
0.4646363976
 40
0.5045471783
 40
0.5435194547
 40
0.5814361204
 40
0.5999634452
 40
0.6181850312
 40
0.6360876424
 40
0.6536583488
 40
0.6708846631
 40
0.6877544565
 40
0.7042560738
 40
0.7203782989
 40
0.7361104104
 40
0.7514422273
 40
0.7663640903
 40
0.7808669935
 40
0.7949425048
 40
0.8085829615
 40
0.8217813757
 40
0.8345316441
 40
0.8468285057
 40
0.8586677174
 40
0.8700461208
 40
0.8809617639
 40
0.8914141105
 40
0.9014041268
 40
0.9109346407
 40
0.9200104579
 40
0.9286388542
 40
0.9368298218
 40
0.9445966692
 40
0.9519564915
 40
0.9589308526
 40
0.9655464796
 40
0.97183593
 40
0.9778382749
 40
0.9807467215
 40
0.9836011958
 40
0.9864085004
 40
0.9891758164
 40
0.9919106777
 40
0.9946209229
 40
0.9973146203
 40
1.0
 40
1.0
 40
1.0
 40
1.0
 10
13.7078046282
 20
8.1155385779
 30
0.0
 10
13.7078046282
 20
8.1338959588
 30
0.0
 10
13.7080910212
 20
8.1708261115
 30
0.0
 10
13.7093571225
 20
8.2264730329
 30
0.0
 10
13.7114585297
 20
8.2825670297
 30
0.0
 10
13.7143883651
 20
8.3389224608
 30
0.0
 10
13.7181369402
 20
8.395352842
 30
0.0
 10
13.7226918669
 20
8.4516714978
 30
0.0
 10
13.7280380556
 20
8.5076920997
 30
0.0
 10
13.7341577844
 20
8.5632293195
 30
0.0
 10
13.7410307496
 20
8.6180994357
 30
0.0
 10
13.7486341345
 20
8.6721209534
 30
0.0
 10
13.7569426846
 20
8.7251151925
 30
0.0
 10
13.7659287819
 20
8.7769069523
 30
0.0
 10
13.7755625581
 20
8.8273248616
 30
0.0
 10
13.7841684838
 20
8.8683655008
 30
0.0
 10
13.7913626665
 20
8.9003792809
 30
0.0
 10
13.796858315
 20
8.9237590441
 30
0.0
 10
13.8024907872
 20
8.9466735561
 30
0.0
 10
13.8082554987
 20
8.9691038791
 30
0.0
 10
13.8141476036
 20
8.9910314627
 30
0.0
 10
13.8201622679
 20
9.0124381733
 30
0.0
 10
13.826294468
 20
9.0333063162
 30
0.0
 10
13.8325391352
 20
9.0536186413
 30
0.0
 10
13.8388910957
 20
9.0733583634
 30
0.0
 10
13.8453450553
 20
9.0925091787
 30
0.0
 10
13.8518957097
 20
9.1110552666
 30
0.0
 10
13.8585375634
 20
9.1289813286
 30
0.0
 10
13.8652651874
 20
9.146272564
 30
0.0
 10
13.8720729267
 20
9.1629147334
 30
0.0
 10
13.8789552208
 20
9.1788941134
 30
0.0
 10
13.8859063095
 20
9.1941975707
 30
0.0
 10
13.8929204949
 20
9.2088125187
 30
0.0
 10
13.8999919664
 20
9.2227269724
 30
0.0
 10
13.9071148986
 20
9.2359295413
 30
0.0
 10
13.9142834794
 20
9.248409428
 30
0.0
 10
13.9214917928
 20
9.2601564929
 30
0.0
 10
13.9287340704
 20
9.2711611636
 30
0.0
 10
13.9360043829
 20
9.2814145904
 30
0.0
 10
13.9432970527
 20
9.2909084581
 30
0.0
 10
13.9506062649
 20
9.2996352049
 30
0.0
 10
13.9579265005
 20
9.3075877765
 30
0.0
 10
13.9652522231
 20
9.3147598087
 30
0.0
 10
13.9725781805
 20
9.3211454144
 30
0.0
 10
13.9798992079
 20
9.3267391567
 30
0.0
 10
13.9872104877
 20
9.3315360466
 30
0.0
 10
13.9945066047
 20
9.3355309353
 30
0.0
 10
14.0006344491
 20
9.3382158373
 30
0.0
 10
14.0055102734
 20
9.3399410717
 30
0.0
 10
14.0091206884
 20
9.3410188657
 30
0.0
 10
14.0127218209
 20
9.3418936338
 30
0.0
 10
14.0163129707
 20
9.3425651173
 30
0.0
 10
14.0198933085
 20
9.3430330583
 30
0.0
 10
14.0234620557
 20
9.3432973505
 30
0.0
 10
14.0270182308
 20
9.3433579036
 30
0.0
 10
14.0293816734
 20
9.3432623086
 30
0.0
 10
14.0305589342
 20
9.3431806706
 30
0.0
  0
SPLINE
  5
2D8
100
AcDbEntity
  8
0
100
AcDbSpline
 62
7
  6
CONTINUOUS
 70
0
 71
3
 72
52
 73
48
 74
0
 42
0.0000001
 43
0.0000001
 44
0.0000000001
 40
0.0
 40
0.0
 40
0.0
 40
0.0
 40
0.0417978167
 40
0.0840615308
 40
0.1266599452
 40
0.1694647093
 40
0.2123442471
 40
0.2551676124
 40
0.2978038023
 40
0.340122612
 40
0.381995097
 40
0.4232940911
 40
0.4638947378
 40
0.5036750193
 40
0.5425163039
 40
0.5803039261
 40
0.6169277796
 40
0.6522829323
 40
0.686270301
 40
0.7187974019
 40
0.7497792075
 40
0.7646667639
 40
0.7791400971
 40
0.7931911326
 40
0.8068125303
 40
0.8199977802
 40
0.8327410449
 40
0.8450376044
 40
0.8568835364
 40
0.868276178
 40
0.8792140523
 40
0.8896970245
 40
0.8997266904
 40
0.9093062438
 40
0.9184411643
 40
0.9271391635
 40
0.9354108014
 40
0.9432698937
 40
0.9507338843
 40
0.9578247196
 40
0.9645691193
 40
0.9709994962
 40
0.9771542504
 40
0.983078108
 40
0.9888220398
 40
0.9944424548
 40
1.0
 40
1.0
 40
1.0
 40
1.0
 10
9.2873642855
 20
10.3031281887
 30
0.0
 10
9.2937491766
 20
10.302685395
 30
0.0
 10
9.3065974196
 20
10.3018969518
 30
0.0
 10
9.3259723154
 20
10.3010070793
 30
0.0
 10
9.3455125909
 20
10.3004052557
 30
0.0
 10
9.3651539294
 20
10.3000934122
 30
0.0
 10
9.3848321776
 20
10.3000726166
 30
0.0
 10
9.404482767
 20
10.3003429187
 30
0.0
 10
9.4240413343
 20
10.3009034385
 30
0.0
 10
9.443443785
 20
10.3017523209
 30
0.0
 10
9.4626265495
 20
10.3028867609
 30
0.0
 10
9.4815267828
 20
10.3043030116
 30
0.0
 10
9.5000825721
 20
10.3059963955
 30
0.0
 10
9.5182331411
 20
10.3079613191
 30
0.0
 10
9.5359190534
 20
10.3101912919
 30
0.0
 10
9.5530824134
 20
10.31267894
 30
0.0
 10
9.5696670673
 20
10.3154160306
 30
0.0
 10
9.5856187748
 20
10.3183935063
 30
0.0
 10
9.6008854513
 20
10.3216015031
 30
0.0
 10
9.6154171496
 20
10.325029418
 30
0.0
 10
9.6270242175
 20
10.3280991407
 30
0.0
 10
9.6359014425
 20
10.330663556
 30
0.0
 10
9.6422580561
 20
10.332609109
 30
0.0
 10
9.6483968437
 20
10.3346008718
 30
0.0
 10
9.6543127967
 20
10.336637242
 30
0.0
 10
9.6600010962
 20
10.3387164967
 30
0.0
 10
9.6654570913
 20
10.3408370052
 30
0.0
 10
9.6706763588
 20
10.3429969516
 30
0.0
 10
9.6756546423
 20
10.345194638
 30
0.0
 10
9.6803879116
 20
10.3474282375
 30
0.0
 10
9.6848723412
 20
10.3496959306
 30
0.0
 10
9.689104292
 20
10.351995934
 30
0.0
 10
9.6930803931
 20
10.35432632
 30
0.0
 10
9.696797415
 20
10.3566853308
 30
0.0
 10
9.7002524279
 20
10.3590710278
 30
0.0
 10
9.7034426562
 20
10.3614816176
 30
0.0
 10
9.7063655548
 20
10.3639152707
 30
0.0
 10
9.7090188229
 20
10.3663701448
 30
0.0
 10
9.7114002317
 20
10.3688445681
 30
0.0
 10
9.7135078759
 20
10.3713367222
 30
0.0
 10
9.715339783
 20
10.3738450177
 30
0.0
 10
9.716894214
 20
10.3763677077
 30
0.0
 10
9.7181693985
 20
10.3789030753
 30
0.0
 10
9.7191635524
 20
10.3814492009
 30
0.0
 10
9.719875173
 20
10.3840039742
 30
0.0
 10
9.7203027011
 20
10.3865644817
 30
0.0
 10
9.7203979656
 20
10.38827757
 30
0.0
 10
9.7203979575
 20
10.3891285606
 30
0.0
  0
SPLINE
  5
2D9
100
AcDbEntity
  8
0
100
AcDbSpline
 62
7
  6
CONTINUOUS
 70
0
 71
3
 72
52
 73
48
 74
0
 42
0.0000001
 43
0.0000001
 44
0.0000000001
 40
0.0
 40
0.0
 40
0.0
 40
0.0
 40
0.0417978167
 40
0.0840615308
 40
0.1266599452
 40
0.1694647093
 40
0.2123442471
 40
0.2551676124
 40
0.2978038023
 40
0.340122612
 40
0.381995097
 40
0.4232940911
 40
0.4638947378
 40
0.5036750193
 40
0.5425163039
 40
0.5803039261
 40
0.6169277796
 40
0.6522829323
 40
0.686270301
 40
0.7187974019
 40
0.7497792075
 40
0.7646667639
 40
0.7791400971
 40
0.7931911326
 40
0.8068125303
 40
0.8199977802
 40
0.8327410449
 40
0.8450376044
 40
0.8568835364
 40
0.868276178
 40
0.8792140523
 40
0.8896970245
 40
0.8997266904
 40
0.9093062438
 40
0.9184411643
 40
0.9271391635
 40
0.9354108014
 40
0.9432698937
 40
0.9507338843
 40
0.9578247196
 40
0.9645691193
 40
0.9709994962
 40
0.9771542504
 40
0.983078108
 40
0.9888220398
 40
0.9944424548
 40
1.0
 40
1.0
 40
1.0
 40
1.0
 10
8.1879018672
 20
9.2411289809
 30
0.0
 10
8.1942867582
 20
9.2406861872
 30
0.0
 10
8.2071350013
 20
9.239897744
 30
0.0
 10
8.226509897
 20
9.2390078715
 30
0.0
 10
8.2460501726
 20
9.2384060479
 30
0.0
 10
8.2656915111
 20
9.2380942044
 30
0.0
 10
8.2853697593
 20
9.2380734088
 30
0.0
 10
8.3050203486
 20
9.2383437109
 30
0.0
 10
8.3245789159
 20
9.2389042307
 30
0.0
 10
8.3439813667
 20
9.2397531131
 30
0.0
 10
8.3631641312
 20
9.2408875531
 30
0.0
 10
8.3820643645
 20
9.2423038038
 30
0.0
 10
8.4006201538
 20
9.2439971877
 30
0.0
 10
8.4187707228
 20
9.2459621113
 30
0.0
 10
8.436456635
 20
9.2481920841
 30
0.0
 10
8.4536199951
 20
9.2506797322
 30
0.0
 10
8.470204649
 20
9.2534168228
 30
0.0
 10
8.4861563564
 20
9.2563942985
 30
0.0
 10
8.501423033
 20
9.2596022953
 30
0.0
 10
8.5159547313
 20
9.2630302102
 30
0.0
 10
8.5275617992
 20
9.2660999329
 30
0.0
 10
8.5364390242
 20
9.2686643482
 30
0.0
 10
8.5427956378
 20
9.2706099012
 30
0.0
 10
8.5489344254
 20
9.272601664
 30
0.0
 10
8.5548503784
 20
9.2746380342
 30
0.0
 10
8.5605386778
 20
9.2767172889
 30
0.0
 10
8.5659946729
 20
9.2788377974
 30
0.0
 10
8.5712139405
 20
9.2809977438
 30
0.0
 10
8.576192224
 20
9.2831954302
 30
0.0
 10
8.5809254933
 20
9.2854290297
 30
0.0
 10
8.5854099229
 20
9.2876967228
 30
0.0
 10
8.5896418737
 20
9.2899967262
 30
0.0
 10
8.5936179747
 20
9.2923271122
 30
0.0
 10
8.5973349967
 20
9.294686123
 30
0.0
 10
8.6007900096
 20
9.29707182
 30
0.0
 10
8.6039802379
 20
9.2994824097
 30
0.0
 10
8.6069031364
 20
9.3019160629
 30
0.0
 10
8.6095564045
 20
9.304370937
 30
0.0
 10
8.6119378133
 20
9.3068453603
 30
0.0
 10
8.6140454575
 20
9.3093375143
 30
0.0
 10
8.6158773647
 20
9.3118458099
 30
0.0
 10
8.6174317956
 20
9.3143684999
 30
0.0
 10
8.6187069802
 20
9.3169038675
 30
0.0
 10
8.6197011341
 20
9.3194499931
 30
0.0
 10
8.6204127546
 20
9.3220047664
 30
0.0
 10
8.6208402828
 20
9.3245652738
 30
0.0
 10
8.6209355473
 20
9.3262783622
 30
0.0
 10
8.6209355392
 20
9.3271293528
 30
0.0
  0
SPLINE
  5
2DA
100
AcDbEntity
  8
0
100
AcDbSpline
 62
7
  6
CONTINUOUS
 70
0
 71
3
 72
13
 73
9
 74
0
 42
0.0000001
 43
0.0000001
 44
0.0000000001
 40
0.0
 40
0.0
 40
0.0
 40
0.0
 40
0.2694223412
 40
0.3988013987
 40
0.5248511076
 40
0.7677263531
 40
0.8850716956
 40
1.0
 40
1.0
 40
1.0
 40
1.0
 10
8.2319401093
 20
9.9699973783
 30
0.0
 10
8.228980144
 20
9.9729709068
 30
0.0
 10
8.2244447769
 20
9.977224706
 30
0.0
 10
8.2181576083
 20
9.9824502769
 30
0.0
 10
8.211987568
 20
9.9871589907
 30
0.0
 10
8.205671862
 20
9.9913601703
 30
0.0
 10
8.199226143
 20
9.994998488
 30
0.0
 10
8.1959889672
 20
9.99661667
 30
0.0
 10
8.1943674962
 20
9.9973742994
 30
0.0
  0
SPLINE
  5
2DB
100
AcDbEntity
  8
0
100
AcDbSpline
 62
7
  6
CONTINUOUS
 70
0
 71
3
 72
23
 73
19
 74
0
 42
0.0000001
 43
0.0000001
 44
0.0000000001
 40
0.0
 40
0.0
 40
0.0
 40
0.0
 40
0.0470782441
 40
0.0966152613
 40
0.1485494264
 40
0.2028095924
 40
0.2593161929
 40
0.3179820251
 40
0.378712912
 40
0.4414084894
 40
0.5059627644
 40
0.5722645137
 40
0.6401977439
 40
0.7096422252
 40
0.7804738696
 40
0.852565027
 40
0.925784909
 40
1.0
 40
1.0
 40
1.0
 40
1.0
 10
9.7609566409
 20
8.084175348
 30
0.0
 10
9.7630602931
 20
8.088792268
 30
0.0
 10
9.7672243581
 20
8.0983375515
 30
0.0
 10
9.7732077524
 20
8.1131883708
 30
0.0
 10
9.7790780716
 20
8.1289131323
 30
0.0
 10
9.7848235837
 20
8.1454807926
 30
0.0
 10
9.7904329021
 20
8.1628588694
 30
0.0
 10
9.7958948708
 20
8.1810131565
 30
0.0
 10
9.8011986609
 20
8.1999078893
 30
0.0
 10
9.8063337397
 20
8.2195058154
 30
0.0
 10
9.811289901
 20
8.2397682839
 30
0.0
 10
9.8160573044
 20
8.2606553066
 30
0.0
 10
9.8206265018
 20
8.2821256402
 30
0.0
 10
9.8249884271
 20
8.3041368866
 30
0.0
 10
9.8291344146
 20
8.3266455721
 30
0.0
 10
9.8330562494
 20
8.3496072393
 30
0.0
 10
9.8367461584
 20
8.3729764727
 30
0.0
 10
9.8390325932
 20
8.3887005224
 30
0.0
 10
9.84013663
 20
8.3966220643
 30
0.0
  0
SPLINE
  5
2DC
100
AcDbEntity
  8
0
100
AcDbSpline
 62
7
  6
CONTINUOUS
 70
0
 71
3
 72
55
 73
51
 74
0
 42
0.0000001
 43
0.0000001
 44
0.0000000001
 40
0.0
 40
0.0
 40
0.0
 40
0.0
 40
0.0462051375
 40
0.0922355317
 40
0.1379912695
 40
0.1833746675
 40
0.2282881821
 40
0.2726359495
 40
0.3163235541
 40
0.3592584901
 40
0.4013503924
 40
0.4425113492
 40
0.4826562023
 40
0.521702869
 40
0.5595726793
 40
0.5961907376
 40
0.6314863183
 40
0.6653933085
 40
0.6818071093
 40
0.6978513169
 40
0.7135192501
 40
0.7288045507
 40
0.7437013426
 40
0.7582041767
 40
0.7723080898
 40
0.7860086763
 40
0.7993020348
 40
0.8121849652
 40
0.8246548326
 40
0.8367098477
 40
0.8483489196
 40
0.859571947
 40
0.8703797496
 40
0.8807743065
 40
0.8907588346
 40
0.9003379493
 40
0.9095179204
 40
0.9183067737
 40
0.9267147138
 40
0.934754225
 40
0.9424406004
 40
0.9497921104
 40
0.9568305319
 40
0.9635813889
 40
0.9700743251
 40
0.9763432688
 40
0.9824264219
 40
0.9883660432
 40
0.994207818
 40
1.0
 40
1.0
 40
1.0
 40
1.0
 10
13.1213211561
 20
7.8362482995
 30
0.0
 10
13.1225497487
 20
7.8518995519
 30
0.0
 10
13.125189499
 20
7.8831285008
 30
0.0
 10
13.1297017306
 20
7.9297980966
 30
0.0
 10
13.1347515931
 20
7.9761318229
 30
0.0
 10
13.1403273926
 20
8.022022957
 30
0.0
 10
13.1464163349
 20
8.0673662281
 30
0.0
 10
13.1530043656
 20
8.1120573879
 30
0.0
 10
13.1600763132
 20
8.1559937957
 30
0.0
 10
13.1676158696
 20
8.1990745192
 30
0.0
 10
13.1756056496
 20
8.2412006167
 30
0.0
 10
13.1840272221
 20
8.2822753527
 30
0.0
 10
13.1928611544
 20
8.3222044275
 30
0.0
 10
13.2020870552
 20
8.3608962048
 30
0.0
 10
13.2116836208
 20
8.3982619083
 30
0.0
 10
13.2216286845
 20
8.4342159102
 30
0.0
 10
13.2318992742
 20
8.468675666
 30
0.0
 10
13.2408031532
 20
8.4963727418
 30
0.0
 10
13.2480819302
 20
8.5177153861
 30
0.0
 10
13.2535484939
 20
8.533127078
 30
0.0
 10
13.2590784009
 20
8.5481080952
 30
0.0
 10
13.2646685461
 20
8.5626498528
 30
0.0
 10
13.2703156762
 20
8.576744016
 30
0.0
 10
13.2760165528
 20
8.59038251
 30
0.0
 10
13.2817679166
 20
8.6035575193
 30
0.0
 10
13.2875664197
 20
8.6162615155
 30
0.0
 10
13.2934087997
 20
8.6284872157
 30
0.0
 10
13.2992916206
 20
8.6402276596
 30
0.0
 10
13.3052116086
 20
8.6514761174
 30
0.0
 10
13.3111652792
 20
8.6622262109
 30
0.0
 10
13.3171493269
 20
8.6724717901
 30
0.0
 10
13.3231602702
 20
8.6822070637
 30
0.0
 10
13.3291947552
 20
8.6914264918
 30
0.0
 10
13.3352493527
 20
8.7001248684
 30
0.0
 10
13.3413206622
 20
8.7082972908
 30
0.0
 10
13.347405347
 20
8.7159391308
 30
0.0
 10
13.3534999891
 20
8.7230461366
 30
0.0
 10
13.3596013716
 20
8.7296142429
 30
0.0
 10
13.3657061186
 20
8.7356398286
 30
0.0
 10
13.371811141
 20
8.7411193628
 30
0.0
 10
13.3779131794
 20
8.7460497727
 30
0.0
 10
13.3840092452
 20
8.7504280045
 30
0.0
 10
13.3900962226
 20
8.75425137
 30
0.0
 10
13.3961711209
 20
8.7575171945
 30
0.0
 10
13.4022308269
 20
8.7602229793
 30
0.0
 10
13.4082721002
 20
8.7623663643
 30
0.0
 10
13.414291407
 20
8.7639450178
 30
0.0
 10
13.4202850439
 20
8.7649570937
 30
0.0
 10
13.4262480567
 20
8.7654009231
 30
0.0
 10
13.430207278
 20
8.7653172776
 30
0.0
 10
13.4321706069
 20
8.7651811168
 30
0.0
  0
SPLINE
  5
2DD
100
AcDbEntity
  8
0
100
AcDbSpline
 62
7
  6
CONTINUOUS
 70
0
 71
3
 72
26
 73
22
 74
0
 42
0.0000001
 43
0.0000001
 44
0.0000000001
 40
0.0
 40
0.0
 40
0.0
 40
0.0
 40
0.0616472485
 40
0.1233175239
 40
0.1850335958
 40
0.2468177229
 40
0.3086914072
 40
0.3706751586
 40
0.4327882739
 40
0.4950486325
 40
0.5574725132
 40
0.6200744243
 40
0.6514488025
 40
0.6828722567
 40
0.7143460244
 40
0.7458712251
 40
0.8090747671
 40
0.872494008
 40
0.9042883495
 40
0.9361389233
 40
1.0
 40
1.0
 40
1.0
 40
1.0
 10
9.1612975316
 20
8.4210223416
 30
0.0
 10
9.1709597299
 20
8.4303553002
 30
0.0
 10
9.1907939594
 20
8.4485086863
 30
0.0
 10
9.221971805
 20
8.4741056457
 30
0.0
 10
9.2545035191
 20
8.4980106826
 30
0.0
 10
9.288306017
 20
8.520162525
 30
0.0
 10
9.3232943974
 20
8.5405056873
 30
0.0
 10
9.3593804166
 20
8.5589888963
 30
0.0
 10
9.3964731057
 20
8.5755656709
 30
0.0
 10
9.4344791795
 20
8.5901943657
 30
0.0
 10
9.4733021832
 20
8.6028380946
 30
0.0
 10
9.5062319123
 20
8.6116878417
 30
0.0
 10
9.5328801691
 20
8.617747336
 30
0.0
 10
9.5530252945
 20
8.6217821429
 30
0.0
 10
9.5733002467
 20
8.6253009888
 30
0.0
 10
9.6005107281
 20
8.6293048535
 30
0.0
 10
9.6347897158
 20
8.6330066447
 30
0.0
 10
9.6692709635
 20
8.6349599374
 30
0.0
 10
9.6969575242
 20
8.6354763221
 30
0.0
 10
9.7247440055
 20
8.6352936235
 30
0.0
 10
9.745591655
 20
8.6343691199
 30
0.0
 10
9.7594743505
 20
8.6334063517
 30
0.0
  0
SPLINE
  5
2DE
100
AcDbEntity
  8
0
100
AcDbSpline
 62
7
  6
CONTINUOUS
 70
0
 71
3
 72
67
 73
63
 74
0
 42
0.0000001
 43
0.0000001
 44
0.0000000001
 40
0.0
 40
0.0
 40
0.0
 40
0.0
 40
0.0149688907
 40
0.0299407519
 40
0.044918535
 40
0.0599051571
 40
0.0749034842
 40
0.0899163111
 40
0.1049463479
 40
0.1199962052
 40
0.1350683756
 40
0.1501652221
 40
0.1652889668
 40
0.1804416742
 40
0.1956252431
 40
0.210841399
 40
0.2260916799
 40
0.2413774323
 40
0.2566998075
 40
0.2720597503
 40
0.2874579993
 40
0.3028950866
 40
0.3183713304
 40
0.3338868388
 40
0.3494415129
 40
0.3650350428
 40
0.380666915
 40
0.3963364184
 40
0.4120426432
 40
0.4277844918
 40
0.4435606865
 40
0.4593697719
 40
0.4752101279
 40
0.4910799792
 40
0.5069774001
 40
0.5229003299
 40
0.538846583
 40
0.5548138562
 40
0.5707997452
 40
0.5868017558
 40
0.6188390944
 40
0.650909267
 40
0.6829903275
 40
0.7150601199
 40
0.7310862538
 40
0.7471013881
 40
0.7631028868
 40
0.7790881776
 40
0.7950547675
 40
0.8110002567
 40
0.826922346
 40
0.8428188528
 40
0.8586877217
 40
0.8745270316
 40
0.8903350148
 40
0.9061100505
 40
0.9218506867
 40
0.9375557005
 40
0.9532238978
 40
0.9688543336
 40
0.9844470081
 40
1.0
 40
1.0
 40
1.0
 40
1.0
 10
10.3576511695
 20
7.1824659904
 30
0.0
 10
10.3646894068
 20
7.1892643996
 30
0.0
 10
10.3785024482
 20
7.203139857
 30
0.0
 10
10.398393276
 20
7.2247506392
 30
0.0
 10
10.4174310127
 20
7.2471324034
 30
0.0
 10
10.435589883
 20
7.2702547545
 30
0.0
 10
10.4528456911
 20
7.2940869461
 30
0.0
 10
10.469175326
 20
7.3185971152
 30
0.0
 10
10.4845570722
 20
7.3437524571
 30
0.0
 10
10.4989703277
 20
7.369519392
 30
0.0
 10
10.5123958229
 20
7.3958634956
 30
0.0
 10
10.5248157247
 20
7.4227495194
 30
0.0
 10
10.536213389
 20
7.4501415712
 30
0.0
 10
10.5465735876
 20
7.4780030531
 30
0.0
 10
10.5558825903
 20
7.5062967068
 30
0.0
 10
10.5641279065
 20
7.5349847586
 30
0.0
 10
10.5712985321
 20
7.5640288812
 30
0.0
 10
10.5773850006
 20
7.5933902556
 30
0.0
 10
10.5823791234
 20
7.6230296809
 30
0.0
 10
10.5862742496
 20
7.6529075644
 30
0.0
 10
10.5890652873
 20
7.6829839922
 30
0.0
 10
10.5907484449
 20
7.7132188073
 30
0.0
 10
10.5913215026
 20
7.743571629
 30
0.0
 10
10.5907838002
 20
7.7740019269
 30
0.0
 10
10.589135987
 20
7.804469069
 30
0.0
 10
10.5863802979
 20
7.8349323727
 30
0.0
 10
10.5825205099
 20
7.8653511759
 30
0.0
 10
10.5775617036
 20
7.8956848577
 30
0.0
 10
10.5715105393
 20
7.9258929227
 30
0.0
 10
10.564375184
 20
7.9559350623
 30
0.0
 10
10.5561650875
 20
7.9857711529
 30
0.0
 10
10.5468912535
 20
8.0153613723
 30
0.0
 10
10.5365661402
 20
8.0446662466
 30
0.0
 10
10.5252034526
 20
8.0736466289
 30
0.0
 10
10.5128184033
 20
8.1022638496
 30
0.0
 10
10.499427597
 20
8.1304797334
 30
0.0
 10
10.4850488081
 20
8.1582566059
 30
0.0
 10
10.4697013547
 20
8.1855573095
 30
0.0
 10
10.4534054894
 20
8.2123458144
 30
0.0
 10
10.4304360535
 20
8.2473425457
 30
0.0
 10
10.3994644238
 20
8.2896266933
 30
0.0
 10
10.3589022055
 20
8.3377377344
 30
0.0
 10
10.3151419659
 20
8.382988952
 30
0.0
 10
10.2761904792
 20
8.4181255643
 30
0.0
 10
10.2436686796
 20
8.4445716562
 30
0.0
 10
10.2186336556
 20
8.4635458206
 30
0.0
 10
10.1929858367
 20
8.4816361946
 30
0.0
 10
10.1667590478
 20
8.4988188662
 30
0.0
 10
10.1399884277
 20
8.5150708656
 30
0.0
 10
10.1127096921
 20
8.5303705411
 30
0.0
 10
10.0849592059
 20
8.5446973652
 30
0.0
 10
10.0567740434
 20
8.5580322731
 30
0.0
 10
10.0281918297
 20
8.5703574751
 30
0.0
 10
9.9992506729
 20
8.5816564131
 30
0.0
 10
9.9699892359
 20
8.5919140622
 30
0.0
 10
9.9404465826
 20
8.6011167347
 30
0.0
 10
9.9106620975
 20
8.6092520472
 30
0.0
 10
9.8806755803
 20
8.6163091595
 30
0.0
 10
9.8505271716
 20
8.6222786782
 30
0.0
 10
9.8202565979
 20
8.6271526219
 30
0.0
 10
9.789905277
 20
8.6309242247
 30
0.0
 10
9.7696172834
 20
8.6327029369
 30
0.0
 10
9.7594743505
 20
8.6334063517
 30
0.0
  0
SPLINE
  5
2DF
100
AcDbEntity
  8
0
100
AcDbSpline
 62
7
  6
CONTINUOUS
 70
0
 71
3
 72
28
 73
24
 74
0
 42
0.0000001
 43
0.0000001
 44
0.0000000001
 40
0.0
 40
0.0
 40
0.0
 40
0.0
 40
0.0616465572
 40
0.0924798212
 40
0.1233217026
 40
0.1850370795
 40
0.2468205085
 40
0.2777472544
 40
0.3086990012
 40
0.3396782733
 40
0.3706875295
 40
0.43279994
 40
0.4950595942
 40
0.5574827697
 40
0.6200839761
 40
0.6828758318
 40
0.71434923
 40
0.7458740756
 40
0.8090769614
 40
0.8724953205
 40
0.9042893743
 40
0.9361398561
 40
1.0
 40
1.0
 40
1.0
 40
1.0
 10
10.842373129
 20
8.1580446663
 30
0.0
 10
10.849914371
 20
8.1653289717
 30
0.0
 10
10.8615245027
 20
8.1759552702
 30
0.0
 10
10.8775564437
 20
8.1894823373
 30
0.0
 10
10.8939553696
 20
8.2025816958
 30
0.0
 10
10.9151192984
 20
8.2181335761
 30
0.0
 10
10.93709826
 20
8.2325370178
 30
0.0
 10
10.9551393123
 20
8.2433522189
 30
0.0
 10
10.9688985729
 20
8.2511091003
 30
0.0
 10
10.9828719635
 20
8.2585033111
 30
0.0
 10
11.0017857838
 20
8.2678767061
 30
0.0
 10
11.0259254658
 20
8.27866493
 30
0.0
 10
11.0555883958
 20
8.2900823586
 30
0.0
 10
11.0858898912
 20
8.29995085
 30
0.0
 10
11.1167525793
 20
8.3082452652
 30
0.0
 10
11.1428558181
 20
8.313824167
 30
0.0
 10
11.163937023
 20
8.3174829204
 30
0.0
 10
11.1851746599
 20
8.3206079413
 30
0.0
 10
11.2119290264
 20
8.3234971466
 30
0.0
 10
11.2388413298
 20
8.3250217061
 30
0.0
 10
11.2604504638
 20
8.3254247576
 30
0.0
 10
11.2821375793
 20
8.3252821421
 30
0.0
 10
11.2984089881
 20
8.3245605938
 30
0.0
 10
11.3092442686
 20
8.3238091646
 30
0.0
  0
SPLINE
  5
2E0
100
AcDbEntity
  8
0
100
AcDbSpline
 62
7
  6
CONTINUOUS
 70
0
 71
3
 72
47
 73
43
 74
0
 42
0.0000001
 43
0.0000001
 44
0.0000000001
 40
0.0
 40
0.0
 40
0.0
 40
0.0
 40
0.0098734261
 40
0.0200867194
 40
0.0306246507
 40
0.0414714399
 40
0.0526107111
 40
0.0640266133
 40
0.075703822
 40
0.0876276389
 40
0.0997848467
 40
0.1121625143
 40
0.1247496223
 40
0.1375355593
 40
0.1636654788
 40
0.1904921166
 40
0.2179674379
 40
0.2460561618
 40
0.2747340384
 40
0.3039863028
 40
0.3338061171
 40
0.3641929565
 40
0.3951509517
 40
0.4266872381
 40
0.4588100605
 40
0.4915267302
 40
0.5248415198
 40
0.5587534974
 40
0.5932544556
 40
0.6283271121
 40
0.6639439116
 40
0.700066517
 40
0.7366461064
 40
0.7736246912
 40
0.810936821
 40
0.8296977454
 40
0.8485153513
 40
0.8862807198
 40
0.9241631415
 40
0.9431272063
 40
0.9620939972
 40
1.0
 40
1.0
 40
1.0
 40
1.0
 10
9.9675353845
 20
7.9750261531
 30
0.0
 10
9.964813479
 20
7.9752140467
 30
0.0
 10
9.9592850146
 20
7.9757381717
 30
0.0
 10
9.9509032698
 20
7.9769243682
 30
0.0
 10
9.9423151125
 20
7.9785146816
 30
0.0
 10
9.9335473491
 20
7.9805000166
 30
0.0
 10
9.9246249863
 20
7.982871583
 30
0.0
 10
9.9155718923
 20
7.9856213319
 30
0.0
 10
9.906410561
 20
7.9887417084
 30
0.0
 10
9.8971621711
 20
7.9922258433
 30
0.0
 10
9.887846867
 20
7.9960675857
 30
0.0
 10
9.8784834931
 20
8.0002612651
 30
0.0
 10
9.8690900579
 20
8.0048020774
 30
0.0
 10
9.8564573655
 20
8.0113605785
 30
0.0
 10
9.8406945185
 20
8.020412946
 30
0.0
 10
9.8220477769
 20
8.0325282144
 30
0.0
 10
9.8036485791
 20
8.0459573265
 30
0.0
 10
9.785607813
 20
8.0606875015
 30
0.0
 10
9.7680328728
 20
8.0767094915
 30
0.0
 10
9.7510300895
 20
8.0940154051
 30
0.0
 10
9.734705883
 20
8.1125970324
 30
0.0
 10
9.719167738
 20
8.1324438206
 30
0.0
 10
9.7045246158
 20
8.1535407466
 30
0.0
 10
9.6908868792
 20
8.1758660643
 30
0.0
 10
9.6783656075
 20
8.1993889607
 30
0.0
 10
9.6670712671
 20
8.2240672192
 30
0.0
 10
9.6571116939
 20
8.249845069
 30
0.0
 10
9.6485894039
 20
8.2766514293
 30
0.0
 10
9.6415983672
 20
8.304398792
 30
0.0
 10
9.6362204104
 20
8.3329830148
 30
0.0
 10
9.6325216028
 20
8.3622842688
 30
0.0
 10
9.6305489666
 20
8.3921691355
 30
0.0
 10
9.6303279841
 20
8.4224941775
 30
0.0
 10
9.6318610962
 20
8.4531092987
 30
0.0
 10
9.6345785155
 20
8.4786928978
 30
0.0
 10
9.6375955627
 20
8.4991688645
 30
0.0
 10
9.641176736
 20
8.5196809971
 30
0.0
 10
9.6466725359
 20
8.5452126293
 30
0.0
 10
9.6534515644
 20
8.5704745432
 30
0.0
 10
9.6596076978
 20
8.590501402
 30
0.0
 10
9.6662350066
 20
8.6103838374
 30
0.0
 10
9.671718197
 20
8.625119733
 30
0.0
 10
9.6755858555
 20
8.6348543363
 30
0.0
  0
SPLINE
  5
2E1
100
AcDbEntity
  8
0
100
AcDbSpline
 62
7
  6
CONTINUOUS
 70
0
 71
3
 72
41
 73
37
 74
0
 42
0.0000001
 43
0.0000001
 44
0.0000000001
 40
0.0
 40
0.0
 40
0.0
 40
0.0
 40
0.0064813001
 40
0.0130002022
 40
0.0195935713
 40
0.0262969408
 40
0.033143984
 40
0.0401660036
 40
0.0548404992
 40
0.0625494615
 40
0.0705324261
 40
0.0873867396
 40
0.1055281833
 40
0.1250447914
 40
0.1459987457
 40
0.1684318082
 40
0.1923689961
 40
0.2178215978
 40
0.2447899859
 40
0.2732648338
 40
0.3032291259
 40
0.3346589397
 40
0.3675242831
 40
0.4017901748
 40
0.4374166385
 40
0.474359728
 40
0.5125716018
 40
0.5520008604
 40
0.5925931493
 40
0.6342909643
 40
0.677034307
 40
0.7207606156
 40
0.7654052435
 40
0.8109015514
 40
0.9041693911
 40
1.0
 40
1.0
 40
1.0
 40
1.0
 10
9.0323979695
 20
10.3891276851
 30
0.0
 10
9.0323979753
 20
10.3885202514
 30
0.0
 10
9.0324462949
 20
10.3873013162
 30
0.0
 10
9.0326634169
 20
10.3854760793
 30
0.0
 10
9.0330250165
 20
10.3836526118
 30
0.0
 10
9.03353083
 20
10.3818319772
 30
0.0
 10
9.0341805952
 20
10.3800149231
 30
0.0
 10
9.0352536591
 20
10.3775625671
 30
0.0
 10
9.0366080205
 20
10.375152813
 30
0.0
 10
9.0382088711
 20
10.3727986681
 30
0.0
 10
9.0400581549
 20
10.3703711551
 30
0.0
 10
9.0427410637
 20
10.367358001
 30
0.0
 10
9.0464585924
 20
10.3638459531
 30
0.0
 10
9.0507247642
 20
10.3603784512
 30
0.0
 10
9.05553245
 20
10.3569603938
 30
0.0
 10
9.0608741986
 20
10.3535967181
 30
0.0
 10
9.0667415058
 20
10.3502926162
 30
0.0
 10
9.0731249544
 20
10.3470532699
 30
0.0
 10
9.0800142367
 20
10.3438840138
 30
0.0
 10
9.0873980867
 20
10.3407899864
 30
0.0
 10
9.0952643943
 20
10.3377763627
 30
0.0
 10
9.103600184
 20
10.334848174
 30
0.0
 10
9.1123916528
 20
10.3320102808
 30
0.0
 10
9.1216242244
 20
10.3292675088
 30
0.0
 10
9.1312825413
 20
10.3266244049
 30
0.0
 10
9.141350529
 20
10.324085447
 30
0.0
 10
9.1518114089
 20
10.3216549061
 30
0.0
 10
9.1626477307
 20
10.3193368356
 30
0.0
 10
9.1738414147
 20
10.3171351869
 30
0.0
 10
9.1853737675
 20
10.315053612
 30
0.0
 10
9.1972255228
 20
10.3130956402
 30
0.0
 10
9.2093768827
 20
10.3112645642
 30
0.0
 10
9.2218075685
 20
10.3095634162
 30
0.0
 10
9.2388674377
 20
10.3074550129
 30
0.0
 10
9.2607374303
 20
10.3051727436
 30
0.0
 10
9.2784044682
 20
10.3037495541
 30
0.0
 10
9.2873642855
 20
10.3031281887
 30
0.0
  0
SPLINE
  5
2E2
100
AcDbEntity
  8
0
100
AcDbSpline
 62
7
  6
CONTINUOUS
 70
0
 71
3
 72
41
 73
37
 74
0
 42
0.0000001
 43
0.0000001
 44
0.0000000001
 40
0.0
 40
0.0
 40
0.0
 40
0.0
 40
0.0064813001
 40
0.0130002022
 40
0.0195935713
 40
0.0262969408
 40
0.033143984
 40
0.0401660036
 40
0.0548404992
 40
0.0625494615
 40
0.0705324261
 40
0.0873867396
 40
0.1055281833
 40
0.1250447914
 40
0.1459987457
 40
0.1684318082
 40
0.1923689961
 40
0.2178215978
 40
0.2447899859
 40
0.2732648338
 40
0.3032291259
 40
0.3346589397
 40
0.3675242831
 40
0.4017901748
 40
0.4374166385
 40
0.474359728
 40
0.5125716018
 40
0.5520008604
 40
0.5925931493
 40
0.6342909643
 40
0.677034307
 40
0.7207606156
 40
0.7654052435
 40
0.8109015514
 40
0.9041693911
 40
1.0
 40
1.0
 40
1.0
 40
1.0
 10
7.9329355512
 20
9.3271284773
 30
0.0
 10
7.932935557
 20
9.3265210436
 30
0.0
 10
7.9329838765
 20
9.3253021084
 30
0.0
 10
7.9332009985
 20
9.3234768715
 30
0.0
 10
7.9335625982
 20
9.321653404
 30
0.0
 10
7.9340684117
 20
9.3198327694
 30
0.0
 10
7.9347181769
 20
9.3180157153
 30
0.0
 10
7.9357912408
 20
9.3155633593
 30
0.0
 10
7.9371456022
 20
9.3131536052
 30
0.0
 10
7.9387464528
 20
9.3107994603
 30
0.0
 10
7.9405957366
 20
9.3083719473
 30
0.0
 10
7.9432786454
 20
9.3053587932
 30
0.0
 10
7.9469961741
 20
9.3018467453
 30
0.0
 10
7.9512623459
 20
9.2983792434
 30
0.0
 10
7.9560700317
 20
9.294961186
 30
0.0
 10
7.9614117803
 20
9.2915975103
 30
0.0
 10
7.9672790874
 20
9.2882934084
 30
0.0
 10
7.973662536
 20
9.2850540621
 30
0.0
 10
7.9805518184
 20
9.281884806
 30
0.0
 10
7.9879356684
 20
9.2787907786
 30
0.0
 10
7.995801976
 20
9.2757771549
 30
0.0
 10
8.0041377656
 20
9.2728489661
 30
0.0
 10
8.0129292345
 20
9.270011073
 30
0.0
 10
8.0221618061
 20
9.2672683009
 30
0.0
 10
8.031820123
 20
9.2646251971
 30
0.0
 10
8.0418881107
 20
9.2620862391
 30
0.0
 10
8.0523489905
 20
9.2596556983
 30
0.0
 10
8.0631853124
 20
9.2573376278
 30
0.0
 10
8.0743789964
 20
9.2551359791
 30
0.0
 10
8.0859113492
 20
9.2530544042
 30
0.0
 10
8.0977631045
 20
9.2510964323
 30
0.0
 10
8.1099144644
 20
9.2492653564
 30
0.0
 10
8.1223451502
 20
9.2475642084
 30
0.0
 10
8.1394050194
 20
9.2454558051
 30
0.0
 10
8.161275012
 20
9.2431735357
 30
0.0
 10
8.1789420499
 20
9.2417503463
 30
0.0
 10
8.1879018672
 20
9.2411289809
 30
0.0
  0
SPLINE
  5
2E3
100
AcDbEntity
  8
0
100
AcDbSpline
 62
7
  6
CONTINUOUS
 70
0
 71
3
 72
54
 73
50
 74
0
 42
0.0000001
 43
0.0000001
 44
0.0000000001
 40
0.0
 40
0.0
 40
0.0
 40
0.0
 40
0.0063158507
 40
0.0126706009
 40
0.0191023977
 40
0.0256478986
 40
0.0323417211
 40
0.0392160215
 40
0.0536137219
 40
0.0611943855
 40
0.0690560622
 40
0.0772171197
 40
0.0856934318
 40
0.0944987522
 40
0.1036448027
 40
0.113141486
 40
0.1229971814
 40
0.1332187245
 40
0.1438117391
 40
0.1547806923
 40
0.1661289554
 40
0.1778590781
 40
0.1899726748
 40
0.2024706471
 40
0.2153532452
 40
0.2286199987
 40
0.2422699729
 40
0.2563016345
 40
0.2707129683
 40
0.2855015805
 40
0.3006645508
 40
0.3161986637
 40
0.3321003047
 40
0.364989385
 40
0.3992970598
 40
0.4349833452
 40
0.4720041093
 40
0.5103114544
 40
0.549854083
 40
0.590577587
 40
0.6324246928
 40
0.6753354638
 40
0.7192475599
 40
0.7640963991
 40
0.8098154153
 40
0.8563362597
 40
0.9035882195
 40
0.9515013118
 40
1.0
 40
1.0
 40
1.0
 40
1.0
 10
13.8944057827
 20
7.3798961084
 30
0.0
 10
13.8927426355
 20
7.3800114407
 30
0.0
 10
13.8894139587
 20
7.3803789576
 30
0.0
 10
13.8844582297
 20
7.3813368268
 30
0.0
 10
13.8795356394
 20
7.3827014069
 30
0.0
 10
13.8746490536
 20
7.3844715254
 30
0.0
 10
13.8698003715
 20
7.3866461496
 30
0.0
 10
13.8632899334
 20
7.3901360808
 30
0.0
 10
13.8569562511
 20
7.3944082252
 30
0.0
 10
13.8508268983
 20
7.3993590375
 30
0.0
 10
13.8461971413
 20
7.4035331333
 30
0.0
 10
13.8416168573
 20
7.4081017259
 30
0.0
 10
13.8370871298
 20
7.4130631302
 30
0.0
 10
13.8326098561
 20
7.4184152439
 30
0.0
 10
13.8281866742
 20
7.4241558818
 30
0.0
 10
13.8238192451
 20
7.4302826729
 30
0.0
 10
13.8195093449
 20
7.4367931827
 30
0.0
 10
13.8152585871
 20
7.4436847246
 30
0.0
 10
13.8110686968
 20
7.4509545276
 30
0.0
 10
13.8069413679
 20
7.4585996459
 30
0.0
 10
13.802878199
 20
7.4666169468
 30
0.0
 10
13.7988809141
 20
7.4750031967
 30
0.0
 10
13.7949510823
 20
7.4837549525
 30
0.0
 10
13.7910903161
 20
7.4928686446
 30
0.0
 10
13.7873002378
 20
7.5023405568
 30
0.0
 10
13.7835823335
 20
7.5121667915
 30
0.0
 10
13.7799381948
 20
7.522343337
 30
0.0
 10
13.7763692928
 20
7.532866009
 30
0.0
 10
13.7728770805
 20
7.5437304843
 30
0.0
 10
13.7694630528
 20
7.5549323095
 30
0.0
 10
13.7661285593
 20
7.5664668636
 30
0.0
 10
13.7628750008
 20
7.5783294219
 30
0.0
 10
13.7585986186
 20
7.5947617737
 30
0.0
 10
13.7534767001
 20
7.6160925571
 30
0.0
 10
13.747740852
 20
7.6426392135
 30
0.0
 10
13.7423581062
 20
7.6703713775
 30
0.0
 10
13.7373374189
 20
7.6992433434
 30
0.0
 10
13.7326871489
 20
7.7292076618
 30
0.0
 10
13.7284150445
 20
7.7602150003
 30
0.0
 10
13.7245282286
 20
7.792214303
 30
0.0
 10
13.721033189
 20
7.8251528499
 30
0.0
 10
13.7179357407
 20
7.858976351
 30
0.0
 10
13.7152410451
 20
7.8936290351
 30
0.0
 10
13.7129535931
 20
7.9290537637
 30
0.0
 10
13.7110772061
 20
7.9651921435
 30
0.0
 10
13.709615037
 20
8.0019844421
 30
0.0
 10
13.7085694684
 20
8.0393702894
 30
0.0
 10
13.7079423387
 20
8.0772875631
 30
0.0
 10
13.7078046282
 20
8.1027367924
 30
0.0
 10
13.7078046282
 20
8.1155385779
 30
0.0
  0
SPLINE
  5
2E4
100
AcDbEntity
  8
0
100
AcDbSpline
 62
7
  6
CONTINUOUS
 70
0
 71
3
 72
50
 73
46
 74
0
 42
0.0000001
 43
0.0000001
 44
0.0000000001
 40
0.0
 40
0.0
 40
0.0
 40
0.0
 40
0.0063396008
 40
0.0128069179
 40
0.0194315466
 40
0.0262407404
 40
0.0332593674
 40
0.0405098865
 40
0.0480122517
 40
0.0557841478
 40
0.0638411686
 40
0.0721967992
 40
0.0808627245
 40
0.0898490636
 40
0.0991643275
 40
0.1088156869
 40
0.1188092105
 40
0.1291497785
 40
0.1398412735
 40
0.1508868157
 40
0.162288649
 40
0.1740482485
 40
0.1861665584
 40
0.198643872
 40
0.2246728358
 40
0.2521285194
 40
0.2809961741
 40
0.3112551555
 40
0.3428797938
 40
0.3758396984
 40
0.4101004718
 40
0.4456241181
 40
0.4823691526
 40
0.5202911558
 40
0.5593429252
 40
0.5994745737
 40
0.6406339735
 40
0.6827667741
 40
0.725816508
 40
0.7697250235
 40
0.8144325355
 40
0.8598770498
 40
0.9059957762
 40
0.9527270249
 40
1.0
 40
1.0
 40
1.0
 40
1.0
 10
13.8495131667
 20
7.7508220948
 30
0.0
 10
13.8485220903
 20
7.751113157
 30
0.0
 10
13.8465413664
 20
7.7517766419
 30
0.0
 10
13.8436170946
 20
7.7529965551
 30
0.0
 10
13.8407152754
 20
7.7544490326
 30
0.0
 10
13.8378371833
 20
7.7561331454
 30
0.0
 10
13.834983783
 20
7.7580480941
 30
0.0
 10
13.8321561252
 20
7.7601930565
 30
0.0
 10
13.8293551198
 20
7.7625670411
 30
0.0
 10
13.8265817081
 20
7.7651690755
 30
0.0
 10
13.8238368827
 20
7.7679981836
 30
0.0
 10
13.8211215389
 20
7.7710532258
 30
0.0
 10
13.8184366033
 20
7.7743330356
 30
0.0
 10
13.8157830706
 20
7.7778364251
 30
0.0
 10
13.8131618474
 20
7.7815620547
 30
0.0
 10
13.8105738532
 20
7.7855085236
 30
0.0
 10
13.8080200764
 20
7.7896743972
 30
0.0
 10
13.8055014268
 20
7.7940581065
 30
0.0
 10
13.8030188033
 20
7.7986580012
 30
0.0
 10
13.8005731702
 20
7.8034723903
 30
0.0
 10
13.7981654251
 20
7.8084994665
 30
0.0
 10
13.795796439
 20
7.8137373285
 30
0.0
 10
13.7934671162
 20
7.819184041
 30
0.0
 10
13.7903717508
 20
7.8268301223
 30
0.0
 10
13.7866171371
 20
7.8369029286
 30
0.0
 10
13.7823447347
 20
7.8496246877
 30
0.0
 10
13.7782506314
 20
7.8631266604
 30
0.0
 10
13.7743410213
 20
7.8773885157
 30
0.0
 10
13.7706218975
 20
7.8923889375
 30
0.0
 10
13.7670988866
 20
7.9081053697
 30
0.0
 10
13.7637773622
 20
7.9245141639
 30
0.0
 10
13.7606624348
 20
7.9415905962
 30
0.0
 10
13.7577588159
 20
7.9593089007
 30
0.0
 10
13.7550709573
 20
7.9776423291
 30
0.0
 10
13.7526029873
 20
7.9965631884
 30
0.0
 10
13.7503586344
 20
8.0160428809
 30
0.0
 10
13.7483413553
 20
8.036051959
 30
0.0
 10
13.7465542377
 20
8.0565601601
 30
0.0
 10
13.7449999779
 20
8.077536462
 30
0.0
 10
13.7436809841
 20
8.0989491556
 30
0.0
 10
13.7425992749
 20
8.1207657968
 30
0.0
 10
13.7417564675
 20
8.142953328
 30
0.0
 10
13.7411538798
 20
8.1654785224
 30
0.0
 10
13.7407924785
 20
8.1883067888
 30
0.0
 10
13.7407130626
 20
8.2036233425
 30
0.0
 10
13.7407130626
 20
8.211325688
 30
0.0
  0
SPLINE
  5
2E5
100
AcDbEntity
  8
0
100
AcDbSpline
 62
7
  6
CONTINUOUS
 70
0
 71
3
 72
53
 73
49
 74
0
 42
0.0000001
 43
0.0000001
 44
0.0000000001
 40
0.0
 40
0.0
 40
0.0
 40
0.0
 40
0.0054464879
 40
0.011065768
 40
0.0169072847
 40
0.0230144767
 40
0.029424584
 40
0.0361689673
 40
0.0432736095
 40
0.0507596683
 40
0.0586441968
 40
0.0669405514
 40
0.075659118
 40
0.0848074925
 40
0.0943911385
 40
0.1044134029
 40
0.114876059
 40
0.1257792666
 40
0.1371219594
 40
0.148901841
 40
0.161115597
 40
0.1737589794
 40
0.1868268462
 40
0.2003133493
 40
0.2142118288
 40
0.2285150851
 40
0.2432151772
 40
0.258303733
 40
0.2737717188
 40
0.2896097247
 40
0.322354987
 40
0.3564555771
 40
0.3918206998
 40
0.4283540161
 40
0.4659542568
 40
0.5045157858
 40
0.5439291283
 40
0.5840814768
 40
0.6248571782
 40
0.6661382089
 40
0.7078046443
 40
0.749735115
 40
0.7918072832
 40
0.8338982443
 40
0.8758851467
 40
0.917645191
 40
0.9590571991
 40
1.0
 40
1.0
 40
1.0
 40
1.0
 10
13.9348956923
 20
8.9820022412
 30
0.0
 10
13.9334240886
 20
8.9817840822
 30
0.0
 10
13.9304561686
 20
8.9811783228
 30
0.0
 10
13.9260416332
 20
8.9797985362
 30
0.0
 10
13.9216108084
 20
8.9779387491
 30
0.0
 10
13.9171676642
 20
8.9756016026
 30
0.0
 10
13.9127149238
 20
8.9727898399
 30
0.0
 10
13.9082554968
 20
8.9695062058
 30
0.0
 10
13.9037922517
 20
8.9657535408
 30
0.0
 10
13.8993280813
 20
8.9615349255
 30
0.0
 10
13.8948660949
 20
8.9568535746
 30
0.0
 10
13.8904093207
 20
8.9517131298
 30
0.0
 10
13.885961079
 20
8.946117404
 30
0.0
 10
13.8815245126
 20
8.940070706
 30
0.0
 10
13.8771030571
 20
8.9335775511
 30
0.0
 10
13.8726999348
 20
8.9266429391
 30
0.0
 10
13.8683186055
 20
8.9192721173
 30
0.0
 10
13.8639623466
 20
8.9114707683
 30
0.0
 10
13.8596345791
 20
8.9032448619
 30
0.0
 10
13.8553386145
 20
8.8946007481
 30
0.0
 10
13.8510777981
 20
8.8855450928
 30
0.0
 10
13.8468554536
 20
8.8760848952
 30
0.0
 10
13.8426748329
 20
8.8662274856
 30
0.0
 10
13.8385392471
 20
8.8559804929
 30
0.0
 10
13.8344518499
 20
8.8453518783
 30
0.0
 10
13.830415911
 20
8.8343498788
 30
0.0
 10
13.8264344902
 20
8.8229830527
 30
0.0
 10
13.8225107883
 20
8.8112602236
 30
0.0
 10
13.8186477614
 20
8.799190505
 30
0.0
 10
13.8135252068
 20
8.7824614878
 30
0.0
 10
13.8073068089
 20
8.7607473557
 30
0.0
 10
13.8002138202
 20
8.7337428097
 30
0.0
 10
13.793431778
 20
8.7055931682
 30
0.0
 10
13.7869819319
 20
8.6763860311
 30
0.0
 10
13.7808844947
 20
8.6462121644
 30
0.0
 10
13.7751585611
 20
8.6151654348
 30
0.0
 10
13.7698220541
 20
8.5833424439
 30
0.0
 10
13.7648916692
 20
8.5508422378
 30
0.0
 10
13.7603828242
 20
8.5177659884
 30
0.0
 10
13.7563096112
 20
8.484216675
 30
0.0
 10
13.7526847548
 20
8.4502987607
 30
0.0
 10
13.7495195703
 20
8.4161178617
 30
0.0
 10
13.746823936
 20
8.381780427
 30
0.0
 10
13.7446062451
 20
8.3473933688
 30
0.0
 10
13.7428734177
 20
8.3130638315
 30
0.0
 10
13.7416308057
 20
8.278898592
 30
0.0
 10
13.7408822949
 20
8.2450042694
 30
0.0
 10
13.7407130626
 20
8.2225090505
 30
0.0
 10
13.7407130626
 20
8.211325688
 30
0.0
  0
SPLINE
  5
2E6
100
AcDbEntity
  8
0
100
AcDbSpline
 62
7
  6
CONTINUOUS
 70
0
 71
3
 72
43
 73
39
 74
0
 42
0.0000001
 43
0.0000001
 44
0.0000000001
 40
0.0
 40
0.0
 40
0.0
 40
0.0
 40
0.0074044942
 40
0.014835654
 40
0.022319846
 40
0.029882832
 40
0.0375494856
 40
0.0453436081
 40
0.0532877549
 40
0.0614030458
 40
0.0782194066
 40
0.095937756
 40
0.1146741979
 40
0.1345233594
 40
0.1555610251
 40
0.1778465112
 40
0.201425467
 40
0.2263317154
 40
0.2525892865
 40
0.280213904
 40
0.3092140515
 40
0.3395923005
 40
0.3713457419
 40
0.4044669922
 40
0.4389445446
 40
0.4747632182
 40
0.5119047229
 40
0.5503476385
 40
0.5900680538
 40
0.6310394941
 40
0.6732332349
 40
0.7166185191
 40
0.7611626538
 40
0.8068311745
 40
0.8535872877
 40
0.9013938999
 40
0.950213358
 40
1.0
 40
1.0
 40
1.0
 40
1.0
 10
13.2960167191
 20
6.8018966058
 30
0.0
 10
13.2947466363
 20
6.8019846804
 30
0.0
 10
13.2922066818
 20
6.8022403341
 30
0.0
 10
13.2884171206
 20
6.802860671
 30
0.0
 10
13.2846459909
 20
6.8037179855
 30
0.0
 10
13.2808945221
 20
6.8048119667
 30
0.0
 10
13.277163632
 20
6.8061421825
 30
0.0
 10
13.2734543116
 20
6.8077081957
 30
0.0
 10
13.269767428
 20
6.8095096101
 30
0.0
 10
13.2648246336
 20
6.8122567242
 30
0.0
 10
13.2586958093
 20
6.8163063247
 30
0.0
 10
13.2515380603
 20
6.8220389936
 30
0.0
 10
13.244494861
 20
6.8286950105
 30
0.0
 10
13.237571833
 20
6.8362668711
 30
0.0
 10
13.230774012
 20
6.8447472939
 30
0.0
 10
13.2241067041
 20
6.8541281941
 30
0.0
 10
13.2175755322
 20
6.8644009577
 30
0.0
 10
13.2111860983
 20
6.8755560598
 30
0.0
 10
13.2049441316
 20
6.8875831759
 30
0.0
 10
13.1988553925
 20
6.900471111
 30
0.0
 10
13.1929254756
 20
6.9142077623
 30
0.0
 10
13.1871600662
 20
6.9287802143
 30
0.0
 10
13.1815645668
 20
6.944174655
 30
0.0
 10
13.1761443762
 20
6.9603764749
 30
0.0
 10
13.1709046995
 20
6.9773702402
 30
0.0
 10
13.1658505444
 20
6.9951397243
 30
0.0
 10
13.1609868581
 20
7.0136679413
 30
0.0
 10
13.1563182653
 20
7.0329371391
 30
0.0
 10
13.1518493431
 20
7.0529288495
 30
0.0
 10
13.1475843876
 20
7.0736238853
 30
0.0
 10
13.1435275224
 20
7.0950023682
 30
0.0
 10
13.1396827112
 20
7.1170437701
 30
0.0
 10
13.1360536237
 20
7.139726917
 30
0.0
 10
13.1326438495
 20
7.1630299269
 30
0.0
 10
13.1294566165
 20
7.1869304059
 30
0.0
 10
13.1264950192
 20
7.2114056754
 30
0.0
 10
13.123762022
 20
7.2364316932
 30
0.0
 10
13.1221098744
 20
7.2533057933
 30
0.0
 10
13.1213211561
 20
7.2618297243
 30
0.0
  0
SPLINE
  5
2E7
100
AcDbEntity
  8
0
100
AcDbSpline
 62
7
  6
CONTINUOUS
 70
0
 71
3
 72
50
 73
46
 74
0
 42
0.0000001
 43
0.0000001
 44
0.0000000001
 40
0.0
 40
0.0
 40
0.0
 40
0.0
 40
0.0063396008
 40
0.0128069179
 40
0.0194315466
 40
0.0262407404
 40
0.0332593674
 40
0.0405098865
 40
0.0480122517
 40
0.0557841478
 40
0.0638411686
 40
0.0721967992
 40
0.0808627245
 40
0.0898490636
 40
0.0991643275
 40
0.1088156869
 40
0.1188092105
 40
0.1291497785
 40
0.1398412735
 40
0.1508868157
 40
0.162288649
 40
0.1740482485
 40
0.1861665584
 40
0.198643872
 40
0.2246728358
 40
0.2521285194
 40
0.2809961741
 40
0.3112551555
 40
0.3428797938
 40
0.3758396984
 40
0.4101004718
 40
0.4456241181
 40
0.4823691526
 40
0.5202911558
 40
0.5593429252
 40
0.5994745737
 40
0.6406339735
 40
0.6827667741
 40
0.725816508
 40
0.7697250235
 40
0.8144325355
 40
0.8598770498
 40
0.9059957762
 40
0.9527270249
 40
1.0
 40
1.0
 40
1.0
 40
1.0
 10
13.2511240806
 20
7.1728225881
 30
0.0
 10
13.2501330041
 20
7.1731136503
 30
0.0
 10
13.2481522803
 20
7.1737771352
 30
0.0
 10
13.2452280085
 20
7.1749970484
 30
0.0
 10
13.2423261893
 20
7.1764495259
 30
0.0
 10
13.2394480972
 20
7.1781336387
 30
0.0
 10
13.2365946969
 20
7.1800485874
 30
0.0
 10
13.2337670391
 20
7.1821935499
 30
0.0
 10
13.2309660336
 20
7.1845675344
 30
0.0
 10
13.228192622
 20
7.1871695688
 30
0.0
 10
13.2254477965
 20
7.189998677
 30
0.0
 10
13.2227324528
 20
7.1930537191
 30
0.0
 10
13.2200475172
 20
7.1963335289
 30
0.0
 10
13.2173939845
 20
7.1998369184
 30
0.0
 10
13.2147727613
 20
7.203562548
 30
0.0
 10
13.2121847671
 20
7.2075090169
 30
0.0
 10
13.2096309902
 20
7.2116748905
 30
0.0
 10
13.2071123407
 20
7.2160585998
 30
0.0
 10
13.2046297172
 20
7.2206584945
 30
0.0
 10
13.2021840841
 20
7.2254728836
 30
0.0
 10
13.199776339
 20
7.2304999598
 30
0.0
 10
13.1974073529
 20
7.2357378218
 30
0.0
 10
13.1950780301
 20
7.2411845343
 30
0.0
 10
13.1919826647
 20
7.2488306157
 30
0.0
 10
13.188228051
 20
7.258903422
 30
0.0
 10
13.1839556485
 20
7.271625181
 30
0.0
 10
13.1798615453
 20
7.2851271537
 30
0.0
 10
13.1759519352
 20
7.299389009
 30
0.0
 10
13.1722328114
 20
7.3143894308
 30
0.0
 10
13.1687098005
 20
7.330105863
 30
0.0
 10
13.1653882761
 20
7.3465146572
 30
0.0
 10
13.1622733487
 20
7.3635910895
 30
0.0
 10
13.1593697298
 20
7.381309394
 30
0.0
 10
13.1566818711
 20
7.3996428224
 30
0.0
 10
13.1542139012
 20
7.4185636817
 30
0.0
 10
13.1519695483
 20
7.4380433743
 30
0.0
 10
13.1499522691
 20
7.4580524523
 30
0.0
 10
13.1481651516
 20
7.4785606534
 30
0.0
 10
13.1466108918
 20
7.4995369553
 30
0.0
 10
13.145291898
 20
7.5209496489
 30
0.0
 10
13.1442101888
 20
7.5427662901
 30
0.0
 10
13.1433673814
 20
7.5649538213
 30
0.0
 10
13.1427647937
 20
7.5874790157
 30
0.0
 10
13.1424033923
 20
7.6103072821
 30
0.0
 10
13.1423239764
 20
7.6256238358
 30
0.0
 10
13.1423239764
 20
7.6333261813
 30
0.0
  0
SPLINE
  5
2E8
100
AcDbEntity
  8
0
100
AcDbSpline
 62
7
  6
CONTINUOUS
 70
0
 71
3
 72
53
 73
49
 74
0
 42
0.0000001
 43
0.0000001
 44
0.0000000001
 40
0.0
 40
0.0
 40
0.0
 40
0.0
 40
0.0054464879
 40
0.011065768
 40
0.0169072847
 40
0.0230144767
 40
0.029424584
 40
0.0361689673
 40
0.0432736095
 40
0.0507596683
 40
0.0586441968
 40
0.0669405514
 40
0.075659118
 40
0.0848074925
 40
0.0943911385
 40
0.1044134029
 40
0.114876059
 40
0.1257792666
 40
0.1371219594
 40
0.148901841
 40
0.161115597
 40
0.1737589794
 40
0.1868268462
 40
0.2003133493
 40
0.2142118288
 40
0.2285150851
 40
0.2432151772
 40
0.258303733
 40
0.2737717188
 40
0.2896097247
 40
0.322354987
 40
0.3564555771
 40
0.3918206998
 40
0.4283540161
 40
0.4659542568
 40
0.5045157858
 40
0.5439291283
 40
0.5840814768
 40
0.6248571782
 40
0.6661382089
 40
0.7078046443
 40
0.749735115
 40
0.7918072832
 40
0.8338982443
 40
0.8758851467
 40
0.917645191
 40
0.9590571991
 40
1.0
 40
1.0
 40
1.0
 40
1.0
 10
13.3365066062
 20
8.4040027345
 30
0.0
 10
13.3350350025
 20
8.4037845755
 30
0.0
 10
13.3320670825
 20
8.4031788161
 30
0.0
 10
13.3276525471
 20
8.4017990295
 30
0.0
 10
13.3232217223
 20
8.3999392424
 30
0.0
 10
13.318778578
 20
8.3976020959
 30
0.0
 10
13.3143258377
 20
8.3947903332
 30
0.0
 10
13.3098664107
 20
8.3915066991
 30
0.0
 10
13.3054031656
 20
8.3877540341
 30
0.0
 10
13.3009389952
 20
8.3835354188
 30
0.0
 10
13.2964770088
 20
8.3788540679
 30
0.0
 10
13.2920202346
 20
8.3737136231
 30
0.0
 10
13.2875719929
 20
8.3681178973
 30
0.0
 10
13.2831354265
 20
8.3620711993
 30
0.0
 10
13.278713971
 20
8.3555780444
 30
0.0
 10
13.2743108487
 20
8.3486434325
 30
0.0
 10
13.2699295194
 20
8.3412726106
 30
0.0
 10
13.2655732605
 20
8.3334712616
 30
0.0
 10
13.261245493
 20
8.3252453552
 30
0.0
 10
13.2569495284
 20
8.3166012414
 30
0.0
 10
13.2526887119
 20
8.3075455861
 30
0.0
 10
13.2484663675
 20
8.2980853885
 30
0.0
 10
13.2442857468
 20
8.2882279789
 30
0.0
 10
13.2401501609
 20
8.2779809863
 30
0.0
 10
13.2360627638
 20
8.2673523716
 30
0.0
 10
13.2320268249
 20
8.2563503721
 30
0.0
 10
13.2280454041
 20
8.244983546
 30
0.0
 10
13.2241217021
 20
8.2332607169
 30
0.0
 10
13.2202586753
 20
8.2211909983
 30
0.0
 10
13.2151361207
 20
8.2044619811
 30
0.0
 10
13.2089177228
 20
8.182747849
 30
0.0
 10
13.2018247341
 20
8.155743303
 30
0.0
 10
13.1950426919
 20
8.1275936615
 30
0.0
 10
13.1885928458
 20
8.0983865244
 30
0.0
 10
13.1824954085
 20
8.0682126577
 30
0.0
 10
13.176769475
 20
8.0371659281
 30
0.0
 10
13.171432968
 20
8.0053429372
 30
0.0
 10
13.1665025831
 20
7.9728427311
 30
0.0
 10
13.1619937381
 20
7.9397664818
 30
0.0
 10
13.157920525
 20
7.9062171683
 30
0.0
 10
13.1542956687
 20
7.8722992541
 30
0.0
 10
13.1511304842
 20
7.838118355
 30
0.0
 10
13.1484348499
 20
7.8037809203
 30
0.0
 10
13.146217159
 20
7.7693938621
 30
0.0
 10
13.1444843316
 20
7.7350643249
 30
0.0
 10
13.1432417196
 20
7.7008990853
 30
0.0
 10
13.1424932087
 20
7.6670047627
 30
0.0
 10
13.1423239764
 20
7.6445095439
 30
0.0
 10
13.1423239764
 20
7.6333261813
 30
0.0
  0
SPLINE
  5
2E9
100
AcDbEntity
  8
0
100
AcDbSpline
 62
7
  6
CONTINUOUS
 70
0
 71
3
 72
46
 73
42
 74
0
 42
0.0000001
 43
0.0000001
 44
0.0000000001
 40
0.0
 40
0.0
 40
0.0
 40
0.0
 40
0.0309845287
 40
0.0621054833
 40
0.0933586366
 40
0.1247368504
 40
0.1562313024
 40
0.1878312058
 40
0.2195241168
 40
0.2512961224
 40
0.283132073
 40
0.3150158261
 40
0.3469305006
 40
0.3788587391
 40
0.4107829752
 40
0.4426857043
 40
0.4745497524
 40
0.5063585428
 40
0.538096354
 40
0.5697485705
 40
0.601301919
 40
0.6327446912
 40
0.6640669456
 40
0.6952606873
 40
0.7263200208
 40
0.7572412743
 40
0.7880230895
 40
0.8033640146
 40
0.8186706599
 40
0.8339435248
 40
0.8491832535
 40
0.8643906411
 40
0.8795666193
 40
0.8947122657
 40
0.9098287901
 40
0.9249175342
 40
0.9399799679
 40
0.9550176767
 40
0.9700323645
 40
0.9850258369
 40
1.0
 40
1.0
 40
1.0
 40
1.0
 10
10.096715288
 20
7.3209458037
 30
0.0
 10
10.0791384084
 20
7.3221647645
 30
0.0
 10
10.0439763874
 20
7.3257556678
 30
0.0
 10
9.9915856465
 20
7.3345403403
 30
0.0
 10
9.9396416418
 20
7.3466981527
 30
0.0
 10
9.8883679753
 20
7.3621770719
 30
0.0
 10
9.8379818386
 20
7.3809109567
 30
0.0
 10
9.7886975051
 20
7.4028199621
 30
0.0
 10
9.7407243059
 20
7.4278107621
 30
0.0
 10
9.6942660422
 20
7.4557769668
 30
0.0
 10
9.6495200504
 20
7.4865995859
 30
0.0
 10
9.6066764004
 20
7.5201475404
 30
0.0
 10
9.5659170901
 20
7.5562782138
 30
0.0
 10
9.5274152811
 20
7.5948380534
 30
0.0
 10
9.4913345736
 20
7.6356632202
 30
0.0
 10
9.4578282925
 20
7.6785802577
 30
0.0
 10
9.4270388519
 20
7.7234068387
 30
0.0
 10
9.3990971639
 20
7.7699525402
 30
0.0
 10
9.3741220848
 20
7.8180196424
 30
0.0
 10
9.3522199117
 20
7.8674039581
 30
0.0
 10
9.3334839383
 20
7.9178956956
 30
0.0
 10
9.3179940295
 20
7.9692803175
 30
0.0
 10
9.3058162899
 20
8.0213394979
 30
0.0
 10
9.2970027817
 20
8.0738518665
 30
0.0
 10
9.2915913561
 20
8.1265945988
 30
0.0
 10
9.2896052521
 20
8.1793418979
 30
0.0
 10
9.290813808
 20
8.2231699285
 30
0.0
 10
9.293500088
 20
8.2580030276
 30
0.0
 10
9.2963673127
 20
8.2839624366
 30
0.0
 10
9.3000862147
 20
8.3097551916
 30
0.0
 10
9.3046528844
 20
8.3353541938
 30
0.0
 10
9.3100623502
 20
8.3607321271
 30
0.0
 10
9.3163090516
 20
8.3858619668
 30
0.0
 10
9.3233861582
 20
8.4107170045
 30
0.0
 10
9.3312863028
 20
8.4352707457
 30
0.0
 10
9.3400010113
 20
8.4594970712
 30
0.0
 10
9.3495210031
 20
8.4833702093
 30
0.0
 10
9.3598362497
 20
8.5068646732
 30
0.0
 10
9.3709356651
 20
8.5299556202
 30
0.0
 10
9.3828074342
 20
8.5526180239
 30
0.0
 10
9.3912338599
 20
8.5674343346
 30
0.0
 10
9.3955710469
 20
8.5747618795
 30
0.0
  0
SPLINE
  5
2EA
100
AcDbEntity
  8
0
100
AcDbSpline
 62
7
  6
CONTINUOUS
 70
0
 71
3
 72
48
 73
44
 74
0
 42
0.0000001
 43
0.0000001
 44
0.0000000001
 40
0.0
 40
0.0
 40
0.0
 40
0.0
 40
0.0310009945
 40
0.0621400892
 40
0.0934129125
 40
0.1248120869
 40
0.1563284798
 40
0.1879509389
 40
0.2196666018
 40
0.2514610998
 40
0.2833188023
 40
0.3152230743
 40
0.3471565432
 40
0.379101376
 40
0.4110395605
 40
0.4429531895
 40
0.474824743
 40
0.5066373659
 40
0.538375139
 40
0.5700233388
 40
0.6015686843
 40
0.6329995655
 40
0.66430625
 40
0.6954810657
 40
0.7265185541
 40
0.7419868179
 40
0.7574197811
 40
0.7728174332
 40
0.7881799148
 40
0.8035075271
 40
0.8188007193
 40
0.8340600997
 40
0.8492864257
 40
0.8644806036
 40
0.8796436897
 40
0.8947768773
 40
0.9098815027
 40
0.9249590316
 40
0.9400110561
 40
0.9550392906
 40
0.970045557
 40
0.9850317859
 40
1.0
 40
1.0
 40
1.0
 40
1.0
 10
10.1061293227
 20
7.350323507
 30
0.0
 10
10.0887858829
 20
7.3515262787
 30
0.0
 10
10.0540906663
 20
7.3550833958
 30
0.0
 10
10.0024025285
 20
7.363812513
 30
0.0
 10
9.9511659534
 20
7.3759092443
 30
0.0
 10
9.9006068815
 20
7.3913205498
 30
0.0
 10
9.8509447029
 20
7.4099789723
 30
0.0
 10
9.8023957696
 20
7.4318030496
 30
0.0
 10
9.755171316
 20
7.4566975404
 30
0.0
 10
9.7094768524
 20
7.4845538718
 30
0.0
 10
9.6655112073
 20
7.5152506347
 30
0.0
 10
9.6234656948
 20
7.548654105
 30
0.0
 10
9.5835232846
 20
7.5846188218
 30
0.0
 10
9.5458578213
 20
7.6229882192
 30
0.0
 10
9.5106332444
 20
7.6635952743
 30
0.0
 10
9.4780028929
 20
7.706263247
 30
0.0
 10
9.4481088561
 20
7.750806454
 30
0.0
 10
9.4210813575
 20
7.7970310636
 30
0.0
 10
9.3970381932
 20
7.8447359346
 30
0.0
 10
9.3760842201
 20
7.8937134666
 30
0.0
 10
9.3583108613
 20
7.9437505281
 30
0.0
 10
9.3437957493
 20
7.9946292183
 30
0.0
 10
9.3326023722
 20
8.046128457
 30
0.0
 10
9.3247798399
 20
8.0980225011
 30
0.0
 10
9.3210944726
 20
8.1414628885
 30
0.0
 10
9.3198646292
 20
8.1761809696
 30
0.0
 10
9.3198001487
 20
8.2021498439
 30
0.0
 10
9.3205928636
 20
8.2280471026
 30
0.0
 10
9.3222419371
 20
8.2538448632
 30
0.0
 10
9.3247454572
 20
8.2795149194
 30
0.0
 10
9.3281008895
 20
8.3050292935
 30
0.0
 10
9.3323044162
 20
8.3303601823
 30
0.0
 10
9.3373515762
 20
8.3554799557
 30
0.0
 10
9.3432368654
 20
8.3803612225
 30
0.0
 10
9.3499537963
 20
8.4049768755
 30
0.0
 10
9.3574952151
 20
8.4293000278
 30
0.0
 10
9.3658527298
 20
8.4533042102
 30
0.0
 10
9.3750173869
 20
8.4769631945
 30
0.0
 10
9.3849791323
 20
8.5002512093
 30
0.0
 10
9.395727077
 20
8.5231428441
 30
0.0
 10
9.4072496783
 20
8.5456131687
 30
0.0
 10
9.4195339908
 20
8.5676374173
 30
0.0
 10
9.4282279119
 20
8.5820156054
 30
0.0
 10
9.4326967267
 20
8.5891212185
 30
0.0
  0
SPLINE
  5
2EB
100
AcDbEntity
  8
0
100
AcDbSpline
 62
7
  6
CONTINUOUS
 70
0
 71
3
 72
26
 73
22
 74
0
 42
0.0000001
 43
0.0000001
 44
0.0000000001
 40
0.0
 40
0.0
 40
0.0
 40
0.0
 40
0.063823911
 40
0.127438084
 40
0.1908404865
 40
0.254036968
 40
0.2855616076
 40
0.3170367514
 40
0.3798378923
 40
0.4424542568
 40
0.5048967709
 40
0.5671780737
 40
0.6293123693
 40
0.6913153167
 40
0.7222752844
 40
0.7532088805
 40
0.8150011735
 40
0.8767162776
 40
0.9075535934
 40
0.9383791103
 40
1.0
 40
1.0
 40
1.0
 40
1.0
 10
11.3258086742
 20
7.0416047653
 30
0.0
 10
11.3361496202
 20
7.0408876182
 30
0.0
 10
11.3568350355
 20
7.0399467236
 30
0.0
 10
11.3878412388
 20
7.040024526
 30
0.0
 10
11.4187062507
 20
7.0415937147
 30
0.0
 10
11.4442716667
 20
7.0441433059
 30
0.0
 10
11.4645796588
 20
7.0469248796
 30
0.0
 10
11.4847499087
 20
7.0501934582
 30
0.0
 10
11.5097466238
 20
7.0551967801
 30
0.0
 10
11.5393427053
 20
7.0626618744
 30
0.0
 10
11.5684500635
 20
7.0715667653
 30
0.0
 10
11.5970016002
 20
7.0818910749
 30
0.0
 10
11.6249315008
 20
7.0936109753
 30
0.0
 10
11.6476473806
 20
7.1045242613
 30
0.0
 10
11.6654417808
 20
7.1139232885
 30
0.0
 10
11.6829617471
 20
7.1237547986
 30
0.0
 10
11.7043613976
 20
7.1368619368
 30
0.0
 10
11.7250509905
 20
7.1510358274
 30
0.0
 10
11.7411365774
 20
7.1629882007
 30
0.0
 10
11.7568984552
 20
7.1753387947
 30
0.0
 10
11.768358762
 20
7.1850524381
 30
0.0
 10
11.7758247872
 20
7.1917171396
 30
0.0
  0
SPLINE
  5
2EC
100
AcDbEntity
  8
0
100
AcDbSpline
 62
7
  6
CONTINUOUS
 70
0
 71
3
 72
52
 73
48
 74
0
 42
0.0000001
 43
0.0000001
 44
0.0000000001
 40
0.0
 40
0.0
 40
0.0
 40
0.0
 40
0.0311208547
 40
0.0623922951
 40
0.0938087376
 40
0.1253608425
 40
0.1570369732
 40
0.1888229969
 40
0.2207026768
 40
0.2526579912
 40
0.2846694876
 40
0.3167166569
 40
0.3487783216
 40
0.3808330335
 40
0.4128594745
 40
0.4448368553
 40
0.4767453069
 40
0.5085662622
 40
0.5402828175
 40
0.5718800705
 40
0.6033454296
 40
0.6190278265
 40
0.6346737297
 40
0.6502823326
 40
0.6658530113
 40
0.6813853417
 40
0.6968790891
 40
0.7123342204
 40
0.7277509047
 40
0.7431295061
 40
0.7584705962
 40
0.7737749406
 40
0.7890435022
 40
0.8042774397
 40
0.8194780933
 40
0.8346469911
 40
0.8497858319
 40
0.8648964803
 40
0.8799809614
 40
0.8950414412
 40
0.9100802247
 40
0.9250997385
 40
0.9401025158
 40
0.9550911894
 40
0.9700684687
 40
0.98503713
 40
1.0
 40
1.0
 40
1.0
 40
1.0
 10
11.3258086742
 20
7.0416047653
 30
0.0
 10
11.3102073594
 20
7.0426867201
 30
0.0
 10
11.2789959292
 20
7.0459797813
 30
0.0
 10
11.2325472046
 20
7.0542413718
 30
0.0
 10
11.1865804413
 20
7.065794471
 30
0.0
 10
11.1413361592
 20
7.0805789422
 30
0.0
 10
11.0970472872
 20
7.0985180062
 30
0.0
 10
11.0539427435
 20
7.1195187047
 30
0.0
 10
11.0122450113
 20
7.1434722647
 30
0.0
 10
10.9721693782
 20
7.1702547571
 30
0.0
 10
10.9339227371
 20
7.199727712
 30
0.0
 10
10.8977025722
 20
7.2317388403
 30
0.0
 10
10.8636958985
 20
7.2661227604
 30
0.0
 10
10.8320783192
 20
7.3027018712
 30
0.0
 10
10.8030131554
 20
7.3412872906
 30
0.0
 10
10.7766506084
 20
7.3816797971
 30
0.0
 10
10.7531269892
 20
7.4236708948
 30
0.0
 10
10.7325639795
 20
7.4670436605
 30
0.0
 10
10.7150679524
 20
7.511574562
 30
0.0
 10
10.7007298499
 20
7.55703211
 30
0.0
 10
10.6914636828
 20
7.5955387118
 30
0.0
 10
10.6857019495
 20
7.6265685853
 30
0.0
 10
10.6822129272
 20
7.6499009049
 30
0.0
 10
10.6795565905
 20
7.6732858724
 30
0.0
 10
10.6777363769
 20
7.6966936
 30
0.0
 10
10.6767545278
 20
7.720093702
 30
0.0
 10
10.6766124853
 20
7.743455941
 30
0.0
 10
10.6773103488
 20
7.7667500812
 30
0.0
 10
10.6788472255
 20
7.7899459916
 30
0.0
 10
10.6812212558
 20
7.8130136485
 30
0.0
 10
10.6844292179
 20
7.8359232208
 30
0.0
 10
10.6884671274
 20
7.8586450445
 30
0.0
 10
10.6933297052
 20
7.8811497227
 30
0.0
 10
10.6990106343
 20
7.9034081432
 30
0.0
 10
10.705502714
 20
7.9253914601
 30
0.0
 10
10.7127973903
 20
7.9470712673
 30
0.0
 10
10.7208853631
 20
7.968419463
 30
0.0
 10
10.7297561428
 20
7.9894084191
 30
0.0
 10
10.7393981905
 20
8.010010998
 30
0.0
 10
10.7497991826
 20
8.0302004564
 30
0.0
 10
10.7609455127
 20
8.0499507323
 30
0.0
 10
10.7728228551
 20
8.069236204
 30
0.0
 10
10.7854158469
 20
8.0880319016
 30
0.0
 10
10.7987080816
 20
8.1063135302
 30
0.0
 10
10.8126825812
 20
8.1240573978
 30
0.0
 10
10.827320814
 20
8.1412403202
 30
0.0
 10
10.8375116428
 20
8.1523089762
 30
0.0
 10
10.8427102377
 20
8.1577414368
 30
0.0
  0
SPLINE
  5
2ED
100
AcDbEntity
  8
0
100
AcDbSpline
 62
7
  6
CONTINUOUS
 70
0
 71
3
 72
44
 73
40
 74
0
 42
0.0000001
 43
0.0000001
 44
0.0000000001
 40
0.0
 40
0.0
 40
0.0
 40
0.0
 40
0.0309456505
 40
0.0620238281
 40
0.0932306164
 40
0.1245594247
 40
0.156002124
 40
0.1875487514
 40
0.219187807
 40
0.2509064083
 40
0.2826904972
 40
0.3145250535
 40
0.3463943203
 40
0.3782820352
 40
0.4101716683
 40
0.4420466618
 40
0.4738906702
 40
0.5056877985
 40
0.5374228358
 40
0.5690814822
 40
0.6006505656
 40
0.6321182458
 40
0.6634742041
 40
0.6947098149
 40
0.7258182957
 40
0.7567948345
 40
0.7876366899
 40
0.8030087861
 40
0.8183471674
 40
0.8336521026
 40
0.84892399
 40
0.864163371
 40
0.8793709155
 40
0.9096897904
 40
0.9398926055
 40
0.9549555944
 40
0.9699934565
 40
0.9850077153
 40
1.0
 40
1.0
 40
1.0
 40
1.0
 10
10.1774667634
 20
7.4192301875
 30
0.0
 10
10.1608182864
 20
7.4203847633
 30
0.0
 10
10.1275139103
 20
7.4237548856
 30
0.0
 10
10.0778754518
 20
7.4319387358
 30
0.0
 10
10.0286365306
 20
7.4432295291
 30
0.0
 10
9.9799972866
 20
7.4575816434
 30
0.0
 10
9.9321522631
 20
7.4749371719
 30
0.0
 10
9.8852935807
 20
7.4952262743
 30
0.0
 10
9.8396091686
 20
7.5183673336
 30
0.0
 10
9.7952822925
 20
7.5442673448
 30
0.0
 10
9.7524907472
 20
7.5728222602
 30
0.0
 10
9.7114061653
 20
7.6039174066
 30
0.0
 10
9.6721933373
 20
7.637427955
 30
0.0
 10
9.6350095565
 20
7.6732194171
 30
0.0
 10
9.6000039938
 20
7.7111481811
 30
0.0
 10
9.5673171047
 20
7.7510620833
 30
0.0
 10
9.5370800689
 20
7.7928010136
 30
0.0
 10
9.5094142706
 20
7.8361975532
 30
0.0
 10
9.4844308018
 20
7.881077633
 30
0.0
 10
9.4622300212
 20
7.9272612299
 30
0.0
 10
9.4429011613
 20
7.9745630892
 30
0.0
 10
9.4265219682
 20
8.0227934481
 30
0.0
 10
9.4131583914
 20
8.0717588315
 30
0.0
 10
9.402864309
 20
8.1212626611
 30
0.0
 10
9.3956813389
 20
8.1711066232
 30
0.0
 10
9.3916385479
 20
8.2210892782
 30
0.0
 10
9.3908995599
 20
8.2627405898
 30
0.0
 10
9.3918936332
 20
8.2959244499
 30
0.0
 10
9.3934276328
 20
8.3206967511
 30
0.0
 10
9.3957492692
 20
8.3453531976
 30
0.0
 10
9.3988563582
 20
8.369869235
 30
0.0
 10
9.4027456766
 20
8.3942204796
 30
0.0
 10
9.4089623328
 20
8.4264002545
 30
0.0
 10
9.4186639825
 20
8.4661025633
 30
0.0
 10
9.4309287322
 20
8.5050082764
 30
0.0
 10
9.4422363338
 20
8.535505169
 30
0.0
 10
9.4514489552
 20
8.5580284456
 30
0.0
 10
9.4613909833
 20
8.5801970635
 30
0.0
 10
9.468503865
 20
8.5947360018
 30
0.0
 10
9.4721782033
 20
8.6019379343
 30
0.0
  0
SPLINE
  5
2EE
100
AcDbEntity
  8
0
100
AcDbSpline
 62
7
  6
CONTINUOUS
 70
0
 71
3
 72
39
 73
35
 74
0
 42
0.0000001
 43
0.0000001
 44
0.0000000001
 40
0.0
 40
0.0
 40
0.0
 40
0.0
 40
0.0309949962
 40
0.0621273934
 40
0.0933928598
 40
0.1247841195
 40
0.1562921856
 40
0.1879060572
 40
0.2196130556
 40
0.2513990089
 40
0.2832484946
 40
0.3151450898
 40
0.3470716336
 40
0.379010498
 40
0.4109438629
 40
0.442853994
 40
0.474723519
 40
0.5065357007
 40
0.5382747029
 40
0.5699258461
 40
0.6014758499
 40
0.6329130582
 40
0.6642276447
 40
0.6954117934
 40
0.7264598532
 40
0.7573684594
 40
0.7881366229
 40
0.8187657783
 40
0.8492597925
 40
0.8796249286
 40
0.909869765
 40
0.940005068
 40
0.9700436194
 40
1.0
 40
1.0
 40
1.0
 40
1.0
 10
10.1981722699
 20
7.5165042429
 30
0.0
 10
10.1826144779
 20
7.5175831794
 30
0.0
 10
10.151491478
 20
7.5207686832
 30
0.0
 10
10.1051223999
 20
7.5285754245
 30
0.0
 10
10.0591542136
 20
7.5393878735
 30
0.0
 10
10.0137875452
 20
7.5531591136
 30
0.0
 10
9.9692172198
 20
7.5698294748
 30
0.0
 10
9.925635399
 20
7.5893269238
 30
0.0
 10
9.8832297494
 20
7.6115672441
 30
0.0
 10
9.8421829191
 20
7.6364544623
 30
0.0
 10
9.8026716797
 20
7.6638812332
 30
0.0
 10
9.764866187
 20
7.6937293005
 30
0.0
 10
9.7289292576
 20
7.7258700163
 30
0.0
 10
9.6950156751
 20
7.7601648894
 30
0.0
 10
9.6632715288
 20
7.796466178
 30
0.0
 10
9.6338335907
 20
7.8346175209
 30
0.0
 10
9.6068287303
 20
7.874454604
 30
0.0
 10
9.5823733741
 20
7.9158058631
 30
0.0
 10
9.5605729957
 20
7.9584932094
 30
0.0
 10
9.5415216632
 20
8.0023327912
 30
0.0
 10
9.5253016444
 20
8.0471357843
 30
0.0
 10
9.5119830501
 20
8.0927091941
 30
0.0
 10
9.5016235308
 20
8.1388566776
 30
0.0
 10
9.4942680243
 20
8.1853793801
 30
0.0
 10
9.4899485558
 20
8.2320767811
 30
0.0
 10
9.4886840939
 20
8.2787475508
 30
0.0
 10
9.4904804401
 20
8.3251904078
 30
0.0
 10
9.4953302062
 20
8.3712049898
 30
0.0
 10
9.5032128241
 20
8.4165926917
 30
0.0
 10
9.5140946652
 20
8.461157599
 30
0.0
 10
9.5279289927
 20
8.504707044
 30
0.0
 10
9.5446567999
 20
8.5470535228
 30
0.0
 10
9.5642046242
 20
8.5880115045
 30
0.0
 10
9.5790818257
 20
8.6143105714
 30
0.0
 10
9.5869571803
 20
8.627162086
 30
0.0
  0
SPLINE
  5
2EF
100
AcDbEntity
  8
0
100
AcDbSpline
 62
7
  6
CONTINUOUS
 70
0
 71
3
 72
52
 73
48
 74
0
 42
0.0000001
 43
0.0000001
 44
0.0000000001
 40
0.0
 40
0.0
 40
0.0
 40
0.0
 40
0.0417978167
 40
0.0840615308
 40
0.1266599452
 40
0.1694647093
 40
0.2123442471
 40
0.2551676124
 40
0.2978038023
 40
0.340122612
 40
0.381995097
 40
0.4232940911
 40
0.4638947378
 40
0.5036750193
 40
0.5425163039
 40
0.5803039261
 40
0.6169277796
 40
0.6522829323
 40
0.686270301
 40
0.7187974019
 40
0.7497792075
 40
0.7646667639
 40
0.7791400971
 40
0.7931911326
 40
0.8068125303
 40
0.8199977802
 40
0.8327410449
 40
0.8450376044
 40
0.8568835364
 40
0.868276178
 40
0.8792140523
 40
0.8896970245
 40
0.8997266904
 40
0.9093062438
 40
0.9184411643
 40
0.9271391635
 40
0.9354108014
 40
0.9432698937
 40
0.9507338843
 40
0.9578247196
 40
0.9645691193
 40
0.9709994962
 40
0.9771542504
 40
0.983078108
 40
0.9888220398
 40
0.9944424548
 40
1.0
 40
1.0
 40
1.0
 40
1.0
 10
9.4654316416
 20
10.475128057
 30
0.0
 10
9.4590467505
 20
10.4755708507
 30
0.0
 10
9.4461985074
 20
10.4763592939
 30
0.0
 10
9.4268236117
 20
10.4772491663
 30
0.0
 10
9.4072833362
 20
10.47785099
 30
0.0
 10
9.3876419977
 20
10.4781628334
 30
0.0
 10
9.3679637494
 20
10.4781836291
 30
0.0
 10
9.3483131601
 20
10.477913327
 30
0.0
 10
9.3287545928
 20
10.4773528071
 30
0.0
 10
9.309352142
 20
10.4765039248
 30
0.0
 10
9.2901693776
 20
10.4753694848
 30
0.0
 10
9.2712691443
 20
10.473953234
 30
0.0
 10
9.2527133549
 20
10.4722598501
 30
0.0
 10
9.234562786
 20
10.4702949265
 30
0.0
 10
9.2168768737
 20
10.4680649538
 30
0.0
 10
9.1997135136
 20
10.4655773057
 30
0.0
 10
9.1831288597
 20
10.4628402151
 30
0.0
 10
9.1671771523
 20
10.4598627394
 30
0.0
 10
9.1519104758
 20
10.4566547426
 30
0.0
 10
9.1373787774
 20
10.4532268276
 30
0.0
 10
9.1257717096
 20
10.450157105
 30
0.0
 10
9.1168944846
 20
10.4475926896
 30
0.0
 10
9.1105378709
 20
10.4456471367
 30
0.0
 10
9.1043990834
 20
10.4436553738
 30
0.0
 10
9.0984831303
 20
10.4416190036
 30
0.0
 10
9.0927948309
 20
10.439539749
 30
0.0
 10
9.0873388358
 20
10.4374192404
 30
0.0
 10
9.0821195682
 20
10.435259294
 30
0.0
 10
9.0771412848
 20
10.4330616076
 30
0.0
 10
9.0724080154
 20
10.4308280081
 30
0.0
 10
9.0679235859
 20
10.428560315
 30
0.0
 10
9.0636916351
 20
10.4262603116
 30
0.0
 10
9.059715534
 20
10.4239299257
 30
0.0
 10
9.055998512
 20
10.4215709149
 30
0.0
 10
9.0525434991
 20
10.4191852178
 30
0.0
 10
9.0493532708
 20
10.4167746281
 30
0.0
 10
9.0464303723
 20
10.414340975
 30
0.0
 10
9.0437771042
 20
10.4118861008
 30
0.0
 10
9.0413956954
 20
10.4094116775
 30
0.0
 10
9.0392880512
 20
10.4069195235
 30
0.0
 10
9.037456144
 20
10.4044112279
 30
0.0
 10
9.0359017131
 20
10.401888538
 30
0.0
 10
9.0346265285
 20
10.3993531704
 30
0.0
 10
9.0336323746
 20
10.3968070447
 30
0.0
 10
9.0329207541
 20
10.3942522714
 30
0.0
 10
9.032493226
 20
10.391691764
 30
0.0
 10
9.0323979615
 20
10.3899786757
 30
0.0
 10
9.0323979695
 20
10.3891276851
 30
0.0
  0
SPLINE
  5
2F0
100
AcDbEntity
  8
0
100
AcDbSpline
 62
7
  6
CONTINUOUS
 70
0
 71
3
 72
50
 73
46
 74
0
 42
0.0000001
 43
0.0000001
 44
0.0000000001
 40
0.0
 40
0.0
 40
0.0
 40
0.0
 40
0.0830097588
 40
0.1658070749
 40
0.2475796565
 40
0.287864914
 40
0.3276487351
 40
0.3668656189
 40
0.4054566116
 40
0.4433683325
 40
0.4805515969
 40
0.5169602863
 40
0.5525503883
 40
0.5872784984
 40
0.6211007345
 40
0.6539716965
 40
0.6858430271
 40
0.7166628399
 40
0.7316609283
 40
0.7463745884
 40
0.7607957021
 40
0.774916312
 40
0.7887278886
 40
0.8022214241
 40
0.8153882905
 40
0.8282192443
 40
0.8407051663
 40
0.8528375782
 40
0.8646078374
 40
0.876008631
 40
0.8870336602
 40
0.897678264
 40
0.9079404896
 40
0.9178211697
 40
0.9273255497
 40
0.9364636979
 40
0.9452520218
 40
0.9495226906
 40
0.9537154159
 40
0.9618830321
 40
0.9697965607
 40
0.9775051431
 40
0.9850660143
 40
0.9925425934
 40
1.0
 40
1.0
 40
1.0
 40
1.0
 10
9.9247315226
 20
8.605049326
 30
0.0
 10
9.9260330173
 20
8.5876063944
 30
0.0
 10
9.9293609204
 20
8.5528158254
 30
0.0
 10
9.9363288583
 20
8.5011033808
 30
0.0
 10
9.9436047829
 20
8.4585457989
 30
0.0
 10
9.9501612313
 20
8.4250784444
 30
0.0
 10
9.9553656015
 20
8.400486785
 30
0.0
 10
9.9608384642
 20
8.376319614
 30
0.0
 10
9.9665361338
 20
8.3526100827
 30
0.0
 10
9.9724139568
 20
8.3293864772
 30
0.0
 10
9.9784263114
 20
8.3066728156
 30
0.0
 10
9.9845264864
 20
8.2844896559
 30
0.0
 10
9.990666214
 20
8.2628547953
 30
0.0
 10
9.9967951942
 20
8.2417839904
 30
0.0
 10
10.0028609249
 20
8.2212918192
 30
0.0
 10
10.0088077684
 20
8.201392358
 30
0.0
 10
10.0145759255
 20
8.1820998131
 30
0.0
 10
10.0192219726
 20
8.1664025743
 30
0.0
 10
10.0227834508
 20
8.1541549372
 30
0.0
 10
10.0253427895
 20
8.1452145522
 30
0.0
 10
10.0278045325
 20
8.136438669
 30
0.0
 10
10.030158745
 20
8.1278302153
 30
0.0
 10
10.032394738
 20
8.1193923125
 30
0.0
 10
10.0345009836
 20
8.1111282868
 30
0.0
 10
10.0364661294
 20
8.1030420178
 30
0.0
 10
10.0382777531
 20
8.0951375844
 30
0.0
 10
10.0399229242
 20
8.0874194885
 30
0.0
 10
10.041388678
 20
8.0798927902
 30
0.0
 10
10.0426609408
 20
8.0725628103
 30
0.0
 10
10.0437256123
 20
8.0654354928
 30
0.0
 10
10.0445681663
 20
8.0585171924
 30
0.0
 10
10.0451736332
 20
8.0518147189
 30
0.0
 10
10.0455270574
 20
8.0453353928
 30
0.0
 10
10.0456135161
 20
8.0390869073
 30
0.0
 10
10.0454178777
 20
8.0330773475
 30
0.0
 10
10.0449261265
 20
8.0273153012
 30
0.0
 10
10.0442512188
 20
8.0226834868
 30
0.0
 10
10.0435456963
 20
8.0191167152
 30
0.0
 10
10.0427446331
 20
8.0157044808
 30
0.0
 10
10.0415380522
 20
8.0116015579
 30
0.0
 10
10.0397329214
 20
8.0069185302
 30
0.0
 10
10.0375743531
 20
8.0025286167
 30
0.0
 10
10.0350576917
 20
7.9984405683
 30
0.0
 10
10.0321803387
 20
7.9946642377
 30
0.0
 10
10.0300257619
 20
7.9923620043
 30
0.0
 10
10.0288955332
 20
7.9912702871
 30
0.0
  0
SPLINE
  5
2F1
100
AcDbEntity
  8
0
100
AcDbSpline
 62
7
  6
CONTINUOUS
 70
0
 71
3
 72
23
 73
19
 74
0
 42
0.0000001
 43
0.0000001
 44
0.0000000001
 40
0.0
 40
0.0
 40
0.0
 40
0.0
 40
0.0532701143
 40
0.1070475034
 40
0.161558016
 40
0.2170113984
 40
0.273595562
 40
0.3314765984
 40
0.3907897441
 40
0.4516439276
 40
0.5141256387
 40
0.5782959705
 40
0.6441969182
 40
0.7118529384
 40
0.7812716164
 40
0.8524475774
 40
0.925365199
 40
1.0
 40
1.0
 40
1.0
 40
1.0
 10
10.0288955332
 20
7.9912702871
 30
0.0
 10
10.0280612071
 20
7.9904643899
 30
0.0
 10
10.0263236786
 20
7.9889067402
 30
0.0
 10
10.0235378568
 20
7.9867536138
 30
0.0
 10
10.0205666114
 20
7.9847772713
 30
0.0
 10
10.0174141326
 20
7.9829788657
 30
0.0
 10
10.0140851195
 20
7.9813581264
 30
0.0
 10
10.0105843733
 20
7.9799152983
 30
0.0
 10
10.0069175162
 20
7.9786495073
 30
0.0
 10
10.0030904527
 20
7.9775598404
 30
0.0
 10
9.9991093707
 20
7.9766454273
 30
0.0
 10
9.9949808557
 20
7.9759045327
 30
0.0
 10
9.9907116036
 20
7.9753356369
 30
0.0
 10
9.9863084758
 20
7.9749370062
 30
0.0
 10
9.9817784594
 20
7.9747065224
 30
0.0
 10
9.9771285475
 20
7.9746421987
 30
0.0
 10
9.972365791
 20
7.9747419006
 30
0.0
 10
9.9691567415
 20
7.9749142305
 30
0.0
 10
9.9675353845
 20
7.9750261531
 30
0.0
  0
SPLINE
  5
2F2
100
AcDbEntity
  8
0
100
AcDbSpline
 62
7
  6
CONTINUOUS
 70
0
 71
3
 72
39
 73
35
 74
0
 42
0.0000001
 43
0.0000001
 44
0.0000000001
 40
0.0
 40
0.0
 40
0.0
 40
0.0
 40
0.0308190831
 40
0.061714653
 40
0.0926838729
 40
0.1237235079
 40
0.1548298168
 40
0.1859986911
 40
0.2172256618
 40
0.2485059161
 40
0.2798343284
 40
0.3112054998
 40
0.3426137864
 40
0.3740533262
 40
0.4055180829
 40
0.4370018779
 40
0.4684984191
 40
0.5000013459
 40
0.5315042627
 40
0.5630007692
 40
0.5944845049
 40
0.6259491833
 40
0.6573886208
 40
0.6887967818
 40
0.7201678106
 40
0.7514960584
 40
0.7827761269
 40
0.8140028976
 40
0.8451715551
 40
0.8762776268
 40
0.9073170101
 40
0.938285989
 40
0.9691812689
 40
1.0
 40
1.0
 40
1.0
 40
1.0
 10
10.5599118648
 20
7.9704482745
 30
0.0
 10
10.5506201553
 20
7.972346564
 30
0.0
 10
10.5320853931
 20
7.976509002
 30
0.0
 10
10.5045128401
 20
7.9838276436
 30
0.0
 10
10.4771758565
 20
7.9922179146
 30
0.0
 10
10.4501178674
 20
8.0016665162
 30
0.0
 10
10.423381208
 20
8.0121587313
 30
0.0
 10
10.3970078503
 20
8.0236779911
 30
0.0
 10
10.3710391487
 20
8.0362061843
 30
0.0
 10
10.3455158919
 20
8.0497237219
 30
0.0
 10
10.320478102
 20
8.0642093288
 30
0.0
 10
10.2959650371
 20
8.0796402275
 30
0.0
 10
10.2720152031
 20
8.0959922697
 30
0.0
 10
10.2486661629
 20
8.1132397633
 30
0.0
 10
10.2259545113
 20
8.1313555904
 30
0.0
 10
10.2039159288
 20
8.1503113812
 30
0.0
 10
10.1825849969
 20
8.1700773864
 30
0.0
 10
10.1619951313
 20
8.1906225338
 30
0.0
 10
10.1421786808
 20
8.2119146303
 30
0.0
 10
10.1231667639
 20
8.2339202839
 30
0.0
 10
10.1049891479
 20
8.2566049098
 30
0.0
 10
10.0876743905
 20
8.2799329454
 30
0.0
 10
10.0712497116
 20
8.3038678196
 30
0.0
 10
10.0557408139
 20
8.3283719261
 30
0.0
 10
10.0411720585
 20
8.3534068353
 30
0.0
 10
10.0275663828
 20
8.3789333039
 30
0.0
 10
10.0149450679
 20
8.4049112372
 30
0.0
 10
10.0033279327
 20
8.4312998822
 30
0.0
 10
9.9927333049
 20
8.458057866
 30
0.0
 10
9.9831777495
 20
8.4851431823
 30
0.0
 10
9.9746762695
 20
8.5125132903
 30
0.0
 10
9.967242288
 20
8.5401254177
 30
0.0
 10
9.960887539
 20
8.5679356626
 30
0.0
 10
9.9573724514
 20
8.5866038169
 30
0.0
 10
9.9557986525
 20
8.5959558473
 30
0.0
  0
SPLINE
  5
2F3
100
AcDbEntity
  8
0
100
AcDbSpline
 62
7
  6
CONTINUOUS
 70
0
 71
3
 72
25
 73
21
 74
0
 42
0.0000001
 43
0.0000001
 44
0.0000000001
 40
0.0
 40
0.0
 40
0.0
 40
0.0
 40
0.030887643
 40
0.061841381
 40
0.0928583857
 40
0.123935495
 40
0.1862468149
 40
0.2487539191
 40
0.3114223179
 40
0.3742144432
 40
0.4370903818
 40
0.5000086375
 40
0.5629269173
 40
0.6258029279
 40
0.6885951723
 40
0.7512637329
 40
0.8137710395
 40
0.8760826016
 40
0.9381676959
 40
1.0
 40
1.0
 40
1.0
 40
1.0
 10
10.5403455324
 20
8.033002871
 30
0.0
 10
10.5324750261
 20
8.0350666055
 30
0.0
 10
10.5167882236
 20
8.0394751269
 30
0.0
 10
10.4934799815
 20
8.0469117599
 30
0.0
 10
10.4703964479
 20
8.0551701449
 30
0.0
 10
10.4399354647
 20
8.0672717584
 30
0.0
 10
10.4025732069
 20
8.0844019215
 30
0.0
 10
10.3591585064
 20
8.1080260997
 30
0.0
 10
10.3173429214
 20
8.1346160007
 30
0.0
 10
10.2773452663
 20
8.1640326226
 30
0.0
 10
10.2393730537
 20
8.1961230382
 30
0.0
 10
10.2036238136
 20
8.2307203097
 30
0.0
 10
10.1702833663
 20
8.2676445055
 30
0.0
 10
10.1395250842
 20
8.3067036372
 30
0.0
 10
10.1115089758
 20
8.3476946458
 30
0.0
 10
10.0863808652
 20
8.3904045384
 30
0.0
 10
10.0642716374
 20
8.4346110712
 30
0.0
 10
10.0452962874
 20
8.4800852676
 30
0.0
 10
10.0295545095
 20
8.526587627
 30
0.0
 10
10.0212508973
 20
8.5581891957
 30
0.0
 10
10.0176668741
 20
8.5740781645
 30
0.0
  0
SPLINE
  5
2F4
100
AcDbEntity
  8
0
100
AcDbSpline
 62
7
  6
CONTINUOUS
 70
0
 71
3
 72
52
 73
48
 74
0
 42
0.0000001
 43
0.0000001
 44
0.0000000001
 40
0.0
 40
0.0
 40
0.0
 40
0.0
 40
0.0417978167
 40
0.0840615308
 40
0.1266599452
 40
0.1694647093
 40
0.2123442471
 40
0.2551676124
 40
0.2978038023
 40
0.340122612
 40
0.381995097
 40
0.4232940911
 40
0.4638947378
 40
0.5036750193
 40
0.5425163039
 40
0.5803039261
 40
0.6169277796
 40
0.6522829323
 40
0.686270301
 40
0.7187974019
 40
0.7497792075
 40
0.7646667639
 40
0.7791400971
 40
0.7931911326
 40
0.8068125303
 40
0.8199977802
 40
0.8327410449
 40
0.8450376044
 40
0.8568835364
 40
0.868276178
 40
0.8792140523
 40
0.8896970245
 40
0.8997266904
 40
0.9093062438
 40
0.9184411643
 40
0.9271391635
 40
0.9354108014
 40
0.9432698937
 40
0.9507338843
 40
0.9578247196
 40
0.9645691193
 40
0.9709994962
 40
0.9771542504
 40
0.983078108
 40
0.9888220398
 40
0.9944424548
 40
1.0
 40
1.0
 40
1.0
 40
1.0
 10
8.3659692232
 20
9.4131288491
 30
0.0
 10
8.3595843322
 20
9.4135716428
 30
0.0
 10
8.3467360891
 20
9.414360086
 30
0.0
 10
8.3273611934
 20
9.4152499585
 30
0.0
 10
8.3078209178
 20
9.4158517822
 30
0.0
 10
8.2881795793
 20
9.4161636256
 30
0.0
 10
8.2685013311
 20
9.4161844213
 30
0.0
 10
8.2488507418
 20
9.4159141192
 30
0.0
 10
8.2292921745
 20
9.4153535993
 30
0.0
 10
8.2098897237
 20
9.4145047169
 30
0.0
 10
8.1907069592
 20
9.4133702769
 30
0.0
 10
8.1718067259
 20
9.4119540262
 30
0.0
 10
8.1532509366
 20
9.4102606423
 30
0.0
 10
8.1351003676
 20
9.4082957187
 30
0.0
 10
8.1174144554
 20
9.4060657459
 30
0.0
 10
8.1002510953
 20
9.4035780979
 30
0.0
 10
8.0836664414
 20
9.4008410073
 30
0.0
 10
8.067714734
 20
9.3978635316
 30
0.0
 10
8.0524480574
 20
9.3946555347
 30
0.0
 10
8.0379163591
 20
9.3912276198
 30
0.0
 10
8.0263092912
 20
9.3881578972
 30
0.0
 10
8.0174320662
 20
9.3855934818
 30
0.0
 10
8.0110754526
 20
9.3836479289
 30
0.0
 10
8.004936665
 20
9.381656166
 30
0.0
 10
7.999020712
 20
9.3796197958
 30
0.0
 10
7.9933324126
 20
9.3775405412
 30
0.0
 10
7.9878764175
 20
9.3754200326
 30
0.0
 10
7.9826571499
 20
9.3732600862
 30
0.0
 10
7.9776788664
 20
9.3710623998
 30
0.0
 10
7.9729455971
 20
9.3688288003
 30
0.0
 10
7.9684611675
 20
9.3665611072
 30
0.0
 10
7.9642292167
 20
9.3642611038
 30
0.0
 10
7.9602531157
 20
9.3619307178
 30
0.0
 10
7.9565360937
 20
9.3595717071
 30
0.0
 10
7.9530810808
 20
9.35718601
 30
0.0
 10
7.9498908525
 20
9.3547754203
 30
0.0
 10
7.946967954
 20
9.3523417671
 30
0.0
 10
7.9443146859
 20
9.349886893
 30
0.0
 10
7.9419332771
 20
9.3474124697
 30
0.0
 10
7.9398256329
 20
9.3449203157
 30
0.0
 10
7.9379937257
 20
9.3424120201
 30
0.0
 10
7.9364392948
 20
9.3398893301
 30
0.0
 10
7.9351641102
 20
9.3373539626
 30
0.0
 10
7.9341699563
 20
9.3348078369
 30
0.0
 10
7.9334583358
 20
9.3322530636
 30
0.0
 10
7.9330308076
 20
9.3296925562
 30
0.0
 10
7.9329355431
 20
9.3279794679
 30
0.0
 10
7.9329355512
 20
9.3271284773
 30
0.0
  0
SPLINE
  5
2F5
100
AcDbEntity
  8
0
100
AcDbSpline
 62
7
  6
CONTINUOUS
 70
0
 71
3
 72
76
 73
72
 74
0
 42
0.0000001
 43
0.0000001
 44
0.0000000001
 40
0.0
 40
0.0
 40
0.0
 40
0.0
 40
0.0156747358
 40
0.0235325428
 40
0.0314031247
 40
0.0471815269
 40
0.0630096691
 40
0.0709422965
 40
0.0788865455
 40
0.0948074602
 40
0.1107706217
 40
0.1267727506
 40
0.1428102138
 40
0.1588790637
 40
0.1749750744
 40
0.1910937801
 40
0.2072305158
 40
0.2233804587
 40
0.2395386706
 40
0.2557001414
 40
0.2718598329
 40
0.2880127219
 40
0.304153845
 40
0.320278341
 40
0.3363814943
 40
0.3524587764
 40
0.3685058868
 40
0.384518792
 40
0.4004937632
 40
0.4164274116
 40
0.4323167216
 40
0.4481590813
 40
0.4639523095
 40
0.4796946803
 40
0.495384943
 40
0.5110223391
 40
0.5266066138
 40
0.542138024
 40
0.5576173411
 40
0.5730458482
 40
0.588425333
 40
0.6037580745
 40
0.6190468249
 40
0.6342947854
 40
0.6495055776
 40
0.6646832087
 40
0.6798320327
 40
0.6949567064
 40
0.7100621422
 40
0.7251534568
 40
0.7402359175
 40
0.7553148859
 40
0.7703957613
 40
0.7854839223
 40
0.8005846697
 40
0.8157031702
 40
0.8308444015
 40
0.8460131006
 40
0.8612137152
 40
0.8764503585
 40
0.8917267695
 40
0.9070462755
 40
0.9147237276
 40
0.9224129992
 40
0.9301143742
 40
0.9378281071
 40
0.9532923509
 40
0.9688083105
 40
0.9765865615
 40
0.9843782585
 40
1.0
 40
1.0
 40
1.0
 40
1.0
 10
9.7405805637
 20
8.6856689886
 30
0.0
 10
9.7553657895
 20
8.6846436297
 30
0.0
 10
9.7775301282
 20
8.6825605724
 30
0.0
 10
9.8069735342
 20
8.6787091205
 30
0.0
 10
9.8364127008
 20
8.6741318004
 30
0.0
 10
9.8730792197
 20
8.6670637182
 30
0.0
 10
9.9094221148
 20
8.6582343208
 30
0.0
 10
9.9382838433
 20
8.6501221102
 30
0.0
 10
9.9670287889
 20
8.6413016372
 30
0.0
 10
10.002629766
 20
8.6289780686
 30
0.0
 10
10.044686952
 20
8.6121646107
 30
0.0
 10
10.0860117467
 20
8.5933553031
 30
0.0
 10
10.1265040681
 20
8.5725956575
 30
0.0
 10
10.1660666256
 20
8.549935652
 30
0.0
 10
10.204604157
 20
8.5254298884
 30
0.0
 10
10.2420239246
 20
8.4991373877
 30
0.0
 10
10.2782358647
 20
8.4711214671
 30
0.0
 10
10.3131528231
 20
8.441449584
 30
0.0
 10
10.3466907607
 20
8.4101931775
 30
0.0
 10
10.3787689538
 20
8.3774274932
 30
0.0
 10
10.4093101878
 20
8.3432314037
 30
0.0
 10
10.4382409415
 20
8.3076872196
 30
0.0
 10
10.4654915641
 20
8.270880492
 30
0.0
 10
10.4909964416
 20
8.2328998079
 30
0.0
 10
10.5146941543
 20
8.193836578
 30
0.0
 10
10.5365276242
 20
8.1537848178
 30
0.0
 10
10.5564442519
 20
8.1128409227
 30
0.0
 10
10.5743960432
 20
8.0711034373
 30
0.0
 10
10.5903397244
 20
8.0286728198
 30
0.0
 10
10.6042368467
 20
7.9856512012
 30
0.0
 10
10.61605388
 20
7.9421421421
 30
0.0
 10
10.6257622963
 20
7.898250384
 30
0.0
 10
10.6333386354
 20
7.8540815984
 30
0.0
 10
10.6387645634
 20
7.8097421341
 30
0.0
 10
10.6420269177
 20
7.7653387623
 30
0.0
 10
10.6431177404
 20
7.7209784211
 30
0.0
 10
10.6420342991
 20
7.6767679594
 30
0.0
 10
10.6387790958
 20
7.6328138808
 30
0.0
 10
10.633359863
 20
7.5892220871
 30
0.0
 10
10.6257895476
 20
7.5460976249
 30
0.0
 10
10.6160862825
 20
7.5035444314
 30
0.0
 10
10.6042733461
 20
7.4616650844
 30
0.0
 10
10.5903791077
 20
7.4205605543
 30
0.0
 10
10.5744369656
 20
7.380329958
 30
0.0
 10
10.5564852673
 20
7.3410703186
 30
0.0
 10
10.5365672178
 20
7.3028763293
 30
0.0
 10
10.5147307775
 20
7.2658401229
 30
0.0
 10
10.4910285476
 20
7.2300510466
 30
0.0
 10
10.4655176445
 20
7.1955954433
 30
0.0
 10
10.4382595614
 20
7.1625564403
 30
0.0
 10
10.4093200202
 20
7.1310137453
 30
0.0
 10
10.3787688113
 20
7.1010434514
 30
0.0
 10
10.346679624
 20
7.0727178506
 30
0.0
 10
10.313129866
 20
7.0461052573
 30
0.0
 10
10.2782004745
 20
7.0212698412
 30
0.0
 10
10.2419757164
 20
6.9982714718
 30
0.0
 10
10.2045429894
 20
6.9771655711
 30
0.0
 10
10.1659925841
 20
6.9580029779
 30
0.0
 10
10.1264175446
 20
6.9408298419
 30
0.0
 10
10.0859131357
 20
6.9256874561
 30
0.0
 10
10.0445777533
 20
6.9126123729
 30
0.0
 10
10.0095454116
 20
6.9034716373
 30
0.0
 10
9.9812099257
 20
6.8972201408
 30
0.0
 10
9.9597962643
 20
6.8930616583
 30
0.0
 10
9.9382506298
 20
6.889439523
 30
0.0
 10
9.9093424236
 20
6.8853249861
 30
0.0
 10
9.872936977
 20
6.8815357018
 30
0.0
 10
9.8363274062
 20
6.8795623818
 30
0.0
 10
9.8069365301
 20
6.8790703156
 30
0.0
 10
9.7774430294
 20
6.8793042941
 30
0.0
 10
9.7553158025
 20
6.8802974557
 30
0.0
 10
9.7405805637
 20
6.8813193479
 30
0.0
  0
SPLINE
  5
2F6
100
AcDbEntity
  8
0
100
AcDbSpline
 62
7
  6
CONTINUOUS
 70
0
 71
3
 72
26
 73
22
 74
0
 42
0.0000001
 43
0.0000001
 44
0.0000000001
 40
0.0
 40
0.0
 40
0.0
 40
0.0
 40
0.0638610767
 40
0.0957116505
 40
0.127505992
 40
0.1909252329
 40
0.2541287749
 40
0.2856539756
 40
0.3171277433
 40
0.3485511975
 40
0.3799255757
 40
0.4425274868
 40
0.5049513675
 40
0.5672117261
 40
0.6293248414
 40
0.6913085928
 40
0.7531822771
 40
0.8149664042
 40
0.8766824761
 40
0.9383527515
 40
1.0
 40
1.0
 40
1.0
 40
1.0
 10
9.7594743505
 20
6.9700819803
 30
0.0
 10
9.773357046
 20
6.9691192121
 30
0.0
 10
9.7942046955
 20
6.9681947085
 30
0.0
 10
9.8219911768
 20
6.9680120099
 30
0.0
 10
9.8496777375
 20
6.9685283946
 30
0.0
 10
9.8841589852
 20
6.9704816872
 30
0.0
 10
9.9184379729
 20
6.9741834785
 30
0.0
 10
9.9456484544
 20
6.9781873432
 30
0.0
 10
9.9659234066
 20
6.9817061891
 30
0.0
 10
9.9860685319
 20
6.9857409959
 30
0.0
 10
10.0127167888
 20
6.9918004903
 30
0.0
 10
10.0456465179
 20
7.0006502373
 30
0.0
 10
10.0844695216
 20
7.0132939663
 30
0.0
 10
10.1224755953
 20
7.027922661
 30
0.0
 10
10.1595682844
 20
7.0444994357
 30
0.0
 10
10.1956543036
 20
7.0629826447
 30
0.0
 10
10.2306426841
 20
7.0833258069
 30
0.0
 10
10.264445182
 20
7.1054776494
 30
0.0
 10
10.296976896
 20
7.1293826863
 30
0.0
 10
10.3281547416
 20
7.1549796456
 30
0.0
 10
10.3479889711
 20
7.1731330318
 30
0.0
 10
10.3576511695
 20
7.1824659904
 30
0.0
  0
SPLINE
  5
2F7
100
AcDbEntity
  8
0
100
AcDbSpline
 62
7
  6
CONTINUOUS
 70
0
 71
3
 72
55
 73
51
 74
0
 42
0.0000001
 43
0.0000001
 44
0.0000000001
 40
0.0
 40
0.0
 40
0.0
 40
0.0
 40
0.0311423829
 40
0.0624377778
 40
0.093880312
 40
0.125460263
 40
0.1571654449
 40
0.188981101
 40
0.2208902864
 40
0.2528742194
 40
0.2849126594
 40
0.3169843077
 40
0.3490672249
 40
0.3811392539
 40
0.4131784475
 40
0.4451634934
 40
0.4770741292
 40
0.5088915435
 40
0.5247623142
 40
0.5406035882
 40
0.5564135909
 40
0.5721906992
 40
0.587933461
 40
0.6036405973
 40
0.6193110081
 40
0.6349437882
 40
0.6505382227
 40
0.666093798
 40
0.6816102083
 40
0.6970873494
 40
0.7125253318
 40
0.7279244759
 40
0.7432853089
 40
0.7586085732
 40
0.7738952136
 40
0.7891463785
 40
0.8043634177
 40
0.8195478679
 40
0.8347014538
 40
0.8498260762
 40
0.8649237983
 40
0.8799968426
 40
0.8950475728
 40
0.9100784807
 40
0.925092178
 40
0.940091374
 40
0.9550788642
 40
0.9700575152
 40
0.9850302429
 40
1.0
 40
1.0
 40
1.0
 40
1.0
 10
11.3092442686
 20
7.0256047771
 30
0.0
 10
11.2933938095
 20
7.0267040102
 30
0.0
 10
11.2616836777
 20
7.0300680645
 30
0.0
 10
11.2145029273
 20
7.0385422284
 30
0.0
 10
11.1678275265
 20
7.050411942
 30
0.0
 10
11.1219095417
 20
7.0656134281
 30
0.0
 10
11.0769929471
 20
7.0840652387
 30
0.0
 10
11.0333173247
 20
7.1056686218
 30
0.0
 10
10.9911153315
 20
7.1303081252
 30
0.0
 10
10.9506118551
 20
7.1578522126
 30
0.0
 10
10.9120227178
 20
7.1881539338
 30
0.0
 10
10.8755535091
 20
7.22105164
 30
0.0
 10
10.8413985686
 20
7.2563699276
 30
0.0
 10
10.8097399538
 20
7.2939205981
 30
0.0
 10
10.7807465134
 20
7.3335034453
 30
0.0
 10
10.7545727003
 20
7.3749079189
 30
0.0
 10
10.7313587324
 20
7.4179119301
 30
0.0
 10
10.7145672672
 20
7.4549274755
 30
0.0
 10
10.7027340757
 20
7.4851080763
 30
0.0
 10
10.6946753098
 20
7.5079803377
 30
0.0
 10
10.6874371756
 20
7.5310750406
 30
0.0
 10
10.681029301
 20
7.5543617327
 30
0.0
 10
10.6754601715
 20
7.5778092034
 30
0.0
 10
10.6707372784
 20
7.6013861949
 30
0.0
 10
10.6668669917
 20
7.625061233
 30
0.0
 10
10.6638543732
 20
7.6488026955
 30
0.0
 10
10.661703582
 20
7.6725789035
 30
0.0
 10
10.6604174565
 20
7.6963581049
 30
0.0
 10
10.6599976748
 20
7.720108551
 30
0.0
 10
10.6604449462
 20
7.7437985303
 30
0.0
 10
10.6617585667
 20
7.7673964086
 30
0.0
 10
10.6639368386
 20
7.7908706753
 30
0.0
 10
10.6669769396
 20
7.8141899706
 30
0.0
 10
10.6708746976
 20
7.8373231668
 30
0.0
 10
10.675625038
 20
7.8602393493
 30
0.0
 10
10.6812216038
 20
7.8829079086
 30
0.0
 10
10.6876568646
 20
7.9052985845
 30
0.0
 10
10.694922374
 20
7.9273814252
 30
0.0
 10
10.703008332
 20
7.9491269602
 30
0.0
 10
10.7119039706
 20
7.9705061334
 30
0.0
 10
10.7215975009
 20
7.9914903402
 30
0.0
 10
10.7320758596
 20
8.0120515983
 30
0.0
 10
10.7433251524
 20
8.0321623874
 30
0.0
 10
10.7553303508
 20
8.0517958319
 30
0.0
 10
10.768075344
 20
8.0709257434
 30
0.0
 10
10.7815432337
 20
8.0895264842
 30
0.0
 10
10.7957159221
 20
8.1075732282
 30
0.0
 10
10.8105745625
 20
8.1250419527
 30
0.0
 10
10.8260990621
 20
8.1419089071
 30
0.0
 10
10.8368798895
 20
8.1527385861
 30
0.0
 10
10.842373129
 20
8.1580446663
 30
0.0
  0
SPLINE
  5
2F8
100
AcDbEntity
  8
0
100
AcDbSpline
 62
7
  6
CONTINUOUS
 70
0
 71
3
 72
23
 73
19
 74
0
 42
0.0000001
 43
0.0000001
 44
0.0000000001
 40
0.0
 40
0.0
 40
0.0
 40
0.0
 40
0.0635433362
 40
0.1269389642
 40
0.190180529
 40
0.2532717655
 40
0.316215
 40
0.3790120733
 40
0.4416663486
 40
0.5041818772
 40
0.5665632324
 40
0.6288157291
 40
0.6909453293
 40
0.7529586034
 40
0.8148627272
 40
0.8766654193
 40
0.9383749329
 40
1.0
 40
1.0
 40
1.0
 40
1.0
 10
10.096715288
 20
7.3209458037
 30
0.0
 10
10.1059758673
 20
7.3203035804
 30
0.0
 10
10.1244990944
 20
7.3193377478
 30
0.0
 10
10.1522828532
 20
7.318848313
 30
0.0
 10
10.1800012312
 20
7.3193207904
 30
0.0
 10
10.2076203044
 20
7.3207545469
 30
0.0
 10
10.2351077142
 20
7.3231477233
 30
0.0
 10
10.2624307054
 20
7.3264977332
 30
0.0
 10
10.289556726
 20
7.330800464
 30
0.0
 10
10.3164535336
 20
7.3360508095
 30
0.0
 10
10.343089109
 20
7.3422426572
 30
0.0
 10
10.3694317924
 20
7.3493684972
 30
0.0
 10
10.3954502068
 20
7.3574199959
 30
0.0
 10
10.4211134101
 20
7.3663875498
 30
0.0
 10
10.4463908607
 20
7.376260421
 30
0.0
 10
10.4712525303
 20
7.3870270839
 30
0.0
 10
10.4956684826
 20
7.3986743483
 30
0.0
 10
10.5116404107
 20
7.4070229854
 30
0.0
 10
10.5195410491
 20
7.4113388302
 30
0.0
  0
SPLINE
  5
2F9
100
AcDbEntity
  8
0
100
AcDbSpline
 62
7
  6
CONTINUOUS
 70
0
 71
3
 72
23
 73
19
 74
0
 42
0.0000001
 43
0.0000001
 44
0.0000000001
 40
0.0
 40
0.0
 40
0.0
 40
0.0
 40
0.0635820697
 40
0.12700901
 40
0.1902749383
 40
0.2533840246
 40
0.3163384736
 40
0.3791406575
 40
0.4417945082
 40
0.5043046154
 40
0.5666762591
 40
0.6289155362
 40
0.6910292782
 40
0.7530249896
 40
0.8149108449
 40
0.8766956415
 40
0.9383887323
 40
1.0
 40
1.0
 40
1.0
 40
1.0
 10
10.1061293227
 20
7.350323507
 30
0.0
 10
10.1155707888
 20
7.3496687391
 30
0.0
 10
10.1344559216
 20
7.3486989054
 30
0.0
 10
10.1627807916
 20
7.3482672819
 30
0.0
 10
10.1910327263
 20
7.3488614123
 30
0.0
 10
10.2191739854
 20
7.3504804599
 30
0.0
 10
10.2471684549
 20
7.3531222141
 30
0.0
 10
10.2749796218
 20
7.3567834022
 30
0.0
 10
10.3025712497
 20
7.3614592671
 30
0.0
 10
10.329907476
 20
7.3671436377
 30
0.0
 10
10.3569527007
 20
7.3738292555
 30
0.0
 10
10.383671722
 20
7.3815074054
 30
0.0
 10
10.4100297859
 20
7.3901680372
 30
0.0
 10
10.4359925502
 20
7.3998000261
 30
0.0
 10
10.4615262078
 20
7.4103907532
 30
0.0
 10
10.4865976599
 20
7.4219264909
 30
0.0
 10
10.5111737424
 20
7.4343920948
 30
0.0
 10
10.5272171696
 20
7.4433175779
 30
0.0
 10
10.53514415
 20
7.4479291268
 30
0.0
  0
SPLINE
  5
2FA
100
AcDbEntity
  8
0
100
AcDbSpline
 62
7
  6
CONTINUOUS
 70
0
 71
3
 72
21
 73
17
 74
0
 42
0.0000001
 43
0.0000001
 44
0.0000000001
 40
0.0
 40
0.0
 40
0.0
 40
0.0
 40
0.1267542116
 40
0.2529675567
 40
0.3158817647
 40
0.3786646309
 40
0.4413181528
 40
0.5038452478
 40
0.5662492151
 40
0.6285337326
 40
0.6907030269
 40
0.752761773
 40
0.8147150978
 40
0.8765685432
 40
0.9383280628
 40
1.0
 40
1.0
 40
1.0
 40
1.0
 10
10.1774667634
 20
7.4192301875
 30
0.0
 10
10.1935697667
 20
7.4181134405
 30
0.0
 10
10.2257835618
 20
7.4168671574
 30
0.0
 10
10.2660261106
 20
7.4177992444
 30
0.0
 10
10.2980319558
 20
7.420041935
 30
0.0
 10
10.321898915
 20
7.4224669069
 30
0.0
 10
10.3456288452
 20
7.4256342206
 30
0.0
 10
10.3691994729
 20
7.4295409476
 30
0.0
 10
10.3925884303
 20
7.434183248
 30
0.0
 10
10.4157735163
 20
7.4395569261
 30
0.0
 10
10.4387327837
 20
7.4456566781
 30
0.0
 10
10.4614444119
 20
7.4524769487
 30
0.0
 10
10.4838869002
 20
7.4600110675
 30
0.0
 10
10.5060389901
 20
7.4682521033
 30
0.0
 10
10.5278794198
 20
7.4771919829
 30
0.0
 10
10.5422284985
 20
7.4836168907
 30
0.0
 10
10.5493432429
 20
7.4869426852
 30
0.0
  0
SPLINE
  5
2FB
100
AcDbEntity
  8
0
100
AcDbSpline
 62
7
  6
CONTINUOUS
 70
0
 71
3
 72
28
 73
24
 74
0
 42
0.0000001
 43
0.0000001
 44
0.0000000001
 40
0.0
 40
0.0
 40
0.0
 40
0.0
 40
0.0616465572
 40
0.0924798212
 40
0.1233217026
 40
0.1850370795
 40
0.2468205085
 40
0.2777472544
 40
0.3086990012
 40
0.3396782733
 40
0.3706875295
 40
0.43279994
 40
0.4950595942
 40
0.5574827697
 40
0.6200839761
 40
0.6828758318
 40
0.71434923
 40
0.7458740756
 40
0.8090769614
 40
0.8724953205
 40
0.9042893743
 40
0.9361398561
 40
1.0
 40
1.0
 40
1.0
 40
1.0
 10
11.7761154081
 20
7.1913692754
 30
0.0
 10
11.7685741662
 20
7.18408497
 30
0.0
 10
11.7569640345
 20
7.1734586715
 30
0.0
 10
11.7409320935
 20
7.1599316045
 30
0.0
 10
11.7245331676
 20
7.1468322459
 30
0.0
 10
11.7033692387
 20
7.1312803657
 30
0.0
 10
11.6813902772
 20
7.1168769239
 30
0.0
 10
11.6633492249
 20
7.1060617229
 30
0.0
 10
11.6495899642
 20
7.0983048414
 30
0.0
 10
11.6356165737
 20
7.0909106306
 30
0.0
 10
11.6167027534
 20
7.0815372356
 30
0.0
 10
11.5925630714
 20
7.0707490117
 30
0.0
 10
11.5629001413
 20
7.0593315832
 30
0.0
 10
11.5325986459
 20
7.0494630917
 30
0.0
 10
11.5017359578
 20
7.0411686765
 30
0.0
 10
11.4756327191
 20
7.0355897747
 30
0.0
 10
11.4545515141
 20
7.0319310213
 30
0.0
 10
11.4333138773
 20
7.0288060004
 30
0.0
 10
11.4065595108
 20
7.0259167951
 30
0.0
 10
11.3796472073
 20
7.0243922357
 30
0.0
 10
11.3580380734
 20
7.0239891841
 30
0.0
 10
11.3363509579
 20
7.0241317997
 30
0.0
 10
11.320079549
 20
7.0248533479
 30
0.0
 10
11.3092442686
 20
7.0256047771
 30
0.0
  0
SPLINE
  5
2FC
100
AcDbEntity
  8
0
100
AcDbSpline
 62
7
  6
CONTINUOUS
 70
0
 71
3
 72
49
 73
45
 74
0
 42
0.0000001
 43
0.0000001
 44
0.0000000001
 40
0.0
 40
0.0
 40
0.0
 40
0.0
 40
0.0456545096
 40
0.0908189063
 40
0.1354335304
 40
0.1794451884
 40
0.2227994742
 40
0.2654432056
 40
0.307324704
 40
0.3483934854
 40
0.3886005545
 40
0.4278984522
 40
0.4662414053
 40
0.5035855132
 40
0.5398887988
 40
0.5751113947
 40
0.6092158024
 40
0.6421669843
 40
0.6739325872
 40
0.7044833188
 40
0.7337931585
 40
0.7618396881
 40
0.7886046611
 40
0.8015025168
 40
0.8140752983
 40
0.826322137
 40
0.8382426057
 40
0.8498366017
 40
0.861104524
 40
0.8720473016
 40
0.8826663112
 40
0.8929635855
 40
0.9029418219
 40
0.9126043472
 40
0.9219553543
 40
0.9309999035
 40
0.9397439435
 40
0.9481945742
 40
0.9563600502
 40
0.9642498647
 40
0.9718750202
 40
0.9792480387
 40
0.9863830855
 40
1.0
 40
1.0
 40
1.0
 40
1.0
 10
14.1553408306
 20
8.6118253812
 30
0.0
 10
14.1553408306
 20
8.6233822759
 30
0.0
 10
14.1552285065
 20
8.6463721693
 30
0.0
 10
14.1547176197
 20
8.6806523054
 30
0.0
 10
14.1538657797
 20
8.7145097217
 30
0.0
 10
14.1526742036
 20
8.7478984048
 30
0.0
 10
14.1511444945
 20
8.7807738973
 30
0.0
 10
14.1492787338
 20
8.8130919566
 30
0.0
 10
14.1470794418
 20
8.8448091592
 30
0.0
 10
14.1445495962
 20
8.8758829403
 30
0.0
 10
14.1416926439
 20
8.906271576
 30
0.0
 10
14.138512439
 20
8.9359342693
 30
0.0
 10
14.1350132789
 20
8.9648312099
 30
0.0
 10
14.131199928
 20
8.9929236294
 30
0.0
 10
14.1270775416
 20
9.0201738441
 30
0.0
 10
14.1226516813
 20
9.0465453134
 30
0.0
 10
14.1179283686
 20
9.0720027047
 30
0.0
 10
14.1129139987
 20
9.0965119254
 30
0.0
 10
14.1076153282
 20
9.1200401785
 30
0.0
 10
14.1020395507
 20
9.1425560137
 30
0.0
 10
14.0961942092
 20
9.1640294381
 30
0.0
 10
14.0900871602
 20
9.1844316751
 30
0.0
 10
14.084722673
 20
9.2007131462
 30
0.0
 10
14.0802974108
 20
9.2131739815
 30
0.0
 10
14.0769591365
 20
9.2221195617
 30
0.0
 10
14.0735616902
 20
9.2307776047
 30
0.0
 10
14.0701062339
 20
9.2391452488
 30
0.0
 10
14.0665938849
 20
9.2472196836
 30
0.0
 10
14.0630258131
 20
9.2549982166
 30
0.0
 10
14.0594032502
 20
9.2624782771
 30
0.0
 10
14.0557273464
 20
9.2696573543
 30
0.0
 10
14.0519993299
 20
9.2765330674
 30
0.0
 10
14.0482204673
 20
9.2831031562
 30
0.0
 10
14.0443919378
 20
9.2893654113
 30
0.0
 10
14.0405150147
 20
9.2953177715
 30
0.0
 10
14.0365909833
 20
9.3009582887
 30
0.0
 10
14.0326210393
 20
9.3062850509
 30
0.0
 10
14.0286064822
 20
9.3112963177
 30
0.0
 10
14.0245486062
 20
9.3159904337
 30
0.0
 10
14.0204485761
 20
9.3203657911
 30
0.0
 10
14.0163078291
 20
9.324420863
 30
0.0
 10
14.012127207
 20
9.3281545587
 30
0.0
 10
14.0065895001
 20
9.3326315588
 30
0.0
 10
14.0022495493
 20
9.3356165251
 30
0.0
 10
13.9992961389
 20
9.3373938538
 30
0.0
  0
SPLINE
  5
2FD
100
AcDbEntity
  8
0
100
AcDbSpline
 62
7
  6
CONTINUOUS
 70
0
 71
3
 72
55
 73
51
 74
0
 42
0.0000001
 43
0.0000001
 44
0.0000000001
 40
0.0
 40
0.0
 40
0.0
 40
0.0
 40
0.0398600881
 40
0.0801628336
 40
0.1208003339
 40
0.1616634729
 40
0.2026423982
 40
0.2436268476
 40
0.284506545
 40
0.3251715705
 40
0.3655127389
 40
0.4054219782
 40
0.44479271
 40
0.4835202344
 40
0.5215021193
 40
0.5586385987
 40
0.5948329812
 40
0.6299920752
 40
0.6471555226
 40
0.6640270385
 40
0.6805961381
 40
0.6968526979
 40
0.7127868683
 40
0.7283891989
 40
0.7436505512
 40
0.7585622291
 40
0.7731158933
 40
0.7873036975
 40
0.8011182073
 40
0.8145525423
 40
0.8276003032
 40
0.8402557222
 40
0.8525136019
 40
0.8643694768
 40
0.8758195712
 40
0.8868609766
 40
0.897491637
 40
0.9077105504
 40
0.9175177947
 40
0.9269147662
 40
0.935904263
 40
0.9444907796
 40
0.9526806718
 40
0.9604825304
 40
0.9679074542
 40
0.9749695222
 40
0.9816861863
 40
0.9880788268
 40
0.9941732097
 40
1.0
 40
1.0
 40
1.0
 40
1.0
 10
14.1553408306
 20
8.6118253812
 30
0.0
 10
14.1553408306
 20
8.5947390834
 30
0.0
 10
14.1550927639
 20
8.5603762715
 30
0.0
 10
14.1539947495
 20
8.5086044637
 30
0.0
 10
14.1521715327
 20
8.4564228189
 30
0.0
 10
14.1496283086
 20
8.4039811723
 30
0.0
 10
14.1463723543
 20
8.3514299457
 30
0.0
 10
14.1424130029
 20
8.2989199145
 30
0.0
 10
14.13776162
 20
8.2466017265
 30
0.0
 10
14.1324315691
 20
8.194625478
 30
0.0
 10
14.1264381747
 20
8.1431402781
 30
0.0
 10
14.1197986778
 20
8.0922938185
 30
0.0
 10
14.1125321871
 20
8.0422319478
 30
0.0
 10
14.1046596261
 20
7.9930982446
 30
0.0
 10
14.0962036712
 20
7.9450336177
 30
0.0
 10
14.087188696
 20
7.8981758365
 30
0.0
 10
14.0776406745
 20
7.852659344
 30
0.0
 10
14.069196624
 20
7.8156651012
 30
0.0
 10
14.0621865731
 20
7.786844491
 30
0.0
 10
14.0568553766
 20
7.7658176671
 30
0.0
 10
14.051412241
 20
7.7452213766
 30
0.0
 10
14.0458611161
 20
7.7250703702
 30
0.0
 10
14.0402059389
 20
7.7053791049
 30
0.0
 10
14.0344508325
 20
7.6861616911
 30
0.0
 10
14.0285998753
 20
7.6674319093
 30
0.0
 10
14.0226573327
 20
7.6492031749
 30
0.0
 10
14.0166274173
 20
7.6314885545
 30
0.0
 10
14.0105145228
 20
7.6143007273
 30
0.0
 10
14.004322983
 20
7.5976520071
 30
0.0
 10
13.9980573067
 20
7.5815542979
 30
0.0
 10
13.9917219351
 20
7.5660191233
 30
0.0
 10
13.9853214769
 20
7.5510575745
 30
0.0
 10
13.978860465
 20
7.5366803489
 30
0.0
 10
13.9723435916
 20
7.5228976883
 30
0.0
 10
13.9657754633
 20
7.5097194293
 30
0.0
 10
13.959160835
 20
7.4971549295
 30
0.0
 10
13.952504365
 20
7.4852131317
 30
0.0
 10
13.9458108452
 20
7.4739024763
 30
0.0
 10
13.9390849555
 20
7.4632309818
 30
0.0
 10
13.9323314891
 20
7.4532061433
 30
0.0
 10
13.9255551061
 20
7.4438350321
 30
0.0
 10
13.9187605491
 20
7.4351241806
 30
0.0
 10
13.9119523989
 20
7.4270797091
 30
0.0
 10
13.9051352744
 20
7.4197071991
 30
0.0
 10
13.8983136028
 20
7.4130118628
 30
0.0
 10
13.8914917809
 20
7.4069984052
 30
0.0
 10
13.884674067
 20
7.4016712881
 30
0.0
 10
13.8778644244
 20
7.3970344698
 30
0.0
 10
13.8710676324
 20
7.393092198
 30
0.0
 10
13.866451682
 20
7.3908836548
 30
0.0
 10
13.8641532434
 20
7.3899060805
 30
0.0
  0
SPLINE
  5
2FE
100
AcDbEntity
  8
0
100
AcDbSpline
 62
7
  6
CONTINUOUS
 70
0
 71
3
 72
60
 73
56
 74
0
 42
0.0000001
 43
0.0000001
 44
0.0000000001
 40
0.0
 40
0.0
 40
0.0
 40
0.0
 40
0.0425878987
 40
0.0856851803
 40
0.1291504485
 40
0.1728410482
 40
0.2166132114
 40
0.2603229014
 40
0.3038263159
 40
0.3469805239
 40
0.3896440577
 40
0.431677524
 40
0.4729442163
 40
0.5133107379
 40
0.5526476394
 40
0.590830077
 40
0.6277385018
 40
0.663259396
 40
0.6804662033
 40
0.6972867136
 40
0.7137088324
 40
0.7297209621
 40
0.7453121483
 40
0.7604719946
 40
0.7751908513
 40
0.7894597069
 40
0.8032704242
 40
0.8166156138
 40
0.8294889235
 40
0.8418849043
 40
0.8537993603
 40
0.8652292252
 40
0.8761729842
 40
0.8866305872
 40
0.8966039621
 40
0.9060970044
 40
0.9151162108
 40
0.923670799
 40
0.9317734995
 40
0.9394408634
 40
0.9466942341
 40
0.9535602556
 40
0.960071935
 40
0.9662691698
 40
0.9721994943
 40
0.9750825203
 40
0.9779201172
 40
0.9807202788
 40
0.9834913461
 40
0.9862419491
 40
0.988980938
 40
0.9917172831
 40
0.9944599802
 40
0.9972179621
 40
1.0
 40
1.0
 40
1.0
 40
1.0
 10
14.0606131383
 20
8.5203254513
 30
0.0
 10
14.0606131383
 20
8.5084501133
 30
0.0
 10
14.0604222941
 20
8.4845570048
 30
0.0
 10
14.0595790808
 20
8.4485528545
 30
0.0
 10
14.058179802
 20
8.412258254
 30
0.0
 10
14.0562293465
 20
8.3758006876
 30
0.0
 10
14.0537345334
 20
8.3393080088
 30
0.0
 10
14.0507041188
 20
8.3029082711
 30
0.0
 10
14.0471487471
 20
8.2667291735
 30
0.0
 10
14.0430809224
 20
8.2308976439
 30
0.0
 10
14.038514961
 20
8.1955393793
 30
0.0
 10
14.0334669441
 20
8.1607784041
 30
0.0
 10
14.0279546607
 20
8.1267366304
 30
0.0
 10
14.0219975479
 20
8.09353342
 30
0.0
 10
14.0156166219
 20
8.0612851764
 30
0.0
 10
14.0088344137
 20
8.0301048604
 30
0.0
 10
14.0016748625
 20
8.0001018181
 30
0.0
 10
13.9953501447
 20
7.9759184527
 30
0.0
 10
13.9901112087
 20
7.9572460421
 30
0.0
 10
13.9861452632
 20
7.9437487924
 30
0.0
 10
13.9821045024
 20
7.9306219013
 30
0.0
 10
13.9779924166
 20
7.9178768635
 30
0.0
 10
13.9738126747
 20
7.9055248406
 30
0.0
 10
13.9695688993
 20
7.8935766544
 30
0.0
 10
13.96526488
 20
7.8820427526
 30
0.0
 10
13.9609043367
 20
7.8709332337
 30
0.0
 10
13.9564911707
 20
7.8602577932
 30
0.0
 10
13.9520291813
 20
7.8500257677
 30
0.0
 10
13.9475223652
 20
7.8402460605
 30
0.0
 10
13.9429745817
 20
7.8309272101
 30
0.0
 10
13.9383899024
 20
7.8220772882
 30
0.0
 10
13.9337722228
 20
7.8137040012
 30
0.0
 10
13.929125661
 20
7.8058145506
 30
0.0
 10
13.9244541158
 20
7.7984157808
 30
0.0
 10
13.9197617106
 20
7.7915139893
 30
0.0
 10
13.9150522987
 20
7.7851151372
 30
0.0
 10
13.910329945
 20
7.7792245988
 30
0.0
 10
13.9055983848
 20
7.7738474585
 30
0.0
 10
13.9008615299
 20
7.7689881917
 30
0.0
 10
13.8961229057
 20
7.7646510845
 30
0.0
 10
13.8913861609
 20
7.7608398439
 30
0.0
 10
13.8866545928
 20
7.7575581923
 30
0.0
 10
13.8819315097
 20
7.7548093713
 30
0.0
 10
13.8772205895
 20
7.7525970032
 30
0.0
 10
13.8732702449
 20
7.7511898291
 30
0.0
 10
13.8701316041
 20
7.7503458618
 30
0.0
 10
13.8678058297
 20
7.7498540584
 30
0.0
 10
13.8654870579
 20
7.7494977652
 30
0.0
 10
13.8631757877
 20
7.7492770867
 30
0.0
 10
13.8608726025
 20
7.749192168
 30
0.0
 10
13.8585780795
 20
7.7492430356
 30
0.0
 10
13.8562928061
 20
7.7494296512
 30
0.0
 10
13.8540173339
 20
7.7497519748
 30
0.0
 10
13.8517523351
 20
7.7502099273
 30
0.0
 10
13.8502574837
 20
7.7506035016
 30
0.0
 10
13.8495131667
 20
7.7508220948
 30
0.0
  0
SPLINE
  5
2FF
100
AcDbEntity
  8
0
100
AcDbSpline
 62
7
  6
CONTINUOUS
 70
0
 71
3
 72
28
 73
24
 74
0
 42
0.0000001
 43
0.0000001
 44
0.0000000001
 40
0.0
 40
0.0
 40
0.0
 40
0.0
 40
0.0665045243
 40
0.1339002042
 40
0.2018793426
 40
0.2701290284
 40
0.338335659
 40
0.4061856116
 40
0.4733674115
 40
0.5395734909
 40
0.6045020627
 40
0.6678589983
 40
0.7293597445
 40
0.7593287266
 40
0.7887323046
 40
0.8175385541
 40
0.8457164751
 40
0.8732361548
 40
0.9000688715
 40
0.9261870421
 40
0.9515645586
 40
0.9761765868
 40
1.0
 40
1.0
 40
1.0
 40
1.0
 10
13.8441739591
 20
8.5232612459
 30
0.0
 10
13.8441739591
 20
8.5102312584
 30
0.0
 10
13.8439260562
 20
8.4839960869
 30
0.0
 10
13.8428344342
 20
8.4444556686
 30
0.0
 10
13.841025294
 20
8.4045992066
 30
0.0
 10
13.8385074116
 20
8.364622097
 30
0.0
 10
13.8352931389
 20
8.324720323
 30
0.0
 10
13.8313982419
 20
8.2850894284
 30
0.0
 10
13.8268418763
 20
8.2459236379
 30
0.0
 10
13.8216464705
 20
8.2074148826
 30
0.0
 10
13.8158376397
 20
8.1697517851
 30
0.0
 10
13.8094440219
 20
8.133118963
 30
0.0
 10
13.80360596
 20
8.1033487762
 30
0.0
 10
13.7986576108
 20
8.0801888067
 30
0.0
 10
13.7948524192
 20
8.0633360908
 30
0.0
 10
13.7909261384
 20
8.0468717137
 30
0.0
 10
13.7868835483
 20
8.0308158355
 30
0.0
 10
13.7827296246
 20
8.0151881316
 30
0.0
 10
13.7784695046
 20
8.0000077391
 30
0.0
 10
13.7741083754
 20
7.9852932565
 30
0.0
 10
13.7696516669
 20
7.9710626684
 30
0.0
 10
13.7651048045
 20
7.9573334604
 30
0.0
 10
13.761965141
 20
7.9483774578
 30
0.0
 10
13.760379413
 20
7.9439874381
 30
0.0
  0
SPLINE
  5
300
100
AcDbEntity
  8
0
100
AcDbSpline
 62
7
  6
CONTINUOUS
 70
0
 71
3
 72
15
 73
11
 74
0
 42
0.0000001
 43
0.0000001
 44
0.0000000001
 40
0.0
 40
0.0
 40
0.0
 40
0.0
 40
0.1236003279
 40
0.2489324675
 40
0.3753368397
 40
0.5021427893
 40
0.6286786768
 40
0.7542742487
 40
0.8782656697
 40
1.0
 40
1.0
 40
1.0
 40
1.0
 10
13.7658662206
 20
8.5115597833
 30
0.0
 10
13.7658662206
 20
8.4991256742
 30
0.0
 10
13.7656120928
 20
8.4740825867
 30
0.0
 10
13.7644948931
 20
8.4363382921
 30
0.0
 10
13.7626446011
 20
8.3982998554
 30
0.0
 10
13.7600715662
 20
8.3601821533
 30
0.0
 10
13.7567903387
 20
8.3222005275
 30
0.0
 10
13.7528194733
 20
8.2845694023
 30
0.0
 10
13.7481815315
 20
8.2475014915
 30
0.0
 10
13.7446235147
 20
8.2230369887
 30
0.0
 10
13.7427334827
 20
8.2109373247
 30
0.0
  0
SPLINE
  5
301
100
AcDbEntity
  8
0
100
AcDbSpline
 62
7
  6
CONTINUOUS
 70
0
 71
3
 72
23
 73
19
 74
0
 42
0.0000001
 43
0.0000001
 44
0.0000000001
 40
0.0
 40
0.0
 40
0.0
 40
0.0
 40
0.0635649727
 40
0.1269786635
 40
0.1902341712
 40
0.2533354576
 40
0.3162851627
 40
0.379085275
 40
0.4417394177
 40
0.5042519939
 40
0.5666279573
 40
0.6288730509
 40
0.6909937105
 40
0.7529970293
 40
0.8148907363
 40
0.8766831365
 40
0.938383103
 40
1.0
 40
1.0
 40
1.0
 40
1.0
 10
10.1981722699
 20
7.5165042429
 30
0.0
 10
10.2065223528
 20
7.5159251627
 30
0.0
 10
10.2232245073
 20
7.5150616872
 30
0.0
 10
10.2482759312
 20
7.5146538325
 30
0.0
 10
10.2732653337
 20
7.5151357379
 30
0.0
 10
10.2981605139
 20
7.5165067203
 30
0.0
 10
10.3229307918
 20
7.5187649083
 30
0.0
 10
10.3475451116
 20
7.5219077499
 30
0.0
 10
10.371972616
 20
7.5259311538
 30
0.0
 10
10.3961827448
 20
7.530830139
 30
0.0
 10
10.4201451779
 20
7.5365986654
 30
0.0
 10
10.4438299457
 20
7.5432293802
 30
0.0
 10
10.4672073479
 20
7.5507141593
 30
0.0
 10
10.4902481529
 20
7.5590435401
 30
0.0
 10
10.5129234836
 20
7.5682070989
 30
0.0
 10
10.5352050051
 20
7.5781935361
 30
0.0
 10
10.5570644981
 20
7.5889899665
 30
0.0
 10
10.5713476669
 20
7.5967240643
 30
0.0
 10
10.578408515
 20
7.6007209675
 30
0.0
  0
SPLINE
  5
302
100
AcDbEntity
  8
0
100
AcDbSpline
 62
7
  6
CONTINUOUS
 70
0
 71
3
 72
15
 73
11
 74
0
 42
0.0000001
 43
0.0000001
 44
0.0000000001
 40
0.0
 40
0.0
 40
0.0
 40
0.0
 40
0.1225275421
 40
0.2463535919
 40
0.3711850101
 40
0.4967256103
 40
0.6226770631
 40
0.7487397959
 40
0.8746138914
 40
1.0
 40
1.0
 40
1.0
 40
1.0
 10
9.84013663
 20
8.3966220643
 30
0.0
 10
9.8414027579
 20
8.4057066208
 30
0.0
 10
9.8438245168
 20
8.4239895048
 30
0.0
 10
9.847110272
 20
8.4515820664
 30
0.0
 10
9.8500628197
 20
8.4794391333
 30
0.0
 10
9.8526746458
 20
8.5074899812
 30
0.0
 10
9.8549391178
 20
8.5356634714
 30
0.0
 10
9.8568504844
 20
8.5638881505
 30
0.0
 10
9.8584038956
 20
8.5920923616
 30
0.0
 10
9.8592004164
 20
8.6108853302
 30
0.0
 10
9.859537723
 20
8.6202656219
 30
0.0
  0
SPLINE
  5
303
100
AcDbEntity
  8
0
100
AcDbSpline
 62
7
  6
CONTINUOUS
 70
0
 71
3
 72
52
 73
48
 74
0
 42
0.0000001
 43
0.0000001
 44
0.0000000001
 40
0.0
 40
0.0
 40
0.0
 40
0.0
 40
0.0496805576
 40
0.0987337017
 40
0.1470734372
 40
0.194622899
 40
0.2413037973
 40
0.2870401664
 40
0.3317585413
 40
0.3753876506
 40
0.4178589803
 40
0.4591068698
 40
0.4990687554
 40
0.5376856197
 40
0.5749021998
 40
0.6106673043
 40
0.6449343924
 40
0.6776620584
 40
0.7088145307
 40
0.738362535
 40
0.7525283376
 40
0.7662855112
 40
0.7796327842
 40
0.7925694541
 40
0.8050954429
 40
0.8172116101
 40
0.8289195585
 40
0.840221807
 40
0.8511220731
 40
0.8616251187
 40
0.871737045
 40
0.8814655409
 40
0.8908198204
 40
0.8998110326
 40
0.9084524793
 40
0.9167596747
 40
0.924750819
 40
0.9324469592
 40
0.9470455719
 40
0.9540141079
 40
0.9608035418
 40
0.9674509029
 40
0.9739958532
 40
0.9804801158
 40
0.9869467202
 40
0.9934390628
 40
1.0
 40
1.0
 40
1.0
 40
1.0
 10
14.0606131383
 20
8.5203254513
 30
0.0
 10
14.0606131383
 20
8.5287029692
 30
0.0
 10
14.0605192591
 20
8.5453523718
 30
0.0
 10
14.060091578
 20
8.5701498846
 30
0.0
 10
14.0593785403
 20
8.5945813792
 30
0.0
 10
14.0583815122
 20
8.6186025892
 30
0.0
 10
14.0571022763
 20
8.6421708283
 30
0.0
 10
14.0555431675
 20
8.6652437836
 30
0.0
 10
14.0537070107
 20
8.6877801117
 30
0.0
 10
14.0515971165
 20
8.7097394701
 30
0.0
 10
14.049217332
 20
8.7310825396
 30
0.0
 10
14.046571967
 20
8.7517711185
 30
0.0
 10
14.043665789
 20
8.7717681889
 30
0.0
 10
14.040504085
 20
8.7910380002
 30
0.0
 10
14.0370925912
 20
8.8095461255
 30
0.0
 10
14.0334374611
 20
8.8272595258
 30
0.0
 10
14.0295453171
 20
8.8441466157
 30
0.0
 10
14.025423218
 20
8.8601774083
 30
0.0
 10
14.0210785907
 20
8.8753232846
 30
0.0
 10
14.0172269326
 20
8.8873484979
 30
0.0
 10
14.0140316461
 20
8.8964982575
 30
0.0
 10
14.0116181199
 20
8.903026093
 30
0.0
 10
14.0091549511
 20
8.9093132866
 30
0.0
 10
14.0066432203
 20
8.9153570559
 30
0.0
 10
14.0040839967
 20
8.9211546927
 30
0.0
 10
14.0014784716
 20
8.9267036488
 30
0.0
 10
13.9988277834
 20
8.9320014645
 30
0.0
 10
13.996133053
 20
8.9370457759
 30
0.0
 10
13.9933955235
 20
8.9418343895
 30
0.0
 10
13.9906163492
 20
8.9463651825
 30
0.0
 10
13.9877966973
 20
8.9506361435
 30
0.0
 10
13.9849378327
 20
8.9546454356
 30
0.0
 10
13.9820409002
 20
8.9583912647
 30
0.0
 10
13.979107102
 20
8.9618719608
 30
0.0
 10
13.976137657
 20
8.9650860399
 30
0.0
 10
13.9731337972
 20
8.9680319222
 30
0.0
 10
13.9700963422
 20
8.9707084865
 30
0.0
 10
13.966075519
 20
8.973860143
 30
0.0
 10
13.9619154129
 20
8.9765465179
 30
0.0
 10
13.9576390374
 20
8.9786941079
 30
0.0
 10
13.9544537624
 20
8.9800048328
 30
0.0
 10
13.9512431916
 20
8.9810391462
 30
0.0
 10
13.9480088161
 20
8.9817963357
 30
0.0
 10
13.9447524717
 20
8.9822756399
 30
0.0
 10
13.9414759915
 20
8.9824767951
 30
0.0
 10
13.9381815792
 20
8.9823996902
 30
0.0
 10
13.9359900878
 20
8.9821644806
 30
0.0
 10
13.9348956923
 20
8.9820022412
 30
0.0
  0
SPLINE
  5
304
100
AcDbEntity
  8
0
100
AcDbSpline
 62
7
  6
CONTINUOUS
 70
0
 71
3
 72
21
 73
17
 74
0
 42
0.0000001
 43
0.0000001
 44
0.0000000001
 40
0.0
 40
0.0
 40
0.0
 40
0.0
 40
0.1411248594
 40
0.2788901745
 40
0.3463069374
 40
0.4126372306
 40
0.4778024306
 40
0.5417259105
 40
0.6043330956
 40
0.665551712
 40
0.725311954
 40
0.783546933
 40
0.8401923854
 40
0.895187488
 40
0.9484746532
 40
1.0
 40
1.0
 40
1.0
 40
1.0
 10
13.8441739591
 20
8.5232612459
 30
0.0
 10
13.8441739591
 20
8.5364923965
 30
0.0
 10
13.8439231065
 20
8.5626404586
 30
0.0
 10
13.8429555878
 20
8.5950964952
 30
0.0
 10
13.8417870887
 20
8.6205257239
 30
0.0
 10
13.8407257225
 20
8.6391449029
 30
0.0
 10
13.8394745918
 20
8.6574240349
 30
0.0
 10
13.8380352903
 20
8.6753391792
 30
0.0
 10
13.8364097523
 20
8.6928668464
 30
0.0
 10
13.8346001283
 20
8.7099840476
 30
0.0
 10
13.83260878
 20
8.7266683418
 30
0.0
 10
13.8304383965
 20
8.7428978614
 30
0.0
 10
13.8280917864
 20
8.7586513364
 30
0.0
 10
13.825572101
 20
8.7739081532
 30
0.0
 10
13.8228826618
 20
8.7886482631
 30
0.0
 10
13.8209456981
 20
8.7982828492
 30
0.0
 10
13.8199472994
 20
8.8030093061
 30
0.0
  0
SPLINE
  5
305
100
AcDbEntity
  8
0
100
AcDbSpline
 62
7
  6
CONTINUOUS
 70
0
 71
3
 72
76
 73
72
 74
0
 42
0.0000001
 43
0.0000001
 44
0.0000000001
 40
0.0
 40
0.0
 40
0.0
 40
0.0
 40
0.0156747358
 40
0.0235325428
 40
0.0314031247
 40
0.0471815269
 40
0.0630096691
 40
0.0709422965
 40
0.0788865455
 40
0.0948074602
 40
0.1107706217
 40
0.1267727506
 40
0.1428102138
 40
0.1588790637
 40
0.1749750744
 40
0.1910937801
 40
0.2072305158
 40
0.2233804587
 40
0.2395386706
 40
0.2557001414
 40
0.2718598329
 40
0.2880127219
 40
0.304153845
 40
0.320278341
 40
0.3363814943
 40
0.3524587764
 40
0.3685058868
 40
0.384518792
 40
0.4004937632
 40
0.4164274116
 40
0.4323167216
 40
0.4481590813
 40
0.4639523095
 40
0.4796946803
 40
0.495384943
 40
0.5110223391
 40
0.5266066138
 40
0.542138024
 40
0.5576173411
 40
0.5730458482
 40
0.588425333
 40
0.6037580745
 40
0.6190468249
 40
0.6342947854
 40
0.6495055776
 40
0.6646832087
 40
0.6798320327
 40
0.6949567064
 40
0.7100621422
 40
0.7251534568
 40
0.7402359175
 40
0.7553148859
 40
0.7703957613
 40
0.7854839223
 40
0.8005846697
 40
0.8157031702
 40
0.8308444015
 40
0.8460131006
 40
0.8612137152
 40
0.8764503585
 40
0.8917267695
 40
0.9070462755
 40
0.9147237276
 40
0.9224129992
 40
0.9301143742
 40
0.9378281071
 40
0.9532923509
 40
0.9688083105
 40
0.9765865615
 40
0.9843782585
 40
1.0
 40
1.0
 40
1.0
 40
1.0
 10
9.7405805637
 20
6.8813193479
 30
0.0
 10
9.7257953379
 20
6.8823447068
 30
0.0
 10
9.7036309992
 20
6.8844277642
 30
0.0
 10
9.6741875932
 20
6.888279216
 30
0.0
 10
9.6447484267
 20
6.8928565362
 30
0.0
 10
9.6080819077
 20
6.8999246184
 30
0.0
 10
9.5717390126
 20
6.9087540158
 30
0.0
 10
9.5428772842
 20
6.9168662263
 30
0.0
 10
9.5141323385
 20
6.9256866994
 30
0.0
 10
9.4785313614
 20
6.938010268
 30
0.0
 10
9.4364741754
 20
6.9548237259
 30
0.0
 10
9.3951493808
 20
6.9736330335
 30
0.0
 10
9.3546570594
 20
6.9943926791
 30
0.0
 10
9.3150945019
 20
7.0170526846
 30
0.0
 10
9.2765569704
 20
7.0415584481
 30
0.0
 10
9.2391372028
 20
7.0678509489
 30
0.0
 10
9.2029252628
 20
7.0958668695
 30
0.0
 10
9.1680083043
 20
7.1255387525
 30
0.0
 10
9.1344703667
 20
7.1567951591
 30
0.0
 10
9.1023921736
 20
7.1895608434
 30
0.0
 10
9.0718509397
 20
7.2237569329
 30
0.0
 10
9.042920186
 20
7.259301117
 30
0.0
 10
9.0156695633
 20
7.2961078446
 30
0.0
 10
8.9901646858
 20
7.3340885287
 30
0.0
 10
8.9664669731
 20
7.3731517586
 30
0.0
 10
8.9446335033
 20
7.4132035188
 30
0.0
 10
8.9247168756
 20
7.4541474139
 30
0.0
 10
8.9067650843
 20
7.4958848993
 30
0.0
 10
8.890821403
 20
7.5383155168
 30
0.0
 10
8.8769242808
 20
7.5813371353
 30
0.0
 10
8.8651072474
 20
7.6248461945
 30
0.0
 10
8.8553988311
 20
7.6687379526
 30
0.0
 10
8.847822492
 20
7.7129067381
 30
0.0
 10
8.842396564
 20
7.7572462024
 30
0.0
 10
8.8391342097
 20
7.8016495743
 30
0.0
 10
8.8380433871
 20
7.8460099155
 30
0.0
 10
8.8391268283
 20
7.8902203771
 30
0.0
 10
8.8423820316
 20
7.9341744558
 30
0.0
 10
8.8478012645
 20
7.9777662494
 30
0.0
 10
8.8553715799
 20
8.0208907117
 30
0.0
 10
8.8650748449
 20
8.0634439052
 30
0.0
 10
8.8768877814
 20
8.1053232521
 30
0.0
 10
8.8907820197
 20
8.1464277823
 30
0.0
 10
8.9067241619
 20
8.1866583785
 30
0.0
 10
8.9246758602
 20
8.225918018
 30
0.0
 10
8.9445939097
 20
8.2641120073
 30
0.0
 10
8.96643035
 20
8.3011482137
 30
0.0
 10
8.9901325798
 20
8.33693729
 30
0.0
 10
9.015643483
 20
8.3713928933
 30
0.0
 10
9.0429015661
 20
8.4044318963
 30
0.0
 10
9.0718411073
 20
8.4359745913
 30
0.0
 10
9.1023923161
 20
8.4659448852
 30
0.0
 10
9.1344815034
 20
8.494270486
 30
0.0
 10
9.1680312615
 20
8.5208830793
 30
0.0
 10
9.202960653
 20
8.5457184954
 30
0.0
 10
9.239185411
 20
8.5687168648
 30
0.0
 10
9.2766181381
 20
8.5898227655
 30
0.0
 10
9.3151685433
 20
8.6089853586
 30
0.0
 10
9.3547435828
 20
8.6261584947
 30
0.0
 10
9.3952479917
 20
8.6413008804
 30
0.0
 10
9.4365833741
 20
8.6543759637
 30
0.0
 10
9.4716157159
 20
8.6635166993
 30
0.0
 10
9.4999512017
 20
8.6697681958
 30
0.0
 10
9.5213648632
 20
8.6739266783
 30
0.0
 10
9.5429104977
 20
8.6775488136
 30
0.0
 10
9.5718187038
 20
8.6816633505
 30
0.0
 10
9.6082241505
 20
8.6854526348
 30
0.0
 10
9.6448337213
 20
8.6874259547
 30
0.0
 10
9.6742245973
 20
8.6879180209
 30
0.0
 10
9.7037180981
 20
8.6876840425
 30
0.0
 10
9.7258453249
 20
8.6866908809
 30
0.0
 10
9.7405805637
 20
8.6856689886
 30
0.0
  0
SPLINE
  5
306
100
AcDbEntity
  8
0
100
AcDbSpline
 62
7
  6
CONTINUOUS
 70
0
 71
3
 72
60
 73
56
 74
0
 42
0.0000001
 43
0.0000001
 44
0.0000000001
 40
0.0
 40
0.0
 40
0.0
 40
0.0
 40
0.0425878987
 40
0.0856851803
 40
0.1291504485
 40
0.1728410482
 40
0.2166132114
 40
0.2603229014
 40
0.3038263159
 40
0.3469805239
 40
0.3896440577
 40
0.431677524
 40
0.4729442163
 40
0.5133107379
 40
0.5526476394
 40
0.590830077
 40
0.6277385018
 40
0.663259396
 40
0.6804662033
 40
0.6972867136
 40
0.7137088324
 40
0.7297209621
 40
0.7453121483
 40
0.7604719946
 40
0.7751908513
 40
0.7894597069
 40
0.8032704242
 40
0.8166156138
 40
0.8294889235
 40
0.8418849043
 40
0.8537993603
 40
0.8652292252
 40
0.8761729842
 40
0.8866305872
 40
0.8966039621
 40
0.9060970044
 40
0.9151162108
 40
0.923670799
 40
0.9317734995
 40
0.9394408634
 40
0.9466942341
 40
0.9535602556
 40
0.960071935
 40
0.9662691698
 40
0.9721994943
 40
0.9750825203
 40
0.9779201172
 40
0.9807202788
 40
0.9834913461
 40
0.9862419491
 40
0.988980938
 40
0.9917172831
 40
0.9944599802
 40
0.9972179621
 40
1.0
 40
1.0
 40
1.0
 40
1.0
 10
13.4622240522
 20
7.9423259446
 30
0.0
 10
13.4622240522
 20
7.9304506066
 30
0.0
 10
13.4620332079
 20
7.9065574981
 30
0.0
 10
13.4611899946
 20
7.8705533478
 30
0.0
 10
13.4597907159
 20
7.8342587474
 30
0.0
 10
13.4578402604
 20
7.7978011809
 30
0.0
 10
13.4553454473
 20
7.7613085021
 30
0.0
 10
13.4523150327
 20
7.7249087644
 30
0.0
 10
13.448759661
 20
7.6887296668
 30
0.0
 10
13.4446918363
 20
7.6528981372
 30
0.0
 10
13.4401258749
 20
7.6175398726
 30
0.0
 10
13.435077858
 20
7.5827788974
 30
0.0
 10
13.4295655745
 20
7.5487371237
 30
0.0
 10
13.4236084618
 20
7.5155339133
 30
0.0
 10
13.4172275358
 20
7.4832856697
 30
0.0
 10
13.4104453276
 20
7.4521053537
 30
0.0
 10
13.4032857763
 20
7.4221023114
 30
0.0
 10
13.3969610586
 20
7.397918946
 30
0.0
 10
13.3917221226
 20
7.3792465354
 30
0.0
 10
13.3877561771
 20
7.3657492857
 30
0.0
 10
13.3837154163
 20
7.3526223946
 30
0.0
 10
13.3796033305
 20
7.3398773568
 30
0.0
 10
13.3754235886
 20
7.3275253339
 30
0.0
 10
13.3711798132
 20
7.3155771477
 30
0.0
 10
13.3668757939
 20
7.3040432459
 30
0.0
 10
13.3625152506
 20
7.292933727
 30
0.0
 10
13.3581020846
 20
7.2822582865
 30
0.0
 10
13.3536400952
 20
7.272026261
 30
0.0
 10
13.349133279
 20
7.2622465538
 30
0.0
 10
13.3445854956
 20
7.2529277034
 30
0.0
 10
13.3400008163
 20
7.2440777815
 30
0.0
 10
13.3353831367
 20
7.2357044945
 30
0.0
 10
13.3307365748
 20
7.2278150439
 30
0.0
 10
13.3260650297
 20
7.2204162741
 30
0.0
 10
13.3213726244
 20
7.2135144826
 30
0.0
 10
13.3166632126
 20
7.2071156305
 30
0.0
 10
13.3119408589
 20
7.2012250921
 30
0.0
 10
13.3072092987
 20
7.1958479518
 30
0.0
 10
13.3024724438
 20
7.190988685
 30
0.0
 10
13.2977338196
 20
7.1866515778
 30
0.0
 10
13.2929970748
 20
7.1828403372
 30
0.0
 10
13.2882655067
 20
7.1795586856
 30
0.0
 10
13.2835424236
 20
7.1768098646
 30
0.0
 10
13.2788315033
 20
7.1745974965
 30
0.0
 10
13.2748811587
 20
7.1731903224
 30
0.0
 10
13.271742518
 20
7.1723463551
 30
0.0
 10
13.2694167436
 20
7.1718545517
 30
0.0
 10
13.2670979718
 20
7.1714982585
 30
0.0
 10
13.2647867016
 20
7.17127758
 30
0.0
 10
13.2624835164
 20
7.1711926613
 30
0.0
 10
13.2601889934
 20
7.1712435289
 30
0.0
 10
13.25790372
 20
7.1714301445
 30
0.0
 10
13.2556282478
 20
7.1717524681
 30
0.0
 10
13.253363249
 20
7.1722104206
 30
0.0
 10
13.2518683976
 20
7.1726039949
 30
0.0
 10
13.2511240806
 20
7.1728225881
 30
0.0
  0
SPLINE
  5
307
100
AcDbEntity
  8
0
100
AcDbSpline
 62
7
  6
CONTINUOUS
 70
0
 71
3
 72
28
 73
24
 74
0
 42
0.0000001
 43
0.0000001
 44
0.0000000001
 40
0.0
 40
0.0
 40
0.0
 40
0.0
 40
0.0665045243
 40
0.1339002042
 40
0.2018793426
 40
0.2701290284
 40
0.338335659
 40
0.4061856116
 40
0.4733674115
 40
0.5395734909
 40
0.6045020627
 40
0.6678589983
 40
0.7293597445
 40
0.7593287266
 40
0.7887323046
 40
0.8175385541
 40
0.8457164751
 40
0.8732361548
 40
0.9000688715
 40
0.9261870421
 40
0.9515645586
 40
0.9761765868
 40
1.0
 40
1.0
 40
1.0
 40
1.0
 10
13.245784873
 20
7.9452617392
 30
0.0
 10
13.245784873
 20
7.9322317517
 30
0.0
 10
13.2455369701
 20
7.9059965802
 30
0.0
 10
13.2444453481
 20
7.8664561619
 30
0.0
 10
13.2426362079
 20
7.8265996999
 30
0.0
 10
13.2401183255
 20
7.7866225903
 30
0.0
 10
13.2369040528
 20
7.7467208163
 30
0.0
 10
13.2330091558
 20
7.7070899217
 30
0.0
 10
13.2284527902
 20
7.6679241312
 30
0.0
 10
13.2232573844
 20
7.6294153759
 30
0.0
 10
13.2174485536
 20
7.5917522784
 30
0.0
 10
13.2110549358
 20
7.5551194563
 30
0.0
 10
13.2052168739
 20
7.5253492695
 30
0.0
 10
13.2002685247
 20
7.5021893001
 30
0.0
 10
13.1964633331
 20
7.4853365841
 30
0.0
 10
13.1925370522
 20
7.468872207
 30
0.0
 10
13.1884944622
 20
7.4528163288
 30
0.0
 10
13.1843405385
 20
7.4371886249
 30
0.0
 10
13.1800804185
 20
7.4220082324
 30
0.0
 10
13.1757192893
 20
7.4072937499
 30
0.0
 10
13.1712625808
 20
7.3930631617
 30
0.0
 10
13.1667157184
 20
7.3793339537
 30
0.0
 10
13.1635760549
 20
7.3703779512
 30
0.0
 10
13.1619903269
 20
7.3659879314
 30
0.0
  0
SPLINE
  5
308
100
AcDbEntity
  8
0
100
AcDbSpline
 62
7
  6
CONTINUOUS
 70
0
 71
3
 72
15
 73
11
 74
0
 42
0.0000001
 43
0.0000001
 44
0.0000000001
 40
0.0
 40
0.0
 40
0.0
 40
0.0
 40
0.1236003279
 40
0.2489324675
 40
0.3753368397
 40
0.5021427893
 40
0.6286786768
 40
0.7542742487
 40
0.8782656697
 40
1.0
 40
1.0
 40
1.0
 40
1.0
 10
13.1674771345
 20
7.9335602766
 30
0.0
 10
13.1674771345
 20
7.9211261675
 30
0.0
 10
13.1672230067
 20
7.89608308
 30
0.0
 10
13.166105807
 20
7.8583387854
 30
0.0
 10
13.164255515
 20
7.8203003487
 30
0.0
 10
13.1616824801
 20
7.7821826466
 30
0.0
 10
13.1584012526
 20
7.7442010208
 30
0.0
 10
13.1544303872
 20
7.7065698956
 30
0.0
 10
13.1497924454
 20
7.6695019848
 30
0.0
 10
13.1462344286
 20
7.6450374821
 30
0.0
 10
13.1443443965
 20
7.632937818
 30
0.0
  0
SPLINE
  5
309
100
AcDbEntity
  8
0
100
AcDbSpline
 62
7
  6
CONTINUOUS
 70
0
 71
3
 72
41
 73
37
 74
0
 42
0.0000001
 43
0.0000001
 44
0.0000000001
 40
0.0
 40
0.0
 40
0.0
 40
0.0
 40
0.0064813001
 40
0.0130002022
 40
0.0195935713
 40
0.0262969408
 40
0.033143984
 40
0.0401660036
 40
0.0548404992
 40
0.0625494615
 40
0.0705324261
 40
0.0873867396
 40
0.1055281833
 40
0.1250447914
 40
0.1459987457
 40
0.1684318082
 40
0.1923689961
 40
0.2178215978
 40
0.2447899859
 40
0.2732648338
 40
0.3032291259
 40
0.3346589397
 40
0.3675242831
 40
0.4017901748
 40
0.4374166385
 40
0.474359728
 40
0.5125716018
 40
0.5520008604
 40
0.5925931493
 40
0.6342909643
 40
0.677034307
 40
0.7207606156
 40
0.7654052435
 40
0.8109015514
 40
0.9041693911
 40
1.0
 40
1.0
 40
1.0
 40
1.0
 10
9.7203979575
 20
10.3891285606
 30
0.0
 10
9.7203979517
 20
10.3897359943
 30
0.0
 10
9.7203496322
 20
10.3909549294
 30
0.0
 10
9.7201325102
 20
10.3927801664
 30
0.0
 10
9.7197709106
 20
10.3946036338
 30
0.0
 10
9.7192650971
 20
10.3964242684
 30
0.0
 10
9.7186153318
 20
10.3982413226
 30
0.0
 10
9.7175422679
 20
10.4006936785
 30
0.0
 10
9.7161879065
 20
10.4031034327
 30
0.0
 10
9.7145870559
 20
10.4054575776
 30
0.0
 10
9.7127377722
 20
10.4078850905
 30
0.0
 10
9.7100548634
 20
10.4108982446
 30
0.0
 10
9.7063373347
 20
10.4144102926
 30
0.0
 10
9.7020711628
 20
10.4178777944
 30
0.0
 10
9.697263477
 20
10.4212958518
 30
0.0
 10
9.6919217284
 20
10.4246595276
 30
0.0
 10
9.6860544213
 20
10.4279636294
 30
0.0
 10
9.6796709727
 20
10.4312029758
 30
0.0
 10
9.6727816903
 20
10.4343722318
 30
0.0
 10
9.6653978403
 20
10.4374662592
 30
0.0
 10
9.6575315327
 20
10.4404798829
 30
0.0
 10
9.6491957431
 20
10.4434080717
 30
0.0
 10
9.6404042743
 20
10.4462459648
 30
0.0
 10
9.6311717026
 20
10.4489887369
 30
0.0
 10
9.6215133858
 20
10.4516318408
 30
0.0
 10
9.611445398
 20
10.4541707987
 30
0.0
 10
9.6009845182
 20
10.4566013395
 30
0.0
 10
9.5901481963
 20
10.4589194101
 30
0.0
 10
9.5789545124
 20
10.4611210587
 30
0.0
 10
9.5674221595
 20
10.4632026336
 30
0.0
 10
9.5555704043
 20
10.4651606055
 30
0.0
 10
9.5434190444
 20
10.4669916815
 30
0.0
 10
9.5309883586
 20
10.4686928295
 30
0.0
 10
9.5139284893
 20
10.4708012327
 30
0.0
 10
9.4920584968
 20
10.4730835021
 30
0.0
 10
9.4743914588
 20
10.4745066915
 30
0.0
 10
9.4654316416
 20
10.475128057
 30
0.0
  0
SPLINE
  5
30A
100
AcDbEntity
  8
0
100
AcDbSpline
 62
7
  6
CONTINUOUS
 70
0
 71
3
 72
41
 73
37
 74
0
 42
0.0000001
 43
0.0000001
 44
0.0000000001
 40
0.0
 40
0.0
 40
0.0
 40
0.0
 40
0.0064813001
 40
0.0130002022
 40
0.0195935713
 40
0.0262969408
 40
0.033143984
 40
0.0401660036
 40
0.0548404992
 40
0.0625494615
 40
0.0705324261
 40
0.0873867396
 40
0.1055281833
 40
0.1250447914
 40
0.1459987457
 40
0.1684318082
 40
0.1923689961
 40
0.2178215978
 40
0.2447899859
 40
0.2732648338
 40
0.3032291259
 40
0.3346589397
 40
0.3675242831
 40
0.4017901748
 40
0.4374166385
 40
0.474359728
 40
0.5125716018
 40
0.5520008604
 40
0.5925931493
 40
0.6342909643
 40
0.677034307
 40
0.7207606156
 40
0.7654052435
 40
0.8109015514
 40
0.9041693911
 40
1.0
 40
1.0
 40
1.0
 40
1.0
 10
8.6209355392
 20
9.3271293528
 30
0.0
 10
8.6209355334
 20
9.3277367865
 30
0.0
 10
8.6208872139
 20
9.3289557216
 30
0.0
 10
8.6206700919
 20
9.3307809586
 30
0.0
 10
8.6203084922
 20
9.332604426
 30
0.0
 10
8.6198026787
 20
9.3344250606
 30
0.0
 10
8.6191529135
 20
9.3362421148
 30
0.0
 10
8.6180798496
 20
9.3386944707
 30
0.0
 10
8.6167254882
 20
9.3411042249
 30
0.0
 10
8.6151246376
 20
9.3434583698
 30
0.0
 10
8.6132753538
 20
9.3458858827
 30
0.0
 10
8.610592445
 20
9.3488990368
 30
0.0
 10
8.6068749163
 20
9.3524110847
 30
0.0
 10
8.6026087445
 20
9.3558785866
 30
0.0
 10
8.5978010587
 20
9.359296644
 30
0.0
 10
8.5924593101
 20
9.3626603197
 30
0.0
 10
8.586592003
 20
9.3659644216
 30
0.0
 10
8.5802085544
 20
9.369203768
 30
0.0
 10
8.573319272
 20
9.372373024
 30
0.0
 10
8.565935422
 20
9.3754670514
 30
0.0
 10
8.5580691144
 20
9.3784806751
 30
0.0
 10
8.5497333248
 20
9.3814088639
 30
0.0
 10
8.5409418559
 20
9.384246757
 30
0.0
 10
8.5317092843
 20
9.3869895291
 30
0.0
 10
8.5220509674
 20
9.389632633
 30
0.0
 10
8.5119829797
 20
9.3921715909
 30
0.0
 10
8.5015220999
 20
9.3946021317
 30
0.0
 10
8.490685778
 20
9.3969202023
 30
0.0
 10
8.479492094
 20
9.3991218509
 30
0.0
 10
8.4679597412
 20
9.4012034258
 30
0.0
 10
8.4561079859
 20
9.4031613977
 30
0.0
 10
8.443956626
 20
9.4049924736
 30
0.0
 10
8.4315259402
 20
9.4066936217
 30
0.0
 10
8.414466071
 20
9.4088020249
 30
0.0
 10
8.3925960784
 20
9.4110842943
 30
0.0
 10
8.3749290405
 20
9.4125074837
 30
0.0
 10
8.3659692232
 20
9.4131288491
 30
0.0
  0
SPLINE
  5
30B
100
AcDbEntity
  8
0
100
AcDbSpline
 62
7
  6
CONTINUOUS
 70
0
 71
3
 72
52
 73
48
 74
0
 42
0.0000001
 43
0.0000001
 44
0.0000000001
 40
0.0
 40
0.0
 40
0.0
 40
0.0
 40
0.0496805576
 40
0.0987337017
 40
0.1470734372
 40
0.194622899
 40
0.2413037973
 40
0.2870401664
 40
0.3317585413
 40
0.3753876506
 40
0.4178589803
 40
0.4591068698
 40
0.4990687554
 40
0.5376856197
 40
0.5749021998
 40
0.6106673043
 40
0.6449343924
 40
0.6776620584
 40
0.7088145307
 40
0.738362535
 40
0.7525283376
 40
0.7662855112
 40
0.7796327842
 40
0.7925694541
 40
0.8050954429
 40
0.8172116101
 40
0.8289195585
 40
0.840221807
 40
0.8511220731
 40
0.8616251187
 40
0.871737045
 40
0.8814655409
 40
0.8908198204
 40
0.8998110326
 40
0.9084524793
 40
0.9167596747
 40
0.924750819
 40
0.9324469592
 40
0.9470455719
 40
0.9540141079
 40
0.9608035418
 40
0.9674509029
 40
0.9739958532
 40
0.9804801158
 40
0.9869467202
 40
0.9934390628
 40
1.0
 40
1.0
 40
1.0
 40
1.0
 10
13.4622240522
 20
7.9423259446
 30
0.0
 10
13.4622240522
 20
7.9507034625
 30
0.0
 10
13.462130173
 20
7.9673528651
 30
0.0
 10
13.4617024919
 20
7.9921503779
 30
0.0
 10
13.4609894542
 20
8.0165818725
 30
0.0
 10
13.4599924261
 20
8.0406030825
 30
0.0
 10
13.4587131902
 20
8.0641713216
 30
0.0
 10
13.4571540814
 20
8.0872442769
 30
0.0
 10
13.4553179246
 20
8.109780605
 30
0.0
 10
13.4532080304
 20
8.1317399634
 30
0.0
 10
13.4508282459
 20
8.1530830329
 30
0.0
 10
13.4481828809
 20
8.1737716118
 30
0.0
 10
13.4452767029
 20
8.1937686822
 30
0.0
 10
13.4421149989
 20
8.2130384935
 30
0.0
 10
13.4387035051
 20
8.2315466188
 30
0.0
 10
13.435048375
 20
8.2492600191
 30
0.0
 10
13.431156231
 20
8.266147109
 30
0.0
 10
13.4270341319
 20
8.2821779016
 30
0.0
 10
13.4226895046
 20
8.2973237779
 30
0.0
 10
13.4188378465
 20
8.3093489912
 30
0.0
 10
13.41564256
 20
8.3184987508
 30
0.0
 10
13.4132290338
 20
8.3250265863
 30
0.0
 10
13.410765865
 20
8.3313137799
 30
0.0
 10
13.4082541342
 20
8.3373575492
 30
0.0
 10
13.4056949106
 20
8.343155186
 30
0.0
 10
13.4030893855
 20
8.3487041422
 30
0.0
 10
13.4004386973
 20
8.3540019578
 30
0.0
 10
13.3977439669
 20
8.3590462692
 30
0.0
 10
13.3950064374
 20
8.3638348828
 30
0.0
 10
13.3922272631
 20
8.3683656758
 30
0.0
 10
13.3894076112
 20
8.3726366368
 30
0.0
 10
13.3865487466
 20
8.3766459289
 30
0.0
 10
13.3836518141
 20
8.380391758
 30
0.0
 10
13.3807180159
 20
8.3838724541
 30
0.0
 10
13.3777485709
 20
8.3870865332
 30
0.0
 10
13.3747447111
 20
8.3900324155
 30
0.0
 10
13.3717072561
 20
8.3927089799
 30
0.0
 10
13.3676864329
 20
8.3958606363
 30
0.0
 10
13.3635263268
 20
8.3985470112
 30
0.0
 10
13.3592499513
 20
8.4006946012
 30
0.0
 10
13.3560646763
 20
8.4020053261
 30
0.0
 10
13.3528541055
 20
8.4030396395
 30
0.0
 10
13.3496197299
 20
8.403796829
 30
0.0
 10
13.3463633856
 20
8.4042761332
 30
0.0
 10
13.3430869054
 20
8.4044772885
 30
0.0
 10
13.3397924931
 20
8.4044001836
 30
0.0
 10
13.3376010016
 20
8.4041649739
 30
0.0
 10
13.3365066062
 20
8.4040027345
 30
0.0
  0
SPLINE
  5
30C
100
AcDbEntity
  8
0
100
AcDbSpline
 62
7
  6
CONTINUOUS
 70
0
 71
3
 72
21
 73
17
 74
0
 42
0.0000001
 43
0.0000001
 44
0.0000000001
 40
0.0
 40
0.0
 40
0.0
 40
0.0
 40
0.1411248594
 40
0.2788901745
 40
0.3463069374
 40
0.4126372306
 40
0.4778024306
 40
0.5417259105
 40
0.6043330956
 40
0.665551712
 40
0.725311954
 40
0.783546933
 40
0.8401923854
 40
0.895187488
 40
0.9484746532
 40
1.0
 40
1.0
 40
1.0
 40
1.0
 10
13.245784873
 20
7.9452617392
 30
0.0
 10
13.245784873
 20
7.9584928898
 30
0.0
 10
13.2455340204
 20
7.9846409519
 30
0.0
 10
13.2445665017
 20
8.0170969886
 30
0.0
 10
13.2433980026
 20
8.0425262172
 30
0.0
 10
13.2423366364
 20
8.0611453962
 30
0.0
 10
13.2410855057
 20
8.0794245282
 30
0.0
 10
13.2396462041
 20
8.0973396725
 30
0.0
 10
13.2380206662
 20
8.1148673398
 30
0.0
 10
13.2362110422
 20
8.1319845409
 30
0.0
 10
13.2342196939
 20
8.1486688351
 30
0.0
 10
13.2320493104
 20
8.1648983547
 30
0.0
 10
13.2297027003
 20
8.1806518297
 30
0.0
 10
13.2271830149
 20
8.1959086465
 30
0.0
 10
13.2244935757
 20
8.2106487564
 30
0.0
 10
13.222556612
 20
8.2202833425
 30
0.0
 10
13.2215582133
 20
8.2250097994
 30
0.0
  0
SPLINE
  5
30D
100
AcDbEntity
  8
0
100
AcDbSpline
 62
7
  6
CONTINUOUS
 70
0
 71
3
 72
54
 73
50
 74
0
 42
0.0000001
 43
0.0000001
 44
0.0000000001
 40
0.0
 40
0.0
 40
0.0
 40
0.0
 40
0.0063158507
 40
0.0126706009
 40
0.0191023977
 40
0.0256478986
 40
0.0323417211
 40
0.0392160215
 40
0.0536137219
 40
0.0611943855
 40
0.0690560622
 40
0.0772171197
 40
0.0856934318
 40
0.0944987522
 40
0.1036448027
 40
0.113141486
 40
0.1229971814
 40
0.1332187245
 40
0.1438117391
 40
0.1547806923
 40
0.1661289554
 40
0.1778590781
 40
0.1899726748
 40
0.2024706471
 40
0.2153532452
 40
0.2286199987
 40
0.2422699729
 40
0.2563016345
 40
0.2707129683
 40
0.2855015805
 40
0.3006645508
 40
0.3161986637
 40
0.3321003047
 40
0.364989385
 40
0.3992970598
 40
0.4349833452
 40
0.4720041093
 40
0.5103114544
 40
0.549854083
 40
0.590577587
 40
0.6324246928
 40
0.6753354638
 40
0.7192475599
 40
0.7640963991
 40
0.8098154153
 40
0.8563362597
 40
0.9035882195
 40
0.9515013118
 40
1.0
 40
1.0
 40
1.0
 40
1.0
 10
14.0305589342
 20
9.3431806706
 30
0.0
 10
14.0322220814
 20
9.3430653383
 30
0.0
 10
14.0355507582
 20
9.3426978214
 30
0.0
 10
14.0405064872
 20
9.3417399522
 30
0.0
 10
14.0454290775
 20
9.3403753721
 30
0.0
 10
14.0503156633
 20
9.3386052536
 30
0.0
 10
14.0551643454
 20
9.3364306294
 30
0.0
 10
14.0616747835
 20
9.3329406982
 30
0.0
 10
14.0680084657
 20
9.3286685538
 30
0.0
 10
14.0741378186
 20
9.3237177415
 30
0.0
 10
14.0787675756
 20
9.3195436457
 30
0.0
 10
14.0833478596
 20
9.3149750531
 30
0.0
 10
14.0878775871
 20
9.3100136488
 30
0.0
 10
14.0923548608
 20
9.3046615351
 30
0.0
 10
14.0967780426
 20
9.2989208972
 30
0.0
 10
14.1011454718
 20
9.2927941061
 30
0.0
 10
14.105455372
 20
9.2862835963
 30
0.0
 10
14.1097061298
 20
9.2793920543
 30
0.0
 10
14.1138960201
 20
9.2721222514
 30
0.0
 10
14.118023349
 20
9.2644771331
 30
0.0
 10
14.1220865179
 20
9.2564598322
 30
0.0
 10
14.1260838028
 20
9.2480735823
 30
0.0
 10
14.1300136346
 20
9.2393218265
 30
0.0
 10
14.1338744008
 20
9.2302081344
 30
0.0
 10
14.1376644791
 20
9.2207362222
 30
0.0
 10
14.1413823834
 20
9.2109099875
 30
0.0
 10
14.1450265221
 20
9.200733442
 30
0.0
 10
14.1485954241
 20
9.19021077
 30
0.0
 10
14.1520876364
 20
9.1793462947
 30
0.0
 10
14.1555016641
 20
9.1681444695
 30
0.0
 10
14.1588361575
 20
9.1566099154
 30
0.0
 10
14.1620897161
 20
9.1447473571
 30
0.0
 10
14.1663660983
 20
9.1283150053
 30
0.0
 10
14.1714880168
 20
9.1069842219
 30
0.0
 10
14.1772238649
 20
9.0804375655
 30
0.0
 10
14.1826066107
 20
9.0527054015
 30
0.0
 10
14.187627298
 20
9.0238334356
 30
0.0
 10
14.192277568
 20
8.9938691172
 30
0.0
 10
14.1965496724
 20
8.9628617787
 30
0.0
 10
14.2004364883
 20
8.930862476
 30
0.0
 10
14.2039315279
 20
8.8979239291
 30
0.0
 10
14.2070289762
 20
8.864100428
 30
0.0
 10
14.2097236718
 20
8.8294477439
 30
0.0
 10
14.2120111238
 20
8.7940230153
 30
0.0
 10
14.2138875108
 20
8.7578846355
 30
0.0
 10
14.2153496799
 20
8.7210923369
 30
0.0
 10
14.2163952485
 20
8.6837064896
 30
0.0
 10
14.2170223781
 20
8.6457892159
 30
0.0
 10
14.2171600886
 20
8.6203399866
 30
0.0
 10
14.2171600886
 20
8.6075382011
 30
0.0
  0
SPLINE
  5
30E
100
AcDbEntity
  8
0
100
AcDbSpline
 62
7
  6
CONTINUOUS
 70
0
 71
3
 72
67
 73
63
 74
0
 42
0.0000001
 43
0.0000001
 44
0.0000000001
 40
0.0
 40
0.0
 40
0.0
 40
0.0
 40
0.0155529919
 40
0.0311456664
 40
0.0467761022
 40
0.0624442995
 40
0.0781493133
 40
0.0938899495
 40
0.1096649852
 40
0.1254729684
 40
0.1413122783
 40
0.1571811472
 40
0.173077654
 40
0.1889997433
 40
0.2049452325
 40
0.2209118224
 40
0.2368971132
 40
0.2528986119
 40
0.2689137462
 40
0.2849398801
 40
0.3170096725
 40
0.349090733
 40
0.3811609056
 40
0.4131982442
 40
0.4292002548
 40
0.4451861438
 40
0.461153417
 40
0.4770996701
 40
0.4930225999
 40
0.5089200208
 40
0.5247898721
 40
0.5406302281
 40
0.5564393135
 40
0.5722155082
 40
0.5879573568
 40
0.6036635816
 40
0.619333085
 40
0.6349649572
 40
0.6505584871
 40
0.6661131612
 40
0.6816286696
 40
0.6971049134
 40
0.7125420007
 40
0.7279402497
 40
0.7433001925
 40
0.7586225677
 40
0.7739083201
 40
0.789158601
 40
0.8043747569
 40
0.8195583258
 40
0.8347110332
 40
0.8498347779
 40
0.8649316244
 40
0.8800037948
 40
0.8950536521
 40
0.9100836889
 40
0.9250965158
 40
0.9400948429
 40
0.955081465
 40
0.9700592481
 40
0.9850311093
 40
1.0
 40
1.0
 40
1.0
 40
1.0
 10
9.7594743505
 20
6.9700819803
 30
0.0
 10
9.7493314177
 20
6.9707853951
 30
0.0
 10
9.729043424
 20
6.9725641073
 30
0.0
 10
9.6986921031
 20
6.9763357101
 30
0.0
 10
9.6684215294
 20
6.9812096538
 30
0.0
 10
9.6382731208
 20
6.9871791725
 30
0.0
 10
9.6082866035
 20
6.9942362848
 30
0.0
 10
9.5785021184
 20
7.0023715973
 30
0.0
 10
9.5489594652
 20
7.0115742698
 30
0.0
 10
9.5196980282
 20
7.0218319189
 30
0.0
 10
9.4907568713
 20
7.0331308569
 30
0.0
 10
9.4621746576
 20
7.0454560589
 30
0.0
 10
9.4339894951
 20
7.0587909668
 30
0.0
 10
9.4062390089
 20
7.0731177908
 30
0.0
 10
9.3789602733
 20
7.0884174664
 30
0.0
 10
9.3521896532
 20
7.1046694658
 30
0.0
 10
9.3259628644
 20
7.1218521373
 30
0.0
 10
9.3003150455
 20
7.1399425114
 30
0.0
 10
9.2752800215
 20
7.1589166758
 30
0.0
 10
9.2427582219
 20
7.1853627677
 30
0.0
 10
9.2038067351
 20
7.2204993799
 30
0.0
 10
9.1600464955
 20
7.2657505975
 30
0.0
 10
9.1194842772
 20
7.3138616386
 30
0.0
 10
9.0885126476
 20
7.3561457863
 30
0.0
 10
9.0655432116
 20
7.3911425176
 30
0.0
 10
9.0492473464
 20
7.4179310225
 30
0.0
 10
9.0338998929
 20
7.445231726
 30
0.0
 10
9.0195211041
 20
7.4730085985
 30
0.0
 10
9.0061302978
 20
7.5012244823
 30
0.0
 10
8.9937452485
 20
7.5298417031
 30
0.0
 10
8.9823825608
 20
7.5588220853
 30
0.0
 10
8.9720574475
 20
7.5881269597
 30
0.0
 10
8.9627836136
 20
7.6177171791
 30
0.0
 10
8.954573517
 20
7.6475532697
 30
0.0
 10
8.9474381617
 20
7.6775954093
 30
0.0
 10
8.9413869974
 20
7.7078034743
 30
0.0
 10
8.9364281911
 20
7.7381371561
 30
0.0
 10
8.9325684031
 20
7.7685559593
 30
0.0
 10
8.929812714
 20
7.799019263
 30
0.0
 10
8.9281649009
 20
7.8294864051
 30
0.0
 10
8.9276271985
 20
7.859916703
 30
0.0
 10
8.9282002561
 20
7.8902695247
 30
0.0
 10
8.9298834138
 20
7.9205043398
 30
0.0
 10
8.9326744514
 20
7.9505807676
 30
0.0
 10
8.9365695776
 20
7.9804586511
 30
0.0
 10
8.9415637004
 20
8.0100980764
 30
0.0
 10
8.947650169
 20
8.0394594507
 30
0.0
 10
8.9548207945
 20
8.0685035734
 30
0.0
 10
8.9630661108
 20
8.0971916252
 30
0.0
 10
8.9723751134
 20
8.1254852789
 30
0.0
 10
8.9827353121
 20
8.1533467608
 30
0.0
 10
8.9941329763
 20
8.1807388126
 30
0.0
 10
9.0065528782
 20
8.2076248364
 30
0.0
 10
9.0199783733
 20
8.23396894
 30
0.0
 10
9.0343916288
 20
8.2597358749
 30
0.0
 10
9.0497733751
 20
8.2848912168
 30
0.0
 10
9.06610301
 20
8.3094013858
 30
0.0
 10
9.0833588181
 20
8.3332335775
 30
0.0
 10
9.1015176883
 20
8.3563559286
 30
0.0
 10
9.120555425
 20
8.3787376928
 30
0.0
 10
9.1404462528
 20
8.400348475
 30
0.0
 10
9.1542592942
 20
8.4142239324
 30
0.0
 10
9.1612975316
 20
8.4210223416
 30
0.0
  0
SPLINE
  5
30F
100
AcDbEntity
  8
0
100
AcDbSpline
 62
7
  6
CONTINUOUS
 70
0
 71
3
 72
15
 73
11
 74
0
 42
0.0000001
 43
0.0000001
 44
0.0000000001
 40
0.0
 40
0.0
 40
0.0
 40
0.0
 40
0.1268090487
 40
0.2530613889
 40
0.3787673749
 40
0.5039434462
 40
0.6286161836
 40
0.7528202036
 40
0.8765981611
 40
1.0
 40
1.0
 40
1.0
 40
1.0
 10
10.096715288
 20
7.2958317307
 30
0.0
 10
10.1142356513
 20
7.2946166894
 30
0.0
 10
10.1492860743
 20
7.2932914753
 30
0.0
 10
10.2017600411
 20
7.2946465879
 30
0.0
 10
10.25381652
 20
7.2993430327
 30
0.0
 10
10.3052440595
 20
7.3073626905
 30
0.0
 10
10.3558366083
 20
7.3186734943
 30
0.0
 10
10.40539155
 20
7.3332307873
 30
0.0
 10
10.4537070883
 20
7.3509751098
 30
0.0
 10
10.4850113798
 20
7.3649043534
 30
0.0
 10
10.5003839189
 20
7.3723724429
 30
0.0
  0
SPLINE
  5
310
100
AcDbEntity
  8
0
100
AcDbSpline
 62
7
  6
CONTINUOUS
 70
0
 71
3
 72
45
 73
41
 74
0
 42
0.0000001
 43
0.0000001
 44
0.0000000001
 40
0.0
 40
0.0
 40
0.0
 40
0.0
 40
0.0309546486
 40
0.0620427229
 40
0.093260249
 40
0.1246005098
 40
0.1560552137
 40
0.1876142124
 40
0.219265789
 40
0.2509968248
 40
0.2827930111
 40
0.31463907
 40
0.3465189852
 40
0.3784162412
 40
0.4103140671
 40
0.4421956834
 40
0.4740445494
 40
0.5058446073
 40
0.5375805219
 40
0.569237912
 40
0.600803572
 40
0.6322656803
 40
0.6636139928
 40
0.694840016
 40
0.7259371581
 40
0.7569008558
 40
0.787728672
 40
0.8184203627
 40
0.8337176982
 40
0.8489819333
 40
0.8642136644
 40
0.8794136208
 40
0.8945826717
 40
0.9097218118
 40
0.9248321689
 40
0.9399149922
 40
0.95497165
 40
0.9700036271
 40
0.9850125121
 40
1.0
 40
1.0
 40
1.0
 40
1.0
 10
10.096715288
 20
7.2958317307
 30
0.0
 10
10.0789856497
 20
7.2970612853
 30
0.0
 10
10.0435183754
 20
7.3006579851
 30
0.0
 10
9.9906600604
 20
7.3094072611
 30
0.0
 10
9.938233024
 20
7.3214871082
 30
0.0
 10
9.8864532602
 20
7.3368480503
 30
0.0
 10
9.8355306955
 20
7.3554272718
 30
0.0
 10
9.7856725931
 20
7.3771489877
 30
0.0
 10
9.7370816372
 20
7.4019246405
 30
0.0
 10
9.6899554017
 20
7.4296532867
 30
0.0
 10
9.6444854733
 20
7.4602220053
 30
0.0
 10
9.6008567107
 20
7.4935063706
 30
0.0
 10
9.5592464929
 20
7.5293709522
 30
0.0
 10
9.5198240067
 20
7.5676698616
 30
0.0
 10
9.4827495675
 20
7.6082473435
 30
0.0
 10
9.4481739624
 20
7.6509383935
 30
0.0
 10
9.4162378304
 20
7.6955694195
 30
0.0
 10
9.3870711142
 20
7.7419589598
 30
0.0
 10
9.3607925323
 20
7.7899184102
 30
0.0
 10
9.3375090998
 20
7.8392527837
 30
0.0
 10
9.3173156947
 20
7.8897614944
 30
0.0
 10
9.3002946727
 20
7.9412391662
 30
0.0
 10
9.2865155006
 20
7.99347644
 30
0.0
 10
9.2760345044
 20
8.0462608741
 30
0.0
 10
9.2688946146
 20
8.0993776257
 30
0.0
 10
9.2651252652
 20
8.1526109542
 30
0.0
 10
9.264741968
 20
8.2057427168
 30
0.0
 10
9.2672492535
 20
8.2498081384
 30
0.0
 10
9.2709478905
 20
8.2847859813
 30
0.0
 10
9.2745599412
 20
8.3108332246
 30
0.0
 10
9.2790092532
 20
8.3366936071
 30
0.0
 10
9.2842913831
 20
8.3623411242
 30
0.0
 10
9.2904008174
 20
8.3877495897
 30
0.0
 10
9.2973315322
 20
8.4128931029
 30
0.0
 10
9.3050762947
 20
8.437746091
 30
0.0
 10
9.3136273647
 20
8.4622832063
 30
0.0
 10
9.3229759729
 20
8.4864794419
 30
0.0
 10
9.3331126199
 20
8.5103102566
 30
0.0
 10
9.3440269276
 20
8.5337509739
 30
0.0
 10
9.3518197408
 20
8.5491133913
 30
0.0
 10
9.3558416402
 20
8.5567205093
 30
0.0
  0
SPLINE
  5
311
100
AcDbEntity
  8
0
100
AcDbSpline
 62
7
  6
CONTINUOUS
 70
0
 71
3
 72
98
 73
94
 74
0
 42
0.0000001
 43
0.0000001
 44
0.0000000001
 40
0.0
 40
0.0
 40
0.0
 40
0.0
 40
0.0030757744
 40
0.0062686469
 40
0.0095905872
 40
0.0130519444
 40
0.0166616334
 40
0.0204272119
 40
0.0243550434
 40
0.028450441
 40
0.0327177377
 40
0.0371604789
 40
0.041781423
 40
0.0465827164
 40
0.0515659047
 40
0.0567320188
 40
0.0620816534
 40
0.0676149484
 40
0.0733317239
 40
0.0792314125
 40
0.0853131779
 40
0.0915758863
 40
0.0980181398
 40
0.1046383312
 40
0.1114345886
 40
0.1184048851
 40
0.1255469571
 40
0.1328583921
 40
0.1403365989
 40
0.1479788159
 40
0.1637433453
 40
0.1801273618
 40
0.1971039374
 40
0.2146442869
 40
0.2327179377
 40
0.2512928807
 40
0.2703357086
 40
0.2898117431
 40
0.3096851534
 40
0.3299190738
 40
0.3504757164
 40
0.3713164787
 40
0.3924020482
 40
0.4136925065
 40
0.4351474305
 40
0.4567259947
 40
0.478387073
 40
0.5000893405
 40
0.5217913722
 40
0.5434517438
 40
0.5650291309
 40
0.5864824103
 40
0.6077707613
 40
0.628853767
 40
0.6496915151
 40
0.6702447
 40
0.6904747268
 40
0.710343816
 40
0.7298151144
 40
0.7488528067
 40
0.7674222281
 40
0.7854899858
 40
0.8030240859
 40
0.8199940723
 40
0.8363711789
 40
0.8521285035
 40
0.8672411997
 40
0.8745488122
 40
0.8816869942
 40
0.8886533513
 40
0.895445624
 40
0.9020617765
 40
0.9084999663
 40
0.9147585606
 40
0.9208361973
 40
0.9267317248
 40
0.9324443253
 40
0.9379734428
 40
0.9433188875
 40
0.948480836
 40
0.9534598609
 40
0.9582570331
 40
0.96287389
 40
0.9673125999
 40
0.9715759445
 40
0.9756674672
 40
0.9795915485
 40
0.9833534952
 40
0.986959721
 40
0.9904177973
 40
0.9937366747
 40
0.9969267452
 40
1.0
 40
1.0
 40
1.0
 40
1.0
 10
13.2658131457
 20
6.8119274243
 30
0.0
 10
13.2677425054
 20
6.8127494672
 30
0.0
 10
13.2716137834
 20
6.8145710037
 30
0.0
 10
13.2773325864
 20
6.8177512132
 30
0.0
 10
13.2830622067
 20
6.8214251132
 30
0.0
 10
13.2887997237
 20
6.8255902345
 30
0.0
 10
13.2945426073
 20
6.8302444249
 30
0.0
 10
13.3002882451
 20
6.8353851652
 30
0.0
 10
13.3060340006
 20
6.8410098198
 30
0.0
 10
13.3117771178
 20
6.8471155849
 30
0.0
 10
13.3175149474
 20
6.8536993348
 30
0.0
 10
13.3232446127
 20
6.8607578528
 30
0.0
 10
13.328963411
 20
6.8682875496
 30
0.0
 10
13.3346684541
 20
6.8762847053
 30
0.0
 10
13.3403569354
 20
6.8847452981
 30
0.0
 10
13.3460260311
 20
6.8936650793
 30
0.0
 10
13.3516728378
 20
6.9030395916
 30
0.0
 10
13.3572945954
 20
6.9128640816
 30
0.0
 10
13.3628883722
 20
6.9231336328
 30
0.0
 10
13.3684514163
 20
6.9338430297
 30
0.0
 10
13.3739808557
 20
6.9449868776
 30
0.0
 10
13.3794738962
 20
6.9565595314
 30
0.0
 10
13.3849277712
 20
6.9685551247
 30
0.0
 10
13.3903396494
 20
6.980967592
 30
0.0
 10
13.3957068525
 20
6.9937906197
 30
0.0
 10
13.4010265694
 20
7.0070177189
 30
0.0
 10
13.4062961556
 20
7.0206421606
 30
0.0
 10
13.4115128842
 20
7.0346570305
 30
0.0
 10
13.4166741241
 20
7.0490552175
 30
0.0
 10
13.4235494191
 20
7.0689602633
 30
0.0
 10
13.4319743262
 20
7.0947523557
 30
0.0
 10
13.4417201278
 20
7.1268008343
 30
0.0
 10
13.4511835575
 20
7.1601940456
 30
0.0
 10
13.4603452675
 20
7.1948640639
 30
0.0
 10
13.4691865205
 20
7.2307405092
 30
0.0
 10
13.4776892406
 20
7.2677504652
 30
0.0
 10
13.4858360472
 20
7.3058186989
 30
0.0
 10
13.4936102898
 20
7.3448677973
 30
0.0
 10
13.5009960884
 20
7.3848183327
 30
0.0
 10
13.5079783605
 20
7.4255890279
 30
0.0
 10
13.5145428505
 20
7.4670969273
 30
0.0
 10
13.5206761583
 20
7.5092575677
 30
0.0
 10
13.5263657668
 20
7.5519851514
 30
0.0
 10
13.5316000661
 20
7.5951927207
 30
0.0
 10
13.5363683776
 20
7.6387923352
 30
0.0
 10
13.5406609815
 20
7.6826952515
 30
0.0
 10
13.54446913
 20
7.7268121069
 30
0.0
 10
13.5477850654
 20
7.7710531026
 30
0.0
 10
13.5506020355
 20
7.8153281864
 30
0.0
 10
13.5529143077
 20
7.8595472361
 30
0.0
 10
13.55471718
 20
7.9036202429
 30
0.0
 10
13.5560069937
 20
7.9474574963
 30
0.0
 10
13.5567811436
 20
7.9909697684
 30
0.0
 10
13.557038078
 20
8.0340684963
 30
0.0
 10
13.5567773029
 20
8.076665963
 30
0.0
 10
13.5559993832
 20
8.1186754757
 30
0.0
 10
13.5547059426
 20
8.1600115426
 30
0.0
 10
13.5528996591
 20
8.2005900502
 30
0.0
 10
13.5505842663
 20
8.2403284379
 30
0.0
 10
13.547764545
 20
8.2791458699
 30
0.0
 10
13.5444463103
 20
8.3169634007
 30
0.0
 10
13.5406364012
 20
8.3537041369
 30
0.0
 10
13.536342668
 20
8.3892934031
 30
0.0
 10
13.5315739549
 20
8.4236588791
 30
0.0
 10
13.5263400889
 20
8.456730833
 30
0.0
 10
13.520651836
 20
8.4884420127
 30
0.0
 10
13.5154866861
 20
8.5139581071
 30
0.0
 10
13.511124977
 20
8.5336350853
 30
0.0
 10
13.5077840836
 20
8.5478477805
 30
0.0
 10
13.5043387572
 20
8.5616736828
 30
0.0
 10
13.5007906724
 20
8.575105784
 30
0.0
 10
13.4971416769
 20
8.5881372647
 30
0.0
 10
13.4933936334
 20
8.6007615173
 30
0.0
 10
13.4895484103
 20
8.6129721352
 30
0.0
 10
13.4856080363
 20
8.6247629441
 30
0.0
 10
13.4815744262
 20
8.6361279612
 30
0.0
 10
13.4774497139
 20
8.6470614565
 30
0.0
 10
13.473235925
 20
8.6575578974
 30
0.0
 10
13.468935217
 20
8.6676119958
 30
0.0
 10
13.4645497732
 20
8.6772186979
 30
0.0
 10
13.4600817336
 20
8.6863731567
 30
0.0
 10
13.4555334206
 20
8.6950708151
 30
0.0
 10
13.4509069816
 20
8.7033072821
 30
0.0
 10
13.4462047882
 20
8.7110784862
 30
0.0
 10
13.4414290603
 20
8.7183805283
 30
0.0
 10
13.43658211
 20
8.7252097784
 30
0.0
 10
13.4316662583
 20
8.7315628559
 30
0.0
 10
13.4266837092
 20
8.7374365201
 30
0.0
 10
13.4216368281
 20
8.7428278813
 30
0.0
 10
13.416527781
 20
8.747734037
 30
0.0
 10
13.4113587894
 20
8.7521525106
 30
0.0
 10
13.4061324554
 20
8.7560805189
 30
0.0
 10
13.4025489498
 20
8.7584112552
 30
0.0
 10
13.4007512151
 20
8.7594878847
 30
0.0
  0
SPLINE
  5
312
100
AcDbEntity
  8
0
100
AcDbSpline
 62
7
  6
CONTINUOUS
 70
0
 71
3
 72
107
 73
103
 74
0
 42
0.0000001
 43
0.0000001
 44
0.0000000001
 40
0.0
 40
0.0
 40
0.0
 40
0.0
 40
0.0028643307
 40
0.0057543562
 40
0.0086950413
 40
0.0117099663
 40
0.014820862
 40
0.0180472938
 40
0.0214065494
 40
0.0249136566
 40
0.028581481
 40
0.0324209321
 40
0.036441107
 40
0.0406495621
 40
0.045052417
 40
0.0496546254
 40
0.0544600259
 40
0.0594715776
 40
0.0646913802
 40
0.0701208535
 40
0.0757607572
 40
0.0816113036
 40
0.0876721993
 40
0.09394269
 40
0.1004216346
 40
0.1071074891
 40
0.1139984119
 40
0.1210922024
 40
0.128386425
 40
0.1358783252
 40
0.1435649515
 40
0.1514430755
 40
0.1595092906
 40
0.1677599572
 40
0.1761912627
 40
0.1847992052
 40
0.2025279162
 40
0.2209110696
 40
0.2399110405
 40
0.2594880889
 40
0.2796005659
 40
0.300205103
 40
0.3212567904
 40
0.3427093455
 40
0.3645152756
 40
0.3866260361
 40
0.4089921849
 40
0.4315635347
 40
0.4542893041
 40
0.4771182669
 40
0.4999989006
 40
0.522879535
 40
0.5457084997
 40
0.5684342724
 40
0.5910056271
 40
0.6133717825
 40
0.6354825516
 40
0.6572884922
 40
0.6787410596
 40
0.6997927604
 40
0.7203973118
 40
0.7405098038
 40
0.760086868
 40
0.7790868555
 40
0.7974700262
 40
0.8151987555
 40
0.8238067132
 40
0.832238023
 40
0.8404887072
 40
0.8485549255
 40
0.8564330683
 40
0.8641196982
 40
0.8716116168
 40
0.8789058452
 40
0.8859996522
 40
0.8928905843
 40
0.8995764519
 40
0.9060554101
 40
0.9123259099
 40
0.9183868232
 40
0.9242373753
 40
0.929877299
 40
0.9353067761
 40
0.9405265994
 40
0.9455381547
 40
0.9503435748
 40
0.9549457883
 40
0.95934866
 40
0.9635571229
 40
0.9675773106
 40
0.9714167723
 40
0.9750846049
 40
0.9785917242
 40
0.9819509843
 40
0.9851774275
 40
0.9882883254
 40
0.9913032588
 40
0.9942439449
 40
0.9956941705
 40
0.9971348101
 40
0.9985690189
 40
1.0
 40
1.0
 40
1.0
 40
1.0
 10
13.4321706069
 20
8.7651811168
 30
0.0
 10
13.43418058
 20
8.7650417212
 30
0.0
 10
13.4382074994
 20
8.7645622357
 30
0.0
 10
13.4441901605
 20
8.763248452
 30
0.0
 10
13.4501220728
 20
8.7613403551
 30
0.0
 10
13.4559981973
 20
8.7588404918
 30
0.0
 10
13.4618149197
 20
8.7557515015
 30
0.0
 10
13.4675688559
 20
8.7520764154
 30
0.0
 10
13.4732569751
 20
8.7478182987
 30
0.0
 10
13.478876376
 20
8.7429803006
 30
0.0
 10
13.4844243065
 20
8.7375657454
 30
0.0
 10
13.489897888
 20
8.7315780076
 30
0.0
 10
13.495294396
 20
8.725020814
 30
0.0
 10
13.5006108489
 20
8.7178979919
 30
0.0
 10
13.5058444851
 20
8.7102138167
 30
0.0
 10
13.5109922595
 20
8.7019727264
 30
0.0
 10
13.5160513823
 20
8.6931796185
 30
0.0
 10
13.5210188277
 20
8.6838396128
 30
0.0
 10
13.5258918002
 20
8.6739582532
 30
0.0
 10
13.5306673625
 20
8.6635413552
 30
0.0
 10
13.535342738
 20
8.6525951108
 30
0.0
 10
13.539915122
 20
8.6411260178
 30
0.0
 10
13.5443817808
 20
8.6291409085
 30
0.0
 10
13.5487400642
 20
8.6166469379
 30
0.0
 10
13.5529873066
 20
8.6036515661
 30
0.0
 10
13.5571210186
 20
8.5901625775
 30
0.0
 10
13.5611386297
 20
8.5761880438
 30
0.0
 10
13.5650378064
 20
8.5617363517
 30
0.0
 10
13.5688161022
 20
8.5468161652
 30
0.0
 10
13.5724713278
 20
8.5314364474
 30
0.0
 10
13.5760011899
 20
8.5156064326
 30
0.0
 10
13.5794036302
 20
8.4993356362
 30
0.0
 10
13.5826765334
 20
8.4826338367
 30
0.0
 10
13.5858179603
 20
8.4655110819
 30
0.0
 10
13.5888260063
 20
8.4479776537
 30
0.0
 10
13.5926943987
 20
8.4238289603
 30
0.0
 10
13.5971705173
 20
8.3926902098
 30
0.0
 10
13.6019314342
 20
8.3542151531
 30
0.0
 10
13.6061215265
 20
8.314366313
 30
0.0
 10
13.609730588
 20
8.2732396232
 30
0.0
 10
13.6127497907
 20
8.2309339501
 30
0.0
 10
13.6151717545
 20
8.187551082
 30
0.0
 10
13.61699055
 20
8.1431954107
 30
0.0
 10
13.6182017148
 20
8.0979736942
 30
0.0
 10
13.6188022623
 20
8.0519947895
 30
0.0
 10
13.6187906876
 20
8.0053693896
 30
0.0
 10
13.6181669708
 20
7.9582097532
 30
0.0
 10
13.6169325765
 20
7.910629433
 30
0.0
 10
13.6150904487
 20
7.8627429993
 30
0.0
 10
13.6126450035
 20
7.8146657631
 30
0.0
 10
13.6096021179
 20
7.7665134967
 30
0.0
 10
13.6059691157
 20
7.7184021535
 30
0.0
 10
13.6017547491
 20
7.670447588
 30
0.0
 10
13.5969691784
 20
7.6227652751
 30
0.0
 10
13.591623947
 20
7.5754700312
 30
0.0
 10
13.5857319539
 20
7.528675736
 30
0.0
 10
13.5793074232
 20
7.4824950565
 30
0.0
 10
13.57236587
 20
7.4370391746
 30
0.0
 10
13.5649240639
 20
7.3924175163
 30
0.0
 10
13.5569999885
 20
7.3487374853
 30
0.0
 10
13.5486127999
 20
7.306104202
 30
0.0
 10
13.539782781
 20
7.2646202411
 30
0.0
 10
13.5305312921
 20
7.2243853975
 30
0.0
 10
13.5208807227
 20
7.1854963728
 30
0.0
 10
13.5108544287
 20
7.1480467719
 30
0.0
 10
13.50212287
 20
7.1178239404
 30
0.0
 10
13.4949581306
 20
7.0944403635
 30
0.0
 10
13.4895586099
 20
7.0774899787
 30
0.0
 10
13.4840837166
 20
7.0609647417
 30
0.0
 10
13.4785366637
 20
7.0448745847
 30
0.0
 10
13.4729208591
 20
7.0292291779
 30
0.0
 10
13.4672396451
 20
7.0140379294
 30
0.0
 10
13.4614964734
 20
6.9993099632
 30
0.0
 10
13.4556947987
 20
6.9850541245
 30
0.0
 10
13.449838104
 20
6.971278974
 30
0.0
 10
13.4439299502
 20
6.9579927665
 30
0.0
 10
13.4379738402
 20
6.9452034799
 30
0.0
 10
13.4319734276
 20
6.9329187536
 30
0.0
 10
13.4259322296
 20
6.9211459626
 30
0.0
 10
13.419853968
 20
6.9098921095
 30
0.0
 10
13.4137421762
 20
6.899163944
 30
0.0
 10
13.4076006075
 20
6.8889678156
 30
0.0
 10
13.4014328154
 20
6.8793098234
 30
0.0
 10
13.3952425387
 20
6.8701956562
 30
0.0
 10
13.3890333491
 20
6.8616307374
 30
0.0
 10
13.3828089202
 20
6.8536200969
 30
0.0
 10
13.3765728237
 20
6.8461684649
 30
0.0
 10
13.3703286154
 20
6.8392802326
 30
0.0
 10
13.3640798299
 20
6.83295944
 30
0.0
 10
13.3578298571
 20
6.8272098931
 30
0.0
 10
13.3515821477
 20
6.8220349926
 30
0.0
 10
13.3453399096
 20
6.8174380662
 30
0.0
 10
13.3391064991
 20
6.8134220054
 30
0.0
 10
13.3328850287
 20
6.8099898215
 30
0.0
 10
13.326678917
 20
6.8071440889
 30
0.0
 10
13.3204914002
 20
6.8048876112
 30
0.0
 10
13.3143266852
 20
6.8032227047
 30
0.0
 10
13.3091866797
 20
6.8023260387
 30
0.0
 10
13.3051043749
 20
6.8019115656
 30
0.0
 10
13.3020651021
 20
6.8017501508
 30
0.0
 10
13.2990352294
 20
6.8017369298
 30
0.0
 10
13.2970208751
 20
6.801826972
 30
0.0
 10
13.2960167191
 20
6.8018966058
 30
0.0
  0
SPLINE
  5
313
100
AcDbEntity
  8
0
100
AcDbSpline
 62
7
  6
CONTINUOUS
 70
0
 71
3
 72
61
 73
57
 74
0
 42
0.0000001
 43
0.0000001
 44
0.0000000001
 40
0.0
 40
0.0
 40
0.0
 40
0.0
 40
0.0417736088
 40
0.0840360431
 40
0.126657155
 40
0.1695046842
 40
0.2124458378
 40
0.2553473321
 40
0.2980760744
 40
0.3404996436
 40
0.3824868274
 40
0.4239081481
 40
0.4646363976
 40
0.5045471783
 40
0.5435194547
 40
0.5814361204
 40
0.5999634452
 40
0.6181850312
 40
0.6360876424
 40
0.6536583488
 40
0.6708846631
 40
0.6877544565
 40
0.7042560738
 40
0.7203782989
 40
0.7361104104
 40
0.7514422273
 40
0.7663640903
 40
0.7808669935
 40
0.7949425048
 40
0.8085829615
 40
0.8217813757
 40
0.8345316441
 40
0.8468285057
 40
0.8586677174
 40
0.8700461208
 40
0.8809617639
 40
0.8914141105
 40
0.9014041268
 40
0.9109346407
 40
0.9200104579
 40
0.9286388542
 40
0.9368298218
 40
0.9445966692
 40
0.9519564915
 40
0.9589308526
 40
0.9655464796
 40
0.97183593
 40
0.9778382749
 40
0.9807467215
 40
0.9836011958
 40
0.9864085004
 40
0.9891758164
 40
0.9919106777
 40
0.9946209229
 40
0.9973146203
 40
1.0
 40
1.0
 40
1.0
 40
1.0
 10
14.2171600886
 20
8.6075382011
 30
0.0
 10
14.2171600886
 20
8.5891808202
 30
0.0
 10
14.2168736957
 20
8.5522506675
 30
0.0
 10
14.2156075944
 20
8.4966037461
 30
0.0
 10
14.2135061872
 20
8.4405097493
 30
0.0
 10
14.2105763517
 20
8.3841543182
 30
0.0
 10
14.2068277767
 20
8.327723937
 30
0.0
 10
14.20227285
 20
8.2714052812
 30
0.0
 10
14.1969266613
 20
8.2153846793
 30
0.0
 10
14.1908069325
 20
8.1598474595
 30
0.0
 10
14.1839339673
 20
8.1049773433
 30
0.0
 10
14.1763305824
 20
8.0509558256
 30
0.0
 10
14.1680220323
 20
7.9979615865
 30
0.0
 10
14.159035935
 20
7.9461698267
 30
0.0
 10
14.1494021588
 20
7.8957519174
 30
0.0
 10
14.1407962331
 20
7.8547112782
 30
0.0
 10
14.1336020504
 20
7.8226974981
 30
0.0
 10
14.1281064019
 20
7.7993177349
 30
0.0
 10
14.1224739297
 20
7.7764032228
 30
0.0
 10
14.1167092181
 20
7.7539728999
 30
0.0
 10
14.1108171133
 20
7.7320453163
 30
0.0
 10
14.104802449
 20
7.7106386057
 30
0.0
 10
14.0986702489
 20
7.6897704628
 30
0.0
 10
14.0924255816
 20
7.6694581376
 30
0.0
 10
14.0860736212
 20
7.6497184156
 30
0.0
 10
14.0796196615
 20
7.6305676003
 30
0.0
 10
14.0730690072
 20
7.6120215124
 30
0.0
 10
14.0664271535
 20
7.5940954504
 30
0.0
 10
14.0596995294
 20
7.576804215
 30
0.0
 10
14.0528917902
 20
7.5601620456
 30
0.0
 10
14.0460094961
 20
7.5441826656
 30
0.0
 10
14.0390584074
 20
7.5288792083
 30
0.0
 10
14.032044222
 20
7.5142642603
 30
0.0
 10
14.0249727504
 20
7.5003498066
 30
0.0
 10
14.0178498183
 20
7.4871472377
 30
0.0
 10
14.0106812375
 20
7.474667351
 30
0.0
 10
14.0034729241
 20
7.4629202861
 30
0.0
 10
13.9962306465
 20
7.4519156153
 30
0.0
 10
13.9889603339
 20
7.4416621886
 30
0.0
 10
13.9816676642
 20
7.4321683209
 30
0.0
 10
13.974358452
 20
7.4234415741
 30
0.0
 10
13.9670382164
 20
7.4154890025
 30
0.0
 10
13.9597124938
 20
7.4083169703
 30
0.0
 10
13.9523865364
 20
7.4019313646
 30
0.0
 10
13.945065509
 20
7.3963376223
 30
0.0
 10
13.9377542292
 20
7.3915407324
 30
0.0
 10
13.9304581122
 20
7.3875458436
 30
0.0
 10
13.9243302678
 20
7.3848609417
 30
0.0
 10
13.9194544434
 20
7.3831357073
 30
0.0
 10
13.9158440285
 20
7.3820579133
 30
0.0
 10
13.912242896
 20
7.3811831452
 30
0.0
 10
13.9086517462
 20
7.3805116617
 30
0.0
 10
13.9050714084
 20
7.3800437207
 30
0.0
 10
13.9015026612
 20
7.3797794284
 30
0.0
 10
13.897946486
 20
7.3797188754
 30
0.0
 10
13.8955830435
 20
7.3798144704
 30
0.0
 10
13.8944057827
 20
7.3798961084
 30
0.0
  0
ENDSEC
  0
SECTION
  2
OBJECTS
  0
DICTIONARY
  5
C
100
AcDbDictionary
280
0
281
1
  3
ACAD_GROUP
350
D
  3
ACAD_MLINESTYLE
350
17
  3
ACAD_LAYOUT
350
1A
  3
ACAD_PLOTSETTINGS
350
19
  3
ACAD_PLOTSTYLENAME
350
E
  3
ACAD_IMAGE_DICT
350
       315
  3
ACAD_IMAGE_VARS
350
       316
  3
ACAD_TABLESTYLE
350
       317
  0
IMAGEDEF_REACTOR
  5
314
100
AcDbRasterImageDefReactor
 90
2
330
288
  0
DICTIONARY
  5
D
102
{ACAD_REACTORS
330
C
102
}
100
AcDbDictionary
280
0
281
1
  0
ACDBDICTIONARYWDFLT
  5
E
102
{ACAD_REACTORS
330
C
102
}
100
AcDbDictionary
281
1
  3
Normal
350
F
100
AcDbDictionaryWithDefault
340
F
  0
DICTIONARY
  5
315
330
C
100
AcDbDictionary
281
1
  3
EGK_assy_2_img_1
350
       31A
  0
RASTERVARIABLES
  5
316
330
C
100
AcDbRasterVariables
 90
0
 70
0
 71
1
 72
5
  0
DICTIONARY
  5
17
102
{ACAD_REACTORS
330
C
102
}
100
AcDbDictionary
280
0
281
1
  3
Standard
350
18
  0
DICTIONARY
  5
317
330
C
100
AcDbDictionary
281
1
  3
Standard
350
       31B
  3
Standard1
350
       31C
  0
DICTIONARY
  5
19
102
{ACAD_REACTORS
330
C
102
}
100
AcDbDictionary
281
1
  0
DICTIONARY
  5
1A
102
{ACAD_REACTORS
330
C
102
}
100
AcDbDictionary
281
1
  3
Model
350
318
  3
Layout1
350
319
  0
ACDBPLACEHOLDER
  5
F
102
{ACAD_REACTORS
330
E
102
}
  0
MLINESTYLE
  5
18
102
{ACAD_REACTORS
330
17
102
}
100
AcDbMlineStyle
  2
STANDARD
 70
0
  3

 62
256
 51
90.0
 52
90.0
 71
2
 49
0.5
 62
256
  6
BYLAYER
 49
-0.5
 62
256
  6
BYLAYER
  0
LAYOUT
  5
318
102
{ACAD_REACTORS
330
1A
102
}
100
AcDbPlotSettings
  1

  2
none_device
  4
ANSI_C_(22.00_x_17.00_Inches)
  6

 40
0.0
 41
0.0
 42
0.0
 43
0.0
 44
558.8
 45
431.8
 46
0.0
 47
0.0
 48
0.0
 49
0.0
140
0.0
141
0.0
142
1.0
143
1.0
 70
1024
 72
0
 73
0
 74
0
  7

 75
0
147
1.0
148
0.0
149
0.0
100
AcDbLayout
  1
Model
 70
0
 71
0
 10
0.0
 20
0.0
 11
22.0
 21
17.0
 12
0.0
 22
0.0
 32
0.0
 14
0.0
 24
0.0
 34
0.0
 15
0.0
 25
0.0
 35
0.0
146
0.0
 13
0.0
 23
0.0
 33
0.0
 16
1.0
 26
0.0
 36
0.0
 17
0.0
 27
1.0
 37
0.0
 76
0
330
206
345
0
346
0
  0
LAYOUT
  5
319
102
{ACAD_REACTORS
330
1A
102
}
100
AcDbPlotSettings
  1

  2
none_device
  4
ANSI_C_(22.00_x_17.00_Inches)
  6

 40
0.0
 41
0.0
 42
0.0
 43
0.0
 44
558.8
 45
431.8
 46
0.0
 47
0.0
 48
0.0
 49
0.0
140
0.0
141
0.0
142
1.0
143
1.0
 70
0
 72
0
 73
0
 74
0
  7

 75
0
147
1.0
148
0.0
149
0.0
100
AcDbLayout
  1
Layout1
 70
0
 71
1
 10
0.0
 20
0.0
 11
22.0
 21
17.0
 12
0.0
 22
0.0
 32
0.0
 14
0.0
 24
0.0
 34
0.0
 15
0.0
 25
0.0
 35
0.0
146
0.0
 13
0.0
 23
0.0
 33
0.0
 16
1.0
 26
0.0
 36
0.0
 17
0.0
 27
1.0
 37
0.0
 76
0
330
207
345
0
346
0
  0
IMAGEDEF
  5
31A
102
{ACAD_REACTORS
330
315
330
314
102
}
100
AcDbRasterImageDef
 90
0
  1
EGK_assy_2_img_1.png
 10
369.0
 20
92.0
 11
0.0066666667
 21
0.0066666667
280
1
281
0
  0
TABLESTYLE
  5
31B
102
{ACAD_REACTORS
330
317
330
28B
330
28C
102
}
330
317
100
AcDbTableStyle
  3
Standard
 70
0
 71
0
 40
0.06
 41
0.06
280
1
281
1
  7
Standard
140
0.18
170
1
 62
0
 63
7
283
0
  7
Standard
140
0.18
170
1
 62
0
 63
7
283
0
  7
Standard
140
0.18
170
1
 62
0
 63
7
283
0
  0
TABLESTYLE
  5
31C
102
{ACAD_REACTORS
330
317
330
28A
102
}
330
317
100
AcDbTableStyle
  3
Standard1
 70
1
 71
0
 40
0.06
 41
0.06
280
1
281
1
  7
Standard
140
0.18
170
1
 62
0
 63
7
283
0
  7
Standard
140
0.18
170
1
 62
0
 63
7
283
0
  7
Standard
140
0.18
170
1
 62
0
 63
7
283
0
  0
ENDSEC
  0
EOF
