999
DXF file: EBV_assy_2.dxf
999
Pro/ENGINEER 2014200 by Parametric Technology Corporation
  0
SECTION
  2
HEADER
  9
$ACADVER
  1
AC1021
  9
$DWGCODEPAGE
  3
ANSI_1252
  9
$EXTMAX
 10
22.0
 20
17.0
 30
0.0
  9
$EXTMIN
 10
0.0
 20
0.0
 30
0.0
  9
$LIMMIN
 10
0.0
 20
0.0
  9
$LIMMAX
 10
22.0
 20
17.0
  9
$VIEWCTR
 10
11.0
 20
8.5
  9
$VIEWSIZE
 40
17.0
  9
$CLAYER
  8
0
  9
$LTSCALE
 40
1.21
  9
$CELTYPE
  6
BYLAYER
  9
$DIMSCALE
 40
1.0
  9
$DIMASZ
 40
0.1875
  9
$DIMEXO
 40
0.0625
  9
$DIMDLI
 40
0.836
  9
$DIMEXE
 40
0.125
  9
$DIMCEN
 40
0.198
  9
$DIMLFAC
 40
1.0
  9
$DIMBLK
  1
_FILLED
  9
$DIMTXT
 40
0.1
  9
$DIMTOL
 70
0
  9
$DIMLIM
 70
0
  9
$DIMTFAC
 40
1.0
  9
$DIMGAP
 40
0.09
  9
$DIMDSEP
 70
46
  9
$AUNITS
 70
0
  9
$PDMODE
 70
3
  9
$PDSIZE
 40
0.3125
  9
$HANDSEED
  5
311
  9
$TILEMODE
 70
1
  9
$MEASUREMENT
 70
0
  9
$INSUNITS
 70
1
  0
ENDSEC
  0
SECTION
  2
CLASSES
  0
CLASS
  1
ACDBDICTIONARYWDFLT
  2
AcDbDictionaryWithDefault
  3
AutoCAD 2000
 90
0
 91
1
280
0
281
0
  0
CLASS
  1
ACDBPLACEHOLDER
  2
AcDbPlaceHolder
  3
AutoCAD 2000
 90
0
 91
1
280
0
281
0
  0
CLASS
  1
LAYOUT
  2
AcDbLayout
  3
AutoCAD 2000
 90
0
 91
0
280
0
281
0
  0
CLASS
  1
RASTERVARIABLES
  2
AcDbRasterVariables
  3
ISM
 90
0
 91
1
280
0
281
0
  0
CLASS
  1
IMAGEDEF
  2
AcDbRasterImageDef
  3
ISM
 90
0
 91
1
280
0
281
0
  0
CLASS
  1
IMAGEDEF_REACTOR
  2
AcDbRasterImageDefReactor
  3
ISM
 90
0
 91
1
280
0
281
0
  0
CLASS
  1
IMAGE
  2
AcDbRasterImage
  3
ISM
 90
127
 91
1
280
0
281
1
  0
CLASS
  1
TABLESTYLE
  2
AcDbTableStyle
  3
ObjectDBX Classes
 90
2047
 91
1
280
0
281
0
  0
CLASS
  1
ACAD_TABLE
  2
AcDbTable
  3
ObjectDBX Classes
 90
1025
 91
3
280
0
281
1
  0
ENDSEC
  0
SECTION
  2
TABLES
  0
TABLE
  2
VPORT
  5
8
100
AcDbSymbolTable
 70
2
  0
VPORT
  5
1F4
100
AcDbSymbolTableRecord
100
AcDbViewportTableRecord
  2
*ACTIVE
 70
0
 10
0.0
 20
0.0
 11
1.0
 21
1.0
 12
11.0
 22
8.5
 13
0.0
 23
0.0
 14
1.0
 24
1.0
 15
0.0
 25
0.0
 16
0.0
 26
0.0
 36
1.0
 17
0.0
 27
0.0
 37
0.0
 40
17.0
 41
1.2941176471
 42
50.0
 43
0.0
 44
0.0
 50
0.0
 51
0.0
 71
0
 72
100
 73
1
 74
1
 75
0
 76
0
 77
0
 78
0
  0
ENDTAB
  0
TABLE
  2
LTYPE
  5
5
100
AcDbSymbolTable
 70
6
  0
LTYPE
  5
14
100
AcDbSymbolTableRecord
100
AcDbLinetypeTableRecord
  2
BYBLOCK
 70
0
  3

 72
65
 73
0
 40
0.0
  0
LTYPE
  5
15
100
AcDbSymbolTableRecord
100
AcDbLinetypeTableRecord
  2
BYLAYER
 70
0
  3

 72
65
 73
0
 40
0.0
  0
LTYPE
  5
16
100
AcDbSymbolTableRecord
100
AcDbLinetypeTableRecord
  2
CONTINUOUS
 70
64
  3
Solid line
 72
65
 73
0
 40
0.0
  0
LTYPE
  5
1F5
100
AcDbSymbolTableRecord
100
AcDbLinetypeTableRecord
  2
CENTER
 70
64
  3
____ _ ____ _ ____ _ ____ _ ____ _ ____ _ ____
 72
65
 73
4
 40
0.6
 49
0.375
 74
0
 49
-0.075
 74
0
 49
0.075
 74
0
 49
-0.075
 74
0
  0
LTYPE
  5
1F6
100
AcDbSymbolTableRecord
100
AcDbLinetypeTableRecord
  2
HIDDEN
 70
64
  3
- - - - - - - - - - - - - - - - - - - -
 72
65
 73
2
 40
0.2
 49
0.1
 74
0
 49
-0.1
 74
0
  0
LTYPE
  5
1F7
100
AcDbSymbolTableRecord
100
AcDbLinetypeTableRecord
  2
PHANTOM
 70
64
  3
_____ _ _ _____ _ _ _____ _ _ _____
 72
65
 73
6
 40
0.8
 49
0.45
 74
0
 49
-0.05
 74
0
 49
0.1
 74
0
 49
-0.05
 74
0
 49
0.1
 74
0
 49
-0.05
 74
0
  0
LTYPE
  5
1F8
100
AcDbSymbolTableRecord
100
AcDbLinetypeTableRecord
  2
DOT
 70
64
  3
. . . . . . . . . . . . . . . . . . . .
 72
65
 73
2
 40
0.2
 49
0.1
 74
0
 49
-0.1
 74
0
  0
LTYPE
  5
1F9
100
AcDbSymbolTableRecord
100
AcDbLinetypeTableRecord
  2
DASHED
 70
64
  3
- - - - - - - - - - - - - - - - - - - -
 72
65
 73
2
 40
0.2
 49
0.1
 74
0
 49
-0.1
 74
0
  0
ENDTAB
  0
TABLE
  2
LAYER
  5
2
100
AcDbSymbolTable
 70
36
  0
LAYER
  5
10
100
AcDbSymbolTableRecord
100
AcDbLayerTableRecord
  2
0
 70
0
 62
7
  6
CONTINUOUS
370
-3
390
F
  0
LAYER
  5
1FA
100
AcDbSymbolTableRecord
100
AcDbLayerTableRecord
  2
DEFAULT_1
 70
0
 62
7
  6
CENTER
370
-3
390
F
  0
LAYER
  5
1FB
100
AcDbSymbolTableRecord
100
AcDbLayerTableRecord
  2
DEFAULT_2
 70
0
 62
8
  6
HIDDEN
370
-3
390
F
  0
LAYER
  5
1FC
100
AcDbSymbolTableRecord
100
AcDbLayerTableRecord
  2
DEFAULT_3
 70
0
 62
7
  6
PHANTOM
370
-3
390
F
  0
LAYER
  5
1FD
100
AcDbSymbolTableRecord
100
AcDbLayerTableRecord
  2
01___PRT_ALL_DTM_PLN
 70
0
 62
7
  6
CONTINUOUS
370
-3
390
F
  0
LAYER
  5
1FE
100
AcDbSymbolTableRecord
100
AcDbLayerTableRecord
  2
01___PRT_DEF_DTM_PLN
 70
0
 62
7
  6
CONTINUOUS
370
-3
390
F
  0
LAYER
  5
1FF
100
AcDbSymbolTableRecord
100
AcDbLayerTableRecord
  2
02___PRT_ALL_AXES
 70
0
 62
7
  6
CONTINUOUS
370
-3
390
F
  0
LAYER
  5
200
100
AcDbSymbolTableRecord
100
AcDbLayerTableRecord
  2
03___PRT_ALL_CURVES
 70
0
 62
7
  6
CONTINUOUS
370
-3
390
F
  0
LAYER
  5
201
100
AcDbSymbolTableRecord
100
AcDbLayerTableRecord
  2
04___PRT_ALL_DTM_PNT
 70
0
 62
7
  6
CONTINUOUS
370
-3
390
F
  0
LAYER
  5
202
100
AcDbSymbolTableRecord
100
AcDbLayerTableRecord
  2
05___PRT_ALL_DTM_CSYS
 70
0
 62
7
  6
CONTINUOUS
370
-3
390
F
  0
LAYER
  5
203
100
AcDbSymbolTableRecord
100
AcDbLayerTableRecord
  2
05___PRT_DEF_DTM_CSYS
 70
0
 62
7
  6
CONTINUOUS
370
-3
390
F
  0
LAYER
  5
204
100
AcDbSymbolTableRecord
100
AcDbLayerTableRecord
  2
06___PRT_ALL_SURFS
 70
0
 62
7
  6
CONTINUOUS
370
-3
390
F
  0
LAYER
  5
205
100
AcDbSymbolTableRecord
100
AcDbLayerTableRecord
  2
DATUM_PLANES
 70
0
 62
7
  6
CONTINUOUS
370
-3
390
F
  0
LAYER
  5
206
100
AcDbSymbolTableRecord
100
AcDbLayerTableRecord
  2
DIMENSIONS
 70
0
 62
7
  6
CONTINUOUS
370
-3
390
F
  0
LAYER
  5
207
100
AcDbSymbolTableRecord
100
AcDbLayerTableRecord
  2
PARAMETERDIMENSIONS
 70
0
 62
7
  6
CONTINUOUS
370
-3
390
F
  0
LAYER
  5
208
100
AcDbSymbolTableRecord
100
AcDbLayerTableRecord
  2
PLANE
 70
0
 62
7
  6
CONTINUOUS
370
-3
390
F
  0
LAYER
  5
209
100
AcDbSymbolTableRecord
100
AcDbLayerTableRecord
  2
PORT_AREAS
 70
0
 62
7
  6
CONTINUOUS
370
-3
390
F
  0
LAYER
  5
20A
100
AcDbSymbolTableRecord
100
AcDbLayerTableRecord
  2
SUNNBOMCOSMETIC
 70
0
 62
7
  6
CONTINUOUS
370
-3
390
F
  0
LAYER
  5
20B
100
AcDbSymbolTableRecord
100
AcDbLayerTableRecord
  2
SUNNBOMSTAMPING
 70
0
 62
7
  6
CONTINUOUS
370
-3
390
F
  0
LAYER
  5
20C
100
AcDbSymbolTableRecord
100
AcDbLayerTableRecord
  2
THREADS
 70
0
 62
7
  6
CONTINUOUS
370
-3
390
F
  0
ENDTAB
  0
TABLE
  2
STYLE
  5
3
100
AcDbSymbolTable
 70
1
  0
STYLE
  5
11
100
AcDbSymbolTableRecord
100
AcDbTextStyleTableRecord
  2
STANDARD
 70
0
 40
0.0
 41
0.8
 50
0.0
 71
0
 42
0.2
  3
txt
  4

  0
STYLE
  5
20D
100
AcDbSymbolTableRecord
100
AcDbTextStyleTableRecord
  2
TEXTSTYLE_1
 70
0
 40
0.0
 41
0.8
 50
0.0
 71
0
 42
0.2
  3
gdt
  4

  0
ENDTAB
  0
TABLE
  2
VIEW
  5
6
100
AcDbSymbolTable
 70
0
  0
ENDTAB
  0
TABLE
  2
UCS
  5
7
100
AcDbSymbolTable
 70
0
  0
ENDTAB
  0
TABLE
  2
APPID
  5
9
100
AcDbSymbolTable
 70
1
  0
APPID
  5
20E
100
AcDbSymbolTableRecord
100
AcDbRegAppTableRecord
  2
ACAD
 70
0
  0
ENDTAB
  0
TABLE
  2
BLOCK_RECORD
  5
1
100
AcDbSymbolTable
 70
0
  0
BLOCK_RECORD
  5
20F
100
AcDbSymbolTableRecord
100
AcDbBlockTableRecord
  2
*Model_Space
  0
BLOCK_RECORD
  5
210
100
AcDbSymbolTableRecord
100
AcDbBlockTableRecord
  2
*Paper_Space
  0
BLOCK_RECORD
  5
211
100
AcDbSymbolTableRecord
100
AcDbBlockTableRecord
  2
SUN_FIRST_THIRD_ANGLE_BL0
  0
BLOCK_RECORD
  5
212
100
AcDbSymbolTableRecord
100
AcDbBlockTableRecord
  2
*T1
  0
BLOCK_RECORD
  5
213
100
AcDbSymbolTableRecord
100
AcDbBlockTableRecord
  2
*T2
  0
BLOCK_RECORD
  5
214
100
AcDbSymbolTableRecord
100
AcDbBlockTableRecord
  2
*T3
  0
ENDTAB
  0
TABLE
  2
DIMSTYLE
  5
A
100
AcDbSymbolTable
 70
1
100
AcDbDimStyleTable
 71
0
  0
DIMSTYLE
105
215
100
AcDbSymbolTableRecord
100
AcDbDimStyleTableRecord
  2
STANDARD
 70
0
  3

  4

 40
1.0
 41
0.1875
 42
0.0625
 43
0.38
 44
0.125
 45
0.0
 46
0.0
 47
0.001
 48
0.001
140
0.1
141
0.09
142
0.0
143
25.4
144
1.0
145
0.0
146
1.0
147
0.09
 71
0.0
 72
0.0
 73
1
 74
1
 75
0
 76
0
 77
0
 78
4
170
0
171
2
172
0
173
0
174
0
175
0
176
0
177
0
178
0
270
2
271
3
272
3
273
2
274
2
275
0
280
0
281
0
282
0
283
1
284
4
285
0
286
0
287
3
288
0
340
11
278
46
  0
ENDTAB
  0
ENDSEC
  0
SECTION
  2
BLOCKS
  0
BLOCK
  5
20
100
AcDbEntity
  8
0
100
AcDbBlockBegin
  2
*Model_Space
 70
0
 10
0.0
 20
0.0
 30
0.0
  3
*Model_Space
  1

  0
ENDBLK
  5
21
100
AcDbEntity
  8
0
100
AcDbBlockEnd
  0
BLOCK
  5
1C
100
AcDbEntity
  8
0
100
AcDbBlockBegin
  2
*Paper_Space
 70
0
 10
0.0
 20
0.0
 30
0.0
  3
*Paper_Space
  1

  0
ENDBLK
  5
1D
100
AcDbEntity
  8
0
100
AcDbBlockEnd
  0
BLOCK
  5
216
100
AcDbEntity
  8
0
100
AcDbBlockBegin
 62
2
  6
CONTINUOUS
  2
SUN_FIRST_THIRD_ANGLE_BL0
 70
64
 10
20.4816717061
 20
1.2289683772
  3
SUN_FIRST_THIRD_ANGLE_BL0
  1

  0
TEXT
  5
217
100
AcDbEntity
  8
0
100
AcDbText
 62
2
  6
CONTINUOUS
 10
19.4750896608
 20
1.4136269581
  7
STANDARD
 40
0.08
  1
FIRST ANGLE
 41
0.8
 72
0
100
AcDbText
  0
TEXT
  5
218
100
AcDbEntity
  8
0
100
AcDbText
 62
2
  6
CONTINUOUS
 10
20.7842537513
 20
1.4047600029
  7
STANDARD
 40
0.08
  1
THIRD ANGLE
 41
0.8
 72
0
100
AcDbText
  0
LINE
  5
219
100
AcDbEntity
  8
0
100
AcDbLine
 62
7
  6
CONTINUOUS
 10
19.4767170086
 20
1.1727031207
 11
19.6334271527
 21
1.1717972817
  0
LINE
  5
21A
100
AcDbEntity
  8
0
100
AcDbLine
 62
7
  6
CONTINUOUS
 10
19.6596964832
 20
1.1717972817
 11
19.6950230232
 21
1.171593082
  0
LINE
  5
21B
100
AcDbEntity
  8
0
100
AcDbLine
 62
7
  6
CONTINUOUS
 10
19.7194818561
 20
1.1708914427
 11
19.8852396156
 21
1.1699333054
  0
LINE
  5
21C
100
AcDbEntity
  8
0
100
AcDbLine
 62
7
  6
CONTINUOUS
 10
19.4758111696
 20
1.2723454088
 11
19.88525039
 21
1.3511534004
  0
LINE
  5
21D
100
AcDbEntity
  8
0
100
AcDbLine
 62
7
  6
CONTINUOUS
 10
19.88525039
 20
1.3511534004
 11
19.8831348489
 21
0.9851647912
  0
LINE
  5
21E
100
AcDbEntity
  8
0
100
AcDbLine
 62
7
  6
CONTINUOUS
 10
19.8831348489
 20
0.9851647912
 11
19.4767170086
 21
1.0658141206
  0
LINE
  5
21F
100
AcDbEntity
  8
0
100
AcDbLine
 62
7
  6
CONTINUOUS
 10
19.4767170086
 20
1.0658141206
 11
19.4779056764
 21
1.2714536432
  0
CIRCLE
  5
220
100
AcDbEntity
  8
0
100
AcDbCircle
 62
7
  6
CONTINUOUS
 10
20.2068232291
 20
1.1717972817
 40
0.175742101
  0
CIRCLE
  5
221
100
AcDbEntity
  8
0
100
AcDbCircle
 62
7
  6
CONTINUOUS
 10
20.2068232291
 20
1.1717972817
 40
0.1005522074
  0
LINE
  5
222
100
AcDbEntity
  8
0
100
AcDbLine
 62
7
  6
CONTINUOUS
 10
20.2077290681
 20
1.3756110529
 11
20.2071171714
 21
1.2379342989
  0
LINE
  5
223
100
AcDbEntity
  8
0
100
AcDbLine
 62
7
  6
CONTINUOUS
 10
20.2077290681
 20
1.2016899681
 11
20.2074674401
 21
1.1428236749
  0
LINE
  5
224
100
AcDbEntity
  8
0
100
AcDbLine
 62
7
  6
CONTINUOUS
 10
20.208634907
 20
1.101141841
 11
20.2080230104
 21
0.963465087
  0
LINE
  5
225
100
AcDbEntity
  8
0
100
AcDbLine
 62
7
  6
CONTINUOUS
 10
20.0066328138
 20
1.1745147986
 11
20.1443095678
 21
1.1739029019
  0
LINE
  5
226
100
AcDbEntity
  8
0
100
AcDbLine
 62
7
  6
CONTINUOUS
 10
20.1832714155
 20
1.1727031207
 11
20.238153505
 21
1.172335442
  0
LINE
  5
227
100
AcDbEntity
  8
0
100
AcDbLine
 62
7
  6
CONTINUOUS
 10
20.2756669918
 20
1.1717972817
 11
20.407916871
 21
1.1712095044
  0
CIRCLE
  5
228
100
AcDbEntity
  8
0
100
AcDbCircle
 62
7
  6
CONTINUOUS
 10
20.7509457401
 20
1.1693297793
 40
0.1722024983
  0
CIRCLE
  5
229
100
AcDbEntity
  8
0
100
AcDbCircle
 62
7
  6
CONTINUOUS
 10
20.7509457401
 20
1.1693297793
 40
0.0985164967
  0
LINE
  5
22A
100
AcDbEntity
  8
0
100
AcDbLine
 62
7
  6
CONTINUOUS
 10
20.7169767782
 20
1.170462078
 11
20.7825395137
 21
1.1682766535
  0
LINE
  5
22B
100
AcDbEntity
  8
0
100
AcDbLine
 62
7
  6
CONTINUOUS
 10
20.8177513651
 20
1.1693297793
 11
20.947965719
 21
1.1693297793
  0
LINE
  5
22C
100
AcDbEntity
  8
0
100
AcDbLine
 62
7
  6
CONTINUOUS
 10
20.6875370113
 20
1.170462078
 11
20.5573226574
 21
1.170462078
  0
LINE
  5
22D
100
AcDbEntity
  8
0
100
AcDbLine
 62
7
  6
CONTINUOUS
 10
20.7486811426
 20
1.1987695462
 11
20.7486811426
 21
1.1432869085
  0
LINE
  5
22E
100
AcDbEntity
  8
0
100
AcDbLine
 62
7
  6
CONTINUOUS
 10
20.7498134414
 20
1.1059210505
 11
20.7498134414
 21
0.9757066966
  0
LINE
  5
22F
100
AcDbEntity
  8
0
100
AcDbLine
 62
7
  6
CONTINUOUS
 10
20.7486811426
 20
1.2338708068
 11
20.7486811426
 21
1.3640851607
  0
LINE
  5
230
100
AcDbEntity
  8
0
100
AcDbLine
 62
7
  6
CONTINUOUS
 10
21.0702539817
 20
1.2701043662
 11
21.4790138229
 21
1.3448360823
  0
LINE
  5
231
100
AcDbEntity
  8
0
100
AcDbLine
 62
7
  6
CONTINUOUS
 10
21.4790138229
 20
1.3448360823
 11
21.4790138229
 21
0.9779712941
  0
LINE
  5
232
100
AcDbEntity
  8
0
100
AcDbLine
 62
7
  6
CONTINUOUS
 10
21.4790138229
 20
0.9779712941
 11
21.069121683
 21
1.0617614
  0
LINE
  5
233
100
AcDbEntity
  8
0
100
AcDbLine
 62
7
  6
CONTINUOUS
 10
21.0702539817
 20
1.2701043662
 11
21.069121683
 21
1.0617614
  0
LINE
  5
234
100
AcDbEntity
  8
0
100
AcDbLine
 62
7
  6
CONTINUOUS
 10
21.4790138229
 20
1.1693297793
 11
21.3159628059
 21
1.1693297793
  0
LINE
  5
235
100
AcDbEntity
  8
0
100
AcDbLine
 62
7
  6
CONTINUOUS
 10
21.2876553377
 20
1.1693297793
 11
21.2502894796
 21
1.1693297793
  0
LINE
  5
236
100
AcDbEntity
  8
0
100
AcDbLine
 62
7
  6
CONTINUOUS
 10
21.2208497126
 20
1.1659328831
 11
21.0713862804
 21
1.1659328831
  0
LINE
  5
237
100
AcDbEntity
  8
0
100
AcDbLine
 62
7
  6
CONTINUOUS
 10
20.4796138713
 20
1.5284908897
 11
20.4766766948
 21
0.9294458646
  0
ENDBLK
  5
238
100
AcDbEntity
  8
0
  6
BYBLOCK
 62
0
100
AcDbBlockEnd
  0
BLOCK
  5
239
100
AcDbEntity
  8
0
100
AcDbBlockBegin
  2
*T1
 70
1
 10
0.0
 20
0.0
  3
*T1
  1

  0
LINE
  5
23A
100
AcDbEntity
  8
0
100
AcDbLine
 62
2
  6
CONTINUOUS
 10
9.275
 20
0.0
 11
-0.0
 21
0.0
  0
LINE
  5
23B
100
AcDbEntity
  8
0
100
AcDbLine
 62
2
  6
CONTINUOUS
 10
9.275
 20
0.0
 11
9.275
 21
1.25
  0
LINE
  5
23C
100
AcDbEntity
  8
0
100
AcDbLine
 62
2
  6
CONTINUOUS
 10
9.275
 20
0.625
 11
-0.0
 21
0.625
  0
LINE
  5
23D
100
AcDbEntity
  8
0
100
AcDbLine
 62
2
  6
CONTINUOUS
 10
9.275
 20
1.25
 11
-0.0
 21
1.25
  0
LINE
  5
23E
100
AcDbEntity
  8
0
100
AcDbLine
 62
2
  6
CONTINUOUS
 10
6.8
 20
0.0
 11
6.8
 21
1.25
  0
LINE
  5
23F
100
AcDbEntity
  8
0
100
AcDbLine
 62
2
  6
CONTINUOUS
 10
6.4
 20
0.0
 11
6.4
 21
0.625
  0
LINE
  5
240
100
AcDbEntity
  8
0
100
AcDbLine
 62
2
  6
CONTINUOUS
 10
5.9
 20
0.0
 11
5.9
 21
0.625
  0
LINE
  5
241
100
AcDbEntity
  8
0
100
AcDbLine
 62
2
  6
CONTINUOUS
 10
5.2
 20
0.0
 11
5.2
 21
0.625
  0
LINE
  5
242
100
AcDbEntity
  8
0
100
AcDbLine
 62
2
  6
CONTINUOUS
 10
4.1
 20
0.0
 11
4.1
 21
1.25
  0
LINE
  5
243
100
AcDbEntity
  8
0
100
AcDbLine
 62
2
  6
CONTINUOUS
 10
-0.0
 20
0.0
 11
-0.0
 21
1.25
  0
MTEXT
  5
244
100
AcDbEntity
  8
0
100
AcDbMText
 62
2
  6
CONTINUOUS
  7
STANDARD
 71
2
 72
1
 10
6.6
 20
0.325
 30
0.0
 11
1.0
 21
0.0
 31
0.0
 44
0.9
  1
2
 40
0.125
 41
0.2
  0
MTEXT
  5
245
100
AcDbEntity
  8
0
100
AcDbMText
 62
2
  6
CONTINUOUS
  7
STANDARD
 71
2
 72
1
 10
6.15
 20
0.325
 30
0.0
 11
1.0
 21
0.0
 31
0.0
 44
0.9
  1
C
 40
0.125
 41
0.2
  0
MTEXT
  5
246
100
AcDbEntity
  8
0
100
AcDbMText
 62
2
  6
CONTINUOUS
  7
STANDARD
 71
2
 72
1
 10
5.55
 20
0.325
 30
0.0
 11
1.0
 21
0.0
 31
0.0
 44
0.9
  1
2.000
 40
0.125
 41
1.0
  0
MTEXT
  5
247
100
AcDbEntity
  8
0
100
AcDbMText
 62
2
  6
CONTINUOUS
  7
STANDARD
 71
2
 72
1
 10
4.65
 20
0.325
 30
0.0
 11
1.0
 21
0.0
 31
0.0
 44
0.9
  1
Jul-09-19
 40
0.125
 41
1.8
  0
MTEXT
  5
248
100
AcDbEntity
  8
0
100
AcDbMText
 62
2
  6
CONTINUOUS
  7
STANDARD
 71
2
 72
1
 10
2.05
 20
0.4625
 30
0.0
 11
1.0
 21
0.0
 31
0.0
 44
0.9
  1
T-11A Sandwich ISO 03\POn P, port 3 to T - Mirror
 40
0.125
 41
5.2
  0
MTEXT
  5
249
100
AcDbEntity
  8
0
100
AcDbMText
 62
2
  6
CONTINUOUS
  7
STANDARD
 71
1
 72
1
 10
6.45
 20
0.5625
 30
0.0
 11
1.0
 21
0.0
 31
0.0
 44
0.9
  1
SHEET
 40
0.06
 41
0.48
  0
MTEXT
  5
24A
100
AcDbEntity
  8
0
100
AcDbMText
 62
2
  6
CONTINUOUS
  7
STANDARD
 71
1
 72
1
 10
5.95
 20
0.5625
 30
0.0
 11
1.0
 21
0.0
 31
0.0
 44
0.9
  1
DWG SIZE
 40
0.06
 41
0.768
  0
MTEXT
  5
24B
100
AcDbEntity
  8
0
100
AcDbMText
 62
2
  6
CONTINUOUS
  7
STANDARD
 71
1
 72
1
 10
5.25
 20
0.5625
 30
0.0
 11
1.0
 21
0.0
 31
0.0
 44
0.9
  1
SCALE
 40
0.06
 41
0.48
  0
MTEXT
  5
24C
100
AcDbEntity
  8
0
100
AcDbMText
 62
2
  6
CONTINUOUS
  7
STANDARD
 71
1
 72
1
 10
4.15
 20
0.5625
 30
0.0
 11
1.0
 21
0.0
 31
0.0
 44
0.9
  1
DATE
 40
0.06
 41
0.384
  0
MTEXT
  5
24D
100
AcDbEntity
  8
0
100
AcDbMText
 62
2
  6
CONTINUOUS
  7
STANDARD
 71
1
 72
1
 10
0.05
 20
0.5625
 30
0.0
 11
1.0
 21
0.0
 31
0.0
 44
0.9
  1
DESCRIPTION
 40
0.06
 41
1.056
  0
MTEXT
  5
24E
100
AcDbEntity
  8
0
100
AcDbMText
 62
2
  6
CONTINUOUS
  7
STANDARD
 71
2
 72
1
 10
5.45
 20
1.0375
 30
0.0
 11
1.0
 21
0.0
 31
0.0
 44
0.9
  1
ALL DIMENSIONS IN INCH\PVIEWS ARE THIRD ANGLE
 40
0.12
 41
4.224
  0
MTEXT
  5
24F
100
AcDbEntity
  8
0
100
AcDbMText
 62
2
  6
CONTINUOUS
  7
STANDARD
 71
2
 72
1
 10
2.05
 20
0.95
 30
0.0
 11
1.0
 21
0.0
 31
0.0
 44
0.9
  1
EBV
 40
0.125
 41
0.6
  0
MTEXT
  5
250
100
AcDbEntity
  8
0
100
AcDbMText
 62
2
  6
CONTINUOUS
  7
STANDARD
 71
1
 72
1
 10
0.05
 20
1.1875
 30
0.0
 11
1.0
 21
0.0
 31
0.0
 44
0.9
  1
MODEL
 40
0.06
 41
0.48
  0
ENDBLK
  5
251
100
AcDbEntity
  8
0
  6
BYBLOCK
 62
0
100
AcDbBlockEnd
  0
BLOCK
  5
252
100
AcDbEntity
  8
0
100
AcDbBlockBegin
  2
*T2
 70
1
 10
0.0
 20
0.0
  3
*T2
  1

  0
LINE
  5
253
100
AcDbEntity
  8
0
100
AcDbLine
 62
2
  6
CONTINUOUS
 10
0.0
 20
0.0
 11
9.055
 21
0.0
  0
LINE
  5
254
100
AcDbEntity
  8
0
100
AcDbLine
 62
2
  6
CONTINUOUS
 10
0.0
 20
0.0
 11
0.0
 21
-2.094
  0
LINE
  5
255
100
AcDbEntity
  8
0
100
AcDbLine
 62
2
  6
CONTINUOUS
 10
0.0
 20
-0.344
 11
9.055
 21
-0.344
  0
LINE
  5
256
100
AcDbEntity
  8
0
100
AcDbLine
 62
2
  6
CONTINUOUS
 10
0.0
 20
-0.594
 11
9.055
 21
-0.594
  0
LINE
  5
257
100
AcDbEntity
  8
0
100
AcDbLine
 62
2
  6
CONTINUOUS
 10
0.0
 20
-0.844
 11
9.055
 21
-0.844
  0
LINE
  5
258
100
AcDbEntity
  8
0
100
AcDbLine
 62
2
  6
CONTINUOUS
 10
0.0
 20
-1.094
 11
9.055
 21
-1.094
  0
LINE
  5
259
100
AcDbEntity
  8
0
100
AcDbLine
 62
2
  6
CONTINUOUS
 10
0.0
 20
-1.344
 11
9.055
 21
-1.344
  0
LINE
  5
25A
100
AcDbEntity
  8
0
100
AcDbLine
 62
2
  6
CONTINUOUS
 10
0.0
 20
-1.594
 11
9.055
 21
-1.594
  0
LINE
  5
25B
100
AcDbEntity
  8
0
100
AcDbLine
 62
2
  6
CONTINUOUS
 10
0.0
 20
-1.844
 11
9.055
 21
-1.844
  0
LINE
  5
25C
100
AcDbEntity
  8
0
100
AcDbLine
 62
2
  6
CONTINUOUS
 10
0.0
 20
-2.094
 11
9.055
 21
-2.094
  0
LINE
  5
25D
100
AcDbEntity
  8
0
100
AcDbLine
 62
2
  6
CONTINUOUS
 10
3.055
 20
0.0
 11
3.055
 21
-2.094
  0
LINE
  5
25E
100
AcDbEntity
  8
0
100
AcDbLine
 62
2
  6
CONTINUOUS
 10
9.055
 20
0.0
 11
9.055
 21
-2.094
  0
MTEXT
  5
25F
100
AcDbEntity
  8
0
100
AcDbMText
 62
2
  6
CONTINUOUS
  7
STANDARD
 71
2
 72
1
 10
1.5275
 20
-0.0995
 30
0.0
 11
1.0
 21
0.0
 31
0.0
 44
0.9
  1
Technical Data
 40
0.145
 41
3.248
  0
MTEXT
  5
260
100
AcDbEntity
  8
0
100
AcDbMText
 62
2
  6
CONTINUOUS
  7
STANDARD
 71
2
 72
1
 10
4.555
 20
-0.0995
 30
0.0
 11
1.0
 21
0.0
 31
0.0
 44
0.9
  1
U.S. Units
 40
0.145
 41
2.32
  0
MTEXT
  5
261
100
AcDbEntity
  8
0
100
AcDbMText
 62
2
  6
CONTINUOUS
  7
STANDARD
 71
2
 72
1
 10
7.555
 20
-0.0995
 30
0.0
 11
1.0
 21
0.0
 31
0.0
 44
0.9
  1
Metric Units
 40
0.145
 41
2.784
  0
MTEXT
  5
262
100
AcDbEntity
  8
0
100
AcDbMText
 62
2
  6
CONTINUOUS
  7
STANDARD
 71
2
 72
1
 10
1.5275
 20
-0.4065
 30
0.0
 11
1.0
 21
0.0
 31
0.0
 44
0.9
  1
Cavity
 40
0.125
 41
1.2
  0
MTEXT
  5
263
100
AcDbEntity
  8
0
100
AcDbMText
 62
2
  6
CONTINUOUS
  7
STANDARD
 71
2
 72
1
 10
6.055
 20
-0.4065
 30
0.0
 11
1.0
 21
0.0
 31
0.0
 44
0.9
  1
T-11A
 40
0.125
 41
1.0
  0
MTEXT
  5
264
100
AcDbEntity
  8
0
100
AcDbMText
 62
2
  6
CONTINUOUS
  7
STANDARD
 71
2
 72
1
 10
1.5275
 20
-0.6565
 30
0.0
 11
1.0
 21
0.0
 31
0.0
 44
0.9
  1
Body Features
 40
0.125
 41
2.6
  0
MTEXT
  5
265
100
AcDbEntity
  8
0
100
AcDbMText
 62
2
  6
CONTINUOUS
  7
STANDARD
 71
2
 72
1
 10
6.055
 20
-0.6565
 30
0.0
 11
1.0
 21
0.0
 31
0.0
 44
0.9
  1
On P, port 3 to T - Mirror
 40
0.125
 41
5.2
  0
MTEXT
  5
266
100
AcDbEntity
  8
0
100
AcDbMText
 62
2
  6
CONTINUOUS
  7
STANDARD
 71
2
 72
1
 10
1.5275
 20
-0.9065
 30
0.0
 11
1.0
 21
0.0
 31
0.0
 44
0.9
  1
Body Type
 40
0.125
 41
1.8
  0
MTEXT
  5
267
100
AcDbEntity
  8
0
100
AcDbMText
 62
2
  6
CONTINUOUS
  7
STANDARD
 71
2
 72
1
 10
6.055
 20
-0.9065
 30
0.0
 11
1.0
 21
0.0
 31
0.0
 44
0.9
  1
Sandwich
 40
0.125
 41
1.6
  0
MTEXT
  5
268
100
AcDbEntity
  8
0
100
AcDbMText
 62
2
  6
CONTINUOUS
  7
STANDARD
 71
2
 72
1
 10
1.5275
 20
-1.1565
 30
0.0
 11
1.0
 21
0.0
 31
0.0
 44
0.9
  1
Interface
 40
0.125
 41
1.8
  0
MTEXT
  5
269
100
AcDbEntity
  8
0
100
AcDbMText
 62
2
  6
CONTINUOUS
  7
STANDARD
 71
2
 72
1
 10
6.055
 20
-1.1565
 30
0.0
 11
1.0
 21
0.0
 31
0.0
 44
0.9
  1
ISO 03
 40
0.125
 41
1.2
  0
MTEXT
  5
26A
100
AcDbEntity
  8
0
100
AcDbMText
 62
2
  6
CONTINUOUS
  7
STANDARD
 71
2
 72
1
 10
1.5275
 20
-1.4065
 30
0.0
 11
1.0
 21
0.0
 31
0.0
 44
0.9
  1
Open Cavity Quantity
 40
0.125
 41
4.0
  0
MTEXT
  5
26B
100
AcDbEntity
  8
0
100
AcDbMText
 62
2
  6
CONTINUOUS
  7
STANDARD
 71
2
 72
1
 10
6.055
 20
-1.4065
 30
0.0
 11
1.0
 21
0.0
 31
0.0
 44
0.9
  1
1
 40
0.125
 41
0.2
  0
MTEXT
  5
26C
100
AcDbEntity
  8
0
100
AcDbMText
 62
2
  6
CONTINUOUS
  7
STANDARD
 71
2
 72
1
 10
1.5275
 20
-1.6565
 30
0.0
 11
1.0
 21
0.0
 31
0.0
 44
0.9
  1
Stack Height
 40
0.125
 41
2.4
  0
MTEXT
  5
26D
100
AcDbEntity
  8
0
100
AcDbMText
 62
2
  6
CONTINUOUS
  7
STANDARD
 71
2
 72
1
 10
4.555
 20
-1.6565
 30
0.0
 11
1.0
 21
0.0
 31
0.0
 44
0.9
  1
1.75 in.
 40
0.125
 41
1.6
  0
MTEXT
  5
26E
100
AcDbEntity
  8
0
100
AcDbMText
 62
2
  6
CONTINUOUS
  7
STANDARD
 71
2
 72
1
 10
7.555
 20
-1.6565
 30
0.0
 11
1.0
 21
0.0
 31
0.0
 44
0.9
  1
44,5 mm
 40
0.125
 41
1.4
  0
MTEXT
  5
26F
100
AcDbEntity
  8
0
100
AcDbMText
 62
2
  6
CONTINUOUS
  7
STANDARD
 71
2
 72
1
 10
1.5275
 20
-1.9065
 30
0.0
 11
1.0
 21
0.0
 31
0.0
 44
0.9
  1
Weight
 40
0.125
 41
1.2
  0
MTEXT
  5
270
100
AcDbEntity
  8
0
100
AcDbMText
 62
2
  6
CONTINUOUS
  7
STANDARD
 71
2
 72
1
 10
4.555
 20
-1.9065
 30
0.0
 11
1.0
 21
0.0
 31
0.0
 44
0.9
  1
0.679 lb.
 40
0.125
 41
1.8
  0
MTEXT
  5
271
100
AcDbEntity
  8
0
100
AcDbMText
 62
2
  6
CONTINUOUS
  7
STANDARD
 71
2
 72
1
 10
7.555
 20
-1.9065
 30
0.0
 11
1.0
 21
0.0
 31
0.0
 44
0.9
  1
0,308 kg.
 40
0.125
 41
1.8
  0
ENDBLK
  5
272
100
AcDbEntity
  8
0
  6
BYBLOCK
 62
0
100
AcDbBlockEnd
  0
BLOCK
  5
273
100
AcDbEntity
  8
0
100
AcDbBlockBegin
  2
*T3
 70
1
 10
0.0
 20
0.0
  3
*T3
  1

  0
LINE
  5
274
100
AcDbEntity
  8
0
100
AcDbLine
 62
2
  6
CONTINUOUS
 10
0.0
 20
0.0
 11
4.6
 21
0.0
  0
LINE
  5
275
100
AcDbEntity
  8
0
100
AcDbLine
 62
2
  6
CONTINUOUS
 10
0.0
 20
0.0
 11
0.0
 21
-0.93775
  0
LINE
  5
276
100
AcDbEntity
  8
0
100
AcDbLine
 62
2
  6
CONTINUOUS
 10
0.0
 20
-0.34375
 11
4.6
 21
-0.34375
  0
LINE
  5
277
100
AcDbEntity
  8
0
100
AcDbLine
 62
2
  6
CONTINUOUS
 10
0.0
 20
-0.68775
 11
4.6
 21
-0.68775
  0
LINE
  5
278
100
AcDbEntity
  8
0
100
AcDbLine
 62
2
  6
CONTINUOUS
 10
0.0
 20
-0.93775
 11
4.6
 21
-0.93775
  0
LINE
  5
279
100
AcDbEntity
  8
0
100
AcDbLine
 62
2
  6
CONTINUOUS
 10
1.3
 20
-0.34375
 11
1.3
 21
-0.93775
  0
LINE
  5
27A
100
AcDbEntity
  8
0
100
AcDbLine
 62
2
  6
CONTINUOUS
 10
3.3
 20
-0.34375
 11
3.3
 21
-0.93775
  0
LINE
  5
27B
100
AcDbEntity
  8
0
100
AcDbLine
 62
2
  6
CONTINUOUS
 10
4.6
 20
0.0
 11
4.6
 21
-0.93775
  0
MTEXT
  5
27C
100
AcDbEntity
  8
0
100
AcDbMText
 62
2
  6
CONTINUOUS
  7
STANDARD
 71
2
 72
1
 10
2.3
 20
-0.099375
 30
0.0
 11
1.0
 21
0.0
 31
0.0
 44
0.9
  1
Port Headings
 40
0.145
 41
3.016
  0
MTEXT
  5
27D
100
AcDbEntity
  8
0
100
AcDbMText
 62
2
  6
CONTINUOUS
  7
STANDARD
 71
2
 72
1
 10
0.65
 20
-0.44325
 30
0.0
 11
1.0
 21
0.0
 31
0.0
 44
0.9
  1
Product
 40
0.145
 41
1.624
  0
MTEXT
  5
27E
100
AcDbEntity
  8
0
100
AcDbMText
 62
2
  6
CONTINUOUS
  7
STANDARD
 71
2
 72
1
 10
2.3
 20
-0.44325
 30
0.0
 11
1.0
 21
0.0
 31
0.0
 44
0.9
  1
Port
 40
0.145
 41
0.928
  0
MTEXT
  5
27F
100
AcDbEntity
  8
0
100
AcDbMText
 62
2
  6
CONTINUOUS
  7
STANDARD
 71
2
 72
1
 10
3.95
 20
-0.44325
 30
0.0
 11
1.0
 21
0.0
 31
0.0
 44
0.9
  1
Size
 40
0.145
 41
0.928
  0
MTEXT
  5
280
100
AcDbEntity
  8
0
100
AcDbMText
 62
2
  6
CONTINUOUS
  7
STANDARD
 71
2
 72
1
 10
0.65
 20
-0.75025
 30
0.0
 11
1.0
 21
0.0
 31
0.0
 44
0.9
  1
EBV
 40
0.125
 41
0.6
  0
MTEXT
  5
281
100
AcDbEntity
  8
0
100
AcDbMText
 62
2
  6
CONTINUOUS
  7
STANDARD
 71
2
 72
1
 10
2.3
 20
-0.75025
 30
0.0
 11
1.0
 21
0.0
 31
0.0
 44
0.9
  1
Gage Port
 40
0.125
 41
1.8
  0
MTEXT
  5
282
100
AcDbEntity
  8
0
100
AcDbMText
 62
2
  6
CONTINUOUS
  7
STANDARD
 71
2
 72
1
 10
3.95
 20
-0.75025
 30
0.0
 11
1.0
 21
0.0
 31
0.0
 44
0.9
  1
1/4" NPTF
 40
0.125
 41
1.8
  0
ENDBLK
  5
283
100
AcDbEntity
  8
0
  6
BYBLOCK
 62
0
100
AcDbBlockEnd
  0
ENDSEC
  0
SECTION
  2
ENTITIES
  0
IMAGE
  5
284
100
AcDbEntity
  8
0
100
AcDbRasterImage
 62
7
  6
CONTINUOUS
 10
19.2297077316
 20
0.3094318264
 30
0.0
 11
0.0066666667
 21
0.0
 31
0.0
 12
0.0
 22
0.0066666667
 32
0.0
 13
369.0
 23
92.0
340
       30E
 70
9
280
0
281
50
282
50
283
0
360
       308
 71
1
 91
2
 14
-0.5
 24
-0.5
 14
368.5
 24
91.5
  0
INSERT
  5
285
100
AcDbEntity
  8
0
100
AcDbBlockReference
 62
2
  6
CONTINUOUS
  2
SUN_FIRST_THIRD_ANGLE_BL0
 10
20.4816717061
 20
1.2289683772
  0
ACAD_TABLE
  5
286
100
AcDbEntity
  8
0
 62
2
  6
CONTINUOUS
100
AcDbBlockReference
  2
*T1
 10
12.42375
 20
0.30125
 30
0.0
100
AcDbTable
342
       310
343
212
 11
1.0
 21
0.0
 31
0.0
 90
6
 91
4
 92
6
 93
20
 94
0
 95
0
 96
0
 70
1
 41
0.0
141
0.525
141
0.1
141
0.525
141
0.1
142
4.1
142
1.1
142
0.7
142
0.5
142
0.4
142
2.475
171
1
172
0
173
0
174
0
175
1
176
1
 91
33
178
0
145
0.0
301
CELL_VALUE
 90
4
  1
T-11A Sandwich ISO 03\POn P, port 3 to T - Mirror
304
ACVALUE_END
170
2
140
0.125
171
1
172
0
173
0
174
0
175
1
176
1
 91
33
178
0
145
0.0
301
CELL_VALUE
 90
4
  1
Jul-09-19
304
ACVALUE_END
170
5
140
0.125
171
1
172
0
173
0
174
0
175
1
176
1
 91
33
178
0
145
0.0
301
CELL_VALUE
 90
4
  1
2.000
304
ACVALUE_END
170
5
140
0.125
171
1
172
0
173
0
174
0
175
1
176
1
 91
33
178
0
145
0.0
301
CELL_VALUE
 90
4
  1
C
304
ACVALUE_END
170
5
140
0.125
171
1
172
0
173
0
174
0
175
1
176
1
 91
33
178
0
145
0.0
301
CELL_VALUE
 90
4
  1
2
304
ACVALUE_END
170
5
140
0.125
171
1
172
0
173
0
174
0
175
1
176
1
 91
33
178
0
145
0.0
301
CELL_VALUE
 90
4
  1
 
304
ACVALUE_END
170
1
140
0.125
171
1
172
0
173
0
174
0
175
1
176
1
 91
33
178
0
145
0.0
301
CELL_VALUE
 90
4
  1
DESCRIPTION
304
ACVALUE_END
170
1
140
0.06
171
1
172
0
173
0
174
0
175
1
176
1
 91
33
178
0
145
0.0
301
CELL_VALUE
 90
4
  1
DATE
304
ACVALUE_END
170
1
140
0.06
171
1
172
0
173
0
174
0
175
1
176
1
 91
33
178
0
145
0.0
301
CELL_VALUE
 90
4
  1
SCALE
304
ACVALUE_END
170
1
140
0.06
171
1
172
0
173
0
174
0
175
1
176
1
 91
33
178
0
145
0.0
301
CELL_VALUE
 90
4
  1
DWG SIZE
304
ACVALUE_END
170
1
140
0.06
171
1
172
0
173
0
174
0
175
1
176
1
 91
33
178
0
145
0.0
301
CELL_VALUE
 90
4
  1
SHEET
304
ACVALUE_END
170
1
140
0.06
171
1
172
0
173
0
174
0
175
1
176
1
 91
33
178
0
145
0.0
301
CELL_VALUE
 90
4
  1
 
304
ACVALUE_END
170
1
140
0.125
171
1
172
0
173
0
174
0
175
1
176
1
 91
33
178
0
145
0.0
301
CELL_VALUE
 90
4
  1
EBV
304
ACVALUE_END
170
5
140
0.125
171
1
172
0
173
0
174
0
175
4
176
1
 91
33
178
0
145
0.0
301
CELL_VALUE
 90
4
  1
ALL DIMENSIONS IN INCH\PVIEWS ARE THIRD ANGLE
304
ACVALUE_END
170
5
140
0.12
171
1
172
0
173
1
174
0
175
1
176
1
 91
1
178
0
145
0.0
170
1
171
1
172
0
173
1
174
0
175
1
176
1
 91
1
178
0
145
0.0
170
1
171
1
172
0
173
1
174
0
175
1
176
1
 91
1
178
0
145
0.0
170
5
171
1
172
0
173
0
174
0
175
1
176
1
 91
33
178
0
145
0.0
301
CELL_VALUE
 90
4
  1
 
304
ACVALUE_END
170
1
140
0.125
171
1
172
0
173
0
174
0
175
1
176
1
 91
33
178
0
145
0.0
301
CELL_VALUE
 90
4
  1
MODEL
304
ACVALUE_END
170
1
140
0.06
171
1
172
0
173
0
174
0
175
1
176
1
 91
33
178
0
145
0.0
301
CELL_VALUE
 90
4
  1
 
304
ACVALUE_END
170
1
140
0.125
171
1
172
0
173
0
174
0
175
1
176
1
 91
33
178
0
145
0.0
301
CELL_VALUE
 90
4
  1
 
304
ACVALUE_END
170
1
140
0.125
171
1
172
0
173
0
174
0
175
1
176
1
 91
33
178
0
145
0.0
301
CELL_VALUE
 90
4
  1
 
304
ACVALUE_END
170
1
140
0.125
171
1
172
0
173
0
174
0
175
1
176
1
 91
33
178
0
145
0.0
301
CELL_VALUE
 90
4
  1
 
304
ACVALUE_END
170
1
140
0.125
171
1
172
0
173
0
174
0
175
1
176
1
 91
33
178
0
145
0.0
301
CELL_VALUE
 90
4
  1
 
304
ACVALUE_END
170
1
140
0.125
  0
ACAD_TABLE
  5
287
100
AcDbEntity
  8
0
 62
2
  6
CONTINUOUS
100
AcDbBlockReference
  2
*T2
 10
12.4237499994
 20
16.47875
 30
0.0
100
AcDbTable
342
       30F
343
213
 11
1.0
 21
0.0
 31
0.0
 90
22
 91
8
 92
3
 93
16
 94
0
 95
0
 96
0
 41
0.028
141
0.344
141
0.25
141
0.25
141
0.25
141
0.25
141
0.25
141
0.25
141
0.25
142
3.055
142
3.0
142
3.0
171
1
172
0
173
0
174
0
175
1
176
1
 91
33
178
0
145
0.0
301
CELL_VALUE
 90
4
  1
Technical Data
304
ACVALUE_END
170
5
140
0.145
171
1
172
0
173
0
174
0
175
1
176
1
 91
33
178
0
145
0.0
301
CELL_VALUE
 90
4
  1
U.S. Units
304
ACVALUE_END
170
5
140
0.145
171
1
172
0
173
0
174
0
175
1
176
1
 91
33
178
0
145
0.0
301
CELL_VALUE
 90
4
  1
Metric Units
304
ACVALUE_END
170
5
140
0.145
171
1
172
0
173
0
174
0
175
1
176
1
 91
33
178
0
145
0.0
301
CELL_VALUE
 90
4
  1
Cavity
304
ACVALUE_END
170
5
140
0.125
171
1
172
0
173
0
174
0
175
2
176
1
 91
33
178
0
145
0.0
301
CELL_VALUE
 90
4
  1
T-11A
304
ACVALUE_END
170
5
140
0.125
171
1
172
0
173
1
174
0
175
1
176
1
 91
1
178
0
145
0.0
170
1
171
1
172
0
173
0
174
0
175
1
176
1
 91
33
178
0
145
0.0
301
CELL_VALUE
 90
4
  1
Body Features
304
ACVALUE_END
170
5
140
0.125
171
1
172
0
173
0
174
0
175
2
176
1
 91
33
178
0
145
0.0
301
CELL_VALUE
 90
4
  1
On P, port 3 to T - Mirror
304
ACVALUE_END
170
5
140
0.125
171
1
172
0
173
1
174
0
175
1
176
1
 91
1
178
0
145
0.0
170
1
171
1
172
0
173
0
174
0
175
1
176
1
 91
33
178
0
145
0.0
301
CELL_VALUE
 90
4
  1
Body Type
304
ACVALUE_END
170
5
140
0.125
171
1
172
0
173
0
174
0
175
2
176
1
 91
33
178
0
145
0.0
301
CELL_VALUE
 90
4
  1
Sandwich
304
ACVALUE_END
170
5
140
0.125
171
1
172
0
173
1
174
0
175
1
176
1
 91
1
178
0
145
0.0
170
1
171
1
172
0
173
0
174
0
175
1
176
1
 91
33
178
0
145
0.0
301
CELL_VALUE
 90
4
  1
Interface
304
ACVALUE_END
170
5
140
0.125
171
1
172
0
173
0
174
0
175
2
176
1
 91
33
178
0
145
0.0
301
CELL_VALUE
 90
4
  1
ISO 03
304
ACVALUE_END
170
5
140
0.125
171
1
172
0
173
1
174
0
175
1
176
1
 91
1
178
0
145
0.0
170
1
171
1
172
0
173
0
174
0
175
1
176
1
 91
33
178
0
145
0.0
301
CELL_VALUE
 90
4
  1
Open Cavity Quantity
304
ACVALUE_END
170
5
140
0.125
171
1
172
0
173
0
174
0
175
2
176
1
 91
33
178
0
145
0.0
301
CELL_VALUE
 90
4
  1
1
304
ACVALUE_END
170
5
140
0.125
171
1
172
0
173
1
174
0
175
1
176
1
 91
1
178
0
145
0.0
170
1
171
1
172
0
173
0
174
0
175
1
176
1
 91
33
178
0
145
0.0
301
CELL_VALUE
 90
4
  1
Stack Height
304
ACVALUE_END
170
5
140
0.125
171
1
172
0
173
0
174
0
175
1
176
1
 91
33
178
0
145
0.0
301
CELL_VALUE
 90
4
  1
1.75 in.
304
ACVALUE_END
170
5
140
0.125
171
1
172
0
173
0
174
0
175
1
176
1
 91
33
178
0
145
0.0
301
CELL_VALUE
 90
4
  1
44,5 mm
304
ACVALUE_END
170
5
140
0.125
171
1
172
0
173
0
174
0
175
1
176
1
 91
33
178
0
145
0.0
301
CELL_VALUE
 90
4
  1
Weight
304
ACVALUE_END
170
5
140
0.125
171
1
172
0
173
0
174
0
175
1
176
1
 91
33
178
0
145
0.0
301
CELL_VALUE
 90
4
  1
0.679 lb.
304
ACVALUE_END
170
5
140
0.125
171
1
172
0
173
0
174
0
175
1
176
1
 91
33
178
0
145
0.0
301
CELL_VALUE
 90
4
  1
0,308 kg.
304
ACVALUE_END
170
5
140
0.125
  0
ACAD_TABLE
  5
288
100
AcDbEntity
  8
0
 62
2
  6
CONTINUOUS
100
AcDbBlockReference
  2
*T3
 10
0.52125
 20
1.459
 30
0.0
100
AcDbTable
342
       30F
343
214
 11
1.0
 21
0.0
 31
0.0
 90
22
 91
3
 92
3
 93
16
 94
0
 95
0
 96
0
 41
0.05
141
0.34375
141
0.344
141
0.25
142
1.3
142
2.0
142
1.3
171
1
172
0
173
0
174
0
175
3
176
1
 91
33
178
0
145
0.0
301
CELL_VALUE
 90
4
  1
Port Headings
304
ACVALUE_END
170
5
140
0.145
171
1
172
0
173
1
174
0
175
1
176
1
 91
1
178
0
145
0.0
170
1
171
1
172
0
173
1
174
0
175
1
176
1
 91
1
178
0
145
0.0
170
1
171
1
172
0
173
0
174
0
175
1
176
1
 91
33
178
0
145
0.0
301
CELL_VALUE
 90
4
  1
Product
304
ACVALUE_END
170
5
140
0.145
171
1
172
0
173
0
174
0
175
1
176
1
 91
33
178
0
145
0.0
301
CELL_VALUE
 90
4
  1
Port
304
ACVALUE_END
170
5
140
0.145
171
1
172
0
173
0
174
0
175
1
176
1
 91
33
178
0
145
0.0
301
CELL_VALUE
 90
4
  1
Size
304
ACVALUE_END
170
5
140
0.145
171
1
172
0
173
0
174
0
175
1
176
1
 91
33
178
0
145
0.0
301
CELL_VALUE
 90
4
  1
EBV
304
ACVALUE_END
170
5
140
0.125
171
1
172
0
173
0
174
0
175
1
176
1
 91
33
178
0
145
0.0
301
CELL_VALUE
 90
4
  1
Gage Port
304
ACVALUE_END
170
5
140
0.125
171
1
172
0
173
0
174
0
175
1
176
1
 91
33
178
0
145
0.0
301
CELL_VALUE
 90
4
  1
1/4" NPTF
304
ACVALUE_END
170
5
140
0.125
  0
MTEXT
  5
289
100
AcDbEntity
  8
0
100
AcDbMText
 62
2
  6
CONTINUOUS
  7
STANDARD
 71
1
 72
1
 10
0.52125
 20
5.75995
 30
0.0
 11
1.0
 21
0.0
 31
0.0
 44
0.6
  3
Notes\P \P1. Important: Carefully consider\P   the maximum system pressure. The\P   pressure rating of the manifold is\P   dependent on the manifold material,\P   with the port type/size a secondary\P   consideration. Manifolds\P   constructed of alu
  1
minum are not\P   rated for pressures higher than\P   3000 psi (210 bar), regardless of\P   the port type/size specified.\P2. Items without balloons are\P   shipped loose.
 40
0.1
 41
3.04
  0
LINE
  5
28A
100
AcDbEntity
  8
0
100
AcDbLine
 62
7
  6
CONTINUOUS
 10
0.30125
 20
0.30125
 11
0.30125
 21
16.69875
  0
LINE
  5
28B
100
AcDbEntity
  8
0
100
AcDbLine
 62
7
  6
CONTINUOUS
 10
0.30125
 20
0.30125
 11
21.69875
 21
0.30125
  0
LINE
  5
28C
100
AcDbEntity
  8
0
100
AcDbLine
 62
7
  6
CONTINUOUS
 10
0.30125
 20
16.69875
 11
21.69875
 21
16.69875
  0
LINE
  5
28D
100
AcDbEntity
  8
0
100
AcDbLine
 62
7
  6
CONTINUOUS
 10
21.69875
 20
0.30125
 11
21.69875
 21
16.69875
  0
LINE
  5
28E
100
AcDbEntity
  8
0
100
AcDbLine
 62
7
  6
CONTINUOUS
 10
9.195610258
 20
5.4919138668
 11
9.2553431109
 21
5.4363261767
  0
LINE
  5
28F
100
AcDbEntity
  8
0
100
AcDbLine
 62
7
  6
CONTINUOUS
 10
9.7496217297
 20
11.8111804653
 11
8.8696376779
 21
10.9611810926
  0
LINE
  5
290
100
AcDbEntity
  8
0
100
AcDbLine
 62
7
  6
CONTINUOUS
 10
9.7401177344
 20
5.3120392705
 11
11.4304880306
 21
5.1948116923
  0
LINE
  5
291
100
AcDbEntity
  8
0
100
AcDbLine
 62
7
  6
CONTINUOUS
 10
9.7240709669
 20
5.3564266871
 11
11.414441263
 21
5.2391991089
  0
LINE
  5
292
100
AcDbEntity
  8
0
100
AcDbLine
 62
4
  6
CONTINUOUS
 10
11.2798462929
 20
11.4692639539
 11
11.2498282754
 21
11.4552687735
  0
LINE
  5
293
100
AcDbEntity
  8
0
100
AcDbLine
 62
7
  6
CONTINUOUS
 10
8.8696376779
 20
10.9611810926
 11
8.8696376779
 21
6.614514847
  0
LINE
  5
294
100
AcDbEntity
  8
02___PRT_ALL_AXES
100
AcDbLine
 62
7
  6
CONTINUOUS
 10
10.6165274242
 20
11.2955471142
 11
10.6175245714
 21
11.2964903107
  0
LINE
  5
295
100
AcDbEntity
  8
02___PRT_ALL_AXES
100
AcDbLine
 62
7
  6
CONTINUOUS
 10
10.526954343
 20
11.2122071334
 11
10.6175170554
 21
11.2964852443
  0
LINE
  5
296
100
AcDbEntity
  8
0
100
AcDbLine
 62
7
  6
CONTINUOUS
 10
9.7401177344
 20
5.3120392705
 11
9.7240709669
 21
5.3564266871
  0
LINE
  5
297
100
AcDbEntity
  8
0
100
AcDbLine
 62
7
  6
CONTINUOUS
 10
9.1681850905
 20
6.5938105137
 11
9.1681850905
 21
5.5439265435
  0
LINE
  5
298
100
AcDbEntity
  8
0
100
AcDbLine
 62
4
  6
CONTINUOUS
 10
11.1349574136
 20
11.4793120318
 11
11.1556629193
 21
11.4993120158
  0
LINE
  5
299
100
AcDbEntity
  8
0
100
AcDbLine
 62
7
  6
CONTINUOUS
 10
8.8696376779
 20
6.614514847
 11
12.2503782703
 21
6.3800596906
  0
LINE
  5
29A
100
AcDbEntity
  8
0
100
AcDbLine
 62
7
  6
CONTINUOUS
 10
11.5409184948
 20
11.2314403757
 11
11.5395211484
 21
11.2301159346
  0
LINE
  5
29B
100
AcDbEntity
  8
0
100
AcDbLine
 62
7
  6
CONTINUOUS
 10
9.7240709669
 20
5.3564266871
 11
9.7240709669
 21
6.5552596972
  0
LINE
  5
29C
100
AcDbEntity
  8
0
100
AcDbLine
 62
7
  6
CONTINUOUS
 10
13.1303623221
 20
11.5767253089
 11
12.2503782703
 21
10.7267259362
  0
LINE
  5
29D
100
AcDbEntity
  8
0
100
AcDbLine
 62
7
  6
CONTINUOUS
 10
11.4304880306
 20
5.1948116923
 11
11.414441263
 21
5.2391991089
  0
LINE
  5
29E
100
AcDbEntity
  8
0
100
AcDbLine
 62
7
  6
CONTINUOUS
 10
10.9252853157
 20
11.3411219206
 11
10.9252853157
 21
11.2071474429
  0
LINE
  5
29F
100
AcDbEntity
  8
0
100
AcDbLine
 62
7
  6
CONTINUOUS
 10
11.3808558874
 20
8.8353395883
 11
11.3813993121
 21
8.8358547328
  0
LINE
  5
2A0
100
AcDbEntity
  8
0
100
AcDbLine
 62
7
  6
CONTINUOUS
 10
11.3808558874
 20
8.8353395883
 11
11.350989461
 21
8.8075457432
  0
LINE
  5
2A1
100
AcDbEntity
  8
0
100
AcDbLine
 62
7
  6
CONTINUOUS
 10
11.2041241001
 20
11.3217843852
 11
11.2041241001
 21
11.2302780895
  0
LINE
  5
2A2
100
AcDbEntity
  8
0
100
AcDbLine
 62
4
  6
CONTINUOUS
 10
11.2808865345
 20
11.4852687499
 11
11.2798462929
 21
11.4692639539
  0
LINE
  5
2A3
100
AcDbEntity
  8
0
100
AcDbLine
 62
7
  6
CONTINUOUS
 10
11.3888274695
 20
8.8504579397
 11
11.3888274695
 21
8.8541642284
  0
LINE
  5
2A4
100
AcDbEntity
  8
0
100
AcDbLine
 62
7
  6
CONTINUOUS
 10
11.414441263
 20
5.2391991089
 11
11.414441263
 21
6.438032119
  0
LINE
  5
2A5
100
AcDbEntity
  8
0
100
AcDbLine
 62
7
  6
CONTINUOUS
 10
12.2503782703
 20
6.3800596906
 11
12.2503782703
 21
10.7267259362
  0
LINE
  5
2A6
100
AcDbEntity
  8
0
100
AcDbLine
 62
7
  6
CONTINUOUS
 10
12.3329997993
 20
5.3764585747
 11
12.3329997993
 21
6.4598659641
  0
LINE
  5
2A7
100
AcDbEntity
  8
0
100
AcDbLine
 62
7
  6
CONTINUOUS
 10
12.8081911739
 20
5.835458223
 11
12.8081911739
 21
6.9188656125
  0
LINE
  5
2A8
100
AcDbEntity
  8
0
100
AcDbLine
 62
7
  6
CONTINUOUS
 10
12.8337467613
 20
6.9435504158
 11
12.8337467613
 21
5.8856986137
  0
LINE
  5
2A9
100
AcDbEntity
  8
0
100
AcDbLine
 62
7
  6
CONTINUOUS
 10
10.7211612156
 20
11.2882907361
 11
10.7958758999
 21
11.2161220163
  0
LINE
  5
2AA
100
AcDbEntity
  8
0
100
AcDbLine
 62
7
  6
CONTINUOUS
 10
13.1303623221
 20
7.2300590634
 11
13.1303623221
 21
11.5767253089
  0
LINE
  5
2AB
100
AcDbEntity
  8
0
100
AcDbLine
 62
7
  6
CONTINUOUS
 10
13.1303623221
 20
7.2300590634
 11
12.2503782703
 21
6.3800596906
  0
LINE
  5
2AC
100
AcDbEntity
  8
0
100
AcDbLine
 62
7
  6
CONTINUOUS
 10
12.2503782703
 20
10.7267259362
 11
8.8696376779
 21
10.9611810926
  0
LINE
  5
2AD
100
AcDbEntity
  8
02___PRT_ALL_AXES
100
AcDbLine
 62
7
  6
CONTINUOUS
 10
11.473045657
 20
11.2122071334
 11
11.3824829446
 21
11.2964852443
  0
LINE
  5
2AE
100
AcDbEntity
  8
0
100
AcDbLine
 62
7
  6
CONTINUOUS
 10
11.2788387844
 20
11.2496156654
 11
11.2041241001
 21
11.3217843852
  0
LINE
  5
2AF
100
AcDbEntity
  8
0
100
AcDbLine
 62
7
  6
CONTINUOUS
 10
11.0747146843
 20
11.1967844809
 11
11.2788387844
 21
11.2496156654
  0
LINE
  5
2B0
100
AcDbEntity
  8
0
100
AcDbLine
 62
4
  6
CONTINUOUS
 10
11.1235644177
 20
11.4533072426
 11
11.1142519087
 21
11.4593120488
  0
LINE
  5
2B1
100
AcDbEntity
  8
0
100
AcDbLine
 62
7
  6
CONTINUOUS
 10
10.9252853157
 20
11.3411219206
 11
10.7211612156
 21
11.2882907361
  0
LINE
  5
2B2
100
AcDbEntity
  8
0
100
AcDbLine
 62
4
  6
CONTINUOUS
 10
11.2498282754
 20
11.4552687735
 11
11.2104977453
 21
11.4472783958
  0
LINE
  5
2B3
100
AcDbEntity
  8
0
100
AcDbLine
 62
4
  6
CONTINUOUS
 10
11.1556629193
 20
11.4993120158
 11
11.1753281839
 21
11.5033072042
  0
LINE
  5
2B4
100
AcDbEntity
  8
0
100
AcDbLine
 62
4
  6
CONTINUOUS
 10
11.2104977453
 20
11.4472783958
 11
11.1763435941
 21
11.4442880165
  0
LINE
  5
2B5
100
AcDbEntity
  8
0
100
AcDbLine
 62
7
  6
CONTINUOUS
 10
10.7958758999
 20
11.2161220163
 11
11.0747146843
 21
11.1967844809
  0
LINE
  5
2B6
100
AcDbEntity
  8
0
100
AcDbLine
 62
7
  6
CONTINUOUS
 10
11.2041241001
 20
11.3217843852
 11
10.9252853157
 21
11.3411219206
  0
LINE
  5
2B7
100
AcDbEntity
  8
0
100
AcDbLine
 62
4
  6
CONTINUOUS
 10
11.1473658183
 20
11.4462976321
 11
11.1235644177
 21
11.4533072426
  0
LINE
  5
2B8
100
AcDbEntity
  8
0
100
AcDbLine
 62
4
  6
CONTINUOUS
 10
11.2622615115
 20
11.4972783574
 11
11.2808865345
 21
11.4852687499
  0
LINE
  5
2B9
100
AcDbEntity
  8
0
100
AcDbLine
 62
7
  6
CONTINUOUS
 10
12.3329997993
 20
5.3764585747
 11
12.8081911739
 21
5.835458223
  0
LINE
  5
2BA
100
AcDbEntity
  8
0
100
AcDbLine
 62
7
  6
CONTINUOUS
 10
12.3311302191
 20
5.3746862886
 11
12.3329997993
 21
5.3764585747
  0
LINE
  5
2BB
100
AcDbEntity
  8
0
100
AcDbLine
 62
4
  6
CONTINUOUS
 10
11.1753281839
 20
11.5033072042
 11
11.2094823364
 21
11.5062975848
  0
LINE
  5
2BC
100
AcDbEntity
  8
0
100
AcDbLine
 62
4
  6
CONTINUOUS
 10
11.1763435941
 20
11.4442880165
 11
11.1473658183
 21
11.4462976321
  0
LINE
  5
2BD
100
AcDbEntity
  8
0
100
AcDbLine
 62
4
  6
CONTINUOUS
 10
11.1929129653
 20
11.4752928007
 11
11.1349574136
 21
11.4793120318
  0
LINE
  5
2BE
100
AcDbEntity
  8
0
100
AcDbLine
 62
4
  6
CONTINUOUS
 10
11.2094823364
 20
11.5062975848
 11
11.2384601123
 21
11.5042879692
  0
LINE
  5
2BF
100
AcDbEntity
  8
0
100
AcDbLine
 62
4
  6
CONTINUOUS
 10
11.2384601123
 20
11.5042879692
 11
11.2622615115
 21
11.4972783574
  0
LINE
  5
2C0
100
AcDbEntity
  8
0
100
AcDbLine
 62
7
  6
CONTINUOUS
 10
12.3311302191
 20
5.3746862886
 11
12.2713973663
 21
5.3190985985
  0
LINE
  5
2C1
100
AcDbEntity
  8
0
100
AcDbLine
 62
7
  6
CONTINUOUS
 10
13.1303623221
 20
11.5767253089
 11
9.7496217297
 21
11.8111804653
  0
ARC
  5
2C2
100
AcDbEntity
  8
0
100
AcDbCircle
 62
7
  6
CONTINUOUS
 10
11.3838387627
 20
8.5852950956
 40
0.2647382664
100
AcDbArc
 50
43.5670199291
 51
45.1384909052
  0
ARC
  5
2C3
100
AcDbEntity
  8
0
100
AcDbCircle
 62
7
  6
CONTINUOUS
 10
11.2125147911
 20
8.7932628924
 40
0.2362561448
100
AcDbArc
 50
359.9520527857
 51
12.2641344204
  0
ARC
  5
2C4
100
AcDbEntity
  8
0
100
AcDbCircle
 62
7
  6
CONTINUOUS
 10
9.5053550364
 20
9.8090325559
 40
0.139148734
100
AcDbArc
 50
213.1514198971
 51
234.8279908192
  0
SPLINE
  5
2C5
100
AcDbEntity
  8
0
100
AcDbSpline
 62
7
  6
CONTINUOUS
 70
0
 71
3
 72
15
 73
11
 74
0
 42
0.0000001
 43
0.0000001
 44
0.0000000001
 40
0.0
 40
0.0
 40
0.0
 40
0.0
 40
0.1479810784
 40
0.2876071601
 40
0.4195549847
 40
0.5446585384
 40
0.6639329523
 40
0.7786123587
 40
0.8901179576
 40
1.0
 40
1.0
 40
1.0
 40
1.0
 10
11.3813993121
 20
8.8358547328
 30
0.0
 10
11.3819965185
 20
8.83643159
 30
0.0
 10
11.3831221106
 20
8.837590071
 30
0.0
 10
11.3846358169
 20
8.8393959571
 30
0.0
 10
11.3859220652
 20
8.84121586
 30
0.0
 10
11.3869786348
 20
8.8430478826
 30
0.0
 10
11.387803023
 20
8.8448903584
 30
0.0
 10
11.3883933152
 20
8.846741281
 30
0.0
 10
11.3887482755
 20
8.8485978135
 30
0.0
 10
11.3888274881
 20
8.849841398
 30
0.0
 10
11.3888274953
 20
8.8504579397
 30
0.0
  0
SPLINE
  5
2C6
100
AcDbEntity
  8
0
100
AcDbSpline
 62
7
  6
CONTINUOUS
 70
0
 71
3
 72
31
 73
27
 74
0
 42
0.0000001
 43
0.0000001
 44
0.0000000001
 40
0.0
 40
0.0
 40
0.0
 40
0.0
 40
0.0151687629
 40
0.0315622563
 40
0.0492182175
 40
0.0681595975
 40
0.0883967102
 40
0.1099303098
 40
0.1327542374
 40
0.1568528319
 40
0.1822009002
 40
0.2087695936
 40
0.23652617
 40
0.2654307972
 40
0.2954406708
 40
0.3265112782
 40
0.3585930952
 40
0.3916327717
 40
0.4603642647
 40
0.5322400038
 40
0.6067609487
 40
0.6833991452
 40
0.7616087224
 40
0.840826854
 40
0.9204825942
 40
1.0
 40
1.0
 40
1.0
 40
1.0
 10
11.350986247
 20
8.8075427797
 30
0.0
 10
11.3502215418
 20
8.8068313978
 30
0.0
 10
11.3485647669
 20
8.8054208838
 30
0.0
 10
11.3458309274
 20
8.8034143602
 30
0.0
 10
11.3427596855
 20
8.8014407289
 30
0.0
 10
11.3393570144
 20
8.7995046662
 30
0.0
 10
11.3356295337
 20
8.7976094485
 30
0.0
 10
11.3315842197
 20
8.7957583574
 30
0.0
 10
11.3272283377
 20
8.7939549995
 30
0.0
 10
11.3225700673
 20
8.7922027749
 30
0.0
 10
11.3176184487
 20
8.7905048112
 30
0.0
 10
11.3123829389
 20
8.7888645636
 30
0.0
 10
11.3068735064
 20
8.787285533
 30
0.0
 10
11.3011008882
 20
8.7857704828
 30
0.0
 10
11.2950762319
 20
8.7843223205
 30
0.0
 10
11.2888110461
 20
8.7829441222
 30
0.0
 10
11.2823174382
 20
8.7816384571
 30
0.0
 10
11.273251987
 20
8.7799755748
 30
0.0
 10
11.2614406753
 20
8.7781058591
 30
0.0
 10
11.246747515
 20
8.7762152319
 30
0.0
 10
11.2314673497
 20
8.7746648493
 30
0.0
 10
11.2157183333
 20
8.7734662337
 30
0.0
 10
11.1996221763
 20
8.7726293938
 30
0.0
 10
11.1833032788
 20
8.7721606091
 30
0.0
 10
11.1668879981
 20
8.7720635547
 30
0.0
 10
11.1559286908
 20
8.7722479925
 30
0.0
 10
11.1504557901
 20
8.7724032323
 30
0.0
  0
SPLINE
  5
2C7
100
AcDbEntity
  8
0
100
AcDbSpline
 62
7
  6
CONTINUOUS
 70
0
 71
3
 72
33
 73
29
 74
0
 42
0.0000001
 43
0.0000001
 44
0.0000000001
 40
0.0
 40
0.0
 40
0.0
 40
0.0
 40
0.0816370366
 40
0.162721778
 40
0.2427633053
 40
0.3212800143
 40
0.3978014609
 40
0.4718739402
 40
0.5078562599
 40
0.5430662099
 40
0.5774526238
 40
0.6109671248
 40
0.6435643186
 40
0.6751996181
 40
0.7058300888
 40
0.7354176794
 40
0.7639266555
 40
0.7913227449
 40
0.8175759116
 40
0.842661442
 40
0.8665572778
 40
0.8892452943
 40
0.9107165502
 40
0.9309688467
 40
0.950005973
 40
0.9678399544
 40
0.9844931378
 40
1.0
 40
1.0
 40
1.0
 40
1.0
 10
11.1728768283
 20
8.7940379357
 30
0.0
 10
11.1787277782
 20
8.7940521454
 30
0.0
 10
11.1903901685
 20
8.7942020294
 30
0.0
 10
11.2077804324
 20
8.794790074
 30
0.0
 10
11.2249309529
 20
8.7957379197
 30
0.0
 10
11.2417303863
 20
8.7970386766
 30
0.0
 10
11.2580696861
 20
8.7986842838
 30
0.0
 10
11.271339243
 20
8.8003492561
 30
0.0
 10
11.28164182
 20
8.8018511157
 30
0.0
 10
11.2891141248
 20
8.8030453397
 30
0.0
 10
11.2963942564
 20
8.8043164859
 30
0.0
 10
11.3034704123
 20
8.8056625091
 30
0.0
 10
11.3103311938
 20
8.8070810091
 30
0.0
 10
11.3169654379
 20
8.808569694
 30
0.0
 10
11.323362306
 20
8.8101263766
 30
0.0
 10
11.3295115239
 20
8.8117483253
 30
0.0
 10
11.3354032191
 20
8.8134328038
 30
0.0
 10
11.341027759
 20
8.8151772498
 30
0.0
 10
11.3463760136
 20
8.8169788963
 30
0.0
 10
11.351439485
 20
8.8188345133
 30
0.0
 10
11.3562099902
 20
8.8207410448
 30
0.0
 10
11.360679752
 20
8.8226957013
 30
0.0
 10
11.3648418435
 20
8.824695263
 30
0.0
 10
11.368689989
 20
8.8267365678
 30
0.0
 10
11.3722180314
 20
8.8288167003
 30
0.0
 10
11.3754202067
 20
8.8309325466
 30
0.0
 10
11.3782912269
 20
8.8330798887
 30
0.0
 10
11.3800422306
 20
8.8345825011
 30
0.0
 10
11.3808558593
 20
8.8353395903
 30
0.0
  0
SPLINE
  5
2C8
100
AcDbEntity
  8
02___PRT_ALL_AXES
100
AcDbSpline
 62
7
  6
CONTINUOUS
 70
0
 71
3
 72
55
 73
51
 74
0
 42
0.0000001
 43
0.0000001
 44
0.0000000001
 40
0.0
 40
0.0
 40
0.0
 40
0.0
 40
0.0077391629
 40
0.0160542675
 40
0.024962765
 40
0.0344759291
 40
0.0445998183
 40
0.0553364552
 40
0.0666847748
 40
0.0786393877
 40
0.0911910367
 40
0.104328851
 40
0.1180400072
 40
0.1323087106
 40
0.1471179946
 40
0.1624499768
 40
0.1782843784
 40
0.1945995513
 40
0.2285814759
 40
0.2642036297
 40
0.3012589649
 40
0.3395265826
 40
0.3787764565
 40
0.4187698761
 40
0.4592622823
 40
0.5000052322
 40
0.5407480897
 40
0.5812404263
 40
0.6212335445
 40
0.6604831916
 40
0.6987503787
 40
0.7358051659
 40
0.7714269338
 40
0.8054080121
 40
0.82172301
 40
0.8375571249
 40
0.8528885046
 40
0.8676975487
 40
0.8819660504
 40
0.895676546
 40
0.9088137722
 40
0.9213651258
 40
0.9333193365
 40
0.9446673492
 40
0.9554042288
 40
0.9655278495
 40
0.975039297
 40
0.9839454894
 40
0.9922593326
 40
1.0
 40
1.0
 40
1.0
 40
1.0
 10
10.6175226961
 20
11.2964904457
 30
0.0
 10
10.6190158719
 20
11.29787959
 30
0.0
 10
10.6222308979
 20
11.3006364142
 30
0.0
 10
10.627504938
 20
11.304574624
 30
0.0
 10
10.6333905861
 20
11.3084543402
 30
0.0
 10
10.6398780011
 20
11.3122678058
 30
0.0
 10
10.6469563918
 20
11.3160095593
 30
0.0
 10
10.6546145305
 20
11.3196740359
 30
0.0
 10
10.6628406996
 20
11.3232551622
 30
0.0
 10
10.6716216892
 20
11.3267472907
 30
0.0
 10
10.6809430142
 20
11.3301450373
 30
0.0
 10
10.6907895641
 20
11.3334424808
 30
0.0
 10
10.70114535
 20
11.3366337758
 30
0.0
 10
10.711993187
 20
11.3397141506
 30
0.0
 10
10.7233153068
 20
11.3426785014
 30
0.0
 10
10.7350933056
 20
11.345521495
 30
0.0
 10
10.7473077658
 20
11.3482387522
 30
0.0
 10
10.7643810656
 20
11.3517357646
 30
0.0
 10
10.7866693122
 20
11.3557418226
 30
0.0
 10
10.8144673805
 20
11.3599206026
 30
0.0
 10
10.8434865066
 20
11.3635044159
 30
0.0
 10
10.873535722
 20
11.3664702521
 30
0.0
 10
10.9044174289
 20
11.3687976908
 30
0.0
 10
10.9359284369
 20
11.370471197
 30
0.0
 10
10.9678612922
 20
11.3714800361
 30
0.0
 10
11.0000057654
 20
11.3718166897
 30
0.0
 10
11.0321502147
 20
11.3714797192
 30
0.0
 10
11.0640829476
 20
11.3704708233
 30
0.0
 10
11.0955937731
 20
11.3687968569
 30
0.0
 10
11.1264752236
 20
11.3664693924
 30
0.0
 10
11.15652409
 20
11.3635032269
 30
0.0
 10
11.1855428169
 20
11.3599191401
 30
0.0
 10
11.2133404108
 20
11.3557403406
 30
0.0
 10
11.2356282078
 20
11.3517338788
 30
0.0
 10
11.2527011554
 20
11.3482368722
 30
0.0
 10
11.2649153287
 20
11.345519609
 30
0.0
 10
11.2766929503
 20
11.3426763197
 30
0.0
 10
11.2880147726
 20
11.3397119271
 30
0.0
 10
11.2988623225
 20
11.3366315993
 30
0.0
 10
11.3092176501
 20
11.3334401111
 30
0.0
 10
11.3190637508
 20
11.330142615
 30
0.0
 10
11.3283847627
 20
11.326745
 30
0.0
 10
11.3371654341
 20
11.323252775
 30
0.0
 10
11.3453912629
 20
11.3196711744
 30
0.0
 10
11.3530492202
 20
11.3160065337
 30
0.0
 10
11.360127161
 20
11.3122649023
 30
0.0
 10
11.3666133998
 20
11.3084516727
 30
0.0
 10
11.3724979547
 20
11.304572843
 30
0.0
 10
11.3777715973
 20
11.3006349925
 30
0.0
 10
11.3809864081
 20
11.2978778031
 30
0.0
 10
11.3824797154
 20
11.2964882181
 30
0.0
  0
SPLINE
  5
2C9
100
AcDbEntity
  8
02___PRT_ALL_AXES
100
AcDbSpline
 62
7
  6
CONTINUOUS
 70
0
 71
3
 72
76
 73
72
 74
0
 42
0.0000001
 43
0.0000001
 44
0.0000000001
 40
0.0
 40
0.0
 40
0.0
 40
0.0
 40
0.0078465685
 40
0.0115231622
 40
0.0150485618
 40
0.0216948756
 40
0.0248529285
 40
0.0279251631
 40
0.0309333605
 40
0.0339007901
 40
0.0368517671
 40
0.0398110785
 40
0.0428032057
 40
0.0458516788
 40
0.0489786226
 40
0.0522044222
 40
0.0590199555
 40
0.0626443364
 40
0.0664284137
 40
0.0703824919
 40
0.0745153319
 40
0.0788343075
 40
0.0833452249
 40
0.0880526285
 40
0.0929601544
 40
0.1033851874
 40
0.1146362507
 40
0.1267161393
 40
0.1396209337
 40
0.153340375
 40
0.1678575152
 40
0.1831523143
 40
0.19920016
 40
0.2159723699
 40
0.2334385499
 40
0.2515644679
 40
0.2703135225
 40
0.289647833
 40
0.3095263364
 40
0.3299067278
 40
0.350745485
 40
0.3719967498
 40
0.4155487796
 40
0.4601783385
 40
0.5054872425
 40
0.5510690793
 40
0.5965143018
 40
0.641415159
 40
0.6635359409
 40
0.6853709693
 40
0.7279892076
 40
0.7486802433
 40
0.7688981285
 40
0.7885997439
 40
0.8077435279
 40
0.8262889698
 40
0.8441988322
 40
0.8614374747
 40
0.8779713476
 40
0.8937711389
 40
0.9088094968
 40
0.9230627527
 40
0.9365122363
 40
0.9491425764
 40
0.9609456549
 40
0.9719211474
 40
0.9820755049
 40
0.9868500721
 40
0.9914262638
 40
0.9958079509
 40
1.0
 40
1.0
 40
1.0
 40
1.0
 10
10.6165274242
 20
11.2955471142
 30
0.0
 10
10.6149197021
 20
11.2939941737
 30
0.0
 10
10.6126618184
 20
11.291599873
 30
0.0
 10
10.6100088448
 20
11.2882293148
 30
0.0
 10
10.6077697711
 20
11.2849792221
 30
0.0
 10
10.6059361182
 20
11.2816345968
 30
0.0
 10
10.6045785929
 20
11.2782229198
 30
0.0
 10
10.6038166592
 20
11.2757002248
 30
0.0
 10
10.6032947715
 20
11.2731724952
 30
0.0
 10
10.6030134677
 20
11.2706413927
 30
0.0
 10
10.6029732568
 20
11.2681088853
 30
0.0
 10
10.6031744727
 20
11.2655770383
 30
0.0
 10
10.6036165561
 20
11.2630479117
 30
0.0
 10
10.6042986814
 20
11.260523455
 30
0.0
 10
10.6052200674
 20
11.2580053141
 30
0.0
 10
10.6067947663
 20
11.2545967759
 30
0.0
 10
10.6088378321
 20
11.2512644228
 30
0.0
 10
10.6112788707
 20
11.2480284023
 30
0.0
 10
10.6133811049
 20
11.2455644385
 30
0.0
 10
10.6157153877
 20
11.2431155361
 30
0.0
 10
10.618280648
 20
11.2406826333
 30
0.0
 10
10.6210754856
 20
11.2382673
 30
0.0
 10
10.6240981383
 20
11.2358707658
 30
0.0
 10
10.6273466474
 20
11.2334942685
 30
0.0
 10
10.6320722325
 20
11.2302894455
 30
0.0
 10
10.6385491545
 20
11.2263552585
 30
0.0
 10
10.6470375094
 20
11.2218280907
 30
0.0
 10
10.6563721717
 20
11.217413182
 30
0.0
 10
10.6665313947
 20
11.2131214965
 30
0.0
 10
10.6774915725
 20
11.208963546
 30
0.0
 10
10.6892265377
 20
11.2049484443
 30
0.0
 10
10.7017086473
 20
11.201086636
 30
0.0
 10
10.7149080877
 20
11.1973873497
 30
0.0
 10
10.7287932165
 20
11.1938590128
 30
0.0
 10
10.7433309153
 20
11.1905109755
 30
0.0
 10
10.7584862287
 20
11.187350904
 30
0.0
 10
10.7742227544
 20
11.1843862766
 30
0.0
 10
10.7905027622
 20
11.1816249671
 30
0.0
 10
10.8072870447
 20
11.1790730272
 30
0.0
 10
10.8245352337
 20
11.1767367891
 30
0.0
 10
10.8422059074
 20
11.174622325
 30
0.0
 10
10.8664712209
 20
11.172084149
 30
0.0
 10
10.8975437521
 20
11.1695131769
 30
0.0
 10
10.935516881
 20
11.1674002192
 30
0.0
 10
10.9741100292
 20
11.1662562843
 30
0.0
 10
11.0129520528
 20
11.1660926109
 30
0.0
 10
11.0516694408
 20
11.1669106574
 30
0.0
 10
11.0836768674
 20
11.1684107341
 30
0.0
 10
11.1089336468
 20
11.1701031867
 30
0.0
 10
11.1335166794
 20
11.17208778
 30
0.0
 10
11.1576513027
 20
11.1745437485
 30
0.0
 10
11.1812633017
 20
11.1774911691
 30
0.0
 10
11.198361441
 20
11.1798999739
 30
0.0
 10
11.2149820335
 20
11.1825225435
 30
0.0
 10
11.2310851853
 20
11.1853522436
 30
0.0
 10
11.2466320951
 20
11.1883829111
 30
0.0
 10
11.2615854867
 20
11.191606608
 30
0.0
 10
11.2759094744
 20
11.1950154776
 30
0.0
 10
11.2895696091
 20
11.1986018871
 30
0.0
 10
11.3025333618
 20
11.2023563745
 30
0.0
 10
11.3147697263
 20
11.2062702293
 30
0.0
 10
11.3262493845
 20
11.2103343252
 30
0.0
 10
11.3369452822
 20
11.2145378588
 30
0.0
 10
11.346832017
 20
11.2188713894
 30
0.0
 10
11.3558868216
 20
11.2233249366
 30
0.0
 10
11.3640891177
 20
11.2278877607
 30
0.0
 10
11.3703205014
 20
11.2318513097
 30
0.0
 10
11.3748455394
 20
11.2350778047
 30
0.0
 10
11.3779437119
 20
11.2374680142
 30
0.0
 10
11.3808141266
 20
11.2398766408
 30
0.0
 10
11.3826136461
 20
11.2415296249
 30
0.0
 10
11.3834725758
 20
11.2423592873
 30
0.0
  0
SPLINE
  5
2CA
100
AcDbEntity
  8
02___PRT_ALL_AXES
100
AcDbSpline
 62
7
  6
CONTINUOUS
 70
0
 71
3
 72
23
 73
19
 74
0
 42
0.0000001
 43
0.0000001
 44
0.0000000001
 40
0.0
 40
0.0
 40
0.0
 40
0.0
 40
0.0749630491
 40
0.1455715558
 40
0.2121673144
 40
0.2751730556
 40
0.335108253
 40
0.3925941246
 40
0.4483409092
 40
0.5031329564
 40
0.557803007
 40
0.6131921672
 40
0.6701064677
 40
0.7292862825
 40
0.7913805806
 40
0.8569219674
 40
0.9263447668
 40
1.0
 40
1.0
 40
1.0
 40
1.0
 10
11.3824797154
 20
11.2964882181
 30
0.0
 10
11.3836262255
 20
11.2954213424
 30
0.0
 10
11.3857890315
 20
11.2932793403
 30
0.0
 10
11.3887075226
 20
11.2899376156
 30
0.0
 10
11.3911964973
 20
11.2865695106
 30
0.0
 10
11.3932519139
 20
11.2831777771
 30
0.0
 10
11.394869892
 20
11.2797652789
 30
0.0
 10
11.3960475786
 20
11.2763359015
 30
0.0
 10
11.3967818552
 20
11.272894008
 30
0.0
 10
11.3970697841
 20
11.2694449505
 30
0.0
 10
11.3969096485
 20
11.2659950184
 30
0.0
 10
11.3963027263
 20
11.2625505075
 30
0.0
 10
11.3952511812
 20
11.2591168709
 30
0.0
 10
11.3937576492
 20
11.2556987363
 30
0.0
 10
11.3918253336
 20
11.252300318
 30
0.0
 10
11.3894590644
 20
11.2489246973
 30
0.0
 10
11.3866632028
 20
11.245575436
 30
0.0
 10
11.3845793576
 20
11.2434283565
 30
0.0
 10
11.3834725758
 20
11.2423592873
 30
0.0
  0
SPLINE
  5
2CB
100
AcDbEntity
  8
0
100
AcDbSpline
 62
7
  6
CONTINUOUS
 70
0
 71
3
 72
34
 73
30
 74
0
 42
0.0000001
 43
0.0000001
 44
0.0000000001
 40
0.0
 40
0.0
 40
0.0
 40
0.0
 40
0.0319820335
 40
0.0638460002
 40
0.0955901253
 40
0.1272215896
 40
0.158745833
 40
0.1901702893
 40
0.2215036291
 40
0.2527550389
 40
0.2839346008
 40
0.3150524866
 40
0.3461187837
 40
0.3771438556
 40
0.4081373121
 40
0.439108521
 40
0.4700665027
 40
0.5010191629
 40
0.5319744996
 40
0.5629391638
 40
0.5939197695
 40
0.6249219051
 40
0.6870003144
 40
0.7492212942
 40
0.7803985966
 40
0.8116210667
 40
0.874203045
 40
0.9369920757
 40
1.0
 40
1.0
 40
1.0
 40
1.0
 10
10.8664523593
 20
9.3429031231
 30
0.0
 10
10.8664523593
 20
9.3394385923
 30
0.0
 10
10.8662632589
 20
9.3325207946
 30
0.0
 10
10.8654106838
 20
9.3221959032
 30
0.0
 10
10.863994802
 20
9.3119711061
 30
0.0
 10
10.8620245652
 20
9.3018761453
 30
0.0
 10
10.8595117963
 20
9.2919381521
 30
0.0
 10
10.8564713505
 20
9.2821826449
 30
0.0
 10
10.8529203131
 20
9.2726328546
 30
0.0
 10
10.8488776864
 20
9.2633096379
 30
0.0
 10
10.8443641838
 20
9.2542313073
 30
0.0
 10
10.8394013758
 20
9.2454138046
 30
0.0
 10
10.8340115263
 20
9.2368706812
 30
0.0
 10
10.8282173561
 20
9.2286131465
 30
0.0
 10
10.8220413553
 20
9.220650446
 30
0.0
 10
10.8155059123
 20
9.2129898212
 30
0.0
 10
10.8086328987
 20
9.2056368561
 30
0.0
 10
10.8014434937
 20
9.1985956543
 30
0.0
 10
10.7939582471
 20
9.1918689618
 30
0.0
 10
10.7861967852
 20
9.1854585025
 30
0.0
 10
10.7781778228
 20
9.1793649019
 30
0.0
 10
10.7671629622
 20
9.1716601295
 30
0.0
 10
10.7528314085
 20
9.1628169125
 30
0.0
 10
10.7378809474
 20
9.1550294399
 30
0.0
 10
10.7255996316
 20
9.1494191666
 30
0.0
 10
10.7131002992
 20
9.1442105629
 30
0.0
 10
10.6971268789
 20
9.1384620512
 30
0.0
 10
10.6775174881
 20
9.1327707152
 30
0.0
 10
10.6642150847
 20
9.1297693011
 30
0.0
 10
10.6575159512
 20
9.1284620688
 30
0.0
  0
SPLINE
  5
2CC
100
AcDbEntity
  8
0
100
AcDbSpline
 62
7
  6
CONTINUOUS
 70
0
 71
3
 72
33
 73
29
 74
0
 42
0.0000001
 43
0.0000001
 44
0.0000000001
 40
0.0
 40
0.0
 40
0.0
 40
0.0
 40
0.0315734456
 40
0.0632741491
 40
0.0950815262
 40
0.1269718194
 40
0.1589207664
 40
0.1909042278
 40
0.2228994127
 40
0.2548855335
 40
0.2868442468
 40
0.3187598164
 40
0.3506191216
 40
0.3824115234
 40
0.4141286133
 40
0.445763909
 40
0.4773125354
 40
0.5087710771
 40
0.5713939389
 40
0.6336437418
 40
0.69552456
 40
0.7570478539
 40
0.8182306689
 40
0.8790945923
 40
0.9094213436
 40
0.9396784428
 40
0.9698699108
 40
1.0
 40
1.0
 40
1.0
 40
1.0
 10
9.8240801891
 20
9.0176595876
 30
0.0
 10
9.8290783759
 20
9.0159737021
 30
0.0
 10
9.8389663762
 20
9.0121999466
 30
0.0
 10
9.8533380306
 20
9.0053987141
 30
0.0
 10
9.8671983817
 20
8.997499948
 30
0.0
 10
9.8804688256
 20
8.9885731371
 30
0.0
 10
9.8930846256
 20
8.9786963089
 30
0.0
 10
9.9049936479
 20
8.9679530069
 30
0.0
 10
9.9161566241
 20
8.9564290152
 30
0.0
 10
9.9265460559
 20
8.9442096127
 30
0.0
 10
9.9361448549
 20
8.9313774489
 30
0.0
 10
9.9449447062
 20
8.9180110358
 30
0.0
 10
9.9529444242
 20
8.9041838119
 30
0.0
 10
9.9601483769
 20
8.8899636833
 30
0.0
 10
9.9665650853
 20
8.8754128797
 30
0.0
 10
9.972205987
 20
8.8605883071
 30
0.0
 10
9.9770846076
 20
8.8455412239
 30
0.0
 10
9.9825833718
 20
8.825278838
 30
0.0
 10
9.9876358251
 20
8.799613291
 30
0.0
 10
9.9908979533
 20
8.7685449174
 30
0.0
 10
9.991465843
 20
8.7374960248
 30
0.0
 10
9.9894393811
 20
8.7066887079
 30
0.0
 10
9.9849047107
 20
8.6763234209
 30
0.0
 10
9.9790857829
 20
8.6515087509
 30
0.0
 10
9.9732380255
 20
8.6320749411
 30
0.0
 10
9.9682673534
 20
8.6177422603
 30
0.0
 10
9.9627125751
 20
8.6036614962
 30
0.0
 10
9.9586185458
 20
8.5944488814
 30
0.0
 10
9.9564757724
 20
8.5898940119
 30
0.0
  0
SPLINE
  5
2CD
100
AcDbEntity
  8
0
100
AcDbSpline
 62
7
  6
CONTINUOUS
 70
0
 71
3
 72
15
 73
11
 74
0
 42
0.0000001
 43
0.0000001
 44
0.0000000001
 40
0.0
 40
0.0
 40
0.0
 40
0.0
 40
0.1273482228
 40
0.253860527
 40
0.3795879206
 40
0.5046050801
 40
0.6290174363
 40
0.7529533709
 40
0.8765605784
 40
1.0
 40
1.0
 40
1.0
 40
1.0
 10
9.4472613512
 20
9.6229183848
 30
0.0
 10
9.4472613512
 20
9.6189146676
 30
0.0
 10
9.4468790805
 20
9.6109279784
 30
0.0
 10
9.4451502893
 20
9.5991015496
 30
0.0
 10
9.4422836605
 20
9.5875722723
 30
0.0
 10
9.4383050808
 20
9.5764479716
 30
0.0
 10
9.4332510789
 20
9.5658312285
 30
0.0
 10
9.4271677064
 20
9.5558200775
 30
0.0
 10
9.4201121627
 20
9.5465083239
 30
0.0
 10
9.4147996968
 20
9.5408201647
 30
0.0
 10
9.4120083994
 20
9.5381239665
 30
0.0
  0
SPLINE
  5
2CE
100
AcDbEntity
  8
0
100
AcDbSpline
 62
7
  6
CONTINUOUS
 70
0
 71
3
 72
15
 73
11
 74
0
 42
0.0000001
 43
0.0000001
 44
0.0000000001
 40
0.0
 40
0.0
 40
0.0
 40
0.0
 40
0.1273482228
 40
0.253860527
 40
0.3795879206
 40
0.5046050801
 40
0.6290174363
 40
0.7529533709
 40
0.8765605784
 40
1.0
 40
1.0
 40
1.0
 40
1.0
 10
10.685578339
 20
8.6619119421
 30
0.0
 10
10.685578339
 20
8.6579082248
 30
0.0
 10
10.6851960682
 20
8.6499215356
 30
0.0
 10
10.6834672771
 20
8.6380951068
 30
0.0
 10
10.6806006483
 20
8.6265658295
 30
0.0
 10
10.6766220685
 20
8.6154415289
 30
0.0
 10
10.6715680666
 20
8.6048247858
 30
0.0
 10
10.6654846941
 20
8.5948136347
 30
0.0
 10
10.6584291504
 20
8.5855018811
 30
0.0
 10
10.6531166845
 20
8.5798137219
 30
0.0
 10
10.6503253871
 20
8.5771175238
 30
0.0
  0
SPLINE
  5
2CF
100
AcDbEntity
  8
0
100
AcDbSpline
 62
7
  6
CONTINUOUS
 70
0
 71
3
 72
20
 73
16
 74
0
 42
0.0000001
 43
0.0000001
 44
0.0000000001
 40
0.0
 40
0.0
 40
0.0
 40
0.0
 40
0.1273231981
 40
0.190687891
 40
0.2538483842
 40
0.3168131973
 40
0.379589552
 40
0.4421880926
 40
0.5046213835
 40
0.6290091706
 40
0.7529206482
 40
0.8147636197
 40
0.8765441101
 40
0.938282613
 40
1.0
 40
1.0
 40
1.0
 40
1.0
 10
9.4723754242
 20
7.8709190972
 30
0.0
 10
9.4723754242
 20
7.8661145981
 30
0.0
 10
9.4720305522
 20
7.8589124669
 30
0.0
 10
9.4708745102
 20
7.8494009866
 30
0.0
 10
9.4696649749
 20
7.8423505282
 30
0.0
 10
9.4681145506
 20
7.8353901241
 30
0.0
 10
9.4662266169
 20
7.8285355168
 30
0.0
 10
9.4640055682
 20
7.8218024219
 30
0.0
 10
9.4606117492
 20
7.8130203238
 30
0.0
 10
9.4555629833
 20
7.802413954
 30
0.0
 10
9.449473976
 20
7.7923941758
 30
0.0
 10
9.444022842
 20
7.7848049311
 30
0.0
 10
9.4396544501
 20
7.7793380658
 30
0.0
 10
9.4350144175
 20
7.7741065884
 30
0.0
 10
9.4317463505
 20
7.7707832277
 30
0.0
 10
9.4300712878
 20
7.7691652439
 30
0.0
  0
SPLINE
  5
2D0
100
AcDbEntity
  8
0
100
AcDbSpline
 62
7
  6
CONTINUOUS
 70
0
 71
3
 72
23
 73
19
 74
0
 42
0.0000001
 43
0.0000001
 44
0.0000000001
 40
0.0
 40
0.0
 40
0.0
 40
0.0
 40
0.0637762098
 40
0.1273451791
 40
0.1907020044
 40
0.2538560229
 40
0.3168132268
 40
0.3795820734
 40
0.4421733797
 40
0.5045993379
 40
0.5668738619
 40
0.6290123843
 40
0.6910316585
 40
0.7529496507
 40
0.8147853611
 40
0.8765586136
 40
0.9382898615
 40
1.0
 40
1.0
 40
1.0
 40
1.0
 10
9.6385146812
 20
10.2742118942
 30
0.0
 10
9.6385146812
 20
10.2696450759
 30
0.0
 10
9.6382960651
 20
10.2605247326
 30
0.0
 10
9.6373095082
 20
10.2468997239
 30
0.0
 10
9.6356668156
 20
10.2333826695
 30
0.0
 10
9.6333719373
 20
10.2200054233
 30
0.0
 10
9.6304300409
 20
10.2067984809
 30
0.0
 10
9.6268479176
 20
10.1937923727
 30
0.0
 10
9.6226337898
 20
10.1810170836
 30
0.0
 10
9.617797298
 20
10.1685020796
 30
0.0
 10
9.6123496289
 20
10.1562762058
 30
0.0
 10
9.6063033136
 20
10.1443676587
 30
0.0
 10
9.5996722209
 20
10.1328039402
 30
0.0
 10
9.5924716649
 20
10.1216116988
 30
0.0
 10
9.5847182776
 20
10.1108167643
 30
0.0
 10
9.5764298002
 20
10.1004439847
 30
0.0
 10
9.5676256701
 20
10.0905176225
 30
0.0
 10
9.5614248907
 20
10.0842117195
 30
0.0
 10
9.5582466041
 20
10.0811417137
 30
0.0
  0
SPLINE
  5
2D1
100
AcDbEntity
  8
0
100
AcDbSpline
 62
7
  6
CONTINUOUS
 70
0
 71
3
 72
23
 73
19
 74
0
 42
0.0000001
 43
0.0000001
 44
0.0000000001
 40
0.0
 40
0.0
 40
0.0
 40
0.0
 40
0.0637762098
 40
0.1273451791
 40
0.1907020044
 40
0.2538560229
 40
0.3168132268
 40
0.3795820734
 40
0.4421733797
 40
0.5045993379
 40
0.5668738619
 40
0.6290123843
 40
0.6910316585
 40
0.7529496507
 40
0.8147853611
 40
0.8765586136
 40
0.9382898615
 40
1.0
 40
1.0
 40
1.0
 40
1.0
 10
9.6385146812
 20
7.1948400974
 30
0.0
 10
9.6385146812
 20
7.1902732791
 30
0.0
 10
9.6382960651
 20
7.1811529358
 30
0.0
 10
9.6373095082
 20
7.1675279271
 30
0.0
 10
9.6356668156
 20
7.1540108727
 30
0.0
 10
9.6333719373
 20
7.1406336265
 30
0.0
 10
9.6304300409
 20
7.1274266841
 30
0.0
 10
9.6268479176
 20
7.1144205759
 30
0.0
 10
9.6226337898
 20
7.1016452868
 30
0.0
 10
9.617797298
 20
7.0891302827
 30
0.0
 10
9.6123496289
 20
7.076904409
 30
0.0
 10
9.6063033136
 20
7.0649958619
 30
0.0
 10
9.5996722209
 20
7.0534321434
 30
0.0
 10
9.5924716649
 20
7.042239902
 30
0.0
 10
9.5847182776
 20
7.0314449675
 30
0.0
 10
9.5764298002
 20
7.0210721879
 30
0.0
 10
9.5676256701
 20
7.0111458256
 30
0.0
 10
9.5614248907
 20
7.0048399226
 30
0.0
 10
9.5582466041
 20
7.0017699169
 30
0.0
  0
SPLINE
  5
2D2
100
AcDbEntity
  8
0
100
AcDbSpline
 62
7
  6
CONTINUOUS
 70
0
 71
3
 72
23
 73
19
 74
0
 42
0.0000001
 43
0.0000001
 44
0.0000000001
 40
0.0
 40
0.0
 40
0.0
 40
0.0
 40
0.0637762098
 40
0.1273451791
 40
0.1907020044
 40
0.2538560229
 40
0.3168132268
 40
0.3795820734
 40
0.4421733797
 40
0.5045993379
 40
0.5668738619
 40
0.6290123843
 40
0.6910316585
 40
0.7529496507
 40
0.8147853611
 40
0.8765586136
 40
0.9382898615
 40
1.0
 40
1.0
 40
1.0
 40
1.0
 10
12.05332939
 20
7.0273721285
 30
0.0
 10
12.05332939
 20
7.0228053102
 30
0.0
 10
12.0531107739
 20
7.013684967
 30
0.0
 10
12.052124217
 20
7.0000599582
 30
0.0
 10
12.0504815245
 20
6.9865429039
 30
0.0
 10
12.0481866461
 20
6.9731656577
 30
0.0
 10
12.0452447497
 20
6.9599587153
 30
0.0
 10
12.0416626264
 20
6.946952607
 30
0.0
 10
12.0374484986
 20
6.9341773179
 30
0.0
 10
12.0326120068
 20
6.9216623139
 30
0.0
 10
12.0271643377
 20
6.9094364402
 30
0.0
 10
12.0211180225
 20
6.8975278931
 30
0.0
 10
12.0144869297
 20
6.8859641746
 30
0.0
 10
12.0072863737
 20
6.8747719332
 30
0.0
 10
11.9995329864
 20
6.8639769987
 30
0.0
 10
11.991244509
 20
6.853604219
 30
0.0
 10
11.9824403789
 20
6.8436778568
 30
0.0
 10
11.9762395995
 20
6.8373719538
 30
0.0
 10
11.9730613129
 20
6.834301948
 30
0.0
  0
SPLINE
  5
2D3
100
AcDbEntity
  8
0
100
AcDbSpline
 62
7
  6
CONTINUOUS
 70
0
 71
3
 72
23
 73
19
 74
0
 42
0.0000001
 43
0.0000001
 44
0.0000000001
 40
0.0
 40
0.0
 40
0.0
 40
0.0
 40
0.0637762098
 40
0.1273451791
 40
0.1907020044
 40
0.2538560229
 40
0.3168132268
 40
0.3795820734
 40
0.4421733797
 40
0.5045993379
 40
0.5668738619
 40
0.6290123843
 40
0.6910316585
 40
0.7529496507
 40
0.8147853611
 40
0.8765586136
 40
0.9382898615
 40
1.0
 40
1.0
 40
1.0
 40
1.0
 10
12.05332939
 20
10.1067439254
 30
0.0
 10
12.05332939
 20
10.102177107
 30
0.0
 10
12.0531107739
 20
10.0930567638
 30
0.0
 10
12.052124217
 20
10.079431755
 30
0.0
 10
12.0504815245
 20
10.0659147007
 30
0.0
 10
12.0481866461
 20
10.0525374545
 30
0.0
 10
12.0452447497
 20
10.0393305121
 30
0.0
 10
12.0416626264
 20
10.0263244038
 30
0.0
 10
12.0374484986
 20
10.0135491147
 30
0.0
 10
12.0326120068
 20
10.0010341107
 30
0.0
 10
12.0271643377
 20
9.988808237
 30
0.0
 10
12.0211180225
 20
9.9768996899
 30
0.0
 10
12.0144869297
 20
9.9653359714
 30
0.0
 10
12.0072863737
 20
9.95414373
 30
0.0
 10
11.9995329864
 20
9.9433487955
 30
0.0
 10
11.991244509
 20
9.9329760158
 30
0.0
 10
11.9824403789
 20
9.9230496536
 30
0.0
 10
11.9762395995
 20
9.9167437506
 30
0.0
 10
11.9730613129
 20
9.9136737448
 30
0.0
  0
SPLINE
  5
2D4
100
AcDbEntity
  8
0
100
AcDbSpline
 62
7
  6
CONTINUOUS
 70
0
 71
3
 72
49
 73
45
 74
0
 42
0.0000001
 43
0.0000001
 44
0.0000000001
 40
0.0
 40
0.0
 40
0.0
 40
0.0
 40
0.0378653885
 40
0.076105181
 40
0.1146332606
 40
0.1533654246
 40
0.1922152983
 40
0.2310967789
 40
0.2699234915
 40
0.3086092554
 40
0.347068294
 40
0.3852154808
 40
0.4229665916
 40
0.4602385508
 40
0.4969496856
 40
0.5330199894
 40
0.5683713863
 40
0.6029279959
 40
0.6366164112
 40
0.6693659907
 40
0.701109169
 40
0.7317818021
 40
0.7613235425
 40
0.7896782457
 40
0.803394465
 40
0.8167950192
 40
0.8298743311
 40
0.8426271635
 40
0.855048648
 40
0.8671344165
 40
0.8788804452
 40
0.8902833189
 40
0.9013400628
 40
0.9120483213
 40
0.9224063859
 40
0.9324131753
 40
0.9420685007
 40
0.9513729032
 40
0.9603279368
 40
0.9689361517
 40
0.9772014013
 40
0.985129106
 40
0.9927259875
 40
1.0
 40
1.0
 40
1.0
 40
1.0
 10
11.4304880306
 20
5.1948116923
 30
0.0
 10
11.4413576902
 20
5.1940578788
 30
0.0
 10
11.4632150067
 20
5.1926906646
 30
0.0
 10
11.4961615266
 20
5.1910648363
 30
0.0
 10
11.5293756165
 20
5.1898563675
 30
0.0
 10
11.5627779033
 20
5.189068094
 30
0.0
 10
11.5962891775
 20
5.1887019392
 30
0.0
 10
11.6298296069
 20
5.1887587601
 30
0.0
 10
11.6633194309
 20
5.1892384333
 30
0.0
 10
11.6966789665
 20
5.1901398067
 30
0.0
 10
11.7298288532
 20
5.1914607217
 30
0.0
 10
11.7626902316
 20
5.1931980178
 30
0.0
 10
11.795184931
 20
5.1953475391
 30
0.0
 10
11.8272356567
 20
5.1979041441
 30
0.0
 10
11.8587661751
 20
5.2008617188
 30
0.0
 10
11.8897015001
 20
5.2042131836
 30
0.0
 10
11.9199680744
 20
5.2079505116
 30
0.0
 10
11.9494939453
 20
5.2120647524
 30
0.0
 10
11.9782089355
 20
5.2165460516
 30
0.0
 10
12.0060448182
 20
5.2213836729
 30
0.0
 10
12.0329354685
 20
5.2265660267
 30
0.0
 10
12.0588170944
 20
5.2320806881
 30
0.0
 10
12.0836281809
 20
5.2379144399
 30
0.0
 10
12.1035775419
 20
5.2430856381
 30
0.0
 10
12.1189512645
 20
5.2473802194
 30
0.0
 10
12.1300502221
 20
5.2506365103
 30
0.0
 10
12.1408389627
 20
5.2539617971
 30
0.0
 10
12.1513110954
 20
5.2573541139
 30
0.0
 10
12.1614603959
 20
5.2608114751
 30
0.0
 10
12.1712808582
 20
5.2643317542
 30
0.0
 10
12.1807666458
 20
5.2679129372
 30
0.0
 10
12.1899121558
 20
5.2715528214
 30
0.0
 10
12.1987119677
 20
5.2752492899
 30
0.0
 10
12.2071608778
 20
5.2790001434
 30
0.0
 10
12.2152539098
 20
5.2828031192
 30
0.0
 10
12.2229862694
 20
5.286656046
 30
0.0
 10
12.2303534414
 20
5.2905565654
 30
0.0
 10
12.2373510611
 20
5.2945024782
 30
0.0
 10
12.2439750333
 20
5.2984913988
 30
0.0
 10
12.2502214828
 20
5.3025210129
 30
0.0
 10
12.25608677
 20
5.3065890639
 30
0.0
 10
12.2615676109
 20
5.3106932695
 30
0.0
 10
12.2666605163
 20
5.3148312191
 30
0.0
 10
12.2698635566
 20
5.3176713024
 30
0.0
 10
12.2713958414
 20
5.3190971915
 30
0.0
  0
SPLINE
  5
2D5
100
AcDbEntity
  8
0
100
AcDbSpline
 62
7
  6
CONTINUOUS
 70
0
 71
3
 72
18
 73
14
 74
0
 42
0.0000001
 43
0.0000001
 44
0.0000000001
 40
0.0
 40
0.0
 40
0.0
 40
0.0
 40
0.1480409853
 40
0.287665666
 40
0.4195586603
 40
0.5445935732
 40
0.6638224074
 40
0.7216613101
 40
0.7785268975
 40
0.8346005273
 40
0.8900719704
 40
0.9451379447
 40
1.0
 40
1.0
 40
1.0
 40
1.0
 10
12.8081911739
 20
5.835458223
 30
0.0
 10
12.8102469427
 20
5.8374439433
 30
0.0
 10
12.8141211088
 20
5.841430679
 30
0.0
 10
12.8193302024
 20
5.8476441816
 30
0.0
 10
12.8237543292
 20
5.8539047919
 30
0.0
 10
12.8273867756
 20
5.8602061622
 30
0.0
 10
12.8297732911
 20
5.8655417661
 30
0.0
 10
12.8312630487
 20
5.8698077471
 30
0.0
 10
12.83216876
 20
5.8729801267
 30
0.0
 10
12.8328735868
 20
5.8761562905
 30
0.0
 10
12.8333772572
 20
5.8793354454
 30
0.0
 10
12.8336795124
 20
5.8825164414
 30
0.0
 10
12.8337467405
 20
5.8846394045
 30
0.0
 10
12.8337467452
 20
5.8856986137
 30
0.0
  0
SPLINE
  5
2D6
100
AcDbEntity
  8
0
100
AcDbSpline
 62
7
  6
CONTINUOUS
 70
0
 71
3
 72
31
 73
27
 74
0
 42
0.0000001
 43
0.0000001
 44
0.0000000001
 40
0.0
 40
0.0
 40
0.0
 40
0.0
 40
0.08320252
 40
0.1639868154
 40
0.242208855
 40
0.3177707382
 40
0.390616372
 40
0.4260181848
 40
0.4607308947
 40
0.5280656208
 40
0.5926137556
 40
0.6238390362
 40
0.654352039
 40
0.7131911626
 40
0.7415089278
 40
0.7690695422
 40
0.7958579583
 40
0.8218578504
 40
0.8470525898
 40
0.8714263152
 40
0.8949645078
 40
0.9176566183
 40
0.9394971529
 40
0.9604890901
 40
0.9806469299
 40
1.0
 40
1.0
 40
1.0
 40
1.0
 10
11.2502797404
 20
8.4756915809
 30
0.0
 10
11.2543149297
 20
8.4758682933
 30
0.0
 10
11.2622585512
 20
8.4765205459
 30
0.0
 10
11.2738758759
 20
8.4784101948
 30
0.0
 10
11.2849435244
 20
8.4811423686
 30
0.0
 10
11.2953848018
 20
8.4846470302
 30
0.0
 10
11.3035915683
 20
8.4881779392
 30
0.0
 10
11.309783637
 20
8.4913157684
 30
0.0
 10
11.3156067469
 20
8.4945769102
 30
0.0
 10
11.3224141261
 20
8.4989615294
 30
0.0
 10
11.3286980371
 20
8.5037952733
 30
0.0
 10
11.3333100394
 20
8.5078368146
 30
0.0
 10
11.3375455714
 20
8.5118788428
 30
0.0
 10
11.3414254287
 20
8.5160830539
 30
0.0
 10
11.3449205596
 20
8.5204205144
 30
0.0
 10
11.3472958681
 20
8.5236569125
 30
0.0
 10
11.3494564532
 20
8.5269060765
 30
0.0
 10
11.3514003705
 20
8.5301562928
 30
0.0
 10
11.3531254523
 20
8.5333956155
 30
0.0
 10
11.3546294408
 20
8.5366119815
 30
0.0
 10
11.3559098901
 20
8.5397932356
 30
0.0
 10
11.3569642761
 20
8.5429270938
 30
0.0
 10
11.3577899449
 20
8.5460012125
 30
0.0
 10
11.3583841561
 20
8.5490033516
 30
0.0
 10
11.3587442279
 20
8.5519209456
 30
0.0
 10
11.3588279172
 20
8.5538397983
 30
0.0
 10
11.3588274482
 20
8.5547792908
 30
0.0
  0
SPLINE
  5
2D7
100
AcDbEntity
  8
0
100
AcDbSpline
 62
7
  6
CONTINUOUS
 70
0
 71
3
 72
23
 73
19
 74
0
 42
0.0000001
 43
0.0000001
 44
0.0000000001
 40
0.0
 40
0.0
 40
0.0
 40
0.0
 40
0.0616098219
 40
0.1233322817
 40
0.1851644956
 40
0.2471166368
 40
0.3091922827
 40
0.3713934589
 40
0.4337216495
 40
0.496176859
 40
0.5587577613
 40
0.6214616695
 40
0.6842850393
 40
0.7472232109
 40
0.8102704492
 40
0.8734205222
 40
0.936666273
 40
1.0
 40
1.0
 40
1.0
 40
1.0
 10
11.6428734018
 20
8.6055782912
 30
0.0
 10
11.6428734307
 20
8.609271887
 30
0.0
 10
11.6426852369
 20
8.6166671925
 30
0.0
 10
11.6418413806
 20
8.627740444
 30
0.0
 10
11.6404384194
 20
8.638777771
 30
0.0
 10
11.6384812529
 20
8.6497517844
 30
0.0
 10
11.6359766236
 20
8.6606365884
 30
0.0
 10
11.6329329554
 20
8.6714064832
 30
0.0
 10
11.6293602644
 20
8.6820365611
 30
0.0
 10
11.6252702658
 20
8.6925028771
 30
0.0
 10
11.6206759773
 20
8.7027824277
 30
0.0
 10
11.6155915797
 20
8.7128532277
 30
0.0
 10
11.6100325708
 20
8.7226945235
 30
0.0
 10
11.6040152705
 20
8.7322866825
 30
0.0
 10
11.5975568054
 20
8.7416112253
 30
0.0
 10
11.5906750903
 20
8.7506510672
 30
0.0
 10
11.5833886612
 20
8.7593899591
 30
0.0
 10
11.5782766609
 20
8.7650022199
 30
0.0
 10
11.5756598226
 20
8.7677533941
 30
0.0
  0
SPLINE
  5
2D8
100
AcDbEntity
  8
0
100
AcDbSpline
 62
7
  6
CONTINUOUS
 70
0
 71
3
 72
45
 73
41
 74
0
 42
0.0000001
 43
0.0000001
 44
0.0000000001
 40
0.0
 40
0.0
 40
0.0
 40
0.0
 40
0.01497214
 40
0.0299473369
 40
0.0449286345
 40
0.0599190336
 40
0.0749214831
 40
0.089938858
 40
0.1049739401
 40
0.1200294101
 40
0.1351078174
 40
0.1502115844
 40
0.1653429709
 40
0.180504084
 40
0.2109173596
 40
0.2414702626
 40
0.272172708
 40
0.3030312068
 40
0.3340487697
 40
0.3652248943
 40
0.3965556293
 40
0.4280337098
 40
0.4596487579
 40
0.4913875395
 40
0.5232342716
 40
0.5551709708
 40
0.5871778361
 40
0.6192336592
 40
0.6513162553
 40
0.6834029069
 40
0.7154708163
 40
0.7474975582
 40
0.7794615275
 40
0.8113423757
 40
0.8431214263
 40
0.8747820819
 40
0.906310132
 40
0.937694264
 40
0.9689257723
 40
1.0
 40
1.0
 40
1.0
 40
1.0
 10
9.1469546353
 20
10.5069384898
 30
0.0
 10
9.1494101389
 20
10.5093103369
 30
0.0
 10
9.1544164962
 20
10.5139574426
 30
0.0
 10
9.1621979643
 20
10.5206248832
 30
0.0
 10
9.1702414109
 20
10.526980801
 30
0.0
 10
9.1785356874
 20
10.5330162065
 30
0.0
 10
9.1870693317
 20
10.5387229584
 30
0.0
 10
9.1958306828
 20
10.5440930503
 30
0.0
 10
9.2048075892
 20
10.5491192583
 30
0.0
 10
9.2139877812
 20
10.5537945082
 30
0.0
 10
9.2233585614
 20
10.5581125249
 30
0.0
 10
9.2329070411
 20
10.5620672351
 30
0.0
 10
9.2426202336
 20
10.5656533379
 30
0.0
 10
9.2557847564
 20
10.5699406416
 30
0.0
 10
9.2725925456
 20
10.5743534389
 30
0.0
 10
9.293176566
 20
10.5780999066
 30
0.0
 10
9.3140868703
 20
10.580283975
 30
0.0
 10
9.3352076064
 20
10.5808936155
 30
0.0
 10
9.3564228265
 20
10.5799258277
 30
0.0
 10
9.3776158539
 20
10.5773861762
 30
0.0
 10
9.3986702608
 20
10.5732888732
 30
0.0
 10
9.4194704077
 20
10.5676566571
 30
0.0
 10
9.4399020953
 20
10.5605206689
 30
0.0
 10
9.4598531754
 20
10.5519202742
 30
0.0
 10
9.4792141594
 20
10.5419028444
 30
0.0
 10
9.4978788107
 20
10.5305234954
 30
0.0
 10
9.5157447193
 20
10.5178447857
 30
0.0
 10
9.532713857
 20
10.5039363744
 30
0.0
 10
9.5486931081
 20
10.4888746416
 30
0.0
 10
9.5635947773
 20
10.4727422746
 30
0.0
 10
9.5773370652
 20
10.4556278174
 30
0.0
 10
9.5898445118
 20
10.437625188
 30
0.0
 10
9.6010484077
 20
10.4188331696
 30
0.0
 10
9.6108871658
 20
10.3993548718
 30
0.0
 10
9.6193066655
 20
10.3792971843
 30
0.0
 10
9.6262605265
 20
10.3587701526
 30
0.0
 10
9.6317104234
 20
10.3378865457
 30
0.0
 10
9.6356261647
 20
10.3167606405
 30
0.0
 10
9.6379861117
 20
10.2955099557
 30
0.0
 10
9.6385146812
 20
10.2812974761
 30
0.0
 10
9.6385146812
 20
10.2742118942
 30
0.0
  0
SPLINE
  5
2D9
100
AcDbEntity
  8
0
100
AcDbSpline
 62
7
  6
CONTINUOUS
 70
0
 71
3
 72
45
 73
41
 74
0
 42
0.0000001
 43
0.0000001
 44
0.0000000001
 40
0.0
 40
0.0
 40
0.0
 40
0.0
 40
0.01497214
 40
0.0299473369
 40
0.0449286345
 40
0.0599190336
 40
0.0749214831
 40
0.089938858
 40
0.1049739401
 40
0.1200294101
 40
0.1351078174
 40
0.1502115844
 40
0.1653429709
 40
0.180504084
 40
0.2109173596
 40
0.2414702626
 40
0.272172708
 40
0.3030312068
 40
0.3340487697
 40
0.3652248943
 40
0.3965556293
 40
0.4280337098
 40
0.4596487579
 40
0.4913875395
 40
0.5232342716
 40
0.5551709708
 40
0.5871778361
 40
0.6192336592
 40
0.6513162553
 40
0.6834029069
 40
0.7154708163
 40
0.7474975582
 40
0.7794615275
 40
0.8113423757
 40
0.8431214263
 40
0.8747820819
 40
0.906310132
 40
0.937694264
 40
0.9689257723
 40
1.0
 40
1.0
 40
1.0
 40
1.0
 10
9.1469546353
 20
7.4275666929
 30
0.0
 10
9.1494101389
 20
7.4299385401
 30
0.0
 10
9.1544164962
 20
7.4345856458
 30
0.0
 10
9.1621979643
 20
7.4412530864
 30
0.0
 10
9.1702414109
 20
7.4476090041
 30
0.0
 10
9.1785356874
 20
7.4536444097
 30
0.0
 10
9.1870693317
 20
7.4593511616
 30
0.0
 10
9.1958306828
 20
7.4647212535
 30
0.0
 10
9.2048075892
 20
7.4697474615
 30
0.0
 10
9.2139877812
 20
7.4744227114
 30
0.0
 10
9.2233585614
 20
7.4787407281
 30
0.0
 10
9.2329070411
 20
7.4826954383
 30
0.0
 10
9.2426202336
 20
7.4862815411
 30
0.0
 10
9.2557847564
 20
7.4905688448
 30
0.0
 10
9.2725925456
 20
7.4949816421
 30
0.0
 10
9.293176566
 20
7.4987281098
 30
0.0
 10
9.3140868703
 20
7.5009121782
 30
0.0
 10
9.3352076064
 20
7.5015218187
 30
0.0
 10
9.3564228265
 20
7.5005540309
 30
0.0
 10
9.3776158539
 20
7.4980143794
 30
0.0
 10
9.3986702608
 20
7.4939170764
 30
0.0
 10
9.4194704077
 20
7.4882848602
 30
0.0
 10
9.4399020953
 20
7.4811488721
 30
0.0
 10
9.4598531754
 20
7.4725484774
 30
0.0
 10
9.4792141594
 20
7.4625310476
 30
0.0
 10
9.4978788107
 20
7.4511516986
 30
0.0
 10
9.5157447193
 20
7.4384729889
 30
0.0
 10
9.532713857
 20
7.4245645776
 30
0.0
 10
9.5486931081
 20
7.4095028448
 30
0.0
 10
9.5635947773
 20
7.3933704778
 30
0.0
 10
9.5773370652
 20
7.3762560206
 30
0.0
 10
9.5898445118
 20
7.3582533912
 30
0.0
 10
9.6010484077
 20
7.3394613728
 30
0.0
 10
9.6108871658
 20
7.319983075
 30
0.0
 10
9.6193066655
 20
7.2999253875
 30
0.0
 10
9.6262605265
 20
7.2793983558
 30
0.0
 10
9.6317104234
 20
7.2585147489
 30
0.0
 10
9.6356261647
 20
7.2373888437
 30
0.0
 10
9.6379861117
 20
7.2161381589
 30
0.0
 10
9.6385146812
 20
7.2019256793
 30
0.0
 10
9.6385146812
 20
7.1948400974
 30
0.0
  0
SPLINE
  5
2DA
100
AcDbEntity
  8
0
100
AcDbSpline
 62
7
  6
CONTINUOUS
 70
0
 71
3
 72
45
 73
41
 74
0
 42
0.0000001
 43
0.0000001
 44
0.0000000001
 40
0.0
 40
0.0
 40
0.0
 40
0.0
 40
0.01497214
 40
0.0299473369
 40
0.0449286345
 40
0.0599190336
 40
0.0749214831
 40
0.089938858
 40
0.1049739401
 40
0.1200294101
 40
0.1351078174
 40
0.1502115844
 40
0.1653429709
 40
0.180504084
 40
0.2109173596
 40
0.2414702626
 40
0.272172708
 40
0.3030312068
 40
0.3340487697
 40
0.3652248943
 40
0.3965556293
 40
0.4280337098
 40
0.4596487579
 40
0.4913875395
 40
0.5232342716
 40
0.5551709708
 40
0.5871778361
 40
0.6192336592
 40
0.6513162553
 40
0.6834029069
 40
0.7154708163
 40
0.7474975582
 40
0.7794615275
 40
0.8113423757
 40
0.8431214263
 40
0.8747820819
 40
0.906310132
 40
0.937694264
 40
0.9689257723
 40
1.0
 40
1.0
 40
1.0
 40
1.0
 10
11.5617693441
 20
7.2600987241
 30
0.0
 10
11.5642248477
 20
7.2624705713
 30
0.0
 10
11.569231205
 20
7.267117677
 30
0.0
 10
11.5770126731
 20
7.2737851176
 30
0.0
 10
11.5850561197
 20
7.2801410353
 30
0.0
 10
11.5933503962
 20
7.2861764409
 30
0.0
 10
11.6018840405
 20
7.2918831927
 30
0.0
 10
11.6106453916
 20
7.2972532846
 30
0.0
 10
11.619622298
 20
7.3022794927
 30
0.0
 10
11.62880249
 20
7.3069547425
 30
0.0
 10
11.6381732702
 20
7.3112727592
 30
0.0
 10
11.64772175
 20
7.3152274694
 30
0.0
 10
11.6574349424
 20
7.3188135723
 30
0.0
 10
11.6705994652
 20
7.323100876
 30
0.0
 10
11.6874072544
 20
7.3275136732
 30
0.0
 10
11.7079912748
 20
7.3312601409
 30
0.0
 10
11.7289015791
 20
7.3334442093
 30
0.0
 10
11.7500223152
 20
7.3340538499
 30
0.0
 10
11.7712375353
 20
7.3330860621
 30
0.0
 10
11.7924305627
 20
7.3305464105
 30
0.0
 10
11.8134849696
 20
7.3264491075
 30
0.0
 10
11.8342851165
 20
7.3208168914
 30
0.0
 10
11.8547168041
 20
7.3136809032
 30
0.0
 10
11.8746678842
 20
7.3050805085
 30
0.0
 10
11.8940288682
 20
7.2950630787
 30
0.0
 10
11.9126935195
 20
7.2836837298
 30
0.0
 10
11.9305594281
 20
7.27100502
 30
0.0
 10
11.9475285658
 20
7.2570966088
 30
0.0
 10
11.9635078169
 20
7.242034876
 30
0.0
 10
11.9784094861
 20
7.2259025089
 30
0.0
 10
11.992151774
 20
7.2087880518
 30
0.0
 10
12.0046592206
 20
7.1907854223
 30
0.0
 10
12.0158631165
 20
7.171993404
 30
0.0
 10
12.0257018746
 20
7.1525151061
 30
0.0
 10
12.0341213743
 20
7.1324574186
 30
0.0
 10
12.0410752354
 20
7.111930387
 30
0.0
 10
12.0465251322
 20
7.09104678
 30
0.0
 10
12.0504408735
 20
7.0699208749
 30
0.0
 10
12.0528008205
 20
7.0486701901
 30
0.0
 10
12.05332939
 20
7.0344577105
 30
0.0
 10
12.05332939
 20
7.0273721285
 30
0.0
  0
SPLINE
  5
2DB
100
AcDbEntity
  8
0
100
AcDbSpline
 62
7
  6
CONTINUOUS
 70
0
 71
3
 72
45
 73
41
 74
0
 42
0.0000001
 43
0.0000001
 44
0.0000000001
 40
0.0
 40
0.0
 40
0.0
 40
0.0
 40
0.01497214
 40
0.0299473369
 40
0.0449286345
 40
0.0599190336
 40
0.0749214831
 40
0.089938858
 40
0.1049739401
 40
0.1200294101
 40
0.1351078174
 40
0.1502115844
 40
0.1653429709
 40
0.180504084
 40
0.2109173596
 40
0.2414702626
 40
0.272172708
 40
0.3030312068
 40
0.3340487697
 40
0.3652248943
 40
0.3965556293
 40
0.4280337098
 40
0.4596487579
 40
0.4913875395
 40
0.5232342716
 40
0.5551709708
 40
0.5871778361
 40
0.6192336592
 40
0.6513162553
 40
0.6834029069
 40
0.7154708163
 40
0.7474975582
 40
0.7794615275
 40
0.8113423757
 40
0.8431214263
 40
0.8747820819
 40
0.906310132
 40
0.937694264
 40
0.9689257723
 40
1.0
 40
1.0
 40
1.0
 40
1.0
 10
11.5617693441
 20
10.3394705209
 30
0.0
 10
11.5642248477
 20
10.3418423681
 30
0.0
 10
11.569231205
 20
10.3464894738
 30
0.0
 10
11.5770126731
 20
10.3531569144
 30
0.0
 10
11.5850561197
 20
10.3595128321
 30
0.0
 10
11.5933503962
 20
10.3655482377
 30
0.0
 10
11.6018840405
 20
10.3712549895
 30
0.0
 10
11.6106453916
 20
10.3766250815
 30
0.0
 10
11.619622298
 20
10.3816512895
 30
0.0
 10
11.62880249
 20
10.3863265393
 30
0.0
 10
11.6381732702
 20
10.3906445561
 30
0.0
 10
11.64772175
 20
10.3945992662
 30
0.0
 10
11.6574349424
 20
10.3981853691
 30
0.0
 10
11.6705994652
 20
10.4024726728
 30
0.0
 10
11.6874072544
 20
10.40688547
 30
0.0
 10
11.7079912748
 20
10.4106319377
 30
0.0
 10
11.7289015791
 20
10.4128160061
 30
0.0
 10
11.7500223152
 20
10.4134256467
 30
0.0
 10
11.7712375353
 20
10.4124578589
 30
0.0
 10
11.7924305627
 20
10.4099182073
 30
0.0
 10
11.8134849696
 20
10.4058209043
 30
0.0
 10
11.8342851165
 20
10.4001886882
 30
0.0
 10
11.8547168041
 20
10.3930527
 30
0.0
 10
11.8746678842
 20
10.3844523053
 30
0.0
 10
11.8940288682
 20
10.3744348755
 30
0.0
 10
11.9126935195
 20
10.3630555266
 30
0.0
 10
11.9305594281
 20
10.3503768168
 30
0.0
 10
11.9475285658
 20
10.3364684056
 30
0.0
 10
11.9635078169
 20
10.3214066728
 30
0.0
 10
11.9784094861
 20
10.3052743058
 30
0.0
 10
11.992151774
 20
10.2881598486
 30
0.0
 10
12.0046592206
 20
10.2701572191
 30
0.0
 10
12.0158631165
 20
10.2513652008
 30
0.0
 10
12.0257018746
 20
10.2318869029
 30
0.0
 10
12.0341213743
 20
10.2118292154
 30
0.0
 10
12.0410752354
 20
10.1913021838
 30
0.0
 10
12.0465251322
 20
10.1704185768
 30
0.0
 10
12.0504408735
 20
10.1492926717
 30
0.0
 10
12.0528008205
 20
10.1280419869
 30
0.0
 10
12.05332939
 20
10.1138295073
 30
0.0
 10
12.05332939
 20
10.1067439254
 30
0.0
  0
SPLINE
  5
2DC
100
AcDbEntity
  8
0
100
AcDbSpline
 62
7
  6
CONTINUOUS
 70
0
 71
3
 72
79
 73
75
 74
0
 42
0.0000001
 43
0.0000001
 44
0.0000000001
 40
0.0
 40
0.0
 40
0.0
 40
0.0
 40
0.0038007051
 40
0.0077416999
 40
0.0118260031
 40
0.0160562373
 40
0.0204346576
 40
0.0249631151
 40
0.0296429552
 40
0.0344751321
 40
0.0394603161
 40
0.0445988393
 40
0.0498907858
 40
0.0553360227
 40
0.0666840854
 40
0.0786379211
 40
0.0911890135
 40
0.1043263398
 40
0.1180366986
 40
0.1323049045
 40
0.1471139984
 40
0.1624454629
 40
0.1782793342
 40
0.1945943004
 40
0.211367865
 40
0.228576436
 40
0.2461953738
 40
0.2641991161
 40
0.2825612646
 40
0.3012546227
 40
0.3202512826
 40
0.3395227155
 40
0.3590398158
 40
0.3787729616
 40
0.3986921037
 40
0.4187668185
 40
0.4592591605
 40
0.500002032
 40
0.5407448846
 40
0.5812371702
 40
0.6013118428
 40
0.6212309336
 40
0.6409640188
 40
0.6604810498
 40
0.6797524044
 40
0.6987489774
 40
0.7174422401
 40
0.7358042849
 40
0.7538079155
 40
0.7714267337
 40
0.7886351776
 40
0.8054086078
 40
0.8217234328
 40
0.8375571562
 40
0.8528884666
 40
0.8676974007
 40
0.8819654413
 40
0.8956756301
 40
0.908812782
 40
0.9213636965
 40
0.9333173513
 40
0.9446652296
 40
0.9501103756
 40
0.9554022332
 40
0.9605406654
 40
0.9655257514
 40
0.9703578242
 40
0.9750375707
 40
0.9795659645
 40
0.9839443412
 40
0.9881744848
 40
0.9922585804
 40
0.9961993244
 40
1.0
 40
1.0
 40
1.0
 40
1.0
 10
11.5395213004
 20
11.2301159236
 30
0.0
 10
11.5384870108
 20
11.229153451
 30
0.0
 10
11.5363409606
 20
11.2272348444
 30
0.0
 10
11.5329584933
 20
11.2244255908
 30
0.0
 10
11.5293565475
 20
11.2216348192
 30
0.0
 10
11.5255367358
 20
11.2188637592
 30
0.0
 10
11.5215005987
 20
11.2161134425
 30
0.0
 10
11.5172497147
 20
11.2133849821
 30
0.0
 10
11.5127858135
 20
11.2106794351
 30
0.0
 10
11.5081107261
 20
11.2079978912
 30
0.0
 10
11.5032263433
 20
11.2053414983
 30
0.0
 10
11.4981346859
 20
11.2027113101
 30
0.0
 10
11.4928378261
 20
11.2001083744
 30
0.0
 10
11.4854020039
 20
11.1966276645
 30
0.0
 10
11.4756021003
 20
11.1923609147
 30
0.0
 10
11.4632162914
 20
11.1874344264
 30
0.0
 10
11.450068042
 20
11.1826415651
 30
0.0
 10
11.4361789265
 20
11.1779902439
 30
0.0
 10
11.4215715854
 20
11.1734881627
 30
0.0
 10
11.40626995
 20
11.1691427705
 30
0.0
 10
11.3902991181
 20
11.1649612467
 30
0.0
 10
11.3736853075
 20
11.1609505325
 30
0.0
 10
11.3564558167
 20
11.1571172871
 30
0.0
 10
11.3386389864
 20
11.1534678429
 30
0.0
 10
11.3202641306
 20
11.1500082513
 30
0.0
 10
11.3013614894
 20
11.146744264
 30
0.0
 10
11.2819621909
 20
11.1436812728
 30
0.0
 10
11.2620981871
 20
11.1408243465
 30
0.0
 10
11.2418021954
 20
11.138178234
 30
0.0
 10
11.2211076551
 20
11.1357473129
 30
0.0
 10
11.2000486688
 20
11.1335355952
 30
0.0
 10
11.1786599381
 20
11.1315467537
 30
0.0
 10
11.1569767094
 20
11.1297840875
 30
0.0
 10
11.1350347306
 20
11.1282505017
 30
0.0
 10
11.1128701369
 20
11.126948519
 30
0.0
 10
11.0829846034
 20
11.1255202825
 30
0.0
 10
11.0453403008
 20
11.1243312014
 30
0.0
 10
10.9999965888
 20
11.1238558645
 30
0.0
 10
10.9546528992
 20
11.1243313442
 30
0.0
 10
10.9170086441
 20
11.1255205442
 30
0.0
 10
10.8871231709
 20
11.1269488753
 30
0.0
 10
10.8649586386
 20
11.128250928
 30
0.0
 10
10.8430167322
 20
11.129784583
 30
0.0
 10
10.8213335867
 20
11.1315473177
 30
0.0
 10
10.7999449498
 20
11.1335362267
 30
0.0
 10
10.7788860678
 20
11.1357480108
 30
0.0
 10
10.7581916422
 20
11.1381789972
 30
0.0
 10
10.7378957754
 20
11.1408251738
 30
0.0
 10
10.7180319064
 20
11.1436821628
 30
0.0
 10
10.6986327525
 20
11.1467452152
 30
0.0
 10
10.6797302653
 20
11.1500092621
 30
0.0
 10
10.6613555727
 20
11.1534689117
 30
0.0
 10
10.6435389146
 20
11.157118412
 30
0.0
 10
10.6263096047
 20
11.1609517117
 30
0.0
 10
10.6096959833
 20
11.1649624783
 30
0.0
 10
10.5937253487
 20
11.1691440524
 30
0.0
 10
10.5784239182
 20
11.1734894928
 30
0.0
 10
10.5638167895
 20
11.17799162
 30
0.0
 10
10.5499278933
 20
11.1826429849
 30
0.0
 10
10.5367798699
 20
11.1874358877
 30
0.0
 10
10.5243942938
 20
11.192362415
 30
0.0
 10
10.5145945884
 20
11.1966291956
 30
0.0
 10
10.5071589275
 20
11.2001099309
 30
0.0
 10
10.5018621892
 20
11.2027128856
 30
0.0
 10
10.4967706566
 20
11.2053430903
 30
0.0
 10
10.4918864038
 20
11.2079994941
 30
0.0
 10
10.4872114472
 20
11.2106810451
 30
0.0
 10
10.4827476688
 20
11.2133866074
 30
0.0
 10
10.4784968947
 20
11.2161151011
 30
0.0
 10
10.4744608717
 20
11.2188654547
 30
0.0
 10
10.4706412143
 20
11.2216365108
 30
0.0
 10
10.4670394736
 20
11.2244272137
 30
0.0
 10
10.4636571938
 20
11.2272364096
 30
0.0
 10
10.4615112682
 20
11.2291549995
 30
0.0
 10
10.4604770106
 20
11.2301174904
 30
0.0
  0
SPLINE
  5
2DD
100
AcDbEntity
  8
0
100
AcDbSpline
 62
7
  6
CONTINUOUS
 70
0
 71
3
 72
22
 73
18
 74
0
 42
0.0000001
 43
0.0000001
 44
0.0000000001
 40
0.0
 40
0.0
 40
0.0
 40
0.0
 40
0.0544199202
 40
0.1090570248
 40
0.1641256412
 40
0.2198345841
 40
0.2763850499
 40
0.3339683416
 40
0.3927643491
 40
0.4529410493
 40
0.5146536444
 40
0.5780439096
 40
0.6432411465
 40
0.7103625344
 40
0.7795127223
 40
0.8507853559
 40
1.0
 40
1.0
 40
1.0
 40
1.0
 10
9.1681851066
 20
5.5439265435
 30
0.0
 10
9.1681851018
 20
5.5428290062
 30
0.0
 10
9.1682572795
 20
5.5406288739
 30
0.0
 10
9.1685819198
 20
5.5373325279
 30
0.0
 10
9.1691227869
 20
5.5340382542
 30
0.0
 10
9.1698796063
 20
5.5307473052
 30
0.0
 10
9.1708521075
 20
5.5274606868
 30
0.0
 10
9.1720398619
 20
5.5241794202
 30
0.0
 10
9.1734423482
 20
5.5209044536
 30
0.0
 10
9.1750590816
 20
5.5176367397
 30
0.0
 10
9.1768895139
 20
5.5143772089
 30
0.0
 10
9.1789329667
 20
5.5111267265
 30
0.0
 10
9.1811887981
 20
5.5078861715
 30
0.0
 10
9.1836563371
 20
5.5046564706
 30
0.0
 10
9.1863348406
 20
5.5014383811
 30
0.0
 10
9.1902460066
 20
5.4970981741
 30
0.0
 10
9.193407279
 20
5.4939639889
 30
0.0
 10
9.1956102767
 20
5.4919138682
 30
0.0
  0
SPLINE
  5
2DE
100
AcDbEntity
  8
0
100
AcDbSpline
 62
7
  6
CONTINUOUS
 70
0
 71
3
 72
36
 73
32
 74
0
 42
0.0000001
 43
0.0000001
 44
0.0000000001
 40
0.0
 40
0.0
 40
0.0
 40
0.0
 40
0.0165869988
 40
0.034153488
 40
0.0527299217
 40
0.0723381688
 40
0.0929927124
 40
0.1147020188
 40
0.1374690564
 40
0.1612924541
 40
0.1861666635
 40
0.2120828105
 40
0.2390288305
 40
0.26698992
 40
0.2959488345
 40
0.3258859531
 40
0.3567797581
 40
0.3886066408
 40
0.4213414392
 40
0.4549572005
 40
0.4894255933
 40
0.5247168168
 40
0.5607997686
 40
0.5976421753
 40
0.6352105341
 40
0.6734704047
 40
0.7123861739
 40
0.7519214843
 40
0.8326998888
 40
0.9154984472
 40
1.0
 40
1.0
 40
1.0
 40
1.0
 10
9.2553425607
 20
5.4363266945
 30
0.0
 10
9.2573939975
 20
5.434417606
 30
0.0
 10
9.2617451592
 20
5.4306217863
 30
0.0
 10
9.268776464
 20
5.4251454131
 30
0.0
 10
9.2764884352
 20
5.4197315835
 30
0.0
 10
9.2848729187
 20
5.4143859316
 30
0.0
 10
9.293921462
 20
5.4091136004
 30
0.0
 10
9.3036248275
 20
5.4039200517
 30
0.0
 10
9.3139730182
 20
5.3988104934
 30
0.0
 10
9.3249553894
 20
5.3937903172
 30
0.0
 10
9.3365605426
 20
5.388864661
 30
0.0
 10
9.3487764388
 20
5.3840387354
 30
0.0
 10
9.3615903506
 20
5.3793175736
 30
0.0
 10
9.3749889091
 20
5.3747061322
 30
0.0
 10
9.3889581192
 20
5.3702093008
 30
0.0
 10
9.4034833593
 20
5.3658317562
 30
0.0
 10
9.4185494277
 20
5.3615781899
 30
0.0
 10
9.434140528
 20
5.357453006
 30
0.0
 10
9.4502403171
 20
5.3534606317
 30
0.0
 10
9.4668319008
 20
5.3496052182
 30
0.0
 10
9.4838978676
 20
5.3458908718
 30
0.0
 10
9.5014203007
 20
5.342321498
 30
0.0
 10
9.5193807984
 20
5.3389008499
 30
0.0
 10
9.5377604974
 20
5.3356325714
 30
0.0
 10
9.5565400919
 20
5.3325200557
 30
0.0
 10
9.5756998418
 20
5.3295666557
 30
0.0
 10
9.5952196324
 20
5.3267754
 30
0.0
 10
9.6218892217
 20
5.3232488112
 30
0.0
 10
9.655976273
 20
5.3192764867
 30
0.0
 10
9.6976951349
 20
5.3152324002
 30
0.0
 10
9.7258756633
 20
5.3130269615
 30
0.0
 10
9.7401177344
 20
5.3120392705
 30
0.0
  0
SPLINE
  5
2DF
100
AcDbEntity
  8
0
100
AcDbSpline
 62
7
  6
CONTINUOUS
 70
0
 71
3
 72
40
 73
36
 74
0
 42
0.0000001
 43
0.0000001
 44
0.0000000001
 40
0.0
 40
0.0
 40
0.0
 40
0.0
 40
0.0299423238
 40
0.0599090245
 40
0.0899238848
 40
0.1200095187
 40
0.150186833
 40
0.1804745412
 40
0.2108887424
 40
0.2414425755
 40
0.272145955
 40
0.3030053912
 40
0.3340238948
 40
0.3652009635
 40
0.3965326462
 40
0.428011678
 40
0.4596276808
 40
0.4913674207
 40
0.5232151142
 40
0.5551527775
 40
0.5871606086
 40
0.6192173983
 40
0.6513009604
 40
0.6833885764
 40
0.7154574484
 40
0.7314802314
 40
0.7474899817
 40
0.7794549091
 40
0.8113367096
 40
0.8431167212
 40
0.8747782962
 40
0.906307382
 40
0.9376922178
 40
0.9689251624
 40
1.0
 40
1.0
 40
1.0
 40
1.0
 10
9.213310685
 20
7.993572953
 30
0.0
 10
9.2158986732
 20
7.9960727537
 30
0.0
 10
9.2212781557
 20
8.0008706028
 30
0.0
 10
9.2298969147
 20
8.0074068293
 30
0.0
 10
9.2390211643
 20
8.0132497887
 30
0.0
 10
9.2485999205
 20
8.0183667055
 30
0.0
 10
9.2585805214
 20
8.0227296234
 30
0.0
 10
9.2689078854
 20
8.0263145586
 30
0.0
 10
9.2795251028
 20
8.0291018948
 30
0.0
 10
9.2903736798
 20
8.0310764134
 30
0.0
 10
9.3013938854
 20
8.0322273905
 30
0.0
 10
9.3125250772
 20
8.0325486393
 30
0.0
 10
9.3237060362
 20
8.0320385381
 30
0.0
 10
9.3348753019
 20
8.0307000307
 30
0.0
 10
9.3459715061
 20
8.0285406046
 30
0.0
 10
9.3569337069
 20
8.0255722439
 30
0.0
 10
9.3677017181
 20
8.0218113605
 30
0.0
 10
9.3782164353
 20
8.0172787008
 30
0.0
 10
9.3884201558
 20
8.0119992298
 30
0.0
 10
9.398256889
 20
8.0060019961
 30
0.0
 10
9.4076726661
 20
7.9993199637
 30
0.0
 10
9.4166158089
 20
7.9919898648
 30
0.0
 10
9.425037297
 20
7.9840518777
 30
0.0
 10
9.432890716
 20
7.9755498699
 30
0.0
 10
9.4389284724
 20
7.9680304201
 30
0.0
 10
9.4434332208
 20
7.9617802625
 30
0.0
 10
9.447711287
 20
7.9553878486
 30
0.0
 10
9.4526298811
 20
7.9471380808
 30
0.0
 10
9.4578150241
 20
7.9368726907
 30
0.0
 10
9.4622523313
 20
7.926301727
 30
0.0
 10
9.4659171919
 20
7.9154834628
 30
0.0
 10
9.4687893931
 20
7.9044772788
 30
0.0
 10
9.4708531321
 20
7.893343353
 30
0.0
 10
9.4720968357
 20
7.8821437003
 30
0.0
 10
9.4723754242
 20
7.8746533411
 30
0.0
 10
9.4723754242
 20
7.8709190972
 30
0.0
  0
SPLINE
  5
2E0
100
AcDbEntity
  8
0
100
AcDbSpline
 62
7
  6
CONTINUOUS
 70
0
 71
3
 72
42
 73
38
 74
0
 42
0.0000001
 43
0.0000001
 44
0.0000000001
 40
0.0
 40
0.0
 40
0.0
 40
0.0
 40
0.0299419701
 40
0.0449235371
 40
0.0599142099
 40
0.0899287086
 40
0.120013976
 40
0.1350926557
 40
0.1501966967
 40
0.1804840314
 40
0.2108978579
 40
0.2414513165
 40
0.2721543219
 40
0.3030133827
 40
0.3340315081
 40
0.3652081958
 40
0.3965394956
 40
0.4280181443
 40
0.4596337652
 40
0.4913731244
 40
0.5232204374
 40
0.5551577174
 40
0.5871651615
 40
0.6192215618
 40
0.6513047348
 40
0.683391965
 40
0.7154604554
 40
0.7474877801
 40
0.7794523312
 40
0.8113337544
 40
0.8431133903
 40
0.87477457
 40
0.9063033352
 40
0.9376876324
 40
0.9533255692
 40
0.9689257402
 40
1.0
 40
1.0
 40
1.0
 40
1.0
 10
10.4696905611
 20
8.7641230292
 30
0.0
 10
10.471847217
 20
8.766206208
 30
0.0
 10
10.4752092956
 20
8.7692047823
 30
0.0
 10
10.4799178582
 20
8.7729253192
 30
0.0
 10
10.4847763417
 20
8.7764607498
 30
0.0
 10
10.491115886
 20
8.780520558
 30
0.0
 10
10.4977636778
 20
8.7840716969
 30
0.0
 10
10.5032463501
 20
8.7865980664
 30
0.0
 10
10.5088423329
 20
8.7889157708
 30
0.0
 10
10.5160216838
 20
8.7914080634
 30
0.0
 10
10.5248691718
 20
8.7937307987
 30
0.0
 10
10.5339097161
 20
8.7953763075
 30
0.0
 10
10.5430932216
 20
8.7963354893
 30
0.0
 10
10.5523692373
 20
8.7966032323
 30
0.0
 10
10.561686723
 20
8.796178178
 30
0.0
 10
10.5709944678
 20
8.7950627847
 30
0.0
 10
10.5802413302
 20
8.7932632918
 30
0.0
 10
10.5893765259
 20
8.7907896856
 30
0.0
 10
10.5983498993
 20
8.7876556401
 30
0.0
 10
10.607112195
 20
8.783878441
 30
0.0
 10
10.6156153234
 20
8.779478888
 30
0.0
 10
10.623812627
 20
8.7744811921
 30
0.0
 10
10.6316591308
 20
8.768912833
 30
0.0
 10
10.6391117841
 20
8.7628044067
 30
0.0
 10
10.6461296937
 20
8.7561894591
 30
0.0
 10
10.6526743454
 20
8.7491043042
 30
0.0
 10
10.6587098119
 20
8.7415878267
 30
0.0
 10
10.664202949
 20
8.7336812714
 30
0.0
 10
10.6691235727
 20
8.7254280216
 30
0.0
 10
10.6734446431
 20
8.7168733606
 30
0.0
 10
10.677142378
 20
8.708064255
 30
0.0
 10
10.6801964577
 20
8.6990489592
 30
0.0
 10
10.6825899313
 20
8.6898772884
 30
0.0
 10
10.684024927
 20
8.6821354114
 30
0.0
 10
10.6848299113
 20
8.6759148482
 30
0.0
 10
10.6854043613
 20
8.6697002437
 30
0.0
 10
10.685578339
 20
8.6650237986
 30
0.0
 10
10.685578339
 20
8.6619119421
 30
0.0
  0
SPLINE
  5
2E1
100
AcDbEntity
  8
0
100
AcDbSpline
 62
7
  6
CONTINUOUS
 70
0
 71
3
 72
42
 73
38
 74
0
 42
0.0000001
 43
0.0000001
 44
0.0000000001
 40
0.0
 40
0.0
 40
0.0
 40
0.0
 40
0.0299419701
 40
0.0449235371
 40
0.0599142099
 40
0.0899287086
 40
0.120013976
 40
0.1350926557
 40
0.1501966967
 40
0.1804840314
 40
0.2108978579
 40
0.2414513165
 40
0.2721543219
 40
0.3030133827
 40
0.3340315081
 40
0.3652081958
 40
0.3965394956
 40
0.4280181443
 40
0.4596337652
 40
0.4913731244
 40
0.5232204374
 40
0.5551577174
 40
0.5871651615
 40
0.6192215618
 40
0.6513047348
 40
0.683391965
 40
0.7154604554
 40
0.7474877801
 40
0.7794523312
 40
0.8113337544
 40
0.8431133903
 40
0.87477457
 40
0.9063033352
 40
0.9376876324
 40
0.9533255692
 40
0.9689257402
 40
1.0
 40
1.0
 40
1.0
 40
1.0
 10
9.2313735733
 20
9.7251294719
 30
0.0
 10
9.2335302293
 20
9.7272126508
 30
0.0
 10
9.2368923078
 20
9.7302112251
 30
0.0
 10
9.2416008705
 20
9.7339317619
 30
0.0
 10
9.2464593539
 20
9.7374671925
 30
0.0
 10
9.2527988983
 20
9.7415270007
 30
0.0
 10
9.2594466901
 20
9.7450781397
 30
0.0
 10
9.2649293624
 20
9.7476045091
 30
0.0
 10
9.2705253451
 20
9.7499222135
 30
0.0
 10
9.277704696
 20
9.7524145061
 30
0.0
 10
9.2865521841
 20
9.7547372415
 30
0.0
 10
9.2955927283
 20
9.7563827503
 30
0.0
 10
9.3047762338
 20
9.7573419321
 30
0.0
 10
9.3140522495
 20
9.757609675
 30
0.0
 10
9.3233697353
 20
9.7571846207
 30
0.0
 10
9.3326774801
 20
9.7560692274
 30
0.0
 10
9.3419243425
 20
9.7542697345
 30
0.0
 10
9.3510595382
 20
9.7517961283
 30
0.0
 10
9.3600329115
 20
9.7486620829
 30
0.0
 10
9.3687952073
 20
9.7448848838
 30
0.0
 10
9.3772983357
 20
9.7404853308
 30
0.0
 10
9.3854956392
 20
9.7354876348
 30
0.0
 10
9.393342143
 20
9.7299192758
 30
0.0
 10
9.4007947963
 20
9.7238108494
 30
0.0
 10
9.407812706
 20
9.7171959019
 30
0.0
 10
9.4143573576
 20
9.7101107469
 30
0.0
 10
9.4203928242
 20
9.7025942694
 30
0.0
 10
9.4258859613
 20
9.6946877142
 30
0.0
 10
9.430806585
 20
9.6864344643
 30
0.0
 10
9.4351276554
 20
9.6778798033
 30
0.0
 10
9.4388253903
 20
9.6690706977
 30
0.0
 10
9.44187947
 20
9.660055402
 30
0.0
 10
9.4442729436
 20
9.6508837311
 30
0.0
 10
9.4457079393
 20
9.6431418541
 30
0.0
 10
9.4465129236
 20
9.6369212909
 30
0.0
 10
9.4470873736
 20
9.6307066865
 30
0.0
 10
9.4472613512
 20
9.6260302414
 30
0.0
 10
9.4472613512
 20
9.6229183848
 30
0.0
  0
SPLINE
  5
2E2
100
AcDbEntity
  8
0
100
AcDbSpline
 62
7
  6
CONTINUOUS
 70
0
 71
3
 72
15
 73
11
 74
0
 42
0.0000001
 43
0.0000001
 44
0.0000000001
 40
0.0
 40
0.0
 40
0.0
 40
0.0
 40
0.128497791
 40
0.2568946902
 40
0.3848170439
 40
0.5118193954
 40
0.6373929552
 40
0.7609850476
 40
0.8820301849
 40
1.0
 40
1.0
 40
1.0
 40
1.0
 10
11.1344303016
 20
8.5089081337
 30
0.0
 10
11.1388987255
 20
8.5061779435
 30
0.0
 10
11.1479925326
 20
8.5009767872
 30
0.0
 10
11.1620672766
 20
8.4940384706
 30
0.0
 10
11.1765114407
 20
8.4880589026
 30
0.0
 10
11.1912291547
 20
8.4831359479
 30
0.0
 10
11.2061010279
 20
8.4793580769
 30
0.0
 10
11.2209854775
 20
8.4767967477
 30
0.0
 10
11.2357217215
 20
8.4754974143
 30
0.0
 10
11.2454768922
 20
8.4754812505
 30
0.0
 10
11.2502797404
 20
8.4756915809
 30
0.0
  0
SPLINE
  5
2E3
100
AcDbEntity
  8
0
100
AcDbSpline
 62
7
  6
CONTINUOUS
 70
0
 71
3
 72
35
 73
31
 74
0
 42
0.0000001
 43
0.0000001
 44
0.0000000001
 40
0.0
 40
0.0
 40
0.0
 40
0.0
 40
0.0620607395
 40
0.123971701
 40
0.1548840217
 40
0.1857695555
 40
0.216632723
 40
0.2474776871
 40
0.3091224335
 40
0.3707567422
 40
0.4015917096
 40
0.4324437006
 40
0.4633200329
 40
0.4942288445
 40
0.5251781513
 40
0.5561769706
 40
0.5872342704
 40
0.6183592539
 40
0.6495615927
 40
0.6808504787
 40
0.7122349345
 40
0.743723668
 40
0.7753243535
 40
0.8070435032
 40
0.8388862854
 40
0.8708561735
 40
0.9029546564
 40
0.935180063
 40
0.9675314202
 40
1.0
 40
1.0
 40
1.0
 40
1.0
 10
9.5330573193
 20
8.864420911
 30
0.0
 10
9.5362304475
 20
8.8711659943
 30
0.0
 10
9.5430008065
 20
8.8844415279
 30
0.0
 10
9.5525279065
 20
8.9004369771
 30
0.0
 10
9.5607710341
 20
8.9128026322
 30
0.0
 10
9.5672610495
 20
8.9218469207
 30
0.0
 10
9.574059751
 20
8.9306514761
 30
0.0
 10
9.5835311134
 20
8.9420482849
 30
0.0
 10
9.5961388189
 20
8.9556281888
 30
0.0
 10
9.6097511276
 20
8.9682026949
 30
0.0
 10
9.6212217671
 20
8.9775798915
 30
0.0
 10
9.6301159937
 20
8.984256361
 30
0.0
 10
9.6392933806
 20
8.9905536754
 30
0.0
 10
9.6487472724
 20
8.9964503006
 30
0.0
 10
9.6584694568
 20
9.0019236855
 30
0.0
 10
9.6684501181
 20
9.0069504755
 30
0.0
 10
9.6786775958
 20
9.011506599
 30
0.0
 10
9.6891380677
 20
9.0155675893
 30
0.0
 10
9.6998153824
 20
9.0191086146
 30
0.0
 10
9.7106907406
 20
9.0221050237
 30
0.0
 10
9.7217425003
 20
9.024532704
 30
0.0
 10
9.732946067
 20
9.0263684144
 30
0.0
 10
9.7442737368
 20
9.0275905151
 30
0.0
 10
9.7556947059
 20
9.0281795963
 30
0.0
 10
9.7671752382
 20
9.0281190153
 30
0.0
 10
9.7786789385
 20
9.0273955354
 30
0.0
 10
9.7901669719
 20
9.026000056
 30
0.0
 10
9.8015992424
 20
9.0239282436
 30
0.0
 10
9.8129335346
 20
9.0211806502
 30
0.0
 10
9.820384898
 20
9.0189060072
 30
0.0
 10
9.8240801891
 20
9.0176595876
 30
0.0
  0
SPLINE
  5
2E4
100
AcDbEntity
  8
0
100
AcDbSpline
 62
7
  6
CONTINUOUS
 70
0
 71
3
 72
25
 73
21
 74
0
 42
0.0000001
 43
0.0000001
 44
0.0000000001
 40
0.0
 40
0.0
 40
0.0
 40
0.0
 40
0.0631656165
 40
0.0946928099
 40
0.1261812673
 40
0.1890370736
 40
0.2517499973
 40
0.2830608512
 40
0.3143407653
 40
0.3768062455
 40
0.4391729423
 40
0.5014612591
 40
0.5636941033
 40
0.6258965589
 40
0.6880954027
 40
0.7503183777
 40
0.812593636
 40
0.8749486325
 40
0.9374094957
 40
1.0
 40
1.0
 40
1.0
 40
1.0
 10
11.5047126956
 20
8.398622866
 30
0.0
 10
11.5097272895
 20
8.4009644514
 30
0.0
 10
11.5171385171
 20
8.4047097973
 30
0.0
 10
11.5267589674
 20
8.410159833
 30
0.0
 10
11.536177635
 20
8.415900291
 30
0.0
 10
11.5475769538
 20
8.4236267214
 30
0.0
 10
11.5584325995
 20
8.4320755979
 30
0.0
 10
11.5667484333
 20
8.4392463122
 30
0.0
 10
11.5748013347
 20
8.4466790776
 30
0.0
 10
11.5843733068
 20
8.4564661295
 30
0.0
 10
11.5950037173
 20
8.4689648387
 30
0.0
 10
11.6047128765
 20
8.4821676326
 30
0.0
 10
11.6134411665
 20
8.4960218
 30
0.0
 10
11.6211328493
 20
8.5104688145
 30
0.0
 10
11.6277365284
 20
8.5254438771
 30
0.0
 10
11.6332063793
 20
8.5408763401
 30
0.0
 10
11.6375031539
 20
8.556689982
 30
0.0
 10
11.6405952017
 20
8.5728042457
 30
0.0
 10
11.6424592389
 20
8.5891331485
 30
0.0
 10
11.642873446
 20
8.6000943175
 30
0.0
 10
11.6428734018
 20
8.6055782912
 30
0.0
  0
SPLINE
  5
2E5
100
AcDbEntity
  8
0
100
AcDbSpline
 62
7
  6
CONTINUOUS
 70
0
 71
3
 72
38
 73
34
 74
0
 42
0.0000001
 43
0.0000001
 44
0.0000000001
 40
0.0
 40
0.0
 40
0.0
 40
0.0
 40
0.0606756936
 40
0.0911554291
 40
0.1217257875
 40
0.1831253012
 40
0.2139681019
 40
0.2449007071
 40
0.3070167209
 40
0.369473161
 40
0.4008302124
 40
0.4322638189
 40
0.495326248
 40
0.5269606857
 40
0.5586490062
 40
0.5903826432
 40
0.6221513878
 40
0.6539432195
 40
0.6857441899
 40
0.7175382641
 40
0.7493072582
 40
0.7810309321
 40
0.8126873025
 40
0.8284856107
 40
0.8442585474
 40
0.8600030681
 40
0.8757164474
 40
0.8913957818
 40
0.9070385942
 40
0.9226424641
 40
0.9382052768
 40
0.9691932967
 40
1.0
 40
1.0
 40
1.0
 40
1.0
 10
10.462499997
 20
9.5998481579
 30
0.0
 10
10.4732105702
 20
9.6019381605
 30
0.0
 10
10.48945983
 20
9.6043284492
 30
0.0
 10
10.5112882853
 20
9.6060643293
 30
0.0
 10
10.533302992
 20
9.6068481022
 30
0.0
 10
10.5554134216
 20
9.6062015924
 30
0.0
 10
10.5774765662
 20
9.604150527
 30
0.0
 10
10.5995619689
 20
9.6011526518
 30
0.0
 10
10.6270164411
 20
9.5956370515
 30
0.0
 10
10.6539774544
 20
9.5877860587
 30
0.0
 10
10.6751547515
 20
9.5800897204
 30
0.0
 10
10.6960702925
 20
9.5714219636
 30
0.0
 10
10.7164247013
 20
9.5613196767
 30
0.0
 10
10.7360210275
 20
9.5497882677
 30
0.0
 10
10.7503192698
 20
9.5404027566
 30
0.0
 10
10.7641433868
 20
9.5302909103
 30
0.0
 10
10.7774323244
 20
9.519454712
 30
0.0
 10
10.7901188364
 20
9.5079000701
 30
0.0
 10
10.8021302002
 20
9.4956375635
 30
0.0
 10
10.8133880094
 20
9.4826840781
 30
0.0
 10
10.8238087703
 20
9.4690641923
 30
0.0
 10
10.8333044219
 20
9.4548128845
 30
0.0
 10
10.8403769916
 20
9.4424382649
 30
0.0
 10
10.8454810751
 20
9.4322741982
 30
0.0
 10
10.8490191459
 20
9.4245325499
 30
0.0
 10
10.8522586839
 20
9.4166778453
 30
0.0
 10
10.8551890846
 20
9.4087204751
 30
0.0
 10
10.8578008064
 20
9.4006720346
 30
0.0
 10
10.8600844339
 20
9.3925448358
 30
0.0
 10
10.8620319585
 20
9.3843519417
 30
0.0
 10
10.8641672794
 20
9.3733764493
 30
0.0
 10
10.8659661444
 20
9.3595630485
 30
0.0
 10
10.8664523593
 20
9.3484437394
 30
0.0
 10
10.8664523593
 20
9.3429031231
 30
0.0
  0
SPLINE
  5
2E6
100
AcDbEntity
  8
0
100
AcDbSpline
 62
7
  6
CONTINUOUS
 70
0
 71
3
 72
39
 73
35
 74
0
 42
0.0000001
 43
0.0000001
 44
0.0000000001
 40
0.0
 40
0.0
 40
0.0
 40
0.0
 40
0.0309601337
 40
0.0620675406
 40
0.0933139108
 40
0.1246954588
 40
0.156202204
 40
0.1878231174
 40
0.219544987
 40
0.2513528152
 40
0.283230175
 40
0.315159424
 40
0.3471220373
 40
0.3790989343
 40
0.4110707986
 40
0.4430183944
 40
0.4749228861
 40
0.5067661731
 40
0.5385312061
 40
0.5702022763
 40
0.6017652874
 40
0.6332080245
 40
0.6645204019
 40
0.6956946615
 40
0.7267255325
 40
0.7576103567
 40
0.7883491916
 40
0.8189448496
 40
0.8494028734
 40
0.8797314603
 40
0.9099413395
 40
0.9400456052
 40
0.9700594759
 40
1.0
 40
1.0
 40
1.0
 40
1.0
 10
10.4665311438
 20
8.7103285866
 30
0.0
 10
10.4665311438
 20
8.7074603834
 30
0.0
 10
10.4667283491
 20
8.7017084561
 30
0.0
 10
10.4676091786
 20
8.6931024219
 30
0.0
 10
10.4690718481
 20
8.684536035
 30
0.0
 10
10.4711091535
 20
8.6760500042
 30
0.0
 10
10.4737117419
 20
8.6676836463
 30
0.0
 10
10.4768673399
 20
8.6594761063
 30
0.0
 10
10.4805611604
 20
8.6514656439
 30
0.0
 10
10.4847759276
 20
8.6436896323
 30
0.0
 10
10.4894919445
 20
8.6361843458
 30
0.0
 10
10.49468721
 20
8.6289848146
 30
0.0
 10
10.5003374495
 20
8.6221246177
 30
0.0
 10
10.506416275
 20
8.6156357479
 30
0.0
 10
10.5128953214
 20
8.6095484805
 30
0.0
 10
10.5197443716
 20
8.6038912362
 30
0.0
 10
10.5269314857
 20
8.5986904438
 30
0.0
 10
10.5344231169
 20
8.593970367
 30
0.0
 10
10.542184316
 20
8.5897530493
 30
0.0
 10
10.5501788811
 20
8.586058207
 30
0.0
 10
10.5583695258
 20
8.5829031521
 30
0.0
 10
10.5667180291
 20
8.5803026611
 30
0.0
 10
10.575185422
 20
8.578268904
 30
0.0
 10
10.5837321822
 20
8.5768114367
 30
0.0
 10
10.5923184067
 20
8.5759371441
 30
0.0
 10
10.6009039921
 20
8.5756502161
 30
0.0
 10
10.6094488183
 20
8.5759520462
 30
0.0
 10
10.6179129473
 20
8.576841288
 30
0.0
 10
10.6262567982
 20
8.5783138633
 30
0.0
 10
10.6344413407
 20
8.5803629914
 30
0.0
 10
10.6424282233
 20
8.5829791521
 30
0.0
 10
10.6501801902
 20
8.5861502208
 30
0.0
 10
10.6576604391
 20
8.5898611026
 30
0.0
 10
10.6624488626
 20
8.5926869839
 30
0.0
 10
10.6647846063
 20
8.5941829656
 30
0.0
  0
SPLINE
  5
2E7
100
AcDbEntity
  8
0
100
AcDbSpline
 62
7
  6
CONTINUOUS
 70
0
 71
3
 72
11
 73
7
 74
0
 42
0.0000001
 43
0.0000001
 44
0.0000000001
 40
0.0
 40
0.0
 40
0.0
 40
0.0
 40
0.2522453211
 40
0.5029314185
 40
0.7521418237
 40
1.0
 40
1.0
 40
1.0
 40
1.0
 10
9.2538285728
 20
7.9718190366
 30
0.0
 10
9.2538285728
 20
7.9763370776
 30
0.0
 10
9.2542342219
 20
7.9853506846
 30
0.0
 10
9.2560686471
 20
7.9987155916
 30
0.0
 10
9.2591118767
 20
8.0117776364
 30
0.0
 10
9.26193876
 20
8.0202364304
 30
0.0
 10
9.2635437667
 20
8.0243756057
 30
0.0
  0
SPLINE
  5
2E8
100
AcDbEntity
  8
0
100
AcDbSpline
 62
7
  6
CONTINUOUS
 70
0
 71
3
 72
39
 73
35
 74
0
 42
0.0000001
 43
0.0000001
 44
0.0000000001
 40
0.0
 40
0.0
 40
0.0
 40
0.0
 40
0.0308170292
 40
0.0617665826
 40
0.092841045
 40
0.124038527
 40
0.1553516327
 40
0.1867721542
 40
0.2182904366
 40
0.2498952973
 40
0.2815744001
 40
0.3133143634
 40
0.3451009781
 40
0.3769193958
 40
0.4087543201
 40
0.4405902349
 40
0.472411621
 40
0.50420315
 40
0.535949892
 40
0.5676375421
 40
0.5992526149
 40
0.6307826198
 40
0.6622162487
 40
0.6935435639
 40
0.7247561397
 40
0.7558471839
 40
0.7868116692
 40
0.8176464414
 40
0.8483502731
 40
0.8789238944
 40
0.9093700266
 40
0.9396933716
 40
0.9699005479
 40
1.0
 40
1.0
 40
1.0
 40
1.0
 10
9.2538285728
 20
7.9718190366
 30
0.0
 10
9.2538285728
 20
7.9687267358
 30
0.0
 10
9.254019531
 20
7.9625271971
 30
0.0
 10
9.2548731628
 20
7.9532449032
 30
0.0
 10
9.256291643
 20
7.9439930794
 30
0.0
 10
9.2582692904
 20
7.9348073093
 30
0.0
 10
9.2607988042
 20
7.9257219278
 30
0.0
 10
9.2638705174
 20
7.9167712776
 30
0.0
 10
9.2674727957
 20
7.9079890702
 30
0.0
 10
9.271592066
 20
7.8994084167
 30
0.0
 10
9.2762127902
 20
7.891061673
 30
0.0
 10
9.2813174887
 20
7.8829802746
 30
0.0
 10
9.2868868995
 20
7.8751946717
 30
0.0
 10
9.292900042
 20
7.8677342229
 30
0.0
 10
9.2993342553
 20
7.8606270617
 30
0.0
 10
9.3061652489
 20
7.8538999481
 30
0.0
 10
9.3133672745
 20
7.847578237
 30
0.0
 10
9.3209132111
 20
7.8416857906
 30
0.0
 10
9.328774622
 20
7.8362448401
 30
0.0
 10
9.3369218565
 20
7.8312758766
 30
0.0
 10
9.3453242135
 20
7.8267976486
 30
0.0
 10
9.3539500452
 20
7.8228270991
 30
0.0
 10
9.3627668362
 20
7.8193792265
 30
0.0
 10
9.3717413396
 20
7.8164670292
 30
0.0
 10
9.3808397276
 20
7.814101528
 30
0.0
 10
9.3900277053
 20
7.8122917307
 30
0.0
 10
9.3992706166
 20
7.8110444979
 30
0.0
 10
9.408533595
 20
7.8103645519
 30
0.0
 10
9.4177816937
 20
7.8102545152
 30
0.0
 10
9.4269800178
 20
7.8107149096
 30
0.0
 10
9.4360938062
 20
7.8117440155
 30
0.0
 10
9.4450887722
 20
7.8133380243
 30
0.0
 10
9.4539304769
 20
7.8154907996
 30
0.0
 10
9.4597113091
 20
7.8172966085
 30
0.0
 10
9.4625637141
 20
7.8182895716
 30
0.0
  0
SPLINE
  5
2E9
100
AcDbEntity
  8
0
100
AcDbSpline
 62
7
  6
CONTINUOUS
 70
0
 71
3
 72
15
 73
11
 74
0
 42
0.0000001
 43
0.0000001
 44
0.0000000001
 40
0.0
 40
0.0
 40
0.0
 40
0.0
 40
0.1273482228
 40
0.253860527
 40
0.3795879206
 40
0.5046050801
 40
0.6290174363
 40
0.7529533709
 40
0.8765605784
 40
1.0
 40
1.0
 40
1.0
 40
1.0
 10
9.1961206215
 20
9.6403350536
 30
0.0
 10
9.1961206215
 20
9.6443387709
 30
0.0
 10
9.1965028922
 20
9.6523254601
 30
0.0
 10
9.1982316834
 20
9.6641518889
 30
0.0
 10
9.2010983122
 20
9.6756811662
 30
0.0
 10
9.2050768919
 20
9.6868054668
 30
0.0
 10
9.2101308938
 20
9.6974222099
 30
0.0
 10
9.2162142663
 20
9.707433361
 30
0.0
 10
9.22326981
 20
9.7167451146
 30
0.0
 10
9.2285822759
 20
9.7224332738
 30
0.0
 10
9.2313735733
 20
9.7251294719
 30
0.0
  0
SPLINE
  5
2EA
100
AcDbEntity
  8
0
100
AcDbSpline
 62
7
  6
CONTINUOUS
 70
0
 71
3
 72
45
 73
41
 74
0
 42
0.0000001
 43
0.0000001
 44
0.0000000001
 40
0.0
 40
0.0
 40
0.0
 40
0.0
 40
0.01497214
 40
0.0299473369
 40
0.0449286345
 40
0.0599190336
 40
0.0749214831
 40
0.089938858
 40
0.1049739401
 40
0.1200294101
 40
0.1351078174
 40
0.1502115844
 40
0.1653429709
 40
0.180504084
 40
0.2109173596
 40
0.2414702626
 40
0.272172708
 40
0.3030312068
 40
0.3340487697
 40
0.3652248943
 40
0.3965556293
 40
0.4280337098
 40
0.4596487579
 40
0.4913875395
 40
0.5232342716
 40
0.5551709708
 40
0.5871778361
 40
0.6192336592
 40
0.6513162553
 40
0.6834029069
 40
0.7154708163
 40
0.7474975582
 40
0.7794615275
 40
0.8113423757
 40
0.8431214263
 40
0.8747820819
 40
0.906310132
 40
0.937694264
 40
0.9689257723
 40
1.0
 40
1.0
 40
1.0
 40
1.0
 10
9.5582466041
 20
10.0811417137
 30
0.0
 10
9.5557911005
 20
10.0787698665
 30
0.0
 10
9.5507847432
 20
10.0741227608
 30
0.0
 10
9.5430032751
 20
10.0674553202
 30
0.0
 10
9.5349598285
 20
10.0610994025
 30
0.0
 10
9.526665552
 20
10.0550639969
 30
0.0
 10
9.5181319077
 20
10.0493572451
 30
0.0
 10
9.5093705566
 20
10.0439871531
 30
0.0
 10
9.5003936502
 20
10.0389609451
 30
0.0
 10
9.4912134582
 20
10.0342856953
 30
0.0
 10
9.481842678
 20
10.0299676785
 30
0.0
 10
9.4722941982
 20
10.0260129684
 30
0.0
 10
9.4625810058
 20
10.0224268655
 30
0.0
 10
9.449416483
 20
10.0181395618
 30
0.0
 10
9.4326086938
 20
10.0137267646
 30
0.0
 10
9.4120246734
 20
10.0099802969
 30
0.0
 10
9.3911143691
 20
10.0077962285
 30
0.0
 10
9.369993633
 20
10.0071865879
 30
0.0
 10
9.3487784129
 20
10.0081543757
 30
0.0
 10
9.3275853855
 20
10.0106940273
 30
0.0
 10
9.3065309786
 20
10.0147913303
 30
0.0
 10
9.2857308317
 20
10.0204235464
 30
0.0
 10
9.2652991441
 20
10.0275595346
 30
0.0
 10
9.245348064
 20
10.0361599293
 30
0.0
 10
9.22598708
 20
10.0461773591
 30
0.0
 10
9.2073224287
 20
10.057556708
 30
0.0
 10
9.1894565201
 20
10.0702354178
 30
0.0
 10
9.1724873824
 20
10.084143829
 30
0.0
 10
9.1565081313
 20
10.0992055618
 30
0.0
 10
9.1416064621
 20
10.1153379289
 30
0.0
 10
9.1278641742
 20
10.132452386
 30
0.0
 10
9.1153567276
 20
10.1504550155
 30
0.0
 10
9.1041528317
 20
10.1692470338
 30
0.0
 10
9.0943140736
 20
10.1887253317
 30
0.0
 10
9.0858945739
 20
10.2087830192
 30
0.0
 10
9.0789407128
 20
10.2293100508
 30
0.0
 10
9.073490816
 20
10.2501936578
 30
0.0
 10
9.0695750747
 20
10.2713195629
 30
0.0
 10
9.0672151277
 20
10.2925702477
 30
0.0
 10
9.0666865582
 20
10.3067827273
 30
0.0
 10
9.0666865582
 20
10.3138683092
 30
0.0
  0
SPLINE
  5
2EB
100
AcDbEntity
  8
0
100
AcDbSpline
 62
7
  6
CONTINUOUS
 70
0
 71
3
 72
45
 73
41
 74
0
 42
0.0000001
 43
0.0000001
 44
0.0000000001
 40
0.0
 40
0.0
 40
0.0
 40
0.0
 40
0.01497214
 40
0.0299473369
 40
0.0449286345
 40
0.0599190336
 40
0.0749214831
 40
0.089938858
 40
0.1049739401
 40
0.1200294101
 40
0.1351078174
 40
0.1502115844
 40
0.1653429709
 40
0.180504084
 40
0.2109173596
 40
0.2414702626
 40
0.272172708
 40
0.3030312068
 40
0.3340487697
 40
0.3652248943
 40
0.3965556293
 40
0.4280337098
 40
0.4596487579
 40
0.4913875395
 40
0.5232342716
 40
0.5551709708
 40
0.5871778361
 40
0.6192336592
 40
0.6513162553
 40
0.6834029069
 40
0.7154708163
 40
0.7474975582
 40
0.7794615275
 40
0.8113423757
 40
0.8431214263
 40
0.8747820819
 40
0.906310132
 40
0.937694264
 40
0.9689257723
 40
1.0
 40
1.0
 40
1.0
 40
1.0
 10
9.5582466041
 20
7.0017699169
 30
0.0
 10
9.5557911005
 20
6.9993980697
 30
0.0
 10
9.5507847432
 20
6.994750964
 30
0.0
 10
9.5430032751
 20
6.9880835234
 30
0.0
 10
9.5349598285
 20
6.9817276057
 30
0.0
 10
9.526665552
 20
6.9756922001
 30
0.0
 10
9.5181319077
 20
6.9699854483
 30
0.0
 10
9.5093705566
 20
6.9646153563
 30
0.0
 10
9.5003936502
 20
6.9595891483
 30
0.0
 10
9.4912134582
 20
6.9549138984
 30
0.0
 10
9.481842678
 20
6.9505958817
 30
0.0
 10
9.4722941982
 20
6.9466411716
 30
0.0
 10
9.4625810058
 20
6.9430550687
 30
0.0
 10
9.449416483
 20
6.938767765
 30
0.0
 10
9.4326086938
 20
6.9343549678
 30
0.0
 10
9.4120246734
 20
6.9306085001
 30
0.0
 10
9.3911143691
 20
6.9284244317
 30
0.0
 10
9.369993633
 20
6.9278147911
 30
0.0
 10
9.3487784129
 20
6.9287825789
 30
0.0
 10
9.3275853855
 20
6.9313222305
 30
0.0
 10
9.3065309786
 20
6.9354195334
 30
0.0
 10
9.2857308317
 20
6.9410517496
 30
0.0
 10
9.2652991441
 20
6.9481877378
 30
0.0
 10
9.245348064
 20
6.9567881324
 30
0.0
 10
9.22598708
 20
6.9668055623
 30
0.0
 10
9.2073224287
 20
6.9781849112
 30
0.0
 10
9.1894565201
 20
6.9908636209
 30
0.0
 10
9.1724873824
 20
7.0047720322
 30
0.0
 10
9.1565081313
 20
7.019833765
 30
0.0
 10
9.1416064621
 20
7.035966132
 30
0.0
 10
9.1278641742
 20
7.0530805892
 30
0.0
 10
9.1153567276
 20
7.0710832187
 30
0.0
 10
9.1041528317
 20
7.089875237
 30
0.0
 10
9.0943140736
 20
7.1093535349
 30
0.0
 10
9.0858945739
 20
7.1294112224
 30
0.0
 10
9.0789407128
 20
7.149938254
 30
0.0
 10
9.073490816
 20
7.1708218609
 30
0.0
 10
9.0695750747
 20
7.1919477661
 30
0.0
 10
9.0672151277
 20
7.2131984509
 30
0.0
 10
9.0666865582
 20
7.2274109305
 30
0.0
 10
9.0666865582
 20
7.2344965124
 30
0.0
  0
SPLINE
  5
2EC
100
AcDbEntity
  8
0
100
AcDbSpline
 62
7
  6
CONTINUOUS
 70
0
 71
3
 72
45
 73
41
 74
0
 42
0.0000001
 43
0.0000001
 44
0.0000000001
 40
0.0
 40
0.0
 40
0.0
 40
0.0
 40
0.01497214
 40
0.0299473369
 40
0.0449286345
 40
0.0599190336
 40
0.0749214831
 40
0.089938858
 40
0.1049739401
 40
0.1200294101
 40
0.1351078174
 40
0.1502115844
 40
0.1653429709
 40
0.180504084
 40
0.2109173596
 40
0.2414702626
 40
0.272172708
 40
0.3030312068
 40
0.3340487697
 40
0.3652248943
 40
0.3965556293
 40
0.4280337098
 40
0.4596487579
 40
0.4913875395
 40
0.5232342716
 40
0.5551709708
 40
0.5871778361
 40
0.6192336592
 40
0.6513162553
 40
0.6834029069
 40
0.7154708163
 40
0.7474975582
 40
0.7794615275
 40
0.8113423757
 40
0.8431214263
 40
0.8747820819
 40
0.906310132
 40
0.937694264
 40
0.9689257723
 40
1.0
 40
1.0
 40
1.0
 40
1.0
 10
11.9730613129
 20
6.834301948
 30
0.0
 10
11.9706058093
 20
6.8319301009
 30
0.0
 10
11.965599452
 20
6.8272829952
 30
0.0
 10
11.9578179839
 20
6.8206155546
 30
0.0
 10
11.9497745373
 20
6.8142596368
 30
0.0
 10
11.9414802608
 20
6.8082242312
 30
0.0
 10
11.9329466165
 20
6.8025174794
 30
0.0
 10
11.9241852654
 20
6.7971473875
 30
0.0
 10
11.915208359
 20
6.7921211795
 30
0.0
 10
11.906028167
 20
6.7874459296
 30
0.0
 10
11.8966573868
 20
6.7831279129
 30
0.0
 10
11.8871089071
 20
6.7791732027
 30
0.0
 10
11.8773957146
 20
6.7755870999
 30
0.0
 10
11.8642311918
 20
6.7712997962
 30
0.0
 10
11.8474234026
 20
6.7668869989
 30
0.0
 10
11.8268393822
 20
6.7631405312
 30
0.0
 10
11.8059290779
 20
6.7609564628
 30
0.0
 10
11.7848083418
 20
6.7603468223
 30
0.0
 10
11.7635931217
 20
6.7613146101
 30
0.0
 10
11.7424000943
 20
6.7638542616
 30
0.0
 10
11.7213456874
 20
6.7679515646
 30
0.0
 10
11.7005455405
 20
6.7735837807
 30
0.0
 10
11.6801138529
 20
6.7807197689
 30
0.0
 10
11.6601627728
 20
6.7893201636
 30
0.0
 10
11.6408017888
 20
6.7993375934
 30
0.0
 10
11.6221371375
 20
6.8107169424
 30
0.0
 10
11.6042712289
 20
6.8233956521
 30
0.0
 10
11.5873020912
 20
6.8373040633
 30
0.0
 10
11.5713228401
 20
6.8523657962
 30
0.0
 10
11.5564211709
 20
6.8684981632
 30
0.0
 10
11.542678883
 20
6.8856126203
 30
0.0
 10
11.5301714364
 20
6.9036152498
 30
0.0
 10
11.5189675405
 20
6.9224072681
 30
0.0
 10
11.5091287824
 20
6.941885566
 30
0.0
 10
11.5007092827
 20
6.9619432535
 30
0.0
 10
11.4937554217
 20
6.9824702851
 30
0.0
 10
11.4883055248
 20
7.0033538921
 30
0.0
 10
11.4843897835
 20
7.0244797972
 30
0.0
 10
11.4820298365
 20
7.0457304821
 30
0.0
 10
11.481501267
 20
7.0599429616
 30
0.0
 10
11.481501267
 20
7.0670285436
 30
0.0
  0
SPLINE
  5
2ED
100
AcDbEntity
  8
0
100
AcDbSpline
 62
7
  6
CONTINUOUS
 70
0
 71
3
 72
15
 73
11
 74
0
 42
0.0000001
 43
0.0000001
 44
0.0000000001
 40
0.0
 40
0.0
 40
0.0
 40
0.0
 40
0.1273482228
 40
0.253860527
 40
0.3795879206
 40
0.5046050801
 40
0.6290174363
 40
0.7529533709
 40
0.8765605784
 40
1.0
 40
1.0
 40
1.0
 40
1.0
 10
10.4344376092
 20
8.6793286108
 30
0.0
 10
10.4344376092
 20
8.6833323281
 30
0.0
 10
10.43481988
 20
8.6913190173
 30
0.0
 10
10.4365486711
 20
8.7031454461
 30
0.0
 10
10.4394152999
 20
8.7146747234
 30
0.0
 10
10.4433938797
 20
8.7257990241
 30
0.0
 10
10.4484478816
 20
8.7364157672
 30
0.0
 10
10.4545312541
 20
8.7464269182
 30
0.0
 10
10.4615867978
 20
8.7557386718
 30
0.0
 10
10.4668992637
 20
8.761426831
 30
0.0
 10
10.4696905611
 20
8.7641230292
 30
0.0
  0
SPLINE
  5
2EE
100
AcDbEntity
  8
0
100
AcDbSpline
 62
7
  6
CONTINUOUS
 70
0
 71
3
 72
45
 73
41
 74
0
 42
0.0000001
 43
0.0000001
 44
0.0000000001
 40
0.0
 40
0.0
 40
0.0
 40
0.0
 40
0.01497214
 40
0.0299473369
 40
0.0449286345
 40
0.0599190336
 40
0.0749214831
 40
0.089938858
 40
0.1049739401
 40
0.1200294101
 40
0.1351078174
 40
0.1502115844
 40
0.1653429709
 40
0.180504084
 40
0.2109173596
 40
0.2414702626
 40
0.272172708
 40
0.3030312068
 40
0.3340487697
 40
0.3652248943
 40
0.3965556293
 40
0.4280337098
 40
0.4596487579
 40
0.4913875395
 40
0.5232342716
 40
0.5551709708
 40
0.5871778361
 40
0.6192336592
 40
0.6513162553
 40
0.6834029069
 40
0.7154708163
 40
0.7474975582
 40
0.7794615275
 40
0.8113423757
 40
0.8431214263
 40
0.8747820819
 40
0.906310132
 40
0.937694264
 40
0.9689257723
 40
1.0
 40
1.0
 40
1.0
 40
1.0
 10
11.9730613129
 20
9.9136737448
 30
0.0
 10
11.9706058093
 20
9.9113018977
 30
0.0
 10
11.965599452
 20
9.906654792
 30
0.0
 10
11.9578179839
 20
9.8999873514
 30
0.0
 10
11.9497745373
 20
9.8936314336
 30
0.0
 10
11.9414802608
 20
9.8875960281
 30
0.0
 10
11.9329466165
 20
9.8818892762
 30
0.0
 10
11.9241852654
 20
9.8765191843
 30
0.0
 10
11.915208359
 20
9.8714929763
 30
0.0
 10
11.906028167
 20
9.8668177264
 30
0.0
 10
11.8966573868
 20
9.8624997097
 30
0.0
 10
11.8871089071
 20
9.8585449995
 30
0.0
 10
11.8773957146
 20
9.8549588967
 30
0.0
 10
11.8642311918
 20
9.850671593
 30
0.0
 10
11.8474234026
 20
9.8462587957
 30
0.0
 10
11.8268393822
 20
9.842512328
 30
0.0
 10
11.8059290779
 20
9.8403282596
 30
0.0
 10
11.7848083418
 20
9.8397186191
 30
0.0
 10
11.7635931217
 20
9.8406864069
 30
0.0
 10
11.7424000943
 20
9.8432260584
 30
0.0
 10
11.7213456874
 20
9.8473233614
 30
0.0
 10
11.7005455405
 20
9.8529555775
 30
0.0
 10
11.6801138529
 20
9.8600915657
 30
0.0
 10
11.6601627728
 20
9.8686919604
 30
0.0
 10
11.6408017888
 20
9.8787093902
 30
0.0
 10
11.6221371375
 20
9.8900887392
 30
0.0
 10
11.6042712289
 20
9.9027674489
 30
0.0
 10
11.5873020912
 20
9.9166758602
 30
0.0
 10
11.5713228401
 20
9.931737593
 30
0.0
 10
11.5564211709
 20
9.94786996
 30
0.0
 10
11.542678883
 20
9.9649844172
 30
0.0
 10
11.5301714364
 20
9.9829870466
 30
0.0
 10
11.5189675405
 20
10.001779065
 30
0.0
 10
11.5091287824
 20
10.0212573628
 30
0.0
 10
11.5007092827
 20
10.0413150503
 30
0.0
 10
11.4937554217
 20
10.061842082
 30
0.0
 10
11.4883055248
 20
10.0827256889
 30
0.0
 10
11.4843897835
 20
10.1038515941
 30
0.0
 10
11.4820298365
 20
10.1251022789
 30
0.0
 10
11.481501267
 20
10.1393147585
 30
0.0
 10
11.481501267
 20
10.1464003404
 30
0.0
  0
SPLINE
  5
2EF
100
AcDbEntity
  8
0
100
AcDbSpline
 62
7
  6
CONTINUOUS
 70
0
 71
3
 72
100
 73
96
 74
0
 42
0.0000001
 43
0.0000001
 44
0.0000000001
 40
0.0
 40
0.0
 40
0.0
 40
0.0
 40
0.0041938785
 40
0.0085761843
 40
0.0131519874
 40
0.0179255394
 40
0.0229003513
 40
0.0280790639
 40
0.0334634184
 40
0.0390545546
 40
0.0448529781
 40
0.0508587236
 40
0.057071326
 40
0.0634898712
 40
0.0701131023
 40
0.0769393427
 40
0.0839666595
 40
0.0911927627
 40
0.098615115
 40
0.1062309233
 40
0.1220301271
 40
0.1385638013
 40
0.1558017888
 40
0.1737110967
 40
0.1922561869
 40
0.2113992272
 40
0.2311003235
 40
0.2513177244
 40
0.2720080089
 40
0.2931262631
 40
0.3146262474
 40
0.336460556
 40
0.3585807789
 40
0.3809376585
 40
0.4034812411
 40
0.426161027
 40
0.4489261191
 40
0.4717253719
 40
0.4945075411
 40
0.5172214332
 40
0.5398160529
 40
0.562240751
 40
0.5844453734
 40
0.6063804112
 40
0.6279971564
 40
0.649247855
 40
0.6700858619
 40
0.6904658012
 40
0.7103437319
 40
0.7296773219
 40
0.7484260375
 40
0.7665513419
 40
0.7840169086
 40
0.8007888639
 40
0.8168360655
 40
0.8245791525
 40
0.8321308116
 40
0.8394880436
 40
0.8466481623
 40
0.8536086919
 40
0.8603674691
 40
0.8669226439
 40
0.8732726637
 40
0.8794164042
 40
0.8853530718
 40
0.8910823807
 40
0.8966044965
 40
0.9019201421
 40
0.9070306816
 40
0.9119381189
 40
0.916645311
 40
0.9211559384
 40
0.9254747427
 40
0.9296075959
 40
0.9335616672
 40
0.9373456416
 40
0.9409698081
 40
0.9444463448
 40
0.9477893742
 40
0.9510151392
 40
0.9541420032
 40
0.957190353
 40
0.9601823975
 40
0.9631417324
 40
0.9660928285
 40
0.9690603747
 40
0.9720686222
 40
0.975140761
 40
0.9782984367
 40
0.9815613428
 40
0.9849471304
 40
0.9884713848
 40
0.9921476866
 40
0.99598746
 40
1.0
 40
1.0
 40
1.0
 40
1.0
 10
10.4590815052
 20
11.3064660258
 30
0.0
 10
10.460293658
 20
11.3076368756
 30
0.0
 10
10.462832703
 20
11.3099693973
 30
0.0
 10
10.4668821987
 20
11.3133678491
 30
0.0
 10
10.4712522842
 20
11.3167393112
 30
0.0
 10
10.4759401158
 20
11.3200816509
 30
0.0
 10
10.4809429718
 20
11.3233930329
 30
0.0
 10
10.4862579534
 20
11.3266715307
 30
0.0
 10
10.4918818992
 20
11.3299152977
 30
0.0
 10
10.4978114971
 20
11.3331223179
 30
0.0
 10
10.5040431882
 20
11.3362907562
 30
0.0
 10
10.5105732811
 20
11.3394186876
 30
0.0
 10
10.51739788
 20
11.3425042517
 30
0.0
 10
10.5245129025
 20
11.3455456278
 30
0.0
 10
10.5319141066
 20
11.3485409319
 30
0.0
 10
10.5395970439
 20
11.3514884333
 30
0.0
 10
10.5475571255
 20
11.3543862938
 30
0.0
 10
10.5557895646
 20
11.3572328103
 30
0.0
 10
10.5642894349
 20
11.3600262683
 30
0.0
 10
10.5761173835
 20
11.3637231135
 30
0.0
 10
10.5915389098
 20
11.3681894677
 30
0.0
 10
10.6108076188
 20
11.3732480811
 30
0.0
 10
10.631012736
 20
11.3780568573
 30
0.0
 10
10.6521056875
 20
11.3826041318
 30
0.0
 10
10.6740358835
 20
11.3868788636
 30
0.0
 10
10.6967506286
 20
11.3908706831
 30
0.0
 10
10.7201953234
 20
11.3945699068
 30
0.0
 10
10.7443135868
 20
11.3979675634
 30
0.0
 10
10.7690474011
 20
11.4010554142
 30
0.0
 10
10.7943372528
 20
11.4038259733
 30
0.0
 10
10.8201222773
 20
11.4062725235
 30
0.0
 10
10.8463404066
 20
11.4083891393
 30
0.0
 10
10.8729285224
 20
11.4101706957
 30
0.0
 10
10.8998226114
 20
11.4116128788
 30
0.0
 10
10.9269579205
 20
11.4127121962
 30
0.0
 10
10.9542691128
 20
11.4134659851
 30
0.0
 10
10.9816904251
 20
11.4138724179
 30
0.0
 10
11.0091558269
 20
11.41393051
 30
0.0
 10
11.0365991809
 20
11.4136401237
 30
0.0
 10
11.0639544042
 20
11.4130019631
 30
0.0
 10
11.0911556278
 20
11.4120175736
 30
0.0
 10
11.1181373543
 20
11.410689338
 30
0.0
 10
11.1448346168
 20
11.4090204708
 30
0.0
 10
11.1711831367
 20
11.407015011
 30
0.0
 10
11.1971194818
 20
11.4046778188
 30
0.0
 10
11.22258122
 20
11.4020145579
 30
0.0
 10
11.2475070703
 20
11.3990316825
 30
0.0
 10
11.2718370506
 20
11.3957364219
 30
0.0
 10
11.2955126251
 20
11.3921367643
 30
0.0
 10
11.318476848
 20
11.388241436
 30
0.0
 10
11.3406745135
 20
11.3840598875
 30
0.0
 10
11.3620522777
 20
11.3796022668
 30
0.0
 10
11.3825588522
 20
11.3748793976
 30
0.0
 10
11.4021449227
 20
11.3699027271
 30
0.0
 10
11.4178418111
 20
11.3655033909
 30
0.0
 10
11.4298977751
 20
11.3618582829
 30
0.0
 10
11.4385731087
 20
11.3591011654
 30
0.0
 10
11.446984392
 20
11.3562898324
 30
0.0
 10
11.4551265933
 20
11.3534260162
 30
0.0
 10
11.4629948194
 20
11.3505114101
 30
0.0
 10
11.4705843532
 20
11.3475477755
 30
0.0
 10
11.4778906545
 20
11.3445369211
 30
0.0
 10
11.4849093355
 20
11.3414806015
 30
0.0
 10
11.4916362201
 20
11.3383807221
 30
0.0
 10
11.4980672712
 20
11.3352390665
 30
0.0
 10
11.5041986725
 20
11.3320575658
 30
0.0
 10
11.5100267701
 20
11.3288380895
 30
0.0
 10
11.5155480953
 20
11.3255825295
 30
0.0
 10
11.5207594018
 20
11.3222928545
 30
0.0
 10
11.5256575697
 20
11.3189709086
 30
0.0
 10
11.5302397546
 20
11.315618701
 30
0.0
 10
11.5345032143
 20
11.3122380751
 30
0.0
 10
11.5384454555
 20
11.3088309797
 30
0.0
 10
11.5420641431
 20
11.3053993004
 30
0.0
 10
11.545357065
 20
11.3019448625
 30
0.0
 10
11.5483222681
 20
11.2984695802
 30
0.0
 10
11.5509577668
 20
11.2949751898
 30
0.0
 10
11.5532618655
 20
11.291463594
 30
0.0
 10
11.5552327955
 20
11.2879365874
 30
0.0
 10
11.5568689483
 20
11.2843961187
 30
0.0
 10
11.5581688242
 20
11.2808442628
 30
0.0
 10
11.5591309163
 20
11.2772832523
 30
0.0
 10
11.5597541819
 20
11.2737156294
 30
0.0
 10
11.5600376158
 20
11.2701441035
 30
0.0
 10
11.5599809334
 20
11.266571599
 30
0.0
 10
11.5595841533
 20
11.2630010572
 30
0.0
 10
11.5588478363
 20
11.2594353482
 30
0.0
 10
11.557773023
 20
11.25587711
 30
0.0
 10
11.5563608637
 20
11.252328819
 30
0.0
 10
11.5546129802
 20
11.2487926182
 30
0.0
 10
11.5525308285
 20
11.2452705622
 30
0.0
 10
11.5501160807
 20
11.2417644718
 30
0.0
 10
11.5473703741
 20
11.2382761651
 30
0.0
 10
11.5442957532
 20
11.2348076941
 30
0.0
 10
11.5420782355
 20
11.2325605993
 30
0.0
 10
11.5409184948
 20
11.2314403757
 30
0.0
  0
SPLINE
  5
2F0
100
AcDbEntity
  8
0
100
AcDbSpline
 62
7
  6
CONTINUOUS
 70
0
 71
3
 72
20
 73
16
 74
0
 42
0.0000001
 43
0.0000001
 44
0.0000000001
 40
0.0
 40
0.0
 40
0.0
 40
0.0
 40
0.1273231981
 40
0.190687891
 40
0.2538483842
 40
0.3168131973
 40
0.379589552
 40
0.4421880926
 40
0.5046213835
 40
0.6290091706
 40
0.7529206482
 40
0.8147636197
 40
0.8765441101
 40
0.938282613
 40
1.0
 40
1.0
 40
1.0
 40
1.0
 10
9.1710065485
 20
7.8918190997
 30
0.0
 10
9.1710065485
 20
7.8966235988
 30
0.0
 10
9.1713514205
 20
7.9038257299
 30
0.0
 10
9.1725074625
 20
7.9133372102
 30
0.0
 10
9.1737169978
 20
7.9203876686
 30
0.0
 10
9.1752674221
 20
7.9273480727
 30
0.0
 10
9.1771553558
 20
7.9342026801
 30
0.0
 10
9.1793764045
 20
7.940935775
 30
0.0
 10
9.1827702235
 20
7.9497178731
 30
0.0
 10
9.1878189894
 20
7.9603242428
 30
0.0
 10
9.1939079967
 20
7.970344021
 30
0.0
 10
9.1993591307
 20
7.9779332658
 30
0.0
 10
9.2037275226
 20
7.9834001311
 30
0.0
 10
9.2083675552
 20
7.9886316085
 30
0.0
 10
9.2116356222
 20
7.9919549691
 30
0.0
 10
9.213310685
 20
7.993572953
 30
0.0
  0
SPLINE
  5
2F1
100
AcDbEntity
  8
0
100
AcDbSpline
 62
7
  6
CONTINUOUS
 70
0
 71
3
 72
23
 73
19
 74
0
 42
0.0000001
 43
0.0000001
 44
0.0000000001
 40
0.0
 40
0.0
 40
0.0
 40
0.0
 40
0.0637762098
 40
0.1273451791
 40
0.1907020044
 40
0.2538560229
 40
0.3168132268
 40
0.3795820734
 40
0.4421733797
 40
0.5045993379
 40
0.5668738619
 40
0.6290123843
 40
0.6910316585
 40
0.7529496507
 40
0.8147853611
 40
0.8765586136
 40
0.9382898615
 40
1.0
 40
1.0
 40
1.0
 40
1.0
 10
9.0666865582
 20
10.3138683092
 30
0.0
 10
9.0666865582
 20
10.3184351276
 30
0.0
 10
9.0669051743
 20
10.3275554708
 30
0.0
 10
9.0678917312
 20
10.3411804796
 30
0.0
 10
9.0695344237
 20
10.3546975339
 30
0.0
 10
9.0718293021
 20
10.3680747801
 30
0.0
 10
9.0747711985
 20
10.3812817225
 30
0.0
 10
9.0783533218
 20
10.3942878308
 30
0.0
 10
9.0825674496
 20
10.4070631199
 30
0.0
 10
9.0874039414
 20
10.4195781239
 30
0.0
 10
9.0928516105
 20
10.4318039976
 30
0.0
 10
9.0988979257
 20
10.4437125447
 30
0.0
 10
9.1055290185
 20
10.4552762632
 30
0.0
 10
9.1127295745
 20
10.4664685046
 30
0.0
 10
9.1204829618
 20
10.4772634391
 30
0.0
 10
9.1287714392
 20
10.4876362188
 30
0.0
 10
9.1375755693
 20
10.497562581
 30
0.0
 10
9.1437763487
 20
10.503868484
 30
0.0
 10
9.1469546353
 20
10.5069384898
 30
0.0
  0
SPLINE
  5
2F2
100
AcDbEntity
  8
0
100
AcDbSpline
 62
7
  6
CONTINUOUS
 70
0
 71
3
 72
23
 73
19
 74
0
 42
0.0000001
 43
0.0000001
 44
0.0000000001
 40
0.0
 40
0.0
 40
0.0
 40
0.0
 40
0.0637762098
 40
0.1273451791
 40
0.1907020044
 40
0.2538560229
 40
0.3168132268
 40
0.3795820734
 40
0.4421733797
 40
0.5045993379
 40
0.5668738619
 40
0.6290123843
 40
0.6910316585
 40
0.7529496507
 40
0.8147853611
 40
0.8765586136
 40
0.9382898615
 40
1.0
 40
1.0
 40
1.0
 40
1.0
 10
9.0666865582
 20
7.2344965124
 30
0.0
 10
9.0666865582
 20
7.2390633307
 30
0.0
 10
9.0669051743
 20
7.248183674
 30
0.0
 10
9.0678917312
 20
7.2618086827
 30
0.0
 10
9.0695344237
 20
7.2753257371
 30
0.0
 10
9.0718293021
 20
7.2887029833
 30
0.0
 10
9.0747711985
 20
7.3019099257
 30
0.0
 10
9.0783533218
 20
7.314916034
 30
0.0
 10
9.0825674496
 20
7.3276913231
 30
0.0
 10
9.0874039414
 20
7.3402063271
 30
0.0
 10
9.0928516105
 20
7.3524322008
 30
0.0
 10
9.0988979257
 20
7.3643407479
 30
0.0
 10
9.1055290185
 20
7.3759044664
 30
0.0
 10
9.1127295745
 20
7.3870967078
 30
0.0
 10
9.1204829618
 20
7.3978916423
 30
0.0
 10
9.1287714392
 20
7.4082644219
 30
0.0
 10
9.1375755693
 20
7.4181907842
 30
0.0
 10
9.1437763487
 20
7.4244966872
 30
0.0
 10
9.1469546353
 20
7.4275666929
 30
0.0
  0
SPLINE
  5
2F3
100
AcDbEntity
  8
0
100
AcDbSpline
 62
7
  6
CONTINUOUS
 70
0
 71
3
 72
29
 73
25
 74
0
 42
0.0000001
 43
0.0000001
 44
0.0000000001
 40
0.0
 40
0.0
 40
0.0
 40
0.0
 40
0.0749500761
 40
0.1455448513
 40
0.2121254581
 40
0.2751185337
 40
0.3350439185
 40
0.3640574848
 40
0.3925440484
 40
0.4205953863
 40
0.4483080082
 40
0.4757823023
 40
0.5031216207
 40
0.5304309901
 40
0.5578157832
 40
0.5853804819
 40
0.6132273087
 40
0.6414551098
 40
0.670158499
 40
0.7293213937
 40
0.7913854514
 40
0.8568999109
 40
0.9263197321
 40
1.0
 40
1.0
 40
1.0
 40
1.0
 10
10.4604770106
 20
11.2301174904
 30
0.0
 10
10.458859962
 20
11.2316223326
 30
0.0
 10
10.4558095236
 20
11.2346435875
 30
0.0
 10
10.4516934569
 20
11.2393570268
 30
0.0
 10
10.4481836054
 20
11.2441080126
 30
0.0
 10
10.4452851474
 20
11.2488917162
 30
0.0
 10
10.4433627382
 20
11.2529463187
 30
0.0
 10
10.4421496714
 20
11.2561892855
 30
0.0
 10
10.4414046066
 20
11.2585996572
 30
0.0
 10
10.4408149412
 20
11.2610132403
 30
0.0
 10
10.440380865
 20
11.2634293666
 30
0.0
 10
10.4401026232
 20
11.2658472742
 30
0.0
 10
10.4399803452
 20
11.2682661902
 30
0.0
 10
10.4400140381
 20
11.2706853273
 30
0.0
 10
10.4402036979
 20
11.2731039028
 30
0.0
 10
10.4405492931
 20
11.2755211342
 30
0.0
 10
10.4410506093
 20
11.2779362435
 30
0.0
 10
10.4417074586
 20
11.2803485616
 30
0.0
 10
10.4428010724
 20
11.2835924042
 30
0.0
 10
10.4445741609
 20
11.2876505876
 30
0.0
 10
10.4472980682
 20
11.2924429818
 30
0.0
 10
10.4506348782
 20
11.2972038634
 30
0.0
 10
10.4545792781
 20
11.3019282392
 30
0.0
 10
10.4575196355
 20
11.3049573754
 30
0.0
 10
10.4590815052
 20
11.3064660258
 30
0.0
  0
SPLINE
  5
2F4
100
AcDbEntity
  8
0
100
AcDbSpline
 62
7
  6
CONTINUOUS
 70
0
 71
3
 72
36
 73
32
 74
0
 42
0.0000001
 43
0.0000001
 44
0.0000000001
 40
0.0
 40
0.0
 40
0.0
 40
0.0
 40
0.0165870319
 40
0.0341536037
 40
0.0527301007
 40
0.072338386
 40
0.0929930241
 40
0.1147023299
 40
0.1374694678
 40
0.1612928615
 40
0.1861671379
 40
0.2120833067
 40
0.2390293414
 40
0.2669904814
 40
0.2959493699
 40
0.325886546
 40
0.3567803152
 40
0.3886072279
 40
0.4213420049
 40
0.4549577548
 40
0.4894261455
 40
0.5247173272
 40
0.5608002814
 40
0.5976426376
 40
0.63521098
 40
0.6734708005
 40
0.7123865441
 40
0.7519218084
 40
0.8327001143
 40
0.9154985303
 40
1.0
 40
1.0
 40
1.0
 40
1.0
 10
9.1956102767
 20
5.4919138682
 30
0.0
 10
9.1978465885
 20
5.4898327452
 30
0.0
 10
9.2025898818
 20
5.4856948661
 30
0.0
 10
9.2102548761
 20
5.4797250222
 30
0.0
 10
9.2186618607
 20
5.4738233439
 30
0.0
 10
9.2278019465
 20
5.4679959614
 30
0.0
 10
9.2376659565
 20
5.4622485723
 30
0.0
 10
9.2482437574
 20
5.456586971
 30
0.0
 10
9.259524525
 20
5.4510170348
 30
0.0
 10
9.2714965874
 20
5.4455444374
 30
0.0
 10
9.2841475707
 20
5.440174951
 30
0.0
 10
9.2974643198
 20
5.434914144
 30
0.0
 10
9.3114329715
 20
5.4297675408
 30
0.0
 10
9.3260389574
 20
5.4247405813
 30
0.0
 10
9.3412670065
 20
5.4198384971
 30
0.0
 10
9.3571011986
 20
5.4150665256
 30
0.0
 10
9.3735249437
 20
5.4104296284
 30
0.0
 10
9.3905210356
 20
5.4059327442
 30
0.0
 10
9.4080716503
 20
5.4015805978
 30
0.0
 10
9.4261583747
 20
5.3973777669
 30
0.0
 10
9.4447622294
 20
5.3933287271
 30
0.0
 10
9.4638636805
 20
5.389437692
 30
0.0
 10
9.4834426715
 20
5.3857088273
 30
0.0
 10
9.5034786361
 20
5.3821460176
 30
0.0
 10
9.5239505294
 20
5.3787530458
 30
0.0
 10
9.5448368355
 20
5.3755334981
 30
0.0
 10
9.566115624
 20
5.3724907225
 30
0.0
 10
9.5951885031
 20
5.3686463459
 30
0.0
 10
9.6323472446
 20
5.3643160695
 30
0.0
 10
9.6778255271
 20
5.3599075593
 30
0.0
 10
9.7085454921
 20
5.3575033825
 30
0.0
 10
9.7240709669
 20
5.3564266871
 30
0.0
  0
SPLINE
  5
2F5
100
AcDbEntity
  8
0
100
AcDbSpline
 62
7
  6
CONTINUOUS
 70
0
 71
3
 72
23
 73
19
 74
0
 42
0.0000001
 43
0.0000001
 44
0.0000000001
 40
0.0
 40
0.0
 40
0.0
 40
0.0
 40
0.0637762098
 40
0.1273451791
 40
0.1907020044
 40
0.2538560229
 40
0.3168132268
 40
0.3795820734
 40
0.4421733797
 40
0.5045993379
 40
0.5668738619
 40
0.6290123843
 40
0.6910316585
 40
0.7529496507
 40
0.8147853611
 40
0.8765586136
 40
0.9382898615
 40
1.0
 40
1.0
 40
1.0
 40
1.0
 10
11.481501267
 20
7.0670285436
 30
0.0
 10
11.481501267
 20
7.0715953619
 30
0.0
 10
11.4817198831
 20
7.0807157052
 30
0.0
 10
11.48270644
 20
7.0943407139
 30
0.0
 10
11.4843491326
 20
7.1078577683
 30
0.0
 10
11.4866440109
 20
7.1212350145
 30
0.0
 10
11.4895859073
 20
7.1344419569
 30
0.0
 10
11.4931680306
 20
7.1474480651
 30
0.0
 10
11.4973821584
 20
7.1602233542
 30
0.0
 10
11.5022186502
 20
7.1727383582
 30
0.0
 10
11.5076663193
 20
7.184964232
 30
0.0
 10
11.5137126346
 20
7.1968727791
 30
0.0
 10
11.5203437273
 20
7.2084364976
 30
0.0
 10
11.5275442833
 20
7.219628739
 30
0.0
 10
11.5352976706
 20
7.2304236735
 30
0.0
 10
11.543586148
 20
7.2407964531
 30
0.0
 10
11.5523902781
 20
7.2507228153
 30
0.0
 10
11.5585910575
 20
7.2570287183
 30
0.0
 10
11.5617693441
 20
7.2600987241
 30
0.0
  0
SPLINE
  5
2F6
100
AcDbEntity
  8
0
100
AcDbSpline
 62
7
  6
CONTINUOUS
 70
0
 71
3
 72
33
 73
29
 74
0
 42
0.0000001
 43
0.0000001
 44
0.0000000001
 40
0.0
 40
0.0
 40
0.0
 40
0.0
 40
0.0315734463
 40
0.0632741501
 40
0.0950815275
 40
0.1269718209
 40
0.158920768
 40
0.1909042295
 40
0.2228994143
 40
0.2548855351
 40
0.2868442484
 40
0.3187598179
 40
0.350619123
 40
0.3824115247
 40
0.4141286145
 40
0.4457639101
 40
0.4773125363
 40
0.5087710779
 40
0.5713939395
 40
0.6336437421
 40
0.6955245603
 40
0.757047854
 40
0.8182306689
 40
0.8790945923
 40
0.9094213436
 40
0.9396784428
 40
0.9698699108
 40
1.0
 40
1.0
 40
1.0
 40
1.0
 10
9.6654528579
 20
8.4366553487
 30
0.0
 10
9.6604546715
 20
8.4383412342
 30
0.0
 10
9.6505666744
 20
8.4421149959
 30
0.0
 10
9.6361950218
 20
8.4489162289
 30
0.0
 10
9.6223346738
 20
8.4568149979
 30
0.0
 10
9.6090642326
 20
8.4657418103
 30
0.0
 10
9.5964484357
 20
8.47561864
 30
0.0
 10
9.5845394162
 20
8.486361943
 30
0.0
 10
9.5733764429
 20
8.4978859354
 30
0.0
 10
9.5629870137
 20
8.5101053383
 30
0.0
 10
9.5533882174
 20
8.5229375021
 30
0.0
 10
9.5445883686
 20
8.5363039149
 30
0.0
 10
9.5365886529
 20
8.5501311384
 30
0.0
 10
9.5293847023
 20
8.5643512664
 30
0.0
 10
9.522967996
 20
8.5789020692
 30
0.0
 10
9.5173270961
 20
8.5937266408
 30
0.0
 10
9.5124484772
 20
8.6087737229
 30
0.0
 10
9.506949715
 20
8.6290361072
 30
0.0
 10
9.5018972638
 20
8.6547016521
 30
0.0
 10
9.4986351375
 20
8.6857700229
 30
0.0
 10
9.4980672492
 20
8.7168189125
 30
0.0
 10
9.500093712
 20
8.7476262263
 30
0.0
 10
9.5046283828
 20
8.7779915104
 30
0.0
 10
9.5104473105
 20
8.8028061779
 30
0.0
 10
9.5162950675
 20
8.8222399858
 30
0.0
 10
9.5212657394
 20
8.8365726652
 30
0.0
 10
9.5268205173
 20
8.850653428
 30
0.0
 10
9.5309145462
 20
8.8598660419
 30
0.0
 10
9.5330573193
 20
8.864420911
 30
0.0
  0
SPLINE
  5
2F7
100
AcDbEntity
  8
0
100
AcDbSpline
 62
7
  6
CONTINUOUS
 70
0
 71
3
 72
26
 73
22
 74
0
 42
0.0000001
 43
0.0000001
 44
0.0000000001
 40
0.0
 40
0.0
 40
0.0
 40
0.0
 40
0.0186952095
 40
0.0388086427
 40
0.0602990992
 40
0.0831258034
 40
0.1325978968
 40
0.1868051996
 40
0.2155372976
 40
0.245269549
 40
0.3074607513
 40
0.3728050749
 40
0.4406953395
 40
0.5105016519
 40
0.5815823418
 40
0.6532945388
 40
0.7250047086
 40
0.796098566
 40
0.8659893921
 40
0.9341254541
 40
1.0
 40
1.0
 40
1.0
 40
1.0
 10
11.3333979045
 20
8.5791262537
 30
0.0
 10
11.3319187305
 20
8.5793302177
 30
0.0
 10
11.3288491956
 20
8.5797610545
 30
0.0
 10
11.3240823335
 20
8.5804475682
 30
0.0
 10
11.3189909181
 20
8.5811952444
 30
0.0
 10
11.3115818948
 20
8.5822995603
 30
0.0
 10
11.3015921288
 20
8.5838142525
 30
0.0
 10
11.2911391079
 20
8.5854197225
 30
0.0
 10
11.2822456349
 20
8.5867937352
 30
0.0
 10
11.2727227161
 20
8.5882699209
 30
0.0
 10
11.260311352
 20
8.590201965
 30
0.0
 10
11.2448904003
 20
8.5926142653
 30
0.0
 10
11.2288707624
 20
8.5951347131
 30
0.0
 10
11.2124016758
 20
8.5977462817
 30
0.0
 10
11.1956356742
 20
8.6004343709
 30
0.0
 10
11.1787260498
 20
8.6031869492
 30
0.0
 10
11.1618244142
 20
8.6059947004
 30
0.0
 10
11.145078456
 20
8.6088510806
 30
0.0
 10
11.1286299447
 20
8.6117522851
 30
0.0
 10
11.1126128391
 20
8.6146972419
 30
0.0
 10
11.102104034
 20
8.6167297158
 30
0.0
 10
11.0969444512
 20
8.6177594892
 30
0.0
  0
SPLINE
  5
2F8
100
AcDbEntity
  8
0
100
AcDbSpline
 62
7
  6
CONTINUOUS
 70
0
 71
3
 72
50
 73
46
 74
0
 42
0.0000001
 43
0.0000001
 44
0.0000000001
 40
0.0
 40
0.0
 40
0.0
 40
0.0
 40
0.0378655773
 40
0.0761053149
 40
0.1146335606
 40
0.1533658019
 40
0.1922157734
 40
0.2310973481
 40
0.2699241497
 40
0.3086100022
 40
0.3470691227
 40
0.3852163828
 40
0.4229675566
 40
0.46023957
 40
0.4969507543
 40
0.5330211029
 40
0.5683725339
 40
0.6029291593
 40
0.6366175699
 40
0.669367128
 40
0.7011102769
 40
0.7317828761
 40
0.7613245714
 40
0.7756538445
 40
0.7896797114
 40
0.8033958677
 40
0.8167963986
 40
0.8298756479
 40
0.8426284319
 40
0.8550498653
 40
0.8671355606
 40
0.8788815447
 40
0.8902843343
 40
0.9013410224
 40
0.9120491992
 40
0.9224071895
 40
0.932413905
 40
0.942069135
 40
0.9513734586
 40
0.960328404
 40
0.9689365533
 40
0.9772017091
 40
0.9851292886
 40
0.9927260555
 40
1.0
 40
1.0
 40
1.0
 40
1.0
 10
11.414441263
 20
5.2391991089
 30
0.0
 10
11.4262905493
 20
5.2383773581
 30
0.0
 10
11.4501176766
 20
5.2368869263
 30
0.0
 10
11.4860334127
 20
5.2351145838
 30
0.0
 10
11.5222407968
 20
5.2337972074
 30
0.0
 10
11.5586533861
 20
5.2329379055
 30
0.0
 10
11.595184762
 20
5.2325387643
 30
0.0
 10
11.631747924
 20
5.2326007204
 30
0.0
 10
11.668255917
 20
5.2331236353
 30
0.0
 10
11.7046218761
 20
5.2341062565
 30
0.0
 10
11.7407592875
 20
5.2355462356
 30
0.0
 10
11.7765821817
 20
5.2374401258
 30
0.0
 10
11.8120053427
 20
5.2397833952
 30
0.0
 10
11.8469445112
 20
5.2425704368
 30
0.0
 10
11.8813165856
 20
5.2457945811
 30
0.0
 10
11.9150398214
 20
5.249448112
 30
0.0
 10
11.9480340277
 20
5.2535222835
 30
0.0
 10
11.980220761
 20
5.258007342
 30
0.0
 10
12.0115235211
 20
5.2628925434
 30
0.0
 10
12.0418679229
 20
5.2681661826
 30
0.0
 10
12.071181935
 20
5.2738156152
 30
0.0
 10
12.0993958521
 20
5.2798273135
 30
0.0
 10
12.1221601071
 20
5.285179748
 30
0.0
 10
12.1397653416
 20
5.2896403989
 30
0.0
 10
12.1525190652
 20
5.2930333716
 30
0.0
 10
12.1649491765
 20
5.2965057798
 30
0.0
 10
12.1770483102
 20
5.3000555115
 30
0.0
 10
12.1888092698
 20
5.3036805205
 30
0.0
 10
12.2002250839
 20
5.3073785721
 30
0.0
 10
12.2112889706
 20
5.3111475272
 30
0.0
 10
12.2219943737
 20
5.3149850997
 30
0.0
 10
12.2323349477
 20
5.3188890164
 30
0.0
 10
12.2423045622
 20
5.3228569787
 30
0.0
 10
12.2518973312
 20
5.3268865746
 30
0.0
 10
12.2611075623
 20
5.3309754924
 30
0.0
 10
12.2699298416
 20
5.3351212164
 30
0.0
 10
12.2783589435
 20
5.3393213836
 30
0.0
 10
12.2863899321
 20
5.3435734545
 30
0.0
 10
12.2940180761
 20
5.3478749759
 30
0.0
 10
12.3012388854
 20
5.3522234196
 30
0.0
 10
12.3080481549
 20
5.356616202
 30
0.0
 10
12.3144418938
 20
5.3610508869
 30
0.0
 10
12.3204165272
 20
5.3655249705
 30
0.0
 10
12.325968271
 20
5.3700358387
 30
0.0
 10
12.3294598747
 20
5.3731318872
 30
0.0
 10
12.331130207
 20
5.3746862895
 30
0.0
  0
SPLINE
  5
2F9
100
AcDbEntity
  8
0
100
AcDbSpline
 62
7
  6
CONTINUOUS
 70
0
 71
3
 72
23
 73
19
 74
0
 42
0.0000001
 43
0.0000001
 44
0.0000000001
 40
0.0
 40
0.0
 40
0.0
 40
0.0
 40
0.0637762098
 40
0.1273451791
 40
0.1907020044
 40
0.2538560229
 40
0.3168132268
 40
0.3795820734
 40
0.4421733797
 40
0.5045993379
 40
0.5668738619
 40
0.6290123843
 40
0.6910316585
 40
0.7529496507
 40
0.8147853611
 40
0.8765586136
 40
0.9382898615
 40
1.0
 40
1.0
 40
1.0
 40
1.0
 10
11.481501267
 20
10.1464003404
 30
0.0
 10
11.481501267
 20
10.1509671587
 30
0.0
 10
11.4817198831
 20
10.160087502
 30
0.0
 10
11.48270644
 20
10.1737125107
 30
0.0
 10
11.4843491326
 20
10.1872295651
 30
0.0
 10
11.4866440109
 20
10.2006068113
 30
0.0
 10
11.4895859073
 20
10.2138137537
 30
0.0
 10
11.4931680306
 20
10.2268198619
 30
0.0
 10
11.4973821584
 20
10.239595151
 30
0.0
 10
11.5022186502
 20
10.252110155
 30
0.0
 10
11.5076663193
 20
10.2643360288
 30
0.0
 10
11.5137126346
 20
10.2762445759
 30
0.0
 10
11.5203437273
 20
10.2878082944
 30
0.0
 10
11.5275442833
 20
10.2990005358
 30
0.0
 10
11.5352976706
 20
10.3097954703
 30
0.0
 10
11.543586148
 20
10.3201682499
 30
0.0
 10
11.5523902781
 20
10.3300946121
 30
0.0
 10
11.5585910575
 20
10.3364005151
 30
0.0
 10
11.5617693441
 20
10.3394705209
 30
0.0
  0
SPLINE
  5
2FA
100
AcDbEntity
  8
0
100
AcDbSpline
 62
7
  6
CONTINUOUS
 70
0
 71
3
 72
16
 73
12
 74
0
 42
0.0000001
 43
0.0000001
 44
0.0000000001
 40
0.0
 40
0.0
 40
0.0
 40
0.0
 40
0.1259760725
 40
0.2517057459
 40
0.3771653135
 40
0.5023411518
 40
0.6272189378
 40
0.7517890977
 40
0.8139638021
 40
0.8760595692
 40
1.0
 40
1.0
 40
1.0
 40
1.0
 10
11.3752495174
 20
8.3726016125
 30
0.0
 10
11.3808420073
 20
8.372424834
 30
0.0
 10
11.392028586
 20
8.3723844994
 30
0.0
 10
11.4087654345
 20
8.373277384
 30
0.0
 10
11.4253890952
 20
8.3751220805
 30
0.0
 10
11.4418416191
 20
8.3779153471
 30
0.0
 10
11.458064902
 20
8.3816535708
 30
0.0
 10
11.4713541295
 20
8.3855536142
 30
0.0
 10
11.4818103269
 20
8.3891391737
 30
0.0
 10
11.4921273323
 20
8.3930279404
 30
0.0
 10
11.4997248256
 20
8.3962937594
 30
0.0
 10
11.5047126956
 20
8.398622866
 30
0.0
  0
SPLINE
  5
2FB
100
AcDbEntity
  8
0
100
AcDbSpline
 62
7
  6
CONTINUOUS
 70
0
 71
3
 72
40
 73
36
 74
0
 42
0.0000001
 43
0.0000001
 44
0.0000000001
 40
0.0
 40
0.0
 40
0.0
 40
0.0
 40
0.0136217714
 40
0.0274186894
 40
0.0413315649
 40
0.0553090014
 40
0.0693007705
 40
0.0832619048
 40
0.1109425836
 40
0.1381148643
 40
0.1646325842
 40
0.2154480633
 40
0.2632631795
 40
0.3082749947
 40
0.3507665415
 40
0.3910167453
 40
0.429271888
 40
0.4657409703
 40
0.5005996549
 40
0.5339953323
 40
0.5968698241
 40
0.6551385716
 40
0.7093608248
 40
0.7599497778
 40
0.8072147079
 40
0.8296750015
 40
0.851386841
 40
0.8723694907
 40
0.8926416748
 40
0.9122191984
 40
0.9311100358
 40
0.9493207476
 40
0.9668597514
 40
0.983745137
 40
1.0
 40
1.0
 40
1.0
 40
1.0
 10
11.4565809235
 20
8.7855226995
 30
0.0
 10
11.4565814187
 20
8.7836001875
 30
0.0
 10
11.4565655846
 20
8.7797304251
 30
0.0
 10
11.456496755
 20
8.7738974408
 30
0.0
 10
11.4563843744
 20
8.7680149237
 30
0.0
 10
11.4562288363
 20
8.762105884
 30
0.0
 10
11.4560324706
 20
8.7561912477
 30
0.0
 10
11.4557201141
 20
8.7483455568
 30
0.0
 10
11.4552416495
 20
8.738644991
 30
0.0
 10
11.4545418839
 20
8.7271818177
 30
0.0
 10
11.4534841362
 20
8.7124701563
 30
0.0
 10
11.4519569188
 20
8.6948723255
 30
0.0
 10
11.4498523125
 20
8.6747079852
 30
0.0
 10
11.4475751516
 20
8.6557453198
 30
0.0
 10
11.4451737006
 20
8.6378748801
 30
0.0
 10
11.4426799571
 20
8.6209805658
 30
0.0
 10
11.4401157613
 20
8.6049571195
 30
0.0
 10
11.4374964238
 20
8.5897142038
 30
0.0
 10
11.4348330665
 20
8.575175674
 30
0.0
 10
11.4313047298
 20
8.5570079449
 30
0.0
 10
11.4268204713
 20
8.5356613315
 30
0.0
 10
11.4212456672
 20
8.5115454487
 30
0.0
 10
11.4156134743
 20
8.4892272446
 30
0.0
 10
11.4099393467
 20
8.4685260175
 30
0.0
 10
11.4051054399
 20
8.4522464915
 30
0.0
 10
11.4012233317
 20
8.4399390099
 30
0.0
 10
11.3983571746
 20
8.4312012266
 30
0.0
 10
11.3954855782
 20
8.4227909078
 30
0.0
 10
11.3926079344
 20
8.4147016698
 30
0.0
 10
11.3897247854
 20
8.4069285296
 30
0.0
 10
11.3868413204
 20
8.399466604
 30
0.0
 10
11.383962471
 20
8.3923121474
 30
0.0
 10
11.3810933078
 20
8.3854595952
 30
0.0
 10
11.3782162592
 20
8.3789106667
 30
0.0
 10
11.3762438824
 20
8.374669048
 30
0.0
 10
11.3752495174
 20
8.3726016125
 30
0.0
  0
SPLINE
  5
2FC
100
AcDbEntity
  8
0
100
AcDbSpline
 62
7
  6
CONTINUOUS
 70
0
 71
3
 72
23
 73
19
 74
0
 42
0.0000001
 43
0.0000001
 44
0.0000000001
 40
0.0
 40
0.0
 40
0.0
 40
0.0
 40
0.06110895
 40
0.1224870207
 40
0.1841247312
 40
0.2460135645
 40
0.3081380644
 40
0.3704803473
 40
0.4330187834
 40
0.495728882
 40
0.5585835394
 40
0.6215534914
 40
0.6846077927
 40
0.7477141318
 40
0.8108398543
 40
0.8739507562
 40
0.9370159573
 40
1.0
 40
1.0
 40
1.0
 40
1.0
 10
11.4487723563
 20
8.7930651833
 30
0.0
 10
11.4487723563
 20
8.7879165124
 30
0.0
 10
11.4484420635
 20
8.7775935503
 30
0.0
 10
11.4469656184
 20
8.7621409375
 30
0.0
 10
11.444512996
 20
8.7467458628
 30
0.0
 10
11.4410944791
 20
8.7314719363
 30
0.0
 10
11.4367239163
 20
8.7163809793
 30
0.0
 10
11.4314192474
 20
8.7015344853
 30
0.0
 10
11.4252020837
 20
8.6869928164
 30
0.0
 10
11.4180977853
 20
8.6728151241
 30
0.0
 10
11.4101352907
 20
8.6590590707
 30
0.0
 10
11.4013470356
 20
8.6457805929
 30
0.0
 10
11.3917687972
 20
8.6330337037
 30
0.0
 10
11.3814395541
 20
8.6208701972
 30
0.0
 10
11.370401368
 20
8.6093396648
 30
0.0
 10
11.3586989655
 20
8.5984887149
 30
0.0
 10
11.3463805571
 20
8.5883621581
 30
0.0
 10
11.3377826375
 20
8.5821153509
 30
0.0
 10
11.3333979045
 20
8.5791262537
 30
0.0
  0
SPLINE
  5
2FD
100
AcDbEntity
  8
0
100
AcDbSpline
 62
7
  6
CONTINUOUS
 70
0
 71
3
 72
40
 73
36
 74
0
 42
0.0000001
 43
0.0000001
 44
0.0000000001
 40
0.0
 40
0.0
 40
0.0
 40
0.0
 40
0.0299423238
 40
0.0599090245
 40
0.0899238848
 40
0.1200095187
 40
0.150186833
 40
0.1804745412
 40
0.2108887424
 40
0.2414425755
 40
0.272145955
 40
0.3030053912
 40
0.3340238948
 40
0.3652009635
 40
0.3965326462
 40
0.428011678
 40
0.4596276808
 40
0.4913674207
 40
0.5232151142
 40
0.5551527775
 40
0.5871606086
 40
0.6192173983
 40
0.6513009604
 40
0.6833885764
 40
0.7154574484
 40
0.7314802314
 40
0.7474899817
 40
0.7794549091
 40
0.8113367096
 40
0.8431167212
 40
0.8747782962
 40
0.906307382
 40
0.9376922178
 40
0.9689251624
 40
1.0
 40
1.0
 40
1.0
 40
1.0
 10
9.4300712878
 20
7.7691652439
 30
0.0
 10
9.4274832996
 20
7.7666654431
 30
0.0
 10
9.422103817
 20
7.761867594
 30
0.0
 10
9.413485058
 20
7.7553313676
 30
0.0
 10
9.4043608084
 20
7.7494884081
 30
0.0
 10
9.3947820522
 20
7.7443714913
 30
0.0
 10
9.3848014513
 20
7.7400085734
 30
0.0
 10
9.3744740873
 20
7.7364236382
 30
0.0
 10
9.36385687
 20
7.733636302
 30
0.0
 10
9.3530082929
 20
7.7316617834
 30
0.0
 10
9.3419880873
 20
7.7305108064
 30
0.0
 10
9.3308568956
 20
7.7301895575
 30
0.0
 10
9.3196759365
 20
7.7306996588
 30
0.0
 10
9.3085066708
 20
7.7320381661
 30
0.0
 10
9.2974104666
 20
7.7341975923
 30
0.0
 10
9.2864482658
 20
7.7371659529
 30
0.0
 10
9.2756802546
 20
7.7409268363
 30
0.0
 10
9.2651655374
 20
7.7454594961
 30
0.0
 10
9.254961817
 20
7.7507389671
 30
0.0
 10
9.2451250837
 20
7.7567362008
 30
0.0
 10
9.2357093066
 20
7.7634182332
 30
0.0
 10
9.2267661638
 20
7.7707483321
 30
0.0
 10
9.2183446757
 20
7.7786863191
 30
0.0
 10
9.2104912567
 20
7.787188327
 30
0.0
 10
9.2044535003
 20
7.7947077767
 30
0.0
 10
9.1999487519
 20
7.8009579344
 30
0.0
 10
9.1956706857
 20
7.8073503483
 30
0.0
 10
9.1907520916
 20
7.815600116
 30
0.0
 10
9.1855669486
 20
7.8258655062
 30
0.0
 10
9.1811296414
 20
7.8364364699
 30
0.0
 10
9.1774647808
 20
7.847254734
 30
0.0
 10
9.1745925796
 20
7.8582609181
 30
0.0
 10
9.1725288406
 20
7.8693948439
 30
0.0
 10
9.171285137
 20
7.8805944965
 30
0.0
 10
9.1710065485
 20
7.8880848558
 30
0.0
 10
9.1710065485
 20
7.8918190997
 30
0.0
  0
SPLINE
  5
2FE
100
AcDbEntity
  8
0
100
AcDbSpline
 62
7
  6
CONTINUOUS
 70
0
 71
3
 72
42
 73
38
 74
0
 42
0.0000001
 43
0.0000001
 44
0.0000000001
 40
0.0
 40
0.0
 40
0.0
 40
0.0
 40
0.0299419701
 40
0.0449235371
 40
0.0599142099
 40
0.0899287086
 40
0.120013976
 40
0.1350926557
 40
0.1501966967
 40
0.1804840314
 40
0.2108978579
 40
0.2414513165
 40
0.2721543219
 40
0.3030133827
 40
0.3340315081
 40
0.3652081958
 40
0.3965394956
 40
0.4280181443
 40
0.4596337652
 40
0.4913731244
 40
0.5232204374
 40
0.5551577174
 40
0.5871651615
 40
0.6192215618
 40
0.6513047348
 40
0.683391965
 40
0.7154604554
 40
0.7474877801
 40
0.7794523312
 40
0.8113337544
 40
0.8431133903
 40
0.87477457
 40
0.9063033352
 40
0.9376876324
 40
0.9533255692
 40
0.9689257402
 40
1.0
 40
1.0
 40
1.0
 40
1.0
 10
10.6503253871
 20
8.5771175238
 30
0.0
 10
10.6481687312
 20
8.5750343449
 30
0.0
 10
10.6448066526
 20
8.5720357706
 30
0.0
 10
10.64009809
 20
8.5683152338
 30
0.0
 10
10.6352396065
 20
8.5647798032
 30
0.0
 10
10.6289000622
 20
8.560719995
 30
0.0
 10
10.6222522704
 20
8.557168856
 30
0.0
 10
10.6167695981
 20
8.5546424865
 30
0.0
 10
10.6111736153
 20
8.5523247822
 30
0.0
 10
10.6039942644
 20
8.5498324895
 30
0.0
 10
10.5951467764
 20
8.5475097542
 30
0.0
 10
10.5861062321
 20
8.5458642454
 30
0.0
 10
10.5769227266
 20
8.5449050636
 30
0.0
 10
10.5676467109
 20
8.5446373206
 30
0.0
 10
10.5583292252
 20
8.545062375
 30
0.0
 10
10.5490214804
 20
8.5461777683
 30
0.0
 10
10.539774618
 20
8.5479772612
 30
0.0
 10
10.5306394223
 20
8.5504508674
 30
0.0
 10
10.5216660489
 20
8.5535849128
 30
0.0
 10
10.5129037532
 20
8.5573621119
 30
0.0
 10
10.5044006248
 20
8.5617616649
 30
0.0
 10
10.4962033212
 20
8.5667593609
 30
0.0
 10
10.4883568174
 20
8.5723277199
 30
0.0
 10
10.4809041641
 20
8.5784361463
 30
0.0
 10
10.4738862545
 20
8.5850510938
 30
0.0
 10
10.4673416028
 20
8.5921362488
 30
0.0
 10
10.4613061363
 20
8.5996527263
 30
0.0
 10
10.4558129992
 20
8.6075592815
 30
0.0
 10
10.4508923755
 20
8.6158125314
 30
0.0
 10
10.4465713051
 20
8.6243671923
 30
0.0
 10
10.4428735702
 20
8.633176298
 30
0.0
 10
10.4398194905
 20
8.6421915937
 30
0.0
 10
10.4374260169
 20
8.6513632646
 30
0.0
 10
10.4359910212
 20
8.6591051416
 30
0.0
 10
10.4351860369
 20
8.6653257048
 30
0.0
 10
10.4346115869
 20
8.6715403092
 30
0.0
 10
10.4344376092
 20
8.6762167543
 30
0.0
 10
10.4344376092
 20
8.6793286108
 30
0.0
  0
SPLINE
  5
2FF
100
AcDbEntity
  8
0
100
AcDbSpline
 62
7
  6
CONTINUOUS
 70
0
 71
3
 72
42
 73
38
 74
0
 42
0.0000001
 43
0.0000001
 44
0.0000000001
 40
0.0
 40
0.0
 40
0.0
 40
0.0
 40
0.0299419701
 40
0.0449235371
 40
0.0599142099
 40
0.0899287086
 40
0.120013976
 40
0.1350926557
 40
0.1501966967
 40
0.1804840314
 40
0.2108978579
 40
0.2414513165
 40
0.2721543219
 40
0.3030133827
 40
0.3340315081
 40
0.3652081958
 40
0.3965394956
 40
0.4280181443
 40
0.4596337652
 40
0.4913731244
 40
0.5232204374
 40
0.5551577174
 40
0.5871651615
 40
0.6192215618
 40
0.6513047348
 40
0.683391965
 40
0.7154604554
 40
0.7474877801
 40
0.7794523312
 40
0.8113337544
 40
0.8431133903
 40
0.87477457
 40
0.9063033352
 40
0.9376876324
 40
0.9533255692
 40
0.9689257402
 40
1.0
 40
1.0
 40
1.0
 40
1.0
 10
9.4120083994
 20
9.5381239665
 30
0.0
 10
9.4098517435
 20
9.5360407877
 30
0.0
 10
9.4064896649
 20
9.5330422134
 30
0.0
 10
9.4017811022
 20
9.5293216765
 30
0.0
 10
9.3969226188
 20
9.5257862459
 30
0.0
 10
9.3905830744
 20
9.5217264377
 30
0.0
 10
9.3839352826
 20
9.5181752988
 30
0.0
 10
9.3784526103
 20
9.5156489293
 30
0.0
 10
9.3728566276
 20
9.5133312249
 30
0.0
 10
9.3656772767
 20
9.5108389323
 30
0.0
 10
9.3568297887
 20
9.508516197
 30
0.0
 10
9.3477892444
 20
9.5068706881
 30
0.0
 10
9.3386057389
 20
9.5059115064
 30
0.0
 10
9.3293297232
 20
9.5056437634
 30
0.0
 10
9.3200122374
 20
9.5060688177
 30
0.0
 10
9.3107044927
 20
9.507184211
 30
0.0
 10
9.3014576303
 20
9.5089837039
 30
0.0
 10
9.2923224345
 20
9.5114573101
 30
0.0
 10
9.2833490612
 20
9.5145913556
 30
0.0
 10
9.2745867654
 20
9.5183685547
 30
0.0
 10
9.266083637
 20
9.5227681077
 30
0.0
 10
9.2578863335
 20
9.5277658036
 30
0.0
 10
9.2500398297
 20
9.5333341627
 30
0.0
 10
9.2425871764
 20
9.539442589
 30
0.0
 10
9.2355692667
 20
9.5460575366
 30
0.0
 10
9.2290246151
 20
9.5531426915
 30
0.0
 10
9.2229891485
 20
9.560659169
 30
0.0
 10
9.2174960114
 20
9.5685657243
 30
0.0
 10
9.2125753877
 20
9.5768189741
 30
0.0
 10
9.2082543173
 20
9.5853736351
 30
0.0
 10
9.2045565825
 20
9.5941827407
 30
0.0
 10
9.2015025027
 20
9.6031980365
 30
0.0
 10
9.1991090291
 20
9.6123697073
 30
0.0
 10
9.1976740334
 20
9.6201115843
 30
0.0
 10
9.1968690491
 20
9.6263321475
 30
0.0
 10
9.1962945991
 20
9.632546752
 30
0.0
 10
9.1961206215
 20
9.6372231971
 30
0.0
 10
9.1961206215
 20
9.6403350536
 30
0.0
  0
SPLINE
  5
300
100
AcDbEntity
  8
0
100
AcDbSpline
 62
7
  6
CONTINUOUS
 70
0
 71
3
 72
14
 73
10
 74
0
 42
0.0000001
 43
0.0000001
 44
0.0000000001
 40
0.0
 40
0.0
 40
0.0
 40
0.0
 40
0.2121278551
 40
0.3280250874
 40
0.4505470128
 40
0.5795261387
 40
0.7145651494
 40
0.855018114
 40
1.0
 40
1.0
 40
1.0
 40
1.0
 10
11.4540318649
 20
8.8401327179
 30
0.0
 10
11.4544379618
 20
8.836286766
 30
0.0
 10
11.4549713676
 20
8.8303292257
 30
0.0
 10
11.4555366087
 20
8.8221345699
 30
0.0
 10
11.4559064958
 20
8.8154464734
 30
0.0
 10
11.4562031749
 20
8.8084054692
 30
0.0
 10
11.4564202176
 20
8.8010344949
 30
0.0
 10
11.4565516767
 20
8.7933697426
 30
0.0
 10
11.4565821761
 20
8.7881658842
 30
0.0
 10
11.4565809235
 20
8.7855226995
 30
0.0
  0
SPLINE
  5
301
100
AcDbEntity
  8
0
100
AcDbSpline
 62
7
  6
CONTINUOUS
 70
0
 71
3
 72
35
 73
31
 74
0
 42
0.0000001
 43
0.0000001
 44
0.0000000001
 40
0.0
 40
0.0
 40
0.0
 40
0.0
 40
0.0620607392
 40
0.1239717004
 40
0.1548840209
 40
0.1857695545
 40
0.2166327218
 40
0.2474776858
 40
0.3091224319
 40
0.3707567403
 40
0.4015917076
 40
0.4324436985
 40
0.4633200307
 40
0.4942288422
 40
0.525178149
 40
0.5561769682
 40
0.587234268
 40
0.6183592515
 40
0.6495615904
 40
0.6808504765
 40
0.7122349323
 40
0.7437236661
 40
0.7753243518
 40
0.8070435017
 40
0.8388862842
 40
0.8708561726
 40
0.9029546558
 40
0.9351800627
 40
0.9675314201
 40
1.0
 40
1.0
 40
1.0
 40
1.0
 10
9.9564757724
 20
8.5898940119
 30
0.0
 10
9.9533026438
 20
8.5831489278
 30
0.0
 10
9.9465322839
 20
8.5698733926
 30
0.0
 10
9.9370051825
 20
8.5538779415
 30
0.0
 10
9.9287620536
 20
8.541512285
 30
0.0
 10
9.9222720373
 20
8.5324679955
 30
0.0
 10
9.9154733346
 20
8.5236634393
 30
0.0
 10
9.9060019707
 20
8.5122666294
 30
0.0
 10
9.8933942631
 20
8.4986867244
 30
0.0
 10
9.879781952
 20
8.4861122174
 30
0.0
 10
9.8683113105
 20
8.4767350203
 30
0.0
 10
9.8594170823
 20
8.4700585507
 30
0.0
 10
9.8502396937
 20
8.4637612362
 30
0.0
 10
9.8407858001
 20
8.4578646111
 30
0.0
 10
9.8310636141
 20
8.4523912264
 30
0.0
 10
9.8210829509
 20
8.4473644367
 30
0.0
 10
9.8108554714
 20
8.4428083138
 30
0.0
 10
9.8003949976
 20
8.4387473243
 30
0.0
 10
9.789717681
 20
8.4352062999
 30
0.0
 10
9.778842321
 20
8.4322098918
 30
0.0
 10
9.7677905595
 20
8.4297822129
 30
0.0
 10
9.756586991
 20
8.427946504
 30
0.0
 10
9.7452593194
 20
8.4267244052
 30
0.0
 10
9.7338383487
 20
8.4261353259
 30
0.0
 10
9.7223578148
 20
8.4261959091
 30
0.0
 10
9.7108541131
 20
8.4269193914
 30
0.0
 10
9.6993660783
 20
8.4283148732
 30
0.0
 10
9.6879338067
 20
8.4303866886
 30
0.0
 10
9.6765995136
 20
8.4331342849
 30
0.0
 10
9.6691481494
 20
8.435408929
 30
0.0
 10
9.6654528579
 20
8.4366553487
 30
0.0
  0
SPLINE
  5
302
100
AcDbEntity
  8
0
100
AcDbSpline
 62
7
  6
CONTINUOUS
 70
0
 71
3
 72
15
 73
11
 74
0
 42
0.0000001
 43
0.0000001
 44
0.0000000001
 40
0.0
 40
0.0
 40
0.0
 40
0.0
 40
0.1269676216
 40
0.2533054649
 40
0.3790215918
 40
0.5041586864
 40
0.6287602369
 40
0.7528863113
 40
0.8766064989
 40
1.0
 40
1.0
 40
1.0
 40
1.0
 10
10.4665311438
 20
8.7103285866
 30
0.0
 10
10.4665311438
 20
8.7133726285
 30
0.0
 10
10.4667522043
 20
8.7194480163
 30
0.0
 10
10.4677509603
 20
8.7284879488
 30
0.0
 10
10.4694111091
 20
8.7373860704
 30
0.0
 10
10.4717236573
 20
8.7460942778
 30
0.0
 10
10.4746765662
 20
8.754566441
 30
0.0
 10
10.4782542346
 20
8.7627574932
 30
0.0
 10
10.4824373264
 20
8.7706232206
 30
0.0
 10
10.485619337
 20
8.7756290612
 30
0.0
 10
10.4873022922
 20
8.7780620658
 30
0.0
  0
SPLINE
  5
303
100
AcDbEntity
  8
0
100
AcDbSpline
 62
7
  6
CONTINUOUS
 70
0
 71
3
 72
23
 73
19
 74
0
 42
0.0000001
 43
0.0000001
 44
0.0000000001
 40
0.0
 40
0.0
 40
0.0
 40
0.0
 40
0.0634156669
 40
0.1246820344
 40
0.1840762236
 40
0.2419468794
 40
0.2987239953
 40
0.354903101
 40
0.4110360096
 40
0.467701968
 40
0.5254828072
 40
0.584932958
 40
0.6465558983
 40
0.7107878248
 40
0.7779931757
 40
0.8484657742
 40
0.9224220044
 40
1.0
 40
1.0
 40
1.0
 40
1.0
 10
11.3588274482
 20
8.5547792908
 30
0.0
 10
11.3588270354
 20
8.5556061482
 30
0.0
 10
11.3587630795
 20
8.5572327354
 30
0.0
 10
11.3584632272
 20
8.5596171211
 30
0.0
 10
11.3579598918
 20
8.561893553
 30
0.0
 10
11.3572515811
 20
8.5640536093
 30
0.0
 10
11.3563379163
 20
8.5660896454
 30
0.0
 10
11.3552188196
 20
8.5679944354
 30
0.0
 10
11.3538955874
 20
8.5697617973
 30
0.0
 10
11.352370278
 20
8.5713866573
 30
0.0
 10
11.3506459832
 20
8.5728655023
 30
0.0
 10
11.3487264683
 20
8.5741965345
 30
0.0
 10
11.3466158258
 20
8.5753793822
 30
0.0
 10
11.3443185754
 20
8.576415564
 30
0.0
 10
11.3418389915
 20
8.5773072464
 30
0.0
 10
11.3391817076
 20
8.5780584311
 30
0.0
 10
11.3363514595
 20
8.5786730986
 30
0.0
 10
11.3343999389
 20
8.5789880827
 30
0.0
 10
11.3333979045
 20
8.5791262537
 30
0.0
  0
SPLINE
  5
304
100
AcDbEntity
  8
0
100
AcDbSpline
 62
7
  6
CONTINUOUS
 70
0
 71
3
 72
38
 73
34
 74
0
 42
0.0000001
 43
0.0000001
 44
0.0000000001
 40
0.0
 40
0.0
 40
0.0
 40
0.0
 40
0.0606756937
 40
0.0911554292
 40
0.1217257877
 40
0.1831253015
 40
0.2139681023
 40
0.2449007076
 40
0.3070167217
 40
0.369473162
 40
0.4008302134
 40
0.4322638201
 40
0.4953262494
 40
0.5269606872
 40
0.5586490078
 40
0.590382645
 40
0.6221513896
 40
0.6539432214
 40
0.6857441918
 40
0.717538266
 40
0.7493072601
 40
0.781030934
 40
0.8126873042
 40
0.8284856123
 40
0.844258549
 40
0.8600030695
 40
0.8757164487
 40
0.8913957829
 40
0.9070385951
 40
0.9226424649
 40
0.9382052774
 40
0.9691932969
 40
1.0
 40
1.0
 40
1.0
 40
1.0
 10
10.6575159512
 20
9.1284620688
 30
0.0
 10
10.6468053771
 20
9.126372066
 30
0.0
 10
10.6305561159
 20
9.1239817771
 30
0.0
 10
10.6087276588
 20
9.1222458972
 30
0.0
 10
10.5867129502
 20
9.1214621245
 30
0.0
 10
10.5646025188
 20
9.1221086347
 30
0.0
 10
10.5425393723
 20
9.1241597007
 30
0.0
 10
10.5204539679
 20
9.1271575769
 30
0.0
 10
10.4929994935
 20
9.1326731784
 30
0.0
 10
10.4660384782
 20
9.1405241729
 30
0.0
 10
10.4448611796
 20
9.1482205129
 30
0.0
 10
10.4239456372
 20
9.1568882715
 30
0.0
 10
10.4035912273
 20
9.1669905604
 30
0.0
 10
10.3839949002
 20
9.1785219718
 30
0.0
 10
10.3696966573
 20
9.1879074847
 30
0.0
 10
10.35587254
 20
9.1980193329
 30
0.0
 10
10.3425836022
 20
9.2088555333
 30
0.0
 10
10.3298970902
 20
9.2204101774
 30
0.0
 10
10.3178857267
 20
9.2326726862
 30
0.0
 10
10.306627918
 20
9.245626174
 30
0.0
 10
10.296207158
 20
9.2592460622
 30
0.0
 10
10.2867115076
 20
9.2734973725
 30
0.0
 10
10.2796389391
 20
9.285871994
 30
0.0
 10
10.2745348569
 20
9.2960360623
 30
0.0
 10
10.2709967871
 20
9.3037777118
 30
0.0
 10
10.2677572501
 20
9.3116324175
 30
0.0
 10
10.2648268507
 20
9.3195897888
 30
0.0
 10
10.2622151302
 20
9.3276382304
 30
0.0
 10
10.2599315041
 20
9.3357654303
 30
0.0
 10
10.2579839809
 20
9.3439583253
 30
0.0
 10
10.2558486621
 20
9.3549338189
 30
0.0
 10
10.2540498004
 20
9.3687472211
 30
0.0
 10
10.2535635873
 20
9.3798665311
 30
0.0
 10
10.2535635873
 20
9.3854071478
 30
0.0
  0
SPLINE
  5
305
100
AcDbEntity
  8
0
100
AcDbSpline
 62
7
  6
CONTINUOUS
 70
0
 71
3
 72
34
 73
30
 74
0
 42
0.0000001
 43
0.0000001
 44
0.0000000001
 40
0.0
 40
0.0
 40
0.0
 40
0.0
 40
0.0319820329
 40
0.0638459993
 40
0.095590124
 40
0.127221588
 40
0.1587458311
 40
0.1901702872
 40
0.2215036268
 40
0.2527550365
 40
0.2839345982
 40
0.315052484
 40
0.3461187811
 40
0.377143853
 40
0.4081373095
 40
0.4391085185
 40
0.4700665003
 40
0.5010191605
 40
0.5319744974
 40
0.5629391618
 40
0.5939197676
 40
0.6249219034
 40
0.687000313
 40
0.7492212931
 40
0.7803985957
 40
0.8116210659
 40
0.8742030445
 40
0.9369920754
 40
1.0
 40
1.0
 40
1.0
 40
1.0
 10
10.2535635873
 20
9.3854071478
 30
0.0
 10
10.2535635873
 20
9.388871678
 30
0.0
 10
10.253752691
 20
9.3957894747
 30
0.0
 10
10.2546052697
 20
9.4061143641
 30
0.0
 10
10.2560211525
 20
9.4163391596
 30
0.0
 10
10.2579913914
 20
9.4264341185
 30
0.0
 10
10.2605041619
 20
9.4363721097
 30
0.0
 10
10.2635446091
 20
9.446127615
 30
0.0
 10
10.2670956476
 20
9.4556774033
 30
0.0
 10
10.2711382754
 20
9.465000618
 30
0.0
 10
10.2756517789
 20
9.4740789466
 30
0.0
 10
10.2806145874
 20
9.4828964473
 30
0.0
 10
10.2860044374
 20
9.4914395688
 30
0.0
 10
10.2917986079
 20
9.4996971016
 30
0.0
 10
10.2979746088
 20
9.5076598003
 30
0.0
 10
10.3045100519
 20
9.5153204234
 30
0.0
 10
10.3113830653
 20
9.5226733867
 30
0.0
 10
10.31857247
 20
9.5297145869
 30
0.0
 10
10.3260577162
 20
9.5364412779
 30
0.0
 10
10.3338191776
 20
9.5428517358
 30
0.0
 10
10.3418381394
 20
9.5489453349
 30
0.0
 10
10.352852999
 20
9.5566501057
 30
0.0
 10
10.3671845513
 20
9.5654933207
 30
0.0
 10
10.3821350109
 20
9.5732807917
 30
0.0
 10
10.3944163252
 20
9.5788910639
 30
0.0
 10
10.4069156561
 20
9.5840996665
 30
0.0
 10
10.4228890744
 20
9.5898481771
 30
0.0
 10
10.4424984627
 20
9.5955395121
 30
0.0
 10
10.4558008644
 20
9.5985409258
 30
0.0
 10
10.462499997
 20
9.5998481579
 30
0.0
  0
ELLIPSE
  5
306
100
AcDbEntity
  8
0
100
AcDbEllipse
 62
7
  6
CONTINUOUS
 10
11.3752495174
 20
8.6140830834
 30
0.0
 11
0.2721025318
 21
-0.0716288803
 31
0.0
 40
0.8504987735
 41
0.0
 42
6.2831853072
  0
ELLIPSE
  5
307
100
AcDbEntity
  8
0
100
AcDbEllipse
 62
7
  6
CONTINUOUS
 10
10.5600079741
 20
7.9770855547
 30
0.0
 11
0.3182741063
 21
-0.0016283792
 31
0.0
 40
0.7627351824
 41
0.0
 42
6.2831853072
  0
ENDSEC
  0
SECTION
  2
OBJECTS
  0
DICTIONARY
  5
C
100
AcDbDictionary
280
0
281
1
  3
ACAD_GROUP
350
D
  3
ACAD_MLINESTYLE
350
17
  3
ACAD_LAYOUT
350
1A
  3
ACAD_PLOTSETTINGS
350
19
  3
ACAD_PLOTSTYLENAME
350
E
  3
ACAD_IMAGE_DICT
350
       309
  3
ACAD_IMAGE_VARS
350
       30A
  3
ACAD_TABLESTYLE
350
       30B
  0
IMAGEDEF_REACTOR
  5
308
100
AcDbRasterImageDefReactor
 90
2
330
284
  0
DICTIONARY
  5
D
102
{ACAD_REACTORS
330
C
102
}
100
AcDbDictionary
280
0
281
1
  0
ACDBDICTIONARYWDFLT
  5
E
102
{ACAD_REACTORS
330
C
102
}
100
AcDbDictionary
281
1
  3
Normal
350
F
100
AcDbDictionaryWithDefault
340
F
  0
DICTIONARY
  5
309
330
C
100
AcDbDictionary
281
1
  3
EBV_assy_2_img_1
350
       30E
  0
RASTERVARIABLES
  5
30A
330
C
100
AcDbRasterVariables
 90
0
 70
0
 71
1
 72
5
  0
DICTIONARY
  5
17
102
{ACAD_REACTORS
330
C
102
}
100
AcDbDictionary
280
0
281
1
  3
Standard
350
18
  0
DICTIONARY
  5
30B
330
C
100
AcDbDictionary
281
1
  3
Standard
350
       30F
  3
Standard1
350
       310
  0
DICTIONARY
  5
19
102
{ACAD_REACTORS
330
C
102
}
100
AcDbDictionary
281
1
  0
DICTIONARY
  5
1A
102
{ACAD_REACTORS
330
C
102
}
100
AcDbDictionary
281
1
  3
Model
350
30C
  3
Layout1
350
30D
  0
ACDBPLACEHOLDER
  5
F
102
{ACAD_REACTORS
330
E
102
}
  0
MLINESTYLE
  5
18
102
{ACAD_REACTORS
330
17
102
}
100
AcDbMlineStyle
  2
STANDARD
 70
0
  3

 62
256
 51
90.0
 52
90.0
 71
2
 49
0.5
 62
256
  6
BYLAYER
 49
-0.5
 62
256
  6
BYLAYER
  0
LAYOUT
  5
30C
102
{ACAD_REACTORS
330
1A
102
}
100
AcDbPlotSettings
  1

  2
none_device
  4
ANSI_C_(22.00_x_17.00_Inches)
  6

 40
0.0
 41
0.0
 42
0.0
 43
0.0
 44
558.8
 45
431.8
 46
0.0
 47
0.0
 48
0.0
 49
0.0
140
0.0
141
0.0
142
1.0
143
1.0
 70
1024
 72
0
 73
0
 74
0
  7

 75
0
147
1.0
148
0.0
149
0.0
100
AcDbLayout
  1
Model
 70
0
 71
0
 10
0.0
 20
0.0
 11
22.0
 21
17.0
 12
0.0
 22
0.0
 32
0.0
 14
0.0
 24
0.0
 34
0.0
 15
0.0
 25
0.0
 35
0.0
146
0.0
 13
0.0
 23
0.0
 33
0.0
 16
1.0
 26
0.0
 36
0.0
 17
0.0
 27
1.0
 37
0.0
 76
0
330
20F
345
0
346
0
  0
LAYOUT
  5
30D
102
{ACAD_REACTORS
330
1A
102
}
100
AcDbPlotSettings
  1

  2
none_device
  4
ANSI_C_(22.00_x_17.00_Inches)
  6

 40
0.0
 41
0.0
 42
0.0
 43
0.0
 44
558.8
 45
431.8
 46
0.0
 47
0.0
 48
0.0
 49
0.0
140
0.0
141
0.0
142
1.0
143
1.0
 70
0
 72
0
 73
0
 74
0
  7

 75
0
147
1.0
148
0.0
149
0.0
100
AcDbLayout
  1
Layout1
 70
0
 71
1
 10
0.0
 20
0.0
 11
22.0
 21
17.0
 12
0.0
 22
0.0
 32
0.0
 14
0.0
 24
0.0
 34
0.0
 15
0.0
 25
0.0
 35
0.0
146
0.0
 13
0.0
 23
0.0
 33
0.0
 16
1.0
 26
0.0
 36
0.0
 17
0.0
 27
1.0
 37
0.0
 76
0
330
210
345
0
346
0
  0
IMAGEDEF
  5
30E
102
{ACAD_REACTORS
330
309
330
308
102
}
100
AcDbRasterImageDef
 90
0
  1
EBV_assy_2_img_1.png
 10
369.0
 20
92.0
 11
0.0066666667
 21
0.0066666667
280
1
281
0
  0
TABLESTYLE
  5
30F
102
{ACAD_REACTORS
330
30B
330
287
330
288
102
}
330
30B
100
AcDbTableStyle
  3
Standard
 70
0
 71
0
 40
0.06
 41
0.06
280
1
281
1
  7
Standard
140
0.18
170
1
 62
0
 63
7
283
0
  7
Standard
140
0.18
170
1
 62
0
 63
7
283
0
  7
Standard
140
0.18
170
1
 62
0
 63
7
283
0
  0
TABLESTYLE
  5
310
102
{ACAD_REACTORS
330
30B
330
286
102
}
330
30B
100
AcDbTableStyle
  3
Standard1
 70
1
 71
0
 40
0.06
 41
0.06
280
1
281
1
  7
Standard
140
0.18
170
1
 62
0
 63
7
283
0
  7
Standard
140
0.18
170
1
 62
0
 63
7
283
0
  7
Standard
140
0.18
170
1
 62
0
 63
7
283
0
  0
ENDSEC
  0
EOF
