999
DXF file: EBP_assy_2.dxf
999
Pro/ENGINEER 2014200 by Parametric Technology Corporation
  0
SECTION
  2
HEADER
  9
$ACADVER
  1
AC1021
  9
$DWGCODEPAGE
  3
ANSI_1252
  9
$EXTMAX
 10
22.0
 20
17.0
 30
0.0
  9
$EXTMIN
 10
0.0
 20
0.0
 30
0.0
  9
$LIMMIN
 10
0.0
 20
0.0
  9
$LIMMAX
 10
22.0
 20
17.0
  9
$VIEWCTR
 10
11.0
 20
8.5
  9
$VIEWSIZE
 40
17.0
  9
$CLAYER
  8
0
  9
$LTSCALE
 40
1.21
  9
$CELTYPE
  6
BYLAYER
  9
$DIMSCALE
 40
1.0
  9
$DIMASZ
 40
0.1875
  9
$DIMEXO
 40
0.0625
  9
$DIMDLI
 40
0.836
  9
$DIMEXE
 40
0.125
  9
$DIMCEN
 40
0.198
  9
$DIMLFAC
 40
1.0
  9
$DIMBLK
  1
_FILLED
  9
$DIMTXT
 40
0.1
  9
$DIMTOL
 70
0
  9
$DIMLIM
 70
0
  9
$DIMTFAC
 40
1.0
  9
$DIMGAP
 40
0.09
  9
$DIMDSEP
 70
46
  9
$AUNITS
 70
0
  9
$PDMODE
 70
3
  9
$PDSIZE
 40
0.3125
  9
$HANDSEED
  5
312
  9
$TILEMODE
 70
1
  9
$MEASUREMENT
 70
0
  9
$INSUNITS
 70
1
  0
ENDSEC
  0
SECTION
  2
CLASSES
  0
CLASS
  1
ACDBDICTIONARYWDFLT
  2
AcDbDictionaryWithDefault
  3
AutoCAD 2000
 90
0
 91
1
280
0
281
0
  0
CLASS
  1
ACDBPLACEHOLDER
  2
AcDbPlaceHolder
  3
AutoCAD 2000
 90
0
 91
1
280
0
281
0
  0
CLASS
  1
LAYOUT
  2
AcDbLayout
  3
AutoCAD 2000
 90
0
 91
0
280
0
281
0
  0
CLASS
  1
RASTERVARIABLES
  2
AcDbRasterVariables
  3
ISM
 90
0
 91
1
280
0
281
0
  0
CLASS
  1
IMAGEDEF
  2
AcDbRasterImageDef
  3
ISM
 90
0
 91
1
280
0
281
0
  0
CLASS
  1
IMAGEDEF_REACTOR
  2
AcDbRasterImageDefReactor
  3
ISM
 90
0
 91
1
280
0
281
0
  0
CLASS
  1
IMAGE
  2
AcDbRasterImage
  3
ISM
 90
127
 91
1
280
0
281
1
  0
CLASS
  1
TABLESTYLE
  2
AcDbTableStyle
  3
ObjectDBX Classes
 90
2047
 91
1
280
0
281
0
  0
CLASS
  1
ACAD_TABLE
  2
AcDbTable
  3
ObjectDBX Classes
 90
1025
 91
3
280
0
281
1
  0
ENDSEC
  0
SECTION
  2
TABLES
  0
TABLE
  2
VPORT
  5
8
100
AcDbSymbolTable
 70
2
  0
VPORT
  5
1F4
100
AcDbSymbolTableRecord
100
AcDbViewportTableRecord
  2
*ACTIVE
 70
0
 10
0.0
 20
0.0
 11
1.0
 21
1.0
 12
11.0
 22
8.5
 13
0.0
 23
0.0
 14
1.0
 24
1.0
 15
0.0
 25
0.0
 16
0.0
 26
0.0
 36
1.0
 17
0.0
 27
0.0
 37
0.0
 40
17.0
 41
1.2941176471
 42
50.0
 43
0.0
 44
0.0
 50
0.0
 51
0.0
 71
0
 72
100
 73
1
 74
1
 75
0
 76
0
 77
0
 78
0
  0
ENDTAB
  0
TABLE
  2
LTYPE
  5
5
100
AcDbSymbolTable
 70
6
  0
LTYPE
  5
14
100
AcDbSymbolTableRecord
100
AcDbLinetypeTableRecord
  2
BYBLOCK
 70
0
  3

 72
65
 73
0
 40
0.0
  0
LTYPE
  5
15
100
AcDbSymbolTableRecord
100
AcDbLinetypeTableRecord
  2
BYLAYER
 70
0
  3

 72
65
 73
0
 40
0.0
  0
LTYPE
  5
16
100
AcDbSymbolTableRecord
100
AcDbLinetypeTableRecord
  2
CONTINUOUS
 70
64
  3
Solid line
 72
65
 73
0
 40
0.0
  0
LTYPE
  5
1F5
100
AcDbSymbolTableRecord
100
AcDbLinetypeTableRecord
  2
CENTER
 70
64
  3
____ _ ____ _ ____ _ ____ _ ____ _ ____ _ ____
 72
65
 73
4
 40
0.6
 49
0.375
 74
0
 49
-0.075
 74
0
 49
0.075
 74
0
 49
-0.075
 74
0
  0
LTYPE
  5
1F6
100
AcDbSymbolTableRecord
100
AcDbLinetypeTableRecord
  2
HIDDEN
 70
64
  3
- - - - - - - - - - - - - - - - - - - -
 72
65
 73
2
 40
0.2
 49
0.1
 74
0
 49
-0.1
 74
0
  0
LTYPE
  5
1F7
100
AcDbSymbolTableRecord
100
AcDbLinetypeTableRecord
  2
PHANTOM
 70
64
  3
_____ _ _ _____ _ _ _____ _ _ _____
 72
65
 73
6
 40
0.8
 49
0.45
 74
0
 49
-0.05
 74
0
 49
0.1
 74
0
 49
-0.05
 74
0
 49
0.1
 74
0
 49
-0.05
 74
0
  0
LTYPE
  5
1F8
100
AcDbSymbolTableRecord
100
AcDbLinetypeTableRecord
  2
DOT
 70
64
  3
. . . . . . . . . . . . . . . . . . . .
 72
65
 73
2
 40
0.2
 49
0.1
 74
0
 49
-0.1
 74
0
  0
LTYPE
  5
1F9
100
AcDbSymbolTableRecord
100
AcDbLinetypeTableRecord
  2
DASHED
 70
64
  3
- - - - - - - - - - - - - - - - - - - -
 72
65
 73
2
 40
0.2
 49
0.1
 74
0
 49
-0.1
 74
0
  0
ENDTAB
  0
TABLE
  2
LAYER
  5
2
100
AcDbSymbolTable
 70
36
  0
LAYER
  5
10
100
AcDbSymbolTableRecord
100
AcDbLayerTableRecord
  2
0
 70
0
 62
7
  6
CONTINUOUS
370
-3
390
F
  0
LAYER
  5
1FA
100
AcDbSymbolTableRecord
100
AcDbLayerTableRecord
  2
DEFAULT_1
 70
0
 62
7
  6
CENTER
370
-3
390
F
  0
LAYER
  5
1FB
100
AcDbSymbolTableRecord
100
AcDbLayerTableRecord
  2
DEFAULT_2
 70
0
 62
8
  6
HIDDEN
370
-3
390
F
  0
LAYER
  5
1FC
100
AcDbSymbolTableRecord
100
AcDbLayerTableRecord
  2
DEFAULT_3
 70
0
 62
7
  6
PHANTOM
370
-3
390
F
  0
LAYER
  5
1FD
100
AcDbSymbolTableRecord
100
AcDbLayerTableRecord
  2
01___PRT_ALL_DTM_PLN
 70
0
 62
7
  6
CONTINUOUS
370
-3
390
F
  0
LAYER
  5
1FE
100
AcDbSymbolTableRecord
100
AcDbLayerTableRecord
  2
01___PRT_DEF_DTM_PLN
 70
0
 62
7
  6
CONTINUOUS
370
-3
390
F
  0
LAYER
  5
1FF
100
AcDbSymbolTableRecord
100
AcDbLayerTableRecord
  2
02___PRT_ALL_AXES
 70
0
 62
7
  6
CONTINUOUS
370
-3
390
F
  0
LAYER
  5
200
100
AcDbSymbolTableRecord
100
AcDbLayerTableRecord
  2
03___PRT_ALL_CURVES
 70
0
 62
7
  6
CONTINUOUS
370
-3
390
F
  0
LAYER
  5
201
100
AcDbSymbolTableRecord
100
AcDbLayerTableRecord
  2
04___PRT_ALL_DTM_PNT
 70
0
 62
7
  6
CONTINUOUS
370
-3
390
F
  0
LAYER
  5
202
100
AcDbSymbolTableRecord
100
AcDbLayerTableRecord
  2
05___PRT_ALL_DTM_CSYS
 70
0
 62
7
  6
CONTINUOUS
370
-3
390
F
  0
LAYER
  5
203
100
AcDbSymbolTableRecord
100
AcDbLayerTableRecord
  2
05___PRT_DEF_DTM_CSYS
 70
0
 62
7
  6
CONTINUOUS
370
-3
390
F
  0
LAYER
  5
204
100
AcDbSymbolTableRecord
100
AcDbLayerTableRecord
  2
06___PRT_ALL_SURFS
 70
0
 62
7
  6
CONTINUOUS
370
-3
390
F
  0
LAYER
  5
205
100
AcDbSymbolTableRecord
100
AcDbLayerTableRecord
  2
DATUM_PLANES
 70
0
 62
7
  6
CONTINUOUS
370
-3
390
F
  0
LAYER
  5
206
100
AcDbSymbolTableRecord
100
AcDbLayerTableRecord
  2
DIMENSIONS
 70
0
 62
7
  6
CONTINUOUS
370
-3
390
F
  0
LAYER
  5
207
100
AcDbSymbolTableRecord
100
AcDbLayerTableRecord
  2
PARAMETERDIMENSIONS
 70
0
 62
7
  6
CONTINUOUS
370
-3
390
F
  0
LAYER
  5
208
100
AcDbSymbolTableRecord
100
AcDbLayerTableRecord
  2
PLANE
 70
0
 62
7
  6
CONTINUOUS
370
-3
390
F
  0
LAYER
  5
209
100
AcDbSymbolTableRecord
100
AcDbLayerTableRecord
  2
PORT_AREAS
 70
0
 62
7
  6
CONTINUOUS
370
-3
390
F
  0
LAYER
  5
20A
100
AcDbSymbolTableRecord
100
AcDbLayerTableRecord
  2
SUNNBOMCOSMETIC
 70
0
 62
7
  6
CONTINUOUS
370
-3
390
F
  0
LAYER
  5
20B
100
AcDbSymbolTableRecord
100
AcDbLayerTableRecord
  2
SUNNBOMSTAMPING
 70
0
 62
7
  6
CONTINUOUS
370
-3
390
F
  0
LAYER
  5
20C
100
AcDbSymbolTableRecord
100
AcDbLayerTableRecord
  2
THREADS
 70
0
 62
7
  6
CONTINUOUS
370
-3
390
F
  0
ENDTAB
  0
TABLE
  2
STYLE
  5
3
100
AcDbSymbolTable
 70
1
  0
STYLE
  5
11
100
AcDbSymbolTableRecord
100
AcDbTextStyleTableRecord
  2
STANDARD
 70
0
 40
0.0
 41
0.8
 50
0.0
 71
0
 42
0.2
  3
txt
  4

  0
STYLE
  5
20D
100
AcDbSymbolTableRecord
100
AcDbTextStyleTableRecord
  2
TEXTSTYLE_1
 70
0
 40
0.0
 41
0.8
 50
0.0
 71
0
 42
0.2
  3
gdt
  4

  0
ENDTAB
  0
TABLE
  2
VIEW
  5
6
100
AcDbSymbolTable
 70
0
  0
ENDTAB
  0
TABLE
  2
UCS
  5
7
100
AcDbSymbolTable
 70
0
  0
ENDTAB
  0
TABLE
  2
APPID
  5
9
100
AcDbSymbolTable
 70
1
  0
APPID
  5
20E
100
AcDbSymbolTableRecord
100
AcDbRegAppTableRecord
  2
ACAD
 70
0
  0
ENDTAB
  0
TABLE
  2
BLOCK_RECORD
  5
1
100
AcDbSymbolTable
 70
0
  0
BLOCK_RECORD
  5
20F
100
AcDbSymbolTableRecord
100
AcDbBlockTableRecord
  2
*Model_Space
  0
BLOCK_RECORD
  5
210
100
AcDbSymbolTableRecord
100
AcDbBlockTableRecord
  2
*Paper_Space
  0
BLOCK_RECORD
  5
211
100
AcDbSymbolTableRecord
100
AcDbBlockTableRecord
  2
SUN_FIRST_THIRD_ANGLE_BL0
  0
BLOCK_RECORD
  5
212
100
AcDbSymbolTableRecord
100
AcDbBlockTableRecord
  2
*T1
  0
BLOCK_RECORD
  5
213
100
AcDbSymbolTableRecord
100
AcDbBlockTableRecord
  2
*T2
  0
BLOCK_RECORD
  5
214
100
AcDbSymbolTableRecord
100
AcDbBlockTableRecord
  2
*T3
  0
ENDTAB
  0
TABLE
  2
DIMSTYLE
  5
A
100
AcDbSymbolTable
 70
1
100
AcDbDimStyleTable
 71
0
  0
DIMSTYLE
105
215
100
AcDbSymbolTableRecord
100
AcDbDimStyleTableRecord
  2
STANDARD
 70
0
  3

  4

 40
1.0
 41
0.1875
 42
0.0625
 43
0.38
 44
0.125
 45
0.0
 46
0.0
 47
0.001
 48
0.001
140
0.1
141
0.09
142
0.0
143
25.4
144
1.0
145
0.0
146
1.0
147
0.09
 71
0.0
 72
0.0
 73
1
 74
1
 75
0
 76
0
 77
0
 78
4
170
0
171
2
172
0
173
0
174
0
175
0
176
0
177
0
178
0
270
2
271
3
272
3
273
2
274
2
275
0
280
0
281
0
282
0
283
1
284
4
285
0
286
0
287
3
288
0
340
11
278
46
  0
ENDTAB
  0
ENDSEC
  0
SECTION
  2
BLOCKS
  0
BLOCK
  5
20
100
AcDbEntity
  8
0
100
AcDbBlockBegin
  2
*Model_Space
 70
0
 10
0.0
 20
0.0
 30
0.0
  3
*Model_Space
  1

  0
ENDBLK
  5
21
100
AcDbEntity
  8
0
100
AcDbBlockEnd
  0
BLOCK
  5
1C
100
AcDbEntity
  8
0
100
AcDbBlockBegin
  2
*Paper_Space
 70
0
 10
0.0
 20
0.0
 30
0.0
  3
*Paper_Space
  1

  0
ENDBLK
  5
1D
100
AcDbEntity
  8
0
100
AcDbBlockEnd
  0
BLOCK
  5
216
100
AcDbEntity
  8
0
100
AcDbBlockBegin
 62
2
  6
CONTINUOUS
  2
SUN_FIRST_THIRD_ANGLE_BL0
 70
64
 10
20.4816717061
 20
1.2289683772
  3
SUN_FIRST_THIRD_ANGLE_BL0
  1

  0
TEXT
  5
217
100
AcDbEntity
  8
0
100
AcDbText
 62
2
  6
CONTINUOUS
 10
19.4750896608
 20
1.4136269581
  7
STANDARD
 40
0.08
  1
FIRST ANGLE
 41
0.8
 72
0
100
AcDbText
  0
TEXT
  5
218
100
AcDbEntity
  8
0
100
AcDbText
 62
2
  6
CONTINUOUS
 10
20.7842537513
 20
1.4047600029
  7
STANDARD
 40
0.08
  1
THIRD ANGLE
 41
0.8
 72
0
100
AcDbText
  0
LINE
  5
219
100
AcDbEntity
  8
0
100
AcDbLine
 62
7
  6
CONTINUOUS
 10
19.4767170086
 20
1.1727031207
 11
19.6334271527
 21
1.1717972817
  0
LINE
  5
21A
100
AcDbEntity
  8
0
100
AcDbLine
 62
7
  6
CONTINUOUS
 10
19.6596964832
 20
1.1717972817
 11
19.6950230232
 21
1.171593082
  0
LINE
  5
21B
100
AcDbEntity
  8
0
100
AcDbLine
 62
7
  6
CONTINUOUS
 10
19.7194818561
 20
1.1708914427
 11
19.8852396156
 21
1.1699333054
  0
LINE
  5
21C
100
AcDbEntity
  8
0
100
AcDbLine
 62
7
  6
CONTINUOUS
 10
19.4758111696
 20
1.2723454088
 11
19.88525039
 21
1.3511534004
  0
LINE
  5
21D
100
AcDbEntity
  8
0
100
AcDbLine
 62
7
  6
CONTINUOUS
 10
19.88525039
 20
1.3511534004
 11
19.8831348489
 21
0.9851647912
  0
LINE
  5
21E
100
AcDbEntity
  8
0
100
AcDbLine
 62
7
  6
CONTINUOUS
 10
19.8831348489
 20
0.9851647912
 11
19.4767170086
 21
1.0658141206
  0
LINE
  5
21F
100
AcDbEntity
  8
0
100
AcDbLine
 62
7
  6
CONTINUOUS
 10
19.4767170086
 20
1.0658141206
 11
19.4779056764
 21
1.2714536432
  0
CIRCLE
  5
220
100
AcDbEntity
  8
0
100
AcDbCircle
 62
7
  6
CONTINUOUS
 10
20.2068232291
 20
1.1717972817
 40
0.175742101
  0
CIRCLE
  5
221
100
AcDbEntity
  8
0
100
AcDbCircle
 62
7
  6
CONTINUOUS
 10
20.2068232291
 20
1.1717972817
 40
0.1005522074
  0
LINE
  5
222
100
AcDbEntity
  8
0
100
AcDbLine
 62
7
  6
CONTINUOUS
 10
20.2077290681
 20
1.3756110529
 11
20.2071171714
 21
1.2379342989
  0
LINE
  5
223
100
AcDbEntity
  8
0
100
AcDbLine
 62
7
  6
CONTINUOUS
 10
20.2077290681
 20
1.2016899681
 11
20.2074674401
 21
1.1428236749
  0
LINE
  5
224
100
AcDbEntity
  8
0
100
AcDbLine
 62
7
  6
CONTINUOUS
 10
20.208634907
 20
1.101141841
 11
20.2080230104
 21
0.963465087
  0
LINE
  5
225
100
AcDbEntity
  8
0
100
AcDbLine
 62
7
  6
CONTINUOUS
 10
20.0066328138
 20
1.1745147986
 11
20.1443095678
 21
1.1739029019
  0
LINE
  5
226
100
AcDbEntity
  8
0
100
AcDbLine
 62
7
  6
CONTINUOUS
 10
20.1832714155
 20
1.1727031207
 11
20.238153505
 21
1.172335442
  0
LINE
  5
227
100
AcDbEntity
  8
0
100
AcDbLine
 62
7
  6
CONTINUOUS
 10
20.2756669918
 20
1.1717972817
 11
20.407916871
 21
1.1712095044
  0
CIRCLE
  5
228
100
AcDbEntity
  8
0
100
AcDbCircle
 62
7
  6
CONTINUOUS
 10
20.7509457401
 20
1.1693297793
 40
0.1722024983
  0
CIRCLE
  5
229
100
AcDbEntity
  8
0
100
AcDbCircle
 62
7
  6
CONTINUOUS
 10
20.7509457401
 20
1.1693297793
 40
0.0985164967
  0
LINE
  5
22A
100
AcDbEntity
  8
0
100
AcDbLine
 62
7
  6
CONTINUOUS
 10
20.7169767782
 20
1.170462078
 11
20.7825395137
 21
1.1682766535
  0
LINE
  5
22B
100
AcDbEntity
  8
0
100
AcDbLine
 62
7
  6
CONTINUOUS
 10
20.8177513651
 20
1.1693297793
 11
20.947965719
 21
1.1693297793
  0
LINE
  5
22C
100
AcDbEntity
  8
0
100
AcDbLine
 62
7
  6
CONTINUOUS
 10
20.6875370113
 20
1.170462078
 11
20.5573226574
 21
1.170462078
  0
LINE
  5
22D
100
AcDbEntity
  8
0
100
AcDbLine
 62
7
  6
CONTINUOUS
 10
20.7486811426
 20
1.1987695462
 11
20.7486811426
 21
1.1432869085
  0
LINE
  5
22E
100
AcDbEntity
  8
0
100
AcDbLine
 62
7
  6
CONTINUOUS
 10
20.7498134414
 20
1.1059210505
 11
20.7498134414
 21
0.9757066966
  0
LINE
  5
22F
100
AcDbEntity
  8
0
100
AcDbLine
 62
7
  6
CONTINUOUS
 10
20.7486811426
 20
1.2338708068
 11
20.7486811426
 21
1.3640851607
  0
LINE
  5
230
100
AcDbEntity
  8
0
100
AcDbLine
 62
7
  6
CONTINUOUS
 10
21.0702539817
 20
1.2701043662
 11
21.4790138229
 21
1.3448360823
  0
LINE
  5
231
100
AcDbEntity
  8
0
100
AcDbLine
 62
7
  6
CONTINUOUS
 10
21.4790138229
 20
1.3448360823
 11
21.4790138229
 21
0.9779712941
  0
LINE
  5
232
100
AcDbEntity
  8
0
100
AcDbLine
 62
7
  6
CONTINUOUS
 10
21.4790138229
 20
0.9779712941
 11
21.069121683
 21
1.0617614
  0
LINE
  5
233
100
AcDbEntity
  8
0
100
AcDbLine
 62
7
  6
CONTINUOUS
 10
21.0702539817
 20
1.2701043662
 11
21.069121683
 21
1.0617614
  0
LINE
  5
234
100
AcDbEntity
  8
0
100
AcDbLine
 62
7
  6
CONTINUOUS
 10
21.4790138229
 20
1.1693297793
 11
21.3159628059
 21
1.1693297793
  0
LINE
  5
235
100
AcDbEntity
  8
0
100
AcDbLine
 62
7
  6
CONTINUOUS
 10
21.2876553377
 20
1.1693297793
 11
21.2502894796
 21
1.1693297793
  0
LINE
  5
236
100
AcDbEntity
  8
0
100
AcDbLine
 62
7
  6
CONTINUOUS
 10
21.2208497126
 20
1.1659328831
 11
21.0713862804
 21
1.1659328831
  0
LINE
  5
237
100
AcDbEntity
  8
0
100
AcDbLine
 62
7
  6
CONTINUOUS
 10
20.4796138713
 20
1.5284908897
 11
20.4766766948
 21
0.9294458646
  0
ENDBLK
  5
238
100
AcDbEntity
  8
0
  6
BYBLOCK
 62
0
100
AcDbBlockEnd
  0
BLOCK
  5
239
100
AcDbEntity
  8
0
100
AcDbBlockBegin
  2
*T1
 70
1
 10
0.0
 20
0.0
  3
*T1
  1

  0
LINE
  5
23A
100
AcDbEntity
  8
0
100
AcDbLine
 62
2
  6
CONTINUOUS
 10
9.275
 20
0.0
 11
-0.0
 21
0.0
  0
LINE
  5
23B
100
AcDbEntity
  8
0
100
AcDbLine
 62
2
  6
CONTINUOUS
 10
9.275
 20
0.0
 11
9.275
 21
1.25
  0
LINE
  5
23C
100
AcDbEntity
  8
0
100
AcDbLine
 62
2
  6
CONTINUOUS
 10
9.275
 20
0.625
 11
-0.0
 21
0.625
  0
LINE
  5
23D
100
AcDbEntity
  8
0
100
AcDbLine
 62
2
  6
CONTINUOUS
 10
9.275
 20
1.25
 11
-0.0
 21
1.25
  0
LINE
  5
23E
100
AcDbEntity
  8
0
100
AcDbLine
 62
2
  6
CONTINUOUS
 10
6.8
 20
0.0
 11
6.8
 21
1.25
  0
LINE
  5
23F
100
AcDbEntity
  8
0
100
AcDbLine
 62
2
  6
CONTINUOUS
 10
6.4
 20
0.0
 11
6.4
 21
0.625
  0
LINE
  5
240
100
AcDbEntity
  8
0
100
AcDbLine
 62
2
  6
CONTINUOUS
 10
5.9
 20
0.0
 11
5.9
 21
0.625
  0
LINE
  5
241
100
AcDbEntity
  8
0
100
AcDbLine
 62
2
  6
CONTINUOUS
 10
5.2
 20
0.0
 11
5.2
 21
0.625
  0
LINE
  5
242
100
AcDbEntity
  8
0
100
AcDbLine
 62
2
  6
CONTINUOUS
 10
4.1
 20
0.0
 11
4.1
 21
1.25
  0
LINE
  5
243
100
AcDbEntity
  8
0
100
AcDbLine
 62
2
  6
CONTINUOUS
 10
-0.0
 20
0.0
 11
-0.0
 21
1.25
  0
MTEXT
  5
244
100
AcDbEntity
  8
0
100
AcDbMText
 62
2
  6
CONTINUOUS
  7
STANDARD
 71
2
 72
1
 10
6.6
 20
0.325
 30
0.0
 11
1.0
 21
0.0
 31
0.0
 44
0.9
  1
2
 40
0.125
 41
0.2
  0
MTEXT
  5
245
100
AcDbEntity
  8
0
100
AcDbMText
 62
2
  6
CONTINUOUS
  7
STANDARD
 71
2
 72
1
 10
6.15
 20
0.325
 30
0.0
 11
1.0
 21
0.0
 31
0.0
 44
0.9
  1
C
 40
0.125
 41
0.2
  0
MTEXT
  5
246
100
AcDbEntity
  8
0
100
AcDbMText
 62
2
  6
CONTINUOUS
  7
STANDARD
 71
2
 72
1
 10
5.55
 20
0.325
 30
0.0
 11
1.0
 21
0.0
 31
0.0
 44
0.9
  1
2.000
 40
0.125
 41
1.0
  0
MTEXT
  5
247
100
AcDbEntity
  8
0
100
AcDbMText
 62
2
  6
CONTINUOUS
  7
STANDARD
 71
2
 72
1
 10
4.65
 20
0.325
 30
0.0
 11
1.0
 21
0.0
 31
0.0
 44
0.9
  1
Aug-28-19
 40
0.125
 41
1.8
  0
MTEXT
  5
248
100
AcDbEntity
  8
0
100
AcDbMText
 62
2
  6
CONTINUOUS
  7
STANDARD
 71
2
 72
1
 10
2.05
 20
0.4625
 30
0.0
 11
1.0
 21
0.0
 31
0.0
 44
0.9
  1
T-11A Sandwich ISO 03\POn P, port 3 to T
 40
0.125
 41
4.2
  0
MTEXT
  5
249
100
AcDbEntity
  8
0
100
AcDbMText
 62
2
  6
CONTINUOUS
  7
STANDARD
 71
1
 72
1
 10
6.45
 20
0.5625
 30
0.0
 11
1.0
 21
0.0
 31
0.0
 44
0.9
  1
SHEET
 40
0.06
 41
0.48
  0
MTEXT
  5
24A
100
AcDbEntity
  8
0
100
AcDbMText
 62
2
  6
CONTINUOUS
  7
STANDARD
 71
1
 72
1
 10
5.95
 20
0.5625
 30
0.0
 11
1.0
 21
0.0
 31
0.0
 44
0.9
  1
DWG SIZE
 40
0.06
 41
0.768
  0
MTEXT
  5
24B
100
AcDbEntity
  8
0
100
AcDbMText
 62
2
  6
CONTINUOUS
  7
STANDARD
 71
1
 72
1
 10
5.25
 20
0.5625
 30
0.0
 11
1.0
 21
0.0
 31
0.0
 44
0.9
  1
SCALE
 40
0.06
 41
0.48
  0
MTEXT
  5
24C
100
AcDbEntity
  8
0
100
AcDbMText
 62
2
  6
CONTINUOUS
  7
STANDARD
 71
1
 72
1
 10
4.15
 20
0.5625
 30
0.0
 11
1.0
 21
0.0
 31
0.0
 44
0.9
  1
DATE
 40
0.06
 41
0.384
  0
MTEXT
  5
24D
100
AcDbEntity
  8
0
100
AcDbMText
 62
2
  6
CONTINUOUS
  7
STANDARD
 71
1
 72
1
 10
0.05
 20
0.5625
 30
0.0
 11
1.0
 21
0.0
 31
0.0
 44
0.9
  1
DESCRIPTION
 40
0.06
 41
1.056
  0
MTEXT
  5
24E
100
AcDbEntity
  8
0
100
AcDbMText
 62
2
  6
CONTINUOUS
  7
STANDARD
 71
2
 72
1
 10
5.45
 20
1.0375
 30
0.0
 11
1.0
 21
0.0
 31
0.0
 44
0.9
  1
ALL DIMENSIONS IN INCH\PVIEWS ARE THIRD ANGLE
 40
0.12
 41
4.224
  0
MTEXT
  5
24F
100
AcDbEntity
  8
0
100
AcDbMText
 62
2
  6
CONTINUOUS
  7
STANDARD
 71
2
 72
1
 10
2.05
 20
0.95
 30
0.0
 11
1.0
 21
0.0
 31
0.0
 44
0.9
  1
EBP
 40
0.125
 41
0.6
  0
MTEXT
  5
250
100
AcDbEntity
  8
0
100
AcDbMText
 62
2
  6
CONTINUOUS
  7
STANDARD
 71
1
 72
1
 10
0.05
 20
1.1875
 30
0.0
 11
1.0
 21
0.0
 31
0.0
 44
0.9
  1
MODEL
 40
0.06
 41
0.48
  0
ENDBLK
  5
251
100
AcDbEntity
  8
0
  6
BYBLOCK
 62
0
100
AcDbBlockEnd
  0
BLOCK
  5
252
100
AcDbEntity
  8
0
100
AcDbBlockBegin
  2
*T2
 70
1
 10
0.0
 20
0.0
  3
*T2
  1

  0
LINE
  5
253
100
AcDbEntity
  8
0
100
AcDbLine
 62
2
  6
CONTINUOUS
 10
0.0
 20
0.0
 11
9.055
 21
0.0
  0
LINE
  5
254
100
AcDbEntity
  8
0
100
AcDbLine
 62
2
  6
CONTINUOUS
 10
0.0
 20
0.0
 11
0.0
 21
-2.344
  0
LINE
  5
255
100
AcDbEntity
  8
0
100
AcDbLine
 62
2
  6
CONTINUOUS
 10
0.0
 20
-0.344
 11
9.055
 21
-0.344
  0
LINE
  5
256
100
AcDbEntity
  8
0
100
AcDbLine
 62
2
  6
CONTINUOUS
 10
0.0
 20
-0.594
 11
9.055
 21
-0.594
  0
LINE
  5
257
100
AcDbEntity
  8
0
100
AcDbLine
 62
2
  6
CONTINUOUS
 10
0.0
 20
-0.844
 11
9.055
 21
-0.844
  0
LINE
  5
258
100
AcDbEntity
  8
0
100
AcDbLine
 62
2
  6
CONTINUOUS
 10
0.0
 20
-1.094
 11
9.055
 21
-1.094
  0
LINE
  5
259
100
AcDbEntity
  8
0
100
AcDbLine
 62
2
  6
CONTINUOUS
 10
0.0
 20
-1.344
 11
9.055
 21
-1.344
  0
LINE
  5
25A
100
AcDbEntity
  8
0
100
AcDbLine
 62
2
  6
CONTINUOUS
 10
0.0
 20
-1.594
 11
9.055
 21
-1.594
  0
LINE
  5
25B
100
AcDbEntity
  8
0
100
AcDbLine
 62
2
  6
CONTINUOUS
 10
0.0
 20
-1.844
 11
9.055
 21
-1.844
  0
LINE
  5
25C
100
AcDbEntity
  8
0
100
AcDbLine
 62
2
  6
CONTINUOUS
 10
0.0
 20
-2.094
 11
9.055
 21
-2.094
  0
LINE
  5
25D
100
AcDbEntity
  8
0
100
AcDbLine
 62
2
  6
CONTINUOUS
 10
0.0
 20
-2.344
 11
9.055
 21
-2.344
  0
LINE
  5
25E
100
AcDbEntity
  8
0
100
AcDbLine
 62
2
  6
CONTINUOUS
 10
3.055
 20
0.0
 11
3.055
 21
-2.344
  0
LINE
  5
25F
100
AcDbEntity
  8
0
100
AcDbLine
 62
2
  6
CONTINUOUS
 10
9.055
 20
0.0
 11
9.055
 21
-2.344
  0
MTEXT
  5
260
100
AcDbEntity
  8
0
100
AcDbMText
 62
2
  6
CONTINUOUS
  7
STANDARD
 71
2
 72
1
 10
1.5275
 20
-0.0995
 30
0.0
 11
1.0
 21
0.0
 31
0.0
 44
0.9
  1
Technical Data
 40
0.145
 41
3.248
  0
MTEXT
  5
261
100
AcDbEntity
  8
0
100
AcDbMText
 62
2
  6
CONTINUOUS
  7
STANDARD
 71
2
 72
1
 10
4.555
 20
-0.0995
 30
0.0
 11
1.0
 21
0.0
 31
0.0
 44
0.9
  1
U.S. Units
 40
0.145
 41
2.32
  0
MTEXT
  5
262
100
AcDbEntity
  8
0
100
AcDbMText
 62
2
  6
CONTINUOUS
  7
STANDARD
 71
2
 72
1
 10
7.555
 20
-0.0995
 30
0.0
 11
1.0
 21
0.0
 31
0.0
 44
0.9
  1
Metric Units
 40
0.145
 41
2.784
  0
MTEXT
  5
263
100
AcDbEntity
  8
0
100
AcDbMText
 62
2
  6
CONTINUOUS
  7
STANDARD
 71
2
 72
1
 10
1.5275
 20
-0.4065
 30
0.0
 11
1.0
 21
0.0
 31
0.0
 44
0.9
  1
Cavity
 40
0.125
 41
1.2
  0
MTEXT
  5
264
100
AcDbEntity
  8
0
100
AcDbMText
 62
2
  6
CONTINUOUS
  7
STANDARD
 71
2
 72
1
 10
6.055
 20
-0.4065
 30
0.0
 11
1.0
 21
0.0
 31
0.0
 44
0.9
  1
T-11A
 40
0.125
 41
1.0
  0
MTEXT
  5
265
100
AcDbEntity
  8
0
100
AcDbMText
 62
2
  6
CONTINUOUS
  7
STANDARD
 71
2
 72
1
 10
1.5275
 20
-0.6565
 30
0.0
 11
1.0
 21
0.0
 31
0.0
 44
0.9
  1
Body Features
 40
0.125
 41
2.6
  0
MTEXT
  5
266
100
AcDbEntity
  8
0
100
AcDbMText
 62
2
  6
CONTINUOUS
  7
STANDARD
 71
2
 72
1
 10
6.055
 20
-0.6565
 30
0.0
 11
1.0
 21
0.0
 31
0.0
 44
0.9
  1
On P, port 3 to T
 40
0.125
 41
3.4
  0
MTEXT
  5
267
100
AcDbEntity
  8
0
100
AcDbMText
 62
2
  6
CONTINUOUS
  7
STANDARD
 71
2
 72
1
 10
1.5275
 20
-0.9065
 30
0.0
 11
1.0
 21
0.0
 31
0.0
 44
0.9
  1
Body Type
 40
0.125
 41
1.8
  0
MTEXT
  5
268
100
AcDbEntity
  8
0
100
AcDbMText
 62
2
  6
CONTINUOUS
  7
STANDARD
 71
2
 72
1
 10
6.055
 20
-0.9065
 30
0.0
 11
1.0
 21
0.0
 31
0.0
 44
0.9
  1
Sandwich
 40
0.125
 41
1.6
  0
MTEXT
  5
269
100
AcDbEntity
  8
0
100
AcDbMText
 62
2
  6
CONTINUOUS
  7
STANDARD
 71
2
 72
1
 10
1.5275
 20
-1.1565
 30
0.0
 11
1.0
 21
0.0
 31
0.0
 44
0.9
  1
Interface
 40
0.125
 41
1.8
  0
MTEXT
  5
26A
100
AcDbEntity
  8
0
100
AcDbMText
 62
2
  6
CONTINUOUS
  7
STANDARD
 71
2
 72
1
 10
6.055
 20
-1.1565
 30
0.0
 11
1.0
 21
0.0
 31
0.0
 44
0.9
  1
ISO 03
 40
0.125
 41
1.2
  0
MTEXT
  5
26B
100
AcDbEntity
  8
0
100
AcDbMText
 62
2
  6
CONTINUOUS
  7
STANDARD
 71
2
 72
1
 10
1.5275
 20
-1.4065
 30
0.0
 11
1.0
 21
0.0
 31
0.0
 44
0.9
  1
Open Cavity Quantity
 40
0.125
 41
4.0
  0
MTEXT
  5
26C
100
AcDbEntity
  8
0
100
AcDbMText
 62
2
  6
CONTINUOUS
  7
STANDARD
 71
2
 72
1
 10
6.055
 20
-1.4065
 30
0.0
 11
1.0
 21
0.0
 31
0.0
 44
0.9
  1
1
 40
0.125
 41
0.2
  0
MTEXT
  5
26D
100
AcDbEntity
  8
0
100
AcDbMText
 62
2
  6
CONTINUOUS
  7
STANDARD
 71
2
 72
1
 10
1.5275
 20
-1.6565
 30
0.0
 11
1.0
 21
0.0
 31
0.0
 44
0.9
  1
Stack Height
 40
0.125
 41
2.4
  0
MTEXT
  5
26E
100
AcDbEntity
  8
0
100
AcDbMText
 62
2
  6
CONTINUOUS
  7
STANDARD
 71
2
 72
1
 10
4.555
 20
-1.6565
 30
0.0
 11
1.0
 21
0.0
 31
0.0
 44
0.9
  1
1.75 in.
 40
0.125
 41
1.6
  0
MTEXT
  5
26F
100
AcDbEntity
  8
0
100
AcDbMText
 62
2
  6
CONTINUOUS
  7
STANDARD
 71
2
 72
1
 10
7.555
 20
-1.6565
 30
0.0
 11
1.0
 21
0.0
 31
0.0
 44
0.9
  1
44,5 mm
 40
0.125
 41
1.4
  0
MTEXT
  5
270
100
AcDbEntity
  8
0
100
AcDbMText
 62
2
  6
CONTINUOUS
  7
STANDARD
 71
2
 72
1
 10
1.5275
 20
-1.9065
 30
0.0
 11
1.0
 21
0.0
 31
0.0
 44
0.9
  1
Weight
 40
0.125
 41
1.2
  0
MTEXT
  5
271
100
AcDbEntity
  8
0
100
AcDbMText
 62
2
  6
CONTINUOUS
  7
STANDARD
 71
2
 72
1
 10
4.555
 20
-1.9065
 30
0.0
 11
1.0
 21
0.0
 31
0.0
 44
0.9
  1
0.678 lb.
 40
0.125
 41
1.8
  0
MTEXT
  5
272
100
AcDbEntity
  8
0
100
AcDbMText
 62
2
  6
CONTINUOUS
  7
STANDARD
 71
2
 72
1
 10
7.555
 20
-1.9065
 30
0.0
 11
1.0
 21
0.0
 31
0.0
 44
0.9
  1
0,307 kg.
 40
0.125
 41
1.8
  0
MTEXT
  5
273
100
AcDbEntity
  8
0
100
AcDbMText
 62
2
  6
CONTINUOUS
  7
STANDARD
 71
2
 72
1
 10
1.5275
 20
-2.1565
 30
0.0
 11
1.0
 21
0.0
 31
0.0
 44
0.9
  1
Seal Plate Included (see notes)
 40
0.125
 41
6.2
  0
MTEXT
  5
274
100
AcDbEntity
  8
0
100
AcDbMText
 62
2
  6
CONTINUOUS
  7
STANDARD
 71
2
 72
1
 10
6.055
 20
-2.1565
 30
0.0
 11
1.0
 21
0.0
 31
0.0
 44
0.9
  1
Yes
 40
0.125
 41
0.6
  0
ENDBLK
  5
275
100
AcDbEntity
  8
0
  6
BYBLOCK
 62
0
100
AcDbBlockEnd
  0
BLOCK
  5
276
100
AcDbEntity
  8
0
100
AcDbBlockBegin
  2
*T3
 70
1
 10
0.0
 20
0.0
  3
*T3
  1

  0
LINE
  5
277
100
AcDbEntity
  8
0
100
AcDbLine
 62
2
  6
CONTINUOUS
 10
0.0
 20
0.0
 11
4.6
 21
0.0
  0
LINE
  5
278
100
AcDbEntity
  8
0
100
AcDbLine
 62
2
  6
CONTINUOUS
 10
0.0
 20
0.0
 11
0.0
 21
-0.93775
  0
LINE
  5
279
100
AcDbEntity
  8
0
100
AcDbLine
 62
2
  6
CONTINUOUS
 10
0.0
 20
-0.34375
 11
4.6
 21
-0.34375
  0
LINE
  5
27A
100
AcDbEntity
  8
0
100
AcDbLine
 62
2
  6
CONTINUOUS
 10
0.0
 20
-0.68775
 11
4.6
 21
-0.68775
  0
LINE
  5
27B
100
AcDbEntity
  8
0
100
AcDbLine
 62
2
  6
CONTINUOUS
 10
0.0
 20
-0.93775
 11
4.6
 21
-0.93775
  0
LINE
  5
27C
100
AcDbEntity
  8
0
100
AcDbLine
 62
2
  6
CONTINUOUS
 10
1.3
 20
-0.34375
 11
1.3
 21
-0.93775
  0
LINE
  5
27D
100
AcDbEntity
  8
0
100
AcDbLine
 62
2
  6
CONTINUOUS
 10
3.3
 20
-0.34375
 11
3.3
 21
-0.93775
  0
LINE
  5
27E
100
AcDbEntity
  8
0
100
AcDbLine
 62
2
  6
CONTINUOUS
 10
4.6
 20
0.0
 11
4.6
 21
-0.93775
  0
MTEXT
  5
27F
100
AcDbEntity
  8
0
100
AcDbMText
 62
2
  6
CONTINUOUS
  7
STANDARD
 71
2
 72
1
 10
2.3
 20
-0.099375
 30
0.0
 11
1.0
 21
0.0
 31
0.0
 44
0.9
  1
Port Headings
 40
0.145
 41
3.016
  0
MTEXT
  5
280
100
AcDbEntity
  8
0
100
AcDbMText
 62
2
  6
CONTINUOUS
  7
STANDARD
 71
2
 72
1
 10
0.65
 20
-0.44325
 30
0.0
 11
1.0
 21
0.0
 31
0.0
 44
0.9
  1
Product
 40
0.145
 41
1.624
  0
MTEXT
  5
281
100
AcDbEntity
  8
0
100
AcDbMText
 62
2
  6
CONTINUOUS
  7
STANDARD
 71
2
 72
1
 10
2.3
 20
-0.44325
 30
0.0
 11
1.0
 21
0.0
 31
0.0
 44
0.9
  1
Port
 40
0.145
 41
0.928
  0
MTEXT
  5
282
100
AcDbEntity
  8
0
100
AcDbMText
 62
2
  6
CONTINUOUS
  7
STANDARD
 71
2
 72
1
 10
3.95
 20
-0.44325
 30
0.0
 11
1.0
 21
0.0
 31
0.0
 44
0.9
  1
Size
 40
0.145
 41
0.928
  0
MTEXT
  5
283
100
AcDbEntity
  8
0
100
AcDbMText
 62
2
  6
CONTINUOUS
  7
STANDARD
 71
2
 72
1
 10
0.65
 20
-0.75025
 30
0.0
 11
1.0
 21
0.0
 31
0.0
 44
0.9
  1
EBP
 40
0.125
 41
0.6
  0
MTEXT
  5
284
100
AcDbEntity
  8
0
100
AcDbMText
 62
2
  6
CONTINUOUS
  7
STANDARD
 71
2
 72
1
 10
2.3
 20
-0.75025
 30
0.0
 11
1.0
 21
0.0
 31
0.0
 44
0.9
  1
Gage Port (Plugged)
 40
0.125
 41
3.8
  0
MTEXT
  5
285
100
AcDbEntity
  8
0
100
AcDbMText
 62
2
  6
CONTINUOUS
  7
STANDARD
 71
2
 72
1
 10
3.95
 20
-0.75025
 30
0.0
 11
1.0
 21
0.0
 31
0.0
 44
0.9
  1
1/4" NPTF
 40
0.125
 41
1.8
  0
ENDBLK
  5
286
100
AcDbEntity
  8
0
  6
BYBLOCK
 62
0
100
AcDbBlockEnd
  0
ENDSEC
  0
SECTION
  2
ENTITIES
  0
IMAGE
  5
287
100
AcDbEntity
  8
0
100
AcDbRasterImage
 62
7
  6
CONTINUOUS
 10
19.2297077316
 20
0.3094318264
 30
0.0
 11
0.0066666667
 21
0.0
 31
0.0
 12
0.0
 22
0.0066666667
 32
0.0
 13
369.0
 23
92.0
340
       30F
 70
9
280
0
281
50
282
50
283
0
360
       309
 71
1
 91
2
 14
-0.5
 24
-0.5
 14
368.5
 24
91.5
  0
INSERT
  5
288
100
AcDbEntity
  8
0
100
AcDbBlockReference
 62
2
  6
CONTINUOUS
  2
SUN_FIRST_THIRD_ANGLE_BL0
 10
20.4816717061
 20
1.2289683772
  0
ACAD_TABLE
  5
289
100
AcDbEntity
  8
0
 62
2
  6
CONTINUOUS
100
AcDbBlockReference
  2
*T1
 10
12.42375
 20
0.30125
 30
0.0
100
AcDbTable
342
       311
343
212
 11
1.0
 21
0.0
 31
0.0
 90
6
 91
4
 92
6
 93
20
 94
0
 95
0
 96
0
 70
1
 41
0.0
141
0.525
141
0.1
141
0.525
141
0.1
142
4.1
142
1.1
142
0.7
142
0.5
142
0.4
142
2.475
171
1
172
0
173
0
174
0
175
1
176
1
 91
33
178
0
145
0.0
301
CELL_VALUE
 90
4
  1
T-11A Sandwich ISO 03\POn P, port 3 to T
304
ACVALUE_END
170
2
140
0.125
171
1
172
0
173
0
174
0
175
1
176
1
 91
33
178
0
145
0.0
301
CELL_VALUE
 90
4
  1
Aug-28-19
304
ACVALUE_END
170
5
140
0.125
171
1
172
0
173
0
174
0
175
1
176
1
 91
33
178
0
145
0.0
301
CELL_VALUE
 90
4
  1
2.000
304
ACVALUE_END
170
5
140
0.125
171
1
172
0
173
0
174
0
175
1
176
1
 91
33
178
0
145
0.0
301
CELL_VALUE
 90
4
  1
C
304
ACVALUE_END
170
5
140
0.125
171
1
172
0
173
0
174
0
175
1
176
1
 91
33
178
0
145
0.0
301
CELL_VALUE
 90
4
  1
2
304
ACVALUE_END
170
5
140
0.125
171
1
172
0
173
0
174
0
175
1
176
1
 91
33
178
0
145
0.0
301
CELL_VALUE
 90
4
  1
 
304
ACVALUE_END
170
1
140
0.125
171
1
172
0
173
0
174
0
175
1
176
1
 91
33
178
0
145
0.0
301
CELL_VALUE
 90
4
  1
DESCRIPTION
304
ACVALUE_END
170
1
140
0.06
171
1
172
0
173
0
174
0
175
1
176
1
 91
33
178
0
145
0.0
301
CELL_VALUE
 90
4
  1
DATE
304
ACVALUE_END
170
1
140
0.06
171
1
172
0
173
0
174
0
175
1
176
1
 91
33
178
0
145
0.0
301
CELL_VALUE
 90
4
  1
SCALE
304
ACVALUE_END
170
1
140
0.06
171
1
172
0
173
0
174
0
175
1
176
1
 91
33
178
0
145
0.0
301
CELL_VALUE
 90
4
  1
DWG SIZE
304
ACVALUE_END
170
1
140
0.06
171
1
172
0
173
0
174
0
175
1
176
1
 91
33
178
0
145
0.0
301
CELL_VALUE
 90
4
  1
SHEET
304
ACVALUE_END
170
1
140
0.06
171
1
172
0
173
0
174
0
175
1
176
1
 91
33
178
0
145
0.0
301
CELL_VALUE
 90
4
  1
 
304
ACVALUE_END
170
1
140
0.125
171
1
172
0
173
0
174
0
175
1
176
1
 91
33
178
0
145
0.0
301
CELL_VALUE
 90
4
  1
EBP
304
ACVALUE_END
170
5
140
0.125
171
1
172
0
173
0
174
0
175
4
176
1
 91
33
178
0
145
0.0
301
CELL_VALUE
 90
4
  1
ALL DIMENSIONS IN INCH\PVIEWS ARE THIRD ANGLE
304
ACVALUE_END
170
5
140
0.12
171
1
172
0
173
1
174
0
175
1
176
1
 91
1
178
0
145
0.0
170
1
171
1
172
0
173
1
174
0
175
1
176
1
 91
1
178
0
145
0.0
170
1
171
1
172
0
173
1
174
0
175
1
176
1
 91
1
178
0
145
0.0
170
5
171
1
172
0
173
0
174
0
175
1
176
1
 91
33
178
0
145
0.0
301
CELL_VALUE
 90
4
  1
 
304
ACVALUE_END
170
1
140
0.125
171
1
172
0
173
0
174
0
175
1
176
1
 91
33
178
0
145
0.0
301
CELL_VALUE
 90
4
  1
MODEL
304
ACVALUE_END
170
1
140
0.06
171
1
172
0
173
0
174
0
175
1
176
1
 91
33
178
0
145
0.0
301
CELL_VALUE
 90
4
  1
 
304
ACVALUE_END
170
1
140
0.125
171
1
172
0
173
0
174
0
175
1
176
1
 91
33
178
0
145
0.0
301
CELL_VALUE
 90
4
  1
 
304
ACVALUE_END
170
1
140
0.125
171
1
172
0
173
0
174
0
175
1
176
1
 91
33
178
0
145
0.0
301
CELL_VALUE
 90
4
  1
 
304
ACVALUE_END
170
1
140
0.125
171
1
172
0
173
0
174
0
175
1
176
1
 91
33
178
0
145
0.0
301
CELL_VALUE
 90
4
  1
 
304
ACVALUE_END
170
1
140
0.125
171
1
172
0
173
0
174
0
175
1
176
1
 91
33
178
0
145
0.0
301
CELL_VALUE
 90
4
  1
 
304
ACVALUE_END
170
1
140
0.125
  0
ACAD_TABLE
  5
28A
100
AcDbEntity
  8
0
 62
2
  6
CONTINUOUS
100
AcDbBlockReference
  2
*T2
 10
12.4237499994
 20
16.47875
 30
0.0
100
AcDbTable
342
       310
343
213
 11
1.0
 21
0.0
 31
0.0
 90
22
 91
9
 92
3
 93
16
 94
0
 95
0
 96
0
 41
0.028
141
0.344
141
0.25
141
0.25
141
0.25
141
0.25
141
0.25
141
0.25
141
0.25
141
0.25
142
3.055
142
3.0
142
3.0
171
1
172
0
173
0
174
0
175
1
176
1
 91
33
178
0
145
0.0
301
CELL_VALUE
 90
4
  1
Technical Data
304
ACVALUE_END
170
5
140
0.145
171
1
172
0
173
0
174
0
175
1
176
1
 91
33
178
0
145
0.0
301
CELL_VALUE
 90
4
  1
U.S. Units
304
ACVALUE_END
170
5
140
0.145
171
1
172
0
173
0
174
0
175
1
176
1
 91
33
178
0
145
0.0
301
CELL_VALUE
 90
4
  1
Metric Units
304
ACVALUE_END
170
5
140
0.145
171
1
172
0
173
0
174
0
175
1
176
1
 91
33
178
0
145
0.0
301
CELL_VALUE
 90
4
  1
Cavity
304
ACVALUE_END
170
5
140
0.125
171
1
172
0
173
0
174
0
175
2
176
1
 91
33
178
0
145
0.0
301
CELL_VALUE
 90
4
  1
T-11A
304
ACVALUE_END
170
5
140
0.125
171
1
172
0
173
1
174
0
175
1
176
1
 91
1
178
0
145
0.0
170
1
171
1
172
0
173
0
174
0
175
1
176
1
 91
33
178
0
145
0.0
301
CELL_VALUE
 90
4
  1
Body Features
304
ACVALUE_END
170
5
140
0.125
171
1
172
0
173
0
174
0
175
2
176
1
 91
33
178
0
145
0.0
301
CELL_VALUE
 90
4
  1
On P, port 3 to T
304
ACVALUE_END
170
5
140
0.125
171
1
172
0
173
1
174
0
175
1
176
1
 91
1
178
0
145
0.0
170
1
171
1
172
0
173
0
174
0
175
1
176
1
 91
33
178
0
145
0.0
301
CELL_VALUE
 90
4
  1
Body Type
304
ACVALUE_END
170
5
140
0.125
171
1
172
0
173
0
174
0
175
2
176
1
 91
33
178
0
145
0.0
301
CELL_VALUE
 90
4
  1
Sandwich
304
ACVALUE_END
170
5
140
0.125
171
1
172
0
173
1
174
0
175
1
176
1
 91
1
178
0
145
0.0
170
1
171
1
172
0
173
0
174
0
175
1
176
1
 91
33
178
0
145
0.0
301
CELL_VALUE
 90
4
  1
Interface
304
ACVALUE_END
170
5
140
0.125
171
1
172
0
173
0
174
0
175
2
176
1
 91
33
178
0
145
0.0
301
CELL_VALUE
 90
4
  1
ISO 03
304
ACVALUE_END
170
5
140
0.125
171
1
172
0
173
1
174
0
175
1
176
1
 91
1
178
0
145
0.0
170
1
171
1
172
0
173
0
174
0
175
1
176
1
 91
33
178
0
145
0.0
301
CELL_VALUE
 90
4
  1
Open Cavity Quantity
304
ACVALUE_END
170
5
140
0.125
171
1
172
0
173
0
174
0
175
2
176
1
 91
33
178
0
145
0.0
301
CELL_VALUE
 90
4
  1
1
304
ACVALUE_END
170
5
140
0.125
171
1
172
0
173
1
174
0
175
1
176
1
 91
1
178
0
145
0.0
170
1
171
1
172
0
173
0
174
0
175
1
176
1
 91
33
178
0
145
0.0
301
CELL_VALUE
 90
4
  1
Stack Height
304
ACVALUE_END
170
5
140
0.125
171
1
172
0
173
0
174
0
175
1
176
1
 91
33
178
0
145
0.0
301
CELL_VALUE
 90
4
  1
1.75 in.
304
ACVALUE_END
170
5
140
0.125
171
1
172
0
173
0
174
0
175
1
176
1
 91
33
178
0
145
0.0
301
CELL_VALUE
 90
4
  1
44,5 mm
304
ACVALUE_END
170
5
140
0.125
171
1
172
0
173
0
174
0
175
1
176
1
 91
33
178
0
145
0.0
301
CELL_VALUE
 90
4
  1
Weight
304
ACVALUE_END
170
5
140
0.125
171
1
172
0
173
0
174
0
175
1
176
1
 91
33
178
0
145
0.0
301
CELL_VALUE
 90
4
  1
0.678 lb.
304
ACVALUE_END
170
5
140
0.125
171
1
172
0
173
0
174
0
175
1
176
1
 91
33
178
0
145
0.0
301
CELL_VALUE
 90
4
  1
0,307 kg.
304
ACVALUE_END
170
5
140
0.125
171
1
172
0
173
0
174
0
175
1
176
1
 91
33
178
0
145
0.0
301
CELL_VALUE
 90
4
  1
Seal Plate Included (see notes)
304
ACVALUE_END
170
5
140
0.125
171
1
172
0
173
0
174
0
175
2
176
1
 91
33
178
0
145
0.0
301
CELL_VALUE
 90
4
  1
Yes
304
ACVALUE_END
170
5
140
0.125
171
1
172
0
173
1
174
0
175
1
176
1
 91
1
178
0
145
0.0
170
1
  0
ACAD_TABLE
  5
28B
100
AcDbEntity
  8
0
 62
2
  6
CONTINUOUS
100
AcDbBlockReference
  2
*T3
 10
0.52125
 20
1.459
 30
0.0
100
AcDbTable
342
       310
343
214
 11
1.0
 21
0.0
 31
0.0
 90
22
 91
3
 92
3
 93
16
 94
0
 95
0
 96
0
 41
0.05
141
0.34375
141
0.344
141
0.25
142
1.3
142
2.0
142
1.3
171
1
172
0
173
0
174
0
175
3
176
1
 91
33
178
0
145
0.0
301
CELL_VALUE
 90
4
  1
Port Headings
304
ACVALUE_END
170
5
140
0.145
171
1
172
0
173
1
174
0
175
1
176
1
 91
1
178
0
145
0.0
170
1
171
1
172
0
173
1
174
0
175
1
176
1
 91
1
178
0
145
0.0
170
1
171
1
172
0
173
0
174
0
175
1
176
1
 91
33
178
0
145
0.0
301
CELL_VALUE
 90
4
  1
Product
304
ACVALUE_END
170
5
140
0.145
171
1
172
0
173
0
174
0
175
1
176
1
 91
33
178
0
145
0.0
301
CELL_VALUE
 90
4
  1
Port
304
ACVALUE_END
170
5
140
0.145
171
1
172
0
173
0
174
0
175
1
176
1
 91
33
178
0
145
0.0
301
CELL_VALUE
 90
4
  1
Size
304
ACVALUE_END
170
5
140
0.145
171
1
172
0
173
0
174
0
175
1
176
1
 91
33
178
0
145
0.0
301
CELL_VALUE
 90
4
  1
EBP
304
ACVALUE_END
170
5
140
0.125
171
1
172
0
173
0
174
0
175
1
176
1
 91
33
178
0
145
0.0
301
CELL_VALUE
 90
4
  1
Gage Port (Plugged)
304
ACVALUE_END
170
5
140
0.125
171
1
172
0
173
0
174
0
175
1
176
1
 91
33
178
0
145
0.0
301
CELL_VALUE
 90
4
  1
1/4" NPTF
304
ACVALUE_END
170
5
140
0.125
  0
MTEXT
  5
28C
100
AcDbEntity
  8
0
100
AcDbMText
 62
2
  6
CONTINUOUS
  7
STANDARD
 71
1
 72
1
 10
0.52125
 20
5.75995
 30
0.0
 11
1.0
 21
0.0
 31
0.0
 44
0.6
  3
Notes\P \P1. Stack height value in technical\P   data table includes seal retainer\P   plate.\P2. Important: Carefully consider\P   the maximum system pressure. The\P   pressure rating of the manifold is\P   dependent on the manifold material,\P   wi
  3
th the port type/size a secondary\P   consideration. Manifolds\P   constructed of aluminum are not\P   rated for pressures higher than\P   3000 psi (210 bar), regardless of\P   the port type/size specified.\P3. Items without balloons are\P   shipped 
  1
loose.
 40
0.1
 41
3.04
  0
LINE
  5
28D
100
AcDbEntity
  8
0
100
AcDbLine
 62
7
  6
CONTINUOUS
 10
0.30125
 20
0.30125
 11
0.30125
 21
16.69875
  0
LINE
  5
28E
100
AcDbEntity
  8
0
100
AcDbLine
 62
7
  6
CONTINUOUS
 10
0.30125
 20
0.30125
 11
21.69875
 21
0.30125
  0
LINE
  5
28F
100
AcDbEntity
  8
0
100
AcDbLine
 62
7
  6
CONTINUOUS
 10
0.30125
 20
16.69875
 11
21.69875
 21
16.69875
  0
LINE
  5
290
100
AcDbEntity
  8
0
100
AcDbLine
 62
7
  6
CONTINUOUS
 10
21.69875
 20
0.30125
 11
21.69875
 21
16.69875
  0
LINE
  5
291
100
AcDbEntity
  8
0
100
AcDbLine
 62
7
  6
CONTINUOUS
 10
7.7706271409
 20
9.9160917738
 11
7.7706271409
 21
6.5353511815
  0
LINE
  5
292
100
AcDbEntity
  8
0
100
AcDbLine
 62
7
  6
CONTINUOUS
 10
8.6506111927
 20
10.7660911465
 11
7.7706271409
 21
9.9160917738
  0
LINE
  5
293
100
AcDbEntity
  8
0
100
AcDbLine
 62
7
  6
CONTINUOUS
 10
7.7706271409
 20
6.5353511815
 11
12.1172933865
 21
6.2339088535
  0
LINE
  5
294
100
AcDbEntity
  8
0
100
AcDbLine
 62
7
  6
CONTINUOUS
 10
13.4203051918
 20
6.9841719816
 11
13.3443710194
 21
6.9728251991
  0
LINE
  5
295
100
AcDbEntity
  8
0
100
AcDbLine
 62
7
  6
CONTINUOUS
 10
12.279189704
 20
6.4958561084
 11
13.4865970934
 21
6.4121221216
  0
LINE
  5
296
100
AcDbEntity
  8
0
100
AcDbLine
 62
7
  6
CONTINUOUS
 10
13.3443710194
 20
6.9728251991
 11
12.13696363
 21
7.0565591859
  0
LINE
  5
297
100
AcDbEntity
  8
0
100
AcDbLine
 62
7
  6
CONTINUOUS
 10
10.0105944492
 20
8.896822864
 11
10.036469925
 21
8.8650076142
  0
LINE
  5
298
100
AcDbEntity
  8
0
100
AcDbLine
 62
7
  6
CONTINUOUS
 10
9.0057657314
 20
7.0102478811
 11
8.9022719843
 21
6.910280592
  0
LINE
  5
299
100
AcDbEntity
  8
0
100
AcDbLine
 62
7
  6
CONTINUOUS
 10
9.1793953031
 20
6.8303791009
 11
9.0759586373
 21
6.730466948
  0
LINE
  5
29A
100
AcDbEntity
  8
0
100
AcDbLine
 62
7
  6
CONTINUOUS
 10
12.9972774383
 20
10.4646488185
 11
12.1172933865
 21
9.6146494458
  0
LINE
  5
29B
100
AcDbEntity
  8
0
100
AcDbLine
 62
7
  6
CONTINUOUS
 10
12.3310777537
 20
9.7419433771
 11
12.7840107088
 21
10.179443042
  0
LINE
  5
29C
100
AcDbEntity
  8
0
100
AcDbLine
 62
7
  6
CONTINUOUS
 10
13.4203051918
 20
8.7576119037
 11
13.3443710194
 21
8.7462651212
  0
LINE
  5
29D
100
AcDbEntity
  8
0
100
AcDbLine
 62
7
  6
CONTINUOUS
 10
13.3443710194
 20
8.7462651212
 11
12.13696363
 21
8.8299991081
  0
LINE
  5
29E
100
AcDbEntity
  8
0
100
AcDbLine
 62
7
  6
CONTINUOUS
 10
13.5384851431
 20
9.6582093903
 11
13.9914180982
 21
10.0957090551
  0
LINE
  5
29F
100
AcDbEntity
  8
0
100
AcDbLine
 62
7
  6
CONTINUOUS
 10
13.5983725478
 20
9.5941687798
 11
14.051305503
 21
10.0316684447
  0
LINE
  5
2A0
100
AcDbEntity
  8
0
100
AcDbLine
 62
7
  6
CONTINUOUS
 10
12.1172933865
 20
9.6146494458
 11
12.1172933865
 21
6.2339088535
  0
LINE
  5
2A1
100
AcDbEntity
  8
0
100
AcDbLine
 62
7
  6
CONTINUOUS
 10
12.13696363
 20
7.0565591859
 11
12.13696363
 21
8.8299991081
  0
LINE
  5
2A2
100
AcDbEntity
  8
0
100
AcDbLine
 62
7
  6
CONTINUOUS
 10
7.7706271409
 20
9.9160917738
 11
12.1172933865
 21
9.6146494458
  0
LINE
  5
2A3
100
AcDbEntity
  8
0
100
AcDbLine
 62
7
  6
CONTINUOUS
 10
13.5384851431
 20
9.6582093903
 11
12.3310777537
 21
9.7419433771
  0
LINE
  5
2A4
100
AcDbEntity
  8
0
100
AcDbLine
 62
7
  6
CONTINUOUS
 10
13.9914180982
 20
10.0957090551
 11
12.7840107088
 21
10.179443042
  0
LINE
  5
2A5
100
AcDbEntity
  8
0
100
AcDbLine
 62
7
  6
CONTINUOUS
 10
12.8358987585
 20
10.2032015632
 11
14.0433061479
 21
10.1194675764
  0
LINE
  5
2A6
100
AcDbEntity
  8
0
100
AcDbLine
 62
7
  6
CONTINUOUS
 10
12.9972774383
 20
10.1920099138
 11
12.9972774383
 21
10.4646488185
  0
LINE
  5
2A7
100
AcDbEntity
  8
0
100
AcDbLine
 62
7
  6
CONTINUOUS
 10
8.6506111927
 20
10.7660911465
 11
12.9972774383
 21
10.4646488185
  0
LINE
  5
2A8
100
AcDbEntity
  8
0
100
AcDbLine
 62
7
  6
CONTINUOUS
 10
13.3443710194
 20
6.9728251991
 11
13.3443710194
 21
8.7462651212
  0
LINE
  5
2A9
100
AcDbEntity
  8
0
100
AcDbLine
 62
7
  6
CONTINUOUS
 10
13.4203051918
 20
6.9841719816
 11
13.4203051918
 21
8.7576119037
  0
LINE
  5
2AA
100
AcDbEntity
  8
0
100
AcDbLine
 62
7
  6
CONTINUOUS
 10
12.1172933865
 20
6.2339088535
 11
12.3811599991
 21
6.4887844444
  0
LINE
  5
2AB
100
AcDbEntity
  8
0
100
AcDbLine
 62
7
  6
CONTINUOUS
 10
13.5983725478
 20
9.5941687798
 11
13.5384851431
 21
9.6582093903
  0
LINE
  5
2AC
100
AcDbEntity
  8
0
100
AcDbLine
 62
7
  6
CONTINUOUS
 10
14.2293728591
 20
9.5391113051
 11
14.2293728591
 21
7.7656713829
  0
LINE
  5
2AD
100
AcDbEntity
  8
0
100
AcDbLine
 62
7
  6
CONTINUOUS
 10
14.051305503
 20
6.9291145068
 11
13.5983725478
 21
6.491614842
  0
LINE
  5
2AE
100
AcDbEntity
  8
0
100
AcDbLine
 62
7
  6
CONTINUOUS
 10
13.5983725478
 20
6.491614842
 11
13.5966901626
 21
6.4900196432
  0
LINE
  5
2AF
100
AcDbEntity
  8
0
100
AcDbLine
 62
7
  6
CONTINUOUS
 10
13.5366527369
 20
6.4341429529
 11
13.5966916206
 21
6.490020801
  0
LINE
  5
2B0
100
AcDbEntity
  8
0
100
AcDbLine
 62
7
  6
CONTINUOUS
 10
14.051305503
 20
10.0316684447
 11
13.9914180982
 21
10.0957090551
  0
LINE
  5
2B1
100
AcDbEntity
  8
0
100
AcDbLine
 62
7
  6
CONTINUOUS
 10
14.0898429348
 20
10.0907480373
 11
14.1415938865
 21
10.0271175377
  0
ARC
  5
2B2
100
AcDbEntity
  8
0
100
AcDbCircle
 62
7
  6
CONTINUOUS
 10
10.6748749677
 20
8.6329953923
 40
0.7493118691
100
AcDbArc
 50
179.9848850005
 51
181.5025121316
  0
ARC
  5
2B3
100
AcDbEntity
  8
0
100
AcDbCircle
 62
7
  6
CONTINUOUS
 10
9.3247242948
 20
8.733267952
 40
0.73560815
100
AcDbArc
 50
352.2579112345
 51
359.9297775277
  0
ARC
  5
2B4
100
AcDbEntity
  8
0
100
AcDbCircle
 62
7
  6
CONTINUOUS
 10
10.5912594749
 20
8.6385340254
 40
0.627729352
100
AcDbArc
 50
179.9696574266
 51
182.5085702322
  0
ARC
  5
2B5
100
AcDbEntity
  8
0
100
AcDbCircle
 62
7
  6
CONTINUOUS
 10
9.9158314862
 20
8.8996244869
 40
0.2654854769
100
AcDbArc
 50
41.0762069588
 51
42.4066963931
  0
ARC
  5
2B6
100
AcDbEntity
  8
0
100
AcDbCircle
 62
7
  6
CONTINUOUS
 10
10.1056166332
 20
8.7215526348
 40
0.2367032485
100
AcDbArc
 50
72.4841180278
 51
86.0872118281
  0
ARC
  5
2B7
100
AcDbEntity
  8
0
100
AcDbCircle
 62
7
  6
CONTINUOUS
 10
9.0801688624
 20
6.8856919857
 40
0.1137217205
100
AcDbArc
 50
297.0769968024
 51
313.9874378238
  0
ARC
  5
2B8
100
AcDbEntity
  8
0
100
AcDbCircle
 62
7
  6
CONTINUOUS
 10
9.0575472659
 20
6.9091111031
 40
0.1137185738
100
AcDbArc
 50
134.0261681727
 51
150.8986504215
  0
ARC
  5
2B9
100
AcDbEntity
  8
0
100
AcDbCircle
 62
7
  6
CONTINUOUS
 10
13.7809134433
 20
9.0729171605
 40
0.0544400016
100
AcDbArc
 50
86.0566349313
 51
95.6632700316
  0
ARC
  5
2BA
100
AcDbEntity
  8
0
100
AcDbCircle
 62
7
  6
CONTINUOUS
 10
13.6693095869
 20
7.463649326
 40
0.0544268778
100
AcDbArc
 50
256.4795881355
 51
266.0099019959
  0
SPLINE
  5
2BB
100
AcDbEntity
  8
0
100
AcDbSpline
 62
7
  6
CONTINUOUS
 70
0
 71
3
 72
19
 73
15
 74
0
 42
0.0000001
 43
0.0000001
 44
0.0000000001
 40
0.0
 40
0.0
 40
0.0
 40
0.0
 40
0.1274213112
 40
0.2540909021
 40
0.3171104092
 40
0.3799139389
 40
0.4425195515
 40
0.5049467033
 40
0.6292970547
 40
0.6912946145
 40
0.7531813298
 40
0.8766607223
 40
0.9383420763
 40
1.0
 40
1.0
 40
1.0
 40
1.0
 10
8.9891153108
 20
6.6996330346
 30
0.0
 10
8.9931360444
 20
6.6993541958
 30
0.0
 10
9.0011870666
 20
6.6991989
 30
0.0
 10
9.0112021407
 20
6.7000175209
 30
0.0
 10
9.0190909872
 20
6.7012819213
 30
0.0
 10
9.024922037
 20
6.702528403
 30
0.0
 10
9.0306625413
 20
6.7040711364
 30
0.0
 10
9.0381655016
 20
6.7065145798
 30
0.0
 10
9.045448312
 20
6.7095402423
 30
0.0
 10
9.0524396757
 20
6.7131205483
 30
0.0
 10
9.0592066122
 20
6.7170542372
 30
0.0
 10
9.0656399642
 20
6.7215213005
 30
0.0
 10
9.0716761985
 20
6.7264765011
 30
0.0
 10
9.0745559238
 20
6.7291119813
 30
0.0
 10
9.0759585946
 20
6.7304669922
 30
0.0
  0
SPLINE
  5
2BC
100
AcDbEntity
  8
0
100
AcDbSpline
 62
7
  6
CONTINUOUS
 70
0
 71
3
 72
39
 73
35
 74
0
 42
0.0000001
 43
0.0000001
 44
0.0000000001
 40
0.0
 40
0.0
 40
0.0
 40
0.0
 40
0.0311222867
 40
0.0624317169
 40
0.0938913675
 40
0.1254764519
 40
0.1571804145
 40
0.1889958706
 40
0.2209080845
 40
0.2528957203
 40
0.2849372493
 40
0.3170116433
 40
0.3490969357
 40
0.38117169
 40
0.4132137917
 40
0.4452014252
 40
0.4771148878
 40
0.5089350628
 40
0.540644812
 40
0.5722298978
 40
0.6036774671
 40
0.6349782238
 40
0.6661259764
 40
0.6971168233
 40
0.7279513733
 40
0.7586328646
 40
0.7891676794
 40
0.819566429
 40
0.8498416233
 40
0.8800092737
 40
0.9100879712
 40
0.9400975999
 40
0.9700606975
 40
1.0
 40
1.0
 40
1.0
 40
1.0
 10
8.9891153108
 20
6.6996330346
 30
0.0
 10
8.9861690935
 20
6.6998373554
 30
0.0
 10
8.9802718277
 20
6.7004640775
 30
0.0
 10
8.9714953102
 20
6.7020397371
 30
0.0
 10
8.9628101451
 20
6.704246912
 30
0.0
 10
8.9542679124
 20
6.7070756524
 30
0.0
 10
8.9459131668
 20
6.7105074289
 30
0.0
 10
8.9377898272
 20
6.714526264
 30
0.0
 10
8.9299401235
 20
6.7191097323
 30
0.0
 10
8.9224052128
 20
6.7242323912
 30
0.0
 10
8.9152275404
 20
6.729869568
 30
0.0
 10
8.908443766
 20
6.7359887949
 30
0.0
 10
8.9020902231
 20
6.7425580909
 30
0.0
 10
8.8962020822
 20
6.7495435352
 30
0.0
 10
8.8908083531
 20
6.7569059561
 30
0.0
 10
8.8859398328
 20
6.7646077471
 30
0.0
 10
8.8816222082
 20
6.7726074113
 30
0.0
 10
8.8778767649
 20
6.7808615753
 30
0.0
 10
8.8747264744
 20
6.789327567
 30
0.0
 10
8.8721858284
 20
6.7979592185
 30
0.0
 10
8.8702686322
 20
6.8067108294
 30
0.0
 10
8.8689874046
 20
6.8155360369
 30
0.0
 10
8.8683458302
 20
6.82438729
 30
0.0
 10
8.8683497469
 20
6.8332177072
 30
0.0
 10
8.8689992012
 20
6.841979899
 30
0.0
 10
8.8702885395
 20
6.8506274113
 30
0.0
 10
8.8722143025
 20
6.8591135435
 30
0.0
 10
8.8747639632
 20
6.8673932422
 30
0.0
 10
8.8779238797
 20
6.8754225384
 30
0.0
 10
8.8816796492
 20
6.88315733
 30
0.0
 10
8.8860081284
 20
6.8905576267
 30
0.0
 10
8.8908882883
 20
6.8975830375
 30
0.0
 10
8.8962936888
 20
6.9041950283
 30
0.0
 10
8.9002286967
 20
6.9083066456
 30
0.0
 10
8.902272027
 20
6.9102805478
 30
0.0
  0
SPLINE
  5
2BD
100
AcDbEntity
  8
0
100
AcDbSpline
 62
7
  6
CONTINUOUS
 70
0
 71
3
 72
39
 73
35
 74
0
 42
0.0000001
 43
0.0000001
 44
0.0000000001
 40
0.0
 40
0.0
 40
0.0
 40
0.0
 40
0.0299393025
 40
0.0599024001
 40
0.0899120288
 40
0.1199907263
 40
0.1501583767
 40
0.180433571
 40
0.2108323206
 40
0.2413671354
 40
0.2720486267
 40
0.3028831767
 40
0.3338740236
 40
0.3650217762
 40
0.3963225329
 40
0.4277701022
 40
0.459355188
 40
0.4910649372
 40
0.5228851122
 40
0.5547985748
 40
0.5867862083
 40
0.61882831
 40
0.6509030643
 40
0.6829883567
 40
0.7150627507
 40
0.7471042797
 40
0.7790919155
 40
0.8110041294
 40
0.8428195855
 40
0.8745235481
 40
0.9061086325
 40
0.9375682831
 40
0.9688777133
 40
1.0
 40
1.0
 40
1.0
 40
1.0
 10
9.0759585946
 20
6.7304669922
 30
0.0
 10
9.0780019249
 20
6.7324408944
 30
0.0
 10
9.0819369328
 20
6.7365525117
 30
0.0
 10
9.0873423333
 20
6.7431645026
 30
0.0
 10
9.0922224932
 20
6.7501899133
 30
0.0
 10
9.0965509724
 20
6.75759021
 30
0.0
 10
9.1003067419
 20
6.7653250016
 30
0.0
 10
9.1034666584
 20
6.7733542978
 30
0.0
 10
9.1060163191
 20
6.7816339966
 30
0.0
 10
9.1079420821
 20
6.7901201287
 30
0.0
 10
9.1092314203
 20
6.7987676411
 30
0.0
 10
9.1098808747
 20
6.8075298329
 30
0.0
 10
9.1098847914
 20
6.81636025
 30
0.0
 10
9.1092432169
 20
6.8252115032
 30
0.0
 10
9.1079619894
 20
6.8340367106
 30
0.0
 10
9.1060447932
 20
6.8427883215
 30
0.0
 10
9.1035041472
 20
6.8514199731
 30
0.0
 10
9.1003538567
 20
6.8598859648
 30
0.0
 10
9.0966084133
 20
6.8681401288
 30
0.0
 10
9.0922907888
 20
6.876139793
 30
0.0
 10
9.0874222685
 20
6.883841584
 30
0.0
 10
9.0820285393
 20
6.8912040049
 30
0.0
 10
9.0761403985
 20
6.8981894491
 30
0.0
 10
9.0697868556
 20
6.9047587452
 30
0.0
 10
9.0630030812
 20
6.910877972
 30
0.0
 10
9.0558254088
 20
6.9165151488
 30
0.0
 10
9.0482904981
 20
6.9216378077
 30
0.0
 10
9.0404407944
 20
6.926221276
 30
0.0
 10
9.0323174548
 20
6.9302401111
 30
0.0
 10
9.0239627092
 20
6.9336718877
 30
0.0
 10
9.0154204765
 20
6.936500628
 30
0.0
 10
9.0067353114
 20
6.938707803
 30
0.0
 10
8.9979587939
 20
6.9402834626
 30
0.0
 10
8.9920615281
 20
6.9409101846
 30
0.0
 10
8.9891153108
 20
6.9411145055
 30
0.0
  0
SPLINE
  5
2BE
100
AcDbEntity
  8
0
100
AcDbSpline
 62
7
  6
CONTINUOUS
 70
0
 71
3
 72
53
 73
49
 74
0
 42
0.0000001
 43
0.0000001
 44
0.0000000001
 40
0.0
 40
0.0
 40
0.0
 40
0.0
 40
0.0311665194
 40
0.0621600774
 40
0.077582624
 40
0.0929521611
 40
0.1235396148
 40
0.1387769159
 40
0.1539794993
 40
0.184285396
 40
0.1994069459
 40
0.2145104539
 40
0.2296013031
 40
0.2446847568
 40
0.2597661458
 40
0.2748510795
 40
0.2899450759
 40
0.3050532397
 40
0.3201805033
 40
0.3353318707
 40
0.3657155604
 40
0.3809661215
 40
0.3962573959
 40
0.4269652511
 40
0.4578685902
 40
0.4889803098
 40
0.5203040138
 40
0.5518360088
 40
0.5835642425
 40
0.6154695157
 40
0.6475265262
 40
0.6636064868
 40
0.6797124643
 40
0.6958398926
 40
0.711983855
 40
0.7281393757
 40
0.7443016663
 40
0.760465896
 40
0.7766269986
 40
0.7927799231
 40
0.8089198692
 40
0.8411325835
 40
0.8732332001
 40
0.9051913525
 40
0.9369921479
 40
0.9528328255
 40
0.9686215647
 40
1.0
 40
1.0
 40
1.0
 40
1.0
 10
8.9808331082
 20
6.7132761954
 30
0.0
 10
8.9840616904
 20
6.7130522925
 30
0.0
 10
8.9905270219
 20
6.7129209505
 30
0.0
 10
8.9985723292
 20
6.7135518903
 30
0.0
 10
9.0049148897
 20
6.714535431
 30
0.0
 10
9.0111578599
 20
6.7158299675
 30
0.0
 10
9.0172765709
 20
6.7175927927
 30
0.0
 10
9.02321445
 20
6.7198131207
 30
0.0
 10
9.0290027691
 20
6.7223256317
 30
0.0
 10
9.0345783109
 20
6.7252788784
 30
0.0
 10
9.0398868595
 20
6.7286485967
 30
0.0
 10
9.0437235219
 20
6.7313770567
 30
0.0
 10
9.0474085565
 20
6.7343004147
 30
0.0
 10
9.0509334651
 20
6.7374115858
 30
0.0
 10
9.0542895577
 20
6.7407032856
 30
0.0
 10
9.057468036
 20
6.7441682842
 30
0.0
 10
9.0604618747
 20
6.7477976
 30
0.0
 10
9.0632641746
 20
6.7515821716
 30
0.0
 10
9.0658681906
 20
6.7555131758
 30
0.0
 10
9.069068484
 20
6.7609413789
 30
0.0
 10
9.0718454719
 20
6.7666246805
 30
0.0
 10
9.0741774431
 20
6.7725080689
 30
0.0
 10
9.076215083
 20
6.7785356464
 30
0.0
 10
9.07818813
 20
6.7862889722
 30
0.0
 10
9.0796157164
 20
6.7958268512
 30
0.0
 10
9.0800890221
 20
6.8055235097
 30
0.0
 10
9.0796093024
 20
6.8152847678
 30
0.0
 10
9.0781759478
 20
6.8250165493
 30
0.0
 10
9.0758083364
 20
6.8346261266
 30
0.0
 10
9.072525058
 20
6.8440197094
 30
0.0
 10
9.0690578674
 20
6.8515879435
 30
0.0
 10
9.0658641492
 20
6.8574469879
 30
0.0
 10
9.063260655
 20
6.8617376259
 30
0.0
 10
9.0604590142
 20
6.8659094342
 30
0.0
 10
9.0574659896
 20
6.8699525753
 30
0.0
 10
9.0542884752
 20
6.8738570658
 30
0.0
 10
9.0509334815
 20
6.8776129706
 30
0.0
 10
9.0474097812
 20
6.8812118749
 30
0.0
 10
9.043726028
 20
6.8846453061
 30
0.0
 10
9.0398908025
 20
6.8879049718
 30
0.0
 10
9.0345911092
 20
6.8920044859
 30
0.0
 10
9.0276362558
 20
6.8966562152
 30
0.0
 10
9.0188375095
 20
6.9014313109
 30
0.0
 10
9.0096712115
 20
6.9053488992
 30
0.0
 10
9.0017864759
 20
6.9078735065
 30
0.0
 10
8.9953834393
 20
6.9094274714
 30
0.0
 10
8.9889571831
 20
6.9106657182
 30
0.0
 10
8.984083643
 20
6.9112459315
 30
0.0
 10
8.9808331082
 20
6.9114713569
 30
0.0
  0
SPLINE
  5
2BF
100
AcDbEntity
  8
0
100
AcDbSpline
 62
7
  6
CONTINUOUS
 70
0
 71
3
 72
53
 73
49
 74
0
 42
0.0000001
 43
0.0000001
 44
0.0000000001
 40
0.0
 40
0.0
 40
0.0
 40
0.0
 40
0.0313784353
 40
0.0471671745
 40
0.0630078521
 40
0.0948086475
 40
0.1267667999
 40
0.1588674165
 40
0.1910801308
 40
0.2072200769
 40
0.2233730014
 40
0.239534104
 40
0.2556983337
 40
0.2718606243
 40
0.288016145
 40
0.3041601074
 40
0.3202875357
 40
0.3363935132
 40
0.3524734738
 40
0.3845304843
 40
0.4164357575
 40
0.4481639912
 40
0.4796959862
 40
0.5110196902
 40
0.5421314098
 40
0.5730347489
 40
0.6037426041
 40
0.6190338785
 40
0.6342844396
 40
0.6646681293
 40
0.6798194967
 40
0.6949467603
 40
0.7100549241
 40
0.7251489205
 40
0.7402338542
 40
0.7553152432
 40
0.7703986969
 40
0.7854895461
 40
0.8005930541
 40
0.815714604
 40
0.8460205007
 40
0.8612230841
 40
0.8764603852
 40
0.9070478389
 40
0.922417376
 40
0.9378399226
 40
0.9688334806
 40
1.0
 40
1.0
 40
1.0
 40
1.0
 10
8.9808331082
 20
6.7132761954
 30
0.0
 10
8.9775825733
 20
6.7135016208
 30
0.0
 10
8.9727090332
 20
6.7140818341
 30
0.0
 10
8.9662827771
 20
6.7153200809
 30
0.0
 10
8.9598797404
 20
6.7168740458
 30
0.0
 10
8.9519950049
 20
6.7193986531
 30
0.0
 10
8.9428287069
 20
6.7233162414
 30
0.0
 10
8.9340299605
 20
6.7280913371
 30
0.0
 10
8.9270751071
 20
6.7327430664
 30
0.0
 10
8.9217754139
 20
6.7368425805
 30
0.0
 10
8.9179401884
 20
6.7401022462
 30
0.0
 10
8.9142564352
 20
6.7435356774
 30
0.0
 10
8.9107327348
 20
6.7471345817
 30
0.0
 10
8.9073777412
 20
6.7508904865
 30
0.0
 10
8.9042002267
 20
6.754794977
 30
0.0
 10
8.9012072022
 20
6.7588381181
 30
0.0
 10
8.8984055613
 20
6.7630099264
 30
0.0
 10
8.8958020671
 20
6.7673005644
 30
0.0
 10
8.892608349
 20
6.7731596088
 30
0.0
 10
8.8891411584
 20
6.7807278429
 30
0.0
 10
8.88585788
 20
6.7901214257
 30
0.0
 10
8.8834902686
 20
6.799731003
 30
0.0
 10
8.882056914
 20
6.8094627845
 30
0.0
 10
8.8815771942
 20
6.8192240426
 30
0.0
 10
8.8820505
 20
6.8289207011
 30
0.0
 10
8.8834780863
 20
6.8384585801
 30
0.0
 10
8.8854511333
 20
6.8462119059
 30
0.0
 10
8.8874887733
 20
6.8522394834
 30
0.0
 10
8.8898207444
 20
6.8581228718
 30
0.0
 10
8.8925977324
 20
6.8638061734
 30
0.0
 10
8.8957980258
 20
6.8692343765
 30
0.0
 10
8.8984020418
 20
6.8731653807
 30
0.0
 10
8.9012043417
 20
6.8769499523
 30
0.0
 10
8.9041981804
 20
6.8805792681
 30
0.0
 10
8.9073766587
 20
6.8840442667
 30
0.0
 10
8.9107327513
 20
6.8873359665
 30
0.0
 10
8.9142576599
 20
6.8904471376
 30
0.0
 10
8.9179426945
 20
6.8933704956
 30
0.0
 10
8.9217793569
 20
6.8960989556
 30
0.0
 10
8.9270879054
 20
6.8994686739
 30
0.0
 10
8.9326634473
 20
6.9024219206
 30
0.0
 10
8.9384517664
 20
6.9049344316
 30
0.0
 10
8.9443896455
 20
6.9071547596
 30
0.0
 10
8.9505083565
 20
6.9089175848
 30
0.0
 10
8.9567513267
 20
6.9102121213
 30
0.0
 10
8.9630938872
 20
6.911195662
 30
0.0
 10
8.9711391945
 20
6.9118266018
 30
0.0
 10
8.977604526
 20
6.9116952598
 30
0.0
 10
8.9808331082
 20
6.9114713569
 30
0.0
  0
SPLINE
  5
2C0
100
AcDbEntity
  8
0
100
AcDbSpline
 62
7
  6
CONTINUOUS
 70
0
 71
3
 72
19
 73
15
 74
0
 42
0.0000001
 43
0.0000001
 44
0.0000000001
 40
0.0
 40
0.0
 40
0.0
 40
0.0
 40
0.0616579237
 40
0.1233392777
 40
0.2468186702
 40
0.3087053855
 40
0.3707029453
 40
0.4950532967
 40
0.5574804485
 40
0.6200860611
 40
0.6828895908
 40
0.7459090979
 40
0.8725786888
 40
1.0
 40
1.0
 40
1.0
 40
1.0
 10
8.902272027
 20
6.9102805478
 30
0.0
 10
8.9036746977
 20
6.9116355588
 30
0.0
 10
8.9065544231
 20
6.9142710389
 30
0.0
 10
8.9125906574
 20
6.9192262396
 30
0.0
 10
8.9190240094
 20
6.9236933029
 30
0.0
 10
8.9257909459
 20
6.9276269917
 30
0.0
 10
8.9327823096
 20
6.9312072977
 30
0.0
 10
8.94006512
 20
6.9342329603
 30
0.0
 10
8.9475680803
 20
6.9366764036
 30
0.0
 10
8.9533085846
 20
6.9382191371
 30
0.0
 10
8.9591396344
 20
6.9394656188
 30
0.0
 10
8.9670284809
 20
6.9407300191
 30
0.0
 10
8.977043555
 20
6.94154864
 30
0.0
 10
8.9850945772
 20
6.9413933443
 30
0.0
 10
8.9891153108
 20
6.9411145055
 30
0.0
  0
SPLINE
  5
2C1
100
AcDbEntity
  8
0
100
AcDbSpline
 62
7
  6
CONTINUOUS
 70
0
 71
3
 72
29
 73
25
 74
0
 42
0.0000001
 43
0.0000001
 44
0.0000000001
 40
0.0
 40
0.0
 40
0.0
 40
0.0
 40
0.085148798
 40
0.1685760363
 40
0.2498951247
 40
0.3287837462
 40
0.4049593025
 40
0.4781457919
 40
0.5480749779
 40
0.6144937392
 40
0.6771833021
 40
0.7359436316
 40
0.7637997474
 40
0.7906155762
 40
0.8163753399
 40
0.841065819
 40
0.8646793414
 40
0.8872116032
 40
0.9086612479
 40
0.9290306154
 40
0.9483285634
 40
0.9665721946
 40
0.9837853485
 40
1.0
 40
1.0
 40
1.0
 40
1.0
 10
10.0603284539
 20
8.7323663853
 30
0.0
 10
10.0603284539
 20
8.7362396095
 30
0.0
 10
10.0602622276
 20
8.7439079323
 30
0.0
 10
10.0599596345
 20
8.7552716763
 30
0.0
 10
10.0594552425
 20
8.7663432933
 30
0.0
 10
10.0587514627
 20
8.7770735298
 30
0.0
 10
10.057851432
 20
8.7874178938
 30
0.0
 10
10.0567588719
 20
8.79733389
 30
0.0
 10
10.0554789528
 20
8.8067798944
 30
0.0
 10
10.0540164126
 20
8.8157160498
 30
0.0
 10
10.0523784077
 20
8.8241047641
 30
0.0
 10
10.050846481
 20
8.8307231286
 30
0.0
 10
10.049531015
 20
8.8357127405
 30
0.0
 10
10.0485225567
 20
8.8392299877
 30
0.0
 10
10.0474756888
 20
8.8425854719
 30
0.0
 10
10.0463913382
 20
8.8457755985
 30
0.0
 10
10.0452707796
 20
8.8487971278
 30
0.0
 10
10.0441152372
 20
8.8516470413
 30
0.0
 10
10.0429259218
 20
8.8543223792
 30
0.0
 10
10.041703941
 20
8.8568202603
 30
0.0
 10
10.0404504615
 20
8.8591380661
 30
0.0
 10
10.0391668633
 20
8.8612736424
 30
0.0
 10
10.0378544813
 20
8.8632248114
 30
0.0
 10
10.0369342513
 20
8.8644367186
 30
0.0
 10
10.0364688551
 20
8.8650089179
 30
0.0
  0
SPLINE
  5
2C2
100
AcDbEntity
  8
0
100
AcDbSpline
 62
7
  6
CONTINUOUS
 70
0
 71
3
 72
16
 73
12
 74
0
 42
0.0000001
 43
0.0000001
 44
0.0000000001
 40
0.0
 40
0.0
 40
0.0
 40
0.0
 40
0.10903747
 40
0.2197976798
 40
0.3339138141
 40
0.4528672227
 40
0.5145906508
 40
0.5779931494
 40
0.71031075
 40
0.850743017
 40
1.0
 40
1.0
 40
1.0
 40
1.0
 10
9.9970677541
 20
8.9051706433
 30
0.0
 10
9.9976605335
 20
8.905129577
 30
0.0
 10
9.9988514245
 20
8.9049678751
 30
0.0
 10
10.0006123189
 20
8.9044910675
 30
0.0
 10
10.002351117
 20
8.9037811866
 30
0.0
 10
10.0037623204
 20
8.9030064598
 30
0.0
 10
10.0048758429
 20
8.9022781504
 30
0.0
 10
10.0060109644
 20
8.9014528049
 30
0.0
 10
10.0074142514
 20
8.9002711668
 30
0.0
 10
10.0090459607
 20
8.8986475323
 30
0.0
 10
10.0100811869
 20
8.897453721
 30
0.0
 10
10.0105944293
 20
8.8968227188
 30
0.0
  0
SPLINE
  5
2C3
100
AcDbEntity
  8
0
100
AcDbSpline
 62
7
  6
CONTINUOUS
 70
0
 71
3
 72
55
 73
51
 74
0
 42
0.0000001
 43
0.0000001
 44
0.0000000001
 40
0.0
 40
0.0
 40
0.0
 40
0.0
 40
0.0079602053
 40
0.0154463985
 40
0.0224978246
 40
0.0291628157
 40
0.0355000489
 40
0.0415795817
 40
0.0474822884
 40
0.0532968052
 40
0.0591160622
 40
0.0650330133
 40
0.0711357273
 40
0.0775034536
 40
0.0808096978
 40
0.0842071024
 40
0.0913008628
 40
0.0988346137
 40
0.1068456988
 40
0.1153633151
 40
0.1244102219
 40
0.1340039197
 40
0.144156326
 40
0.1548745727
 40
0.1661628802
 40
0.1780231812
 40
0.1904551233
 40
0.203454932
 40
0.2170170209
 40
0.2311347279
 40
0.2458004779
 40
0.2610048052
 40
0.2767361985
 40
0.3097300215
 40
0.344678242
 40
0.3814575763
 40
0.4199358857
 40
0.4599686344
 40
0.5014025725
 40
0.5440771996
 40
0.5878233317
 40
0.6324682982
 40
0.6778331723
 40
0.723736615
 40
0.7699915989
 40
0.8164089256
 40
0.8628050057
 40
0.9090010738
 40
0.9548049789
 40
1.0
 40
1.0
 40
1.0
 40
1.0
 10
10.0364688551
 20
8.8650089179
 30
0.0
 10
10.0360259184
 20
8.8655535035
 30
0.0
 10
10.0351324217
 20
8.8665833637
 30
0.0
 10
10.0337234172
 20
8.8679829047
 30
0.0
 10
10.032289458
 20
8.8691866463
 30
0.0
 10
10.0308316846
 20
8.8701929156
 30
0.0
 10
10.0293511507
 20
8.8709998513
 30
0.0
 10
10.0278492278
 20
8.8716054085
 30
0.0
 10
10.0263279956
 20
8.8720082827
 30
0.0
 10
10.0247898866
 20
8.8722073061
 30
0.0
 10
10.0232377102
 20
8.8722018285
 30
0.0
 10
10.0216743742
 20
8.8719916851
 30
0.0
 10
10.0201025959
 20
8.8715780916
 30
0.0
 10
10.0188036134
 20
8.8710716392
 30
0.0
 10
10.0177646797
 20
8.8705714317
 30
0.0
 10
10.0166953231
 20
8.8699900567
 30
0.0
 10
10.0153541963
 20
8.869132592
 30
0.0
 10
10.0137654698
 20
8.8679204706
 30
0.0
 10
10.0121757313
 20
8.866512428
 30
0.0
 10
10.0105864603
 20
8.8649101721
 30
0.0
 10
10.0089990688
 20
8.8631153035
 30
0.0
 10
10.0074152262
 20
8.8611294755
 30
0.0
 10
10.005836472
 20
8.8589547896
 30
0.0
 10
10.0042642942
 20
8.8565936894
 30
0.0
 10
10.0027003412
 20
8.8540486664
 30
0.0
 10
10.0011462899
 20
8.8513222758
 30
0.0
 10
9.9996039262
 20
8.8484172762
 30
0.0
 10
9.9980747486
 20
8.8453368791
 30
0.0
 10
9.9965603767
 20
8.8420844682
 30
0.0
 10
9.9950624424
 20
8.838663483
 30
0.0
 10
9.9935826667
 20
8.8350774536
 30
0.0
 10
9.9921226385
 20
8.83133021
 30
0.0
 10
9.9901732028
 20
8.8260400527
 30
0.0
 10
9.9878039265
 20
8.8190504745
 30
0.0
 10
9.9851072117
 20
8.8102168237
 30
0.0
 10
9.9825245606
 20
8.8008465748
 30
0.0
 10
9.9800678227
 20
8.7909799564
 30
0.0
 10
9.9777473338
 20
8.7806593693
 30
0.0
 10
9.9755732625
 20
8.7699291885
 30
0.0
 10
9.9735552608
 20
8.758835627
 30
0.0
 10
9.9717016473
 20
8.7474264934
 30
0.0
 10
9.970021058
 20
8.7357508951
 30
0.0
 10
9.9685201269
 20
8.7238590968
 30
0.0
 10
9.9672060203
 20
8.7118023949
 30
0.0
 10
9.9660838768
 20
8.6996331215
 30
0.0
 10
9.9651587979
 20
8.6874037187
 30
0.0
 10
9.9644347312
 20
8.6751659776
 30
0.0
 10
9.9639147961
 20
8.6629719892
 30
0.0
 10
9.9636015136
 20
8.6508769215
 30
0.0
 10
9.9635302109
 20
8.642851994
 30
0.0
 10
9.9635302109
 20
8.6388664569
 30
0.0
  0
SPLINE
  5
2C4
100
AcDbEntity
  8
0
100
AcDbSpline
 62
7
  6
CONTINUOUS
 70
0
 71
3
 72
48
 73
44
 74
0
 42
0.0000001
 43
0.0000001
 44
0.0000000001
 40
0.0
 40
0.0
 40
0.0
 40
0.0
 40
0.041759627
 40
0.0840321329
 40
0.1695086914
 40
0.2553464757
 40
0.298076766
 40
0.3405016252
 40
0.3824895182
 40
0.4239115075
 40
0.4646401806
 40
0.5045519516
 40
0.5435248288
 40
0.5814420929
 40
0.6181914876
 40
0.6536645113
 40
0.6877610203
 40
0.7203845841
 40
0.751448216
 40
0.7808730021
 40
0.8085878629
 40
0.8217866315
 40
0.8345374439
 40
0.8468345792
 40
0.8586736376
 40
0.8700520011
 40
0.8809679662
 40
0.891420818
 40
0.9014110551
 40
0.9109413591
 40
0.9200171205
 40
0.9286457851
 40
0.9368372073
 40
0.9446042006
 40
0.9519638288
 40
0.9589381352
 40
0.9655539775
 40
0.9718437594
 40
0.9778461969
 40
0.9836072476
 40
0.9891799065
 40
0.9946230169
 40
1.0
 40
1.0
 40
1.0
 40
1.0
 10
9.9255631248
 20
8.6331930657
 30
0.0
 10
9.9255631248
 20
8.6372586142
 30
0.0
 10
9.9256267272
 20
8.6454397841
 30
0.0
 10
9.9260019605
 20
8.6619386819
 30
0.0
 10
9.9269339743
 20
8.6827148723
 30
0.0
 10
9.9284643773
 20
8.7035001659
 30
0.0
 10
9.9300457364
 20
8.7200725627
 30
0.0
 10
9.931401548
 20
8.732376688
 30
0.0
 10
9.932924292
 20
8.7445329037
 30
0.0
 10
9.9346086591
 20
8.7565010685
 30
0.0
 10
9.9364495258
 20
8.768241635
 30
0.0
 10
9.93844024
 20
8.7797158313
 30
0.0
 10
9.9405745842
 20
8.7908856826
 30
0.0
 10
9.9428453486
 20
8.8017142626
 30
0.0
 10
9.9452447317
 20
8.8121658248
 30
0.0
 10
9.9477652681
 20
8.822205811
 30
0.0
 10
9.9503979312
 20
8.8318011678
 30
0.0
 10
9.9531344417
 20
8.8409202214
 30
0.0
 10
9.9559654975
 20
8.849533016
 30
0.0
 10
9.9588814269
 20
8.8576112354
 30
0.0
 10
9.9614140285
 20
8.8639751971
 30
0.0
 10
9.9634807364
 20
8.8687739057
 30
0.0
 10
9.9650206837
 20
8.8721643802
 30
0.0
 10
9.9665746142
 20
8.8754022581
 30
0.0
 10
9.9681413157
 20
8.8784848463
 30
0.0
 10
9.969719392
 20
8.881409738
 30
0.0
 10
9.9713075438
 20
8.8841746198
 30
0.0
 10
9.9729044629
 20
8.8867772042
 30
0.0
 10
9.9745089262
 20
8.8892152485
 30
0.0
 10
9.9761196897
 20
8.8914867314
 30
0.0
 10
9.9777353617
 20
8.8935899733
 30
0.0
 10
9.9793546761
 20
8.8955233656
 30
0.0
 10
9.9809763782
 20
8.8972853262
 30
0.0
 10
9.9825993414
 20
8.8988742698
 30
0.0
 10
9.9842224257
 20
8.9002888282
 30
0.0
 10
9.9858443845
 20
8.9015280038
 30
0.0
 10
9.9874641288
 20
8.9025907549
 30
0.0
 10
9.9890805726
 20
8.9034759762
 30
0.0
 10
9.9906926884
 20
8.9041823646
 30
0.0
 10
9.9922992247
 20
8.9047087843
 30
0.0
 10
9.9938987779
 20
8.9050545014
 30
0.0
 10
9.9954894415
 20
8.905218763
 30
0.0
 10
9.9965455245
 20
8.905206822
 30
0.0
 10
9.9970677541
 20
8.9051706433
 30
0.0
  0
SPLINE
  5
2C5
100
AcDbEntity
  8
0
100
AcDbSpline
 62
7
  6
CONTINUOUS
 70
0
 71
3
 72
38
 73
34
 74
0
 42
0.0000001
 43
0.0000001
 44
0.0000000001
 40
0.0
 40
0.0
 40
0.0
 40
0.0
 40
0.0980597763
 40
0.1926660594
 40
0.2833882126
 40
0.3271668876
 40
0.3698258458
 40
0.411319607
 40
0.4516052473
 40
0.4906417591
 40
0.5283912914
 40
0.564818461
 40
0.5998914527
 40
0.6335815174
 40
0.6658641295
 40
0.6967187223
 40
0.7261298862
 40
0.754087473
 40
0.7805879441
 40
0.8056350256
 40
0.8292413874
 40
0.8514301245
 40
0.8722370754
 40
0.8917134872
 40
0.909929319
 40
0.9269772517
 40
0.9429767451
 40
0.9580781557
 40
0.9724648537
 40
0.9794604671
 40
0.9863607044
 40
0.9931965644
 40
1.0
 40
1.0
 40
1.0
 40
1.0
 10
13.4690243209
 20
8.5368878089
 30
0.0
 10
13.469878351
 20
8.5415111987
 30
0.0
 10
13.4716513665
 20
8.5505779785
 30
0.0
 10
13.4745608637
 20
8.5638514174
 30
0.0
 10
13.4771750908
 20
8.5745220464
 30
0.0
 10
13.4793638874
 20
8.5827295984
 30
0.0
 10
13.4810280639
 20
8.5886336001
 30
0.0
 10
13.4827322115
 20
8.5943516526
 30
0.0
 10
13.4844741151
 20
8.5998764934
 30
0.0
 10
13.4862515933
 20
8.6052010826
 30
0.0
 10
13.4880623215
 20
8.6103186526
 30
0.0
 10
13.4899040311
 20
8.6152226949
 30
0.0
 10
13.491774321
 20
8.6199069929
 30
0.0
 10
13.4936708452
 20
8.6243656018
 30
0.0
 10
13.4955911433
 20
8.6285928893
 30
0.0
 10
13.4975328078
 20
8.6325835122
 30
0.0
 10
13.4994933411
 20
8.6363324591
 30
0.0
 10
13.5014702974
 20
8.6398350249
 30
0.0
 10
13.5034611751
 20
8.6430868523
 30
0.0
 10
13.5054635276
 20
8.6460839077
 30
0.0
 10
13.5074749032
 20
8.6488225128
 30
0.0
 10
13.5094929214
 20
8.6512993235
 30
0.0
 10
13.511515272
 20
8.6535113296
 30
0.0
 10
13.5135397479
 20
8.655455832
 30
0.0
 10
13.5155643091
 20
8.6571303615
 30
0.0
 10
13.5175869978
 20
8.6585326369
 30
0.0
 10
13.5196061026
 20
8.6596603447
 30
0.0
 10
13.5216193986
 20
8.6605111241
 30
0.0
 10
13.5233068764
 20
8.6609916152
 30
0.0
 10
13.5246427054
 20
8.6612300515
 30
0.0
 10
13.5256317509
 20
8.6613373237
 30
0.0
 10
13.526616619
 20
8.6613745501
 30
0.0
 10
13.527270866
 20
8.6613526507
 30
0.0
 10
13.5275962839
 20
8.66133008
 30
0.0
  0
SPLINE
  5
2C6
100
AcDbEntity
  8
0
100
AcDbSpline
 62
7
  6
CONTINUOUS
 70
0
 71
3
 72
51
 73
47
 74
0
 42
0.0000001
 43
0.0000001
 44
0.0000000001
 40
0.0
 40
0.0
 40
0.0
 40
0.0
 40
0.0379402632
 40
0.0762764997
 40
0.1149213842
 40
0.1537869344
 40
0.1927843797
 40
0.2318246289
 40
0.2708184438
 40
0.3096767285
 40
0.3483107779
 40
0.3866325404
 40
0.424554877
 40
0.4619918239
 40
0.4988588573
 40
0.5350731612
 40
0.5705539011
 40
0.605222504
 40
0.6390029488
 40
0.6718220699
 40
0.703609879
 40
0.7342999122
 40
0.7492137666
 40
0.7638300424
 40
0.7781416357
 40
0.7921416771
 40
0.8058236831
 40
0.8191814417
 40
0.8322091655
 40
0.8449013856
 40
0.8572531032
 40
0.869259699
 40
0.88091708
 40
0.8922216116
 40
0.9031702589
 40
0.9137605486
 40
0.9239907063
 40
0.9338596558
 40
0.9433671572
 40
0.952513854
 40
0.9613014175
 40
0.9697326559
 40
0.9778116763
 40
0.9855440691
 40
0.9929371035
 40
1.0
 40
1.0
 40
1.0
 40
1.0
 10
13.5750788483
 20
8.0203918236
 30
0.0
 10
13.5750788483
 20
8.0358113386
 30
0.0
 10
13.5752850276
 20
8.0668116595
 30
0.0
 10
13.5761988315
 20
8.1135097692
 30
0.0
 10
13.5777168287
 20
8.1605684485
 30
0.0
 10
13.5798353332
 20
8.2078728719
 30
0.0
 10
13.5825492057
 20
8.2553078158
 30
0.0
 10
13.5858518359
 20
8.3027576561
 30
0.0
 10
13.5897351769
 20
8.3501067617
 30
0.0
 10
13.5941897558
 20
8.3972397381
 30
0.0
 10
13.5992047007
 20
8.4440417235
 30
0.0
 10
13.6047677657
 20
8.4903986658
 30
0.0
 10
13.6108653608
 20
8.5361976031
 30
0.0
 10
13.6174825847
 20
8.5813269411
 30
0.0
 10
13.6246032604
 20
8.6256767267
 30
0.0
 10
13.6322099744
 20
8.669138919
 30
0.0
 10
13.6402841183
 20
8.7116076544
 30
0.0
 10
13.6488059334
 20
8.7529795137
 30
0.0
 10
13.6577545586
 20
8.7931537609
 30
0.0
 10
13.6671080784
 20
8.8320326587
 30
0.0
 10
13.6768435854
 20
8.8695214894
 30
0.0
 10
13.6853337816
 20
8.8998095335
 30
0.0
 10
13.6923084228
 20
8.9232695129
 30
0.0
 10
13.6975700724
 20
8.9402932608
 30
0.0
 10
13.7029089541
 20
8.9569032724
 30
0.0
 10
13.7083218951
 20
8.9730894434
 30
0.0
 10
13.7138055207
 20
8.9888419274
 30
0.0
 10
13.7193565496
 20
9.0041511328
 30
0.0
 10
13.7249715306
 20
9.0190077572
 30
0.0
 10
13.7306470991
 20
9.0334027585
 30
0.0
 10
13.7363797337
 20
9.0473273992
 30
0.0
 10
13.7421659954
 20
9.0607732112
 30
0.0
 10
13.7480023042
 20
9.0737320448
 30
0.0
 10
13.7538851553
 20
9.0861960297
 30
0.0
 10
13.7598109239
 20
9.0981576254
 30
0.0
 10
13.76577605
 20
9.109609582
 30
0.0
 10
13.7717768791
 20
9.120544989
 30
0.0
 10
13.7778098095
 20
9.1309572387
 30
0.0
 10
13.7838711765
 20
9.1408400686
 30
0.0
 10
13.789957355
 20
9.150187534
 30
0.0
 10
13.796064694
 20
9.1589940336
 30
0.0
 10
13.802189575
 20
9.1672543054
 30
0.0
 10
13.8083283788
 20
9.1749634001
 30
0.0
 10
13.8144775828
 20
9.182116795
 30
0.0
 10
13.8206334579
 20
9.1887099998
 30
0.0
 10
13.8248337116
 20
9.192821625
 30
0.0
 10
13.8269349447
 20
9.1947772388
 30
0.0
  0
SPLINE
  5
2C7
100
AcDbEntity
  8
0
100
AcDbSpline
 62
7
  6
CONTINUOUS
 70
0
 71
3
 72
27
 73
23
 74
0
 42
0.0000001
 43
0.0000001
 44
0.0000000001
 40
0.0
 40
0.0
 40
0.0
 40
0.0
 40
0.032399052
 40
0.0647283182
 40
0.0969776179
 40
0.1291450959
 40
0.1932114318
 40
0.2569218992
 40
0.2886477971
 40
0.3202827386
 40
0.3518273649
 40
0.3832829868
 40
0.4459215086
 40
0.508234243
 40
0.5702521903
 40
0.6320140399
 40
0.6935648996
 40
0.7549548856
 40
0.8162376319
 40
0.8774687775
 40
0.9387044802
 40
1.0
 40
1.0
 40
1.0
 40
1.0
 10
10.175332814
 20
7.3325287011
 30
0.0
 10
10.1765067048
 20
7.3293892012
 30
0.0
 10
10.1787270346
 20
7.3230694138
 30
0.0
 10
10.1816712705
 20
7.3134758507
 30
0.0
 10
10.1842206464
 20
7.3037943068
 30
0.0
 10
10.1870834899
 20
7.2908111954
 30
0.0
 10
10.1896604921
 20
7.2744465813
 30
0.0
 10
10.1908857867
 20
7.2579711197
 30
0.0
 10
10.1910465461
 20
7.2448230019
 30
0.0
 10
10.1907597365
 20
7.2350060083
 30
0.0
 10
10.1900669619
 20
7.2252372816
 30
0.0
 10
10.1886073747
 20
7.2123186507
 30
0.0
 10
10.1857834381
 20
7.1963651475
 30
0.0
 10
10.1808170816
 20
7.1776478366
 30
0.0
 10
10.1743192738
 20
7.1595010879
 30
0.0
 10
10.166341859
 20
7.1420411932
 30
0.0
 10
10.1569454923
 20
7.1253767074
 30
0.0
 10
10.1461988193
 20
7.1096093807
 30
0.0
 10
10.1341777352
 20
7.0948336202
 30
0.0
 10
10.1209639646
 20
7.0811360089
 30
0.0
 10
10.1066465954
 20
7.0685967856
 30
0.0
 10
10.0964320711
 20
7.0610607853
 30
0.0
 10
10.0911774802
 20
7.0575110865
 30
0.0
  0
SPLINE
  5
2C8
100
AcDbEntity
  8
0
100
AcDbSpline
 62
7
  6
CONTINUOUS
 70
0
 71
3
 72
38
 73
34
 74
0
 42
0.0000001
 43
0.0000001
 44
0.0000000001
 40
0.0
 40
0.0
 40
0.0
 40
0.0
 40
0.0308954102
 40
0.0619683819
 40
0.0775716185
 40
0.093214357
 40
0.1088943063
 40
0.1246089162
 40
0.1403556048
 40
0.1561313721
 40
0.171933445
 40
0.1877587074
 40
0.2194624784
 40
0.2512247584
 40
0.2830237385
 40
0.3148395002
 40
0.3466542821
 40
0.3784525347
 40
0.41022083
 40
0.4419476997
 40
0.5052213705
 40
0.536772401
 40
0.568252034
 40
0.6309645059
 40
0.6622060277
 40
0.6933624944
 40
0.7553996256
 40
0.7862916728
 40
0.8170938381
 40
0.8784138388
 40
0.9089461022
 40
0.9393895173
 40
1.0
 40
1.0
 40
1.0
 40
1.0
 10
9.250425542
 20
8.4295414951
 30
0.0
 10
9.2559252648
 20
8.429160088
 30
0.0
 10
9.266928556
 20
8.4279179999
 30
0.0
 10
9.2805184943
 20
8.4252029557
 30
0.0
 10
9.2912698448
 20
8.4223527843
 30
0.0
 10
9.2992717601
 20
8.4198783085
 30
0.0
 10
9.3071865462
 20
8.4170783368
 30
0.0
 10
9.3150019351
 20
8.4139615337
 30
0.0
 10
9.322706469
 20
8.4105378493
 30
0.0
 10
9.3302893971
 20
8.4068173185
 30
0.0
 10
9.3377412127
 20
8.4028109549
 30
0.0
 10
9.347495006
 20
8.3970999149
 30
0.0
 10
9.3593160073
 20
8.3893022433
 30
0.0
 10
9.3728461291
 20
8.3789913849
 30
0.0
 10
9.3856928575
 20
8.3678111087
 30
0.0
 10
9.3978272919
 20
8.355849779
 30
0.0
 10
9.4092304818
 20
8.3431906743
 30
0.0
 10
9.4198906265
 20
8.3299118669
 30
0.0
 10
9.4298021909
 20
8.3160848273
 30
0.0
 10
9.4420037719
 20
8.2970279654
 30
0.0
 10
9.4527267547
 20
8.2771055916
 30
0.0
 10
9.4619711178
 20
8.2565443944
 30
0.0
 10
9.4702192657
 20
8.2356708565
 30
0.0
 10
9.4770302369
 20
8.214313703
 30
0.0
 10
9.4824115705
 20
8.1926418336
 30
0.0
 10
9.486833976
 20
8.1708769904
 30
0.0
 10
9.4898580045
 20
8.1489112346
 30
0.0
 10
9.4914821364
 20
8.1268872995
 30
0.0
 10
9.4921740646
 20
8.1049425193
 30
0.0
 10
9.4914789815
 20
8.0830359845
 30
0.0
 10
9.4893820588
 20
8.0613088249
 30
0.0
 10
9.4863598207
 20
8.0398198781
 30
0.0
 10
9.4830309128
 20
8.0238873974
 30
0.0
 10
9.4803319474
 20
8.0134143295
 30
0.0
  0
SPLINE
  5
2C9
100
AcDbEntity
  8
0
100
AcDbSpline
 62
7
  6
CONTINUOUS
 70
0
 71
3
 72
40
 73
36
 74
0
 42
0.0000001
 43
0.0000001
 44
0.0000000001
 40
0.0
 40
0.0
 40
0.0
 40
0.0
 40
0.0311444947
 40
0.0624430116
 40
0.0938878326
 40
0.1254704216
 40
0.1571781344
 40
0.1889963661
 40
0.2209081245
 40
0.2528946404
 40
0.2689119976
 40
0.2849403504
 40
0.3170145907
 40
0.3491001014
 40
0.3811747228
 40
0.4132165051
 40
0.4452041336
 40
0.4771173445
 40
0.5089373259
 40
0.5406470987
 40
0.5722318701
 40
0.6036793542
 40
0.6349800517
 40
0.6661274822
 40
0.697118363
 40
0.7279527258
 40
0.7586339677
 40
0.7891688275
 40
0.8195672855
 40
0.8498423851
 40
0.8800099759
 40
0.9100883815
 40
0.9400979984
 40
0.9700608344
 40
1.0
 40
1.0
 40
1.0
 40
1.0
 10
10.8190891317
 20
6.9266773706
 30
0.0
 10
10.8227686554
 20
6.9264221948
 30
0.0
 10
10.8301299563
 20
6.9256412314
 30
0.0
 10
10.8410826348
 20
6.9236740647
 30
0.0
 10
10.8519180337
 20
6.9209185342
 30
0.0
 10
10.862577553
 20
6.9173896385
 30
0.0
 10
10.873004613
 20
6.9131061783
 30
0.0
 10
10.8831436416
 20
6.9080910808
 30
0.0
 10
10.8929403689
 20
6.9023713161
 30
0.0
 10
10.900773063
 20
6.8970447106
 30
0.0
 10
10.906817589
 20
6.8924635033
 30
0.0
 10
10.9127100992
 20
6.8876718579
 30
0.0
 10
10.9197674887
 20
6.8813056634
 30
0.0
 10
10.9276961523
 20
6.8731069002
 30
0.0
 10
10.9350455116
 20
6.8643897435
 30
0.0
 10
10.9417761259
 20
6.8552008599
 30
0.0
 10
10.9478521673
 20
6.8455891575
 30
0.0
 10
10.9532411947
 20
6.8356058657
 30
0.0
 10
10.9579144369
 20
6.8253041754
 30
0.0
 10
10.9618469152
 20
6.8147389831
 30
0.0
 10
10.9650175849
 20
6.803966596
 30
0.0
 10
10.967409446
 20
6.7930444381
 30
0.0
 10
10.9690096363
 20
6.7820307472
 30
0.0
 10
10.9698095026
 20
6.7709842698
 30
0.0
 10
10.9698046504
 20
6.7599639509
 30
0.0
 10
10.9689949748
 20
6.7490286232
 30
0.0
 10
10.9673846687
 20
6.7382366943
 30
0.0
 10
10.9649822031
 20
6.7276458361
 30
0.0
 10
10.9618002883
 20
6.7173126755
 30
0.0
 10
10.9578558191
 20
6.7072924948
 30
0.0
 10
10.9531697714
 20
6.6976389129
 30
0.0
 10
10.9477671682
 20
6.688403663
 30
0.0
 10
10.9416766844
 20
6.6796360489
 30
0.0
 10
10.934931482
 20
6.6713836374
 30
0.0
 10
10.9300200862
 20
6.6662528041
 30
0.0
 10
10.9274698883
 20
6.6637894948
 30
0.0
  0
SPLINE
  5
2CA
100
AcDbEntity
  8
0
100
AcDbSpline
 62
7
  6
CONTINUOUS
 70
0
 71
3
 72
42
 73
38
 74
0
 42
0.0000001
 43
0.0000001
 44
0.0000000001
 40
0.0
 40
0.0
 40
0.0
 40
0.0
 40
0.0311438942
 40
0.0624423672
 40
0.0938866334
 40
0.1254688884
 40
0.1571761972
 40
0.1889940414
 40
0.2209054133
 40
0.2528915406
 40
0.2849321764
 40
0.3170060194
 40
0.3490911298
 40
0.3811653513
 40
0.4132067372
 40
0.4451939736
 40
0.4771067941
 40
0.5089263835
 40
0.5406357617
 40
0.5722201374
 40
0.6036672265
 40
0.6349675315
 40
0.6661145727
 40
0.6971050657
 40
0.7279390408
 40
0.7586198955
 40
0.7891543699
 40
0.8195524461
 40
0.8498271685
 40
0.8649259233
 40
0.879999996
 40
0.910078031
 40
0.9400872769
 40
0.9550757892
 40
0.9700554665
 40
0.9850292167
 40
1.0
 40
1.0
 40
1.0
 40
1.0
 10
9.0688315109
 20
7.0229440759
 30
0.0
 10
9.0718977658
 20
7.0227314304
 30
0.0
 10
9.0780322068
 20
7.0220806122
 30
0.0
 10
9.0871594578
 20
7.020441323
 30
0.0
 10
9.0961889921
 20
7.01814501
 30
0.0
 10
9.1050719323
 20
7.0152042734
 30
0.0
 10
9.1137611796
 20
7.0116347013
 30
0.0
 10
9.1222103519
 20
7.0074554735
 30
0.0
 10
9.1303744442
 20
7.0026888836
 30
0.0
 10
9.1382099474
 20
6.9973603878
 30
0.0
 10
9.1456751152
 20
6.9914984207
 30
0.0
 10
9.1527301734
 20
6.9851342525
 30
0.0
 10
9.1593375281
 20
6.9783018153
 30
0.0
 10
9.1654619628
 20
6.9710375263
 30
0.0
 10
9.1710708241
 20
6.9633800958
 30
0.0
 10
9.1761341937
 20
6.9553703241
 30
0.0
 10
9.1806250438
 20
6.9470508864
 30
0.0
 10
9.1845193947
 20
6.9384661146
 30
0.0
 10
9.1877964379
 20
6.9296617592
 30
0.0
 10
9.1904386392
 20
6.9206847442
 30
0.0
 10
9.192431834
 20
6.9115829228
 30
0.0
 10
9.1937653038
 20
6.902404826
 30
0.0
 10
9.1944318353
 20
6.8931994083
 30
0.0
 10
9.1944277614
 20
6.8840157924
 30
0.0
 10
9.1937529914
 20
6.8749030011
 30
0.0
 10
9.1924110365
 20
6.8659097298
 30
0.0
 10
9.1904089188
 20
6.857083955
 30
0.0
 10
9.1877573774
 20
6.8484731715
 30
0.0
 10
9.1850152633
 20
6.8415075435
 30
0.0
 10
9.182512906
 20
6.8360907083
 30
0.0
 10
9.1798124334
 20
6.8307916252
 30
0.0
 10
9.1760629431
 20
6.8243821481
 30
0.0
 10
9.1718311611
 20
6.8182904564
 30
0.0
 10
9.168174408
 20
6.8136342488
 30
0.0
 10
9.1652999043
 20
6.8102548604
 30
0.0
 10
9.1622966626
 20
6.8069919028
 30
0.0
 10
9.1602110416
 20
6.804896906
 30
0.0
 10
9.1591483558
 20
6.8038704329
 30
0.0
  0
SPLINE
  5
2CB
100
AcDbEntity
  8
0
100
AcDbSpline
 62
7
  6
CONTINUOUS
 70
0
 71
3
 72
42
 73
38
 74
0
 42
0.0000001
 43
0.0000001
 44
0.0000000001
 40
0.0
 40
0.0
 40
0.0
 40
0.0
 40
0.0311438942
 40
0.0624423672
 40
0.0938866334
 40
0.1254688884
 40
0.1571761972
 40
0.1889940414
 40
0.2209054133
 40
0.2528915406
 40
0.2849321764
 40
0.3170060194
 40
0.3490911298
 40
0.3811653513
 40
0.4132067372
 40
0.4451939736
 40
0.4771067941
 40
0.5089263835
 40
0.5406357617
 40
0.5722201374
 40
0.6036672265
 40
0.6349675315
 40
0.6661145727
 40
0.6971050657
 40
0.7279390408
 40
0.7586198955
 40
0.7891543699
 40
0.8195524461
 40
0.8498271685
 40
0.8649259233
 40
0.879999996
 40
0.910078031
 40
0.9400872769
 40
0.9550757892
 40
0.9700554665
 40
0.9850292167
 40
1.0
 40
1.0
 40
1.0
 40
1.0
 10
9.9439603789
 20
8.2005706705
 30
0.0
 10
9.9470266338
 20
8.200358025
 30
0.0
 10
9.9531610748
 20
8.1997072068
 30
0.0
 10
9.9622883257
 20
8.1980679176
 30
0.0
 10
9.9713178601
 20
8.1957716046
 30
0.0
 10
9.9802008003
 20
8.192830868
 30
0.0
 10
9.9888900476
 20
8.1892612959
 30
0.0
 10
9.9973392199
 20
8.1850820681
 30
0.0
 10
10.0055033122
 20
8.1803154782
 30
0.0
 10
10.0133388154
 20
8.1749869824
 30
0.0
 10
10.0208039831
 20
8.1691250153
 30
0.0
 10
10.0278590414
 20
8.1627608471
 30
0.0
 10
10.0344663961
 20
8.1559284099
 30
0.0
 10
10.0405908308
 20
8.1486641209
 30
0.0
 10
10.0461996921
 20
8.1410066904
 30
0.0
 10
10.0512630616
 20
8.1329969187
 30
0.0
 10
10.0557539118
 20
8.124677481
 30
0.0
 10
10.0596482627
 20
8.1160927093
 30
0.0
 10
10.0629253059
 20
8.1072883538
 30
0.0
 10
10.0655675072
 20
8.0983113389
 30
0.0
 10
10.067560702
 20
8.0892095174
 30
0.0
 10
10.0688941718
 20
8.0800314207
 30
0.0
 10
10.0695607033
 20
8.0708260029
 30
0.0
 10
10.0695566294
 20
8.061642387
 30
0.0
 10
10.0688818594
 20
8.0525295957
 30
0.0
 10
10.0675399045
 20
8.0435363245
 30
0.0
 10
10.0655377868
 20
8.0347105496
 30
0.0
 10
10.0628862454
 20
8.0260997662
 30
0.0
 10
10.0601441313
 20
8.0191341382
 30
0.0
 10
10.057641774
 20
8.0137173029
 30
0.0
 10
10.0549413014
 20
8.0084182198
 30
0.0
 10
10.0511918111
 20
8.0020087428
 30
0.0
 10
10.0469600291
 20
7.9959170511
 30
0.0
 10
10.043303276
 20
7.9912608434
 30
0.0
 10
10.0404287723
 20
7.987881455
 30
0.0
 10
10.0374255306
 20
7.9846184975
 30
0.0
 10
10.0353399095
 20
7.9825235007
 30
0.0
 10
10.0342772237
 20
7.9814970275
 30
0.0
  0
SPLINE
  5
2CC
100
AcDbEntity
  8
0
100
AcDbSpline
 62
7
  6
CONTINUOUS
 70
0
 71
3
 72
39
 73
35
 74
0
 42
0.0000001
 43
0.0000001
 44
0.0000000001
 40
0.0
 40
0.0
 40
0.0
 40
0.0
 40
0.0311449917
 40
0.0624431057
 40
0.0938883404
 40
0.1254709744
 40
0.1571788692
 40
0.1889972397
 40
0.22090915
 40
0.2528958136
 40
0.2849369888
 40
0.3170113756
 40
0.3490970326
 40
0.3811718011
 40
0.4132137322
 40
0.4452015112
 40
0.4771148736
 40
0.5089350068
 40
0.5406449308
 40
0.5722298519
 40
0.6036774839
 40
0.6349783272
 40
0.6661259021
 40
0.6971169269
 40
0.7279514343
 40
0.7586328219
 40
0.789167828
 40
0.8195664326
 40
0.8498416785
 40
0.8800094145
 40
0.9100879636
 40
0.9400977218
 40
0.9700606971
 40
1.0
 40
1.0
 40
1.0
 40
1.0
 10
11.4836463348
 20
9.4615441379
 30
0.0
 10
11.4906280676
 20
9.4610599531
 30
0.0
 10
11.5045956135
 20
9.4595781704
 30
0.0
 10
11.525377598
 20
9.4558455141
 30
0.0
 10
11.5459369942
 20
9.4506171864
 30
0.0
 10
11.5661627542
 20
9.4439212877
 30
0.0
 10
11.5859474318
 20
9.4357937262
 30
0.0
 10
11.6051854916
 20
9.4262779632
 30
0.0
 10
11.6237744497
 20
9.4154248587
 30
0.0
 10
11.6416152536
 20
9.4032923571
 30
0.0
 10
11.6586128484
 20
9.3899451979
 30
0.0
 10
11.6746766642
 20
9.3754545659
 30
0.0
 10
11.6897210969
 20
9.3598977173
 30
0.0
 10
11.7036659587
 20
9.3433575704
 30
0.0
 10
11.7164369015
 20
9.325922269
 30
0.0
 10
11.7279658099
 20
9.3076847167
 30
0.0
 10
11.7381911607
 20
9.2887420879
 30
0.0
 10
11.7470583514
 20
9.2691953166
 30
0.0
 10
11.7545199889
 20
9.2491485646
 30
0.0
 10
11.7605361423
 20
9.2287086727
 30
0.0
 10
11.7650745568
 20
9.2079845997
 30
0.0
 10
11.7681108296
 20
9.1870868491
 30
0.0
 10
11.7696285451
 20
9.1661268877
 30
0.0
 10
11.7696193696
 20
9.1452165587
 30
0.0
 10
11.7680831051
 20
9.1244674909
 30
0.0
 10
11.7650277017
 20
9.1039905079
 30
0.0
 10
11.7604692287
 20
9.0838950385
 30
0.0
 10
11.7544318006
 20
9.0642885294
 30
0.0
 10
11.7469474713
 20
9.0452758764
 30
0.0
 10
11.7380560409
 20
9.0269588194
 30
0.0
 10
11.7278049879
 20
9.0094355204
 30
0.0
 10
11.7162487239
 20
8.9927995291
 30
0.0
 10
11.7034501708
 20
8.9771411028
 30
0.0
 10
11.6941311458
 20
8.9674056612
 30
0.0
 10
11.6892923192
 20
8.9627316883
 30
0.0
  0
SPLINE
  5
2CD
100
AcDbEntity
  8
0
100
AcDbSpline
 62
7
  6
CONTINUOUS
 70
0
 71
3
 72
39
 73
35
 74
0
 42
0.0000001
 43
0.0000001
 44
0.0000000001
 40
0.0
 40
0.0
 40
0.0
 40
0.0
 40
0.0311449917
 40
0.0624431057
 40
0.0938883404
 40
0.1254709744
 40
0.1571788692
 40
0.1889972397
 40
0.22090915
 40
0.2528958136
 40
0.2849369888
 40
0.3170113756
 40
0.3490970326
 40
0.3811718011
 40
0.4132137322
 40
0.4452015112
 40
0.4771148736
 40
0.5089350068
 40
0.5406449308
 40
0.5722298519
 40
0.6036774839
 40
0.6349783272
 40
0.6661259021
 40
0.6971169269
 40
0.7279514343
 40
0.7586328219
 40
0.789167828
 40
0.8195664326
 40
0.8498416785
 40
0.8800094145
 40
0.9100879636
 40
0.9400977218
 40
0.9700606971
 40
1.0
 40
1.0
 40
1.0
 40
1.0
 10
8.404274538
 20
9.6750992973
 30
0.0
 10
8.4112562708
 20
9.6746151125
 30
0.0
 10
8.4252238166
 20
9.6731333298
 30
0.0
 10
8.4460058011
 20
9.6694006735
 30
0.0
 10
8.4665651974
 20
9.6641723458
 30
0.0
 10
8.4867909574
 20
9.6574764472
 30
0.0
 10
8.506575635
 20
9.6493488856
 30
0.0
 10
8.5258136948
 20
9.6398331226
 30
0.0
 10
8.5444026529
 20
9.6289800182
 30
0.0
 10
8.5622434568
 20
9.6168475165
 30
0.0
 10
8.5792410516
 20
9.6035003573
 30
0.0
 10
8.5953048674
 20
9.5890097254
 30
0.0
 10
8.6103493001
 20
9.5734528767
 30
0.0
 10
8.6242941619
 20
9.5569127299
 30
0.0
 10
8.6370651047
 20
9.5394774284
 30
0.0
 10
8.6485940131
 20
9.5212398761
 30
0.0
 10
8.6588193639
 20
9.5022972473
 30
0.0
 10
8.6676865546
 20
9.4827504761
 30
0.0
 10
8.6751481921
 20
9.462703724
 30
0.0
 10
8.6811643455
 20
9.4422638321
 30
0.0
 10
8.68570276
 20
9.4215397592
 30
0.0
 10
8.6887390328
 20
9.4006420085
 30
0.0
 10
8.6902567483
 20
9.3796820472
 30
0.0
 10
8.6902475728
 20
9.3587717181
 30
0.0
 10
8.6887113083
 20
9.3380226504
 30
0.0
 10
8.6856559048
 20
9.3175456673
 30
0.0
 10
8.6810974319
 20
9.2974501979
 30
0.0
 10
8.6750600038
 20
9.2778436889
 30
0.0
 10
8.6675756745
 20
9.2588310358
 30
0.0
 10
8.6586842441
 20
9.2405139788
 30
0.0
 10
8.6484331911
 20
9.2229906798
 30
0.0
 10
8.6368769271
 20
9.2063546885
 30
0.0
 10
8.6240783739
 20
9.1906962623
 30
0.0
 10
8.614759349
 20
9.1809608206
 30
0.0
 10
8.6099205224
 20
9.1762868478
 30
0.0
  0
SPLINE
  5
2CE
100
AcDbEntity
  8
0
100
AcDbSpline
 62
7
  6
CONTINUOUS
 70
0
 71
3
 72
39
 73
35
 74
0
 42
0.0000001
 43
0.0000001
 44
0.0000000001
 40
0.0
 40
0.0
 40
0.0
 40
0.0
 40
0.0311449917
 40
0.0624431057
 40
0.0938883404
 40
0.1254709744
 40
0.1571788692
 40
0.1889972397
 40
0.22090915
 40
0.2528958136
 40
0.2849369888
 40
0.3170113756
 40
0.3490970326
 40
0.3811718011
 40
0.4132137322
 40
0.4452015112
 40
0.4771148736
 40
0.5089350068
 40
0.5406449308
 40
0.5722298519
 40
0.6036774839
 40
0.6349783272
 40
0.6661259021
 40
0.6971169269
 40
0.7279514343
 40
0.7586328219
 40
0.789167828
 40
0.8195664326
 40
0.8498416785
 40
0.8800094145
 40
0.9100879636
 40
0.9400977218
 40
0.9700606971
 40
1.0
 40
1.0
 40
1.0
 40
1.0
 10
8.404274538
 20
7.2602845885
 30
0.0
 10
8.4112562708
 20
7.2598004037
 30
0.0
 10
8.4252238166
 20
7.258318621
 30
0.0
 10
8.4460058011
 20
7.2545859647
 30
0.0
 10
8.4665651974
 20
7.249357637
 30
0.0
 10
8.4867909574
 20
7.2426617384
 30
0.0
 10
8.506575635
 20
7.2345341768
 30
0.0
 10
8.5258136948
 20
7.2250184138
 30
0.0
 10
8.5444026529
 20
7.2141653093
 30
0.0
 10
8.5622434568
 20
7.2020328077
 30
0.0
 10
8.5792410516
 20
7.1886856485
 30
0.0
 10
8.5953048674
 20
7.1741950166
 30
0.0
 10
8.6103493001
 20
7.1586381679
 30
0.0
 10
8.6242941619
 20
7.1420980211
 30
0.0
 10
8.6370651047
 20
7.1246627196
 30
0.0
 10
8.6485940131
 20
7.1064251673
 30
0.0
 10
8.6588193639
 20
7.0874825385
 30
0.0
 10
8.6676865546
 20
7.0679357673
 30
0.0
 10
8.6751481921
 20
7.0478890152
 30
0.0
 10
8.6811643455
 20
7.0274491233
 30
0.0
 10
8.68570276
 20
7.0067250503
 30
0.0
 10
8.6887390328
 20
6.9858272997
 30
0.0
 10
8.6902567483
 20
6.9648673384
 30
0.0
 10
8.6902475728
 20
6.9439570093
 30
0.0
 10
8.6887113083
 20
6.9232079416
 30
0.0
 10
8.6856559048
 20
6.9027309585
 30
0.0
 10
8.6810974319
 20
6.8826354891
 30
0.0
 10
8.6750600038
 20
6.8630289801
 30
0.0
 10
8.6675756745
 20
6.844016327
 30
0.0
 10
8.6586842441
 20
6.82569927
 30
0.0
 10
8.6484331911
 20
6.808175971
 30
0.0
 10
8.6368769271
 20
6.7915399797
 30
0.0
 10
8.6240783739
 20
6.7758815535
 30
0.0
 10
8.614759349
 20
6.7661461118
 30
0.0
 10
8.6099205224
 20
6.7614721389
 30
0.0
  0
SPLINE
  5
2CF
100
AcDbEntity
  8
0
100
AcDbSpline
 62
7
  6
CONTINUOUS
 70
0
 71
3
 72
39
 73
35
 74
0
 42
0.0000001
 43
0.0000001
 44
0.0000000001
 40
0.0
 40
0.0
 40
0.0
 40
0.0
 40
0.0311449917
 40
0.0624431057
 40
0.0938883404
 40
0.1254709744
 40
0.1571788692
 40
0.1889972397
 40
0.22090915
 40
0.2528958136
 40
0.2849369888
 40
0.3170113756
 40
0.3490970326
 40
0.3811718011
 40
0.4132137322
 40
0.4452015112
 40
0.4771148736
 40
0.5089350068
 40
0.5406449308
 40
0.5722298519
 40
0.6036774839
 40
0.6349783272
 40
0.6661259021
 40
0.6971169269
 40
0.7279514343
 40
0.7586328219
 40
0.789167828
 40
0.8195664326
 40
0.8498416785
 40
0.8800094145
 40
0.9100879636
 40
0.9400977218
 40
0.9700606971
 40
1.0
 40
1.0
 40
1.0
 40
1.0
 10
11.4836463348
 20
7.0467294291
 30
0.0
 10
11.4906280676
 20
7.0462452442
 30
0.0
 10
11.5045956135
 20
7.0447634616
 30
0.0
 10
11.525377598
 20
7.0410308053
 30
0.0
 10
11.5459369942
 20
7.0358024776
 30
0.0
 10
11.5661627542
 20
7.0291065789
 30
0.0
 10
11.5859474318
 20
7.0209790174
 30
0.0
 10
11.6051854916
 20
7.0114632544
 30
0.0
 10
11.6237744497
 20
7.0006101499
 30
0.0
 10
11.6416152536
 20
6.9884776483
 30
0.0
 10
11.6586128484
 20
6.9751304891
 30
0.0
 10
11.6746766642
 20
6.9606398571
 30
0.0
 10
11.6897210969
 20
6.9450830085
 30
0.0
 10
11.7036659587
 20
6.9285428616
 30
0.0
 10
11.7164369015
 20
6.9111075602
 30
0.0
 10
11.7279658099
 20
6.8928700079
 30
0.0
 10
11.7381911607
 20
6.8739273791
 30
0.0
 10
11.7470583514
 20
6.8543806078
 30
0.0
 10
11.7545199889
 20
6.8343338558
 30
0.0
 10
11.7605361423
 20
6.8138939639
 30
0.0
 10
11.7650745568
 20
6.7931698909
 30
0.0
 10
11.7681108296
 20
6.7722721403
 30
0.0
 10
11.7696285451
 20
6.7513121789
 30
0.0
 10
11.7696193696
 20
6.7304018499
 30
0.0
 10
11.7680831051
 20
6.7096527821
 30
0.0
 10
11.7650277017
 20
6.6891757991
 30
0.0
 10
11.7604692287
 20
6.6690803297
 30
0.0
 10
11.7544318006
 20
6.6494738206
 30
0.0
 10
11.7469474713
 20
6.6304611676
 30
0.0
 10
11.7380560409
 20
6.6121441106
 30
0.0
 10
11.7278049879
 20
6.5946208116
 30
0.0
 10
11.7162487239
 20
6.5779848203
 30
0.0
 10
11.7034501708
 20
6.562326394
 30
0.0
 10
11.6941311458
 20
6.5525909524
 30
0.0
 10
11.6892923192
 20
6.5479169795
 30
0.0
  0
SPLINE
  5
2D0
100
AcDbEntity
  8
0
100
AcDbSpline
 62
7
  6
CONTINUOUS
 70
0
 71
3
 72
49
 73
45
 74
0
 42
0.0000001
 43
0.0000001
 44
0.0000000001
 40
0.0
 40
0.0
 40
0.0
 40
0.0
 40
0.0378127845
 40
0.0760191223
 40
0.114531607
 40
0.1532645858
 40
0.1921302413
 40
0.2310409706
 40
0.2699088597
 40
0.3086461572
 40
0.3471654842
 40
0.3853800876
 40
0.4232040959
 40
0.4605527702
 40
0.4973427611
 40
0.533492372
 40
0.5689218309
 40
0.6035535573
 40
0.637312442
 40
0.6701261391
 40
0.7019253763
 40
0.7326442909
 40
0.7622208088
 40
0.7905970516
 40
0.80431852
 40
0.8177203446
 40
0.8307967508
 40
0.843542237
 40
0.8559517495
 40
0.8680206515
 40
0.8797447052
 40
0.8911202579
 40
0.9021440651
 40
0.9128135674
 40
0.9231267538
 40
0.9330823402
 40
0.9426798495
 40
0.9519195568
 40
0.960802764
 40
0.9693317342
 40
0.977510198
 40
0.9853432953
 40
0.992837349
 40
1.0
 40
1.0
 40
1.0
 40
1.0
 10
14.2293728591
 20
7.7656713829
 30
0.0
 10
14.2293728591
 20
7.7547327576
 30
0.0
 10
14.2292274661
 20
7.7327414051
 30
0.0
 10
14.2285830667
 20
7.6996146899
 30
0.0
 10
14.2275125234
 20
7.6662326328
 30
0.0
 10
14.2260184724
 20
7.632675959
 30
0.0
 10
14.2241044476
 20
7.5990252302
 30
0.0
 10
14.2217750781
 20
7.5653615828
 30
0.0
 10
14.2190359587
 20
7.5317660479
 30
0.0
 10
14.215893695
 20
7.4983195343
 30
0.0
 10
14.2123558671
 20
7.4651025792
 30
0.0
 10
14.2084310116
 20
7.4321951646
 30
0.0
 10
14.2041286022
 20
7.3996765239
 30
0.0
 10
14.1994590263
 20
7.3676249506
 30
0.0
 10
14.1944335608
 20
7.3361176087
 30
0.0
 10
14.1890643461
 20
7.3052303428
 30
0.0
 10
14.1833643634
 20
7.2750374913
 30
0.0
 10
14.1773473955
 20
7.2456117054
 30
0.0
 10
14.1710279959
 20
7.217023775
 30
0.0
 10
14.1644214538
 20
7.1893424506
 30
0.0
 10
14.157543758
 20
7.1626342895
 30
0.0
 10
14.1504115567
 20
7.1369634263
 30
0.0
 10
14.1430421221
 20
7.1123916138
 30
0.0
 10
14.1366487179
 20
7.0926655963
 30
0.0
 10
14.1314206358
 20
7.0774851715
 30
0.0
 10
14.1274952724
 20
7.0665382207
 30
0.0
 10
14.1235241744
 20
7.0559086509
 30
0.0
 10
14.1195096689
 20
7.0456028465
 30
0.0
 10
14.1154541969
 20
7.0356269974
 30
0.0
 10
14.111360222
 20
7.0259870851
 30
0.0
 10
14.1072301555
 20
7.0166889069
 30
0.0
 10
14.1030665597
 20
7.0077380157
 30
0.0
 10
14.0988718568
 20
6.9991397953
 30
0.0
 10
14.0946486347
 20
6.9908993714
 30
0.0
 10
14.0903993938
 20
6.983021676
 30
0.0
 10
14.0861266665
 20
6.9755114107
 30
0.0
 10
14.0818330467
 20
6.9683730245
 30
0.0
 10
14.0775210105
 20
6.9616108057
 30
0.0
 10
14.073193231
 20
6.9552287339
 30
0.0
 10
14.0688521674
 20
6.9492306079
 30
0.0
 10
14.0645003534
 20
6.9436199002
 30
0.0
 10
14.0601402031
 20
6.9383998688
 30
0.0
 10
14.0557744793
 20
6.9335738937
 30
0.0
 10
14.0527958264
 20
6.9305540488
 30
0.0
 10
14.051305503
 20
6.9291145068
 30
0.0
  0
SPLINE
  5
2D1
100
AcDbEntity
  8
0
100
AcDbSpline
 62
7
  6
CONTINUOUS
 70
0
 71
3
 72
23
 73
19
 74
0
 42
0.0000001
 43
0.0000001
 44
0.0000000001
 40
0.0
 40
0.0
 40
0.0
 40
0.0
 40
0.0616260457
 40
0.1233675351
 40
0.185220259
 40
0.2471934498
 40
0.3092894938
 40
0.3715093316
 40
0.4338533898
 40
0.496320625
 40
0.5589087464
 40
0.6216141578
 40
0.6844324571
 40
0.7473582487
 40
0.8103851038
 40
0.8735061851
 40
0.9367138729
 40
1.0
 40
1.0
 40
1.0
 40
1.0
 10
9.9536727512
 20
9.1575347928
 30
0.0
 10
9.9573840223
 20
9.1572774308
 30
0.0
 10
9.9648017543
 20
9.1565727687
 30
0.0
 10
9.9758694783
 20
9.1549522434
 30
0.0
 10
9.9868622559
 20
9.1527717737
 30
0.0
 10
9.9977526571
 20
9.1500383037
 30
0.0
 10
10.0085148923
 20
9.1467604752
 30
0.0
 10
10.0191234934
 20
9.1429486561
 30
0.0
 10
10.0295539158
 20
9.1386147654
 30
0.0
 10
10.0397827075
 20
9.1337723589
 30
0.0
 10
10.0497874816
 20
9.1284362723
 30
0.0
 10
10.0595469645
 20
9.1226224267
 30
0.0
 10
10.0690412242
 20
9.1163479785
 30
0.0
 10
10.0782515496
 20
9.1096308656
 30
0.0
 10
10.0871604395
 20
9.1024897217
 30
0.0
 10
10.095751872
 20
9.0949438852
 30
0.0
 10
10.1040107455
 20
9.0870132839
 30
0.0
 10
10.1092832782
 20
9.0814857646
 30
0.0
 10
10.1118597306
 20
9.0786648897
 30
0.0
  0
SPLINE
  5
2D2
100
AcDbEntity
  8
0
100
AcDbSpline
 62
7
  6
CONTINUOUS
 70
0
 71
3
 72
52
 73
48
 74
0
 42
0.0000001
 43
0.0000001
 44
0.0000000001
 40
0.0
 40
0.0
 40
0.0
 40
0.0
 40
0.0052563552
 40
0.010588709
 40
0.0160695616
 40
0.021765273
 40
0.0247131634
 40
0.0277359029
 40
0.0340277958
 40
0.0406840793
 40
0.0477383758
 40
0.0552176564
 40
0.0631428394
 40
0.0715301314
 40
0.0803913502
 40
0.0897349378
 40
0.0995663248
 40
0.1098883272
 40
0.1207017702
 40
0.1320053448
 40
0.1437963588
 40
0.1560704478
 40
0.168822089
 40
0.1820445799
 40
0.1957300786
 40
0.2098699731
 40
0.22445454
 40
0.2549147532
 40
0.2870198056
 40
0.3206674505
 40
0.3557464147
 40
0.3921375045
 40
0.4297145768
 40
0.4683454166
 40
0.5078925491
 40
0.5482140335
 40
0.589164223
 40
0.6305944987
 40
0.6723539917
 40
0.7142902963
 40
0.7562501818
 40
0.7980803198
 40
0.8396279155
 40
0.880741778
 40
0.9212718394
 40
0.9610730641
 40
1.0
 40
1.0
 40
1.0
 40
1.0
 10
13.4972931847
 20
8.2243796269
 30
0.0
 10
13.4967237003
 20
8.2244191258
 30
0.0
 10
13.4955802499
 20
8.2245709952
 30
0.0
 10
13.493887941
 20
8.2250138265
 30
0.0
 10
13.4922155547
 20
8.225670921
 30
0.0
 10
13.4908559117
 20
8.226387701
 30
0.0
 10
13.4897823107
 20
8.2270612466
 30
0.0
 10
13.4886892494
 20
8.2278228204
 30
0.0
 10
13.4873366821
 20
8.2289124847
 30
0.0
 10
13.4857608946
 20
8.2304107794
 30
0.0
 10
13.4842120895
 20
8.2321153352
 30
0.0
 10
13.4826916187
 20
8.2340244294
 30
0.0
 10
13.4812005696
 20
8.2361362104
 30
0.0
 10
13.4797402979
 20
8.2384487488
 30
0.0
 10
13.4783120115
 20
8.2409598475
 30
0.0
 10
13.4769170443
 20
8.243667172
 30
0.0
 10
13.4755566913
 20
8.2465681661
 30
0.0
 10
13.4742321993
 20
8.249660069
 30
0.0
 10
13.4729448971
 20
8.2529399485
 30
0.0
 10
13.4716959481
 20
8.2564046455
 30
0.0
 10
13.4704866339
 20
8.2600508443
 30
0.0
 10
13.4693180767
 20
8.2638750196
 30
0.0
 10
13.4681914422
 20
8.2678734815
 30
0.0
 10
13.4671078348
 20
8.2720423592
 30
0.0
 10
13.4660682863
 20
8.2763776092
 30
0.0
 10
13.4650738506
 20
8.2808750339
 30
0.0
 10
13.463790744
 20
8.2871735096
 30
0.0
 10
13.4623137532
 20
8.2954223422
 30
0.0
 10
13.4607599171
 20
8.3057562965
 30
0.0
 10
13.4594062202
 20
8.3166239499
 30
0.0
 10
13.4582580272
 20
8.3279830348
 30
0.0
 10
13.457319926
 20
8.3397894456
 30
0.0
 10
13.4565956587
 20
8.3519972649
 30
0.0
 10
13.4560881239
 20
8.3645589946
 30
0.0
 10
13.4557993577
 20
8.3774257351
 30
0.0
 10
13.4557305324
 20
8.3905473849
 30
0.0
 10
13.4558819539
 20
8.4038728406
 30
0.0
 10
13.456253061
 20
8.4173501991
 30
0.0
 10
13.4568424292
 20
8.4309269608
 30
0.0
 10
13.4576477761
 20
8.4445502351
 30
0.0
 10
13.4586659708
 20
8.4581669494
 30
0.0
 10
13.4598930443
 20
8.4717240498
 30
0.0
 10
13.4613241997
 20
8.4851687444
 30
0.0
 10
13.4629538537
 20
8.4984486001
 30
0.0
 10
13.4647756178
 20
8.5115120379
 30
0.0
 10
13.4667823821
 20
8.5243079694
 30
0.0
 10
13.4682564002
 20
8.532730582
 30
0.0
 10
13.4690243209
 20
8.5368878089
 30
0.0
  0
SPLINE
  5
2D3
100
AcDbEntity
  8
0
100
AcDbSpline
 62
7
  6
CONTINUOUS
 70
0
 71
3
 72
43
 73
39
 74
0
 42
0.0000001
 43
0.0000001
 44
0.0000000001
 40
0.0
 40
0.0
 40
0.0
 40
0.0
 40
0.0079856881
 40
0.0162160724
 40
0.0246962347
 40
0.0334305255
 40
0.042422726
 40
0.0516760383
 40
0.0611930799
 40
0.0709760427
 40
0.0810266896
 40
0.0913463066
 40
0.1127951643
 40
0.1353271866
 40
0.1589412882
 40
0.1836321748
 40
0.2093910228
 40
0.2362058362
 40
0.2640617123
 40
0.2929412855
 40
0.3228248446
 40
0.3536905395
 40
0.3855146668
 40
0.4182716733
 40
0.4519343649
 40
0.4864740701
 40
0.5218606115
 40
0.5580625211
 40
0.5950471078
 40
0.6327804501
 40
0.6712276003
 40
0.7103525875
 40
0.7501184246
 40
0.7904873444
 40
0.8314208133
 40
0.8728791131
 40
0.9148222541
 40
1.0
 40
1.0
 40
1.0
 40
1.0
 10
13.6980714964
 20
7.3366156355
 30
0.0
 10
13.6968899438
 20
7.338068416
 30
0.0
 10
13.6945390668
 20
7.3410581851
 30
0.0
 10
13.6910997049
 20
7.3457183653
 30
0.0
 10
13.6876956224
 20
7.3506196816
 30
0.0
 10
13.6843277018
 20
7.3557607661
 30
0.0
 10
13.6809968131
 20
7.3611403158
 30
0.0
 10
13.6777038331
 20
7.3667569323
 30
0.0
 10
13.6744495709
 20
7.3726091295
 30
0.0
 10
13.6712348919
 20
7.3786953882
 30
0.0
 10
13.668060633
 20
7.3850141437
 30
0.0
 10
13.6638287688
 20
7.3938609582
 30
0.0
 10
13.6586550943
 20
7.4054988431
 30
0.0
 10
13.6526984202
 20
7.4201903876
 30
0.0
 10
13.6469223866
 20
7.435767181
 30
0.0
 10
13.6413330091
 20
7.4522128715
 30
0.0
 10
13.6359361691
 20
7.4695104036
 30
0.0
 10
13.6307375761
 20
7.4876417165
 30
0.0
 10
13.6257426796
 20
7.5065878466
 30
0.0
 10
13.6209567965
 20
7.5263289545
 30
0.0
 10
13.6163849938
 20
7.546844336
 30
0.0
 10
13.6120320887
 20
7.5681124506
 30
0.0
 10
13.6079027327
 20
7.5901109578
 30
0.0
 10
13.6040012861
 20
7.6128167282
 30
0.0
 10
13.6003318745
 20
7.636205879
 30
0.0
 10
13.5968984238
 20
7.6602538023
 30
0.0
 10
13.5937045461
 20
7.6849351842
 30
0.0
 10
13.5907536328
 20
7.7102240396
 30
0.0
 10
13.5880488379
 20
7.7360937395
 30
0.0
 10
13.585592998
 20
7.7625170364
 30
0.0
 10
13.5833887352
 20
7.7894660984
 30
0.0
 10
13.5814383983
 20
7.816912532
 30
0.0
 10
13.5797440281
 20
7.8448274187
 30
0.0
 10
13.5783074458
 20
7.873181372
 30
0.0
 10
13.5771301863
 20
7.9019444567
 30
0.0
 10
13.5762134505
 20
7.9310863787
 30
0.0
 10
13.5753354487
 20
7.9706079445
 30
0.0
 10
13.5750788483
 20
8.0004180909
 30
0.0
 10
13.5750788483
 20
8.0203918236
 30
0.0
  0
SPLINE
  5
2D4
100
AcDbEntity
  8
0
100
AcDbSpline
 62
7
  6
CONTINUOUS
 70
0
 71
3
 72
22
 73
18
 74
0
 42
0.0000001
 43
0.0000001
 44
0.0000000001
 40
0.0
 40
0.0
 40
0.0
 40
0.0
 40
0.0544247541
 40
0.1090663284
 40
0.164138675
 40
0.2198503819
 40
0.2764024548
 40
0.3339859508
 40
0.3927808219
 40
0.4529552254
 40
0.514664436
 40
0.5780505852
 40
0.6432434982
 40
0.7103608664
 40
0.7795079629
 40
0.8507792288
 40
1.0
 40
1.0
 40
1.0
 40
1.0
 10
14.0433061474
 20
10.1194675694
 30
0.0
 10
14.044324345
 20
10.1193969631
 30
0.0
 10
14.0463607904
 20
10.1191886602
 30
0.0
 10
14.049398082
 20
10.1186763959
 30
0.0
 10
14.05241972
 20
10.1179643332
 30
0.0
 10
14.0554246185
 20
10.1170527555
 30
0.0
 10
14.0584119206
 20
10.1159419584
 30
0.0
 10
14.0613807851
 20
10.1146324205
 30
0.0
 10
14.0643304177
 20
10.113124627
 30
0.0
 10
14.0672600184
 20
10.1114190432
 30
0.0
 10
14.0701688364
 20
10.1095162296
 30
0.0
 10
14.0730561657
 20
10.1074168178
 30
0.0
 10
14.0759212858
 20
10.1051214057
 30
0.0
 10
14.0787634439
 20
10.1026306321
 30
0.0
 10
14.0815820443
 20
10.0999451844
 30
0.0
 10
14.0853654956
 20
10.0960465078
 30
0.0
 10
14.0880772443
 20
10.0929190258
 30
0.0
 10
14.0898429323
 20
10.0907480188
 30
0.0
  0
SPLINE
  5
2D5
100
AcDbEntity
  8
0
100
AcDbSpline
 62
7
  6
CONTINUOUS
 70
0
 71
3
 72
22
 73
18
 74
0
 42
0.0000001
 43
0.0000001
 44
0.0000000001
 40
0.0
 40
0.0
 40
0.0
 40
0.0
 40
0.1492211409
 40
0.2204956624
 40
0.2896434584
 40
0.3567599937
 40
0.4219519367
 40
0.4853372437
 40
0.5470459503
 40
0.6072203975
 40
0.6660153819
 40
0.7235986022
 40
0.7801503907
 40
0.8358619542
 40
0.8909340655
 40
0.945575415
 40
1.0
 40
1.0
 40
1.0
 40
1.0
 10
13.536652737
 20
6.4341429649
 30
0.0
 10
13.5346042569
 20
6.432236478
 30
0.0
 10
13.5314866838
 20
6.429513244
 30
0.0
 10
13.5272012731
 20
6.4261740352
 30
0.0
 10
13.5240389054
 20
6.423903346
 30
0.0
 10
13.520880136
 20
6.4218287792
 30
0.0
 10
13.5177256448
 20
6.4199508422
 30
0.0
 10
13.5145761907
 20
6.4182701183
 30
0.0
 10
13.5114325651
 20
6.4167870925
 30
0.0
 10
13.5082955887
 20
6.4155022182
 30
0.0
 10
13.5051660758
 20
6.4144159813
 30
0.0
 10
13.5020448654
 20
6.4135288273
 30
0.0
 10
13.4989328387
 20
6.4128410488
 30
0.0
 10
13.4958308943
 20
6.4123529413
 30
0.0
 10
13.4927399001
 20
6.4120648068
 30
0.0
 10
13.4896609844
 20
6.411976743
 30
0.0
 10
13.4876152882
 20
6.4120515224
 30
0.0
 10
13.4865970939
 20
6.4121221285
 30
0.0
  0
SPLINE
  5
2D6
100
AcDbEntity
  8
0
100
AcDbSpline
 62
7
  6
CONTINUOUS
 70
0
 71
3
 72
36
 73
32
 74
0
 42
0.0000001
 43
0.0000001
 44
0.0000000001
 40
0.0
 40
0.0
 40
0.0
 40
0.0
 40
0.0162142856
 40
0.0334272372
 40
0.0516715081
 40
0.0709705327
 40
0.0913399311
 40
0.1127889547
 40
0.1353211135
 40
0.1589353933
 40
0.1836264466
 40
0.2093855085
 40
0.2362005154
 40
0.2640566163
 40
0.2929364437
 40
0.3228202192
 40
0.3536862189
 40
0.3855105919
 40
0.4182679067
 40
0.4519309009
 40
0.4864709172
 40
0.5218577903
 40
0.5580600379
 40
0.5950449752
 40
0.6327786677
 40
0.6712262206
 40
0.7103515405
 40
0.7501177712
 40
0.8314200588
 40
0.9148214324
 40
1.0
 40
1.0
 40
1.0
 40
1.0
 10
14.1415934489
 20
10.0271180703
 30
0.0
 10
14.1433056241
 20
10.0250128737
 30
0.0
 10
14.1466913171
 20
10.0205542365
 30
0.0
 10
14.1515197136
 20
10.0133755399
 30
0.0
 10
14.1562419689
 20
10.0055179623
 30
0.0
 10
14.160853204
 20
9.9969898147
 30
0.0
 10
14.1653490214
 20
9.9877996465
 30
0.0
 10
14.1697247614
 20
9.9779568422
 30
0.0
 10
14.1739760486
 20
9.9674715307
 30
0.0
 10
14.1780983653
 20
9.9563545155
 30
0.0
 10
14.182087498
 20
9.9446173448
 30
0.0
 10
14.185939189
 20
9.9322722209
 30
0.0
 10
14.1896494161
 20
9.9193320318
 30
0.0
 10
14.1932142566
 20
9.9058103077
 30
0.0
 10
14.1966299108
 20
9.8917212098
 30
0.0
 10
14.1998928153
 20
9.8770795165
 30
0.0
 10
14.2029994402
 20
9.8619005964
 30
0.0
 10
14.2059465709
 20
9.8462003984
 30
0.0
 10
14.2087310065
 20
9.8299954281
 30
0.0
 10
14.2113498562
 20
9.8133027292
 30
0.0
 10
14.2138003006
 20
9.7961398678
 30
0.0
 10
14.2160797574
 20
9.7785249078
 30
0.0
 10
14.2181858173
 20
9.7604763949
 30
0.0
 10
14.2201162148
 20
9.7420133367
 30
0.0
 10
14.2218689527
 20
9.7231551723
 30
0.0
 10
14.2234421055
 20
9.7039217802
 30
0.0
 10
14.2248340865
 20
9.6843333996
 30
0.0
 10
14.2264583242
 20
9.6575728555
 30
0.0
 10
14.2280158096
 20
9.6233866504
 30
0.0
 10
14.229129955
 20
9.5815800195
 30
0.0
 10
14.2293728591
 20
9.5533664493
 30
0.0
 10
14.2293728591
 20
9.5391113051
 30
0.0
  0
SPLINE
  5
2D7
100
AcDbEntity
  8
0
100
AcDbSpline
 62
7
  6
CONTINUOUS
 70
0
 71
3
 72
25
 73
21
 74
0
 42
0.0000001
 43
0.0000001
 44
0.0000000001
 40
0.0
 40
0.0
 40
0.0
 40
0.0
 40
0.0616475324
 40
0.0924812818
 40
0.1233236521
 40
0.1850399988
 40
0.2468243992
 40
0.2777516371
 40
0.3087038682
 40
0.3706878964
 40
0.4328012845
 40
0.4950619149
 40
0.5574860747
 40
0.6200882862
 40
0.6828810671
 40
0.7458751796
 40
0.8090790771
 40
0.8724979014
 40
0.9361399151
 40
1.0
 40
1.0
 40
1.0
 40
1.0
 10
11.2780003505
 20
9.3885284644
 30
0.0
 10
11.2813220924
 20
9.3917370381
 30
0.0
 10
11.2864360706
 20
9.3964177022
 30
0.0
 10
11.2934977723
 20
9.4023760707
 30
0.0
 10
11.3007211176
 20
9.4081460471
 30
0.0
 10
11.3100433463
 20
9.4149963029
 30
0.0
 10
11.3197245229
 20
9.4213407346
 30
0.0
 10
11.327671256
 20
9.4261045699
 30
0.0
 10
11.3357552412
 20
9.4306620831
 30
0.0
 10
11.3460988524
 20
9.4359601063
 30
0.0
 10
11.3588507426
 20
9.4416589764
 30
0.0
 10
11.3719167645
 20
9.4466882198
 30
0.0
 10
11.3852637933
 20
9.4510350442
 30
0.0
 10
11.3988582587
 20
9.454688564
 30
0.0
 10
11.4126658962
 20
9.4576396577
 30
0.0
 10
11.4266519618
 20
9.4598809154
 30
0.0
 10
11.4407811385
 20
9.4614066638
 30
0.0
 10
11.455018199
 20
9.4622132464
 30
0.0
 10
11.4693265625
 20
9.4622984779
 30
0.0
 10
11.4788737207
 20
9.4618751198
 30
0.0
 10
11.4836463348
 20
9.4615441379
 30
0.0
  0
SPLINE
  5
2D8
100
AcDbEntity
  8
0
100
AcDbSpline
 62
7
  6
CONTINUOUS
 70
0
 71
3
 72
25
 73
21
 74
0
 42
0.0000001
 43
0.0000001
 44
0.0000000001
 40
0.0
 40
0.0
 40
0.0
 40
0.0
 40
0.0616475324
 40
0.0924812818
 40
0.1233236521
 40
0.1850399988
 40
0.2468243992
 40
0.2777516371
 40
0.3087038682
 40
0.3706878964
 40
0.4328012845
 40
0.4950619149
 40
0.5574860747
 40
0.6200882862
 40
0.6828810671
 40
0.7458751796
 40
0.8090790771
 40
0.8724979014
 40
0.9361399151
 40
1.0
 40
1.0
 40
1.0
 40
1.0
 10
8.1986285536
 20
9.6020836238
 30
0.0
 10
8.2019502956
 20
9.6052921976
 30
0.0
 10
8.2070642738
 20
9.6099728616
 30
0.0
 10
8.2141259755
 20
9.6159312302
 30
0.0
 10
8.2213493208
 20
9.6217012066
 30
0.0
 10
8.2306715495
 20
9.6285514623
 30
0.0
 10
8.2403527261
 20
9.634895894
 30
0.0
 10
8.2482994592
 20
9.6396597293
 30
0.0
 10
8.2563834444
 20
9.6442172425
 30
0.0
 10
8.2667270556
 20
9.6495152657
 30
0.0
 10
8.2794789458
 20
9.6552141358
 30
0.0
 10
8.2925449677
 20
9.6602433792
 30
0.0
 10
8.3058919965
 20
9.6645902037
 30
0.0
 10
8.3194864619
 20
9.6682437234
 30
0.0
 10
8.3332940993
 20
9.6711948172
 30
0.0
 10
8.347280165
 20
9.6734360748
 30
0.0
 10
8.3614093417
 20
9.6749618232
 30
0.0
 10
8.3756464022
 20
9.6757684058
 30
0.0
 10
8.3899547656
 20
9.6758536373
 30
0.0
 10
8.3995019239
 20
9.6754302792
 30
0.0
 10
8.404274538
 20
9.6750992973
 30
0.0
  0
SPLINE
  5
2D9
100
AcDbEntity
  8
0
100
AcDbSpline
 62
7
  6
CONTINUOUS
 70
0
 71
3
 72
25
 73
21
 74
0
 42
0.0000001
 43
0.0000001
 44
0.0000000001
 40
0.0
 40
0.0
 40
0.0
 40
0.0
 40
0.0616475324
 40
0.0924812818
 40
0.1233236521
 40
0.1850399988
 40
0.2468243992
 40
0.2777516371
 40
0.3087038682
 40
0.3706878964
 40
0.4328012845
 40
0.4950619149
 40
0.5574860747
 40
0.6200882862
 40
0.6828810671
 40
0.7458751796
 40
0.8090790771
 40
0.8724979014
 40
0.9361399151
 40
1.0
 40
1.0
 40
1.0
 40
1.0
 10
8.1986285536
 20
7.187268915
 30
0.0
 10
8.2019502956
 20
7.1904774888
 30
0.0
 10
8.2070642738
 20
7.1951581528
 30
0.0
 10
8.2141259755
 20
7.2011165214
 30
0.0
 10
8.2213493208
 20
7.2068864977
 30
0.0
 10
8.2306715495
 20
7.2137367535
 30
0.0
 10
8.2403527261
 20
7.2200811852
 30
0.0
 10
8.2482994592
 20
7.2248450205
 30
0.0
 10
8.2563834444
 20
7.2294025337
 30
0.0
 10
8.2667270556
 20
7.2347005569
 30
0.0
 10
8.2794789458
 20
7.240399427
 30
0.0
 10
8.2925449677
 20
7.2454286704
 30
0.0
 10
8.3058919965
 20
7.2497754949
 30
0.0
 10
8.3194864619
 20
7.2534290146
 30
0.0
 10
8.3332940993
 20
7.2563801084
 30
0.0
 10
8.347280165
 20
7.258621366
 30
0.0
 10
8.3614093417
 20
7.2601471144
 30
0.0
 10
8.3756464022
 20
7.260953697
 30
0.0
 10
8.3899547656
 20
7.2610389285
 30
0.0
 10
8.3995019239
 20
7.2606155704
 30
0.0
 10
8.404274538
 20
7.2602845885
 30
0.0
  0
SPLINE
  5
2DA
100
AcDbEntity
  8
0
100
AcDbSpline
 62
7
  6
CONTINUOUS
 70
0
 71
3
 72
25
 73
21
 74
0
 42
0.0000001
 43
0.0000001
 44
0.0000000001
 40
0.0
 40
0.0
 40
0.0
 40
0.0
 40
0.0616475324
 40
0.0924812818
 40
0.1233236521
 40
0.1850399988
 40
0.2468243992
 40
0.2777516371
 40
0.3087038682
 40
0.3706878964
 40
0.4328012845
 40
0.4950619149
 40
0.5574860747
 40
0.6200882862
 40
0.6828810671
 40
0.7458751796
 40
0.8090790771
 40
0.8724979014
 40
0.9361399151
 40
1.0
 40
1.0
 40
1.0
 40
1.0
 10
11.2780003505
 20
6.9737137556
 30
0.0
 10
11.2813220924
 20
6.9769223293
 30
0.0
 10
11.2864360706
 20
6.9816029934
 30
0.0
 10
11.2934977723
 20
6.9875613619
 30
0.0
 10
11.3007211176
 20
6.9933313383
 30
0.0
 10
11.3100433463
 20
7.0001815941
 30
0.0
 10
11.3197245229
 20
7.0065260258
 30
0.0
 10
11.327671256
 20
7.0112898611
 30
0.0
 10
11.3357552412
 20
7.0158473743
 30
0.0
 10
11.3460988524
 20
7.0211453974
 30
0.0
 10
11.3588507426
 20
7.0268442676
 30
0.0
 10
11.3719167645
 20
7.031873511
 30
0.0
 10
11.3852637933
 20
7.0362203354
 30
0.0
 10
11.3988582587
 20
7.0398738552
 30
0.0
 10
11.4126658962
 20
7.0428249489
 30
0.0
 10
11.4266519618
 20
7.0450662066
 30
0.0
 10
11.4407811385
 20
7.046591955
 30
0.0
 10
11.455018199
 20
7.0473985376
 30
0.0
 10
11.4693265625
 20
7.0474837691
 30
0.0
 10
11.4788737207
 20
7.047060411
 30
0.0
 10
11.4836463348
 20
7.0467294291
 30
0.0
  0
SPLINE
  5
2DB
100
AcDbEntity
  8
0
100
AcDbSpline
 62
7
  6
CONTINUOUS
 70
0
 71
3
 72
19
 73
15
 74
0
 42
0.0000001
 43
0.0000001
 44
0.0000000001
 40
0.0
 40
0.0
 40
0.0
 40
0.0
 40
0.0616586063
 40
0.1233402597
 40
0.1850676991
 40
0.2468632206
 40
0.3706995305
 40
0.4950525397
 40
0.5574879361
 40
0.6201012893
 40
0.6829055283
 40
0.7459112878
 40
0.8725148857
 40
1.0
 40
1.0
 40
1.0
 40
1.0
 10
9.853643534
 20
8.1685035838
 30
0.0
 10
9.8551023992
 20
8.169912736
 30
0.0
 10
9.8580971086
 20
8.1726536655
 30
0.0
 10
9.862804539
 20
8.1765184303
 30
0.0
 10
9.8677165244
 20
8.1801278131
 30
0.0
 10
9.8745250022
 20
8.1845897512
 30
0.0
 10
9.8834926129
 20
8.189487252
 30
0.0
 10
9.8929481711
 20
8.1934137942
 30
0.0
 10
9.9007521189
 20
8.1959552589
 30
0.0
 10
9.9067227078
 20
8.197559851
 30
0.0
 10
9.9127869007
 20
8.1988559352
 30
0.0
 10
9.9209887273
 20
8.2001702549
 30
0.0
 10
9.9314037039
 20
8.2010242377
 30
0.0
 10
9.9397767233
 20
8.200860808
 30
0.0
 10
9.9439603789
 20
8.2005706705
 30
0.0
  0
SPLINE
  5
2DC
100
AcDbEntity
  8
0
100
AcDbSpline
 62
7
  6
CONTINUOUS
 70
0
 71
3
 72
41
 73
37
 74
0
 42
0.0000001
 43
0.0000001
 44
0.0000000001
 40
0.0
 40
0.0
 40
0.0
 40
0.0
 40
0.0299506952
 40
0.044946588
 40
0.0599571144
 40
0.0900246029
 40
0.1201675328
 40
0.1352720849
 40
0.1503991724
 40
0.1807220267
 40
0.2111470466
 40
0.2416806836
 40
0.2723280482
 40
0.3030928602
 40
0.3339774082
 40
0.3649825091
 40
0.3961075022
 40
0.4273502548
 40
0.458707172
 40
0.4901732162
 40
0.5217419305
 40
0.5534055097
 40
0.585154876
 40
0.6169797645
 40
0.6488688234
 40
0.6808097249
 40
0.7127893176
 40
0.7447937943
 40
0.7768088599
 40
0.8088199258
 40
0.8408123035
 40
0.8727713728
 40
0.9046830796
 40
0.9365331448
 40
0.9683101355
 40
1.0
 40
1.0
 40
1.0
 40
1.0
 10
9.7967432776
 20
7.4620066684
 30
0.0
 10
9.8005364698
 20
7.4645691305
 30
0.0
 10
9.8063460293
 20
7.468245236
 30
0.0
 10
9.8143016061
 20
7.4727949948
 30
0.0
 10
9.8224047469
 20
7.4771151141
 30
0.0
 10
9.8327863818
 20
7.4820706524
 30
0.0
 10
9.8434549835
 20
7.4864118372
 30
0.0
 10
9.8521474089
 20
7.489511905
 30
0.0
 10
9.8609526985
 20
7.4923656052
 30
0.0
 10
9.8721367932
 20
7.4954577316
 30
0.0
 10
9.8857833803
 20
7.4983937147
 30
0.0
 10
9.8996252295
 20
7.5005487929
 30
0.0
 10
9.9136190951
 20
7.5019152041
 30
0.0
 10
9.9277215033
 20
7.5024873657
 30
0.0
 10
9.941888337
 20
7.5022617595
 30
0.0
 10
9.9560750143
 20
7.5012370772
 30
0.0
 10
9.9702365219
 20
7.499414229
 30
0.0
 10
9.9843274964
 20
7.496796403
 30
0.0
 10
9.998302305
 20
7.4933891368
 30
0.0
 10
10.0121151371
 20
7.4892003876
 30
0.0
 10
10.0257201326
 20
7.4842406499
 30
0.0
 10
10.0390715047
 20
7.478522984
 30
0.0
 10
10.0521236873
 20
7.4720630758
 30
0.0
 10
10.0648315005
 20
7.4648792935
 30
0.0
 10
10.077150326
 20
7.4569927269
 30
0.0
 10
10.0890363271
 20
7.4484272458
 30
0.0
 10
10.10044666
 20
7.4392094898
 30
0.0
 10
10.1113396932
 20
7.4293688365
 30
0.0
 10
10.1216752489
 20
7.4189373658
 30
0.0
 10
10.1314148462
 20
7.4079497885
 30
0.0
 10
10.1405219342
 20
7.3964433575
 30
0.0
 10
10.1489622265
 20
7.3844577336
 30
0.0
 10
10.1567037134
 20
7.3720349015
 30
0.0
 10
10.1637174085
 20
7.3592186024
 30
0.0
 10
10.1699764231
 20
7.3460553127
 30
0.0
 10
10.1736365104
 20
7.337065362
 30
0.0
 10
10.175332814
 20
7.3325287011
 30
0.0
  0
SPLINE
  5
2DD
100
AcDbEntity
  8
0
100
AcDbSpline
 62
7
  6
CONTINUOUS
 70
0
 71
3
 72
19
 73
15
 74
0
 42
0.0000001
 43
0.0000001
 44
0.0000000001
 40
0.0
 40
0.0
 40
0.0
 40
0.0
 40
0.0616586063
 40
0.1233402597
 40
0.1850676991
 40
0.2468632206
 40
0.3706995305
 40
0.4950525397
 40
0.5574879361
 40
0.6201012893
 40
0.6829055283
 40
0.7459112878
 40
0.8725148857
 40
1.0
 40
1.0
 40
1.0
 40
1.0
 10
8.978514666
 20
6.9908769892
 30
0.0
 10
8.9799735312
 20
6.9922861413
 30
0.0
 10
8.9829682406
 20
6.9950270709
 30
0.0
 10
8.987675671
 20
6.9988918357
 30
0.0
 10
8.9925876564
 20
7.0025012185
 30
0.0
 10
8.9993961343
 20
7.0069631566
 30
0.0
 10
9.0083637449
 20
7.0118606574
 30
0.0
 10
9.0178193032
 20
7.0157871996
 30
0.0
 10
9.0256232509
 20
7.0183286643
 30
0.0
 10
9.0315938399
 20
7.0199332564
 30
0.0
 10
9.0376580327
 20
7.0212293406
 30
0.0
 10
9.0458598593
 20
7.0225436603
 30
0.0
 10
9.0562748359
 20
7.0233976431
 30
0.0
 10
9.0646478553
 20
7.0232342134
 30
0.0
 10
9.0688315109
 20
7.0229440759
 30
0.0
  0
SPLINE
  5
2DE
100
AcDbEntity
  8
0
100
AcDbSpline
 62
7
  6
CONTINUOUS
 70
0
 71
3
 72
23
 73
19
 74
0
 42
0.0000001
 43
0.0000001
 44
0.0000000001
 40
0.0
 40
0.0
 40
0.0
 40
0.0
 40
0.0616482156
 40
0.1233194448
 40
0.1850364824
 40
0.2468215709
 40
0.3086962096
 40
0.3706809325
 40
0.432795002
 40
0.4950563289
 40
0.5574812109
 40
0.6200840208
 40
0.6828775523
 40
0.7458726718
 40
0.8090764916
 40
0.8724961142
 40
0.9361412363
 40
1.0
 40
1.0
 40
1.0
 40
1.0
 10
10.7107083751
 20
6.8881963708
 30
0.0
 10
10.71245902
 20
6.889887369
 30
0.0
 10
10.7160526922
 20
6.8931764932
 30
0.0
 10
10.7217016433
 20
6.8978143027
 30
0.0
 10
10.7275958887
 20
6.9021455744
 30
0.0
 10
10.7337204136
 20
6.9061591455
 30
0.0
 10
10.74005977
 20
6.9098450654
 30
0.0
 10
10.7465980217
 20
6.9131939548
 30
0.0
 10
10.7533186762
 20
6.9161974201
 30
0.0
 10
10.7602047795
 20
6.9188479651
 30
0.0
 10
10.7672390213
 20
6.9211388135
 30
0.0
 10
10.7744036441
 20
6.9230643283
 30
0.0
 10
10.7816806321
 20
6.9246196421
 30
0.0
 10
10.7890516395
 20
6.9258007725
 30
0.0
 10
10.796498054
 20
6.9266049419
 30
0.0
 10
10.8040014191
 20
6.9270300243
 30
0.0
 10
10.81154231
 20
6.9270748868
 30
0.0
 10
10.816573922
 20
6.926851801
 30
0.0
 10
10.8190891317
 20
6.9266773706
 30
0.0
  0
SPLINE
  5
2DF
100
AcDbEntity
  8
0
100
AcDbSpline
 62
7
  6
CONTINUOUS
 70
0
 71
3
 72
34
 73
30
 74
0
 42
0.0000001
 43
0.0000001
 44
0.0000000001
 40
0.0
 40
0.0
 40
0.0
 40
0.0
 40
0.0629011043
 40
0.1255892373
 40
0.18807811
 40
0.2192576952
 40
0.2503946476
 40
0.3125440394
 40
0.3745647339
 40
0.4055440302
 40
0.4365059201
 40
0.4674565386
 40
0.498402493
 40
0.5293508771
 40
0.5603098047
 40
0.5912873811
 40
0.6222929121
 40
0.6533357313
 40
0.684425662
 40
0.7155730669
 40
0.7467879348
 40
0.7780803894
 40
0.8094602737
 40
0.8409364347
 40
0.8725171423
 40
0.9042093333
 40
0.9360177445
 40
0.96794879
 40
1.0
 40
1.0
 40
1.0
 40
1.0
 10
9.0205191365
 20
8.2327798903
 30
0.0
 10
9.0222398066
 20
8.23945678
 30
0.0
 10
9.0260697828
 20
8.252690263
 30
0.0
 10
9.0330045813
 20
8.2721186299
 30
0.0
 10
9.0397846311
 20
8.287874426
 30
0.0
 10
9.0458118801
 20
8.3001585135
 30
0.0
 10
9.0522350242
 20
8.312198173
 30
0.0
 10
9.0610275352
 20
8.3267937979
 30
0.0
 10
9.0708547335
 20
8.3406954006
 30
0.0
 10
9.0793294365
 20
8.3513209983
 30
0.0
 10
9.0859913369
 20
8.3590256126
 30
0.0
 10
9.0929595869
 20
8.3664493389
 30
0.0
 10
9.1002323957
 20
8.3735731329
 30
0.0
 10
9.1078067682
 20
8.3803770343
 30
0.0
 10
9.1156786308
 20
8.3868401948
 30
0.0
 10
9.1238424413
 20
8.3929412167
 30
0.0
 10
9.1322911399
 20
8.3986579843
 30
0.0
 10
9.1410158597
 20
8.403968049
 30
0.0
 10
9.1500057065
 20
8.4088488606
 30
0.0
 10
9.159247717
 20
8.4132777742
 30
0.0
 10
9.1687265
 20
8.417232795
 30
0.0
 10
9.1784242605
 20
8.4206926919
 30
0.0
 10
9.18832076
 20
8.4236373191
 30
0.0
 10
9.1983932092
 20
8.4260484777
 30
0.0
 10
9.2086164837
 20
8.4279100518
 30
0.0
 10
9.2189632015
 20
8.4292084123
 30
0.0
 10
9.2294044762
 20
8.4299332292
 30
0.0
 10
9.2399089293
 20
8.4300772951
 30
0.0
 10
9.2469205984
 20
8.4297845638
 30
0.0
 10
9.250425542
 20
8.4295414951
 30
0.0
  0
SPLINE
  5
2E0
100
AcDbEntity
  8
0
100
AcDbSpline
 62
7
  6
CONTINUOUS
 70
0
 71
3
 72
25
 73
21
 74
0
 42
0.0000001
 43
0.0000001
 44
0.0000000001
 40
0.0
 40
0.0
 40
0.0
 40
0.0
 40
0.0631001716
 40
0.094596509
 40
0.126055403
 40
0.1888561835
 40
0.2515207896
 40
0.2828105163
 40
0.3140712466
 40
0.3765047898
 40
0.438849189
 40
0.5011257291
 40
0.5633581063
 40
0.6255720338
 40
0.6877947325
 40
0.7500541471
 40
0.8123782936
 40
0.8747942929
 40
0.9373272185
 40
1.0
 40
1.0
 40
1.0
 40
1.0
 10
9.734605145
 20
9.0291974313
 30
0.0
 10
9.7372419442
 20
9.0341973785
 30
0.0
 10
9.7414338262
 20
9.0415708359
 30
0.0
 10
9.7474837352
 20
9.0511074151
 30
0.0
 10
9.7538256288
 20
9.0604203866
 30
0.0
 10
9.7623064629
 20
9.0716451443
 30
0.0
 10
9.7715090824
 20
9.0822668816
 30
0.0
 10
9.7792792737
 20
9.090359394
 30
0.0
 10
9.7873082323
 20
9.0981654798
 30
0.0
 10
9.7978333962
 20
9.1073827945
 30
0.0
 10
9.811199528
 20
9.11751195
 30
0.0
 10
9.8252454187
 20
9.1266438273
 30
0.0
 10
9.8399117151
 20
9.1347183842
 30
0.0
 10
9.8551330153
 20
9.141680027
 30
0.0
 10
9.8708373836
 20
9.1474781831
 30
0.0
 10
9.8869468727
 20
9.1520686154
 30
0.0
 10
9.9033778971
 20
9.155414542
 30
0.0
 10
9.9200426084
 20
9.1574876348
 30
0.0
 10
9.9368478849
 20
9.1582690711
 30
0.0
 10
9.9480718654
 20
9.1579232383
 30
0.0
 10
9.9536727512
 20
9.1575347928
 30
0.0
  0
SPLINE
  5
2E1
100
AcDbEntity
  8
0
100
AcDbSpline
 62
7
  6
CONTINUOUS
 70
0
 71
3
 72
52
 73
48
 74
0
 42
0.0000001
 43
0.0000001
 44
0.0000000001
 40
0.0
 40
0.0
 40
0.0
 40
0.0
 40
0.0052563552
 40
0.010588709
 40
0.0160695616
 40
0.021765273
 40
0.0247131634
 40
0.0277359029
 40
0.0340277958
 40
0.0406840793
 40
0.0477383758
 40
0.0552176564
 40
0.0631428394
 40
0.0715301314
 40
0.0803913502
 40
0.0897349378
 40
0.0995663248
 40
0.1098883272
 40
0.1207017702
 40
0.1320053448
 40
0.1437963588
 40
0.1560704478
 40
0.168822089
 40
0.1820445799
 40
0.1957300786
 40
0.2098699731
 40
0.22445454
 40
0.2549147532
 40
0.2870198056
 40
0.3206674505
 40
0.3557464147
 40
0.3921375045
 40
0.4297145768
 40
0.4683454166
 40
0.5078925491
 40
0.5482140335
 40
0.589164223
 40
0.6305944987
 40
0.6723539917
 40
0.7142902963
 40
0.7562501818
 40
0.7980803198
 40
0.8396279155
 40
0.880741778
 40
0.9212718394
 40
0.9610730641
 40
1.0
 40
1.0
 40
1.0
 40
1.0
 10
13.5275962839
 20
8.66133008
 30
0.0
 10
13.5281657683
 20
8.6612905811
 30
0.0
 10
13.5293092187
 20
8.6611387117
 30
0.0
 10
13.5310015276
 20
8.6606958804
 30
0.0
 10
13.5326739139
 20
8.6600387859
 30
0.0
 10
13.5340335569
 20
8.6593220059
 30
0.0
 10
13.5351071579
 20
8.6586484603
 30
0.0
 10
13.5362002192
 20
8.6578868865
 30
0.0
 10
13.5375527865
 20
8.6567972222
 30
0.0
 10
13.539128574
 20
8.6552989275
 30
0.0
 10
13.5406773791
 20
8.6535943717
 30
0.0
 10
13.5421978499
 20
8.6516852775
 30
0.0
 10
13.543688899
 20
8.6495734965
 30
0.0
 10
13.5451491707
 20
8.6472609581
 30
0.0
 10
13.546577457
 20
8.6447498594
 30
0.0
 10
13.5479724243
 20
8.6420425349
 30
0.0
 10
13.5493327773
 20
8.6391415408
 30
0.0
 10
13.5506572693
 20
8.6360496379
 30
0.0
 10
13.5519445715
 20
8.6327697584
 30
0.0
 10
13.5531935205
 20
8.6293050614
 30
0.0
 10
13.5544028347
 20
8.6256588626
 30
0.0
 10
13.5555713919
 20
8.6218346873
 30
0.0
 10
13.5566980264
 20
8.6178362254
 30
0.0
 10
13.5577816338
 20
8.6136673477
 30
0.0
 10
13.5588211822
 20
8.6093320977
 30
0.0
 10
13.559815618
 20
8.604834673
 30
0.0
 10
13.5610987246
 20
8.5985361973
 30
0.0
 10
13.5625757154
 20
8.5902873647
 30
0.0
 10
13.5641295515
 20
8.5799534104
 30
0.0
 10
13.5654832484
 20
8.569085757
 30
0.0
 10
13.5666314414
 20
8.5577266721
 30
0.0
 10
13.5675695425
 20
8.5459202613
 30
0.0
 10
13.5682938099
 20
8.533712442
 30
0.0
 10
13.5688013447
 20
8.5211507123
 30
0.0
 10
13.5690901109
 20
8.5082839718
 30
0.0
 10
13.5691589361
 20
8.495162322
 30
0.0
 10
13.5690075147
 20
8.4818368663
 30
0.0
 10
13.5686364076
 20
8.4683595078
 30
0.0
 10
13.5680470394
 20
8.4547827461
 30
0.0
 10
13.5672416925
 20
8.4411594718
 30
0.0
 10
13.5662234978
 20
8.4275427575
 30
0.0
 10
13.5649964243
 20
8.4139856571
 30
0.0
 10
13.5635652689
 20
8.4005409625
 30
0.0
 10
13.5619356149
 20
8.3872611068
 30
0.0
 10
13.5601138508
 20
8.374197669
 30
0.0
 10
13.5581070865
 20
8.3614017374
 30
0.0
 10
13.5566330684
 20
8.3529791249
 30
0.0
 10
13.5558651476
 20
8.348821898
 30
0.0
  0
SPLINE
  5
2E2
100
AcDbEntity
  8
0
100
AcDbSpline
 62
7
  6
CONTINUOUS
 70
0
 71
3
 72
30
 73
26
 74
0
 42
0.0000001
 43
0.0000001
 44
0.0000000001
 40
0.0
 40
0.0
 40
0.0
 40
0.0
 40
0.0755826241
 40
0.1466115403
 40
0.2134243746
 40
0.2764613841
 40
0.3362624424
 40
0.3651589666
 40
0.3934971803
 40
0.421373822
 40
0.4488908758
 40
0.4761547572
 40
0.5032752115
 40
0.5303638187
 40
0.5575326004
 40
0.5848925312
 40
0.6125520106
 40
0.6406156966
 40
0.6691834594
 40
0.6983492709
 40
0.7282008388
 40
0.7902595762
 40
0.8559510674
 40
0.9257407962
 40
1.0
 40
1.0
 40
1.0
 40
1.0
 10
14.051305503
 20
10.0316684447
 30
0.0
 10
14.0532176467
 20
10.0335154338
 30
0.0
 10
14.057039372
 20
10.0369846373
 30
0.0
 10
14.0629538377
 20
10.0416192349
 30
0.0
 10
14.0688614967
 20
10.0455116967
 30
0.0
 10
14.0747562909
 20
10.0486559628
 30
0.0
 10
14.079711066
 20
10.0506709789
 30
0.0
 10
14.0836464182
 20
10.0518859168
 30
0.0
 10
14.0865562651
 20
10.0525973899
 30
0.0
 10
14.0894567942
 20
10.0531190689
 30
0.0
 10
14.0923472065
 20
10.0534507286
 30
0.0
 10
14.0952265708
 20
10.0535921156
 30
0.0
 10
14.0980939503
 20
10.0535431972
 30
0.0
 10
14.1009484042
 20
10.0533039835
 30
0.0
 10
14.103788985
 20
10.0528745014
 30
0.0
 10
14.1066147587
 20
10.052254928
 30
0.0
 10
14.1094248366
 20
10.0514455828
 30
0.0
 10
14.1122183587
 20
10.0504467787
 30
0.0
 10
14.1149944591
 20
10.0492588698
 30
0.0
 10
14.1177524275
 20
10.0478823258
 30
0.0
 10
14.1214519512
 20
10.0457690576
 30
0.0
 10
14.1260354465
 20
10.042632464
 30
0.0
 10
14.1313750569
 20
10.0381724132
 30
0.0
 10
14.1366207755
 20
10.0329743095
 30
0.0
 10
14.1399453802
 20
10.0291444452
 30
0.0
 10
14.1415934489
 20
10.0271180703
 30
0.0
  0
SPLINE
  5
2E3
100
AcDbEntity
  8
0
100
AcDbSpline
 62
7
  6
CONTINUOUS
 70
0
 71
3
 72
22
 73
18
 74
0
 42
0.0000001
 43
0.0000001
 44
0.0000000001
 40
0.0
 40
0.0
 40
0.0
 40
0.0
 40
0.0764231594
 40
0.1504694273
 40
0.2222091687
 40
0.2917227003
 40
0.3591050047
 40
0.4244648692
 40
0.5495744344
 40
0.6096451912
 40
0.6682571001
 40
0.7255854133
 40
0.7818195891
 40
0.837161402
 40
0.8918233905
 40
0.946027062
 40
1.0
 40
1.0
 40
1.0
 40
1.0
 10
13.9914180982
 20
10.0957090551
 30
0.0
 10
13.9924951641
 20
10.096749421
 30
0.0
 10
13.9946488976
 20
10.0987639223
 30
0.0
 10
13.9979308538
 20
10.1016265362
 30
0.0
 10
14.0012113772
 20
10.1042806577
 30
0.0
 10
14.0044894023
 20
10.1067252651
 30
0.0
 10
14.0077642145
 20
10.1089597208
 30
0.0
 10
14.0120616759
 20
10.111618748
 30
0.0
 10
14.0164159811
 20
10.1139074857
 30
0.0
 10
14.02081181
 20
10.1157824259
 30
0.0
 10
14.0240566988
 20
10.1169566468
 30
0.0
 10
14.0272928417
 20
10.1179171524
 30
0.0
 10
14.0305193604
 20
10.1186636396
 30
0.0
 10
14.0337352259
 20
10.1191957602
 30
0.0
 10
14.036939478
 20
10.119513166
 30
0.0
 10
14.0401308518
 20
10.1196157179
 30
0.0
 10
14.0422511072
 20
10.1195407306
 30
0.0
 10
14.0433061474
 20
10.1194675694
 30
0.0
  0
SPLINE
  5
2E4
100
AcDbEntity
  8
0
100
AcDbSpline
 62
7
  6
CONTINUOUS
 70
0
 71
3
 72
38
 73
34
 74
0
 42
0.0000001
 43
0.0000001
 44
0.0000000001
 40
0.0
 40
0.0
 40
0.0
 40
0.0
 40
0.030895411
 40
0.0619683829
 40
0.0775716198
 40
0.0932143585
 40
0.108894308
 40
0.124608918
 40
0.1403556067
 40
0.1561313741
 40
0.1719334471
 40
0.1877587096
 40
0.2194624807
 40
0.2512247607
 40
0.2830237408
 40
0.3148395025
 40
0.3466542843
 40
0.3784525369
 40
0.410220832
 40
0.4419477017
 40
0.5052213722
 40
0.5367724025
 40
0.5682520353
 40
0.630964507
 40
0.6622060286
 40
0.6933624952
 40
0.7553996262
 40
0.7862916734
 40
0.8170938385
 40
0.8784138391
 40
0.9089461024
 40
0.9393895174
 40
1.0
 40
1.0
 40
1.0
 40
1.0
 10
9.2504254958
 20
7.8166527262
 30
0.0
 10
9.2449257733
 20
7.8170341333
 30
0.0
 10
9.2339224837
 20
7.818276229
 30
0.0
 10
9.2203325467
 20
7.8209912736
 30
0.0
 10
9.2095811977
 20
7.8238414475
 30
0.0
 10
9.2015792834
 20
7.8263159249
 30
0.0
 10
9.1936644985
 20
7.8291158979
 30
0.0
 10
9.1858491108
 20
7.8322327023
 30
0.0
 10
9.1781445782
 20
7.8356563878
 30
0.0
 10
9.1705616513
 20
7.8393769197
 30
0.0
 10
9.1631098371
 20
7.8433832843
 30
0.0
 10
9.1533560454
 20
7.8490943254
 30
0.0
 10
9.1415350463
 20
7.8568919982
 30
0.0
 10
9.1280049272
 20
7.8672028576
 30
0.0
 10
9.1151582013
 20
7.8783831345
 30
0.0
 10
9.1030237694
 20
7.8903444646
 30
0.0
 10
9.091620582
 20
7.9030035695
 30
0.0
 10
9.0809604395
 20
7.9162823768
 30
0.0
 10
9.0710488773
 20
7.9301094161
 30
0.0
 10
9.058847299
 20
7.9491662772
 30
0.0
 10
9.0481243185
 20
7.96908865
 30
0.0
 10
9.0388799576
 20
7.9896498459
 30
0.0
 10
9.0306318117
 20
8.0105233823
 30
0.0
 10
9.0238208421
 20
8.0318805342
 30
0.0
 10
9.01843951
 20
8.0535524019
 30
0.0
 10
9.0140171057
 20
8.0753172434
 30
0.0
 10
9.0109930782
 20
8.0972829973
 30
0.0
 10
9.0093689471
 20
8.1193069304
 30
0.0
 10
9.0086770194
 20
8.1412517087
 30
0.0
 10
9.0093721029
 20
8.1631582415
 30
0.0
 10
9.0114690256
 20
8.1848853992
 30
0.0
 10
9.0144912637
 20
8.206374344
 30
0.0
 10
9.0178201714
 20
8.2223068233
 30
0.0
 10
9.0205191365
 20
8.2327798903
 30
0.0
  0
SPLINE
  5
2E5
100
AcDbEntity
  8
0
100
AcDbSpline
 62
7
  6
CONTINUOUS
 70
0
 71
3
 72
39
 73
35
 74
0
 42
0.0000001
 43
0.0000001
 44
0.0000000001
 40
0.0
 40
0.0
 40
0.0
 40
0.0
 40
0.0311449917
 40
0.0624431057
 40
0.0938883404
 40
0.1254709744
 40
0.1571788692
 40
0.1889972397
 40
0.22090915
 40
0.2528958136
 40
0.2849369888
 40
0.3170113756
 40
0.3490970326
 40
0.3811718011
 40
0.4132137322
 40
0.4452015112
 40
0.4771148736
 40
0.5089350068
 40
0.5406449308
 40
0.5722298519
 40
0.6036774839
 40
0.6349783272
 40
0.6661259021
 40
0.6971169269
 40
0.7279514343
 40
0.7586328219
 40
0.789167828
 40
0.8195664326
 40
0.8498416785
 40
0.8800094145
 40
0.9100879636
 40
0.9400977218
 40
0.9700606971
 40
1.0
 40
1.0
 40
1.0
 40
1.0
 10
8.404274538
 20
6.6884564655
 30
0.0
 10
8.3972928052
 20
6.6889406503
 30
0.0
 10
8.3833252594
 20
6.690422433
 30
0.0
 10
8.3625432749
 20
6.6941550892
 30
0.0
 10
8.3419838787
 20
6.6993834169
 30
0.0
 10
8.3217581187
 20
6.7060793156
 30
0.0
 10
8.301973441
 20
6.7142068771
 30
0.0
 10
8.2827353813
 20
6.7237226401
 30
0.0
 10
8.2641464232
 20
6.7345757446
 30
0.0
 10
8.2463056193
 20
6.7467082462
 30
0.0
 10
8.2293080244
 20
6.7600554054
 30
0.0
 10
8.2132442087
 20
6.7745460374
 30
0.0
 10
8.198199776
 20
6.790102886
 30
0.0
 10
8.1842549142
 20
6.8066430329
 30
0.0
 10
8.1714839713
 20
6.8240783343
 30
0.0
 10
8.159955063
 20
6.8423158867
 30
0.0
 10
8.1497297122
 20
6.8612585155
 30
0.0
 10
8.1408625215
 20
6.8808052867
 30
0.0
 10
8.1334008839
 20
6.9008520388
 30
0.0
 10
8.1273847306
 20
6.9212919306
 30
0.0
 10
8.1228463161
 20
6.9420160036
 30
0.0
 10
8.1198100433
 20
6.9629137542
 30
0.0
 10
8.1182923277
 20
6.9838737156
 30
0.0
 10
8.1183015033
 20
7.0047840446
 30
0.0
 10
8.1198377678
 20
7.0255331124
 30
0.0
 10
8.1228931712
 20
7.0460100955
 30
0.0
 10
8.1274516441
 20
7.0661055649
 30
0.0
 10
8.1334890723
 20
7.0857120739
 30
0.0
 10
8.1409734016
 20
7.1047247269
 30
0.0
 10
8.149864832
 20
7.1230417839
 30
0.0
 10
8.160115885
 20
7.1405650829
 30
0.0
 10
8.171672149
 20
7.1572010742
 30
0.0
 10
8.1844707021
 20
7.1728595005
 30
0.0
 10
8.1937897271
 20
7.1825949421
 30
0.0
 10
8.1986285536
 20
7.187268915
 30
0.0
  0
SPLINE
  5
2E6
100
AcDbEntity
  8
0
100
AcDbSpline
 62
7
  6
CONTINUOUS
 70
0
 71
3
 72
22
 73
18
 74
0
 42
0.0000001
 43
0.0000001
 44
0.0000000001
 40
0.0
 40
0.0
 40
0.0
 40
0.0
 40
0.0764232545
 40
0.1504695904
 40
0.2222093747
 40
0.2917229258
 40
0.3591052293
 40
0.4244650752
 40
0.5495745629
 40
0.6096452701
 40
0.6682571278
 40
0.7255853937
 40
0.7818195315
 40
0.8371613214
 40
0.8918233081
 40
0.9460270045
 40
1.0
 40
1.0
 40
1.0
 40
1.0
 10
12.7840107088
 20
10.179443042
 30
0.0
 10
12.7850877855
 20
10.1804834183
 30
0.0
 10
12.7872415407
 20
10.1824979392
 30
0.0
 10
12.7905235305
 20
10.1853605793
 30
0.0
 10
12.7938040874
 20
10.1880147227
 30
0.0
 10
12.7970821459
 20
10.1904593476
 30
0.0
 10
12.8003569914
 20
10.1926938166
 30
0.0
 10
12.804654496
 20
10.1953528552
 30
0.0
 10
12.8090088455
 20
10.1976415964
 30
0.0
 10
12.8134047188
 20
10.1995165311
 30
0.0
 10
12.8166496402
 20
10.2006907433
 30
0.0
 10
12.8198858153
 20
10.2016512359
 30
0.0
 10
12.8231123659
 20
10.2023977055
 30
0.0
 10
12.826328263
 20
10.2029298042
 30
0.0
 10
12.8295325462
 20
10.2032471837
 30
0.0
 10
12.8327239509
 20
10.2033497048
 30
0.0
 10
12.8348442258
 20
10.2032746939
 30
0.0
 10
12.8358992757
 20
10.2032015204
 30
0.0
  0
SPLINE
  5
2E7
100
AcDbEntity
  8
0
100
AcDbSpline
 62
7
  6
CONTINUOUS
 70
0
 71
3
 72
39
 73
35
 74
0
 42
0.0000001
 43
0.0000001
 44
0.0000000001
 40
0.0
 40
0.0
 40
0.0
 40
0.0
 40
0.0311449917
 40
0.0624431057
 40
0.0938883404
 40
0.1254709744
 40
0.1571788692
 40
0.1889972397
 40
0.22090915
 40
0.2528958136
 40
0.2849369888
 40
0.3170113756
 40
0.3490970326
 40
0.3811718011
 40
0.4132137322
 40
0.4452015112
 40
0.4771148736
 40
0.5089350068
 40
0.5406449308
 40
0.5722298519
 40
0.6036774839
 40
0.6349783272
 40
0.6661259021
 40
0.6971169269
 40
0.7279514343
 40
0.7586328219
 40
0.789167828
 40
0.8195664326
 40
0.8498416785
 40
0.8800094145
 40
0.9100879636
 40
0.9400977218
 40
0.9700606971
 40
1.0
 40
1.0
 40
1.0
 40
1.0
 10
11.4836463348
 20
6.474901306
 30
0.0
 10
11.476664602
 20
6.4753854908
 30
0.0
 10
11.4626970562
 20
6.4768672735
 30
0.0
 10
11.4419150717
 20
6.4805999298
 30
0.0
 10
11.4213556755
 20
6.4858282575
 30
0.0
 10
11.4011299155
 20
6.4925241562
 30
0.0
 10
11.3813452378
 20
6.5006517177
 30
0.0
 10
11.3621071781
 20
6.5101674807
 30
0.0
 10
11.34351822
 20
6.5210205852
 30
0.0
 10
11.3256774161
 20
6.5331530868
 30
0.0
 10
11.3086798212
 20
6.546500246
 30
0.0
 10
11.2926160055
 20
6.5609908779
 30
0.0
 10
11.2775715728
 20
6.5765477266
 30
0.0
 10
11.263626711
 20
6.5930878734
 30
0.0
 10
11.2508557681
 20
6.6105231749
 30
0.0
 10
11.2393268598
 20
6.6287607272
 30
0.0
 10
11.229101509
 20
6.647703356
 30
0.0
 10
11.2202343183
 20
6.6672501273
 30
0.0
 10
11.2127726807
 20
6.6872968793
 30
0.0
 10
11.2067565274
 20
6.7077367712
 30
0.0
 10
11.2022181129
 20
6.7284608442
 30
0.0
 10
11.1991818401
 20
6.7493585948
 30
0.0
 10
11.1976641245
 20
6.7703185562
 30
0.0
 10
11.1976733001
 20
6.7912288852
 30
0.0
 10
11.1992095646
 20
6.8119779529
 30
0.0
 10
11.202264968
 20
6.832454936
 30
0.0
 10
11.2068234409
 20
6.8525504054
 30
0.0
 10
11.2128608691
 20
6.8721569145
 30
0.0
 10
11.2203451984
 20
6.8911695675
 30
0.0
 10
11.2292366288
 20
6.9094866245
 30
0.0
 10
11.2394876818
 20
6.9270099235
 30
0.0
 10
11.2510439458
 20
6.9436459148
 30
0.0
 10
11.2638424989
 20
6.9593043411
 30
0.0
 10
11.2731615239
 20
6.9690397827
 30
0.0
 10
11.2780003505
 20
6.9737137556
 30
0.0
  0
SPLINE
  5
2E8
100
AcDbEntity
  8
0
100
AcDbSpline
 62
7
  6
CONTINUOUS
 70
0
 71
3
 72
50
 73
46
 74
0
 42
0.0000001
 43
0.0000001
 44
0.0000000001
 40
0.0
 40
0.0
 40
0.0
 40
0.0
 40
0.0378128611
 40
0.0760190334
 40
0.1145315696
 40
0.1532645103
 40
0.1921301506
 40
0.2310408617
 40
0.269908731
 40
0.3086460126
 40
0.347165323
 40
0.3853799084
 40
0.4232038959
 40
0.4605525481
 40
0.4973425198
 40
0.5334921181
 40
0.5689215678
 40
0.6035532829
 40
0.637312149
 40
0.6701258217
 40
0.7019250349
 40
0.7326439348
 40
0.7622204463
 40
0.7765622752
 40
0.7905971572
 40
0.8043186022
 40
0.8177204426
 40
0.8307968217
 40
0.84354232
 40
0.8559518158
 40
0.868020713
 40
0.8797447678
 40
0.8911203013
 40
0.9021441194
 40
0.912813603
 40
0.9231267987
 40
0.9330823728
 40
0.9426798717
 40
0.951919577
 40
0.960802784
 40
0.9693317719
 40
0.9775102131
 40
0.9853432686
 40
0.9928373107
 40
1.0
 40
1.0
 40
1.0
 40
1.0
 10
12.13696363
 20
8.8299991081
 30
0.0
 10
12.13696363
 20
8.8419235114
 30
0.0
 10
12.137122122
 20
8.8658966262
 30
0.0
 10
12.1378245977
 20
8.9020086029
 30
0.0
 10
12.1389916082
 20
8.9383988961
 30
0.0
 10
12.1406203024
 20
8.9749795891
 30
0.0
 10
12.1427068126
 20
9.0116627911
 30
0.0
 10
12.1452460977
 20
9.0483600816
 30
0.0
 10
12.1482320541
 20
9.0849831217
 30
0.0
 10
12.1516574826
 20
9.1214437119
 30
0.0
 10
12.1555141255
 20
9.1576540568
 30
0.0
 10
12.159792676
 20
9.1935269646
 30
0.0
 10
12.1644828059
 20
9.2289760615
 30
0.0
 10
12.1695731899
 20
9.2639159999
 30
0.0
 10
12.1750515325
 20
9.2982626655
 30
0.0
 10
12.1809045969
 20
9.3319333806
 30
0.0
 10
12.1871182367
 20
9.3648471061
 30
0.0
 10
12.1936774293
 20
9.3969246374
 30
0.0
 10
12.2005663117
 20
9.4280888053
 30
0.0
 10
12.207768215
 20
9.4582646524
 30
0.0
 10
12.2152657058
 20
9.487379674
 30
0.0
 10
12.223040638
 20
9.515363803
 30
0.0
 10
12.2298026633
 20
9.5379106818
 30
0.0
 10
12.2353448226
 20
9.5553261651
 30
0.0
 10
12.2395163839
 20
9.5679298528
 30
0.0
 10
12.2437429676
 20
9.5802021033
 30
0.0
 10
12.2480220271
 20
9.5921355521
 30
0.0
 10
12.252351019
 20
9.6037230161
 30
0.0
 10
12.2567272714
 20
9.6149575457
 30
0.0
 10
12.2611482218
 20
9.6258323785
 30
0.0
 10
12.2656111294
 20
9.6363410029
 30
0.0
 10
12.2701133714
 20
9.6464771011
 30
0.0
 10
12.2746521947
 20
9.6562346071
 30
0.0
 10
12.2792248841
 20
9.6656076751
 30
0.0
 10
12.2838287108
 20
9.6745906892
 30
0.0
 10
12.2884608607
 20
9.6831782997
 30
0.0
 10
12.2931186392
 20
9.6913653575
 30
0.0
 10
12.2977991807
 20
9.6991470261
 30
0.0
 10
12.3024997945
 20
9.706518636
 30
0.0
 10
12.3072175951
 20
9.7134758349
 30
0.0
 10
12.3119498521
 20
9.7200144975
 30
0.0
 10
12.3166938349
 20
9.7261308077
 30
0.0
 10
12.321446884
 20
9.7318212402
 30
0.0
 10
12.3262060303
 20
9.7370821129
 30
0.0
 10
12.3294531184
 20
9.7403740999
 30
0.0
 10
12.3310777537
 20
9.7419433771
 30
0.0
  0
SPLINE
  5
2E9
100
AcDbEntity
  8
0
100
AcDbSpline
 62
7
  6
CONTINUOUS
 70
0
 71
3
 72
82
 73
78
 74
0
 42
0.0000001
 43
0.0000001
 44
0.0000000001
 40
0.0
 40
0.0
 40
0.0
 40
0.0
 40
0.0452093675
 40
0.0909993975
 40
0.1371861496
 40
0.1835827659
 40
0.2300016252
 40
0.2762549531
 40
0.322155822
 40
0.3675191203
 40
0.4121625316
 40
0.4341585367
 40
0.4559079729
 40
0.4773892643
 40
0.4985812193
 40
0.519463026
 40
0.5400142937
 40
0.560215119
 40
0.5800460725
 40
0.5994882631
 40
0.6185233948
 40
0.637133755
 40
0.6553023053
 40
0.6730127247
 40
0.6902494129
 40
0.7069976103
 40
0.7232434303
 40
0.7389738957
 40
0.7541770911
 40
0.7688422
 40
0.7829595995
 40
0.7965210572
 40
0.8095198085
 40
0.8219507515
 40
0.8338107249
 40
0.8395263806
 40
0.8450991232
 40
0.8505291995
 40
0.8558170662
 40
0.8609633847
 40
0.865968997
 40
0.8708349996
 40
0.8755627576
 40
0.8801538801
 40
0.8846102953
 40
0.8889342835
 40
0.8931284568
 40
0.8971958343
 40
0.9011398937
 40
0.9049645573
 40
0.9086742655
 40
0.9122740396
 40
0.9157694725
 40
0.9224708674
 40
0.9256933628
 40
0.9288405168
 40
0.9319213189
 40
0.93494541
 40
0.9379230404
 40
0.940865011
 40
0.9437825492
 40
0.9466871919
 40
0.9495906474
 40
0.9525046363
 40
0.9554407464
 40
0.9584102777
 40
0.9614241182
 40
0.9644926484
 40
0.967625636
 40
0.970832191
 40
0.9774969749
 40
0.9809720257
 40
0.9845502159
 40
0.9882372679
 40
0.9920382907
 40
0.9959578568
 40
1.0
 40
1.0
 40
1.0
 40
1.0
 10
14.0740815648
 20
8.5023914635
 30
0.0
 10
14.0740815648
 20
8.4818382326
 30
0.0
 10
14.0737150077
 20
8.4404669559
 30
0.0
 10
14.0720986933
 20
8.3781170901
 30
0.0
 10
14.0694185401
 20
8.3152635144
 30
0.0
 10
14.0656859866
 20
8.2521773596
 30
0.0
 10
14.0609171209
 20
8.1891307031
 30
0.0
 10
14.0551325302
 20
8.1263954288
 30
0.0
 10
14.0483572174
 20
8.0642420109
 30
0.0
 10
14.0406204755
 20
8.0029385895
 30
0.0
 10
14.0333648291
 20
7.952536167
 30
0.0
 10
14.0270974854
 20
7.9128438192
 30
0.0
 10
14.0222017497
 20
7.8835967009
 30
0.0
 10
14.0170930486
 20
7.8547571943
 30
0.0
 10
14.01177691
 20
7.8263563799
 30
0.0
 10
14.0062590768
 20
7.7984249002
 30
0.0
 10
14.0005454968
 20
7.7709928816
 30
0.0
 10
13.9946423748
 20
7.7440899049
 30
0.0
 10
13.9885560768
 20
7.7177449845
 30
0.0
 10
13.9822931769
 20
7.6919865276
 30
0.0
 10
13.9758604746
 20
7.6668422993
 30
0.0
 10
13.9692649027
 20
7.6423394072
 30
0.0
 10
13.9625135987
 20
7.6185042563
 30
0.0
 10
13.9556138876
 20
7.5953625214
 30
0.0
 10
13.948573203
 20
7.5729391337
 30
0.0
 10
13.9413991753
 20
7.5512582302
 30
0.0
 10
13.9340995802
 20
7.5303431362
 30
0.0
 10
13.9266822775
 20
7.5102163528
 30
0.0
 10
13.9191553117
 20
7.4908994979
 30
0.0
 10
13.9115268221
 20
7.4724133047
 30
0.0
 10
13.903805009
 20
7.4547775994
 30
0.0
 10
13.8959982359
 20
7.438011256
 30
0.0
 10
13.8881148867
 20
7.4221321377
 30
0.0
 10
13.8801634257
 20
7.4071573268
 30
0.0
 10
13.8734069594
 20
7.3953034612
 30
0.0
 10
13.8679681346
 20
7.3862935439
 30
0.0
 10
13.8639275955
 20
7.3798554103
 30
0.0
 10
13.8598764431
 20
7.3736549881
 30
0.0
 10
13.8558157481
 20
7.3676939246
 30
0.0
 10
13.8517466244
 20
7.361973799
 30
0.0
 10
13.8476701243
 20
7.3564961626
 30
0.0
 10
13.8435873334
 20
7.3512624793
 30
0.0
 10
13.8394993614
 20
7.3462741227
 30
0.0
 10
13.8354072596
 20
7.3415324477
 30
0.0
 10
13.8313120983
 20
7.3370387273
 30
0.0
 10
13.8272149808
 20
7.3327941313
 30
0.0
 10
13.8231169495
 20
7.3287998194
 30
0.0
 10
13.819019051
 20
7.3250568798
 30
0.0
 10
13.8149223794
 20
7.3215662875
 30
0.0
 10
13.8108279423
 20
7.3183290044
 30
0.0
 10
13.8067368342
 20
7.3153459896
 30
0.0
 10
13.8026498739
 20
7.3126178973
 30
0.0
 10
13.7972839129
 20
7.3093676257
 30
0.0
 10
13.7918498892
 20
7.3065684191
 30
0.0
 10
13.7863667973
 20
7.304271484
 30
0.0
 10
13.7823171281
 20
7.3028295507
 30
0.0
 10
13.7782782193
 20
7.301646675
 30
0.0
 10
13.7742510683
 20
7.3007232792
 30
0.0
 10
13.7702368641
 20
7.3000598512
 30
0.0
 10
13.7662368203
 20
7.2996566357
 30
0.0
 10
13.7622521729
 20
7.299513849
 30
0.0
 10
13.7582841882
 20
7.2996316742
 30
0.0
 10
13.7543341453
 20
7.300010029
 30
0.0
 10
13.7504033047
 20
7.3006487641
 30
0.0
 10
13.7464929266
 20
7.3015476996
 30
0.0
 10
13.7426042129
 20
7.3027064069
 30
0.0
 10
13.7387383045
 20
7.3041244084
 30
0.0
 10
13.7348963698
 20
7.3058012075
 30
0.0
 10
13.7310793404
 20
7.3077362207
 30
0.0
 10
13.7259594194
 20
7.3106971843
 30
0.0
 10
13.7209558948
 20
7.314150742
 30
0.0
 10
13.7160815397
 20
7.3180432786
 30
0.0
 10
13.712404128
 20
7.32125806
 30
0.0
 10
13.7087576466
 20
7.3247261119
 30
0.0
 10
13.7051427277
 20
7.3284466242
 30
0.0
 10
13.7015604288
 20
7.3324185121
 30
0.0
 10
13.699230997
 20
7.3351899691
 30
0.0
 10
13.6980714964
 20
7.3366156355
 30
0.0
  0
SPLINE
  5
2EA
100
AcDbEntity
  8
0
100
AcDbSpline
 62
7
  6
CONTINUOUS
 70
0
 71
3
 72
62
 73
58
 74
0
 42
0.0000001
 43
0.0000001
 44
0.0000000001
 40
0.0
 40
0.0
 40
0.0
 40
0.0
 40
0.0095824934
 40
0.0187370091
 40
0.0274867828
 40
0.0358595054
 40
0.043887669
 40
0.0516090491
 40
0.0590667966
 40
0.0663094885
 40
0.0733906144
 40
0.0803678115
 40
0.0873015368
 40
0.0942534948
 40
0.1012848711
 40
0.1084546173
 40
0.1158180729
 40
0.1234258747
 40
0.1313234523
 40
0.1395507414
 40
0.1481423913
 40
0.157127982
 40
0.1665325406
 40
0.1763769356
 40
0.1866784092
 40
0.1974509775
 40
0.2087058509
 40
0.2204517904
 40
0.2326953857
 40
0.2454413713
 40
0.2586927727
 40
0.2724512001
 40
0.2867168842
 40
0.3014889618
 40
0.3167654264
 40
0.3325434118
 40
0.3488190806
 40
0.3655879072
 40
0.3828445246
 40
0.4005830018
 40
0.4187966707
 40
0.4374783871
 40
0.4566203579
 40
0.4762143756
 40
0.4962516613
 40
0.5167230639
 40
0.537618931
 40
0.5589292672
 40
0.6027507698
 40
0.6481006009
 40
0.694885925
 40
0.7430091446
 40
0.7923683423
 40
0.8428577817
 40
0.8943681307
 40
0.9467873042
 40
1.0
 40
1.0
 40
1.0
 40
1.0
 10
13.8269349447
 20
9.1947772388
 30
0.0
 10
13.8289179396
 20
9.1966228085
 30
0.0
 10
13.8328821193
 20
9.2001400412
 30
0.0
 10
13.838964429
 20
9.2049821208
 30
0.0
 10
13.8450404339
 20
9.2092638589
 30
0.0
 10
13.8511067842
 20
9.2129823255
 30
0.0
 10
13.8571604655
 20
9.2161347616
 30
0.0
 10
13.8631982001
 20
9.2187186789
 30
0.0
 10
13.8692166648
 20
9.2207314628
 30
0.0
 10
13.8752121047
 20
9.2221709626
 30
0.0
 10
13.8811804561
 20
9.2230350197
 30
0.0
 10
13.8871171505
 20
9.2233223513
 30
0.0
 10
13.8930173217
 20
9.223032039
 30
0.0
 10
13.8988759771
 20
9.2221644329
 30
0.0
 10
13.9046882295
 20
9.2207204028
 30
0.0
 10
13.9104496358
 20
9.2187019497
 30
0.0
 10
13.9161561394
 20
9.2161112885
 30
0.0
 10
13.92180429
 20
9.2129512691
 30
0.0
 10
13.9273908826
 20
9.2092246504
 30
0.0
 10
13.9329131086
 20
9.2049345109
 30
0.0
 10
13.9383681541
 20
9.2000838343
 30
0.0
 10
13.9437533799
 20
9.1946758676
 30
0.0
 10
13.9490660311
 20
9.1887139168
 30
0.0
 10
13.9543034143
 20
9.1822015811
 30
0.0
 10
13.9594627375
 20
9.1751426621
 30
0.0
 10
13.9645412237
 20
9.1675412753
 30
0.0
 10
13.969536065
 20
9.1594018259
 30
0.0
 10
13.9744444416
 20
9.1507290323
 30
0.0
 10
13.9792635768
 20
9.1415279441
 30
0.0
 10
13.9839906585
 20
9.131803914
 30
0.0
 10
13.9886229809
 20
9.1215626395
 30
0.0
 10
13.9931577798
 20
9.1108101094
 30
0.0
 10
13.9975924472
 20
9.0995526554
 30
0.0
 10
14.0019242973
 20
9.0877968918
 30
0.0
 10
14.006150836
 20
9.0755497646
 30
0.0
 10
14.0102694782
 20
9.0628184961
 30
0.0
 10
14.0142778539
 20
9.0496106255
 30
0.0
 10
14.0181734961
 20
9.0359339627
 30
0.0
 10
14.0219541644
 20
9.0217966183
 30
0.0
 10
14.0256175243
 20
9.0072069684
 30
0.0
 10
14.0291614685
 20
8.9921736726
 30
0.0
 10
14.0325838067
 20
8.9767056507
 30
0.0
 10
14.0358825674
 20
8.9608120887
 30
0.0
 10
14.0390557142
 20
8.9445024266
 30
0.0
 10
14.0421014147
 20
8.9277863533
 30
0.0
 10
14.0450177903
 20
8.9106738075
 30
0.0
 10
14.047803166
 20
8.8931749443
 30
0.0
 10
14.0513731779
 20
8.8691182009
 30
0.0
 10
14.0554846194
 20
8.8381548796
 30
0.0
 10
14.0598262608
 20
8.7999642146
 30
0.0
 10
14.0636099452
 20
8.7604924957
 30
0.0
 10
14.0668265631
 20
8.7198336269
 30
0.0
 10
14.069468344
 20
8.6780841941
 30
0.0
 10
14.0715288991
 20
8.6353434861
 30
0.0
 10
14.0730032518
 20
8.5917130605
 30
0.0
 10
14.0738878077
 20
8.5472968329
 30
0.0
 10
14.0740815648
 20
8.5174345623
 30
0.0
 10
14.0740815648
 20
8.5023914635
 30
0.0
  0
SPLINE
  5
2EB
100
AcDbEntity
  8
0
100
AcDbSpline
 62
7
  6
CONTINUOUS
 70
0
 71
3
 72
40
 73
36
 74
0
 42
0.0000001
 43
0.0000001
 44
0.0000000001
 40
0.0
 40
0.0
 40
0.0
 40
0.0
 40
0.0311444947
 40
0.0624430116
 40
0.0938878326
 40
0.1254704216
 40
0.1571781344
 40
0.1889963661
 40
0.2209081245
 40
0.2528946404
 40
0.2689119976
 40
0.2849403504
 40
0.3170145907
 40
0.3491001014
 40
0.3811747228
 40
0.4132165051
 40
0.4452041336
 40
0.4771173445
 40
0.5089373259
 40
0.5406470987
 40
0.5722318701
 40
0.6036793542
 40
0.6349800517
 40
0.6661274822
 40
0.697118363
 40
0.7279527258
 40
0.7586339677
 40
0.7891688275
 40
0.8195672855
 40
0.8498423851
 40
0.8800099759
 40
0.9100883815
 40
0.9400979984
 40
0.9700608344
 40
1.0
 40
1.0
 40
1.0
 40
1.0
 10
10.8190891317
 20
6.6253084949
 30
0.0
 10
10.815409608
 20
6.6255636708
 30
0.0
 10
10.8080483071
 20
6.6263446341
 30
0.0
 10
10.7970956286
 20
6.6283118008
 30
0.0
 10
10.7862602297
 20
6.6310673313
 30
0.0
 10
10.7756007104
 20
6.6345962271
 30
0.0
 10
10.7651736504
 20
6.6388796873
 30
0.0
 10
10.7550346218
 20
6.6438947847
 30
0.0
 10
10.7452378945
 20
6.6496145495
 30
0.0
 10
10.7374052004
 20
6.6549411549
 30
0.0
 10
10.7313606744
 20
6.6595223623
 30
0.0
 10
10.7254681642
 20
6.6643140076
 30
0.0
 10
10.7184107746
 20
6.6706802021
 30
0.0
 10
10.7104821111
 20
6.6788789654
 30
0.0
 10
10.7031327518
 20
6.6875961221
 30
0.0
 10
10.6964021375
 20
6.6967850056
 30
0.0
 10
10.6903260961
 20
6.706396708
 30
0.0
 10
10.6849370686
 20
6.7163799998
 30
0.0
 10
10.6802638265
 20
6.7266816901
 30
0.0
 10
10.6763313482
 20
6.7372468825
 30
0.0
 10
10.6731606785
 20
6.7480192695
 30
0.0
 10
10.6707688174
 20
6.7589414275
 30
0.0
 10
10.6691686271
 20
6.7699551183
 30
0.0
 10
10.6683687607
 20
6.7810015957
 30
0.0
 10
10.668373613
 20
6.7920219146
 30
0.0
 10
10.6691832886
 20
6.8029572423
 30
0.0
 10
10.6707935947
 20
6.8137491713
 30
0.0
 10
10.6731960603
 20
6.8243400295
 30
0.0
 10
10.676377975
 20
6.83467319
 30
0.0
 10
10.6803224443
 20
6.8446933708
 30
0.0
 10
10.685008492
 20
6.8543469527
 30
0.0
 10
10.6904110952
 20
6.8635822025
 30
0.0
 10
10.696501579
 20
6.8723498166
 30
0.0
 10
10.7032467814
 20
6.8806022282
 30
0.0
 10
10.7081581772
 20
6.8857330614
 30
0.0
 10
10.7107083751
 20
6.8881963708
 30
0.0
  0
SPLINE
  5
2EC
100
AcDbEntity
  8
0
100
AcDbSpline
 62
7
  6
CONTINUOUS
 70
0
 71
3
 72
38
 73
34
 74
0
 42
0.0000001
 43
0.0000001
 44
0.0000000001
 40
0.0
 40
0.0
 40
0.0
 40
0.0
 40
0.0980597763
 40
0.1926660594
 40
0.2833882126
 40
0.3271668876
 40
0.3698258458
 40
0.411319607
 40
0.4516052473
 40
0.4906417591
 40
0.5283912914
 40
0.564818461
 40
0.5998914527
 40
0.6335815174
 40
0.6658641295
 40
0.6967187223
 40
0.7261298862
 40
0.754087473
 40
0.7805879441
 40
0.8056350256
 40
0.8292413874
 40
0.8514301245
 40
0.8722370754
 40
0.8917134872
 40
0.909929319
 40
0.9269772517
 40
0.9429767451
 40
0.9580781557
 40
0.9724648537
 40
0.9794604671
 40
0.9863607044
 40
0.9931965644
 40
1.0
 40
1.0
 40
1.0
 40
1.0
 10
13.5558651476
 20
8.348821898
 30
0.0
 10
13.5550111176
 20
8.3441985082
 30
0.0
 10
13.5532381021
 20
8.3351317284
 30
0.0
 10
13.5503286049
 20
8.3218582895
 30
0.0
 10
13.5477143778
 20
8.3111876605
 30
0.0
 10
13.5455255812
 20
8.3029801085
 30
0.0
 10
13.5438614047
 20
8.2970761068
 30
0.0
 10
13.542157257
 20
8.2913580543
 30
0.0
 10
13.5404153535
 20
8.2858332135
 30
0.0
 10
13.5386378753
 20
8.2805086243
 30
0.0
 10
13.536827147
 20
8.2753910543
 30
0.0
 10
13.5349854375
 20
8.270487012
 30
0.0
 10
13.5331151476
 20
8.265802714
 30
0.0
 10
13.5312186234
 20
8.2613441051
 30
0.0
 10
13.5292983252
 20
8.2571168176
 30
0.0
 10
13.5273566608
 20
8.2531261947
 30
0.0
 10
13.5253961275
 20
8.2493772477
 30
0.0
 10
13.5234191712
 20
8.245874682
 30
0.0
 10
13.5214282935
 20
8.2426228545
 30
0.0
 10
13.519425941
 20
8.2396257992
 30
0.0
 10
13.5174145654
 20
8.2368871941
 30
0.0
 10
13.5153965472
 20
8.2344103834
 30
0.0
 10
13.5133741966
 20
8.2321983773
 30
0.0
 10
13.5113497207
 20
8.2302538749
 30
0.0
 10
13.5093251595
 20
8.2285793454
 30
0.0
 10
13.5073024708
 20
8.22717707
 30
0.0
 10
13.505283366
 20
8.2260493622
 30
0.0
 10
13.50327007
 20
8.2251985828
 30
0.0
 10
13.5015825922
 20
8.2247180917
 30
0.0
 10
13.5002467632
 20
8.2244796554
 30
0.0
 10
13.4992577177
 20
8.2243723832
 30
0.0
 10
13.4982728496
 20
8.2243351568
 30
0.0
 10
13.4976186026
 20
8.2243570562
 30
0.0
 10
13.4972931847
 20
8.2243796269
 30
0.0
  0
SPLINE
  5
2ED
100
AcDbEntity
  8
0
100
AcDbSpline
 62
7
  6
CONTINUOUS
 70
0
 71
3
 72
53
 73
49
 74
0
 42
0.0000001
 43
0.0000001
 44
0.0000000001
 40
0.0
 40
0.0
 40
0.0
 40
0.0
 40
0.0063158453
 40
0.0126706042
 40
0.0191024045
 40
0.0256479299
 40
0.0323417859
 40
0.0392161006
 40
0.0536138955
 40
0.0611945924
 40
0.0690563441
 40
0.0772174269
 40
0.0856937979
 40
0.0944991832
 40
0.1036452597
 40
0.11314202
 40
0.1229977594
 40
0.1332193388
 40
0.1438124264
 40
0.1547814124
 40
0.1661297233
 40
0.1778599004
 40
0.1899735286
 40
0.2024715483
 40
0.215354187
 40
0.228620972
 40
0.2422709821
 40
0.2563026805
 40
0.2707140376
 40
0.2855026779
 40
0.3006656825
 40
0.3321007985
 40
0.3649898971
 40
0.3992976059
 40
0.4349839202
 40
0.4720046721
 40
0.5103119941
 40
0.5498546252
 40
0.5905781203
 40
0.632425176
 40
0.6753358984
 40
0.7192479643
 40
0.7640967369
 40
0.809815732
 40
0.8563364699
 40
0.9035882635
 40
0.9515016805
 40
1.0
 40
1.0
 40
1.0
 40
1.0
 10
12.2791891868
 20
6.4958561513
 30
0.0
 10
12.2779215488
 20
6.495944069
 30
0.0
 10
12.2753844553
 20
6.4962242304
 30
0.0
 10
12.2716072562
 20
6.4969544402
 30
0.0
 10
12.2678552867
 20
6.4979945257
 30
0.0
 10
12.2641307828
 20
6.4993437957
 30
0.0
 10
12.260435174
 20
6.5010013653
 30
0.0
 10
12.2554729444
 20
6.5036613995
 30
0.0
 10
12.2506455097
 20
6.5069177354
 30
0.0
 10
12.2459737418
 20
6.5106912572
 30
0.0
 10
12.2424450229
 20
6.5138728231
 30
0.0
 10
12.2389539394
 20
6.5173549971
 30
0.0
 10
12.2355014373
 20
6.5211366131
 30
0.0
 10
12.232088916
 20
6.5252160198
 30
0.0
 10
12.2287175788
 20
6.5295915261
 30
0.0
 10
12.2253887956
 20
6.5342613931
 30
0.0
 10
12.2221038211
 20
6.5392237
 30
0.0
 10
12.218863923
 20
6.5444764257
 30
0.0
 10
12.2156704523
 20
6.5500174755
 30
0.0
 10
12.2125246256
 20
6.5558445672
 30
0.0
 10
12.2094277225
 20
6.5619553408
 30
0.0
 10
12.2063810385
 20
6.5683473246
 30
0.0
 10
12.2033857496
 20
6.5750178862
 30
0.0
 10
12.2004431188
 20
6.5819643169
 30
0.0
 10
12.1975543588
 20
6.589183777
 30
0.0
 10
12.1947206067
 20
6.5966732956
 30
0.0
 10
12.191943082
 20
6.6044298187
 30
0.0
 10
12.1892229035
 20
6.6124501564
 30
0.0
 10
12.1865611735
 20
6.6207310077
 30
0.0
 10
12.1839590255
 20
6.6292689933
 30
0.0
 10
12.1805291058
 20
6.641133919
 30
0.0
 10
12.1764080435
 20
6.6565879239
 30
0.0
 10
12.1717743911
 20
6.6758849301
 30
0.0
 10
12.1674025996
 20
6.6961187288
 30
0.0
 10
12.1632999324
 20
6.7172559923
 30
0.0
 10
12.1594732113
 20
6.739262023
 30
0.0
 10
12.1559288158
 20
6.7621006224
 30
0.0
 10
12.152672671
 20
6.78573421
 30
0.0
 10
12.1497101882
 20
6.8101238592
 30
0.0
 10
12.1470462978
 20
6.835229382
 30
0.0
 10
12.1446854498
 20
6.8610094068
 30
0.0
 10
12.14263159
 20
6.887421427
 30
0.0
 10
12.1408881199
 20
6.9144218991
 30
0.0
 10
12.1394579547
 20
6.9419662957
 30
0.0
 10
12.1383435027
 20
6.9700090848
 30
0.0
 10
12.1375465806
 20
6.9985043425
 30
0.0
 10
12.137068597
 20
7.027404597
 30
0.0
 10
12.13696363
 20
7.0468018233
 30
0.0
 10
12.13696363
 20
7.0565591859
 30
0.0
  0
SPLINE
  5
2EE
100
AcDbEntity
  8
0
100
AcDbSpline
 62
7
  6
CONTINUOUS
 70
0
 71
3
 72
53
 73
49
 74
0
 42
0.0000001
 43
0.0000001
 44
0.0000000001
 40
0.0
 40
0.0
 40
0.0
 40
0.0
 40
0.0063158507
 40
0.0126706099
 40
0.0191024059
 40
0.0256479227
 40
0.0323417663
 40
0.0392160653
 40
0.0536138211
 40
0.0611944956
 40
0.0690562236
 40
0.0772172816
 40
0.0856936274
 40
0.0944989871
 40
0.1036450381
 40
0.113141773
 40
0.1229974875
 40
0.1332190426
 40
0.1438121066
 40
0.1547810699
 40
0.1661293591
 40
0.1778595157
 40
0.1899731245
 40
0.2024711261
 40
0.215353748
 40
0.2286205176
 40
0.2422705136
 40
0.2563021995
 40
0.2707135455
 40
0.2855021761
 40
0.3006651726
 40
0.3321002769
 40
0.3649893698
 40
0.399297079
 40
0.4349833995
 40
0.4720041635
 40
0.5103115033
 40
0.5498541576
 40
0.590577681
 40
0.63242477
 40
0.6753355304
 40
0.7192476386
 40
0.7640964575
 40
0.8098155027
 40
0.8563362939
 40
0.9035881437
 40
0.9515016196
 40
1.0
 40
1.0
 40
1.0
 40
1.0
 10
13.4865970939
 20
6.4121221285
 30
0.0
 10
13.4853294528
 20
6.4122100324
 30
0.0
 10
13.4827923528
 20
6.4124901663
 30
0.0
 10
13.4790151424
 20
6.4132203363
 30
0.0
 10
13.4752631614
 20
6.4142603835
 30
0.0
 10
13.4715386459
 20
6.4156096166
 30
0.0
 10
13.4678430254
 20
6.4172671509
 30
0.0
 10
13.4628807807
 20
6.4199271387
 30
0.0
 10
13.4580533298
 20
6.4231834324
 30
0.0
 10
13.4533815461
 20
6.4269569156
 30
0.0
 10
13.4498528155
 20
6.4301384533
 30
0.0
 10
13.4463617202
 20
6.4336206005
 30
0.0
 10
13.4429092063
 20
6.4374021913
 30
0.0
 10
13.4394966733
 20
6.4414815742
 30
0.0
 10
13.4361253245
 20
6.445857058
 30
0.0
 10
13.4327965296
 20
6.450526904
 30
0.0
 10
13.4295115435
 20
6.4554891915
 30
0.0
 10
13.426271634
 20
6.4607418991
 30
0.0
 10
13.4230781518
 20
6.4662829322
 30
0.0
 10
13.4199323138
 20
6.4721100088
 30
0.0
 10
13.4168353993
 20
6.4782207686
 30
0.0
 10
13.4137887042
 20
6.4846127402
 30
0.0
 10
13.4107934042
 20
6.4912832908
 30
0.0
 10
13.4078507624
 20
6.4982297122
 30
0.0
 10
13.4049619916
 20
6.5054491642
 30
0.0
 10
13.4021282289
 20
6.5129386762
 30
0.0
 10
13.3993506935
 20
6.520695194
 30
0.0
 10
13.3966305046
 20
6.5287155278
 30
0.0
 10
13.3939687644
 20
6.5369963767
 30
0.0
 10
13.3913666063
 20
6.5455343611
 30
0.0
 10
13.3879366731
 20
6.5573992878
 30
0.0
 10
13.3838155945
 20
6.5728532972
 30
0.0
 10
13.3791819237
 20
6.592150313
 30
0.0
 10
13.3748101147
 20
6.6123841265
 30
0.0
 10
13.370707431
 20
6.6335214095
 30
0.0
 10
13.3668806944
 20
6.6555274643
 30
0.0
 10
13.3633362845
 20
6.6783660924
 30
0.0
 10
13.3600801262
 20
6.7019997129
 30
0.0
 10
13.3571176311
 20
6.7263893991
 30
0.0
 10
13.3544537297
 20
6.7514949626
 30
0.0
 10
13.3520928718
 20
6.7772750318
 30
0.0
 10
13.3500390034
 20
6.8036870997
 30
0.0
 10
13.3482955259
 20
6.8306876226
 30
0.0
 10
13.3468653547
 20
6.8582320728
 30
0.0
 10
13.345750898
 20
6.886274918
 30
0.0
 10
13.3449539724
 20
6.914770234
 30
0.0
 10
13.3444759869
 20
6.9436705488
 30
0.0
 10
13.3443710194
 20
6.9630678158
 30
0.0
 10
13.3443710194
 20
6.9728251991
 30
0.0
  0
SPLINE
  5
2EF
100
AcDbEntity
  8
0
100
AcDbSpline
 62
7
  6
CONTINUOUS
 70
0
 71
3
 72
60
 73
56
 74
0
 42
0.0000001
 43
0.0000001
 44
0.0000000001
 40
0.0
 40
0.0
 40
0.0
 40
0.0
 40
0.0095822002
 40
0.0187369924
 40
0.0274867135
 40
0.0358591658
 40
0.0438870963
 40
0.0516083429
 40
0.0590660196
 40
0.0663086121
 40
0.0733896747
 40
0.0803668217
 40
0.0873005313
 40
0.0942524971
 40
0.1012839011
 40
0.1084536914
 40
0.115817217
 40
0.123425094
 40
0.1313227642
 40
0.1395501611
 40
0.1481419045
 40
0.1571276302
 40
0.1665322814
 40
0.1763768182
 40
0.1866783986
 40
0.1974510881
 40
0.20870609
 40
0.2204521222
 40
0.2326958587
 40
0.2454419251
 40
0.2586934556
 40
0.2724519705
 40
0.2867177534
 40
0.3014899277
 40
0.3167664669
 40
0.3325445437
 40
0.3488202857
 40
0.365589175
 40
0.3828458756
 40
0.400584382
 40
0.4187981383
 40
0.4374798679
 40
0.4566219099
 40
0.4762159462
 40
0.5167240395
 40
0.5589296956
 40
0.6027512093
 40
0.648101029
 40
0.6948863323
 40
0.7430095268
 40
0.7923686515
 40
0.8428581366
 40
0.894368089
 40
0.9467878086
 40
1.0
 40
1.0
 40
1.0
 40
1.0
 10
13.5966901622
 20
6.4900194557
 30
0.0
 10
13.595274931
 20
6.4887023681
 30
0.0
 10
13.5924456695
 20
6.4861922423
 30
0.0
 10
13.5881047554
 20
6.4827365706
 30
0.0
 10
13.5837682989
 20
6.4796808652
 30
0.0
 10
13.5794388239
 20
6.4770272302
 30
0.0
 10
13.5751184168
 20
6.4747775708
 30
0.0
 10
13.5708093606
 20
6.4729336661
 30
0.0
 10
13.5665140772
 20
6.4714972634
 30
0.0
 10
13.5622351881
 20
6.4704701506
 30
0.0
 10
13.5579756713
 20
6.4698535701
 30
0.0
 10
13.5537387308
 20
6.469648744
 30
0.0
 10
13.5495278617
 20
6.4698560393
 30
0.0
 10
13.5453466242
 20
6.470475423
 30
0.0
 10
13.5411985046
 20
6.4715061563
 30
0.0
 10
13.5370866673
 20
6.4729468374
 30
0.0
 10
13.5330140292
 20
6.4747959247
 30
0.0
 10
13.5289830208
 20
6.4770513195
 30
0.0
 10
13.5249959531
 20
6.4797111021
 30
0.0
 10
13.5210548358
 20
6.4827730678
 30
0.0
 10
13.5171616274
 20
6.4862350434
 30
0.0
 10
13.5133183082
 20
6.4900947987
 30
0.0
 10
13.5095267125
 20
6.4943498643
 30
0.0
 10
13.5057889059
 20
6.4989977819
 30
0.0
 10
13.5021067562
 20
6.504035749
 30
0.0
 10
13.4984823241
 20
6.509460882
 30
0.0
 10
13.4949175963
 20
6.5152700207
 30
0.0
 10
13.491414539
 20
6.5214597818
 30
0.0
 10
13.4879752319
 20
6.5280265996
 30
0.0
 10
13.4846015554
 20
6.5349666076
 30
0.0
 10
13.4812955684
 20
6.5422757828
 30
0.0
 10
13.4780591385
 20
6.5499498178
 30
0.0
 10
13.4748941933
 20
6.5579842128
 30
0.0
 10
13.4718026259
 20
6.566374241
 30
0.0
 10
13.4687862048
 20
6.5751149428
 30
0.0
 10
13.4658468058
 20
6.5842011712
 30
0.0
 10
13.4629860918
 20
6.5936275383
 30
0.0
 10
13.4602058289
 20
6.6033884736
 30
0.0
 10
13.4575076463
 20
6.6134781892
 30
0.0
 10
13.4548931402
 20
6.6238907032
 30
0.0
 10
13.4523639175
 20
6.6346198422
 30
0.0
 10
13.4499214226
 20
6.6456592316
 30
0.0
 10
13.4475671682
 20
6.6570023321
 30
0.0
 10
13.4445138152
 20
6.6726965768
 30
0.0
 10
13.4409383302
 20
6.6930280038
 30
0.0
 10
13.4370667618
 20
6.7182640786
 30
0.0
 10
13.4335775067
 20
6.7445415061
 30
0.0
 10
13.4304789578
 20
6.7717978152
 30
0.0
 10
13.4277786031
 20
6.7999683274
 30
0.0
 10
13.4254829638
 20
6.8289861005
 30
0.0
 10
13.4235975679
 20
6.8587822048
 30
0.0
 10
13.4221269984
 20
6.8892856981
 30
0.0
 10
13.4210747581
 20
6.9204242961
 30
0.0
 10
13.4204434818
 20
6.9521236024
 30
0.0
 10
13.4203051918
 20
6.9734359877
 30
0.0
 10
13.4203051918
 20
6.9841719816
 30
0.0
  0
SPLINE
  5
2F0
100
AcDbEntity
  8
0
100
AcDbSpline
 62
7
  6
CONTINUOUS
 70
0
 71
3
 72
25
 73
21
 74
0
 42
0.0000001
 43
0.0000001
 44
0.0000000001
 40
0.0
 40
0.0
 40
0.0
 40
0.0
 40
0.0616475324
 40
0.0924812818
 40
0.1233236521
 40
0.1850399988
 40
0.2468243992
 40
0.2777516371
 40
0.3087038682
 40
0.3706878964
 40
0.4328012845
 40
0.4950619149
 40
0.5574860747
 40
0.6200882862
 40
0.6828810671
 40
0.7458751796
 40
0.8090790771
 40
0.8724979014
 40
0.9361399151
 40
1.0
 40
1.0
 40
1.0
 40
1.0
 10
11.6892923192
 20
8.9627316883
 30
0.0
 10
11.6859705772
 20
8.9595231145
 30
0.0
 10
11.6808565991
 20
8.9548424505
 30
0.0
 10
11.6737948974
 20
8.948884082
 30
0.0
 10
11.666571552
 20
8.9431141056
 30
0.0
 10
11.6572493234
 20
8.9362638498
 30
0.0
 10
11.6475681468
 20
8.9299194181
 30
0.0
 10
11.6396214136
 20
8.9251555828
 30
0.0
 10
11.6315374285
 20
8.9205980696
 30
0.0
 10
11.6211938173
 20
8.9153000464
 30
0.0
 10
11.6084419271
 20
8.9096011763
 30
0.0
 10
11.5953759052
 20
8.9045719329
 30
0.0
 10
11.5820288764
 20
8.9002251085
 30
0.0
 10
11.568434411
 20
8.8965715887
 30
0.0
 10
11.5546267735
 20
8.893620495
 30
0.0
 10
11.5406407079
 20
8.8913792373
 30
0.0
 10
11.5265115312
 20
8.8898534889
 30
0.0
 10
11.5122744707
 20
8.8890469063
 30
0.0
 10
11.4979661072
 20
8.8889616748
 30
0.0
 10
11.488418949
 20
8.8893850329
 30
0.0
 10
11.4836463348
 20
8.8897160148
 30
0.0
  0
SPLINE
  5
2F1
100
AcDbEntity
  8
0
100
AcDbSpline
 62
7
  6
CONTINUOUS
 70
0
 71
3
 72
42
 73
38
 74
0
 42
0.0000001
 43
0.0000001
 44
0.0000000001
 40
0.0
 40
0.0
 40
0.0
 40
0.0
 40
0.0311438942
 40
0.0624423672
 40
0.0938866334
 40
0.1254688884
 40
0.1571761972
 40
0.1889940414
 40
0.2209054133
 40
0.2528915406
 40
0.2849321764
 40
0.3170060194
 40
0.3490911298
 40
0.3811653513
 40
0.4132067372
 40
0.4451939736
 40
0.4771067941
 40
0.5089263835
 40
0.5406357617
 40
0.5722201374
 40
0.6036672265
 40
0.6349675315
 40
0.6661145727
 40
0.6971050657
 40
0.7279390408
 40
0.7586198955
 40
0.7891543699
 40
0.8195524461
 40
0.8498271685
 40
0.8649259233
 40
0.879999996
 40
0.910078031
 40
0.9400872769
 40
0.9550757892
 40
0.9700554665
 40
0.9850292167
 40
1.0
 40
1.0
 40
1.0
 40
1.0
 10
9.9439603789
 20
7.9494299408
 30
0.0
 10
9.9408941239
 20
7.9496425863
 30
0.0
 10
9.9347596829
 20
7.9502934045
 30
0.0
 10
9.925632432
 20
7.9519326937
 30
0.0
 10
9.9166028976
 20
7.9542290067
 30
0.0
 10
9.9077199575
 20
7.9571697433
 30
0.0
 10
9.8990307102
 20
7.9607393154
 30
0.0
 10
9.8905815378
 20
7.9649185432
 30
0.0
 10
9.8824174456
 20
7.9696851331
 30
0.0
 10
9.8745819424
 20
7.9750136289
 30
0.0
 10
9.8671167746
 20
7.980875596
 30
0.0
 10
9.8600617163
 20
7.9872397642
 30
0.0
 10
9.8534543617
 20
7.9940722014
 30
0.0
 10
9.8473299269
 20
8.0013364904
 30
0.0
 10
9.8417210656
 20
8.0089939209
 30
0.0
 10
9.8366576961
 20
8.0170036926
 30
0.0
 10
9.8321668459
 20
8.0253231303
 30
0.0
 10
9.828272495
 20
8.0339079021
 30
0.0
 10
9.8249954519
 20
8.0427122575
 30
0.0
 10
9.8223532506
 20
8.0516892724
 30
0.0
 10
9.8203600557
 20
8.0607910939
 30
0.0
 10
9.819026586
 20
8.0699691906
 30
0.0
 10
9.8183600544
 20
8.0791746084
 30
0.0
 10
9.8183641284
 20
8.0883582243
 30
0.0
 10
9.8190388983
 20
8.0974710156
 30
0.0
 10
9.8203808533
 20
8.1064642869
 30
0.0
 10
9.8223829709
 20
8.1152900617
 30
0.0
 10
9.8250345123
 20
8.1239008452
 30
0.0
 10
9.8277766264
 20
8.1308664731
 30
0.0
 10
9.8302789838
 20
8.1362833084
 30
0.0
 10
9.8329794564
 20
8.1415823915
 30
0.0
 10
9.8367289466
 20
8.1479918686
 30
0.0
 10
9.8409607287
 20
8.1540835602
 30
0.0
 10
9.8446174818
 20
8.1587397679
 30
0.0
 10
9.8474919854
 20
8.1621191563
 30
0.0
 10
9.8504952272
 20
8.1653821139
 30
0.0
 10
9.8525808482
 20
8.1674771106
 30
0.0
 10
9.853643534
 20
8.1685035838
 30
0.0
  0
SPLINE
  5
2F2
100
AcDbEntity
  8
0
100
AcDbSpline
 62
7
  6
CONTINUOUS
 70
0
 71
3
 72
60
 73
56
 74
0
 42
0.0000001
 43
0.0000001
 44
0.0000000001
 40
0.0
 40
0.0
 40
0.0
 40
0.0
 40
0.0417737064
 40
0.0840362649
 40
0.1266574845
 40
0.1695051256
 40
0.2124463909
 40
0.2553479952
 40
0.298076846
 40
0.3405005212
 40
0.3824878081
 40
0.4239092291
 40
0.4646375759
 40
0.5045484501
 40
0.5435208143
 40
0.5814375607
 40
0.599964913
 40
0.6181865443
 40
0.6360891819
 40
0.6536599267
 40
0.6708862697
 40
0.687756091
 40
0.7042577413
 40
0.7203799822
 40
0.7361121303
 40
0.7514439523
 40
0.7663658521
 40
0.7808687543
 40
0.7949442977
 40
0.8085847538
 40
0.8217831894
 40
0.8345334625
 40
0.846830331
 40
0.8586695546
 40
0.8700479498
 40
0.8809636112
 40
0.8914159377
 40
0.901405974
 40
0.9109364629
 40
0.9200122953
 40
0.9286406699
 40
0.9368316421
 40
0.9445984765
 40
0.9519582917
 40
0.9589326497
 40
0.9655482618
 40
0.9718377173
 40
0.9778400476
 40
0.9836011798
 40
0.9864084806
 40
0.9891757955
 40
0.991910663
 40
0.9946209132
 40
0.9973146139
 40
1.0
 40
1.0
 40
1.0
 40
1.0
 10
13.947932837
 20
8.4835411602
 30
0.0
 10
13.947932837
 20
8.4674784367
 30
0.0
 10
13.9476822423
 20
8.4351645125
 30
0.0
 10
13.9465744021
 20
8.386473397
 30
0.0
 10
13.9447356659
 20
8.3373910857
 30
0.0
 10
13.9421720539
 20
8.2880800247
 30
0.0
 10
13.9388920425
 20
8.2387033819
 30
0.0
 10
13.9349064716
 20
8.1894245001
 30
0.0
 10
13.9302285448
 20
8.1404064177
 30
0.0
 10
13.924873769
 20
8.0918112971
 30
0.0
 10
13.9188599103
 20
8.0437998948
 30
0.0
 10
13.9122069337
 20
7.9965310188
 30
0.0
 10
13.9049369371
 20
7.9501610146
 30
0.0
 10
13.897074087
 20
7.9048431832
 30
0.0
 10
13.8886445122
 20
7.8607274774
 30
0.0
 10
13.8811143213
 20
7.8248168939
 30
0.0
 10
13.8748193784
 20
7.7968048241
 30
0.0
 10
13.8700106935
 20
7.7763475202
 30
0.0
 10
13.8650822544
 20
7.7562973143
 30
0.0
 10
13.8600381327
 20
7.7366707735
 30
0.0
 10
13.8548825254
 20
7.7174841325
 30
0.0
 10
13.8496196817
 20
7.6987532566
 30
0.0
 10
13.8442540056
 20
7.6804936284
 30
0.0
 10
13.8387898941
 20
7.6627203452
 30
0.0
 10
13.8332319416
 20
7.6454480873
 30
0.0
 10
13.8275846873
 20
7.6286911313
 30
0.0
 10
13.821852886
 20
7.6124633054
 30
0.0
 10
13.8160412204
 20
7.5967780141
 30
0.0
 10
13.8101545696
 20
7.5816481869
 30
0.0
 10
13.8041977611
 20
7.5670863051
 30
0.0
 10
13.7981757622
 20
7.5531043565
 30
0.0
 10
13.7920935398
 20
7.5397138485
 30
0.0
 10
13.7859561161
 20
7.5269257866
 30
0.0
 10
13.7797685812
 20
7.5147506544
 30
0.0
 10
13.7735359816
 20
7.5031984364
 30
0.0
 10
13.7672634981
 20
7.4922785453
 30
0.0
 10
13.7609561717
 20
7.4819999075
 30
0.0
 10
13.7546192175
 20
7.4723708252
 30
0.0
 10
13.7482576357
 20
7.4633991323
 30
0.0
 10
13.7418765872
 20
7.4550920027
 30
0.0
 10
13.7354809789
 20
7.4474561577
 30
0.0
 10
13.7290757937
 20
7.4404976732
 30
0.0
 10
13.7226657603
 20
7.4342221932
 30
0.0
 10
13.7162555513
 20
7.4286348308
 30
0.0
 10
13.7098496232
 20
7.4237403229
 30
0.0
 10
13.7034523398
 20
7.4195431521
 30
0.0
 10
13.6970678574
 20
7.4160475121
 30
0.0
 10
13.6907010838
 20
7.4132578074
 30
0.0
 10
13.6853672061
 20
7.4115095873
 30
0.0
 10
13.6811298618
 20
7.4104804059
 30
0.0
 10
13.6779875558
 20
7.4098928849
 30
0.0
 10
13.6748547742
 20
7.4094834355
 30
0.0
 10
13.6717321142
 20
7.4092521879
 30
0.0
 10
13.668620459
 20
7.4091992733
 30
0.0
 10
13.6665524473
 20
7.4092829381
 30
0.0
 10
13.6655223432
 20
7.409354374
 30
0.0
  0
SPLINE
  5
2F3
100
AcDbEntity
  8
0
100
AcDbSpline
 62
7
  6
CONTINUOUS
 70
0
 71
3
 72
39
 73
35
 74
0
 42
0.0000001
 43
0.0000001
 44
0.0000000001
 40
0.0
 40
0.0
 40
0.0
 40
0.0
 40
0.0311449917
 40
0.0624431057
 40
0.0938883404
 40
0.1254709744
 40
0.1571788692
 40
0.1889972397
 40
0.22090915
 40
0.2528958136
 40
0.2849369888
 40
0.3170113756
 40
0.3490970326
 40
0.3811718011
 40
0.4132137322
 40
0.4452015112
 40
0.4771148736
 40
0.5089350068
 40
0.5406449308
 40
0.5722298519
 40
0.6036774839
 40
0.6349783272
 40
0.6661259021
 40
0.6971169269
 40
0.7279514343
 40
0.7586328219
 40
0.789167828
 40
0.8195664326
 40
0.8498416785
 40
0.8800094145
 40
0.9100879636
 40
0.9400977218
 40
0.9700606971
 40
1.0
 40
1.0
 40
1.0
 40
1.0
 10
11.4836463348
 20
8.8897160148
 30
0.0
 10
11.476664602
 20
8.8902001996
 30
0.0
 10
11.4626970562
 20
8.8916819823
 30
0.0
 10
11.4419150717
 20
8.8954146386
 30
0.0
 10
11.4213556755
 20
8.9006429663
 30
0.0
 10
11.4011299155
 20
8.907338865
 30
0.0
 10
11.3813452378
 20
8.9154664265
 30
0.0
 10
11.3621071781
 20
8.9249821895
 30
0.0
 10
11.34351822
 20
8.935835294
 30
0.0
 10
11.3256774161
 20
8.9479677956
 30
0.0
 10
11.3086798212
 20
8.9613149548
 30
0.0
 10
11.2926160055
 20
8.9758055867
 30
0.0
 10
11.2775715728
 20
8.9913624354
 30
0.0
 10
11.263626711
 20
9.0079025822
 30
0.0
 10
11.2508557681
 20
9.0253378837
 30
0.0
 10
11.2393268598
 20
9.043575436
 30
0.0
 10
11.229101509
 20
9.0625180648
 30
0.0
 10
11.2202343183
 20
9.0820648361
 30
0.0
 10
11.2127726807
 20
9.1021115881
 30
0.0
 10
11.2067565274
 20
9.12255148
 30
0.0
 10
11.2022181129
 20
9.143275553
 30
0.0
 10
11.1991818401
 20
9.1641733036
 30
0.0
 10
11.1976641245
 20
9.185133265
 30
0.0
 10
11.1976733001
 20
9.206043594
 30
0.0
 10
11.1992095646
 20
9.2267926617
 30
0.0
 10
11.202264968
 20
9.2472696448
 30
0.0
 10
11.2068234409
 20
9.2673651142
 30
0.0
 10
11.2128608691
 20
9.2869716233
 30
0.0
 10
11.2203451984
 20
9.3059842763
 30
0.0
 10
11.2292366288
 20
9.3243013333
 30
0.0
 10
11.2394876818
 20
9.3418246323
 30
0.0
 10
11.2510439458
 20
9.3584606236
 30
0.0
 10
11.2638424989
 20
9.3741190499
 30
0.0
 10
11.2731615239
 20
9.3838544915
 30
0.0
 10
11.2780003505
 20
9.3885284644
 30
0.0
  0
SPLINE
  5
2F4
100
AcDbEntity
  8
0
100
AcDbSpline
 62
7
  6
CONTINUOUS
 70
0
 71
3
 72
25
 73
21
 74
0
 42
0.0000001
 43
0.0000001
 44
0.0000000001
 40
0.0
 40
0.0
 40
0.0
 40
0.0
 40
0.0616475324
 40
0.0924812818
 40
0.1233236521
 40
0.1850399988
 40
0.2468243992
 40
0.2777516371
 40
0.3087038682
 40
0.3706878964
 40
0.4328012845
 40
0.4950619149
 40
0.5574860747
 40
0.6200882862
 40
0.6828810671
 40
0.7458751796
 40
0.8090790771
 40
0.8724979014
 40
0.9361399151
 40
1.0
 40
1.0
 40
1.0
 40
1.0
 10
8.6099205224
 20
9.1762868478
 30
0.0
 10
8.6065987804
 20
9.173078274
 30
0.0
 10
8.6014848023
 20
9.1683976099
 30
0.0
 10
8.5944231006
 20
9.1624392414
 30
0.0
 10
8.5871997552
 20
9.156669265
 30
0.0
 10
8.5778775266
 20
9.1498190092
 30
0.0
 10
8.56819635
 20
9.1434745775
 30
0.0
 10
8.5602496168
 20
9.1387107423
 30
0.0
 10
8.5521656317
 20
9.134153229
 30
0.0
 10
8.5418220205
 20
9.1288552059
 30
0.0
 10
8.5290701302
 20
9.1231563357
 30
0.0
 10
8.5160041084
 20
9.1181270924
 30
0.0
 10
8.5026570796
 20
9.1137802679
 30
0.0
 10
8.4890626142
 20
9.1101267482
 30
0.0
 10
8.4752549767
 20
9.1071756544
 30
0.0
 10
8.4612689111
 20
9.1049343968
 30
0.0
 10
8.4471397344
 20
9.1034086483
 30
0.0
 10
8.4329026738
 20
9.1026020658
 30
0.0
 10
8.4185943104
 20
9.1025168343
 30
0.0
 10
8.4090471522
 20
9.1029401923
 30
0.0
 10
8.404274538
 20
9.1032711743
 30
0.0
  0
SPLINE
  5
2F5
100
AcDbEntity
  8
0
100
AcDbSpline
 62
7
  6
CONTINUOUS
 70
0
 71
3
 72
25
 73
21
 74
0
 42
0.0000001
 43
0.0000001
 44
0.0000000001
 40
0.0
 40
0.0
 40
0.0
 40
0.0
 40
0.0616475324
 40
0.0924812818
 40
0.1233236521
 40
0.1850399988
 40
0.2468243992
 40
0.2777516371
 40
0.3087038682
 40
0.3706878964
 40
0.4328012845
 40
0.4950619149
 40
0.5574860747
 40
0.6200882862
 40
0.6828810671
 40
0.7458751796
 40
0.8090790771
 40
0.8724979014
 40
0.9361399151
 40
1.0
 40
1.0
 40
1.0
 40
1.0
 10
8.6099205224
 20
6.7614721389
 30
0.0
 10
8.6065987804
 20
6.7582635652
 30
0.0
 10
8.6014848023
 20
6.7535829011
 30
0.0
 10
8.5944231006
 20
6.7476245326
 30
0.0
 10
8.5871997552
 20
6.7418545562
 30
0.0
 10
8.5778775266
 20
6.7350043004
 30
0.0
 10
8.56819635
 20
6.7286598687
 30
0.0
 10
8.5602496168
 20
6.7238960335
 30
0.0
 10
8.5521656317
 20
6.7193385202
 30
0.0
 10
8.5418220205
 20
6.7140404971
 30
0.0
 10
8.5290701302
 20
6.7083416269
 30
0.0
 10
8.5160041084
 20
6.7033123836
 30
0.0
 10
8.5026570796
 20
6.6989655591
 30
0.0
 10
8.4890626142
 20
6.6953120394
 30
0.0
 10
8.4752549767
 20
6.6923609456
 30
0.0
 10
8.4612689111
 20
6.690119688
 30
0.0
 10
8.4471397344
 20
6.6885939395
 30
0.0
 10
8.4329026738
 20
6.687787357
 30
0.0
 10
8.4185943104
 20
6.6877021255
 30
0.0
 10
8.4090471522
 20
6.6881254835
 30
0.0
 10
8.404274538
 20
6.6884564655
 30
0.0
  0
SPLINE
  5
2F6
100
AcDbEntity
  8
0
100
AcDbSpline
 62
7
  6
CONTINUOUS
 70
0
 71
3
 72
25
 73
21
 74
0
 42
0.0000001
 43
0.0000001
 44
0.0000000001
 40
0.0
 40
0.0
 40
0.0
 40
0.0
 40
0.0616475324
 40
0.0924812818
 40
0.1233236521
 40
0.1850399988
 40
0.2468243992
 40
0.2777516371
 40
0.3087038682
 40
0.3706878964
 40
0.4328012845
 40
0.4950619149
 40
0.5574860747
 40
0.6200882862
 40
0.6828810671
 40
0.7458751796
 40
0.8090790771
 40
0.8724979014
 40
0.9361399151
 40
1.0
 40
1.0
 40
1.0
 40
1.0
 10
11.6892923192
 20
6.5479169795
 30
0.0
 10
11.6859705772
 20
6.5447084057
 30
0.0
 10
11.6808565991
 20
6.5400277417
 30
0.0
 10
11.6737948974
 20
6.5340693731
 30
0.0
 10
11.666571552
 20
6.5282993968
 30
0.0
 10
11.6572493234
 20
6.521449141
 30
0.0
 10
11.6475681468
 20
6.5151047093
 30
0.0
 10
11.6396214136
 20
6.510340874
 30
0.0
 10
11.6315374285
 20
6.5057833608
 30
0.0
 10
11.6211938173
 20
6.5004853376
 30
0.0
 10
11.6084419271
 20
6.4947864675
 30
0.0
 10
11.5953759052
 20
6.4897572241
 30
0.0
 10
11.5820288764
 20
6.4854103997
 30
0.0
 10
11.568434411
 20
6.4817568799
 30
0.0
 10
11.5546267735
 20
6.4788057862
 30
0.0
 10
11.5406407079
 20
6.4765645285
 30
0.0
 10
11.5265115312
 20
6.4750387801
 30
0.0
 10
11.5122744707
 20
6.4742321975
 30
0.0
 10
11.4979661072
 20
6.474146966
 30
0.0
 10
11.488418949
 20
6.4745703241
 30
0.0
 10
11.4836463348
 20
6.474901306
 30
0.0
  0
SPLINE
  5
2F7
100
AcDbEntity
  8
0
100
AcDbSpline
 62
7
  6
CONTINUOUS
 70
0
 71
3
 72
15
 73
11
 74
0
 42
0.0000001
 43
0.0000001
 44
0.0000000001
 40
0.0
 40
0.0
 40
0.0
 40
0.0
 40
0.1259300071
 40
0.2516244518
 40
0.3770537394
 40
0.5022150859
 40
0.6270949686
 40
0.7516876125
 40
0.8759893702
 40
1.0
 40
1.0
 40
1.0
 40
1.0
 10
9.702478908
 20
8.9069886459
 30
0.0
 10
9.7026722378
 20
8.9123333107
 30
0.0
 10
9.7033510535
 20
8.923004337
 30
0.0
 10
9.7052373021
 20
8.938913686
 30
0.0
 10
9.7079876207
 20
8.9546641237
 30
0.0
 10
9.7115973648
 20
8.9702045635
 30
0.0
 10
9.7160591587
 20
8.9854852713
 30
0.0
 10
9.7213646824
 20
9.0004555263
 30
0.0
 10
9.7275030549
 20
9.0150635679
 30
0.0
 10
9.7321483954
 20
9.0245388974
 30
0.0
 10
9.734605145
 20
9.0291974313
 30
0.0
  0
SPLINE
  5
2F8
100
AcDbEntity
  8
0
100
AcDbSpline
 62
7
  6
CONTINUOUS
 70
0
 71
3
 72
40
 73
36
 74
0
 42
0.0000001
 43
0.0000001
 44
0.0000000001
 40
0.0
 40
0.0
 40
0.0
 40
0.0
 40
0.0137699878
 40
0.0277086777
 40
0.0417564823
 40
0.0558618217
 40
0.0840489531
 40
0.1119359383
 40
0.1392880082
 40
0.1659612272
 40
0.2170245788
 40
0.2650187984
 40
0.3101559905
 40
0.3527305508
 40
0.3930298609
 40
0.4313065423
 40
0.4677744174
 40
0.5026128965
 40
0.5359723373
 40
0.5987352659
 40
0.6568521118
 40
0.6843534112
 40
0.7108934972
 40
0.7612790547
 40
0.7852036776
 40
0.8083259938
 40
0.8522718717
 40
0.8731395959
 40
0.8932935593
 40
0.9127503493
 40
0.9315252662
 40
0.9496341244
 40
0.9670890601
 40
0.9838824863
 40
1.0
 40
1.0
 40
1.0
 40
1.0
 10
10.1150065036
 20
8.9657450095
 30
0.0
 10
10.1130845748
 20
8.9658780395
 30
0.0
 10
10.1092160456
 20
8.9661297468
 30
0.0
 10
10.1033833326
 20
8.9664610519
 30
0.0
 10
10.0975012831
 20
8.9667478025
 30
0.0
 10
10.0896254278
 20
8.9670714113
 30
0.0
 10
10.0798108317
 20
8.967365894
 30
0.0
 10
10.0681401084
 20
8.9675568696
 30
0.0
 10
10.056679739
 20
8.9675999743
 30
0.0
 10
10.0419772242
 20
8.967483753
 30
0.0
 10
10.0243902118
 20
8.9670634354
 30
0.0
 10
10.0042337026
 20
8.9662004709
 30
0.0
 10
9.9852803337
 20
8.9650687042
 30
0.0
 10
9.9674202423
 20
8.9637276137
 30
0.0
 10
9.9505370325
 20
8.9622196457
 30
0.0
 10
9.9345252496
 20
8.9605755751
 30
0.0
 10
9.9192944185
 20
8.9588181211
 30
0.0
 10
9.9047682984
 20
8.9569645163
 30
0.0
 10
9.8866211614
 20
8.9544337097
 30
0.0
 10
9.8652996018
 20
8.9510964142
 30
0.0
 10
9.8448638372
 20
8.9474335522
 30
0.0
 10
9.8294665747
 20
8.9444059566
 30
0.0
 10
9.81516295
 20
8.9414279176
 30
0.0
 10
9.8013973809
 20
8.9383239771
 30
0.0
 10
9.7881545263
 20
8.935090741
 30
0.0
 10
9.7758239793
 20
8.9319235252
 30
0.0
 10
9.7639641166
 20
8.9286455991
 30
0.0
 10
9.7525717805
 20
8.9252489767
 30
0.0
 10
9.7444964306
 20
8.9227213724
 30
0.0
 10
9.736735689
 20
8.9201715121
 30
0.0
 10
9.7292858773
 20
8.9175948471
 30
0.0
 10
9.7221439857
 20
8.9149878878
 30
0.0
 10
9.7153106756
 20
8.9123477619
 30
0.0
 10
9.7087830969
 20
8.9096926775
 30
0.0
 10
9.7045466756
 20
8.9078882017
 30
0.0
 10
9.702478908
 20
8.9069886459
 30
0.0
  0
SPLINE
  5
2F9
100
AcDbEntity
  8
0
100
AcDbSpline
 62
7
  6
CONTINUOUS
 70
0
 71
3
 72
39
 73
35
 74
0
 42
0.0000001
 43
0.0000001
 44
0.0000000001
 40
0.0
 40
0.0
 40
0.0
 40
0.0
 40
0.030881837
 40
0.061892776
 40
0.093024039
 40
0.1242730932
 40
0.1556319904
 40
0.1870920035
 40
0.2186432006
 40
0.2502742234
 40
0.2819726949
 40
0.3137253378
 40
0.3455181589
 40
0.377336626
 40
0.4091658616
 40
0.4409908609
 40
0.4727966741
 40
0.5045685904
 40
0.5362923535
 40
0.5679543567
 40
0.5995418056
 40
0.6310428975
 40
0.6624470116
 40
0.6937448504
 40
0.7249285621
 40
0.7559918846
 40
0.7869302618
 40
0.8177409076
 40
0.848422859
 40
0.8789770417
 40
0.9094062739
 40
0.9397152291
 40
0.9699103911
 40
1.0
 40
1.0
 40
1.0
 40
1.0
 10
10.9019111559
 20
6.7053084319
 30
0.0
 10
10.8988720248
 20
6.7055191963
 30
0.0
 10
10.8927922446
 20
6.7061252653
 30
0.0
 10
10.8837262364
 20
6.7075785751
 30
0.0
 10
10.8747263317
 20
6.709573071
 30
0.0
 10
10.865825973
 20
6.7121011325
 30
0.0
 10
10.8570572848
 20
6.7151537091
 30
0.0
 10
10.8484522808
 20
6.7187195606
 30
0.0
 10
10.8400422685
 20
6.7227856535
 30
0.0
 10
10.8318578909
 20
6.7273372129
 30
0.0
 10
10.8239289451
 20
6.7323576235
 30
0.0
 10
10.816284276
 20
6.7378285539
 30
0.0
 10
10.8089517183
 20
6.7437300787
 30
0.0
 10
10.8019580027
 20
6.7500407371
 30
0.0
 10
10.7953285707
 20
6.7567375123
 30
0.0
 10
10.7890875457
 20
6.7637960028
 30
0.0
 10
10.783257674
 20
6.7711905241
 30
0.0
 10
10.7778602238
 20
6.7788941729
 30
0.0
 10
10.77291482
 20
6.7868788696
 30
0.0
 10
10.7684394784
 20
6.7951155431
 30
0.0
 10
10.7644505525
 20
6.8035742247
 30
0.0
 10
10.7609626016
 20
6.8122241155
 30
0.0
 10
10.757988315
 20
6.8210337019
 30
0.0
 10
10.7555385607
 20
6.829970908
 30
0.0
 10
10.7536223508
 20
6.8390031957
 30
0.0
 10
10.7522466811
 20
6.848097654
 30
0.0
 10
10.7514165771
 20
6.8572211461
 30
0.0
 10
10.7511351274
 20
6.8663404301
 30
0.0
 10
10.7514034548
 20
6.8754222611
 30
0.0
 10
10.7522205843
 20
6.8844335338
 30
0.0
 10
10.753583562
 20
6.8933413567
 30
0.0
 10
10.7554875456
 20
6.902113348
 30
0.0
 10
10.7579255005
 20
6.9107170434
 30
0.0
 10
10.759904497
 20
6.9163300251
 30
0.0
 10
10.7609796782
 20
6.9190967317
 30
0.0
  0
SPLINE
  5
2FA
100
AcDbEntity
  8
0
100
AcDbSpline
 62
7
  6
CONTINUOUS
 70
0
 71
3
 72
15
 73
11
 74
0
 42
0.0000001
 43
0.0000001
 44
0.0000000001
 40
0.0
 40
0.0
 40
0.0
 40
0.0
 40
0.1264496568
 40
0.2524837348
 40
0.3780759318
 40
0.5032445932
 40
0.6280049412
 40
0.7523699697
 40
0.8763601171
 40
1.0
 40
1.0
 40
1.0
 40
1.0
 10
10.9019111559
 20
6.7053084319
 30
0.0
 10
10.9043957249
 20
6.7051361264
 30
0.0
 10
10.9093660614
 20
6.7049142561
 30
0.0
 10
10.9168154376
 20
6.7049516971
 30
0.0
 10
10.9242286534
 20
6.705360174
 30
0.0
 10
10.9315869493
 20
6.7061385977
 30
0.0
 10
10.9388725341
 20
6.7072849332
 30
0.0
 10
10.9460675285
 20
6.7087966346
 30
0.0
 10
10.9531540029
 20
6.7106697331
 30
0.0
 10
10.9578011837
 20
6.7121586386
 30
0.0
 10
10.9601001769
 20
6.7129616376
 30
0.0
  0
SPLINE
  5
2FB
100
AcDbEntity
  8
0
100
AcDbSpline
 62
7
  6
CONTINUOUS
 70
0
 71
3
 72
27
 73
23
 74
0
 42
0.0000001
 43
0.0000001
 44
0.0000000001
 40
0.0
 40
0.0
 40
0.0
 40
0.0
 40
0.0323990519
 40
0.0647283181
 40
0.0969776176
 40
0.1291450956
 40
0.1932114314
 40
0.2569218987
 40
0.2886477965
 40
0.320282738
 40
0.3518273642
 40
0.3832829861
 40
0.4459215078
 40
0.5082342423
 40
0.5702521896
 40
0.6320140392
 40
0.693564899
 40
0.7549548851
 40
0.8162376315
 40
0.8774687772
 40
0.9387044801
 40
1.0
 40
1.0
 40
1.0
 40
1.0
 10
9.7125879371
 20
7.1869890699
 30
0.0
 10
9.7114140463
 20
7.1901285696
 30
0.0
 10
9.7091937174
 20
7.1964483569
 30
0.0
 10
9.706249483
 20
7.2060419198
 30
0.0
 10
9.7037001077
 20
7.2157234633
 30
0.0
 10
9.7008372651
 20
7.2287065741
 30
0.0
 10
9.6982602641
 20
7.2450711874
 30
0.0
 10
9.6970349704
 20
7.2615466482
 30
0.0
 10
9.6968742118
 20
7.2746947652
 30
0.0
 10
9.6971610218
 20
7.2845117582
 30
0.0
 10
9.6978537968
 20
7.2942804843
 30
0.0
 10
9.6993133845
 20
7.3071991144
 30
0.0
 10
9.7021373217
 20
7.3231526166
 30
0.0
 10
9.7071036786
 20
7.3418699262
 30
0.0
 10
9.7136014867
 20
7.3600166738
 30
0.0
 10
9.7215789016
 20
7.3774765673
 30
0.0
 10
9.7309752682
 20
7.3941410519
 30
0.0
 10
9.7417219409
 20
7.4099083775
 30
0.0
 10
9.7537430246
 20
7.424684137
 30
0.0
 10
9.7669567947
 20
7.4383817475
 30
0.0
 10
9.7812741632
 20
7.45092097
 30
0.0
 10
9.7914886869
 20
7.4584569698
 30
0.0
 10
9.7967432776
 20
7.4620066684
 30
0.0
  0
SPLINE
  5
2FC
100
AcDbEntity
  8
0
100
AcDbSpline
 62
7
  6
CONTINUOUS
 70
0
 71
3
 72
39
 73
35
 74
0
 42
0.0000001
 43
0.0000001
 44
0.0000000001
 40
0.0
 40
0.0
 40
0.0
 40
0.0
 40
0.0310279638
 40
0.0621994743
 40
0.0935048257
 40
0.1249394771
 40
0.1564927243
 40
0.1881529707
 40
0.2199066982
 40
0.2517387516
 40
0.2836327299
 40
0.3155711772
 40
0.3475359126
 40
0.3795083369
 40
0.4114697234
 40
0.4434015149
 40
0.4752856385
 40
0.5071048169
 40
0.5388428479
 40
0.5704848683
 40
0.6020176212
 40
0.6334297123
 40
0.6647118162
 40
0.6958568502
 40
0.7268601249
 40
0.7577194816
 40
0.7884353606
 40
0.8190108187
 40
0.8494515014
 40
0.8797655889
 40
0.9099636789
 40
0.9400586021
 40
0.9700651886
 40
1.0
 40
1.0
 40
1.0
 40
1.0
 10
9.9760539134
 20
7.9804299165
 30
0.0
 10
9.9732304858
 20
7.9806257219
 30
0.0
 10
9.9675819817
 20
7.9812085272
 30
0.0
 10
9.9591689108
 20
7.9826455708
 30
0.0
 10
9.950832142
 20
7.9846413454
 30
0.0
 10
9.9426100653
 20
7.9871864058
 30
0.0
 10
9.9345395946
 20
7.9902694278
 30
0.0
 10
9.9266573183
 20
7.9938763315
 30
0.0
 10
9.9189988412
 20
7.9979907488
 30
0.0
 10
9.9115987915
 20
8.0025940468
 30
0.0
 10
9.9044906344
 20
8.0076653951
 30
0.0
 10
9.8977065208
 20
8.0131818565
 30
0.0
 10
9.8912771027
 20
8.0191184422
 30
0.0
 10
9.8852314466
 20
8.025448297
 30
0.0
 10
9.8795968988
 20
8.032142803
 30
0.0
 10
9.8743989763
 20
8.0391717103
 30
0.0
 10
9.8696611792
 20
8.0465032196
 30
0.0
 10
9.8654049382
 20
8.0541041762
 30
0.0
 10
9.8616495297
 20
8.0619402184
 30
0.0
 10
9.8584120017
 20
8.0699759288
 30
0.0
 10
9.8557070407
 20
8.0781749673
 30
0.0
 10
9.853546901
 20
8.0865002437
 30
0.0
 10
9.8519414072
 20
8.0949141028
 30
0.0
 10
9.8508979018
 20
8.1033784813
 30
0.0
 10
9.8504212008
 20
8.1118550717
 30
0.0
 10
9.8505134954
 20
8.1203054951
 30
0.0
 10
9.8511744303
 20
8.1286914846
 30
0.0
 10
9.8524010924
 20
8.1369750499
 30
0.0
 10
9.8541880326
 20
8.1451186359
 30
0.0
 10
9.8565272088
 20
8.1530853257
 30
0.0
 10
9.8594080372
 20
8.1608389558
 30
0.0
 10
9.862817605
 20
8.1683444641
 30
0.0
 10
9.8667401956
 20
8.1755673184
 30
0.0
 10
9.8696891976
 20
8.1801779572
 30
0.0
 10
9.8712420937
 20
8.1824238712
 30
0.0
  0
SPLINE
  5
2FD
100
AcDbEntity
  8
0
100
AcDbSpline
 62
7
  6
CONTINUOUS
 70
0
 71
3
 72
15
 73
11
 74
0
 42
0.0000001
 43
0.0000001
 44
0.0000000001
 40
0.0
 40
0.0
 40
0.0
 40
0.0
 40
0.1271103746
 40
0.2535493218
 40
0.3793254863
 40
0.5044776385
 40
0.629051597
 40
0.7531110204
 40
0.8767314493
 40
1.0
 40
1.0
 40
1.0
 40
1.0
 10
9.9760539134
 20
7.9804299165
 30
0.0
 10
9.9792669944
 20
7.9802070886
 30
0.0
 10
9.9856959853
 20
7.9800074933
 30
0.0
 10
9.9953064607
 20
7.9804538219
 30
0.0
 10
10.0048041007
 20
7.9816441758
 30
0.0
 10
10.0141317636
 20
7.9835714957
 30
0.0
 10
10.0232343339
 20
7.9862245921
 30
0.0
 10
10.0320578769
 20
7.9895878938
 30
0.0
 10
10.0405492939
 20
7.9936411485
 30
0.0
 10
10.0459632355
 20
7.9967920603
 30
0.0
 10
10.0485959361
 20
7.998472786
 30
0.0
  0
SPLINE
  5
2FE
100
AcDbEntity
  8
0
100
AcDbSpline
 62
7
  6
CONTINUOUS
 70
0
 71
3
 72
39
 73
35
 74
0
 42
0.0000001
 43
0.0000001
 44
0.0000000001
 40
0.0
 40
0.0
 40
0.0
 40
0.0
 40
0.0311449917
 40
0.0624431057
 40
0.0938883404
 40
0.1254709744
 40
0.1571788692
 40
0.1889972397
 40
0.22090915
 40
0.2528958136
 40
0.2849369888
 40
0.3170113756
 40
0.3490970326
 40
0.3811718011
 40
0.4132137322
 40
0.4452015112
 40
0.4771148736
 40
0.5089350068
 40
0.5406449308
 40
0.5722298519
 40
0.6036774839
 40
0.6349783272
 40
0.6661259021
 40
0.6971169269
 40
0.7279514343
 40
0.7586328219
 40
0.789167828
 40
0.8195664326
 40
0.8498416785
 40
0.8800094145
 40
0.9100879636
 40
0.9400977218
 40
0.9700606971
 40
1.0
 40
1.0
 40
1.0
 40
1.0
 10
8.404274538
 20
9.1032711743
 30
0.0
 10
8.3972928052
 20
9.1037553591
 30
0.0
 10
8.3833252594
 20
9.1052371418
 30
0.0
 10
8.3625432749
 20
9.108969798
 30
0.0
 10
8.3419838787
 20
9.1141981257
 30
0.0
 10
8.3217581187
 20
9.1208940244
 30
0.0
 10
8.301973441
 20
9.1290215859
 30
0.0
 10
8.2827353813
 20
9.1385373489
 30
0.0
 10
8.2641464232
 20
9.1493904534
 30
0.0
 10
8.2463056193
 20
9.161522955
 30
0.0
 10
8.2293080244
 20
9.1748701142
 30
0.0
 10
8.2132442087
 20
9.1893607462
 30
0.0
 10
8.198199776
 20
9.2049175948
 30
0.0
 10
8.1842549142
 20
9.2214577417
 30
0.0
 10
8.1714839713
 20
9.2388930432
 30
0.0
 10
8.159955063
 20
9.2571305955
 30
0.0
 10
8.1497297122
 20
9.2760732243
 30
0.0
 10
8.1408625215
 20
9.2956199955
 30
0.0
 10
8.1334008839
 20
9.3156667476
 30
0.0
 10
8.1273847306
 20
9.3361066394
 30
0.0
 10
8.1228463161
 20
9.3568307124
 30
0.0
 10
8.1198100433
 20
9.377728463
 30
0.0
 10
8.1182923277
 20
9.3986884244
 30
0.0
 10
8.1183015033
 20
9.4195987534
 30
0.0
 10
8.1198377678
 20
9.4403478212
 30
0.0
 10
8.1228931712
 20
9.4608248043
 30
0.0
 10
8.1274516441
 20
9.4809202737
 30
0.0
 10
8.1334890723
 20
9.5005267827
 30
0.0
 10
8.1409734016
 20
9.5195394358
 30
0.0
 10
8.149864832
 20
9.5378564927
 30
0.0
 10
8.160115885
 20
9.5553797917
 30
0.0
 10
8.171672149
 20
9.572015783
 30
0.0
 10
8.1844707021
 20
9.5876742093
 30
0.0
 10
8.1937897271
 20
9.597409651
 30
0.0
 10
8.1986285536
 20
9.6020836238
 30
0.0
  0
SPLINE
  5
2FF
100
AcDbEntity
  8
0
100
AcDbSpline
 62
7
  6
CONTINUOUS
 70
0
 71
3
 72
49
 73
45
 74
0
 42
0.0000001
 43
0.0000001
 44
0.0000000001
 40
0.0
 40
0.0
 40
0.0
 40
0.0
 40
0.0378127845
 40
0.0760191223
 40
0.114531607
 40
0.1532645858
 40
0.1921302413
 40
0.2310409706
 40
0.2699088597
 40
0.3086461572
 40
0.3471654842
 40
0.3853800876
 40
0.4232040959
 40
0.4605527702
 40
0.4973427611
 40
0.533492372
 40
0.5689218309
 40
0.6035535573
 40
0.637312442
 40
0.6701261391
 40
0.7019253763
 40
0.7326442909
 40
0.7622208088
 40
0.7905970516
 40
0.80431852
 40
0.8177203446
 40
0.8307967508
 40
0.843542237
 40
0.8559517495
 40
0.8680206515
 40
0.8797447052
 40
0.8911202579
 40
0.9021440651
 40
0.9128135674
 40
0.9231267538
 40
0.9330823402
 40
0.9426798495
 40
0.9519195568
 40
0.960802764
 40
0.9693317342
 40
0.977510198
 40
0.9853432953
 40
0.992837349
 40
1.0
 40
1.0
 40
1.0
 40
1.0
 10
13.4203051918
 20
8.7576119037
 30
0.0
 10
13.4203051918
 20
8.7685505291
 30
0.0
 10
13.4204505847
 20
8.7905418816
 30
0.0
 10
13.4210949842
 20
8.8236685968
 30
0.0
 10
13.4221655274
 20
8.8570506539
 30
0.0
 10
13.4236595784
 20
8.8906073277
 30
0.0
 10
13.4255736032
 20
8.9242580565
 30
0.0
 10
13.4279029728
 20
8.9579217039
 30
0.0
 10
13.4306420922
 20
8.9915172388
 30
0.0
 10
13.4337843558
 20
9.0249637524
 30
0.0
 10
13.4373221838
 20
9.0581807075
 30
0.0
 10
13.4412470392
 20
9.0910881221
 30
0.0
 10
13.4455494487
 20
9.1236067628
 30
0.0
 10
13.4502190245
 20
9.1556583361
 30
0.0
 10
13.45524449
 20
9.187165678
 30
0.0
 10
13.4606137047
 20
9.2180529439
 30
0.0
 10
13.4663136874
 20
9.2482457954
 30
0.0
 10
13.4723306553
 20
9.2776715813
 30
0.0
 10
13.4786500549
 20
9.3062595117
 30
0.0
 10
13.485256597
 20
9.333940836
 30
0.0
 10
13.4921342928
 20
9.3606489972
 30
0.0
 10
13.4992664941
 20
9.3863198604
 30
0.0
 10
13.5066359287
 20
9.4108916729
 30
0.0
 10
13.5130293329
 20
9.4306176903
 30
0.0
 10
13.518257415
 20
9.4457981152
 30
0.0
 10
13.5221827784
 20
9.456745066
 30
0.0
 10
13.5261538765
 20
9.4673746358
 30
0.0
 10
13.530168382
 20
9.4776804402
 30
0.0
 10
13.5342238539
 20
9.4876562893
 30
0.0
 10
13.5383178288
 20
9.4972962016
 30
0.0
 10
13.5424478953
 20
9.5065943798
 30
0.0
 10
13.5466114911
 20
9.515545271
 30
0.0
 10
13.550806194
 20
9.5241434914
 30
0.0
 10
13.5550294161
 20
9.5323839153
 30
0.0
 10
13.5592786571
 20
9.5402616107
 30
0.0
 10
13.5635513843
 20
9.547771876
 30
0.0
 10
13.5678450041
 20
9.5549102622
 30
0.0
 10
13.5721570404
 20
9.561672481
 30
0.0
 10
13.5764848198
 20
9.5680545528
 30
0.0
 10
13.5808258835
 20
9.5740526788
 30
0.0
 10
13.5851776974
 20
9.5796633865
 30
0.0
 10
13.5895378477
 20
9.5848834178
 30
0.0
 10
13.5939035715
 20
9.589709393
 30
0.0
 10
13.5968822245
 20
9.5927292379
 30
0.0
 10
13.5983725478
 20
9.5941687798
 30
0.0
  0
SPLINE
  5
300
100
AcDbEntity
  8
0
100
AcDbSpline
 62
7
  6
CONTINUOUS
 70
0
 71
3
 72
19
 73
15
 74
0
 42
0.0000001
 43
0.0000001
 44
0.0000000001
 40
0.0
 40
0.0
 40
0.0
 40
0.0
 40
0.0616586063
 40
0.1233402597
 40
0.1850676991
 40
0.2468632206
 40
0.3706995305
 40
0.4950525397
 40
0.5574879361
 40
0.6201012893
 40
0.6829055283
 40
0.7459112878
 40
0.8725148857
 40
1.0
 40
1.0
 40
1.0
 40
1.0
 10
10.0342772237
 20
7.9814970275
 30
0.0
 10
10.0328183586
 20
7.9800878754
 30
0.0
 10
10.0298236492
 20
7.9773469458
 30
0.0
 10
10.0251162188
 20
7.973482181
 30
0.0
 10
10.0202042333
 20
7.9698727982
 30
0.0
 10
10.0133957555
 20
7.9654108601
 30
0.0
 10
10.0044281448
 20
7.9605133593
 30
0.0
 10
9.9949725866
 20
7.9565868171
 30
0.0
 10
9.9871686388
 20
7.9540453524
 30
0.0
 10
9.9811980499
 20
7.9524407603
 30
0.0
 10
9.9751338571
 20
7.9511446761
 30
0.0
 10
9.9669320304
 20
7.9498303564
 30
0.0
 10
9.9565170539
 20
7.9489763736
 30
0.0
 10
9.9481440344
 20
7.9491398033
 30
0.0
 10
9.9439603789
 20
7.9494299408
 30
0.0
  0
SPLINE
  5
301
100
AcDbEntity
  8
0
100
AcDbSpline
 62
7
  6
CONTINUOUS
 70
0
 71
3
 72
23
 73
19
 74
0
 42
0.0000001
 43
0.0000001
 44
0.0000000001
 40
0.0
 40
0.0
 40
0.0
 40
0.0
 40
0.0616482156
 40
0.1233194448
 40
0.1850364824
 40
0.2468215709
 40
0.3086962096
 40
0.3706809325
 40
0.432795002
 40
0.4950563289
 40
0.5574812109
 40
0.6200840208
 40
0.6828775523
 40
0.7458726718
 40
0.8090764916
 40
0.8724961142
 40
0.9361412363
 40
1.0
 40
1.0
 40
1.0
 40
1.0
 10
10.9274698883
 20
6.6637894948
 30
0.0
 10
10.9257192434
 20
6.6620984966
 30
0.0
 10
10.9221255712
 20
6.6588093724
 30
0.0
 10
10.9164766201
 20
6.6541715628
 30
0.0
 10
10.9105823747
 20
6.6498402912
 30
0.0
 10
10.9044578498
 20
6.6458267201
 30
0.0
 10
10.8981184934
 20
6.6421408002
 30
0.0
 10
10.8915802417
 20
6.6387919107
 30
0.0
 10
10.8848595872
 20
6.6357884455
 30
0.0
 10
10.8779734838
 20
6.6331379004
 30
0.0
 10
10.8709392421
 20
6.630847052
 30
0.0
 10
10.8637746193
 20
6.6289215372
 30
0.0
 10
10.8564976313
 20
6.6273662235
 30
0.0
 10
10.8491266238
 20
6.626185093
 30
0.0
 10
10.8416802093
 20
6.6253809236
 30
0.0
 10
10.8341768443
 20
6.6249558413
 30
0.0
 10
10.8266359534
 20
6.6249109787
 30
0.0
 10
10.8216043413
 20
6.6251340646
 30
0.0
 10
10.8190891317
 20
6.6253084949
 30
0.0
  0
SPLINE
  5
302
100
AcDbEntity
  8
0
100
AcDbSpline
 62
7
  6
CONTINUOUS
 70
0
 71
3
 72
41
 73
37
 74
0
 42
0.0000001
 43
0.0000001
 44
0.0000000001
 40
0.0
 40
0.0
 40
0.0
 40
0.0
 40
0.0299506952
 40
0.044946588
 40
0.0599571144
 40
0.0900246029
 40
0.1201675328
 40
0.1352720849
 40
0.1503991724
 40
0.1807220267
 40
0.2111470466
 40
0.2416806836
 40
0.2723280482
 40
0.3030928603
 40
0.3339774083
 40
0.3649825092
 40
0.3961075024
 40
0.427350255
 40
0.4587071722
 40
0.4901732164
 40
0.5217419308
 40
0.55340551
 40
0.5851548764
 40
0.616979765
 40
0.6488688238
 40
0.6808097253
 40
0.7127893181
 40
0.7447937948
 40
0.7768088604
 40
0.8088199262
 40
0.8408123038
 40
0.8727713732
 40
0.9046830798
 40
0.9365331449
 40
0.9683101356
 40
1.0
 40
1.0
 40
1.0
 40
1.0
 10
10.0911774802
 20
7.0575110865
 30
0.0
 10
10.0873842878
 20
7.0549486244
 30
0.0
 10
10.0815747281
 20
7.0512725187
 30
0.0
 10
10.0736191509
 20
7.0467227598
 30
0.0
 10
10.0655160098
 20
7.0424026403
 30
0.0
 10
10.0551343745
 20
7.0374471019
 30
0.0
 10
10.0444657723
 20
7.033105917
 30
0.0
 10
10.0357733466
 20
7.0300058492
 30
0.0
 10
10.0269680567
 20
7.0271521489
 30
0.0
 10
10.0157839615
 20
7.0240600225
 30
0.0
 10
10.0021373738
 20
7.0211240396
 30
0.0
 10
9.9882955241
 20
7.0189689615
 30
0.0
 10
9.974301658
 20
7.0176025505
 30
0.0
 10
9.9601992492
 20
7.0170303891
 30
0.0
 10
9.9460324149
 20
7.0172559957
 30
0.0
 10
9.9318457371
 20
7.0182806783
 30
0.0
 10
9.917684229
 20
7.020103527
 30
0.0
 10
9.903593254
 20
7.0227213535
 30
0.0
 10
9.889618445
 20
7.0261286202
 30
0.0
 10
9.8758056124
 20
7.03031737
 30
0.0
 10
9.8622006165
 20
7.0352771084
 30
0.0
 10
9.8488492441
 20
7.040994775
 30
0.0
 10
9.8357970613
 20
7.047454684
 30
0.0
 10
9.8230892479
 20
7.054638467
 30
0.0
 10
9.8107704223
 20
7.0625250345
 30
0.0
 10
9.7988844211
 20
7.0710905164
 30
0.0
 10
9.7874740881
 20
7.0803082733
 30
0.0
 10
9.776581055
 20
7.0901489275
 30
0.0
 10
9.7662454995
 20
7.1005803992
 30
0.0
 10
9.7565059024
 20
7.1115679774
 30
0.0
 10
9.7473988146
 20
7.1230744093
 30
0.0
 10
9.7389585228
 20
7.1350600341
 30
0.0
 10
9.7312170363
 20
7.1474828671
 30
0.0
 10
9.7242033418
 20
7.1602991671
 30
0.0
 10
9.7179443279
 20
7.1734624576
 30
0.0
 10
9.7142842408
 20
7.1824524088
 30
0.0
 10
9.7125879371
 20
7.1869890699
 30
0.0
  0
SPLINE
  5
303
100
AcDbEntity
  8
0
100
AcDbSpline
 62
7
  6
CONTINUOUS
 70
0
 71
3
 72
54
 73
50
 74
0
 42
0.0000001
 43
0.0000001
 44
0.0000000001
 40
0.0
 40
0.0
 40
0.0
 40
0.0
 40
0.0484985753
 40
0.0964117103
 40
0.143663598
 40
0.1901843967
 40
0.2359033783
 40
0.2807521753
 40
0.324664242
 40
0.3675749852
 40
0.4094220577
 40
0.4501455361
 40
0.4896881517
 40
0.5279954893
 40
0.5650162375
 40
0.6007025078
 40
0.6350101882
 40
0.6678992847
 40
0.6838009112
 40
0.6993350468
 40
0.7144980175
 40
0.7292866256
 40
0.7436979913
 40
0.757729642
 40
0.7713796372
 40
0.7846464087
 40
0.7975289996
 40
0.8100270135
 40
0.8221406082
 40
0.833870745
 40
0.8452190443
 40
0.85618799
 40
0.8667810456
 40
0.8770026015
 40
0.8868583026
 40
0.896355033
 40
0.9055010802
 40
0.9143064316
 40
0.9227827701
 40
0.9309438271
 40
0.938805547
 40
0.9463862142
 40
0.9607839583
 40
0.9676582555
 40
0.9743520991
 40
0.9808976042
 40
0.9873294005
 40
0.9936841553
 40
1.0
 40
1.0
 40
1.0
 40
1.0
 10
13.947932837
 20
8.4835411602
 30
0.0
 10
13.947932837
 20
8.4947426887
 30
0.0
 10
13.9478123393
 20
8.5170107328
 30
0.0
 10
13.9472636049
 20
8.5501882915
 30
0.0
 10
13.9463487346
 20
8.5829008681
 30
0.0
 10
13.9450693418
 20
8.6150940722
 30
0.0
 10
13.943427507
 20
8.6467151045
 30
0.0
 10
13.941425993
 20
8.6777116964
 30
0.0
 10
13.939068144
 20
8.7080327516
 30
0.0
 10
13.9363578878
 20
8.7376282746
 30
0.0
 10
13.9332997345
 20
8.7664494636
 30
0.0
 10
13.929898781
 20
8.7944488184
 30
0.0
 10
13.9261607042
 20
8.8215802117
 30
0.0
 10
13.9220917348
 20
8.8477989659
 30
0.0
 10
13.9176986448
 20
8.8730619111
 30
0.0
 10
13.9129887536
 20
8.8973275335
 30
0.0
 10
13.9079699018
 20
8.9205558459
 30
0.0
 10
13.9034882527
 20
8.9392202767
 30
0.0
 10
13.8997464104
 20
8.9535985776
 30
0.0
 10
13.89689957
 20
8.9639783169
 30
0.0
 10
13.8939818939
 20
8.9740710506
 30
0.0
 10
13.8909946167
 20
8.983872646
 30
0.0
 10
13.8879389627
 20
8.993379069
 30
0.0
 10
13.8848161624
 20
9.0025864066
 30
0.0
 10
13.8816275595
 20
9.0114908902
 30
0.0
 10
13.8783744112
 20
9.0200888537
 30
0.0
 10
13.8750580796
 20
9.0283767778
 30
0.0
 10
13.8716799472
 20
9.0363512761
 30
0.0
 10
13.8682413373
 20
9.0440090669
 30
0.0
 10
13.8647437195
 20
9.0513470443
 30
0.0
 10
13.8611884802
 20
9.0583622049
 30
0.0
 10
13.8575770462
 20
9.0650516842
 30
0.0
 10
13.8539109285
 20
9.0714127888
 30
0.0
 10
13.8501915205
 20
9.0774429023
 30
0.0
 10
13.8464203482
 20
9.0831396037
 30
0.0
 10
13.8425988949
 20
9.0885005884
 30
0.0
 10
13.8387285879
 20
9.0935236457
 30
0.0
 10
13.8348109984
 20
9.0982067756
 30
0.0
 10
13.8308475099
 20
9.1025480393
 30
0.0
 10
13.8268397382
 20
9.1065455501
 30
0.0
 10
13.8227887519
 20
9.1101979516
 30
0.0
 10
13.8174255437
 20
9.1145299069
 30
0.0
 10
13.811883629
 20
9.1182681307
 30
0.0
 10
13.8061869721
 20
9.121321797
 30
0.0
 10
13.8019444093
 20
9.1232246702
 30
0.0
 10
13.7976686501
 20
9.1247735483
 30
0.0
 10
13.7933613866
 20
9.1259675536
 30
0.0
 10
13.7890251471
 20
9.1268057938
 30
0.0
 10
13.7861125541
 20
9.1271273571
 30
0.0
 10
13.784657303
 20
9.1272282761
 30
0.0
  0
SPLINE
  5
304
100
AcDbEntity
  8
0
100
AcDbSpline
 62
7
  6
CONTINUOUS
 70
0
 71
3
 72
34
 73
30
 74
0
 42
0.0000001
 43
0.0000001
 44
0.0000000001
 40
0.0
 40
0.0
 40
0.0
 40
0.0
 40
0.0629011041
 40
0.1255892368
 40
0.1880781092
 40
0.2192576943
 40
0.2503946465
 40
0.312544038
 40
0.3745647322
 40
0.4055440284
 40
0.4365059181
 40
0.4674565366
 40
0.4984024908
 40
0.5293508749
 40
0.5603098024
 40
0.5912873787
 40
0.6222929096
 40
0.6533357289
 40
0.6844256597
 40
0.7155730647
 40
0.7467879326
 40
0.7780803874
 40
0.8094602719
 40
0.8409364333
 40
0.8725171411
 40
0.9042093324
 40
0.936017744
 40
0.9679487899
 40
1.0
 40
1.0
 40
1.0
 40
1.0
 10
9.4803319474
 20
8.0134143295
 30
0.0
 10
9.4786112772
 20
8.0067374389
 30
0.0
 10
9.4747813003
 20
7.9935039541
 30
0.0
 10
9.4678465006
 20
7.9740755846
 30
0.0
 10
9.4610664495
 20
7.9583197865
 30
0.0
 10
9.4550391994
 20
7.9460356975
 30
0.0
 10
9.448616054
 20
7.9339960367
 30
0.0
 10
9.4398235412
 20
7.9194004101
 30
0.0
 10
9.4299963408
 20
7.9054988061
 30
0.0
 10
9.4215216358
 20
7.8948732076
 30
0.0
 10
9.4148597339
 20
7.8871685928
 30
0.0
 10
9.4078914824
 20
7.879744866
 30
0.0
 10
9.400618672
 20
7.8726210717
 30
0.0
 10
9.3930442977
 20
7.8658171701
 30
0.0
 10
9.3851724333
 20
7.8593540096
 30
0.0
 10
9.377008621
 20
7.8532529878
 30
0.0
 10
9.3685599205
 20
7.8475362204
 30
0.0
 10
9.3598351987
 20
7.8422261562
 30
0.0
 10
9.3508453499
 20
7.8373453452
 30
0.0
 10
9.3416033374
 20
7.8329164324
 30
0.0
 10
9.3321245524
 20
7.8289614126
 30
0.0
 10
9.3224267899
 20
7.825501517
 30
0.0
 10
9.3125302883
 20
7.8225568912
 30
0.0
 10
9.3024578372
 20
7.8201457342
 30
0.0
 10
9.2922345608
 20
7.818284162
 30
0.0
 10
9.2818878411
 20
7.8169858035
 30
0.0
 10
9.2714465647
 20
7.816260989
 30
0.0
 10
9.26094211
 20
7.8161169254
 30
0.0
 10
9.2539304398
 20
7.8164096575
 30
0.0
 10
9.2504254958
 20
7.8166527262
 30
0.0
  0
SPLINE
  5
305
100
AcDbEntity
  8
0
100
AcDbSpline
 62
7
  6
CONTINUOUS
 70
0
 71
3
 72
15
 73
11
 74
0
 42
0.0000001
 43
0.0000001
 44
0.0000000001
 40
0.0
 40
0.0
 40
0.0
 40
0.0
 40
0.1004390509
 40
0.2078599594
 40
0.3225376595
 40
0.4445952287
 40
0.5739325135
 40
0.7101559779
 40
0.85253315
 40
1.0
 40
1.0
 40
1.0
 40
1.0
 10
10.1742692495
 20
8.9583375518
 30
0.0
 10
10.1723062977
 20
8.958724855
 30
0.0
 10
10.1682364059
 20
8.9594885849
 30
0.0
 10
10.1619015868
 20
8.9605637132
 30
0.0
 10
10.1551238408
 20
8.9615971465
 30
0.0
 10
10.1478975963
 20
8.9625790888
 30
0.0
 10
10.1402306937
 20
8.9634986955
 30
0.0
 10
10.1321481644
 20
8.964344112
 30
0.0
 10
10.1236945793
 20
8.9651050005
 30
0.0
 10
10.117937028
 20
8.9655410586
 30
0.0
 10
10.1150065036
 20
8.9657450095
 30
0.0
  0
SPLINE
  5
306
100
AcDbEntity
  8
0
100
AcDbSpline
 62
7
  6
CONTINUOUS
 70
0
 71
3
 72
50
 73
46
 74
0
 42
0.0000001
 43
0.0000001
 44
0.0000000001
 40
0.0
 40
0.0
 40
0.0
 40
0.0
 40
0.0378128611
 40
0.0760190334
 40
0.1145315696
 40
0.1532645103
 40
0.1921301506
 40
0.2310408617
 40
0.269908731
 40
0.3086460126
 40
0.347165323
 40
0.3853799084
 40
0.4232038959
 40
0.4605525481
 40
0.4973425198
 40
0.5334921181
 40
0.5689215678
 40
0.6035532829
 40
0.637312149
 40
0.6701258217
 40
0.7019250349
 40
0.7326439348
 40
0.7622204463
 40
0.7765622752
 40
0.7905971572
 40
0.8043186022
 40
0.8177204426
 40
0.8307968217
 40
0.84354232
 40
0.8559518158
 40
0.868020713
 40
0.8797447678
 40
0.8911203013
 40
0.9021441194
 40
0.912813603
 40
0.9231267987
 40
0.9330823728
 40
0.9426798717
 40
0.951919577
 40
0.960802784
 40
0.9693317719
 40
0.9775102131
 40
0.9853432686
 40
0.9928373107
 40
1.0
 40
1.0
 40
1.0
 40
1.0
 10
13.3443710194
 20
8.7462651212
 30
0.0
 10
13.3443710194
 20
8.7581895246
 30
0.0
 10
13.3445295114
 20
8.7821626393
 30
0.0
 10
13.3452319871
 20
8.818274616
 30
0.0
 10
13.3463989976
 20
8.8546649093
 30
0.0
 10
13.3480276918
 20
8.8912456023
 30
0.0
 10
13.350114202
 20
8.9279288042
 30
0.0
 10
13.3526534872
 20
8.9646260948
 30
0.0
 10
13.3556394435
 20
9.0012491349
 30
0.0
 10
13.359064872
 20
9.037709725
 30
0.0
 10
13.3629215149
 20
9.07392007
 30
0.0
 10
13.3672000654
 20
9.1097929778
 30
0.0
 10
13.3718901953
 20
9.1452420746
 30
0.0
 10
13.3769805794
 20
9.180182013
 30
0.0
 10
13.3824589219
 20
9.2145286786
 30
0.0
 10
13.3883119863
 20
9.2481993938
 30
0.0
 10
13.3945256261
 20
9.2811131192
 30
0.0
 10
13.4010848187
 20
9.3131906505
 30
0.0
 10
13.4079737011
 20
9.3443548184
 30
0.0
 10
13.4151756045
 20
9.3745306655
 30
0.0
 10
13.4226730952
 20
9.4036456872
 30
0.0
 10
13.4304480274
 20
9.4316298161
 30
0.0
 10
13.4372100527
 20
9.454176695
 30
0.0
 10
13.442752212
 20
9.4715921782
 30
0.0
 10
13.4469237733
 20
9.4841958659
 30
0.0
 10
13.451150357
 20
9.4964681165
 30
0.0
 10
13.4554294165
 20
9.5084015652
 30
0.0
 10
13.4597584084
 20
9.5199890293
 30
0.0
 10
13.4641346608
 20
9.5312235589
 30
0.0
 10
13.4685556112
 20
9.5420983917
 30
0.0
 10
13.4730185188
 20
9.552607016
 30
0.0
 10
13.4775207608
 20
9.5627431142
 30
0.0
 10
13.4820595841
 20
9.5725006203
 30
0.0
 10
13.4866322735
 20
9.5818736883
 30
0.0
 10
13.4912361002
 20
9.5908567024
 30
0.0
 10
13.4958682501
 20
9.5994443128
 30
0.0
 10
13.5005260286
 20
9.6076313706
 30
0.0
 10
13.5052065701
 20
9.6154130393
 30
0.0
 10
13.5099071839
 20
9.6227846491
 30
0.0
 10
13.5146249845
 20
9.629741848
 30
0.0
 10
13.5193572415
 20
9.6362805106
 30
0.0
 10
13.5241012243
 20
9.6423968208
 30
0.0
 10
13.5288542734
 20
9.6480872533
 30
0.0
 10
13.5336134197
 20
9.653348126
 30
0.0
 10
13.5368605078
 20
9.656640113
 30
0.0
 10
13.5384851431
 20
9.6582093903
 30
0.0
  0
ELLIPSE
  5
307
100
AcDbEntity
  8
0
100
AcDbEllipse
 62
7
  6
CONTINUOUS
 10
10.6374951006
 20
8.0269035093
 30
0.0
 11
-0.0753305631
 21
0.3153811357
 31
0.0
 40
0.7348860057
 41
0.0
 42
6.2831853072
  0
ELLIPSE
  5
308
100
AcDbEntity
  8
0
100
AcDbEllipse
 62
7
  6
CONTINUOUS
 10
9.9439603789
 20
8.890241849
 30
0.0
 11
-0.0543000173
 21
0.2754636123
 31
0.0
 40
0.8541864234
 41
0.0
 42
6.2831853072
  0
ENDSEC
  0
SECTION
  2
OBJECTS
  0
DICTIONARY
  5
C
100
AcDbDictionary
280
0
281
1
  3
ACAD_GROUP
350
D
  3
ACAD_MLINESTYLE
350
17
  3
ACAD_LAYOUT
350
1A
  3
ACAD_PLOTSETTINGS
350
19
  3
ACAD_PLOTSTYLENAME
350
E
  3
ACAD_IMAGE_DICT
350
       30A
  3
ACAD_IMAGE_VARS
350
       30B
  3
ACAD_TABLESTYLE
350
       30C
  0
IMAGEDEF_REACTOR
  5
309
100
AcDbRasterImageDefReactor
 90
2
330
287
  0
DICTIONARY
  5
D
102
{ACAD_REACTORS
330
C
102
}
100
AcDbDictionary
280
0
281
1
  0
ACDBDICTIONARYWDFLT
  5
E
102
{ACAD_REACTORS
330
C
102
}
100
AcDbDictionary
281
1
  3
Normal
350
F
100
AcDbDictionaryWithDefault
340
F
  0
DICTIONARY
  5
30A
330
C
100
AcDbDictionary
281
1
  3
EBP_assy_2_img_1
350
       30F
  0
RASTERVARIABLES
  5
30B
330
C
100
AcDbRasterVariables
 90
0
 70
0
 71
1
 72
5
  0
DICTIONARY
  5
17
102
{ACAD_REACTORS
330
C
102
}
100
AcDbDictionary
280
0
281
1
  3
Standard
350
18
  0
DICTIONARY
  5
30C
330
C
100
AcDbDictionary
281
1
  3
Standard
350
       310
  3
Standard1
350
       311
  0
DICTIONARY
  5
19
102
{ACAD_REACTORS
330
C
102
}
100
AcDbDictionary
281
1
  0
DICTIONARY
  5
1A
102
{ACAD_REACTORS
330
C
102
}
100
AcDbDictionary
281
1
  3
Model
350
30D
  3
Layout1
350
30E
  0
ACDBPLACEHOLDER
  5
F
102
{ACAD_REACTORS
330
E
102
}
  0
MLINESTYLE
  5
18
102
{ACAD_REACTORS
330
17
102
}
100
AcDbMlineStyle
  2
STANDARD
 70
0
  3

 62
256
 51
90.0
 52
90.0
 71
2
 49
0.5
 62
256
  6
BYLAYER
 49
-0.5
 62
256
  6
BYLAYER
  0
LAYOUT
  5
30D
102
{ACAD_REACTORS
330
1A
102
}
100
AcDbPlotSettings
  1

  2
none_device
  4
ANSI_C_(22.00_x_17.00_Inches)
  6

 40
0.0
 41
0.0
 42
0.0
 43
0.0
 44
558.8
 45
431.8
 46
0.0
 47
0.0
 48
0.0
 49
0.0
140
0.0
141
0.0
142
1.0
143
1.0
 70
1024
 72
0
 73
0
 74
0
  7

 75
0
147
1.0
148
0.0
149
0.0
100
AcDbLayout
  1
Model
 70
0
 71
0
 10
0.0
 20
0.0
 11
22.0
 21
17.0
 12
0.0
 22
0.0
 32
0.0
 14
0.0
 24
0.0
 34
0.0
 15
0.0
 25
0.0
 35
0.0
146
0.0
 13
0.0
 23
0.0
 33
0.0
 16
1.0
 26
0.0
 36
0.0
 17
0.0
 27
1.0
 37
0.0
 76
0
330
20F
345
0
346
0
  0
LAYOUT
  5
30E
102
{ACAD_REACTORS
330
1A
102
}
100
AcDbPlotSettings
  1

  2
none_device
  4
ANSI_C_(22.00_x_17.00_Inches)
  6

 40
0.0
 41
0.0
 42
0.0
 43
0.0
 44
558.8
 45
431.8
 46
0.0
 47
0.0
 48
0.0
 49
0.0
140
0.0
141
0.0
142
1.0
143
1.0
 70
0
 72
0
 73
0
 74
0
  7

 75
0
147
1.0
148
0.0
149
0.0
100
AcDbLayout
  1
Layout1
 70
0
 71
1
 10
0.0
 20
0.0
 11
22.0
 21
17.0
 12
0.0
 22
0.0
 32
0.0
 14
0.0
 24
0.0
 34
0.0
 15
0.0
 25
0.0
 35
0.0
146
0.0
 13
0.0
 23
0.0
 33
0.0
 16
1.0
 26
0.0
 36
0.0
 17
0.0
 27
1.0
 37
0.0
 76
0
330
210
345
0
346
0
  0
IMAGEDEF
  5
30F
102
{ACAD_REACTORS
330
30A
330
309
102
}
100
AcDbRasterImageDef
 90
0
  1
EBP_assy_2_img_1.png
 10
369.0
 20
92.0
 11
0.0066666667
 21
0.0066666667
280
1
281
0
  0
TABLESTYLE
  5
310
102
{ACAD_REACTORS
330
30C
330
28A
330
28B
102
}
330
30C
100
AcDbTableStyle
  3
Standard
 70
0
 71
0
 40
0.06
 41
0.06
280
1
281
1
  7
Standard
140
0.18
170
1
 62
0
 63
7
283
0
  7
Standard
140
0.18
170
1
 62
0
 63
7
283
0
  7
Standard
140
0.18
170
1
 62
0
 63
7
283
0
  0
TABLESTYLE
  5
311
102
{ACAD_REACTORS
330
30C
330
289
102
}
330
30C
100
AcDbTableStyle
  3
Standard1
 70
1
 71
0
 40
0.06
 41
0.06
280
1
281
1
  7
Standard
140
0.18
170
1
 62
0
 63
7
283
0
  7
Standard
140
0.18
170
1
 62
0
 63
7
283
0
  7
Standard
140
0.18
170
1
 62
0
 63
7
283
0
  0
ENDSEC
  0
EOF
