999
DXF file: EBO_assy_2.dxf
999
Pro/ENGINEER 2014200 by Parametric Technology Corporation
  0
SECTION
  2
HEADER
  9
$ACADVER
  1
AC1021
  9
$DWGCODEPAGE
  3
ANSI_1252
  9
$EXTMAX
 10
22.0
 20
17.0
 30
0.0
  9
$EXTMIN
 10
0.0
 20
0.0
 30
0.0
  9
$LIMMIN
 10
0.0
 20
0.0
  9
$LIMMAX
 10
22.0
 20
17.0
  9
$VIEWCTR
 10
11.0
 20
8.5
  9
$VIEWSIZE
 40
17.0
  9
$CLAYER
  8
0
  9
$LTSCALE
 40
1.21
  9
$CELTYPE
  6
BYLAYER
  9
$DIMSCALE
 40
1.0
  9
$DIMASZ
 40
0.1875
  9
$DIMEXO
 40
0.0625
  9
$DIMDLI
 40
0.836
  9
$DIMEXE
 40
0.125
  9
$DIMCEN
 40
0.198
  9
$DIMLFAC
 40
1.0
  9
$DIMBLK
  1
_FILLED
  9
$DIMTXT
 40
0.1
  9
$DIMTOL
 70
0
  9
$DIMLIM
 70
0
  9
$DIMTFAC
 40
1.0
  9
$DIMGAP
 40
0.09
  9
$DIMDSEP
 70
46
  9
$AUNITS
 70
0
  9
$PDMODE
 70
3
  9
$PDSIZE
 40
0.3125
  9
$HANDSEED
  5
3EA
  9
$TILEMODE
 70
1
  9
$MEASUREMENT
 70
0
  9
$INSUNITS
 70
1
  0
ENDSEC
  0
SECTION
  2
CLASSES
  0
CLASS
  1
ACDBDICTIONARYWDFLT
  2
AcDbDictionaryWithDefault
  3
AutoCAD 2000
 90
0
 91
1
280
0
281
0
  0
CLASS
  1
ACDBPLACEHOLDER
  2
AcDbPlaceHolder
  3
AutoCAD 2000
 90
0
 91
1
280
0
281
0
  0
CLASS
  1
LAYOUT
  2
AcDbLayout
  3
AutoCAD 2000
 90
0
 91
0
280
0
281
0
  0
CLASS
  1
RASTERVARIABLES
  2
AcDbRasterVariables
  3
ISM
 90
0
 91
1
280
0
281
0
  0
CLASS
  1
IMAGEDEF
  2
AcDbRasterImageDef
  3
ISM
 90
0
 91
1
280
0
281
0
  0
CLASS
  1
IMAGEDEF_REACTOR
  2
AcDbRasterImageDefReactor
  3
ISM
 90
0
 91
1
280
0
281
0
  0
CLASS
  1
IMAGE
  2
AcDbRasterImage
  3
ISM
 90
127
 91
1
280
0
281
1
  0
CLASS
  1
TABLESTYLE
  2
AcDbTableStyle
  3
ObjectDBX Classes
 90
2047
 91
1
280
0
281
0
  0
CLASS
  1
ACAD_TABLE
  2
AcDbTable
  3
ObjectDBX Classes
 90
1025
 91
3
280
0
281
1
  0
ENDSEC
  0
SECTION
  2
TABLES
  0
TABLE
  2
VPORT
  5
8
100
AcDbSymbolTable
 70
2
  0
VPORT
  5
1F4
100
AcDbSymbolTableRecord
100
AcDbViewportTableRecord
  2
*ACTIVE
 70
0
 10
0.0
 20
0.0
 11
1.0
 21
1.0
 12
11.0
 22
8.5
 13
0.0
 23
0.0
 14
1.0
 24
1.0
 15
0.0
 25
0.0
 16
0.0
 26
0.0
 36
1.0
 17
0.0
 27
0.0
 37
0.0
 40
17.0
 41
1.2941176471
 42
50.0
 43
0.0
 44
0.0
 50
0.0
 51
0.0
 71
0
 72
100
 73
1
 74
1
 75
0
 76
0
 77
0
 78
0
  0
ENDTAB
  0
TABLE
  2
LTYPE
  5
5
100
AcDbSymbolTable
 70
6
  0
LTYPE
  5
14
100
AcDbSymbolTableRecord
100
AcDbLinetypeTableRecord
  2
BYBLOCK
 70
0
  3

 72
65
 73
0
 40
0.0
  0
LTYPE
  5
15
100
AcDbSymbolTableRecord
100
AcDbLinetypeTableRecord
  2
BYLAYER
 70
0
  3

 72
65
 73
0
 40
0.0
  0
LTYPE
  5
16
100
AcDbSymbolTableRecord
100
AcDbLinetypeTableRecord
  2
CONTINUOUS
 70
64
  3
Solid line
 72
65
 73
0
 40
0.0
  0
LTYPE
  5
1F5
100
AcDbSymbolTableRecord
100
AcDbLinetypeTableRecord
  2
CENTER
 70
64
  3
____ _ ____ _ ____ _ ____ _ ____ _ ____ _ ____
 72
65
 73
4
 40
0.6
 49
0.375
 74
0
 49
-0.075
 74
0
 49
0.075
 74
0
 49
-0.075
 74
0
  0
LTYPE
  5
1F6
100
AcDbSymbolTableRecord
100
AcDbLinetypeTableRecord
  2
HIDDEN
 70
64
  3
- - - - - - - - - - - - - - - - - - - -
 72
65
 73
2
 40
0.2
 49
0.1
 74
0
 49
-0.1
 74
0
  0
LTYPE
  5
1F7
100
AcDbSymbolTableRecord
100
AcDbLinetypeTableRecord
  2
PHANTOM
 70
64
  3
_____ _ _ _____ _ _ _____ _ _ _____
 72
65
 73
6
 40
0.8
 49
0.45
 74
0
 49
-0.05
 74
0
 49
0.1
 74
0
 49
-0.05
 74
0
 49
0.1
 74
0
 49
-0.05
 74
0
  0
LTYPE
  5
1F8
100
AcDbSymbolTableRecord
100
AcDbLinetypeTableRecord
  2
DOT
 70
64
  3
. . . . . . . . . . . . . . . . . . . .
 72
65
 73
2
 40
0.2
 49
0.1
 74
0
 49
-0.1
 74
0
  0
LTYPE
  5
1F9
100
AcDbSymbolTableRecord
100
AcDbLinetypeTableRecord
  2
DASHED
 70
64
  3
- - - - - - - - - - - - - - - - - - - -
 72
65
 73
2
 40
0.2
 49
0.1
 74
0
 49
-0.1
 74
0
  0
ENDTAB
  0
TABLE
  2
LAYER
  5
2
100
AcDbSymbolTable
 70
36
  0
LAYER
  5
10
100
AcDbSymbolTableRecord
100
AcDbLayerTableRecord
  2
0
 70
0
 62
7
  6
CONTINUOUS
370
-3
390
F
  0
LAYER
  5
1FA
100
AcDbSymbolTableRecord
100
AcDbLayerTableRecord
  2
DEFAULT_1
 70
0
 62
7
  6
CENTER
370
-3
390
F
  0
LAYER
  5
1FB
100
AcDbSymbolTableRecord
100
AcDbLayerTableRecord
  2
DEFAULT_2
 70
0
 62
8
  6
HIDDEN
370
-3
390
F
  0
LAYER
  5
1FC
100
AcDbSymbolTableRecord
100
AcDbLayerTableRecord
  2
DEFAULT_3
 70
0
 62
7
  6
PHANTOM
370
-3
390
F
  0
LAYER
  5
1FD
100
AcDbSymbolTableRecord
100
AcDbLayerTableRecord
  2
01___PRT_ALL_DTM_PLN
 70
0
 62
7
  6
CONTINUOUS
370
-3
390
F
  0
LAYER
  5
1FE
100
AcDbSymbolTableRecord
100
AcDbLayerTableRecord
  2
01___PRT_DEF_DTM_PLN
 70
0
 62
7
  6
CONTINUOUS
370
-3
390
F
  0
LAYER
  5
1FF
100
AcDbSymbolTableRecord
100
AcDbLayerTableRecord
  2
02___PRT_ALL_AXES
 70
0
 62
7
  6
CONTINUOUS
370
-3
390
F
  0
LAYER
  5
200
100
AcDbSymbolTableRecord
100
AcDbLayerTableRecord
  2
03___PRT_ALL_CURVES
 70
0
 62
7
  6
CONTINUOUS
370
-3
390
F
  0
LAYER
  5
201
100
AcDbSymbolTableRecord
100
AcDbLayerTableRecord
  2
04___PRT_ALL_DTM_PNT
 70
0
 62
7
  6
CONTINUOUS
370
-3
390
F
  0
LAYER
  5
202
100
AcDbSymbolTableRecord
100
AcDbLayerTableRecord
  2
05___PRT_ALL_DTM_CSYS
 70
0
 62
7
  6
CONTINUOUS
370
-3
390
F
  0
LAYER
  5
203
100
AcDbSymbolTableRecord
100
AcDbLayerTableRecord
  2
05___PRT_DEF_DTM_CSYS
 70
0
 62
7
  6
CONTINUOUS
370
-3
390
F
  0
LAYER
  5
204
100
AcDbSymbolTableRecord
100
AcDbLayerTableRecord
  2
06___PRT_ALL_SURFS
 70
0
 62
7
  6
CONTINUOUS
370
-3
390
F
  0
LAYER
  5
205
100
AcDbSymbolTableRecord
100
AcDbLayerTableRecord
  2
DATUM_PLANES
 70
0
 62
7
  6
CONTINUOUS
370
-3
390
F
  0
LAYER
  5
206
100
AcDbSymbolTableRecord
100
AcDbLayerTableRecord
  2
DIMENSIONS
 70
0
 62
7
  6
CONTINUOUS
370
-3
390
F
  0
LAYER
  5
207
100
AcDbSymbolTableRecord
100
AcDbLayerTableRecord
  2
PARAMETERDIMENSIONS
 70
0
 62
7
  6
CONTINUOUS
370
-3
390
F
  0
LAYER
  5
208
100
AcDbSymbolTableRecord
100
AcDbLayerTableRecord
  2
PLANE
 70
0
 62
7
  6
CONTINUOUS
370
-3
390
F
  0
LAYER
  5
209
100
AcDbSymbolTableRecord
100
AcDbLayerTableRecord
  2
PORT_AREAS
 70
0
 62
7
  6
CONTINUOUS
370
-3
390
F
  0
LAYER
  5
20A
100
AcDbSymbolTableRecord
100
AcDbLayerTableRecord
  2
SUNNBOMCOSMETIC
 70
0
 62
7
  6
CONTINUOUS
370
-3
390
F
  0
LAYER
  5
20B
100
AcDbSymbolTableRecord
100
AcDbLayerTableRecord
  2
SUNNBOMSTAMPING
 70
0
 62
7
  6
CONTINUOUS
370
-3
390
F
  0
LAYER
  5
20C
100
AcDbSymbolTableRecord
100
AcDbLayerTableRecord
  2
THREADS
 70
0
 62
7
  6
CONTINUOUS
370
-3
390
F
  0
ENDTAB
  0
TABLE
  2
STYLE
  5
3
100
AcDbSymbolTable
 70
1
  0
STYLE
  5
11
100
AcDbSymbolTableRecord
100
AcDbTextStyleTableRecord
  2
STANDARD
 70
0
 40
0.0
 41
0.8
 50
0.0
 71
0
 42
0.2
  3
txt
  4

  0
STYLE
  5
20D
100
AcDbSymbolTableRecord
100
AcDbTextStyleTableRecord
  2
TEXTSTYLE_1
 70
0
 40
0.0
 41
0.8
 50
0.0
 71
0
 42
0.2
  3
gdt
  4

  0
ENDTAB
  0
TABLE
  2
VIEW
  5
6
100
AcDbSymbolTable
 70
0
  0
ENDTAB
  0
TABLE
  2
UCS
  5
7
100
AcDbSymbolTable
 70
0
  0
ENDTAB
  0
TABLE
  2
APPID
  5
9
100
AcDbSymbolTable
 70
1
  0
APPID
  5
20E
100
AcDbSymbolTableRecord
100
AcDbRegAppTableRecord
  2
ACAD
 70
0
  0
ENDTAB
  0
TABLE
  2
BLOCK_RECORD
  5
1
100
AcDbSymbolTable
 70
0
  0
BLOCK_RECORD
  5
20F
100
AcDbSymbolTableRecord
100
AcDbBlockTableRecord
  2
*Model_Space
  0
BLOCK_RECORD
  5
210
100
AcDbSymbolTableRecord
100
AcDbBlockTableRecord
  2
*Paper_Space
  0
BLOCK_RECORD
  5
211
100
AcDbSymbolTableRecord
100
AcDbBlockTableRecord
  2
SUN_FIRST_THIRD_ANGLE_BL0
  0
BLOCK_RECORD
  5
212
100
AcDbSymbolTableRecord
100
AcDbBlockTableRecord
  2
*T1
  0
BLOCK_RECORD
  5
213
100
AcDbSymbolTableRecord
100
AcDbBlockTableRecord
  2
*T2
  0
BLOCK_RECORD
  5
214
100
AcDbSymbolTableRecord
100
AcDbBlockTableRecord
  2
*T3
  0
ENDTAB
  0
TABLE
  2
DIMSTYLE
  5
A
100
AcDbSymbolTable
 70
1
100
AcDbDimStyleTable
 71
0
  0
DIMSTYLE
105
215
100
AcDbSymbolTableRecord
100
AcDbDimStyleTableRecord
  2
STANDARD
 70
0
  3

  4

 40
1.0
 41
0.1875
 42
0.0625
 43
0.38
 44
0.125
 45
0.0
 46
0.0
 47
0.001
 48
0.001
140
0.1
141
0.09
142
0.0
143
25.4
144
1.0
145
0.0
146
1.0
147
0.09
 71
0.0
 72
0.0
 73
1
 74
1
 75
0
 76
0
 77
0
 78
4
170
0
171
2
172
0
173
0
174
0
175
0
176
0
177
0
178
0
270
2
271
3
272
3
273
2
274
2
275
0
280
0
281
0
282
0
283
1
284
4
285
0
286
0
287
3
288
0
340
11
278
46
  0
ENDTAB
  0
ENDSEC
  0
SECTION
  2
BLOCKS
  0
BLOCK
  5
20
100
AcDbEntity
  8
0
100
AcDbBlockBegin
  2
*Model_Space
 70
0
 10
0.0
 20
0.0
 30
0.0
  3
*Model_Space
  1

  0
ENDBLK
  5
21
100
AcDbEntity
  8
0
100
AcDbBlockEnd
  0
BLOCK
  5
1C
100
AcDbEntity
  8
0
100
AcDbBlockBegin
  2
*Paper_Space
 70
0
 10
0.0
 20
0.0
 30
0.0
  3
*Paper_Space
  1

  0
ENDBLK
  5
1D
100
AcDbEntity
  8
0
100
AcDbBlockEnd
  0
BLOCK
  5
216
100
AcDbEntity
  8
0
100
AcDbBlockBegin
 62
2
  6
CONTINUOUS
  2
SUN_FIRST_THIRD_ANGLE_BL0
 70
64
 10
20.4816717061
 20
1.2289683772
  3
SUN_FIRST_THIRD_ANGLE_BL0
  1

  0
TEXT
  5
217
100
AcDbEntity
  8
0
100
AcDbText
 62
2
  6
CONTINUOUS
 10
19.4750896608
 20
1.4136269581
  7
STANDARD
 40
0.08
  1
FIRST ANGLE
 41
0.8
 72
0
100
AcDbText
  0
TEXT
  5
218
100
AcDbEntity
  8
0
100
AcDbText
 62
2
  6
CONTINUOUS
 10
20.7842537513
 20
1.4047600029
  7
STANDARD
 40
0.08
  1
THIRD ANGLE
 41
0.8
 72
0
100
AcDbText
  0
LINE
  5
219
100
AcDbEntity
  8
0
100
AcDbLine
 62
7
  6
CONTINUOUS
 10
19.4767170086
 20
1.1727031207
 11
19.6334271527
 21
1.1717972817
  0
LINE
  5
21A
100
AcDbEntity
  8
0
100
AcDbLine
 62
7
  6
CONTINUOUS
 10
19.6596964832
 20
1.1717972817
 11
19.6950230232
 21
1.171593082
  0
LINE
  5
21B
100
AcDbEntity
  8
0
100
AcDbLine
 62
7
  6
CONTINUOUS
 10
19.7194818561
 20
1.1708914427
 11
19.8852396156
 21
1.1699333054
  0
LINE
  5
21C
100
AcDbEntity
  8
0
100
AcDbLine
 62
7
  6
CONTINUOUS
 10
19.4758111696
 20
1.2723454088
 11
19.88525039
 21
1.3511534004
  0
LINE
  5
21D
100
AcDbEntity
  8
0
100
AcDbLine
 62
7
  6
CONTINUOUS
 10
19.88525039
 20
1.3511534004
 11
19.8831348489
 21
0.9851647912
  0
LINE
  5
21E
100
AcDbEntity
  8
0
100
AcDbLine
 62
7
  6
CONTINUOUS
 10
19.8831348489
 20
0.9851647912
 11
19.4767170086
 21
1.0658141206
  0
LINE
  5
21F
100
AcDbEntity
  8
0
100
AcDbLine
 62
7
  6
CONTINUOUS
 10
19.4767170086
 20
1.0658141206
 11
19.4779056764
 21
1.2714536432
  0
CIRCLE
  5
220
100
AcDbEntity
  8
0
100
AcDbCircle
 62
7
  6
CONTINUOUS
 10
20.2068232291
 20
1.1717972817
 40
0.175742101
  0
CIRCLE
  5
221
100
AcDbEntity
  8
0
100
AcDbCircle
 62
7
  6
CONTINUOUS
 10
20.2068232291
 20
1.1717972817
 40
0.1005522074
  0
LINE
  5
222
100
AcDbEntity
  8
0
100
AcDbLine
 62
7
  6
CONTINUOUS
 10
20.2077290681
 20
1.3756110529
 11
20.2071171714
 21
1.2379342989
  0
LINE
  5
223
100
AcDbEntity
  8
0
100
AcDbLine
 62
7
  6
CONTINUOUS
 10
20.2077290681
 20
1.2016899681
 11
20.2074674401
 21
1.1428236749
  0
LINE
  5
224
100
AcDbEntity
  8
0
100
AcDbLine
 62
7
  6
CONTINUOUS
 10
20.208634907
 20
1.101141841
 11
20.2080230104
 21
0.963465087
  0
LINE
  5
225
100
AcDbEntity
  8
0
100
AcDbLine
 62
7
  6
CONTINUOUS
 10
20.0066328138
 20
1.1745147986
 11
20.1443095678
 21
1.1739029019
  0
LINE
  5
226
100
AcDbEntity
  8
0
100
AcDbLine
 62
7
  6
CONTINUOUS
 10
20.1832714155
 20
1.1727031207
 11
20.238153505
 21
1.172335442
  0
LINE
  5
227
100
AcDbEntity
  8
0
100
AcDbLine
 62
7
  6
CONTINUOUS
 10
20.2756669918
 20
1.1717972817
 11
20.407916871
 21
1.1712095044
  0
CIRCLE
  5
228
100
AcDbEntity
  8
0
100
AcDbCircle
 62
7
  6
CONTINUOUS
 10
20.7509457401
 20
1.1693297793
 40
0.1722024983
  0
CIRCLE
  5
229
100
AcDbEntity
  8
0
100
AcDbCircle
 62
7
  6
CONTINUOUS
 10
20.7509457401
 20
1.1693297793
 40
0.0985164967
  0
LINE
  5
22A
100
AcDbEntity
  8
0
100
AcDbLine
 62
7
  6
CONTINUOUS
 10
20.7169767782
 20
1.170462078
 11
20.7825395137
 21
1.1682766535
  0
LINE
  5
22B
100
AcDbEntity
  8
0
100
AcDbLine
 62
7
  6
CONTINUOUS
 10
20.8177513651
 20
1.1693297793
 11
20.947965719
 21
1.1693297793
  0
LINE
  5
22C
100
AcDbEntity
  8
0
100
AcDbLine
 62
7
  6
CONTINUOUS
 10
20.6875370113
 20
1.170462078
 11
20.5573226574
 21
1.170462078
  0
LINE
  5
22D
100
AcDbEntity
  8
0
100
AcDbLine
 62
7
  6
CONTINUOUS
 10
20.7486811426
 20
1.1987695462
 11
20.7486811426
 21
1.1432869085
  0
LINE
  5
22E
100
AcDbEntity
  8
0
100
AcDbLine
 62
7
  6
CONTINUOUS
 10
20.7498134414
 20
1.1059210505
 11
20.7498134414
 21
0.9757066966
  0
LINE
  5
22F
100
AcDbEntity
  8
0
100
AcDbLine
 62
7
  6
CONTINUOUS
 10
20.7486811426
 20
1.2338708068
 11
20.7486811426
 21
1.3640851607
  0
LINE
  5
230
100
AcDbEntity
  8
0
100
AcDbLine
 62
7
  6
CONTINUOUS
 10
21.0702539817
 20
1.2701043662
 11
21.4790138229
 21
1.3448360823
  0
LINE
  5
231
100
AcDbEntity
  8
0
100
AcDbLine
 62
7
  6
CONTINUOUS
 10
21.4790138229
 20
1.3448360823
 11
21.4790138229
 21
0.9779712941
  0
LINE
  5
232
100
AcDbEntity
  8
0
100
AcDbLine
 62
7
  6
CONTINUOUS
 10
21.4790138229
 20
0.9779712941
 11
21.069121683
 21
1.0617614
  0
LINE
  5
233
100
AcDbEntity
  8
0
100
AcDbLine
 62
7
  6
CONTINUOUS
 10
21.0702539817
 20
1.2701043662
 11
21.069121683
 21
1.0617614
  0
LINE
  5
234
100
AcDbEntity
  8
0
100
AcDbLine
 62
7
  6
CONTINUOUS
 10
21.4790138229
 20
1.1693297793
 11
21.3159628059
 21
1.1693297793
  0
LINE
  5
235
100
AcDbEntity
  8
0
100
AcDbLine
 62
7
  6
CONTINUOUS
 10
21.2876553377
 20
1.1693297793
 11
21.2502894796
 21
1.1693297793
  0
LINE
  5
236
100
AcDbEntity
  8
0
100
AcDbLine
 62
7
  6
CONTINUOUS
 10
21.2208497126
 20
1.1659328831
 11
21.0713862804
 21
1.1659328831
  0
LINE
  5
237
100
AcDbEntity
  8
0
100
AcDbLine
 62
7
  6
CONTINUOUS
 10
20.4796138713
 20
1.5284908897
 11
20.4766766948
 21
0.9294458646
  0
ENDBLK
  5
238
100
AcDbEntity
  8
0
  6
BYBLOCK
 62
0
100
AcDbBlockEnd
  0
BLOCK
  5
239
100
AcDbEntity
  8
0
100
AcDbBlockBegin
  2
*T1
 70
1
 10
0.0
 20
0.0
  3
*T1
  1

  0
LINE
  5
23A
100
AcDbEntity
  8
0
100
AcDbLine
 62
2
  6
CONTINUOUS
 10
9.275
 20
0.0
 11
-0.0
 21
0.0
  0
LINE
  5
23B
100
AcDbEntity
  8
0
100
AcDbLine
 62
2
  6
CONTINUOUS
 10
9.275
 20
0.0
 11
9.275
 21
1.25
  0
LINE
  5
23C
100
AcDbEntity
  8
0
100
AcDbLine
 62
2
  6
CONTINUOUS
 10
9.275
 20
0.625
 11
-0.0
 21
0.625
  0
LINE
  5
23D
100
AcDbEntity
  8
0
100
AcDbLine
 62
2
  6
CONTINUOUS
 10
9.275
 20
1.25
 11
-0.0
 21
1.25
  0
LINE
  5
23E
100
AcDbEntity
  8
0
100
AcDbLine
 62
2
  6
CONTINUOUS
 10
6.8
 20
0.0
 11
6.8
 21
1.25
  0
LINE
  5
23F
100
AcDbEntity
  8
0
100
AcDbLine
 62
2
  6
CONTINUOUS
 10
6.4
 20
0.0
 11
6.4
 21
0.625
  0
LINE
  5
240
100
AcDbEntity
  8
0
100
AcDbLine
 62
2
  6
CONTINUOUS
 10
5.9
 20
0.0
 11
5.9
 21
0.625
  0
LINE
  5
241
100
AcDbEntity
  8
0
100
AcDbLine
 62
2
  6
CONTINUOUS
 10
5.2
 20
0.0
 11
5.2
 21
0.625
  0
LINE
  5
242
100
AcDbEntity
  8
0
100
AcDbLine
 62
2
  6
CONTINUOUS
 10
4.1
 20
0.0
 11
4.1
 21
1.25
  0
LINE
  5
243
100
AcDbEntity
  8
0
100
AcDbLine
 62
2
  6
CONTINUOUS
 10
-0.0
 20
0.0
 11
-0.0
 21
1.25
  0
MTEXT
  5
244
100
AcDbEntity
  8
0
100
AcDbMText
 62
2
  6
CONTINUOUS
  7
STANDARD
 71
2
 72
1
 10
6.6
 20
0.325
 30
0.0
 11
1.0
 21
0.0
 31
0.0
 44
0.9
  1
2
 40
0.125
 41
0.2
  0
MTEXT
  5
245
100
AcDbEntity
  8
0
100
AcDbMText
 62
2
  6
CONTINUOUS
  7
STANDARD
 71
2
 72
1
 10
6.15
 20
0.325
 30
0.0
 11
1.0
 21
0.0
 31
0.0
 44
0.9
  1
C
 40
0.125
 41
0.2
  0
MTEXT
  5
246
100
AcDbEntity
  8
0
100
AcDbMText
 62
2
  6
CONTINUOUS
  7
STANDARD
 71
2
 72
1
 10
5.55
 20
0.325
 30
0.0
 11
1.0
 21
0.0
 31
0.0
 44
0.9
  1
2.000
 40
0.125
 41
1.0
  0
MTEXT
  5
247
100
AcDbEntity
  8
0
100
AcDbMText
 62
2
  6
CONTINUOUS
  7
STANDARD
 71
2
 72
1
 10
4.65
 20
0.325
 30
0.0
 11
1.0
 21
0.0
 31
0.0
 44
0.9
  1
Jul-19-19
 40
0.125
 41
1.8
  0
MTEXT
  5
248
100
AcDbEntity
  8
0
100
AcDbMText
 62
2
  6
CONTINUOUS
  7
STANDARD
 71
2
 72
1
 10
2.05
 20
0.4625
 30
0.0
 11
1.0
 21
0.0
 31
0.0
 44
0.9
  1
T-2A Sandwich ISO 03\POn P, port 3 to T
 40
0.125
 41
4.0
  0
MTEXT
  5
249
100
AcDbEntity
  8
0
100
AcDbMText
 62
2
  6
CONTINUOUS
  7
STANDARD
 71
1
 72
1
 10
6.45
 20
0.5625
 30
0.0
 11
1.0
 21
0.0
 31
0.0
 44
0.9
  1
SHEET
 40
0.06
 41
0.48
  0
MTEXT
  5
24A
100
AcDbEntity
  8
0
100
AcDbMText
 62
2
  6
CONTINUOUS
  7
STANDARD
 71
1
 72
1
 10
5.95
 20
0.5625
 30
0.0
 11
1.0
 21
0.0
 31
0.0
 44
0.9
  1
DWG SIZE
 40
0.06
 41
0.768
  0
MTEXT
  5
24B
100
AcDbEntity
  8
0
100
AcDbMText
 62
2
  6
CONTINUOUS
  7
STANDARD
 71
1
 72
1
 10
5.25
 20
0.5625
 30
0.0
 11
1.0
 21
0.0
 31
0.0
 44
0.9
  1
SCALE
 40
0.06
 41
0.48
  0
MTEXT
  5
24C
100
AcDbEntity
  8
0
100
AcDbMText
 62
2
  6
CONTINUOUS
  7
STANDARD
 71
1
 72
1
 10
4.15
 20
0.5625
 30
0.0
 11
1.0
 21
0.0
 31
0.0
 44
0.9
  1
DATE
 40
0.06
 41
0.384
  0
MTEXT
  5
24D
100
AcDbEntity
  8
0
100
AcDbMText
 62
2
  6
CONTINUOUS
  7
STANDARD
 71
1
 72
1
 10
0.05
 20
0.5625
 30
0.0
 11
1.0
 21
0.0
 31
0.0
 44
0.9
  1
DESCRIPTION
 40
0.06
 41
1.056
  0
MTEXT
  5
24E
100
AcDbEntity
  8
0
100
AcDbMText
 62
2
  6
CONTINUOUS
  7
STANDARD
 71
2
 72
1
 10
5.45
 20
1.0375
 30
0.0
 11
1.0
 21
0.0
 31
0.0
 44
0.9
  1
ALL DIMENSIONS IN INCH\PVIEWS ARE THIRD ANGLE
 40
0.12
 41
4.224
  0
MTEXT
  5
24F
100
AcDbEntity
  8
0
100
AcDbMText
 62
2
  6
CONTINUOUS
  7
STANDARD
 71
2
 72
1
 10
2.05
 20
0.95
 30
0.0
 11
1.0
 21
0.0
 31
0.0
 44
0.9
  1
EBO
 40
0.125
 41
0.6
  0
MTEXT
  5
250
100
AcDbEntity
  8
0
100
AcDbMText
 62
2
  6
CONTINUOUS
  7
STANDARD
 71
1
 72
1
 10
0.05
 20
1.1875
 30
0.0
 11
1.0
 21
0.0
 31
0.0
 44
0.9
  1
MODEL
 40
0.06
 41
0.48
  0
ENDBLK
  5
251
100
AcDbEntity
  8
0
  6
BYBLOCK
 62
0
100
AcDbBlockEnd
  0
BLOCK
  5
252
100
AcDbEntity
  8
0
100
AcDbBlockBegin
  2
*T2
 70
1
 10
0.0
 20
0.0
  3
*T2
  1

  0
LINE
  5
253
100
AcDbEntity
  8
0
100
AcDbLine
 62
2
  6
CONTINUOUS
 10
0.0
 20
0.0
 11
9.055
 21
0.0
  0
LINE
  5
254
100
AcDbEntity
  8
0
100
AcDbLine
 62
2
  6
CONTINUOUS
 10
0.0
 20
0.0
 11
0.0
 21
-2.344
  0
LINE
  5
255
100
AcDbEntity
  8
0
100
AcDbLine
 62
2
  6
CONTINUOUS
 10
0.0
 20
-0.344
 11
9.055
 21
-0.344
  0
LINE
  5
256
100
AcDbEntity
  8
0
100
AcDbLine
 62
2
  6
CONTINUOUS
 10
0.0
 20
-0.594
 11
9.055
 21
-0.594
  0
LINE
  5
257
100
AcDbEntity
  8
0
100
AcDbLine
 62
2
  6
CONTINUOUS
 10
0.0
 20
-0.844
 11
9.055
 21
-0.844
  0
LINE
  5
258
100
AcDbEntity
  8
0
100
AcDbLine
 62
2
  6
CONTINUOUS
 10
0.0
 20
-1.094
 11
9.055
 21
-1.094
  0
LINE
  5
259
100
AcDbEntity
  8
0
100
AcDbLine
 62
2
  6
CONTINUOUS
 10
0.0
 20
-1.344
 11
9.055
 21
-1.344
  0
LINE
  5
25A
100
AcDbEntity
  8
0
100
AcDbLine
 62
2
  6
CONTINUOUS
 10
0.0
 20
-1.594
 11
9.055
 21
-1.594
  0
LINE
  5
25B
100
AcDbEntity
  8
0
100
AcDbLine
 62
2
  6
CONTINUOUS
 10
0.0
 20
-1.844
 11
9.055
 21
-1.844
  0
LINE
  5
25C
100
AcDbEntity
  8
0
100
AcDbLine
 62
2
  6
CONTINUOUS
 10
0.0
 20
-2.094
 11
9.055
 21
-2.094
  0
LINE
  5
25D
100
AcDbEntity
  8
0
100
AcDbLine
 62
2
  6
CONTINUOUS
 10
0.0
 20
-2.344
 11
9.055
 21
-2.344
  0
LINE
  5
25E
100
AcDbEntity
  8
0
100
AcDbLine
 62
2
  6
CONTINUOUS
 10
3.055
 20
0.0
 11
3.055
 21
-2.344
  0
LINE
  5
25F
100
AcDbEntity
  8
0
100
AcDbLine
 62
2
  6
CONTINUOUS
 10
9.055
 20
0.0
 11
9.055
 21
-2.344
  0
MTEXT
  5
260
100
AcDbEntity
  8
0
100
AcDbMText
 62
2
  6
CONTINUOUS
  7
STANDARD
 71
2
 72
1
 10
1.5275
 20
-0.0995
 30
0.0
 11
1.0
 21
0.0
 31
0.0
 44
0.9
  1
Technical Data
 40
0.145
 41
3.248
  0
MTEXT
  5
261
100
AcDbEntity
  8
0
100
AcDbMText
 62
2
  6
CONTINUOUS
  7
STANDARD
 71
2
 72
1
 10
4.555
 20
-0.0995
 30
0.0
 11
1.0
 21
0.0
 31
0.0
 44
0.9
  1
U.S. Units
 40
0.145
 41
2.32
  0
MTEXT
  5
262
100
AcDbEntity
  8
0
100
AcDbMText
 62
2
  6
CONTINUOUS
  7
STANDARD
 71
2
 72
1
 10
7.555
 20
-0.0995
 30
0.0
 11
1.0
 21
0.0
 31
0.0
 44
0.9
  1
Metric Units
 40
0.145
 41
2.784
  0
MTEXT
  5
263
100
AcDbEntity
  8
0
100
AcDbMText
 62
2
  6
CONTINUOUS
  7
STANDARD
 71
2
 72
1
 10
1.5275
 20
-0.4065
 30
0.0
 11
1.0
 21
0.0
 31
0.0
 44
0.9
  1
Cavity
 40
0.125
 41
1.2
  0
MTEXT
  5
264
100
AcDbEntity
  8
0
100
AcDbMText
 62
2
  6
CONTINUOUS
  7
STANDARD
 71
2
 72
1
 10
6.055
 20
-0.4065
 30
0.0
 11
1.0
 21
0.0
 31
0.0
 44
0.9
  1
T-2A
 40
0.125
 41
0.8
  0
MTEXT
  5
265
100
AcDbEntity
  8
0
100
AcDbMText
 62
2
  6
CONTINUOUS
  7
STANDARD
 71
2
 72
1
 10
1.5275
 20
-0.6565
 30
0.0
 11
1.0
 21
0.0
 31
0.0
 44
0.9
  1
Body Features
 40
0.125
 41
2.6
  0
MTEXT
  5
266
100
AcDbEntity
  8
0
100
AcDbMText
 62
2
  6
CONTINUOUS
  7
STANDARD
 71
2
 72
1
 10
6.055
 20
-0.6565
 30
0.0
 11
1.0
 21
0.0
 31
0.0
 44
0.9
  1
On P, port 3 to T
 40
0.125
 41
3.4
  0
MTEXT
  5
267
100
AcDbEntity
  8
0
100
AcDbMText
 62
2
  6
CONTINUOUS
  7
STANDARD
 71
2
 72
1
 10
1.5275
 20
-0.9065
 30
0.0
 11
1.0
 21
0.0
 31
0.0
 44
0.9
  1
Body Type
 40
0.125
 41
1.8
  0
MTEXT
  5
268
100
AcDbEntity
  8
0
100
AcDbMText
 62
2
  6
CONTINUOUS
  7
STANDARD
 71
2
 72
1
 10
6.055
 20
-0.9065
 30
0.0
 11
1.0
 21
0.0
 31
0.0
 44
0.9
  1
Sandwich
 40
0.125
 41
1.6
  0
MTEXT
  5
269
100
AcDbEntity
  8
0
100
AcDbMText
 62
2
  6
CONTINUOUS
  7
STANDARD
 71
2
 72
1
 10
1.5275
 20
-1.1565
 30
0.0
 11
1.0
 21
0.0
 31
0.0
 44
0.9
  1
Interface
 40
0.125
 41
1.8
  0
MTEXT
  5
26A
100
AcDbEntity
  8
0
100
AcDbMText
 62
2
  6
CONTINUOUS
  7
STANDARD
 71
2
 72
1
 10
6.055
 20
-1.1565
 30
0.0
 11
1.0
 21
0.0
 31
0.0
 44
0.9
  1
ISO 03
 40
0.125
 41
1.2
  0
MTEXT
  5
26B
100
AcDbEntity
  8
0
100
AcDbMText
 62
2
  6
CONTINUOUS
  7
STANDARD
 71
2
 72
1
 10
1.5275
 20
-1.4065
 30
0.0
 11
1.0
 21
0.0
 31
0.0
 44
0.9
  1
Open Cavity Quantity
 40
0.125
 41
4.0
  0
MTEXT
  5
26C
100
AcDbEntity
  8
0
100
AcDbMText
 62
2
  6
CONTINUOUS
  7
STANDARD
 71
2
 72
1
 10
6.055
 20
-1.4065
 30
0.0
 11
1.0
 21
0.0
 31
0.0
 44
0.9
  1
1
 40
0.125
 41
0.2
  0
MTEXT
  5
26D
100
AcDbEntity
  8
0
100
AcDbMText
 62
2
  6
CONTINUOUS
  7
STANDARD
 71
2
 72
1
 10
1.5275
 20
-1.6565
 30
0.0
 11
1.0
 21
0.0
 31
0.0
 44
0.9
  1
Stack Height
 40
0.125
 41
2.4
  0
MTEXT
  5
26E
100
AcDbEntity
  8
0
100
AcDbMText
 62
2
  6
CONTINUOUS
  7
STANDARD
 71
2
 72
1
 10
4.555
 20
-1.6565
 30
0.0
 11
1.0
 21
0.0
 31
0.0
 44
0.9
  1
2.49 in.
 40
0.125
 41
1.6
  0
MTEXT
  5
26F
100
AcDbEntity
  8
0
100
AcDbMText
 62
2
  6
CONTINUOUS
  7
STANDARD
 71
2
 72
1
 10
7.555
 20
-1.6565
 30
0.0
 11
1.0
 21
0.0
 31
0.0
 44
0.9
  1
63 mm
 40
0.125
 41
1.0
  0
MTEXT
  5
270
100
AcDbEntity
  8
0
100
AcDbMText
 62
2
  6
CONTINUOUS
  7
STANDARD
 71
2
 72
1
 10
1.5275
 20
-1.9065
 30
0.0
 11
1.0
 21
0.0
 31
0.0
 44
0.9
  1
Weight
 40
0.125
 41
1.2
  0
MTEXT
  5
271
100
AcDbEntity
  8
0
100
AcDbMText
 62
2
  6
CONTINUOUS
  7
STANDARD
 71
2
 72
1
 10
4.555
 20
-1.9065
 30
0.0
 11
1.0
 21
0.0
 31
0.0
 44
0.9
  1
1.390 lb.
 40
0.125
 41
1.8
  0
MTEXT
  5
272
100
AcDbEntity
  8
0
100
AcDbMText
 62
2
  6
CONTINUOUS
  7
STANDARD
 71
2
 72
1
 10
7.555
 20
-1.9065
 30
0.0
 11
1.0
 21
0.0
 31
0.0
 44
0.9
  1
0,630 kg.
 40
0.125
 41
1.8
  0
MTEXT
  5
273
100
AcDbEntity
  8
0
100
AcDbMText
 62
2
  6
CONTINUOUS
  7
STANDARD
 71
2
 72
1
 10
1.5275
 20
-2.1565
 30
0.0
 11
1.0
 21
0.0
 31
0.0
 44
0.9
  1
Seal Plate Included (see notes)
 40
0.125
 41
6.2
  0
MTEXT
  5
274
100
AcDbEntity
  8
0
100
AcDbMText
 62
2
  6
CONTINUOUS
  7
STANDARD
 71
2
 72
1
 10
6.055
 20
-2.1565
 30
0.0
 11
1.0
 21
0.0
 31
0.0
 44
0.9
  1
Yes
 40
0.125
 41
0.6
  0
ENDBLK
  5
275
100
AcDbEntity
  8
0
  6
BYBLOCK
 62
0
100
AcDbBlockEnd
  0
BLOCK
  5
276
100
AcDbEntity
  8
0
100
AcDbBlockBegin
  2
*T3
 70
1
 10
0.0
 20
0.0
  3
*T3
  1

  0
LINE
  5
277
100
AcDbEntity
  8
0
100
AcDbLine
 62
2
  6
CONTINUOUS
 10
0.0
 20
0.0
 11
4.6
 21
0.0
  0
LINE
  5
278
100
AcDbEntity
  8
0
100
AcDbLine
 62
2
  6
CONTINUOUS
 10
0.0
 20
0.0
 11
0.0
 21
-0.93775
  0
LINE
  5
279
100
AcDbEntity
  8
0
100
AcDbLine
 62
2
  6
CONTINUOUS
 10
0.0
 20
-0.34375
 11
4.6
 21
-0.34375
  0
LINE
  5
27A
100
AcDbEntity
  8
0
100
AcDbLine
 62
2
  6
CONTINUOUS
 10
0.0
 20
-0.68775
 11
4.6
 21
-0.68775
  0
LINE
  5
27B
100
AcDbEntity
  8
0
100
AcDbLine
 62
2
  6
CONTINUOUS
 10
0.0
 20
-0.93775
 11
4.6
 21
-0.93775
  0
LINE
  5
27C
100
AcDbEntity
  8
0
100
AcDbLine
 62
2
  6
CONTINUOUS
 10
1.3
 20
-0.34375
 11
1.3
 21
-0.93775
  0
LINE
  5
27D
100
AcDbEntity
  8
0
100
AcDbLine
 62
2
  6
CONTINUOUS
 10
3.3
 20
-0.34375
 11
3.3
 21
-0.93775
  0
LINE
  5
27E
100
AcDbEntity
  8
0
100
AcDbLine
 62
2
  6
CONTINUOUS
 10
4.6
 20
0.0
 11
4.6
 21
-0.93775
  0
MTEXT
  5
27F
100
AcDbEntity
  8
0
100
AcDbMText
 62
2
  6
CONTINUOUS
  7
STANDARD
 71
2
 72
1
 10
2.3
 20
-0.099375
 30
0.0
 11
1.0
 21
0.0
 31
0.0
 44
0.9
  1
Port Headings
 40
0.145
 41
3.016
  0
MTEXT
  5
280
100
AcDbEntity
  8
0
100
AcDbMText
 62
2
  6
CONTINUOUS
  7
STANDARD
 71
2
 72
1
 10
0.65
 20
-0.44325
 30
0.0
 11
1.0
 21
0.0
 31
0.0
 44
0.9
  1
Product
 40
0.145
 41
1.624
  0
MTEXT
  5
281
100
AcDbEntity
  8
0
100
AcDbMText
 62
2
  6
CONTINUOUS
  7
STANDARD
 71
2
 72
1
 10
2.3
 20
-0.44325
 30
0.0
 11
1.0
 21
0.0
 31
0.0
 44
0.9
  1
Port
 40
0.145
 41
0.928
  0
MTEXT
  5
282
100
AcDbEntity
  8
0
100
AcDbMText
 62
2
  6
CONTINUOUS
  7
STANDARD
 71
2
 72
1
 10
3.95
 20
-0.44325
 30
0.0
 11
1.0
 21
0.0
 31
0.0
 44
0.9
  1
Size
 40
0.145
 41
0.928
  0
MTEXT
  5
283
100
AcDbEntity
  8
0
100
AcDbMText
 62
2
  6
CONTINUOUS
  7
STANDARD
 71
2
 72
1
 10
0.65
 20
-0.75025
 30
0.0
 11
1.0
 21
0.0
 31
0.0
 44
0.9
  1
EBO
 40
0.125
 41
0.6
  0
MTEXT
  5
284
100
AcDbEntity
  8
0
100
AcDbMText
 62
2
  6
CONTINUOUS
  7
STANDARD
 71
2
 72
1
 10
2.3
 20
-0.75025
 30
0.0
 11
1.0
 21
0.0
 31
0.0
 44
0.9
  1
Port G
 40
0.125
 41
1.2
  0
MTEXT
  5
285
100
AcDbEntity
  8
0
100
AcDbMText
 62
2
  6
CONTINUOUS
  7
STANDARD
 71
2
 72
1
 10
3.95
 20
-0.75025
 30
0.0
 11
1.0
 21
0.0
 31
0.0
 44
0.9
  1
1/4" NPTF
 40
0.125
 41
1.8
  0
ENDBLK
  5
286
100
AcDbEntity
  8
0
  6
BYBLOCK
 62
0
100
AcDbBlockEnd
  0
ENDSEC
  0
SECTION
  2
ENTITIES
  0
IMAGE
  5
287
100
AcDbEntity
  8
0
100
AcDbRasterImage
 62
7
  6
CONTINUOUS
 10
19.2297077316
 20
0.3094318264
 30
0.0
 11
0.0066666667
 21
0.0
 31
0.0
 12
0.0
 22
0.0066666667
 32
0.0
 13
369.0
 23
92.0
340
       3E7
 70
9
280
0
281
50
282
50
283
0
360
       3E1
 71
1
 91
2
 14
-0.5
 24
-0.5
 14
368.5
 24
91.5
  0
INSERT
  5
288
100
AcDbEntity
  8
0
100
AcDbBlockReference
 62
2
  6
CONTINUOUS
  2
SUN_FIRST_THIRD_ANGLE_BL0
 10
20.4816717061
 20
1.2289683772
  0
ACAD_TABLE
  5
289
100
AcDbEntity
  8
0
 62
2
  6
CONTINUOUS
100
AcDbBlockReference
  2
*T1
 10
12.42375
 20
0.30125
 30
0.0
100
AcDbTable
342
       3E9
343
212
 11
1.0
 21
0.0
 31
0.0
 90
6
 91
4
 92
6
 93
20
 94
0
 95
0
 96
0
 70
1
 41
0.0
141
0.525
141
0.1
141
0.525
141
0.1
142
4.1
142
1.1
142
0.7
142
0.5
142
0.4
142
2.475
171
1
172
0
173
0
174
0
175
1
176
1
 91
33
178
0
145
0.0
301
CELL_VALUE
 90
4
  1
T-2A Sandwich ISO 03\POn P, port 3 to T
304
ACVALUE_END
170
2
140
0.125
171
1
172
0
173
0
174
0
175
1
176
1
 91
33
178
0
145
0.0
301
CELL_VALUE
 90
4
  1
Jul-19-19
304
ACVALUE_END
170
5
140
0.125
171
1
172
0
173
0
174
0
175
1
176
1
 91
33
178
0
145
0.0
301
CELL_VALUE
 90
4
  1
2.000
304
ACVALUE_END
170
5
140
0.125
171
1
172
0
173
0
174
0
175
1
176
1
 91
33
178
0
145
0.0
301
CELL_VALUE
 90
4
  1
C
304
ACVALUE_END
170
5
140
0.125
171
1
172
0
173
0
174
0
175
1
176
1
 91
33
178
0
145
0.0
301
CELL_VALUE
 90
4
  1
2
304
ACVALUE_END
170
5
140
0.125
171
1
172
0
173
0
174
0
175
1
176
1
 91
33
178
0
145
0.0
301
CELL_VALUE
 90
4
  1
 
304
ACVALUE_END
170
1
140
0.125
171
1
172
0
173
0
174
0
175
1
176
1
 91
33
178
0
145
0.0
301
CELL_VALUE
 90
4
  1
DESCRIPTION
304
ACVALUE_END
170
1
140
0.06
171
1
172
0
173
0
174
0
175
1
176
1
 91
33
178
0
145
0.0
301
CELL_VALUE
 90
4
  1
DATE
304
ACVALUE_END
170
1
140
0.06
171
1
172
0
173
0
174
0
175
1
176
1
 91
33
178
0
145
0.0
301
CELL_VALUE
 90
4
  1
SCALE
304
ACVALUE_END
170
1
140
0.06
171
1
172
0
173
0
174
0
175
1
176
1
 91
33
178
0
145
0.0
301
CELL_VALUE
 90
4
  1
DWG SIZE
304
ACVALUE_END
170
1
140
0.06
171
1
172
0
173
0
174
0
175
1
176
1
 91
33
178
0
145
0.0
301
CELL_VALUE
 90
4
  1
SHEET
304
ACVALUE_END
170
1
140
0.06
171
1
172
0
173
0
174
0
175
1
176
1
 91
33
178
0
145
0.0
301
CELL_VALUE
 90
4
  1
 
304
ACVALUE_END
170
1
140
0.125
171
1
172
0
173
0
174
0
175
1
176
1
 91
33
178
0
145
0.0
301
CELL_VALUE
 90
4
  1
EBO
304
ACVALUE_END
170
5
140
0.125
171
1
172
0
173
0
174
0
175
4
176
1
 91
33
178
0
145
0.0
301
CELL_VALUE
 90
4
  1
ALL DIMENSIONS IN INCH\PVIEWS ARE THIRD ANGLE
304
ACVALUE_END
170
5
140
0.12
171
1
172
0
173
1
174
0
175
1
176
1
 91
1
178
0
145
0.0
170
1
171
1
172
0
173
1
174
0
175
1
176
1
 91
1
178
0
145
0.0
170
1
171
1
172
0
173
1
174
0
175
1
176
1
 91
1
178
0
145
0.0
170
5
171
1
172
0
173
0
174
0
175
1
176
1
 91
33
178
0
145
0.0
301
CELL_VALUE
 90
4
  1
 
304
ACVALUE_END
170
1
140
0.125
171
1
172
0
173
0
174
0
175
1
176
1
 91
33
178
0
145
0.0
301
CELL_VALUE
 90
4
  1
MODEL
304
ACVALUE_END
170
1
140
0.06
171
1
172
0
173
0
174
0
175
1
176
1
 91
33
178
0
145
0.0
301
CELL_VALUE
 90
4
  1
 
304
ACVALUE_END
170
1
140
0.125
171
1
172
0
173
0
174
0
175
1
176
1
 91
33
178
0
145
0.0
301
CELL_VALUE
 90
4
  1
 
304
ACVALUE_END
170
1
140
0.125
171
1
172
0
173
0
174
0
175
1
176
1
 91
33
178
0
145
0.0
301
CELL_VALUE
 90
4
  1
 
304
ACVALUE_END
170
1
140
0.125
171
1
172
0
173
0
174
0
175
1
176
1
 91
33
178
0
145
0.0
301
CELL_VALUE
 90
4
  1
 
304
ACVALUE_END
170
1
140
0.125
171
1
172
0
173
0
174
0
175
1
176
1
 91
33
178
0
145
0.0
301
CELL_VALUE
 90
4
  1
 
304
ACVALUE_END
170
1
140
0.125
  0
ACAD_TABLE
  5
28A
100
AcDbEntity
  8
0
 62
2
  6
CONTINUOUS
100
AcDbBlockReference
  2
*T2
 10
12.4237499994
 20
16.47875
 30
0.0
100
AcDbTable
342
       3E8
343
213
 11
1.0
 21
0.0
 31
0.0
 90
22
 91
9
 92
3
 93
16
 94
0
 95
0
 96
0
 41
0.028
141
0.344
141
0.25
141
0.25
141
0.25
141
0.25
141
0.25
141
0.25
141
0.25
141
0.25
142
3.055
142
3.0
142
3.0
171
1
172
0
173
0
174
0
175
1
176
1
 91
33
178
0
145
0.0
301
CELL_VALUE
 90
4
  1
Technical Data
304
ACVALUE_END
170
5
140
0.145
171
1
172
0
173
0
174
0
175
1
176
1
 91
33
178
0
145
0.0
301
CELL_VALUE
 90
4
  1
U.S. Units
304
ACVALUE_END
170
5
140
0.145
171
1
172
0
173
0
174
0
175
1
176
1
 91
33
178
0
145
0.0
301
CELL_VALUE
 90
4
  1
Metric Units
304
ACVALUE_END
170
5
140
0.145
171
1
172
0
173
0
174
0
175
1
176
1
 91
33
178
0
145
0.0
301
CELL_VALUE
 90
4
  1
Cavity
304
ACVALUE_END
170
5
140
0.125
171
1
172
0
173
0
174
0
175
2
176
1
 91
33
178
0
145
0.0
301
CELL_VALUE
 90
4
  1
T-2A
304
ACVALUE_END
170
5
140
0.125
171
1
172
0
173
1
174
0
175
1
176
1
 91
1
178
0
145
0.0
170
1
171
1
172
0
173
0
174
0
175
1
176
1
 91
33
178
0
145
0.0
301
CELL_VALUE
 90
4
  1
Body Features
304
ACVALUE_END
170
5
140
0.125
171
1
172
0
173
0
174
0
175
2
176
1
 91
33
178
0
145
0.0
301
CELL_VALUE
 90
4
  1
On P, port 3 to T
304
ACVALUE_END
170
5
140
0.125
171
1
172
0
173
1
174
0
175
1
176
1
 91
1
178
0
145
0.0
170
1
171
1
172
0
173
0
174
0
175
1
176
1
 91
33
178
0
145
0.0
301
CELL_VALUE
 90
4
  1
Body Type
304
ACVALUE_END
170
5
140
0.125
171
1
172
0
173
0
174
0
175
2
176
1
 91
33
178
0
145
0.0
301
CELL_VALUE
 90
4
  1
Sandwich
304
ACVALUE_END
170
5
140
0.125
171
1
172
0
173
1
174
0
175
1
176
1
 91
1
178
0
145
0.0
170
1
171
1
172
0
173
0
174
0
175
1
176
1
 91
33
178
0
145
0.0
301
CELL_VALUE
 90
4
  1
Interface
304
ACVALUE_END
170
5
140
0.125
171
1
172
0
173
0
174
0
175
2
176
1
 91
33
178
0
145
0.0
301
CELL_VALUE
 90
4
  1
ISO 03
304
ACVALUE_END
170
5
140
0.125
171
1
172
0
173
1
174
0
175
1
176
1
 91
1
178
0
145
0.0
170
1
171
1
172
0
173
0
174
0
175
1
176
1
 91
33
178
0
145
0.0
301
CELL_VALUE
 90
4
  1
Open Cavity Quantity
304
ACVALUE_END
170
5
140
0.125
171
1
172
0
173
0
174
0
175
2
176
1
 91
33
178
0
145
0.0
301
CELL_VALUE
 90
4
  1
1
304
ACVALUE_END
170
5
140
0.125
171
1
172
0
173
1
174
0
175
1
176
1
 91
1
178
0
145
0.0
170
1
171
1
172
0
173
0
174
0
175
1
176
1
 91
33
178
0
145
0.0
301
CELL_VALUE
 90
4
  1
Stack Height
304
ACVALUE_END
170
5
140
0.125
171
1
172
0
173
0
174
0
175
1
176
1
 91
33
178
0
145
0.0
301
CELL_VALUE
 90
4
  1
2.49 in.
304
ACVALUE_END
170
5
140
0.125
171
1
172
0
173
0
174
0
175
1
176
1
 91
33
178
0
145
0.0
301
CELL_VALUE
 90
4
  1
63 mm
304
ACVALUE_END
170
5
140
0.125
171
1
172
0
173
0
174
0
175
1
176
1
 91
33
178
0
145
0.0
301
CELL_VALUE
 90
4
  1
Weight
304
ACVALUE_END
170
5
140
0.125
171
1
172
0
173
0
174
0
175
1
176
1
 91
33
178
0
145
0.0
301
CELL_VALUE
 90
4
  1
1.390 lb.
304
ACVALUE_END
170
5
140
0.125
171
1
172
0
173
0
174
0
175
1
176
1
 91
33
178
0
145
0.0
301
CELL_VALUE
 90
4
  1
0,630 kg.
304
ACVALUE_END
170
5
140
0.125
171
1
172
0
173
0
174
0
175
1
176
1
 91
33
178
0
145
0.0
301
CELL_VALUE
 90
4
  1
Seal Plate Included (see notes)
304
ACVALUE_END
170
5
140
0.125
171
1
172
0
173
0
174
0
175
2
176
1
 91
33
178
0
145
0.0
301
CELL_VALUE
 90
4
  1
Yes
304
ACVALUE_END
170
5
140
0.125
171
1
172
0
173
1
174
0
175
1
176
1
 91
1
178
0
145
0.0
170
1
  0
ACAD_TABLE
  5
28B
100
AcDbEntity
  8
0
 62
2
  6
CONTINUOUS
100
AcDbBlockReference
  2
*T3
 10
0.52125
 20
1.459
 30
0.0
100
AcDbTable
342
       3E8
343
214
 11
1.0
 21
0.0
 31
0.0
 90
22
 91
3
 92
3
 93
16
 94
0
 95
0
 96
0
 41
0.05
141
0.34375
141
0.344
141
0.25
142
1.3
142
2.0
142
1.3
171
1
172
0
173
0
174
0
175
3
176
1
 91
33
178
0
145
0.0
301
CELL_VALUE
 90
4
  1
Port Headings
304
ACVALUE_END
170
5
140
0.145
171
1
172
0
173
1
174
0
175
1
176
1
 91
1
178
0
145
0.0
170
1
171
1
172
0
173
1
174
0
175
1
176
1
 91
1
178
0
145
0.0
170
1
171
1
172
0
173
0
174
0
175
1
176
1
 91
33
178
0
145
0.0
301
CELL_VALUE
 90
4
  1
Product
304
ACVALUE_END
170
5
140
0.145
171
1
172
0
173
0
174
0
175
1
176
1
 91
33
178
0
145
0.0
301
CELL_VALUE
 90
4
  1
Port
304
ACVALUE_END
170
5
140
0.145
171
1
172
0
173
0
174
0
175
1
176
1
 91
33
178
0
145
0.0
301
CELL_VALUE
 90
4
  1
Size
304
ACVALUE_END
170
5
140
0.145
171
1
172
0
173
0
174
0
175
1
176
1
 91
33
178
0
145
0.0
301
CELL_VALUE
 90
4
  1
EBO
304
ACVALUE_END
170
5
140
0.125
171
1
172
0
173
0
174
0
175
1
176
1
 91
33
178
0
145
0.0
301
CELL_VALUE
 90
4
  1
Port G
304
ACVALUE_END
170
5
140
0.125
171
1
172
0
173
0
174
0
175
1
176
1
 91
33
178
0
145
0.0
301
CELL_VALUE
 90
4
  1
1/4" NPTF
304
ACVALUE_END
170
5
140
0.125
  0
MTEXT
  5
28C
100
AcDbEntity
  8
0
100
AcDbMText
 62
2
  6
CONTINUOUS
  7
STANDARD
 71
1
 72
1
 10
0.52125
 20
5.75995
 30
0.0
 11
1.0
 21
0.0
 31
0.0
 44
0.6
  3
Notes\P \P1. Stack height value in technical\P   data table includes seal retainer\P   plate.\P2. Important: Carefully consider\P   the maximum system pressure. The\P   pressure rating of the manifold is\P   dependent on the manifold material,\P   wi
  3
th the port type/size a secondary\P   consideration. Manifolds\P   constructed of aluminum are not\P   rated for pressures higher than\P   3000 psi (210 bar), regardless of\P   the port type/size specified.\P3. Customer to install locating pin\P   ac
  1
cording to functional orientation\P   required.\P4. Items without balloons are\P   shipped loose.
 40
0.1
 41
3.04
  0
LINE
  5
28D
100
AcDbEntity
  8
0
100
AcDbLine
 62
7
  6
CONTINUOUS
 10
0.30125
 20
0.30125
 11
0.30125
 21
16.69875
  0
LINE
  5
28E
100
AcDbEntity
  8
0
100
AcDbLine
 62
7
  6
CONTINUOUS
 10
0.30125
 20
0.30125
 11
21.69875
 21
0.30125
  0
LINE
  5
28F
100
AcDbEntity
  8
0
100
AcDbLine
 62
7
  6
CONTINUOUS
 10
0.30125
 20
16.69875
 11
21.69875
 21
16.69875
  0
LINE
  5
290
100
AcDbEntity
  8
0
100
AcDbLine
 62
7
  6
CONTINUOUS
 10
21.69875
 20
0.30125
 11
21.69875
 21
16.69875
  0
LINE
  5
291
100
AcDbEntity
  8
0
100
AcDbLine
 62
7
  6
CONTINUOUS
 10
10.7167041019
 20
5.0422469581
 11
9.0263338058
 21
5.1594745363
  0
LINE
  5
292
100
AcDbEntity
  8
0
100
AcDbLine
 62
7
  6
CONTINUOUS
 10
10.7006573344
 20
5.0866343747
 11
9.0102870382
 21
5.2038619529
  0
LINE
  5
293
100
AcDbEntity
  8
0
100
AcDbLine
 62
7
  6
CONTINUOUS
 10
8.3457300303
 20
5.9145061458
 11
8.3018893931
 21
5.9341593396
  0
LINE
  5
294
100
AcDbEntity
  8
0
100
AcDbLine
 62
7
  6
CONTINUOUS
 10
9.1526852111
 20
10.8344655739
 11
10.3173700146
 21
11.9594647717
  0
LINE
  5
295
100
AcDbEntity
  8
0
100
AcDbLine
 62
7
  6
CONTINUOUS
 10
10.234557671
 20
5.482146656
 11
10.4442444369
 21
5.4676048294
  0
LINE
  5
296
100
AcDbEntity
  8
0
100
AcDbLine
 62
7
  6
CONTINUOUS
 10
10.2811450607
 20
5.5271466215
 11
10.4720905092
 21
5.5139045097
  0
LINE
  5
297
100
AcDbEntity
  8
0
100
AcDbLine
 62
7
  6
CONTINUOUS
 10
9.0102870382
 20
5.2038619529
 11
9.0263338058
 21
5.1594745363
  0
LINE
  5
298
100
AcDbEntity
  8
0
100
AcDbLine
 62
7
  6
CONTINUOUS
 10
8.3018893931
 20
5.9341593396
 11
8.3018893931
 21
9.1333058658
  0
LINE
  5
299
100
AcDbEntity
  8
0
100
AcDbLine
 62
7
  6
CONTINUOUS
 10
8.3457300303
 20
5.9145061458
 11
8.3457300303
 21
9.113652672
  0
LINE
  5
29A
100
AcDbEntity
  8
0
100
AcDbLine
 62
7
  6
CONTINUOUS
 10
11.3652143422
 20
5.7051041975
 11
11.4411485146
 21
5.71645098
  0
LINE
  5
29B
100
AcDbEntity
  8
0
100
AcDbLine
 62
7
  6
CONTINUOUS
 10
10.4442444369
 20
5.8307929616
 11
10.234557671
 21
5.8453347882
  0
LINE
  5
29C
100
AcDbEntity
  8
0
100
AcDbLine
 62
7
  6
CONTINUOUS
 10
9.4758444744
 20
10.5600056981
 11
8.5052738468
 21
9.6225064072
  0
LINE
  5
29D
100
AcDbEntity
  8
0
100
AcDbLine
 62
7
  6
CONTINUOUS
 10
9.0263338058
 20
9.8075098878
 11
9.9969044333
 21
10.7450091787
  0
LINE
  5
29E
100
AcDbEntity
  8
0
100
AcDbLine
 62
7
  6
CONTINUOUS
 10
12.5334258034
 20
5.8901558794
 11
11.9648743206
 21
5.9295850587
  0
LINE
  5
29F
100
AcDbEntity
  8
0
100
AcDbLine
 62
7
  6
CONTINUOUS
 10
9.0102870382
 20
9.7321224949
 11
9.0263338058
 21
9.8075098878
  0
LINE
  5
2A0
100
AcDbEntity
  8
0
100
AcDbLine
 62
7
  6
CONTINUOUS
 10
10.129714288
 20
5.6710116354
 11
10.234557671
 21
5.482146656
  0
LINE
  5
2A1
100
AcDbEntity
  8
0
100
AcDbLine
 62
7
  6
CONTINUOUS
 10
10.1763016777
 20
5.7160116009
 11
10.2811450607
 21
5.5271466215
  0
LINE
  5
2A2
100
AcDbEntity
  8
0
100
AcDbLine
 62
7
  6
CONTINUOUS
 10
9.1526852111
 20
10.8344655739
 11
9.1526852111
 21
10.2478578012
  0
LINE
  5
2A3
100
AcDbEntity
  8
0
100
AcDbLine
 62
7
  6
CONTINUOUS
 10
10.5490878198
 20
5.6419279822
 11
10.4442444369
 21
5.8307929616
  0
LINE
  5
2A4
100
AcDbEntity
  8
0
100
AcDbLine
 62
7
  6
CONTINUOUS
 10
10.7006573344
 20
5.0866343747
 11
10.7167041019
 21
5.0422469581
  0
LINE
  5
2A5
100
AcDbEntity
  8
0
100
AcDbLine
 62
7
  6
CONTINUOUS
 10
9.9930762001
 20
9.3027095021
 11
9.8882328172
 21
9.1283863493
  0
LINE
  5
2A6
100
AcDbEntity
  8
0
100
AcDbLine
 62
7
  6
CONTINUOUS
 10
10.0118175175
 20
9.3014097873
 11
9.9348202068
 21
9.1733863148
  0
LINE
  5
2A7
100
AcDbEntity
  8
0
100
AcDbLine
 62
7
  6
CONTINUOUS
 10
9.8882328172
 20
9.1283863493
 11
9.9348202068
 21
9.1733863148
  0
LINE
  5
2A8
100
AcDbEntity
  8
0
100
AcDbLine
 62
7
  6
CONTINUOUS
 10
10.202762966
 20
8.9249795432
 11
10.3076063489
 21
9.099302696
  0
LINE
  5
2A9
100
AcDbEntity
  8
0
100
AcDbLine
 62
7
  6
CONTINUOUS
 10
10.7167041019
 20
9.6902823096
 11
11.6872747294
 21
10.6277816005
  0
LINE
  5
2AA
100
AcDbEntity
  8
0
100
AcDbLine
 62
7
  6
CONTINUOUS
 10
9.9930762001
 20
8.9395213698
 11
10.0396635898
 21
8.9845213354
  0
LINE
  5
2AB
100
AcDbEntity
  8
0
100
AcDbLine
 62
7
  6
CONTINUOUS
 10
9.8882328172
 20
9.1283863493
 11
9.9930762001
 21
8.9395213698
  0
LINE
  5
2AC
100
AcDbEntity
  8
0
100
AcDbLine
 62
7
  6
CONTINUOUS
 10
9.9348202068
 20
9.1733863148
 11
10.0396635898
 21
8.9845213354
  0
LINE
  5
2AD
100
AcDbEntity
  8
0
100
AcDbLine
 62
7
  6
CONTINUOUS
 10
10.7006573344
 20
9.6148949167
 11
10.7167041019
 21
9.6902823096
  0
LINE
  5
2AE
100
AcDbEntity
  8
0
100
AcDbLine
 62
7
  6
CONTINUOUS
 10
13.6981106069
 20
11.7250096153
 11
12.5334258034
 21
10.6000104175
  0
LINE
  5
2AF
100
AcDbEntity
  8
0
100
AcDbLine
 62
4
  6
CONTINUOUS
 10
13.6660170723
 20
11.5742348319
 11
13.6349588132
 21
11.5442348556
  0
LINE
  5
2B0
100
AcDbEntity
  8
0
100
AcDbLine
 62
7
  6
CONTINUOUS
 10
8.3457300303
 20
9.113652672
 11
8.3018893931
 21
9.1333058658
  0
LINE
  5
2B1
100
AcDbEntity
  8
0
100
AcDbLine
 62
7
  6
CONTINUOUS
 10
10.3076063489
 20
9.099302696
 11
10.202762966
 21
9.2881676754
  0
LINE
  5
2B2
100
AcDbEntity
  8
0
100
AcDbLine
 62
4
  6
CONTINUOUS
 10
13.6543702251
 20
11.331162634
 11
13.6466056604
 21
11.3236626399
  0
LINE
  5
2B3
100
AcDbEntity
  8
0
100
AcDbLine
 62
7
  6
CONTINUOUS
 10
11.4411485146
 20
8.9155975063
 11
12.4117191421
 21
9.8530967972
  0
LINE
  5
2B4
100
AcDbEntity
  8
0
100
AcDbLine
 62
4
  6
CONTINUOUS
 10
13.4019479067
 20
9.4684495983
 11
13.3842003386
 21
9.4623459149
  0
LINE
  5
2B5
100
AcDbEntity
  8
0
100
AcDbLine
 62
7
  6
CONTINUOUS
 10
11.3652143422
 20
8.9042507238
 11
11.3652143422
 21
5.7051041975
  0
LINE
  5
2B6
100
AcDbEntity
  8
0
100
AcDbLine
 62
7
  6
CONTINUOUS
 10
11.4411485146
 20
8.9155975063
 11
11.4411485146
 21
5.71645098
  0
LINE
  5
2B7
100
AcDbEntity
  8
0
100
AcDbLine
 62
7
  6
CONTINUOUS
 10
11.3652143422
 20
8.9042507238
 11
11.4411485146
 21
8.9155975063
  0
LINE
  5
2B8
100
AcDbEntity
  8
0
100
AcDbLine
 62
7
  6
CONTINUOUS
 10
9.9930762001
 20
8.9395213698
 11
10.202762966
 21
8.9249795432
  0
LINE
  5
2B9
100
AcDbEntity
  8
0
100
AcDbLine
 62
7
  6
CONTINUOUS
 10
10.0396635898
 20
8.9845213354
 11
10.2306090383
 21
8.9712792235
  0
LINE
  5
2BA
100
AcDbEntity
  8
0
100
AcDbLine
 62
7
  6
CONTINUOUS
 10
10.234557671
 20
5.8453347882
 11
10.129714288
 21
5.6710116354
  0
LINE
  5
2BB
100
AcDbEntity
  8
0
100
AcDbLine
 62
7
  6
CONTINUOUS
 10
10.2532989884
 20
5.8440350734
 11
10.1763016777
 21
5.7160116009
  0
LINE
  5
2BC
100
AcDbEntity
  8
0
100
AcDbLine
 62
4
  6
CONTINUOUS
 10
12.8340254637
 20
9.0744267463
 11
12.8517730402
 21
9.0915695898
  0
LINE
  5
2BD
100
AcDbEntity
  8
0
100
AcDbLine
 62
4
  6
CONTINUOUS
 10
13.3161679545
 20
9.5401406577
 11
13.3176469136
 21
9.5415692226
  0
LINE
  5
2BE
100
AcDbEntity
  8
0
100
AcDbLine
 62
4
  6
CONTINUOUS
 10
13.2096825159
 20
9.3710487041
 11
13.1874980409
 21
9.3496201455
  0
LINE
  5
2BF
100
AcDbEntity
  8
0
100
AcDbLine
 62
4
  6
CONTINUOUS
 10
13.0203750136
 20
9.1881916877
 11
13.0425594886
 21
9.2096202463
  0
LINE
  5
2C0
100
AcDbEntity
  8
0
100
AcDbLine
 62
4
  6
CONTINUOUS
 10
13.1120708318
 20
9.2767630519
 11
13.1298184
 21
9.2939058873
  0
LINE
  5
2C1
100
AcDbEntity
  8
0
100
AcDbLine
 62
4
  6
CONTINUOUS
 10
13.1475659977
 20
9.3110487514
 11
13.1653135659
 21
9.3281915868
  0
LINE
  5
2C2
100
AcDbEntity
  8
0
100
AcDbLine
 62
4
  6
CONTINUOUS
 10
13.3442682658
 20
9.5010485634
 11
13.3620158932
 21
9.5181914561
  0
LINE
  5
2C3
100
AcDbEntity
  8
0
100
AcDbLine
 62
4
  6
CONTINUOUS
 10
13.3842003386
 20
9.5396199861
 11
13.4019479067
 21
9.5567628216
  0
LINE
  5
2C4
100
AcDbEntity
  8
0
100
AcDbLine
 62
7
  6
CONTINUOUS
 10
10.202762966
 20
9.2881676754
 11
9.9930762001
 21
9.3027095021
  0
LINE
  5
2C5
100
AcDbEntity
  8
0
100
AcDbLine
 62
4
  6
CONTINUOUS
 10
13.1113313364
 20
8.6699992665
 11
13.1157682321
 21
8.668765396
  0
LINE
  5
2C6
100
AcDbEntity
  8
0
100
AcDbLine
 62
4
  6
CONTINUOUS
 10
12.8576889038
 20
7.7825207891
 11
12.8813523397
 21
7.7612213027
  0
LINE
  5
2C7
100
AcDbEntity
  8
0
100
AcDbLine
 62
7
  6
CONTINUOUS
 10
10.4442444369
 20
5.4676048294
 11
10.5490878198
 21
5.6419279822
  0
LINE
  5
2C8
100
AcDbEntity
  8
0
100
AcDbLine
 62
4
  6
CONTINUOUS
 10
13.196371825
 20
9.2753979159
 11
13.2141193932
 21
9.2925407514
  0
LINE
  5
2C9
100
AcDbEntity
  8
0
100
AcDbLine
 62
4
  6
CONTINUOUS
 10
13.3620158932
 20
9.3526041615
 11
13.3442682658
 21
9.3354612689
  0
LINE
  5
2CA
100
AcDbEntity
  8
0
100
AcDbLine
 62
4
  6
CONTINUOUS
 10
13.2895466023
 20
9.2826041977
 11
13.2806728182
 21
9.2740327799
  0
LINE
  5
2CB
100
AcDbEntity
  8
0
100
AcDbLine
 62
4
  6
CONTINUOUS
 10
13.2141193932
 20
9.2097471041
 11
13.196371825
 21
9.1926042686
  0
LINE
  5
2CC
100
AcDbEntity
  8
0
100
AcDbLine
 62
4
  6
CONTINUOUS
 10
13.1298184
 20
9.1283185928
 11
13.1120708318
 21
9.1111757573
  0
LINE
  5
2CD
100
AcDbEntity
  8
0
100
AcDbLine
 62
4
  6
CONTINUOUS
 10
12.8295885694
 20
8.8383188284
 11
12.8473361463
 21
8.8554616723
  0
LINE
  5
2CE
100
AcDbEntity
  8
0
100
AcDbLine
 62
4
  6
CONTINUOUS
 10
12.8828312975
 20
8.8897473575
 11
12.8961419847
 21
8.9026044949
  0
LINE
  5
2CF
100
AcDbEntity
  8
0
100
AcDbLine
 62
4
  6
CONTINUOUS
 10
13.2363038682
 20
9.2311756627
 11
13.2584883432
 21
9.2526042213
  0
LINE
  5
2D0
100
AcDbEntity
  8
0
100
AcDbLine
 62
4
  6
CONTINUOUS
 10
13.3842003386
 20
9.3740326916
 11
13.4019479067
 21
9.391175527
  0
LINE
  5
2D1
100
AcDbEntity
  8
0
100
AcDbLine
 62
4
  6
CONTINUOUS
 10
13.0647439636
 20
9.0102657466
 11
13.0736177477
 21
9.0188371644
  0
LINE
  5
2D2
100
AcDbEntity
  8
0
100
AcDbLine
 62
7
  6
CONTINUOUS
 10
9.0102870382
 20
9.7321224949
 11
10.7006573344
 21
9.6148949167
  0
LINE
  5
2D3
100
AcDbEntity
  8
0
100
AcDbLine
 62
7
  6
CONTINUOUS
 10
9.0263338058
 20
9.8075098878
 11
10.7167041019
 21
9.6902823096
  0
LINE
  5
2D4
100
AcDbEntity
  8
0
100
AcDbLine
 62
4
  6
CONTINUOUS
 10
12.9877638619
 20
6.4507193613
 11
12.9788900704
 21
6.475265396
  0
LINE
  5
2D5
100
AcDbEntity
  8
0
100
AcDbLine
 62
7
  6
CONTINUOUS
 10
12.4117191421
 20
9.8530967972
 11
12.4117191421
 21
6.653950271
  0
LINE
  5
2D6
100
AcDbEntity
  8
0
100
AcDbLine
 62
4
  6
CONTINUOUS
 10
13.053651714
 20
8.6142850262
 11
13.0802730792
 21
8.6399992919
  0
LINE
  5
2D7
100
AcDbEntity
  8
0
100
AcDbLine
 62
4
  6
CONTINUOUS
 10
13.0980206566
 20
8.6571421363
 11
13.1113313364
 21
8.6699992665
  0
LINE
  5
2D8
100
AcDbEntity
  8
0
100
AcDbLine
 62
4
  6
CONTINUOUS
 10
13.1557002827
 20
8.7128563802
 11
13.1690109588
 21
8.7257135068
  0
LINE
  5
2D9
100
AcDbEntity
  8
0
100
AcDbLine
 62
4
  6
CONTINUOUS
 10
13.0713992914
 20
8.5320755022
 11
13.053651714
 21
8.5149326578
  0
LINE
  5
2DA
100
AcDbEntity
  8
0
100
AcDbLine
 62
4
  6
CONTINUOUS
 10
13.0980206566
 20
8.5412310329
 11
13.1202051242
 21
8.5626595844
  0
LINE
  5
2DB
100
AcDbEntity
  8
0
100
AcDbLine
 62
7
  6
CONTINUOUS
 10
10.129714288
 20
5.6710116354
 11
10.1763016777
 21
5.7160116009
  0
LINE
  5
2DC
100
AcDbEntity
  8
0
100
AcDbLine
 62
4
  6
CONTINUOUS
 10
13.3501841423
 20
8.3023913026
 11
13.3738475764
 21
8.281091811
  0
LINE
  5
2DD
100
AcDbEntity
  8
0
100
AcDbLine
 62
4
  6
CONTINUOUS
 10
13.0010745454
 20
6.6953987019
 11
13.0099483295
 21
6.6708526635
  0
LINE
  5
2DE
100
AcDbEntity
  8
0
100
AcDbLine
 62
4
  6
CONTINUOUS
 10
13.0898124306
 20
6.5492907152
 11
13.0809386317
 21
6.5738367428
  0
LINE
  5
2DF
100
AcDbEntity
  8
0
100
AcDbLine
 62
7
  6
CONTINUOUS
 10
12.5334258034
 20
10.6000104175
 11
12.5334258034
 21
5.8901558794
  0
LINE
  5
2E0
100
AcDbEntity
  8
0
100
AcDbLine
 62
4
  6
CONTINUOUS
 10
12.5965776781
 20
6.3046847079
 11
12.5965776781
 21
6.0728625011
  0
LINE
  5
2E1
100
AcDbEntity
  8
0
100
AcDbLine
 62
4
  6
CONTINUOUS
 10
12.825151675
 20
9.032737868
 11
12.8340254637
 21
9.0744267463
  0
LINE
  5
2E2
100
AcDbEntity
  8
0
100
AcDbLine
 62
4
  6
CONTINUOUS
 10
12.8473361463
 20
8.8554616723
 11
12.8562099341
 21
8.8971505532
  0
LINE
  5
2E3
100
AcDbEntity
  8
0
100
AcDbLine
 62
4
  6
CONTINUOUS
 10
12.8961419847
 20
8.9026044949
 11
12.9050157688
 21
8.9442933722
  0
LINE
  5
2E4
100
AcDbEntity
  8
0
100
AcDbLine
 62
4
  6
CONTINUOUS
 10
13.6388410956
 20
11.4127552366
 11
13.6543702251
 21
11.4663922569
  0
LINE
  5
2E5
100
AcDbEntity
  8
0
100
AcDbLine
 62
4
  6
CONTINUOUS
 10
13.6621347899
 20
11.3579811407
 11
13.6543702251
 21
11.331162634
  0
LINE
  5
2E6
100
AcDbEntity
  8
0
100
AcDbLine
 62
4
  6
CONTINUOUS
 10
13.1031970477
 20
9.2516328992
 11
13.1120708318
 21
9.2767630519
  0
LINE
  5
2E7
100
AcDbEntity
  8
0
100
AcDbLine
 62
4
  6
CONTINUOUS
 10
13.1690109588
 20
8.4938912999
 11
13.1557002827
 21
8.4810341733
  0
LINE
  5
2E8
100
AcDbEntity
  8
0
100
AcDbLine
 62
4
  6
CONTINUOUS
 10
13.1202051242
 20
8.4467484809
 11
13.0980206566
 21
8.4253199295
  0
LINE
  5
2E9
100
AcDbEntity
  8
0
100
AcDbLine
 62
4
  6
CONTINUOUS
 10
13.053651714
 20
8.3824628194
 11
13.0802730792
 21
8.4081770851
  0
LINE
  5
2EA
100
AcDbEntity
  8
0
100
AcDbLine
 62
7
  6
CONTINUOUS
 10
10.234557671
 20
5.482146656
 11
10.2811450607
 21
5.5271466215
  0
LINE
  5
2EB
100
AcDbEntity
  8
0
100
AcDbLine
 62
4
  6
CONTINUOUS
 10
12.8931840586
 20
7.9492763094
 11
12.9153685262
 21
7.9707048608
  0
LINE
  5
2EC
100
AcDbEntity
  8
0
100
AcDbLine
 62
4
  6
CONTINUOUS
 10
13.0026274413
 20
8.0549905054
 11
13.0381225924
 21
8.0892761907
  0
LINE
  5
2ED
100
AcDbEntity
  8
0
100
AcDbLine
 62
4
  6
CONTINUOUS
 10
13.0558701754
 20
8.1064190404
 11
13.0824915424
 21
8.1321333079
  0
LINE
  5
2EE
100
AcDbEntity
  8
0
100
AcDbLine
 62
4
  6
CONTINUOUS
 10
13.1579187515
 20
8.2049904015
 11
13.1756663197
 21
8.2221332369
  0
LINE
  5
2EF
100
AcDbEntity
  8
0
100
AcDbLine
 62
4
  6
CONTINUOUS
 10
13.2096824969
 20
8.254990343
 11
13.2229931878
 21
8.2678474839
  0
LINE
  5
2F0
100
AcDbEntity
  8
0
100
AcDbLine
 62
4
  6
CONTINUOUS
 10
13.2496145401
 20
8.2935617371
 11
13.2717990151
 21
8.3149902957
  0
LINE
  5
2F1
100
AcDbEntity
  8
0
100
AcDbLine
 62
4
  6
CONTINUOUS
 10
13.3058152219
 20
8.3478474304
 11
13.3324365742
 21
8.3735616835
  0
LINE
  5
2F2
100
AcDbEntity
  8
0
100
AcDbLine
 62
4
  6
CONTINUOUS
 10
13.3235627901
 20
8.2656378974
 11
13.3058152219
 21
8.2484950619
  0
LINE
  5
2F3
100
AcDbEntity
  8
0
100
AcDbLine
 62
4
  6
CONTINUOUS
 10
13.0736177583
 20
8.0242095217
 11
13.0558701754
 21
8.007066672
  0
LINE
  5
2F4
100
AcDbEntity
  8
0
100
AcDbLine
 62
4
  6
CONTINUOUS
 10
12.9153685262
 20
7.9707048608
 11
12.924242314
 21
7.946158826
  0
LINE
  5
2F5
100
AcDbEntity
  8
0
100
AcDbLine
 62
4
  6
CONTINUOUS
 10
12.9300842357
 20
6.6268273243
 11
12.9611424948
 21
6.4250050938
  0
LINE
  5
2F6
100
AcDbEntity
  8
0
100
AcDbLine
 62
4
  6
CONTINUOUS
 10
12.8812784008
 20
6.3478622982
 11
12.8636898456
 21
6.4716415793
  0
LINE
  5
2F7
100
AcDbEntity
  8
0
100
AcDbLine
 62
4
  6
CONTINUOUS
 10
12.9671322901
 20
8.0207048202
 11
12.9848798731
 21
7.8060254631
  0
LINE
  5
2F8
100
AcDbEntity
  8
0
100
AcDbLine
 62
4
  6
CONTINUOUS
 10
12.825151675
 20
8.9996204118
 11
12.825151675
 21
9.032737868
  0
LINE
  5
2F9
100
AcDbEntity
  8
0
100
AcDbLine
 62
4
  6
CONTINUOUS
 10
12.8562099341
 20
8.8971505532
 11
12.8562099341
 21
8.9302680128
  0
LINE
  5
2FA
100
AcDbEntity
  8
0
100
AcDbLine
 62
4
  6
CONTINUOUS
 10
12.8739575097
 20
9.1129981431
 11
12.8739575097
 21
8.9142933958
  0
LINE
  5
2FB
100
AcDbEntity
  8
0
100
AcDbLine
 62
4
  6
CONTINUOUS
 10
12.8812784008
 20
6.3478622982
 11
12.8812784008
 21
6.6086622809
  0
LINE
  5
2FC
100
AcDbEntity
  8
0
100
AcDbLine
 62
4
  6
CONTINUOUS
 10
12.8931840586
 20
7.7174541025
 11
12.8931840586
 21
7.9492763094
  0
LINE
  5
2FD
100
AcDbEntity
  8
0
100
AcDbLine
 62
4
  6
CONTINUOUS
 10
12.9050157688
 20
8.9442933722
 11
12.9050157688
 21
9.1429981195
  0
LINE
  5
2FE
100
AcDbEntity
  8
0
100
AcDbLine
 62
4
  6
CONTINUOUS
 10
12.9227633443
 20
8.9283187552
 11
12.9227633443
 21
9.1601409621
  0
LINE
  5
2FF
100
AcDbEntity
  8
0
100
AcDbLine
 62
4
  6
CONTINUOUS
 10
12.924242314
 20
7.946158826
 11
12.924242314
 21
7.7805715349
  0
LINE
  5
300
100
AcDbEntity
  8
0
100
AcDbLine
 62
4
  6
CONTINUOUS
 10
12.9300842357
 20
6.3950051174
 11
12.9300842357
 21
6.6268273243
  0
LINE
  5
301
100
AcDbEntity
  8
0
100
AcDbLine
 62
4
  6
CONTINUOUS
 10
12.9538216034
 20
8.9583187315
 11
12.9538216034
 21
9.1901409384
  0
LINE
  5
302
100
AcDbEntity
  8
0
100
AcDbLine
 62
4
  6
CONTINUOUS
 10
12.9611424948
 20
6.4250050938
 11
12.9611424948
 21
6.6568273007
  0
LINE
  5
303
100
AcDbEntity
  8
0
100
AcDbLine
 62
4
  6
CONTINUOUS
 10
12.9788900704
 20
6.475265396
 11
12.9788900704
 21
6.6408526871
  0
LINE
  5
304
100
AcDbEntity
  8
0
100
AcDbLine
 62
4
  6
CONTINUOUS
 10
13.0099483295
 20
6.6708526635
 11
13.0099483295
 21
6.5052653724
  0
LINE
  5
305
100
AcDbEntity
  8
0
100
AcDbLine
 62
4
  6
CONTINUOUS
 10
13.0203750242
 20
7.8403111483
 11
13.0203750242
 21
8.0721333552
  0
LINE
  5
306
100
AcDbEntity
  8
0
100
AcDbLine
 62
4
  6
CONTINUOUS
 10
13.0203750136
 20
9.0226043931
 11
13.0203750136
 21
9.2544266
  0
LINE
  5
307
100
AcDbEntity
  8
0
100
AcDbLine
 62
4
  6
CONTINUOUS
 10
13.0454434806
 20
6.506433598
 11
13.0454434806
 21
6.7382558048
  0
LINE
  5
308
100
AcDbEntity
  8
0
100
AcDbLine
 62
4
  6
CONTINUOUS
 10
13.0469963807
 20
9.1973472202
 11
13.0469963807
 21
9.0483186606
  0
LINE
  5
309
100
AcDbEntity
  8
0
100
AcDbLine
 62
4
  6
CONTINUOUS
 10
13.053651714
 20
8.3824628194
 11
13.053651714
 21
8.6142850262
  0
LINE
  5
30A
100
AcDbEntity
  8
0
100
AcDbLine
 62
4
  6
CONTINUOUS
 10
13.0558701754
 20
7.8745968335
 11
13.0558701754
 21
8.1064190404
  0
LINE
  5
30B
100
AcDbEntity
  8
0
100
AcDbLine
 62
4
  6
CONTINUOUS
 10
13.0809386317
 20
6.5738367428
 11
13.0809386317
 21
6.7394240339
  0
LINE
  5
30C
100
AcDbEntity
  8
0
100
AcDbLine
 62
4
  6
CONTINUOUS
 10
12.9493847146
 20
7.7717397708
 11
12.9671322901
 21
8.0207048202
  0
LINE
  5
30D
100
AcDbEntity
  8
0
100
AcDbLine
 62
4
  6
CONTINUOUS
 10
13.0736177477
 20
9.0188371644
 11
13.0913653159
 21
9.2567630581
  0
LINE
  5
30E
100
AcDbEntity
  8
0
100
AcDbLine
 62
4
  6
CONTINUOUS
 10
12.924242314
 20
7.7805715349
 11
12.9153685262
 21
7.738882654
  0
LINE
  5
30F
100
AcDbEntity
  8
0
100
AcDbLine
 62
4
  6
CONTINUOUS
 10
13.1246420236
 20
8.6000627565
 11
13.1157682321
 21
8.5583738755
  0
LINE
  5
310
100
AcDbEntity
  8
0
100
AcDbLine
 62
4
  6
CONTINUOUS
 10
13.1468264912
 20
8.6711674991
 11
13.1557002827
 21
8.7128563802
  0
LINE
  5
311
100
AcDbEntity
  8
0
100
AcDbLine
 62
4
  6
CONTINUOUS
 10
13.3398313886
 20
9.4802041339
 11
13.3442682658
 21
9.5010485634
  0
LINE
  5
312
100
AcDbEntity
  8
0
100
AcDbLine
 62
4
  6
CONTINUOUS
 10
13.1290789157
 20
8.4884373654
 11
13.1202051242
 21
8.4467484809
  0
LINE
  5
313
100
AcDbEntity
  8
0
100
AcDbLine
 62
4
  6
CONTINUOUS
 10
13.1874980409
 20
9.2502677701
 11
13.196371825
 21
9.2753979159
  0
LINE
  5
314
100
AcDbEntity
  8
0
100
AcDbLine
 62
4
  6
CONTINUOUS
 10
12.8813523397
 20
7.8495345294
 11
12.8576889038
 21
7.7825207891
  0
LINE
  5
315
100
AcDbEntity
  8
0
100
AcDbLine
 62
4
  6
CONTINUOUS
 10
12.9553005731
 20
7.8436889708
 11
12.9789640072
 21
7.8665460943
  0
LINE
  5
316
100
AcDbEntity
  8
0
100
AcDbLine
 62
4
  6
CONTINUOUS
 10
13.2717990151
 20
8.0831680888
 11
13.2496145401
 21
8.0617395302
  0
LINE
  5
317
100
AcDbEntity
  8
0
100
AcDbLine
 62
4
  6
CONTINUOUS
 10
13.2229931878
 20
8.036025277
 11
13.2096824969
 21
8.0231681361
  0
LINE
  5
318
100
AcDbEntity
  8
0
100
AcDbLine
 62
4
  6
CONTINUOUS
 10
13.1756663197
 20
7.9903110301
 11
13.1579187515
 21
7.9731681946
  0
LINE
  5
319
100
AcDbEntity
  8
0
100
AcDbLine
 62
4
  6
CONTINUOUS
 10
12.9153685262
 20
7.738882654
 11
12.8931840586
 21
7.7174541025
  0
LINE
  5
31A
100
AcDbEntity
  8
0
100
AcDbLine
 62
4
  6
CONTINUOUS
 10
13.0558701754
 20
7.8745968335
 11
13.0824915424
 21
7.900311101
  0
LINE
  5
31B
100
AcDbEntity
  8
0
100
AcDbLine
 62
4
  6
CONTINUOUS
 10
13.3058152219
 20
8.1160252235
 11
13.3324365742
 21
8.1417394767
  0
LINE
  5
31C
100
AcDbEntity
  8
0
100
AcDbLine
 62
4
  6
CONTINUOUS
 10
13.1120708318
 20
9.1111757573
 11
13.1031970477
 21
9.1191630694
  0
LINE
  5
31D
100
AcDbEntity
  8
0
100
AcDbLine
 62
4
  6
CONTINUOUS
 10
13.196371825
 20
9.1926042686
 11
13.1874980409
 21
9.2005915807
  0
LINE
  5
31E
100
AcDbEntity
  8
0
100
AcDbLine
 62
4
  6
CONTINUOUS
 10
13.1157682321
 20
8.668765396
 11
13.1246420236
 21
8.6497389477
  0
LINE
  5
31F
100
AcDbEntity
  8
0
100
AcDbLine
 62
4
  6
CONTINUOUS
 10
12.8562099341
 20
8.9302680128
 11
12.825151675
 21
8.9996204118
  0
LINE
  5
320
100
AcDbEntity
  8
0
100
AcDbLine
 62
4
  6
CONTINUOUS
 10
12.825151675
 20
8.8505918471
 11
12.8295885694
 21
8.8383188284
  0
LINE
  5
321
100
AcDbEntity
  8
0
100
AcDbLine
 62
4
  6
CONTINUOUS
 10
13.1579187515
 20
7.9731681946
 11
13.1490449674
 21
7.9977142365
  0
LINE
  5
322
100
AcDbEntity
  8
0
100
AcDbLine
 62
4
  6
CONTINUOUS
 10
12.8739575097
 20
8.9142933958
 11
12.8828312975
 21
8.8897473575
  0
LINE
  5
323
100
AcDbEntity
  8
0
100
AcDbLine
 62
4
  6
CONTINUOUS
 10
13.2096824969
 20
8.0231681361
 11
13.2008087128
 21
8.047714178
  0
LINE
  5
324
100
AcDbEntity
  8
0
100
AcDbLine
 62
4
  6
CONTINUOUS
 10
12.8517730402
 20
9.0915695898
 11
12.8562099341
 21
9.0792965655
  0
LINE
  5
325
100
AcDbEntity
  8
0
100
AcDbLine
 62
4
  6
CONTINUOUS
 10
13.2229931878
 20
8.2678474839
 11
13.2318669719
 21
8.2433014455
  0
LINE
  5
326
100
AcDbEntity
  8
0
100
AcDbLine
 62
4
  6
CONTINUOUS
 10
13.1202051242
 20
8.5626595844
 11
13.1290789157
 21
8.5381135531
  0
LINE
  5
327
100
AcDbEntity
  8
0
100
AcDbLine
 62
4
  6
CONTINUOUS
 10
13.1557002827
 20
8.4810341733
 11
13.1468264912
 21
8.505580208
  0
LINE
  5
328
100
AcDbEntity
  8
0
100
AcDbLine
 62
4
  6
CONTINUOUS
 10
13.2717990151
 20
8.3149902957
 11
13.2806727992
 21
8.2904442573
  0
LINE
  5
329
100
AcDbEntity
  8
0
100
AcDbLine
 62
4
  6
CONTINUOUS
 10
12.9227633443
 20
9.1601409621
 11
12.9538216034
 21
8.9583187315
  0
LINE
  5
32A
100
AcDbEntity
  8
0
100
AcDbLine
 62
4
  6
CONTINUOUS
 10
13.0647439636
 20
9.2310488049
 11
13.0780546546
 21
9.0783186512
  0
LINE
  5
32B
100
AcDbEntity
  8
0
100
AcDbLine
 62
4
  6
CONTINUOUS
 10
13.0980206566
 20
8.4253199295
 11
13.0980206566
 21
8.6571421363
  0
LINE
  5
32C
100
AcDbEntity
  8
0
100
AcDbLine
 62
4
  6
CONTINUOUS
 10
13.1031970477
 20
9.1191630694
 11
13.1031970477
 21
9.2516328992
  0
LINE
  5
32D
100
AcDbEntity
  8
0
100
AcDbLine
 62
4
  6
CONTINUOUS
 10
13.1246420236
 20
8.6497389477
 11
13.1246420236
 21
8.6000627565
  0
LINE
  5
32E
100
AcDbEntity
  8
0
100
AcDbLine
 62
4
  6
CONTINUOUS
 10
13.1290789157
 20
8.5381135531
 11
13.1290789157
 21
8.4884373654
  0
LINE
  5
32F
100
AcDbEntity
  8
0
100
AcDbLine
 62
4
  6
CONTINUOUS
 10
13.1298184
 20
9.3601407996
 11
13.1298184
 21
9.1283185928
  0
LINE
  5
330
100
AcDbEntity
  8
0
100
AcDbLine
 62
4
  6
CONTINUOUS
 10
13.1327023919
 20
6.590719239
 11
13.1327023919
 21
6.8225414459
  0
LINE
  5
331
100
AcDbEntity
  8
0
100
AcDbLine
 62
4
  6
CONTINUOUS
 10
13.1468264912
 20
8.505580208
 11
13.1468264912
 21
8.6711674991
  0
LINE
  5
332
100
AcDbEntity
  8
0
100
AcDbLine
 62
4
  6
CONTINUOUS
 10
13.1475659977
 20
9.1454614568
 11
13.1475659977
 21
9.3110487514
  0
LINE
  5
333
100
AcDbEntity
  8
0
100
AcDbLine
 62
4
  6
CONTINUOUS
 10
13.1490449674
 20
7.9977142365
 11
13.1490449674
 21
8.1633015276
  0
LINE
  5
334
100
AcDbEntity
  8
0
100
AcDbLine
 62
4
  6
CONTINUOUS
 10
13.163760651
 20
6.8525414222
 11
13.163760651
 21
6.6207192153
  0
LINE
  5
335
100
AcDbEntity
  8
0
100
AcDbLine
 62
4
  6
CONTINUOUS
 10
13.1682714841
 20
9.3144899816
 11
13.1682714841
 21
9.2813725254
  0
LINE
  5
336
100
AcDbEntity
  8
0
100
AcDbLine
 62
4
  6
CONTINUOUS
 10
13.1778847503
 20
8.7011674755
 11
13.1778847503
 21
8.5355801844
  0
LINE
  5
337
100
AcDbEntity
  8
0
100
AcDbLine
 62
4
  6
CONTINUOUS
 10
13.1874980409
 20
9.2005915807
 11
13.1874980409
 21
9.2502677701
  0
LINE
  5
338
100
AcDbEntity
  8
0
100
AcDbLine
 62
4
  6
CONTINUOUS
 10
13.2008087128
 20
8.047714178
 11
13.2008087128
 21
8.2133014691
  0
LINE
  5
339
100
AcDbEntity
  8
0
100
AcDbLine
 62
4
  6
CONTINUOUS
 10
13.2141193932
 20
9.2097471041
 11
13.2141193932
 21
9.3422169425
  0
LINE
  5
33A
100
AcDbEntity
  8
0
100
AcDbLine
 62
4
  6
CONTINUOUS
 10
13.2318669613
 20
9.3924772341
 11
13.2318669613
 21
9.2434486693
  0
LINE
  5
33B
100
AcDbEntity
  8
0
100
AcDbLine
 62
4
  6
CONTINUOUS
 10
13.2318669719
 20
8.2433014455
 11
13.2318669719
 21
8.0777141544
  0
LINE
  5
33C
100
AcDbEntity
  8
0
100
AcDbLine
 62
4
  6
CONTINUOUS
 10
13.2496145401
 20
8.0617395302
 11
13.2496145401
 21
8.2935617371
  0
LINE
  5
33D
100
AcDbEntity
  8
0
100
AcDbLine
 62
4
  6
CONTINUOUS
 10
13.2584883432
 20
9.2526042213
 11
13.2584883432
 21
9.4181915159
  0
LINE
  5
33E
100
AcDbEntity
  8
0
100
AcDbLine
 62
4
  6
CONTINUOUS
 10
13.2762359113
 20
9.2863057866
 11
13.2762359113
 21
9.5015692636
  0
LINE
  5
33F
100
AcDbEntity
  8
0
100
AcDbLine
 62
4
  6
CONTINUOUS
 10
13.2806727992
 20
8.2904442573
 11
13.2806727992
 21
8.1248569662
  0
LINE
  5
340
100
AcDbEntity
  8
0
100
AcDbLine
 62
4
  6
CONTINUOUS
 10
13.3058152219
 20
8.1160252235
 11
13.3058152219
 21
8.3478474304
  0
LINE
  5
341
100
AcDbEntity
  8
0
100
AcDbLine
 62
4
  6
CONTINUOUS
 10
13.3161679545
 20
9.3083184508
 11
13.3161679545
 21
9.4739057454
  0
LINE
  5
342
100
AcDbEntity
  8
0
100
AcDbLine
 62
4
  6
CONTINUOUS
 10
13.3161679545
 20
9.5235819227
 11
13.3161679545
 21
9.5401406577
  0
LINE
  5
343
100
AcDbEntity
  8
0
100
AcDbLine
 62
4
  6
CONTINUOUS
 10
13.3398313886
 20
9.3477343041
 11
13.3398313886
 21
9.4802041339
  0
LINE
  5
344
100
AcDbEntity
  8
0
100
AcDbLine
 62
4
  6
CONTINUOUS
 10
13.3176469136
 20
9.5415692226
 11
13.3161679545
 21
9.5235819227
  0
LINE
  5
345
100
AcDbEntity
  8
0
100
AcDbLine
 62
4
  6
CONTINUOUS
 10
12.8812784008
 20
6.3478622982
 11
12.898866956
 21
6.5056200607
  0
LINE
  5
346
100
AcDbEntity
  8
0
100
AcDbLine
 62
4
  6
CONTINUOUS
 10
13.6349588132
 20
11.3896867131
 11
13.6388410956
 21
11.4127552366
  0
LINE
  5
347
100
AcDbEntity
  8
0
100
AcDbLine
 62
4
  6
CONTINUOUS
 10
13.6543702251
 20
11.4663922569
 11
13.6621347899
 21
11.5125292832
  0
LINE
  5
348
100
AcDbEntity
  8
0
100
AcDbLine
 62
4
  6
CONTINUOUS
 10
13.6660170723
 20
11.3810496642
 11
13.6621347899
 21
11.3579811407
  0
LINE
  5
349
100
AcDbEntity
  8
0
100
AcDbLine
 62
4
  6
CONTINUOUS
 10
13.3797634614
 20
9.5187755566
 11
13.3842003386
 21
9.5396199861
  0
LINE
  5
34A
100
AcDbEntity
  8
0
100
AcDbLine
 62
4
  6
CONTINUOUS
 10
13.1778847503
 20
8.5355801844
 11
13.1690109588
 21
8.4938912999
  0
LINE
  5
34B
100
AcDbEntity
  8
0
100
AcDbLine
 62
4
  6
CONTINUOUS
 10
13.4019479067
 20
9.391175527
 11
13.406384784
 21
9.4120199514
  0
LINE
  5
34C
100
AcDbEntity
  8
0
100
AcDbLine
 62
4
  6
CONTINUOUS
 10
13.1490449674
 20
8.1633015276
 11
13.1579187515
 21
8.2049904015
  0
LINE
  5
34D
100
AcDbEntity
  8
0
100
AcDbLine
 62
4
  6
CONTINUOUS
 10
13.2008087128
 20
8.2133014691
 11
13.2096824969
 21
8.254990343
  0
LINE
  5
34E
100
AcDbEntity
  8
0
100
AcDbLine
 62
4
  6
CONTINUOUS
 10
13.2318669719
 20
8.0777141544
 11
13.2229931878
 21
8.036025277
  0
LINE
  5
34F
100
AcDbEntity
  8
0
100
AcDbLine
 62
4
  6
CONTINUOUS
 10
13.2806727992
 20
8.1248569662
 11
13.2717990151
 21
8.0831680888
  0
LINE
  5
350
100
AcDbEntity
  8
0
100
AcDbLine
 62
4
  6
CONTINUOUS
 10
12.9788900704
 20
6.6408526871
 11
12.9877638619
 21
6.6825415681
  0
LINE
  5
351
100
AcDbEntity
  8
0
100
AcDbLine
 62
4
  6
CONTINUOUS
 10
13.3738475764
 20
8.281091811
 11
13.3501841423
 21
8.2140780758
  0
LINE
  5
352
100
AcDbEntity
  8
0
100
AcDbLine
 62
7
  6
CONTINUOUS
 10
11.4411485146
 20
5.71645098
 11
12.4117191421
 21
6.653950271
  0
LINE
  5
353
100
AcDbEntity
  8
0
100
AcDbLine
 62
7
  6
CONTINUOUS
 10
9.9969044333
 20
10.7450091787
 11
11.6872747294
 21
10.6277816005
  0
LINE
  5
354
100
AcDbEntity
  8
0
100
AcDbLine
 62
7
  6
CONTINUOUS
 10
12.5334258034
 20
10.6000104175
 11
9.1526852111
 21
10.8344655739
  0
LINE
  5
355
100
AcDbEntity
  8
0
100
AcDbLine
 62
4
  6
CONTINUOUS
 10
13.1690109588
 20
8.7257135068
 11
13.1778847503
 21
8.7011674755
  0
LINE
  5
356
100
AcDbEntity
  8
0
100
AcDbLine
 62
4
  6
CONTINUOUS
 10
13.0425594886
 20
9.2096202463
 11
13.0469963807
 21
9.1973472202
  0
LINE
  5
357
100
AcDbEntity
  8
0
100
AcDbLine
 62
4
  6
CONTINUOUS
 10
13.2318669613
 20
9.2434486693
 11
13.2363038682
 21
9.2311756627
  0
LINE
  5
358
100
AcDbEntity
  8
0
100
AcDbLine
 62
4
  6
CONTINUOUS
 10
13.1653135659
 20
9.3281915868
 11
13.1682714841
 21
9.3144899816
  0
LINE
  5
359
100
AcDbEntity
  8
0
100
AcDbLine
 62
4
  6
CONTINUOUS
 10
13.2141193932
 20
9.3422169425
 11
13.2096825159
 21
9.3710487041
  0
LINE
  5
35A
100
AcDbEntity
  8
0
100
AcDbLine
 62
4
  6
CONTINUOUS
 10
13.3797634614
 20
9.4690993724
 11
13.3797634614
 21
9.5187755566
  0
LINE
  5
35B
100
AcDbEntity
  8
0
100
AcDbLine
 62
4
  6
CONTINUOUS
 10
13.406384784
 20
9.4120199514
 11
13.406384784
 21
9.4616961408
  0
LINE
  5
35C
100
AcDbEntity
  8
0
100
AcDbLine
 62
4
  6
CONTINUOUS
 10
13.6349588132
 20
11.3510496878
 11
13.6349588132
 21
11.3896867131
  0
LINE
  5
35D
100
AcDbEntity
  8
0
100
AcDbLine
 62
4
  6
CONTINUOUS
 10
13.6621347899
 20
11.5125292832
 11
13.6660170723
 21
11.5742348319
  0
LINE
  5
35E
100
AcDbEntity
  8
0
100
AcDbLine
 62
4
  6
CONTINUOUS
 10
13.0099483295
 20
6.5052653724
 11
13.0010745454
 21
6.463576495
  0
LINE
  5
35F
100
AcDbEntity
  8
0
100
AcDbLine
 62
4
  6
CONTINUOUS
 10
13.0809386317
 20
6.7394240339
 11
13.0898124306
 21
6.7811129221
  0
LINE
  5
360
100
AcDbEntity
  8
0
100
AcDbLine
 62
7
  6
CONTINUOUS
 10
12.2083346884
 20
6.1647497295
 11
11.2377640608
 21
5.2272504386
  0
LINE
  5
361
100
AcDbEntity
  8
0
100
AcDbLine
 62
4
  6
CONTINUOUS
 10
12.8812784008
 20
6.6086622809
 11
13.1608027326
 21
6.8786620681
  0
LINE
  5
362
100
AcDbEntity
  8
0
100
AcDbLine
 62
4
  6
CONTINUOUS
 10
13.3842003386
 20
9.4623459149
 11
13.3797634614
 21
9.4690993724
  0
LINE
  5
363
100
AcDbEntity
  8
0
100
AcDbLine
 62
4
  6
CONTINUOUS
 10
13.406384784
 20
9.4616961408
 11
13.4019479067
 21
9.4684495983
  0
LINE
  5
364
100
AcDbEntity
  8
0
100
AcDbLine
 62
4
  6
CONTINUOUS
 10
13.2806728182
 20
9.2740327799
 11
13.2762359113
 21
9.2863057866
  0
LINE
  5
365
100
AcDbEntity
  8
0
100
AcDbLine
 62
4
  6
CONTINUOUS
 10
13.3442682658
 20
9.3354612689
 11
13.3398313886
 21
9.3477343041
  0
LINE
  5
366
100
AcDbEntity
  8
0
100
AcDbLine
 62
4
  6
CONTINUOUS
 10
13.3797634614
 20
9.3863057268
 11
13.3842003386
 21
9.3740326916
  0
LINE
  5
367
100
AcDbEntity
  8
0
100
AcDbLine
 62
4
  6
CONTINUOUS
 10
13.4019479067
 20
9.5567628216
 11
13.406384784
 21
9.5444897812
  0
LINE
  5
368
100
AcDbEntity
  8
0
100
AcDbLine
 62
7
  6
CONTINUOUS
 10
13.6981106069
 20
11.7250096153
 11
13.6981106069
 21
7.0151550772
  0
LINE
  5
369
100
AcDbEntity
  8
0
100
AcDbLine
 62
4
  6
CONTINUOUS
 10
12.9877638619
 20
6.6825415681
 11
13.0010745454
 21
6.6953987019
  0
LINE
  5
36A
100
AcDbEntity
  8
0
100
AcDbLine
 62
4
  6
CONTINUOUS
 10
13.0276959124
 20
6.7211129694
 11
13.0631910636
 21
6.7553986546
  0
LINE
  5
36B
100
AcDbEntity
  8
0
100
AcDbLine
 62
4
  6
CONTINUOUS
 10
13.0898124306
 20
6.7811129221
 11
13.1075599988
 21
6.7982557575
  0
LINE
  5
36C
100
AcDbEntity
  8
0
100
AcDbLine
 62
4
  6
CONTINUOUS
 10
13.1327023919
 20
6.7231890774
 11
13.163760651
 21
6.7531890538
  0
LINE
  5
36D
100
AcDbEntity
  8
0
100
AcDbLine
 62
4
  6
CONTINUOUS
 10
13.1075599988
 20
6.5664335507
 11
13.0898124306
 21
6.5492907152
  0
LINE
  5
36E
100
AcDbEntity
  8
0
100
AcDbLine
 62
4
  6
CONTINUOUS
 10
13.0010745454
 20
6.463576495
 11
12.9877638619
 21
6.4507193613
  0
LINE
  5
36F
100
AcDbEntity
  8
0
100
AcDbLine
 62
7
  6
CONTINUOUS
 10
13.6981106069
 20
7.0151550772
 11
12.5334258034
 21
5.8901558794
  0
LINE
  5
370
100
AcDbEntity
  8
0
100
AcDbLine
 62
4
  6
CONTINUOUS
 10
13.6388410956
 20
11.3354811584
 11
13.6349588132
 21
11.3510496878
  0
LINE
  5
371
100
AcDbEntity
  8
0
100
AcDbLine
 62
7
  6
CONTINUOUS
 10
10.3173700146
 20
11.9594647717
 11
13.6981106069
 21
11.7250096153
  0
LINE
  5
372
100
AcDbEntity
  8
0
100
AcDbLine
 62
4
  6
CONTINUOUS
 10
13.6466056604
 20
11.3236626399
 11
13.6388410956
 21
11.3354811584
  0
ARC
  5
373
100
AcDbEntity
  8
0
100
AcDbCircle
 62
7
  6
CONTINUOUS
 10
10.8330381761
 20
8.2811409897
 40
0.8960790052
100
AcDbArc
 50
266.0035598905
 51
275.5464554032
  0
ARC
  5
374
100
AcDbEntity
  8
0
100
AcDbCircle
 62
7
  6
CONTINUOUS
 10
10.8410871039
 20
8.2928388568
 40
0.8568037708
100
AcDbArc
 50
266.0064364255
 51
275.0615608219
  0
ARC
  5
375
100
AcDbEntity
  8
0
100
AcDbCircle
 62
7
  6
CONTINUOUS
 10
10.8512416207
 20
8.3051835973
 40
0.8406045012
100
AcDbArc
 50
266.010811609
 51
274.2724190107
  0
ARC
  5
376
100
AcDbEntity
  8
0
100
AcDbCircle
 62
7
  6
CONTINUOUS
 10
10.3695682159
 20
5.7185327261
 40
0.1643200189
100
AcDbArc
 50
134.0202935171
 51
148.9963149791
  0
ARC
  5
377
100
AcDbEntity
  8
0
100
AcDbCircle
 62
7
  6
CONTINUOUS
 10
10.1280867451
 20
9.1759074399
 40
0.1643200189
100
AcDbArc
 50
134.0202935171
 51
148.9963149791
  0
ARC
  5
378
100
AcDbEntity
  8
0
100
AcDbCircle
 62
7
  6
CONTINUOUS
 10
10.3690409436
 20
5.7190180159
 40
0.1636041311
100
AcDbArc
 50
130.5129721109
 51
134.0056113365
  0
ARC
  5
379
100
AcDbEntity
  8
0
100
AcDbCircle
 62
7
  6
CONTINUOUS
 10
10.1275594727
 20
9.1763927298
 40
0.1636041311
100
AcDbArc
 50
130.5129721109
 51
134.0056113364
  0
SPLINE
  5
37A
100
AcDbEntity
  8
02___PRT_ALL_AXES
100
AcDbSpline
 62
7
  6
CONTINUOUS
 70
0
 71
3
 72
55
 73
51
 74
0
 42
0.0000001
 43
0.0000001
 44
0.0000000001
 40
0.0
 40
0.0
 40
0.0
 40
0.0
 40
0.0311085526
 40
0.0465935532
 40
0.0620249298
 40
0.0774059155
 40
0.0927404198
 40
0.123272183
 40
0.1536552115
 40
0.1688063384
 40
0.1839333713
 40
0.1990411953
 40
0.2141348636
 40
0.2442905889
 40
0.2744539347
 40
0.2895570278
 40
0.3046779045
 40
0.3198215036
 40
0.3349925635
 40
0.3654244394
 40
0.3960151715
 40
0.4113830432
 40
0.4267993656
 40
0.4422660065
 40
0.4577844218
 40
0.4889703508
 40
0.5203679917
 40
0.5361488781
 40
0.5519795
 40
0.5678577419
 40
0.5837811346
 40
0.6157426718
 40
0.647845381
 40
0.6639438901
 40
0.6800651287
 40
0.6962043911
 40
0.7123568457
 40
0.744673121
 40
0.776982283
 40
0.7931259264
 40
0.8092529617
 40
0.8253586391
 40
0.8414383609
 40
0.8734947715
 40
0.9053998884
 40
0.9212910569
 40
0.9371349642
 40
0.9529311453
 40
0.9686792293
 40
1.0
 40
1.0
 40
1.0
 40
1.0
 10
10.0380321783
 20
5.6773698113
 30
0.0
 10
10.0380321783
 20
5.6871938258
 30
0.0
 10
10.0387540699
 20
5.7019219844
 30
0.0
 10
10.0411704179
 20
5.7213653216
 30
0.0
 10
10.0436997844
 20
5.7357721796
 30
0.0
 10
10.0469409671
 20
5.7499867882
 30
0.0
 10
10.0521941093
 20
5.7686087279
 30
0.0
 10
10.0604962882
 20
5.7912594374
 30
0.0
 10
10.0710651532
 20
5.8128821718
 30
0.0
 10
10.0807982954
 20
5.8293904793
 30
0.0
 10
10.0887163872
 20
5.8413456423
 30
0.0
 10
10.0972380274
 20
5.8528558536
 30
0.0
 10
10.1093729192
 20
5.8675641334
 30
0.0
 10
10.1259604378
 20
5.8847179007
 30
0.0
 10
10.1442625753
 20
5.9000335311
 30
0.0
 10
10.1598104913
 20
5.9110885386
 30
0.0
 10
10.1719116567
 20
5.9187708544
 30
0.0
 10
10.1844159188
 20
5.9258216618
 30
0.0
 10
10.2016008917
 20
5.9343637861
 30
0.0
 10
10.2239580345
 20
5.9433823458
 30
0.0
 10
10.2471820971
 20
5.9500729713
 30
0.0
 10
10.2661673567
 20
5.9540088908
 30
0.0
 10
10.2806070238
 20
5.9562484315
 30
0.0
 10
10.2951879574
 20
5.9577664591
 30
0.0
 10
10.3147997972
 20
5.9588234213
 30
0.0
 10
10.339501635
 20
5.9583166158
 30
0.0
 10
10.3641169436
 20
5.9553911207
 30
0.0
 10
10.3836616616
 20
5.9516237268
 30
0.0
 10
10.3982405571
 20
5.9480814483
 30
0.0
 10
10.4126777057
 20
5.9438375912
 30
0.0
 10
10.4317120553
 20
5.9372484197
 30
0.0
 10
10.4549758714
 20
5.9273058731
 30
0.0
 10
10.4772606153
 20
5.9152142114
 30
0.0
 10
10.4944066682
 20
5.90431142
 30
0.0
 10
10.5069065429
 20
5.8955280557
 30
0.0
 10
10.5190034113
 20
5.8861696393
 30
0.0
 10
10.5345553828
 20
5.8729535086
 30
0.0
 10
10.5528413226
 20
5.8551125678
 30
0.0
 10
10.5694163965
 20
5.8356754476
 30
0.0
 10
10.5815554146
 20
5.8192799616
 30
0.0
 10
10.5900749912
 20
5.8065922536
 30
0.0
 10
10.5979915713
 20
5.7935433669
 30
0.0
 10
10.6077045386
 20
5.7757253268
 30
0.0
 10
10.6182504739
 20
5.7527108591
 30
0.0
 10
10.6265805889
 20
5.7288671078
 30
0.0
 10
10.6318503356
 20
5.7094662641
 30
0.0
 10
10.6350932156
 20
5.694804566
 30
0.0
 10
10.6376245954
 20
5.6800488189
 30
0.0
 10
10.6400358574
 20
5.6603380631
 30
0.0
 10
10.6407699296
 20
5.6454608388
 30
0.0
 10
10.6407699296
 20
5.6355698063
 30
0.0
  0
SPLINE
  5
37B
100
AcDbEntity
  8
02___PRT_ALL_AXES
100
AcDbSpline
 62
7
  6
CONTINUOUS
 70
0
 71
3
 72
38
 73
34
 74
0
 42
0.0000001
 43
0.0000001
 44
0.0000000001
 40
0.0
 40
0.0
 40
0.0
 40
0.0
 40
0.0308780902
 40
0.0619128426
 40
0.0930788531
 40
0.1243663551
 40
0.1557735286
 40
0.1872938391
 40
0.2189143109
 40
0.2506210371
 40
0.2823998169
 40
0.3142355979
 40
0.3461122583
 40
0.3780126253
 40
0.4417865311
 40
0.473654684
 40
0.5054781084
 40
0.5372406186
 40
0.5689272483
 40
0.6005238004
 40
0.6320179163
 40
0.6633984676
 40
0.6946563522
 40
0.7257844074
 40
0.7567773857
 40
0.7876326268
 40
0.8183492868
 40
0.8489293539
 40
0.8793767188
 40
0.9096978664
 40
0.9399013714
 40
0.9699978333
 40
1.0
 40
1.0
 40
1.0
 40
1.0
 10
10.2332418455
 20
5.7419278816
 30
0.0
 10
10.2332418455
 20
5.7379954235
 30
0.0
 10
10.2334989723
 20
5.7301082665
 30
0.0
 10
10.2346441972
 20
5.7183020215
 30
0.0
 10
10.2365478448
 20
5.7065408318
 30
0.0
 10
10.2392009755
 20
5.6948773643
 30
0.0
 10
10.2425921095
 20
5.6833597151
 30
0.0
 10
10.2467073916
 20
5.6720355061
 30
0.0
 10
10.2515283247
 20
5.6609516635
 30
0.0
 10
10.2570366758
 20
5.6501560195
 30
0.0
 10
10.2632071259
 20
5.6396928253
 30
0.0
 10
10.2700154004
 20
5.6296071029
 30
0.0
 10
10.2774321451
 20
5.6199397505
 30
0.0
 10
10.2880865339
 20
5.6076679377
 30
0.0
 10
10.2998370946
 20
5.5963846552
 30
0.0
 10
10.3125249097
 20
5.5862465785
 30
0.0
 10
10.3224706912
 20
5.5792425761
 30
0.0
 10
10.3328049439
 20
5.5728706091
 30
0.0
 10
10.3434838078
 20
5.5671553018
 30
0.0
 10
10.3544629504
 20
5.5621218532
 30
0.0
 10
10.3656961099
 20
5.5577911904
 30
0.0
 10
10.3771359617
 20
5.5541808966
 30
0.0
 10
10.3887348682
 20
5.5513076956
 30
0.0
 10
10.4004436304
 20
5.549181626
 30
0.0
 10
10.412213501
 20
5.5478140637
 30
0.0
 10
10.4239947092
 20
5.5472086281
 30
0.0
 10
10.4357379128
 20
5.5473695911
 30
0.0
 10
10.4473936322
 20
5.5482955612
 30
0.0
 10
10.4589129815
 20
5.549982561
 30
0.0
 10
10.4702471822
 20
5.5524246868
 30
0.0
 10
10.4813491591
 20
5.5556099632
 30
0.0
 10
10.4921708666
 20
5.5595270131
 30
0.0
 10
10.499180052
 20
5.5626190045
 30
0.0
 10
10.5026208594
 20
5.5642803784
 30
0.0
  0
SPLINE
  5
37C
100
AcDbEntity
  8
0
100
AcDbSpline
 62
7
  6
CONTINUOUS
 70
0
 71
3
 72
11
 73
7
 74
0
 42
0.0000001
 43
0.0000001
 44
0.0000000001
 40
0.0
 40
0.0
 40
0.0
 40
0.0
 40
0.2470231567
 40
0.4961966925
 40
0.7473033472
 40
1.0
 40
1.0
 40
1.0
 40
1.0
 10
10.2043943775
 20
5.7140633656
 30
0.0
 10
10.2043943775
 20
5.7061096362
 30
0.0
 10
10.2054467528
 20
5.690114525
 30
0.0
 10
10.2101050612
 20
5.6664439588
 30
0.0
 10
10.2177658509
 20
5.6433765968
 30
0.0
 10
10.2247743299
 20
5.6286929146
 30
0.0
 10
10.2287233692
 20
5.6215791112
 30
0.0
  0
SPLINE
  5
37D
100
AcDbEntity
  8
0
100
AcDbSpline
 62
7
  6
CONTINUOUS
 70
0
 71
3
 72
11
 73
7
 74
0
 42
0.0000001
 43
0.0000001
 44
0.0000000001
 40
0.0
 40
0.0
 40
0.0
 40
0.0
 40
0.2472436566
 40
0.496096926
 40
0.7469372413
 40
1.0
 40
1.0
 40
1.0
 40
1.0
 10
10.2287233692
 20
5.8031731773
 30
0.0
 10
10.2247543922
 20
5.796573957
 30
0.0
 10
10.2177058133
 20
5.782758017
 30
0.0
 10
10.2100557962
 20
5.7607132915
 30
0.0
 10
10.205419011
 20
5.737660643
 30
0.0
 10
10.2043943775
 20
5.7219454219
 30
0.0
 10
10.2043943775
 20
5.7140633656
 30
0.0
  0
SPLINE
  5
37E
100
AcDbEntity
  8
02___PRT_ALL_AXES
100
AcDbSpline
 62
7
  6
CONTINUOUS
 70
0
 71
3
 72
55
 73
51
 74
0
 42
0.0000001
 43
0.0000001
 44
0.0000000001
 40
0.0
 40
0.0
 40
0.0
 40
0.0
 40
0.0313207707
 40
0.0470688547
 40
0.0628650358
 40
0.0787089431
 40
0.0946001116
 40
0.1265052285
 40
0.1585616391
 40
0.1746413609
 40
0.1907470383
 40
0.2068740736
 40
0.223017717
 40
0.255326879
 40
0.2876431543
 40
0.3037956089
 40
0.3199348713
 40
0.3360561099
 40
0.352154619
 40
0.3842573282
 40
0.4162188654
 40
0.4321422581
 40
0.4480205
 40
0.4638511219
 40
0.4796320083
 40
0.5110296492
 40
0.5422155782
 40
0.5577339935
 40
0.5732006344
 40
0.5886169568
 40
0.6039848285
 40
0.6345755606
 40
0.6650074365
 40
0.6801784964
 40
0.6953220955
 40
0.7104429722
 40
0.7255460653
 40
0.7557094111
 40
0.7858651364
 40
0.8009588047
 40
0.8160666287
 40
0.8311936616
 40
0.8463447885
 40
0.876727817
 40
0.9072595802
 40
0.9225940845
 40
0.9379750702
 40
0.9534064468
 40
0.9688914474
 40
1.0
 40
1.0
 40
1.0
 40
1.0
 10
10.0380321783
 20
5.6773698113
 30
0.0
 10
10.0380321783
 20
5.6674787788
 30
0.0
 10
10.0387662505
 20
5.6526015545
 30
0.0
 10
10.0411775125
 20
5.6328907987
 30
0.0
 10
10.0437088923
 20
5.6181350516
 30
0.0
 10
10.0469517723
 20
5.6034733535
 30
0.0
 10
10.0522215189
 20
5.5840725097
 30
0.0
 10
10.060551634
 20
5.5602287584
 30
0.0
 10
10.0710975692
 20
5.5372142908
 30
0.0
 10
10.0808105365
 20
5.5193962507
 30
0.0
 10
10.0887271167
 20
5.506347364
 30
0.0
 10
10.0972466933
 20
5.493659656
 30
0.0
 10
10.1093857113
 20
5.47726417
 30
0.0
 10
10.1259607853
 20
5.4578270498
 30
0.0
 10
10.1442467251
 20
5.439986109
 30
0.0
 10
10.1597986965
 20
5.4267699783
 30
0.0
 10
10.171895565
 20
5.4174115619
 30
0.0
 10
10.1843954397
 20
5.4086281976
 30
0.0
 10
10.2015414925
 20
5.3977254062
 30
0.0
 10
10.2238262364
 20
5.3856337445
 30
0.0
 10
10.2470900526
 20
5.3756911979
 30
0.0
 10
10.2661244021
 20
5.3691020264
 30
0.0
 10
10.2805615508
 20
5.3648581693
 30
0.0
 10
10.2951404463
 20
5.3613158908
 30
0.0
 10
10.3146851643
 20
5.3575484969
 30
0.0
 10
10.3393004729
 20
5.3546230017
 30
0.0
 10
10.3640023106
 20
5.3541161963
 30
0.0
 10
10.3836141504
 20
5.3551731585
 30
0.0
 10
10.3981950841
 20
5.3566911861
 30
0.0
 10
10.4126347512
 20
5.3589307268
 30
0.0
 10
10.4316200108
 20
5.3628666463
 30
0.0
 10
10.4548440733
 20
5.3695572718
 30
0.0
 10
10.4772012162
 20
5.3785758315
 30
0.0
 10
10.4943861891
 20
5.3871179558
 30
0.0
 10
10.5068904511
 20
5.3941687632
 30
0.0
 10
10.5189916166
 20
5.401851079
 30
0.0
 10
10.5345395325
 20
5.4129060865
 30
0.0
 10
10.5528416701
 20
5.4282217169
 30
0.0
 10
10.5694291886
 20
5.4453754842
 30
0.0
 10
10.5815640805
 20
5.460083764
 30
0.0
 10
10.5900857207
 20
5.4715939753
 30
0.0
 10
10.5980038125
 20
5.4835491383
 30
0.0
 10
10.6077369546
 20
5.5000574457
 30
0.0
 10
10.6183058196
 20
5.5216801802
 30
0.0
 10
10.6266079986
 20
5.5443308897
 30
0.0
 10
10.6318611407
 20
5.5629528294
 30
0.0
 10
10.6351023234
 20
5.577167438
 30
0.0
 10
10.6376316899
 20
5.5915742959
 30
0.0
 10
10.640048038
 20
5.6110176332
 30
0.0
 10
10.6407699296
 20
5.6257457918
 30
0.0
 10
10.6407699296
 20
5.6355698063
 30
0.0
  0
SPLINE
  5
37F
100
AcDbEntity
  8
0
100
AcDbSpline
 62
7
  6
CONTINUOUS
 70
0
 71
3
 72
23
 73
19
 74
0
 42
0.0000001
 43
0.0000001
 44
0.0000000001
 40
0.0
 40
0.0
 40
0.0
 40
0.0
 40
0.062789468
 40
0.1257292392
 40
0.1887410583
 40
0.2517832392
 40
0.314833225
 40
0.3778618922
 40
0.4408312783
 40
0.503705731
 40
0.5664543315
 40
0.6290478621
 40
0.6914568728
 40
0.753653057
 40
0.8156206121
 40
0.8773537379
 40
0.9388313152
 40
1.0
 40
1.0
 40
1.0
 40
1.0
 10
10.2287233692
 20
5.6215791112
 30
0.0
 10
10.2307053199
 20
5.6180088231
 30
0.0
 10
10.2348964228
 20
5.6109806986
 30
0.0
 10
10.2418209623
 20
5.600836734
 30
0.0
 10
10.2493641646
 20
5.5911225441
 30
0.0
 10
10.2574913124
 20
5.5818820324
 30
0.0
 10
10.2661680106
 20
5.5731538891
 30
0.0
 10
10.2753577571
 20
5.5649748298
 30
0.0
 10
10.285020638
 20
5.5573789322
 30
0.0
 10
10.2951164689
 20
5.550400655
 30
0.0
 10
10.3056007815
 20
5.544067954
 30
0.0
 10
10.3164299767
 20
5.5384099089
 30
0.0
 10
10.3275564338
 20
5.5334489334
 30
0.0
 10
10.3389331531
 20
5.5292072169
 30
0.0
 10
10.3505122616
 20
5.5257026965
 30
0.0
 10
10.3622451333
 20
5.5229504371
 30
0.0
 10
10.3740784238
 20
5.5209635354
 30
0.0
 10
10.3820198693
 20
5.5201509298
 30
0.0
 10
10.3859884436
 20
5.5198757082
 30
0.0
  0
SPLINE
  5
380
100
AcDbEntity
  8
0
100
AcDbSpline
 62
7
  6
CONTINUOUS
 70
0
 71
3
 72
17
 73
13
 74
0
 42
0.0000001
 43
0.0000001
 44
0.0000000001
 40
0.0
 40
0.0
 40
0.0
 40
0.0
 40
0.1270927007
 40
0.2535722793
 40
0.3793529503
 40
0.5044849104
 40
0.6290430409
 40
0.7530867543
 40
0.8149509735
 40
0.8767164661
 40
0.9383952494
 40
1.0
 40
1.0
 40
1.0
 40
1.0
 10
10.3859884436
 20
5.5198757082
 30
0.0
 10
10.3907007275
 20
5.5195489102
 30
0.0
 10
10.4001320912
 20
5.5192621846
 30
0.0
 10
10.4142290776
 20
5.5199392015
 30
0.0
 10
10.4281564954
 20
5.5217252749
 30
0.0
 10
10.4418262146
 20
5.5246069649
 30
0.0
 10
10.4551554785
 20
5.528568058
 30
0.0
 10
10.4659245152
 20
5.5327516955
 30
0.0
 10
10.4742840412
 20
5.5366108633
 30
0.0
 10
10.4804145237
 20
5.5397541913
 30
0.0
 10
10.4864009504
 20
5.5431439078
 30
0.0
 10
10.4902920788
 20
5.5455664145
 30
0.0
 10
10.4922101468
 20
5.5468167981
 30
0.0
  0
SPLINE
  5
381
100
AcDbEntity
  8
02___PRT_ALL_AXES
100
AcDbSpline
 62
7
  6
CONTINUOUS
 70
0
 71
3
 72
15
 73
11
 74
0
 42
0.0000001
 43
0.0000001
 44
0.0000000001
 40
0.0
 40
0.0
 40
0.0
 40
0.0
 40
0.1269904728
 40
0.253393593
 40
0.3791293305
 40
0.5042467715
 40
0.6288244282
 40
0.7529253338
 40
0.8766208111
 40
1.0
 40
1.0
 40
1.0
 40
1.0
 10
10.2332418455
 20
5.7419278816
 30
0.0
 10
10.2332418455
 20
5.7465050723
 30
0.0
 10
10.233588495
 20
5.7556421426
 30
0.0
 10
10.235149639
 20
5.7692308216
 30
0.0
 10
10.237746709
 20
5.7825923622
 30
0.0
 10
10.2413618739
 20
5.7956468175
 30
0.0
 10
10.245976277
 20
5.8083198969
 30
0.0
 10
10.2515614032
 20
5.8205402539
 30
0.0
 10
10.258087426
 20
5.8322348149
 30
0.0
 10
10.263045224
 20
5.8396464177
 30
0.0
 10
10.265665793
 20
5.8432392812
 30
0.0
  0
SPLINE
  5
382
100
AcDbEntity
  8
02___PRT_ALL_AXES
100
AcDbSpline
 62
7
  6
CONTINUOUS
 70
0
 71
3
 72
55
 73
51
 74
0
 42
0.0000001
 43
0.0000001
 44
0.0000000001
 40
0.0
 40
0.0
 40
0.0
 40
0.0
 40
0.0311085526
 40
0.0465935532
 40
0.0620249298
 40
0.0774059155
 40
0.0927404198
 40
0.123272183
 40
0.1536552115
 40
0.1688063384
 40
0.1839333713
 40
0.1990411953
 40
0.2141348636
 40
0.2442905889
 40
0.2744539347
 40
0.2895570278
 40
0.3046779045
 40
0.3198215036
 40
0.3349925635
 40
0.3654244394
 40
0.3960151715
 40
0.4113830432
 40
0.4267993656
 40
0.4422660065
 40
0.4577844218
 40
0.4889703508
 40
0.5203679917
 40
0.5361488781
 40
0.5519795
 40
0.5678577419
 40
0.5837811346
 40
0.6157426718
 40
0.647845381
 40
0.6639438901
 40
0.6800651287
 40
0.6962043911
 40
0.7123568457
 40
0.744673121
 40
0.776982283
 40
0.7931259264
 40
0.8092529617
 40
0.8253586391
 40
0.8414383609
 40
0.8734947715
 40
0.9053998884
 40
0.9212910569
 40
0.9371349642
 40
0.9529311453
 40
0.9686792293
 40
1.0
 40
1.0
 40
1.0
 40
1.0
 10
9.7965507074
 20
9.1347445252
 30
0.0
 10
9.7965507074
 20
9.1445685397
 30
0.0
 10
9.797272599
 20
9.1592966983
 30
0.0
 10
9.799688947
 20
9.1787400355
 30
0.0
 10
9.8022183136
 20
9.1931468934
 30
0.0
 10
9.8054594962
 20
9.207361502
 30
0.0
 10
9.8107126384
 20
9.2259834418
 30
0.0
 10
9.8190148173
 20
9.2486341513
 30
0.0
 10
9.8295836824
 20
9.2702568857
 30
0.0
 10
9.8393168245
 20
9.2867651931
 30
0.0
 10
9.8472349163
 20
9.2987203562
 30
0.0
 10
9.8557565565
 20
9.3102305675
 30
0.0
 10
9.8678914483
 20
9.3249388473
 30
0.0
 10
9.8844789669
 20
9.3420926145
 30
0.0
 10
9.9027811045
 20
9.3574082449
 30
0.0
 10
9.9183290204
 20
9.3684632524
 30
0.0
 10
9.9304301858
 20
9.3761455682
 30
0.0
 10
9.9429344479
 20
9.3831963756
 30
0.0
 10
9.9601194208
 20
9.3917384999
 30
0.0
 10
9.9824765637
 20
9.4007570597
 30
0.0
 10
10.0057006262
 20
9.4074476851
 30
0.0
 10
10.0246858858
 20
9.4113836047
 30
0.0
 10
10.0391255529
 20
9.4136231454
 30
0.0
 10
10.0537064865
 20
9.4151411729
 30
0.0
 10
10.0733183263
 20
9.4161981352
 30
0.0
 10
10.0980201641
 20
9.4156913297
 30
0.0
 10
10.1226354727
 20
9.4127658345
 30
0.0
 10
10.1421801907
 20
9.4089984407
 30
0.0
 10
10.1567590862
 20
9.4054561621
 30
0.0
 10
10.1711962348
 20
9.4012123051
 30
0.0
 10
10.1902305844
 20
9.3946231335
 30
0.0
 10
10.2134944005
 20
9.3846805869
 30
0.0
 10
10.2357791444
 20
9.3725889252
 30
0.0
 10
10.2529251973
 20
9.3616861338
 30
0.0
 10
10.265425072
 20
9.3529027695
 30
0.0
 10
10.2775219404
 20
9.3435443532
 30
0.0
 10
10.2930739119
 20
9.3303282224
 30
0.0
 10
10.3113598517
 20
9.3124872816
 30
0.0
 10
10.3279349256
 20
9.2930501615
 30
0.0
 10
10.3400739437
 20
9.2766546754
 30
0.0
 10
10.3485935203
 20
9.2639669675
 30
0.0
 10
10.3565101005
 20
9.2509180807
 30
0.0
 10
10.3662230677
 20
9.2331000407
 30
0.0
 10
10.376769003
 20
9.210085573
 30
0.0
 10
10.385099118
 20
9.1862418217
 30
0.0
 10
10.3903688647
 20
9.1668409779
 30
0.0
 10
10.3936117447
 20
9.1521792798
 30
0.0
 10
10.3961431245
 20
9.1374235328
 30
0.0
 10
10.3985543865
 20
9.1177127769
 30
0.0
 10
10.3992884587
 20
9.1028355526
 30
0.0
 10
10.3992884587
 20
9.0929445201
 30
0.0
  0
SPLINE
  5
383
100
AcDbEntity
  8
02___PRT_ALL_AXES
100
AcDbSpline
 62
7
  6
CONTINUOUS
 70
0
 71
3
 72
38
 73
34
 74
0
 42
0.0000001
 43
0.0000001
 44
0.0000000001
 40
0.0
 40
0.0
 40
0.0
 40
0.0
 40
0.0308780902
 40
0.0619128426
 40
0.0930788531
 40
0.1243663551
 40
0.1557735286
 40
0.1872938391
 40
0.2189143109
 40
0.2506210371
 40
0.2823998169
 40
0.3142355979
 40
0.3461122583
 40
0.3780126253
 40
0.4417865311
 40
0.473654684
 40
0.5054781084
 40
0.5372406186
 40
0.5689272483
 40
0.6005238004
 40
0.6320179163
 40
0.6633984676
 40
0.6946563522
 40
0.7257844074
 40
0.7567773857
 40
0.7876326268
 40
0.8183492868
 40
0.8489293539
 40
0.8793767188
 40
0.9096978664
 40
0.9399013714
 40
0.9699978333
 40
1.0
 40
1.0
 40
1.0
 40
1.0
 10
9.9917603746
 20
9.1993025954
 30
0.0
 10
9.9917603746
 20
9.1953701373
 30
0.0
 10
9.9920175015
 20
9.1874829804
 30
0.0
 10
9.9931627263
 20
9.1756767353
 30
0.0
 10
9.9950663739
 20
9.1639155456
 30
0.0
 10
9.9977195046
 20
9.1522520782
 30
0.0
 10
10.0011106387
 20
9.140734429
 30
0.0
 10
10.0052259207
 20
9.1294102199
 30
0.0
 10
10.0100468538
 20
9.1183263774
 30
0.0
 10
10.015555205
 20
9.1075307334
 30
0.0
 10
10.021725655
 20
9.0970675391
 30
0.0
 10
10.0285339295
 20
9.0869818167
 30
0.0
 10
10.0359506742
 20
9.0773144644
 30
0.0
 10
10.046605063
 20
9.0650426516
 30
0.0
 10
10.0583556237
 20
9.053759369
 30
0.0
 10
10.0710434388
 20
9.0436212924
 30
0.0
 10
10.0809892203
 20
9.0366172899
 30
0.0
 10
10.0913234731
 20
9.0302453229
 30
0.0
 10
10.1020023369
 20
9.0245300156
 30
0.0
 10
10.1129814795
 20
9.019496567
 30
0.0
 10
10.124214639
 20
9.0151659042
 30
0.0
 10
10.1356544908
 20
9.0115556105
 30
0.0
 10
10.1472533974
 20
9.0086824095
 30
0.0
 10
10.1589621595
 20
9.0065563398
 30
0.0
 10
10.1707320302
 20
9.0051887775
 30
0.0
 10
10.1825132383
 20
9.0045833419
 30
0.0
 10
10.1942564419
 20
9.004744305
 30
0.0
 10
10.2059121613
 20
9.005670275
 30
0.0
 10
10.2174315107
 20
9.0073572748
 30
0.0
 10
10.2287657113
 20
9.0097994006
 30
0.0
 10
10.2398676883
 20
9.0129846771
 30
0.0
 10
10.2506893958
 20
9.0169017269
 30
0.0
 10
10.2576985811
 20
9.0199937184
 30
0.0
 10
10.2611393885
 20
9.0216550922
 30
0.0
  0
SPLINE
  5
384
100
AcDbEntity
  8
0
100
AcDbSpline
 62
7
  6
CONTINUOUS
 70
0
 71
3
 72
11
 73
7
 74
0
 42
0.0000001
 43
0.0000001
 44
0.0000000001
 40
0.0
 40
0.0
 40
0.0
 40
0.0
 40
0.2470231567
 40
0.4961966925
 40
0.7473033472
 40
1.0
 40
1.0
 40
1.0
 40
1.0
 10
9.9629129066
 20
9.1714380794
 30
0.0
 10
9.9629129066
 20
9.16348435
 30
0.0
 10
9.963965282
 20
9.1474892388
 30
0.0
 10
9.9686235903
 20
9.1238186726
 30
0.0
 10
9.97628438
 20
9.1007513107
 30
0.0
 10
9.9832928591
 20
9.0860676285
 30
0.0
 10
9.9872418983
 20
9.0789538251
 30
0.0
  0
SPLINE
  5
385
100
AcDbEntity
  8
0
100
AcDbSpline
 62
7
  6
CONTINUOUS
 70
0
 71
3
 72
11
 73
7
 74
0
 42
0.0000001
 43
0.0000001
 44
0.0000000001
 40
0.0
 40
0.0
 40
0.0
 40
0.0
 40
0.2472436566
 40
0.496096926
 40
0.7469372413
 40
1.0
 40
1.0
 40
1.0
 40
1.0
 10
9.9872418983
 20
9.2605478912
 30
0.0
 10
9.9832729213
 20
9.2539486709
 30
0.0
 10
9.9762243424
 20
9.2401327309
 30
0.0
 10
9.9685743253
 20
9.2180880053
 30
0.0
 10
9.9639375401
 20
9.1950353569
 30
0.0
 10
9.9629129066
 20
9.1793201358
 30
0.0
 10
9.9629129066
 20
9.1714380794
 30
0.0
  0
SPLINE
  5
386
100
AcDbEntity
  8
02___PRT_ALL_AXES
100
AcDbSpline
 62
7
  6
CONTINUOUS
 70
0
 71
3
 72
55
 73
51
 74
0
 42
0.0000001
 43
0.0000001
 44
0.0000000001
 40
0.0
 40
0.0
 40
0.0
 40
0.0
 40
0.0313207707
 40
0.0470688547
 40
0.0628650358
 40
0.0787089431
 40
0.0946001116
 40
0.1265052285
 40
0.1585616391
 40
0.1746413609
 40
0.1907470383
 40
0.2068740736
 40
0.223017717
 40
0.255326879
 40
0.2876431543
 40
0.3037956089
 40
0.3199348713
 40
0.3360561099
 40
0.352154619
 40
0.3842573282
 40
0.4162188654
 40
0.4321422581
 40
0.4480205
 40
0.4638511219
 40
0.4796320083
 40
0.5110296492
 40
0.5422155782
 40
0.5577339935
 40
0.5732006344
 40
0.5886169568
 40
0.6039848285
 40
0.6345755606
 40
0.6650074365
 40
0.6801784964
 40
0.6953220955
 40
0.7104429722
 40
0.7255460653
 40
0.7557094111
 40
0.7858651364
 40
0.8009588047
 40
0.8160666287
 40
0.8311936616
 40
0.8463447885
 40
0.876727817
 40
0.9072595802
 40
0.9225940845
 40
0.9379750702
 40
0.9534064468
 40
0.9688914474
 40
1.0
 40
1.0
 40
1.0
 40
1.0
 10
9.7965507074
 20
9.1347445252
 30
0.0
 10
9.7965507074
 20
9.1248534927
 30
0.0
 10
9.7972847796
 20
9.1099762684
 30
0.0
 10
9.7996960416
 20
9.0902655125
 30
0.0
 10
9.8022274214
 20
9.0755097655
 30
0.0
 10
9.8054703014
 20
9.0608480674
 30
0.0
 10
9.810740048
 20
9.0414472236
 30
0.0
 10
9.8190701631
 20
9.0176034723
 30
0.0
 10
9.8296160984
 20
8.9945890046
 30
0.0
 10
9.8393290656
 20
8.9767709646
 30
0.0
 10
9.8472456458
 20
8.9637220778
 30
0.0
 10
9.8557652224
 20
8.9510343699
 30
0.0
 10
9.8679042405
 20
8.9346388838
 30
0.0
 10
9.8844793144
 20
8.9152017637
 30
0.0
 10
9.9027652542
 20
8.8973608229
 30
0.0
 10
9.9183172257
 20
8.8841446921
 30
0.0
 10
9.9304140941
 20
8.8747862758
 30
0.0
 10
9.9429139688
 20
8.8660029115
 30
0.0
 10
9.9600600217
 20
8.8551001201
 30
0.0
 10
9.9823447656
 20
8.8430084584
 30
0.0
 10
10.0056085817
 20
8.8330659118
 30
0.0
 10
10.0246429313
 20
8.8264767402
 30
0.0
 10
10.0390800799
 20
8.8222328832
 30
0.0
 10
10.0536589754
 20
8.8186906046
 30
0.0
 10
10.0732036934
 20
8.8149232108
 30
0.0
 10
10.097819002
 20
8.8119977156
 30
0.0
 10
10.1225208398
 20
8.8114909101
 30
0.0
 10
10.1421326795
 20
8.8125478724
 30
0.0
 10
10.1567136132
 20
8.8140658999
 30
0.0
 10
10.1711532803
 20
8.8163054406
 30
0.0
 10
10.1901385399
 20
8.8202413602
 30
0.0
 10
10.2133626024
 20
8.8269319856
 30
0.0
 10
10.2357197453
 20
8.8359505454
 30
0.0
 10
10.2529047182
 20
8.8444926697
 30
0.0
 10
10.2654089803
 20
8.8515434771
 30
0.0
 10
10.2775101457
 20
8.8592257929
 30
0.0
 10
10.2930580616
 20
8.8702808003
 30
0.0
 10
10.3113601992
 20
8.8855964308
 30
0.0
 10
10.3279477178
 20
8.902750198
 30
0.0
 10
10.3400826096
 20
8.9174584778
 30
0.0
 10
10.3486042498
 20
8.9289686891
 30
0.0
 10
10.3565223416
 20
8.9409238522
 30
0.0
 10
10.3662554837
 20
8.9574321596
 30
0.0
 10
10.3768243488
 20
8.979054894
 30
0.0
 10
10.3851265277
 20
9.0017056035
 30
0.0
 10
10.3903796699
 20
9.0203275433
 30
0.0
 10
10.3936208525
 20
9.0345421519
 30
0.0
 10
10.396150219
 20
9.0489490098
 30
0.0
 10
10.3985665671
 20
9.068392347
 30
0.0
 10
10.3992884587
 20
9.0831205056
 30
0.0
 10
10.3992884587
 20
9.0929445201
 30
0.0
  0
SPLINE
  5
387
100
AcDbEntity
  8
0
100
AcDbSpline
 62
7
  6
CONTINUOUS
 70
0
 71
3
 72
23
 73
19
 74
0
 42
0.0000001
 43
0.0000001
 44
0.0000000001
 40
0.0
 40
0.0
 40
0.0
 40
0.0
 40
0.062789468
 40
0.1257292392
 40
0.1887410583
 40
0.2517832392
 40
0.314833225
 40
0.3778618922
 40
0.4408312783
 40
0.503705731
 40
0.5664543315
 40
0.6290478621
 40
0.6914568728
 40
0.753653057
 40
0.8156206121
 40
0.8773537379
 40
0.9388313152
 40
1.0
 40
1.0
 40
1.0
 40
1.0
 10
9.9872418983
 20
9.0789538251
 30
0.0
 10
9.989223849
 20
9.075383537
 30
0.0
 10
9.993414952
 20
9.0683554125
 30
0.0
 10
10.0003394914
 20
9.0582114478
 30
0.0
 10
10.0078826937
 20
9.0484972579
 30
0.0
 10
10.0160098416
 20
9.0392567462
 30
0.0
 10
10.0246865397
 20
9.0305286029
 30
0.0
 10
10.0338762863
 20
9.0223495436
 30
0.0
 10
10.0435391672
 20
9.0147536461
 30
0.0
 10
10.053634998
 20
9.0077753689
 30
0.0
 10
10.0641193106
 20
9.0014426678
 30
0.0
 10
10.0749485058
 20
8.9957846227
 30
0.0
 10
10.0860749629
 20
8.9908236473
 30
0.0
 10
10.0974516822
 20
8.9865819308
 30
0.0
 10
10.1090307907
 20
8.9830774104
 30
0.0
 10
10.1207636624
 20
8.9803251509
 30
0.0
 10
10.1325969529
 20
8.9783382493
 30
0.0
 10
10.1405383984
 20
8.9775256436
 30
0.0
 10
10.1445069727
 20
8.9772504221
 30
0.0
  0
SPLINE
  5
388
100
AcDbEntity
  8
0
100
AcDbSpline
 62
7
  6
CONTINUOUS
 70
0
 71
3
 72
17
 73
13
 74
0
 42
0.0000001
 43
0.0000001
 44
0.0000000001
 40
0.0
 40
0.0
 40
0.0
 40
0.0
 40
0.1270927007
 40
0.2535722793
 40
0.3793529503
 40
0.5044849104
 40
0.6290430409
 40
0.7530867543
 40
0.8149509735
 40
0.8767164661
 40
0.9383952494
 40
1.0
 40
1.0
 40
1.0
 40
1.0
 10
10.1445069727
 20
8.9772504221
 30
0.0
 10
10.1492192566
 20
8.9769236241
 30
0.0
 10
10.1586506203
 20
8.9766368985
 30
0.0
 10
10.1727476068
 20
8.9773139153
 30
0.0
 10
10.1866750245
 20
8.9790999887
 30
0.0
 10
10.2003447438
 20
8.9819816787
 30
0.0
 10
10.2136740077
 20
8.9859427719
 30
0.0
 10
10.2244430443
 20
8.9901264093
 30
0.0
 10
10.2328025703
 20
8.9939855771
 30
0.0
 10
10.2389330529
 20
8.9971289051
 30
0.0
 10
10.2449194795
 20
9.0005186217
 30
0.0
 10
10.2488106079
 20
9.0029411283
 30
0.0
 10
10.2507286759
 20
9.0041915119
 30
0.0
  0
SPLINE
  5
389
100
AcDbEntity
  8
02___PRT_ALL_AXES
100
AcDbSpline
 62
7
  6
CONTINUOUS
 70
0
 71
3
 72
15
 73
11
 74
0
 42
0.0000001
 43
0.0000001
 44
0.0000000001
 40
0.0
 40
0.0
 40
0.0
 40
0.0
 40
0.1269904728
 40
0.253393593
 40
0.3791293305
 40
0.5042467715
 40
0.6288244282
 40
0.7529253338
 40
0.8766208111
 40
1.0
 40
1.0
 40
1.0
 40
1.0
 10
9.9917603746
 20
9.1993025954
 30
0.0
 10
9.9917603746
 20
9.2038797862
 30
0.0
 10
9.9921070241
 20
9.2130168564
 30
0.0
 10
9.9936681681
 20
9.2266055355
 30
0.0
 10
9.9962652381
 20
9.2399670761
 30
0.0
 10
9.999880403
 20
9.2530215313
 30
0.0
 10
10.0044948061
 20
9.2656946107
 30
0.0
 10
10.0100799323
 20
9.2779149678
 30
0.0
 10
10.0166059551
 20
9.2896095287
 30
0.0
 10
10.0215637531
 20
9.2970211316
 30
0.0
 10
10.0241843221
 20
9.3006139951
 30
0.0
  0
SPLINE
  5
38A
100
AcDbEntity
  8
0
100
AcDbSpline
 62
7
  6
CONTINUOUS
 70
0
 71
3
 72
39
 73
35
 74
0
 42
0.0000001
 43
0.0000001
 44
0.0000000001
 40
0.0
 40
0.0
 40
0.0
 40
0.0
 40
0.0958316475
 40
0.1891006073
 40
0.279240642
 40
0.3229674356
 40
0.365711151
 40
0.4074094627
 40
0.4480020772
 40
0.4874317741
 40
0.5256439547
 40
0.5625873626
 40
0.5982141631
 40
0.6324802323
 40
0.6653459096
 40
0.6967758341
 40
0.7267403598
 40
0.7552153214
 40
0.7821838024
 40
0.8076365273
 40
0.831573723
 40
0.8540068598
 40
0.8749607899
 40
0.8944774057
 40
0.9126188108
 40
0.9294731124
 40
0.9451592998
 40
0.9598338063
 40
0.9668558128
 40
0.9737028706
 40
0.9804062828
 40
0.9869996808
 40
0.9935186293
 40
1.0
 40
1.0
 40
1.0
 40
1.0
 10
9.7288229677
 20
10.8909719455
 30
0.0
 10
9.7211133107
 20
10.891506612
 30
0.0
 10
9.7059112618
 20
10.8927312066
 30
0.0
 10
9.6835120062
 20
10.895068831
 30
0.0
 10
9.6653450573
 20
10.8974264318
 30
0.0
 10
9.6512612143
 20
10.8995486521
 30
0.0
 10
9.6410631278
 20
10.9012334667
 30
0.0
 10
9.6311398923
 20
10.9030245779
 30
0.0
 10
9.6215080708
 20
10.9049190701
 30
0.0
 10
9.6121837512
 20
10.9069136839
 30
0.0
 10
9.6031824945
 20
10.9090051167
 30
0.0
 10
9.5945193122
 20
10.9111898243
 30
0.0
 10
9.586208642
 20
10.9134641303
 30
0.0
 10
9.5782643226
 20
10.915824245
 30
0.0
 10
9.5706995533
 20
10.9182661411
 30
0.0
 10
9.5635268988
 20
10.9207858062
 30
0.0
 10
9.5567582136
 20
10.9233789255
 30
0.0
 10
9.5504046807
 20
10.9260412659
 30
0.0
 10
9.5444767136
 20
10.9287683324
 30
0.0
 10
9.5389839968
 20
10.9315556879
 30
0.0
 10
9.5339354229
 20
10.9343988018
 30
0.0
 10
9.529339067
 20
10.9372931306
 30
0.0
 10
9.5252022641
 20
10.9402343056
 30
0.0
 10
9.5215314602
 20
10.9432179471
 30
0.0
 10
9.5183325857
 20
10.9462401055
 30
0.0
 10
9.5156107922
 20
10.9492971192
 30
0.0
 10
9.5133714873
 20
10.9523852203
 30
0.0
 10
9.5118902707
 20
10.9550206876
 30
0.0
 10
9.5109669857
 20
10.9571309481
 30
0.0
 10
9.5104079431
 20
10.9586944596
 30
0.0
 10
9.509972725
 20
10.9602610602
 30
0.0
 10
9.5096616499
 20
10.9618301062
 30
0.0
 10
9.5094748977
 20
10.9634006713
 30
0.0
 10
9.5094333397
 20
10.964449527
 30
0.0
 10
9.5094333439
 20
10.9649722058
 30
0.0
  0
SPLINE
  5
38B
100
AcDbEntity
  8
0
100
AcDbSpline
 62
7
  6
CONTINUOUS
 70
0
 71
3
 72
39
 73
35
 74
0
 42
0.0000001
 43
0.0000001
 44
0.0000000001
 40
0.0
 40
0.0
 40
0.0
 40
0.0
 40
0.0958316475
 40
0.1891006073
 40
0.279240642
 40
0.3229674356
 40
0.365711151
 40
0.4074094627
 40
0.4480020772
 40
0.4874317741
 40
0.5256439547
 40
0.5625873626
 40
0.5982141631
 40
0.6324802323
 40
0.6653459096
 40
0.6967758341
 40
0.7267403598
 40
0.7552153214
 40
0.7821838024
 40
0.8076365273
 40
0.831573723
 40
0.8540068598
 40
0.8749607899
 40
0.8944774057
 40
0.9126188108
 40
0.9294731124
 40
0.9451592998
 40
0.9598338063
 40
0.9668558128
 40
0.9737028706
 40
0.9804062828
 40
0.9869996808
 40
0.9935186293
 40
1.0
 40
1.0
 40
1.0
 40
1.0
 10
10.553937424
 20
11.6879713557
 30
0.0
 10
10.546227767
 20
11.6885060222
 30
0.0
 10
10.5310257181
 20
11.6897306168
 30
0.0
 10
10.5086264625
 20
11.6920682412
 30
0.0
 10
10.4904595136
 20
11.694425842
 30
0.0
 10
10.4763756707
 20
11.6965480623
 30
0.0
 10
10.4661775841
 20
11.6982328769
 30
0.0
 10
10.4562543486
 20
11.7000239881
 30
0.0
 10
10.4466225271
 20
11.7019184804
 30
0.0
 10
10.4372982075
 20
11.7039130942
 30
0.0
 10
10.4282969508
 20
11.7060045269
 30
0.0
 10
10.4196337685
 20
11.7081892345
 30
0.0
 10
10.4113230983
 20
11.7104635405
 30
0.0
 10
10.4033787789
 20
11.7128236552
 30
0.0
 10
10.3958140096
 20
11.7152655513
 30
0.0
 10
10.3886413551
 20
11.7177852165
 30
0.0
 10
10.3818726699
 20
11.7203783357
 30
0.0
 10
10.375519137
 20
11.7230406761
 30
0.0
 10
10.3695911699
 20
11.7257677426
 30
0.0
 10
10.3640984531
 20
11.7285550981
 30
0.0
 10
10.3590498792
 20
11.731398212
 30
0.0
 10
10.3544535233
 20
11.7342925408
 30
0.0
 10
10.3503167204
 20
11.7372337158
 30
0.0
 10
10.3466459165
 20
11.7402173574
 30
0.0
 10
10.343447042
 20
11.7432395158
 30
0.0
 10
10.3407252485
 20
11.7462965294
 30
0.0
 10
10.3384859437
 20
11.7493846305
 30
0.0
 10
10.337004727
 20
11.7520200978
 30
0.0
 10
10.336081442
 20
11.7541303583
 30
0.0
 10
10.3355223994
 20
11.7556938698
 30
0.0
 10
10.3350871813
 20
11.7572604704
 30
0.0
 10
10.3347761062
 20
11.7588295164
 30
0.0
 10
10.334589354
 20
11.7604000815
 30
0.0
 10
10.334547796
 20
11.7614489373
 30
0.0
 10
10.3345478002
 20
11.761971616
 30
0.0
  0
SPLINE
  5
38C
100
AcDbEntity
  8
0
100
AcDbSpline
 62
7
  6
CONTINUOUS
 70
0
 71
3
 72
39
 73
35
 74
0
 42
0.0000001
 43
0.0000001
 44
0.0000000001
 40
0.0
 40
0.0
 40
0.0
 40
0.0
 40
0.0958316475
 40
0.1891006073
 40
0.279240642
 40
0.3229674356
 40
0.365711151
 40
0.4074094627
 40
0.4480020772
 40
0.4874317741
 40
0.5256439547
 40
0.5625873626
 40
0.5982141631
 40
0.6324802323
 40
0.6653459096
 40
0.6967758341
 40
0.7267403598
 40
0.7552153214
 40
0.7821838024
 40
0.8076365273
 40
0.831573723
 40
0.8540068598
 40
0.8749607899
 40
0.8944774057
 40
0.9126188108
 40
0.9294731124
 40
0.9451592998
 40
0.9598338063
 40
0.9668558128
 40
0.9737028706
 40
0.9804062828
 40
0.9869996808
 40
0.9935186293
 40
1.0
 40
1.0
 40
1.0
 40
1.0
 10
12.1436376765
 20
10.7235039766
 30
0.0
 10
12.1359280195
 20
10.7240386432
 30
0.0
 10
12.1207259706
 20
10.7252632378
 30
0.0
 10
12.098326715
 20
10.7276008621
 30
0.0
 10
12.0801597661
 20
10.7299584629
 30
0.0
 10
12.0660759232
 20
10.7320806832
 30
0.0
 10
12.0558778366
 20
10.7337654979
 30
0.0
 10
12.0459546011
 20
10.735556609
 30
0.0
 10
12.0363227796
 20
10.7374511013
 30
0.0
 10
12.02699846
 20
10.7394457151
 30
0.0
 10
12.0179972033
 20
10.7415371478
 30
0.0
 10
12.009334021
 20
10.7437218555
 30
0.0
 10
12.0010233508
 20
10.7459961615
 30
0.0
 10
11.9930790314
 20
10.7483562762
 30
0.0
 10
11.9855142621
 20
10.7507981722
 30
0.0
 10
11.9783416076
 20
10.7533178374
 30
0.0
 10
11.9715729224
 20
10.7559109567
 30
0.0
 10
11.9652193895
 20
10.758573297
 30
0.0
 10
11.9592914224
 20
10.7613003635
 30
0.0
 10
11.9537987056
 20
10.764087719
 30
0.0
 10
11.9487501317
 20
10.766930833
 30
0.0
 10
11.9441537758
 20
10.7698251618
 30
0.0
 10
11.9400169729
 20
10.7727663367
 30
0.0
 10
11.936346169
 20
10.7757499783
 30
0.0
 10
11.9331472945
 20
10.7787721367
 30
0.0
 10
11.930425501
 20
10.7818291503
 30
0.0
 10
11.9281861961
 20
10.7849172514
 30
0.0
 10
11.9267049795
 20
10.7875527188
 30
0.0
 10
11.9257816945
 20
10.7896629793
 30
0.0
 10
11.9252226519
 20
10.7912264908
 30
0.0
 10
11.9247874338
 20
10.7927930913
 30
0.0
 10
11.9244763587
 20
10.7943621373
 30
0.0
 10
11.9242896065
 20
10.7959327025
 30
0.0
 10
11.9242480485
 20
10.7969815582
 30
0.0
 10
11.9242480527
 20
10.7975042369
 30
0.0
  0
SPLINE
  5
38D
100
AcDbEntity
  8
0
100
AcDbSpline
 62
7
  6
CONTINUOUS
 70
0
 71
3
 72
39
 73
35
 74
0
 42
0.0000001
 43
0.0000001
 44
0.0000000001
 40
0.0
 40
0.0
 40
0.0
 40
0.0
 40
0.0958316475
 40
0.1891006073
 40
0.279240642
 40
0.3229674356
 40
0.365711151
 40
0.4074094627
 40
0.4480020772
 40
0.4874317741
 40
0.5256439547
 40
0.5625873626
 40
0.5982141631
 40
0.6324802323
 40
0.6653459096
 40
0.6967758341
 40
0.7267403598
 40
0.7552153214
 40
0.7821838024
 40
0.8076365273
 40
0.831573723
 40
0.8540068598
 40
0.8749607899
 40
0.8944774057
 40
0.9126188108
 40
0.9294731124
 40
0.9451592998
 40
0.9598338063
 40
0.9668558128
 40
0.9737028706
 40
0.9804062828
 40
0.9869996808
 40
0.9935186293
 40
1.0
 40
1.0
 40
1.0
 40
1.0
 10
12.9687521328
 20
11.5205033868
 30
0.0
 10
12.9610424758
 20
11.5210380534
 30
0.0
 10
12.9458404269
 20
11.522262648
 30
0.0
 10
12.9234411713
 20
11.5246002724
 30
0.0
 10
12.9052742224
 20
11.5269578731
 30
0.0
 10
12.8911903795
 20
11.5290800934
 30
0.0
 10
12.8809922929
 20
11.5307649081
 30
0.0
 10
12.8710690574
 20
11.5325560193
 30
0.0
 10
12.861437236
 20
11.5344505115
 30
0.0
 10
12.8521129163
 20
11.5364451253
 30
0.0
 10
12.8431116596
 20
11.5385365581
 30
0.0
 10
12.8344484773
 20
11.5407212657
 30
0.0
 10
12.8261378071
 20
11.5429955717
 30
0.0
 10
12.8181934877
 20
11.5453556864
 30
0.0
 10
12.8106287185
 20
11.5477975825
 30
0.0
 10
12.803456064
 20
11.5503172476
 30
0.0
 10
12.7966873787
 20
11.5529103669
 30
0.0
 10
12.7903338458
 20
11.5555727072
 30
0.0
 10
12.7844058787
 20
11.5582997738
 30
0.0
 10
12.778913162
 20
11.5610871292
 30
0.0
 10
12.773864588
 20
11.5639302432
 30
0.0
 10
12.7692682321
 20
11.566824572
 30
0.0
 10
12.7651314292
 20
11.5697657469
 30
0.0
 10
12.7614606253
 20
11.5727493885
 30
0.0
 10
12.7582617508
 20
11.5757715469
 30
0.0
 10
12.7555399573
 20
11.5788285605
 30
0.0
 10
12.7533006525
 20
11.5819166617
 30
0.0
 10
12.7518194358
 20
11.584552129
 30
0.0
 10
12.7508961508
 20
11.5866623895
 30
0.0
 10
12.7503371082
 20
11.588225901
 30
0.0
 10
12.7499018902
 20
11.5897925015
 30
0.0
 10
12.749590815
 20
11.5913615475
 30
0.0
 10
12.7494040628
 20
11.5929321127
 30
0.0
 10
12.7493625048
 20
11.5939809684
 30
0.0
 10
12.749362509
 20
11.5945036471
 30
0.0
  0
SPLINE
  5
38E
100
AcDbEntity
  8
0
100
AcDbSpline
 62
7
  6
CONTINUOUS
 70
0
 71
3
 72
37
 73
33
 74
0
 42
0.0000001
 43
0.0000001
 44
0.0000000001
 40
0.0
 40
0.0
 40
0.0
 40
0.0
 40
0.0958321372
 40
0.1891019121
 40
0.2792425465
 40
0.3657115305
 40
0.4074101378
 40
0.4480031117
 40
0.4874331589
 40
0.5256456456
 40
0.5625894675
 40
0.5982165282
 40
0.6324830688
 40
0.665348975
 40
0.6967793974
 40
0.7267441687
 40
0.7552196034
 40
0.7821883904
 40
0.8076415214
 40
0.8315791003
 40
0.8540125631
 40
0.8749669375
 40
0.894483817
 40
0.9126256757
 40
0.9294802133
 40
0.9451667887
 40
0.9598415117
 40
0.9737025915
 40
0.9804060739
 40
0.98699956
 40
0.9935185817
 40
1.0
 40
1.0
 40
1.0
 40
1.0
 10
10.5454516886
 20
11.2737748653
 30
0.0
 10
10.5389402069
 20
11.2742264381
 30
0.0
 10
10.5261007427
 20
11.2752607233
 30
0.0
 10
10.5071824754
 20
11.2772350214
 30
0.0
 10
10.4889518904
 20
11.2796010076
 30
0.0
 10
10.4742614894
 20
11.2819126582
 30
0.0
 10
10.4629496045
 20
11.2839543525
 30
0.0
 10
10.4548146509
 20
11.2855544224
 30
0.0
 10
10.4469394168
 20
11.2872390391
 30
0.0
 10
10.4393370334
 20
11.289005446
 30
0.0
 10
10.4320201804
 20
11.2908505975
 30
0.0
 10
10.4250010556
 20
11.292771475
 30
0.0
 10
10.418291337
 20
11.2947647559
 30
0.0
 10
10.4119021893
 20
11.2968271914
 30
0.0
 10
10.4058442001
 20
11.2989552193
 30
0.0
 10
10.4001274116
 20
11.3011453754
 30
0.0
 10
10.3947612353
 20
11.3033939145
 30
0.0
 10
10.3897544991
 20
11.3056971835
 30
0.0
 10
10.3851153568
 20
11.3080513338
 30
0.0
 10
10.3808513298
 20
11.3104525863
 30
0.0
 10
10.3769692513
 20
11.3128971168
 30
0.0
 10
10.3734752699
 20
11.3153811627
 30
0.0
 10
10.370374919
 20
11.317901144
 30
0.0
 10
10.3676730629
 20
11.3204535991
 30
0.0
 10
10.3653742768
 20
11.3230354611
 30
0.0
 10
10.3634827434
 20
11.3256439357
 30
0.0
 10
10.3620032039
 20
11.3282758744
 30
0.0
 10
10.3611075881
 20
11.3305118286
 30
0.0
 10
10.3606121261
 20
11.3322955071
 30
0.0
 10
10.360349316
 20
11.3336207319
 30
0.0
 10
10.3601915287
 20
11.3349472037
 30
0.0
 10
10.3601564027
 20
11.3358330596
 30
0.0
 10
10.3601563986
 20
11.3362745086
 30
0.0
  0
SPLINE
  5
38F
100
AcDbEntity
  8
0
100
AcDbSpline
 62
7
  6
CONTINUOUS
 70
0
 71
3
 72
37
 73
33
 74
0
 42
0.0000001
 43
0.0000001
 44
0.0000000001
 40
0.0
 40
0.0
 40
0.0
 40
0.0
 40
0.0958321372
 40
0.1891019121
 40
0.2792425465
 40
0.3657115305
 40
0.4074101378
 40
0.4480031117
 40
0.4874331589
 40
0.5256456456
 40
0.5625894675
 40
0.5982165282
 40
0.6324830688
 40
0.665348975
 40
0.6967793974
 40
0.7267441687
 40
0.7552196034
 40
0.7821883904
 40
0.8076415214
 40
0.8315791003
 40
0.8540125631
 40
0.8749669375
 40
0.894483817
 40
0.9126256757
 40
0.9294802133
 40
0.9451667887
 40
0.9598415117
 40
0.9737025915
 40
0.9804060739
 40
0.98699956
 40
0.9935185817
 40
1.0
 40
1.0
 40
1.0
 40
1.0
 10
12.1759346602
 20
11.1607004872
 30
0.0
 10
12.1694231785
 20
11.16115206
 30
0.0
 10
12.1565837142
 20
11.1621863452
 30
0.0
 10
12.1376654469
 20
11.1641606433
 30
0.0
 10
12.119434862
 20
11.1665266294
 30
0.0
 10
12.1047444609
 20
11.1688382801
 30
0.0
 10
12.0934325761
 20
11.1708799743
 30
0.0
 10
12.0852976224
 20
11.1724800443
 30
0.0
 10
12.0774223883
 20
11.1741646609
 30
0.0
 10
12.069820005
 20
11.1759310678
 30
0.0
 10
12.062503152
 20
11.1777762194
 30
0.0
 10
12.0554840271
 20
11.1796970968
 30
0.0
 10
12.0487743085
 20
11.1816903778
 30
0.0
 10
12.0423851608
 20
11.1837528133
 30
0.0
 10
12.0363271717
 20
11.1858808412
 30
0.0
 10
12.0306103832
 20
11.1880709973
 30
0.0
 10
12.0252442068
 20
11.1903195364
 30
0.0
 10
12.0202374706
 20
11.1926228053
 30
0.0
 10
12.0155983283
 20
11.1949769557
 30
0.0
 10
12.0113343014
 20
11.1973782082
 30
0.0
 10
12.0074522228
 20
11.1998227386
 30
0.0
 10
12.0039582414
 20
11.2023067846
 30
0.0
 10
12.0008578905
 20
11.2048267658
 30
0.0
 10
11.9981560344
 20
11.2073792209
 30
0.0
 10
11.9958572484
 20
11.209961083
 30
0.0
 10
11.993965715
 20
11.2125695576
 30
0.0
 10
11.9924861755
 20
11.2152014963
 30
0.0
 10
11.9915905596
 20
11.2174374505
 30
0.0
 10
11.9910950977
 20
11.219221129
 30
0.0
 10
11.9908322875
 20
11.2205463538
 30
0.0
 10
11.9906745002
 20
11.2218728256
 30
0.0
 10
11.9906393742
 20
11.2227586814
 30
0.0
 10
11.9906393701
 20
11.2232001305
 30
0.0
  0
SPLINE
  5
390
100
AcDbEntity
  8
0
100
AcDbSpline
 62
7
  6
CONTINUOUS
 70
0
 71
3
 72
64
 73
60
 74
0
 42
0.0000001
 43
0.0000001
 44
0.0000000001
 40
0.0
 40
0.0
 40
0.0
 40
0.0
 40
0.0081460051
 40
0.0169709914
 40
0.0265002189
 40
0.0367502672
 40
0.047728842
 40
0.0594365853
 40
0.0718684944
 40
0.08501514
 40
0.0988629581
 40
0.1133950314
 40
0.1285915554
 40
0.1444299496
 40
0.160885485
 40
0.1779311795
 40
0.1955382489
 40
0.2136762035
 40
0.2323129189
 40
0.2514149968
 40
0.2709476335
 40
0.2908749786
 40
0.3317643191
 40
0.3737784458
 40
0.4166006971
 40
0.4599066793
 40
0.5033675128
 40
0.5466530157
 40
0.5894348589
 40
0.6313897308
 40
0.6722025392
 40
0.7115696685
 40
0.7306207498
 40
0.7492035236
 40
0.7672848298
 40
0.7848329621
 40
0.8018176511
 40
0.8182105031
 40
0.8339848554
 40
0.849116244
 40
0.863582525
 40
0.8773640837
 40
0.8904444496
 40
0.9028103613
 40
0.9144527022
 40
0.9253669701
 40
0.9355542896
 40
0.9450228541
 40
0.95378929
 40
0.9618813108
 40
0.9693402956
 40
0.976225023
 40
0.9826155553
 40
0.9856592172
 40
0.9886206434
 40
0.9915167526
 40
0.9943657459
 40
0.9971868695
 40
1.0
 40
1.0
 40
1.0
 40
1.0
 10
11.4813789211
 20
11.0834680199
 30
0.0
 10
11.4803626002
 20
11.0824863292
 30
0.0
 10
11.4781486565
 20
11.0805398604
 30
0.0
 10
11.4744717273
 20
11.0777753572
 30
0.0
 10
11.4703168135
 20
11.0750575289
 30
0.0
 10
11.4656924968
 20
11.0723916642
 30
0.0
 10
11.4606075974
 20
11.0697826102
 30
0.0
 10
11.4550721381
 20
11.067235652
 30
0.0
 10
11.4490972134
 20
11.0647557965
 30
0.0
 10
11.4426948303
 20
11.0623481484
 30
0.0
 10
11.4358779576
 20
11.0600175852
 30
0.0
 10
11.428660455
 20
11.0577688798
 30
0.0
 10
11.4210570309
 20
11.0556066953
 30
0.0
 10
11.4130832236
 20
11.0535354023
 30
0.0
 10
11.4047553324
 20
11.0515593264
 30
0.0
 10
11.3960904044
 20
11.049682474
 30
0.0
 10
11.3871061781
 20
11.0479087081
 30
0.0
 10
11.3778210468
 20
11.0462416863
 30
0.0
 10
11.3682540204
 20
11.044684767
 30
0.0
 10
11.358424684
 20
11.0432411999
 30
0.0
 10
11.3483531337
 20
11.0419138559
 30
0.0
 10
11.3345102724
 20
11.0402888465
 30
0.0
 10
11.3167533392
 20
11.0385745089
 30
0.0
 10
11.294997046
 20
11.0370338577
 30
0.0
 10
11.2727909096
 20
11.0360052833
 30
0.0
 10
11.2503158584
 20
11.0354971315
 30
0.0
 10
11.2277547284
 20
11.0355135019
 30
0.0
 10
11.2052909916
 20
11.0360541632
 30
0.0
 10
11.1831072433
 20
11.0371145861
 30
0.0
 10
11.1613836796
 20
11.0386859471
 30
0.0
 10
11.1402969005
 20
11.0407552715
 30
0.0
 10
11.12321605
 20
11.0429030552
 30
0.0
 10
11.1100039893
 20
11.0448665638
 30
0.0
 10
11.100467388
 20
11.0464359333
 30
0.0
 10
11.0912142862
 20
11.0481148514
 30
0.0
 10
11.0822635204
 20
11.0498998824
 30
0.0
 10
11.0736333371
 20
11.0517874306
 30
0.0
 10
11.0653413176
 20
11.0537735706
 30
0.0
 10
11.0574043611
 20
11.0558542964
 30
0.0
 10
11.0498386295
 20
11.0580253256
 30
0.0
 10
11.0426595162
 20
11.0602822032
 30
0.0
 10
11.0358816196
 20
11.0626203725
 30
0.0
 10
11.0295186673
 20
11.0650349847
 30
0.0
 10
11.023583534
 20
11.0675212155
 30
0.0
 10
11.0180881387
 20
11.0700739914
 30
0.0
 10
11.0130434473
 20
11.0726882302
 30
0.0
 10
11.008459449
 20
11.0753588678
 30
0.0
 10
11.0043450475
 20
11.0780807594
 30
0.0
 10
11.0007082283
 20
11.080849157
 30
0.0
 10
10.9975559588
 20
11.083659365
 30
0.0
 10
10.9948944928
 20
11.0865075716
 30
0.0
 10
10.9927301178
 20
11.0893896692
 30
0.0
 10
10.9913234268
 20
11.0918573256
 30
0.0
 10
10.9904705458
 20
11.0938330786
 30
0.0
 10
10.9899688972
 20
11.0952950692
 30
0.0
 10
10.9895954604
 20
11.0967601815
 30
0.0
 10
10.9893506542
 20
11.098227653
 30
0.0
 10
10.9892347383
 20
11.0996963806
 30
0.0
 10
10.9892434488
 20
11.1006751473
 30
0.0
 10
10.9892690883
 20
11.1011624436
 30
0.0
  0
SPLINE
  5
391
100
AcDbEntity
  8
0
100
AcDbSpline
 62
7
  6
CONTINUOUS
 70
0
 71
3
 72
33
 73
29
 74
0
 42
0.0000001
 43
0.0000001
 44
0.0000000001
 40
0.0
 40
0.0
 40
0.0
 40
0.0
 40
0.0958336213
 40
0.1891081202
 40
0.2792503045
 40
0.3657220889
 40
0.4480132641
 40
0.5256549075
 40
0.5625997422
 40
0.5982276624
 40
0.6324950734
 40
0.6653617928
 40
0.6967929111
 40
0.7267584475
 40
0.7552344057
 40
0.7822038982
 40
0.8076574015
 40
0.8315955933
 40
0.8540293233
 40
0.8749841742
 40
0.8945012814
 40
0.9126434623
 40
0.9294982434
 40
0.9451850253
 40
0.9598600352
 40
0.9737213109
 40
0.9870092528
 40
1.0
 40
1.0
 40
1.0
 40
1.0
 10
12.3955786443
 20
10.9348602733
 30
0.0
 10
12.3921926956
 20
10.9350950896
 30
0.0
 10
12.3855160995
 20
10.9356329311
 30
0.0
 10
12.3756785524
 20
10.9366595608
 30
0.0
 10
12.366198501
 20
10.9378898984
 30
0.0
 10
12.357139266
 20
10.939315499
 30
0.0
 10
12.3485611715
 20
10.9409267264
 30
0.0
 10
12.3417527669
 20
10.9424388437
 30
0.0
 10
12.3365939094
 20
10.9437397351
 30
0.0
 10
12.3329439507
 20
10.9447386205
 30
0.0
 10
12.3294548904
 20
10.9457751339
 30
0.0
 10
12.3261325274
 20
10.9468476085
 30
0.0
 10
12.3229823735
 20
10.9479542055
 30
0.0
 10
12.3200096409
 20
10.9490930823
 30
0.0
 10
12.3172192395
 20
10.9502623577
 30
0.0
 10
12.3146157361
 20
10.9514600425
 30
0.0
 10
12.3122034041
 20
10.9526842447
 30
0.0
 10
12.3099861115
 20
10.953932876
 30
0.0
 10
12.3079674637
 20
10.9552040764
 30
0.0
 10
12.3061506008
 20
10.9564957655
 30
0.0
 10
12.3045384562
 20
10.9578061899
 30
0.0
 10
12.303133514
 20
10.9591334649
 30
0.0
 10
12.3019381739
 20
10.9604760582
 30
0.0
 10
12.3009546338
 20
10.9618324476
 30
0.0
 10
12.3001852614
 20
10.9632011848
 30
0.0
 10
12.299632687
 20
10.964580695
 30
0.0
 10
12.2992995629
 20
10.9659680218
 30
0.0
 10
12.2992251089
 20
10.9669003274
 30
0.0
 10
12.2992251132
 20
10.9673604128
 30
0.0
  0
SPLINE
  5
392
100
AcDbEntity
  8
0
100
AcDbSpline
 62
7
  6
CONTINUOUS
 70
0
 71
3
 72
33
 73
29
 74
0
 42
0.0000001
 43
0.0000001
 44
0.0000000001
 40
0.0
 40
0.0
 40
0.0
 40
0.0
 40
0.0958337721
 40
0.1891075281
 40
0.2792498525
 40
0.3657213947
 40
0.4480125047
 40
0.5256540576
 40
0.562598834
 40
0.5982267604
 40
0.6324942007
 40
0.6653608654
 40
0.6967921107
 40
0.7267575332
 40
0.7552337044
 40
0.782203046
 40
0.8076568149
 40
0.8315948643
 40
0.8540288602
 40
0.8749836358
 40
0.8945009454
 40
0.9126431538
 40
0.9294980335
 40
0.9451849288
 40
0.9598599414
 40
0.9737213377
 40
0.9870092407
 40
1.0
 40
1.0
 40
1.0
 40
1.0
 10
12.8578290559
 20
11.3813599105
 30
0.0
 10
12.8537659173
 20
11.3816416901
 30
0.0
 10
12.845754039
 20
11.3822870939
 30
0.0
 10
12.8339490201
 20
11.3835190493
 30
0.0
 10
12.8225730102
 20
11.3849954383
 30
0.0
 10
12.8117019516
 20
11.3867061543
 30
0.0
 10
12.8014082694
 20
11.3886396146
 30
0.0
 10
12.7932382039
 20
11.3904541449
 30
0.0
 10
12.7870475898
 20
11.3920152087
 30
0.0
 10
12.782667646
 20
11.3932138653
 30
0.0
 10
12.7784807767
 20
11.3944576659
 30
0.0
 10
12.7744939467
 20
11.395744645
 30
0.0
 10
12.7707137584
 20
11.3970725285
 30
0.0
 10
12.7671464859
 20
11.3984392073
 30
0.0
 10
12.7637979915
 20
11.3998422885
 30
0.0
 10
12.7606737969
 20
11.4012795506
 30
0.0
 10
12.7577789747
 20
11.4027485337
 30
0.0
 10
12.7551182357
 20
11.4042469361
 30
0.0
 10
12.7526958248
 20
11.4057723191
 30
0.0
 10
12.7505155983
 20
11.4073223806
 30
0.0
 10
12.7485809904
 20
11.4088948509
 30
0.0
 10
12.746895052
 20
11.4104875899
 30
0.0
 10
12.7454606274
 20
11.412098693
 30
0.0
 10
12.7442803338
 20
11.4137263389
 30
0.0
 10
12.743357111
 20
11.4153688402
 30
0.0
 10
12.742693919
 20
11.4170242168
 30
0.0
 10
12.7422942461
 20
11.4186890257
 30
0.0
 10
12.7422047936
 20
11.4198077784
 30
0.0
 10
12.7422047936
 20
11.4203598806
 30
0.0
  0
SPLINE
  5
393
100
AcDbEntity
  8
0
100
AcDbSpline
 62
7
  6
CONTINUOUS
 70
0
 71
3
 72
33
 73
29
 74
0
 42
0.0000001
 43
0.0000001
 44
0.0000000001
 40
0.0
 40
0.0
 40
0.0
 40
0.0
 40
0.0958336213
 40
0.1891081202
 40
0.2792503045
 40
0.3657220889
 40
0.4480132641
 40
0.5256549075
 40
0.5625997422
 40
0.5982276624
 40
0.6324950734
 40
0.6653617928
 40
0.6967929111
 40
0.7267584475
 40
0.7552344057
 40
0.7822038982
 40
0.8076574015
 40
0.8315955933
 40
0.8540293233
 40
0.8749841742
 40
0.8945012814
 40
0.9126434623
 40
0.9294982434
 40
0.9451850253
 40
0.9598600352
 40
0.9737213109
 40
0.9870092528
 40
1.0
 40
1.0
 40
1.0
 40
1.0
 10
11.3917514917
 20
11.2472376493
 30
0.0
 10
11.388365543
 20
11.2474724656
 30
0.0
 10
11.381688947
 20
11.2480103071
 30
0.0
 10
11.3718513998
 20
11.2490369368
 30
0.0
 10
11.3623713485
 20
11.2502672744
 30
0.0
 10
11.3533121134
 20
11.251692875
 30
0.0
 10
11.3447340189
 20
11.2533041024
 30
0.0
 10
11.3379256143
 20
11.2548162197
 30
0.0
 10
11.3327667569
 20
11.2561171111
 30
0.0
 10
11.3291167982
 20
11.2571159965
 30
0.0
 10
11.3256277379
 20
11.2581525099
 30
0.0
 10
11.3223053749
 20
11.2592249845
 30
0.0
 10
11.3191552209
 20
11.2603315815
 30
0.0
 10
11.3161824883
 20
11.2614704583
 30
0.0
 10
11.313392087
 20
11.2626397337
 30
0.0
 10
11.3107885835
 20
11.2638374185
 30
0.0
 10
11.3083762515
 20
11.2650616207
 30
0.0
 10
11.3061589589
 20
11.266310252
 30
0.0
 10
11.3041403112
 20
11.2675814524
 30
0.0
 10
11.3023234482
 20
11.2688731415
 30
0.0
 10
11.3007113037
 20
11.2701835659
 30
0.0
 10
11.2993063615
 20
11.2715108409
 30
0.0
 10
11.2981110214
 20
11.2728534342
 30
0.0
 10
11.2971274812
 20
11.2742098236
 30
0.0
 10
11.2963581089
 20
11.2755785608
 30
0.0
 10
11.2958055344
 20
11.276958071
 30
0.0
 10
11.2954724103
 20
11.2783453978
 30
0.0
 10
11.2953979563
 20
11.2792777034
 30
0.0
 10
11.2953979606
 20
11.2797377888
 30
0.0
  0
SPLINE
  5
394
100
AcDbEntity
  8
0
100
AcDbSpline
 62
7
  6
CONTINUOUS
 70
0
 71
3
 72
23
 73
19
 74
0
 42
0.0000001
 43
0.0000001
 44
0.0000000001
 40
0.0
 40
0.0
 40
0.0
 40
0.0
 40
0.0902731704
 40
0.1775959106
 40
0.2615073722
 40
0.3416492606
 40
0.4177717351
 40
0.4897336136
 40
0.5574909596
 40
0.6210827091
 40
0.6806137798
 40
0.7362393297
 40
0.7881516689
 40
0.8365668027
 40
0.8817161499
 40
0.9238413989
 40
0.9631871296
 40
1.0
 40
1.0
 40
1.0
 40
1.0
 10
10.7105132919
 20
7.1054578237
 30
0.0
 10
10.7067032777
 20
7.1046274043
 30
0.0
 10
10.6991826409
 20
7.1031061765
 30
0.0
 10
10.6880427461
 20
7.1012221694
 30
0.0
 10
10.6772792408
 20
7.0997725758
 30
0.0
 10
10.6669526424
 20
7.0987515506
 30
0.0
 10
10.6571104258
 20
7.0981451623
 30
0.0
 10
10.6477868363
 20
7.097933063
 30
0.0
 10
10.6390034372
 20
7.0980903864
 30
0.0
 10
10.6307706245
 20
7.0985895327
 30
0.0
 10
10.6230894732
 20
7.0994017267
 30
0.0
 10
10.6159536561
 20
7.1004981684
 30
0.0
 10
10.6093513232
 20
7.1018509755
 30
0.0
 10
10.6032667646
 20
7.10343391
 30
0.0
 10
10.5976816552
 20
7.1052222517
 30
0.0
 10
10.5925761824
 20
7.1071937295
 30
0.0
 10
10.5879300912
 20
7.1093275826
 30
0.0
 10
10.5850345
 20
7.1108952869
 30
0.0
 10
10.5836640976
 20
7.1117019235
 30
0.0
  0
SPLINE
  5
395
100
AcDbEntity
  8
0
100
AcDbSpline
 62
7
  6
CONTINUOUS
 70
0
 71
3
 72
39
 73
35
 74
0
 42
0.0000001
 43
0.0000001
 44
0.0000000001
 40
0.0
 40
0.0
 40
0.0
 40
0.0
 40
0.030673164
 40
0.0614497342
 40
0.0923258322
 40
0.123299507
 40
0.1543662998
 40
0.1855214634
 40
0.2167593041
 40
0.2480733934
 40
0.2794566285
 40
0.3109012834
 40
0.3423990894
 40
0.3739413063
 40
0.4055188043
 40
0.4371221464
 40
0.4687416707
 40
0.5003675737
 40
0.5319899947
 40
0.5635991035
 40
0.5951851873
 40
0.6267387347
 40
0.6582505182
 40
0.6897116749
 40
0.7211137879
 40
0.7524489655
 40
0.7837099101
 40
0.8148899957
 40
0.8459833158
 40
0.8769847405
 40
0.907890123
 40
0.9386956389
 40
0.9693999951
 40
1.0
 40
1.0
 40
1.0
 40
1.0
 10
9.0263338058
 20
5.1594745363
 30
0.0
 10
9.0144614028
 20
5.1602978902
 30
0.0
 10
8.9907129416
 20
5.1625298178
 30
0.0
 10
8.9552398972
 20
5.1676093806
 30
0.0
 10
8.9199376125
 20
5.1744146186
 30
0.0
 10
8.8848925291
 20
5.1829285767
 30
0.0
 10
8.8501884471
 20
5.1931309967
 30
0.0
 10
8.8159091081
 20
5.2049971405
 30
0.0
 10
8.7821369754
 20
5.218498414
 30
0.0
 10
8.7489533425
 20
5.2336022325
 30
0.0
 10
8.7164380731
 20
5.2502721839
 30
0.0
 10
8.6846694253
 20
5.2684681056
 30
0.0
 10
8.6537238688
 20
5.2881461797
 30
0.0
 10
8.6236758889
 20
5.3092590167
 30
0.0
 10
8.5945977882
 20
5.3317557487
 30
0.0
 10
8.5665595452
 20
5.3555822017
 30
0.0
 10
8.539628643
 20
5.3806810143
 30
0.0
 10
8.5138699116
 20
5.4069917759
 30
0.0
 10
8.4893453743
 20
5.4344511682
 30
0.0
 10
8.4661140519
 20
5.4629930781
 30
0.0
 10
8.4442318629
 20
5.4925488004
 30
0.0
 10
8.4237514931
 20
5.5230472007
 30
0.0
 10
8.4047222681
 20
5.5544148818
 30
0.0
 10
8.3871900461
 20
5.5865763623
 30
0.0
 10
8.3711970561
 20
5.6194542292
 30
0.0
 10
8.3567818179
 20
5.6529693417
 30
0.0
 10
8.3439790719
 20
5.687041032
 30
0.0
 10
8.3328196969
 20
5.7215872941
 30
0.0
 10
8.3233306444
 20
5.7565249635
 30
0.0
 10
8.3155347949
 20
5.7917699877
 30
0.0
 10
8.3094510831
 20
5.8272373083
 30
0.0
 10
8.3050939599
 20
5.8628421212
 30
0.0
 10
8.302474389
 20
5.8984972094
 30
0.0
 10
8.3018893931
 20
5.922286806
 30
0.0
 10
8.3018893931
 20
5.9341593396
 30
0.0
  0
SPLINE
  5
396
100
AcDbEntity
  8
0
100
AcDbSpline
 62
7
  6
CONTINUOUS
 70
0
 71
3
 72
26
 73
22
 74
0
 42
0.0000001
 43
0.0000001
 44
0.0000000001
 40
0.0
 40
0.0
 40
0.0
 40
0.0
 40
0.0637762166
 40
0.1273429375
 40
0.1906991235
 40
0.2538523393
 40
0.2853569189
 40
0.3168132585
 40
0.3795812214
 40
0.4421715787
 40
0.5045965934
 40
0.5668701917
 40
0.6290077786
 40
0.6910261214
 40
0.7219986725
 40
0.7529482414
 40
0.8147830237
 40
0.8765553495
 40
0.9074270139
 40
0.9382907776
 40
1.0
 40
1.0
 40
1.0
 40
1.0
 10
8.3018893931
 20
9.1333058658
 30
0.0
 10
8.3018893931
 20
9.1448774449
 30
0.0
 10
8.3024432505
 20
9.1679864936
 30
0.0
 10
8.3049431259
 20
9.2025096181
 30
0.0
 10
8.3091053341
 20
9.236758651
 30
0.0
 10
8.313955028
 20
9.2650283024
 30
0.0
 10
8.3186558233
 20
9.2874245039
 30
0.0
 10
8.3238924084
 20
9.3096296814
 30
0.0
 10
8.3314508816
 20
9.3370730665
 30
0.0
 10
8.342128681
 20
9.3694427541
 30
0.0
 10
8.3543834106
 20
9.4011533241
 30
0.0
 10
8.3681868356
 20
9.4321312665
 30
0.0
 10
8.3835069354
 20
9.4623047922
 30
0.0
 10
8.3975152666
 20
9.4867330861
 30
0.0
 10
8.4094415609
 20
9.5058003208
 30
0.0
 10
8.4218327421
 20
9.5245288891
 30
0.0
 10
8.4381995846
 20
9.5473161146
 30
0.0
 10
8.455704681
 20
9.5692229712
 30
0.0
 10
8.4703595047
 20
9.5861792017
 30
0.0
 10
8.4854370867
 20
9.6027444699
 30
0.0
 10
8.4972207076
 20
9.6147276206
 30
0.0
 10
8.5052738589
 20
9.6225063947
 30
0.0
  0
SPLINE
  5
397
100
AcDbEntity
  8
0
100
AcDbSpline
 62
7
  6
CONTINUOUS
 70
0
 71
3
 72
50
 73
46
 74
0
 42
0.0000001
 43
0.0000001
 44
0.0000000001
 40
0.0
 40
0.0
 40
0.0
 40
0.0
 40
0.0055575484
 40
0.0111779922
 40
0.016921945
 40
0.0228458833
 40
0.0290006815
 40
0.0354311436
 40
0.0421756504
 40
0.0492665308
 40
0.0567306759
 40
0.0645898217
 40
0.0728615778
 40
0.0815596977
 40
0.0906946685
 40
0.100274387
 40
0.1103041016
 40
0.1207871917
 40
0.1317251696
 40
0.1431178633
 40
0.1549639321
 40
0.16726054
 40
0.1800039018
 40
0.1931892317
 40
0.2208607128
 40
0.2502207991
 40
0.2812027127
 40
0.3137299142
 40
0.3477173552
 40
0.383072554
 40
0.4196964471
 40
0.4574841188
 40
0.4963254304
 40
0.5361057043
 40
0.5767063272
 40
0.6180053027
 40
0.6598777724
 40
0.7021965482
 40
0.7448326997
 40
0.7876559964
 40
0.8305355066
 40
0.8733402465
 40
0.9159384006
 40
0.9582025777
 40
1.0
 40
1.0
 40
1.0
 40
1.0
 10
10.1014333398
 20
10.9649715718
 30
0.0
 10
10.1014333339
 20
10.9642393265
 30
0.0
 10
10.1013512965
 20
10.9627652762
 30
0.0
 10
10.1009833174
 20
10.9605620719
 30
0.0
 10
10.1003709868
 20
10.9583637699
 30
0.0
 10
10.0995154152
 20
10.9561729592
 30
0.0
 10
10.0984181479
 20
10.9539913539
 30
0.0
 10
10.097080535
 20
10.9518206875
 30
0.0
 10
10.0955041641
 20
10.949662421
 30
0.0
 10
10.0936905954
 20
10.9475179814
 30
0.0
 10
10.091641375
 20
10.9453888925
 30
0.0
 10
10.0893583138
 20
10.9432765329
 30
0.0
 10
10.0868431986
 20
10.9411824917
 30
0.0
 10
10.0840980677
 20
10.9391082911
 30
0.0
 10
10.0811251256
 20
10.9370554617
 30
0.0
 10
10.0779266946
 20
10.9350256767
 30
0.0
 10
10.0745053782
 20
10.9330204394
 30
0.0
 10
10.0708638899
 20
10.9310414014
 30
0.0
 10
10.0670051631
 20
10.9290901505
 30
0.0
 10
10.0629323285
 20
10.9271682109
 30
0.0
 10
10.058648654
 20
10.925277223
 30
0.0
 10
10.0541576403
 20
10.9234186605
 30
0.0
 10
10.0494629196
 20
10.9215940519
 30
0.0
 10
10.0428295547
 20
10.9191694435
 30
0.0
 10
10.0340503906
 20
10.916244035
 30
0.0
 10
10.0229310062
 20
10.91294592
 30
0.0
 10
10.0110999739
 20
10.9098169114
 30
0.0
 10
9.998595903
 20
10.9068673539
 30
0.0
 10
9.9854594925
 20
10.9041070105
 30
0.0
 10
9.971733628
 20
10.9015450223
 30
0.0
 10
9.9574631465
 20
10.8991898746
 30
0.0
 10
9.9426947104
 20
10.8970493715
 30
0.0
 10
9.9274766458
 20
10.8951305854
 30
0.0
 10
9.9118587725
 20
10.8934398558
 30
0.0
 10
9.8958922293
 20
10.8919827711
 30
0.0
 10
9.8796293061
 20
10.8907641514
 30
0.0
 10
9.8631232767
 20
10.8897880269
 30
0.0
 10
9.8464282186
 20
10.8890576104
 30
0.0
 10
9.8295988356
 20
10.8885753132
 30
0.0
 10
9.8126902705
 20
10.8883427271
 30
0.0
 10
9.7957579041
 20
10.8883606261
 30
0.0
 10
9.7788573226
 20
10.8886289656
 30
0.0
 10
9.762043637
 20
10.8891468102
 30
0.0
 10
9.7453723037
 20
10.8899125216
 30
0.0
 10
9.7343168712
 20
10.890590942
 30
0.0
 10
9.7288229677
 20
10.8909719455
 30
0.0
  0
SPLINE
  5
398
100
AcDbEntity
  8
0
100
AcDbSpline
 62
7
  6
CONTINUOUS
 70
0
 71
3
 72
50
 73
46
 74
0
 42
0.0000001
 43
0.0000001
 44
0.0000000001
 40
0.0
 40
0.0
 40
0.0
 40
0.0
 40
0.0055575484
 40
0.0111779922
 40
0.016921945
 40
0.0228458833
 40
0.0290006815
 40
0.0354311436
 40
0.0421756504
 40
0.0492665308
 40
0.0567306759
 40
0.0645898217
 40
0.0728615778
 40
0.0815596977
 40
0.0906946685
 40
0.100274387
 40
0.1103041016
 40
0.1207871917
 40
0.1317251696
 40
0.1431178633
 40
0.1549639321
 40
0.16726054
 40
0.1800039018
 40
0.1931892317
 40
0.2208607128
 40
0.2502207991
 40
0.2812027127
 40
0.3137299142
 40
0.3477173552
 40
0.383072554
 40
0.4196964471
 40
0.4574841188
 40
0.4963254304
 40
0.5361057043
 40
0.5767063272
 40
0.6180053027
 40
0.6598777724
 40
0.7021965482
 40
0.7448326997
 40
0.7876559964
 40
0.8305355066
 40
0.8733402465
 40
0.9159384006
 40
0.9582025777
 40
1.0
 40
1.0
 40
1.0
 40
1.0
 10
10.9265477961
 20
11.7619709821
 30
0.0
 10
10.9265477903
 20
11.7612387367
 30
0.0
 10
10.9264657528
 20
11.7597646864
 30
0.0
 10
10.9260977737
 20
11.7575614821
 30
0.0
 10
10.9254854431
 20
11.7553631801
 30
0.0
 10
10.9246298715
 20
11.7531723695
 30
0.0
 10
10.9235326042
 20
11.7509907642
 30
0.0
 10
10.9221949913
 20
11.7488200977
 30
0.0
 10
10.9206186204
 20
11.7466618312
 30
0.0
 10
10.9188050517
 20
11.7445173916
 30
0.0
 10
10.9167558313
 20
11.7423883028
 30
0.0
 10
10.9144727702
 20
11.7402759431
 30
0.0
 10
10.9119576549
 20
11.738181902
 30
0.0
 10
10.909212524
 20
11.7361077013
 30
0.0
 10
10.906239582
 20
11.7340548719
 30
0.0
 10
10.9030411509
 20
11.7320250869
 30
0.0
 10
10.8996198345
 20
11.7300198496
 30
0.0
 10
10.8959783462
 20
11.7280408116
 30
0.0
 10
10.8921196194
 20
11.7260895607
 30
0.0
 10
10.8880467848
 20
11.7241676211
 30
0.0
 10
10.8837631103
 20
11.7222766332
 30
0.0
 10
10.8792720967
 20
11.7204180708
 30
0.0
 10
10.8745773759
 20
11.7185934621
 30
0.0
 10
10.867944011
 20
11.7161688537
 30
0.0
 10
10.8591648469
 20
11.7132434452
 30
0.0
 10
10.8480454625
 20
11.7099453303
 30
0.0
 10
10.8362144302
 20
11.7068163216
 30
0.0
 10
10.8237103593
 20
11.7038667641
 30
0.0
 10
10.8105739489
 20
11.7011064207
 30
0.0
 10
10.7968480844
 20
11.6985444325
 30
0.0
 10
10.7825776028
 20
11.6961892848
 30
0.0
 10
10.7678091668
 20
11.6940487818
 30
0.0
 10
10.7525911021
 20
11.6921299956
 30
0.0
 10
10.7369732289
 20
11.690439266
 30
0.0
 10
10.7210066857
 20
11.6889821813
 30
0.0
 10
10.7047437624
 20
11.6877635616
 30
0.0
 10
10.688237733
 20
11.6867874372
 30
0.0
 10
10.6715426749
 20
11.6860570206
 30
0.0
 10
10.6547132919
 20
11.6855747234
 30
0.0
 10
10.6378047268
 20
11.6853421374
 30
0.0
 10
10.6208723604
 20
11.6853600363
 30
0.0
 10
10.6039717789
 20
11.6856283758
 30
0.0
 10
10.5871580933
 20
11.6861462204
 30
0.0
 10
10.57048676
 20
11.6869119318
 30
0.0
 10
10.5594313275
 20
11.6875903522
 30
0.0
 10
10.553937424
 20
11.6879713557
 30
0.0
  0
SPLINE
  5
399
100
AcDbEntity
  8
0
100
AcDbSpline
 62
7
  6
CONTINUOUS
 70
0
 71
3
 72
50
 73
46
 74
0
 42
0.0000001
 43
0.0000001
 44
0.0000000001
 40
0.0
 40
0.0
 40
0.0
 40
0.0
 40
0.0055575484
 40
0.0111779922
 40
0.016921945
 40
0.0228458833
 40
0.0290006815
 40
0.0354311436
 40
0.0421756504
 40
0.0492665308
 40
0.0567306759
 40
0.0645898217
 40
0.0728615778
 40
0.0815596977
 40
0.0906946685
 40
0.100274387
 40
0.1103041016
 40
0.1207871917
 40
0.1317251696
 40
0.1431178633
 40
0.1549639321
 40
0.16726054
 40
0.1800039018
 40
0.1931892317
 40
0.2208607128
 40
0.2502207991
 40
0.2812027127
 40
0.3137299142
 40
0.3477173552
 40
0.383072554
 40
0.4196964471
 40
0.4574841188
 40
0.4963254304
 40
0.5361057043
 40
0.5767063272
 40
0.6180053027
 40
0.6598777724
 40
0.7021965482
 40
0.7448326997
 40
0.7876559964
 40
0.8305355066
 40
0.8733402465
 40
0.9159384006
 40
0.9582025777
 40
1.0
 40
1.0
 40
1.0
 40
1.0
 10
12.5162480486
 20
10.797503603
 30
0.0
 10
12.5162480428
 20
10.7967713576
 30
0.0
 10
12.5161660053
 20
10.7952973074
 30
0.0
 10
12.5157980262
 20
10.7930941031
 30
0.0
 10
12.5151856956
 20
10.7908958011
 30
0.0
 10
12.514330124
 20
10.7887049904
 30
0.0
 10
12.5132328567
 20
10.7865233851
 30
0.0
 10
12.5118952438
 20
10.7843527187
 30
0.0
 10
12.5103188729
 20
10.7821944521
 30
0.0
 10
12.5085053042
 20
10.7800500125
 30
0.0
 10
12.5064560838
 20
10.7779209237
 30
0.0
 10
12.5041730227
 20
10.7758085641
 30
0.0
 10
12.5016579074
 20
10.7737145229
 30
0.0
 10
12.4989127765
 20
10.7716403222
 30
0.0
 10
12.4959398344
 20
10.7695874928
 30
0.0
 10
12.4927414034
 20
10.7675577078
 30
0.0
 10
12.489320087
 20
10.7655524706
 30
0.0
 10
12.4856785987
 20
10.7635734326
 30
0.0
 10
12.4818198719
 20
10.7616221817
 30
0.0
 10
12.4777470373
 20
10.759700242
 30
0.0
 10
12.4734633628
 20
10.7578092541
 30
0.0
 10
12.4689723492
 20
10.7559506917
 30
0.0
 10
12.4642776284
 20
10.754126083
 30
0.0
 10
12.4576442635
 20
10.7517014746
 30
0.0
 10
12.4488650994
 20
10.7487760661
 30
0.0
 10
12.437745715
 20
10.7454779512
 30
0.0
 10
12.4259146827
 20
10.7423489425
 30
0.0
 10
12.4134106118
 20
10.739399385
 30
0.0
 10
12.4002742014
 20
10.7366390416
 30
0.0
 10
12.3865483369
 20
10.7340770534
 30
0.0
 10
12.3722778553
 20
10.7317219057
 30
0.0
 10
12.3575094193
 20
10.7295814027
 30
0.0
 10
12.3422913546
 20
10.7276626165
 30
0.0
 10
12.3266734814
 20
10.725971887
 30
0.0
 10
12.3107069382
 20
10.7245148022
 30
0.0
 10
12.2944440149
 20
10.7232961825
 30
0.0
 10
12.2779379855
 20
10.7223200581
 30
0.0
 10
12.2612429274
 20
10.7215896416
 30
0.0
 10
12.2444135444
 20
10.7211073443
 30
0.0
 10
12.2275049793
 20
10.7208747583
 30
0.0
 10
12.2105726129
 20
10.7208926572
 30
0.0
 10
12.1936720314
 20
10.7211609967
 30
0.0
 10
12.1768583458
 20
10.7216788413
 30
0.0
 10
12.1601870125
 20
10.7224445527
 30
0.0
 10
12.14913158
 20
10.7231229731
 30
0.0
 10
12.1436376765
 20
10.7235039766
 30
0.0
  0
SPLINE
  5
39A
100
AcDbEntity
  8
0
100
AcDbSpline
 62
7
  6
CONTINUOUS
 70
0
 71
3
 72
50
 73
46
 74
0
 42
0.0000001
 43
0.0000001
 44
0.0000000001
 40
0.0
 40
0.0
 40
0.0
 40
0.0
 40
0.0055575484
 40
0.0111779922
 40
0.016921945
 40
0.0228458833
 40
0.0290006815
 40
0.0354311436
 40
0.0421756504
 40
0.0492665308
 40
0.0567306759
 40
0.0645898217
 40
0.0728615778
 40
0.0815596977
 40
0.0906946685
 40
0.100274387
 40
0.1103041016
 40
0.1207871917
 40
0.1317251696
 40
0.1431178633
 40
0.1549639321
 40
0.16726054
 40
0.1800039018
 40
0.1931892317
 40
0.2208607128
 40
0.2502207991
 40
0.2812027127
 40
0.3137299142
 40
0.3477173552
 40
0.383072554
 40
0.4196964471
 40
0.4574841188
 40
0.4963254304
 40
0.5361057043
 40
0.5767063272
 40
0.6180053027
 40
0.6598777724
 40
0.7021965482
 40
0.7448326997
 40
0.7876559964
 40
0.8305355066
 40
0.8733402465
 40
0.9159384006
 40
0.9582025777
 40
1.0
 40
1.0
 40
1.0
 40
1.0
 10
13.3413625049
 20
11.5945030132
 30
0.0
 10
13.3413624991
 20
11.5937707678
 30
0.0
 10
13.3412804616
 20
11.5922967176
 30
0.0
 10
13.3409124825
 20
11.5900935133
 30
0.0
 10
13.3403001519
 20
11.5878952113
 30
0.0
 10
13.3394445803
 20
11.5857044006
 30
0.0
 10
13.338347313
 20
11.5835227953
 30
0.0
 10
13.3370097001
 20
11.5813521289
 30
0.0
 10
13.3354333292
 20
11.5791938623
 30
0.0
 10
13.3336197605
 20
11.5770494227
 30
0.0
 10
13.3315705401
 20
11.5749203339
 30
0.0
 10
13.329287479
 20
11.5728079743
 30
0.0
 10
13.3267723637
 20
11.5707139331
 30
0.0
 10
13.3240272328
 20
11.5686397324
 30
0.0
 10
13.3210542908
 20
11.5665869031
 30
0.0
 10
13.3178558597
 20
11.5645571181
 30
0.0
 10
13.3144345433
 20
11.5625518808
 30
0.0
 10
13.310793055
 20
11.5605728428
 30
0.0
 10
13.3069343282
 20
11.5586215919
 30
0.0
 10
13.3028614936
 20
11.5566996522
 30
0.0
 10
13.2985778191
 20
11.5548086643
 30
0.0
 10
13.2940868055
 20
11.5529501019
 30
0.0
 10
13.2893920847
 20
11.5511254932
 30
0.0
 10
13.2827587198
 20
11.5487008849
 30
0.0
 10
13.2739795557
 20
11.5457754763
 30
0.0
 10
13.2628601713
 20
11.5424773614
 30
0.0
 10
13.251029139
 20
11.5393483528
 30
0.0
 10
13.2385250681
 20
11.5363987952
 30
0.0
 10
13.2253886577
 20
11.5336384518
 30
0.0
 10
13.2116627932
 20
11.5310764636
 30
0.0
 10
13.1973923117
 20
11.528721316
 30
0.0
 10
13.1826238756
 20
11.5265808129
 30
0.0
 10
13.1674058109
 20
11.5246620267
 30
0.0
 10
13.1517879377
 20
11.5229712972
 30
0.0
 10
13.1358213945
 20
11.5215142124
 30
0.0
 10
13.1195584712
 20
11.5202955927
 30
0.0
 10
13.1030524418
 20
11.5193194683
 30
0.0
 10
13.0863573837
 20
11.5185890518
 30
0.0
 10
13.0695280007
 20
11.5181067545
 30
0.0
 10
13.0526194356
 20
11.5178741685
 30
0.0
 10
13.0356870692
 20
11.5178920674
 30
0.0
 10
13.0187864877
 20
11.518160407
 30
0.0
 10
13.0019728021
 20
11.5186782515
 30
0.0
 10
12.9853014689
 20
11.5194439629
 30
0.0
 10
12.9742460363
 20
11.5201223833
 30
0.0
 10
12.9687521328
 20
11.5205033868
 30
0.0
  0
SPLINE
  5
39B
100
AcDbEntity
  8
0
100
AcDbSpline
 62
7
  6
CONTINUOUS
 70
0
 71
3
 72
49
 73
45
 74
0
 42
0.0000001
 43
0.0000001
 44
0.0000000001
 40
0.0
 40
0.0
 40
0.0
 40
0.0
 40
0.0055575652
 40
0.0111779989
 40
0.0169219414
 40
0.0228458413
 40
0.0290005862
 40
0.0354310054
 40
0.0421754419
 40
0.0492662547
 40
0.0567303348
 40
0.0645894055
 40
0.0728610837
 40
0.081559144
 40
0.0906940366
 40
0.1002736841
 40
0.1103033552
 40
0.1207863534
 40
0.131724296
 40
0.1431169483
 40
0.1549629335
 40
0.167259542
 40
0.1931868013
 40
0.2208582139
 40
0.2502183164
 40
0.281200247
 40
0.3137274299
 40
0.3477148798
 40
0.3830701696
 40
0.4196941701
 40
0.4574819135
 40
0.4963233105
 40
0.5361037302
 40
0.5767045149
 40
0.6180036379
 40
0.6598762574
 40
0.7021952159
 40
0.7448315601
 40
0.7876550186
 40
0.8305347645
 40
0.873339678
 40
0.9159378915
 40
0.9582026976
 40
1.0
 40
1.0
 40
1.0
 40
1.0
 10
10.8601563944
 20
11.3362751263
 30
0.0
 10
10.8601564001
 20
11.3356566737
 30
0.0
 10
10.8600871511
 20
11.3344116971
 30
0.0
 10
10.8597764487
 20
11.3325508659
 30
0.0
 10
10.8592593074
 20
11.3306941889
 30
0.0
 10
10.8585367651
 20
11.3288438278
 30
0.0
 10
10.85761008
 20
11.3270012397
 30
0.0
 10
10.8564803781
 20
11.3251679036
 30
0.0
 10
10.8551490421
 20
11.3233450248
 30
0.0
 10
10.8536173574
 20
11.3215338319
 30
0.0
 10
10.8518866397
 20
11.3197356046
 30
0.0
 10
10.8499584228
 20
11.3179515036
 30
0.0
 10
10.8478342126
 20
11.3161828717
 30
0.0
 10
10.8455157235
 20
11.3144310063
 30
0.0
 10
10.8430048316
 20
11.3126971805
 30
0.0
 10
10.8403034879
 20
11.3109828188
 30
0.0
 10
10.8374138889
 20
11.3092892044
 30
0.0
 10
10.8343383435
 20
11.3076176907
 30
0.0
 10
10.8310793046
 20
11.3059696701
 30
0.0
 10
10.8276394341
 20
11.3043464044
 30
0.0
 10
10.8240214895
 20
11.3027492416
 30
0.0
 10
10.8188726914
 20
11.3006185327
 30
0.0
 10
10.8120060675
 20
11.2980390059
 30
0.0
 10
10.8032460919
 20
11.2951197991
 30
0.0
 10
10.7938546136
 20
11.2923342197
 30
0.0
 10
10.78386222
 20
11.2896914525
 30
0.0
 10
10.7733013425
 20
11.2872002402
 30
0.0
 10
10.7622063969
 20
11.2848688365
 30
0.0
 10
10.7506135799
 20
11.2827049796
 30
0.0
 10
10.7385607756
 20
11.2807158209
 30
0.0
 10
10.7260874036
 20
11.2789079369
 30
0.0
 10
10.713234273
 20
11.2772873114
 30
0.0
 10
10.7000434538
 20
11.2758593178
 30
0.0
 10
10.6865581424
 20
11.2746286636
 30
0.0
 10
10.67282251
 20
11.2735994087
 30
0.0
 10
10.6588815492
 20
11.2727749565
 30
0.0
 10
10.6447809297
 20
11.272158043
 30
0.0
 10
10.6305668585
 20
11.2717506948
 30
0.0
 10
10.6162859048
 20
11.2715542469
 30
0.0
 10
10.6019848506
 20
11.2715693549
 30
0.0
 10
10.5877106531
 20
11.2717959914
 30
0.0
 10
10.5735098036
 20
11.2722333595
 30
0.0
 10
10.5594292173
 20
11.2728800836
 30
0.0
 10
10.5500917983
 20
11.2734530726
 30
0.0
 10
10.5454516886
 20
11.2737748653
 30
0.0
  0
SPLINE
  5
39C
100
AcDbEntity
  8
0
100
AcDbSpline
 62
7
  6
CONTINUOUS
 70
0
 71
3
 72
49
 73
45
 74
0
 42
0.0000001
 43
0.0000001
 44
0.0000000001
 40
0.0
 40
0.0
 40
0.0
 40
0.0
 40
0.0055575652
 40
0.0111779989
 40
0.0169219414
 40
0.0228458413
 40
0.0290005862
 40
0.0354310054
 40
0.0421754419
 40
0.0492662547
 40
0.0567303348
 40
0.0645894055
 40
0.0728610837
 40
0.081559144
 40
0.0906940366
 40
0.1002736841
 40
0.1103033552
 40
0.1207863534
 40
0.131724296
 40
0.1431169483
 40
0.1549629335
 40
0.167259542
 40
0.1931868013
 40
0.2208582139
 40
0.2502183164
 40
0.281200247
 40
0.3137274299
 40
0.3477148798
 40
0.3830701696
 40
0.4196941701
 40
0.4574819135
 40
0.4963233105
 40
0.5361037302
 40
0.5767045149
 40
0.6180036379
 40
0.6598762574
 40
0.7021952159
 40
0.7448315601
 40
0.7876550186
 40
0.8305347645
 40
0.873339678
 40
0.9159378915
 40
0.9582026976
 40
1.0
 40
1.0
 40
1.0
 40
1.0
 10
12.4906393659
 20
11.2232007481
 30
0.0
 10
12.4906393716
 20
11.2225822956
 30
0.0
 10
12.4905701226
 20
11.221337319
 30
0.0
 10
12.4902594202
 20
11.2194764878
 30
0.0
 10
12.4897422789
 20
11.2176198108
 30
0.0
 10
12.4890197366
 20
11.2157694497
 30
0.0
 10
12.4880930515
 20
11.2139268616
 30
0.0
 10
12.4869633496
 20
11.2120935254
 30
0.0
 10
12.4856320136
 20
11.2102706467
 30
0.0
 10
12.484100329
 20
11.2084594537
 30
0.0
 10
12.4823696112
 20
11.2066612265
 30
0.0
 10
12.4804413943
 20
11.2048771255
 30
0.0
 10
12.4783171841
 20
11.2031084935
 30
0.0
 10
12.475998695
 20
11.2013566281
 30
0.0
 10
12.4734878031
 20
11.1996228023
 30
0.0
 10
12.4707864594
 20
11.1979084407
 30
0.0
 10
12.4678968604
 20
11.1962148263
 30
0.0
 10
12.4648213151
 20
11.1945433126
 30
0.0
 10
12.4615622761
 20
11.192895292
 30
0.0
 10
12.4581224056
 20
11.1912720262
 30
0.0
 10
12.4545044611
 20
11.1896748635
 30
0.0
 10
12.449355663
 20
11.1875441546
 30
0.0
 10
12.442489039
 20
11.1849646278
 30
0.0
 10
12.4337290635
 20
11.182045421
 30
0.0
 10
12.4243375851
 20
11.1792598416
 30
0.0
 10
12.4143451915
 20
11.1766170744
 30
0.0
 10
12.4037843141
 20
11.174125862
 30
0.0
 10
12.3926893684
 20
11.1717944584
 30
0.0
 10
12.3810965514
 20
11.1696306015
 30
0.0
 10
12.3690437472
 20
11.1676414427
 30
0.0
 10
12.3565703751
 20
11.1658335588
 30
0.0
 10
12.3437172445
 20
11.1642129333
 30
0.0
 10
12.3305264254
 20
11.1627849397
 30
0.0
 10
12.317041114
 20
11.1615542854
 30
0.0
 10
12.3033054815
 20
11.1605250306
 30
0.0
 10
12.2893645207
 20
11.1597005784
 30
0.0
 10
12.2752639012
 20
11.1590836648
 30
0.0
 10
12.2610498301
 20
11.1586763167
 30
0.0
 10
12.2467688764
 20
11.1584798688
 30
0.0
 10
12.2324678221
 20
11.1584949768
 30
0.0
 10
12.2181936246
 20
11.1587216132
 30
0.0
 10
12.2039927751
 20
11.1591589813
 30
0.0
 10
12.1899121888
 20
11.1598057055
 30
0.0
 10
12.1805747698
 20
11.1603786945
 30
0.0
 10
12.1759346602
 20
11.1607004872
 30
0.0
  0
SPLINE
  5
39D
100
AcDbEntity
  8
0
100
AcDbSpline
 62
7
  6
CONTINUOUS
 70
0
 71
3
 72
16
 73
12
 74
0
 42
0.0000001
 43
0.0000001
 44
0.0000000001
 40
0.0
 40
0.0
 40
0.0
 40
0.0
 40
0.1095881437
 40
0.2212428653
 40
0.3363046808
 40
0.4559901287
 40
0.5179233198
 40
0.5813998283
 40
0.7133840737
 40
0.8527213454
 40
1.0
 40
1.0
 40
1.0
 40
1.0
 10
11.4898629829
 20
11.0993131125
 30
0.0
 10
11.4898276663
 20
11.0986418941
 30
0.0
 10
11.4896744621
 20
11.0972897973
 30
0.0
 10
11.4892030792
 20
11.0952772842
 30
0.0
 10
11.4884903406
 20
11.0932714231
 30
0.0
 10
11.4877053558
 20
11.0916262622
 30
0.0
 10
11.4869639459
 20
11.090318068
 30
0.0
 10
11.4861239742
 20
11.0889808062
 30
0.0
 10
11.4849189937
 20
11.0873149316
 30
0.0
 10
11.4832567641
 20
11.085355449
 30
0.0
 10
11.4820286364
 20
11.0840955967
 30
0.0
 10
11.4813789211
 20
11.0834680199
 30
0.0
  0
SPLINE
  5
39E
100
AcDbEntity
  8
0
100
AcDbSpline
 62
7
  6
CONTINUOUS
 70
0
 71
3
 72
41
 73
37
 74
0
 42
0.0000001
 43
0.0000001
 44
0.0000000001
 40
0.0
 40
0.0
 40
0.0
 40
0.0
 40
0.0055577021
 40
0.0111783149
 40
0.0169224622
 40
0.0228465274
 40
0.0354205341
 40
0.042165193
 40
0.0492562987
 40
0.0567206954
 40
0.0645800604
 40
0.0728520219
 40
0.0815504586
 40
0.0906857096
 40
0.1002656193
 40
0.1102957279
 40
0.1207791215
 40
0.1431083788
 40
0.167250025
 40
0.1931782108
 40
0.2208504721
 40
0.250211413
 40
0.2811942906
 40
0.3137223557
 40
0.3477107955
 40
0.3830670634
 40
0.4196919721
 40
0.4574807647
 40
0.4963231841
 40
0.5361045751
 40
0.5767064164
 40
0.6598776408
 40
0.7448325676
 40
0.830535762
 40
0.9159380013
 40
1.0
 40
1.0
 40
1.0
 40
1.0
 10
12.5592250716
 20
10.967360084
 30
0.0
 10
12.5592250686
 20
10.9670384902
 30
0.0
 10
12.5591890708
 20
10.9663910994
 30
0.0
 10
12.5590274442
 20
10.9654234858
 30
0.0
 10
12.5587584574
 20
10.9644579868
 30
0.0
 10
12.5582475662
 20
10.9631494718
 30
0.0
 10
12.5575229389
 20
10.9618711965
 30
0.0
 10
12.5566211032
 20
10.9606365723
 30
0.0
 10
12.5558245206
 20
10.9596946291
 30
0.0
 10
12.5549245386
 20
10.9587595999
 30
0.0
 10
12.5539218386
 20
10.9578318624
 30
0.0
 10
12.5528172355
 20
10.9569121757
 30
0.0
 10
12.5516115901
 20
10.9560012213
 30
0.0
 10
12.5503059048
 20
10.9550996446
 30
0.0
 10
12.5489012003
 20
10.9542081659
 30
0.0
 10
12.5473985793
 20
10.9533274998
 30
0.0
 10
12.5452200544
 20
10.9521435941
 30
0.0
 10
12.5422545569
 20
10.9507016576
 30
0.0
 10
12.5383987861
 20
10.9490598898
 30
0.0
 10
12.5341864662
 20
10.9474774614
 30
0.0
 10
12.5296312206
 20
10.9459594866
 30
0.0
 10
12.5247476608
 20
10.9445109921
 30
0.0
 10
12.5195516102
 20
10.9431367792
 30
0.0
 10
12.5140599581
 20
10.9418413517
 30
0.0
 10
12.5082905911
 20
10.9406290428
 30
0.0
 10
12.5022623381
 20
10.9395038553
 30
0.0
 10
12.4959948987
 20
10.9384694901
 30
0.0
 10
12.4895087626
 20
10.937529412
 30
0.0
 10
12.4828251589
 20
10.9366867056
 30
0.0
 10
12.47596595
 20
10.935944133
 30
0.0
 10
12.4665407408
 20
10.9350840822
 30
0.0
 10
12.4544873353
 20
10.9342807745
 30
0.0
 10
12.4398070112
 20
10.9337521583
 30
0.0
 10
12.4249882898
 20
10.933658603
 30
0.0
 10
12.4102250805
 20
10.9340012683
 30
0.0
 10
12.4004311964
 20
10.9345237476
 30
0.0
 10
12.3955786443
 20
10.9348602733
 30
0.0
  0
SPLINE
  5
39F
100
AcDbEntity
  8
0
100
AcDbSpline
 62
7
  6
CONTINUOUS
 70
0
 71
3
 72
43
 73
39
 74
0
 42
0.0000001
 43
0.0000001
 44
0.0000000001
 40
0.0
 40
0.0
 40
0.0
 40
0.0
 40
0.005557639
 40
0.0111781648
 40
0.0169221774
 40
0.0228461969
 40
0.0290010882
 40
0.0354315617
 40
0.0421761723
 40
0.049267164
 40
0.0567312921
 40
0.0645905885
 40
0.0728624463
 40
0.0815605759
 40
0.0906957269
 40
0.1002755451
 40
0.1103053255
 40
0.1207885821
 40
0.1317267034
 40
0.1431195082
 40
0.1672608933
 40
0.1931885381
 40
0.2208603936
 40
0.2502209791
 40
0.2812032919
 40
0.3137309535
 40
0.3477189478
 40
0.3830746578
 40
0.4196991458
 40
0.4574874299
 40
0.4963293103
 40
0.536110245
 40
0.5767115512
 40
0.659881757
 40
0.7448356556
 40
0.8305377517
 40
0.9159390535
 40
1.0
 40
1.0
 40
1.0
 40
1.0
 10
13.0542047936
 20
11.4203598806
 30
0.0
 10
13.0542047936
 20
11.4199739668
 30
0.0
 10
13.05416156
 20
11.4191971015
 30
0.0
 10
13.0539676402
 20
11.4180359526
 30
0.0
 10
13.0536449628
 20
11.4168773795
 30
0.0
 10
13.0531940596
 20
11.4157227608
 30
0.0
 10
13.0526157659
 20
11.4145730059
 30
0.0
 10
13.0519108603
 20
11.4134289796
 30
0.0
 10
13.0510800631
 20
11.4122915235
 30
0.0
 10
13.050124264
 20
11.4111613576
 30
0.0
 10
13.0490443164
 20
11.4100392322
 30
0.0
 10
13.0478410686
 20
11.4089259848
 30
0.0
 10
13.0465155471
 20
11.4078223663
 30
0.0
 10
13.0450688178
 20
11.4067291772
 30
0.0
 10
13.0435019899
 20
11.4056473033
 30
0.0
 10
13.0418163439
 20
11.4045775406
 30
0.0
 10
13.0400132338
 20
11.4035207115
 30
0.0
 10
13.0380940734
 20
11.4024777155
 30
0.0
 10
13.0360604257
 20
11.4014493364
 30
0.0
 10
13.033141755
 20
11.4000720842
 30
0.0
 10
13.0292134117
 20
11.3983995862
 30
0.0
 10
13.0241587677
 20
11.3965006274
 30
0.0
 10
13.0186924437
 20
11.3946790563
 30
0.0
 10
13.0128321817
 20
11.3929408733
 30
0.0
 10
13.0065969246
 20
11.391291781
 30
0.0
 10
13.0000069397
 20
11.3897372742
 30
0.0
 10
12.993083693
 20
11.388282502
 30
0.0
 10
12.9858497852
 20
11.3869322485
 30
0.0
 10
12.9783288469
 20
11.3856910204
 30
0.0
 10
12.9705454713
 20
11.3845629171
 30
0.0
 10
12.9625251345
 20
11.3835516498
 30
0.0
 10
12.9542940669
 20
11.3826605739
 30
0.0
 10
12.94298379
 20
11.3816284925
 30
0.0
 10
12.9285196689
 20
11.3806645274
 30
0.0
 10
12.9109032395
 20
11.3800301717
 30
0.0
 10
12.8931207248
 20
11.3799179025
 30
0.0
 10
12.8754048272
 20
11.3803291036
 30
0.0
 10
12.8636521313
 20
11.3809560788
 30
0.0
 10
12.8578290559
 20
11.3813599105
 30
0.0
  0
SPLINE
  5
3A0
100
AcDbEntity
  8
0
100
AcDbSpline
 62
7
  6
CONTINUOUS
 70
0
 71
3
 72
41
 73
37
 74
0
 42
0.0000001
 43
0.0000001
 44
0.0000000001
 40
0.0
 40
0.0
 40
0.0
 40
0.0
 40
0.0055577021
 40
0.0111783149
 40
0.0169224622
 40
0.0228465274
 40
0.0354205341
 40
0.042165193
 40
0.0492562987
 40
0.0567206954
 40
0.0645800604
 40
0.0728520219
 40
0.0815504586
 40
0.0906857096
 40
0.1002656193
 40
0.1102957279
 40
0.1207791215
 40
0.1431083788
 40
0.167250025
 40
0.1931782108
 40
0.2208504721
 40
0.250211413
 40
0.2811942906
 40
0.3137223557
 40
0.3477107955
 40
0.3830670634
 40
0.4196919721
 40
0.4574807647
 40
0.4963231841
 40
0.5361045751
 40
0.5767064164
 40
0.6598776408
 40
0.7448325676
 40
0.830535762
 40
0.9159380013
 40
1.0
 40
1.0
 40
1.0
 40
1.0
 10
11.555397919
 20
11.27973746
 30
0.0
 10
11.555397916
 20
11.2794158662
 30
0.0
 10
11.5553619183
 20
11.2787684754
 30
0.0
 10
11.5552002917
 20
11.2778008618
 30
0.0
 10
11.5549313048
 20
11.2768353628
 30
0.0
 10
11.5544204136
 20
11.2755268479
 30
0.0
 10
11.5536957863
 20
11.2742485725
 30
0.0
 10
11.5527939506
 20
11.2730139483
 30
0.0
 10
11.551997368
 20
11.2720720051
 30
0.0
 10
11.551097386
 20
11.2711369759
 30
0.0
 10
11.5500946861
 20
11.2702092384
 30
0.0
 10
11.5489900829
 20
11.2692895517
 30
0.0
 10
11.5477844375
 20
11.2683785973
 30
0.0
 10
11.5464787522
 20
11.2674770206
 30
0.0
 10
11.5450740478
 20
11.2665855419
 30
0.0
 10
11.5435714267
 20
11.2657048758
 30
0.0
 10
11.5413929018
 20
11.2645209701
 30
0.0
 10
11.5384274044
 20
11.2630790336
 30
0.0
 10
11.5345716336
 20
11.2614372658
 30
0.0
 10
11.5303593136
 20
11.2598548374
 30
0.0
 10
11.5258040681
 20
11.2583368626
 30
0.0
 10
11.5209205083
 20
11.2568883681
 30
0.0
 10
11.5157244576
 20
11.2555141552
 30
0.0
 10
11.5102328056
 20
11.2542187277
 30
0.0
 10
11.5044634385
 20
11.2530064188
 30
0.0
 10
11.4984351856
 20
11.2518812313
 30
0.0
 10
11.4921677461
 20
11.2508468661
 30
0.0
 10
11.48568161
 20
11.249906788
 30
0.0
 10
11.4789980064
 20
11.2490640816
 30
0.0
 10
11.4721387974
 20
11.248321509
 30
0.0
 10
11.4627135882
 20
11.2474614582
 30
0.0
 10
11.4506601828
 20
11.2466581505
 30
0.0
 10
11.4359798586
 20
11.2461295343
 30
0.0
 10
11.4211611373
 20
11.246035979
 30
0.0
 10
11.4063979279
 20
11.2463786443
 30
0.0
 10
11.3966040439
 20
11.2469011236
 30
0.0
 10
11.3917514917
 20
11.2472376493
 30
0.0
  0
SPLINE
  5
3A1
100
AcDbEntity
  8
0
100
AcDbSpline
 62
7
  6
CONTINUOUS
 70
0
 71
3
 72
71
 73
67
 74
0
 42
0.0000001
 43
0.0000001
 44
0.0000000001
 40
0.0
 40
0.0
 40
0.0
 40
0.0
 40
0.0155450004
 40
0.031134391
 40
0.0467663148
 40
0.0624406153
 40
0.078156142
 40
0.0939115732
 40
0.1097054989
 40
0.1255362587
 40
0.1414020183
 40
0.1573007816
 40
0.1732303865
 40
0.1891885222
 40
0.2051727445
 40
0.2211804846
 40
0.2372090614
 40
0.253255698
 40
0.2693175318
 40
0.2853916291
 40
0.3014750011
 40
0.3175646152
 40
0.3336574086
 40
0.3497503057
 40
0.3658402302
 40
0.3819241179
 40
0.3979989344
 40
0.414061687
 40
0.430109437
 40
0.4461393178
 40
0.4621485466
 40
0.4781344344
 40
0.4940944044
 40
0.510026004
 40
0.5259269136
 40
0.5417949611
 40
0.5576281355
 40
0.5734245937
 40
0.5891826743
 40
0.6049009079
 40
0.6205780215
 40
0.6362129509
 40
0.6518048512
 40
0.6673530963
 40
0.6828572854
 40
0.6983172562
 40
0.7137330801
 40
0.7291050626
 40
0.7444337522
 40
0.7597199371
 40
0.7749646386
 40
0.7901691135
 40
0.8053348488
 40
0.8204635513
 40
0.8355571452
 40
0.8506177616
 40
0.8656477229
 40
0.8806495354
 40
0.8956258807
 40
0.9105795851
 40
0.925513607
 40
0.9404310845
 40
0.9553351363
 40
0.9702289439
 40
0.9851165389
 40
1.0
 40
1.0
 40
1.0
 40
1.0
 10
9.874842247
 20
8.4724676484
 30
0.0
 10
9.8875503449
 20
8.4715863388
 30
0.0
 10
9.9129730539
 20
8.4693572606
 30
0.0
 10
9.9510118006
 20
8.4646298493
 30
0.0
 10
9.9889607501
 20
8.4585190441
 30
0.0
 10
10.0267676471
 20
8.4510327528
 30
0.0
 10
10.0643821549
 20
8.4421803471
 30
0.0
 10
10.1017534166
 20
8.4319732052
 30
0.0
 10
10.1388309828
 20
8.4204245015
 30
0.0
 10
10.1755648033
 20
8.4075492861
 30
0.0
 10
10.2119052583
 20
8.3933645085
 30
0.0
 10
10.2478031979
 20
8.3778888028
 30
0.0
 10
10.2832100573
 20
8.3611426173
 30
0.0
 10
10.3180779691
 20
8.3431482596
 30
0.0
 10
10.3523597347
 20
8.3239296518
 30
0.0
 10
10.3860089222
 20
8.3035123876
 30
0.0
 10
10.4189800334
 20
8.2819238518
 30
0.0
 10
10.451228444
 20
8.259192965
 30
0.0
 10
10.4827104614
 20
8.2353501646
 30
0.0
 10
10.513383536
 20
8.2104275584
 30
0.0
 10
10.5432061993
 20
8.1844586997
 30
0.0
 10
10.572138073
 20
8.1574785052
 30
0.0
 10
10.6001400881
 20
8.1295233877
 30
0.0
 10
10.6271744673
 20
8.1006311064
 30
0.0
 10
10.6532046747
 20
8.0708406252
 30
0.0
 10
10.6781956089
 20
8.0401921969
 30
0.0
 10
10.7021136662
 20
8.0087272992
 30
0.0
 10
10.724926627
 20
7.9764884504
 30
0.0
 10
10.7466037977
 20
7.9435192364
 30
0.0
 10
10.7671161687
 20
7.9098643129
 30
0.0
 10
10.7864362506
 20
7.8755692054
 30
0.0
 10
10.8045381484
 20
7.8406802848
 30
0.0
 10
10.8213977986
 20
7.8052448008
 30
0.0
 10
10.8369927875
 20
7.7693106924
 30
0.0
 10
10.8513023563
 20
7.7329265273
 30
0.0
 10
10.8643076639
 20
7.6961415274
 30
0.0
 10
10.8759916479
 20
7.659005418
 30
0.0
 10
10.8863389499
 20
7.6215683368
 30
0.0
 10
10.8953361575
 20
7.5838808324
 30
0.0
 10
10.9029717558
 20
7.5459937577
 30
0.0
 10
10.9092359673
 20
7.5079581646
 30
0.0
 10
10.9141209427
 20
7.4698252724
 30
0.0
 10
10.9176208197
 20
7.4316463864
 30
0.0
 10
10.9197314955
 20
7.3934727992
 30
0.0
 10
10.9204507397
 20
7.3553557394
 30
0.0
 10
10.9197783566
 20
7.3173462928
 30
0.0
 10
10.9177159162
 20
7.2794953206
 30
0.0
 10
10.9142667845
 20
7.2418534082
 30
0.0
 10
10.9094363545
 20
7.2044707679
 30
0.0
 10
10.9032317746
 20
7.1673971823
 30
0.0
 10
10.8956619065
 20
7.1306819627
 30
0.0
 10
10.8867375662
 20
7.0943738329
 30
0.0
 10
10.8764713088
 20
7.0585208908
 30
0.0
 10
10.8648773093
 20
7.0231705872
 30
0.0
 10
10.8519715784
 20
6.9883695978
 30
0.0
 10
10.8377718356
 20
6.9541637822
 30
0.0
 10
10.8222973223
 20
6.9205982022
 30
0.0
 10
10.8055689727
 20
6.8877169887
 30
0.0
 10
10.7876093747
 20
6.855563282
 30
0.0
 10
10.7684425504
 20
6.8241792918
 30
0.0
 10
10.7480940578
 20
6.7936061452
 30
0.0
 10
10.7265910061
 20
6.763883881
 30
0.0
 10
10.7039620092
 20
6.7350515304
 30
0.0
 10
10.6802365741
 20
6.7071463692
 30
0.0
 10
10.6554467469
 20
6.6802060471
 30
0.0
 10
10.6382303962
 20
6.6629102744
 30
0.0
 10
10.6294579999
 20
6.6544367898
 30
0.0
  0
SPLINE
  5
3A2
100
AcDbEntity
  8
0
100
AcDbSpline
 62
7
  6
CONTINUOUS
 70
0
 71
3
 72
26
 73
22
 74
0
 42
0.0000001
 43
0.0000001
 44
0.0000000001
 40
0.0
 40
0.0
 40
0.0
 40
0.0
 40
0.061528027
 40
0.1230828525
 40
0.1846897449
 40
0.2463747365
 40
0.3081621291
 40
0.3700753941
 40
0.432136433
 40
0.4943655122
 40
0.5567809981
 40
0.6193991855
 40
0.6507914229
 40
0.6822394278
 40
0.7137445797
 40
0.7453080988
 40
0.8086093962
 40
0.8721550962
 40
0.9040233918
 40
0.9359550101
 40
1.0
 40
1.0
 40
1.0
 40
1.0
 10
9.1288053182
 20
8.2080266742
 30
0.0
 10
9.1408304104
 20
8.2196420219
 30
0.0
 10
9.1655163742
 20
8.2422350404
 30
0.0
 10
9.2043236115
 20
8.2740919323
 30
0.0
 10
9.2448214313
 20
8.3038445741
 30
0.0
 10
9.2869085131
 20
8.3314177109
 30
0.0
 10
9.3304816846
 20
8.3567428644
 30
0.0
 10
9.3754333798
 20
8.3797564562
 30
0.0
 10
9.4216526709
 20
8.4004004549
 30
0.0
 10
9.4690255556
 20
8.4186225138
 30
0.0
 10
9.5174338997
 20
8.4343758556
 30
0.0
 10
9.5585052563
 20
8.4454037848
 30
0.0
 10
9.5917517963
 20
8.4529561709
 30
0.0
 10
9.6168926994
 20
8.4579862357
 30
0.0
 10
9.6422009073
 20
8.4623734696
 30
0.0
 10
9.6761772924
 20
8.4673665268
 30
0.0
 10
9.7189936209
 20
8.4719829379
 30
0.0
 10
9.762071661
 20
8.474417462
 30
0.0
 10
9.7966722902
 20
8.475059486
 30
0.0
 10
9.8314130651
 20
8.4748285988
 30
0.0
 10
9.8574811927
 20
8.4736716416
 30
0.0
 10
9.874842247
 20
8.4724676484
 30
0.0
  0
SPLINE
  5
3A3
100
AcDbEntity
  8
0
100
AcDbSpline
 62
7
  6
CONTINUOUS
 70
0
 71
3
 72
19
 73
15
 74
0
 42
0.0000001
 43
0.0000001
 44
0.0000000001
 40
0.0
 40
0.0
 40
0.0
 40
0.0
 40
0.1059628013
 40
0.2184943229
 40
0.3377388735
 40
0.4635082023
 40
0.5286298511
 40
0.5950200501
 40
0.6624251045
 40
0.7305076668
 40
0.7988420608
 40
0.8669212928
 40
0.9341733926
 40
1.0
 40
1.0
 40
1.0
 40
1.0
 10
10.9069893483
 20
7.1915502481
 30
0.0
 10
10.9005471117
 20
7.1874933295
 30
0.0
 10
10.8871589635
 20
7.179292231
 30
0.0
 10
10.8661277175
 20
7.1671811571
 30
0.0
 10
10.8434773829
 20
7.1550521549
 30
0.0
 10
10.8234688547
 20
7.145231779
 30
0.0
 10
10.8066346692
 20
7.1375927621
 30
0.0
 10
10.7934922164
 20
7.1319742783
 30
0.0
 10
10.7800227321
 20
7.1265895
 30
0.0
 10
10.7662891699
 20
7.1215010883
 30
0.0
 10
10.7523752366
 20
7.1167752275
 30
0.0
 10
10.7383850028
 20
7.1124781702
 30
0.0
 10
10.724440041
 20
7.1086715
 30
0.0
 10
10.7151343122
 20
7.1064650076
 30
0.0
 10
10.7105132919
 20
7.1054578237
 30
0.0
  0
SPLINE
  5
3A4
100
AcDbEntity
  8
0
100
AcDbSpline
 62
7
  6
CONTINUOUS
 70
0
 71
3
 72
27
 73
23
 74
0
 42
0.0000001
 43
0.0000001
 44
0.0000000001
 40
0.0
 40
0.0
 40
0.0
 40
0.0
 40
0.0616468907
 40
0.092480322
 40
0.1233223719
 40
0.1850380851
 40
0.2468218543
 40
0.2777487732
 40
0.3087006885
 40
0.3706840806
 40
0.4327968338
 40
0.4950568299
 40
0.5574803454
 40
0.6200818982
 40
0.6828740966
 40
0.7143476593
 40
0.7458726853
 40
0.8090759524
 40
0.8724945271
 40
0.9042888332
 40
0.9361396979
 40
1.0
 40
1.0
 40
1.0
 40
1.0
 10
11.2377640487
 20
5.2272504512
 30
0.0
 10
11.2293475176
 20
5.2191206779
 30
0.0
 10
11.2163897174
 20
5.2072611437
 30
0.0
 10
11.1984970368
 20
5.1921639819
 30
0.0
 10
11.1801946188
 20
5.1775443672
 30
0.0
 10
11.1565742324
 20
5.160187436
 30
0.0
 10
11.1320442747
 20
5.1441122646
 30
0.0
 10
11.1119090564
 20
5.132041872
 30
0.0
 10
11.0914260464
 20
5.1204943036
 30
0.0
 10
11.0652177086
 20
5.1070703912
 30
0.0
 10
11.0329073151
 20
5.0926308812
 30
0.0
 10
10.9998010182
 20
5.0798880795
 30
0.0
 10
10.9659826247
 20
5.0688742876
 30
0.0
 10
10.9315377528
 20
5.0596171785
 30
0.0
 10
10.9024047927
 20
5.0533907649
 30
0.0
 10
10.8788767409
 20
5.0493074194
 30
0.0
 10
10.8551741097
 20
5.0458196681
 30
0.0
 10
10.8253144514
 20
5.0425951789
 30
0.0
 10
10.7952785199
 20
5.040893668
 30
0.0
 10
10.7711612468
 20
5.0404438332
 30
0.0
 10
10.7469569531
 20
5.0406030347
 30
0.0
 10
10.7287969656
 20
5.0414083151
 30
0.0
 10
10.7167041019
 20
5.0422469581
 30
0.0
  0
SPLINE
  5
3A5
100
AcDbEntity
  8
0
100
AcDbSpline
 62
7
  6
CONTINUOUS
 70
0
 71
3
 72
41
 73
37
 74
0
 42
0.0000001
 43
0.0000001
 44
0.0000000001
 40
0.0
 40
0.0
 40
0.0
 40
0.0
 40
0.031870725
 40
0.0636345774
 40
0.0952908055
 40
0.1268435568
 40
0.1425832819
 40
0.158298465
 40
0.1896552652
 40
0.2209221109
 40
0.2521055327
 40
0.2832129457
 40
0.3142525404
 40
0.3452332206
 40
0.3761645114
 40
0.4070564603
 40
0.437919531
 40
0.4687644936
 40
0.4996023129
 40
0.5304440319
 40
0.5613006517
 40
0.5921830127
 40
0.6231016792
 40
0.6540668309
 40
0.6850881569
 40
0.7161747545
 40
0.7473350357
 40
0.7785766414
 40
0.809906387
 40
0.8413301596
 40
0.857080137
 40
0.8728554176
 40
0.9044812232
 40
0.9362124658
 40
0.9680525581
 40
1.0
 40
1.0
 40
1.0
 40
1.0
 10
11.3652143422
 20
5.7051041975
 30
0.0
 10
11.3652143422
 20
5.6942501673
 30
0.0
 10
11.3646831282
 20
5.6725746759
 30
0.0
 10
11.3622853885
 20
5.6401979397
 30
0.0
 10
11.3582934276
 20
5.6080874874
 30
0.0
 10
11.3536425093
 20
5.5815932244
 30
0.0
 10
11.3491348619
 20
5.5606118306
 30
0.0
 10
11.344114001
 20
5.5398159712
 30
0.0
 10
11.3368677445
 20
5.5141264818
 30
0.0
 10
11.326633094
 20
5.4838485106
 30
0.0
 10
11.3148898384
 20
5.4542138957
 30
0.0
 10
11.3016663489
 20
5.4252946013
 30
0.0
 10
11.2869943688
 20
5.3971602714
 30
0.0
 10
11.2709092691
 20
5.3698787954
 30
0.0
 10
11.2534498148
 20
5.3435159639
 30
0.0
 10
11.2346580766
 20
5.3181353789
 30
0.0
 10
11.2145793245
 20
5.2937982919
 30
0.0
 10
11.1932619559
 20
5.2705634351
 30
0.0
 10
11.1707574171
 20
5.2484868282
 30
0.0
 10
11.1471199929
 20
5.2276217138
 30
0.0
 10
11.1224066956
 20
5.2080184171
 30
0.0
 10
11.0966771163
 20
5.1897242451
 30
0.0
 10
11.0699933456
 20
5.1727832815
 30
0.0
 10
11.0424197751
 20
5.1572363228
 30
0.0
 10
11.0140229235
 20
5.1431208185
 30
0.0
 10
10.9848712678
 20
5.1304707769
 30
0.0
 10
10.9550351467
 20
5.1193166835
 30
0.0
 10
10.924586402
 20
5.1096852927
 30
0.0
 10
10.8935989554
 20
5.1015998423
 30
0.0
 10
10.8674079148
 20
5.0961702884
 30
0.0
 10
10.8462644606
 20
5.0926158865
 30
0.0
 10
10.8249701151
 20
5.0895849462
 30
0.0
 10
10.798153138
 20
5.0867938075
 30
0.0
 10
10.7657662218
 20
5.0850479672
 30
0.0
 10
10.7332235794
 20
5.0849071107
 30
0.0
 10
10.7115114219
 20
5.0858816412
 30
0.0
 10
10.7006573344
 20
5.0866343747
 30
0.0
  0
SPLINE
  5
3A6
100
AcDbEntity
  8
0
100
AcDbSpline
 62
7
  6
CONTINUOUS
 70
0
 71
3
 72
26
 73
22
 74
0
 42
0.0000001
 43
0.0000001
 44
0.0000000001
 40
0.0
 40
0.0
 40
0.0
 40
0.0
 40
0.0637762166
 40
0.1273429375
 40
0.1906991235
 40
0.2538523393
 40
0.2853569189
 40
0.3168132585
 40
0.3795812214
 40
0.4421715787
 40
0.5045965934
 40
0.5668701917
 40
0.6290077786
 40
0.6910261214
 40
0.7219986725
 40
0.7529482414
 40
0.8147830237
 40
0.8765553495
 40
0.9074270139
 40
0.9382907776
 40
1.0
 40
1.0
 40
1.0
 40
1.0
 10
11.4411485146
 20
5.71645098
 30
0.0
 10
11.4411485146
 20
5.704879401
 30
0.0
 10
11.4405946572
 20
5.6817703522
 30
0.0
 10
11.4380947818
 20
5.6472472277
 30
0.0
 10
11.4339325735
 20
5.6129981949
 30
0.0
 10
11.4290828796
 20
5.5847285435
 30
0.0
 10
11.4243820844
 20
5.5623323419
 30
0.0
 10
11.4191454992
 20
5.5401271645
 30
0.0
 10
11.4115870261
 20
5.5126837793
 30
0.0
 10
11.4009092267
 20
5.4803140918
 30
0.0
 10
11.388654497
 20
5.4486035217
 30
0.0
 10
11.3748510721
 20
5.4176255793
 30
0.0
 10
11.3595309723
 20
5.3874520537
 30
0.0
 10
11.3455226411
 20
5.3630237598
 30
0.0
 10
11.3335963468
 20
5.343956525
 30
0.0
 10
11.3212051656
 20
5.3252279567
 30
0.0
 10
11.3048383231
 20
5.3024407313
 30
0.0
 10
11.2873332266
 20
5.2805338747
 30
0.0
 10
11.2726784029
 20
5.2635776442
 30
0.0
 10
11.257600821
 20
5.247012376
 30
0.0
 10
11.2458172001
 20
5.2350292253
 30
0.0
 10
11.2377640487
 20
5.2272504512
 30
0.0
  0
SPLINE
  5
3A7
100
AcDbEntity
  8
0
100
AcDbSpline
 62
7
  6
CONTINUOUS
 70
0
 71
3
 72
69
 73
65
 74
0
 42
0.0000001
 43
0.0000001
 44
0.0000000001
 40
0.0
 40
0.0
 40
0.0
 40
0.0
 40
0.015674738
 40
0.031402856
 40
0.0471814332
 40
0.0630099467
 40
0.0788860976
 40
0.0948073602
 40
0.1107708915
 40
0.1267733886
 40
0.1428112183
 40
0.1588804359
 40
0.1749768159
 40
0.1910958912
 40
0.2072329954
 40
0.2233833081
 40
0.2395418909
 40
0.2557037314
 40
0.2880085705
 40
0.3202664093
 40
0.3363699321
 40
0.3524475833
 40
0.3684950603
 40
0.3845083318
 40
0.40048367
 40
0.4164176829
 40
0.4323073557
 40
0.448150079
 40
0.4639436699
 40
0.4796864003
 40
0.4953770224
 40
0.5110147783
 40
0.5265994099
 40
0.5421311749
 40
0.5576108472
 40
0.5730397086
 40
0.5884195445
 40
0.6037526364
 40
0.619041738
 40
0.6342900478
 40
0.6495011875
 40
0.6646791664
 40
0.6798283385
 40
0.6949533585
 40
0.7100591398
 40
0.7251508008
 40
0.7402336078
 40
0.7553129211
 40
0.7703941413
 40
0.7854826485
 40
0.8005837423
 40
0.8157025881
 40
0.8308441657
 40
0.8460132131
 40
0.8612141762
 40
0.8764511669
 40
0.8917279283
 40
0.9070477907
 40
0.9224136172
 40
0.937827884
 40
0.9532924911
 40
0.9688086216
 40
0.9843782591
 40
1.0
 40
1.0
 40
1.0
 40
1.0
 10
10.097919583
 20
8.7178149104
 30
0.0
 10
10.0914294287
 20
8.7182650041
 30
0.0
 10
10.0784469041
 20
8.7194851659
 30
0.0
 10
10.0590549662
 20
8.7222619367
 30
0.0
 10
10.0397563013
 20
8.7259821552
 30
0.0
 10
10.0205983549
 20
8.730636451
 30
0.0
 10
10.0016267964
 20
8.7362137922
 30
0.0
 10
9.9828874194
 20
8.7427006229
 30
0.0
 10
9.9644253093
 20
8.7500812785
 30
0.0
 10
9.9462849289
 20
8.7583380498
 30
0.0
 10
9.9285099236
 20
8.7674509731
 30
0.0
 10
9.9111430576
 20
8.7773980654
 30
0.0
 10
9.8942261485
 20
8.7881554079
 30
0.0
 10
9.8777999343
 20
8.7996971024
 30
0.0
 10
9.8619038873
 20
8.8119953263
 30
0.0
 10
9.84657635
 20
8.8250203686
 30
0.0
 10
9.8318539402
 20
8.8387413143
 30
0.0
 10
9.8130841714
 20
8.8579131825
 30
0.0
 10
9.7913105593
 20
8.8834436501
 30
0.0
 10
9.7719813784
 20
8.9108421507
 30
0.0
 10
9.7581054192
 20
8.9337154337
 30
0.0
 10
9.7485209598
 20
8.9512972967
 30
0.0
 10
9.7397781858
 20
8.9692704685
 30
0.0
 10
9.7318978257
 20
8.9875920738
 30
0.0
 10
9.7248989785
 20
9.0062179211
 30
0.0
 10
9.7187985547
 20
9.0251032226
 30
0.0
 10
9.7136112118
 20
9.0442024869
 30
0.0
 10
9.7093494593
 20
9.0634697396
 30
0.0
 10
9.7060236587
 20
9.0828586066
 30
0.0
 10
9.7036418505
 20
9.1023223984
 30
0.0
 10
9.7022097565
 20
9.1218142399
 30
0.0
 10
9.7017308894
 20
9.1412871939
 30
0.0
 10
9.7022065162
 20
9.1606943546
 30
0.0
 10
9.7036354714
 20
9.1799889684
 30
0.0
 10
9.7060143404
 20
9.1991245539
 30
0.0
 10
9.7093374964
 20
9.2180549921
 30
0.0
 10
9.7135969882
 20
9.2367346511
 30
0.0
 10
9.718782533
 20
9.2551185175
 30
0.0
 10
9.724881689
 20
9.2731622704
 30
0.0
 10
9.7318798647
 20
9.2908223739
 30
0.0
 10
9.7397601714
 20
9.3080562553
 30
0.0
 10
9.7485036181
 20
9.3248223633
 30
0.0
 10
9.7580891967
 20
9.3410802332
 30
0.0
 10
9.7684938392
 20
9.3567906247
 30
0.0
 10
9.7796924123
 20
9.371915675
 30
0.0
 10
9.7916579287
 20
9.386418896
 30
0.0
 10
9.8043615952
 20
9.4002652484
 30
0.0
 10
9.8177727388
 20
9.4134213568
 30
0.0
 10
9.8318589859
 20
9.4258555184
 30
0.0
 10
9.8465863859
 20
9.4375377177
 30
0.0
 10
9.8619194338
 20
9.4484397479
 30
0.0
 10
9.8778210924
 20
9.4585353889
 30
0.0
 10
9.8942530018
 20
9.4678003186
 30
0.0
 10
9.9111755563
 20
9.4762121551
 30
0.0
 10
9.9285479175
 20
9.4837506664
 30
0.0
 10
9.9463281654
 20
9.4903977577
 30
0.0
 10
9.964473436
 20
9.4961374147
 30
0.0
 10
9.9829399838
 20
9.5009557777
 30
0.0
 10
10.0016832713
 20
9.5048413714
 30
0.0
 10
10.020658137
 20
9.5077848574
 30
0.0
 10
10.0398187161
 20
9.5097791149
 30
0.0
 10
10.0591193098
 20
9.5108195379
 30
0.0
 10
10.0785124038
 20
9.5109034306
 30
0.0
 10
10.0914513723
 20
9.5103227068
 30
0.0
 10
10.097919583
 20
9.5098741349
 30
0.0
  0
SPLINE
  5
3A8
100
AcDbEntity
  8
0
100
AcDbSpline
 62
7
  6
CONTINUOUS
 70
0
 71
3
 72
39
 73
35
 74
0
 42
0.0000001
 43
0.0000001
 44
0.0000000001
 40
0.0
 40
0.0
 40
0.0
 40
0.0
 40
0.0306730466
 40
0.0614497887
 40
0.0923258225
 40
0.1232995021
 40
0.1543663057
 40
0.185521462
 40
0.2167593041
 40
0.2480733921
 40
0.2794566283
 40
0.310901285
 40
0.3423990901
 40
0.3739413052
 40
0.405518803
 40
0.4371221471
 40
0.4687416723
 40
0.5003675737
 40
0.5319899931
 40
0.5635991029
 40
0.5951851887
 40
0.6267387358
 40
0.6582505174
 40
0.6897116734
 40
0.7211137882
 40
0.7524489668
 40
0.78370991
 40
0.814889997
 40
0.84598331
 40
0.8769847454
 40
0.9078901327
 40
0.9386955846
 40
0.9694001122
 40
1.0
 40
1.0
 40
1.0
 40
1.0
 10
9.0102870382
 20
5.2038619529
 30
0.0
 10
8.9993961289
 20
5.20461724
 30
0.0
 10
8.9776108565
 20
5.2066646804
 30
0.0
 10
8.9450702502
 20
5.2113243057
 30
0.0
 10
8.9126862508
 20
5.2175669978
 30
0.0
 10
8.8805382406
 20
5.2253771143
 30
0.0
 10
8.8487030287
 20
5.2347361441
 30
0.0
 10
8.8172574549
 20
5.2456213762
 30
0.0
 10
8.7862771505
 20
5.2580065329
 30
0.0
 10
8.75583669
 20
5.2718617521
 30
0.0
 10
8.7260093416
 20
5.2871536406
 30
0.0
 10
8.6968669162
 20
5.3038453932
 30
0.0
 10
8.668479539
 20
5.3218967656
 30
0.0
 10
8.6409155169
 20
5.3412642597
 30
0.0
 10
8.6142411868
 20
5.3619012373
 30
0.0
 10
8.5885207661
 20
5.3837580324
 30
0.0
 10
8.5638161763
 20
5.4067820371
 30
0.0
 10
8.5401868505
 20
5.4309177903
 30
0.0
 10
8.5176896592
 20
5.4561071901
 30
0.0
 10
8.496378764
 20
5.4822896129
 30
0.0
 10
8.4763055074
 20
5.5094020676
 30
0.0
 10
8.4575182073
 20
5.5373792841
 30
0.0
 10
8.4400620805
 20
5.5661539111
 30
0.0
 10
8.4239791689
 20
5.5956566972
 30
0.0
 10
8.4093082381
 20
5.6258166481
 30
0.0
 10
8.3960846736
 20
5.656561185
 30
0.0
 10
8.3843403055
 20
5.6878162891
 30
0.0
 10
8.3741034504
 20
5.7195067274
 30
0.0
 10
8.365398803
 20
5.7515562111
 30
0.0
 10
8.3582474005
 20
5.7838876481
 30
0.0
 10
8.3526666291
 20
5.8164229891
 30
0.0
 10
8.3486696769
 20
5.8490845089
 30
0.0
 10
8.3462666841
 20
5.8817921082
 30
0.0
 10
8.3457300303
 20
5.9036151167
 30
0.0
 10
8.3457300303
 20
5.9145061458
 30
0.0
  0
SPLINE
  5
3A9
100
AcDbEntity
  8
0
100
AcDbSpline
 62
7
  6
CONTINUOUS
 70
0
 71
3
 72
69
 73
65
 74
0
 42
0.0000001
 43
0.0000001
 44
0.0000000001
 40
0.0
 40
0.0
 40
0.0
 40
0.0
 40
0.015674738
 40
0.031402856
 40
0.0471814332
 40
0.0630099467
 40
0.0788860976
 40
0.0948073602
 40
0.1107708915
 40
0.1267733886
 40
0.1428112183
 40
0.1588804359
 40
0.1749768159
 40
0.1910958912
 40
0.2072329954
 40
0.2233833081
 40
0.2395418909
 40
0.2557037314
 40
0.2880085705
 40
0.3202664093
 40
0.3363699321
 40
0.3524475833
 40
0.3684950603
 40
0.3845083318
 40
0.40048367
 40
0.4164176829
 40
0.4323073557
 40
0.448150079
 40
0.4639436699
 40
0.4796864003
 40
0.4953770224
 40
0.5110147783
 40
0.5265994099
 40
0.5421311749
 40
0.5576108472
 40
0.5730397086
 40
0.5884195445
 40
0.6037526364
 40
0.619041738
 40
0.6342900478
 40
0.6495011875
 40
0.6646791664
 40
0.6798283385
 40
0.6949533585
 40
0.7100591398
 40
0.7251508008
 40
0.7402336078
 40
0.7553129211
 40
0.7703941413
 40
0.7854826485
 40
0.8005837423
 40
0.8157025881
 40
0.8308441657
 40
0.8460132131
 40
0.8612141762
 40
0.8764511669
 40
0.8917279283
 40
0.9070477907
 40
0.9224136172
 40
0.937827884
 40
0.9532924911
 40
0.9688086216
 40
0.9843782591
 40
1.0
 40
1.0
 40
1.0
 40
1.0
 10
10.3394010539
 20
6.052499421
 30
0.0
 10
10.3458912083
 20
6.0520493273
 30
0.0
 10
10.3588737329
 20
6.0508291656
 30
0.0
 10
10.3782656708
 20
6.0480523948
 30
0.0
 10
10.3975643357
 20
6.0443321763
 30
0.0
 10
10.4167222821
 20
6.0396778805
 30
0.0
 10
10.4356938405
 20
6.0341005393
 30
0.0
 10
10.4544332176
 20
6.0276137085
 30
0.0
 10
10.4728953277
 20
6.0202330529
 30
0.0
 10
10.4910357081
 20
6.0119762817
 30
0.0
 10
10.5088107134
 20
6.0028633583
 30
0.0
 10
10.5261775794
 20
5.9929162661
 30
0.0
 10
10.5430944885
 20
5.9821589236
 30
0.0
 10
10.5595207027
 20
5.970617229
 30
0.0
 10
10.5754167496
 20
5.9583190051
 30
0.0
 10
10.5907442869
 20
5.9452939629
 30
0.0
 10
10.6054666967
 20
5.9315730171
 30
0.0
 10
10.6242364656
 20
5.9124011489
 30
0.0
 10
10.6460100776
 20
5.8868706814
 30
0.0
 10
10.6653392586
 20
5.8594721808
 30
0.0
 10
10.6792152178
 20
5.8365988977
 30
0.0
 10
10.6887996771
 20
5.8190170347
 30
0.0
 10
10.6975424511
 20
5.8010438629
 30
0.0
 10
10.7054228112
 20
5.7827222576
 30
0.0
 10
10.7124216585
 20
5.7640964103
 30
0.0
 10
10.7185220823
 20
5.7452111088
 30
0.0
 10
10.7237094252
 20
5.7261118445
 30
0.0
 10
10.7279711777
 20
5.7068445919
 30
0.0
 10
10.7312969783
 20
5.6874557248
 30
0.0
 10
10.7336787865
 20
5.667991933
 30
0.0
 10
10.7351108804
 20
5.6485000915
 30
0.0
 10
10.7355897476
 20
5.6290271375
 30
0.0
 10
10.7351141208
 20
5.6096199769
 30
0.0
 10
10.7336851656
 20
5.590325363
 30
0.0
 10
10.7313062966
 20
5.5711897776
 30
0.0
 10
10.7279831406
 20
5.5522593393
 30
0.0
 10
10.7237236487
 20
5.5335796803
 30
0.0
 10
10.7185381039
 20
5.515195814
 30
0.0
 10
10.712438948
 20
5.497152061
 30
0.0
 10
10.7054407722
 20
5.4794919575
 30
0.0
 10
10.6975604656
 20
5.4622580762
 30
0.0
 10
10.6888170189
 20
5.4454919681
 30
0.0
 10
10.6792314403
 20
5.4292340983
 30
0.0
 10
10.6688267978
 20
5.4135237067
 30
0.0
 10
10.6576282247
 20
5.3983986564
 30
0.0
 10
10.6456627083
 20
5.3838954354
 30
0.0
 10
10.6329590418
 20
5.370049083
 30
0.0
 10
10.6195478982
 20
5.3568929746
 30
0.0
 10
10.605461651
 20
5.3444588131
 30
0.0
 10
10.5907342511
 20
5.3327766138
 30
0.0
 10
10.5754012032
 20
5.3218745836
 30
0.0
 10
10.5594995446
 20
5.3117789425
 30
0.0
 10
10.5430676352
 20
5.3025140129
 30
0.0
 10
10.5261450806
 20
5.2941021764
 30
0.0
 10
10.5087727195
 20
5.286563665
 30
0.0
 10
10.4909924716
 20
5.2799165738
 30
0.0
 10
10.472847201
 20
5.2741769168
 30
0.0
 10
10.4543806532
 20
5.2693585538
 30
0.0
 10
10.4356373657
 20
5.26547296
 30
0.0
 10
10.4166625
 20
5.262529474
 30
0.0
 10
10.3975019208
 20
5.2605352166
 30
0.0
 10
10.3782013272
 20
5.2594947935
 30
0.0
 10
10.3588082332
 20
5.2594109008
 30
0.0
 10
10.3458692647
 20
5.2599916246
 30
0.0
 10
10.3394010539
 20
5.2604401966
 30
0.0
  0
SPLINE
  5
3AA
100
AcDbEntity
  8
0
100
AcDbSpline
 62
7
  6
CONTINUOUS
 70
0
 71
3
 72
69
 73
65
 74
0
 42
0.0000001
 43
0.0000001
 44
0.0000000001
 40
0.0
 40
0.0
 40
0.0
 40
0.0
 40
0.015674738
 40
0.031402856
 40
0.0471814332
 40
0.0630099467
 40
0.0788860976
 40
0.0948073602
 40
0.1107708915
 40
0.1267733886
 40
0.1428112183
 40
0.1588804359
 40
0.1749768159
 40
0.1910958912
 40
0.2072329954
 40
0.2233833081
 40
0.2395418909
 40
0.2557037314
 40
0.2880085705
 40
0.3202664093
 40
0.3363699321
 40
0.3524475833
 40
0.3684950603
 40
0.3845083318
 40
0.40048367
 40
0.4164176829
 40
0.4323073557
 40
0.448150079
 40
0.4639436699
 40
0.4796864003
 40
0.4953770224
 40
0.5110147783
 40
0.5265994099
 40
0.5421311749
 40
0.5576108472
 40
0.5730397086
 40
0.5884195445
 40
0.6037526364
 40
0.619041738
 40
0.6342900478
 40
0.6495011875
 40
0.6646791664
 40
0.6798283385
 40
0.6949533585
 40
0.7100591398
 40
0.7251508008
 40
0.7402336078
 40
0.7553129211
 40
0.7703941413
 40
0.7854826485
 40
0.8005837423
 40
0.8157025881
 40
0.8308441657
 40
0.8460132131
 40
0.8612141762
 40
0.8764511669
 40
0.8917279283
 40
0.9070477907
 40
0.9224136172
 40
0.937827884
 40
0.9532924911
 40
0.9688086216
 40
0.9843782591
 40
1.0
 40
1.0
 40
1.0
 40
1.0
 10
10.3394010539
 20
5.2604401966
 30
0.0
 10
10.3329108996
 20
5.2608902903
 30
0.0
 10
10.319928375
 20
5.262110452
 30
0.0
 10
10.300536437
 20
5.2648872228
 30
0.0
 10
10.2812377721
 20
5.2686074413
 30
0.0
 10
10.2620798258
 20
5.2732617371
 30
0.0
 10
10.2431082673
 20
5.2788390783
 30
0.0
 10
10.2243688903
 20
5.2853259091
 30
0.0
 10
10.2059067801
 20
5.2927065647
 30
0.0
 10
10.1877663998
 20
5.3009633359
 30
0.0
 10
10.1699913945
 20
5.3100762593
 30
0.0
 10
10.1526245285
 20
5.3200233515
 30
0.0
 10
10.1357076193
 20
5.330780694
 30
0.0
 10
10.1192814051
 20
5.3423223886
 30
0.0
 10
10.1033853582
 20
5.3546206125
 30
0.0
 10
10.0880578209
 20
5.3676456547
 30
0.0
 10
10.0733354111
 20
5.3813666005
 30
0.0
 10
10.0545656422
 20
5.4005384687
 30
0.0
 10
10.0327920302
 20
5.4260689362
 30
0.0
 10
10.0134628493
 20
5.4534674368
 30
0.0
 10
9.9995868901
 20
5.4763407199
 30
0.0
 10
9.9900024307
 20
5.4939225829
 30
0.0
 10
9.9812596567
 20
5.5118957547
 30
0.0
 10
9.9733792966
 20
5.53021736
 30
0.0
 10
9.9663804494
 20
5.5488432073
 30
0.0
 10
9.9602800256
 20
5.5677285088
 30
0.0
 10
9.9550926826
 20
5.5868277731
 30
0.0
 10
9.9508309302
 20
5.6060950257
 30
0.0
 10
9.9475051296
 20
5.6254838928
 30
0.0
 10
9.9451233214
 20
5.6449476846
 30
0.0
 10
9.9436912274
 20
5.6644395261
 30
0.0
 10
9.9432123603
 20
5.6839124801
 30
0.0
 10
9.9436879871
 20
5.7033196407
 30
0.0
 10
9.9451169423
 20
5.7226142546
 30
0.0
 10
9.9474958112
 20
5.74174984
 30
0.0
 10
9.9508189673
 20
5.7606802783
 30
0.0
 10
9.9550784591
 20
5.7793599373
 30
0.0
 10
9.9602640039
 20
5.7977438036
 30
0.0
 10
9.9663631599
 20
5.8157875566
 30
0.0
 10
9.9733613356
 20
5.8334476601
 30
0.0
 10
9.9812416423
 20
5.8506815414
 30
0.0
 10
9.9899850889
 20
5.8674476495
 30
0.0
 10
9.9995706676
 20
5.8837055193
 30
0.0
 10
10.0099753101
 20
5.8994159109
 30
0.0
 10
10.0211738832
 20
5.9145409612
 30
0.0
 10
10.0331393996
 20
5.9290441822
 30
0.0
 10
10.0458430661
 20
5.9428905346
 30
0.0
 10
10.0592542096
 20
5.9560466429
 30
0.0
 10
10.0733404568
 20
5.9684808045
 30
0.0
 10
10.0880678568
 20
5.9801630038
 30
0.0
 10
10.1034009046
 20
5.991065034
 30
0.0
 10
10.1193025633
 20
6.0011606751
 30
0.0
 10
10.1357344727
 20
6.0104256047
 30
0.0
 10
10.1526570272
 20
6.0188374412
 30
0.0
 10
10.1700293884
 20
6.0263759526
 30
0.0
 10
10.1878096363
 20
6.0330230438
 30
0.0
 10
10.2059549068
 20
6.0387627008
 30
0.0
 10
10.2244214546
 20
6.0435810638
 30
0.0
 10
10.2431647422
 20
6.0474666576
 30
0.0
 10
10.2621396079
 20
6.0504101436
 30
0.0
 10
10.281300187
 20
6.052404401
 30
0.0
 10
10.3006007807
 20
6.0534448241
 30
0.0
 10
10.3199938746
 20
6.0535287168
 30
0.0
 10
10.3329328432
 20
6.052947993
 30
0.0
 10
10.3394010539
 20
6.052499421
 30
0.0
  0
SPLINE
  5
3AB
100
AcDbEntity
  8
0
100
AcDbSpline
 62
7
  6
CONTINUOUS
 70
0
 71
3
 72
41
 73
37
 74
0
 42
0.0000001
 43
0.0000001
 44
0.0000000001
 40
0.0
 40
0.0
 40
0.0
 40
0.0
 40
0.031870725
 40
0.0636345774
 40
0.0952908055
 40
0.1268435568
 40
0.1425832819
 40
0.158298465
 40
0.1896552652
 40
0.2209221109
 40
0.2521055327
 40
0.2832129457
 40
0.3142525404
 40
0.3452332206
 40
0.3761645114
 40
0.4070564603
 40
0.437919531
 40
0.4687644936
 40
0.4996023129
 40
0.5304440319
 40
0.5613006517
 40
0.5921830127
 40
0.6231016792
 40
0.6540668309
 40
0.6850881569
 40
0.7161747545
 40
0.7473350357
 40
0.7785766414
 40
0.809906387
 40
0.8413301596
 40
0.857080137
 40
0.8728554176
 40
0.9044812232
 40
0.9362124658
 40
0.9680525581
 40
1.0
 40
1.0
 40
1.0
 40
1.0
 10
8.3457300303
 20
9.113652672
 30
0.0
 10
8.3457300303
 20
9.1245067023
 30
0.0
 10
8.3462612443
 20
9.1461821937
 30
0.0
 10
8.3486589841
 20
9.1785589299
 30
0.0
 10
8.3526509449
 20
9.2106693822
 30
0.0
 10
8.3573018633
 20
9.2371636452
 30
0.0
 10
8.3618095106
 20
9.258145039
 30
0.0
 10
8.3668303715
 20
9.2789408983
 30
0.0
 10
8.374076628
 20
9.3046303878
 30
0.0
 10
8.3843112785
 20
9.334908359
 30
0.0
 10
8.3960545342
 20
9.3645429739
 30
0.0
 10
8.4092780237
 20
9.3934622683
 30
0.0
 10
8.4239500038
 20
9.4215965982
 30
0.0
 10
8.4400351035
 20
9.4488780742
 30
0.0
 10
8.4574945577
 20
9.4752409057
 30
0.0
 10
8.4762862959
 20
9.5006214907
 30
0.0
 10
8.496365048
 20
9.5249585777
 30
0.0
 10
8.5176824167
 20
9.5481934345
 30
0.0
 10
8.5401869555
 20
9.5702700414
 30
0.0
 10
8.5638243797
 20
9.5911351558
 30
0.0
 10
8.588537677
 20
9.6107384524
 30
0.0
 10
8.6142672562
 20
9.6290326245
 30
0.0
 10
8.640951027
 20
9.6459735881
 30
0.0
 10
8.6685245975
 20
9.6615205468
 30
0.0
 10
8.6969214491
 20
9.6756360511
 30
0.0
 10
8.7260731048
 20
9.6882860927
 30
0.0
 10
8.7559092259
 20
9.6994401861
 30
0.0
 10
8.7863579706
 20
9.7090715769
 30
0.0
 10
8.8173454172
 20
9.7171570273
 30
0.0
 10
8.8435364577
 20
9.7225865811
 30
0.0
 10
8.864679912
 20
9.7261409831
 30
0.0
 10
8.8859742575
 20
9.7291719234
 30
0.0
 10
8.9127912346
 20
9.7319630621
 30
0.0
 10
8.9451781508
 20
9.7337089024
 30
0.0
 10
8.9777207932
 20
9.7338497589
 30
0.0
 10
8.9994329507
 20
9.7328752284
 30
0.0
 10
9.0102870382
 20
9.7321224949
 30
0.0
  0
SPLINE
  5
3AC
100
AcDbEntity
  8
0
100
AcDbSpline
 62
7
  6
CONTINUOUS
 70
0
 71
3
 72
39
 73
35
 74
0
 42
0.0000001
 43
0.0000001
 44
0.0000000001
 40
0.0
 40
0.0
 40
0.0
 40
0.0
 40
0.0958316475
 40
0.1891006073
 40
0.279240642
 40
0.3229674356
 40
0.365711151
 40
0.4074094627
 40
0.4480020772
 40
0.4874317741
 40
0.5256439547
 40
0.5625873626
 40
0.5982141631
 40
0.6324802323
 40
0.6653459096
 40
0.6967758341
 40
0.7267403598
 40
0.7552153214
 40
0.7821838024
 40
0.8076365273
 40
0.831573723
 40
0.8540068598
 40
0.8749607899
 40
0.8944774057
 40
0.9126188108
 40
0.9294731124
 40
0.9451592998
 40
0.9598338063
 40
0.9668558128
 40
0.9737028706
 40
0.9804062828
 40
0.9869996808
 40
0.9935186293
 40
1.0
 40
1.0
 40
1.0
 40
1.0
 10
9.882043716
 20
11.0389718321
 30
0.0
 10
9.889753373
 20
11.0384371656
 30
0.0
 10
9.9049554219
 20
11.037212571
 30
0.0
 10
9.9273546775
 20
11.0348749466
 30
0.0
 10
9.9455216264
 20
11.0325173458
 30
0.0
 10
9.9596054694
 20
11.0303951255
 30
0.0
 10
9.9698035559
 20
11.0287103109
 30
0.0
 10
9.9797267914
 20
11.0269191997
 30
0.0
 10
9.9893586129
 20
11.0250247074
 30
0.0
 10
9.9986829325
 20
11.0230300937
 30
0.0
 10
10.0076841892
 20
11.0209386609
 30
0.0
 10
10.0163473715
 20
11.0187539533
 30
0.0
 10
10.0246580417
 20
11.0164796473
 30
0.0
 10
10.0326023611
 20
11.0141195326
 30
0.0
 10
10.0401671304
 20
11.0116776365
 30
0.0
 10
10.0473397849
 20
11.0091579713
 30
0.0
 10
10.0541084701
 20
11.0065648521
 30
0.0
 10
10.060462003
 20
11.0039025117
 30
0.0
 10
10.0663899701
 20
11.0011754452
 30
0.0
 10
10.0718826869
 20
10.9983880897
 30
0.0
 10
10.0769312608
 20
10.9955449758
 30
0.0
 10
10.0815276167
 20
10.992650647
 30
0.0
 10
10.0856644196
 20
10.989709472
 30
0.0
 10
10.0893352235
 20
10.9867258305
 30
0.0
 10
10.092534098
 20
10.983703672
 30
0.0
 10
10.0952558915
 20
10.9806466584
 30
0.0
 10
10.0974951964
 20
10.9775585573
 30
0.0
 10
10.098976413
 20
10.97492309
 30
0.0
 10
10.099899698
 20
10.9728128295
 30
0.0
 10
10.1004587406
 20
10.971249318
 30
0.0
 10
10.1008939587
 20
10.9696827174
 30
0.0
 10
10.1012050338
 20
10.9681136714
 30
0.0
 10
10.101391786
 20
10.9665431063
 30
0.0
 10
10.101433344
 20
10.9654942506
 30
0.0
 10
10.1014333398
 20
10.9649715718
 30
0.0
  0
SPLINE
  5
3AD
100
AcDbEntity
  8
0
100
AcDbSpline
 62
7
  6
CONTINUOUS
 70
0
 71
3
 72
39
 73
35
 74
0
 42
0.0000001
 43
0.0000001
 44
0.0000000001
 40
0.0
 40
0.0
 40
0.0
 40
0.0
 40
0.0307548529
 40
0.0615960736
 40
0.092520972
 40
0.1235262656
 40
0.1546081022
 40
0.1857620931
 40
0.216983353
 40
0.2482665327
 40
0.2796058551
 40
0.3109951607
 40
0.3424279546
 40
0.3738974468
 40
0.4053965972
 40
0.4369181691
 40
0.4684547778
 40
0.4999989356
 40
0.5315431028
 40
0.5630797431
 40
0.5946013704
 40
0.626100596
 40
0.6575701816
 40
0.6890030909
 40
0.7203925328
 40
0.7517320068
 40
0.7830153547
 40
0.8142368005
 40
0.8453909936
 40
0.8764730475
 40
0.9074785454
 40
0.938403715
 40
0.9692452026
 40
1.0
 40
1.0
 40
1.0
 40
1.0
 10
10.1270428984
 20
8.4236372059
 30
0.0
 10
10.1283979263
 20
8.4117988813
 30
0.0
 10
10.1316146412
 20
8.3881434982
 30
0.0
 10
10.13793619
 20
8.3528489481
 30
0.0
 10
10.1457497331
 20
8.3177544304
 30
0.0
 10
10.1550407374
 20
8.2829256
 30
0.0
 10
10.1657920655
 20
8.2484265583
 30
0.0
 10
10.1779837584
 20
8.2143210516
 30
0.0
 10
10.1915932687
 20
8.1806720316
 30
0.0
 10
10.2065954832
 20
8.1475416495
 30
0.0
 10
10.2229626809
 20
8.1149910807
 30
0.0
 10
10.240664565
 20
8.083080398
 30
0.0
 10
10.2596684329
 20
8.0518685139
 30
0.0
 10
10.2799392293
 20
8.0214130851
 30
0.0
 10
10.3014394965
 20
7.9917703345
 30
0.0
 10
10.3241294878
 20
7.9629949631
 30
0.0
 10
10.3479673086
 20
7.9351401013
 30
0.0
 10
10.3729089876
 20
7.9082572226
 30
0.0
 10
10.3989084385
 20
7.8823959406
 30
0.0
 10
10.4259176321
 20
7.8576039827
 30
0.0
 10
10.453886713
 20
7.8339271399
 30
0.0
 10
10.4827640799
 20
7.8114091865
 30
0.0
 10
10.5124963808
 20
7.7900916681
 30
0.0
 10
10.5430287118
 20
7.7700139393
 30
0.0
 10
10.5743047197
 20
7.7512131102
 30
0.0
 10
10.6062666847
 20
7.7337239601
 30
0.0
 10
10.6388555637
 20
7.7175787507
 30
0.0
 10
10.6720111867
 20
7.7028073053
 30
0.0
 10
10.7056723515
 20
7.6894369644
 30
0.0
 10
10.7397769241
 20
7.6774924886
 30
0.0
 10
10.7742618604
 20
7.6669958887
 30
0.0
 10
10.8090637147
 20
7.6579665883
 30
0.0
 10
10.8441172749
 20
7.6504214836
 30
0.0
 10
10.8676465696
 20
7.6463840885
 30
0.0
 10
10.879430588
 20
7.6446181822
 30
0.0
  0
SPLINE
  5
3AE
100
AcDbEntity
  8
0
100
AcDbSpline
 62
7
  6
CONTINUOUS
 70
0
 71
3
 72
33
 73
29
 74
0
 42
0.0000001
 43
0.0000001
 44
0.0000000001
 40
0.0
 40
0.0
 40
0.0
 40
0.0
 40
0.0958337721
 40
0.1891075281
 40
0.2792498525
 40
0.3657213947
 40
0.4480125047
 40
0.5256540576
 40
0.562598834
 40
0.5982267604
 40
0.6324942007
 40
0.6653608654
 40
0.6967921107
 40
0.7267575332
 40
0.7552337044
 40
0.782203046
 40
0.8076568149
 40
0.8315948643
 40
0.8540288602
 40
0.8749836358
 40
0.8945009454
 40
0.9126431538
 40
0.9294980335
 40
0.9451849288
 40
0.9598599414
 40
0.9737213377
 40
0.9870092407
 40
1.0
 40
1.0
 40
1.0
 40
1.0
 10
12.9385805313
 20
11.4593598507
 30
0.0
 10
12.94264367
 20
11.4590780711
 30
0.0
 10
12.9506555482
 20
11.4584326674
 30
0.0
 10
12.9624605672
 20
11.457200712
 30
0.0
 10
12.973836577
 20
11.4557243229
 30
0.0
 10
12.9847076356
 20
11.4540136069
 30
0.0
 10
12.9950013178
 20
11.4520801467
 30
0.0
 10
13.0031713833
 20
11.4502656163
 30
0.0
 10
13.0093619974
 20
11.4487045525
 30
0.0
 10
13.0137419412
 20
11.4475058959
 30
0.0
 10
13.0179288105
 20
11.4462620953
 30
0.0
 10
13.0219156406
 20
11.4449751162
 30
0.0
 10
13.0256958289
 20
11.4436472328
 30
0.0
 10
13.0292631014
 20
11.442280554
 30
0.0
 10
13.0326115957
 20
11.4408774728
 30
0.0
 10
13.0357357903
 20
11.4394402107
 30
0.0
 10
13.0386306126
 20
11.4379712276
 30
0.0
 10
13.0412913515
 20
11.4364728251
 30
0.0
 10
13.0437137625
 20
11.4349474421
 30
0.0
 10
13.045893989
 20
11.4333973806
 30
0.0
 10
13.0478285968
 20
11.4318249103
 30
0.0
 10
13.0495145352
 20
11.4302321713
 30
0.0
 10
13.0509489598
 20
11.4286210682
 30
0.0
 10
13.0521292534
 20
11.4269934224
 30
0.0
 10
13.0530524762
 20
11.425350921
 30
0.0
 10
13.0537156683
 20
11.4236955445
 30
0.0
 10
13.0541153411
 20
11.4220307356
 30
0.0
 10
13.0542047936
 20
11.4209119828
 30
0.0
 10
13.0542047936
 20
11.4203598806
 30
0.0
  0
SPLINE
  5
3AF
100
AcDbEntity
  8
0
100
AcDbSpline
 62
7
  6
CONTINUOUS
 70
0
 71
3
 72
76
 73
72
 74
0
 42
0.0000001
 43
0.0000001
 44
0.0000000001
 40
0.0
 40
0.0
 40
0.0
 40
0.0
 40
0.0156217281
 40
0.023413443
 40
0.0311916973
 40
0.0467076459
 40
0.0621718938
 40
0.0698856263
 40
0.0775870004
 40
0.0852762722
 40
0.0929537244
 40
0.1082732304
 40
0.1235496416
 40
0.1387862851
 40
0.1539868998
 40
0.169155599
 40
0.1842968303
 40
0.1994153306
 40
0.2145160778
 40
0.2296042386
 40
0.2446851137
 40
0.2597640819
 40
0.2748465425
 40
0.2899378573
 40
0.3050432934
 40
0.3201679674
 40
0.3353167918
 40
0.3504944232
 40
0.3657052155
 40
0.3809531759
 40
0.3962419259
 40
0.411574667
 40
0.4269541513
 40
0.4423826581
 40
0.457861975
 40
0.4733933854
 40
0.4889776604
 40
0.504615057
 40
0.5203053202
 40
0.5360476913
 40
0.5518409196
 40
0.5676832791
 40
0.5835725887
 40
0.5995062367
 40
0.6154812074
 40
0.6314941124
 40
0.6475412228
 40
0.6636185052
 40
0.6797216589
 40
0.6958461553
 40
0.7119872786
 40
0.7281401677
 40
0.7442998589
 40
0.7604613295
 40
0.7766195411
 40
0.7927694837
 40
0.8089062194
 40
0.8250249252
 40
0.8411209361
 40
0.8571897862
 40
0.8732272495
 40
0.8892293785
 40
0.9051925399
 40
0.9211134549
 40
0.9290577032
 40
0.9369903299
 40
0.9528184762
 40
0.9685968674
 40
0.9764674526
 40
0.9843252775
 40
1.0
 40
1.0
 40
1.0
 40
1.0
 10
9.8677848809
 20
8.4810121542
 30
0.0
 10
9.8504597996
 20
8.4822136527
 30
0.0
 10
9.8244434984
 20
8.4833813655
 30
0.0
 10
9.7897662277
 20
8.4836564779
 30
0.0
 10
9.7552096162
 20
8.4830779223
 30
0.0
 10
9.7121655718
 20
8.480757768
 30
0.0
 10
9.6693615332
 20
8.4763024764
 30
0.0
 10
9.6353724304
 20
8.4714647913
 30
0.0
 10
9.6100399514
 20
8.4672060127
 30
0.0
 10
9.5848626347
 20
8.4623166516
 30
0.0
 10
9.551546921
 20
8.4549663862
 30
0.0
 10
9.5103573121
 20
8.4442190881
 30
0.0
 10
9.4617568444
 20
8.4288459375
 30
0.0
 10
9.4141334012
 20
8.4110421375
 30
0.0
 10
9.3676026738
 20
8.3908506607
 30
0.0
 10
9.3222766722
 20
8.3683200567
 30
0.0
 10
9.2782647945
 20
8.3435045864
 30
0.0
 10
9.2356731981
 20
8.3164640294
 30
0.0
 10
9.1946046391
 20
8.2872635515
 30
0.0
 10
9.1551581948
 20
8.2559735441
 30
0.0
 10
9.1174290277
 20
8.2226694549
 30
0.0
 10
9.0815081508
 20
8.187431604
 30
0.0
 10
9.0474822055
 20
8.1503449882
 30
0.0
 10
9.0154332499
 20
8.1114990734
 30
0.0
 10
8.9854385588
 20
8.0709875755
 30
0.0
 10
8.9575704357
 20
8.0289082312
 30
0.0
 10
8.931896039
 20
7.9853625576
 30
0.0
 10
8.9084772141
 20
7.9404556075
 30
0.0
 10
8.8873703466
 20
7.8942957099
 30
0.0
 10
8.8686262322
 20
7.8469942029
 30
0.0
 10
8.8522899547
 20
7.7986651629
 30
0.0
 10
8.8384007806
 20
7.7494251273
 30
0.0
 10
8.8269920676
 20
7.6993928113
 30
0.0
 10
8.8180911869
 20
7.6486888204
 30
0.0
 10
8.8117194609
 20
7.5974353591
 30
0.0
 10
8.8078921151
 20
7.5457559361
 30
0.0
 10
8.8066182444
 20
7.4937750671
 30
0.0
 10
8.8079007939
 20
7.4416179753
 30
0.0
 10
8.8117365476
 20
7.3894102905
 30
0.0
 10
8.8181161454
 20
7.3372777469
 30
0.0
 10
8.8270241085
 20
7.2853458817
 30
0.0
 10
8.8384388781
 20
7.2337397348
 30
0.0
 10
8.8523328691
 20
7.1825835493
 30
0.0
 10
8.8686725374
 20
7.1320004751
 30
0.0
 10
8.8874184615
 20
7.0821122734
 30
0.0
 10
8.9085254383
 20
7.0330390265
 30
0.0
 10
8.9319425917
 20
6.98489885
 30
0.0
 10
8.9576134958
 20
6.9378076111
 30
0.0
 10
8.9854763078
 20
6.8918786495
 30
0.0
 10
9.0154639142
 20
6.8472225038
 30
0.0
 10
9.047504098
 20
6.8039466504
 30
0.0
 10
9.0815197113
 20
6.7621552451
 30
0.0
 10
9.1174288601
 20
6.7219488745
 30
0.0
 10
9.1551451007
 20
6.6834243147
 30
0.0
 10
9.1945776471
 20
6.6466743002
 30
0.0
 10
9.2356315878
 20
6.611787301
 30
0.0
 10
9.2782081133
 20
6.5788473115
 30
0.0
 10
9.3222047537
 20
6.5479336479
 30
0.0
 10
9.3675156188
 20
6.5191207611
 30
0.0
 10
9.4140316704
 20
6.4924780457
 30
0.0
 10
9.4616409015
 20
6.4680696984
 30
0.0
 10
9.5102289211
 20
6.4459544817
 30
0.0
 10
9.5596780554
 20
6.4261858994
 30
0.0
 10
9.6015362439
 20
6.4116963597
 30
0.0
 10
9.6353333783
 20
6.4013255863
 30
0.0
 10
9.6692678365
 20
6.3917875959
 30
0.0
 10
9.711998329
 20
6.3814063458
 30
0.0
 10
9.7551093303
 20
6.3730959772
 30
0.0
 10
9.7897227192
 20
6.3677141442
 30
0.0
 10
9.8243410919
 20
6.3631857719
 30
0.0
 10
9.8504010268
 20
6.3607365907
 30
0.0
 10
9.8677848809
 20
6.3595310163
 30
0.0
  0
SPLINE
  5
3B0
100
AcDbEntity
  8
0
100
AcDbSpline
 62
7
  6
CONTINUOUS
 70
0
 71
3
 72
39
 73
35
 74
0
 42
0.0000001
 43
0.0000001
 44
0.0000000001
 40
0.0
 40
0.0
 40
0.0
 40
0.0
 40
0.0958316475
 40
0.1891006073
 40
0.279240642
 40
0.3229674356
 40
0.365711151
 40
0.4074094627
 40
0.4480020772
 40
0.4874317741
 40
0.5256439547
 40
0.5625873626
 40
0.5982141631
 40
0.6324802323
 40
0.6653459096
 40
0.6967758341
 40
0.7267403598
 40
0.7552153214
 40
0.7821838024
 40
0.8076365273
 40
0.831573723
 40
0.8540068598
 40
0.8749607899
 40
0.8944774057
 40
0.9126188108
 40
0.9294731124
 40
0.9451592998
 40
0.9598338063
 40
0.9668558128
 40
0.9737028706
 40
0.9804062828
 40
0.9869996808
 40
0.9935186293
 40
1.0
 40
1.0
 40
1.0
 40
1.0
 10
12.2968584248
 20
10.8715038633
 30
0.0
 10
12.3045680819
 20
10.8709691967
 30
0.0
 10
12.3197701307
 20
10.8697446021
 30
0.0
 10
12.3421693863
 20
10.8674069777
 30
0.0
 10
12.3603363352
 20
10.865049377
 30
0.0
 10
12.3744201782
 20
10.8629271567
 30
0.0
 10
12.3846182647
 20
10.861242342
 30
0.0
 10
12.3945415002
 20
10.8594512308
 30
0.0
 10
12.4041733217
 20
10.8575567386
 30
0.0
 10
12.4134976413
 20
10.8555621248
 30
0.0
 10
12.422498898
 20
10.853470692
 30
0.0
 10
12.4311620803
 20
10.8512859844
 30
0.0
 10
12.4394727505
 20
10.8490116784
 30
0.0
 10
12.44741707
 20
10.8466515637
 30
0.0
 10
12.4549818392
 20
10.8442096676
 30
0.0
 10
12.4621544937
 20
10.8416900025
 30
0.0
 10
12.4689231789
 20
10.8390968832
 30
0.0
 10
12.4752767118
 20
10.8364345429
 30
0.0
 10
12.4812046789
 20
10.8337074763
 30
0.0
 10
12.4866973957
 20
10.8309201209
 30
0.0
 10
12.4917459696
 20
10.8280770069
 30
0.0
 10
12.4963423255
 20
10.8251826781
 30
0.0
 10
12.5004791284
 20
10.8222415032
 30
0.0
 10
12.5041499323
 20
10.8192578616
 30
0.0
 10
12.5073488069
 20
10.8162357032
 30
0.0
 10
12.5100706003
 20
10.8131786896
 30
0.0
 10
12.5123099052
 20
10.8100905884
 30
0.0
 10
12.5137911218
 20
10.8074551211
 30
0.0
 10
12.5147144068
 20
10.8053448606
 30
0.0
 10
12.5152734495
 20
10.8037813491
 30
0.0
 10
12.5157086675
 20
10.8022147486
 30
0.0
 10
12.5160197426
 20
10.8006457026
 30
0.0
 10
12.5162064948
 20
10.7990751374
 30
0.0
 10
12.5162480528
 20
10.7980262817
 30
0.0
 10
12.5162480486
 20
10.797503603
 30
0.0
  0
SPLINE
  5
3B1
100
AcDbEntity
  8
0
100
AcDbSpline
 62
7
  6
CONTINUOUS
 70
0
 71
3
 72
51
 73
47
 74
0
 42
0.0000001
 43
0.0000001
 44
0.0000000001
 40
0.0
 40
0.0
 40
0.0
 40
0.0
 40
0.0149631555
 40
0.0299428634
 40
0.0449412711
 40
0.0599604352
 40
0.0750023082
 40
0.0900687367
 40
0.1051614453
 40
0.1202820335
 40
0.1354319697
 40
0.1506125788
 40
0.1658250455
 40
0.1810704022
 40
0.1963495281
 40
0.2116631494
 40
0.2270118284
 40
0.2423959722
 40
0.2578158251
 40
0.273271469
 40
0.2887628303
 40
0.3042896714
 40
0.3198516021
 40
0.3354480778
 40
0.351078401
 40
0.3667417328
 40
0.3981592507
 40
0.4296952975
 40
0.4613383938
 40
0.4930752733
 40
0.5248911192
 40
0.556769819
 40
0.5886942354
 40
0.6206464889
 40
0.6526082503
 40
0.684561037
 40
0.716486511
 40
0.7483667759
 40
0.780184669
 40
0.8119240442
 40
0.8435700437
 40
0.8751093532
 40
0.9065304297
 40
0.9378237967
 40
0.9689818328
 40
1.0
 40
1.0
 40
1.0
 40
1.0
 10
9.3710103954
 20
8.3769260863
 30
0.0
 10
9.3648928357
 20
8.3677876125
 30
0.0
 10
9.3529757984
 20
8.3492806809
 30
0.0
 10
9.3360892601
 20
8.320886653
 30
0.0
 10
9.3202003265
 20
8.2918751688
 30
0.0
 10
9.3053272514
 20
8.262279036
 30
0.0
 10
9.2914863919
 20
8.2321313298
 30
0.0
 10
9.2786933399
 20
8.2014657504
 30
0.0
 10
9.2669623954
 20
8.1703165876
 30
0.0
 10
9.2563065346
 20
8.1387187244
 30
0.0
 10
9.2467378499
 20
8.106707435
 30
0.0
 10
9.2382668508
 20
8.0743185717
 30
0.0
 10
9.2309030662
 20
8.041588329
 30
0.0
 10
9.2246547664
 20
8.0085532988
 30
0.0
 10
9.2195287599
 20
7.9752504447
 30
0.0
 10
9.2155309591
 20
7.9417169719
 30
0.0
 10
9.2126656619
 20
7.9079903925
 30
0.0
 10
9.2109360901
 20
7.8741084032
 30
0.0
 10
9.210344253
 20
7.840108881
 30
0.0
 10
9.2108906132
 20
7.8060298329
 30
0.0
 10
9.2125747355
 20
7.7719093533
 30
0.0
 10
9.2153945957
 20
7.7377855859
 30
0.0
 10
9.2193470315
 20
7.7036966342
 30
0.0
 10
9.2244277
 20
7.6696807355
 30
0.0
 10
9.2306308499
 20
7.6357754331
 30
0.0
 10
9.2403978756
 20
7.590726101
 30
0.0
 10
9.2553842282
 20
7.5348788862
 30
0.0
 10
9.277696772
 20
7.4689842511
 30
0.0
 10
9.3042581269
 20
7.4044295857
 30
0.0
 10
9.3349490091
 20
7.3415048986
 30
0.0
 10
9.3696322574
 20
7.2804904715
 30
0.0
 10
9.4081528427
 20
7.2216587146
 30
0.0
 10
9.4503387101
 20
7.1652721343
 30
0.0
 10
9.4960014353
 20
7.1115823444
 30
0.0
 10
9.5449371498
 20
7.060828943
 30
0.0
 10
9.5969274307
 20
7.0132384683
 30
0.0
 10
9.6517402742
 20
6.9690234044
 30
0.0
 10
9.7091310876
 20
6.9283812069
 30
0.0
 10
9.7688437598
 20
6.8914933988
 30
0.0
 10
9.8306118497
 20
6.858524828
 30
0.0
 10
9.8941597126
 20
6.8296229225
 30
0.0
 10
9.9592038432
 20
6.8049170584
 30
0.0
 10
10.0254536637
 20
6.7845178682
 30
0.0
 10
10.0926143783
 20
6.7685168798
 30
0.0
 10
10.1603822867
 20
6.7569860541
 30
0.0
 10
10.205877548
 20
6.7523024474
 30
0.0
 10
10.2286195825
 20
6.7507252819
 30
0.0
  0
SPLINE
  5
3B2
100
AcDbEntity
  8
0
100
AcDbSpline
 62
7
  6
CONTINUOUS
 70
0
 71
3
 72
50
 73
46
 74
0
 42
0.0000001
 43
0.0000001
 44
0.0000000001
 40
0.0
 40
0.0
 40
0.0
 40
0.0
 40
0.0055575484
 40
0.0111779922
 40
0.016921945
 40
0.0228458833
 40
0.0290006815
 40
0.0354311436
 40
0.0421756504
 40
0.0492665308
 40
0.0567306759
 40
0.0645898217
 40
0.0728615778
 40
0.0815596977
 40
0.0906946685
 40
0.100274387
 40
0.1103041016
 40
0.1207871917
 40
0.1317251696
 40
0.1431178633
 40
0.1549639321
 40
0.16726054
 40
0.1800039018
 40
0.1931892317
 40
0.2208607128
 40
0.2502207991
 40
0.2812027127
 40
0.3137299142
 40
0.3477173552
 40
0.383072554
 40
0.4196964471
 40
0.4574841188
 40
0.4963254304
 40
0.5361057043
 40
0.5767063272
 40
0.6180053027
 40
0.6598777724
 40
0.7021965482
 40
0.7448326997
 40
0.7876559964
 40
0.8305355066
 40
0.8733402465
 40
0.9159384006
 40
0.9582025777
 40
1.0
 40
1.0
 40
1.0
 40
1.0
 10
9.5094333439
 20
10.9649722058
 30
0.0
 10
9.5094333498
 20
10.9657044511
 30
0.0
 10
9.5095153872
 20
10.9671785014
 30
0.0
 10
9.5098833663
 20
10.9693817057
 30
0.0
 10
9.5104956969
 20
10.9715800077
 30
0.0
 10
9.5113512686
 20
10.9737708184
 30
0.0
 10
9.5124485358
 20
10.9759524237
 30
0.0
 10
9.5137861487
 20
10.9781230901
 30
0.0
 10
9.5153625196
 20
10.9802813566
 30
0.0
 10
9.5171760883
 20
10.9824257962
 30
0.0
 10
9.5192253087
 20
10.984554885
 30
0.0
 10
9.5215083699
 20
10.9866672447
 30
0.0
 10
9.5240234851
 20
10.9887612858
 30
0.0
 10
9.526768616
 20
10.9908354865
 30
0.0
 10
9.5297415581
 20
10.9928883159
 30
0.0
 10
9.5329399891
 20
10.9949181009
 30
0.0
 10
9.5363613055
 20
10.9969233382
 30
0.0
 10
9.5400027938
 20
10.9989023762
 30
0.0
 10
9.5438615206
 20
11.0008536271
 30
0.0
 10
9.5479343552
 20
11.0027755667
 30
0.0
 10
9.5522180297
 20
11.0046665546
 30
0.0
 10
9.5567090434
 20
11.0065251171
 30
0.0
 10
9.5614037641
 20
11.0083497257
 30
0.0
 10
9.568037129
 20
11.0107743341
 30
0.0
 10
9.5768162931
 20
11.0136997426
 30
0.0
 10
9.5879356775
 20
11.0169978576
 30
0.0
 10
9.5997667098
 20
11.0201268662
 30
0.0
 10
9.6122707807
 20
11.0230764237
 30
0.0
 10
9.6254071912
 20
11.0258367671
 30
0.0
 10
9.6391330557
 20
11.0283987553
 30
0.0
 10
9.6534035372
 20
11.030753903
 30
0.0
 10
9.6681719733
 20
11.032894406
 30
0.0
 10
9.6833900379
 20
11.0348131922
 30
0.0
 10
9.6990079112
 20
11.0365039218
 30
0.0
 10
9.7149744544
 20
11.0379610065
 30
0.0
 10
9.7312373776
 20
11.0391796262
 30
0.0
 10
9.7477434071
 20
11.0401557507
 30
0.0
 10
9.7644384651
 20
11.0408861672
 30
0.0
 10
9.7812678481
 20
11.0413684644
 30
0.0
 10
9.7981764132
 20
11.0416010505
 30
0.0
 10
9.8151087796
 20
11.0415831515
 30
0.0
 10
9.8320093611
 20
11.041314812
 30
0.0
 10
9.8488230467
 20
11.0407969674
 30
0.0
 10
9.86549438
 20
11.040031256
 30
0.0
 10
9.8765498125
 20
11.0393528356
 30
0.0
 10
9.882043716
 20
11.0389718321
 30
0.0
  0
SPLINE
  5
3B3
100
AcDbEntity
  8
0
100
AcDbSpline
 62
7
  6
CONTINUOUS
 70
0
 71
3
 72
50
 73
46
 74
0
 42
0.0000001
 43
0.0000001
 44
0.0000000001
 40
0.0
 40
0.0
 40
0.0
 40
0.0
 40
0.0055575484
 40
0.0111779922
 40
0.016921945
 40
0.0228458833
 40
0.0290006815
 40
0.0354311436
 40
0.0421756504
 40
0.0492665308
 40
0.0567306759
 40
0.0645898217
 40
0.0728615778
 40
0.0815596977
 40
0.0906946685
 40
0.100274387
 40
0.1103041016
 40
0.1207871917
 40
0.1317251696
 40
0.1431178633
 40
0.1549639321
 40
0.16726054
 40
0.1800039018
 40
0.1931892317
 40
0.2208607128
 40
0.2502207991
 40
0.2812027127
 40
0.3137299142
 40
0.3477173552
 40
0.383072554
 40
0.4196964471
 40
0.4574841188
 40
0.4963254304
 40
0.5361057043
 40
0.5767063272
 40
0.6180053027
 40
0.6598777724
 40
0.7021965482
 40
0.7448326997
 40
0.7876559964
 40
0.8305355066
 40
0.8733402465
 40
0.9159384006
 40
0.9582025777
 40
1.0
 40
1.0
 40
1.0
 40
1.0
 10
10.3345478002
 20
11.761971616
 30
0.0
 10
10.3345478061
 20
11.7627038613
 30
0.0
 10
10.3346298436
 20
11.7641779116
 30
0.0
 10
10.3349978226
 20
11.7663811159
 30
0.0
 10
10.3356101533
 20
11.7685794179
 30
0.0
 10
10.3364657249
 20
11.7707702286
 30
0.0
 10
10.3375629921
 20
11.7729518339
 30
0.0
 10
10.338900605
 20
11.7751225003
 30
0.0
 10
10.340476976
 20
11.7772807669
 30
0.0
 10
10.3422905446
 20
11.7794252065
 30
0.0
 10
10.344339765
 20
11.7815542953
 30
0.0
 10
10.3466228262
 20
11.7836666549
 30
0.0
 10
10.3491379414
 20
11.7857606961
 30
0.0
 10
10.3518830724
 20
11.7878348968
 30
0.0
 10
10.3548560144
 20
11.7898877261
 30
0.0
 10
10.3580544454
 20
11.7919175111
 30
0.0
 10
10.3614757618
 20
11.7939227484
 30
0.0
 10
10.3651172501
 20
11.7959017864
 30
0.0
 10
10.3689759769
 20
11.7978530373
 30
0.0
 10
10.3730488115
 20
11.7997749769
 30
0.0
 10
10.377332486
 20
11.8016659648
 30
0.0
 10
10.3818234997
 20
11.8035245273
 30
0.0
 10
10.3865182205
 20
11.8053491359
 30
0.0
 10
10.3931515853
 20
11.8077737443
 30
0.0
 10
10.4019307494
 20
11.8106991528
 30
0.0
 10
10.4130501338
 20
11.8139972678
 30
0.0
 10
10.4248811661
 20
11.8171262764
 30
0.0
 10
10.437385237
 20
11.8200758339
 30
0.0
 10
10.4505216475
 20
11.8228361773
 30
0.0
 10
10.464247512
 20
11.8253981655
 30
0.0
 10
10.4785179935
 20
11.8277533132
 30
0.0
 10
10.4932864296
 20
11.8298938163
 30
0.0
 10
10.5085044942
 20
11.8318126024
 30
0.0
 10
10.5241223675
 20
11.833503332
 30
0.0
 10
10.5400889107
 20
11.8349604168
 30
0.0
 10
10.5563518339
 20
11.8361790364
 30
0.0
 10
10.5728578634
 20
11.8371551609
 30
0.0
 10
10.5895529215
 20
11.8378855774
 30
0.0
 10
10.6063823045
 20
11.8383678746
 30
0.0
 10
10.6232908695
 20
11.8386004607
 30
0.0
 10
10.640223236
 20
11.8385825617
 30
0.0
 10
10.6571238174
 20
11.8383142222
 30
0.0
 10
10.673937503
 20
11.8377963776
 30
0.0
 10
10.6906088363
 20
11.8370306662
 30
0.0
 10
10.7016642688
 20
11.8363522458
 30
0.0
 10
10.7071581723
 20
11.8359712423
 30
0.0
  0
SPLINE
  5
3B4
100
AcDbEntity
  8
0
100
AcDbSpline
 62
7
  6
CONTINUOUS
 70
0
 71
3
 72
50
 73
46
 74
0
 42
0.0000001
 43
0.0000001
 44
0.0000000001
 40
0.0
 40
0.0
 40
0.0
 40
0.0
 40
0.0055575484
 40
0.0111779922
 40
0.016921945
 40
0.0228458833
 40
0.0290006815
 40
0.0354311436
 40
0.0421756504
 40
0.0492665308
 40
0.0567306759
 40
0.0645898217
 40
0.0728615778
 40
0.0815596977
 40
0.0906946685
 40
0.100274387
 40
0.1103041016
 40
0.1207871917
 40
0.1317251696
 40
0.1431178633
 40
0.1549639321
 40
0.16726054
 40
0.1800039018
 40
0.1931892317
 40
0.2208607128
 40
0.2502207991
 40
0.2812027127
 40
0.3137299142
 40
0.3477173552
 40
0.383072554
 40
0.4196964471
 40
0.4574841188
 40
0.4963254304
 40
0.5361057043
 40
0.5767063272
 40
0.6180053027
 40
0.6598777724
 40
0.7021965482
 40
0.7448326997
 40
0.7876559964
 40
0.8305355066
 40
0.8733402465
 40
0.9159384006
 40
0.9582025777
 40
1.0
 40
1.0
 40
1.0
 40
1.0
 10
11.9242480527
 20
10.7975042369
 30
0.0
 10
11.9242480586
 20
10.7982364823
 30
0.0
 10
11.924330096
 20
10.7997105325
 30
0.0
 10
11.9246980751
 20
10.8019137368
 30
0.0
 10
11.9253104058
 20
10.8041120388
 30
0.0
 10
11.9261659774
 20
10.8063028495
 30
0.0
 10
11.9272632446
 20
10.8084844548
 30
0.0
 10
11.9286008575
 20
10.8106551212
 30
0.0
 10
11.9301772284
 20
10.8128133878
 30
0.0
 10
11.9319907971
 20
10.8149578274
 30
0.0
 10
11.9340400175
 20
10.8170869162
 30
0.0
 10
11.9363230787
 20
10.8191992758
 30
0.0
 10
11.9388381939
 20
10.821293317
 30
0.0
 10
11.9415833249
 20
10.8233675177
 30
0.0
 10
11.9445562669
 20
10.825420347
 30
0.0
 10
11.9477546979
 20
10.827450132
 30
0.0
 10
11.9511760143
 20
10.8294553693
 30
0.0
 10
11.9548175026
 20
10.8314344073
 30
0.0
 10
11.9586762294
 20
10.8333856582
 30
0.0
 10
11.962749064
 20
10.8353075979
 30
0.0
 10
11.9670327385
 20
10.8371985858
 30
0.0
 10
11.9715237522
 20
10.8390571482
 30
0.0
 10
11.976218473
 20
10.8408817569
 30
0.0
 10
11.9828518378
 20
10.8433063652
 30
0.0
 10
11.9916310019
 20
10.8462317738
 30
0.0
 10
12.0027503863
 20
10.8495298887
 30
0.0
 10
12.0145814186
 20
10.8526588973
 30
0.0
 10
12.0270854895
 20
10.8556084549
 30
0.0
 10
12.0402219
 20
10.8583687983
 30
0.0
 10
12.0539477645
 20
10.8609307865
 30
0.0
 10
12.068218246
 20
10.8632859341
 30
0.0
 10
12.0829866821
 20
10.8654264372
 30
0.0
 10
12.0982047467
 20
10.8673452234
 30
0.0
 10
12.11382262
 20
10.8690359529
 30
0.0
 10
12.1297891632
 20
10.8704930377
 30
0.0
 10
12.1460520864
 20
10.8717116574
 30
0.0
 10
12.1625581159
 20
10.8726877818
 30
0.0
 10
12.179253174
 20
10.8734181983
 30
0.0
 10
12.196082557
 20
10.8739004956
 30
0.0
 10
12.212991122
 20
10.8741330816
 30
0.0
 10
12.2299234884
 20
10.8741151827
 30
0.0
 10
12.2468240699
 20
10.8738468431
 30
0.0
 10
12.2636377555
 20
10.8733289986
 30
0.0
 10
12.2803090888
 20
10.8725632872
 30
0.0
 10
12.2913645213
 20
10.8718848668
 30
0.0
 10
12.2968584248
 20
10.8715038633
 30
0.0
  0
SPLINE
  5
3B5
100
AcDbEntity
  8
0
100
AcDbSpline
 62
7
  6
CONTINUOUS
 70
0
 71
3
 72
33
 73
29
 74
0
 42
0.0000001
 43
0.0000001
 44
0.0000000001
 40
0.0
 40
0.0
 40
0.0
 40
0.0
 40
0.0958336213
 40
0.1891081202
 40
0.2792503045
 40
0.3657220889
 40
0.4480132641
 40
0.5256549075
 40
0.5625997422
 40
0.5982276624
 40
0.6324950734
 40
0.6653617928
 40
0.6967929111
 40
0.7267584475
 40
0.7552344057
 40
0.7822038982
 40
0.8076574015
 40
0.8315955933
 40
0.8540293233
 40
0.8749841742
 40
0.8945012814
 40
0.9126434623
 40
0.9294982434
 40
0.9451850253
 40
0.9598600352
 40
0.9737213109
 40
0.9870092528
 40
1.0
 40
1.0
 40
1.0
 40
1.0
 10
11.4590443879
 20
11.3122375995
 30
0.0
 10
11.4624303366
 20
11.3120027831
 30
0.0
 10
11.4691069327
 20
11.3114649416
 30
0.0
 10
11.4789444798
 20
11.3104383119
 30
0.0
 10
11.4884245312
 20
11.3092079743
 30
0.0
 10
11.4974837663
 20
11.3077823738
 30
0.0
 10
11.5060618607
 20
11.3061711464
 30
0.0
 10
11.5128702654
 20
11.304659029
 30
0.0
 10
11.5180291228
 20
11.3033581376
 30
0.0
 10
11.5216790815
 20
11.3023592523
 30
0.0
 10
11.5251681418
 20
11.3013227389
 30
0.0
 10
11.5284905048
 20
11.3002502643
 30
0.0
 10
11.5316406587
 20
11.2991436672
 30
0.0
 10
11.5346133914
 20
11.2980047905
 30
0.0
 10
11.5374037927
 20
11.2968355151
 30
0.0
 10
11.5400072962
 20
11.2956378302
 30
0.0
 10
11.5424196282
 20
11.2944136281
 30
0.0
 10
11.5446369208
 20
11.2931649968
 30
0.0
 10
11.5466555685
 20
11.2918937964
 30
0.0
 10
11.5484724314
 20
11.2906021073
 30
0.0
 10
11.550084576
 20
11.2892916829
 30
0.0
 10
11.5514895182
 20
11.2879644078
 30
0.0
 10
11.5526848583
 20
11.2866218146
 30
0.0
 10
11.5536683984
 20
11.2852654252
 30
0.0
 10
11.5544377708
 20
11.283896688
 30
0.0
 10
11.5549903453
 20
11.2825171778
 30
0.0
 10
11.5553234693
 20
11.281129851
 30
0.0
 10
11.5553979234
 20
11.2801975454
 30
0.0
 10
11.555397919
 20
11.27973746
 30
0.0
  0
SPLINE
  5
3B6
100
AcDbEntity
  8
0
100
AcDbSpline
 62
7
  6
CONTINUOUS
 70
0
 71
3
 72
50
 73
46
 74
0
 42
0.0000001
 43
0.0000001
 44
0.0000000001
 40
0.0
 40
0.0
 40
0.0
 40
0.0
 40
0.0055575484
 40
0.0111779922
 40
0.016921945
 40
0.0228458833
 40
0.0290006815
 40
0.0354311436
 40
0.0421756504
 40
0.0492665308
 40
0.0567306759
 40
0.0645898217
 40
0.0728615778
 40
0.0815596977
 40
0.0906946685
 40
0.100274387
 40
0.1103041016
 40
0.1207871917
 40
0.1317251696
 40
0.1431178633
 40
0.1549639321
 40
0.16726054
 40
0.1800039018
 40
0.1931892317
 40
0.2208607128
 40
0.2502207991
 40
0.2812027127
 40
0.3137299142
 40
0.3477173552
 40
0.383072554
 40
0.4196964471
 40
0.4574841188
 40
0.4963254304
 40
0.5361057043
 40
0.5767063272
 40
0.6180053027
 40
0.6598777724
 40
0.7021965482
 40
0.7448326997
 40
0.7876559964
 40
0.8305355066
 40
0.8733402465
 40
0.9159384006
 40
0.9582025777
 40
1.0
 40
1.0
 40
1.0
 40
1.0
 10
12.749362509
 20
11.5945036471
 30
0.0
 10
12.7493625149
 20
11.5952358925
 30
0.0
 10
12.7494445524
 20
11.5967099427
 30
0.0
 10
12.7498125315
 20
11.598913147
 30
0.0
 10
12.7504248621
 20
11.601111449
 30
0.0
 10
12.7512804337
 20
11.6033022597
 30
0.0
 10
12.7523777009
 20
11.605483865
 30
0.0
 10
12.7537153138
 20
11.6076545314
 30
0.0
 10
12.7552916848
 20
11.609812798
 30
0.0
 10
12.7571052534
 20
11.6119572376
 30
0.0
 10
12.7591544738
 20
11.6140863264
 30
0.0
 10
12.761437535
 20
11.616198686
 30
0.0
 10
12.7639526502
 20
11.6182927272
 30
0.0
 10
12.7666977812
 20
11.6203669279
 30
0.0
 10
12.7696707232
 20
11.6224197573
 30
0.0
 10
12.7728691543
 20
11.6244495423
 30
0.0
 10
12.7762904706
 20
11.6264547795
 30
0.0
 10
12.7799319589
 20
11.6284338175
 30
0.0
 10
12.7837906857
 20
11.6303850684
 30
0.0
 10
12.7878635204
 20
11.6323070081
 30
0.0
 10
12.7921471948
 20
11.634197996
 30
0.0
 10
12.7966382085
 20
11.6360565584
 30
0.0
 10
12.8013329293
 20
11.6378811671
 30
0.0
 10
12.8079662941
 20
11.6403057755
 30
0.0
 10
12.8167454582
 20
11.643231184
 30
0.0
 10
12.8278648426
 20
11.6465292989
 30
0.0
 10
12.8396958749
 20
11.6496583076
 30
0.0
 10
12.8521999458
 20
11.6526078651
 30
0.0
 10
12.8653363563
 20
11.6553682085
 30
0.0
 10
12.8790622208
 20
11.6579301967
 30
0.0
 10
12.8933327023
 20
11.6602853444
 30
0.0
 10
12.9081011384
 20
11.6624258474
 30
0.0
 10
12.923319203
 20
11.6643446336
 30
0.0
 10
12.9389370763
 20
11.6660353631
 30
0.0
 10
12.9549036195
 20
11.6674924479
 30
0.0
 10
12.9711665427
 20
11.6687110676
 30
0.0
 10
12.9876725722
 20
11.669687192
 30
0.0
 10
13.0043676303
 20
11.6704176085
 30
0.0
 10
13.0211970133
 20
11.6708999058
 30
0.0
 10
13.0381055783
 20
11.6711324918
 30
0.0
 10
13.0550379448
 20
11.6711145929
 30
0.0
 10
13.0719385262
 20
11.6708462534
 30
0.0
 10
13.0887522118
 20
11.6703284088
 30
0.0
 10
13.1054235451
 20
11.6695626974
 30
0.0
 10
13.1164789776
 20
11.668884277
 30
0.0
 10
13.1219728811
 20
11.6685032735
 30
0.0
  0
SPLINE
  5
3B7
100
AcDbEntity
  8
0
100
AcDbSpline
 62
7
  6
CONTINUOUS
 70
0
 71
3
 72
49
 73
45
 74
0
 42
0.0000001
 43
0.0000001
 44
0.0000000001
 40
0.0
 40
0.0
 40
0.0
 40
0.0
 40
0.0055575652
 40
0.0111779989
 40
0.0169219414
 40
0.0228458413
 40
0.0290005862
 40
0.0354310054
 40
0.0421754419
 40
0.0492662547
 40
0.0567303348
 40
0.0645894055
 40
0.0728610837
 40
0.081559144
 40
0.0906940366
 40
0.1002736841
 40
0.1103033552
 40
0.1207863534
 40
0.131724296
 40
0.1431169483
 40
0.1549629335
 40
0.167259542
 40
0.1931868013
 40
0.2208582139
 40
0.2502183164
 40
0.281200247
 40
0.3137274299
 40
0.3477148798
 40
0.3830701696
 40
0.4196941701
 40
0.4574819135
 40
0.4963233105
 40
0.5361037302
 40
0.5767045149
 40
0.6180036379
 40
0.6598762574
 40
0.7021952159
 40
0.7448315601
 40
0.7876550186
 40
0.8305347645
 40
0.873339678
 40
0.9159378915
 40
0.9582026976
 40
1.0
 40
1.0
 40
1.0
 40
1.0
 10
10.3601563986
 20
11.3362745086
 30
0.0
 10
10.3601563929
 20
11.3368929612
 30
0.0
 10
10.3602256419
 20
11.3381379378
 30
0.0
 10
10.3605363443
 20
11.339998769
 30
0.0
 10
10.3610534856
 20
11.341855446
 30
0.0
 10
10.3617760279
 20
11.3437058071
 30
0.0
 10
10.362702713
 20
11.3455483951
 30
0.0
 10
10.3638324149
 20
11.3473817313
 30
0.0
 10
10.3651637509
 20
11.3492046101
 30
0.0
 10
10.3666954356
 20
11.351015803
 30
0.0
 10
10.3684261533
 20
11.3528140302
 30
0.0
 10
10.3703543702
 20
11.3545981312
 30
0.0
 10
10.3724785804
 20
11.3563667632
 30
0.0
 10
10.3747970695
 20
11.3581186286
 30
0.0
 10
10.3773079614
 20
11.3598524544
 30
0.0
 10
10.3800093051
 20
11.361566816
 30
0.0
 10
10.3828989041
 20
11.3632604304
 30
0.0
 10
10.3859744495
 20
11.3649319442
 30
0.0
 10
10.3892334884
 20
11.3665799648
 30
0.0
 10
10.3926733589
 20
11.3682032305
 30
0.0
 10
10.3962913035
 20
11.3698003932
 30
0.0
 10
10.4014401016
 20
11.3719311022
 30
0.0
 10
10.4083067255
 20
11.3745106289
 30
0.0
 10
10.4170667011
 20
11.3774298358
 30
0.0
 10
10.4264581794
 20
11.3802154151
 30
0.0
 10
10.436450573
 20
11.3828581824
 30
0.0
 10
10.4470114505
 20
11.3853493947
 30
0.0
 10
10.4581063961
 20
11.3876807983
 30
0.0
 10
10.4696992131
 20
11.3898446553
 30
0.0
 10
10.4817520174
 20
11.391833814
 30
0.0
 10
10.4942253894
 20
11.393641698
 30
0.0
 10
10.50707852
 20
11.3952623235
 30
0.0
 10
10.5202693392
 20
11.396690317
 30
0.0
 10
10.5337546506
 20
11.3979209713
 30
0.0
 10
10.547490283
 20
11.3989502261
 30
0.0
 10
10.5614312438
 20
11.3997746784
 30
0.0
 10
10.5755318633
 20
11.4003915919
 30
0.0
 10
10.5897459345
 20
11.4007989401
 30
0.0
 10
10.6040268882
 20
11.4009953879
 30
0.0
 10
10.6183279424
 20
11.40098028
 30
0.0
 10
10.6326021399
 20
11.4007536435
 30
0.0
 10
10.6468029894
 20
11.4003162754
 30
0.0
 10
10.6608835757
 20
11.3996695512
 30
0.0
 10
10.6702209947
 20
11.3990965623
 30
0.0
 10
10.6748611044
 20
11.3987747696
 30
0.0
  0
SPLINE
  5
3B8
100
AcDbEntity
  8
0
100
AcDbSpline
 62
7
  6
CONTINUOUS
 70
0
 71
3
 72
42
 73
38
 74
0
 42
0.0000001
 43
0.0000001
 44
0.0000000001
 40
0.0
 40
0.0
 40
0.0
 40
0.0
 40
0.0151898428
 40
0.0304072437
 40
0.0456524503
 40
0.0609256286
 40
0.0915535089
 40
0.1222933536
 40
0.1377061609
 40
0.1531463006
 40
0.1841044301
 40
0.215166494
 40
0.2463275114
 40
0.2775814464
 40
0.3089212818
 40
0.3403391006
 40
0.3718261752
 40
0.4033730629
 40
0.434969707
 40
0.466605543
 40
0.4982696075
 40
0.5299506509
 40
0.5616372516
 40
0.593317932
 40
0.6249812742
 40
0.6566160357
 40
0.6882112641
 40
0.7197564089
 40
0.7512414313
 40
0.7826569103
 40
0.8139941406
 40
0.8452452386
 40
0.8764031974
 40
0.907462072
 40
0.9384167602
 40
0.9692637836
 40
1.0
 40
1.0
 40
1.0
 40
1.0
 10
9.9232267422
 20
8.4678566505
 30
0.0
 10
9.9222949442
 20
8.4603465432
 30
0.0
 10
9.9206319689
 20
8.4452868063
 30
0.0
 10
9.9187423673
 20
8.4226184904
 30
0.0
 10
9.9174565019
 20
8.3998660392
 30
0.0
 10
9.9165474508
 20
8.369413093
 30
0.0
 10
9.9169282219
 20
8.3312129181
 30
0.0
 10
9.9193231594
 20
8.2930167282
 30
0.0
 10
9.92244141
 20
8.2624865343
 30
0.0
 10
9.926367155
 20
8.2319400296
 30
0.0
 10
9.9327765186
 20
8.1938656856
 30
0.0
 10
9.9428355448
 20
8.1485245974
 30
0.0
 10
9.9552412778
 20
8.1036152793
 30
0.0
 10
9.9699587993
 20
8.0592641168
 30
0.0
 10
9.9869468758
 20
8.0155949224
 30
0.0
 10
10.0061578998
 20
7.9727298622
 30
0.0
 10
10.0275380712
 20
7.9307887751
 30
0.0
 10
10.0510275344
 20
7.8898889315
 30
0.0
 10
10.0765605495
 20
7.8501446838
 30
0.0
 10
10.1040656742
 20
7.8116671545
 30
0.0
 10
10.1334659636
 20
7.7745639261
 30
0.0
 10
10.1646791842
 20
7.7389387428
 30
0.0
 10
10.1976180428
 20
7.7048912212
 30
0.0
 10
10.2321904296
 20
7.6725165745
 30
0.0
 10
10.2682996727
 20
7.6419053446
 30
0.0
 10
10.3058448076
 20
7.6131431511
 30
0.0
 10
10.3447208598
 20
7.5863104537
 30
0.0
 10
10.3848191357
 20
7.5614823287
 30
0.0
 10
10.426027525
 20
7.5387282583
 30
0.0
 10
10.4682308117
 20
7.5181119408
 30
0.0
 10
10.5113109973
 20
7.4996911019
 30
0.0
 10
10.5551476111
 20
7.4835173627
 30
0.0
 10
10.5996181161
 20
7.4696360205
 30
0.0
 10
10.6445979839
 20
7.4580860945
 30
0.0
 10
10.6899619614
 20
7.4488998501
 30
0.0
 10
10.7355813581
 20
7.4421034074
 30
0.0
 10
10.7661390376
 20
7.4391727109
 30
0.0
 10
10.7814153562
 20
7.4381132946
 30
0.0
  0
SPLINE
  5
3B9
100
AcDbEntity
  8
0
100
AcDbSpline
 62
7
  6
CONTINUOUS
 70
0
 71
3
 72
21
 73
17
 74
0
 42
0.0000001
 43
0.0000001
 44
0.0000000001
 40
0.0
 40
0.0
 40
0.0
 40
0.0
 40
0.0622758973
 40
0.124641073
 40
0.1870838094
 40
0.2495918999
 40
0.3121527555
 40
0.3747534761
 40
0.4999992194
 40
0.6252450634
 40
0.6878459089
 40
0.7504069393
 40
0.8129152512
 40
0.8753582569
 40
0.9377237462
 40
1.0
 40
1.0
 40
1.0
 40
1.0
 10
10.4668426876
 20
8.2468235205
 30
0.0
 10
10.4702009782
 20
8.2400999917
 30
0.0
 10
10.4771819581
 20
8.2267711793
 30
0.0
 10
10.4884181659
 20
8.2071820446
 30
0.0
 10
10.5004095355
 20
8.1880123871
 30
0.0
 10
10.5131360122
 20
8.1692943396
 30
0.0
 10
10.5265767882
 20
8.1510583374
 30
0.0
 10
10.545421118
 20
8.1274260372
 30
0.0
 10
10.5706463756
 20
8.0992429997
 30
0.0
 10
10.5979346042
 20
8.0730523354
 30
0.0
 10
10.6208968983
 20
8.0533970474
 30
0.0
 10
10.6386542074
 20
8.0393298137
 30
0.0
 10
10.6569181402
 20
8.0259596644
 30
0.0
 10
10.6756589902
 20
8.0133084333
 30
0.0
 10
10.6948453653
 20
8.001397317
 30
0.0
 10
10.7079232452
 20
7.9939566982
 30
0.0
 10
10.7145258773
 20
7.9903664545
 30
0.0
  0
SPLINE
  5
3BA
100
AcDbEntity
  8
0
100
AcDbSpline
 62
7
  6
CONTINUOUS
 70
0
 71
3
 72
39
 73
35
 74
0
 42
0.0000001
 43
0.0000001
 44
0.0000000001
 40
0.0
 40
0.0
 40
0.0
 40
0.0
 40
0.0958316475
 40
0.1891006073
 40
0.279240642
 40
0.3229674356
 40
0.365711151
 40
0.4074094627
 40
0.4480020772
 40
0.4874317741
 40
0.5256439547
 40
0.5625873626
 40
0.5982141631
 40
0.6324802323
 40
0.6653459096
 40
0.6967758341
 40
0.7267403598
 40
0.7552153214
 40
0.7821838024
 40
0.8076365273
 40
0.831573723
 40
0.8540068598
 40
0.8749607899
 40
0.8944774057
 40
0.9126188108
 40
0.9294731124
 40
0.9451592998
 40
0.9598338063
 40
0.9668558128
 40
0.9737028706
 40
0.9804062828
 40
0.9869996808
 40
0.9935186293
 40
1.0
 40
1.0
 40
1.0
 40
1.0
 10
10.7071581723
 20
11.8359712423
 30
0.0
 10
10.7148678294
 20
11.8354365758
 30
0.0
 10
10.7300698782
 20
11.8342119812
 30
0.0
 10
10.7524691338
 20
11.8318743568
 30
0.0
 10
10.7706360827
 20
11.8295167561
 30
0.0
 10
10.7847199257
 20
11.8273945357
 30
0.0
 10
10.7949180122
 20
11.8257097211
 30
0.0
 10
10.8048412477
 20
11.8239186099
 30
0.0
 10
10.8144730692
 20
11.8220241177
 30
0.0
 10
10.8237973888
 20
11.8200295039
 30
0.0
 10
10.8327986455
 20
11.8179380711
 30
0.0
 10
10.8414618278
 20
11.8157533635
 30
0.0
 10
10.849772498
 20
11.8134790575
 30
0.0
 10
10.8577168175
 20
11.8111189428
 30
0.0
 10
10.8652815867
 20
11.8086770467
 30
0.0
 10
10.8724542412
 20
11.8061573816
 30
0.0
 10
10.8792229264
 20
11.8035642623
 30
0.0
 10
10.8855764593
 20
11.8009019219
 30
0.0
 10
10.8915044264
 20
11.7981748554
 30
0.0
 10
10.8969971432
 20
11.7953874999
 30
0.0
 10
10.9020457171
 20
11.792544386
 30
0.0
 10
10.906642073
 20
11.7896500572
 30
0.0
 10
10.9107788759
 20
11.7867088822
 30
0.0
 10
10.9144496798
 20
11.7837252407
 30
0.0
 10
10.9176485544
 20
11.7807030823
 30
0.0
 10
10.9203703478
 20
11.7776460686
 30
0.0
 10
10.9226096527
 20
11.7745579675
 30
0.0
 10
10.9240908693
 20
11.7719225002
 30
0.0
 10
10.9250141543
 20
11.7698122397
 30
0.0
 10
10.925573197
 20
11.7682487282
 30
0.0
 10
10.926008415
 20
11.7666821276
 30
0.0
 10
10.9263194901
 20
11.7651130816
 30
0.0
 10
10.9265062423
 20
11.7635425165
 30
0.0
 10
10.9265478003
 20
11.7624936608
 30
0.0
 10
10.9265477961
 20
11.7619709821
 30
0.0
  0
SPLINE
  5
3BB
100
AcDbEntity
  8
0
100
AcDbSpline
 62
7
  6
CONTINUOUS
 70
0
 71
3
 72
49
 73
45
 74
0
 42
0.0000001
 43
0.0000001
 44
0.0000000001
 40
0.0
 40
0.0
 40
0.0
 40
0.0
 40
0.0055575652
 40
0.0111779989
 40
0.0169219414
 40
0.0228458413
 40
0.0290005862
 40
0.0354310054
 40
0.0421754419
 40
0.0492662547
 40
0.0567303348
 40
0.0645894055
 40
0.0728610837
 40
0.081559144
 40
0.0906940366
 40
0.1002736841
 40
0.1103033552
 40
0.1207863534
 40
0.131724296
 40
0.1431169483
 40
0.1549629335
 40
0.167259542
 40
0.1931868013
 40
0.2208582139
 40
0.2502183164
 40
0.281200247
 40
0.3137274299
 40
0.3477148798
 40
0.3830701696
 40
0.4196941701
 40
0.4574819135
 40
0.4963233105
 40
0.5361037302
 40
0.5767045149
 40
0.6180036379
 40
0.6598762574
 40
0.7021952159
 40
0.7448315601
 40
0.7876550186
 40
0.8305347645
 40
0.873339678
 40
0.9159378915
 40
0.9582026976
 40
1.0
 40
1.0
 40
1.0
 40
1.0
 10
11.9906393701
 20
11.2232001305
 30
0.0
 10
11.9906393644
 20
11.2238185831
 30
0.0
 10
11.9907086135
 20
11.2250635596
 30
0.0
 10
11.9910193158
 20
11.2269243908
 30
0.0
 10
11.9915364572
 20
11.2287810679
 30
0.0
 10
11.9922589995
 20
11.2306314289
 30
0.0
 10
11.9931856846
 20
11.232474017
 30
0.0
 10
11.9943153864
 20
11.2343073532
 30
0.0
 10
11.9956467224
 20
11.236130232
 30
0.0
 10
11.9971784071
 20
11.2379414249
 30
0.0
 10
11.9989091249
 20
11.2397396521
 30
0.0
 10
12.0008373418
 20
11.2415237531
 30
0.0
 10
12.002961552
 20
11.2432923851
 30
0.0
 10
12.005280041
 20
11.2450442505
 30
0.0
 10
12.0077909329
 20
11.2467780763
 30
0.0
 10
12.0104922766
 20
11.2484924379
 30
0.0
 10
12.0133818757
 20
11.2501860523
 30
0.0
 10
12.016457421
 20
11.251857566
 30
0.0
 10
12.0197164599
 20
11.2535055866
 30
0.0
 10
12.0231563304
 20
11.2551288524
 30
0.0
 10
12.026774275
 20
11.2567260151
 30
0.0
 10
12.0319230731
 20
11.2588567241
 30
0.0
 10
12.038789697
 20
11.2614362508
 30
0.0
 10
12.0475496726
 20
11.2643554577
 30
0.0
 10
12.0569411509
 20
11.267141037
 30
0.0
 10
12.0669335446
 20
11.2697838042
 30
0.0
 10
12.077494422
 20
11.2722750166
 30
0.0
 10
12.0885893676
 20
11.2746064202
 30
0.0
 10
12.1001821846
 20
11.2767702771
 30
0.0
 10
12.1122349889
 20
11.2787594359
 30
0.0
 10
12.1247083609
 20
11.2805673198
 30
0.0
 10
12.1375614915
 20
11.2821879454
 30
0.0
 10
12.1507523107
 20
11.2836159389
 30
0.0
 10
12.1642376221
 20
11.2848465932
 30
0.0
 10
12.1779732545
 20
11.285875848
 30
0.0
 10
12.1919142154
 20
11.2867003002
 30
0.0
 10
12.2060148349
 20
11.2873172138
 30
0.0
 10
12.220228906
 20
11.2877245619
 30
0.0
 10
12.2345098597
 20
11.2879210098
 30
0.0
 10
12.248810914
 20
11.2879059019
 30
0.0
 10
12.2630851115
 20
11.2876792654
 30
0.0
 10
12.2772859609
 20
11.2872418973
 30
0.0
 10
12.2913665473
 20
11.2865951731
 30
0.0
 10
12.3007039662
 20
11.2860221841
 30
0.0
 10
12.3053440759
 20
11.2857003914
 30
0.0
  0
SPLINE
  5
3BC
100
AcDbEntity
  8
0
100
AcDbSpline
 62
7
  6
CONTINUOUS
 70
0
 71
3
 72
16
 73
12
 74
0
 42
0.0000001
 43
0.0000001
 44
0.0000000001
 40
0.0
 40
0.0
 40
0.0
 40
0.0
 40
0.1095881251
 40
0.2212428322
 40
0.3363046414
 40
0.455990095
 40
0.517923293
 40
0.5813998101
 40
0.713384074
 40
0.8527213564
 40
1.0
 40
1.0
 40
1.0
 40
1.0
 10
10.9892690883
 20
11.1011624436
 30
0.0
 10
10.989304405
 20
11.101833663
 30
0.0
 10
10.9894576095
 20
11.1031857616
 30
0.0
 10
10.9899289935
 20
11.1051982775
 30
0.0
 10
10.9906417339
 20
11.1072041413
 30
0.0
 10
10.9914267208
 20
11.1088493044
 30
0.0
 10
10.9921681326
 20
11.1101575002
 30
0.0
 10
10.9930081065
 20
11.1114947638
 30
0.0
 10
10.9942130898
 20
11.1131606405
 30
0.0
 10
10.9958753227
 20
11.1151201256
 30
0.0
 10
10.9971034524
 20
11.1163799797
 30
0.0
 10
10.9977531686
 20
11.1170075574
 30
0.0
  0
SPLINE
  5
3BD
100
AcDbEntity
  8
0
100
AcDbSpline
 62
7
  6
CONTINUOUS
 70
0
 71
3
 72
41
 73
37
 74
0
 42
0.0000001
 43
0.0000001
 44
0.0000000001
 40
0.0
 40
0.0
 40
0.0
 40
0.0
 40
0.0055577021
 40
0.0111783149
 40
0.0169224622
 40
0.0228465274
 40
0.0354205341
 40
0.042165193
 40
0.0492562987
 40
0.0567206954
 40
0.0645800604
 40
0.0728520219
 40
0.0815504586
 40
0.0906857096
 40
0.1002656193
 40
0.1102957279
 40
0.1207791215
 40
0.1431083788
 40
0.167250025
 40
0.1931782108
 40
0.2208504721
 40
0.250211413
 40
0.2811942906
 40
0.3137223557
 40
0.3477107955
 40
0.3830670634
 40
0.4196919721
 40
0.4574807647
 40
0.4963231841
 40
0.5361045751
 40
0.5767064164
 40
0.6598776408
 40
0.7448325676
 40
0.830535762
 40
0.9159380013
 40
1.0
 40
1.0
 40
1.0
 40
1.0
 10
12.2992251132
 20
10.9673604128
 30
0.0
 10
12.2992251162
 20
10.9676820066
 30
0.0
 10
12.299261114
 20
10.9683293973
 30
0.0
 10
12.2994227406
 20
10.969297011
 30
0.0
 10
12.2996917274
 20
10.9702625099
 30
0.0
 10
12.3002026186
 20
10.9715710249
 30
0.0
 10
12.3009272459
 20
10.9728493003
 30
0.0
 10
12.3018290816
 20
10.9740839244
 30
0.0
 10
12.3026256642
 20
10.9750258676
 30
0.0
 10
12.3035256462
 20
10.9759608969
 30
0.0
 10
12.3045283462
 20
10.9768886344
 30
0.0
 10
12.3056329493
 20
10.977808321
 30
0.0
 10
12.3068385947
 20
10.9787192754
 30
0.0
 10
12.30814428
 20
10.9796208522
 30
0.0
 10
12.3095489845
 20
10.9805123309
 30
0.0
 10
12.3110516055
 20
10.9813929969
 30
0.0
 10
12.3132301304
 20
10.9825769027
 30
0.0
 10
12.3161956279
 20
10.9840188391
 30
0.0
 10
12.3200513987
 20
10.9856606069
 30
0.0
 10
12.3242637186
 20
10.9872430353
 30
0.0
 10
12.3288189642
 20
10.9887610101
 30
0.0
 10
12.333702524
 20
10.9902095047
 30
0.0
 10
12.3388985746
 20
10.9915837176
 30
0.0
 10
12.3443902267
 20
10.992879145
 30
0.0
 10
12.3501595937
 20
10.994091454
 30
0.0
 10
12.3561878467
 20
10.9952166414
 30
0.0
 10
12.3624552861
 20
10.9962510067
 30
0.0
 10
12.3689414222
 20
10.9971910847
 30
0.0
 10
12.3756250259
 20
10.9980337911
 30
0.0
 10
12.3824842348
 20
10.9987763638
 30
0.0
 10
12.391909444
 20
10.9996364145
 30
0.0
 10
12.4039628495
 20
11.0004397222
 30
0.0
 10
12.4186431736
 20
11.0009683384
 30
0.0
 10
12.433461895
 20
11.0010618937
 30
0.0
 10
12.4482251043
 20
11.0007192284
 30
0.0
 10
12.4580189884
 20
11.0001967491
 30
0.0
 10
12.4628715405
 20
10.9998602235
 30
0.0
  0
SPLINE
  5
3BE
100
AcDbEntity
  8
0
100
AcDbSpline
 62
7
  6
CONTINUOUS
 70
0
 71
3
 72
37
 73
33
 74
0
 42
0.0000001
 43
0.0000001
 44
0.0000000001
 40
0.0
 40
0.0
 40
0.0
 40
0.0
 40
0.0958321372
 40
0.1891019121
 40
0.2792425465
 40
0.3657115305
 40
0.4074101378
 40
0.4480031117
 40
0.4874331589
 40
0.5256456456
 40
0.5625894675
 40
0.5982165282
 40
0.6324830688
 40
0.665348975
 40
0.6967793974
 40
0.7267441687
 40
0.7552196034
 40
0.7821883904
 40
0.8076415214
 40
0.8315791003
 40
0.8540125631
 40
0.8749669375
 40
0.894483817
 40
0.9126256757
 40
0.9294802133
 40
0.9451667887
 40
0.9598415117
 40
0.9737025915
 40
0.9804060739
 40
0.98699956
 40
0.9935185817
 40
1.0
 40
1.0
 40
1.0
 40
1.0
 10
12.3053440759
 20
11.2857003914
 30
0.0
 10
12.3118555576
 20
11.2852488186
 30
0.0
 10
12.3246950218
 20
11.2842145335
 30
0.0
 10
12.3436132891
 20
11.2822402354
 30
0.0
 10
12.3618438741
 20
11.2798742492
 30
0.0
 10
12.3765342752
 20
11.2775625985
 30
0.0
 10
12.38784616
 20
11.2755209043
 30
0.0
 10
12.3959811137
 20
11.2739208343
 30
0.0
 10
12.4038563478
 20
11.2722362177
 30
0.0
 10
12.4114587311
 20
11.2704698108
 30
0.0
 10
12.4187755841
 20
11.2686246592
 30
0.0
 10
12.425794709
 20
11.2667037818
 30
0.0
 10
12.4325044275
 20
11.2647105008
 30
0.0
 10
12.4388935752
 20
11.2626480653
 30
0.0
 10
12.4449515644
 20
11.2605200374
 30
0.0
 10
12.4506683529
 20
11.2583298813
 30
0.0
 10
12.4560345292
 20
11.2560813422
 30
0.0
 10
12.4610412655
 20
11.2537780733
 30
0.0
 10
12.4656804077
 20
11.2514239229
 30
0.0
 10
12.4699444347
 20
11.2490226705
 30
0.0
 10
12.4738265132
 20
11.24657814
 30
0.0
 10
12.4773204946
 20
11.244094094
 30
0.0
 10
12.4804208455
 20
11.2415741128
 30
0.0
 10
12.4831227016
 20
11.2390216577
 30
0.0
 10
12.4854214877
 20
11.2364397956
 30
0.0
 10
12.4873130211
 20
11.233831321
 30
0.0
 10
12.4887925606
 20
11.2311993823
 30
0.0
 10
12.4896881764
 20
11.2289634281
 30
0.0
 10
12.4901836384
 20
11.2271797496
 30
0.0
 10
12.4904464485
 20
11.2258545248
 30
0.0
 10
12.4906042358
 20
11.224528053
 30
0.0
 10
12.4906393619
 20
11.2236421972
 30
0.0
 10
12.4906393659
 20
11.2232007481
 30
0.0
  0
SPLINE
  5
3BF
100
AcDbEntity
  8
0
100
AcDbSpline
 62
7
  6
CONTINUOUS
 70
0
 71
3
 72
43
 73
39
 74
0
 42
0.0000001
 43
0.0000001
 44
0.0000000001
 40
0.0
 40
0.0
 40
0.0
 40
0.0
 40
0.005557639
 40
0.0111781648
 40
0.0169221774
 40
0.0228461969
 40
0.0290010882
 40
0.0354315617
 40
0.0421761723
 40
0.049267164
 40
0.0567312921
 40
0.0645905885
 40
0.0728624463
 40
0.0815605759
 40
0.0906957269
 40
0.1002755451
 40
0.1103053255
 40
0.1207885821
 40
0.1317267034
 40
0.1431195082
 40
0.1672608933
 40
0.1931885381
 40
0.2208603936
 40
0.2502209791
 40
0.2812032919
 40
0.3137309535
 40
0.3477189478
 40
0.3830746578
 40
0.4196991458
 40
0.4574874299
 40
0.4963293103
 40
0.536110245
 40
0.5767115512
 40
0.659881757
 40
0.7448356556
 40
0.8305377517
 40
0.9159390535
 40
1.0
 40
1.0
 40
1.0
 40
1.0
 10
12.7422047936
 20
11.4203598806
 30
0.0
 10
12.7422047936
 20
11.4207457944
 30
0.0
 10
12.7422480272
 20
11.4215226597
 30
0.0
 10
12.742441947
 20
11.4226838087
 30
0.0
 10
12.7427646244
 20
11.4238423818
 30
0.0
 10
12.7432155277
 20
11.4249970004
 30
0.0
 10
12.7437938213
 20
11.4261467554
 30
0.0
 10
12.7444987269
 20
11.4272907817
 30
0.0
 10
12.7453295241
 20
11.4284282377
 30
0.0
 10
12.7462853232
 20
11.4295584037
 30
0.0
 10
12.7473652708
 20
11.4306805291
 30
0.0
 10
12.7485685186
 20
11.4317937765
 30
0.0
 10
12.7498940402
 20
11.432897395
 30
0.0
 10
12.7513407695
 20
11.4339905841
 30
0.0
 10
12.7529075973
 20
11.435072458
 30
0.0
 10
12.7545932433
 20
11.4361422206
 30
0.0
 10
12.7563963534
 20
11.4371990498
 30
0.0
 10
12.7583155138
 20
11.4382420457
 30
0.0
 10
12.7603491615
 20
11.4392704249
 30
0.0
 10
12.7632678322
 20
11.440647677
 30
0.0
 10
12.7671961755
 20
11.4423201751
 30
0.0
 10
12.7722508195
 20
11.4442191338
 30
0.0
 10
12.7777171435
 20
11.446040705
 30
0.0
 10
12.7835774055
 20
11.4477788879
 30
0.0
 10
12.7898126626
 20
11.4494279802
 30
0.0
 10
12.7964026475
 20
11.4509824871
 30
0.0
 10
12.8033258942
 20
11.4524372593
 30
0.0
 10
12.810559802
 20
11.4537875128
 30
0.0
 10
12.8180807403
 20
11.4550287408
 30
0.0
 10
12.8258641159
 20
11.4561568442
 30
0.0
 10
12.8338844527
 20
11.4571681114
 30
0.0
 10
12.8421155204
 20
11.4580591874
 30
0.0
 10
12.8534257972
 20
11.4590912687
 30
0.0
 10
12.8678899183
 20
11.4600552338
 30
0.0
 10
12.8855063477
 20
11.4606895895
 30
0.0
 10
12.9032888624
 20
11.4608018587
 30
0.0
 10
12.92100476
 20
11.4603906577
 30
0.0
 10
12.9327574559
 20
11.4597636824
 30
0.0
 10
12.9385805313
 20
11.4593598507
 30
0.0
  0
SPLINE
  5
3C0
100
AcDbEntity
  8
0
100
AcDbSpline
 62
7
  6
CONTINUOUS
 70
0
 71
3
 72
41
 73
37
 74
0
 42
0.0000001
 43
0.0000001
 44
0.0000000001
 40
0.0
 40
0.0
 40
0.0
 40
0.0
 40
0.0055577021
 40
0.0111783149
 40
0.0169224622
 40
0.0228465274
 40
0.0354205341
 40
0.042165193
 40
0.0492562987
 40
0.0567206954
 40
0.0645800604
 40
0.0728520219
 40
0.0815504586
 40
0.0906857096
 40
0.1002656193
 40
0.1102957279
 40
0.1207791215
 40
0.1431083788
 40
0.167250025
 40
0.1931782108
 40
0.2208504721
 40
0.250211413
 40
0.2811942906
 40
0.3137223557
 40
0.3477107955
 40
0.3830670634
 40
0.4196919721
 40
0.4574807647
 40
0.4963231841
 40
0.5361045751
 40
0.5767064164
 40
0.6598776408
 40
0.7448325676
 40
0.830535762
 40
0.9159380013
 40
1.0
 40
1.0
 40
1.0
 40
1.0
 10
11.2953979606
 20
11.2797377888
 30
0.0
 10
11.2953979637
 20
11.2800593826
 30
0.0
 10
11.2954339614
 20
11.2807067733
 30
0.0
 10
11.295595588
 20
11.281674387
 30
0.0
 10
11.2958645748
 20
11.2826398859
 30
0.0
 10
11.296375466
 20
11.2839484009
 30
0.0
 10
11.2971000934
 20
11.2852266763
 30
0.0
 10
11.2980019291
 20
11.2864613004
 30
0.0
 10
11.2987985117
 20
11.2874032436
 30
0.0
 10
11.2996984936
 20
11.2883382729
 30
0.0
 10
11.3007011936
 20
11.2892660104
 30
0.0
 10
11.3018057968
 20
11.290185697
 30
0.0
 10
11.3030114422
 20
11.2910966514
 30
0.0
 10
11.3043171274
 20
11.2919982282
 30
0.0
 10
11.3057218319
 20
11.2928897069
 30
0.0
 10
11.307224453
 20
11.2937703729
 30
0.0
 10
11.3094029778
 20
11.2949542787
 30
0.0
 10
11.3123684753
 20
11.2963962151
 30
0.0
 10
11.3162242461
 20
11.2980379829
 30
0.0
 10
11.320436566
 20
11.2996204113
 30
0.0
 10
11.3249918116
 20
11.3011383861
 30
0.0
 10
11.3298753714
 20
11.3025868807
 30
0.0
 10
11.3350714221
 20
11.3039610936
 30
0.0
 10
11.3405630741
 20
11.305256521
 30
0.0
 10
11.3463324412
 20
11.30646883
 30
0.0
 10
11.3523606941
 20
11.3075940175
 30
0.0
 10
11.3586281336
 20
11.3086283827
 30
0.0
 10
11.3651142696
 20
11.3095684607
 30
0.0
 10
11.3717978733
 20
11.3104111671
 30
0.0
 10
11.3786570823
 20
11.3111537398
 30
0.0
 10
11.3880822915
 20
11.3120137905
 30
0.0
 10
11.4001356969
 20
11.3128170982
 30
0.0
 10
11.4148160211
 20
11.3133457145
 30
0.0
 10
11.4296347424
 20
11.3134392697
 30
0.0
 10
11.4443979518
 20
11.3130966044
 30
0.0
 10
11.4541918358
 20
11.3125741251
 30
0.0
 10
11.4590443879
 20
11.3122375995
 30
0.0
  0
SPLINE
  5
3C1
100
AcDbEntity
  8
0
100
AcDbSpline
 62
7
  6
CONTINUOUS
 70
0
 71
3
 72
26
 73
22
 74
0
 42
0.0000001
 43
0.0000001
 44
0.0000000001
 40
0.0
 40
0.0
 40
0.0
 40
0.0
 40
0.0616472497
 40
0.1233175263
 40
0.1850335991
 40
0.2468177265
 40
0.3086914105
 40
0.370675161
 40
0.4327882753
 40
0.495048633
 40
0.557472513
 40
0.6200744241
 40
0.6514488021
 40
0.6828722548
 40
0.7143460263
 40
0.7458712289
 40
0.8090747534
 40
0.872494041
 40
0.9042883697
 40
0.9361388667
 40
1.0
 40
1.0
 40
1.0
 40
1.0
 10
10.6294579941
 20
6.6544367958
 30
0.0
 10
10.617338153
 20
6.6427299591
 30
0.0
 10
10.5924589959
 20
6.6199591436
 30
0.0
 10
10.5533508878
 20
6.5878514677
 30
0.0
 10
10.5125445532
 20
6.5578660595
 30
0.0
 10
10.4701442011
 20
6.5300797851
 30
0.0
 10
10.4262563336
 20
6.5045622364
 30
0.0
 10
10.3809916404
 20
6.4813777249
 30
0.0
 10
10.3344642269
 20
6.4605845568
 30
0.0
 10
10.2867911051
 20
6.4422349705
 30
0.0
 10
10.2380932619
 20
6.4263752395
 30
0.0
 10
10.1967876811
 20
6.4152745003
 30
0.0
 10
10.1633612932
 20
6.4076737564
 30
0.0
 10
10.1380921496
 20
6.4026126552
 30
0.0
 10
10.1126601486
 20
6.3981987948
 30
0.0
 10
10.0785285412
 20
6.3931765015
 30
0.0
 10
10.035530498
 20
6.3885331461
 30
0.0
 10
9.992278754
 20
6.3860830277
 30
0.0
 10
9.9575499788
 20
6.385435302
 30
0.0
 10
9.9226958648
 20
6.3856644606
 30
0.0
 10
9.8965455086
 20
6.3868241232
 30
0.0
 10
9.8791316591
 20
6.3880317778
 30
0.0
  0
SPLINE
  5
3C2
100
AcDbEntity
  8
0
100
AcDbSpline
 62
7
  6
CONTINUOUS
 70
0
 71
3
 72
39
 73
35
 74
0
 42
0.0000001
 43
0.0000001
 44
0.0000000001
 40
0.0
 40
0.0
 40
0.0
 40
0.0
 40
0.0958316475
 40
0.1891006073
 40
0.279240642
 40
0.3229674356
 40
0.365711151
 40
0.4074094627
 40
0.4480020772
 40
0.4874317741
 40
0.5256439547
 40
0.5625873626
 40
0.5982141631
 40
0.6324802323
 40
0.6653459096
 40
0.6967758341
 40
0.7267403598
 40
0.7552153214
 40
0.7821838024
 40
0.8076365273
 40
0.831573723
 40
0.8540068598
 40
0.8749607899
 40
0.8944774057
 40
0.9126188108
 40
0.9294731124
 40
0.9451592998
 40
0.9598338063
 40
0.9668558128
 40
0.9737028706
 40
0.9804062828
 40
0.9869996808
 40
0.9935186293
 40
1.0
 40
1.0
 40
1.0
 40
1.0
 10
13.1219728811
 20
11.6685032735
 30
0.0
 10
13.1296825382
 20
11.6679686069
 30
0.0
 10
13.144884587
 20
11.6667440123
 30
0.0
 10
13.1672838426
 20
11.664406388
 30
0.0
 10
13.1854507915
 20
11.6620487872
 30
0.0
 10
13.1995346345
 20
11.6599265669
 30
0.0
 10
13.209732721
 20
11.6582417522
 30
0.0
 10
13.2196559565
 20
11.6564506411
 30
0.0
 10
13.229287778
 20
11.6545561488
 30
0.0
 10
13.2386120976
 20
11.652561535
 30
0.0
 10
13.2476133543
 20
11.6504701023
 30
0.0
 10
13.2562765366
 20
11.6482853946
 30
0.0
 10
13.2645872068
 20
11.6460110886
 30
0.0
 10
13.2725315263
 20
11.6436509739
 30
0.0
 10
13.2800962955
 20
11.6412090779
 30
0.0
 10
13.28726895
 20
11.6386894127
 30
0.0
 10
13.2940376352
 20
11.6360962934
 30
0.0
 10
13.3003911682
 20
11.6334339531
 30
0.0
 10
13.3063191352
 20
11.6307068865
 30
0.0
 10
13.311811852
 20
11.6279195311
 30
0.0
 10
13.316860426
 20
11.6250764171
 30
0.0
 10
13.3214567818
 20
11.6221820883
 30
0.0
 10
13.3255935847
 20
11.6192409134
 30
0.0
 10
13.3292643887
 20
11.6162572718
 30
0.0
 10
13.3324632632
 20
11.6132351134
 30
0.0
 10
13.3351850566
 20
11.6101780998
 30
0.0
 10
13.3374243615
 20
11.6070899987
 30
0.0
 10
13.3389055781
 20
11.6044545313
 30
0.0
 10
13.3398288631
 20
11.6023442708
 30
0.0
 10
13.3403879058
 20
11.6007807593
 30
0.0
 10
13.3408231238
 20
11.5992141588
 30
0.0
 10
13.3411341989
 20
11.5976451128
 30
0.0
 10
13.3413209511
 20
11.5960745476
 30
0.0
 10
13.3413625091
 20
11.5950256919
 30
0.0
 10
13.3413625049
 20
11.5945030132
 30
0.0
  0
SPLINE
  5
3C3
100
AcDbEntity
  8
0
100
AcDbSpline
 62
7
  6
CONTINUOUS
 70
0
 71
3
 72
23
 73
19
 74
0
 42
0.0000001
 43
0.0000001
 44
0.0000000001
 40
0.0
 40
0.0
 40
0.0
 40
0.0
 40
0.0616210751
 40
0.12332598
 40
0.1851237441
 40
0.247022897
 40
0.3090314464
 40
0.3711568199
 40
0.4334058267
 40
0.4957846553
 40
0.5582988209
 40
0.620953093
 40
0.6837516085
 40
0.7466979155
 40
0.8097941326
 40
0.8730422164
 40
0.9364460044
 40
1.0
 40
1.0
 40
1.0
 40
1.0
 10
10.7814641986
 20
6.8458080806
 30
0.0
 10
10.7711641031
 20
6.8400856331
 30
0.0
 10
10.7503352586
 20
6.8290145158
 30
0.0
 10
10.7184776312
 20
6.8135644853
 30
0.0
 10
10.6860226784
 20
6.7992785034
 30
0.0
 10
10.6530106007
 20
6.7861741306
 30
0.0
 10
10.6194814703
 20
6.7742672888
 30
0.0
 10
10.5854761828
 20
6.7635725732
 30
0.0
 10
10.5510362257
 20
6.7541028535
 30
0.0
 10
10.5162035529
 20
6.7458697463
 30
0.0
 10
10.4810206277
 20
6.7388832912
 30
0.0
 10
10.4455303571
 20
6.7331518503
 30
0.0
 10
10.4097759451
 20
6.7286825104
 30
0.0
 10
10.3738010204
 20
6.7254807038
 30
0.0
 10
10.3376495274
 20
6.7235501494
 30
0.0
 10
10.3013649207
 20
6.7228933177
 30
0.0
 10
10.2649925907
 20
6.7235110811
 30
0.0
 10
10.2407430399
 20
6.7247704443
 30
0.0
 10
10.2286195825
 20
6.725611209
 30
0.0
  0
SPLINE
  5
3C4
100
AcDbEntity
  8
0
100
AcDbSpline
 62
7
  6
CONTINUOUS
 70
0
 71
3
 72
76
 73
72
 74
0
 42
0.0000001
 43
0.0000001
 44
0.0000000001
 40
0.0
 40
0.0
 40
0.0
 40
0.0
 40
0.0156747225
 40
0.0235325474
 40
0.0314031326
 40
0.0471815238
 40
0.0630096701
 40
0.0709422968
 40
0.0788865451
 40
0.0948074601
 40
0.1107706215
 40
0.1267727505
 40
0.1428102138
 40
0.1588790639
 40
0.1749750748
 40
0.1910937806
 40
0.2072305163
 40
0.2233804589
 40
0.2395386705
 40
0.2557001411
 40
0.2718598323
 40
0.2880127214
 40
0.3041538447
 40
0.3202783411
 40
0.3363814948
 40
0.3524587772
 40
0.3685058876
 40
0.3845187926
 40
0.4004937633
 40
0.4164274113
 40
0.4323167209
 40
0.4481590804
 40
0.4639523087
 40
0.4796946798
 40
0.495384943
 40
0.5110223396
 40
0.5266066146
 40
0.542138025
 40
0.5576173419
 40
0.5730458487
 40
0.588425333
 40
0.6037580741
 40
0.6190468241
 40
0.6342947845
 40
0.6495055768
 40
0.6646832082
 40
0.6798320326
 40
0.6949567066
 40
0.7100621427
 40
0.7251534575
 40
0.7402359181
 40
0.7553148863
 40
0.7703957614
 40
0.7854839222
 40
0.8005846694
 40
0.8157031697
 40
0.830844401
 40
0.8460131002
 40
0.8612137149
 40
0.8764503584
 40
0.8917267696
 40
0.9070462756
 40
0.9147237278
 40
0.9224129996
 40
0.9301143737
 40
0.9378281062
 40
0.9532923541
 40
0.9688083027
 40
0.976586557
 40
0.9843782719
 40
1.0
 40
1.0
 40
1.0
 40
1.0
 10
9.8677848809
 20
8.4810121542
 30
0.0
 10
9.8851687351
 20
8.4798065798
 30
0.0
 10
9.91122867
 20
8.4773573986
 30
0.0
 10
9.9458470426
 20
8.4728290263
 30
0.0
 10
9.9804604316
 20
8.4674471933
 30
0.0
 10
10.0235714329
 20
8.4591368248
 30
0.0
 10
10.0663019254
 20
8.4487555746
 30
0.0
 10
10.1002363836
 20
8.4392175842
 30
0.0
 10
10.134033518
 20
8.4288468108
 30
0.0
 10
10.1758917065
 20
8.4143572711
 30
0.0
 10
10.2253408407
 20
8.3945886888
 30
0.0
 10
10.2739288604
 20
8.3724734721
 30
0.0
 10
10.3215380915
 20
8.3480651248
 30
0.0
 10
10.3680541431
 20
8.3214224095
 30
0.0
 10
10.4133650082
 20
8.2926095226
 30
0.0
 10
10.4573616486
 20
8.2616958591
 30
0.0
 10
10.4999381741
 20
8.2287558695
 30
0.0
 10
10.5409921148
 20
8.1938688703
 30
0.0
 10
10.5804246612
 20
8.1571188558
 30
0.0
 10
10.6181409018
 20
8.118594296
 30
0.0
 10
10.6540500506
 20
8.0783879254
 30
0.0
 10
10.6880656639
 20
8.0365965201
 30
0.0
 10
10.7201058477
 20
7.9933206667
 30
0.0
 10
10.7500934541
 20
7.948664521
 30
0.0
 10
10.7779562661
 20
7.9027355594
 30
0.0
 10
10.8036271702
 20
7.8556443205
 30
0.0
 10
10.8270443236
 20
7.807504144
 30
0.0
 10
10.8481513004
 20
7.7584308971
 30
0.0
 10
10.8668972245
 20
7.7085426954
 30
0.0
 10
10.8832368928
 20
7.6579596212
 30
0.0
 10
10.8971308838
 20
7.6068034357
 30
0.0
 10
10.9085456534
 20
7.5551972888
 30
0.0
 10
10.9174536165
 20
7.5032654236
 30
0.0
 10
10.9238332143
 20
7.45113288
 30
0.0
 10
10.9276689679
 20
7.3989251952
 30
0.0
 10
10.9289515175
 20
7.3467681035
 30
0.0
 10
10.9276776467
 20
7.2947872344
 30
0.0
 10
10.923850301
 20
7.2431078114
 30
0.0
 10
10.917478575
 20
7.1918543502
 30
0.0
 10
10.9085776943
 20
7.1411503592
 30
0.0
 10
10.8971689812
 20
7.0911180432
 30
0.0
 10
10.8832798072
 20
7.0418780076
 30
0.0
 10
10.8669435297
 20
6.9935489676
 30
0.0
 10
10.8481994152
 20
6.9462474606
 30
0.0
 10
10.8270925478
 20
6.900087563
 30
0.0
 10
10.8036737228
 20
6.855180613
 30
0.0
 10
10.7779993262
 20
6.8116349393
 30
0.0
 10
10.7501312031
 20
6.769555595
 30
0.0
 10
10.720136512
 20
6.7290440971
 30
0.0
 10
10.6880875564
 20
6.6901981823
 30
0.0
 10
10.6540616111
 20
6.6531115665
 30
0.0
 10
10.6181407342
 20
6.6178737156
 30
0.0
 10
10.5804115671
 20
6.5845696264
 30
0.0
 10
10.5409651228
 20
6.553279619
 30
0.0
 10
10.4998965638
 20
6.5240791411
 30
0.0
 10
10.4573049674
 20
6.4970385841
 30
0.0
 10
10.4132930896
 20
6.4722231138
 30
0.0
 10
10.367967088
 20
6.4496925098
 30
0.0
 10
10.3214363606
 20
6.4295010331
 30
0.0
 10
10.2738129174
 20
6.411697233
 30
0.0
 10
10.2252124498
 20
6.3963240824
 30
0.0
 10
10.1840228409
 20
6.3855767844
 30
0.0
 10
10.1507071272
 20
6.3782265189
 30
0.0
 10
10.1255298104
 20
6.3733371578
 30
0.0
 10
10.1001973314
 20
6.3690783792
 30
0.0
 10
10.0662082287
 20
6.3642406941
 30
0.0
 10
10.0234041901
 20
6.3597854025
 30
0.0
 10
9.9803601456
 20
6.3574652482
 30
0.0
 10
9.9458035342
 20
6.3568866927
 30
0.0
 10
9.9111262635
 20
6.357161805
 30
0.0
 10
9.8851099623
 20
6.3583295178
 30
0.0
 10
9.8677848809
 20
6.3595310163
 30
0.0
  0
SPLINE
  5
3C5
100
AcDbEntity
  8
0
100
AcDbSpline
 62
7
  6
CONTINUOUS
 70
0
 71
3
 72
24
 73
20
 74
0
 42
0.0000001
 43
0.0000001
 44
0.0000000001
 40
0.0
 40
0.0
 40
0.0
 40
0.0
 40
0.0615930827
 40
0.0924180628
 40
0.123262996
 40
0.1850155491
 40
0.246866158
 40
0.3088261788
 40
0.3709062289
 40
0.433116111
 40
0.4954647573
 40
0.5579601946
 40
0.6206094769
 40
0.6834185824
 40
0.7463926648
 40
0.8095355589
 40
0.8728494751
 40
0.936339015
 40
1.0
 40
1.0
 40
1.0
 40
1.0
 10
10.8273856797
 20
6.9318794362
 30
0.0
 10
10.816781972
 20
6.924853153
 30
0.0
 10
10.8006465047
 20
6.9146442959
 30
0.0
 10
10.778714503
 20
6.9017179002
 30
0.0
 10
10.756486935
 20
6.8892384824
 30
0.0
 10
10.7281870778
 20
6.8745014218
 30
0.0
 10
10.6934765003
 20
6.8582330961
 30
0.0
 10
10.6580555484
 20
6.8433990522
 30
0.0
 10
10.6219798274
 20
6.8300226652
 30
0.0
 10
10.5853055461
 20
6.8181247074
 30
0.0
 10
10.5480899729
 20
6.8077236591
 30
0.0
 10
10.5103911522
 20
6.7988357303
 30
0.0
 10
10.472267894
 20
6.7914748242
 30
0.0
 10
10.4337796743
 20
6.7856522802
 30
0.0
 10
10.3949865083
 20
6.781377159
 30
0.0
 10
10.3559490784
 20
6.778656161
 30
0.0
 10
10.3167276302
 20
6.777493344
 30
0.0
 10
10.2773846707
 20
6.7778907113
 30
0.0
 10
10.2511495317
 20
6.7791933935
 30
0.0
 10
10.2380336172
 20
6.7801029853
 30
0.0
  0
SPLINE
  5
3C6
100
AcDbEntity
  8
0
100
AcDbSpline
 62
7
  6
CONTINUOUS
 70
0
 71
3
 72
23
 73
19
 74
0
 42
0.0000001
 43
0.0000001
 44
0.0000000001
 40
0.0
 40
0.0
 40
0.0
 40
0.0
 40
0.0616178547
 40
0.1233189639
 40
0.1851126188
 40
0.2470075971
 40
0.309012145
 40
0.371133918
 40
0.4333799336
 40
0.4957565753
 40
0.5582695346
 40
0.6209237303
 40
0.6837234456
 40
0.7466723405
 40
0.8097725808
 40
0.8730262554
 40
0.9364373124
 40
1.0
 40
1.0
 40
1.0
 40
1.0
 10
10.8430055923
 20
6.966689037
 30
0.0
 10
10.8330884277
 20
6.96109988
 30
0.0
 10
10.8130288166
 20
6.9502853042
 30
0.0
 10
10.7823334429
 20
6.9351895557
 30
0.0
 10
10.7510494254
 20
6.9212276512
 30
0.0
 10
10.7192163121
 20
6.9084171243
 30
0.0
 10
10.6868735603
 20
6.8967738149
 30
0.0
 10
10.6540614176
 20
6.886312333
 30
0.0
 10
10.6208207497
 20
6.8770455171
 30
0.0
 10
10.5871928916
 20
6.8689849448
 30
0.0
 10
10.5532196766
 20
6.862140687
 30
0.0
 10
10.5189433983
 20
6.8565210807
 30
0.0
 10
10.4844066435
 20
6.8521332149
 30
0.0
 10
10.4496524286
 20
6.8489825554
 30
0.0
 10
10.4147240821
 20
6.847072812
 30
0.0
 10
10.3796644459
 20
6.8464064935
 30
0.0
 10
10.3445182994
 20
6.8469845021
 30
0.0
 10
10.3210859314
 20
6.8481972365
 30
0.0
 10
10.3093710579
 20
6.8490096657
 30
0.0
  0
SPLINE
  5
3C7
100
AcDbEntity
  8
0
100
AcDbSpline
 62
7
  6
CONTINUOUS
 70
0
 71
3
 72
24
 73
20
 74
0
 42
0.0000001
 43
0.0000001
 44
0.0000000001
 40
0.0
 40
0.0
 40
0.0
 40
0.0
 40
0.0615903362
 40
0.1232470853
 40
0.1849846789
 40
0.2468169388
 40
0.2777745645
 40
0.3087607013
 40
0.3708207899
 40
0.4330123281
 40
0.4953457313
 40
0.5578303684
 40
0.6204745047
 40
0.6832851789
 40
0.7462683877
 40
0.8094288089
 40
0.8727690431
 40
0.9362940022
 40
1.0
 40
1.0
 40
1.0
 40
1.0
 10
10.8930107607
 20
7.1200849215
 30
0.0
 10
10.8831367764
 20
7.1130201012
 30
0.0
 10
10.8630609573
 20
7.099320282
 30
0.0
 10
10.8320484579
 20
7.0801162777
 30
0.0
 10
10.8001746876
 20
7.0622798359
 30
0.0
 10
10.7729521606
 20
7.0485870308
 30
0.0
 10
10.7508033837
 20
7.0383470796
 30
0.0
 10
10.728394026
 20
7.028577759
 30
0.0
 10
10.6999453013
 20
7.0172738459
 30
0.0
 10
10.6651928862
 20
7.005192957
 30
0.0
 10
10.629867972
 20
6.9946092899
 30
0.0
 10
10.5940320834
 20
6.9855413425
 30
0.0
 10
10.5577471369
 20
6.9780046924
 30
0.0
 10
10.5210759466
 20
6.9720122866
 30
0.0
 10
10.484081908
 20
6.9675744689
 30
0.0
 10
10.4468292057
 20
6.9646989696
 30
0.0
 10
10.4093816659
 20
6.9633904958
 30
0.0
 10
10.3718053907
 20
6.963651537
 30
0.0
 10
10.3467457688
 20
6.9648697053
 30
0.0
 10
10.3342176657
 20
6.9657385322
 30
0.0
  0
SPLINE
  5
3C8
100
AcDbEntity
  8
0
100
AcDbSpline
 62
7
  6
CONTINUOUS
 70
0
 71
3
 72
71
 73
67
 74
0
 42
0.0000001
 43
0.0000001
 44
0.0000000001
 40
0.0
 40
0.0
 40
0.0
 40
0.0
 40
0.0149686112
 40
0.0299401922
 40
0.0449176959
 40
0.0599040384
 40
0.0749020846
 40
0.0899146313
 40
0.1049443879
 40
0.1199939633
 40
0.1350658522
 40
0.1501624176
 40
0.1652858789
 40
0.1804383032
 40
0.1956215895
 40
0.2108374603
 40
0.226087456
 40
0.2413729242
 40
0.2566950122
 40
0.2720546677
 40
0.2874526304
 40
0.3028894285
 40
0.3183653827
 40
0.3338806027
 40
0.3494349854
 40
0.3650282235
 40
0.380659805
 40
0.3963290149
 40
0.4120349458
 40
0.4277765016
 40
0.4435524009
 40
0.4593611906
 40
0.4752012518
 40
0.4910708059
 40
0.5069679296
 40
0.5228905629
 40
0.5388365175
 40
0.5548034922
 40
0.5707890834
 40
0.5867907944
 40
0.6028060518
 40
0.6188322168
 40
0.6348665958
 40
0.6509064574
 40
0.6669490435
 40
0.6829915814
 40
0.6990313003
 40
0.7150654427
 40
0.7310912767
 40
0.7471061122
 40
0.7631073122
 40
0.7790923039
 40
0.7950585959
 40
0.8110037873
 40
0.8269255788
 40
0.842821789
 40
0.8586903616
 40
0.8745293752
 40
0.8903370629
 40
0.9061118054
 40
0.9218521466
 40
0.9375568626
 40
0.9532247785
 40
0.9688549206
 40
0.9844472704
 40
1.0
 40
1.0
 40
1.0
 40
1.0
 10
9.1288053241
 20
8.2080266681
 30
0.0
 10
9.1199768656
 20
8.1994990544
 30
0.0
 10
9.1026504424
 20
8.1820942594
 30
0.0
 10
9.0777002603
 20
8.1549866742
 30
0.0
 10
9.0538201387
 20
8.1269120144
 30
0.0
 10
9.031042509
 20
8.0979083309
 30
0.0
 10
9.0093975828
 20
8.0680143017
 30
0.0
 10
8.9889143741
 20
8.0372698661
 30
0.0
 10
8.9696202534
 20
8.0057160923
 30
0.0
 10
8.951540898
 20
7.9733952061
 30
0.0
 10
8.9347005054
 20
7.9403503618
 30
0.0
 10
8.9191215972
 20
7.9066257029
 30
0.0
 10
8.9048248653
 20
7.8722663409
 30
0.0
 10
8.8918294374
 20
7.8373181605
 30
0.0
 10
8.880152708
 20
7.8018278399
 30
0.0
 10
8.8698101416
 20
7.7658428318
 30
0.0
 10
8.8608155666
 20
7.7294111938
 30
0.0
 10
8.8531810441
 20
7.6925815795
 30
0.0
 10
8.8469166308
 20
7.6554032096
 30
0.0
 10
8.8420306924
 20
7.6179257325
 30
0.0
 10
8.8385298133
 20
7.5801991952
 30
0.0
 10
8.8364185285
 20
7.5422739937
 30
0.0
 10
8.8356996427
 20
7.5042007682
 30
0.0
 10
8.8363741865
 20
7.4660303601
 30
0.0
 10
8.8384411245
 20
7.4278137373
 30
0.0
 10
8.8418976703
 20
7.3896019206
 30
0.0
 10
8.8467392877
 20
7.3514459388
 30
0.0
 10
8.8529593895
 20
7.3133967223
 30
0.0
 10
8.8605496344
 20
7.2755050587
 30
0.0
 10
8.8694999732
 20
7.2378215539
 30
0.0
 10
8.8797983502
 20
7.2003964934
 30
0.0
 10
8.8914309717
 20
7.1632798216
 30
0.0
 10
8.904382395
 20
7.1265211152
 30
0.0
 10
8.9186352434
 20
7.090169417
 30
0.0
 10
8.9341704385
 20
7.0542732277
 30
0.0
 10
8.9509673281
 20
7.0188805011
 30
0.0
 10
8.9690034242
 20
6.9840384539
 30
0.0
 10
8.9882545944
 20
6.9497935607
 30
0.0
 10
9.0086952233
 20
6.9161915776
 30
0.0
 10
9.0302979816
 20
6.8832773338
 30
0.0
 10
9.0530339739
 20
6.8510947197
 30
0.0
 10
9.0768729279
 20
6.8196867445
 30
0.0
 10
9.1017829994
 20
6.7890953169
 30
0.0
 10
9.127730878
 20
6.7593612167
 30
0.0
 10
9.1546819973
 20
6.7305241892
 30
0.0
 10
9.1826003773
 20
6.7026227244
 30
0.0
 10
9.211448694
 20
6.6756940022
 30
0.0
 10
9.2411885006
 20
6.6497740261
 30
0.0
 10
9.27178011
 20
6.6248974094
 30
0.0
 10
9.3031826335
 20
6.6010972865
 30
0.0
 10
9.3353542049
 20
6.5784054857
 30
0.0
 10
9.3682519018
 20
6.5568523315
 30
0.0
 10
9.4018317623
 20
6.5364665156
 30
0.0
 10
9.4360490032
 20
6.5172753084
 30
0.0
 10
9.4708579772
 20
6.499304383
 30
0.0
 10
9.5062121771
 20
6.4825776459
 30
0.0
 10
9.5420644395
 20
6.4671174805
 30
0.0
 10
9.5783669363
 20
6.4529445996
 30
0.0
 10
9.6150711722
 20
6.4400778434
 30
0.0
 10
9.6521281641
 20
6.4285344365
 30
0.0
 10
9.6894884907
 20
6.4183298653
 30
0.0
 10
9.727102242
 20
6.409477722
 30
0.0
 10
9.7649190686
 20
6.4019898389
 30
0.0
 10
9.8028891062
 20
6.395876182
 30
0.0
 10
9.8409604426
 20
6.391145241
 30
0.0
 10
9.8664087934
 20
6.3889141115
 30
0.0
 10
9.8791316591
 20
6.3880317778
 30
0.0
  0
SPLINE
  5
3C9
100
AcDbEntity
  8
0
100
AcDbSpline
 62
7
  6
CONTINUOUS
 70
0
 71
3
 72
76
 73
72
 74
0
 42
0.0000001
 43
0.0000001
 44
0.0000000001
 40
0.0
 40
0.0
 40
0.0
 40
0.0
 40
0.0156747358
 40
0.0235325428
 40
0.0314031247
 40
0.0471815269
 40
0.0630096691
 40
0.0709422965
 40
0.0788865455
 40
0.0948074602
 40
0.1107706217
 40
0.1267727506
 40
0.1428102138
 40
0.1588790637
 40
0.1749750744
 40
0.1910937801
 40
0.2072305158
 40
0.2233804587
 40
0.2395386706
 40
0.2557001414
 40
0.2718598329
 40
0.2880127219
 40
0.304153845
 40
0.320278341
 40
0.3363814943
 40
0.3524587764
 40
0.3685058868
 40
0.384518792
 40
0.4004937632
 40
0.4164274116
 40
0.4323167216
 40
0.4481590813
 40
0.4639523095
 40
0.4796946803
 40
0.495384943
 40
0.5110223391
 40
0.5266066138
 40
0.542138024
 40
0.5576173411
 40
0.5730458482
 40
0.588425333
 40
0.6037580745
 40
0.6190468249
 40
0.6342947854
 40
0.6495055776
 40
0.6646832087
 40
0.6798320327
 40
0.6949567064
 40
0.7100621422
 40
0.7251534568
 40
0.7402359175
 40
0.7553148859
 40
0.7703957613
 40
0.7854839223
 40
0.8005846697
 40
0.8157031702
 40
0.8308444015
 40
0.8460131006
 40
0.8612137152
 40
0.8764503585
 40
0.8917267695
 40
0.9070462755
 40
0.9147237276
 40
0.9224129992
 40
0.9301143742
 40
0.9378281071
 40
0.9532923509
 40
0.9688083105
 40
0.9765865615
 40
0.9843782585
 40
1.0
 40
1.0
 40
1.0
 40
1.0
 10
9.8564381122
 20
8.5123987716
 30
0.0
 10
9.8745159778
 20
8.5111450673
 30
0.0
 10
9.9016162698
 20
8.5085981173
 30
0.0
 10
9.9376166626
 20
8.503888955
 30
0.0
 10
9.9736118719
 20
8.4982922749
 30
0.0
 10
10.0184439502
 20
8.4896501452
 30
0.0
 10
10.0628803344
 20
8.4788544589
 30
0.0
 10
10.0981695113
 20
8.4689356754
 30
0.0
 10
10.1333158981
 20
8.4581509009
 30
0.0
 10
10.1768451406
 20
8.4430828986
 30
0.0
 10
10.2282683767
 20
8.4225251176
 30
0.0
 10
10.2787961193
 20
8.3995270154
 30
0.0
 10
10.3283059986
 20
8.3741442388
 30
0.0
 10
10.3766790575
 20
8.346437896
 30
0.0
 10
10.423798819
 20
8.3164747486
 30
0.0
 10
10.469551893
 20
8.2843269612
 30
0.0
 10
10.5138281587
 20
8.2500719519
 30
0.0
 10
10.556521053
 20
8.2137922007
 30
0.0
 10
10.5975278213
 20
8.1755750557
 30
0.0
 10
10.636749763
 20
8.1355125199
 30
0.0
 10
10.6740924678
 20
8.0937010306
 30
0.0
 10
10.7094660418
 20
8.0502412288
 30
0.0
 10
10.7427853228
 20
8.0052377176
 30
0.0
 10
10.7739700848
 20
7.9587988121
 30
0.0
 10
10.8029452301
 20
7.9110362801
 30
0.0
 10
10.8296409695
 20
7.8620650741
 30
0.0
 10
10.8539929898
 20
7.8120030565
 30
0.0
 10
10.8759426086
 20
7.7609707178
 30
0.0
 10
10.8954369154
 20
7.7090908878
 30
0.0
 10
10.9124288985
 20
7.656488442
 30
0.0
 10
10.9268775613
 20
7.6032900035
 30
0.0
 10
10.9387480222
 20
7.5496236399
 30
0.0
 10
10.9480115967
 20
7.4956185554
 30
0.0
 10
10.9546458678
 20
7.4414047822
 30
0.0
 10
10.9586347418
 20
7.3871128695
 30
0.0
 10
10.9599684885
 20
7.3328735702
 30
0.0
 10
10.958643767
 20
7.2788175284
 30
0.0
 10
10.9546636366
 20
7.2250749655
 30
0.0
 10
10.9480375516
 20
7.1717753678
 30
0.0
 10
10.9387813423
 20
7.1190471752
 30
0.0
 10
10.9269171798
 20
7.0670174718
 30
0.0
 10
10.9124735263
 20
7.0158116792
 30
0.0
 10
10.8954850692
 20
6.9655532535
 30
0.0
 10
10.8759926443
 20
6.916363385
 30
0.0
 10
10.8540431392
 20
6.8683607034
 30
0.0
 10
10.8296893805
 20
6.8216609901
 30
0.0
 10
10.8029900092
 20
6.7763768957
 30
0.0
 10
10.7740093408
 20
6.7326176646
 30
0.0
 10
10.7428172112
 20
6.6904888684
 30
0.0
 10
10.7094888083
 20
6.6500921463
 30
0.0
 10
10.6741044899
 20
6.6115249571
 30
0.0
 10
10.6367495888
 20
6.5748803395
 30
0.0
 10
10.5975142045
 20
6.5402466849
 30
0.0
 10
10.5564929834
 20
6.5077075209
 30
0.0
 10
10.5137848872
 20
6.477341308
 30
0.0
 10
10.4694929489
 20
6.4492212483
 30
0.0
 10
10.4237240295
 20
6.4234151064
 30
0.0
 10
10.3765885271
 20
6.3999850426
 30
0.0
 10
10.3282002066
 20
6.3789874839
 30
0.0
 10
10.2786755479
 20
6.3604729196
 30
0.0
 10
10.2281348596
 20
6.3444860418
 30
0.0
 10
10.1853008864
 20
6.3333096829
 30
0.0
 10
10.1506551453
 20
6.3256659908
 30
0.0
 10
10.1244727049
 20
6.3205814226
 30
0.0
 10
10.0981289012
 20
6.3161526452
 30
0.0
 10
10.0627828961
 20
6.3111218092
 30
0.0
 10
10.0182700303
 20
6.3064886591
 30
0.0
 10
9.9735075823
 20
6.3040758847
 30
0.0
 10
9.9375714178
 20
6.3034742364
 30
0.0
 10
9.9015097742
 20
6.3037603214
 30
0.0
 10
9.8744548588
 20
6.304974658
 30
0.0
 10
9.8564381122
 20
6.3062241236
 30
0.0
  0
SPLINE
  5
3CA
100
AcDbEntity
  8
0
100
AcDbSpline
 62
7
  6
CONTINUOUS
 70
0
 71
3
 72
47
 73
43
 74
0
 42
0.0000001
 43
0.0000001
 44
0.0000000001
 40
0.0
 40
0.0
 40
0.0
 40
0.0
 40
0.0149723996
 40
0.029963765
 40
0.0449760328
 40
0.0600110452
 40
0.0750705354
 40
0.0901561258
 40
0.1052693193
 40
0.1204114896
 40
0.1355838833
 40
0.1507876064
 40
0.1660236261
 40
0.1812927671
 40
0.1965957031
 40
0.2119329643
 40
0.2273049266
 40
0.2427118166
 40
0.2736264352
 40
0.3046797956
 40
0.3358683714
 40
0.3671863833
 40
0.3986259211
 40
0.4301770975
 40
0.4618282278
 40
0.4935660347
 40
0.5253758718
 40
0.5572419628
 40
0.5891476539
 40
0.6210756761
 40
0.653008415
 40
0.6849281833
 40
0.7168174942
 40
0.7486593328
 40
0.7804374232
 40
0.8121364863
 40
0.8437424862
 40
0.8752428632
 40
0.9066267388
 40
0.9378851909
 40
0.9690110346
 40
1.0
 40
1.0
 40
1.0
 40
1.0
 10
9.3253350921
 20
8.3533193064
 30
0.0
 10
9.319638572
 20
8.3438543618
 30
0.0
 10
9.3085668875
 20
8.3247124941
 30
0.0
 10
9.2929557223
 20
8.295422404
 30
0.0
 10
9.2783466316
 20
8.2655679776
 30
0.0
 10
9.2647556944
 20
8.2351815788
 30
0.0
 10
9.2521973216
 20
8.2042956864
 30
0.0
 10
9.2406849217
 20
8.1729434478
 30
0.0
 10
9.230230965
 20
8.1411583986
 30
0.0
 10
9.2208464495
 20
8.1089746624
 30
0.0
 10
9.2125415584
 20
8.0764266788
 30
0.0
 10
9.2053251307
 20
8.0435493379
 30
0.0
 10
9.1992048013
 20
8.0103778746
 30
0.0
 10
9.1941872835
 20
7.9769478074
 30
0.0
 10
9.1902777443
 20
7.9432949458
 30
0.0
 10
9.1874804782
 20
7.9094554459
 30
0.0
 10
9.1857984748
 20
7.8754650999
 30
0.0
 10
9.1850441183
 20
7.8299458121
 30
0.0
 10
9.1869051714
 20
7.7728430406
 30
0.0
 10
9.1935974724
 20
7.7043898476
 30
0.0
 10
9.2047220115
 20
7.6362133977
 30
0.0
 10
9.22023079
 20
7.5686074111
 30
0.0
 10
9.2400570369
 20
7.5018606018
 30
0.0
 10
9.2641155823
 20
7.4362586341
 30
0.0
 10
9.2923031464
 20
7.3720820321
 30
0.0
 10
9.3244988721
 20
7.3096052476
 30
0.0
 10
9.360564826
 20
7.249095436
 30
0.0
 10
9.4003465978
 20
7.1908113526
 30
0.0
 10
9.4436739175
 20
7.1350022311
 30
0.0
 10
9.4903613675
 20
7.0819067078
 30
0.0
 10
9.540209226
 20
7.0317518514
 30
0.0
 10
9.5930042992
 20
6.9847521923
 30
0.0
 10
9.6485208337
 20
6.9411088287
 30
0.0
 10
9.7065214301
 20
6.9010085198
 30
0.0
 10
9.7667580659
 20
6.8646229014
 30
0.0
 10
9.8289731808
 20
6.8321077949
 30
0.0
 10
9.8929007228
 20
6.8036025336
 30
0.0
 10
9.9582673925
 20
6.7792293892
 30
0.0
 10
10.0247933584
 20
6.7590929357
 30
0.0
 10
10.0921949519
 20
6.7432797479
 30
0.0
 10
10.1601801135
 20
6.7318579651
 30
0.0
 10
10.205810021
 20
6.7271930574
 30
0.0
 10
10.2286195825
 20
6.725611209
 30
0.0
  0
SPLINE
  5
3CB
100
AcDbEntity
  8
0
100
AcDbSpline
 62
7
  6
CONTINUOUS
 70
0
 71
3
 72
49
 73
45
 74
0
 42
0.0000001
 43
0.0000001
 44
0.0000000001
 40
0.0
 40
0.0
 40
0.0
 40
0.0
 40
0.0149596148
 40
0.0299341518
 40
0.0449258843
 40
0.0599369989
 40
0.0749695876
 40
0.0900256315
 40
0.1051069977
 40
0.1202154282
 40
0.1353525287
 40
0.1505197692
 40
0.1657184694
 40
0.1809497979
 40
0.1962147691
 40
0.211514232
 40
0.2268488769
 40
0.2422192263
 40
0.2576256344
 40
0.2730682924
 40
0.2885472195
 40
0.3040622718
 40
0.335195029
 40
0.3664665598
 40
0.3978700022
 40
0.4293961777
 40
0.4610337776
 40
0.492769579
 40
0.5245886882
 40
0.5564748072
 40
0.5884105154
 40
0.6203775661
 40
0.6523571913
 40
0.6843304155
 40
0.7162783689
 40
0.7481826007
 40
0.7800253879
 40
0.8117900353
 40
0.8434611624
 40
0.8750249739
 40
0.9064695044
 40
0.9377849173
 40
0.9689633215
 40
1.0
 40
1.0
 40
1.0
 40
1.0
 10
9.4129041155
 20
8.3961701065
 30
0.0
 10
9.4065667004
 20
8.3872891477
 30
0.0
 10
9.3942058152
 20
8.3692873168
 30
0.0
 10
9.3766420149
 20
8.3416194569
 30
0.0
 10
9.3600665441
 20
8.3133044085
 30
0.0
 10
9.3444985755
 20
8.2843752375
 30
0.0
 10
9.3299560341
 20
8.2548649476
 30
0.0
 10
9.3164555514
 20
8.2248074916
 30
0.0
 10
9.3040125519
 20
8.1942373826
 30
0.0
 10
9.2926414572
 20
8.1631896572
 30
0.0
 10
9.2823551234
 20
8.1317000195
 30
0.0
 10
9.2731654518
 20
8.0998045736
 30
0.0
 10
9.265082977
 20
8.0675399322
 30
0.0
 10
9.2581168331
 20
8.0349431518
 30
0.0
 10
9.2522751804
 20
8.0020516038
 30
0.0
 10
9.2475645492
 20
7.968903065
 30
0.0
 10
9.2439903687
 20
7.9355355602
 30
0.0
 10
9.2415568077
 20
7.9019873821
 30
0.0
 10
9.2402664723
 20
7.8682969998
 30
0.0
 10
9.2401209789
 20
7.834503188
 30
0.0
 10
9.2411204532
 20
7.8006442439
 30
0.0
 10
9.2439808472
 20
7.7554175862
 30
0.0
 10
9.2504203907
 20
7.6989094371
 30
0.0
 10
9.2626684393
 20
7.6315498976
 30
0.0
 10
9.2793898122
 20
7.5648623985
 30
0.0
 10
9.3005073302
 20
7.4991545533
 30
0.0
 10
9.3259238899
 20
7.4347268314
 30
0.0
 10
9.3555226909
 20
7.3718744921
 30
0.0
 10
9.3891678085
 20
7.3108853371
 30
0.0
 10
9.4267048829
 20
7.2520386829
 30
0.0
 10
9.4679618092
 20
7.1956040307
 30
0.0
 10
9.5127495117
 20
7.1418398637
 30
0.0
 10
9.5608627312
 20
7.0909924044
 30
0.0
 10
9.6120810505
 20
7.0432945645
 30
0.0
 10
9.6661698805
 20
6.9989648841
 30
0.0
 10
9.7228815335
 20
6.9582065585
 30
0.0
 10
9.7819562795
 20
6.9212064284
 30
0.0
 10
9.8431235786
 20
6.8881341715
 30
0.0
 10
9.9061032882
 20
6.8591415625
 30
0.0
 10
9.9706070509
 20
6.8343617896
 30
0.0
 10
10.0363391333
 20
6.8139087722
 30
0.0
 10
10.1029993485
 20
6.7978766758
 30
0.0
 10
10.1702783258
 20
6.7863395085
 30
0.0
 10
10.2154523163
 20
6.7816690038
 30
0.0
 10
10.2380336172
 20
6.7801029853
 30
0.0
  0
SPLINE
  5
3CC
100
AcDbEntity
  8
0
100
AcDbSpline
 62
7
  6
CONTINUOUS
 70
0
 71
3
 72
49
 73
45
 74
0
 42
0.0000001
 43
0.0000001
 44
0.0000000001
 40
0.0
 40
0.0
 40
0.0
 40
0.0
 40
0.0149709666
 40
0.0299606156
 40
0.0449709126
 40
0.0600037224
 40
0.0750608086
 40
0.0901438198
 40
0.1052542843
 40
0.1203936075
 40
0.1355630577
 40
0.1507637714
 40
0.165996741
 40
0.1812628139
 40
0.1965626931
 40
0.2118969268
 40
0.2272659173
 40
0.2426699115
 40
0.2581090049
 40
0.2735831448
 40
0.2890921227
 40
0.3046355881
 40
0.3358198181
 40
0.367134224
 40
0.3985709651
 40
0.4301201987
 40
0.4617702618
 40
0.4935078752
 40
0.5253183685
 40
0.5571859211
 40
0.5890938179
 40
0.6210247142
 40
0.6529609071
 40
0.6848846113
 40
0.7167782355
 40
0.7486246575
 40
0.7804074935
 40
0.8121113584
 40
0.8437221165
 40
0.8752271175
 40
0.9066153994
 40
0.9378779805
 40
0.9690076131
 40
1.0
 40
1.0
 40
1.0
 40
1.0
 10
9.4481925389
 20
8.4104975874
 30
0.0
 10
9.4426768218
 20
8.4014548075
 30
0.0
 10
9.4319534897
 20
8.383163673
 30
0.0
 10
9.4168234405
 20
8.3551666287
 30
0.0
 10
9.4026545769
 20
8.3266218053
 30
0.0
 10
9.3894622739
 20
8.2975604688
 30
0.0
 10
9.3772606891
 20
8.2680137941
 30
0.0
 10
9.3660630611
 20
8.2380136142
 30
0.0
 10
9.3558812583
 20
8.2075923022
 30
0.0
 10
9.3467264382
 20
8.1767825654
 30
0.0
 10
9.3386082859
 20
8.1456176424
 30
0.0
 10
9.3315355875
 20
8.1141310838
 30
0.0
 10
9.3255160093
 20
8.0823567953
 30
0.0
 10
9.320555854
 20
8.050329027
 30
0.0
 10
9.316660658
 20
8.0180822423
 30
0.0
 10
9.3138344172
 20
7.985651194
 30
0.0
 10
9.3120802469
 20
7.9530707939
 30
0.0
 10
9.3114000534
 20
7.9203761377
 30
0.0
 10
9.3117944141
 20
7.8876023995
 30
0.0
 10
9.313263075
 20
7.8547849884
 30
0.0
 10
9.3158043237
 20
7.8219588027
 30
0.0
 10
9.3206237714
 20
7.7781834793
 30
0.0
 10
9.3293225566
 20
7.7236148329
 30
0.0
 10
9.3439679689
 20
7.658742766
 30
0.0
 10
9.3627689646
 20
7.5946808116
 30
0.0
 10
9.3856441391
 20
7.5317062968
 30
0.0
 10
9.4124948398
 20
7.4700894928
 30
0.0
 10
9.443205327
 20
7.4100954376
 30
0.0
 10
9.4776433502
 20
7.3519820169
 30
0.0
 10
9.5156606433
 20
7.2959990519
 30
0.0
 10
9.5570935986
 20
7.2423871883
 30
0.0
 10
9.6017639839
 20
7.1913769023
 30
0.0
 10
9.6494796958
 20
7.1431875113
 30
0.0
 10
9.7000355849
 20
7.0980262504
 30
0.0
 10
9.7532142999
 20
7.0560873575
 30
0.0
 10
9.8087872188
 20
7.0175512354
 30
0.0
 10
9.8665154499
 20
6.9825837188
 30
0.0
 10
9.926150848
 20
6.9513353577
 30
0.0
 10
9.9874370401
 20
6.9239407787
 30
0.0
 10
10.0501106164
 20
6.9005181008
 30
0.0
 10
10.1139018479
 20
6.8811683417
 30
0.0
 10
10.1785372833
 20
6.8659751574
 30
0.0
 10
10.2437353578
 20
6.8550043583
 30
0.0
 10
10.287495956
 20
6.8505267092
 30
0.0
 10
10.3093710579
 20
6.8490096657
 30
0.0
  0
SPLINE
  5
3CD
100
AcDbEntity
  8
0
100
AcDbSpline
 62
7
  6
CONTINUOUS
 70
0
 71
3
 72
49
 73
45
 74
0
 42
0.0000001
 43
0.0000001
 44
0.0000000001
 40
0.0
 40
0.0
 40
0.0
 40
0.0
 40
0.0149571833
 40
0.0299271871
 40
0.0449124346
 40
0.0599152678
 40
0.0749379406
 40
0.0899826015
 40
0.1050512865
 40
0.1201459107
 40
0.1352682525
 40
0.1504199542
 40
0.165602508
 40
0.18081725
 40
0.1960653604
 40
0.211347849
 40
0.2266655602
 40
0.2420191668
 40
0.2574091636
 40
0.272835876
 40
0.2882994492
 40
0.3037998552
 40
0.334905705
 40
0.3661543254
 40
0.3975394339
 40
0.4290522661
 40
0.4606817632
 40
0.492414793
 40
0.5242364026
 40
0.5561300957
 40
0.588078129
 40
0.6200618241
 40
0.6520618909
 40
0.6840587603
 40
0.7160329174
 40
0.7479652357
 40
0.7798373065
 40
0.8116317598
 40
0.8433325716
 40
0.8749253535
 40
0.9063976155
 40
0.9377390851
 40
0.9689415221
 40
1.0
 40
1.0
 40
1.0
 40
1.0
 10
9.6033905615
 20
8.4553930271
 30
0.0
 10
9.5972662147
 20
8.4474344691
 30
0.0
 10
9.5853040709
 20
8.4312835232
 30
0.0
 10
9.5682548404
 20
8.40640416
 30
0.0
 10
9.5521120666
 20
8.3808905593
 30
0.0
 10
9.536895008
 20
8.3547734717
 30
0.0
 10
9.5226216801
 20
8.3280836484
 30
0.0
 10
9.5093090084
 20
8.3008527237
 30
0.0
 10
9.4969726152
 20
8.2731129871
 30
0.0
 10
9.4856272648
 20
8.2448972113
 30
0.0
 10
9.4752862323
 20
8.2162388633
 30
0.0
 10
9.4659617792
 20
8.1871718546
 30
0.0
 10
9.457665013
 20
8.1577305752
 30
0.0
 10
9.4504055714
 20
8.1279499225
 30
0.0
 10
9.4441921965
 20
8.097865108
 30
0.0
 10
9.4390321345
 20
8.0675117662
 30
0.0
 10
9.4349314382
 20
8.0369258227
 30
0.0
 10
9.4318950884
 20
8.0061434706
 30
0.0
 10
9.4299264797
 20
7.9752011259
 30
0.0
 10
9.4290280391
 20
7.9441355177
 30
0.0
 10
9.4292008487
 20
7.9129829559
 30
0.0
 10
9.4308607141
 20
7.8713357557
 30
0.0
 10
9.4356195545
 20
7.8192370394
 30
0.0
 10
9.4455743483
 20
7.7570458041
 30
0.0
 10
9.459732774
 20
7.6953935836
 30
0.0
 10
9.4780274042
 20
7.63457371
 30
0.0
 10
9.5003714223
 20
7.5748730386
 30
0.0
 10
9.526658868
 20
7.5165737462
 30
0.0
 10
9.5567652081
 20
7.4599511638
 30
0.0
 10
9.5905479612
 20
7.405272742
 30
0.0
 10
9.6278473633
 20
7.3527967455
 30
0.0
 10
9.6684870896
 20
7.3027710504
 30
0.0
 10
9.7122750379
 20
7.2554319346
 30
0.0
 10
9.7590043115
 20
7.2110030345
 30
0.0
 10
9.8084541693
 20
7.1696942908
 30
0.0
 10
9.8603910651
 20
7.1317009818
 30
0.0
 10
9.9145696748
 20
7.0972027225
 30
0.0
 10
9.9707341073
 20
7.0663626783
 30
0.0
 10
10.0286190717
 20
7.0393268165
 30
0.0
 10
10.0879512328
 20
7.0162232334
 30
0.0
 10
10.14845004
 20
6.9971614694
 30
0.0
 10
10.2098305473
 20
6.9822320465
 30
0.0
 10
10.2717989523
 20
6.9715060473
 30
0.0
 10
10.3134150276
 20
6.9671812
 30
0.0
 10
10.3342176657
 20
6.9657385322
 30
0.0
  0
SPLINE
  5
3CE
100
AcDbEntity
  8
0
100
AcDbSpline
 62
7
  6
CONTINUOUS
 70
0
 71
3
 72
43
 73
39
 74
0
 42
0.0000001
 43
0.0000001
 44
0.0000000001
 40
0.0
 40
0.0
 40
0.0
 40
0.0
 40
0.0151833767
 40
0.0303943605
 40
0.0456332212
 40
0.0609001569
 40
0.091515915
 40
0.1222443189
 40
0.1376517264
 40
0.1530866988
 40
0.1685488764
 40
0.1840378287
 40
0.21509137
 40
0.246245049
 40
0.2774928948
 40
0.3088279312
 40
0.3402422582
 40
0.3717271431
 40
0.4032731166
 40
0.434870076
 40
0.4665073926
 40
0.4981740229
 40
0.5298586231
 40
0.561549666
 40
0.5932355586
 40
0.6249047603
 40
0.6565459013
 40
0.6881478989
 40
0.7197000728
 40
0.7511922559
 40
0.7826149039
 40
0.8139591954
 40
0.8452171375
 40
0.8763816332
 40
0.9074466337
 40
0.9384070233
 40
0.969259147
 40
1.0
 40
1.0
 40
1.0
 40
1.0
 10
9.8732446071
 20
8.472585378
 30
0.0
 10
9.8721975272
 20
8.4646983996
 30
0.0
 10
9.8703152706
 20
8.4488808695
 30
0.0
 10
9.8681309505
 20
8.4250660404
 30
0.0
 10
9.8665844337
 20
8.4011571042
 30
0.0
 10
9.8653734543
 20
8.369148758
 30
0.0
 10
9.8654631357
 20
8.328983977
 30
0.0
 10
9.8676833279
 20
8.2888071612
 30
0.0
 10
9.8707310669
 20
8.2566848773
 30
0.0
 10
9.8736551907
 20
8.2325949762
 30
0.0
 10
9.877213215
 20
8.2085473274
 30
0.0
 10
9.8828035621
 20
8.176537999
 30
0.0
 10
9.8913670485
 20
8.1367152846
 30
0.0
 10
9.9041188882
 20
8.0894119503
 30
0.0
 10
9.9193194948
 20
8.0426820951
 30
0.0
 10
9.9369256977
 20
7.9966585605
 30
0.0
 10
9.9568877067
 20
7.9514710856
 30
0.0
 10
9.9791490488
 20
7.9072473368
 30
0.0
 10
10.0036467834
 20
7.864112175
 30
0.0
 10
10.0303116641
 20
7.8221874062
 30
0.0
 10
10.0590683378
 20
7.7815914118
 30
0.0
 10
10.0898355564
 20
7.7424388244
 30
0.0
 10
10.1225264059
 20
7.7048402038
 30
0.0
 10
10.1570485505
 20
7.6689017274
 30
0.0
 10
10.1933044923
 20
7.6347248918
 30
0.0
 10
10.2311918451
 20
7.6024062273
 30
0.0
 10
10.270603622
 20
7.5720370272
 30
0.0
 10
10.3114285358
 20
7.5437030908
 30
0.0
 10
10.3535513115
 20
7.5174844822
 30
0.0
 10
10.3968530097
 20
7.4934553044
 30
0.0
 10
10.4412113594
 20
7.4716834931
 30
0.0
 10
10.4865011053
 20
7.4522306171
 30
0.0
 10
10.5325943412
 20
7.435151726
 30
0.0
 10
10.5793609377
 20
7.4204951407
 30
0.0
 10
10.6266686519
 20
7.4083024408
 30
0.0
 10
10.6743844024
 20
7.3986080763
 30
0.0
 10
10.7223715268
 20
7.3914398179
 30
0.0
 10
10.7545164218
 20
7.3883526533
 30
0.0
 10
10.7705862157
 20
7.3872382093
 30
0.0
  0
SPLINE
  5
3CF
100
AcDbEntity
  8
0
100
AcDbSpline
 62
7
  6
CONTINUOUS
 70
0
 71
3
 72
44
 73
40
 74
0
 42
0.0000001
 43
0.0000001
 44
0.0000000001
 40
0.0
 40
0.0
 40
0.0
 40
0.0
 40
0.0152002801
 40
0.0304280267
 40
0.0456834389
 40
0.0609666477
 40
0.0916139459
 40
0.1223720518
 40
0.1377934511
 40
0.1532418029
 40
0.1842151605
 40
0.2152906524
 40
0.2464631604
 40
0.2777265504
 40
0.3090737453
 40
0.3404968054
 40
0.3719870162
 40
0.4035349816
 40
0.435130723
 40
0.4667637819
 40
0.4984233265
 40
0.5300982608
 40
0.5617773358
 40
0.5934492608
 40
0.6251028165
 40
0.6567269662
 40
0.6883109669
 40
0.7198444778
 40
0.7513176653
 40
0.7827213065
 40
0.8140468829
 40
0.8452866835
 40
0.8608734887
 40
0.8764363524
 40
0.907485088
 40
0.9384303788
 40
0.9538642517
 40
0.9692714468
 40
1.0
 40
1.0
 40
1.0
 40
1.0
 10
9.9506538137
 20
8.4641138064
 30
0.0
 10
9.9498484586
 20
8.4567965925
 30
0.0
 10
9.9484314944
 20
8.4421266999
 30
0.0
 10
9.946889626
 20
8.4200538528
 30
0.0
 10
9.9459301728
 20
8.397907541
 30
0.0
 10
9.9454281978
 20
8.3682769826
 30
0.0
 10
9.9462633174
 20
8.3311284238
 30
0.0
 10
9.9490383641
 20
8.294007551
 30
0.0
 10
9.9524160794
 20
8.2643503917
 30
0.0
 10
9.9565718081
 20
8.2346869858
 30
0.0
 10
9.9632119935
 20
8.197729486
 30
0.0
 10
9.9734573257
 20
8.1537413145
 30
0.0
 10
9.9859587321
 20
8.1101938002
 30
0.0
 10
10.0006816044
 20
8.0672075356
 30
0.0
 10
10.0175853564
 20
8.0249006027
 30
0.0
 10
10.0366233795
 20
7.9833894641
 30
0.0
 10
10.0577432141
 20
7.9427883174
 30
0.0
 10
10.080886682
 20
7.9032088716
 30
0.0
 10
10.1059900498
 20
7.864760018
 30
0.0
 10
10.1329842027
 20
7.8275475392
 30
0.0
 10
10.1617948343
 20
7.7916738177
 30
0.0
 10
10.1923426503
 20
7.7572375568
 30
0.0
 10
10.2245435854
 20
7.7243335102
 30
0.0
 10
10.2583090337
 20
7.6930522229
 30
0.0
 10
10.2935460908
 20
7.6634797834
 30
0.0
 10
10.3301578087
 20
7.6356975862
 30
0.0
 10
10.3680434537
 20
7.6097821083
 30
0.0
 10
10.4070988078
 20
7.5858046967
 30
0.0
 10
10.4472163699
 20
7.5638313955
 30
0.0
 10
10.4882859563
 20
7.543922677
 30
0.0
 10
10.5301938655
 20
7.5261336066
 30
0.0
 10
10.5657483832
 20
7.5131062402
 30
0.0
 10
10.5944949442
 20
7.5037928397
 30
0.0
 10
10.6233794619
 20
7.4952367063
 30
0.0
 10
10.6597897193
 20
7.4859432777
 30
0.0
 10
10.6965664601
 20
7.4785358625
 30
0.0
 10
10.726109549
 20
7.4737651344
 30
0.0
 10
10.7556612759
 20
7.4697733194
 30
0.0
 10
10.777916146
 20
7.4676436289
 30
0.0
 10
10.7927621343
 20
7.4666140561
 30
0.0
  0
SPLINE
  5
3D0
100
AcDbEntity
  8
0
100
AcDbSpline
 62
7
  6
CONTINUOUS
 70
0
 71
3
 72
76
 73
72
 74
0
 42
0.0000001
 43
0.0000001
 44
0.0000000001
 40
0.0
 40
0.0
 40
0.0
 40
0.0
 40
0.0156747358
 40
0.0235325428
 40
0.0314031247
 40
0.0471815269
 40
0.0630096691
 40
0.0709422965
 40
0.0788865455
 40
0.0948074602
 40
0.1107706217
 40
0.1267727506
 40
0.1428102138
 40
0.1588790637
 40
0.1749750744
 40
0.1910937801
 40
0.2072305158
 40
0.2233804587
 40
0.2395386706
 40
0.2557001414
 40
0.2718598329
 40
0.2880127219
 40
0.304153845
 40
0.320278341
 40
0.3363814943
 40
0.3524587764
 40
0.3685058868
 40
0.384518792
 40
0.4004937632
 40
0.4164274116
 40
0.4323167216
 40
0.4481590813
 40
0.4639523095
 40
0.4796946803
 40
0.495384943
 40
0.5110223391
 40
0.5266066138
 40
0.542138024
 40
0.5576173411
 40
0.5730458482
 40
0.588425333
 40
0.6037580745
 40
0.6190468249
 40
0.6342947854
 40
0.6495055776
 40
0.6646832087
 40
0.6798320327
 40
0.6949567064
 40
0.7100621422
 40
0.7251534568
 40
0.7402359175
 40
0.7553148859
 40
0.7703957613
 40
0.7854839223
 40
0.8005846697
 40
0.8157031702
 40
0.8308444015
 40
0.8460131006
 40
0.8612137152
 40
0.8764503585
 40
0.8917267695
 40
0.9070462755
 40
0.9147237276
 40
0.9224129992
 40
0.9301143742
 40
0.9378281071
 40
0.9532923509
 40
0.9688083105
 40
0.9765865615
 40
0.9843782585
 40
1.0
 40
1.0
 40
1.0
 40
1.0
 10
9.8564381122
 20
6.3062241236
 30
0.0
 10
9.8383602465
 20
6.3074778279
 30
0.0
 10
9.8112599545
 20
6.3100247779
 30
0.0
 10
9.7752595617
 20
6.3147339402
 30
0.0
 10
9.7392643524
 20
6.3203306203
 30
0.0
 10
9.6944322741
 20
6.32897275
 30
0.0
 10
9.6499958899
 20
6.3397684363
 30
0.0
 10
9.614706713
 20
6.3496872198
 30
0.0
 10
9.5795603263
 20
6.3604719943
 30
0.0
 10
9.5360310838
 20
6.3755399967
 30
0.0
 10
9.4846078476
 20
6.3960977776
 30
0.0
 10
9.434080105
 20
6.4190958798
 30
0.0
 10
9.3845702257
 20
6.4444786564
 30
0.0
 10
9.3361971669
 20
6.4721849992
 30
0.0
 10
9.2890774053
 20
6.5021481466
 30
0.0
 10
9.2433243313
 20
6.534295934
 30
0.0
 10
9.1990480656
 20
6.5685509433
 30
0.0
 10
9.1563551713
 20
6.6048306946
 30
0.0
 10
9.115348403
 20
6.6430478395
 30
0.0
 10
9.0761264613
 20
6.6831103753
 30
0.0
 10
9.0387837565
 20
6.7249218646
 30
0.0
 10
9.0034101825
 20
6.7683816664
 30
0.0
 10
8.9700909015
 20
6.8133851776
 30
0.0
 10
8.9389061395
 20
6.8598240831
 30
0.0
 10
8.9099309942
 20
6.9075866151
 30
0.0
 10
8.8832352549
 20
6.9565578211
 30
0.0
 10
8.8588832345
 20
7.0066198387
 30
0.0
 10
8.8369336157
 20
7.0576521774
 30
0.0
 10
8.817439309
 20
7.1095320074
 30
0.0
 10
8.8004473258
 20
7.1621344532
 30
0.0
 10
8.785998663
 20
7.2153328917
 30
0.0
 10
8.7741282021
 20
7.2689992553
 30
0.0
 10
8.7648646276
 20
7.3230043398
 30
0.0
 10
8.7582303565
 20
7.377218113
 30
0.0
 10
8.7542414825
 20
7.4315100257
 30
0.0
 10
8.7529077358
 20
7.485749325
 30
0.0
 10
8.7542324573
 20
7.5398053668
 30
0.0
 10
8.7582125878
 20
7.5935479297
 30
0.0
 10
8.7648386728
 20
7.6468475274
 30
0.0
 10
8.7740948821
 20
7.69957572
 30
0.0
 10
8.7859590446
 20
7.7516054234
 30
0.0
 10
8.800402698
 20
7.802811216
 30
0.0
 10
8.8173911551
 20
7.8530696417
 30
0.0
 10
8.83688358
 20
7.9022595102
 30
0.0
 10
8.8588330851
 20
7.9502621918
 30
0.0
 10
8.8831868439
 20
7.9969619051
 30
0.0
 10
8.9098862152
 20
8.0422459996
 30
0.0
 10
8.9388668835
 20
8.0860052306
 30
0.0
 10
8.9700590131
 20
8.1281340269
 30
0.0
 10
9.003387416
 20
8.1685307489
 30
0.0
 10
9.0387717344
 20
8.2070979381
 30
0.0
 10
9.0761266356
 20
8.2437425557
 30
0.0
 10
9.1153620198
 20
8.2783762104
 30
0.0
 10
9.156383241
 20
8.3109153743
 30
0.0
 10
9.1990913371
 20
8.3412815872
 30
0.0
 10
9.2433832754
 20
8.3694016469
 30
0.0
 10
9.2891521949
 20
8.3952077888
 30
0.0
 10
9.3362876972
 20
8.4186378526
 30
0.0
 10
9.3846760178
 20
8.4396354113
 30
0.0
 10
9.4342006764
 20
8.4581499756
 30
0.0
 10
9.4847413647
 20
8.4741368534
 30
0.0
 10
9.527575338
 20
8.4853132123
 30
0.0
 10
9.562221079
 20
8.4929569044
 30
0.0
 10
9.5884035195
 20
8.4980414726
 30
0.0
 10
9.6147473231
 20
8.50247025
 30
0.0
 10
9.6500933282
 20
8.507501086
 30
0.0
 10
9.694606194
 20
8.5121342361
 30
0.0
 10
9.739368642
 20
8.5145470105
 30
0.0
 10
9.7753048066
 20
8.5151486588
 30
0.0
 10
9.8113664501
 20
8.5148625738
 30
0.0
 10
9.8384213656
 20
8.5136482372
 30
0.0
 10
9.8564381122
 20
8.5123987716
 30
0.0
  0
SPLINE
  5
3D1
100
AcDbEntity
  8
0
100
AcDbSpline
 62
7
  6
CONTINUOUS
 70
0
 71
3
 72
33
 73
29
 74
0
 42
0.0000001
 43
0.0000001
 44
0.0000000001
 40
0.0
 40
0.0
 40
0.0
 40
0.0
 40
0.0958336213
 40
0.1891081202
 40
0.2792503045
 40
0.3657220889
 40
0.4480132641
 40
0.5256549075
 40
0.5625997422
 40
0.5982276624
 40
0.6324950734
 40
0.6653617928
 40
0.6967929111
 40
0.7267584475
 40
0.7552344057
 40
0.7822038982
 40
0.8076574015
 40
0.8315955933
 40
0.8540293233
 40
0.8749841742
 40
0.8945012814
 40
0.9126434623
 40
0.9294982434
 40
0.9451850253
 40
0.9598600352
 40
0.9737213109
 40
0.9870092528
 40
1.0
 40
1.0
 40
1.0
 40
1.0
 10
12.4628715405
 20
10.9998602235
 30
0.0
 10
12.4662574892
 20
10.9996254071
 30
0.0
 10
12.4729340853
 20
10.9990875656
 30
0.0
 10
12.4827716324
 20
10.9980609359
 30
0.0
 10
12.4922516838
 20
10.9968305983
 30
0.0
 10
12.5013109188
 20
10.9954049978
 30
0.0
 10
12.5098890133
 20
10.9937937704
 30
0.0
 10
12.5166974179
 20
10.992281653
 30
0.0
 10
12.5218562754
 20
10.9909807616
 30
0.0
 10
12.5255062341
 20
10.9899818763
 30
0.0
 10
12.5289952944
 20
10.9889453629
 30
0.0
 10
12.5323176574
 20
10.9878728883
 30
0.0
 10
12.5354678113
 20
10.9867662912
 30
0.0
 10
12.5384405439
 20
10.9856274145
 30
0.0
 10
12.5412309453
 20
10.9844581391
 30
0.0
 10
12.5438344487
 20
10.9832604542
 30
0.0
 10
12.5462467807
 20
10.9820362521
 30
0.0
 10
12.5484640733
 20
10.9807876208
 30
0.0
 10
12.5504827211
 20
10.9795164204
 30
0.0
 10
12.552299584
 20
10.9782247313
 30
0.0
 10
12.5539117286
 20
10.9769143069
 30
0.0
 10
12.5553166708
 20
10.9755870318
 30
0.0
 10
12.5565120109
 20
10.9742444386
 30
0.0
 10
12.557495551
 20
10.9728880492
 30
0.0
 10
12.5582649234
 20
10.971519312
 30
0.0
 10
12.5588174978
 20
10.9701398018
 30
0.0
 10
12.5591506219
 20
10.968752475
 30
0.0
 10
12.5592250759
 20
10.9678201694
 30
0.0
 10
12.5592250716
 20
10.967360084
 30
0.0
  0
SPLINE
  5
3D2
100
AcDbEntity
  8
0
100
AcDbSpline
 62
7
  6
CONTINUOUS
 70
0
 71
3
 72
39
 73
35
 74
0
 42
0.0000001
 43
0.0000001
 44
0.0000000001
 40
0.0
 40
0.0
 40
0.0
 40
0.0
 40
0.0307311762
 40
0.0615522415
 40
0.0924606132
 40
0.1234530534
 40
0.1545256968
 40
0.1856740824
 40
0.216893189
 40
0.2481774801
 40
0.2795209474
 40
0.3109171549
 40
0.342359285
 40
0.3738401924
 40
0.4053524573
 40
0.4368884375
 40
0.4684403208
 40
0.5000001818
 40
0.5315600413
 40
0.5631119201
 40
0.5946478942
 40
0.6261601505
 40
0.6576410461
 40
0.6890831618
 40
0.7204793533
 40
0.7518228028
 40
0.7831070738
 40
0.8143261564
 40
0.8454745191
 40
0.8765471403
 40
0.9075395334
 40
0.9384479439
 40
0.9692688519
 40
1.0
 40
1.0
 40
1.0
 40
1.0
 10
10.0960535304
 20
8.4332833676
 30
0.0
 10
10.0972419792
 20
8.4207528809
 30
0.0
 10
10.100171253
 20
8.3957039003
 30
0.0
 10
10.1061990969
 20
8.3583057945
 30
0.0
 10
10.113855756
 20
8.3210969748
 30
0.0
 10
10.1231261427
 20
8.2841511029
 30
0.0
 10
10.1339921225
 20
8.2475401223
 30
0.0
 10
10.1464324549
 20
8.2113356552
 30
0.0
 10
10.1604227622
 20
8.1756084188
 30
0.0
 10
10.1759356492
 20
8.1404282161
 30
0.0
 10
10.1929407739
 20
8.1058637797
 30
0.0
 10
10.2114049111
 20
8.071982656
 30
0.0
 10
10.2312919647
 20
8.0388510474
 30
0.0
 10
10.2525630206
 20
8.0065336644
 30
0.0
 10
10.275176498
 20
7.9750936428
 30
0.0
 10
10.2990882121
 20
7.9445924161
 30
0.0
 10
10.3242514619
 20
7.9150896042
 30
0.0
 10
10.3506170437
 20
7.8866428285
 30
0.0
 10
10.3781334273
 20
7.85930766
 30
0.0
 10
10.4067468517
 20
7.833137513
 30
0.0
 10
10.4364014364
 20
7.8081835573
 30
0.0
 10
10.4670392371
 20
7.7844945585
 30
0.0
 10
10.4986003735
 20
7.7621167876
 30
0.0
 10
10.531023185
 20
7.7410939825
 30
0.0
 10
10.5642443386
 20
7.7214672576
 30
0.0
 10
10.5981989437
 20
7.7032750164
 30
0.0
 10
10.6328206394
 20
7.6865527984
 30
0.0
 10
10.6680417807
 20
7.6713332976
 30
0.0
 10
10.7037935514
 20
7.6576462956
 30
0.0
 10
10.7400061202
 20
7.6455186249
 30
0.0
 10
10.7766086762
 20
7.6349739823
 30
0.0
 10
10.8135298806
 20
7.6260330521
 30
0.0
 10
10.8506966721
 20
7.6187133431
 30
0.0
 10
10.8756290682
 20
7.6149180904
 30
0.0
 10
10.8881108594
 20
7.6132963305
 30
0.0
  0
SPLINE
  5
3D3
100
AcDbEntity
  8
0
100
AcDbSpline
 62
7
  6
CONTINUOUS
 70
0
 71
3
 72
69
 73
65
 74
0
 42
0.0000001
 43
0.0000001
 44
0.0000000001
 40
0.0
 40
0.0
 40
0.0
 40
0.0
 40
0.015674738
 40
0.031402856
 40
0.0471814332
 40
0.0630099467
 40
0.0788860976
 40
0.0948073602
 40
0.1107708915
 40
0.1267733886
 40
0.1428112183
 40
0.1588804359
 40
0.1749768159
 40
0.1910958912
 40
0.2072329954
 40
0.2233833081
 40
0.2395418909
 40
0.2557037314
 40
0.2880085705
 40
0.3202664093
 40
0.3363699321
 40
0.3524475833
 40
0.3684950603
 40
0.3845083318
 40
0.40048367
 40
0.4164176829
 40
0.4323073557
 40
0.448150079
 40
0.4639436699
 40
0.4796864003
 40
0.4953770224
 40
0.5110147783
 40
0.5265994099
 40
0.5421311749
 40
0.5576108472
 40
0.5730397086
 40
0.5884195445
 40
0.6037526364
 40
0.619041738
 40
0.6342900478
 40
0.6495011875
 40
0.6646791664
 40
0.6798283385
 40
0.6949533585
 40
0.7100591398
 40
0.7251508008
 40
0.7402336078
 40
0.7553129211
 40
0.7703941413
 40
0.7854826485
 40
0.8005837423
 40
0.8157025881
 40
0.8308441657
 40
0.8460132131
 40
0.8612141762
 40
0.8764511669
 40
0.8917279283
 40
0.9070477907
 40
0.9224136172
 40
0.937827884
 40
0.9532924911
 40
0.9688086216
 40
0.9843782591
 40
1.0
 40
1.0
 40
1.0
 40
1.0
 10
10.097919583
 20
9.5098741349
 30
0.0
 10
10.1044097374
 20
9.5094240412
 30
0.0
 10
10.117392262
 20
9.5082038794
 30
0.0
 10
10.1367841999
 20
9.5054271086
 30
0.0
 10
10.1560828648
 20
9.5017068901
 30
0.0
 10
10.1752408112
 20
9.4970525943
 30
0.0
 10
10.1942123697
 20
9.4914752531
 30
0.0
 10
10.2129517467
 20
9.4849884224
 30
0.0
 10
10.2314138568
 20
9.4776077668
 30
0.0
 10
10.2495542372
 20
9.4693509955
 30
0.0
 10
10.2673292425
 20
9.4602380721
 30
0.0
 10
10.2846961085
 20
9.4502909799
 30
0.0
 10
10.3016130176
 20
9.4395336374
 30
0.0
 10
10.3180392318
 20
9.4279919429
 30
0.0
 10
10.3339352788
 20
9.415693719
 30
0.0
 10
10.3492628161
 20
9.4026686767
 30
0.0
 10
10.3639852259
 20
9.388947731
 30
0.0
 10
10.3827549947
 20
9.3697758628
 30
0.0
 10
10.4045286068
 20
9.3442453952
 30
0.0
 10
10.4238577877
 20
9.3168468946
 30
0.0
 10
10.4377337469
 20
9.2939736116
 30
0.0
 10
10.4473182063
 20
9.2763917486
 30
0.0
 10
10.4560609803
 20
9.2584185768
 30
0.0
 10
10.4639413404
 20
9.2400969715
 30
0.0
 10
10.4709401876
 20
9.2214711242
 30
0.0
 10
10.4770406114
 20
9.2025858227
 30
0.0
 10
10.4822279543
 20
9.1834865584
 30
0.0
 10
10.4864897068
 20
9.1642193057
 30
0.0
 10
10.4898155074
 20
9.1448304387
 30
0.0
 10
10.4921973156
 20
9.1253666469
 30
0.0
 10
10.4936294095
 20
9.1058748054
 30
0.0
 10
10.4941082767
 20
9.0864018514
 30
0.0
 10
10.4936326499
 20
9.0669946907
 30
0.0
 10
10.4922036947
 20
9.0477000769
 30
0.0
 10
10.4898248257
 20
9.0285644914
 30
0.0
 10
10.4865016697
 20
9.0096340532
 30
0.0
 10
10.4822421779
 20
8.9909543942
 30
0.0
 10
10.4770566331
 20
8.9725705278
 30
0.0
 10
10.4709574771
 20
8.9545267748
 30
0.0
 10
10.4639593014
 20
8.9368666714
 30
0.0
 10
10.4560789947
 20
8.91963279
 30
0.0
 10
10.447335548
 20
8.9028666819
 30
0.0
 10
10.4377499694
 20
8.8866088121
 30
0.0
 10
10.4273453269
 20
8.8708984206
 30
0.0
 10
10.4161467538
 20
8.8557733703
 30
0.0
 10
10.4041812374
 20
8.8412701493
 30
0.0
 10
10.3914775709
 20
8.8274237969
 30
0.0
 10
10.3780664273
 20
8.8142676885
 30
0.0
 10
10.3639801801
 20
8.8018335269
 30
0.0
 10
10.3492527802
 20
8.7901513276
 30
0.0
 10
10.3339197323
 20
8.7792492974
 30
0.0
 10
10.3180180737
 20
8.7691536564
 30
0.0
 10
10.3015861643
 20
8.7598887267
 30
0.0
 10
10.2846636098
 20
8.7514768902
 30
0.0
 10
10.2672912486
 20
8.7439383789
 30
0.0
 10
10.2495110007
 20
8.7372912876
 30
0.0
 10
10.2313657301
 20
8.7315516306
 30
0.0
 10
10.2128991823
 20
8.7267332676
 30
0.0
 10
10.1941558948
 20
8.7228476739
 30
0.0
 10
10.1751810291
 20
8.7199041879
 30
0.0
 10
10.1560204499
 20
8.7179099304
 30
0.0
 10
10.1367198563
 20
8.7168695073
 30
0.0
 10
10.1173267623
 20
8.7167856147
 30
0.0
 10
10.1043877938
 20
8.7173663385
 30
0.0
 10
10.097919583
 20
8.7178149104
 30
0.0
  0
SPLINE
  5
3D4
100
AcDbEntity
  8
0
100
AcDbSpline
 62
7
  6
CONTINUOUS
 70
0
 71
3
 72
56
 73
52
 74
0
 42
0.0000001
 43
0.0000001
 44
0.0000000001
 40
0.0
 40
0.0
 40
0.0
 40
0.0
 40
0.0119183199
 40
0.0229522213
 40
0.0332378256
 40
0.0429070084
 40
0.0520865309
 40
0.0565320564
 40
0.0608994284
 40
0.0694498871
 40
0.0778417877
 40
0.0861645934
 40
0.0944945854
 40
0.1028972687
 40
0.1114253668
 40
0.1201223061
 40
0.1290226262
 40
0.1381520814
 40
0.1475320632
 40
0.1571779937
 40
0.1671004904
 40
0.1773088946
 40
0.1878092477
 40
0.1986046437
 40
0.2096984404
 40
0.2210928948
 40
0.2327882964
 40
0.244784754
 40
0.2570833807
 40
0.2696843144
 40
0.2825867842
 40
0.3092968658
 40
0.3231073601
 40
0.3372212836
 40
0.3663657775
 40
0.3814014367
 40
0.3967483655
 40
0.4283913947
 40
0.4613297205
 40
0.4956105743
 40
0.5312939329
 40
0.5684599655
 40
0.607208945
 40
0.6476692201
 40
0.6900048772
 40
0.7344250679
 40
0.7811983031
 40
0.8306696585
 40
0.8832772565
 40
0.939548947
 40
1.0
 40
1.0
 40
1.0
 40
1.0
 10
10.5836640976
 20
7.1117019235
 30
0.0
 10
10.5820280027
 20
7.1126649503
 30
0.0
 10
10.5789543191
 20
7.1146559063
 30
0.0
 10
10.574798076
 20
7.1179488928
 30
0.0
 10
10.5712524618
 20
7.121396211
 30
0.0
 10
10.5682814775
 20
7.1249729202
 30
0.0
 10
10.5662349622
 20
7.1280781424
 30
0.0
 10
10.564866127
 20
7.1305976857
 30
0.0
 10
10.5636840078
 20
7.1330995428
 30
0.0
 10
10.5624930576
 20
7.1362863903
 30
0.0
 10
10.5615073785
 20
7.1401963736
 30
0.0
 10
10.5609499209
 20
7.1441539734
 30
0.0
 10
10.5607956031
 20
7.1481485231
 30
0.0
 10
10.5610238259
 20
7.1521715075
 30
0.0
 10
10.5616131911
 20
7.1562159017
 30
0.0
 10
10.5625459414
 20
7.1602758482
 30
0.0
 10
10.5638055915
 20
7.1643462729
 30
0.0
 10
10.5653761404
 20
7.1684233891
 30
0.0
 10
10.5672446401
 20
7.172503374
 30
0.0
 10
10.5693983088
 20
7.1765832491
 30
0.0
 10
10.571825207
 20
7.1806607305
 30
0.0
 10
10.5745154627
 20
7.184733306
 30
0.0
 10
10.5774594272
 20
7.1887991128
 30
0.0
 10
10.5806478947
 20
7.1928568553
 30
0.0
 10
10.5840732146
 20
7.196904996
 30
0.0
 10
10.5877282459
 20
7.2009423927
 30
0.0
 10
10.5916060447
 20
7.2049683125
 30
0.0
 10
10.595700465
 20
7.2089821544
 30
0.0
 10
10.600006361
 20
7.2129831991
 30
0.0
 10
10.604518804
 20
7.2169711592
 30
0.0
 10
10.6108779253
 20
7.2223327021
 30
0.0
 10
10.6175640202
 20
7.227601667
 30
0.0
 10
10.6245511499
 20
7.2327905152
 30
0.0
 10
10.631947304
 20
7.2380766596
 30
0.0
 10
10.6396419855
 20
7.2432779137
 30
0.0
 10
10.6476181374
 20
7.2484059007
 30
0.0
 10
10.6560070653
 20
7.2536259768
 30
0.0
 10
10.6669593964
 20
7.2601213159
 30
0.0
 10
10.6807072044
 20
7.2678051107
 30
0.0
 10
10.6952015191
 20
7.2754628282
 30
0.0
 10
10.710461432
 20
7.2831040189
 30
0.0
 10
10.7265163708
 20
7.290738647
 30
0.0
 10
10.7434072745
 20
7.2983791002
 30
0.0
 10
10.7611895167
 20
7.3060393142
 30
0.0
 10
10.7799366261
 20
7.3137353908
 30
0.0
 10
10.7997451883
 20
7.3214860478
 30
0.0
 10
10.8207415163
 20
7.3293125411
 30
0.0
 10
10.8430896165
 20
7.3372379645
 30
0.0
 10
10.8669970069
 20
7.3452838116
 30
0.0
 10
10.8927026655
 20
7.3534579929
 30
0.0
 10
10.9105211005
 20
7.3587729397
 30
0.0
 10
10.9197751399
 20
7.3614349408
 30
0.0
  0
SPLINE
  5
3D5
100
AcDbEntity
  8
0
100
AcDbSpline
 62
7
  6
CONTINUOUS
 70
0
 71
3
 72
23
 73
19
 74
0
 42
0.0000001
 43
0.0000001
 44
0.0000000001
 40
0.0
 40
0.0
 40
0.0
 40
0.0
 40
0.0616005536
 40
0.1232793501
 40
0.185047547
 40
0.2469157474
 40
0.3088939265
 40
0.3709913886
 40
0.4332167127
 40
0.4955776874
 40
0.558081299
 40
0.620733659
 40
0.683539961
 40
0.74650472
 40
0.8096310349
 40
0.8729209627
 40
0.9363789155
 40
1.0
 40
1.0
 40
1.0
 40
1.0
 10
10.8064246268
 20
6.89050389
 30
0.0
 10
10.7958799437
 20
6.8839666158
 30
0.0
 10
10.7745116075
 20
6.871306687
 30
0.0
 10
10.7417028045
 20
6.8536060018
 30
0.0
 10
10.7081636164
 20
6.8372072227
 30
0.0
 10
10.6739424134
 20
6.8221341921
 30
0.0
 10
10.6390877567
 20
6.8084081891
 30
0.0
 10
10.6036493335
 20
6.79604869
 30
0.0
 10
10.5676775445
 20
6.7850733363
 30
0.0
 10
10.5312235986
 20
6.7754977181
 30
0.0
 10
10.4943394001
 20
6.7673353475
 30
0.0
 10
10.4570774309
 20
6.7605978763
 30
0.0
 10
10.4194906916
 20
6.7552948758
 30
0.0
 10
10.3816326893
 20
6.7514338081
 30
0.0
 10
10.3435574389
 20
6.7490201366
 30
0.0
 10
10.305318472
 20
6.7480572521
 30
0.0
 10
10.2669714892
 20
6.748546651
 30
0.0
 10
10.2414025301
 20
6.7498387815
 30
0.0
 10
10.2286195825
 20
6.7507252819
 30
0.0
  0
SPLINE
  5
3D6
100
AcDbEntity
  8
0
100
AcDbSpline
 62
7
  6
CONTINUOUS
 70
0
 71
3
 72
26
 73
22
 74
0
 42
0.0000001
 43
0.0000001
 44
0.0000000001
 40
0.0
 40
0.0
 40
0.0
 40
0.0
 40
0.0637762195
 40
0.1273429424
 40
0.1906991297
 40
0.2538523459
 40
0.2853569254
 40
0.3168132648
 40
0.3795812269
 40
0.4421715828
 40
0.5045965959
 40
0.5668701923
 40
0.6290077775
 40
0.6910261187
 40
0.7219986692
 40
0.7529482376
 40
0.8147830194
 40
0.8765553455
 40
0.9074270105
 40
0.9382907751
 40
1.0
 40
1.0
 40
1.0
 40
1.0
 10
12.4117191421
 20
6.653950271
 30
0.0
 10
12.4117191421
 20
6.6423786437
 30
0.0
 10
12.4111652801
 20
6.6192694988
 30
0.0
 10
12.4086653839
 20
6.5847462316
 30
0.0
 10
12.4045031409
 20
6.550497059
 30
0.0
 10
12.3996534067
 20
6.5222272942
 30
0.0
 10
12.3949525725
 20
6.4998310044
 30
0.0
 10
12.389715944
 20
6.4776257408
 30
0.0
 10
12.3821574085
 20
6.4501822515
 30
0.0
 10
12.3714795214
 20
6.4178124456
 30
0.0
 10
12.3592246916
 20
6.3861017649
 30
0.0
 10
12.3454211546
 20
6.3551237203
 30
0.0
 10
12.3301009313
 20
6.3249501019
 30
0.0
 10
12.3160924882
 20
6.3005217392
 30
0.0
 10
12.3041660993
 20
6.2814544548
 30
0.0
 10
12.2917748202
 20
6.2627258407
 30
0.0
 10
12.2754078494
 20
6.2399385651
 30
0.0
 10
12.2579026173
 20
6.2180316688
 30
0.0
 10
12.2432476812
 20
6.2010754129
 30
0.0
 10
12.2281699842
 20
6.1845101237
 30
0.0
 10
12.2163862743
 20
6.1725269623
 30
0.0
 10
12.2083330627
 20
6.1647481835
 30
0.0
  0
SPLINE
  5
3D7
100
AcDbEntity
  8
0
100
AcDbSpline
 62
7
  6
CONTINUOUS
 70
0
 71
3
 72
39
 73
35
 74
0
 42
0.0000001
 43
0.0000001
 44
0.0000000001
 40
0.0
 40
0.0
 40
0.0
 40
0.0
 40
0.030673164
 40
0.0614497342
 40
0.0923258322
 40
0.123299507
 40
0.1543662998
 40
0.1855214634
 40
0.2167593041
 40
0.2480733934
 40
0.2794566285
 40
0.3109012834
 40
0.3423990894
 40
0.3739413063
 40
0.4055188043
 40
0.4371221464
 40
0.4687416707
 40
0.5003675737
 40
0.5319899947
 40
0.5635991035
 40
0.5951851873
 40
0.6267387347
 40
0.6582505182
 40
0.6897116749
 40
0.7211137879
 40
0.7524489655
 40
0.7837099101
 40
0.8148899957
 40
0.8459833158
 40
0.8769847405
 40
0.907890123
 40
0.9386956389
 40
0.9693999951
 40
1.0
 40
1.0
 40
1.0
 40
1.0
 10
11.6872747294
 20
10.6277816005
 30
0.0
 10
11.6991471324
 20
10.6269582465
 30
0.0
 10
11.7228955936
 20
10.6247263189
 30
0.0
 10
11.758368638
 20
10.6196467561
 30
0.0
 10
11.7936709227
 20
10.6128415181
 30
0.0
 10
11.8287160061
 20
10.60432756
 30
0.0
 10
11.8634200881
 20
10.5941251401
 30
0.0
 10
11.897699427
 20
10.5822589962
 30
0.0
 10
11.9314715598
 20
10.5687577228
 30
0.0
 10
11.9646551927
 20
10.5536539042
 30
0.0
 10
11.9971704621
 20
10.5369839529
 30
0.0
 10
12.0289391099
 20
10.5187880311
 30
0.0
 10
12.0598846664
 20
10.499109957
 30
0.0
 10
12.0899326463
 20
10.4779971201
 30
0.0
 10
12.119010747
 20
10.455500388
 30
0.0
 10
12.14704899
 20
10.431673935
 30
0.0
 10
12.1739798922
 20
10.4065751224
 30
0.0
 10
12.1997386236
 20
10.3802643609
 30
0.0
 10
12.2242631609
 20
10.3528049686
 30
0.0
 10
12.2474944833
 20
10.3242630587
 30
0.0
 10
12.2693766723
 20
10.2947073364
 30
0.0
 10
12.2898570421
 20
10.2642089361
 30
0.0
 10
12.3088862671
 20
10.2328412549
 30
0.0
 10
12.3264184891
 20
10.2006797744
 30
0.0
 10
12.3424114791
 20
10.1678019075
 30
0.0
 10
12.3568267173
 20
10.134286795
 30
0.0
 10
12.3696294633
 20
10.1002151047
 30
0.0
 10
12.3807888383
 20
10.0656688426
 30
0.0
 10
12.3902778908
 20
10.0307311733
 30
0.0
 10
12.3980737403
 20
9.995486149
 30
0.0
 10
12.4041574521
 20
9.9600188285
 30
0.0
 10
12.4085145753
 20
9.9244140156
 30
0.0
 10
12.4111341462
 20
9.8887589274
 30
0.0
 10
12.4117191421
 20
9.8649693307
 30
0.0
 10
12.4117191421
 20
9.8530967972
 30
0.0
  0
SPLINE
  5
3D8
100
AcDbEntity
  8
0
100
AcDbSpline
 62
7
  6
CONTINUOUS
 70
0
 71
3
 72
37
 73
33
 74
0
 42
0.0000001
 43
0.0000001
 44
0.0000000001
 40
0.0
 40
0.0
 40
0.0
 40
0.0
 40
0.0958321372
 40
0.1891019121
 40
0.2792425465
 40
0.3657115305
 40
0.4074101378
 40
0.4480031117
 40
0.4874331589
 40
0.5256456456
 40
0.5625894675
 40
0.5982165282
 40
0.6324830688
 40
0.665348975
 40
0.6967793974
 40
0.7267441687
 40
0.7552196034
 40
0.7821883904
 40
0.8076415214
 40
0.8315791003
 40
0.8540125631
 40
0.8749669375
 40
0.894483817
 40
0.9126256757
 40
0.9294802133
 40
0.9451667887
 40
0.9598415117
 40
0.9737025915
 40
0.9804060739
 40
0.98699956
 40
0.9935185817
 40
1.0
 40
1.0
 40
1.0
 40
1.0
 10
10.6748611044
 20
11.3987747696
 30
0.0
 10
10.6813725861
 20
11.3983231968
 30
0.0
 10
10.6942120503
 20
11.3972889116
 30
0.0
 10
10.7131303176
 20
11.3953146135
 30
0.0
 10
10.7313609026
 20
11.3929486273
 30
0.0
 10
10.7460513036
 20
11.3906369766
 30
0.0
 10
10.7573631885
 20
11.3885952824
 30
0.0
 10
10.7654981421
 20
11.3869952125
 30
0.0
 10
10.7733733762
 20
11.3853105958
 30
0.0
 10
10.7809757596
 20
11.3835441889
 30
0.0
 10
10.7882926126
 20
11.3816990374
 30
0.0
 10
10.7953117374
 20
11.3797781599
 30
0.0
 10
10.802021456
 20
11.377784879
 30
0.0
 10
10.8084106037
 20
11.3757224435
 30
0.0
 10
10.8144685929
 20
11.3735944155
 30
0.0
 10
10.8201853814
 20
11.3714042595
 30
0.0
 10
10.8255515577
 20
11.3691557204
 30
0.0
 10
10.8305582939
 20
11.3668524514
 30
0.0
 10
10.8351974362
 20
11.3644983011
 30
0.0
 10
10.8394614632
 20
11.3620970486
 30
0.0
 10
10.8433435417
 20
11.3596525181
 30
0.0
 10
10.8468375231
 20
11.3571684721
 30
0.0
 10
10.849937874
 20
11.3546484909
 30
0.0
 10
10.8526397301
 20
11.3520960358
 30
0.0
 10
10.8549385162
 20
11.3495141738
 30
0.0
 10
10.8568300496
 20
11.3469056991
 30
0.0
 10
10.8583095891
 20
11.3442737604
 30
0.0
 10
10.8592052049
 20
11.3420378062
 30
0.0
 10
10.8597006669
 20
11.3402541278
 30
0.0
 10
10.859963477
 20
11.338928903
 30
0.0
 10
10.8601212643
 20
11.3376024311
 30
0.0
 10
10.8601563903
 20
11.3367165753
 30
0.0
 10
10.8601563944
 20
11.3362751263
 30
0.0
  0
SPLINE
  5
3D9
100
AcDbEntity
  8
0
100
AcDbSpline
 62
7
  6
CONTINUOUS
 70
0
 71
3
 72
27
 73
23
 74
0
 42
0.0000001
 43
0.0000001
 44
0.0000000001
 40
0.0
 40
0.0
 40
0.0
 40
0.0
 40
0.0616468881
 40
0.0924803185
 40
0.1233223678
 40
0.1850380807
 40
0.2468218505
 40
0.2777487699
 40
0.3087006859
 40
0.3706840796
 40
0.4327968347
 40
0.4950568327
 40
0.5574803499
 40
0.6200819041
 40
0.6828741034
 40
0.7143476663
 40
0.7458726922
 40
0.8090759589
 40
0.8724945324
 40
0.9042888375
 40
0.936139701
 40
1.0
 40
1.0
 40
1.0
 40
1.0
 10
9.4758461
 20
10.5600072441
 30
0.0
 10
9.4842626256
 20
10.5681369561
 30
0.0
 10
9.4972204136
 20
10.5799964
 30
0.0
 10
9.515113071
 20
10.5950934451
 30
0.0
 10
9.5334154613
 20
10.6097129461
 30
0.0
 10
9.5570358047
 20
10.6270697405
 30
0.0
 10
9.5815657088
 20
10.6431447831
 30
0.0
 10
9.6017008783
 20
10.6552150778
 30
0.0
 10
9.6221838358
 20
10.6667625519
 30
0.0
 10
9.6483921009
 20
10.6801863533
 30
0.0
 10
9.680702397
 20
10.6946257419
 30
0.0
 10
9.7138085872
 20
10.7073684345
 30
0.0
 10
9.7476268655
 20
10.7183821301
 30
0.0
 10
9.7820716149
 20
10.7276391563
 30
0.0
 10
9.8112044677
 20
10.7338655123
 30
0.0
 10
9.834732431
 20
10.7379488188
 30
0.0
 10
9.8584349718
 20
10.7414365356
 30
0.0
 10
9.8882945144
 20
10.7446609908
 30
0.0
 10
9.9183303279
 20
10.7463624798
 30
0.0
 10
9.9424475055
 20
10.7468123042
 30
0.0
 10
9.9666517028
 20
10.7466530973
 30
0.0
 10
9.9848116178
 20
10.7458478183
 30
0.0
 10
9.9969044333
 20
10.7450091787
 30
0.0
  0
SPLINE
  5
3DA
100
AcDbEntity
  8
0
100
AcDbSpline
 62
7
  6
CONTINUOUS
 70
0
 71
3
 72
27
 73
23
 74
0
 42
0.0000001
 43
0.0000001
 44
0.0000000001
 40
0.0
 40
0.0
 40
0.0
 40
0.0
 40
0.0616468907
 40
0.092480322
 40
0.1233223719
 40
0.1850380851
 40
0.2468218543
 40
0.2777487732
 40
0.3087006885
 40
0.3706840806
 40
0.4327968338
 40
0.4950568299
 40
0.5574803454
 40
0.6200818982
 40
0.6828740966
 40
0.7143476593
 40
0.7458726853
 40
0.8090759524
 40
0.8724945271
 40
0.9042888332
 40
0.9361396979
 40
1.0
 40
1.0
 40
1.0
 40
1.0
 10
8.5052738589
 20
9.6225063947
 30
0.0
 10
8.5136903901
 20
9.6306361679
 30
0.0
 10
8.5266481903
 20
9.6424957022
 30
0.0
 10
8.5445408709
 20
9.6575928639
 30
0.0
 10
8.5628432888
 20
9.6722124786
 30
0.0
 10
8.5864636752
 20
9.6895694098
 30
0.0
 10
8.610993633
 20
9.7056445812
 30
0.0
 10
8.6311288513
 20
9.7177149738
 30
0.0
 10
8.6516118613
 20
9.7292625423
 30
0.0
 10
8.6778201991
 20
9.7426864547
 30
0.0
 10
8.7101305926
 20
9.7571259646
 30
0.0
 10
8.7432368895
 20
9.7698687663
 30
0.0
 10
8.777055283
 20
9.7808825582
 30
0.0
 10
8.8115001548
 20
9.7901396673
 30
0.0
 10
8.840633115
 20
9.7963660809
 30
0.0
 10
8.8641611668
 20
9.8004494265
 30
0.0
 10
8.8878637979
 20
9.8039371777
 30
0.0
 10
8.9177234562
 20
9.8071616669
 30
0.0
 10
8.9477593878
 20
9.8088631778
 30
0.0
 10
8.9718766609
 20
9.8093130126
 30
0.0
 10
8.9960809546
 20
9.8091538111
 30
0.0
 10
9.0142409421
 20
9.8083485307
 30
0.0
 10
9.0263338058
 20
9.8075098878
 30
0.0
  0
SPLINE
  5
3DB
100
AcDbEntity
  8
0
100
AcDbSpline
 62
7
  6
CONTINUOUS
 70
0
 71
3
 72
39
 73
35
 74
0
 42
0.0000001
 43
0.0000001
 44
0.0000000001
 40
0.0
 40
0.0
 40
0.0
 40
0.0
 40
0.0306730466
 40
0.0614497887
 40
0.0923258225
 40
0.1232995021
 40
0.1543663057
 40
0.185521462
 40
0.2167593041
 40
0.2480733921
 40
0.2794566283
 40
0.310901285
 40
0.3423990901
 40
0.3739413052
 40
0.405518803
 40
0.4371221471
 40
0.4687416723
 40
0.5003675737
 40
0.5319899931
 40
0.5635991029
 40
0.5951851887
 40
0.6267387358
 40
0.6582505174
 40
0.6897116734
 40
0.7211137882
 40
0.7524489668
 40
0.78370991
 40
0.814889997
 40
0.84598331
 40
0.8769847454
 40
0.9078901327
 40
0.9386955846
 40
0.9694001122
 40
1.0
 40
1.0
 40
1.0
 40
1.0
 10
10.7006573344
 20
9.6148949167
 30
0.0
 10
10.7115482437
 20
9.6141396295
 30
0.0
 10
10.7333335161
 20
9.6120921892
 30
0.0
 10
10.7658741224
 20
9.6074325638
 30
0.0
 10
10.7982581218
 20
9.6011898718
 30
0.0
 10
10.8304061319
 20
9.5933797553
 30
0.0
 10
10.8622413438
 20
9.5840207255
 30
0.0
 10
10.8936869177
 20
9.5731354933
 30
0.0
 10
10.9246672221
 20
9.5607503367
 30
0.0
 10
10.9551076826
 20
9.5468951175
 30
0.0
 10
10.984935031
 20
9.531603229
 30
0.0
 10
11.0140774564
 20
9.5149114764
 30
0.0
 10
11.0424648336
 20
9.496860104
 30
0.0
 10
11.0700288557
 20
9.4774926099
 30
0.0
 10
11.0967031857
 20
9.4568556323
 30
0.0
 10
11.1224236064
 20
9.4349988371
 30
0.0
 10
11.1471281963
 20
9.4119748325
 30
0.0
 10
11.1707575221
 20
9.3878390793
 30
0.0
 10
11.1932547133
 20
9.3626496794
 30
0.0
 10
11.2145656086
 20
9.3364672567
 30
0.0
 10
11.2346388652
 20
9.309354802
 30
0.0
 10
11.2534261652
 20
9.2813775855
 30
0.0
 10
11.2708822921
 20
9.2526029585
 30
0.0
 10
11.2869652037
 20
9.2231001724
 30
0.0
 10
11.3016361345
 20
9.1929402215
 30
0.0
 10
11.3148596989
 20
9.1621956846
 30
0.0
 10
11.3266040671
 20
9.1309405805
 30
0.0
 10
11.3368409222
 20
9.0992501422
 30
0.0
 10
11.3455455696
 20
9.0672006584
 30
0.0
 10
11.3526969721
 20
9.0348692215
 30
0.0
 10
11.3582777435
 20
9.0023338805
 30
0.0
 10
11.3622746957
 20
8.9696723607
 30
0.0
 10
11.3646776884
 20
8.9369647614
 30
0.0
 10
11.3652143422
 20
8.9151417528
 30
0.0
 10
11.3652143422
 20
8.9042507238
 30
0.0
  0
SPLINE
  5
3DC
100
AcDbEntity
  8
0
100
AcDbSpline
 62
7
  6
CONTINUOUS
 70
0
 71
3
 72
64
 73
60
 74
0
 42
0.0000001
 43
0.0000001
 44
0.0000000001
 40
0.0
 40
0.0
 40
0.0
 40
0.0
 40
0.0081460105
 40
0.0169710053
 40
0.0265002369
 40
0.0367502888
 40
0.0477288682
 40
0.0594366158
 40
0.0718685288
 40
0.0850151782
 40
0.0988629999
 40
0.1133950765
 40
0.1285916036
 40
0.1444300006
 40
0.1608855386
 40
0.1779312354
 40
0.1955383068
 40
0.2136762632
 40
0.2323129801
 40
0.2514150592
 40
0.2709476968
 40
0.2908750426
 40
0.3317643838
 40
0.3737785101
 40
0.4166007603
 40
0.4599067405
 40
0.5033675713
 40
0.5466530709
 40
0.5894349103
 40
0.6313897779
 40
0.6722025818
 40
0.7115697064
 40
0.7306207853
 40
0.7492035566
 40
0.7672848604
 40
0.7848329904
 40
0.8018176771
 40
0.8182105268
 40
0.8339848768
 40
0.8491162632
 40
0.8635825422
 40
0.8773640988
 40
0.8904444628
 40
0.9028103727
 40
0.9144527119
 40
0.9253669782
 40
0.9355542964
 40
0.9450228596
 40
0.9537892943
 40
0.9618813141
 40
0.9693402981
 40
0.9762250248
 40
0.9826155565
 40
0.9856592182
 40
0.9886206441
 40
0.9915167532
 40
0.9943657462
 40
0.9971868696
 40
1.0
 40
1.0
 40
1.0
 40
1.0
 10
10.9977531686
 20
11.1170075574
 30
0.0
 10
10.9987694901
 20
11.1179892487
 30
0.0
 10
11.0009834378
 20
11.1199357165
 30
0.0
 10
11.0046603721
 20
11.1227002175
 30
0.0
 10
11.0088152887
 20
11.1254180462
 30
0.0
 10
11.0134396079
 20
11.1280839104
 30
0.0
 10
11.0185245098
 20
11.1306929634
 30
0.0
 10
11.0240599715
 20
11.1332399209
 30
0.0
 10
11.0300348984
 20
11.1357197757
 30
0.0
 10
11.0364372835
 20
11.1381274231
 30
0.0
 10
11.043254158
 20
11.1404579855
 30
0.0
 10
11.0504716622
 20
11.1427066901
 30
0.0
 10
11.0580750878
 20
11.1448688738
 30
0.0
 10
11.0660488964
 20
11.146940166
 30
0.0
 10
11.0743767887
 20
11.1489162411
 30
0.0
 10
11.0830417176
 20
11.1507930926
 30
0.0
 10
11.0920259446
 20
11.1525668578
 30
0.0
 10
11.1013110765
 20
11.1542338788
 30
0.0
 10
11.1108781033
 20
11.1557907973
 30
0.0
 10
11.1207074399
 20
11.1572343636
 30
0.0
 10
11.1307789902
 20
11.1585617068
 30
0.0
 10
11.1446218513
 20
11.1601867153
 30
0.0
 10
11.1623787838
 20
11.1619010516
 30
0.0
 10
11.1841350759
 20
11.1634417014
 30
0.0
 10
11.2063412105
 20
11.1644702746
 30
0.0
 10
11.2288162595
 20
11.1649784252
 30
0.0
 10
11.2513773869
 20
11.1649620537
 30
0.0
 10
11.2738411208
 20
11.1644213915
 30
0.0
 10
11.2960248659
 20
11.1633609678
 30
0.0
 10
11.3177484262
 20
11.1617896061
 30
0.0
 10
11.3388352017
 20
11.1597202812
 30
0.0
 10
11.3559160493
 20
11.1575724972
 30
0.0
 10
11.3691281075
 20
11.1556089884
 30
0.0
 10
11.3786647071
 20
11.1540396187
 30
0.0
 10
11.3879178071
 20
11.1523607006
 30
0.0
 10
11.3968685711
 20
11.1505756696
 30
0.0
 10
11.4054987526
 20
11.1486881213
 30
0.0
 10
11.4137907704
 20
11.1467019813
 30
0.0
 10
11.4217277253
 20
11.1446212557
 30
0.0
 10
11.4292934553
 20
11.1424502264
 30
0.0
 10
11.4364725671
 20
11.140193349
 30
0.0
 10
11.4432504622
 20
11.1378551798
 30
0.0
 10
11.4496134131
 20
11.1354405678
 30
0.0
 10
11.4555485451
 20
11.1329543372
 30
0.0
 10
11.4610439392
 20
11.1304015614
 30
0.0
 10
11.4660886295
 20
11.1277873229
 30
0.0
 10
11.4706726267
 20
11.1251166855
 30
0.0
 10
11.4747870273
 20
11.1223947942
 30
0.0
 10
11.4784238456
 20
11.119626397
 30
0.0
 10
11.4815761144
 20
11.1168161892
 30
0.0
 10
11.4842375798
 20
11.1139679829
 30
0.0
 10
11.4864019543
 20
11.1110858856
 30
0.0
 10
11.4878086449
 20
11.1086182295
 30
0.0
 10
11.4886615257
 20
11.1066424767
 30
0.0
 10
11.4891631742
 20
11.1051804863
 30
0.0
 10
11.4895366109
 20
11.1037153742
 30
0.0
 10
11.489781417
 20
11.1022479029
 30
0.0
 10
11.4898973329
 20
11.1007791754
 30
0.0
 10
11.4898886224
 20
11.0998004088
 30
0.0
 10
11.4898629829
 20
11.0993131125
 30
0.0
  0
SPLINE
  5
3DD
100
AcDbEntity
  8
0
100
AcDbSpline
 62
7
  6
CONTINUOUS
 70
0
 71
3
 72
39
 73
35
 74
0
 42
0.0000001
 43
0.0000001
 44
0.0000000001
 40
0.0
 40
0.0
 40
0.0
 40
0.0
 40
0.030673164
 40
0.0614497342
 40
0.0923258322
 40
0.123299507
 40
0.1543662998
 40
0.1855214634
 40
0.2167593041
 40
0.2480733934
 40
0.2794566285
 40
0.3109012834
 40
0.3423990894
 40
0.3739413063
 40
0.4055188043
 40
0.4371221464
 40
0.4687416707
 40
0.5003675737
 40
0.5319899947
 40
0.5635991035
 40
0.5951851873
 40
0.6267387347
 40
0.6582505182
 40
0.6897116749
 40
0.7211137879
 40
0.7524489655
 40
0.7837099101
 40
0.8148899957
 40
0.8459833158
 40
0.8769847405
 40
0.907890123
 40
0.9386956389
 40
0.9693999951
 40
1.0
 40
1.0
 40
1.0
 40
1.0
 10
10.7167041019
 20
9.6902823096
 30
0.0
 10
10.7285765049
 20
9.6894589556
 30
0.0
 10
10.7523249661
 20
9.687227028
 30
0.0
 10
10.7877980105
 20
9.6821474652
 30
0.0
 10
10.8231002952
 20
9.6753422272
 30
0.0
 10
10.8581453786
 20
9.6668282691
 30
0.0
 10
10.8928494606
 20
9.6566258492
 30
0.0
 10
10.9271287995
 20
9.6447597053
 30
0.0
 10
10.9609009323
 20
9.6312584319
 30
0.0
 10
10.9940845651
 20
9.6161546133
 30
0.0
 10
11.0265998345
 20
9.599484662
 30
0.0
 10
11.0583684823
 20
9.5812887402
 30
0.0
 10
11.0893140388
 20
9.5616106661
 30
0.0
 10
11.1193620188
 20
9.5404978292
 30
0.0
 10
11.1484401195
 20
9.5180010971
 30
0.0
 10
11.1764783625
 20
9.4941746441
 30
0.0
 10
11.2034092647
 20
9.4690758315
 30
0.0
 10
11.2291679961
 20
9.44276507
 30
0.0
 10
11.2536925333
 20
9.4153056776
 30
0.0
 10
11.2769238558
 20
9.3867637678
 30
0.0
 10
11.2988060447
 20
9.3572080455
 30
0.0
 10
11.3192864146
 20
9.3267096452
 30
0.0
 10
11.3383156396
 20
9.295341964
 30
0.0
 10
11.3558478616
 20
9.2631804835
 30
0.0
 10
11.3718408516
 20
9.2303026166
 30
0.0
 10
11.3862560897
 20
9.1967875041
 30
0.0
 10
11.3990588357
 20
9.1627158138
 30
0.0
 10
11.4102182108
 20
9.1281695517
 30
0.0
 10
11.4197072633
 20
9.0932318823
 30
0.0
 10
11.4275031128
 20
9.0579868581
 30
0.0
 10
11.4335868246
 20
9.0225195376
 30
0.0
 10
11.4379439478
 20
8.9869147247
 30
0.0
 10
11.4405635187
 20
8.9512596365
 30
0.0
 10
11.4411485146
 20
8.9274700398
 30
0.0
 10
11.4411485146
 20
8.9155975063
 30
0.0
  0
SPLINE
  5
3DE
100
AcDbEntity
  8
0
100
AcDbSpline
 62
4
  6
CONTINUOUS
 70
0
 71
3
 72
334
 73
330
 74
0
 42
0.0000001
 43
0.0000001
 44
0.0000000001
 40
0.0
 40
0.0
 40
0.0
 40
0.0
 40
0.015625
 40
0.0234375
 40
0.03125
 40
0.0390625
 40
0.046875
 40
0.05078125
 40
0.0546875
 40
0.056640625
 40
0.05859375
 40
0.060546875
 40
0.0615234375
 40
0.0620117188
 40
0.0625
 40
0.0629882812
 40
0.0634765625
 40
0.064453125
 40
0.06640625
 40
0.068359375
 40
0.0703125
 40
0.07421875
 40
0.078125
 40
0.0859375
 40
0.09375
 40
0.1015625
 40
0.109375
 40
0.11328125
 40
0.1171875
 40
0.119140625
 40
0.12109375
 40
0.123046875
 40
0.1240234375
 40
0.1245117188
 40
0.125
 40
0.1254882812
 40
0.1259765625
 40
0.126953125
 40
0.12890625
 40
0.130859375
 40
0.1328125
 40
0.13671875
 40
0.140625
 40
0.1484375
 40
0.15625
 40
0.1640625
 40
0.171875
 40
0.17578125
 40
0.1796875
 40
0.181640625
 40
0.18359375
 40
0.185546875
 40
0.1865234375
 40
0.1870117188
 40
0.1875
 40
0.1879882812
 40
0.1884765625
 40
0.189453125
 40
0.19140625
 40
0.193359375
 40
0.1953125
 40
0.19921875
 40
0.203125
 40
0.2109375
 40
0.21875
 40
0.2265625
 40
0.23046875
 40
0.234375
 40
0.23828125
 40
0.2421875
 40
0.244140625
 40
0.24609375
 40
0.2470703125
 40
0.248046875
 40
0.2490234375
 40
0.2495117188
 40
0.2497558594
 40
0.25
 40
0.2502441406
 40
0.2504882812
 40
0.2509765625
 40
0.251953125
 40
0.2529296875
 40
0.25390625
 40
0.255859375
 40
0.2578125
 40
0.26171875
 40
0.265625
 40
0.26953125
 40
0.2734375
 40
0.28125
 40
0.2890625
 40
0.29296875
 40
0.296875
 40
0.30078125
 40
0.3046875
 40
0.306640625
 40
0.30859375
 40
0.3095703125
 40
0.310546875
 40
0.3115234375
 40
0.3120117188
 40
0.3122558594
 40
0.3125
 40
0.3127441406
 40
0.3129882812
 40
0.3134765625
 40
0.314453125
 40
0.3154296875
 40
0.31640625
 40
0.318359375
 40
0.3203125
 40
0.32421875
 40
0.328125
 40
0.33203125
 40
0.3359375
 40
0.34375
 40
0.3515625
 40
0.35546875
 40
0.359375
 40
0.36328125
 40
0.3671875
 40
0.369140625
 40
0.37109375
 40
0.3720703125
 40
0.373046875
 40
0.3740234375
 40
0.3745117188
 40
0.3747558594
 40
0.375
 40
0.3752441406
 40
0.3754882812
 40
0.3759765625
 40
0.376953125
 40
0.3779296875
 40
0.37890625
 40
0.380859375
 40
0.3828125
 40
0.38671875
 40
0.390625
 40
0.39453125
 40
0.3984375
 40
0.40625
 40
0.4140625
 40
0.41796875
 40
0.421875
 40
0.42578125
 40
0.4296875
 40
0.431640625
 40
0.43359375
 40
0.4345703125
 40
0.435546875
 40
0.4365234375
 40
0.4370117188
 40
0.4372558594
 40
0.4375
 40
0.4377441406
 40
0.4379882812
 40
0.4384765625
 40
0.439453125
 40
0.4404296875
 40
0.44140625
 40
0.443359375
 40
0.4453125
 40
0.44921875
 40
0.453125
 40
0.45703125
 40
0.4609375
 40
0.46875
 40
0.4765625
 40
0.48046875
 40
0.484375
 40
0.48828125
 40
0.4921875
 40
0.494140625
 40
0.49609375
 40
0.4970703125
 40
0.498046875
 40
0.4990234375
 40
0.4995117188
 40
0.4997558594
 40
0.5
 40
0.5002441406
 40
0.5004882812
 40
0.5009765625
 40
0.501953125
 40
0.5029296875
 40
0.50390625
 40
0.505859375
 40
0.5078125
 40
0.51171875
 40
0.515625
 40
0.51953125
 40
0.5234375
 40
0.53125
 40
0.5390625
 40
0.54296875
 40
0.546875
 40
0.55078125
 40
0.5546875
 40
0.556640625
 40
0.55859375
 40
0.5595703125
 40
0.560546875
 40
0.5615234375
 40
0.5620117188
 40
0.5625
 40
0.5629882812
 40
0.5634765625
 40
0.564453125
 40
0.5654296875
 40
0.56640625
 40
0.568359375
 40
0.5703125
 40
0.57421875
 40
0.578125
 40
0.58203125
 40
0.5859375
 40
0.59375
 40
0.6015625
 40
0.609375
 40
0.61328125
 40
0.6171875
 40
0.619140625
 40
0.62109375
 40
0.623046875
 40
0.6240234375
 40
0.6245117188
 40
0.625
 40
0.6254882812
 40
0.6259765625
 40
0.626953125
 40
0.62890625
 40
0.630859375
 40
0.6328125
 40
0.63671875
 40
0.640625
 40
0.6484375
 40
0.65625
 40
0.6640625
 40
0.671875
 40
0.67578125
 40
0.6796875
 40
0.681640625
 40
0.68359375
 40
0.685546875
 40
0.6865234375
 40
0.6870117188
 40
0.6875
 40
0.6879882812
 40
0.6884765625
 40
0.689453125
 40
0.69140625
 40
0.693359375
 40
0.6953125
 40
0.69921875
 40
0.703125
 40
0.7109375
 40
0.71875
 40
0.7265625
 40
0.734375
 40
0.73828125
 40
0.7421875
 40
0.744140625
 40
0.74609375
 40
0.748046875
 40
0.7490234375
 40
0.7495117188
 40
0.75
 40
0.7504882812
 40
0.7509765625
 40
0.751953125
 40
0.75390625
 40
0.755859375
 40
0.7578125
 40
0.76171875
 40
0.765625
 40
0.7734375
 40
0.78125
 40
0.7890625
 40
0.796875
 40
0.80078125
 40
0.8046875
 40
0.80859375
 40
0.810546875
 40
0.8115234375
 40
0.8125
 40
0.8134765625
 40
0.814453125
 40
0.81640625
 40
0.8203125
 40
0.82421875
 40
0.828125
 40
0.8359375
 40
0.84375
 40
0.8515625
 40
0.859375
 40
0.86328125
 40
0.8671875
 40
0.87109375
 40
0.873046875
 40
0.8740234375
 40
0.875
 40
0.8759765625
 40
0.876953125
 40
0.87890625
 40
0.8828125
 40
0.88671875
 40
0.890625
 40
0.8984375
 40
0.90625
 40
0.9140625
 40
0.921875
 40
0.92578125
 40
0.9296875
 40
0.93359375
 40
0.935546875
 40
0.9365234375
 40
0.9375
 40
0.9384765625
 40
0.939453125
 40
0.94140625
 40
0.9453125
 40
0.94921875
 40
0.953125
 40
0.9609375
 40
0.96875
 40
0.984375
 40
1.0
 40
1.0
 40
1.0
 40
1.0
 10
12.9915351997
 20
9.1106583737
 30
0.0
 10
12.9913705656
 20
9.1167657232
 30
0.0
 10
12.9911236146
 20
9.1259267477
 30
0.0
 10
12.990794346
 20
9.1381414462
 30
0.0
 10
12.990547396
 20
9.1473024722
 30
0.0
 10
12.9903004409
 20
9.1564634897
 30
0.0
 10
12.9900946605
 20
9.1640976976
 30
0.0
 10
12.9899300014
 20
9.1702050044
 30
0.0
 10
12.9898271688
 20
9.1740222065
 30
0.0
 10
12.989744721
 20
9.1770756582
 30
0.0
 10
12.9896833829
 20
9.1793665957
 30
0.0
 10
12.9896306841
 20
9.1812730103
 30
0.0
 10
12.989596903
 20
9.1826127993
 30
0.0
 10
12.9895727466
 20
9.1833701193
 30
0.0
 10
12.9895683001
 20
9.1839614166
 30
0.0
 10
12.9895115967
 20
9.1844636215
 30
0.0
 10
12.9894542199
 20
9.1851643044
 30
0.0
 10
12.989345318
 20
9.1863760205
 30
0.0
 10
12.9891941838
 20
9.1881146132
 30
0.0
 10
12.9890109223
 20
9.1901976844
 30
0.0
 10
12.9887672374
 20
9.1929762444
 30
0.0
 10
12.988462404
 20
9.1964490568
 30
0.0
 10
12.9879747977
 20
9.2020057734
 30
0.0
 10
12.9873652459
 20
9.2089515941
 30
0.0
 10
12.9866338038
 20
9.2172866141
 30
0.0
 10
12.9859023519
 20
9.2256216137
 30
0.0
 10
12.9852928245
 20
9.2325674854
 30
0.0
 10
12.9848051694
 20
9.2381241
 30
0.0
 10
12.9845004599
 20
9.2415971716
 30
0.0
 10
12.9842565209
 20
9.2443751997
 30
0.0
 10
12.9840740358
 20
9.2464598958
 30
0.0
 10
12.9839204723
 20
9.2481934046
 30
0.0
 10
12.9838159071
 20
9.2494141963
 30
0.0
 10
12.9837515817
 20
9.2501003378
 30
0.0
 10
12.9837162224
 20
9.2506472094
 30
0.0
 10
12.9836316111
 20
9.2510707459
 30
0.0
 10
12.9835359757
 20
9.2516784819
 30
0.0
 10
12.9833606095
 20
9.2527219758
 30
0.0
 10
12.983114271
 20
9.2542231607
 30
0.0
 10
12.9828168737
 20
9.2560200971
 30
0.0
 10
12.9824209695
 20
9.258417579
 30
0.0
 10
12.981925875
 20
9.2614138948
 30
0.0
 10
12.9811338437
 20
9.2662083002
 30
0.0
 10
12.9801437631
 20
9.2722012031
 30
0.0
 10
12.9789556853
 20
9.2793927346
 30
0.0
 10
12.9777675982
 20
9.2865842404
 30
0.0
 10
12.976777541
 20
9.2925772074
 30
0.0
 10
12.975985463
 20
9.2973714848
 30
0.0
 10
12.975490487
 20
9.3003681259
 30
0.0
 10
12.9750943398
 20
9.3027649402
 30
0.0
 10
12.9747976849
 20
9.3045639161
 30
0.0
 10
12.9745490234
 20
9.3060587197
 30
0.0
 10
12.9743778042
 20
9.3071136053
 30
0.0
 10
12.9742755241
 20
9.307703089
 30
0.0
 10
12.9742113233
 20
9.3081826909
 30
0.0
 10
12.9740993056
 20
9.3085189901
 30
0.0
 10
12.9739666277
 20
9.3090173746
 30
0.0
 10
12.9737266703
 20
9.3098662583
 30
0.0
 10
12.9733879368
 20
9.3110911251
 30
0.0
 10
12.9729797175
 20
9.3125557536
 30
0.0
 10
12.9724360326
 20
9.314510412
 30
0.0
 10
12.9717562185
 20
9.3169531117
 30
0.0
 10
12.9706686322
 20
9.3208617796
 30
0.0
 10
12.9693091094
 20
9.3257474949
 30
0.0
 10
12.9676776992
 20
9.3316104045
 30
0.0
 10
12.9663181868
 20
9.3364961512
 30
0.0
 10
12.9652305776
 20
9.3404047501
 30
0.0
 10
12.964414871
 20
9.3433362013
 30
0.0
 10
12.9635991628
 20
9.3462676436
 30
0.0
 10
12.9629194111
 20
9.3487105403
 30
0.0
 10
12.9623755981
 20
9.3506647945
 30
0.0
 10
12.9620357416
 20
9.3518863473
 30
0.0
 10
12.9617637955
 20
9.3528632599
 30
0.0
 10
12.9615600025
 20
9.353596847
 30
0.0
 10
12.9613896452
 20
9.3542052979
 30
0.0
 10
12.9612714347
 20
9.3546368492
 30
0.0
 10
12.9612022626
 20
9.3548746504
 30
0.0
 10
12.9611549564
 20
9.3550777897
 30
0.0
 10
12.9610901702
 20
9.355186175
 30
0.0
 10
12.9610098859
 20
9.3553637401
 30
0.0
 10
12.9608665475
 20
9.3556590797
 30
0.0
 10
12.9606632636
 20
9.3560890443
 30
0.0
 10
12.9604186872
 20
9.3566015558
 30
0.0
 10
12.9600928073
 20
9.3572861081
 30
0.0
 10
12.9596853815
 20
9.3581413864
 30
0.0
 10
12.9590335426
 20
9.359510062
 30
0.0
 10
12.9582187294
 20
9.3612208274
 30
0.0
 10
12.9572409599
 20
9.3632737798
 30
0.0
 10
12.9562631887
 20
9.3653267231
 30
0.0
 10
12.9549594943
 20
9.368063984
 30
0.0
 10
12.9533298762
 20
9.371485559
 30
0.0
 10
12.9517002581
 20
9.3749071347
 30
0.0
 10
12.9503965635
 20
9.3776443944
 30
0.0
 10
12.949418793
 20
9.3796973415
 30
0.0
 10
12.948441021
 20
9.3817502794
 30
0.0
 10
12.9476262154
 20
9.3834610899
 30
0.0
 10
12.9469743611
 20
9.3848296736
 30
0.0
 10
12.9465669746
 20
9.3856851856
 30
0.0
 10
12.9462410139
 20
9.3863692581
 30
0.0
 10
12.9459966846
 20
9.3868832357
 30
0.0
 10
12.9457926277
 20
9.3873086132
 30
0.0
 10
12.9456506691
 20
9.3876121417
 30
0.0
 10
12.9455681739
 20
9.3877765861
 30
0.0
 10
12.9455101789
 20
9.3879252738
 30
0.0
 10
12.9454373665
 20
9.3879770441
 30
0.0
 10
12.9453454517
 20
9.3880798772
 30
0.0
 10
12.9451821928
 20
9.3882440842
 30
0.0
 10
12.9449502248
 20
9.3884869003
 30
0.0
 10
12.9446713243
 20
9.388774755
 30
0.0
 10
12.9442996451
 20
9.3891597924
 30
0.0
 10
12.9438349818
 20
9.3896406675
 30
0.0
 10
12.9430915564
 20
9.3904103033
 30
0.0
 10
12.9421622624
 20
9.3913722672
 30
0.0
 10
12.9410471148
 20
9.3925266586
 30
0.0
 10
12.9399319658
 20
9.3936810407
 30
0.0
 10
12.938445101
 20
9.3952202201
 30
0.0
 10
12.9365865198
 20
9.3971441931
 30
0.0
 10
12.9347279387
 20
9.399068167
 30
0.0
 10
12.9332410737
 20
9.400607345
 30
0.0
 10
12.9321259252
 20
9.4017617311
 30
0.0
 10
12.9310107757
 20
9.4029161075
 30
0.0
 10
12.9300814875
 20
9.4038781181
 30
0.0
 10
12.9293380502
 20
9.4046476587
 30
0.0
 10
12.9288734174
 20
9.4051287761
 30
0.0
 10
12.9285016755
 20
9.4055133162
 30
0.0
 10
12.9282229666
 20
9.4058026899
 30
0.0
 10
12.927990399
 20
9.4060407536
 30
0.0
 10
12.9278282105
 20
9.4062134445
 30
0.0
 10
12.9277345807
 20
9.4063026842
 30
0.0
 10
12.9276670363
 20
9.406396209
 30
0.0
 10
12.9275892558
 20
9.406388074
 30
0.0
 10
12.9274891189
 20
9.4064126874
 30
0.0
 10
12.9273122158
 20
9.4064392393
 30
0.0
 10
12.9270603669
 20
9.4064858083
 30
0.0
 10
12.9267577759
 20
9.4065379938
 30
0.0
 10
12.9263544512
 20
9.406608866
 30
0.0
 10
12.9258502509
 20
9.4066970139
 30
0.0
 10
12.9250435552
 20
9.4068382978
 30
0.0
 10
12.9240351771
 20
9.4070148179
 30
0.0
 10
12.922825127
 20
9.4072266783
 30
0.0
 10
12.9216150759
 20
9.407438529
 30
0.0
 10
12.9200016749
 20
9.4077210001
 30
0.0
 10
12.9179849234
 20
9.4080740876
 30
0.0
 10
12.915968172
 20
9.4084271759
 30
0.0
 10
12.9143547708
 20
9.4087096455
 30
0.0
 10
12.9131447201
 20
9.4089215004
 30
0.0
 10
12.9119346687
 20
9.4091333452
 30
0.0
 10
12.9109262948
 20
9.4093099139
 30
0.0
 10
12.9101195905
 20
9.4094510988
 30
0.0
 10
12.909615412
 20
9.4095394987
 30
0.0
 10
12.9092120425
 20
9.4096098537
 30
0.0
 10
12.9089095887
 20
9.4096636191
 30
0.0
 10
12.9086573103
 20
9.4097052452
 30
0.0
 10
12.9084811738
 20
9.4097406209
 30
0.0
 10
12.9083798088
 20
9.4097510964
 30
0.0
 10
12.9083058008
 20
9.4097863884
 30
0.0
 10
12.9082240872
 20
9.4097168084
 30
0.0
 10
12.9081178235
 20
9.4096606156
 30
0.0
 10
12.9079306098
 20
9.4095452345
 30
0.0
 10
12.9076638163
 20
9.4093893151
 30
0.0
 10
12.9073433839
 20
9.4091983977
 30
0.0
 10
12.9069162386
 20
9.4089451734
 30
0.0
 10
12.9063822734
 20
9.4086281868
 30
0.0
 10
12.9055279478
 20
9.4081212633
 30
0.0
 10
12.9044600344
 20
9.4074875213
 30
0.0
 10
12.9031785411
 20
9.4067270685
 30
0.0
 10
12.9018970471
 20
9.4059666057
 30
0.0
 10
12.9001883886
 20
9.4049526588
 30
0.0
 10
12.8980525654
 20
9.4036852238
 30
0.0
 10
12.8959167423
 20
9.4024177897
 30
0.0
 10
12.8942080838
 20
9.4014038414
 30
0.0
 10
12.8929265898
 20
9.4006433827
 30
0.0
 10
12.8916450961
 20
9.3998829145
 30
0.0
 10
12.890577184
 20
9.3992492204
 30
0.0
 10
12.8897228559
 20
9.3987421992
 30
0.0
 10
12.8891888972
 20
9.3984254612
 30
0.0
 10
12.8887617385
 20
9.3981717267
 30
0.0
 10
12.8884413467
 20
9.3979823679
 30
0.0
 10
12.8881744261
 20
9.3978215722
 30
0.0
 10
12.8879874393
 20
9.3977148961
 30
0.0
 10
12.887880812
 20
9.3976447557
 30
0.0
 10
12.8878002154
 20
9.397618018
 30
0.0
 10
12.8877220123
 20
9.3974924014
 30
0.0
 10
12.8876169067
 20
9.3973594026
 30
0.0
 10
12.8874333609
 20
9.3971105851
 30
0.0
 10
12.8871709492
 20
9.396763533
 30
0.0
 10
12.8868561422
 20
9.3963434743
 30
0.0
 10
12.8864363691
 20
9.3957846522
 30
0.0
 10
12.8859116632
 20
9.3950856944
 30
0.0
 10
12.8850721279
 20
9.3939676024
 30
0.0
 10
12.8840227107
 20
9.3925699048
 30
0.0
 10
12.8827634093
 20
9.3908927031
 30
0.0
 10
12.8815041081
 20
9.389215492
 30
0.0
 10
12.8798250398
 20
9.3869792137
 30
0.0
 10
12.8777262044
 20
9.384183865
 30
0.0
 10
12.875627369
 20
9.3813885157
 30
0.0
 10
12.8739483006
 20
9.3791522385
 30
0.0
 10
12.8726889996
 20
9.3774750241
 30
0.0
 10
12.8714296973
 20
9.3757978347
 30
0.0
 10
12.870380283
 20
9.374400099
 30
0.0
 10
12.8695407419
 20
9.3732820847
 30
0.0
 10
12.8690160508
 20
9.3725829291
 30
0.0
 10
12.8685962472
 20
9.372024513
 30
0.0
 10
12.8682815335
 20
9.3716032139
 30
0.0
 10
12.8680188297
 20
9.3712600429
 30
0.0
 10
12.867809659
 20
9.3709677618
 30
0.0
 10
12.8676500695
 20
9.3707970368
 30
0.0
 10
12.8675008295
 20
9.3704412407
 30
0.0
 10
12.8672982275
 20
9.3700314936
 30
0.0
 10
12.8670462155
 20
9.3694971294
 30
0.0
 10
12.8667432701
 20
9.3688653863
 30
0.0
 10
12.8663395284
 20
9.3680197461
 30
0.0
 10
12.8658347877
 20
9.3669638313
 30
0.0
 10
12.8650272381
 20
9.365273733
 30
0.0
 10
12.864017789
 20
9.3631613279
 30
0.0
 10
12.8628064553
 20
9.3606263484
 30
0.0
 10
12.8615951201
 20
9.3580913939
 30
0.0
 10
12.8599800071
 20
9.3547114454
 30
0.0
 10
12.8579611153
 20
9.3504865163
 30
0.0
 10
12.8555384471
 20
9.345416584
 30
0.0
 10
12.8535195509
 20
9.3411916897
 30
0.0
 10
12.8519044475
 20
9.3378116647
 30
0.0
 10
12.8508949771
 20
9.3356993985
 30
0.0
 10
12.8500874713
 20
9.3340090142
 30
0.0
 10
12.8494816486
 20
9.3327427903
 30
0.0
 10
12.8489774116
 20
9.3316826273
 30
0.0
 10
12.8486232383
 20
9.3309502793
 30
0.0
 10
12.8484227388
 20
9.3305165458
 30
0.0
 10
12.8482670535
 20
9.3302342023
 30
0.0
 10
12.8481316683
 20
9.3297876565
 30
0.0
 10
12.8479440738
 20
9.3292495376
 30
0.0
 10
12.8476190826
 20
9.3282811439
 30
0.0
 10
12.8471530847
 20
9.326911676
 30
0.0
 10
12.8465946254
 20
9.3252623427
 30
0.0
 10
12.8458497552
 20
9.3230653174
 30
0.0
 10
12.8449187557
 20
9.3203183216
 30
0.0
 10
12.8434291072
 20
9.3159235277
 30
0.0
 10
12.8415670636
 20
9.3104298974
 30
0.0
 10
12.8393326034
 20
9.3038376038
 30
0.0
 10
12.8370981476
 20
9.2972452798
 30
0.0
 10
12.8352360929
 20
9.2917517257
 30
0.0
 10
12.8337464666
 20
9.2873567794
 30
0.0
 10
12.8328154106
 20
9.2846101709
 30
0.0
 10
12.8320706564
 20
9.2824123507
 30
0.0
 10
12.8315118428
 20
9.2807654462
 30
0.0
 10
12.8310469534
 20
9.2793883791
 30
0.0
 10
12.8307199832
 20
9.2784335511
 30
0.0
 10
12.8305355596
 20
9.2778736966
 30
0.0
 10
12.8303904344
 20
9.2774939157
 30
0.0
 10
12.8302713311
 20
9.2769608144
 30
0.0
 10
12.83010345
 20
9.2763034926
 30
0.0
 10
12.829813887
 20
9.2751282621
 30
0.0
 10
12.8293980146
 20
9.2734623884
 30
0.0
 10
12.8288999141
 20
9.271457764
 30
0.0
 10
12.8282354495
 20
9.268786879
 30
0.0
 10
12.827404982
 20
9.2654476059
 30
0.0
 10
12.8260761707
 20
9.2601051418
 30
0.0
 10
12.8244151785
 20
9.2534269332
 30
0.0
 10
12.8224219774
 20
9.2454131401
 30
0.0
 10
12.8204287829
 20
9.2373993237
 30
0.0
 10
12.8187677744
 20
9.2307211735
 30
0.0
 10
12.8174389956
 20
9.2253785925
 30
0.0
 10
12.8166084454
 20
9.2220396165
 30
0.0
 10
12.8159441505
 20
9.2193681219
 30
0.0
 10
12.8154455317
 20
9.2173653599
 30
0.0
 10
12.8150312808
 20
9.215693659
 30
0.0
 10
12.8147388232
 20
9.214528831
 30
0.0
 10
12.8145755799
 20
9.2138548418
 30
0.0
 10
12.8144422305
 20
9.2133729375
 30
0.0
 10
12.8143506113
 20
9.2128008692
 30
0.0
 10
12.8142138964
 20
9.2120695618
 30
0.0
 10
12.8139814271
 20
9.2107751205
 30
0.0
 10
12.8136457826
 20
9.2089335795
 30
0.0
 10
12.8132445268
 20
9.2067204512
 30
0.0
 10
12.8127089889
 20
9.2037707589
 30
0.0
 10
12.8120397482
 20
9.2000832512
 30
0.0
 10
12.8109688612
 20
9.1941834586
 30
0.0
 10
12.8096302899
 20
9.1868086387
 30
0.0
 10
12.8080239772
 20
9.1779589056
 30
0.0
 10
12.8064177129
 20
9.1691090959
 30
0.0
 10
12.8050790206
 20
9.1617344677
 30
0.0
 10
12.8040083757
 20
9.1558342916
 30
0.0
 10
12.8032045484
 20
9.1514104523
 30
0.0
 10
12.8025373756
 20
9.1477198075
 30
0.0
 10
12.8020650888
 20
9.1451444258
 30
0.0
 10
12.8018034327
 20
9.1436601791
 30
0.0
 10
12.801584029
 20
9.1425824885
 30
0.0
 10
12.8014531609
 20
9.1413691202
 30
0.0
 10
12.8012477878
 20
9.1397986217
 30
0.0
 10
12.8009027735
 20
9.1370281992
 30
0.0
 10
12.8004023733
 20
9.1330819809
 30
0.0
 10
12.7998051132
 20
9.1283415844
 30
0.0
 10
12.7990076411
 20
9.1220227798
 30
0.0
 10
12.7980111899
 20
9.1141236807
 30
0.0
 10
12.7968152695
 20
9.1046450234
 30
0.0
 10
12.7956194428
 20
9.095166269
 30
0.0
 10
12.7946227572
 20
9.0872674126
 30
0.0
 10
12.7938257539
 20
9.0809481226
 30
0.0
 10
12.793227064
 20
9.0762092063
 30
0.0
 10
12.7927311368
 20
9.0722583576
 30
0.0
 10
12.7923781376
 20
9.069496201
 30
0.0
 10
12.7921855583
 20
9.0679124585
 30
0.0
 10
12.7920153917
 20
9.0667397714
 30
0.0
 10
12.7919435865
 20
9.0655092891
 30
0.0
 10
12.7918135368
 20
9.0638888056
 30
0.0
 10
12.7916019351
 20
9.0610435669
 30
0.0
 10
12.7912912897
 20
9.0569838507
 30
0.0
 10
12.7909220925
 20
9.0521100894
 30
0.0
 10
12.7904285795
 20
9.0456124752
 30
0.0
 10
12.7898121202
 20
9.0374902051
 30
0.0
 10
12.7890721709
 20
9.027743591
 30
0.0
 10
12.7883323233
 20
9.0179969408
 30
0.0
 10
12.7877156097
 20
9.0098747609
 30
0.0
 10
12.7872226054
 20
9.0033769663
 30
0.0
 10
12.7868518569
 20
8.9985037555
 30
0.0
 10
12.7865460646
 20
8.994442317
 30
0.0
 10
12.7863257993
 20
8.9916001528
 30
0.0
 10
12.7862096309
 20
8.9899747432
 30
0.0
 10
12.7860951865
 20
8.9887593924
 30
0.0
 10
12.786085166
 20
8.9875298738
 30
0.0
 10
12.7860353811
 20
8.9858954575
 30
0.0
 10
12.7859652282
 20
8.9830329265
 30
0.0
 10
12.7858561373
 20
8.9789448003
 30
0.0
 10
12.785729026
 20
8.9740385336
 30
0.0
 10
12.7855582178
 20
8.9674970247
 30
0.0
 10
12.7853451616
 20
8.9593200768
 30
0.0
 10
12.7850040179
 20
8.9462369948
 30
0.0
 10
12.784577676
 20
8.9298831303
 30
0.0
 10
12.7842365758
 20
8.9168000423
 30
0.0
 10
12.784066029
 20
8.9102584979
 30
0.0
  0
SPLINE
  5
3DF
100
AcDbEntity
  8
0
100
AcDbSpline
 62
4
  6
CONTINUOUS
 70
0
 71
3
 72
334
 73
330
 74
0
 42
0.0000001
 43
0.0000001
 44
0.0000000001
 40
0.0
 40
0.0
 40
0.0
 40
0.0
 40
0.015625
 40
0.0234375
 40
0.03125
 40
0.0390625
 40
0.046875
 40
0.05078125
 40
0.0546875
 40
0.056640625
 40
0.05859375
 40
0.060546875
 40
0.0615234375
 40
0.0620117188
 40
0.0625
 40
0.0629882812
 40
0.0634765625
 40
0.064453125
 40
0.06640625
 40
0.068359375
 40
0.0703125
 40
0.07421875
 40
0.078125
 40
0.0859375
 40
0.09375
 40
0.1015625
 40
0.109375
 40
0.11328125
 40
0.1171875
 40
0.119140625
 40
0.12109375
 40
0.123046875
 40
0.1240234375
 40
0.1245117188
 40
0.125
 40
0.1254882812
 40
0.1259765625
 40
0.126953125
 40
0.12890625
 40
0.130859375
 40
0.1328125
 40
0.13671875
 40
0.140625
 40
0.1484375
 40
0.15625
 40
0.1640625
 40
0.171875
 40
0.17578125
 40
0.1796875
 40
0.181640625
 40
0.18359375
 40
0.185546875
 40
0.1865234375
 40
0.1870117188
 40
0.1875
 40
0.1879882812
 40
0.1884765625
 40
0.189453125
 40
0.19140625
 40
0.193359375
 40
0.1953125
 40
0.19921875
 40
0.203125
 40
0.2109375
 40
0.21875
 40
0.2265625
 40
0.23046875
 40
0.234375
 40
0.23828125
 40
0.2421875
 40
0.244140625
 40
0.24609375
 40
0.2470703125
 40
0.248046875
 40
0.2490234375
 40
0.2495117188
 40
0.2497558594
 40
0.25
 40
0.2502441406
 40
0.2504882812
 40
0.2509765625
 40
0.251953125
 40
0.2529296875
 40
0.25390625
 40
0.255859375
 40
0.2578125
 40
0.26171875
 40
0.265625
 40
0.26953125
 40
0.2734375
 40
0.28125
 40
0.2890625
 40
0.29296875
 40
0.296875
 40
0.30078125
 40
0.3046875
 40
0.306640625
 40
0.30859375
 40
0.3095703125
 40
0.310546875
 40
0.3115234375
 40
0.3120117188
 40
0.3122558594
 40
0.3125
 40
0.3127441406
 40
0.3129882812
 40
0.3134765625
 40
0.314453125
 40
0.3154296875
 40
0.31640625
 40
0.318359375
 40
0.3203125
 40
0.32421875
 40
0.328125
 40
0.33203125
 40
0.3359375
 40
0.34375
 40
0.3515625
 40
0.35546875
 40
0.359375
 40
0.36328125
 40
0.3671875
 40
0.369140625
 40
0.37109375
 40
0.3720703125
 40
0.373046875
 40
0.3740234375
 40
0.3745117188
 40
0.3747558594
 40
0.375
 40
0.3752441406
 40
0.3754882812
 40
0.3759765625
 40
0.376953125
 40
0.3779296875
 40
0.37890625
 40
0.380859375
 40
0.3828125
 40
0.38671875
 40
0.390625
 40
0.39453125
 40
0.3984375
 40
0.40625
 40
0.4140625
 40
0.41796875
 40
0.421875
 40
0.42578125
 40
0.4296875
 40
0.431640625
 40
0.43359375
 40
0.4345703125
 40
0.435546875
 40
0.4365234375
 40
0.4370117188
 40
0.4372558594
 40
0.4375
 40
0.4377441406
 40
0.4379882812
 40
0.4384765625
 40
0.439453125
 40
0.4404296875
 40
0.44140625
 40
0.443359375
 40
0.4453125
 40
0.44921875
 40
0.453125
 40
0.45703125
 40
0.4609375
 40
0.46875
 40
0.4765625
 40
0.48046875
 40
0.484375
 40
0.48828125
 40
0.4921875
 40
0.494140625
 40
0.49609375
 40
0.4970703125
 40
0.498046875
 40
0.4990234375
 40
0.4995117188
 40
0.4997558594
 40
0.5
 40
0.5002441406
 40
0.5004882812
 40
0.5009765625
 40
0.501953125
 40
0.5029296875
 40
0.50390625
 40
0.505859375
 40
0.5078125
 40
0.51171875
 40
0.515625
 40
0.51953125
 40
0.5234375
 40
0.53125
 40
0.5390625
 40
0.54296875
 40
0.546875
 40
0.55078125
 40
0.5546875
 40
0.556640625
 40
0.55859375
 40
0.5595703125
 40
0.560546875
 40
0.5615234375
 40
0.5620117188
 40
0.5625
 40
0.5629882812
 40
0.5634765625
 40
0.564453125
 40
0.5654296875
 40
0.56640625
 40
0.568359375
 40
0.5703125
 40
0.57421875
 40
0.578125
 40
0.58203125
 40
0.5859375
 40
0.59375
 40
0.6015625
 40
0.609375
 40
0.61328125
 40
0.6171875
 40
0.619140625
 40
0.62109375
 40
0.623046875
 40
0.6240234375
 40
0.6245117188
 40
0.625
 40
0.6254882812
 40
0.6259765625
 40
0.626953125
 40
0.62890625
 40
0.630859375
 40
0.6328125
 40
0.63671875
 40
0.640625
 40
0.6484375
 40
0.65625
 40
0.6640625
 40
0.671875
 40
0.67578125
 40
0.6796875
 40
0.681640625
 40
0.68359375
 40
0.685546875
 40
0.6865234375
 40
0.6870117188
 40
0.6875
 40
0.6879882812
 40
0.6884765625
 40
0.689453125
 40
0.69140625
 40
0.693359375
 40
0.6953125
 40
0.69921875
 40
0.703125
 40
0.7109375
 40
0.71875
 40
0.7265625
 40
0.734375
 40
0.73828125
 40
0.7421875
 40
0.744140625
 40
0.74609375
 40
0.748046875
 40
0.7490234375
 40
0.7495117188
 40
0.75
 40
0.7504882812
 40
0.7509765625
 40
0.751953125
 40
0.75390625
 40
0.755859375
 40
0.7578125
 40
0.76171875
 40
0.765625
 40
0.7734375
 40
0.78125
 40
0.7890625
 40
0.796875
 40
0.80078125
 40
0.8046875
 40
0.80859375
 40
0.810546875
 40
0.8115234375
 40
0.8125
 40
0.8134765625
 40
0.814453125
 40
0.81640625
 40
0.8203125
 40
0.82421875
 40
0.828125
 40
0.8359375
 40
0.84375
 40
0.8515625
 40
0.859375
 40
0.86328125
 40
0.8671875
 40
0.87109375
 40
0.873046875
 40
0.8740234375
 40
0.875
 40
0.8759765625
 40
0.876953125
 40
0.87890625
 40
0.8828125
 40
0.88671875
 40
0.890625
 40
0.8984375
 40
0.90625
 40
0.9140625
 40
0.921875
 40
0.92578125
 40
0.9296875
 40
0.93359375
 40
0.935546875
 40
0.9365234375
 40
0.9375
 40
0.9384765625
 40
0.939453125
 40
0.94140625
 40
0.9453125
 40
0.94921875
 40
0.953125
 40
0.9609375
 40
0.96875
 40
0.984375
 40
1.0
 40
1.0
 40
1.0
 40
1.0
 10
12.784066029
 20
8.9102585317
 30
0.0
 10
12.784230663
 20
8.9041511822
 30
0.0
 10
12.784477614
 20
8.8949901577
 30
0.0
 10
12.7848068826
 20
8.8827754593
 30
0.0
 10
12.7850538327
 20
8.8736144333
 30
0.0
 10
12.7853007877
 20
8.8644534157
 30
0.0
 10
12.7855065681
 20
8.8568192079
 30
0.0
 10
12.7856712272
 20
8.8507119011
 30
0.0
 10
12.7857740598
 20
8.846894699
 30
0.0
 10
12.7858565076
 20
8.8438412473
 30
0.0
 10
12.7859178457
 20
8.8415503097
 30
0.0
 10
12.7859705445
 20
8.8396438952
 30
0.0
 10
12.7860043256
 20
8.8383041062
 30
0.0
 10
12.7860284821
 20
8.8375467862
 30
0.0
 10
12.7860329285
 20
8.8369554889
 30
0.0
 10
12.7860896319
 20
8.836453284
 30
0.0
 10
12.7861470087
 20
8.8357526011
 30
0.0
 10
12.7862559106
 20
8.834540885
 30
0.0
 10
12.7864070448
 20
8.8328022922
 30
0.0
 10
12.7865903063
 20
8.8307192211
 30
0.0
 10
12.7868339912
 20
8.8279406611
 30
0.0
 10
12.7871388246
 20
8.8244678486
 30
0.0
 10
12.7876264309
 20
8.8189111321
 30
0.0
 10
12.7882359827
 20
8.8119653113
 30
0.0
 10
12.7889674248
 20
8.8036302914
 30
0.0
 10
12.7896988767
 20
8.7952952918
 30
0.0
 10
12.7903084041
 20
8.7883494201
 30
0.0
 10
12.7907960592
 20
8.7827928055
 30
0.0
 10
12.7911007687
 20
8.7793197339
 30
0.0
 10
12.7913447077
 20
8.7765417058
 30
0.0
 10
12.7915271928
 20
8.7744570097
 30
0.0
 10
12.7916807563
 20
8.7727235009
 30
0.0
 10
12.7917853215
 20
8.7715027091
 30
0.0
 10
12.7918496469
 20
8.7708165677
 30
0.0
 10
12.7918850062
 20
8.7702696961
 30
0.0
 10
12.7919696175
 20
8.7698461596
 30
0.0
 10
12.7920652529
 20
8.7692384235
 30
0.0
 10
12.7922406191
 20
8.7681949296
 30
0.0
 10
12.7924869576
 20
8.7666937447
 30
0.0
 10
12.7927843549
 20
8.7648968084
 30
0.0
 10
12.7931802591
 20
8.7624993265
 30
0.0
 10
12.7936753536
 20
8.7595030106
 30
0.0
 10
12.7944673849
 20
8.7547086053
 30
0.0
 10
12.7954574655
 20
8.7487157023
 30
0.0
 10
12.7966455433
 20
8.7415241709
 30
0.0
 10
12.7978336304
 20
8.734332665
 30
0.0
 10
12.7988236876
 20
8.7283396981
 30
0.0
 10
12.7996157656
 20
8.7235454207
 30
0.0
 10
12.8001107416
 20
8.7205487796
 30
0.0
 10
12.8005068888
 20
8.7181519653
 30
0.0
 10
12.8008035437
 20
8.7163529894
 30
0.0
 10
12.8010522053
 20
8.7148581858
 30
0.0
 10
12.8012234244
 20
8.7138033002
 30
0.0
 10
12.8013257045
 20
8.7132138165
 30
0.0
 10
12.8013899053
 20
8.7127342146
 30
0.0
 10
12.801501923
 20
8.7123979154
 30
0.0
 10
12.8016346009
 20
8.7118995309
 30
0.0
 10
12.8018745584
 20
8.7110506472
 30
0.0
 10
12.8022132919
 20
8.7098257804
 30
0.0
 10
12.8026215111
 20
8.7083611518
 30
0.0
 10
12.803165196
 20
8.7064064934
 30
0.0
 10
12.8038450101
 20
8.7039637937
 30
0.0
 10
12.8049325964
 20
8.7000551259
 30
0.0
 10
12.8062921192
 20
8.6951694106
 30
0.0
 10
12.8079235294
 20
8.689306501
 30
0.0
 10
12.8092830418
 20
8.6844207543
 30
0.0
 10
12.810370651
 20
8.6805121554
 30
0.0
 10
12.8111863576
 20
8.6775807042
 30
0.0
 10
12.8120020658
 20
8.6746492619
 30
0.0
 10
12.8126818175
 20
8.6722063652
 30
0.0
 10
12.8132256305
 20
8.670252111
 30
0.0
 10
12.8135654871
 20
8.6690305582
 30
0.0
 10
12.8138374331
 20
8.6680536456
 30
0.0
 10
12.8140412261
 20
8.6673200585
 30
0.0
 10
12.8142115834
 20
8.6667116075
 30
0.0
 10
12.8143297939
 20
8.6662800563
 30
0.0
 10
12.814398966
 20
8.6660422551
 30
0.0
 10
12.8144462722
 20
8.6658391158
 30
0.0
 10
12.8145110584
 20
8.6657307304
 30
0.0
 10
12.8145913427
 20
8.6655531654
 30
0.0
 10
12.8147346811
 20
8.6652578258
 30
0.0
 10
12.814937965
 20
8.6648278612
 30
0.0
 10
12.8151825415
 20
8.6643153496
 30
0.0
 10
12.8155084213
 20
8.6636307973
 30
0.0
 10
12.8159158472
 20
8.6627755191
 30
0.0
 10
12.816567686
 20
8.6614068435
 30
0.0
 10
12.8173824992
 20
8.6596960781
 30
0.0
 10
12.8183602687
 20
8.6576431257
 30
0.0
 10
12.8193380399
 20
8.6555901824
 30
0.0
 10
12.8206417343
 20
8.6528529215
 30
0.0
 10
12.8222713525
 20
8.6494313465
 30
0.0
 10
12.8239009705
 20
8.6460097707
 30
0.0
 10
12.8252046651
 20
8.6432725111
 30
0.0
 10
12.8261824356
 20
8.6412195639
 30
0.0
 10
12.8271602076
 20
8.639166626
 30
0.0
 10
12.8279750132
 20
8.6374558156
 30
0.0
 10
12.8286268675
 20
8.6360872319
 30
0.0
 10
12.829034254
 20
8.6352317198
 30
0.0
 10
12.8293602147
 20
8.6345476474
 30
0.0
 10
12.8296045441
 20
8.6340336698
 30
0.0
 10
12.8298086009
 20
8.6336082923
 30
0.0
 10
12.8299505595
 20
8.6333047638
 30
0.0
 10
12.8300330547
 20
8.6331403194
 30
0.0
 10
12.8300910497
 20
8.6329916317
 30
0.0
 10
12.8301638622
 20
8.6329398613
 30
0.0
 10
12.8302557769
 20
8.6328370283
 30
0.0
 10
12.8304190358
 20
8.6326728213
 30
0.0
 10
12.8306510038
 20
8.6324300051
 30
0.0
 10
12.8309299043
 20
8.6321421505
 30
0.0
 10
12.8313015835
 20
8.6317571131
 30
0.0
 10
12.8317662468
 20
8.631276238
 30
0.0
 10
12.8325096722
 20
8.6305066022
 30
0.0
 10
12.8334389663
 20
8.6295446382
 30
0.0
 10
12.8345541138
 20
8.6283902469
 30
0.0
 10
12.8356692628
 20
8.6272358648
 30
0.0
 10
12.8371561276
 20
8.6256966854
 30
0.0
 10
12.8390147089
 20
8.6237727124
 30
0.0
 10
12.84087329
 20
8.6218487385
 30
0.0
 10
12.8423601549
 20
8.6203095605
 30
0.0
 10
12.8434753034
 20
8.6191551744
 30
0.0
 10
12.8445904529
 20
8.618000798
 30
0.0
 10
12.8455197411
 20
8.6170387874
 30
0.0
 10
12.8462631784
 20
8.6162692467
 30
0.0
 10
12.8467278112
 20
8.6157881294
 30
0.0
 10
12.8470995531
 20
8.6154035892
 30
0.0
 10
12.847378262
 20
8.6151142156
 30
0.0
 10
12.8476108296
 20
8.6148761519
 30
0.0
 10
12.8477730181
 20
8.614703461
 30
0.0
 10
12.8478666479
 20
8.6146142213
 30
0.0
 10
12.8479341924
 20
8.6145206965
 30
0.0
 10
12.8480119728
 20
8.6145288315
 30
0.0
 10
12.8481121097
 20
8.6145042181
 30
0.0
 10
12.8482890128
 20
8.6144776662
 30
0.0
 10
12.8485408617
 20
8.6144310972
 30
0.0
 10
12.8488434528
 20
8.6143789116
 30
0.0
 10
12.8492467774
 20
8.6143080395
 30
0.0
 10
12.8497509778
 20
8.6142198915
 30
0.0
 10
12.8505576734
 20
8.6140786076
 30
0.0
 10
12.8515660515
 20
8.6139020876
 30
0.0
 10
12.8527761016
 20
8.6136902271
 30
0.0
 10
12.8539861527
 20
8.6134783764
 30
0.0
 10
12.8555995538
 20
8.6131959054
 30
0.0
 10
12.8576163052
 20
8.6128428179
 30
0.0
 10
12.8596330566
 20
8.6124897296
 30
0.0
 10
12.8612464578
 20
8.6122072599
 30
0.0
 10
12.8624565085
 20
8.6119954051
 30
0.0
 10
12.86366656
 20
8.6117835602
 30
0.0
 10
12.8646749339
 20
8.6116069916
 30
0.0
 10
12.8654816381
 20
8.6114658067
 30
0.0
 10
12.8659858166
 20
8.6113774068
 30
0.0
 10
12.8663891862
 20
8.6113070518
 30
0.0
 10
12.8666916399
 20
8.6112532864
 30
0.0
 10
12.8669439183
 20
8.6112116603
 30
0.0
 10
12.8671200548
 20
8.6111762846
 30
0.0
 10
12.8672214199
 20
8.6111658091
 30
0.0
 10
12.8672954278
 20
8.611130517
 30
0.0
 10
12.8673771414
 20
8.6112000971
 30
0.0
 10
12.8674834051
 20
8.6112562899
 30
0.0
 10
12.8676706188
 20
8.6113716709
 30
0.0
 10
12.8679374123
 20
8.6115275904
 30
0.0
 10
12.8682578447
 20
8.6117185078
 30
0.0
 10
12.8686849901
 20
8.6119717321
 30
0.0
 10
12.8692189552
 20
8.6122887187
 30
0.0
 10
12.8700732808
 20
8.6127956422
 30
0.0
 10
12.8711411942
 20
8.6134293841
 30
0.0
 10
12.8724226875
 20
8.6141898369
 30
0.0
 10
12.8737041815
 20
8.6149502998
 30
0.0
 10
12.87541284
 20
8.6159642467
 30
0.0
 10
12.8775486632
 20
8.6172316817
 30
0.0
 10
12.8796844863
 20
8.6184991158
 30
0.0
 10
12.8813931448
 20
8.6195130641
 30
0.0
 10
12.8826746388
 20
8.6202735228
 30
0.0
 10
12.8839561325
 20
8.621033991
 30
0.0
 10
12.8850240446
 20
8.621667685
 30
0.0
 10
12.8858783727
 20
8.6221747062
 30
0.0
 10
12.8864123315
 20
8.6224914443
 30
0.0
 10
12.8868394901
 20
8.6227451787
 30
0.0
 10
12.8871598819
 20
8.6229345376
 30
0.0
 10
12.8874268025
 20
8.6230953333
 30
0.0
 10
12.8876137893
 20
8.6232020094
 30
0.0
 10
12.8877204166
 20
8.6232721497
 30
0.0
 10
12.8878010133
 20
8.6232988874
 30
0.0
 10
12.8878792163
 20
8.6234245041
 30
0.0
 10
12.8879843219
 20
8.6235575029
 30
0.0
 10
12.8881678677
 20
8.6238063204
 30
0.0
 10
12.8884302794
 20
8.6241533725
 30
0.0
 10
12.8887450864
 20
8.6245734311
 30
0.0
 10
12.8891648595
 20
8.6251322533
 30
0.0
 10
12.8896895654
 20
8.6258312111
 30
0.0
 10
12.8905291008
 20
8.6269493031
 30
0.0
 10
12.8915785179
 20
8.6283470006
 30
0.0
 10
12.8928378193
 20
8.6300242023
 30
0.0
 10
12.8940971205
 20
8.6317014135
 30
0.0
 10
12.8957761888
 20
8.6339376917
 30
0.0
 10
12.8978750243
 20
8.6367330404
 30
0.0
 10
12.8999738596
 20
8.6395283898
 30
0.0
 10
12.901652928
 20
8.641764667
 30
0.0
 10
12.902912229
 20
8.6434418814
 30
0.0
 10
12.9041715313
 20
8.6451190708
 30
0.0
 10
12.9052209456
 20
8.6465168065
 30
0.0
 10
12.9060604868
 20
8.6476348208
 30
0.0
 10
12.9065851778
 20
8.6483339763
 30
0.0
 10
12.9070049814
 20
8.6488923925
 30
0.0
 10
12.9073196951
 20
8.6493136916
 30
0.0
 10
12.9075823989
 20
8.6496568626
 30
0.0
 10
12.9077915696
 20
8.6499491437
 30
0.0
 10
12.9079511591
 20
8.6501198687
 30
0.0
 10
12.9081003992
 20
8.6504756648
 30
0.0
 10
12.9083030011
 20
8.6508854119
 30
0.0
 10
12.9085550131
 20
8.651419776
 30
0.0
 10
12.9088579585
 20
8.6520515192
 30
0.0
 10
12.9092617002
 20
8.6528971594
 30
0.0
 10
12.9097664409
 20
8.6539530742
 30
0.0
 10
12.9105739905
 20
8.6556431725
 30
0.0
 10
12.9115834396
 20
8.6577555776
 30
0.0
 10
12.9127947734
 20
8.6602905571
 30
0.0
 10
12.9140061085
 20
8.6628255116
 30
0.0
 10
12.9156212215
 20
8.66620546
 30
0.0
 10
12.9176401133
 20
8.6704303891
 30
0.0
 10
12.9200627815
 20
8.6755003215
 30
0.0
 10
12.9220816777
 20
8.6797252157
 30
0.0
 10
12.9236967811
 20
8.6831052408
 30
0.0
 10
12.9247062515
 20
8.685217507
 30
0.0
 10
12.9255137573
 20
8.6869078913
 30
0.0
 10
12.92611958
 20
8.6881741152
 30
0.0
 10
12.926623817
 20
8.6892342782
 30
0.0
 10
12.9269779903
 20
8.6899666262
 30
0.0
 10
12.9271784898
 20
8.6904003597
 30
0.0
 10
12.9273341751
 20
8.6906827032
 30
0.0
 10
12.9274695603
 20
8.691129249
 30
0.0
 10
12.9276571548
 20
8.6916673678
 30
0.0
 10
12.927982146
 20
8.6926357615
 30
0.0
 10
12.9284481439
 20
8.6940052295
 30
0.0
 10
12.9290066032
 20
8.6956545628
 30
0.0
 10
12.9297514734
 20
8.6978515881
 30
0.0
 10
12.9306824729
 20
8.7005985838
 30
0.0
 10
12.9321721214
 20
8.7049933778
 30
0.0
 10
12.934034165
 20
8.7104870081
 30
0.0
 10
12.9362686252
 20
8.7170793016
 30
0.0
 10
12.938503081
 20
8.7236716257
 30
0.0
 10
12.9403651357
 20
8.7291651798
 30
0.0
 10
12.941854762
 20
8.7335601261
 30
0.0
 10
12.942785818
 20
8.7363067345
 30
0.0
 10
12.9435305723
 20
8.7385045548
 30
0.0
 10
12.9440893858
 20
8.7401514593
 30
0.0
 10
12.9445542752
 20
8.7415285264
 30
0.0
 10
12.9448812454
 20
8.7424833544
 30
0.0
 10
12.945065669
 20
8.7430432088
 30
0.0
 10
12.9452107942
 20
8.7434229898
 30
0.0
 10
12.9453298975
 20
8.7439560911
 30
0.0
 10
12.9454977787
 20
8.7446134129
 30
0.0
 10
12.9457873416
 20
8.7457886434
 30
0.0
 10
12.946203214
 20
8.7474545171
 30
0.0
 10
12.9467013146
 20
8.7494591415
 30
0.0
 10
12.9473657791
 20
8.7521300265
 30
0.0
 10
12.9481962466
 20
8.7554692996
 30
0.0
 10
12.949525058
 20
8.7608117637
 30
0.0
 10
12.9511860502
 20
8.7674899723
 30
0.0
 10
12.9531792512
 20
8.7755037654
 30
0.0
 10
12.9551724458
 20
8.7835175818
 30
0.0
 10
12.9568334542
 20
8.790195732
 30
0.0
 10
12.958162233
 20
8.795538313
 30
0.0
 10
12.9589927832
 20
8.798877289
 30
0.0
 10
12.9596570781
 20
8.8015487836
 30
0.0
 10
12.9601556969
 20
8.8035515456
 30
0.0
 10
12.9605699478
 20
8.8052232464
 30
0.0
 10
12.9608624054
 20
8.8063880744
 30
0.0
 10
12.9610256487
 20
8.8070620637
 30
0.0
 10
12.9611589981
 20
8.807543968
 30
0.0
 10
12.9612506173
 20
8.8081160363
 30
0.0
 10
12.9613873322
 20
8.8088473437
 30
0.0
 10
12.9616198015
 20
8.810141785
 30
0.0
 10
12.961955446
 20
8.811983326
 30
0.0
 10
12.9623567018
 20
8.8141964542
 30
0.0
 10
12.9628922397
 20
8.8171461466
 30
0.0
 10
12.9635614804
 20
8.8208336543
 30
0.0
 10
12.9646323675
 20
8.8267334468
 30
0.0
 10
12.9659709388
 20
8.8341082668
 30
0.0
 10
12.9675772514
 20
8.8429579998
 30
0.0
 10
12.9691835157
 20
8.8518078096
 30
0.0
 10
12.970522208
 20
8.8591824378
 30
0.0
 10
12.9715928529
 20
8.8650826139
 30
0.0
 10
12.9723966802
 20
8.8695064532
 30
0.0
 10
12.9730638531
 20
8.8731970979
 30
0.0
 10
12.9735361398
 20
8.8757724796
 30
0.0
 10
12.9737977959
 20
8.8772567263
 30
0.0
 10
12.9740171996
 20
8.8783344169
 30
0.0
 10
12.9741480678
 20
8.8795477853
 30
0.0
 10
12.9743534408
 20
8.8811182838
 30
0.0
 10
12.9746984552
 20
8.8838887062
 30
0.0
 10
12.9751988553
 20
8.8878349246
 30
0.0
 10
12.9757961155
 20
8.892575321
 30
0.0
 10
12.9765935875
 20
8.8988941257
 30
0.0
 10
12.9775900387
 20
8.9067932248
 30
0.0
 10
12.9787859591
 20
8.9162718821
 30
0.0
 10
12.9799817858
 20
8.9257506365
 30
0.0
 10
12.9809784714
 20
8.9336494929
 30
0.0
 10
12.9817754747
 20
8.9399687828
 30
0.0
 10
12.9823741646
 20
8.9447076992
 30
0.0
 10
12.9828700918
 20
8.9486585478
 30
0.0
 10
12.983223091
 20
8.9514207045
 30
0.0
 10
12.9834156703
 20
8.9530044469
 30
0.0
 10
12.983585837
 20
8.9541771341
 30
0.0
 10
12.9836576421
 20
8.9554076164
 30
0.0
 10
12.9837876919
 20
8.9570280998
 30
0.0
 10
12.9839992935
 20
8.9598733386
 30
0.0
 10
12.9843099389
 20
8.9639330548
 30
0.0
 10
12.9846791361
 20
8.9688068161
 30
0.0
 10
12.9851726491
 20
8.9753044303
 30
0.0
 10
12.9857891084
 20
8.9834267004
 30
0.0
 10
12.9865290577
 20
8.9931733145
 30
0.0
 10
12.9872689053
 20
9.0029199647
 30
0.0
 10
12.9878856189
 20
9.0110421445
 30
0.0
 10
12.9883786232
 20
9.0175399392
 30
0.0
 10
12.9887493718
 20
9.02241315
 30
0.0
 10
12.989055164
 20
9.0264745885
 30
0.0
 10
12.9892754293
 20
9.0293167527
 30
0.0
 10
12.9893915977
 20
9.0309421623
 30
0.0
 10
12.9895060421
 20
9.0321575131
 30
0.0
 10
12.9895160626
 20
9.0333870317
 30
0.0
 10
12.9895658475
 20
9.035021448
 30
0.0
 10
12.9896360004
 20
9.037883979
 30
0.0
 10
12.9897450913
 20
9.0419721052
 30
0.0
 10
12.9898722026
 20
9.0468783719
 30
0.0
 10
12.9900430109
 20
9.0534198808
 30
0.0
 10
12.990256067
 20
9.0615968286
 30
0.0
 10
12.9905972107
 20
9.0746799107
 30
0.0
 10
12.9910235526
 20
9.0910337752
 30
0.0
 10
12.9913646529
 20
9.1041168632
 30
0.0
 10
12.9915351997
 20
9.1106584076
 30
0.0
  0
ELLIPSE
  5
3E0
100
AcDbEntity
  8
0
100
AcDbEllipse
 62
7
  6
CONTINUOUS
 10
11.6112298749
 20
11.4592375005
 30
0.0
 11
0.2741881807
 21
-0.0033985971
 31
0.0
 40
0.237375558
 41
0.0
 42
6.2831853072
  0
ENDSEC
  0
SECTION
  2
OBJECTS
  0
DICTIONARY
  5
C
100
AcDbDictionary
280
0
281
1
  3
ACAD_GROUP
350
D
  3
ACAD_MLINESTYLE
350
17
  3
ACAD_LAYOUT
350
1A
  3
ACAD_PLOTSETTINGS
350
19
  3
ACAD_PLOTSTYLENAME
350
E
  3
ACAD_IMAGE_DICT
350
       3E2
  3
ACAD_IMAGE_VARS
350
       3E3
  3
ACAD_TABLESTYLE
350
       3E4
  0
IMAGEDEF_REACTOR
  5
3E1
100
AcDbRasterImageDefReactor
 90
2
330
287
  0
DICTIONARY
  5
D
102
{ACAD_REACTORS
330
C
102
}
100
AcDbDictionary
280
0
281
1
  0
ACDBDICTIONARYWDFLT
  5
E
102
{ACAD_REACTORS
330
C
102
}
100
AcDbDictionary
281
1
  3
Normal
350
F
100
AcDbDictionaryWithDefault
340
F
  0
DICTIONARY
  5
3E2
330
C
100
AcDbDictionary
281
1
  3
EBO_assy_2_img_1
350
       3E7
  0
RASTERVARIABLES
  5
3E3
330
C
100
AcDbRasterVariables
 90
0
 70
0
 71
1
 72
5
  0
DICTIONARY
  5
17
102
{ACAD_REACTORS
330
C
102
}
100
AcDbDictionary
280
0
281
1
  3
Standard
350
18
  0
DICTIONARY
  5
3E4
330
C
100
AcDbDictionary
281
1
  3
Standard
350
       3E8
  3
Standard1
350
       3E9
  0
DICTIONARY
  5
19
102
{ACAD_REACTORS
330
C
102
}
100
AcDbDictionary
281
1
  0
DICTIONARY
  5
1A
102
{ACAD_REACTORS
330
C
102
}
100
AcDbDictionary
281
1
  3
Model
350
3E5
  3
Layout1
350
3E6
  0
ACDBPLACEHOLDER
  5
F
102
{ACAD_REACTORS
330
E
102
}
  0
MLINESTYLE
  5
18
102
{ACAD_REACTORS
330
17
102
}
100
AcDbMlineStyle
  2
STANDARD
 70
0
  3

 62
256
 51
90.0
 52
90.0
 71
2
 49
0.5
 62
256
  6
BYLAYER
 49
-0.5
 62
256
  6
BYLAYER
  0
LAYOUT
  5
3E5
102
{ACAD_REACTORS
330
1A
102
}
100
AcDbPlotSettings
  1

  2
none_device
  4
ANSI_C_(22.00_x_17.00_Inches)
  6

 40
0.0
 41
0.0
 42
0.0
 43
0.0
 44
558.8
 45
431.8
 46
0.0
 47
0.0
 48
0.0
 49
0.0
140
0.0
141
0.0
142
1.0
143
1.0
 70
1024
 72
0
 73
0
 74
0
  7

 75
0
147
1.0
148
0.0
149
0.0
100
AcDbLayout
  1
Model
 70
0
 71
0
 10
0.0
 20
0.0
 11
22.0
 21
17.0
 12
0.0
 22
0.0
 32
0.0
 14
0.0
 24
0.0
 34
0.0
 15
0.0
 25
0.0
 35
0.0
146
0.0
 13
0.0
 23
0.0
 33
0.0
 16
1.0
 26
0.0
 36
0.0
 17
0.0
 27
1.0
 37
0.0
 76
0
330
20F
345
0
346
0
  0
LAYOUT
  5
3E6
102
{ACAD_REACTORS
330
1A
102
}
100
AcDbPlotSettings
  1

  2
none_device
  4
ANSI_C_(22.00_x_17.00_Inches)
  6

 40
0.0
 41
0.0
 42
0.0
 43
0.0
 44
558.8
 45
431.8
 46
0.0
 47
0.0
 48
0.0
 49
0.0
140
0.0
141
0.0
142
1.0
143
1.0
 70
0
 72
0
 73
0
 74
0
  7

 75
0
147
1.0
148
0.0
149
0.0
100
AcDbLayout
  1
Layout1
 70
0
 71
1
 10
0.0
 20
0.0
 11
22.0
 21
17.0
 12
0.0
 22
0.0
 32
0.0
 14
0.0
 24
0.0
 34
0.0
 15
0.0
 25
0.0
 35
0.0
146
0.0
 13
0.0
 23
0.0
 33
0.0
 16
1.0
 26
0.0
 36
0.0
 17
0.0
 27
1.0
 37
0.0
 76
0
330
210
345
0
346
0
  0
IMAGEDEF
  5
3E7
102
{ACAD_REACTORS
330
3E2
330
3E1
102
}
100
AcDbRasterImageDef
 90
0
  1
EBO_assy_2_img_1.png
 10
369.0
 20
92.0
 11
0.0066666667
 21
0.0066666667
280
1
281
0
  0
TABLESTYLE
  5
3E8
102
{ACAD_REACTORS
330
3E4
330
28A
330
28B
102
}
330
3E4
100
AcDbTableStyle
  3
Standard
 70
0
 71
0
 40
0.06
 41
0.06
280
1
281
1
  7
Standard
140
0.18
170
1
 62
0
 63
7
283
0
  7
Standard
140
0.18
170
1
 62
0
 63
7
283
0
  7
Standard
140
0.18
170
1
 62
0
 63
7
283
0
  0
TABLESTYLE
  5
3E9
102
{ACAD_REACTORS
330
3E4
330
289
102
}
330
3E4
100
AcDbTableStyle
  3
Standard1
 70
1
 71
0
 40
0.06
 41
0.06
280
1
281
1
  7
Standard
140
0.18
170
1
 62
0
 63
7
283
0
  7
Standard
140
0.18
170
1
 62
0
 63
7
283
0
  7
Standard
140
0.18
170
1
 62
0
 63
7
283
0
  0
ENDSEC
  0
EOF
