999
DXF file: EBK_7.dxf
999
Pro/ENGINEER 2006240 by Parametric Technology Corporation
  0
SECTION
  2
HEADER
  9
$ACADVER
  1
AC1015
  9
$DWGCODEPAGE
  3
ANSI_1252
  9
$EXTMAX
 10
22.0
 20
17.0
 30
0.0
  9
$EXTMIN
 10
0.0
 20
0.0
 30
0.0
  9
$LIMMIN
 10
0.0
 20
0.0
  9
$LIMMAX
 10
22.0
 20
17.0
  9
$VIEWCTR
 10
11.0
 20
8.5
  9
$VIEWSIZE
 40
17.0
  9
$CLAYER
  8
0
  9
$LTSCALE
 40
1.21
  9
$CELTYPE
  6
BYLAYER
  9
$DIMSCALE
 40
1.0
  9
$DIMASZ
 40
0.1875
  9
$DIMEXO
 40
0.1375
  9
$DIMDLI
 40
0.836
  9
$DIMEXE
 40
0.396
  9
$DIMCEN
 40
0.198
  9
$DIMLFAC
 40
1.0
  9
$DIMBLK
  1
_CLOSED
  9
$DIMTXT
 40
0.15625
  9
$DIMTOL
 70
0
  9
$DIMLIM
 70
0
  9
$DIMTFAC
 40
1.0
  9
$PDMODE
 70
3
  9
$PDSIZE
 40
0.3125
  9
$HANDSEED
  5
48E
  9
$MEASUREMENT
 70
0
  9
$INSUNITS
 70
1
  0
ENDSEC
  0
SECTION
  2
CLASSES
  0
CLASS
  1
ACDBDICTIONARYWDFLT
  2
AcDbDictionaryWithDefault
  3
AutoCAD 2000
 90
0
280
0
281
0
  0
CLASS
  1
ACDBPLACEHOLDER
  2
AcDbPlaceHolder
  3
AutoCAD 2000
 90
0
280
0
281
0
  0
CLASS
  1
LAYOUT
  2
AcDbLayout
  3
AutoCAD 2000
 90
0
280
0
281
0
  0
ENDSEC
  0
SECTION
  2
TABLES
  0
TABLE
  2
VPORT
  5
8
100
AcDbSymbolTable
 70
2
  0
VPORT
  5
1F4
100
AcDbSymbolTableRecord
100
AcDbViewportTableRecord
  2
*ACTIVE
 70
0
 10
0.0
 20
0.0
 11
1.0
 21
1.0
 12
11.0
 22
8.5
 13
0.0
 23
0.0
 14
1.0
 24
1.0
 15
0.0
 25
0.0
 16
0.0
 26
0.0
 36
1.0
 17
0.0
 27
0.0
 37
0.0
 40
17.0
 41
1.2941176471
 42
50.0
 43
0.0
 44
0.0
 50
0.0
 51
0.0
 71
0
 72
100
 73
1
 74
1
 75
0
 76
0
 77
0
 78
0
  0
ENDTAB
  0
TABLE
  2
LTYPE
  5
5
100
AcDbSymbolTable
 70
6
  0
LTYPE
  5
14
100
AcDbSymbolTableRecord
100
AcDbLinetypeTableRecord
  2
BYBLOCK
 70
0
  3

 72
65
 73
0
 40
0.0
  0
LTYPE
  5
15
100
AcDbSymbolTableRecord
100
AcDbLinetypeTableRecord
  2
BYLAYER
 70
0
  3

 72
65
 73
0
 40
0.0
  0
LTYPE
  5
16
100
AcDbSymbolTableRecord
100
AcDbLinetypeTableRecord
  2
CONTINUOUS
 70
64
  3
Solid line
 72
65
 73
0
 40
0.0
  0
LTYPE
  5
1F5
100
AcDbSymbolTableRecord
100
AcDbLinetypeTableRecord
  2
CENTER
 70
64
  3
____ _ ____ _ ____ _ ____ _ ____ _ ____ _ ____
 72
65
 73
4
 40
0.6
 49
0.375
 74
0
 49
-0.075
 74
0
 49
0.075
 74
0
 49
-0.075
 74
0
  0
LTYPE
  5
1F6
100
AcDbSymbolTableRecord
100
AcDbLinetypeTableRecord
  2
HIDDEN
 70
64
  3
- - - - - - - - - - - - - - - - - - - -
 72
65
 73
2
 40
0.2
 49
0.1
 74
0
 49
-0.1
 74
0
  0
LTYPE
  5
1F7
100
AcDbSymbolTableRecord
100
AcDbLinetypeTableRecord
  2
PHANTOM
 70
64
  3
_____ _ _ _____ _ _ _____ _ _ _____
 72
65
 73
6
 40
0.8
 49
0.45
 74
0
 49
-0.05
 74
0
 49
0.1
 74
0
 49
-0.05
 74
0
 49
0.1
 74
0
 49
-0.05
 74
0
  0
LTYPE
  5
1F8
100
AcDbSymbolTableRecord
100
AcDbLinetypeTableRecord
  2
DOT
 70
64
  3
. . . . . . . . . . . . . . . . . . . .
 72
65
 73
2
 40
0.2
 49
0.1
 74
0
 49
-0.1
 74
0
  0
LTYPE
  5
1F9
100
AcDbSymbolTableRecord
100
AcDbLinetypeTableRecord
  2
DASHED
 70
64
  3
- - - - - - - - - - - - - - - - - - - -
 72
65
 73
2
 40
0.2
 49
0.1
 74
0
 49
-0.1
 74
0
  0
ENDTAB
  0
TABLE
  2
LAYER
  5
2
100
AcDbSymbolTable
 70
36
  0
LAYER
  5
10
100
AcDbSymbolTableRecord
100
AcDbLayerTableRecord
  2
0
 70
0
 62
7
  6
CONTINUOUS
370
-3
390
F
  0
LAYER
  5
1FA
100
AcDbSymbolTableRecord
100
AcDbLayerTableRecord
  2
DEFAULT_1
 70
0
 62
7
  6
CENTER
370
-3
390
F
  0
LAYER
  5
1FB
100
AcDbSymbolTableRecord
100
AcDbLayerTableRecord
  2
DEFAULT_2
 70
0
 62
8
  6
HIDDEN
370
-3
390
F
  0
LAYER
  5
1FC
100
AcDbSymbolTableRecord
100
AcDbLayerTableRecord
  2
DEFAULT_3
 70
0
 62
7
  6
PHANTOM
370
-3
390
F
  0
LAYER
  5
1FD
100
AcDbSymbolTableRecord
100
AcDbLayerTableRecord
  2
01_ALL_DTM_PLN
 70
0
 62
7
  6
CONTINUOUS
370
-3
390
F
  0
LAYER
  5
1FE
100
AcDbSymbolTableRecord
100
AcDbLayerTableRecord
  2
01__ASM_ALL_DTM_PLN
 70
0
 62
7
  6
CONTINUOUS
370
-3
390
F
  0
LAYER
  5
1FF
100
AcDbSymbolTableRecord
100
AcDbLayerTableRecord
  2
01__ASM_DEF_DTM_PLN
 70
0
 62
7
  6
CONTINUOUS
370
-3
390
F
  0
LAYER
  5
200
100
AcDbSymbolTableRecord
100
AcDbLayerTableRecord
  2
01___PRT_ALL_DTM_PLN
 70
0
 62
7
  6
CONTINUOUS
370
-3
390
F
  0
LAYER
  5
201
100
AcDbSymbolTableRecord
100
AcDbLayerTableRecord
  2
01___PRT_DEF_DTM_PLN
 70
0
 62
7
  6
CONTINUOUS
370
-3
390
F
  0
LAYER
  5
202
100
AcDbSymbolTableRecord
100
AcDbLayerTableRecord
  2
02_ALL_AXES
 70
0
 62
7
  6
CONTINUOUS
370
-3
390
F
  0
LAYER
  5
203
100
AcDbSymbolTableRecord
100
AcDbLayerTableRecord
  2
02__ASM_ALL_AXES
 70
0
 62
7
  6
CONTINUOUS
370
-3
390
F
  0
LAYER
  5
204
100
AcDbSymbolTableRecord
100
AcDbLayerTableRecord
  2
02___PRT_ALL_AXES
 70
0
 62
7
  6
CONTINUOUS
370
-3
390
F
  0
LAYER
  5
205
100
AcDbSymbolTableRecord
100
AcDbLayerTableRecord
  2
03_ALL_CURVES
 70
0
 62
7
  6
CONTINUOUS
370
-3
390
F
  0
LAYER
  5
206
100
AcDbSymbolTableRecord
100
AcDbLayerTableRecord
  2
03__ASM_ALL_CURVES
 70
0
 62
7
  6
CONTINUOUS
370
-3
390
F
  0
LAYER
  5
207
100
AcDbSymbolTableRecord
100
AcDbLayerTableRecord
  2
03___PRT_ALL_CURVES
 70
0
 62
7
  6
CONTINUOUS
370
-3
390
F
  0
LAYER
  5
208
100
AcDbSymbolTableRecord
100
AcDbLayerTableRecord
  2
04_ALL_DTM_PNT
 70
0
 62
7
  6
CONTINUOUS
370
-3
390
F
  0
LAYER
  5
209
100
AcDbSymbolTableRecord
100
AcDbLayerTableRecord
  2
04__ASM_ALL_DTM_PNT
 70
0
 62
7
  6
CONTINUOUS
370
-3
390
F
  0
LAYER
  5
20A
100
AcDbSymbolTableRecord
100
AcDbLayerTableRecord
  2
04___PRT_ALL_DTM_PNT
 70
0
 62
7
  6
CONTINUOUS
370
-3
390
F
  0
LAYER
  5
20B
100
AcDbSymbolTableRecord
100
AcDbLayerTableRecord
  2
05_ALL_DTM_CSYS
 70
0
 62
7
  6
CONTINUOUS
370
-3
390
F
  0
LAYER
  5
20C
100
AcDbSymbolTableRecord
100
AcDbLayerTableRecord
  2
05__ASM_ALL_DTM_CSYS
 70
0
 62
7
  6
CONTINUOUS
370
-3
390
F
  0
LAYER
  5
20D
100
AcDbSymbolTableRecord
100
AcDbLayerTableRecord
  2
05__ASM_DEF_DTM_CSYS
 70
0
 62
7
  6
CONTINUOUS
370
-3
390
F
  0
LAYER
  5
20E
100
AcDbSymbolTableRecord
100
AcDbLayerTableRecord
  2
05___PRT_ALL_DTM_CSYS
 70
0
 62
7
  6
CONTINUOUS
370
-3
390
F
  0
LAYER
  5
20F
100
AcDbSymbolTableRecord
100
AcDbLayerTableRecord
  2
05___PRT_DEF_DTM_CSYS
 70
0
 62
7
  6
CONTINUOUS
370
-3
390
F
  0
LAYER
  5
210
100
AcDbSymbolTableRecord
100
AcDbLayerTableRecord
  2
06_ALL_SURFS
 70
0
 62
7
  6
CONTINUOUS
370
-3
390
F
  0
LAYER
  5
211
100
AcDbSymbolTableRecord
100
AcDbLayerTableRecord
  2
06__ASM_ALL_SURFS
 70
0
 62
7
  6
CONTINUOUS
370
-3
390
F
  0
LAYER
  5
212
100
AcDbSymbolTableRecord
100
AcDbLayerTableRecord
  2
06___PRT_ALL_SURFS
 70
0
 62
7
  6
CONTINUOUS
370
-3
390
F
  0
LAYER
  5
213
100
AcDbSymbolTableRecord
100
AcDbLayerTableRecord
  2
07__ASM_ALL_SKELETONS
 70
0
 62
7
  6
CONTINUOUS
370
-3
390
F
  0
LAYER
  5
214
100
AcDbSymbolTableRecord
100
AcDbLayerTableRecord
  2
COPY_GEO_FET
 70
0
 62
7
  6
CONTINUOUS
370
-3
390
F
  0
LAYER
  5
215
100
AcDbSymbolTableRecord
100
AcDbLayerTableRecord
  2
COSMETIC
 70
0
 62
7
  6
CONTINUOUS
370
-3
390
F
  0
LAYER
  5
216
100
AcDbSymbolTableRecord
100
AcDbLayerTableRecord
  2
CUT_REF_SURF
 70
0
 62
7
  6
CONTINUOUS
370
-3
390
F
  0
LAYER
  5
217
100
AcDbSymbolTableRecord
100
AcDbLayerTableRecord
  2
DATESTAMP
 70
0
 62
7
  6
CONTINUOUS
370
-3
390
F
  0
LAYER
  5
218
100
AcDbSymbolTableRecord
100
AcDbLayerTableRecord
  2
DATUM
 70
0
 62
7
  6
CONTINUOUS
370
-3
390
F
  0
LAYER
  5
219
100
AcDbSymbolTableRecord
100
AcDbLayerTableRecord
  2
DATUM_B
 70
0
 62
7
  6
CONTINUOUS
370
-3
390
F
  0
LAYER
  5
21A
100
AcDbSymbolTableRecord
100
AcDbLayerTableRecord
  2
DATUM_PLANES
 70
0
 62
7
  6
CONTINUOUS
370
-3
390
F
  0
LAYER
  5
21B
100
AcDbSymbolTableRecord
100
AcDbLayerTableRecord
  2
DIM
 70
0
 62
7
  6
CONTINUOUS
370
-3
390
F
  0
LAYER
  5
21C
100
AcDbSymbolTableRecord
100
AcDbLayerTableRecord
  2
DIMENSIONS
 70
0
 62
7
  6
CONTINUOUS
370
-3
390
F
  0
LAYER
  5
21D
100
AcDbSymbolTableRecord
100
AcDbLayerTableRecord
  2
DIM_1
 70
0
 62
7
  6
CONTINUOUS
370
-3
390
F
  0
LAYER
  5
21E
100
AcDbSymbolTableRecord
100
AcDbLayerTableRecord
  2
DIM_2
 70
0
 62
7
  6
CONTINUOUS
370
-3
390
F
  0
LAYER
  5
21F
100
AcDbSymbolTableRecord
100
AcDbLayerTableRecord
  2
DIM_3
 70
0
 62
7
  6
CONTINUOUS
370
-3
390
F
  0
LAYER
  5
220
100
AcDbSymbolTableRecord
100
AcDbLayerTableRecord
  2
DIM_4
 70
0
 62
7
  6
CONTINUOUS
370
-3
390
F
  0
LAYER
  5
221
100
AcDbSymbolTableRecord
100
AcDbLayerTableRecord
  2
DIM_5
 70
0
 62
7
  6
CONTINUOUS
370
-3
390
F
  0
LAYER
  5
222
100
AcDbSymbolTableRecord
100
AcDbLayerTableRecord
  2
DTM
 70
0
 62
7
  6
CONTINUOUS
370
-3
390
F
  0
LAYER
  5
223
100
AcDbSymbolTableRecord
100
AcDbLayerTableRecord
  2
EBK_10
 70
0
 62
7
  6
CONTINUOUS
370
-3
390
F
  0
LAYER
  5
224
100
AcDbSymbolTableRecord
100
AcDbLayerTableRecord
  2
EBK_2
 70
0
 62
7
  6
CONTINUOUS
370
-3
390
F
  0
LAYER
  5
225
100
AcDbSymbolTableRecord
100
AcDbLayerTableRecord
  2
EBK_5
 70
0
 62
7
  6
CONTINUOUS
370
-3
390
F
  0
LAYER
  5
226
100
AcDbSymbolTableRecord
100
AcDbLayerTableRecord
  2
EBK_6
 70
0
 62
7
  6
CONTINUOUS
370
-3
390
F
  0
LAYER
  5
227
100
AcDbSymbolTableRecord
100
AcDbLayerTableRecord
  2
EBK_7
 70
0
 62
7
  6
CONTINUOUS
370
-3
390
F
  0
LAYER
  5
228
100
AcDbSymbolTableRecord
100
AcDbLayerTableRecord
  2
EBK_8
 70
0
 62
7
  6
CONTINUOUS
370
-3
390
F
  0
LAYER
  5
229
100
AcDbSymbolTableRecord
100
AcDbLayerTableRecord
  2
EXT_COPY_GEO
 70
0
 62
7
  6
CONTINUOUS
370
-3
390
F
  0
LAYER
  5
22A
100
AcDbSymbolTableRecord
100
AcDbLayerTableRecord
  2
LS
 70
0
 62
7
  6
CONTINUOUS
370
-3
390
F
  0
LAYER
  5
22B
100
AcDbSymbolTableRecord
100
AcDbLayerTableRecord
  2
ORIGIN
 70
0
 62
7
  6
CONTINUOUS
370
-3
390
F
  0
LAYER
  5
22C
100
AcDbSymbolTableRecord
100
AcDbLayerTableRecord
  2
PARAMETERDIMENSIONS
 70
0
 62
7
  6
CONTINUOUS
370
-3
390
F
  0
LAYER
  5
22D
100
AcDbSymbolTableRecord
100
AcDbLayerTableRecord
  2
PARTNUMBER
 70
0
 62
7
  6
CONTINUOUS
370
-3
390
F
  0
LAYER
  5
22E
100
AcDbSymbolTableRecord
100
AcDbLayerTableRecord
  2
PORT_AREAS
 70
0
 62
7
  6
CONTINUOUS
370
-3
390
F
  0
LAYER
  5
22F
100
AcDbSymbolTableRecord
100
AcDbLayerTableRecord
  2
TEXT
 70
0
 62
7
  6
CONTINUOUS
370
-3
390
F
  0
LAYER
  5
230
100
AcDbSymbolTableRecord
100
AcDbLayerTableRecord
  2
THREAD
 70
0
 62
7
  6
CONTINUOUS
370
-3
390
F
  0
LAYER
  5
231
100
AcDbSymbolTableRecord
100
AcDbLayerTableRecord
  2
THREADS
 70
0
 62
7
  6
CONTINUOUS
370
-3
390
F
  0
ENDTAB
  0
TABLE
  2
STYLE
  5
3
100
AcDbSymbolTable
 70
1
  0
STYLE
  5
11
100
AcDbSymbolTableRecord
100
AcDbTextStyleTableRecord
  2
STANDARD
 70
0
 40
0.0
 41
0.8
 50
0.0
 71
0
 42
0.2
  3
txt
  4

  0
ENDTAB
  0
TABLE
  2
VIEW
  5
6
100
AcDbSymbolTable
 70
0
  0
ENDTAB
  0
TABLE
  2
UCS
  5
7
100
AcDbSymbolTable
 70
0
  0
ENDTAB
  0
TABLE
  2
APPID
  5
9
100
AcDbSymbolTable
 70
1
  0
APPID
  5
232
100
AcDbSymbolTableRecord
100
AcDbRegAppTableRecord
  2
ACAD
 70
0
  0
ENDTAB
  0
TABLE
  2
BLOCK_RECORD
  5
1
100
AcDbSymbolTable
 70
0
  0
BLOCK_RECORD
  5
1F
100
AcDbSymbolTableRecord
100
AcDbBlockTableRecord
  2
*MODEL_SPACE
  0
BLOCK_RECORD
  5
1B
100
AcDbSymbolTableRecord
100
AcDbBlockTableRecord
  2
*PAPER_SPACE
  0
ENDTAB
  0
TABLE
  2
DIMSTYLE
  5
A
100
AcDbSymbolTable
 70
1
100
AcDbDimStyleTable
 71
0
  0
DIMSTYLE
105
233
100
AcDbSymbolTableRecord
100
AcDbDimStyleTableRecord
  2
STANDARD
 70
0
  3

  4

 40
1.0
 41
0.1875
 42
0.0625
 43
0.38
 44
0.18
 45
0.0
 46
0.0
 47
0.01
 48
0.01
140
0.15625
141
0.09
142
0.0
143
25.4
144
1.0
145
0.0
146
1.0
147
0.09
 71
0.0
 72
0.0
 73
1
 74
1
 75
0
 76
0
 77
0
 78
4
170
0
171
2
172
0
173
0
174
0
175
0
176
0
177
0
178
0
270
2
271
2
272
2
273
2
274
2
275
0
280
0
281
0
282
0
283
1
284
4
285
0
286
0
287
3
288
0
340
11
  0
ENDTAB
  0
ENDSEC
  0
SECTION
  2
BLOCKS
  0
BLOCK
  5
20
100
AcDbEntity
  8
0
100
AcDbBlockBegin
  2
*MODEL_SPACE
 70
0
 10
0.0
 20
0.0
 30
0.0
  3
*MODEL_SPACE
  1

  0
ENDBLK
  5
21
100
AcDbEntity
  8
0
100
AcDbBlockEnd
  0
BLOCK
  5
1C
100
AcDbEntity
  8
0
100
AcDbBlockBegin
  2
*PAPER_SPACE
 70
0
 10
0.0
 20
0.0
 30
0.0
  3
*PAPER_SPACE
  1

  0
ENDBLK
  5
1D
100
AcDbEntity
  8
0
100
AcDbBlockEnd
  0
ENDSEC
  0
SECTION
  2
ENTITIES
  0
LINE
  5
234
100
AcDbEntity
  8
03__ASM_ALL_CURVES
100
AcDbLine
 62
4
  6
CONTINUOUS
 10
8.2158820841
 20
10.2163185558
 11
8.229215419
 21
10.2263185558
  0
LINE
  5
235
100
AcDbEntity
  8
03__ASM_ALL_CURVES
100
AcDbLine
 62
4
  6
CONTINUOUS
 10
8.2425487492
 20
9.5863185558
 11
8.249215419
 21
9.5963185558
  0
LINE
  5
236
100
AcDbEntity
  8
03__ASM_ALL_CURVES
100
AcDbLine
 62
4
  6
CONTINUOUS
 10
8.2858820838
 20
9.9938185558
 11
8.2958820841
 21
10.0013185558
  0
LINE
  5
237
100
AcDbEntity
  8
03__ASM_ALL_CURVES
100
AcDbLine
 62
4
  6
CONTINUOUS
 10
8.2158820841
 20
9.6013185558
 11
8.2158820841
 21
9.5713185558
  0
LINE
  5
238
100
AcDbEntity
  8
03__ASM_ALL_CURVES
100
AcDbLine
 62
4
  6
CONTINUOUS
 10
8.2158820841
 20
9.5213185558
 11
8.2158820841
 21
9.4813185558
  0
LINE
  5
239
100
AcDbEntity
  8
03__ASM_ALL_CURVES
100
AcDbLine
 62
4
  6
CONTINUOUS
 10
8.2425487492
 20
9.5763185558
 11
8.2425487492
 21
9.5863185558
  0
LINE
  5
23A
100
AcDbEntity
  8
0
100
AcDbLine
 62
7
  6
CONTINUOUS
 10
8.2558820841
 20
8.8213185558
 11
8.2558820841
 21
7.1213185081
  0
LINE
  5
23B
100
AcDbEntity
  8
03__ASM_ALL_CURVES
100
AcDbLine
 62
4
  6
CONTINUOUS
 10
8.2558820841
 20
8.9013185558
 11
8.2558820841
 21
9.1413185558
  0
LINE
  5
23C
100
AcDbEntity
  8
03__ASM_ALL_CURVES
100
AcDbLine
 62
4
  6
CONTINUOUS
 10
8.2758820841
 20
9.8013185558
 11
8.2758820841
 21
9.8463185558
  0
LINE
  5
23D
100
AcDbEntity
  8
03__ASM_ALL_CURVES
100
AcDbLine
 62
4
  6
CONTINUOUS
 10
8.2758820841
 20
9.8813185558
 11
8.2758820841
 21
9.9263185558
  0
LINE
  5
23E
100
AcDbEntity
  8
03__ASM_ALL_CURVES
100
AcDbLine
 62
4
  6
CONTINUOUS
 10
8.2758820841
 20
10.0413185558
 11
8.2758820841
 21
10.0863185558
  0
LINE
  5
23F
100
AcDbEntity
  8
03__ASM_ALL_CURVES
100
AcDbLine
 62
4
  6
CONTINUOUS
 10
8.2758820841
 20
10.1213185558
 11
8.2758820841
 21
10.1663185558
  0
LINE
  5
240
100
AcDbEntity
  8
03__ASM_ALL_CURVES
100
AcDbLine
 62
4
  6
CONTINUOUS
 10
8.2958820841
 20
10.0013185558
 11
8.2958820841
 21
9.9938185558
  0
LINE
  5
241
100
AcDbEntity
  8
03__ASM_ALL_CURVES
100
AcDbLine
 62
4
  6
CONTINUOUS
 10
8.2958820841
 20
9.5863185558
 11
8.2958820841
 21
9.5763185558
  0
LINE
  5
242
100
AcDbEntity
  8
03__ASM_ALL_CURVES
100
AcDbLine
 62
4
  6
CONTINUOUS
 10
8.2958820841
 20
9.4413185558
 11
8.2958820841
 21
9.4338185558
  0
LINE
  5
243
100
AcDbEntity
  8
0
100
AcDbLine
 62
7
  6
CONTINUOUS
 10
8.3178820841
 20
7.5123185319
 11
8.3178820841
 21
8.4303185319
  0
LINE
  5
244
100
AcDbEntity
  8
0
100
AcDbLine
 62
7
  6
CONTINUOUS
 10
8.3488820841
 20
7.5123185319
 11
8.3488820841
 21
8.4303185319
  0
LINE
  5
245
100
AcDbEntity
  8
03__ASM_ALL_CURVES
100
AcDbLine
 62
4
  6
CONTINUOUS
 10
8.2958820841
 20
9.5763185558
 11
8.2892154172
 21
9.5663185558
  0
LINE
  5
246
100
AcDbEntity
  8
03__ASM_ALL_CURVES
100
AcDbLine
 62
4
  6
CONTINUOUS
 10
8.2825487504
 20
9.7363185558
 11
8.2958820841
 21
9.7463185558
  0
LINE
  5
247
100
AcDbEntity
  8
03__ASM_ALL_CURVES
100
AcDbLine
 62
4
  6
CONTINUOUS
 10
8.9348820841
 20
10.2163185558
 11
8.948215419
 21
10.2263185558
  0
LINE
  5
248
100
AcDbEntity
  8
03__ASM_ALL_CURVES
100
AcDbLine
 62
4
  6
CONTINUOUS
 10
8.9415487492
 20
10.1513185558
 11
8.948215419
 21
10.1563185558
  0
LINE
  5
249
100
AcDbEntity
  8
03__ASM_ALL_CURVES
100
AcDbLine
 62
4
  6
CONTINUOUS
 10
11.2508820841
 20
7.0813185558
 11
11.2408820841
 21
7.0813185558
  0
LINE
  5
24A
100
AcDbEntity
  8
03__ASM_ALL_CURVES
100
AcDbLine
 62
4
  6
CONTINUOUS
 10
11.1058820841
 20
7.0813185558
 11
11.0983820841
 21
7.0813185558
  0
LINE
  5
24B
100
AcDbEntity
  8
03__ASM_ALL_CURVES
100
AcDbLine
 62
4
  6
CONTINUOUS
 10
11.0108820841
 20
7.0813185558
 11
11.0008820841
 21
7.0813185558
  0
LINE
  5
24C
100
AcDbEntity
  8
03__ASM_ALL_CURVES
100
AcDbLine
 62
4
  6
CONTINUOUS
 10
10.6258820841
 20
7.0813185558
 11
10.6183820841
 21
7.0813185558
  0
LINE
  5
24D
100
AcDbEntity
  8
03__ASM_ALL_CURVES
100
AcDbLine
 62
4
  6
CONTINUOUS
 10
10.9058820841
 20
7.1013185558
 11
10.9508820841
 21
7.1013185558
  0
LINE
  5
24E
100
AcDbEntity
  8
0
100
AcDbLine
 62
7
  6
CONTINUOUS
 10
10.0058820841
 20
7.1213185081
 11
8.2558820841
 21
7.1213185081
  0
LINE
  5
24F
100
AcDbEntity
  8
03__ASM_ALL_CURVES
100
AcDbLine
 62
4
  6
CONTINUOUS
 10
10.0858820841
 20
7.1213185558
 11
10.3258820841
 21
7.1213185558
  0
LINE
  5
250
100
AcDbEntity
  8
03__ASM_ALL_CURVES
100
AcDbLine
 62
4
  6
CONTINUOUS
 10
11.0008820841
 20
7.1279852208
 11
11.0108820841
 21
7.1279852208
  0
LINE
  5
251
100
AcDbEntity
  8
03__ASM_ALL_CURVES
100
AcDbLine
 62
4
  6
CONTINUOUS
 10
11.2408820841
 20
7.1279852208
 11
11.2508820841
 21
7.1279852208
  0
LINE
  5
252
100
AcDbEntity
  8
0
100
AcDbLine
 62
7
  6
CONTINUOUS
 10
9.5678820841
 20
7.1373185319
 11
8.6928820841
 21
7.1373185319
  0
LINE
  5
253
100
AcDbEntity
  8
03__ASM_ALL_CURVES
100
AcDbLine
 62
4
  6
CONTINUOUS
 10
10.7058820841
 20
7.1613185558
 11
10.6658820841
 21
7.1613185558
  0
LINE
  5
254
100
AcDbEntity
  8
03__ASM_ALL_CURVES
100
AcDbLine
 62
4
  6
CONTINUOUS
 10
11.0008820841
 20
7.1613185558
 11
11.0108820841
 21
7.1613185558
  0
LINE
  5
255
100
AcDbEntity
  8
03__ASM_ALL_CURVES
100
AcDbLine
 62
4
  6
CONTINUOUS
 10
11.2408820841
 20
7.1613185558
 11
11.2508820841
 21
7.1613185558
  0
LINE
  5
256
100
AcDbEntity
  8
0
100
AcDbLine
 62
7
  6
CONTINUOUS
 10
9.5678820841
 20
7.1683185319
 11
8.6928820841
 21
7.1683185319
  0
LINE
  5
257
100
AcDbEntity
  8
03__ASM_ALL_CURVES
100
AcDbLine
 62
4
  6
CONTINUOUS
 10
8.9348820841
 20
10.1413185558
 11
8.9415487492
 21
10.1513185558
  0
LINE
  5
258
100
AcDbEntity
  8
03__ASM_ALL_CURVES
100
AcDbLine
 62
4
  6
CONTINUOUS
 10
9.0148820841
 20
10.1413185558
 11
9.0082154172
 21
10.1313185558
  0
LINE
  5
259
100
AcDbEntity
  8
03__ASM_ALL_CURVES
100
AcDbLine
 62
4
  6
CONTINUOUS
 10
8.249215419
 20
9.5963185558
 11
8.2558820841
 21
9.6013185558
  0
LINE
  5
25A
100
AcDbEntity
  8
03__ASM_ALL_CURVES
100
AcDbLine
 62
4
  6
CONTINUOUS
 10
9.0908820841
 20
10.2163185558
 11
9.104215419
 21
10.2263185558
  0
LINE
  5
25B
100
AcDbEntity
  8
03__ASM_ALL_CURVES
100
AcDbLine
 62
4
  6
CONTINUOUS
 10
9.0082154172
 20
10.1313185558
 11
9.0015487504
 21
10.1263185558
  0
LINE
  5
25C
100
AcDbEntity
  8
03__ASM_ALL_CURVES
100
AcDbLine
 62
4
  6
CONTINUOUS
 10
8.2892154172
 20
9.5663185558
 11
8.2825487504
 21
9.5613185558
  0
LINE
  5
25D
100
AcDbEntity
  8
03__ASM_ALL_CURVES
100
AcDbLine
 62
4
  6
CONTINUOUS
 10
9.0975487492
 20
10.1513185558
 11
9.104215419
 21
10.1563185558
  0
LINE
  5
25E
100
AcDbEntity
  8
03__ASM_ALL_CURVES
100
AcDbLine
 62
4
  6
CONTINUOUS
 10
9.1642154172
 20
10.1313185558
 11
9.1575487504
 21
10.1263185558
  0
LINE
  5
25F
100
AcDbEntity
  8
03__ASM_ALL_CURVES
100
AcDbLine
 62
4
  6
CONTINUOUS
 10
9.0975487492
 20
10.0713185558
 11
9.104215419
 21
10.0763185558
  0
LINE
  5
260
100
AcDbEntity
  8
03__ASM_ALL_CURVES
100
AcDbLine
 62
4
  6
CONTINUOUS
 10
9.0048820838
 20
9.9938185558
 11
9.0148820841
 21
10.0013185558
  0
LINE
  5
261
100
AcDbEntity
  8
03__ASM_ALL_CURVES
100
AcDbLine
 62
4
  6
CONTINUOUS
 10
8.2858820838
 20
9.4338185558
 11
8.2958820841
 21
9.4413185558
  0
LINE
  5
262
100
AcDbEntity
  8
03__ASM_ALL_CURVES
100
AcDbLine
 62
4
  6
CONTINUOUS
 10
8.9748820841
 20
10.1563185558
 11
8.9882154166
 21
10.1613185558
  0
LINE
  5
263
100
AcDbEntity
  8
03__ASM_ALL_CURVES
100
AcDbLine
 62
4
  6
CONTINUOUS
 10
9.0015487504
 20
10.1263185558
 11
8.9882154166
 21
10.1213185558
  0
LINE
  5
264
100
AcDbEntity
  8
03__ASM_ALL_CURVES
100
AcDbLine
 62
4
  6
CONTINUOUS
 10
9.104215419
 20
10.1563185558
 11
9.1175487492
 21
10.1613185558
  0
LINE
  5
265
100
AcDbEntity
  8
03__ASM_ALL_CURVES
100
AcDbLine
 62
4
  6
CONTINUOUS
 10
9.1308820841
 20
10.1263185558
 11
9.1175487492
 21
10.1213185558
  0
LINE
  5
266
100
AcDbEntity
  8
03__ASM_ALL_CURVES
100
AcDbLine
 62
4
  6
CONTINUOUS
 10
11.3308820841
 20
7.3063185558
 11
11.3208820841
 21
7.3063185558
  0
LINE
  5
267
100
AcDbEntity
  8
03__ASM_ALL_CURVES
100
AcDbLine
 62
4
  6
CONTINUOUS
 10
11.2508820841
 20
7.3063185558
 11
11.2408820841
 21
7.3063185558
  0
LINE
  5
268
100
AcDbEntity
  8
03__ASM_ALL_CURVES
100
AcDbLine
 62
4
  6
CONTINUOUS
 10
11.1858820841
 20
7.3063185558
 11
11.1783820841
 21
7.3063185558
  0
LINE
  5
269
100
AcDbEntity
  8
03__ASM_ALL_CURVES
100
AcDbLine
 62
4
  6
CONTINUOUS
 10
11.0108820841
 20
7.3063185558
 11
11.0008820841
 21
7.3063185558
  0
LINE
  5
26A
100
AcDbEntity
  8
03__ASM_ALL_CURVES
100
AcDbLine
 62
4
  6
CONTINUOUS
 10
10.6258820841
 20
7.3063185558
 11
10.6183820841
 21
7.3063185558
  0
LINE
  5
26B
100
AcDbEntity
  8
03__ASM_ALL_CURVES
100
AcDbLine
 62
4
  6
CONTINUOUS
 10
10.6658820841
 20
7.3263185558
 11
10.7108820841
 21
7.3263185558
  0
LINE
  5
26C
100
AcDbEntity
  8
03__ASM_ALL_CURVES
100
AcDbLine
 62
4
  6
CONTINUOUS
 10
10.0858820841
 20
7.3463185558
 11
10.3258820841
 21
7.3463185558
  0
LINE
  5
26D
100
AcDbEntity
  8
03__ASM_ALL_CURVES
100
AcDbLine
 62
4
  6
CONTINUOUS
 10
11.0008820841
 20
7.3529852208
 11
11.0108820841
 21
7.3529852208
  0
LINE
  5
26E
100
AcDbEntity
  8
03__ASM_ALL_CURVES
100
AcDbLine
 62
4
  6
CONTINUOUS
 10
11.2408820841
 20
7.3529852208
 11
11.2508820841
 21
7.3529852208
  0
LINE
  5
26F
100
AcDbEntity
  8
03__ASM_ALL_CURVES
100
AcDbLine
 62
4
  6
CONTINUOUS
 10
11.3208820841
 20
7.3529852208
 11
11.3308820841
 21
7.3529852208
  0
LINE
  5
270
100
AcDbEntity
  8
03__ASM_ALL_CURVES
100
AcDbLine
 62
4
  6
CONTINUOUS
 10
8.968215419
 20
10.1413185558
 11
8.9748820841
 21
10.1563185558
  0
LINE
  5
271
100
AcDbEntity
  8
03__ASM_ALL_CURVES
100
AcDbLine
 62
4
  6
CONTINUOUS
 10
8.968215419
 20
9.9013185558
 11
8.9748820841
 21
9.9163185558
  0
LINE
  5
272
100
AcDbEntity
  8
03__ASM_ALL_CURVES
100
AcDbLine
 62
4
  6
CONTINUOUS
 10
9.0908820841
 20
10.1413185558
 11
9.0975487492
 21
10.1513185558
  0
LINE
  5
273
100
AcDbEntity
  8
03__ASM_ALL_CURVES
100
AcDbLine
 62
4
  6
CONTINUOUS
 10
8.9348820841
 20
9.9013185558
 11
8.9415487492
 21
9.9113185558
  0
LINE
  5
274
100
AcDbEntity
  8
03__ASM_ALL_CURVES
100
AcDbLine
 62
4
  6
CONTINUOUS
 10
9.0908820841
 20
10.0613185558
 11
9.0975487492
 21
10.0713185558
  0
LINE
  5
275
100
AcDbEntity
  8
03__ASM_ALL_CURVES
100
AcDbLine
 62
4
  6
CONTINUOUS
 10
8.9348820841
 20
9.8263185558
 11
8.9415487492
 21
9.8363185558
  0
LINE
  5
276
100
AcDbEntity
  8
03__ASM_ALL_CURVES
100
AcDbLine
 62
4
  6
CONTINUOUS
 10
9.1708820841
 20
10.1413185558
 11
9.1642154172
 21
10.1313185558
  0
LINE
  5
277
100
AcDbEntity
  8
03__ASM_ALL_CURVES
100
AcDbLine
 62
4
  6
CONTINUOUS
 10
9.0148820841
 20
9.9013185558
 11
9.0082154172
 21
9.8913185558
  0
LINE
  5
278
100
AcDbEntity
  8
03__ASM_ALL_CURVES
100
AcDbLine
 62
4
  6
CONTINUOUS
 10
9.1708820841
 20
10.0613185558
 11
9.1642154172
 21
10.0513185558
  0
LINE
  5
279
100
AcDbEntity
  8
03__ASM_ALL_CURVES
100
AcDbLine
 62
4
  6
CONTINUOUS
 10
9.0908820841
 20
9.9063185558
 11
9.0975487492
 21
9.9163185558
  0
LINE
  5
27A
100
AcDbEntity
  8
03__ASM_ALL_CURVES
100
AcDbLine
 62
4
  6
CONTINUOUS
 10
8.9415487492
 20
9.9113185558
 11
8.948215419
 21
9.9163185558
  0
LINE
  5
27B
100
AcDbEntity
  8
03__ASM_ALL_CURVES
100
AcDbLine
 62
4
  6
CONTINUOUS
 10
9.1642154172
 20
10.0513185558
 11
9.1575487504
 21
10.0463185558
  0
LINE
  5
27C
100
AcDbEntity
  8
03__ASM_ALL_CURVES
100
AcDbLine
 62
4
  6
CONTINUOUS
 10
9.0082154172
 20
9.8913185558
 11
9.0015487504
 21
9.8863185558
  0
LINE
  5
27D
100
AcDbEntity
  8
03__ASM_ALL_CURVES
100
AcDbLine
 62
4
  6
CONTINUOUS
 10
8.9415487492
 20
9.8363185558
 11
8.948215419
 21
9.8413185558
  0
LINE
  5
27E
100
AcDbEntity
  8
03__ASM_ALL_CURVES
100
AcDbLine
 62
4
  6
CONTINUOUS
 10
9.1608820838
 20
9.9938185558
 11
9.1708820841
 21
10.0013185558
  0
LINE
  5
27F
100
AcDbEntity
  8
03__ASM_ALL_CURVES
100
AcDbLine
 62
4
  6
CONTINUOUS
 10
9.0975487492
 20
9.9163185558
 11
9.104215419
 21
9.9213185558
  0
LINE
  5
280
100
AcDbEntity
  8
03__ASM_ALL_CURVES
100
AcDbLine
 62
4
  6
CONTINUOUS
 10
9.0975487492
 20
9.8363185558
 11
9.104215419
 21
9.8413185558
  0
LINE
  5
281
100
AcDbEntity
  8
03__ASM_ALL_CURVES
100
AcDbLine
 62
4
  6
CONTINUOUS
 10
9.104215419
 20
10.0763185558
 11
9.1175487492
 21
10.0813185558
  0
LINE
  5
282
100
AcDbEntity
  8
03__ASM_ALL_CURVES
100
AcDbLine
 62
4
  6
CONTINUOUS
 10
9.1575487504
 20
10.0463185558
 11
9.1442154166
 21
10.0413185558
  0
LINE
  5
283
100
AcDbEntity
  8
03__ASM_ALL_CURVES
100
AcDbLine
 62
4
  6
CONTINUOUS
 10
8.9748820841
 20
9.9163185558
 11
8.9882154166
 21
9.9213185558
  0
LINE
  5
284
100
AcDbEntity
  8
03__ASM_ALL_CURVES
100
AcDbLine
 62
4
  6
CONTINUOUS
 10
11.1058820841
 20
7.3863185558
 11
11.0658820841
 21
7.3863185558
  0
LINE
  5
285
100
AcDbEntity
  8
03__ASM_ALL_CURVES
100
AcDbLine
 62
4
  6
CONTINUOUS
 10
10.7858820841
 20
7.3863185558
 11
10.7458820841
 21
7.3863185558
  0
LINE
  5
286
100
AcDbEntity
  8
03__ASM_ALL_CURVES
100
AcDbLine
 62
4
  6
CONTINUOUS
 10
11.0008820841
 20
7.3863185558
 11
11.0108820841
 21
7.3863185558
  0
LINE
  5
287
100
AcDbEntity
  8
03__ASM_ALL_CURVES
100
AcDbLine
 62
4
  6
CONTINUOUS
 10
11.2408820841
 20
7.3863185558
 11
11.2508820841
 21
7.3863185558
  0
LINE
  5
288
100
AcDbEntity
  8
03__ASM_ALL_CURVES
100
AcDbLine
 62
4
  6
CONTINUOUS
 10
11.3208820841
 20
7.3863185558
 11
11.3308820841
 21
7.3863185558
  0
LINE
  5
289
100
AcDbEntity
  8
0
100
AcDbLine
 62
7
  6
CONTINUOUS
 10
8.3488820841
 20
7.5123185319
 11
8.3178820841
 21
7.5123185319
  0
LINE
  5
28A
100
AcDbEntity
  8
0
100
AcDbLine
 62
7
  6
CONTINUOUS
 10
9.9118820841
 20
7.5123185319
 11
9.9428820841
 21
7.5123185319
  0
LINE
  5
28B
100
AcDbEntity
  8
0
100
AcDbLine
 62
7
  6
CONTINUOUS
 10
8.6928820841
 20
7.1683185319
 11
8.6928820841
 21
7.1373185319
  0
LINE
  5
28C
100
AcDbEntity
  8
0
100
AcDbLine
 62
7
  6
CONTINUOUS
 10
8.6928820841
 20
8.7743185319
 11
8.6928820841
 21
8.8053185319
  0
LINE
  5
28D
100
AcDbEntity
  8
03__ASM_ALL_CURVES
100
AcDbLine
 62
4
  6
CONTINUOUS
 10
9.1375487516
 20
10.1413185558
 11
9.1308820841
 21
10.1263185558
  0
LINE
  5
28E
100
AcDbEntity
  8
03__ASM_ALL_CURVES
100
AcDbLine
 62
4
  6
CONTINUOUS
 10
9.0908820841
 20
9.8263185558
 11
9.0975487492
 21
9.8363185558
  0
LINE
  5
28F
100
AcDbEntity
  8
03__ASM_ALL_CURVES
100
AcDbLine
 62
4
  6
CONTINUOUS
 10
8.9348820841
 20
9.5863185558
 11
8.9415487492
 21
9.5963185558
  0
LINE
  5
290
100
AcDbEntity
  8
03__ASM_ALL_CURVES
100
AcDbLine
 62
4
  6
CONTINUOUS
 10
8.968215419
 20
9.5863185558
 11
8.9748820841
 21
9.5963185558
  0
LINE
  5
291
100
AcDbEntity
  8
03__ASM_ALL_CURVES
100
AcDbLine
 62
4
  6
CONTINUOUS
 10
8.9348820841
 20
9.5013185558
 11
8.9415487492
 21
9.5113185558
  0
LINE
  5
292
100
AcDbEntity
  8
03__ASM_ALL_CURVES
100
AcDbLine
 62
4
  6
CONTINUOUS
 10
9.0148820841
 20
9.5763185558
 11
9.0082154172
 21
9.5663185558
  0
LINE
  5
293
100
AcDbEntity
  8
03__ASM_ALL_CURVES
100
AcDbLine
 62
4
  6
CONTINUOUS
 10
9.0148820841
 20
9.5013185558
 11
9.0082154172
 21
9.4913185558
  0
LINE
  5
294
100
AcDbEntity
  8
03__ASM_ALL_CURVES
100
AcDbLine
 62
4
  6
CONTINUOUS
 10
9.0015487504
 20
9.7363185558
 11
9.0148820841
 21
9.7463185558
  0
LINE
  5
295
100
AcDbEntity
  8
03__ASM_ALL_CURVES
100
AcDbLine
 62
4
  6
CONTINUOUS
 10
8.9415487492
 20
9.5963185558
 11
8.948215419
 21
9.6013185558
  0
LINE
  5
296
100
AcDbEntity
  8
03__ASM_ALL_CURVES
100
AcDbLine
 62
4
  6
CONTINUOUS
 10
9.1575487504
 20
9.7363185558
 11
9.1708820841
 21
9.7463185558
  0
LINE
  5
297
100
AcDbEntity
  8
03__ASM_ALL_CURVES
100
AcDbLine
 62
4
  6
CONTINUOUS
 10
8.9748820841
 20
9.5963185558
 11
8.9882154166
 21
9.6063185558
  0
LINE
  5
298
100
AcDbEntity
  8
03__ASM_ALL_CURVES
100
AcDbLine
 62
4
  6
CONTINUOUS
 10
9.0082154172
 20
9.5663185558
 11
9.0015487504
 21
9.5613185558
  0
LINE
  5
299
100
AcDbEntity
  8
03__ASM_ALL_CURVES
100
AcDbLine
 62
4
  6
CONTINUOUS
 10
8.9415487492
 20
9.5113185558
 11
8.948215419
 21
9.5163185558
  0
LINE
  5
29A
100
AcDbEntity
  8
03__ASM_ALL_CURVES
100
AcDbLine
 62
4
  6
CONTINUOUS
 10
9.0015487504
 20
9.8863185558
 11
8.9882154166
 21
9.8813185558
  0
LINE
  5
29B
100
AcDbEntity
  8
03__ASM_ALL_CURVES
100
AcDbLine
 62
4
  6
CONTINUOUS
 10
8.2558820841
 20
9.6013185558
 11
8.2692154166
 21
9.6063185558
  0
LINE
  5
29C
100
AcDbEntity
  8
03__ASM_ALL_CURVES
100
AcDbLine
 62
4
  6
CONTINUOUS
 10
8.9348820841
 20
9.5763185558
 11
8.9348820841
 21
9.5863185558
  0
LINE
  5
29D
100
AcDbEntity
  8
03__ASM_ALL_CURVES
100
AcDbLine
 62
4
  6
CONTINUOUS
 10
8.9348820841
 20
9.8163185558
 11
8.9348820841
 21
9.8263185558
  0
LINE
  5
29E
100
AcDbEntity
  8
03__ASM_ALL_CURVES
100
AcDbLine
 62
4
  6
CONTINUOUS
 10
8.968215419
 20
9.5763185558
 11
8.968215419
 21
9.5863185558
  0
LINE
  5
29F
100
AcDbEntity
  8
03__ASM_ALL_CURVES
100
AcDbLine
 62
4
  6
CONTINUOUS
 10
8.9748820841
 20
8.9013185558
 11
8.9748820841
 21
9.1413185558
  0
LINE
  5
2A0
100
AcDbEntity
  8
03__ASM_ALL_CURVES
100
AcDbLine
 62
4
  6
CONTINUOUS
 10
9.0148820841
 20
10.0013185558
 11
9.0148820841
 21
9.9938185558
  0
LINE
  5
2A1
100
AcDbEntity
  8
03__ASM_ALL_CURVES
100
AcDbLine
 62
4
  6
CONTINUOUS
 10
9.0148820841
 20
9.5863185558
 11
9.0148820841
 21
9.5763185558
  0
LINE
  5
2A2
100
AcDbEntity
  8
03__ASM_ALL_CURVES
100
AcDbLine
 62
4
  6
CONTINUOUS
 10
9.0148820841
 20
9.4413185558
 11
9.0148820841
 21
9.4338185558
  0
LINE
  5
2A3
100
AcDbEntity
  8
03__ASM_ALL_CURVES
100
AcDbLine
 62
4
  6
CONTINUOUS
 10
9.0148820841
 20
9.8013185558
 11
9.0148820841
 21
9.8413185558
  0
LINE
  5
2A4
100
AcDbEntity
  8
03__ASM_ALL_CURVES
100
AcDbLine
 62
4
  6
CONTINUOUS
 10
9.0908820841
 20
9.5063185558
 11
9.0975487492
 21
9.5163185558
  0
LINE
  5
2A5
100
AcDbEntity
  8
03__ASM_ALL_CURVES
100
AcDbLine
 62
4
  6
CONTINUOUS
 10
9.124215419
 20
9.5063185558
 11
9.1308820841
 21
9.5163185558
  0
LINE
  5
2A6
100
AcDbEntity
  8
03__ASM_ALL_CURVES
100
AcDbLine
 62
4
  6
CONTINUOUS
 10
9.124215419
 20
9.4963185558
 11
9.1175487492
 21
9.4863185558
  0
LINE
  5
2A7
100
AcDbEntity
  8
03__ASM_ALL_CURVES
100
AcDbLine
 62
4
  6
CONTINUOUS
 10
9.1708820841
 20
9.4963185558
 11
9.1642154172
 21
9.4863185558
  0
LINE
  5
2A8
100
AcDbEntity
  8
03__ASM_ALL_CURVES
100
AcDbLine
 62
4
  6
CONTINUOUS
 10
9.0908820841
 20
9.3413185558
 11
9.0975487492
 21
9.3513185558
  0
LINE
  5
2A9
100
AcDbEntity
  8
03__ASM_ALL_CURVES
100
AcDbLine
 62
4
  6
CONTINUOUS
 10
9.0082154172
 20
9.4913185558
 11
9.0015487504
 21
9.4863185558
  0
LINE
  5
2AA
100
AcDbEntity
  8
03__ASM_ALL_CURVES
100
AcDbLine
 62
4
  6
CONTINUOUS
 10
9.0975487492
 20
9.5163185558
 11
9.104215419
 21
9.5213185558
  0
LINE
  5
2AB
100
AcDbEntity
  8
03__ASM_ALL_CURVES
100
AcDbLine
 62
4
  6
CONTINUOUS
 10
9.0048820838
 20
9.4338185558
 11
9.0148820841
 21
9.4413185558
  0
LINE
  5
2AC
100
AcDbEntity
  8
03__ASM_ALL_CURVES
100
AcDbLine
 62
4
  6
CONTINUOUS
 10
9.1308820841
 20
9.5163185558
 11
9.1442154166
 21
9.5263185558
  0
LINE
  5
2AD
100
AcDbEntity
  8
03__ASM_ALL_CURVES
100
AcDbLine
 62
4
  6
CONTINUOUS
 10
9.1175487492
 20
9.4863185558
 11
9.1108820841
 21
9.4813185558
  0
LINE
  5
2AE
100
AcDbEntity
  8
03__ASM_ALL_CURVES
100
AcDbLine
 62
4
  6
CONTINUOUS
 10
9.1642154172
 20
9.4863185558
 11
9.1508820841
 21
9.4763185558
  0
LINE
  5
2AF
100
AcDbEntity
  8
03__ASM_ALL_CURVES
100
AcDbLine
 62
4
  6
CONTINUOUS
 10
8.948215419
 20
9.5163185558
 11
8.9615487492
 21
9.5213185558
  0
LINE
  5
2B0
100
AcDbEntity
  8
03__ASM_ALL_CURVES
100
AcDbLine
 62
4
  6
CONTINUOUS
 10
8.249215419
 20
9.5663185558
 11
8.2425487492
 21
9.5763185558
  0
LINE
  5
2B1
100
AcDbEntity
  8
03__ASM_ALL_CURVES
100
AcDbLine
 62
4
  6
CONTINUOUS
 10
8.2892154172
 20
9.5963185558
 11
8.2958820841
 21
9.5863185558
  0
LINE
  5
2B2
100
AcDbEntity
  8
03__ASM_ALL_CURVES
100
AcDbLine
 62
4
  6
CONTINUOUS
 10
9.0908820841
 20
9.6013185558
 11
9.0908820841
 21
9.5613185558
  0
LINE
  5
2B3
100
AcDbEntity
  8
03__ASM_ALL_CURVES
100
AcDbLine
 62
4
  6
CONTINUOUS
 10
9.0908820841
 20
9.4963185558
 11
9.0908820841
 21
9.5063185558
  0
LINE
  5
2B4
100
AcDbEntity
  8
03__ASM_ALL_CURVES
100
AcDbLine
 62
4
  6
CONTINUOUS
 10
9.0908820841
 20
9.8163185558
 11
9.0908820841
 21
9.8263185558
  0
LINE
  5
2B5
100
AcDbEntity
  8
03__ASM_ALL_CURVES
100
AcDbLine
 62
4
  6
CONTINUOUS
 10
9.0908820841
 20
9.8963185558
 11
9.0908820841
 21
9.9063185558
  0
LINE
  5
2B6
100
AcDbEntity
  8
03__ASM_ALL_CURVES
100
AcDbLine
 62
4
  6
CONTINUOUS
 10
9.124215419
 20
9.4963185558
 11
9.124215419
 21
9.5063185558
  0
LINE
  5
2B7
100
AcDbEntity
  8
03__ASM_ALL_CURVES
100
AcDbLine
 62
4
  6
CONTINUOUS
 10
9.1308820841
 20
8.9013185558
 11
9.1308820841
 21
9.1413185558
  0
LINE
  5
2B8
100
AcDbEntity
  8
03__ASM_ALL_CURVES
100
AcDbLine
 62
4
  6
CONTINUOUS
 10
9.1708820841
 20
10.0013185558
 11
9.1708820841
 21
9.9938185558
  0
LINE
  5
2B9
100
AcDbEntity
  8
03__ASM_ALL_CURVES
100
AcDbLine
 62
4
  6
CONTINUOUS
 10
9.1708820841
 20
9.5063185558
 11
9.1708820841
 21
9.4963185558
  0
LINE
  5
2BA
100
AcDbEntity
  8
03__ASM_ALL_CURVES
100
AcDbLine
 62
4
  6
CONTINUOUS
 10
9.1708820841
 20
9.4413185558
 11
9.1708820841
 21
9.4338185558
  0
LINE
  5
2BB
100
AcDbEntity
  8
03__ASM_ALL_CURVES
100
AcDbLine
 62
4
  6
CONTINUOUS
 10
9.1708820841
 20
9.8013185558
 11
9.1708820841
 21
9.8413185558
  0
LINE
  5
2BC
100
AcDbEntity
  8
03__ASM_ALL_CURVES
100
AcDbLine
 62
4
  6
CONTINUOUS
 10
9.1708820841
 20
9.8813185558
 11
9.1708820841
 21
9.9213185558
  0
LINE
  5
2BD
100
AcDbEntity
  8
03__ASM_ALL_CURVES
100
AcDbLine
 62
4
  6
CONTINUOUS
 10
9.1708820841
 20
9.3413185558
 11
9.1642154172
 21
9.3313185558
  0
LINE
  5
2BE
100
AcDbEntity
  8
03__ASM_ALL_CURVES
100
AcDbLine
 62
4
  6
CONTINUOUS
 10
9.1608820838
 20
9.4338185558
 11
9.1708820841
 21
9.4413185558
  0
LINE
  5
2BF
100
AcDbEntity
  8
03__ASM_ALL_CURVES
100
AcDbLine
 62
4
  6
CONTINUOUS
 10
9.0975487492
 20
9.3513185558
 11
9.104215419
 21
9.3563185558
  0
LINE
  5
2C0
100
AcDbEntity
  8
03__ASM_ALL_CURVES
100
AcDbLine
 62
4
  6
CONTINUOUS
 10
9.1642154172
 20
9.3313185558
 11
9.1575487504
 21
9.3263185558
  0
LINE
  5
2C1
100
AcDbEntity
  8
03__ASM_ALL_CURVES
100
AcDbLine
 62
4
  6
CONTINUOUS
 10
9.0015487504
 20
9.4863185558
 11
8.9882154166
 21
9.4813185558
  0
LINE
  5
2C2
100
AcDbEntity
  8
03__ASM_ALL_CURVES
100
AcDbLine
 62
4
  6
CONTINUOUS
 10
11.2508820841
 20
7.9313185558
 11
11.2408820841
 21
7.9313185558
  0
LINE
  5
2C3
100
AcDbEntity
  8
03__ASM_ALL_CURVES
100
AcDbLine
 62
4
  6
CONTINUOUS
 10
11.1858820841
 20
7.9313185558
 11
11.1783820841
 21
7.9313185558
  0
LINE
  5
2C4
100
AcDbEntity
  8
03__ASM_ALL_CURVES
100
AcDbLine
 62
4
  6
CONTINUOUS
 10
10.7708820841
 20
7.9313185558
 11
10.7608820841
 21
7.9313185558
  0
LINE
  5
2C5
100
AcDbEntity
  8
03__ASM_ALL_CURVES
100
AcDbLine
 62
4
  6
CONTINUOUS
 10
10.6908820841
 20
7.9313185558
 11
10.6808820841
 21
7.9313185558
  0
LINE
  5
2C6
100
AcDbEntity
  8
03__ASM_ALL_CURVES
100
AcDbLine
 62
4
  6
CONTINUOUS
 10
10.6258820841
 20
7.9313185558
 11
10.6183820841
 21
7.9313185558
  0
LINE
  5
2C7
100
AcDbEntity
  8
03__ASM_ALL_CURVES
100
AcDbLine
 62
4
  6
CONTINUOUS
 10
10.9858820841
 20
7.9313185558
 11
11.0258820841
 21
7.9313185558
  0
LINE
  5
2C8
100
AcDbEntity
  8
03__ASM_ALL_CURVES
100
AcDbLine
 62
4
  6
CONTINUOUS
 10
10.0858820841
 20
7.9713185558
 11
10.3258820841
 21
7.9713185558
  0
LINE
  5
2C9
100
AcDbEntity
  8
03__ASM_ALL_CURVES
100
AcDbLine
 62
4
  6
CONTINUOUS
 10
10.6808820841
 20
7.9779852208
 11
10.6908820841
 21
7.9779852208
  0
LINE
  5
2CA
100
AcDbEntity
  8
03__ASM_ALL_CURVES
100
AcDbLine
 62
4
  6
CONTINUOUS
 10
10.7608820841
 20
7.9846518907
 11
10.7708820841
 21
7.9846518907
  0
LINE
  5
2CB
100
AcDbEntity
  8
03__ASM_ALL_CURVES
100
AcDbLine
 62
4
  6
CONTINUOUS
 10
11.2408820841
 20
7.9846518907
 11
11.2508820841
 21
7.9846518907
  0
LINE
  5
2CC
100
AcDbEntity
  8
03__ASM_ALL_CURVES
100
AcDbLine
 62
4
  6
CONTINUOUS
 10
11.2658820841
 20
8.0113185558
 11
11.2358820841
 21
8.0113185558
  0
LINE
  5
2CD
100
AcDbEntity
  8
03__ASM_ALL_CURVES
100
AcDbLine
 62
4
  6
CONTINUOUS
 10
10.7858820841
 20
8.0113185558
 11
10.7558820841
 21
8.0113185558
  0
LINE
  5
2CE
100
AcDbEntity
  8
03__ASM_ALL_CURVES
100
AcDbLine
 62
4
  6
CONTINUOUS
 10
10.6808820841
 20
8.0113185558
 11
10.6908820841
 21
8.0113185558
  0
LINE
  5
2CF
100
AcDbEntity
  8
03__ASM_ALL_CURVES
100
AcDbLine
 62
4
  6
CONTINUOUS
 10
11.0008820841
 20
8.0113185558
 11
11.0108820841
 21
8.0113185558
  0
LINE
  5
2D0
100
AcDbEntity
  8
03__ASM_ALL_CURVES
100
AcDbLine
 62
4
  6
CONTINUOUS
 10
11.0008820841
 20
7.0813185558
 11
10.9908820841
 21
7.0879852226
  0
LINE
  5
2D1
100
AcDbEntity
  8
03__ASM_ALL_CURVES
100
AcDbLine
 62
4
  6
CONTINUOUS
 10
11.0108820841
 20
7.1279852208
 11
11.0208820841
 21
7.1213185558
  0
LINE
  5
2D2
100
AcDbEntity
  8
03__ASM_ALL_CURVES
100
AcDbLine
 62
4
  6
CONTINUOUS
 10
11.0108820841
 20
7.1613185558
 11
11.0208820841
 21
7.1546518907
  0
LINE
  5
2D3
100
AcDbEntity
  8
03__ASM_ALL_CURVES
100
AcDbLine
 62
4
  6
CONTINUOUS
 10
9.104215419
 20
9.3563185558
 11
9.1175487492
 21
9.3613185558
  0
LINE
  5
2D4
100
AcDbEntity
  8
03__ASM_ALL_CURVES
100
AcDbLine
 62
4
  6
CONTINUOUS
 10
9.1575487504
 20
9.3263185558
 11
9.1442154166
 21
9.3213185558
  0
LINE
  5
2D5
100
AcDbEntity
  8
03__ASM_ALL_CURVES
100
AcDbLine
 62
4
  6
CONTINUOUS
 10
11.2408820841
 20
7.0813185558
 11
11.2308820841
 21
7.0879852226
  0
LINE
  5
2D6
100
AcDbEntity
  8
03__ASM_ALL_CURVES
100
AcDbLine
 62
4
  6
CONTINUOUS
 10
11.2408820841
 20
7.1279852208
 11
11.2308820841
 21
7.1346518907
  0
LINE
  5
2D7
100
AcDbEntity
  8
03__ASM_ALL_CURVES
100
AcDbLine
 62
4
  6
CONTINUOUS
 10
11.2508820841
 20
7.1279852208
 11
11.2608820841
 21
7.1213185558
  0
LINE
  5
2D8
100
AcDbEntity
  8
03__ASM_ALL_CURVES
100
AcDbLine
 62
4
  6
CONTINUOUS
 10
11.0008820841
 20
7.3063185558
 11
10.9908820841
 21
7.3129852226
  0
LINE
  5
2D9
100
AcDbEntity
  8
03__ASM_ALL_CURVES
100
AcDbLine
 62
4
  6
CONTINUOUS
 10
11.2508820841
 20
7.1613185558
 11
11.2608820841
 21
7.1546518907
  0
LINE
  5
2DA
100
AcDbEntity
  8
03__ASM_ALL_CURVES
100
AcDbLine
 62
4
  6
CONTINUOUS
 10
11.0108820841
 20
7.3529852208
 11
11.0208820841
 21
7.3463185558
  0
LINE
  5
2DB
100
AcDbEntity
  8
03__ASM_ALL_CURVES
100
AcDbLine
 62
4
  6
CONTINUOUS
 10
11.0108820841
 20
7.3863185558
 11
11.0208820841
 21
7.3796518907
  0
LINE
  5
2DC
100
AcDbEntity
  8
03__ASM_ALL_CURVES
100
AcDbLine
 62
4
  6
CONTINUOUS
 10
11.2408820841
 20
7.3063185558
 11
11.2308820841
 21
7.3129852226
  0
LINE
  5
2DD
100
AcDbEntity
  8
03__ASM_ALL_CURVES
100
AcDbLine
 62
4
  6
CONTINUOUS
 10
11.2508820841
 20
7.3529852208
 11
11.2608820841
 21
7.3463185558
  0
LINE
  5
2DE
100
AcDbEntity
  8
03__ASM_ALL_CURVES
100
AcDbLine
 62
4
  6
CONTINUOUS
 10
11.3208820841
 20
7.3063185558
 11
11.3108820841
 21
7.3129852226
  0
LINE
  5
2DF
100
AcDbEntity
  8
03__ASM_ALL_CURVES
100
AcDbLine
 62
4
  6
CONTINUOUS
 10
11.2508820841
 20
7.3863185558
 11
11.2608820841
 21
7.3796518907
  0
LINE
  5
2E0
100
AcDbEntity
  8
03__ASM_ALL_CURVES
100
AcDbLine
 62
4
  6
CONTINUOUS
 10
11.3308820841
 20
7.3529852208
 11
11.3408820841
 21
7.3463185558
  0
LINE
  5
2E1
100
AcDbEntity
  8
03__ASM_ALL_CURVES
100
AcDbLine
 62
4
  6
CONTINUOUS
 10
11.3308820841
 20
7.3863185558
 11
11.3408820841
 21
7.3796518907
  0
LINE
  5
2E2
100
AcDbEntity
  8
03__ASM_ALL_CURVES
100
AcDbLine
 62
4
  6
CONTINUOUS
 10
10.5258820841
 20
7.9313185558
 11
10.5158820841
 21
7.9379852226
  0
LINE
  5
2E3
100
AcDbEntity
  8
03__ASM_ALL_CURVES
100
AcDbLine
 62
4
  6
CONTINUOUS
 10
10.6183820841
 20
7.0913185561
 11
10.6258820841
 21
7.0813185558
  0
LINE
  5
2E4
100
AcDbEntity
  8
03__ASM_ALL_CURVES
100
AcDbLine
 62
4
  6
CONTINUOUS
 10
8.9415487492
 20
9.4913185558
 11
8.9348820841
 21
9.5013185558
  0
LINE
  5
2E5
100
AcDbEntity
  8
03__ASM_ALL_CURVES
100
AcDbLine
 62
4
  6
CONTINUOUS
 10
9.0975487492
 20
9.3313185558
 11
9.0908820841
 21
9.3413185558
  0
LINE
  5
2E6
100
AcDbEntity
  8
03__ASM_ALL_CURVES
100
AcDbLine
 62
4
  6
CONTINUOUS
 10
8.9415487492
 20
9.5663185558
 11
8.9348820841
 21
9.5763185558
  0
LINE
  5
2E7
100
AcDbEntity
  8
03__ASM_ALL_CURVES
100
AcDbLine
 62
4
  6
CONTINUOUS
 10
8.9748820841
 20
9.8863185558
 11
8.968215419
 21
9.9013185558
  0
LINE
  5
2E8
100
AcDbEntity
  8
0
100
AcDbLine
 62
7
  6
CONTINUOUS
 10
9.5678820841
 20
7.1683185319
 11
9.5678820841
 21
7.1373185319
  0
LINE
  5
2E9
100
AcDbEntity
  8
0
100
AcDbLine
 62
7
  6
CONTINUOUS
 10
9.5678820841
 20
8.7743185319
 11
9.5678820841
 21
8.8053185319
  0
LINE
  5
2EA
100
AcDbEntity
  8
03__ASM_ALL_CURVES
100
AcDbLine
 62
4
  6
CONTINUOUS
 10
9.9725487492
 20
9.3513185558
 11
9.979215419
 21
9.3563185558
  0
LINE
  5
2EB
100
AcDbEntity
  8
03__ASM_ALL_CURVES
100
AcDbLine
 62
4
  6
CONTINUOUS
 10
10.0392154172
 20
9.3313185558
 11
10.0325487504
 21
9.3263185558
  0
LINE
  5
2EC
100
AcDbEntity
  8
03__ASM_ALL_CURVES
100
AcDbLine
 62
4
  6
CONTINUOUS
 10
9.979215419
 20
9.3563185558
 11
9.9925487492
 21
9.3613185558
  0
LINE
  5
2ED
100
AcDbEntity
  8
03__ASM_ALL_CURVES
100
AcDbLine
 62
4
  6
CONTINUOUS
 10
10.0325487504
 20
9.3263185558
 11
10.0192154166
 21
9.3213185558
  0
LINE
  5
2EE
100
AcDbEntity
  8
0
100
AcDbLine
 62
7
  6
CONTINUOUS
 10
8.3488820841
 20
8.4303185319
 11
8.3178820841
 21
8.4303185319
  0
LINE
  5
2EF
100
AcDbEntity
  8
0
100
AcDbLine
 62
7
  6
CONTINUOUS
 10
9.9118820841
 20
8.4303185319
 11
9.9428820841
 21
8.4303185319
  0
LINE
  5
2F0
100
AcDbEntity
  8
03__ASM_ALL_CURVES
100
AcDbLine
 62
4
  6
CONTINUOUS
 10
10.5258820841
 20
8.0113185558
 11
10.5358820841
 21
8.0046518907
  0
LINE
  5
2F1
100
AcDbEntity
  8
03__ASM_ALL_CURVES
100
AcDbLine
 62
4
  6
CONTINUOUS
 10
10.6808820841
 20
7.9313185558
 11
10.6708820841
 21
7.9379852226
  0
LINE
  5
2F2
100
AcDbEntity
  8
03__ASM_ALL_CURVES
100
AcDbLine
 62
4
  6
CONTINUOUS
 10
10.6808820841
 20
7.9779852208
 11
10.6708820841
 21
7.9846518907
  0
LINE
  5
2F3
100
AcDbEntity
  8
03__ASM_ALL_CURVES
100
AcDbLine
 62
4
  6
CONTINUOUS
 10
10.6908820841
 20
7.9779852208
 11
10.7008820841
 21
7.9713185558
  0
LINE
  5
2F4
100
AcDbEntity
  8
03__ASM_ALL_CURVES
100
AcDbLine
 62
4
  6
CONTINUOUS
 10
10.7608820841
 20
7.9313185558
 11
10.7508820841
 21
7.9379852226
  0
LINE
  5
2F5
100
AcDbEntity
  8
03__ASM_ALL_CURVES
100
AcDbLine
 62
4
  6
CONTINUOUS
 10
10.6908820841
 20
8.0113185558
 11
10.7008820841
 21
8.0046518907
  0
LINE
  5
2F6
100
AcDbEntity
  8
03__ASM_ALL_CURVES
100
AcDbLine
 62
4
  6
CONTINUOUS
 10
8.2825487504
 20
9.6013185558
 11
8.2892154172
 21
9.5963185558
  0
LINE
  5
2F7
100
AcDbEntity
  8
03__ASM_ALL_CURVES
100
AcDbLine
 62
4
  6
CONTINUOUS
 10
8.2158820841
 20
9.7463185558
 11
8.229215419
 21
9.7363185558
  0
LINE
  5
2F8
100
AcDbEntity
  8
03__ASM_ALL_CURVES
100
AcDbLine
 62
4
  6
CONTINUOUS
 10
10.6183820841
 20
7.3163185561
 11
10.6258820841
 21
7.3063185558
  0
LINE
  5
2F9
100
AcDbEntity
  8
03__ASM_ALL_CURVES
100
AcDbLine
 62
4
  6
CONTINUOUS
 10
10.8408820841
 20
7.0946518895
 11
10.8508820841
 21
7.0813185558
  0
LINE
  5
2FA
100
AcDbEntity
  8
03__ASM_ALL_CURVES
100
AcDbLine
 62
4
  6
CONTINUOUS
 10
9.0082154172
 20
9.5113185558
 11
9.0148820841
 21
9.5013185558
  0
LINE
  5
2FB
100
AcDbEntity
  8
03__ASM_ALL_CURVES
100
AcDbLine
 62
4
  6
CONTINUOUS
 10
8.9615487492
 20
9.5963185558
 11
8.968215419
 21
9.5863185558
  0
LINE
  5
2FC
100
AcDbEntity
  8
03__ASM_ALL_CURVES
100
AcDbLine
 62
4
  6
CONTINUOUS
 10
9.1642154172
 20
9.3513185558
 11
9.1708820841
 21
9.3413185558
  0
LINE
  5
2FD
100
AcDbEntity
  8
03__ASM_ALL_CURVES
100
AcDbLine
 62
4
  6
CONTINUOUS
 10
9.0082154172
 20
9.5963185558
 11
9.0148820841
 21
9.5863185558
  0
LINE
  5
2FE
100
AcDbEntity
  8
03__ASM_ALL_CURVES
100
AcDbLine
 62
4
  6
CONTINUOUS
 10
9.0975487492
 20
9.4863185558
 11
9.0908820841
 21
9.4963185558
  0
LINE
  5
2FF
100
AcDbEntity
  8
03__ASM_ALL_CURVES
100
AcDbLine
 62
4
  6
CONTINUOUS
 10
9.1308820841
 20
9.4863185558
 11
9.124215419
 21
9.4963185558
  0
LINE
  5
300
100
AcDbEntity
  8
03__ASM_ALL_CURVES
100
AcDbLine
 62
4
  6
CONTINUOUS
 10
9.1175487492
 20
9.5163185558
 11
9.124215419
 21
9.5063185558
  0
LINE
  5
301
100
AcDbEntity
  8
03__ASM_ALL_CURVES
100
AcDbLine
 62
4
  6
CONTINUOUS
 10
8.9415487492
 20
9.8063185558
 11
8.9348820841
 21
9.8163185558
  0
LINE
  5
302
100
AcDbEntity
  8
03__ASM_ALL_CURVES
100
AcDbLine
 62
4
  6
CONTINUOUS
 10
9.1642154172
 20
9.5163185558
 11
9.1708820841
 21
9.5063185558
  0
LINE
  5
303
100
AcDbEntity
  8
03__ASM_ALL_CURVES
100
AcDbLine
 62
4
  6
CONTINUOUS
 10
8.968215419
 20
9.8363185558
 11
8.9815487516
 21
9.8163185558
  0
LINE
  5
304
100
AcDbEntity
  8
03__ASM_ALL_CURVES
100
AcDbLine
 62
4
  6
CONTINUOUS
 10
8.9415487492
 20
9.8913185558
 11
8.9348820841
 21
9.9013185558
  0
LINE
  5
305
100
AcDbEntity
  8
03__ASM_ALL_CURVES
100
AcDbLine
 62
4
  6
CONTINUOUS
 10
8.9748820841
 20
10.1263185558
 11
8.968215419
 21
10.1413185558
  0
LINE
  5
306
100
AcDbEntity
  8
03__ASM_ALL_CURVES
100
AcDbLine
 62
4
  6
CONTINUOUS
 10
9.9658820841
 20
9.3413185558
 11
9.9725487492
 21
9.3513185558
  0
LINE
  5
307
100
AcDbEntity
  8
03__ASM_ALL_CURVES
100
AcDbLine
 62
4
  6
CONTINUOUS
 10
10.0458820841
 20
9.3413185558
 11
10.0392154172
 21
9.3313185558
  0
LINE
  5
308
100
AcDbEntity
  8
03__ASM_ALL_CURVES
100
AcDbLine
 62
4
  6
CONTINUOUS
 10
11.3258820841
 20
7.9646518883
 11
11.3108820841
 21
7.9713185558
  0
LINE
  5
309
100
AcDbEntity
  8
03__ASM_ALL_CURVES
100
AcDbLine
 62
4
  6
CONTINUOUS
 10
10.7708820841
 20
7.9846518907
 11
10.7808820841
 21
7.9779852208
  0
LINE
  5
30A
100
AcDbEntity
  8
03__ASM_ALL_CURVES
100
AcDbLine
 62
4
  6
CONTINUOUS
 10
11.0108820841
 20
8.0113185558
 11
11.0208820841
 21
8.0046518907
  0
LINE
  5
30B
100
AcDbEntity
  8
03__ASM_ALL_CURVES
100
AcDbLine
 62
4
  6
CONTINUOUS
 10
9.104215419
 20
9.3263185558
 11
9.0975487492
 21
9.3313185558
  0
LINE
  5
30C
100
AcDbEntity
  8
03__ASM_ALL_CURVES
100
AcDbLine
 62
4
  6
CONTINUOUS
 10
10.9908820841
 20
7.0879852226
 11
10.9858820841
 21
7.0946518895
  0
LINE
  5
30D
100
AcDbEntity
  8
03__ASM_ALL_CURVES
100
AcDbLine
 62
4
  6
CONTINUOUS
 10
11.0208820841
 20
7.1213185558
 11
11.0308820841
 21
7.1079852232
  0
LINE
  5
30E
100
AcDbEntity
  8
03__ASM_ALL_CURVES
100
AcDbLine
 62
4
  6
CONTINUOUS
 10
11.0208820841
 20
7.1546518907
 11
11.0258820841
 21
7.1479852208
  0
LINE
  5
30F
100
AcDbEntity
  8
03__ASM_ALL_CURVES
100
AcDbLine
 62
4
  6
CONTINUOUS
 10
10.9208820841
 20
7.3196518895
 11
10.9308820841
 21
7.3063185558
  0
LINE
  5
310
100
AcDbEntity
  8
03__ASM_ALL_CURVES
100
AcDbLine
 62
4
  6
CONTINUOUS
 10
11.0983820841
 20
7.0913185561
 11
11.1058820841
 21
7.0813185558
  0
LINE
  5
311
100
AcDbEntity
  8
03__ASM_ALL_CURVES
100
AcDbLine
 62
4
  6
CONTINUOUS
 10
10.5158820841
 20
7.9379852226
 11
10.5108820841
 21
7.9446518895
  0
LINE
  5
312
100
AcDbEntity
  8
03__ASM_ALL_CURVES
100
AcDbLine
 62
4
  6
CONTINUOUS
 10
10.9908820841
 20
7.3129852226
 11
10.9858820841
 21
7.3196518895
  0
LINE
  5
313
100
AcDbEntity
  8
03__ASM_ALL_CURVES
100
AcDbLine
 62
4
  6
CONTINUOUS
 10
9.0082154172
 20
9.9113185558
 11
9.0148820841
 21
9.9013185558
  0
LINE
  5
314
100
AcDbEntity
  8
03__ASM_ALL_CURVES
100
AcDbLine
 62
4
  6
CONTINUOUS
 10
9.0975487492
 20
9.8063185558
 11
9.0908820841
 21
9.8163185558
  0
LINE
  5
315
100
AcDbEntity
  8
03__ASM_ALL_CURVES
100
AcDbLine
 62
4
  6
CONTINUOUS
 10
9.124215419
 20
9.8363185558
 11
9.1375487516
 21
9.8163185558
  0
LINE
  5
316
100
AcDbEntity
  8
03__ASM_ALL_CURVES
100
AcDbLine
 62
4
  6
CONTINUOUS
 10
9.0975487492
 20
9.8863185558
 11
9.0908820841
 21
9.8963185558
  0
LINE
  5
317
100
AcDbEntity
  8
03__ASM_ALL_CURVES
100
AcDbLine
 62
4
  6
CONTINUOUS
 10
8.9415487492
 20
10.1313185558
 11
8.9348820841
 21
10.1413185558
  0
LINE
  5
318
100
AcDbEntity
  8
03__ASM_ALL_CURVES
100
AcDbLine
 62
4
  6
CONTINUOUS
 10
9.124215419
 20
9.9163185558
 11
9.1375487516
 21
9.8963185558
  0
LINE
  5
319
100
AcDbEntity
  8
03__ASM_ALL_CURVES
100
AcDbLine
 62
4
  6
CONTINUOUS
 10
9.1308820841
 20
10.1563185558
 11
9.1375487516
 21
10.1413185558
  0
LINE
  5
31A
100
AcDbEntity
  8
0
100
AcDbLine
 62
7
  6
CONTINUOUS
 10
9.9118820841
 20
8.4303185319
 11
9.9118820841
 21
7.5123185319
  0
LINE
  5
31B
100
AcDbEntity
  8
0
100
AcDbLine
 62
7
  6
CONTINUOUS
 10
9.9428820841
 20
8.4303185319
 11
9.9428820841
 21
7.5123185319
  0
LINE
  5
31C
100
AcDbEntity
  8
0
100
AcDbLine
 62
7
  6
CONTINUOUS
 10
10.0058820841
 20
8.8213185558
 11
10.0058820841
 21
7.1213185081
  0
LINE
  5
31D
100
AcDbEntity
  8
03__ASM_ALL_CURVES
100
AcDbLine
 62
4
  6
CONTINUOUS
 10
10.0058820841
 20
8.9013185558
 11
10.0058820841
 21
9.1413185558
  0
LINE
  5
31E
100
AcDbEntity
  8
0
100
AcDbLine
 62
7
  6
CONTINUOUS
 10
8.6928820841
 20
8.7743185319
 11
9.5678820841
 21
8.7743185319
  0
LINE
  5
31F
100
AcDbEntity
  8
0
100
AcDbLine
 62
7
  6
CONTINUOUS
 10
8.6928820841
 20
8.8053185319
 11
9.5678820841
 21
8.8053185319
  0
LINE
  5
320
100
AcDbEntity
  8
0
100
AcDbLine
 62
7
  6
CONTINUOUS
 10
10.0058820841
 20
8.8213185558
 11
8.2558820841
 21
8.8213185558
  0
LINE
  5
321
100
AcDbEntity
  8
03__ASM_ALL_CURVES
100
AcDbLine
 62
4
  6
CONTINUOUS
 10
10.0858820841
 20
8.8213185558
 11
10.3258820841
 21
8.8213185558
  0
LINE
  5
322
100
AcDbEntity
  8
03__ASM_ALL_CURVES
100
AcDbLine
 62
4
  6
CONTINUOUS
 10
8.2425487492
 20
9.5113185558
 11
8.2158820841
 21
9.5213185558
  0
LINE
  5
323
100
AcDbEntity
  8
03__ASM_ALL_CURVES
100
AcDbLine
 62
4
  6
CONTINUOUS
 10
8.2158820841
 20
9.8363185558
 11
8.2758820841
 21
9.8013185558
  0
LINE
  5
324
100
AcDbEntity
  8
03__ASM_ALL_CURVES
100
AcDbLine
 62
4
  6
CONTINUOUS
 10
8.2158820841
 20
9.9163185558
 11
8.2758820841
 21
9.8813185558
  0
LINE
  5
325
100
AcDbEntity
  8
03__ASM_ALL_CURVES
100
AcDbLine
 62
4
  6
CONTINUOUS
 10
11.2408820841
 20
7.9313185558
 11
11.2308820841
 21
7.9379852226
  0
LINE
  5
326
100
AcDbEntity
  8
03__ASM_ALL_CURVES
100
AcDbLine
 62
4
  6
CONTINUOUS
 10
11.3258820841
 20
7.9313185558
 11
11.3158820841
 21
7.9379852226
  0
LINE
  5
327
100
AcDbEntity
  8
03__ASM_ALL_CURVES
100
AcDbLine
 62
4
  6
CONTINUOUS
 10
11.2508820841
 20
7.9846518907
 11
11.2608820841
 21
7.9779852208
  0
LINE
  5
328
100
AcDbEntity
  8
03__ASM_ALL_CURVES
100
AcDbLine
 62
4
  6
CONTINUOUS
 10
8.948215419
 20
9.4863185558
 11
8.9415487492
 21
9.4913185558
  0
LINE
  5
329
100
AcDbEntity
  8
03__ASM_ALL_CURVES
100
AcDbLine
 62
4
  6
CONTINUOUS
 10
9.1575487504
 20
9.3563185558
 11
9.1642154172
 21
9.3513185558
  0
LINE
  5
32A
100
AcDbEntity
  8
03__ASM_ALL_CURVES
100
AcDbLine
 62
4
  6
CONTINUOUS
 10
9.0015487504
 20
9.5163185558
 11
9.0082154172
 21
9.5113185558
  0
LINE
  5
32B
100
AcDbEntity
  8
03__ASM_ALL_CURVES
100
AcDbLine
 62
4
  6
CONTINUOUS
 10
9.104215419
 20
9.4813185558
 11
9.0975487492
 21
9.4863185558
  0
LINE
  5
32C
100
AcDbEntity
  8
03__ASM_ALL_CURVES
100
AcDbLine
 62
4
  6
CONTINUOUS
 10
8.9548820841
 20
9.6013185558
 11
8.9615487492
 21
9.5963185558
  0
LINE
  5
32D
100
AcDbEntity
  8
03__ASM_ALL_CURVES
100
AcDbLine
 62
4
  6
CONTINUOUS
 10
9.1442154166
 20
9.4763185558
 11
9.1308820841
 21
9.4863185558
  0
LINE
  5
32E
100
AcDbEntity
  8
03__ASM_ALL_CURVES
100
AcDbLine
 62
4
  6
CONTINUOUS
 10
8.9948820841
 20
9.6063185558
 11
9.0082154172
 21
9.5963185558
  0
LINE
  5
32F
100
AcDbEntity
  8
03__ASM_ALL_CURVES
100
AcDbLine
 62
4
  6
CONTINUOUS
 10
9.1108820841
 20
9.5213185558
 11
9.1175487492
 21
9.5163185558
  0
LINE
  5
330
100
AcDbEntity
  8
03__ASM_ALL_CURVES
100
AcDbLine
 62
4
  6
CONTINUOUS
 10
9.1508820841
 20
9.5263185558
 11
9.1642154172
 21
9.5163185558
  0
LINE
  5
331
100
AcDbEntity
  8
03__ASM_ALL_CURVES
100
AcDbLine
 62
4
  6
CONTINUOUS
 10
11.0208820841
 20
7.3463185558
 11
11.0308820841
 21
7.3329852232
  0
LINE
  5
332
100
AcDbEntity
  8
03__ASM_ALL_CURVES
100
AcDbLine
 62
4
  6
CONTINUOUS
 10
10.5358820841
 20
8.0046518907
 11
10.5408820841
 21
7.9979852208
  0
LINE
  5
333
100
AcDbEntity
  8
03__ASM_ALL_CURVES
100
AcDbLine
 62
4
  6
CONTINUOUS
 10
11.2308820841
 20
7.0879852226
 11
11.2208820841
 21
7.1013185558
  0
LINE
  5
334
100
AcDbEntity
  8
03__ASM_ALL_CURVES
100
AcDbLine
 62
4
  6
CONTINUOUS
 10
11.0208820841
 20
7.3796518907
 11
11.0258820841
 21
7.3729852208
  0
LINE
  5
335
100
AcDbEntity
  8
03__ASM_ALL_CURVES
100
AcDbLine
 62
4
  6
CONTINUOUS
 10
10.6183820841
 20
7.9413185561
 11
10.6258820841
 21
7.9313185558
  0
LINE
  5
336
100
AcDbEntity
  8
03__ASM_ALL_CURVES
100
AcDbLine
 62
4
  6
CONTINUOUS
 10
11.2308820841
 20
7.1346518907
 11
11.2258820841
 21
7.1413185558
  0
LINE
  5
337
100
AcDbEntity
  8
03__ASM_ALL_CURVES
100
AcDbLine
 62
4
  6
CONTINUOUS
 10
11.2608820841
 20
7.1213185558
 11
11.2708820841
 21
7.1079852232
  0
LINE
  5
338
100
AcDbEntity
  8
03__ASM_ALL_CURVES
100
AcDbLine
 62
4
  6
CONTINUOUS
 10
10.6708820841
 20
7.9379852226
 11
10.6608820841
 21
7.9513185558
  0
LINE
  5
339
100
AcDbEntity
  8
03__ASM_ALL_CURVES
100
AcDbLine
 62
4
  6
CONTINUOUS
 10
11.2608820841
 20
7.1546518907
 11
11.2658820841
 21
7.1479852208
  0
LINE
  5
33A
100
AcDbEntity
  8
03__ASM_ALL_CURVES
100
AcDbLine
 62
4
  6
CONTINUOUS
 10
10.6708820841
 20
7.9846518907
 11
10.6658820841
 21
7.9913185558
  0
LINE
  5
33B
100
AcDbEntity
  8
03__ASM_ALL_CURVES
100
AcDbLine
 62
4
  6
CONTINUOUS
 10
11.1783820841
 20
7.3163185561
 11
11.1858820841
 21
7.3063185558
  0
LINE
  5
33C
100
AcDbEntity
  8
03__ASM_ALL_CURVES
100
AcDbLine
 62
4
  6
CONTINUOUS
 10
10.7008820841
 20
7.9713185558
 11
10.7108820841
 21
7.9579852232
  0
LINE
  5
33D
100
AcDbEntity
  8
03__ASM_ALL_CURVES
100
AcDbLine
 62
4
  6
CONTINUOUS
 10
9.0082154172
 20
10.1513185558
 11
9.0148820841
 21
10.1413185558
  0
LINE
  5
33E
100
AcDbEntity
  8
03__ASM_ALL_CURVES
100
AcDbLine
 62
4
  6
CONTINUOUS
 10
9.0975487492
 20
10.0513185558
 11
9.0908820841
 21
10.0613185558
  0
LINE
  5
33F
100
AcDbEntity
  8
03__ASM_ALL_CURVES
100
AcDbLine
 62
4
  6
CONTINUOUS
 10
9.0975487492
 20
10.1313185558
 11
9.0908820841
 21
10.1413185558
  0
LINE
  5
340
100
AcDbEntity
  8
03__ASM_ALL_CURVES
100
AcDbLine
 62
4
  6
CONTINUOUS
 10
9.1642154172
 20
10.0713185558
 11
9.1708820841
 21
10.0613185558
  0
LINE
  5
341
100
AcDbEntity
  8
03__ASM_ALL_CURVES
100
AcDbLine
 62
4
  6
CONTINUOUS
 10
9.1642154172
 20
10.1513185558
 11
9.1708820841
 21
10.1413185558
  0
LINE
  5
342
100
AcDbEntity
  8
03__ASM_ALL_CURVES
100
AcDbLine
 62
4
  6
CONTINUOUS
 10
8.2692154166
 20
9.6063185558
 11
8.2825487504
 21
9.6013185558
  0
LINE
  5
343
100
AcDbEntity
  8
03__ASM_ALL_CURVES
100
AcDbLine
 62
4
  6
CONTINUOUS
 10
9.1175487492
 20
9.3213185558
 11
9.104215419
 21
9.3263185558
  0
LINE
  5
344
100
AcDbEntity
  8
03__ASM_ALL_CURVES
100
AcDbLine
 62
4
  6
CONTINUOUS
 10
9.1442154166
 20
9.3613185558
 11
9.1575487504
 21
9.3563185558
  0
LINE
  5
345
100
AcDbEntity
  8
03__ASM_ALL_CURVES
100
AcDbLine
 62
4
  6
CONTINUOUS
 10
8.2158820841
 20
10.0763185558
 11
8.2758820841
 21
10.0413185558
  0
LINE
  5
346
100
AcDbEntity
  8
03__ASM_ALL_CURVES
100
AcDbLine
 62
4
  6
CONTINUOUS
 10
11.3258820841
 20
8.0113185558
 11
11.3358820841
 21
8.0046518907
  0
LINE
  5
347
100
AcDbEntity
  8
03__ASM_ALL_CURVES
100
AcDbLine
 62
4
  6
CONTINUOUS
 10
8.2825487504
 20
10.2263185558
 11
8.2958820841
 21
10.2163185558
  0
LINE
  5
348
100
AcDbEntity
  8
03__ASM_ALL_CURVES
100
AcDbLine
 62
4
  6
CONTINUOUS
 10
8.9348820841
 20
9.7463185558
 11
8.948215419
 21
9.7363185558
  0
LINE
  5
349
100
AcDbEntity
  8
03__ASM_ALL_CURVES
100
AcDbLine
 62
4
  6
CONTINUOUS
 10
8.948215419
 20
9.8013185558
 11
8.9415487492
 21
9.8063185558
  0
LINE
  5
34A
100
AcDbEntity
  8
03__ASM_ALL_CURVES
100
AcDbLine
 62
4
  6
CONTINUOUS
 10
8.9815487516
 20
9.8163185558
 11
8.9948820841
 21
9.8063185558
  0
LINE
  5
34B
100
AcDbEntity
  8
03__ASM_ALL_CURVES
100
AcDbLine
 62
4
  6
CONTINUOUS
 10
8.9615487492
 20
9.8413185558
 11
8.968215419
 21
9.8363185558
  0
LINE
  5
34C
100
AcDbEntity
  8
03__ASM_ALL_CURVES
100
AcDbLine
 62
4
  6
CONTINUOUS
 10
9.0908820841
 20
9.7463185558
 11
9.104215419
 21
9.7363185558
  0
LINE
  5
34D
100
AcDbEntity
  8
03__ASM_ALL_CURVES
100
AcDbLine
 62
4
  6
CONTINUOUS
 10
8.948215419
 20
9.8863185558
 11
8.9415487492
 21
9.8913185558
  0
LINE
  5
34E
100
AcDbEntity
  8
03__ASM_ALL_CURVES
100
AcDbLine
 62
4
  6
CONTINUOUS
 10
11.3208820841
 20
7.1613185558
 11
11.3308820841
 21
7.1479852208
  0
LINE
  5
34F
100
AcDbEntity
  8
03__ASM_ALL_CURVES
100
AcDbLine
 62
4
  6
CONTINUOUS
 10
10.7508820841
 20
7.9379852226
 11
10.7458820841
 21
7.9446518895
  0
LINE
  5
350
100
AcDbEntity
  8
03__ASM_ALL_CURVES
100
AcDbLine
 62
4
  6
CONTINUOUS
 10
10.7008820841
 20
8.0046518907
 11
10.7058820841
 21
7.9979852208
  0
LINE
  5
351
100
AcDbEntity
  8
03__ASM_ALL_CURVES
100
AcDbLine
 62
4
  6
CONTINUOUS
 10
11.2308820841
 20
7.3129852226
 11
11.2258820841
 21
7.3196518895
  0
LINE
  5
352
100
AcDbEntity
  8
03__ASM_ALL_CURVES
100
AcDbLine
 62
4
  6
CONTINUOUS
 10
10.7808820841
 20
7.9779852208
 11
10.7858820841
 21
7.9713185558
  0
LINE
  5
353
100
AcDbEntity
  8
03__ASM_ALL_CURVES
100
AcDbLine
 62
4
  6
CONTINUOUS
 10
11.2608820841
 20
7.3463185558
 11
11.2708820841
 21
7.3329852232
  0
LINE
  5
354
100
AcDbEntity
  8
03__ASM_ALL_CURVES
100
AcDbLine
 62
4
  6
CONTINUOUS
 10
11.3108820841
 20
7.3129852226
 11
11.3058820841
 21
7.3196518895
  0
LINE
  5
355
100
AcDbEntity
  8
03__ASM_ALL_CURVES
100
AcDbLine
 62
4
  6
CONTINUOUS
 10
11.2608820841
 20
7.3796518907
 11
11.2658820841
 21
7.3729852208
  0
LINE
  5
356
100
AcDbEntity
  8
03__ASM_ALL_CURVES
100
AcDbLine
 62
4
  6
CONTINUOUS
 10
11.3408820841
 20
7.3463185558
 11
11.3508820841
 21
7.3329852232
  0
LINE
  5
357
100
AcDbEntity
  8
03__ASM_ALL_CURVES
100
AcDbLine
 62
4
  6
CONTINUOUS
 10
11.3408820841
 20
7.3796518907
 11
11.3458820841
 21
7.3729852208
  0
LINE
  5
358
100
AcDbEntity
  8
03__ASM_ALL_CURVES
100
AcDbLine
 62
4
  6
CONTINUOUS
 10
10.9208820841
 20
7.9446518895
 11
10.9308820841
 21
7.9313185558
  0
LINE
  5
359
100
AcDbEntity
  8
03__ASM_ALL_CURVES
100
AcDbLine
 62
4
  6
CONTINUOUS
 10
10.5108820841
 20
7.9446518895
 11
10.5058820841
 21
7.9579852232
  0
LINE
  5
35A
100
AcDbEntity
  8
03__ASM_ALL_CURVES
100
AcDbLine
 62
4
  6
CONTINUOUS
 10
10.5408820841
 20
7.9979852208
 11
10.5458820841
 21
7.9846518907
  0
LINE
  5
35B
100
AcDbEntity
  8
03__ASM_ALL_CURVES
100
AcDbLine
 62
4
  6
CONTINUOUS
 10
10.5158820841
 20
8.8546518907
 11
10.5258820841
 21
8.8613185558
  0
LINE
  5
35C
100
AcDbEntity
  8
03__ASM_ALL_CURVES
100
AcDbLine
 62
4
  6
CONTINUOUS
 10
10.5358820841
 20
8.7879852226
 11
10.5258820841
 21
8.7813185558
  0
LINE
  5
35D
100
AcDbEntity
  8
03__ASM_ALL_CURVES
100
AcDbLine
 62
4
  6
CONTINUOUS
 10
8.2625487516
 20
9.5063185558
 11
8.2425487492
 21
9.5113185558
  0
LINE
  5
35E
100
AcDbEntity
  8
03__ASM_ALL_CURVES
100
AcDbLine
 62
4
  6
CONTINUOUS
 10
8.9615487492
 20
9.4813185558
 11
8.948215419
 21
9.4863185558
  0
LINE
  5
35F
100
AcDbEntity
  8
03__ASM_ALL_CURVES
100
AcDbLine
 62
4
  6
CONTINUOUS
 10
8.9882154166
 20
9.5213185558
 11
9.0015487504
 21
9.5163185558
  0
LINE
  5
360
100
AcDbEntity
  8
03__ASM_ALL_CURVES
100
AcDbLine
 62
4
  6
CONTINUOUS
 10
8.2158820841
 20
10.1563185558
 11
8.2758820841
 21
10.1213185558
  0
LINE
  5
361
100
AcDbEntity
  8
03__ASM_ALL_CURVES
100
AcDbLine
 62
4
  6
CONTINUOUS
 10
10.5258820841
 20
8.7813185558
 11
10.5158820841
 21
8.7879852226
  0
LINE
  5
362
100
AcDbEntity
  8
03__ASM_ALL_CURVES
100
AcDbLine
 62
4
  6
CONTINUOUS
 10
10.5258820841
 20
8.8613185558
 11
10.5358820841
 21
8.8546518907
  0
LINE
  5
363
100
AcDbEntity
  8
03__ASM_ALL_CURVES
100
AcDbLine
 62
4
  6
CONTINUOUS
 10
9.104215419
 20
9.8013185558
 11
9.0975487492
 21
9.8063185558
  0
LINE
  5
364
100
AcDbEntity
  8
03__ASM_ALL_CURVES
100
AcDbLine
 62
4
  6
CONTINUOUS
 10
9.0015487504
 20
9.9163185558
 11
9.0082154172
 21
9.9113185558
  0
LINE
  5
365
100
AcDbEntity
  8
03__ASM_ALL_CURVES
100
AcDbLine
 62
4
  6
CONTINUOUS
 10
9.1375487516
 20
9.8163185558
 11
9.1508820841
 21
9.8063185558
  0
LINE
  5
366
100
AcDbEntity
  8
03__ASM_ALL_CURVES
100
AcDbLine
 62
4
  6
CONTINUOUS
 10
9.1175487492
 20
9.8413185558
 11
9.124215419
 21
9.8363185558
  0
LINE
  5
367
100
AcDbEntity
  8
03__ASM_ALL_CURVES
100
AcDbLine
 62
4
  6
CONTINUOUS
 10
9.104215419
 20
9.8813185558
 11
9.0975487492
 21
9.8863185558
  0
LINE
  5
368
100
AcDbEntity
  8
03__ASM_ALL_CURVES
100
AcDbLine
 62
4
  6
CONTINUOUS
 10
9.1375487516
 20
9.8963185558
 11
9.1508820841
 21
9.8863185558
  0
LINE
  5
369
100
AcDbEntity
  8
03__ASM_ALL_CURVES
100
AcDbLine
 62
4
  6
CONTINUOUS
 10
9.1175487492
 20
9.9213185558
 11
9.124215419
 21
9.9163185558
  0
LINE
  5
36A
100
AcDbEntity
  8
03__ASM_ALL_CURVES
100
AcDbLine
 62
4
  6
CONTINUOUS
 10
9.979215419
 20
9.3263185558
 11
9.9725487492
 21
9.3313185558
  0
LINE
  5
36B
100
AcDbEntity
  8
03__ASM_ALL_CURVES
100
AcDbLine
 62
4
  6
CONTINUOUS
 10
11.4008820841
 20
7.3863185558
 11
11.4108820841
 21
7.3729852208
  0
LINE
  5
36C
100
AcDbEntity
  8
03__ASM_ALL_CURVES
100
AcDbLine
 62
4
  6
CONTINUOUS
 10
11.0208820841
 20
8.0046518907
 11
11.0258820841
 21
7.9979852208
  0
LINE
  5
36D
100
AcDbEntity
  8
03__ASM_ALL_CURVES
100
AcDbLine
 62
4
  6
CONTINUOUS
 10
10.5158820841
 20
8.7879852226
 11
10.5108820841
 21
8.7946518895
  0
LINE
  5
36E
100
AcDbEntity
  8
03__ASM_ALL_CURVES
100
AcDbLine
 62
4
  6
CONTINUOUS
 10
9.9725487492
 20
9.3313185558
 11
9.9658820841
 21
9.3413185558
  0
LINE
  5
36F
100
AcDbEntity
  8
03__ASM_ALL_CURVES
100
AcDbLine
 62
4
  6
CONTINUOUS
 10
10.0392154172
 20
9.3513185558
 11
10.0458820841
 21
9.3413185558
  0
LINE
  5
370
100
AcDbEntity
  8
03__ASM_ALL_CURVES
100
AcDbLine
 62
4
  6
CONTINUOUS
 10
10.5058820841
 20
7.9579852232
 11
10.5058820841
 21
7.9846518907
  0
LINE
  5
371
100
AcDbEntity
  8
03__ASM_ALL_CURVES
100
AcDbLine
 62
4
  6
CONTINUOUS
 10
10.5058820841
 20
8.8079852232
 11
10.5058820841
 21
8.8346518907
  0
LINE
  5
372
100
AcDbEntity
  8
03__ASM_ALL_CURVES
100
AcDbLine
 62
4
  6
CONTINUOUS
 10
10.5258820841
 20
7.3863185558
 11
10.5258820841
 21
7.3063185558
  0
LINE
  5
373
100
AcDbEntity
  8
03__ASM_ALL_CURVES
100
AcDbLine
 62
4
  6
CONTINUOUS
 10
10.5258820841
 20
7.1613185558
 11
10.5258820841
 21
7.0813185558
  0
LINE
  5
374
100
AcDbEntity
  8
03__ASM_ALL_CURVES
100
AcDbLine
 62
4
  6
CONTINUOUS
 10
10.5058820841
 20
8.8346518907
 11
10.5108820841
 21
8.8479852208
  0
LINE
  5
375
100
AcDbEntity
  8
03__ASM_ALL_CURVES
100
AcDbLine
 62
4
  6
CONTINUOUS
 10
10.5458820841
 20
8.8079852232
 11
10.5408820841
 21
8.7946518895
  0
LINE
  5
376
100
AcDbEntity
  8
03__ASM_ALL_CURVES
100
AcDbLine
 62
4
  6
CONTINUOUS
 10
10.5108820841
 20
8.8479852208
 11
10.5158820841
 21
8.8546518907
  0
LINE
  5
377
100
AcDbEntity
  8
03__ASM_ALL_CURVES
100
AcDbLine
 62
4
  6
CONTINUOUS
 10
10.5408820841
 20
8.7946518895
 11
10.5358820841
 21
8.7879852226
  0
LINE
  5
378
100
AcDbEntity
  8
03__ASM_ALL_CURVES
100
AcDbLine
 62
4
  6
CONTINUOUS
 10
10.0192154166
 20
9.3213185558
 11
9.9925487492
 21
9.3213185558
  0
LINE
  5
379
100
AcDbEntity
  8
03__ASM_ALL_CURVES
100
AcDbLine
 62
4
  6
CONTINUOUS
 10
9.1442154166
 20
9.3213185558
 11
9.1175487492
 21
9.3213185558
  0
LINE
  5
37A
100
AcDbEntity
  8
03__ASM_ALL_CURVES
100
AcDbLine
 62
4
  6
CONTINUOUS
 10
8.2158820841
 20
9.3413185558
 11
8.2958820841
 21
9.3413185558
  0
LINE
  5
37B
100
AcDbEntity
  8
03__ASM_ALL_CURVES
100
AcDbLine
 62
4
  6
CONTINUOUS
 10
8.9348820841
 20
9.3413185558
 11
9.0148820841
 21
9.3413185558
  0
LINE
  5
37C
100
AcDbEntity
  8
03__ASM_ALL_CURVES
100
AcDbLine
 62
4
  6
CONTINUOUS
 10
9.1175487492
 20
9.3613185558
 11
9.1442154166
 21
9.3613185558
  0
LINE
  5
37D
100
AcDbEntity
  8
03__ASM_ALL_CURVES
100
AcDbLine
 62
4
  6
CONTINUOUS
 10
9.9925487492
 20
9.3613185558
 11
10.0192154166
 21
9.3613185558
  0
LINE
  5
37E
100
AcDbEntity
  8
03__ASM_ALL_CURVES
100
AcDbLine
 62
4
  6
CONTINUOUS
 10
8.2958820841
 20
9.5013185558
 11
8.2625487516
 21
9.5063185558
  0
LINE
  5
37F
100
AcDbEntity
  8
03__ASM_ALL_CURVES
100
AcDbLine
 62
4
  6
CONTINUOUS
 10
8.2158820841
 20
9.5713185558
 11
8.249215419
 21
9.5663185558
  0
LINE
  5
380
100
AcDbEntity
  8
03__ASM_ALL_CURVES
100
AcDbLine
 62
4
  6
CONTINUOUS
 10
8.229215419
 20
9.7363185558
 11
8.249215419
 21
9.7313185558
  0
LINE
  5
381
100
AcDbEntity
  8
03__ASM_ALL_CURVES
100
AcDbLine
 62
4
  6
CONTINUOUS
 10
9.1375487516
 20
9.5863185558
 11
9.1175487492
 21
9.5913185558
  0
LINE
  5
382
100
AcDbEntity
  8
03__ASM_ALL_CURVES
100
AcDbLine
 62
4
  6
CONTINUOUS
 10
9.1175487492
 20
9.5913185558
 11
9.0908820841
 21
9.6013185558
  0
LINE
  5
383
100
AcDbEntity
  8
03__ASM_ALL_CURVES
100
AcDbLine
 62
4
  6
CONTINUOUS
 10
9.9925487492
 20
9.3213185558
 11
9.979215419
 21
9.3263185558
  0
LINE
  5
384
100
AcDbEntity
  8
03__ASM_ALL_CURVES
100
AcDbLine
 62
4
  6
CONTINUOUS
 10
10.0192154166
 20
9.3613185558
 11
10.0325487504
 21
9.3563185558
  0
LINE
  5
385
100
AcDbEntity
  8
03__ASM_ALL_CURVES
100
AcDbLine
 62
4
  6
CONTINUOUS
 10
8.948215419
 20
10.1263185558
 11
8.9415487492
 21
10.1313185558
  0
LINE
  5
386
100
AcDbEntity
  8
03__ASM_ALL_CURVES
100
AcDbLine
 62
4
  6
CONTINUOUS
 10
9.104215419
 20
10.0463185558
 11
9.0975487492
 21
10.0513185558
  0
LINE
  5
387
100
AcDbEntity
  8
03__ASM_ALL_CURVES
100
AcDbLine
 62
4
  6
CONTINUOUS
 10
10.0325487504
 20
9.3563185558
 11
10.0392154172
 21
9.3513185558
  0
LINE
  5
388
100
AcDbEntity
  8
03__ASM_ALL_CURVES
100
AcDbLine
 62
4
  6
CONTINUOUS
 10
9.0015487504
 20
10.1563185558
 11
9.0082154172
 21
10.1513185558
  0
LINE
  5
389
100
AcDbEntity
  8
03__ASM_ALL_CURVES
100
AcDbLine
 62
4
  6
CONTINUOUS
 10
9.1575487504
 20
10.0763185558
 11
9.1642154172
 21
10.0713185558
  0
LINE
  5
38A
100
AcDbEntity
  8
03__ASM_ALL_CURVES
100
AcDbLine
 62
4
  6
CONTINUOUS
 10
9.104215419
 20
10.1263185558
 11
9.0975487492
 21
10.1313185558
  0
LINE
  5
38B
100
AcDbEntity
  8
03__ASM_ALL_CURVES
100
AcDbLine
 62
4
  6
CONTINUOUS
 10
9.0015487504
 20
10.2263185558
 11
9.0148820841
 21
10.2163185558
  0
LINE
  5
38C
100
AcDbEntity
  8
03__ASM_ALL_CURVES
100
AcDbLine
 62
4
  6
CONTINUOUS
 10
9.1575487504
 20
10.1563185558
 11
9.1642154172
 21
10.1513185558
  0
LINE
  5
38D
100
AcDbEntity
  8
03__ASM_ALL_CURVES
100
AcDbLine
 62
4
  6
CONTINUOUS
 10
11.1783820841
 20
7.9413185561
 11
11.1858820841
 21
7.9313185558
  0
LINE
  5
38E
100
AcDbEntity
  8
03__ASM_ALL_CURVES
100
AcDbLine
 62
4
  6
CONTINUOUS
 10
10.5358820841
 20
8.8546518907
 11
10.5408820841
 21
8.8479852208
  0
LINE
  5
38F
100
AcDbEntity
  8
03__ASM_ALL_CURVES
100
AcDbLine
 62
4
  6
CONTINUOUS
 10
11.2308820841
 20
7.9379852226
 11
11.2258820841
 21
7.9446518895
  0
LINE
  5
390
100
AcDbEntity
  8
03__ASM_ALL_CURVES
100
AcDbLine
 62
4
  6
CONTINUOUS
 10
11.2608820841
 20
7.9779852208
 11
11.2658820841
 21
7.9713185558
  0
LINE
  5
391
100
AcDbEntity
  8
03__ASM_ALL_CURVES
100
AcDbLine
 62
4
  6
CONTINUOUS
 10
11.3158820841
 20
7.9379852226
 11
11.3108820841
 21
7.9446518895
  0
LINE
  5
392
100
AcDbEntity
  8
03__ASM_ALL_CURVES
100
AcDbLine
 62
4
  6
CONTINUOUS
 10
10.7858820841
 20
7.9713185558
 11
10.7908820841
 21
7.9579852232
  0
LINE
  5
393
100
AcDbEntity
  8
03__ASM_ALL_CURVES
100
AcDbLine
 62
4
  6
CONTINUOUS
 10
10.5108820841
 20
8.7946518895
 11
10.5058820841
 21
8.8079852232
  0
LINE
  5
394
100
AcDbEntity
  8
03__ASM_ALL_CURVES
100
AcDbLine
 62
4
  6
CONTINUOUS
 10
10.5408820841
 20
8.8479852208
 11
10.5458820841
 21
8.8346518907
  0
LINE
  5
395
100
AcDbEntity
  8
03__ASM_ALL_CURVES
100
AcDbLine
 62
4
  6
CONTINUOUS
 10
10.8358820841
 20
7.1146518883
 11
10.8408820841
 21
7.0946518895
  0
LINE
  5
396
100
AcDbEntity
  8
03__ASM_ALL_CURVES
100
AcDbLine
 62
4
  6
CONTINUOUS
 10
10.9158820841
 20
7.3396518883
 11
10.9208820841
 21
7.3196518895
  0
LINE
  5
397
100
AcDbEntity
  8
03__ASM_ALL_CURVES
100
AcDbLine
 62
4
  6
CONTINUOUS
 10
10.5458820841
 20
8.8346518907
 11
10.5458820841
 21
8.8079852232
  0
LINE
  5
398
100
AcDbEntity
  8
03__ASM_ALL_CURVES
100
AcDbLine
 62
4
  6
CONTINUOUS
 10
10.5458820841
 20
7.9846518907
 11
10.5458820841
 21
7.9579852232
  0
LINE
  5
399
100
AcDbEntity
  8
03__ASM_ALL_CURVES
100
AcDbLine
 62
4
  6
CONTINUOUS
 10
10.6183820841
 20
7.0813185558
 11
10.6183820841
 21
7.0913185561
  0
LINE
  5
39A
100
AcDbEntity
  8
03__ASM_ALL_CURVES
100
AcDbLine
 62
4
  6
CONTINUOUS
 10
10.6183820841
 20
7.3063185558
 11
10.6183820841
 21
7.3163185561
  0
LINE
  5
39B
100
AcDbEntity
  8
03__ASM_ALL_CURVES
100
AcDbLine
 62
4
  6
CONTINUOUS
 10
10.6183820841
 20
7.9313185558
 11
10.6183820841
 21
7.9413185561
  0
LINE
  5
39C
100
AcDbEntity
  8
03__ASM_ALL_CURVES
100
AcDbLine
 62
4
  6
CONTINUOUS
 10
10.6608820841
 20
7.9513185558
 11
10.6608820841
 21
7.9579852232
  0
LINE
  5
39D
100
AcDbEntity
  8
03__ASM_ALL_CURVES
100
AcDbLine
 62
4
  6
CONTINUOUS
 10
10.6658820841
 20
7.9913185558
 11
10.6658820841
 21
7.9979852208
  0
LINE
  5
39E
100
AcDbEntity
  8
03__ASM_ALL_CURVES
100
AcDbLine
 62
4
  6
CONTINUOUS
 10
10.7008820841
 20
7.3063185558
 11
10.7008820841
 21
7.3863185558
  0
LINE
  5
39F
100
AcDbEntity
  8
03__ASM_ALL_CURVES
100
AcDbLine
 62
4
  6
CONTINUOUS
 10
10.7058820841
 20
7.9979852208
 11
10.7058820841
 21
7.9913185558
  0
LINE
  5
3A0
100
AcDbEntity
  8
03__ASM_ALL_CURVES
100
AcDbLine
 62
4
  6
CONTINUOUS
 10
10.7108820841
 20
7.9579852232
 11
10.7108820841
 21
7.9513185558
  0
LINE
  5
3A1
100
AcDbEntity
  8
03__ASM_ALL_CURVES
100
AcDbLine
 62
4
  6
CONTINUOUS
 10
9.1708820841
 20
9.4338185558
 11
9.1608820838
 21
9.4338185558
  0
LINE
  5
3A2
100
AcDbEntity
  8
03__ASM_ALL_CURVES
100
AcDbLine
 62
4
  6
CONTINUOUS
 10
9.0148820841
 20
9.4338185558
 11
9.0048820838
 21
9.4338185558
  0
LINE
  5
3A3
100
AcDbEntity
  8
03__ASM_ALL_CURVES
100
AcDbLine
 62
4
  6
CONTINUOUS
 10
8.2958820841
 20
9.4338185558
 11
8.2858820838
 21
9.4338185558
  0
LINE
  5
3A4
100
AcDbEntity
  8
03__ASM_ALL_CURVES
100
AcDbLine
 62
4
  6
CONTINUOUS
 10
9.1508820841
 20
9.4763185558
 11
9.1442154166
 21
9.4763185558
  0
LINE
  5
3A5
100
AcDbEntity
  8
03__ASM_ALL_CURVES
100
AcDbLine
 62
4
  6
CONTINUOUS
 10
9.1108820841
 20
9.4813185558
 11
9.104215419
 21
9.4813185558
  0
LINE
  5
3A6
100
AcDbEntity
  8
03__ASM_ALL_CURVES
100
AcDbLine
 62
4
  6
CONTINUOUS
 10
8.9882154166
 20
9.4813185558
 11
8.9615487492
 21
9.4813185558
  0
LINE
  5
3A7
100
AcDbEntity
  8
03__ASM_ALL_CURVES
100
AcDbLine
 62
4
  6
CONTINUOUS
 10
8.9615487492
 20
9.5213185558
 11
8.9882154166
 21
9.5213185558
  0
LINE
  5
3A8
100
AcDbEntity
  8
03__ASM_ALL_CURVES
100
AcDbLine
 62
4
  6
CONTINUOUS
 10
9.104215419
 20
9.5213185558
 11
9.1108820841
 21
9.5213185558
  0
LINE
  5
3A9
100
AcDbEntity
  8
03__ASM_ALL_CURVES
100
AcDbLine
 62
4
  6
CONTINUOUS
 10
9.1442154166
 20
9.5263185558
 11
9.1508820841
 21
9.5263185558
  0
LINE
  5
3AA
100
AcDbEntity
  8
03__ASM_ALL_CURVES
100
AcDbLine
 62
4
  6
CONTINUOUS
 10
9.1708820841
 20
9.5813185558
 11
9.1375487516
 21
9.5863185558
  0
LINE
  5
3AB
100
AcDbEntity
  8
03__ASM_ALL_CURVES
100
AcDbLine
 62
4
  6
CONTINUOUS
 10
8.948215419
 20
9.7363185558
 11
8.968215419
 21
9.7313185558
  0
LINE
  5
3AC
100
AcDbEntity
  8
03__ASM_ALL_CURVES
100
AcDbLine
 62
4
  6
CONTINUOUS
 10
9.104215419
 20
9.7363185558
 11
9.124215419
 21
9.7313185558
  0
LINE
  5
3AD
100
AcDbEntity
  8
03__ASM_ALL_CURVES
100
AcDbLine
 62
4
  6
CONTINUOUS
 10
8.9948820841
 20
9.8063185558
 11
9.0148820841
 21
9.8013185558
  0
LINE
  5
3AE
100
AcDbEntity
  8
03__ASM_ALL_CURVES
100
AcDbLine
 62
4
  6
CONTINUOUS
 10
8.9615487492
 20
9.8813185558
 11
8.948215419
 21
9.8863185558
  0
LINE
  5
3AF
100
AcDbEntity
  8
03__ASM_ALL_CURVES
100
AcDbLine
 62
4
  6
CONTINUOUS
 10
8.9882154166
 20
9.8813185558
 11
8.9748820841
 21
9.8863185558
  0
LINE
  5
3B0
100
AcDbEntity
  8
03__ASM_ALL_CURVES
100
AcDbLine
 62
4
  6
CONTINUOUS
 10
8.9882154166
 20
9.9213185558
 11
9.0015487504
 21
9.9163185558
  0
LINE
  5
3B1
100
AcDbEntity
  8
03__ASM_ALL_CURVES
100
AcDbLine
 62
4
  6
CONTINUOUS
 10
9.1575487504
 20
10.2263185558
 11
9.1708820841
 21
10.2163185558
  0
LINE
  5
3B2
100
AcDbEntity
  8
03__ASM_ALL_CURVES
100
AcDbLine
 62
4
  6
CONTINUOUS
 10
11.3358820841
 20
8.0046518907
 11
11.3408820841
 21
7.9979852208
  0
LINE
  5
3B3
100
AcDbEntity
  8
03__ASM_ALL_CURVES
100
AcDbLine
 62
4
  6
CONTINUOUS
 10
11.4008820841
 20
8.0113185558
 11
11.4108820841
 21
7.9979852208
  0
LINE
  5
3B4
100
AcDbEntity
  8
03__ASM_ALL_CURVES
100
AcDbLine
 62
4
  6
CONTINUOUS
 10
10.9158820841
 20
7.9646518883
 11
10.9208820841
 21
7.9446518895
  0
LINE
  5
3B5
100
AcDbEntity
  8
03__ASM_ALL_CURVES
100
AcDbLine
 62
4
  6
CONTINUOUS
 10
10.8358820841
 20
7.1279852208
 11
10.8358820841
 21
7.1146518883
  0
LINE
  5
3B6
100
AcDbEntity
  8
03__ASM_ALL_CURVES
100
AcDbLine
 62
4
  6
CONTINUOUS
 10
10.7558820841
 20
8.0113185558
 11
10.7508820841
 21
7.9779852208
  0
LINE
  5
3B7
100
AcDbEntity
  8
03__ASM_ALL_CURVES
100
AcDbLine
 62
4
  6
CONTINUOUS
 10
10.5058820841
 20
7.9846518907
 11
10.5108820841
 21
7.9979852208
  0
LINE
  5
3B8
100
AcDbEntity
  8
03__ASM_ALL_CURVES
100
AcDbLine
 62
4
  6
CONTINUOUS
 10
10.5458820841
 20
7.9579852232
 11
10.5408820841
 21
7.9446518895
  0
LINE
  5
3B9
100
AcDbEntity
  8
03__ASM_ALL_CURVES
100
AcDbLine
 62
4
  6
CONTINUOUS
 10
8.948215419
 20
9.6013185558
 11
8.9548820841
 21
9.6013185558
  0
LINE
  5
3BA
100
AcDbEntity
  8
03__ASM_ALL_CURVES
100
AcDbLine
 62
4
  6
CONTINUOUS
 10
8.9882154166
 20
9.6063185558
 11
8.9948820841
 21
9.6063185558
  0
LINE
  5
3BB
100
AcDbEntity
  8
03__ASM_ALL_CURVES
100
AcDbLine
 62
4
  6
CONTINUOUS
 10
9.1508820841
 20
9.8063185558
 11
9.1708820841
 21
9.8013185558
  0
LINE
  5
3BC
100
AcDbEntity
  8
03__ASM_ALL_CURVES
100
AcDbLine
 62
4
  6
CONTINUOUS
 10
9.1508820841
 20
9.8863185558
 11
9.1708820841
 21
9.8813185558
  0
LINE
  5
3BD
100
AcDbEntity
  8
03__ASM_ALL_CURVES
100
AcDbLine
 62
4
  6
CONTINUOUS
 10
9.1175487492
 20
10.0413185558
 11
9.104215419
 21
10.0463185558
  0
LINE
  5
3BE
100
AcDbEntity
  8
03__ASM_ALL_CURVES
100
AcDbLine
 62
4
  6
CONTINUOUS
 10
8.9615487492
 20
10.1213185558
 11
8.948215419
 21
10.1263185558
  0
LINE
  5
3BF
100
AcDbEntity
  8
03__ASM_ALL_CURVES
100
AcDbLine
 62
4
  6
CONTINUOUS
 10
8.9882154166
 20
10.1213185558
 11
8.9748820841
 21
10.1263185558
  0
LINE
  5
3C0
100
AcDbEntity
  8
03__ASM_ALL_CURVES
100
AcDbLine
 62
4
  6
CONTINUOUS
 10
9.1442154166
 20
10.0813185558
 11
9.1575487504
 21
10.0763185558
  0
LINE
  5
3C1
100
AcDbEntity
  8
03__ASM_ALL_CURVES
100
AcDbLine
 62
4
  6
CONTINUOUS
 10
8.9882154166
 20
10.1613185558
 11
9.0015487504
 21
10.1563185558
  0
LINE
  5
3C2
100
AcDbEntity
  8
03__ASM_ALL_CURVES
100
AcDbLine
 62
4
  6
CONTINUOUS
 10
11.2658820841
 20
7.9713185558
 11
11.2708820841
 21
7.9579852232
  0
LINE
  5
3C3
100
AcDbEntity
  8
03__ASM_ALL_CURVES
100
AcDbLine
 62
4
  6
CONTINUOUS
 10
11.3308820841
 20
7.1479852208
 11
11.3358820841
 21
7.1279852208
  0
LINE
  5
3C4
100
AcDbEntity
  8
03__ASM_ALL_CURVES
100
AcDbLine
 62
4
  6
CONTINUOUS
 10
10.9158820841
 20
7.9779852208
 11
10.9158820841
 21
7.9646518883
  0
LINE
  5
3C5
100
AcDbEntity
  8
03__ASM_ALL_CURVES
100
AcDbLine
 62
4
  6
CONTINUOUS
 10
10.9158820841
 20
7.3529852208
 11
10.9158820841
 21
7.3396518883
  0
LINE
  5
3C6
100
AcDbEntity
  8
03__ASM_ALL_CURVES
100
AcDbLine
 62
4
  6
CONTINUOUS
 10
10.9408820841
 20
7.0813185558
 11
10.9408820841
 21
7.1613185558
  0
LINE
  5
3C7
100
AcDbEntity
  8
03__ASM_ALL_CURVES
100
AcDbLine
 62
4
  6
CONTINUOUS
 10
11.0258820841
 20
7.9979852208
 11
11.0258820841
 21
7.9846518907
  0
LINE
  5
3C8
100
AcDbEntity
  8
03__ASM_ALL_CURVES
100
AcDbLine
 62
4
  6
CONTINUOUS
 10
11.0258820841
 20
7.3729852208
 11
11.0258820841
 21
7.3663185558
  0
LINE
  5
3C9
100
AcDbEntity
  8
03__ASM_ALL_CURVES
100
AcDbLine
 62
4
  6
CONTINUOUS
 10
11.0258820841
 20
7.1479852208
 11
11.0258820841
 21
7.1413185558
  0
LINE
  5
3CA
100
AcDbEntity
  8
03__ASM_ALL_CURVES
100
AcDbLine
 62
4
  6
CONTINUOUS
 10
11.0308820841
 20
7.3329852232
 11
11.0308820841
 21
7.3263185558
  0
LINE
  5
3CB
100
AcDbEntity
  8
03__ASM_ALL_CURVES
100
AcDbLine
 62
4
  6
CONTINUOUS
 10
11.0308820841
 20
7.1079852232
 11
11.0308820841
 21
7.1013185558
  0
LINE
  5
3CC
100
AcDbEntity
  8
03__ASM_ALL_CURVES
100
AcDbLine
 62
4
  6
CONTINUOUS
 10
10.6858820841
 20
7.0813185558
 11
10.6908820841
 21
7.1146518883
  0
LINE
  5
3CD
100
AcDbEntity
  8
03__ASM_ALL_CURVES
100
AcDbLine
 62
4
  6
CONTINUOUS
 10
10.7658820841
 20
7.3063185558
 11
10.7708820841
 21
7.3396518883
  0
LINE
  5
3CE
100
AcDbEntity
  8
03__ASM_ALL_CURVES
100
AcDbLine
 62
4
  6
CONTINUOUS
 10
10.5108820841
 20
7.9979852208
 11
10.5158820841
 21
8.0046518907
  0
LINE
  5
3CF
100
AcDbEntity
  8
03__ASM_ALL_CURVES
100
AcDbLine
 62
4
  6
CONTINUOUS
 10
10.5408820841
 20
7.9446518895
 11
10.5358820841
 21
7.9379852226
  0
LINE
  5
3D0
100
AcDbEntity
  8
03__ASM_ALL_CURVES
100
AcDbLine
 62
4
  6
CONTINUOUS
 10
10.5158820841
 20
8.0046518907
 11
10.5258820841
 21
8.0113185558
  0
LINE
  5
3D1
100
AcDbEntity
  8
03__ASM_ALL_CURVES
100
AcDbLine
 62
4
  6
CONTINUOUS
 10
8.249215419
 20
9.7313185558
 11
8.2625487516
 21
9.7313185558
  0
LINE
  5
3D2
100
AcDbEntity
  8
03__ASM_ALL_CURVES
100
AcDbLine
 62
4
  6
CONTINUOUS
 10
8.968215419
 20
9.7313185558
 11
8.9815487516
 21
9.7313185558
  0
LINE
  5
3D3
100
AcDbEntity
  8
03__ASM_ALL_CURVES
100
AcDbLine
 62
4
  6
CONTINUOUS
 10
9.124215419
 20
9.7313185558
 11
9.1375487516
 21
9.7313185558
  0
LINE
  5
3D4
100
AcDbEntity
  8
03__ASM_ALL_CURVES
100
AcDbLine
 62
4
  6
CONTINUOUS
 10
8.2958820841
 20
9.8363185558
 11
8.2158820841
 21
9.8363185558
  0
LINE
  5
3D5
100
AcDbEntity
  8
03__ASM_ALL_CURVES
100
AcDbLine
 62
4
  6
CONTINUOUS
 10
8.948215419
 20
9.8413185558
 11
8.9615487492
 21
9.8413185558
  0
LINE
  5
3D6
100
AcDbEntity
  8
03__ASM_ALL_CURVES
100
AcDbLine
 62
4
  6
CONTINUOUS
 10
9.104215419
 20
9.8413185558
 11
9.1175487492
 21
9.8413185558
  0
LINE
  5
3D7
100
AcDbEntity
  8
03__ASM_ALL_CURVES
100
AcDbLine
 62
4
  6
CONTINUOUS
 10
8.9882154166
 20
9.8813185558
 11
8.9615487492
 21
9.8813185558
  0
LINE
  5
3D8
100
AcDbEntity
  8
03__ASM_ALL_CURVES
100
AcDbLine
 62
4
  6
CONTINUOUS
 10
8.2625487516
 20
10.2313185558
 11
8.2825487504
 21
10.2263185558
  0
LINE
  5
3D9
100
AcDbEntity
  8
03__ASM_ALL_CURVES
100
AcDbLine
 62
4
  6
CONTINUOUS
 10
9.1175487492
 20
10.1213185558
 11
9.104215419
 21
10.1263185558
  0
LINE
  5
3DA
100
AcDbEntity
  8
03__ASM_ALL_CURVES
100
AcDbLine
 62
4
  6
CONTINUOUS
 10
9.1175487492
 20
10.1613185558
 11
9.1308820841
 21
10.1563185558
  0
LINE
  5
3DB
100
AcDbEntity
  8
03__ASM_ALL_CURVES
100
AcDbLine
 62
4
  6
CONTINUOUS
 10
9.1442154166
 20
10.1613185558
 11
9.1575487504
 21
10.1563185558
  0
LINE
  5
3DC
100
AcDbEntity
  8
03__ASM_ALL_CURVES
100
AcDbLine
 62
4
  6
CONTINUOUS
 10
11.3108820841
 20
7.9713185558
 11
11.3058820841
 21
7.9846518907
  0
LINE
  5
3DD
100
AcDbEntity
  8
03__ASM_ALL_CURVES
100
AcDbLine
 62
4
  6
CONTINUOUS
 10
11.3408820841
 20
7.9979852208
 11
11.3458820841
 21
7.9846518907
  0
LINE
  5
3DE
100
AcDbEntity
  8
03__ASM_ALL_CURVES
100
AcDbLine
 62
4
  6
CONTINUOUS
 10
11.4108820841
 20
7.3729852208
 11
11.4158820841
 21
7.3529852208
  0
LINE
  5
3DF
100
AcDbEntity
  8
03__ASM_ALL_CURVES
100
AcDbLine
 62
4
  6
CONTINUOUS
 10
11.0858820841
 20
8.0113185558
 11
11.0858820841
 21
7.9313185558
  0
LINE
  5
3E0
100
AcDbEntity
  8
03__ASM_ALL_CURVES
100
AcDbLine
 62
4
  6
CONTINUOUS
 10
11.0983820841
 20
7.0813185558
 11
11.0983820841
 21
7.0913185561
  0
LINE
  5
3E1
100
AcDbEntity
  8
03__ASM_ALL_CURVES
100
AcDbLine
 62
4
  6
CONTINUOUS
 10
11.1658820841
 20
7.1613185558
 11
11.1658820841
 21
7.0813185558
  0
LINE
  5
3E2
100
AcDbEntity
  8
03__ASM_ALL_CURVES
100
AcDbLine
 62
4
  6
CONTINUOUS
 10
11.1783820841
 20
7.3063185558
 11
11.1783820841
 21
7.3163185561
  0
LINE
  5
3E3
100
AcDbEntity
  8
03__ASM_ALL_CURVES
100
AcDbLine
 62
4
  6
CONTINUOUS
 10
11.1783820841
 20
7.9313185558
 11
11.1783820841
 21
7.9413185561
  0
LINE
  5
3E4
100
AcDbEntity
  8
03__ASM_ALL_CURVES
100
AcDbLine
 62
4
  6
CONTINUOUS
 10
10.6908820841
 20
7.1146518883
 11
10.6958820841
 21
7.1346518907
  0
LINE
  5
3E5
100
AcDbEntity
  8
03__ASM_ALL_CURVES
100
AcDbLine
 62
4
  6
CONTINUOUS
 10
10.9208820841
 20
7.9979852208
 11
10.9158820841
 21
7.9779852208
  0
LINE
  5
3E6
100
AcDbEntity
  8
03__ASM_ALL_CURVES
100
AcDbLine
 62
4
  6
CONTINUOUS
 10
10.7708820841
 20
7.3396518883
 11
10.7758820841
 21
7.3596518907
  0
LINE
  5
3E7
100
AcDbEntity
  8
03__ASM_ALL_CURVES
100
AcDbLine
 62
4
  6
CONTINUOUS
 10
10.9908820841
 20
7.9513185558
 11
10.9858820841
 21
7.9313185558
  0
LINE
  5
3E8
100
AcDbEntity
  8
03__ASM_ALL_CURVES
100
AcDbLine
 62
4
  6
CONTINUOUS
 10
10.7908820841
 20
7.9579852232
 11
10.7858820841
 21
7.9446518895
  0
LINE
  5
3E9
100
AcDbEntity
  8
03__ASM_ALL_CURVES
100
AcDbLine
 62
4
  6
CONTINUOUS
 10
10.6658820841
 20
7.9979852208
 11
10.6708820841
 21
8.0046518907
  0
LINE
  5
3EA
100
AcDbEntity
  8
03__ASM_ALL_CURVES
100
AcDbLine
 62
4
  6
CONTINUOUS
 10
10.6608820841
 20
7.9579852232
 11
10.6708820841
 21
7.9713185558
  0
LINE
  5
3EB
100
AcDbEntity
  8
03__ASM_ALL_CURVES
100
AcDbLine
 62
4
  6
CONTINUOUS
 10
10.7058820841
 20
7.9913185558
 11
10.7008820841
 21
7.9846518907
  0
LINE
  5
3EC
100
AcDbEntity
  8
03__ASM_ALL_CURVES
100
AcDbLine
 62
4
  6
CONTINUOUS
 10
10.7108820841
 20
7.9513185558
 11
10.7008820841
 21
7.9379852226
  0
LINE
  5
3ED
100
AcDbEntity
  8
03__ASM_ALL_CURVES
100
AcDbLine
 62
4
  6
CONTINUOUS
 10
10.7858820841
 20
7.9446518895
 11
10.7808820841
 21
7.9379852226
  0
LINE
  5
3EE
100
AcDbEntity
  8
03__ASM_ALL_CURVES
100
AcDbLine
 62
4
  6
CONTINUOUS
 10
10.5358820841
 20
7.9379852226
 11
10.5258820841
 21
7.9313185558
  0
LINE
  5
3EF
100
AcDbEntity
  8
03__ASM_ALL_CURVES
100
AcDbLine
 62
4
  6
CONTINUOUS
 10
10.6708820841
 20
8.0046518907
 11
10.6808820841
 21
8.0113185558
  0
LINE
  5
3F0
100
AcDbEntity
  8
03__ASM_ALL_CURVES
100
AcDbLine
 62
4
  6
CONTINUOUS
 10
10.6708820841
 20
7.9713185558
 11
10.6808820841
 21
7.9779852208
  0
LINE
  5
3F1
100
AcDbEntity
  8
03__ASM_ALL_CURVES
100
AcDbLine
 62
4
  6
CONTINUOUS
 10
10.7008820841
 20
7.9846518907
 11
10.6908820841
 21
7.9779852208
  0
LINE
  5
3F2
100
AcDbEntity
  8
03__ASM_ALL_CURVES
100
AcDbLine
 62
4
  6
CONTINUOUS
 10
10.7508820841
 20
7.9779852208
 11
10.7608820841
 21
7.9846518907
  0
LINE
  5
3F3
100
AcDbEntity
  8
03__ASM_ALL_CURVES
100
AcDbLine
 62
4
  6
CONTINUOUS
 10
10.7008820841
 20
7.9379852226
 11
10.6908820841
 21
7.9313185558
  0
LINE
  5
3F4
100
AcDbEntity
  8
03__ASM_ALL_CURVES
100
AcDbLine
 62
4
  6
CONTINUOUS
 10
10.7808820841
 20
7.9379852226
 11
10.7708820841
 21
7.9313185558
  0
LINE
  5
3F5
100
AcDbEntity
  8
03__ASM_ALL_CURVES
100
AcDbLine
 62
4
  6
CONTINUOUS
 10
9.1375487516
 20
9.7313185558
 11
9.1575487504
 21
9.7363185558
  0
LINE
  5
3F6
100
AcDbEntity
  8
03__ASM_ALL_CURVES
100
AcDbLine
 62
4
  6
CONTINUOUS
 10
8.9815487516
 20
9.7313185558
 11
9.0015487504
 21
9.7363185558
  0
LINE
  5
3F7
100
AcDbEntity
  8
03__ASM_ALL_CURVES
100
AcDbLine
 62
4
  6
CONTINUOUS
 10
8.2958820841
 20
9.9163185558
 11
8.2158820841
 21
9.9163185558
  0
LINE
  5
3F8
100
AcDbEntity
  8
03__ASM_ALL_CURVES
100
AcDbLine
 62
4
  6
CONTINUOUS
 10
9.104215419
 20
9.9213185558
 11
9.1175487492
 21
9.9213185558
  0
LINE
  5
3F9
100
AcDbEntity
  8
03__ASM_ALL_CURVES
100
AcDbLine
 62
4
  6
CONTINUOUS
 10
9.1708820841
 20
9.9938185558
 11
9.1608820838
 21
9.9938185558
  0
LINE
  5
3FA
100
AcDbEntity
  8
03__ASM_ALL_CURVES
100
AcDbLine
 62
4
  6
CONTINUOUS
 10
9.0148820841
 20
9.9938185558
 11
9.0048820838
 21
9.9938185558
  0
LINE
  5
3FB
100
AcDbEntity
  8
03__ASM_ALL_CURVES
100
AcDbLine
 62
4
  6
CONTINUOUS
 10
8.2958820841
 20
9.9938185558
 11
8.2858820838
 21
9.9938185558
  0
LINE
  5
3FC
100
AcDbEntity
  8
03__ASM_ALL_CURVES
100
AcDbLine
 62
4
  6
CONTINUOUS
 10
9.1442154166
 20
10.0413185558
 11
9.1175487492
 21
10.0413185558
  0
LINE
  5
3FD
100
AcDbEntity
  8
03__ASM_ALL_CURVES
100
AcDbLine
 62
4
  6
CONTINUOUS
 10
8.9815487516
 20
10.2313185558
 11
9.0015487504
 21
10.2263185558
  0
LINE
  5
3FE
100
AcDbEntity
  8
03__ASM_ALL_CURVES
100
AcDbLine
 62
4
  6
CONTINUOUS
 10
9.1375487516
 20
10.2313185558
 11
9.1575487504
 21
10.2263185558
  0
LINE
  5
3FF
100
AcDbEntity
  8
03__ASM_ALL_CURVES
100
AcDbLine
 62
4
  6
CONTINUOUS
 10
11.4108820841
 20
7.9979852208
 11
11.4158820841
 21
7.9779852208
  0
LINE
  5
400
100
AcDbEntity
  8
03__ASM_ALL_CURVES
100
AcDbLine
 62
4
  6
CONTINUOUS
 10
11.2208820841
 20
7.1013185558
 11
11.2208820841
 21
7.1079852232
  0
LINE
  5
401
100
AcDbEntity
  8
03__ASM_ALL_CURVES
100
AcDbLine
 62
4
  6
CONTINUOUS
 10
11.2258820841
 20
7.1413185558
 11
11.2258820841
 21
7.1479852208
  0
LINE
  5
402
100
AcDbEntity
  8
03__ASM_ALL_CURVES
100
AcDbLine
 62
4
  6
CONTINUOUS
 10
11.2658820841
 20
7.3729852208
 11
11.2658820841
 21
7.3663185558
  0
LINE
  5
403
100
AcDbEntity
  8
03__ASM_ALL_CURVES
100
AcDbLine
 62
4
  6
CONTINUOUS
 10
11.2658820841
 20
7.1479852208
 11
11.2658820841
 21
7.1413185558
  0
LINE
  5
404
100
AcDbEntity
  8
03__ASM_ALL_CURVES
100
AcDbLine
 62
4
  6
CONTINUOUS
 10
11.2708820841
 20
7.3329852232
 11
11.2708820841
 21
7.3263185558
  0
LINE
  5
405
100
AcDbEntity
  8
03__ASM_ALL_CURVES
100
AcDbLine
 62
4
  6
CONTINUOUS
 10
11.2708820841
 20
7.1079852232
 11
11.2708820841
 21
7.1013185558
  0
LINE
  5
406
100
AcDbEntity
  8
03__ASM_ALL_CURVES
100
AcDbLine
 62
4
  6
CONTINUOUS
 10
11.3358820841
 20
7.1279852208
 11
11.3358820841
 21
7.1146518883
  0
LINE
  5
407
100
AcDbEntity
  8
03__ASM_ALL_CURVES
100
AcDbLine
 62
4
  6
CONTINUOUS
 10
11.3458820841
 20
7.9846518907
 11
11.3458820841
 21
7.9579852232
  0
LINE
  5
408
100
AcDbEntity
  8
03__ASM_ALL_CURVES
100
AcDbLine
 62
4
  6
CONTINUOUS
 10
11.3458820841
 20
7.3729852208
 11
11.3458820841
 21
7.3663185558
  0
LINE
  5
409
100
AcDbEntity
  8
03__ASM_ALL_CURVES
100
AcDbLine
 62
4
  6
CONTINUOUS
 10
11.3508820841
 20
7.3329852232
 11
11.3508820841
 21
7.3263185558
  0
LINE
  5
40A
100
AcDbEntity
  8
03__ASM_ALL_CURVES
100
AcDbLine
 62
4
  6
CONTINUOUS
 10
11.0858820841
 20
7.3063185558
 11
11.0908820841
 21
7.3396518883
  0
LINE
  5
40B
100
AcDbEntity
  8
03__ASM_ALL_CURVES
100
AcDbLine
 62
4
  6
CONTINUOUS
 10
11.2358820841
 20
8.0113185558
 11
11.2308820841
 21
7.9779852208
  0
LINE
  5
40C
100
AcDbEntity
  8
03__ASM_ALL_CURVES
100
AcDbLine
 62
4
  6
CONTINUOUS
 10
10.8408820841
 20
7.1479852208
 11
10.8358820841
 21
7.1279852208
  0
LINE
  5
40D
100
AcDbEntity
  8
03__ASM_ALL_CURVES
100
AcDbLine
 62
4
  6
CONTINUOUS
 10
10.9208820841
 20
7.3729852208
 11
10.9158820841
 21
7.3529852208
  0
LINE
  5
40E
100
AcDbEntity
  8
03__ASM_ALL_CURVES
100
AcDbLine
 62
4
  6
CONTINUOUS
 10
10.7758820841
 20
7.3596518907
 11
10.7858820841
 21
7.3863185558
  0
LINE
  5
40F
100
AcDbEntity
  8
03__ASM_ALL_CURVES
100
AcDbLine
 62
4
  6
CONTINUOUS
 10
10.6958820841
 20
7.1346518907
 11
10.7058820841
 21
7.1613185558
  0
LINE
  5
410
100
AcDbEntity
  8
03__ASM_ALL_CURVES
100
AcDbLine
 62
4
  6
CONTINUOUS
 10
10.7008820841
 20
7.3863185558
 11
10.6658820841
 21
7.3263185558
  0
LINE
  5
411
100
AcDbEntity
  8
03__ASM_ALL_CURVES
100
AcDbLine
 62
4
  6
CONTINUOUS
 10
10.9308820841
 20
8.0113185558
 11
10.9208820841
 21
7.9979852208
  0
LINE
  5
412
100
AcDbEntity
  8
03__ASM_ALL_CURVES
100
AcDbLine
 62
4
  6
CONTINUOUS
 10
10.9858820841
 20
7.9979852208
 11
10.9908820841
 21
8.0046518907
  0
LINE
  5
413
100
AcDbEntity
  8
03__ASM_ALL_CURVES
100
AcDbLine
 62
4
  6
CONTINUOUS
 10
11.0008820841
 20
7.9646518883
 11
10.9908820841
 21
7.9513185558
  0
LINE
  5
414
100
AcDbEntity
  8
03__ASM_ALL_CURVES
100
AcDbLine
 62
4
  6
CONTINUOUS
 10
11.0258820841
 20
7.9846518907
 11
11.0208820841
 21
7.9779852208
  0
LINE
  5
415
100
AcDbEntity
  8
03__ASM_ALL_CURVES
100
AcDbLine
 62
4
  6
CONTINUOUS
 10
10.9908820841
 20
8.0046518907
 11
11.0008820841
 21
8.0113185558
  0
LINE
  5
416
100
AcDbEntity
  8
03__ASM_ALL_CURVES
100
AcDbLine
 62
4
  6
CONTINUOUS
 10
11.0208820841
 20
7.9779852208
 11
11.0008820841
 21
7.9646518883
  0
LINE
  5
417
100
AcDbEntity
  8
03__ASM_ALL_CURVES
100
AcDbLine
 62
4
  6
CONTINUOUS
 10
11.3408820841
 20
7.9713185558
 11
11.3258820841
 21
7.9646518883
  0
LINE
  5
418
100
AcDbEntity
  8
03__ASM_ALL_CURVES
100
AcDbLine
 62
4
  6
CONTINUOUS
 10
8.2625487516
 20
9.7313185558
 11
8.2825487504
 21
9.7363185558
  0
LINE
  5
419
100
AcDbEntity
  8
03__ASM_ALL_CURVES
100
AcDbLine
 62
4
  6
CONTINUOUS
 10
8.9348820841
 20
10.0613185558
 11
9.0148820841
 21
10.0613185558
  0
LINE
  5
41A
100
AcDbEntity
  8
03__ASM_ALL_CURVES
100
AcDbLine
 62
4
  6
CONTINUOUS
 10
8.2958820841
 20
10.0763185558
 11
8.2158820841
 21
10.0763185558
  0
LINE
  5
41B
100
AcDbEntity
  8
03__ASM_ALL_CURVES
100
AcDbLine
 62
4
  6
CONTINUOUS
 10
9.1175487492
 20
10.0813185558
 11
9.1442154166
 21
10.0813185558
  0
LINE
  5
41C
100
AcDbEntity
  8
03__ASM_ALL_CURVES
100
AcDbLine
 62
4
  6
CONTINUOUS
 10
8.9882154166
 20
10.1213185558
 11
8.9615487492
 21
10.1213185558
  0
LINE
  5
41D
100
AcDbEntity
  8
03__ASM_ALL_CURVES
100
AcDbLine
 62
4
  6
CONTINUOUS
 10
8.2958820841
 20
10.1563185558
 11
8.2158820841
 21
10.1563185558
  0
LINE
  5
41E
100
AcDbEntity
  8
03__ASM_ALL_CURVES
100
AcDbLine
 62
4
  6
CONTINUOUS
 10
9.1175487492
 20
10.1613185558
 11
9.1442154166
 21
10.1613185558
  0
LINE
  5
41F
100
AcDbEntity
  8
03__ASM_ALL_CURVES
100
AcDbLine
 62
4
  6
CONTINUOUS
 10
11.4158820841
 20
7.9779852208
 11
11.4158820841
 21
7.9646518883
  0
LINE
  5
420
100
AcDbEntity
  8
03__ASM_ALL_CURVES
100
AcDbLine
 62
4
  6
CONTINUOUS
 10
11.4158820841
 20
7.3529852208
 11
11.4158820841
 21
7.3396518883
  0
LINE
  5
421
100
AcDbEntity
  8
03__ASM_ALL_CURVES
100
AcDbLine
 62
4
  6
CONTINUOUS
 10
11.0908820841
 20
7.3396518883
 11
11.0958820841
 21
7.3596518907
  0
LINE
  5
422
100
AcDbEntity
  8
03__ASM_ALL_CURVES
100
AcDbLine
 62
4
  6
CONTINUOUS
 10
11.2708820841
 20
7.9579852232
 11
11.2658820841
 21
7.9446518895
  0
LINE
  5
423
100
AcDbEntity
  8
03__ASM_ALL_CURVES
100
AcDbLine
 62
4
  6
CONTINUOUS
 10
11.3058820841
 20
7.9846518907
 11
11.3108820841
 21
7.9979852208
  0
LINE
  5
424
100
AcDbEntity
  8
03__ASM_ALL_CURVES
100
AcDbLine
 62
4
  6
CONTINUOUS
 10
11.0958820841
 20
7.3596518907
 11
11.1058820841
 21
7.3863185558
  0
LINE
  5
425
100
AcDbEntity
  8
03__ASM_ALL_CURVES
100
AcDbLine
 62
4
  6
CONTINUOUS
 10
11.2308820841
 20
7.9779852208
 11
11.2408820841
 21
7.9846518907
  0
LINE
  5
426
100
AcDbEntity
  8
03__ASM_ALL_CURVES
100
AcDbLine
 62
4
  6
CONTINUOUS
 10
11.3158820841
 20
8.0046518907
 11
11.3258820841
 21
8.0113185558
  0
LINE
  5
427
100
AcDbEntity
  8
03__ASM_ALL_CURVES
100
AcDbLine
 62
4
  6
CONTINUOUS
 10
11.2608820841
 20
7.9379852226
 11
11.2508820841
 21
7.9313185558
  0
LINE
  5
428
100
AcDbEntity
  8
03__ASM_ALL_CURVES
100
AcDbLine
 62
4
  6
CONTINUOUS
 10
11.3358820841
 20
7.9379852226
 11
11.3258820841
 21
7.9313185558
  0
LINE
  5
429
100
AcDbEntity
  8
03__ASM_ALL_CURVES
100
AcDbLine
 62
4
  6
CONTINUOUS
 10
8.249215419
 20
10.2313185558
 11
8.2625487516
 21
10.2313185558
  0
LINE
  5
42A
100
AcDbEntity
  8
03__ASM_ALL_CURVES
100
AcDbLine
 62
4
  6
CONTINUOUS
 10
8.968215419
 20
10.2313185558
 11
8.9815487516
 21
10.2313185558
  0
LINE
  5
42B
100
AcDbEntity
  8
03__ASM_ALL_CURVES
100
AcDbLine
 62
4
  6
CONTINUOUS
 10
9.124215419
 20
10.2313185558
 11
9.1375487516
 21
10.2313185558
  0
LINE
  5
42C
100
AcDbEntity
  8
03__ASM_ALL_CURVES
100
AcDbLine
 62
4
  6
CONTINUOUS
 10
11.4158820841
 20
7.9646518883
 11
11.4108820841
 21
7.9446518895
  0
LINE
  5
42D
100
AcDbEntity
  8
03__ASM_ALL_CURVES
100
AcDbLine
 62
4
  6
CONTINUOUS
 10
11.3358820841
 20
7.1146518883
 11
11.3308820841
 21
7.0946518895
  0
LINE
  5
42E
100
AcDbEntity
  8
03__ASM_ALL_CURVES
100
AcDbLine
 62
4
  6
CONTINUOUS
 10
11.3458820841
 20
7.9846518907
 11
11.3408820841
 21
7.9713185558
  0
LINE
  5
42F
100
AcDbEntity
  8
03__ASM_ALL_CURVES
100
AcDbLine
 62
4
  6
CONTINUOUS
 10
11.3458820841
 20
7.9579852232
 11
11.3408820841
 21
7.9446518895
  0
LINE
  5
430
100
AcDbEntity
  8
03__ASM_ALL_CURVES
100
AcDbLine
 62
4
  6
CONTINUOUS
 10
10.9408820841
 20
7.1613185558
 11
10.9058820841
 21
7.1013185558
  0
LINE
  5
431
100
AcDbEntity
  8
03__ASM_ALL_CURVES
100
AcDbLine
 62
4
  6
CONTINUOUS
 10
11.2658820841
 20
7.9446518895
 11
11.2608820841
 21
7.9379852226
  0
LINE
  5
432
100
AcDbEntity
  8
03__ASM_ALL_CURVES
100
AcDbLine
 62
4
  6
CONTINUOUS
 10
11.3108820841
 20
7.9979852208
 11
11.3158820841
 21
8.0046518907
  0
LINE
  5
433
100
AcDbEntity
  8
03__ASM_ALL_CURVES
100
AcDbLine
 62
4
  6
CONTINUOUS
 10
11.3408820841
 20
7.9446518895
 11
11.3358820841
 21
7.9379852226
  0
LINE
  5
434
100
AcDbEntity
  8
03__ASM_ALL_CURVES
100
AcDbLine
 62
4
  6
CONTINUOUS
 10
10.9308820841
 20
7.3863185558
 11
10.9208820841
 21
7.3729852208
  0
LINE
  5
435
100
AcDbEntity
  8
03__ASM_ALL_CURVES
100
AcDbLine
 62
4
  6
CONTINUOUS
 10
11.4108820841
 20
7.9446518895
 11
11.4008820841
 21
7.9313185558
  0
LINE
  5
436
100
AcDbEntity
  8
03__ASM_ALL_CURVES
100
AcDbLine
 62
4
  6
CONTINUOUS
 10
10.8508820841
 20
7.1613185558
 11
10.8408820841
 21
7.1479852208
  0
LINE
  5
437
100
AcDbEntity
  8
03__ASM_ALL_CURVES
100
AcDbLine
 62
4
  6
CONTINUOUS
 10
11.0258820841
 20
7.3663185558
 11
11.0208820841
 21
7.3596518907
  0
LINE
  5
438
100
AcDbEntity
  8
03__ASM_ALL_CURVES
100
AcDbLine
 62
4
  6
CONTINUOUS
 10
9.104215419
 20
10.2263185558
 11
9.124215419
 21
10.2313185558
  0
LINE
  5
439
100
AcDbEntity
  8
03__ASM_ALL_CURVES
100
AcDbLine
 62
4
  6
CONTINUOUS
 10
8.948215419
 20
10.2263185558
 11
8.968215419
 21
10.2313185558
  0
LINE
  5
43A
100
AcDbEntity
  8
03__ASM_ALL_CURVES
100
AcDbLine
 62
4
  6
CONTINUOUS
 10
11.4158820841
 20
7.3396518883
 11
11.4108820841
 21
7.3196518895
  0
LINE
  5
43B
100
AcDbEntity
  8
03__ASM_ALL_CURVES
100
AcDbLine
 62
4
  6
CONTINUOUS
 10
11.0308820841
 20
7.3263185558
 11
11.0208820841
 21
7.3129852226
  0
LINE
  5
43C
100
AcDbEntity
  8
03__ASM_ALL_CURVES
100
AcDbLine
 62
4
  6
CONTINUOUS
 10
11.0258820841
 20
7.1413185558
 11
11.0208820841
 21
7.1346518907
  0
LINE
  5
43D
100
AcDbEntity
  8
03__ASM_ALL_CURVES
100
AcDbLine
 62
4
  6
CONTINUOUS
 10
11.0308820841
 20
7.1013185558
 11
11.0208820841
 21
7.0879852226
  0
LINE
  5
43E
100
AcDbEntity
  8
03__ASM_ALL_CURVES
100
AcDbLine
 62
4
  6
CONTINUOUS
 10
10.9908820841
 20
7.3796518907
 11
11.0008820841
 21
7.3863185558
  0
LINE
  5
43F
100
AcDbEntity
  8
03__ASM_ALL_CURVES
100
AcDbLine
 62
4
  6
CONTINUOUS
 10
11.0208820841
 20
7.3596518907
 11
11.0108820841
 21
7.3529852208
  0
LINE
  5
440
100
AcDbEntity
  8
03__ASM_ALL_CURVES
100
AcDbLine
 62
4
  6
CONTINUOUS
 10
11.0208820841
 20
7.3129852226
 11
11.0108820841
 21
7.3063185558
  0
LINE
  5
441
100
AcDbEntity
  8
03__ASM_ALL_CURVES
100
AcDbLine
 62
4
  6
CONTINUOUS
 10
8.229215419
 20
10.2263185558
 11
8.249215419
 21
10.2313185558
  0
LINE
  5
442
100
AcDbEntity
  8
03__ASM_ALL_CURVES
100
AcDbLine
 62
4
  6
CONTINUOUS
 10
11.2658820841
 20
7.3663185558
 11
11.2608820841
 21
7.3596518907
  0
LINE
  5
443
100
AcDbEntity
  8
03__ASM_ALL_CURVES
100
AcDbLine
 62
4
  6
CONTINUOUS
 10
11.2708820841
 20
7.3263185558
 11
11.2608820841
 21
7.3129852226
  0
LINE
  5
444
100
AcDbEntity
  8
03__ASM_ALL_CURVES
100
AcDbLine
 62
4
  6
CONTINUOUS
 10
11.3458820841
 20
7.3663185558
 11
11.3408820841
 21
7.3596518907
  0
LINE
  5
445
100
AcDbEntity
  8
03__ASM_ALL_CURVES
100
AcDbLine
 62
4
  6
CONTINUOUS
 10
11.3508820841
 20
7.3263185558
 11
11.3408820841
 21
7.3129852226
  0
LINE
  5
446
100
AcDbEntity
  8
03__ASM_ALL_CURVES
100
AcDbLine
 62
4
  6
CONTINUOUS
 10
11.2258820841
 20
7.1479852208
 11
11.2308820841
 21
7.1546518907
  0
LINE
  5
447
100
AcDbEntity
  8
03__ASM_ALL_CURVES
100
AcDbLine
 62
4
  6
CONTINUOUS
 10
11.2208820841
 20
7.1079852232
 11
11.2308820841
 21
7.1213185558
  0
LINE
  5
448
100
AcDbEntity
  8
03__ASM_ALL_CURVES
100
AcDbLine
 62
4
  6
CONTINUOUS
 10
11.2658820841
 20
7.1413185558
 11
11.2608820841
 21
7.1346518907
  0
LINE
  5
449
100
AcDbEntity
  8
03__ASM_ALL_CURVES
100
AcDbLine
 62
4
  6
CONTINUOUS
 10
11.4108820841
 20
7.3196518895
 11
11.4008820841
 21
7.3063185558
  0
LINE
  5
44A
100
AcDbEntity
  8
03__ASM_ALL_CURVES
100
AcDbLine
 62
4
  6
CONTINUOUS
 10
11.2308820841
 20
7.3796518907
 11
11.2408820841
 21
7.3863185558
  0
LINE
  5
44B
100
AcDbEntity
  8
03__ASM_ALL_CURVES
100
AcDbLine
 62
4
  6
CONTINUOUS
 10
11.2608820841
 20
7.3596518907
 11
11.2508820841
 21
7.3529852208
  0
LINE
  5
44C
100
AcDbEntity
  8
03__ASM_ALL_CURVES
100
AcDbLine
 62
4
  6
CONTINUOUS
 10
11.3108820841
 20
7.3796518907
 11
11.3208820841
 21
7.3863185558
  0
LINE
  5
44D
100
AcDbEntity
  8
03__ASM_ALL_CURVES
100
AcDbLine
 62
4
  6
CONTINUOUS
 10
10.9908820841
 20
7.1546518907
 11
11.0008820841
 21
7.1613185558
  0
LINE
  5
44E
100
AcDbEntity
  8
03__ASM_ALL_CURVES
100
AcDbLine
 62
4
  6
CONTINUOUS
 10
11.2608820841
 20
7.3129852226
 11
11.2508820841
 21
7.3063185558
  0
LINE
  5
44F
100
AcDbEntity
  8
03__ASM_ALL_CURVES
100
AcDbLine
 62
4
  6
CONTINUOUS
 10
11.3408820841
 20
7.3596518907
 11
11.3308820841
 21
7.3529852208
  0
LINE
  5
450
100
AcDbEntity
  8
03__ASM_ALL_CURVES
100
AcDbLine
 62
4
  6
CONTINUOUS
 10
11.0208820841
 20
7.1346518907
 11
11.0108820841
 21
7.1279852208
  0
LINE
  5
451
100
AcDbEntity
  8
03__ASM_ALL_CURVES
100
AcDbLine
 62
4
  6
CONTINUOUS
 10
11.3408820841
 20
7.3129852226
 11
11.3308820841
 21
7.3063185558
  0
LINE
  5
452
100
AcDbEntity
  8
03__ASM_ALL_CURVES
100
AcDbLine
 62
4
  6
CONTINUOUS
 10
11.0208820841
 20
7.0879852226
 11
11.0108820841
 21
7.0813185558
  0
LINE
  5
453
100
AcDbEntity
  8
03__ASM_ALL_CURVES
100
AcDbLine
 62
4
  6
CONTINUOUS
 10
11.2708820841
 20
7.1013185558
 11
11.2608820841
 21
7.0879852226
  0
LINE
  5
454
100
AcDbEntity
  8
03__ASM_ALL_CURVES
100
AcDbLine
 62
4
  6
CONTINUOUS
 10
11.3308820841
 20
7.0946518895
 11
11.3208820841
 21
7.0813185558
  0
LINE
  5
455
100
AcDbEntity
  8
03__ASM_ALL_CURVES
100
AcDbLine
 62
4
  6
CONTINUOUS
 10
11.2308820841
 20
7.1546518907
 11
11.2408820841
 21
7.1613185558
  0
LINE
  5
456
100
AcDbEntity
  8
03__ASM_ALL_CURVES
100
AcDbLine
 62
4
  6
CONTINUOUS
 10
11.2308820841
 20
7.1213185558
 11
11.2408820841
 21
7.1279852208
  0
LINE
  5
457
100
AcDbEntity
  8
03__ASM_ALL_CURVES
100
AcDbLine
 62
4
  6
CONTINUOUS
 10
11.2608820841
 20
7.1346518907
 11
11.2508820841
 21
7.1279852208
  0
LINE
  5
458
100
AcDbEntity
  8
03__ASM_ALL_CURVES
100
AcDbLine
 62
4
  6
CONTINUOUS
 10
11.2608820841
 20
7.0879852226
 11
11.2508820841
 21
7.0813185558
  0
ARC
  5
459
100
AcDbEntity
  8
0
100
AcDbCircle
 62
7
  6
CONTINUOUS
 10
8.6928820841
 20
7.5123185319
 40
0.375
100
AcDbArc
 50
180.0
 51
270.0
  0
ARC
  5
45A
100
AcDbEntity
  8
0
100
AcDbCircle
 62
7
  6
CONTINUOUS
 10
8.6928820841
 20
7.5123185319
 40
0.344
100
AcDbArc
 50
180.0
 51
270.0
  0
CIRCLE
  5
45B
100
AcDbEntity
  8
0
100
AcDbCircle
 62
7
  6
CONTINUOUS
 10
8.974882066
 20
7.3463185319
 40
0.1095
  0
CIRCLE
  5
45C
100
AcDbEntity
  8
0
100
AcDbCircle
 62
7
  6
CONTINUOUS
 10
8.974882066
 20
7.3463185319
 40
0.094
  0
CIRCLE
  5
45D
100
AcDbEntity
  8
0
100
AcDbCircle
 62
7
  6
CONTINUOUS
 10
8.9748820841
 20
7.3463185558
 40
0.0935
  0
ARC
  5
45E
100
AcDbEntity
  8
0
100
AcDbCircle
 62
7
  6
CONTINUOUS
 10
8.6928820841
 20
8.4303185319
 40
0.375
100
AcDbArc
 50
90.0
 51
180.0
  0
ARC
  5
45F
100
AcDbEntity
  8
0
100
AcDbCircle
 62
7
  6
CONTINUOUS
 10
8.6928820841
 20
8.4303185319
 40
0.344
100
AcDbArc
 50
90.0
 51
180.0
  0
ARC
  5
460
100
AcDbEntity
  8
0
100
AcDbCircle
 62
7
  6
CONTINUOUS
 10
9.5678820841
 20
7.5123185319
 40
0.375
100
AcDbArc
 50
270.0
 51
360.0
  0
ARC
  5
461
100
AcDbEntity
  8
0
100
AcDbCircle
 62
7
  6
CONTINUOUS
 10
9.5678820841
 20
7.5123185319
 40
0.344
100
AcDbArc
 50
270.0
 51
360.0
  0
CIRCLE
  5
462
100
AcDbEntity
  8
0
100
AcDbCircle
 62
7
  6
CONTINUOUS
 10
9.1308820841
 20
7.9713185319
 40
0.4670000234
  0
CIRCLE
  5
463
100
AcDbEntity
  8
0
100
AcDbCircle
 62
7
  6
CONTINUOUS
 10
9.1308820841
 20
7.9713185319
 40
0.4363578644
  0
CIRCLE
  5
464
100
AcDbEntity
  8
0
100
AcDbCircle
 62
7
  6
CONTINUOUS
 10
9.1308820841
 20
7.9713185319
 40
0.4305
  0
CIRCLE
  5
465
100
AcDbEntity
  8
0
100
AcDbCircle
 62
7
  6
CONTINUOUS
 10
9.1308820841
 20
7.9713185319
 40
0.4175
  0
CIRCLE
  5
466
100
AcDbEntity
  8
0
100
AcDbCircle
 62
7
  6
CONTINUOUS
 10
9.1308820841
 20
7.9713185319
 40
0.407
  0
CIRCLE
  5
467
100
AcDbEntity
  8
0
100
AcDbCircle
 62
7
  6
CONTINUOUS
 10
9.1308820841
 20
7.9713185319
 40
0.367
  0
CIRCLE
  5
468
100
AcDbEntity
  8
0
100
AcDbCircle
 62
7
  6
CONTINUOUS
 10
9.1308820841
 20
7.9713185319
 40
0.3503578644
  0
CIRCLE
  5
469
100
AcDbEntity
  8
0
100
AcDbCircle
 62
7
  6
CONTINUOUS
 10
9.1308820841
 20
7.9713185319
 40
0.3445
  0
CIRCLE
  5
46A
100
AcDbEntity
  8
0
100
AcDbCircle
 62
7
  6
CONTINUOUS
 10
9.1308820841
 20
7.9713185319
 40
0.3345
  0
CIRCLE
  5
46B
100
AcDbEntity
  8
0
100
AcDbCircle
 62
7
  6
CONTINUOUS
 10
9.1308820841
 20
7.9713185319
 40
0.2655
  0
CIRCLE
  5
46C
100
AcDbEntity
  8
0
100
AcDbCircle
 62
7
  6
CONTINUOUS
 10
9.1308820841
 20
7.9713185319
 40
0.211
  0
CIRCLE
  5
46D
100
AcDbEntity
  8
02___PRT_ALL_AXES
100
AcDbCircle
 62
7
  6
CONTINUOUS
 10
9.1308820841
 20
7.9713185558
 40
0.1800900513
  0
CIRCLE
  5
46E
100
AcDbEntity
  8
0
100
AcDbCircle
 62
7
  6
CONTINUOUS
 10
9.1308820841
 20
7.9713185558
 40
0.1800900513
  0
ARC
  5
46F
100
AcDbEntity
  8
0
100
AcDbCircle
 62
7
  6
CONTINUOUS
 10
9.5678820841
 20
8.4303185319
 40
0.375
100
AcDbArc
 50
0.0
 51
90.0
  0
ARC
  5
470
100
AcDbEntity
  8
0
100
AcDbCircle
 62
7
  6
CONTINUOUS
 10
9.5678820841
 20
8.4303185319
 40
0.344
100
AcDbArc
 50
0.0
 51
90.0
  0
SPLINE
  5
471
100
AcDbEntity
  8
0
100
AcDbSpline
 62
7
  6
CONTINUOUS
 70
0
 71
3
 72
9
 73
5
 74
3
 42
0.0000001
 43
0.0000001
 44
0.0000000001
 12
0.0034044405
 22
0.002477308
 32
0.0
 13
0.0033458166
 23
0.0025554339
 33
0.0
 40
0.0
 40
0.0
 40
0.0
 40
0.0
 40
0.0276111601
 40
1.0
 40
1.0
 40
1.0
 40
1.0
 10
9.3505614704
 20
7.9828555766
 30
0.0
 10
9.3505928039
 20
7.982878377
 30
0.0
 10
9.3517273439
 20
7.9837045182
 30
0.0
 10
9.3528519834
 20
7.9845440916
 30
0.0
 10
9.3539364616
 20
7.9853723834
 30
0.0
 11
9.3505614704
 21
7.9828555766
 31
0.0
 11
9.3506554483
 21
7.9829240087
 31
0.0
 11
9.3539364616
 21
7.9853723834
 31
0.0
  0
SPLINE
  5
472
100
AcDbEntity
  8
0
100
AcDbSpline
 62
7
  6
CONTINUOUS
 70
0
 71
3
 72
8
 73
4
 74
2
 42
0.0000001
 43
0.0000001
 44
0.0000000001
 12
0.0060554595
 22
0.0046249775
 32
0.0
 13
0.0058710199
 23
0.0048568308
 33
0.0
 40
0.0
 40
0.0
 40
0.0
 40
0.0
 40
1.0
 40
1.0
 40
1.0
 40
1.0
 10
9.3539364616
 20
7.9853723834
 30
0.0
 10
9.3559549481
 20
7.9869140426
 30
0.0
 10
9.3579418799
 20
7.9884969261
 30
0.0
 10
9.3598988866
 20
7.9901158697
 30
0.0
 11
9.3539364616
 21
7.9853723834
 31
0.0
 11
9.3598988866
 21
7.9901158697
 31
0.0
  0
SPLINE
  5
473
100
AcDbEntity
  8
0
100
AcDbSpline
 62
7
  6
CONTINUOUS
 70
0
 71
3
 72
9
 73
5
 74
3
 42
0.0000001
 43
0.0000001
 44
0.0000000001
 12
0.0045942028
 22
0.0038005774
 32
0.0
 13
0.00448641
 23
0.0039272431
 33
0.0
 40
0.0
 40
0.0
 40
0.0
 40
0.0
 40
0.0373027735
 40
1.0
 40
1.0
 40
1.0
 40
1.0
 10
9.3598988866
 20
7.9901158697
 30
0.0
 10
9.3599560121
 20
7.9901631271
 30
0.0
 10
9.3614867295
 20
7.9914308099
 30
0.0
 10
9.3629991516
 20
7.9927204815
 30
0.0
 10
9.3644388364
 20
7.9939807302
 30
0.0
 11
9.3598988866
 21
7.9901158697
 31
0.0
 11
9.3600701867
 21
7.9902577339
 31
0.0
 11
9.3644388364
 21
7.9939807302
 31
0.0
  0
SPLINE
  5
474
100
AcDbEntity
  8
0
100
AcDbSpline
 62
7
  6
CONTINUOUS
 70
0
 71
3
 72
8
 73
4
 74
2
 42
0.0000001
 43
0.0000001
 44
0.0000000001
 12
0.0054796077
 22
0.0047966529
 32
0.0
 13
0.0053258936
 23
0.004966736
 33
0.0
 40
0.0
 40
0.0
 40
0.0
 40
0.0
 40
1.0
 40
1.0
 40
1.0
 40
1.0
 10
9.3644388364
 20
7.9939807302
 30
0.0
 10
9.3662653723
 20
7.9955796145
 30
0.0
 10
9.3680656398
 20
7.9972085751
 30
0.0
 10
9.3698409376
 20
7.9988641538
 30
0.0
 11
9.3644388364
 21
7.9939807302
 31
0.0
 11
9.3698409376
 21
7.9988641538
 31
0.0
  0
SPLINE
  5
475
100
AcDbEntity
  8
0
100
AcDbSpline
 62
7
  6
CONTINUOUS
 70
0
 71
3
 72
9
 73
5
 74
3
 42
0.0000001
 43
0.0000001
 44
0.0000000001
 12
0.0059860848
 22
0.0055824065
 32
0.0
 13
0.0058022207
 23
0.005773107
 33
0.0
 40
0.0
 40
0.0
 40
0.0
 40
0.0
 40
0.0351984789
 40
1.0
 40
1.0
 40
1.0
 40
1.0
 10
9.3698409376
 20
7.9988641538
 30
0.0
 10
9.3699111713
 20
7.9989296512
 30
0.0
 10
9.3719054226
 20
8.0007916369
 30
0.0
 10
9.3738681952
 20
8.002687076
 30
0.0
 10
9.3757341923
 20
8.0045437101
 30
0.0
 11
9.3698409376
 21
7.9988641538
 31
0.0
 11
9.3700515215
 21
7.9990607707
 31
0.0
 11
9.3757341923
 21
8.0045437101
 31
0.0
  0
SPLINE
  5
476
100
AcDbEntity
  8
0
100
AcDbSpline
 62
7
  6
CONTINUOUS
 70
0
 71
3
 72
8
 73
4
 74
2
 42
0.0000001
 43
0.0000001
 44
0.0000000001
 12
0.0047211329
 22
0.0046974437
 32
0.0
 13
0.0046058715
 23
0.004810749
 33
0.0
 40
0.0
 40
0.0
 40
0.0
 40
0.0
 40
1.0
 40
1.0
 40
1.0
 40
1.0
 10
9.3757341923
 20
8.0045437101
 30
0.0
 10
9.3773079033
 20
8.0061095247
 30
0.0
 10
9.3788619203
 20
8.0076951917
 30
0.0
 10
9.3803972108
 20
8.0092987747
 30
0.0
 11
9.3757341923
 21
8.0045437101
 31
0.0
 11
9.3803972108
 21
8.0092987747
 31
0.0
  0
SPLINE
  5
477
100
AcDbEntity
  8
0
100
AcDbSpline
 62
7
  6
CONTINUOUS
 70
0
 71
3
 72
9
 73
5
 74
3
 42
0.0000001
 43
0.0000001
 44
0.0000000001
 12
0.0114577119
 22
0.0119673715
 32
0.0
 13
0.0107989222
 23
0.0125617394
 33
0.0
 40
0.0
 40
0.0
 40
0.0
 40
0.0
 40
0.0150685686
 40
1.0
 40
1.0
 40
1.0
 40
1.0
 10
9.3803972108
 20
8.0092987747
 30
0.0
 10
9.3804547612
 20
8.0093588851
 30
0.0
 10
9.3842722523
 20
8.0133496796
 30
0.0
 10
9.3879740825
 20
8.0174508948
 30
0.0
 10
9.3915194817
 20
8.0215750454
 30
0.0
 11
9.3803972108
 21
8.0092987747
 31
0.0
 11
9.3805697832
 21
8.0094791813
 31
0.0
 11
9.3915194817
 21
8.0215750454
 31
0.0
  0
SPLINE
  5
478
100
AcDbEntity
  8
0
100
AcDbSpline
 62
7
  6
CONTINUOUS
 70
0
 71
3
 72
9
 73
5
 74
3
 42
0.0000001
 43
0.0000001
 44
0.0000000001
 12
-0.0034095601
 22
-0.016307844
 32
0.0
 13
-0.0033354232
 23
-0.0163231871
 33
0.0
 40
0.0
 40
0.0
 40
0.0
 40
0.0
 40
0.9572610086
 40
1.0
 40
1.0
 40
1.0
 40
1.0
 10
9.2707230254
 20
8.1969199379
 30
0.0
 10
9.2696350791
 20
8.1917163168
 30
0.0
 10
9.2685095494
 20
8.1862780622
 30
0.0
 10
9.2673971752
 20
8.1808371156
 30
0.0
 10
9.2673496577
 20
8.18060457
 30
0.0
 11
9.2707230254
 21
8.1969199379
 31
0.0
 11
9.2674922827
 21
8.1813021918
 31
0.0
 11
9.2673496577
 21
8.18060457
 31
0.0
  0
SPLINE
  5
479
100
AcDbEntity
  8
0
100
AcDbSpline
 62
7
  6
CONTINUOUS
 70
0
 71
3
 72
8
 73
4
 74
2
 42
0.0000001
 43
0.0000001
 44
0.0000000001
 12
-0.001340968
 22
-0.006562547
 32
0.0
 13
-0.0013276652
 23
-0.0065652499
 33
0.0
 40
0.0
 40
0.0
 40
0.0
 40
0.0
 40
1.0
 40
1.0
 40
1.0
 40
1.0
 10
9.2673496577
 20
8.18060457
 30
0.0
 10
9.2669026684
 20
8.1784170544
 30
0.0
 10
9.2664578213
 20
8.1762291009
 30
0.0
 10
9.2660152663
 20
8.1740406843
 30
0.0
 11
9.2673496577
 21
8.18060457
 31
0.0
 11
9.2660152663
 21
8.1740406843
 31
0.0
  0
SPLINE
  5
47A
100
AcDbEntity
  8
0
100
AcDbSpline
 62
7
  6
CONTINUOUS
 70
0
 71
3
 72
9
 73
5
 74
3
 42
0.0000001
 43
0.0000001
 44
0.0000000001
 12
-0.0017192902
 22
-0.0085018196
 32
0.0
 13
-0.0016952512
 23
-0.0085066456
 33
0.0
 40
0.0
 40
0.0
 40
0.0
 40
0.0
 40
0.9022119828
 40
1.0
 40
1.0
 40
1.0
 40
1.0
 10
9.2660152663
 20
8.1740406843
 30
0.0
 10
9.2654982115
 20
8.1714838698
 30
0.0
 10
9.2649285824
 20
8.1686492292
 30
0.0
 10
9.2643630901
 20
8.1658137621
 30
0.0
 10
9.2643078317
 20
8.1655364795
 30
0.0
 11
9.2660152663
 21
8.1740406843
 31
0.0
 11
9.2644737264
 21
8.1663683036
 31
0.0
 11
9.2643078317
 21
8.1655364795
 31
0.0
  0
SPLINE
  5
47B
100
AcDbEntity
  8
0
100
AcDbSpline
 62
7
  6
CONTINUOUS
 70
0
 71
3
 72
8
 73
4
 74
2
 42
0.0000001
 43
0.0000001
 44
0.0000000001
 12
-0.0016088004
 22
-0.0080728422
 32
0.0
 13
-0.0015851161
 23
-0.0080775276
 33
0.0
 40
0.0
 40
0.0
 40
0.0
 40
0.0
 40
1.0
 40
1.0
 40
1.0
 40
1.0
 10
9.2643078317
 20
8.1655364795
 30
0.0
 10
9.2637715648
 20
8.1628455321
 30
0.0
 10
9.2632390615
 20
8.1601538342
 30
0.0
 10
9.2627106895
 20
8.157461325
 30
0.0
 11
9.2643078317
 21
8.1655364795
 31
0.0
 11
9.2627106895
 21
8.157461325
 31
0.0
  0
SPLINE
  5
47C
100
AcDbEntity
  8
0
100
AcDbSpline
 62
7
  6
CONTINUOUS
 70
0
 71
3
 72
9
 73
5
 74
3
 42
0.0000001
 43
0.0000001
 44
0.0000000001
 12
-0.0011373712
 22
-0.005795883
 32
0.0
 13
-0.0011242002
 23
-0.0057984566
 33
0.0
 40
0.0
 40
0.0
 40
0.0
 40
0.0
 40
0.9050011161
 40
1.0
 40
1.0
 40
1.0
 40
1.0
 10
9.2627106895
 20
8.157461325
 30
0.0
 10
9.2623675821
 20
8.1557128981
 30
0.0
 10
9.2619903833
 20
8.1537805591
 30
0.0
 10
9.2616154345
 20
8.151847782
 30
0.0
 10
9.2615798353
 20
8.1516641664
 30
0.0
 11
9.2627106895
 21
8.157461325
 31
0.0
 11
9.2616866943
 21
8.1522150014
 31
0.0
 11
9.2615798353
 21
8.1516641664
 31
0.0
  0
SPLINE
  5
47D
100
AcDbEntity
  8
0
100
AcDbSpline
 62
7
  6
CONTINUOUS
 70
0
 71
3
 72
8
 73
4
 74
2
 42
0.0000001
 43
0.0000001
 44
0.0000000001
 12
-0.0024799624
 22
-0.0127912751
 32
0.0
 13
-0.0024079342
 23
-0.0128050047
 33
0.0
 40
0.0
 40
0.0
 40
0.0
 40
0.0
 40
1.0
 40
1.0
 40
1.0
 40
1.0
 10
9.2615798353
 20
8.1516641664
 30
0.0
 10
9.2607531811
 20
8.147400408
 30
0.0
 10
9.2599375599
 20
8.1431345058
 30
0.0
 10
9.2591349152
 20
8.1388661709
 30
0.0
 11
9.2615798353
 21
8.1516641664
 31
0.0
 11
9.2591349152
 21
8.1388661709
 31
0.0
  0
SPLINE
  5
47E
100
AcDbEntity
  8
0
100
AcDbSpline
 62
7
  6
CONTINUOUS
 70
0
 71
3
 72
8
 73
4
 74
2
 42
0.0000001
 43
0.0000001
 44
0.0000000001
 12
0.0089461739
 22
0.0056622062
 32
0.0
 13
0.0085627036
 23
0.0062307753
 33
0.0
 40
0.0
 40
0.0
 40
0.0
 40
0.0
 40
1.0
 40
1.0
 40
1.0
 40
1.0
 10
9.3418082636
 20
7.9768994632
 30
0.0
 10
9.3447903216
 20
7.9787868653
 30
0.0
 10
9.3477072364
 20
7.9807786507
 30
0.0
 10
9.3505614709
 20
7.9828555758
 30
0.0
 11
9.3418082636
 21
7.9768994632
 31
0.0
 11
9.3505614709
 21
7.9828555758
 31
0.0
  0
SPLINE
  5
47F
100
AcDbEntity
  8
0
100
AcDbSpline
 62
7
  6
CONTINUOUS
 70
0
 71
3
 72
8
 73
4
 74
2
 42
0.0000001
 43
0.0000001
 44
0.0000000001
 12
0.0034044313
 22
0.0024772838
 32
0.0
 13
0.0033458243
 23
0.0025554541
 33
0.0
 40
0.0
 40
0.0
 40
0.0
 40
0.0
 40
1.0
 40
1.0
 40
1.0
 40
1.0
 10
9.3505614709
 20
7.9828555758
 30
0.0
 10
9.3516962813
 20
7.9836813371
 30
0.0
 10
9.3528211868
 20
7.9845205659
 30
0.0
 10
9.3539364615
 20
7.985372384
 30
0.0
 11
9.3505614709
 21
7.9828555758
 31
0.0
 11
9.3539364615
 21
7.985372384
 31
0.0
  0
SPLINE
  5
480
100
AcDbEntity
  8
0
100
AcDbSpline
 62
7
  6
CONTINUOUS
 70
0
 71
3
 72
9
 73
5
 74
3
 42
0.0000001
 43
0.0000001
 44
0.0000000001
 12
0.0060554352
 22
0.0046249848
 32
0.0
 13
0.0058710399
 23
0.0048567835
 33
0.0
 40
0.0
 40
0.0
 40
0.0
 40
0.0
 40
0.9708002046
 40
1.0
 40
1.0
 40
1.0
 40
1.0
 10
9.3539364615
 20
7.985372384
 30
0.0
 10
9.3558960008
 20
7.9868690293
 30
0.0
 10
9.3578838545
 20
7.9884507233
 30
0.0
 10
9.3598417416
 20
7.9900685981
 30
0.0
 10
9.359898886
 20
7.9901158704
 30
0.0
 11
9.3539364615
 21
7.985372384
 31
0.0
 11
9.3597273762
 21
7.9899741457
 31
0.0
 11
9.359898886
 21
7.9901158704
 31
0.0
  0
SPLINE
  5
481
100
AcDbEntity
  8
0
100
AcDbSpline
 62
7
  6
CONTINUOUS
 70
0
 71
3
 72
8
 73
4
 74
2
 42
0.0000001
 43
0.0000001
 44
0.0000000001
 12
0.0045942062
 22
0.0038005303
 32
0.0
 13
0.0044864093
 23
0.0039272694
 33
0.0
 40
0.0
 40
0.0
 40
0.0
 40
0.0
 40
1.0
 40
1.0
 40
1.0
 40
1.0
 10
9.359898886
 20
7.9901158704
 30
0.0
 10
9.361430288
 20
7.9913827139
 30
0.0
 10
9.3629433669
 20
7.9926716405
 30
0.0
 10
9.3644388367
 20
7.9939807304
 30
0.0
 11
9.359898886
 21
7.9901158704
 31
0.0
 11
9.3644388367
 21
7.9939807304
 31
0.0
  0
SPLINE
  5
482
100
AcDbEntity
  8
0
100
AcDbSpline
 62
7
  6
CONTINUOUS
 70
0
 71
3
 72
9
 73
5
 74
3
 42
0.0000001
 43
0.0000001
 44
0.0000000001
 12
0.0054796069
 22
0.0047966851
 32
0.0
 13
0.0053258968
 23
0.0049666661
 33
0.0
 40
0.0
 40
0.0
 40
0.0
 40
0.0
 40
0.9608638215
 40
1.0
 40
1.0
 40
1.0
 40
1.0
 10
9.3644388367
 20
7.9939807304
 30
0.0
 10
9.3661938887
 20
7.9955170507
 30
0.0
 10
9.3679951836
 20
7.9971448473
 30
0.0
 10
9.3697714598
 20
7.998799361
 30
0.0
 10
9.3698409382
 20
7.9988641531
 30
0.0
 11
9.3644388367
 21
7.9939807304
 31
0.0
 11
9.3696323881
 21
7.9986698992
 31
0.0
 11
9.3698409382
 21
7.9988641531
 31
0.0
  0
SPLINE
  5
483
100
AcDbEntity
  8
0
100
AcDbSpline
 62
7
  6
CONTINUOUS
 70
0
 71
3
 72
8
 73
4
 74
2
 42
0.0000001
 43
0.0000001
 44
0.0000000001
 12
0.005986078
 22
0.0055823183
 32
0.0
 13
0.0058022346
 23
0.0057731628
 33
0.0
 40
0.0
 40
0.0
 40
0.0
 40
0.0
 40
1.0
 40
1.0
 40
1.0
 40
1.0
 10
9.3698409382
 20
7.9988641531
 30
0.0
 10
9.3718362975
 20
8.0007249258
 30
0.0
 10
9.373800114
 20
8.0026193232
 30
0.0
 10
9.3757341922
 20
8.0045437108
 30
0.0
 11
9.3698409382
 21
7.9988641531
 31
0.0
 11
9.3757341922
 21
8.0045437108
 31
0.0
  0
SPLINE
  5
484
100
AcDbEntity
  8
0
100
AcDbSpline
 62
7
  6
CONTINUOUS
 70
0
 71
3
 72
9
 73
5
 74
3
 42
0.0000001
 43
0.0000001
 44
0.0000000001
 12
0.0047211113
 22
0.0046974565
 32
0.0
 13
0.0046058957
 23
0.0048107165
 33
0.0
 40
0.0
 40
0.0
 40
0.0
 40
0.0
 40
0.9634928493
 40
1.0
 40
1.0
 40
1.0
 40
1.0
 10
9.3757341922
 20
8.0045437108
 30
0.0
 10
9.3772504445
 20
8.0060523661
 30
0.0
 10
9.3788051785
 20
8.0076373154
 30
0.0
 10
9.3803411606
 20
8.0092402336
 30
0.0
 10
9.38039721
 20
8.0092987754
 30
0.0
 11
9.3757341922
 21
8.0045437108
 31
0.0
 11
9.380228987
 21
8.0091232216
 31
0.0
 11
9.38039721
 21
8.0092987754
 31
0.0
  0
SPLINE
  5
485
100
AcDbEntity
  8
0
100
AcDbSpline
 62
7
  6
CONTINUOUS
 70
0
 71
3
 72
8
 73
4
 74
2
 42
0.0000001
 43
0.0000001
 44
0.0000000001
 12
0.0114578135
 22
0.0119673339
 32
0.0
 13
0.01079888
 23
0.0125616953
 33
0.0
 40
0.0
 40
0.0
 40
0.0
 40
0.0
 40
1.0
 40
1.0
 40
1.0
 40
1.0
 10
9.38039721
 20
8.0092987754
 30
0.0
 10
9.3842164811
 20
8.0132878867
 30
0.0
 10
9.3879198863
 20
8.01738785
 30
0.0
 10
9.391519513
 20
8.0215750817
 30
0.0
 11
9.38039721
 21
8.0092987754
 31
0.0
 11
9.391519513
 21
8.0215750817
 31
0.0
  0
SPLINE
  5
486
100
AcDbEntity
  8
0
100
AcDbSpline
 62
7
  6
CONTINUOUS
 70
0
 71
3
 72
8
 73
4
 74
2
 42
0.0000001
 43
0.0000001
 44
0.0000000001
 12
-0.0000159027
 22
-0.0000760546
 32
0.0
 13
-0.0000159012
 23
-0.000076055
 33
0.0
 40
0.0
 40
0.0
 40
0.0
 40
0.0
 40
1.0
 40
1.0
 40
1.0
 40
1.0
 10
9.2707389262
 20
8.196995987
 30
0.0
 10
9.2707336253
 20
8.1969706354
 30
0.0
 10
9.2707283246
 20
8.1969452838
 30
0.0
 10
9.2707230242
 20
8.1969199322
 30
0.0
 11
9.2707389262
 21
8.196995987
 31
0.0
 11
9.2707230242
 21
8.1969199322
 31
0.0
  0
SPLINE
  5
487
100
AcDbEntity
  8
0
100
AcDbSpline
 62
7
  6
CONTINUOUS
 70
0
 71
3
 72
8
 73
4
 74
2
 42
0.0000001
 43
0.0000001
 44
0.0000000001
 12
-0.0034095587
 22
-0.0163078362
 32
0.0
 13
-0.0033353998
 23
-0.0163231861
 33
0.0
 40
0.0
 40
0.0
 40
0.0
 40
0.0
 40
1.0
 40
1.0
 40
1.0
 40
1.0
 10
9.2707230242
 20
8.1969199322
 30
0.0
 10
9.2695865047
 20
8.1914839868
 30
0.0
 10
9.2684614579
 20
8.186045632
 30
0.0
 10
9.2673496579
 20
8.18060457
 30
0.0
 11
9.2707230242
 21
8.1969199322
 31
0.0
 11
9.2673496579
 21
8.18060457
 31
0.0
  0
SPLINE
  5
488
100
AcDbEntity
  8
0
100
AcDbSpline
 62
7
  6
CONTINUOUS
 70
0
 71
3
 72
9
 73
5
 74
3
 42
0.0000001
 43
0.0000001
 44
0.0000000001
 12
-0.001340959
 22
-0.0065625486
 32
0.0
 13
-0.0013276713
 23
-0.0065652486
 33
0.0
 40
0.0
 40
0.0
 40
0.0
 40
0.0
 40
0.1009920569
 40
1.0
 40
1.0
 40
1.0
 40
1.0
 10
9.2673496579
 20
8.18060457
 30
0.0
 10
9.2673045159
 20
8.1803836482
 30
0.0
 10
9.2668577458
 20
8.1781960878
 30
0.0
 10
9.2664131285
 20
8.1760080879
 30
0.0
 10
9.2660152661
 20
8.1740406843
 30
0.0
 11
9.2673496579
 21
8.18060457
 31
0.0
 11
9.2672142974
 21
8.1799417913
 31
0.0
 11
9.2660152661
 21
8.1740406843
 31
0.0
  0
SPLINE
  5
489
100
AcDbEntity
  8
0
100
AcDbSpline
 62
7
  6
CONTINUOUS
 70
0
 71
3
 72
8
 73
4
 74
2
 42
0.0000001
 43
0.0000001
 44
0.0000000001
 12
-0.0017192983
 22
-0.0085018188
 32
0.0
 13
-0.0016952349
 23
-0.0085066478
 33
0.0
 40
0.0
 40
0.0
 40
0.0
 40
0.0
 40
1.0
 40
1.0
 40
1.0
 40
1.0
 10
9.2660152661
 20
8.1740406843
 30
0.0
 10
9.2654421667
 20
8.1712067447
 30
0.0
 10
9.2648729102
 20
8.1683720287
 30
0.0
 10
9.2643078319
 20
8.1655364794
 30
0.0
 11
9.2660152661
 21
8.1740406843
 31
0.0
 11
9.2643078319
 21
8.1655364794
 31
0.0
  0
SPLINE
  5
48A
100
AcDbEntity
  8
0
100
AcDbSpline
 62
7
  6
CONTINUOUS
 70
0
 71
3
 72
9
 73
5
 74
3
 42
0.0000001
 43
0.0000001
 44
0.0000000001
 12
-0.0016087851
 22
-0.0080728449
 32
0.0
 13
-0.0015851239
 23
-0.0080775256
 33
0.0
 40
0.0
 40
0.0
 40
0.0
 40
0.0
 40
0.1043958892
 40
1.0
 40
1.0
 40
1.0
 40
1.0
 10
9.2643078319
 20
8.1655364794
 30
0.0
 10
9.2642518483
 20
8.1652555555
 30
0.0
 10
9.2637159795
 20
8.1625645289
 30
0.0
 10
9.2631839035
 20
8.1598727468
 30
0.0
 10
9.262710689
 20
8.1574613251
 30
0.0
 11
9.2643078319
 21
8.1655364794
 31
0.0
 11
9.2641400047
 21
8.164693683
 31
0.0
 11
9.262710689
 21
8.1574613251
 31
0.0
  0
SPLINE
  5
48B
100
AcDbEntity
  8
0
100
AcDbSpline
 62
7
  6
CONTINUOUS
 70
0
 71
3
 72
8
 73
4
 74
2
 42
0.0000001
 43
0.0000001
 44
0.0000000001
 12
-0.0011373771
 22
-0.0057958829
 32
0.0
 13
-0.0011241897
 23
-0.0057984576
 33
0.0
 40
0.0
 40
0.0
 40
0.0
 40
0.0
 40
1.0
 40
1.0
 40
1.0
 40
1.0
 10
9.262710689
 20
8.1574613251
 30
0.0
 10
9.2623315633
 20
8.1555293641
 30
0.0
 10
9.2619545654
 20
8.1535969855
 30
0.0
 10
9.2615798355
 20
8.1516641663
 30
0.0
 11
9.262710689
 21
8.1574613251
 31
0.0
 11
9.2615798355
 21
8.1516641663
 31
0.0
  0
SPLINE
  5
48C
100
AcDbEntity
  8
0
100
AcDbSpline
 62
7
  6
CONTINUOUS
 70
0
 71
3
 72
9
 73
5
 74
3
 42
0.0000001
 43
0.0000001
 44
0.0000000001
 12
-0.002479939
 22
-0.0127912764
 32
0.0
 13
-0.0024079347
 23
-0.0128050071
 33
0.0
 40
0.0
 40
0.0
 40
0.0
 40
0.0
 40
0.0466378023
 40
1.0
 40
1.0
 40
1.0
 40
1.0
 10
9.2615798355
 20
8.1516641663
 30
0.0
 10
9.2615412825
 20
8.151465314
 30
0.0
 10
9.2607151509
 20
8.1472014552
 30
0.0
 10
9.2599001265
 20
8.1429354408
 30
0.0
 10
9.2591349152
 20
8.1388661709
 30
0.0
 11
9.2615798355
 21
8.1516641663
 31
0.0
 11
9.2614642488
 21
8.1510675953
 31
0.0
 11
9.2591349152
 21
8.1388661709
 31
0.0
  0
SPLINE
  5
48D
100
AcDbEntity
  8
0
100
AcDbSpline
 62
7
  6
CONTINUOUS
 70
0
 71
3
 72
14
 73
10
 74
8
 42
0.0000001
 43
0.0000001
 44
0.0000000001
 12
-0.0542810878
 22
0.0254006473
 32
0.0
 13
-0.0592387515
 23
0.0090446557
 33
0.0
 40
0.0
 40
0.0
 40
0.0
 40
0.0
 40
0.0993143826
 40
0.2476601899
 40
0.397399897
 40
0.5480240412
 40
0.6990136972
 40
0.8498460623
 40
1.0
 40
1.0
 40
1.0
 40
1.0
 10
9.3889184168
 20
8.0187276769
 30
0.0
 10
9.3871214525
 20
8.0195685601
 30
0.0
 10
9.3826082539
 20
8.0215968518
 30
0.0
 10
9.3752497882
 20
8.0245811932
 30
0.0
 10
9.3668036833
 20
8.0275891873
 30
0.0
 10
9.3581869771
 20
8.0302511003
 30
0.0
 10
9.3494446031
 20
8.0325530429
 30
0.0
 10
9.3406224296
 20
8.0344829613
 30
0.0
 10
9.3346978551
 20
8.0355184348
 30
0.0
 10
9.3317328778
 20
8.0359711317
 30
0.0
 11
9.3889184168
 21
8.0187276769
 31
0.0
 11
9.3834900947
 21
8.0211682057
 31
0.0
 11
9.3752529656
 21
8.0245112206
 31
0.0
 11
9.3668003461
 21
8.0275230887
 31
0.0
 11
9.3581765303
 21
8.0301880269
 31
0.0
 11
9.3494267094
 21
8.0324920703
 31
0.0
 11
9.3405967347
 21
8.034423145
 31
0.0
 11
9.3317328778
 21
8.0359711317
 31
0.0
  0
ENDSEC
  0
SECTION
  2
OBJECTS
  0
DICTIONARY
  5
C
100
AcDbDictionary
280
0
281
1
  3
ACAD_GROUP
350
D
  3
ACAD_MLINESTYLE
350
17
  3
ACAD_LAYOUT
350
1A
  3
ACAD_PLOTSETTINGS
350
19
  3
ACAD_PLOTSTYLENAME
350
E
  0
DICTIONARY
  5
D
102
{ACAD_REACTORS
330
C
102
}
100
AcDbDictionary
280
0
281
1
  0
ACDBDICTIONARYWDFLT
  5
E
102
{ACAD_REACTORS
330
C
102
}
100
AcDbDictionary
281
1
  3
Normal
350
F
100
AcDbDictionaryWithDefault
340
F
  0
DICTIONARY
  5
17
102
{ACAD_REACTORS
330
C
102
}
100
AcDbDictionary
280
0
281
1
  3
Standard
350
18
  0
DICTIONARY
  5
19
102
{ACAD_REACTORS
330
C
102
}
100
AcDbDictionary
281
1
  0
DICTIONARY
  5
1A
102
{ACAD_REACTORS
330
C
102
}
100
AcDbDictionary
281
1
  3
Layout1
350
1E
  3
Model
350
22
  0
ACDBPLACEHOLDER
  5
F
102
{ACAD_REACTORS
330
E
102
}
  0
MLINESTYLE
  5
18
102
{ACAD_REACTORS
330
17
102
}
100
AcDbMlineStyle
  2
STANDARD
 70
0
  3

 62
256
 51
90.0
 52
90.0
 71
2
 49
0.5
 62
256
  6
BYLAYER
 49
-0.5
 62
256
  6
BYLAYER
  0
LAYOUT
  5
1E
102
{ACAD_REACTORS
330
1A
102
}
100
AcDbPlotSettings
  1

  2

  4

  6

 40
0.0
 41
0.0
 42
0.0
 43
0.0
 44
0.0
 45
0.0
 46
0.0
 47
0.0
 48
0.0
 49
0.0
140
0.0
141
0.0
142
1.0
143
1.0
 70
0
 72
0
 73
0
 74
0
  7

 75
0
147
1.0
148
0.0
149
0.0
100
AcDbLayout
  1
Layout1
 70
0
 71
0
 10
0.0
 20
0.0
 11
0.0
 21
0.0
 12
0.0
 22
0.0
 32
0.0
 14
0.0
 24
0.0
 34
0.0
 15
0.0
 25
0.0
 35
0.0
146
0.0
 13
0.0
 23
0.0
 33
0.0
 16
0.0
 26
0.0
 36
0.0
 17
0.0
 27
0.0
 37
0.0
 76
0
330
1B
331
0
345
0
346
0
  0
LAYOUT
  5
22
102
{ACAD_REACTORS
330
1A
102
}
100
AcDbPlotSettings
  1

  2

  4

  6

 40
0.0
 41
0.0
 42
0.0
 43
0.0
 44
0.0
 45
0.0
 46
0.0
 47
0.0
 48
0.0
 49
0.0
140
0.0
141
0.0
142
1.0
143
1.0
 70
0
 72
0
 73
0
 74
0
  7

 75
0
147
1.0
148
0.0
149
0.0
100
AcDbLayout
  1
Model
 70
0
 71
0
 10
0.0
 20
0.0
 11
0.0
 21
0.0
 12
0.0
 22
0.0
 32
0.0
 14
0.0
 24
0.0
 34
0.0
 15
0.0
 25
0.0
 35
0.0
146
0.0
 13
0.0
 23
0.0
 33
0.0
 16
0.0
 26
0.0
 36
0.0
 17
0.0
 27
0.0
 37
0.0
 76
0
330
1F
331
0
345
0
346
0
  0
ENDSEC
  0
EOF
