999
DXF file: EBK_6.dxf
999
Pro/ENGINEER 2006240 by Parametric Technology Corporation
  0
SECTION
  2
HEADER
  9
$ACADVER
  1
AC1015
  9
$DWGCODEPAGE
  3
ANSI_1252
  9
$EXTMAX
 10
22.0
 20
17.0
 30
0.0
  9
$EXTMIN
 10
0.0
 20
0.0
 30
0.0
  9
$LIMMIN
 10
0.0
 20
0.0
  9
$LIMMAX
 10
22.0
 20
17.0
  9
$VIEWCTR
 10
11.0
 20
8.5
  9
$VIEWSIZE
 40
17.0
  9
$CLAYER
  8
0
  9
$LTSCALE
 40
1.21
  9
$CELTYPE
  6
BYLAYER
  9
$DIMSCALE
 40
1.0
  9
$DIMASZ
 40
0.1875
  9
$DIMEXO
 40
0.1375
  9
$DIMDLI
 40
0.836
  9
$DIMEXE
 40
0.396
  9
$DIMCEN
 40
0.198
  9
$DIMLFAC
 40
1.0
  9
$DIMBLK
  1
_CLOSED
  9
$DIMTXT
 40
0.15625
  9
$DIMTOL
 70
0
  9
$DIMLIM
 70
0
  9
$DIMTFAC
 40
1.0
  9
$PDMODE
 70
3
  9
$PDSIZE
 40
0.3125
  9
$HANDSEED
  5
373
  9
$MEASUREMENT
 70
0
  9
$INSUNITS
 70
1
  0
ENDSEC
  0
SECTION
  2
CLASSES
  0
CLASS
  1
ACDBDICTIONARYWDFLT
  2
AcDbDictionaryWithDefault
  3
AutoCAD 2000
 90
0
280
0
281
0
  0
CLASS
  1
ACDBPLACEHOLDER
  2
AcDbPlaceHolder
  3
AutoCAD 2000
 90
0
280
0
281
0
  0
CLASS
  1
LAYOUT
  2
AcDbLayout
  3
AutoCAD 2000
 90
0
280
0
281
0
  0
ENDSEC
  0
SECTION
  2
TABLES
  0
TABLE
  2
VPORT
  5
8
100
AcDbSymbolTable
 70
2
  0
VPORT
  5
1F4
100
AcDbSymbolTableRecord
100
AcDbViewportTableRecord
  2
*ACTIVE
 70
0
 10
0.0
 20
0.0
 11
1.0
 21
1.0
 12
11.0
 22
8.5
 13
0.0
 23
0.0
 14
1.0
 24
1.0
 15
0.0
 25
0.0
 16
0.0
 26
0.0
 36
1.0
 17
0.0
 27
0.0
 37
0.0
 40
17.0
 41
1.2941176471
 42
50.0
 43
0.0
 44
0.0
 50
0.0
 51
0.0
 71
0
 72
100
 73
1
 74
1
 75
0
 76
0
 77
0
 78
0
  0
ENDTAB
  0
TABLE
  2
LTYPE
  5
5
100
AcDbSymbolTable
 70
6
  0
LTYPE
  5
14
100
AcDbSymbolTableRecord
100
AcDbLinetypeTableRecord
  2
BYBLOCK
 70
0
  3

 72
65
 73
0
 40
0.0
  0
LTYPE
  5
15
100
AcDbSymbolTableRecord
100
AcDbLinetypeTableRecord
  2
BYLAYER
 70
0
  3

 72
65
 73
0
 40
0.0
  0
LTYPE
  5
16
100
AcDbSymbolTableRecord
100
AcDbLinetypeTableRecord
  2
CONTINUOUS
 70
64
  3
Solid line
 72
65
 73
0
 40
0.0
  0
LTYPE
  5
1F5
100
AcDbSymbolTableRecord
100
AcDbLinetypeTableRecord
  2
CENTER
 70
64
  3
____ _ ____ _ ____ _ ____ _ ____ _ ____ _ ____
 72
65
 73
4
 40
0.6
 49
0.375
 74
0
 49
-0.075
 74
0
 49
0.075
 74
0
 49
-0.075
 74
0
  0
LTYPE
  5
1F6
100
AcDbSymbolTableRecord
100
AcDbLinetypeTableRecord
  2
HIDDEN
 70
64
  3
- - - - - - - - - - - - - - - - - - - -
 72
65
 73
2
 40
0.2
 49
0.1
 74
0
 49
-0.1
 74
0
  0
LTYPE
  5
1F7
100
AcDbSymbolTableRecord
100
AcDbLinetypeTableRecord
  2
PHANTOM
 70
64
  3
_____ _ _ _____ _ _ _____ _ _ _____
 72
65
 73
6
 40
0.8
 49
0.45
 74
0
 49
-0.05
 74
0
 49
0.1
 74
0
 49
-0.05
 74
0
 49
0.1
 74
0
 49
-0.05
 74
0
  0
LTYPE
  5
1F8
100
AcDbSymbolTableRecord
100
AcDbLinetypeTableRecord
  2
DOT
 70
64
  3
. . . . . . . . . . . . . . . . . . . .
 72
65
 73
2
 40
0.2
 49
0.1
 74
0
 49
-0.1
 74
0
  0
LTYPE
  5
1F9
100
AcDbSymbolTableRecord
100
AcDbLinetypeTableRecord
  2
DASHED
 70
64
  3
- - - - - - - - - - - - - - - - - - - -
 72
65
 73
2
 40
0.2
 49
0.1
 74
0
 49
-0.1
 74
0
  0
ENDTAB
  0
TABLE
  2
LAYER
  5
2
100
AcDbSymbolTable
 70
36
  0
LAYER
  5
10
100
AcDbSymbolTableRecord
100
AcDbLayerTableRecord
  2
0
 70
0
 62
7
  6
CONTINUOUS
370
-3
390
F
  0
LAYER
  5
1FA
100
AcDbSymbolTableRecord
100
AcDbLayerTableRecord
  2
DEFAULT_1
 70
0
 62
7
  6
CENTER
370
-3
390
F
  0
LAYER
  5
1FB
100
AcDbSymbolTableRecord
100
AcDbLayerTableRecord
  2
DEFAULT_2
 70
0
 62
8
  6
HIDDEN
370
-3
390
F
  0
LAYER
  5
1FC
100
AcDbSymbolTableRecord
100
AcDbLayerTableRecord
  2
DEFAULT_3
 70
0
 62
7
  6
PHANTOM
370
-3
390
F
  0
LAYER
  5
1FD
100
AcDbSymbolTableRecord
100
AcDbLayerTableRecord
  2
01_ALL_DTM_PLN
 70
0
 62
7
  6
CONTINUOUS
370
-3
390
F
  0
LAYER
  5
1FE
100
AcDbSymbolTableRecord
100
AcDbLayerTableRecord
  2
01__ASM_ALL_DTM_PLN
 70
0
 62
7
  6
CONTINUOUS
370
-3
390
F
  0
LAYER
  5
1FF
100
AcDbSymbolTableRecord
100
AcDbLayerTableRecord
  2
01__ASM_DEF_DTM_PLN
 70
0
 62
7
  6
CONTINUOUS
370
-3
390
F
  0
LAYER
  5
200
100
AcDbSymbolTableRecord
100
AcDbLayerTableRecord
  2
01___PRT_ALL_DTM_PLN
 70
0
 62
7
  6
CONTINUOUS
370
-3
390
F
  0
LAYER
  5
201
100
AcDbSymbolTableRecord
100
AcDbLayerTableRecord
  2
01___PRT_DEF_DTM_PLN
 70
0
 62
7
  6
CONTINUOUS
370
-3
390
F
  0
LAYER
  5
202
100
AcDbSymbolTableRecord
100
AcDbLayerTableRecord
  2
02_ALL_AXES
 70
0
 62
7
  6
CONTINUOUS
370
-3
390
F
  0
LAYER
  5
203
100
AcDbSymbolTableRecord
100
AcDbLayerTableRecord
  2
02__ASM_ALL_AXES
 70
0
 62
7
  6
CONTINUOUS
370
-3
390
F
  0
LAYER
  5
204
100
AcDbSymbolTableRecord
100
AcDbLayerTableRecord
  2
02___PRT_ALL_AXES
 70
0
 62
7
  6
CONTINUOUS
370
-3
390
F
  0
LAYER
  5
205
100
AcDbSymbolTableRecord
100
AcDbLayerTableRecord
  2
03_ALL_CURVES
 70
0
 62
7
  6
CONTINUOUS
370
-3
390
F
  0
LAYER
  5
206
100
AcDbSymbolTableRecord
100
AcDbLayerTableRecord
  2
03__ASM_ALL_CURVES
 70
0
 62
7
  6
CONTINUOUS
370
-3
390
F
  0
LAYER
  5
207
100
AcDbSymbolTableRecord
100
AcDbLayerTableRecord
  2
03___PRT_ALL_CURVES
 70
0
 62
7
  6
CONTINUOUS
370
-3
390
F
  0
LAYER
  5
208
100
AcDbSymbolTableRecord
100
AcDbLayerTableRecord
  2
04_ALL_DTM_PNT
 70
0
 62
7
  6
CONTINUOUS
370
-3
390
F
  0
LAYER
  5
209
100
AcDbSymbolTableRecord
100
AcDbLayerTableRecord
  2
04__ASM_ALL_DTM_PNT
 70
0
 62
7
  6
CONTINUOUS
370
-3
390
F
  0
LAYER
  5
20A
100
AcDbSymbolTableRecord
100
AcDbLayerTableRecord
  2
04___PRT_ALL_DTM_PNT
 70
0
 62
7
  6
CONTINUOUS
370
-3
390
F
  0
LAYER
  5
20B
100
AcDbSymbolTableRecord
100
AcDbLayerTableRecord
  2
05_ALL_DTM_CSYS
 70
0
 62
7
  6
CONTINUOUS
370
-3
390
F
  0
LAYER
  5
20C
100
AcDbSymbolTableRecord
100
AcDbLayerTableRecord
  2
05__ASM_ALL_DTM_CSYS
 70
0
 62
7
  6
CONTINUOUS
370
-3
390
F
  0
LAYER
  5
20D
100
AcDbSymbolTableRecord
100
AcDbLayerTableRecord
  2
05__ASM_DEF_DTM_CSYS
 70
0
 62
7
  6
CONTINUOUS
370
-3
390
F
  0
LAYER
  5
20E
100
AcDbSymbolTableRecord
100
AcDbLayerTableRecord
  2
05___PRT_ALL_DTM_CSYS
 70
0
 62
7
  6
CONTINUOUS
370
-3
390
F
  0
LAYER
  5
20F
100
AcDbSymbolTableRecord
100
AcDbLayerTableRecord
  2
05___PRT_DEF_DTM_CSYS
 70
0
 62
7
  6
CONTINUOUS
370
-3
390
F
  0
LAYER
  5
210
100
AcDbSymbolTableRecord
100
AcDbLayerTableRecord
  2
06_ALL_SURFS
 70
0
 62
7
  6
CONTINUOUS
370
-3
390
F
  0
LAYER
  5
211
100
AcDbSymbolTableRecord
100
AcDbLayerTableRecord
  2
06__ASM_ALL_SURFS
 70
0
 62
7
  6
CONTINUOUS
370
-3
390
F
  0
LAYER
  5
212
100
AcDbSymbolTableRecord
100
AcDbLayerTableRecord
  2
06___PRT_ALL_SURFS
 70
0
 62
7
  6
CONTINUOUS
370
-3
390
F
  0
LAYER
  5
213
100
AcDbSymbolTableRecord
100
AcDbLayerTableRecord
  2
07__ASM_ALL_SKELETONS
 70
0
 62
7
  6
CONTINUOUS
370
-3
390
F
  0
LAYER
  5
214
100
AcDbSymbolTableRecord
100
AcDbLayerTableRecord
  2
COPY_GEO_FET
 70
0
 62
7
  6
CONTINUOUS
370
-3
390
F
  0
LAYER
  5
215
100
AcDbSymbolTableRecord
100
AcDbLayerTableRecord
  2
COSMETIC
 70
0
 62
7
  6
CONTINUOUS
370
-3
390
F
  0
LAYER
  5
216
100
AcDbSymbolTableRecord
100
AcDbLayerTableRecord
  2
CUT_REF_SURF
 70
0
 62
7
  6
CONTINUOUS
370
-3
390
F
  0
LAYER
  5
217
100
AcDbSymbolTableRecord
100
AcDbLayerTableRecord
  2
DATESTAMP
 70
0
 62
7
  6
CONTINUOUS
370
-3
390
F
  0
LAYER
  5
218
100
AcDbSymbolTableRecord
100
AcDbLayerTableRecord
  2
DATUM
 70
0
 62
7
  6
CONTINUOUS
370
-3
390
F
  0
LAYER
  5
219
100
AcDbSymbolTableRecord
100
AcDbLayerTableRecord
  2
DATUM_B
 70
0
 62
7
  6
CONTINUOUS
370
-3
390
F
  0
LAYER
  5
21A
100
AcDbSymbolTableRecord
100
AcDbLayerTableRecord
  2
DATUM_PLANES
 70
0
 62
7
  6
CONTINUOUS
370
-3
390
F
  0
LAYER
  5
21B
100
AcDbSymbolTableRecord
100
AcDbLayerTableRecord
  2
DIM
 70
0
 62
7
  6
CONTINUOUS
370
-3
390
F
  0
LAYER
  5
21C
100
AcDbSymbolTableRecord
100
AcDbLayerTableRecord
  2
DIMENSIONS
 70
0
 62
7
  6
CONTINUOUS
370
-3
390
F
  0
LAYER
  5
21D
100
AcDbSymbolTableRecord
100
AcDbLayerTableRecord
  2
DIM_1
 70
0
 62
7
  6
CONTINUOUS
370
-3
390
F
  0
LAYER
  5
21E
100
AcDbSymbolTableRecord
100
AcDbLayerTableRecord
  2
DIM_2
 70
0
 62
7
  6
CONTINUOUS
370
-3
390
F
  0
LAYER
  5
21F
100
AcDbSymbolTableRecord
100
AcDbLayerTableRecord
  2
DIM_3
 70
0
 62
7
  6
CONTINUOUS
370
-3
390
F
  0
LAYER
  5
220
100
AcDbSymbolTableRecord
100
AcDbLayerTableRecord
  2
DIM_4
 70
0
 62
7
  6
CONTINUOUS
370
-3
390
F
  0
LAYER
  5
221
100
AcDbSymbolTableRecord
100
AcDbLayerTableRecord
  2
DIM_5
 70
0
 62
7
  6
CONTINUOUS
370
-3
390
F
  0
LAYER
  5
222
100
AcDbSymbolTableRecord
100
AcDbLayerTableRecord
  2
DTM
 70
0
 62
7
  6
CONTINUOUS
370
-3
390
F
  0
LAYER
  5
223
100
AcDbSymbolTableRecord
100
AcDbLayerTableRecord
  2
EBK_10
 70
0
 62
7
  6
CONTINUOUS
370
-3
390
F
  0
LAYER
  5
224
100
AcDbSymbolTableRecord
100
AcDbLayerTableRecord
  2
EBK_2
 70
0
 62
7
  6
CONTINUOUS
370
-3
390
F
  0
LAYER
  5
225
100
AcDbSymbolTableRecord
100
AcDbLayerTableRecord
  2
EBK_5
 70
0
 62
7
  6
CONTINUOUS
370
-3
390
F
  0
LAYER
  5
226
100
AcDbSymbolTableRecord
100
AcDbLayerTableRecord
  2
EBK_6
 70
0
 62
7
  6
CONTINUOUS
370
-3
390
F
  0
LAYER
  5
227
100
AcDbSymbolTableRecord
100
AcDbLayerTableRecord
  2
EBK_7
 70
0
 62
7
  6
CONTINUOUS
370
-3
390
F
  0
LAYER
  5
228
100
AcDbSymbolTableRecord
100
AcDbLayerTableRecord
  2
EBK_8
 70
0
 62
7
  6
CONTINUOUS
370
-3
390
F
  0
LAYER
  5
229
100
AcDbSymbolTableRecord
100
AcDbLayerTableRecord
  2
EXT_COPY_GEO
 70
0
 62
7
  6
CONTINUOUS
370
-3
390
F
  0
LAYER
  5
22A
100
AcDbSymbolTableRecord
100
AcDbLayerTableRecord
  2
LS
 70
0
 62
7
  6
CONTINUOUS
370
-3
390
F
  0
LAYER
  5
22B
100
AcDbSymbolTableRecord
100
AcDbLayerTableRecord
  2
ORIGIN
 70
0
 62
7
  6
CONTINUOUS
370
-3
390
F
  0
LAYER
  5
22C
100
AcDbSymbolTableRecord
100
AcDbLayerTableRecord
  2
PARAMETERDIMENSIONS
 70
0
 62
7
  6
CONTINUOUS
370
-3
390
F
  0
LAYER
  5
22D
100
AcDbSymbolTableRecord
100
AcDbLayerTableRecord
  2
PARTNUMBER
 70
0
 62
7
  6
CONTINUOUS
370
-3
390
F
  0
LAYER
  5
22E
100
AcDbSymbolTableRecord
100
AcDbLayerTableRecord
  2
PORT_AREAS
 70
0
 62
7
  6
CONTINUOUS
370
-3
390
F
  0
LAYER
  5
22F
100
AcDbSymbolTableRecord
100
AcDbLayerTableRecord
  2
TEXT
 70
0
 62
7
  6
CONTINUOUS
370
-3
390
F
  0
LAYER
  5
230
100
AcDbSymbolTableRecord
100
AcDbLayerTableRecord
  2
THREAD
 70
0
 62
7
  6
CONTINUOUS
370
-3
390
F
  0
LAYER
  5
231
100
AcDbSymbolTableRecord
100
AcDbLayerTableRecord
  2
THREADS
 70
0
 62
7
  6
CONTINUOUS
370
-3
390
F
  0
ENDTAB
  0
TABLE
  2
STYLE
  5
3
100
AcDbSymbolTable
 70
1
  0
STYLE
  5
11
100
AcDbSymbolTableRecord
100
AcDbTextStyleTableRecord
  2
STANDARD
 70
0
 40
0.0
 41
0.8
 50
0.0
 71
0
 42
0.2
  3
txt
  4

  0
ENDTAB
  0
TABLE
  2
VIEW
  5
6
100
AcDbSymbolTable
 70
0
  0
ENDTAB
  0
TABLE
  2
UCS
  5
7
100
AcDbSymbolTable
 70
0
  0
ENDTAB
  0
TABLE
  2
APPID
  5
9
100
AcDbSymbolTable
 70
1
  0
APPID
  5
232
100
AcDbSymbolTableRecord
100
AcDbRegAppTableRecord
  2
ACAD
 70
0
  0
ENDTAB
  0
TABLE
  2
BLOCK_RECORD
  5
1
100
AcDbSymbolTable
 70
0
  0
BLOCK_RECORD
  5
1F
100
AcDbSymbolTableRecord
100
AcDbBlockTableRecord
  2
*MODEL_SPACE
  0
BLOCK_RECORD
  5
1B
100
AcDbSymbolTableRecord
100
AcDbBlockTableRecord
  2
*PAPER_SPACE
  0
ENDTAB
  0
TABLE
  2
DIMSTYLE
  5
A
100
AcDbSymbolTable
 70
1
100
AcDbDimStyleTable
 71
0
  0
DIMSTYLE
105
233
100
AcDbSymbolTableRecord
100
AcDbDimStyleTableRecord
  2
STANDARD
 70
0
  3

  4

 40
1.0
 41
0.1875
 42
0.0625
 43
0.38
 44
0.18
 45
0.0
 46
0.0
 47
0.01
 48
0.01
140
0.15625
141
0.09
142
0.0
143
25.4
144
1.0
145
0.0
146
1.0
147
0.09
 71
0.0
 72
0.0
 73
1
 74
1
 75
0
 76
0
 77
0
 78
4
170
0
171
2
172
0
173
0
174
0
175
0
176
0
177
0
178
0
270
2
271
2
272
2
273
2
274
2
275
0
280
0
281
0
282
0
283
1
284
4
285
0
286
0
287
3
288
0
340
11
  0
ENDTAB
  0
ENDSEC
  0
SECTION
  2
BLOCKS
  0
BLOCK
  5
20
100
AcDbEntity
  8
0
100
AcDbBlockBegin
  2
*MODEL_SPACE
 70
0
 10
0.0
 20
0.0
 30
0.0
  3
*MODEL_SPACE
  1

  0
ENDBLK
  5
21
100
AcDbEntity
  8
0
100
AcDbBlockEnd
  0
BLOCK
  5
1C
100
AcDbEntity
  8
0
100
AcDbBlockBegin
  2
*PAPER_SPACE
 70
0
 10
0.0
 20
0.0
 30
0.0
  3
*PAPER_SPACE
  1

  0
ENDBLK
  5
1D
100
AcDbEntity
  8
0
100
AcDbBlockEnd
  0
ENDSEC
  0
SECTION
  2
ENTITIES
  0
LINE
  5
234
100
AcDbEntity
  8
03__ASM_ALL_CURVES
100
AcDbLine
 62
4
  6
CONTINUOUS
 10
8.2848628885
 20
7.4306695615
 11
8.2923628885
 21
7.4206695612
  0
LINE
  5
235
100
AcDbEntity
  8
03__ASM_ALL_CURVES
100
AcDbLine
 62
4
  6
CONTINUOUS
 10
8.5073628885
 20
7.434002895
 11
8.5173628885
 21
7.4206695612
  0
LINE
  5
236
100
AcDbEntity
  8
03__ASM_ALL_CURVES
100
AcDbLine
 62
4
  6
CONTINUOUS
 10
8.6673628885
 20
7.4206695612
 11
8.6573628885
 21
7.4273362281
  0
LINE
  5
237
100
AcDbEntity
  8
03__ASM_ALL_CURVES
100
AcDbLine
 62
4
  6
CONTINUOUS
 10
8.6773628885
 20
7.4673362263
 11
8.6873628885
 21
7.4606695612
  0
LINE
  5
238
100
AcDbEntity
  8
03__ASM_ALL_CURVES
100
AcDbLine
 62
4
  6
CONTINUOUS
 10
8.6773628885
 20
7.5006695612
 11
8.6873628885
 21
7.4940028962
  0
LINE
  5
239
100
AcDbEntity
  8
03__ASM_ALL_CURVES
100
AcDbLine
 62
4
  6
CONTINUOUS
 10
8.9073628885
 20
7.4206695612
 11
8.8973628885
 21
7.4273362281
  0
LINE
  5
23A
100
AcDbEntity
  8
03__ASM_ALL_CURVES
100
AcDbLine
 62
4
  6
CONTINUOUS
 10
8.6573628885
 20
7.4273362281
 11
8.6523628885
 21
7.434002895
  0
LINE
  5
23B
100
AcDbEntity
  8
03__ASM_ALL_CURVES
100
AcDbLine
 62
4
  6
CONTINUOUS
 10
8.6873628885
 20
7.4606695612
 11
8.6973628885
 21
7.4473362287
  0
LINE
  5
23C
100
AcDbEntity
  8
03__ASM_ALL_CURVES
100
AcDbLine
 62
4
  6
CONTINUOUS
 10
8.6873628885
 20
7.4940028962
 11
8.6923628885
 21
7.4873362263
  0
LINE
  5
23D
100
AcDbEntity
  8
03__ASM_ALL_CURVES
100
AcDbLine
 62
4
  6
CONTINUOUS
 10
8.7648628885
 20
7.4306695615
 11
8.7723628885
 21
7.4206695612
  0
LINE
  5
23E
100
AcDbEntity
  8
03__ASM_ALL_CURVES
100
AcDbLine
 62
4
  6
CONTINUOUS
 10
8.1923628885
 20
7.5006695612
 11
8.1923628885
 21
7.4206695612
  0
LINE
  5
23F
100
AcDbEntity
  8
03__ASM_ALL_CURVES
100
AcDbLine
 62
4
  6
CONTINUOUS
 10
8.9073628885
 20
7.4673362263
 11
8.8973628885
 21
7.4740028962
  0
LINE
  5
240
100
AcDbEntity
  8
03__ASM_ALL_CURVES
100
AcDbLine
 62
4
  6
CONTINUOUS
 10
8.9173628885
 20
7.4673362263
 11
8.9273628885
 21
7.4606695612
  0
LINE
  5
241
100
AcDbEntity
  8
03__ASM_ALL_CURVES
100
AcDbLine
 62
4
  6
CONTINUOUS
 10
8.9173628885
 20
7.5006695612
 11
8.9273628885
 21
7.4940028962
  0
LINE
  5
242
100
AcDbEntity
  8
03__ASM_ALL_CURVES
100
AcDbLine
 62
4
  6
CONTINUOUS
 10
8.8973628885
 20
7.4273362281
 11
8.8873628885
 21
7.4406695612
  0
LINE
  5
243
100
AcDbEntity
  8
03__ASM_ALL_CURVES
100
AcDbLine
 62
4
  6
CONTINUOUS
 10
8.8973628885
 20
7.4740028962
 11
8.8923628885
 21
7.4806695612
  0
LINE
  5
244
100
AcDbEntity
  8
03__ASM_ALL_CURVES
100
AcDbLine
 62
4
  6
CONTINUOUS
 10
8.9273628885
 20
7.4606695612
 11
8.9373628885
 21
7.4473362287
  0
LINE
  5
245
100
AcDbEntity
  8
03__ASM_ALL_CURVES
100
AcDbLine
 62
4
  6
CONTINUOUS
 10
8.9273628885
 20
7.4940028962
 11
8.9323628885
 21
7.4873362263
  0
LINE
  5
246
100
AcDbEntity
  8
03__ASM_ALL_CURVES
100
AcDbLine
 62
4
  6
CONTINUOUS
 10
8.9873628885
 20
7.5006695612
 11
8.9973628885
 21
7.4873362263
  0
LINE
  5
247
100
AcDbEntity
  8
03__ASM_ALL_CURVES
100
AcDbLine
 62
4
  6
CONTINUOUS
 10
8.5023628885
 20
7.4540028938
 11
8.5073628885
 21
7.434002895
  0
LINE
  5
248
100
AcDbEntity
  8
03__ASM_ALL_CURVES
100
AcDbLine
 62
4
  6
CONTINUOUS
 10
8.2848628885
 20
7.4206695612
 11
8.2848628885
 21
7.4306695615
  0
LINE
  5
249
100
AcDbEntity
  8
03__ASM_ALL_CURVES
100
AcDbLine
 62
4
  6
CONTINUOUS
 10
8.5023628885
 20
7.4673362263
 11
8.5023628885
 21
7.4540028938
  0
LINE
  5
24A
100
AcDbEntity
  8
03__ASM_ALL_CURVES
100
AcDbLine
 62
4
  6
CONTINUOUS
 10
8.6073628885
 20
7.4206695612
 11
8.6073628885
 21
7.5006695612
  0
LINE
  5
24B
100
AcDbEntity
  8
03__ASM_ALL_CURVES
100
AcDbLine
 62
4
  6
CONTINUOUS
 10
8.9173628885
 20
7.4206695612
 11
8.9073628885
 21
7.4206695612
  0
LINE
  5
24C
100
AcDbEntity
  8
03__ASM_ALL_CURVES
100
AcDbLine
 62
4
  6
CONTINUOUS
 10
8.7723628885
 20
7.4206695612
 11
8.7648628885
 21
7.4206695612
  0
LINE
  5
24D
100
AcDbEntity
  8
03__ASM_ALL_CURVES
100
AcDbLine
 62
4
  6
CONTINUOUS
 10
8.6773628885
 20
7.4206695612
 11
8.6673628885
 21
7.4206695612
  0
LINE
  5
24E
100
AcDbEntity
  8
03__ASM_ALL_CURVES
100
AcDbLine
 62
4
  6
CONTINUOUS
 10
8.2923628885
 20
7.4206695612
 11
8.2848628885
 21
7.4206695612
  0
LINE
  5
24F
100
AcDbEntity
  8
03__ASM_ALL_CURVES
100
AcDbLine
 62
4
  6
CONTINUOUS
 10
8.5723628885
 20
7.4406695612
 11
8.6173628885
 21
7.4406695612
  0
LINE
  5
250
100
AcDbEntity
  8
0
100
AcDbLine
 62
7
  6
CONTINUOUS
 10
11.6823628885
 20
7.4606695136
 11
9.4323628885
 21
7.4606695136
  0
LINE
  5
251
100
AcDbEntity
  8
03__ASM_ALL_CURVES
100
AcDbLine
 62
4
  6
CONTINUOUS
 10
9.3523628885
 20
7.4606695612
 11
9.1123628885
 21
7.4606695612
  0
LINE
  5
252
100
AcDbEntity
  8
03__ASM_ALL_CURVES
100
AcDbLine
 62
4
  6
CONTINUOUS
 10
8.6673628885
 20
7.4673362263
 11
8.6773628885
 21
7.4673362263
  0
LINE
  5
253
100
AcDbEntity
  8
03__ASM_ALL_CURVES
100
AcDbLine
 62
4
  6
CONTINUOUS
 10
8.9073628885
 20
7.4673362263
 11
8.9173628885
 21
7.4673362263
  0
LINE
  5
254
100
AcDbEntity
  8
0
100
AcDbLine
 62
7
  6
CONTINUOUS
 10
12.4013628885
 20
7.4766695374
 11
11.6823628885
 21
7.4766695374
  0
LINE
  5
255
100
AcDbEntity
  8
03__ASM_ALL_CURVES
100
AcDbLine
 62
4
  6
CONTINUOUS
 10
8.3723628885
 20
7.5006695612
 11
8.3323628885
 21
7.5006695612
  0
LINE
  5
256
100
AcDbEntity
  8
03__ASM_ALL_CURVES
100
AcDbLine
 62
4
  6
CONTINUOUS
 10
8.6673628885
 20
7.5006695612
 11
8.6773628885
 21
7.5006695612
  0
LINE
  5
257
100
AcDbEntity
  8
03__ASM_ALL_CURVES
100
AcDbLine
 62
4
  6
CONTINUOUS
 10
8.9073628885
 20
7.5006695612
 11
8.9173628885
 21
7.5006695612
  0
LINE
  5
258
100
AcDbEntity
  8
03__ASM_ALL_CURVES
100
AcDbLine
 62
4
  6
CONTINUOUS
 10
8.9973628885
 20
7.4873362263
 11
9.0023628885
 21
7.4673362263
  0
LINE
  5
259
100
AcDbEntity
  8
03__ASM_ALL_CURVES
100
AcDbLine
 62
4
  6
CONTINUOUS
 10
8.6923628885
 20
7.4873362263
 11
8.6923628885
 21
7.4806695612
  0
LINE
  5
25A
100
AcDbEntity
  8
03__ASM_ALL_CURVES
100
AcDbLine
 62
4
  6
CONTINUOUS
 10
8.6973628885
 20
7.4473362287
 11
8.6973628885
 21
7.4406695612
  0
LINE
  5
25B
100
AcDbEntity
  8
03__ASM_ALL_CURVES
100
AcDbLine
 62
4
  6
CONTINUOUS
 10
8.7648628885
 20
7.4206695612
 11
8.7648628885
 21
7.4306695615
  0
LINE
  5
25C
100
AcDbEntity
  8
03__ASM_ALL_CURVES
100
AcDbLine
 62
4
  6
CONTINUOUS
 10
8.3523628885
 20
7.4206695612
 11
8.3573628885
 21
7.4540028938
  0
LINE
  5
25D
100
AcDbEntity
  8
03__ASM_ALL_CURVES
100
AcDbLine
 62
4
  6
CONTINUOUS
 10
8.8323628885
 20
7.5006695612
 11
8.8323628885
 21
7.4206695612
  0
LINE
  5
25E
100
AcDbEntity
  8
03__ASM_ALL_CURVES
100
AcDbLine
 62
4
  6
CONTINUOUS
 10
8.8873628885
 20
7.4406695612
 11
8.8873628885
 21
7.4473362287
  0
LINE
  5
25F
100
AcDbEntity
  8
03__ASM_ALL_CURVES
100
AcDbLine
 62
4
  6
CONTINUOUS
 10
8.8923628885
 20
7.4806695612
 11
8.8923628885
 21
7.4873362263
  0
LINE
  5
260
100
AcDbEntity
  8
03__ASM_ALL_CURVES
100
AcDbLine
 62
4
  6
CONTINUOUS
 10
8.8923628885
 20
9.1473362287
 11
8.8923628885
 21
9.1740028962
  0
LINE
  5
261
100
AcDbEntity
  8
03__ASM_ALL_CURVES
100
AcDbLine
 62
4
  6
CONTINUOUS
 10
8.9323628885
 20
9.1740028962
 11
8.9323628885
 21
9.1473362287
  0
LINE
  5
262
100
AcDbEntity
  8
03__ASM_ALL_CURVES
100
AcDbLine
 62
4
  6
CONTINUOUS
 10
8.9323628885
 20
7.4873362263
 11
8.9323628885
 21
7.4806695612
  0
LINE
  5
263
100
AcDbEntity
  8
03__ASM_ALL_CURVES
100
AcDbLine
 62
4
  6
CONTINUOUS
 10
8.9373628885
 20
7.4473362287
 11
8.9373628885
 21
7.4406695612
  0
LINE
  5
264
100
AcDbEntity
  8
03__ASM_ALL_CURVES
100
AcDbLine
 62
4
  6
CONTINUOUS
 10
8.3573628885
 20
7.4540028938
 11
8.3623628885
 21
7.4740028962
  0
LINE
  5
265
100
AcDbEntity
  8
03__ASM_ALL_CURVES
100
AcDbLine
 62
4
  6
CONTINUOUS
 10
8.5073628885
 20
7.4873362263
 11
8.5023628885
 21
7.4673362263
  0
LINE
  5
266
100
AcDbEntity
  8
03__ASM_ALL_CURVES
100
AcDbLine
 62
4
  6
CONTINUOUS
 10
8.8923628885
 20
9.1740028962
 11
8.8973628885
 21
9.1873362263
  0
LINE
  5
267
100
AcDbEntity
  8
0
100
AcDbLine
 62
7
  6
CONTINUOUS
 10
12.4323628885
 20
7.8516695374
 11
11.6823628885
 21
7.8516695374
  0
LINE
  5
268
100
AcDbEntity
  8
03__ASM_ALL_CURVES
100
AcDbLine
 62
4
  6
CONTINUOUS
 10
8.8973628885
 20
9.134002895
 11
8.8923628885
 21
9.1473362287
  0
LINE
  5
269
100
AcDbEntity
  8
03__ASM_ALL_CURVES
100
AcDbLine
 62
4
  6
CONTINUOUS
 10
9.0023628885
 20
7.4673362263
 11
9.0023628885
 21
7.4540028938
  0
LINE
  5
26A
100
AcDbEntity
  8
03__ASM_ALL_CURVES
100
AcDbLine
 62
4
  6
CONTINUOUS
 10
8.9323628885
 20
9.1473362287
 11
8.9273628885
 21
9.134002895
  0
LINE
  5
26B
100
AcDbEntity
  8
03__ASM_ALL_CURVES
100
AcDbLine
 62
4
  6
CONTINUOUS
 10
8.3623628885
 20
7.4740028962
 11
8.3723628885
 21
7.5006695612
  0
LINE
  5
26C
100
AcDbEntity
  8
03__ASM_ALL_CURVES
100
AcDbLine
 62
4
  6
CONTINUOUS
 10
8.8973628885
 20
9.1873362263
 11
8.9023628885
 21
9.1940028962
  0
LINE
  5
26D
100
AcDbEntity
  8
03__ASM_ALL_CURVES
100
AcDbLine
 62
4
  6
CONTINUOUS
 10
8.9023628885
 20
9.1273362281
 11
8.8973628885
 21
9.134002895
  0
LINE
  5
26E
100
AcDbEntity
  8
03__ASM_ALL_CURVES
100
AcDbLine
 62
4
  6
CONTINUOUS
 10
8.9273628885
 20
9.1873362263
 11
8.9323628885
 21
9.1740028962
  0
LINE
  5
26F
100
AcDbEntity
  8
03__ASM_ALL_CURVES
100
AcDbLine
 62
4
  6
CONTINUOUS
 10
9.3923628885
 20
9.6806695612
 11
9.3990295536
 21
9.6906695612
  0
LINE
  5
270
100
AcDbEntity
  8
03__ASM_ALL_CURVES
100
AcDbLine
 62
4
  6
CONTINUOUS
 10
9.4723628885
 20
9.6806695612
 11
9.4656962216
 21
9.6706695612
  0
LINE
  5
271
100
AcDbEntity
  8
03__ASM_ALL_CURVES
100
AcDbLine
 62
4
  6
CONTINUOUS
 10
8.9273628885
 20
9.134002895
 11
8.9223628885
 21
9.1273362281
  0
LINE
  5
272
100
AcDbEntity
  8
03__ASM_ALL_CURVES
100
AcDbLine
 62
4
  6
CONTINUOUS
 10
9.3990295536
 20
9.6906695612
 11
9.4056962234
 21
9.6956695612
  0
LINE
  5
273
100
AcDbEntity
  8
03__ASM_ALL_CURVES
100
AcDbLine
 62
4
  6
CONTINUOUS
 10
8.9223628885
 20
9.1940028962
 11
8.9273628885
 21
9.1873362263
  0
LINE
  5
274
100
AcDbEntity
  8
0
100
AcDbLine
 62
7
  6
CONTINUOUS
 10
9.4323628885
 20
9.1606695612
 11
9.4323628885
 21
7.4606695136
  0
LINE
  5
275
100
AcDbEntity
  8
03__ASM_ALL_CURVES
100
AcDbLine
 62
4
  6
CONTINUOUS
 10
9.4323628885
 20
9.2406695612
 11
9.4323628885
 21
9.4806695612
  0
LINE
  5
276
100
AcDbEntity
  8
03__ASM_ALL_CURVES
100
AcDbLine
 62
4
  6
CONTINUOUS
 10
9.0023628885
 20
7.4540028938
 11
8.9973628885
 21
7.434002895
  0
LINE
  5
277
100
AcDbEntity
  8
03__ASM_ALL_CURVES
100
AcDbLine
 62
4
  6
CONTINUOUS
 10
9.4656962216
 20
9.6706695612
 11
9.4590295548
 21
9.6656695612
  0
LINE
  5
278
100
AcDbEntity
  8
03__ASM_ALL_CURVES
100
AcDbLine
 62
4
  6
CONTINUOUS
 10
8.9023628885
 20
9.1940028962
 11
8.9123628885
 21
9.2006695612
  0
LINE
  5
279
100
AcDbEntity
  8
03__ASM_ALL_CURVES
100
AcDbLine
 62
4
  6
CONTINUOUS
 10
9.4056962234
 20
9.6956695612
 11
9.4190295536
 21
9.7006695612
  0
LINE
  5
27A
100
AcDbEntity
  8
03__ASM_ALL_CURVES
100
AcDbLine
 62
4
  6
CONTINUOUS
 10
9.4590295548
 20
9.6656695612
 11
9.445696221
 21
9.6606695612
  0
LINE
  5
27B
100
AcDbEntity
  8
03__ASM_ALL_CURVES
100
AcDbLine
 62
4
  6
CONTINUOUS
 10
8.9123628885
 20
9.1206695612
 11
8.9023628885
 21
9.1273362281
  0
LINE
  5
27C
100
AcDbEntity
  8
03__ASM_ALL_CURVES
100
AcDbLine
 62
4
  6
CONTINUOUS
 10
8.9123628885
 20
9.2006695612
 11
8.9223628885
 21
9.1940028962
  0
LINE
  5
27D
100
AcDbEntity
  8
03__ASM_ALL_CURVES
100
AcDbLine
 62
4
  6
CONTINUOUS
 10
8.6073628885
 20
7.5006695612
 11
8.5723628885
 21
7.4406695612
  0
LINE
  5
27E
100
AcDbEntity
  8
03__ASM_ALL_CURVES
100
AcDbLine
 62
4
  6
CONTINUOUS
 10
11.7043628885
 20
10.9556695612
 11
11.7176962234
 21
10.9656695612
  0
LINE
  5
27F
100
AcDbEntity
  8
03__ASM_ALL_CURVES
100
AcDbLine
 62
4
  6
CONTINUOUS
 10
8.9223628885
 20
9.1273362281
 11
8.9123628885
 21
9.1206695612
  0
LINE
  5
280
100
AcDbEntity
  8
03__ASM_ALL_CURVES
100
AcDbLine
 62
4
  6
CONTINUOUS
 10
11.7443628885
 20
10.4156695612
 11
11.757696221
 21
10.4206695612
  0
LINE
  5
281
100
AcDbEntity
  8
03__ASM_ALL_CURVES
100
AcDbLine
 62
4
  6
CONTINUOUS
 10
11.7710295548
 20
10.3856695612
 11
11.757696221
 21
10.3806695612
  0
LINE
  5
282
100
AcDbEntity
  8
03__ASM_ALL_CURVES
100
AcDbLine
 62
4
  6
CONTINUOUS
 10
8.5173628885
 20
7.5006695612
 11
8.5073628885
 21
7.4873362263
  0
LINE
  5
283
100
AcDbEntity
  8
03__ASM_ALL_CURVES
100
AcDbLine
 62
4
  6
CONTINUOUS
 10
11.7176962234
 20
10.9006695612
 11
11.7110295536
 21
10.8956695612
  0
LINE
  5
284
100
AcDbEntity
  8
03__ASM_ALL_CURVES
100
AcDbLine
 62
4
  6
CONTINUOUS
 10
11.7510295559
 20
10.8956695612
 11
11.757696221
 21
10.9006695612
  0
LINE
  5
285
100
AcDbEntity
  8
03__ASM_ALL_CURVES
100
AcDbLine
 62
4
  6
CONTINUOUS
 10
11.7243628885
 20
10.8606695612
 11
11.7310295536
 21
10.8656695612
  0
LINE
  5
286
100
AcDbEntity
  8
03__ASM_ALL_CURVES
100
AcDbLine
 62
4
  6
CONTINUOUS
 10
11.7776962216
 20
10.8656695612
 11
11.7643628885
 21
10.8556695612
  0
LINE
  5
287
100
AcDbEntity
  8
03__ASM_ALL_CURVES
100
AcDbLine
 62
4
  6
CONTINUOUS
 10
11.7443628885
 20
10.1806695612
 11
11.757696221
 21
10.1856695612
  0
LINE
  5
288
100
AcDbEntity
  8
03__ASM_ALL_CURVES
100
AcDbLine
 62
4
  6
CONTINUOUS
 10
12.4056962234
 20
10.4156695612
 11
12.4190295536
 21
10.4206695612
  0
LINE
  5
289
100
AcDbEntity
  8
03__ASM_ALL_CURVES
100
AcDbLine
 62
4
  6
CONTINUOUS
 10
12.4323628885
 20
10.3856695612
 11
12.4190295536
 21
10.3806695612
  0
LINE
  5
28A
100
AcDbEntity
  8
0
100
AcDbLine
 62
7
  6
CONTINUOUS
 10
12.4323628885
 20
8.7696695374
 11
11.6823628885
 21
8.7696695374
  0
LINE
  5
28B
100
AcDbEntity
  8
03__ASM_ALL_CURVES
100
AcDbLine
 62
4
  6
CONTINUOUS
 10
9.3990295536
 20
9.6706695612
 11
9.3923628885
 21
9.6806695612
  0
LINE
  5
28C
100
AcDbEntity
  8
03__ASM_ALL_CURVES
100
AcDbLine
 62
4
  6
CONTINUOUS
 10
9.4656962216
 20
9.6906695612
 11
9.4723628885
 21
9.6806695612
  0
LINE
  5
28D
100
AcDbEntity
  8
03__ASM_ALL_CURVES
100
AcDbLine
 62
4
  6
CONTINUOUS
 10
8.6923628885
 20
7.4806695612
 11
8.6873628885
 21
7.4740028962
  0
LINE
  5
28E
100
AcDbEntity
  8
03__ASM_ALL_CURVES
100
AcDbLine
 62
4
  6
CONTINUOUS
 10
8.6973628885
 20
7.4406695612
 11
8.6873628885
 21
7.4273362281
  0
LINE
  5
28F
100
AcDbEntity
  8
03__ASM_ALL_CURVES
100
AcDbLine
 62
4
  6
CONTINUOUS
 10
11.7710295548
 20
10.7156695612
 11
11.7843628885
 21
10.7256695612
  0
LINE
  5
290
100
AcDbEntity
  8
03__ASM_ALL_CURVES
100
AcDbLine
 62
4
  6
CONTINUOUS
 10
11.7043628885
 20
10.5556695612
 11
11.7176962234
 21
10.5656695612
  0
LINE
  5
291
100
AcDbEntity
  8
03__ASM_ALL_CURVES
100
AcDbLine
 62
4
  6
CONTINUOUS
 10
12.4323628885
 20
10.1756695612
 11
12.445696221
 21
10.1806695612
  0
LINE
  5
292
100
AcDbEntity
  8
03__ASM_ALL_CURVES
100
AcDbLine
 62
4
  6
CONTINUOUS
 10
8.8923628885
 20
7.4873362263
 11
8.8973628885
 21
7.4940028962
  0
LINE
  5
293
100
AcDbEntity
  8
03__ASM_ALL_CURVES
100
AcDbLine
 62
4
  6
CONTINUOUS
 10
8.8873628885
 20
7.4473362287
 11
8.8973628885
 21
7.4606695612
  0
LINE
  5
294
100
AcDbEntity
  8
03__ASM_ALL_CURVES
100
AcDbLine
 62
4
  6
CONTINUOUS
 10
8.9323628885
 20
7.4806695612
 11
8.9273628885
 21
7.4740028962
  0
LINE
  5
295
100
AcDbEntity
  8
03__ASM_ALL_CURVES
100
AcDbLine
 62
4
  6
CONTINUOUS
 10
8.9373628885
 20
7.4406695612
 11
8.9273628885
 21
7.4273362281
  0
LINE
  5
296
100
AcDbEntity
  8
03__ASM_ALL_CURVES
100
AcDbLine
 62
4
  6
CONTINUOUS
 10
8.9973628885
 20
7.434002895
 11
8.9873628885
 21
7.4206695612
  0
LINE
  5
297
100
AcDbEntity
  8
03__ASM_ALL_CURVES
100
AcDbLine
 62
4
  6
CONTINUOUS
 10
11.7110295536
 20
10.4106695612
 11
11.7176962234
 21
10.4156695612
  0
LINE
  5
298
100
AcDbEntity
  8
03__ASM_ALL_CURVES
100
AcDbLine
 62
4
  6
CONTINUOUS
 10
11.7776962216
 20
10.3906695612
 11
11.7710295548
 21
10.3856695612
  0
LINE
  5
299
100
AcDbEntity
  8
03__ASM_ALL_CURVES
100
AcDbLine
 62
4
  6
CONTINUOUS
 10
11.7743628882
 20
10.3331695612
 11
11.7843628885
 21
10.3406695612
  0
LINE
  5
29A
100
AcDbEntity
  8
03__ASM_ALL_CURVES
100
AcDbLine
 62
4
  6
CONTINUOUS
 10
11.7110295536
 20
10.2556695612
 11
11.7176962234
 21
10.2606695612
  0
LINE
  5
29B
100
AcDbEntity
  8
03__ASM_ALL_CURVES
100
AcDbLine
 62
4
  6
CONTINUOUS
 10
12.4590295548
 20
10.1456695612
 11
12.445696221
 21
10.1406695612
  0
LINE
  5
29C
100
AcDbEntity
  8
0
100
AcDbLine
 62
7
  6
CONTINUOUS
 10
12.4013628885
 20
9.1446695374
 11
11.6823628885
 21
9.1446695374
  0
LINE
  5
29D
100
AcDbEntity
  8
0
100
AcDbLine
 62
7
  6
CONTINUOUS
 10
11.6823628885
 20
9.1606695612
 11
9.4323628885
 21
9.1606695612
  0
LINE
  5
29E
100
AcDbEntity
  8
03__ASM_ALL_CURVES
100
AcDbLine
 62
4
  6
CONTINUOUS
 10
9.3523628885
 20
9.1606695612
 11
9.1123628885
 21
9.1606695612
  0
LINE
  5
29F
100
AcDbEntity
  8
03__ASM_ALL_CURVES
100
AcDbLine
 62
4
  6
CONTINUOUS
 10
9.4056962234
 20
9.6656695612
 11
9.3990295536
 21
9.6706695612
  0
LINE
  5
2A0
100
AcDbEntity
  8
03__ASM_ALL_CURVES
100
AcDbLine
 62
4
  6
CONTINUOUS
 10
9.4590295548
 20
9.6956695612
 11
9.4656962216
 21
9.6906695612
  0
LINE
  5
2A1
100
AcDbEntity
  8
03__ASM_ALL_CURVES
100
AcDbLine
 62
4
  6
CONTINUOUS
 10
11.7443628885
 20
10.2556695612
 11
11.757696221
 21
10.2656695612
  0
LINE
  5
2A2
100
AcDbEntity
  8
03__ASM_ALL_CURVES
100
AcDbLine
 62
4
  6
CONTINUOUS
 10
11.7310295536
 20
10.2256695612
 11
11.7243628885
 21
10.2206695612
  0
LINE
  5
2A3
100
AcDbEntity
  8
03__ASM_ALL_CURVES
100
AcDbLine
 62
4
  6
CONTINUOUS
 10
11.7776962216
 20
10.2256695612
 11
11.7643628885
 21
10.2156695612
  0
LINE
  5
2A4
100
AcDbEntity
  8
03__ASM_ALL_CURVES
100
AcDbLine
 62
4
  6
CONTINUOUS
 10
11.7376962234
 20
10.1756695612
 11
11.7443628885
 21
10.1806695612
  0
LINE
  5
2A5
100
AcDbEntity
  8
03__ASM_ALL_CURVES
100
AcDbLine
 62
4
  6
CONTINUOUS
 10
11.7776962216
 20
10.1456695612
 11
11.7710295548
 21
10.1406695612
  0
LINE
  5
2A6
100
AcDbEntity
  8
03__ASM_ALL_CURVES
100
AcDbLine
 62
4
  6
CONTINUOUS
 10
11.7710295548
 20
10.0756695612
 11
11.7843628885
 21
10.0856695612
  0
LINE
  5
2A7
100
AcDbEntity
  8
03__ASM_ALL_CURVES
100
AcDbLine
 62
4
  6
CONTINUOUS
 10
12.4056962234
 20
9.8556695612
 11
12.4190295536
 21
9.8606695612
  0
LINE
  5
2A8
100
AcDbEntity
  8
03__ASM_ALL_CURVES
100
AcDbLine
 62
4
  6
CONTINUOUS
 10
12.4590295548
 20
9.8256695612
 11
12.445696221
 21
9.8206695612
  0
LINE
  5
2A9
100
AcDbEntity
  8
03__ASM_ALL_CURVES
100
AcDbLine
 62
4
  6
CONTINUOUS
 10
9.4190295536
 20
9.6606695612
 11
9.4056962234
 21
9.6656695612
  0
LINE
  5
2AA
100
AcDbEntity
  8
03__ASM_ALL_CURVES
100
AcDbLine
 62
4
  6
CONTINUOUS
 10
9.445696221
 20
9.7006695612
 11
9.4590295548
 21
9.6956695612
  0
LINE
  5
2AB
100
AcDbEntity
  8
03__ASM_ALL_CURVES
100
AcDbLine
 62
4
  6
CONTINUOUS
 10
11.7110295536
 20
10.8956695612
 11
11.7043628885
 21
10.8856695612
  0
LINE
  5
2AC
100
AcDbEntity
  8
03__ASM_ALL_CURVES
100
AcDbLine
 62
4
  6
CONTINUOUS
 10
11.7310295536
 20
10.8656695612
 11
11.7510295559
 21
10.8956695612
  0
LINE
  5
2AD
100
AcDbEntity
  8
03__ASM_ALL_CURVES
100
AcDbLine
 62
4
  6
CONTINUOUS
 10
11.7843628885
 20
10.8756695612
 11
11.7776962216
 21
10.8656695612
  0
LINE
  5
2AE
100
AcDbEntity
  8
03__ASM_ALL_CURVES
100
AcDbLine
 62
4
  6
CONTINUOUS
 10
12.3923628885
 20
10.4756695612
 11
12.4056962234
 21
10.4856695612
  0
LINE
  5
2AF
100
AcDbEntity
  8
03__ASM_ALL_CURVES
100
AcDbLine
 62
4
  6
CONTINUOUS
 10
12.3990295536
 20
10.4106695612
 11
12.4056962234
 21
10.4156695612
  0
LINE
  5
2B0
100
AcDbEntity
  8
03__ASM_ALL_CURVES
100
AcDbLine
 62
4
  6
CONTINUOUS
 10
11.7110295536
 20
9.8556695612
 11
11.7176962234
 21
9.8606695612
  0
LINE
  5
2B1
100
AcDbEntity
  8
03__ASM_ALL_CURVES
100
AcDbLine
 62
4
  6
CONTINUOUS
 10
11.7443628885
 20
9.8556695612
 11
11.757696221
 21
9.8656695612
  0
LINE
  5
2B2
100
AcDbEntity
  8
03__ASM_ALL_CURVES
100
AcDbLine
 62
4
  6
CONTINUOUS
 10
12.4656962216
 20
10.3906695612
 11
12.4590295548
 21
10.3856695612
  0
LINE
  5
2B3
100
AcDbEntity
  8
03__ASM_ALL_CURVES
100
AcDbLine
 62
4
  6
CONTINUOUS
 10
11.7776962216
 20
9.8256695612
 11
11.7710295548
 21
9.8206695612
  0
LINE
  5
2B4
100
AcDbEntity
  8
03__ASM_ALL_CURVES
100
AcDbLine
 62
4
  6
CONTINUOUS
 10
12.4390295559
 20
9.9906695612
 11
12.4590295548
 21
9.9956695612
  0
LINE
  5
2B5
100
AcDbEntity
  8
03__ASM_ALL_CURVES
100
AcDbLine
 62
4
  6
CONTINUOUS
 10
11.7043628885
 20
10.4006695612
 11
11.7110295536
 21
10.4106695612
  0
LINE
  5
2B6
100
AcDbEntity
  8
03__ASM_ALL_CURVES
100
AcDbLine
 62
4
  6
CONTINUOUS
 10
11.7843628885
 20
10.4006695612
 11
11.7776962216
 21
10.3906695612
  0
LINE
  5
2B7
100
AcDbEntity
  8
03__ASM_ALL_CURVES
100
AcDbLine
 62
4
  6
CONTINUOUS
 10
11.7743628882
 20
9.7731695612
 11
11.7843628885
 21
9.7806695612
  0
LINE
  5
2B8
100
AcDbEntity
  8
03__ASM_ALL_CURVES
100
AcDbLine
 62
4
  6
CONTINUOUS
 10
11.7110295536
 20
9.6956695612
 11
11.7176962234
 21
9.7006695612
  0
LINE
  5
2B9
100
AcDbEntity
  8
03__ASM_ALL_CURVES
100
AcDbLine
 62
4
  6
CONTINUOUS
 10
12.4623628882
 20
10.2531695612
 11
12.4723628885
 21
10.2606695612
  0
LINE
  5
2BA
100
AcDbEntity
  8
03__ASM_ALL_CURVES
100
AcDbLine
 62
4
  6
CONTINUOUS
 10
12.3990295536
 20
10.1706695612
 11
12.4056962234
 21
10.1756695612
  0
LINE
  5
2BB
100
AcDbEntity
  8
03__ASM_ALL_CURVES
100
AcDbLine
 62
4
  6
CONTINUOUS
 10
12.4656962216
 20
10.1506695612
 11
12.4590295548
 21
10.1456695612
  0
LINE
  5
2BC
100
AcDbEntity
  8
03__ASM_ALL_CURVES
100
AcDbLine
 62
4
  6
CONTINUOUS
 10
8.6573628885
 20
7.4940028962
 11
8.6673628885
 21
7.5006695612
  0
LINE
  5
2BD
100
AcDbEntity
  8
03__ASM_ALL_CURVES
100
AcDbLine
 62
4
  6
CONTINUOUS
 10
8.6873628885
 20
7.4740028962
 11
8.6773628885
 21
7.4673362263
  0
LINE
  5
2BE
100
AcDbEntity
  8
03__ASM_ALL_CURVES
100
AcDbLine
 62
4
  6
CONTINUOUS
 10
8.6873628885
 20
7.4273362281
 11
8.6773628885
 21
7.4206695612
  0
LINE
  5
2BF
100
AcDbEntity
  8
03__ASM_ALL_CURVES
100
AcDbLine
 62
4
  6
CONTINUOUS
 10
11.7510295559
 20
10.0706695612
 11
11.7710295548
 21
10.0756695612
  0
LINE
  5
2C0
100
AcDbEntity
  8
03__ASM_ALL_CURVES
100
AcDbLine
 62
4
  6
CONTINUOUS
 10
9.445696221
 20
9.6606695612
 11
9.4190295536
 21
9.6606695612
  0
LINE
  5
2C1
100
AcDbEntity
  8
03__ASM_ALL_CURVES
100
AcDbLine
 62
4
  6
CONTINUOUS
 10
9.4190295536
 20
9.7006695612
 11
9.445696221
 21
9.7006695612
  0
LINE
  5
2C2
100
AcDbEntity
  8
03__ASM_ALL_CURVES
100
AcDbLine
 62
4
  6
CONTINUOUS
 10
11.7176962234
 20
9.7006695612
 11
11.7310295536
 21
9.7006695612
  0
LINE
  5
2C3
100
AcDbEntity
  8
03__ASM_ALL_CURVES
100
AcDbLine
 62
4
  6
CONTINUOUS
 10
12.4056962234
 20
9.7006695612
 11
12.4123628885
 21
9.7006695612
  0
LINE
  5
2C4
100
AcDbEntity
  8
03__ASM_ALL_CURVES
100
AcDbLine
 62
4
  6
CONTINUOUS
 10
12.445696221
 20
9.7056695612
 11
12.4523628885
 21
9.7056695612
  0
LINE
  5
2C5
100
AcDbEntity
  8
03__ASM_ALL_CURVES
100
AcDbLine
 62
4
  6
CONTINUOUS
 10
12.4723628885
 20
9.7731695612
 11
12.4623628882
 21
9.7731695612
  0
LINE
  5
2C6
100
AcDbEntity
  8
03__ASM_ALL_CURVES
100
AcDbLine
 62
4
  6
CONTINUOUS
 10
11.7843628885
 20
9.7731695612
 11
11.7743628882
 21
9.7731695612
  0
LINE
  5
2C7
100
AcDbEntity
  8
03__ASM_ALL_CURVES
100
AcDbLine
 62
4
  6
CONTINUOUS
 10
11.7043628885
 20
10.2456695612
 11
11.7110295536
 21
10.2556695612
  0
LINE
  5
2C8
100
AcDbEntity
  8
03__ASM_ALL_CURVES
100
AcDbLine
 62
4
  6
CONTINUOUS
 10
11.7376962234
 20
10.2456695612
 11
11.7443628885
 21
10.2556695612
  0
LINE
  5
2C9
100
AcDbEntity
  8
03__ASM_ALL_CURVES
100
AcDbLine
 62
4
  6
CONTINUOUS
 10
11.7376962234
 20
10.2356695612
 11
11.7310295536
 21
10.2256695612
  0
LINE
  5
2CA
100
AcDbEntity
  8
03__ASM_ALL_CURVES
100
AcDbLine
 62
4
  6
CONTINUOUS
 10
11.7310295536
 20
10.1656695612
 11
11.7376962234
 21
10.1756695612
  0
LINE
  5
2CB
100
AcDbEntity
  8
03__ASM_ALL_CURVES
100
AcDbLine
 62
4
  6
CONTINUOUS
 10
11.7843628885
 20
10.2356695612
 11
11.7776962216
 21
10.2256695612
  0
LINE
  5
2CC
100
AcDbEntity
  8
03__ASM_ALL_CURVES
100
AcDbLine
 62
4
  6
CONTINUOUS
 10
11.7843628885
 20
10.1556695612
 11
11.7776962216
 21
10.1456695612
  0
LINE
  5
2CD
100
AcDbEntity
  8
03__ASM_ALL_CURVES
100
AcDbLine
 62
4
  6
CONTINUOUS
 10
12.4590295548
 20
9.9956695612
 11
12.4723628885
 21
10.0056695612
  0
LINE
  5
2CE
100
AcDbEntity
  8
03__ASM_ALL_CURVES
100
AcDbLine
 62
4
  6
CONTINUOUS
 10
12.3990295536
 20
9.8506695612
 11
12.4056962234
 21
9.8556695612
  0
LINE
  5
2CF
100
AcDbEntity
  8
03__ASM_ALL_CURVES
100
AcDbLine
 62
4
  6
CONTINUOUS
 10
8.8973628885
 20
7.4940028962
 11
8.9073628885
 21
7.5006695612
  0
LINE
  5
2D0
100
AcDbEntity
  8
03__ASM_ALL_CURVES
100
AcDbLine
 62
4
  6
CONTINUOUS
 10
8.8973628885
 20
7.4606695612
 11
8.9073628885
 21
7.4673362263
  0
LINE
  5
2D1
100
AcDbEntity
  8
03__ASM_ALL_CURVES
100
AcDbLine
 62
4
  6
CONTINUOUS
 10
8.9273628885
 20
7.4740028962
 11
8.9173628885
 21
7.4673362263
  0
LINE
  5
2D2
100
AcDbEntity
  8
03__ASM_ALL_CURVES
100
AcDbLine
 62
4
  6
CONTINUOUS
 10
8.9273628885
 20
7.4273362281
 11
8.9173628885
 21
7.4206695612
  0
LINE
  5
2D3
100
AcDbEntity
  8
03__ASM_ALL_CURVES
100
AcDbLine
 62
4
  6
CONTINUOUS
 10
12.4056962234
 20
10.4856695612
 11
12.4256962234
 21
10.4906695612
  0
LINE
  5
2D4
100
AcDbEntity
  8
03__ASM_ALL_CURVES
100
AcDbLine
 62
4
  6
CONTINUOUS
 10
12.445696221
 20
9.8206695612
 11
12.4190295536
 21
9.8206695612
  0
LINE
  5
2D5
100
AcDbEntity
  8
03__ASM_ALL_CURVES
100
AcDbLine
 62
4
  6
CONTINUOUS
 10
11.7176962234
 20
9.8606695612
 11
11.7243628885
 21
9.8606695612
  0
LINE
  5
2D6
100
AcDbEntity
  8
03__ASM_ALL_CURVES
100
AcDbLine
 62
4
  6
CONTINUOUS
 10
12.4190295536
 20
9.8606695612
 11
12.445696221
 21
9.8606695612
  0
LINE
  5
2D7
100
AcDbEntity
  8
03__ASM_ALL_CURVES
100
AcDbLine
 62
4
  6
CONTINUOUS
 10
11.757696221
 20
9.8656695612
 11
11.7643628885
 21
9.8656695612
  0
LINE
  5
2D8
100
AcDbEntity
  8
03__ASM_ALL_CURVES
100
AcDbLine
 62
4
  6
CONTINUOUS
 10
11.7043628885
 20
9.9206695612
 11
11.7843628885
 21
9.9206695612
  0
LINE
  5
2D9
100
AcDbEntity
  8
03__ASM_ALL_CURVES
100
AcDbLine
 62
4
  6
CONTINUOUS
 10
11.7376962234
 20
10.4006695612
 11
11.7443628885
 21
10.4156695612
  0
LINE
  5
2DA
100
AcDbEntity
  8
03__ASM_ALL_CURVES
100
AcDbLine
 62
4
  6
CONTINUOUS
 10
11.7043628885
 20
9.8456695612
 11
11.7110295536
 21
9.8556695612
  0
LINE
  5
2DB
100
AcDbEntity
  8
03__ASM_ALL_CURVES
100
AcDbLine
 62
4
  6
CONTINUOUS
 10
11.7376962234
 20
9.8456695612
 11
11.7443628885
 21
9.8556695612
  0
LINE
  5
2DC
100
AcDbEntity
  8
03__ASM_ALL_CURVES
100
AcDbLine
 62
4
  6
CONTINUOUS
 10
11.7843628885
 20
9.8356695612
 11
11.7776962216
 21
9.8256695612
  0
LINE
  5
2DD
100
AcDbEntity
  8
03__ASM_ALL_CURVES
100
AcDbLine
 62
4
  6
CONTINUOUS
 10
11.7043628885
 20
9.6856695612
 11
11.7110295536
 21
9.6956695612
  0
LINE
  5
2DE
100
AcDbEntity
  8
03__ASM_ALL_CURVES
100
AcDbLine
 62
4
  6
CONTINUOUS
 10
12.4656962216
 20
9.8306695612
 11
12.4590295548
 21
9.8256695612
  0
LINE
  5
2DF
100
AcDbEntity
  8
03__ASM_ALL_CURVES
100
AcDbLine
 62
4
  6
CONTINUOUS
 10
12.4623628882
 20
9.7731695612
 11
12.4723628885
 21
9.7806695612
  0
LINE
  5
2E0
100
AcDbEntity
  8
03__ASM_ALL_CURVES
100
AcDbLine
 62
4
  6
CONTINUOUS
 10
12.3990295536
 20
9.6956695612
 11
12.4056962234
 21
9.7006695612
  0
LINE
  5
2E1
100
AcDbEntity
  8
03__ASM_ALL_CURVES
100
AcDbLine
 62
4
  6
CONTINUOUS
 10
12.4323628885
 20
9.6956695612
 11
12.445696221
 21
9.7056695612
  0
LINE
  5
2E2
100
AcDbEntity
  8
03__ASM_ALL_CURVES
100
AcDbLine
 62
4
  6
CONTINUOUS
 10
12.4656962216
 20
9.6656695612
 11
12.4590295548
 21
9.6606695612
  0
LINE
  5
2E3
100
AcDbEntity
  8
03__ASM_ALL_CURVES
100
AcDbLine
 62
4
  6
CONTINUOUS
 10
12.4256962234
 20
9.9906695612
 11
12.4390295559
 21
9.9906695612
  0
LINE
  5
2E4
100
AcDbEntity
  8
03__ASM_ALL_CURVES
100
AcDbLine
 62
4
  6
CONTINUOUS
 10
11.7376962234
 20
10.0706695612
 11
11.7510295559
 21
10.0706695612
  0
LINE
  5
2E5
100
AcDbEntity
  8
03__ASM_ALL_CURVES
100
AcDbLine
 62
4
  6
CONTINUOUS
 10
12.445696221
 20
10.1406695612
 11
12.4190295536
 21
10.1406695612
  0
LINE
  5
2E6
100
AcDbEntity
  8
03__ASM_ALL_CURVES
100
AcDbLine
 62
4
  6
CONTINUOUS
 10
11.7643628885
 20
9.6656695612
 11
11.7843628885
 21
9.6606695612
  0
LINE
  5
2E7
100
AcDbEntity
  8
03__ASM_ALL_CURVES
100
AcDbLine
 62
4
  6
CONTINUOUS
 10
12.3923628885
 20
10.4006695612
 11
12.3990295536
 21
10.4106695612
  0
LINE
  5
2E8
100
AcDbEntity
  8
03__ASM_ALL_CURVES
100
AcDbLine
 62
4
  6
CONTINUOUS
 10
12.4723628885
 20
10.4006695612
 11
12.4656962216
 21
10.3906695612
  0
LINE
  5
2E9
100
AcDbEntity
  8
03__ASM_ALL_CURVES
100
AcDbLine
 62
4
  6
CONTINUOUS
 10
11.7176962234
 20
10.5656695612
 11
11.7376962234
 21
10.5706695612
  0
LINE
  5
2EA
100
AcDbEntity
  8
03__ASM_ALL_CURVES
100
AcDbLine
 62
4
  6
CONTINUOUS
 10
11.7510295559
 20
10.7106695612
 11
11.7710295548
 21
10.7156695612
  0
LINE
  5
2EB
100
AcDbEntity
  8
03__ASM_ALL_CURVES
100
AcDbLine
 62
4
  6
CONTINUOUS
 10
11.7643628885
 20
10.2156695612
 11
11.757696221
 21
10.2156695612
  0
LINE
  5
2EC
100
AcDbEntity
  8
03__ASM_ALL_CURVES
100
AcDbLine
 62
4
  6
CONTINUOUS
 10
11.7243628885
 20
10.2206695612
 11
11.7176962234
 21
10.2206695612
  0
LINE
  5
2ED
100
AcDbEntity
  8
03__ASM_ALL_CURVES
100
AcDbLine
 62
4
  6
CONTINUOUS
 10
12.4723628885
 20
10.2531695612
 11
12.4623628882
 21
10.2531695612
  0
LINE
  5
2EE
100
AcDbEntity
  8
03__ASM_ALL_CURVES
100
AcDbLine
 62
4
  6
CONTINUOUS
 10
11.7176962234
 20
10.2606695612
 11
11.7243628885
 21
10.2606695612
  0
LINE
  5
2EF
100
AcDbEntity
  8
03__ASM_ALL_CURVES
100
AcDbLine
 62
4
  6
CONTINUOUS
 10
11.757696221
 20
10.2656695612
 11
11.7643628885
 21
10.2656695612
  0
LINE
  5
2F0
100
AcDbEntity
  8
03__ASM_ALL_CURVES
100
AcDbLine
 62
4
  6
CONTINUOUS
 10
12.3923628885
 20
10.3206695612
 11
12.4723628885
 21
10.3206695612
  0
LINE
  5
2F1
100
AcDbEntity
  8
03__ASM_ALL_CURVES
100
AcDbLine
 62
4
  6
CONTINUOUS
 10
11.7843628885
 20
10.3331695612
 11
11.7743628882
 21
10.3331695612
  0
LINE
  5
2F2
100
AcDbEntity
  8
03__ASM_ALL_CURVES
100
AcDbLine
 62
4
  6
CONTINUOUS
 10
12.3923628885
 20
10.1606695612
 11
12.3990295536
 21
10.1706695612
  0
LINE
  5
2F3
100
AcDbEntity
  8
03__ASM_ALL_CURVES
100
AcDbLine
 62
4
  6
CONTINUOUS
 10
12.4723628885
 20
10.1606695612
 11
12.4656962216
 21
10.1506695612
  0
LINE
  5
2F4
100
AcDbEntity
  8
03__ASM_ALL_CURVES
100
AcDbLine
 62
4
  6
CONTINUOUS
 10
11.757696221
 20
10.3806695612
 11
11.7310295536
 21
10.3806695612
  0
LINE
  5
2F5
100
AcDbEntity
  8
03__ASM_ALL_CURVES
100
AcDbLine
 62
4
  6
CONTINUOUS
 10
12.4190295536
 20
10.4206695612
 11
12.445696221
 21
10.4206695612
  0
LINE
  5
2F6
100
AcDbEntity
  8
03__ASM_ALL_CURVES
100
AcDbLine
 62
4
  6
CONTINUOUS
 10
12.4256962234
 20
10.4906695612
 11
12.4390295559
 21
10.4906695612
  0
LINE
  5
2F7
100
AcDbEntity
  8
03__ASM_ALL_CURVES
100
AcDbLine
 62
4
  6
CONTINUOUS
 10
11.7043628885
 20
10.1506695612
 11
11.7376962234
 21
10.1456695612
  0
LINE
  5
2F8
100
AcDbEntity
  8
03__ASM_ALL_CURVES
100
AcDbLine
 62
4
  6
CONTINUOUS
 10
12.4723628885
 20
10.0806695612
 11
12.4390295559
 21
10.0856695612
  0
LINE
  5
2F9
100
AcDbEntity
  8
03__ASM_ALL_CURVES
100
AcDbLine
 62
4
  6
CONTINUOUS
 10
11.7176962234
 20
10.0756695612
 11
11.7376962234
 21
10.0706695612
  0
LINE
  5
2FA
100
AcDbEntity
  8
03__ASM_ALL_CURVES
100
AcDbLine
 62
4
  6
CONTINUOUS
 10
12.4056962234
 20
9.9956695612
 11
12.4256962234
 21
9.9906695612
  0
LINE
  5
2FB
100
AcDbEntity
  8
03__ASM_ALL_CURVES
100
AcDbLine
 62
4
  6
CONTINUOUS
 10
12.4190295536
 20
9.8206695612
 11
12.4056962234
 21
9.8256695612
  0
LINE
  5
2FC
100
AcDbEntity
  8
03__ASM_ALL_CURVES
100
AcDbLine
 62
4
  6
CONTINUOUS
 10
11.7176962234
 20
9.6606695612
 11
11.7110295536
 21
9.6656695612
  0
LINE
  5
2FD
100
AcDbEntity
  8
03__ASM_ALL_CURVES
100
AcDbLine
 62
4
  6
CONTINUOUS
 10
11.7510295559
 20
9.6756695612
 11
11.7643628885
 21
9.6656695612
  0
LINE
  5
2FE
100
AcDbEntity
  8
03__ASM_ALL_CURVES
100
AcDbLine
 62
4
  6
CONTINUOUS
 10
11.7310295536
 20
9.7006695612
 11
11.7376962234
 21
9.6956695612
  0
LINE
  5
2FF
100
AcDbEntity
  8
0
100
AcDbLine
 62
7
  6
CONTINUOUS
 10
11.6823628885
 20
9.1606695612
 11
11.6823628885
 21
7.4606695136
  0
LINE
  5
300
100
AcDbEntity
  8
03__ASM_ALL_CURVES
100
AcDbLine
 62
4
  6
CONTINUOUS
 10
11.7043628885
 20
10.8856695612
 11
11.7043628885
 21
10.8756695612
  0
LINE
  5
301
100
AcDbEntity
  8
03__ASM_ALL_CURVES
100
AcDbLine
 62
4
  6
CONTINUOUS
 10
11.7043628885
 20
10.5006695612
 11
11.7043628885
 21
10.4606695612
  0
LINE
  5
302
100
AcDbEntity
  8
03__ASM_ALL_CURVES
100
AcDbLine
 62
4
  6
CONTINUOUS
 10
11.7043628885
 20
10.1806695612
 11
11.7043628885
 21
10.1506695612
  0
LINE
  5
303
100
AcDbEntity
  8
03__ASM_ALL_CURVES
100
AcDbLine
 62
4
  6
CONTINUOUS
 10
11.7043628885
 20
9.6756695612
 11
11.7043628885
 21
9.6856695612
  0
LINE
  5
304
100
AcDbEntity
  8
03__ASM_ALL_CURVES
100
AcDbLine
 62
4
  6
CONTINUOUS
 10
11.7043628885
 20
9.8356695612
 11
11.7043628885
 21
9.8456695612
  0
LINE
  5
305
100
AcDbEntity
  8
03__ASM_ALL_CURVES
100
AcDbLine
 62
4
  6
CONTINUOUS
 10
11.7043628885
 20
10.2356695612
 11
11.7043628885
 21
10.2456695612
  0
LINE
  5
306
100
AcDbEntity
  8
03__ASM_ALL_CURVES
100
AcDbLine
 62
4
  6
CONTINUOUS
 10
11.7310295536
 20
10.1556695612
 11
11.7310295536
 21
10.1656695612
  0
LINE
  5
307
100
AcDbEntity
  8
03__ASM_ALL_CURVES
100
AcDbLine
 62
4
  6
CONTINUOUS
 10
11.7376962234
 20
9.8356695612
 11
11.7376962234
 21
9.8456695612
  0
LINE
  5
308
100
AcDbEntity
  8
03__ASM_ALL_CURVES
100
AcDbLine
 62
4
  6
CONTINUOUS
 10
11.7376962234
 20
10.2356695612
 11
11.7376962234
 21
10.2456695612
  0
LINE
  5
309
100
AcDbEntity
  8
03__ASM_ALL_CURVES
100
AcDbLine
 62
4
  6
CONTINUOUS
 10
11.7443628885
 20
9.2406695612
 11
11.7443628885
 21
9.4806695612
  0
LINE
  5
30A
100
AcDbEntity
  8
03__ASM_ALL_CURVES
100
AcDbLine
 62
4
  6
CONTINUOUS
 10
11.7843628885
 20
10.8856695612
 11
11.7843628885
 21
10.8756695612
  0
LINE
  5
30B
100
AcDbEntity
  8
03__ASM_ALL_CURVES
100
AcDbLine
 62
4
  6
CONTINUOUS
 10
11.7843628885
 20
10.3406695612
 11
11.7843628885
 21
10.3331695612
  0
LINE
  5
30C
100
AcDbEntity
  8
03__ASM_ALL_CURVES
100
AcDbLine
 62
4
  6
CONTINUOUS
 10
11.7843628885
 20
10.2456695612
 11
11.7843628885
 21
10.2356695612
  0
LINE
  5
30D
100
AcDbEntity
  8
03__ASM_ALL_CURVES
100
AcDbLine
 62
4
  6
CONTINUOUS
 10
11.7843628885
 20
10.1656695612
 11
11.7843628885
 21
10.1556695612
  0
LINE
  5
30E
100
AcDbEntity
  8
03__ASM_ALL_CURVES
100
AcDbLine
 62
4
  6
CONTINUOUS
 10
11.7843628885
 20
9.8456695612
 11
11.7843628885
 21
9.8356695612
  0
LINE
  5
30F
100
AcDbEntity
  8
03__ASM_ALL_CURVES
100
AcDbLine
 62
4
  6
CONTINUOUS
 10
11.7843628885
 20
9.7806695612
 11
11.7843628885
 21
9.7731695612
  0
LINE
  5
310
100
AcDbEntity
  8
03__ASM_ALL_CURVES
100
AcDbLine
 62
4
  6
CONTINUOUS
 10
11.7843628885
 20
9.6606695612
 11
11.7843628885
 21
9.7006695612
  0
LINE
  5
311
100
AcDbEntity
  8
03__ASM_ALL_CURVES
100
AcDbLine
 62
4
  6
CONTINUOUS
 10
11.7843628885
 20
10.7806695612
 11
11.7843628885
 21
10.8206695612
  0
LINE
  5
312
100
AcDbEntity
  8
03__ASM_ALL_CURVES
100
AcDbLine
 62
4
  6
CONTINUOUS
 10
12.4390295559
 20
10.4006695612
 11
12.4323628885
 21
10.3856695612
  0
LINE
  5
313
100
AcDbEntity
  8
03__ASM_ALL_CURVES
100
AcDbLine
 62
4
  6
CONTINUOUS
 10
12.3923628885
 20
9.8406695612
 11
12.3990295536
 21
9.8506695612
  0
LINE
  5
314
100
AcDbEntity
  8
03__ASM_ALL_CURVES
100
AcDbLine
 62
4
  6
CONTINUOUS
 10
12.4723628885
 20
9.8406695612
 11
12.4656962216
 21
9.8306695612
  0
LINE
  5
315
100
AcDbEntity
  8
03__ASM_ALL_CURVES
100
AcDbLine
 62
4
  6
CONTINUOUS
 10
12.3923628885
 20
9.6856695612
 11
12.3990295536
 21
9.6956695612
  0
LINE
  5
316
100
AcDbEntity
  8
03__ASM_ALL_CURVES
100
AcDbLine
 62
4
  6
CONTINUOUS
 10
12.4256962234
 20
9.6856695612
 11
12.4323628885
 21
9.6956695612
  0
LINE
  5
317
100
AcDbEntity
  8
03__ASM_ALL_CURVES
100
AcDbLine
 62
4
  6
CONTINUOUS
 10
11.7176962234
 20
10.9656695612
 11
11.7376962234
 21
10.9706695612
  0
LINE
  5
318
100
AcDbEntity
  8
03__ASM_ALL_CURVES
100
AcDbLine
 62
4
  6
CONTINUOUS
 10
11.7376962234
 20
10.5706695612
 11
11.7510295559
 21
10.5706695612
  0
LINE
  5
319
100
AcDbEntity
  8
03__ASM_ALL_CURVES
100
AcDbLine
 62
4
  6
CONTINUOUS
 10
11.7376962234
 20
10.7106695612
 11
11.7510295559
 21
10.7106695612
  0
LINE
  5
31A
100
AcDbEntity
  8
03__ASM_ALL_CURVES
100
AcDbLine
 62
4
  6
CONTINUOUS
 10
11.7843628885
 20
10.4806695612
 11
11.7510295559
 21
10.4856695612
  0
LINE
  5
31B
100
AcDbEntity
  8
03__ASM_ALL_CURVES
100
AcDbLine
 62
4
  6
CONTINUOUS
 10
12.4390295559
 20
10.0856695612
 11
12.4190295536
 21
10.0906695612
  0
LINE
  5
31C
100
AcDbEntity
  8
03__ASM_ALL_CURVES
100
AcDbLine
 62
4
  6
CONTINUOUS
 10
12.445696221
 20
9.8606695612
 11
12.4590295548
 21
9.8556695612
  0
LINE
  5
31D
100
AcDbEntity
  8
03__ASM_ALL_CURVES
100
AcDbLine
 62
4
  6
CONTINUOUS
 10
11.757696221
 20
10.1856695612
 11
11.7710295548
 21
10.1806695612
  0
LINE
  5
31E
100
AcDbEntity
  8
03__ASM_ALL_CURVES
100
AcDbLine
 62
4
  6
CONTINUOUS
 10
11.7243628885
 20
9.8606695612
 11
11.7310295536
 21
9.8556695612
  0
LINE
  5
31F
100
AcDbEntity
  8
03__ASM_ALL_CURVES
100
AcDbLine
 62
4
  6
CONTINUOUS
 10
11.7643628885
 20
9.8656695612
 11
11.7776962216
 21
9.8556695612
  0
LINE
  5
320
100
AcDbEntity
  8
0
100
AcDbLine
 62
7
  6
CONTINUOUS
 10
12.4323628885
 20
9.1136695374
 11
12.4013628885
 21
9.1446695374
  0
LINE
  5
321
100
AcDbEntity
  8
03__ASM_ALL_CURVES
100
AcDbLine
 62
4
  6
CONTINUOUS
 10
11.7110295536
 20
9.6656695612
 11
11.7043628885
 21
9.6756695612
  0
LINE
  5
322
100
AcDbEntity
  8
03__ASM_ALL_CURVES
100
AcDbLine
 62
4
  6
CONTINUOUS
 10
11.7376962234
 20
9.6956695612
 11
11.7510295559
 21
9.6756695612
  0
LINE
  5
323
100
AcDbEntity
  8
03__ASM_ALL_CURVES
100
AcDbLine
 62
4
  6
CONTINUOUS
 10
12.4256962234
 20
10.1606695612
 11
12.4323628885
 21
10.1756695612
  0
LINE
  5
324
100
AcDbEntity
  8
03__ASM_ALL_CURVES
100
AcDbLine
 62
4
  6
CONTINUOUS
 10
12.4723628885
 20
9.6756695612
 11
12.4656962216
 21
9.6656695612
  0
LINE
  5
325
100
AcDbEntity
  8
03__ASM_ALL_CURVES
100
AcDbLine
 62
4
  6
CONTINUOUS
 10
11.7043628885
 20
10.7806695612
 11
11.7843628885
 21
10.7806695612
  0
LINE
  5
326
100
AcDbEntity
  8
03__ASM_ALL_CURVES
100
AcDbLine
 62
4
  6
CONTINUOUS
 10
11.7176962234
 20
10.8606695612
 11
11.7243628885
 21
10.8606695612
  0
LINE
  5
327
100
AcDbEntity
  8
03__ASM_ALL_CURVES
100
AcDbLine
 62
4
  6
CONTINUOUS
 10
11.757696221
 20
10.9006695612
 11
11.7710295548
 21
10.9006695612
  0
LINE
  5
328
100
AcDbEntity
  8
03__ASM_ALL_CURVES
100
AcDbLine
 62
4
  6
CONTINUOUS
 10
11.7510295559
 20
10.4856695612
 11
11.7310295536
 21
10.4906695612
  0
LINE
  5
329
100
AcDbEntity
  8
03__ASM_ALL_CURVES
100
AcDbLine
 62
4
  6
CONTINUOUS
 10
11.7510295559
 20
10.5706695612
 11
11.7710295548
 21
10.5656695612
  0
LINE
  5
32A
100
AcDbEntity
  8
03__ASM_ALL_CURVES
100
AcDbLine
 62
4
  6
CONTINUOUS
 10
12.4190295536
 20
10.0906695612
 11
12.3923628885
 21
10.1006695612
  0
LINE
  5
32B
100
AcDbEntity
  8
03__ASM_ALL_CURVES
100
AcDbLine
 62
4
  6
CONTINUOUS
 10
11.7310295536
 20
10.3806695612
 11
11.7176962234
 21
10.3856695612
  0
LINE
  5
32C
100
AcDbEntity
  8
03__ASM_ALL_CURVES
100
AcDbLine
 62
4
  6
CONTINUOUS
 10
11.757696221
 20
10.3806695612
 11
11.7443628885
 21
10.3856695612
  0
LINE
  5
32D
100
AcDbEntity
  8
03__ASM_ALL_CURVES
100
AcDbLine
 62
4
  6
CONTINUOUS
 10
12.4190295536
 20
10.1406695612
 11
12.4056962234
 21
10.1456695612
  0
LINE
  5
32E
100
AcDbEntity
  8
03__ASM_ALL_CURVES
100
AcDbLine
 62
4
  6
CONTINUOUS
 10
12.445696221
 20
10.1406695612
 11
12.4323628885
 21
10.1456695612
  0
LINE
  5
32F
100
AcDbEntity
  8
03__ASM_ALL_CURVES
100
AcDbLine
 62
4
  6
CONTINUOUS
 10
11.757696221
 20
10.4206695612
 11
11.7710295548
 21
10.4156695612
  0
LINE
  5
330
100
AcDbEntity
  8
03__ASM_ALL_CURVES
100
AcDbLine
 62
4
  6
CONTINUOUS
 10
12.445696221
 20
10.1806695612
 11
12.4590295548
 21
10.1756695612
  0
LINE
  5
331
100
AcDbEntity
  8
03__ASM_ALL_CURVES
100
AcDbLine
 62
4
  6
CONTINUOUS
 10
11.7043628885
 20
10.0856695612
 11
11.7176962234
 21
10.0756695612
  0
LINE
  5
332
100
AcDbEntity
  8
03__ASM_ALL_CURVES
100
AcDbLine
 62
4
  6
CONTINUOUS
 10
11.7176962234
 20
10.2206695612
 11
11.7110295536
 21
10.2256695612
  0
LINE
  5
333
100
AcDbEntity
  8
03__ASM_ALL_CURVES
100
AcDbLine
 62
4
  6
CONTINUOUS
 10
11.7710295548
 20
10.1806695612
 11
11.7776962216
 21
10.1756695612
  0
LINE
  5
334
100
AcDbEntity
  8
03__ASM_ALL_CURVES
100
AcDbLine
 62
4
  6
CONTINUOUS
 10
12.4123628885
 20
9.7006695612
 11
12.4190295536
 21
9.6956695612
  0
LINE
  5
335
100
AcDbEntity
  8
03__ASM_ALL_CURVES
100
AcDbLine
 62
4
  6
CONTINUOUS
 10
11.757696221
 20
10.2156695612
 11
11.7443628885
 21
10.2256695612
  0
LINE
  5
336
100
AcDbEntity
  8
03__ASM_ALL_CURVES
100
AcDbLine
 62
4
  6
CONTINUOUS
 10
12.4523628885
 20
9.7056695612
 11
12.4656962216
 21
9.6956695612
  0
LINE
  5
337
100
AcDbEntity
  8
03__ASM_ALL_CURVES
100
AcDbLine
 62
4
  6
CONTINUOUS
 10
11.7243628885
 20
10.2606695612
 11
11.7310295536
 21
10.2556695612
  0
LINE
  5
338
100
AcDbEntity
  8
03__ASM_ALL_CURVES
100
AcDbLine
 62
4
  6
CONTINUOUS
 10
11.7110295536
 20
9.8256695612
 11
11.7043628885
 21
9.8356695612
  0
LINE
  5
339
100
AcDbEntity
  8
03__ASM_ALL_CURVES
100
AcDbLine
 62
4
  6
CONTINUOUS
 10
11.7310295536
 20
9.8556695612
 11
11.7376962234
 21
9.8456695612
  0
LINE
  5
33A
100
AcDbEntity
  8
03__ASM_ALL_CURVES
100
AcDbLine
 62
4
  6
CONTINUOUS
 10
11.7776962216
 20
9.8556695612
 11
11.7843628885
 21
9.8456695612
  0
LINE
  5
33B
100
AcDbEntity
  8
03__ASM_ALL_CURVES
100
AcDbLine
 62
4
  6
CONTINUOUS
 10
11.7376962234
 20
10.9706695612
 11
11.7510295559
 21
10.9706695612
  0
LINE
  5
33C
100
AcDbEntity
  8
03__ASM_ALL_CURVES
100
AcDbLine
 62
4
  6
CONTINUOUS
 10
12.4390295559
 20
10.4906695612
 11
12.4590295548
 21
10.4856695612
  0
LINE
  5
33D
100
AcDbEntity
  8
03__ASM_ALL_CURVES
100
AcDbLine
 62
4
  6
CONTINUOUS
 10
11.7176962234
 20
10.7156695612
 11
11.7376962234
 21
10.7106695612
  0
LINE
  5
33E
100
AcDbEntity
  8
03__ASM_ALL_CURVES
100
AcDbLine
 62
4
  6
CONTINUOUS
 10
11.7310295536
 20
10.4906695612
 11
11.7043628885
 21
10.5006695612
  0
LINE
  5
33F
100
AcDbEntity
  8
03__ASM_ALL_CURVES
100
AcDbLine
 62
4
  6
CONTINUOUS
 10
12.4190295536
 20
10.3806695612
 11
12.4056962234
 21
10.3856695612
  0
LINE
  5
340
100
AcDbEntity
  8
03__ASM_ALL_CURVES
100
AcDbLine
 62
4
  6
CONTINUOUS
 10
12.4190295536
 20
10.4206695612
 11
12.4323628885
 21
10.4156695612
  0
LINE
  5
341
100
AcDbEntity
  8
03__ASM_ALL_CURVES
100
AcDbLine
 62
4
  6
CONTINUOUS
 10
11.7643628885
 20
10.2656695612
 11
11.7776962216
 21
10.2556695612
  0
LINE
  5
342
100
AcDbEntity
  8
03__ASM_ALL_CURVES
100
AcDbLine
 62
4
  6
CONTINUOUS
 10
12.4056962234
 20
9.8256695612
 11
12.3990295536
 21
9.8306695612
  0
LINE
  5
343
100
AcDbEntity
  8
03__ASM_ALL_CURVES
100
AcDbLine
 62
4
  6
CONTINUOUS
 10
11.7176962234
 20
10.3856695612
 11
11.7110295536
 21
10.3906695612
  0
LINE
  5
344
100
AcDbEntity
  8
03__ASM_ALL_CURVES
100
AcDbLine
 62
4
  6
CONTINUOUS
 10
12.4590295548
 20
9.8556695612
 11
12.4656962216
 21
9.8506695612
  0
LINE
  5
345
100
AcDbEntity
  8
03__ASM_ALL_CURVES
100
AcDbLine
 62
4
  6
CONTINUOUS
 10
11.7710295548
 20
10.4156695612
 11
11.7776962216
 21
10.4106695612
  0
LINE
  5
346
100
AcDbEntity
  8
03__ASM_ALL_CURVES
100
AcDbLine
 62
4
  6
CONTINUOUS
 10
11.7376962234
 20
10.1456695612
 11
11.7310295536
 21
10.1556695612
  0
LINE
  5
347
100
AcDbEntity
  8
03__ASM_ALL_CURVES
100
AcDbLine
 62
4
  6
CONTINUOUS
 10
11.7110295536
 20
10.2256695612
 11
11.7043628885
 21
10.2356695612
  0
LINE
  5
348
100
AcDbEntity
  8
03__ASM_ALL_CURVES
100
AcDbLine
 62
4
  6
CONTINUOUS
 10
11.7776962216
 20
10.1756695612
 11
11.7843628885
 21
10.1656695612
  0
LINE
  5
349
100
AcDbEntity
  8
03__ASM_ALL_CURVES
100
AcDbLine
 62
4
  6
CONTINUOUS
 10
11.7443628885
 20
10.2256695612
 11
11.7376962234
 21
10.2356695612
  0
LINE
  5
34A
100
AcDbEntity
  8
03__ASM_ALL_CURVES
100
AcDbLine
 62
4
  6
CONTINUOUS
 10
11.7310295536
 20
10.2556695612
 11
11.7376962234
 21
10.2456695612
  0
LINE
  5
34B
100
AcDbEntity
  8
03__ASM_ALL_CURVES
100
AcDbLine
 62
4
  6
CONTINUOUS
 10
11.7776962216
 20
10.2556695612
 11
11.7843628885
 21
10.2456695612
  0
LINE
  5
34C
100
AcDbEntity
  8
03__ASM_ALL_CURVES
100
AcDbLine
 62
4
  6
CONTINUOUS
 10
11.7110295536
 20
10.3906695612
 11
11.7043628885
 21
10.4006695612
  0
LINE
  5
34D
100
AcDbEntity
  8
03__ASM_ALL_CURVES
100
AcDbLine
 62
4
  6
CONTINUOUS
 10
11.7443628885
 20
10.3856695612
 11
11.7376962234
 21
10.4006695612
  0
LINE
  5
34E
100
AcDbEntity
  8
03__ASM_ALL_CURVES
100
AcDbLine
 62
4
  6
CONTINUOUS
 10
11.7510295559
 20
10.9706695612
 11
11.7710295548
 21
10.9656695612
  0
LINE
  5
34F
100
AcDbEntity
  8
03__ASM_ALL_CURVES
100
AcDbLine
 62
4
  6
CONTINUOUS
 10
12.445696221
 20
10.4206695612
 11
12.4590295548
 21
10.4156695612
  0
LINE
  5
350
100
AcDbEntity
  8
03__ASM_ALL_CURVES
100
AcDbLine
 62
4
  6
CONTINUOUS
 10
12.3923628885
 20
10.0056695612
 11
12.4056962234
 21
9.9956695612
  0
LINE
  5
351
100
AcDbEntity
  8
03__ASM_ALL_CURVES
100
AcDbLine
 62
4
  6
CONTINUOUS
 10
11.7710295548
 20
10.5656695612
 11
11.7843628885
 21
10.5556695612
  0
LINE
  5
352
100
AcDbEntity
  8
03__ASM_ALL_CURVES
100
AcDbLine
 62
4
  6
CONTINUOUS
 10
12.4056962234
 20
10.1456695612
 11
12.3990295536
 21
10.1506695612
  0
LINE
  5
353
100
AcDbEntity
  8
03__ASM_ALL_CURVES
100
AcDbLine
 62
4
  6
CONTINUOUS
 10
11.7043628885
 20
10.7256695612
 11
11.7176962234
 21
10.7156695612
  0
LINE
  5
354
100
AcDbEntity
  8
03__ASM_ALL_CURVES
100
AcDbLine
 62
4
  6
CONTINUOUS
 10
12.4590295548
 20
10.1756695612
 11
12.4656962216
 21
10.1706695612
  0
LINE
  5
355
100
AcDbEntity
  8
03__ASM_ALL_CURVES
100
AcDbLine
 62
4
  6
CONTINUOUS
 10
11.7776962216
 20
10.4106695612
 11
11.7843628885
 21
10.4006695612
  0
LINE
  5
356
100
AcDbEntity
  8
03__ASM_ALL_CURVES
100
AcDbLine
 62
4
  6
CONTINUOUS
 10
12.3990295536
 20
9.6656695612
 11
12.3923628885
 21
9.6756695612
  0
LINE
  5
357
100
AcDbEntity
  8
03__ASM_ALL_CURVES
100
AcDbLine
 62
4
  6
CONTINUOUS
 10
12.4190295536
 20
9.6956695612
 11
12.4256962234
 21
9.6856695612
  0
LINE
  5
358
100
AcDbEntity
  8
03__ASM_ALL_CURVES
100
AcDbLine
 62
4
  6
CONTINUOUS
 10
12.3923628885
 20
10.1006695612
 11
12.3923628885
 21
10.0606695612
  0
LINE
  5
359
100
AcDbEntity
  8
03__ASM_ALL_CURVES
100
AcDbLine
 62
4
  6
CONTINUOUS
 10
12.3923628885
 20
9.6756695612
 11
12.3923628885
 21
9.6856695612
  0
LINE
  5
35A
100
AcDbEntity
  8
0
100
AcDbLine
 62
7
  6
CONTINUOUS
 10
12.4013628885
 20
7.4766695374
 11
12.4013628885
 21
9.1446695374
  0
LINE
  5
35B
100
AcDbEntity
  8
03__ASM_ALL_CURVES
100
AcDbLine
 62
4
  6
CONTINUOUS
 10
12.4256962234
 20
9.6756695612
 11
12.4256962234
 21
9.6856695612
  0
LINE
  5
35C
100
AcDbEntity
  8
0
100
AcDbLine
 62
7
  6
CONTINUOUS
 10
12.4323628885
 20
7.5076695374
 11
12.4323628885
 21
9.1136695374
  0
LINE
  5
35D
100
AcDbEntity
  8
03__ASM_ALL_CURVES
100
AcDbLine
 62
4
  6
CONTINUOUS
 10
12.4323628885
 20
9.2406695612
 11
12.4323628885
 21
9.4806695612
  0
LINE
  5
35E
100
AcDbEntity
  8
03__ASM_ALL_CURVES
100
AcDbLine
 62
4
  6
CONTINUOUS
 10
12.4723628885
 20
10.2606695612
 11
12.4723628885
 21
10.2531695612
  0
LINE
  5
35F
100
AcDbEntity
  8
03__ASM_ALL_CURVES
100
AcDbLine
 62
4
  6
CONTINUOUS
 10
12.4723628885
 20
9.7806695612
 11
12.4723628885
 21
9.7731695612
  0
LINE
  5
360
100
AcDbEntity
  8
03__ASM_ALL_CURVES
100
AcDbLine
 62
4
  6
CONTINUOUS
 10
12.4723628885
 20
9.6856695612
 11
12.4723628885
 21
9.6756695612
  0
LINE
  5
361
100
AcDbEntity
  8
03__ASM_ALL_CURVES
100
AcDbLine
 62
4
  6
CONTINUOUS
 10
11.7110295536
 20
10.8656695612
 11
11.7176962234
 21
10.8606695612
  0
LINE
  5
362
100
AcDbEntity
  8
03__ASM_ALL_CURVES
100
AcDbLine
 62
4
  6
CONTINUOUS
 10
12.4056962234
 20
10.3856695612
 11
12.3990295536
 21
10.3906695612
  0
LINE
  5
363
100
AcDbEntity
  8
03__ASM_ALL_CURVES
100
AcDbLine
 62
4
  6
CONTINUOUS
 10
11.7710295548
 20
10.9006695612
 11
11.7776962216
 21
10.8956695612
  0
LINE
  5
364
100
AcDbEntity
  8
03__ASM_ALL_CURVES
100
AcDbLine
 62
4
  6
CONTINUOUS
 10
12.4656962216
 20
9.6956695612
 11
12.4723628885
 21
9.6856695612
  0
LINE
  5
365
100
AcDbEntity
  8
03__ASM_ALL_CURVES
100
AcDbLine
 62
4
  6
CONTINUOUS
 10
12.3990295536
 20
9.8306695612
 11
12.3923628885
 21
9.8406695612
  0
LINE
  5
366
100
AcDbEntity
  8
03__ASM_ALL_CURVES
100
AcDbLine
 62
4
  6
CONTINUOUS
 10
11.7043628885
 20
10.8756695612
 11
11.7110295536
 21
10.8656695612
  0
LINE
  5
367
100
AcDbEntity
  8
03__ASM_ALL_CURVES
100
AcDbLine
 62
4
  6
CONTINUOUS
 10
12.4656962216
 20
9.8506695612
 11
12.4723628885
 21
9.8406695612
  0
LINE
  5
368
100
AcDbEntity
  8
03__ASM_ALL_CURVES
100
AcDbLine
 62
4
  6
CONTINUOUS
 10
11.7776962216
 20
10.8956695612
 11
11.7843628885
 21
10.8856695612
  0
LINE
  5
369
100
AcDbEntity
  8
03__ASM_ALL_CURVES
100
AcDbLine
 62
4
  6
CONTINUOUS
 10
12.4590295548
 20
10.4156695612
 11
12.4656962216
 21
10.4106695612
  0
LINE
  5
36A
100
AcDbEntity
  8
03__ASM_ALL_CURVES
100
AcDbLine
 62
4
  6
CONTINUOUS
 10
11.7710295548
 20
10.9656695612
 11
11.7843628885
 21
10.9556695612
  0
LINE
  5
36B
100
AcDbEntity
  8
03__ASM_ALL_CURVES
100
AcDbLine
 62
4
  6
CONTINUOUS
 10
12.4590295548
 20
10.4856695612
 11
12.4723628885
 21
10.4756695612
  0
LINE
  5
36C
100
AcDbEntity
  8
03__ASM_ALL_CURVES
100
AcDbLine
 62
4
  6
CONTINUOUS
 10
12.3990295536
 20
10.1506695612
 11
12.3923628885
 21
10.1606695612
  0
LINE
  5
36D
100
AcDbEntity
  8
03__ASM_ALL_CURVES
100
AcDbLine
 62
4
  6
CONTINUOUS
 10
12.4656962216
 20
10.1706695612
 11
12.4723628885
 21
10.1606695612
  0
LINE
  5
36E
100
AcDbEntity
  8
03__ASM_ALL_CURVES
100
AcDbLine
 62
4
  6
CONTINUOUS
 10
12.3990295536
 20
10.3906695612
 11
12.3923628885
 21
10.4006695612
  0
LINE
  5
36F
100
AcDbEntity
  8
03__ASM_ALL_CURVES
100
AcDbLine
 62
4
  6
CONTINUOUS
 10
12.4323628885
 20
10.1456695612
 11
12.4256962234
 21
10.1606695612
  0
LINE
  5
370
100
AcDbEntity
  8
03__ASM_ALL_CURVES
100
AcDbLine
 62
4
  6
CONTINUOUS
 10
12.4323628885
 20
10.4156695612
 11
12.4390295559
 21
10.4006695612
  0
LINE
  5
371
100
AcDbEntity
  8
0
100
AcDbLine
 62
7
  6
CONTINUOUS
 10
12.4323628885
 20
7.5076695374
 11
12.4013628885
 21
7.4766695374
  0
LINE
  5
372
100
AcDbEntity
  8
03__ASM_ALL_CURVES
100
AcDbLine
 62
4
  6
CONTINUOUS
 10
12.4656962216
 20
10.4106695612
 11
12.4723628885
 21
10.4006695612
  0
ENDSEC
  0
SECTION
  2
OBJECTS
  0
DICTIONARY
  5
C
100
AcDbDictionary
280
0
281
1
  3
ACAD_GROUP
350
D
  3
ACAD_MLINESTYLE
350
17
  3
ACAD_LAYOUT
350
1A
  3
ACAD_PLOTSETTINGS
350
19
  3
ACAD_PLOTSTYLENAME
350
E
  0
DICTIONARY
  5
D
102
{ACAD_REACTORS
330
C
102
}
100
AcDbDictionary
280
0
281
1
  0
ACDBDICTIONARYWDFLT
  5
E
102
{ACAD_REACTORS
330
C
102
}
100
AcDbDictionary
281
1
  3
Normal
350
F
100
AcDbDictionaryWithDefault
340
F
  0
DICTIONARY
  5
17
102
{ACAD_REACTORS
330
C
102
}
100
AcDbDictionary
280
0
281
1
  3
Standard
350
18
  0
DICTIONARY
  5
19
102
{ACAD_REACTORS
330
C
102
}
100
AcDbDictionary
281
1
  0
DICTIONARY
  5
1A
102
{ACAD_REACTORS
330
C
102
}
100
AcDbDictionary
281
1
  3
Layout1
350
1E
  3
Model
350
22
  0
ACDBPLACEHOLDER
  5
F
102
{ACAD_REACTORS
330
E
102
}
  0
MLINESTYLE
  5
18
102
{ACAD_REACTORS
330
17
102
}
100
AcDbMlineStyle
  2
STANDARD
 70
0
  3

 62
256
 51
90.0
 52
90.0
 71
2
 49
0.5
 62
256
  6
BYLAYER
 49
-0.5
 62
256
  6
BYLAYER
  0
LAYOUT
  5
1E
102
{ACAD_REACTORS
330
1A
102
}
100
AcDbPlotSettings
  1

  2

  4

  6

 40
0.0
 41
0.0
 42
0.0
 43
0.0
 44
0.0
 45
0.0
 46
0.0
 47
0.0
 48
0.0
 49
0.0
140
0.0
141
0.0
142
1.0
143
1.0
 70
0
 72
0
 73
0
 74
0
  7

 75
0
147
1.0
148
0.0
149
0.0
100
AcDbLayout
  1
Layout1
 70
0
 71
0
 10
0.0
 20
0.0
 11
0.0
 21
0.0
 12
0.0
 22
0.0
 32
0.0
 14
0.0
 24
0.0
 34
0.0
 15
0.0
 25
0.0
 35
0.0
146
0.0
 13
0.0
 23
0.0
 33
0.0
 16
0.0
 26
0.0
 36
0.0
 17
0.0
 27
0.0
 37
0.0
 76
0
330
1B
331
0
345
0
346
0
  0
LAYOUT
  5
22
102
{ACAD_REACTORS
330
1A
102
}
100
AcDbPlotSettings
  1

  2

  4

  6

 40
0.0
 41
0.0
 42
0.0
 43
0.0
 44
0.0
 45
0.0
 46
0.0
 47
0.0
 48
0.0
 49
0.0
140
0.0
141
0.0
142
1.0
143
1.0
 70
0
 72
0
 73
0
 74
0
  7

 75
0
147
1.0
148
0.0
149
0.0
100
AcDbLayout
  1
Model
 70
0
 71
0
 10
0.0
 20
0.0
 11
0.0
 21
0.0
 12
0.0
 22
0.0
 32
0.0
 14
0.0
 24
0.0
 34
0.0
 15
0.0
 25
0.0
 35
0.0
146
0.0
 13
0.0
 23
0.0
 33
0.0
 16
0.0
 26
0.0
 36
0.0
 17
0.0
 27
0.0
 37
0.0
 76
0
330
1F
331
0
345
0
346
0
  0
ENDSEC
  0
EOF
