999
DXF file: EBK_2.dxf
999
Pro/ENGINEER 2006240 by Parametric Technology Corporation
  0
SECTION
  2
HEADER
  9
$ACADVER
  1
AC1015
  9
$DWGCODEPAGE
  3
ANSI_1252
  9
$EXTMAX
 10
22.0
 20
17.0
 30
0.0
  9
$EXTMIN
 10
0.0
 20
0.0
 30
0.0
  9
$LIMMIN
 10
0.0
 20
0.0
  9
$LIMMAX
 10
22.0
 20
17.0
  9
$VIEWCTR
 10
11.0
 20
8.5
  9
$VIEWSIZE
 40
17.0
  9
$CLAYER
  8
0
  9
$LTSCALE
 40
1.21
  9
$CELTYPE
  6
BYLAYER
  9
$DIMSCALE
 40
1.0
  9
$DIMASZ
 40
0.1875
  9
$DIMEXO
 40
0.1375
  9
$DIMDLI
 40
0.836
  9
$DIMEXE
 40
0.396
  9
$DIMCEN
 40
0.198
  9
$DIMLFAC
 40
1.0
  9
$DIMBLK
  1
_CLOSED
  9
$DIMTXT
 40
0.15625
  9
$DIMTOL
 70
0
  9
$DIMLIM
 70
0
  9
$DIMTFAC
 40
1.0
  9
$PDMODE
 70
3
  9
$PDSIZE
 40
0.3125
  9
$HANDSEED
  5
38F
  9
$MEASUREMENT
 70
0
  9
$INSUNITS
 70
1
  0
ENDSEC
  0
SECTION
  2
CLASSES
  0
CLASS
  1
ACDBDICTIONARYWDFLT
  2
AcDbDictionaryWithDefault
  3
AutoCAD 2000
 90
0
280
0
281
0
  0
CLASS
  1
ACDBPLACEHOLDER
  2
AcDbPlaceHolder
  3
AutoCAD 2000
 90
0
280
0
281
0
  0
CLASS
  1
LAYOUT
  2
AcDbLayout
  3
AutoCAD 2000
 90
0
280
0
281
0
  0
ENDSEC
  0
SECTION
  2
TABLES
  0
TABLE
  2
VPORT
  5
8
100
AcDbSymbolTable
 70
2
  0
VPORT
  5
1F4
100
AcDbSymbolTableRecord
100
AcDbViewportTableRecord
  2
*ACTIVE
 70
0
 10
0.0
 20
0.0
 11
1.0
 21
1.0
 12
11.0
 22
8.5
 13
0.0
 23
0.0
 14
1.0
 24
1.0
 15
0.0
 25
0.0
 16
0.0
 26
0.0
 36
1.0
 17
0.0
 27
0.0
 37
0.0
 40
17.0
 41
1.2941176471
 42
50.0
 43
0.0
 44
0.0
 50
0.0
 51
0.0
 71
0
 72
100
 73
1
 74
1
 75
0
 76
0
 77
0
 78
0
  0
ENDTAB
  0
TABLE
  2
LTYPE
  5
5
100
AcDbSymbolTable
 70
6
  0
LTYPE
  5
14
100
AcDbSymbolTableRecord
100
AcDbLinetypeTableRecord
  2
BYBLOCK
 70
0
  3

 72
65
 73
0
 40
0.0
  0
LTYPE
  5
15
100
AcDbSymbolTableRecord
100
AcDbLinetypeTableRecord
  2
BYLAYER
 70
0
  3

 72
65
 73
0
 40
0.0
  0
LTYPE
  5
16
100
AcDbSymbolTableRecord
100
AcDbLinetypeTableRecord
  2
CONTINUOUS
 70
64
  3
Solid line
 72
65
 73
0
 40
0.0
  0
LTYPE
  5
1F5
100
AcDbSymbolTableRecord
100
AcDbLinetypeTableRecord
  2
CENTER
 70
64
  3
____ _ ____ _ ____ _ ____ _ ____ _ ____ _ ____
 72
65
 73
4
 40
0.6
 49
0.375
 74
0
 49
-0.075
 74
0
 49
0.075
 74
0
 49
-0.075
 74
0
  0
LTYPE
  5
1F6
100
AcDbSymbolTableRecord
100
AcDbLinetypeTableRecord
  2
HIDDEN
 70
64
  3
- - - - - - - - - - - - - - - - - - - -
 72
65
 73
2
 40
0.2
 49
0.1
 74
0
 49
-0.1
 74
0
  0
LTYPE
  5
1F7
100
AcDbSymbolTableRecord
100
AcDbLinetypeTableRecord
  2
PHANTOM
 70
64
  3
_____ _ _ _____ _ _ _____ _ _ _____
 72
65
 73
6
 40
0.8
 49
0.45
 74
0
 49
-0.05
 74
0
 49
0.1
 74
0
 49
-0.05
 74
0
 49
0.1
 74
0
 49
-0.05
 74
0
  0
LTYPE
  5
1F8
100
AcDbSymbolTableRecord
100
AcDbLinetypeTableRecord
  2
DOT
 70
64
  3
. . . . . . . . . . . . . . . . . . . .
 72
65
 73
2
 40
0.2
 49
0.1
 74
0
 49
-0.1
 74
0
  0
LTYPE
  5
1F9
100
AcDbSymbolTableRecord
100
AcDbLinetypeTableRecord
  2
DASHED
 70
64
  3
- - - - - - - - - - - - - - - - - - - -
 72
65
 73
2
 40
0.2
 49
0.1
 74
0
 49
-0.1
 74
0
  0
ENDTAB
  0
TABLE
  2
LAYER
  5
2
100
AcDbSymbolTable
 70
36
  0
LAYER
  5
10
100
AcDbSymbolTableRecord
100
AcDbLayerTableRecord
  2
0
 70
0
 62
7
  6
CONTINUOUS
370
-3
390
F
  0
LAYER
  5
1FA
100
AcDbSymbolTableRecord
100
AcDbLayerTableRecord
  2
DEFAULT_1
 70
0
 62
7
  6
CENTER
370
-3
390
F
  0
LAYER
  5
1FB
100
AcDbSymbolTableRecord
100
AcDbLayerTableRecord
  2
DEFAULT_2
 70
0
 62
8
  6
HIDDEN
370
-3
390
F
  0
LAYER
  5
1FC
100
AcDbSymbolTableRecord
100
AcDbLayerTableRecord
  2
DEFAULT_3
 70
0
 62
7
  6
PHANTOM
370
-3
390
F
  0
LAYER
  5
1FD
100
AcDbSymbolTableRecord
100
AcDbLayerTableRecord
  2
01_ALL_DTM_PLN
 70
0
 62
7
  6
CONTINUOUS
370
-3
390
F
  0
LAYER
  5
1FE
100
AcDbSymbolTableRecord
100
AcDbLayerTableRecord
  2
01__ASM_ALL_DTM_PLN
 70
0
 62
7
  6
CONTINUOUS
370
-3
390
F
  0
LAYER
  5
1FF
100
AcDbSymbolTableRecord
100
AcDbLayerTableRecord
  2
01__ASM_DEF_DTM_PLN
 70
0
 62
7
  6
CONTINUOUS
370
-3
390
F
  0
LAYER
  5
200
100
AcDbSymbolTableRecord
100
AcDbLayerTableRecord
  2
01___PRT_ALL_DTM_PLN
 70
0
 62
7
  6
CONTINUOUS
370
-3
390
F
  0
LAYER
  5
201
100
AcDbSymbolTableRecord
100
AcDbLayerTableRecord
  2
01___PRT_DEF_DTM_PLN
 70
0
 62
7
  6
CONTINUOUS
370
-3
390
F
  0
LAYER
  5
202
100
AcDbSymbolTableRecord
100
AcDbLayerTableRecord
  2
02_ALL_AXES
 70
0
 62
7
  6
CONTINUOUS
370
-3
390
F
  0
LAYER
  5
203
100
AcDbSymbolTableRecord
100
AcDbLayerTableRecord
  2
02__ASM_ALL_AXES
 70
0
 62
7
  6
CONTINUOUS
370
-3
390
F
  0
LAYER
  5
204
100
AcDbSymbolTableRecord
100
AcDbLayerTableRecord
  2
02___PRT_ALL_AXES
 70
0
 62
7
  6
CONTINUOUS
370
-3
390
F
  0
LAYER
  5
205
100
AcDbSymbolTableRecord
100
AcDbLayerTableRecord
  2
03_ALL_CURVES
 70
0
 62
7
  6
CONTINUOUS
370
-3
390
F
  0
LAYER
  5
206
100
AcDbSymbolTableRecord
100
AcDbLayerTableRecord
  2
03__ASM_ALL_CURVES
 70
0
 62
7
  6
CONTINUOUS
370
-3
390
F
  0
LAYER
  5
207
100
AcDbSymbolTableRecord
100
AcDbLayerTableRecord
  2
03___PRT_ALL_CURVES
 70
0
 62
7
  6
CONTINUOUS
370
-3
390
F
  0
LAYER
  5
208
100
AcDbSymbolTableRecord
100
AcDbLayerTableRecord
  2
04_ALL_DTM_PNT
 70
0
 62
7
  6
CONTINUOUS
370
-3
390
F
  0
LAYER
  5
209
100
AcDbSymbolTableRecord
100
AcDbLayerTableRecord
  2
04__ASM_ALL_DTM_PNT
 70
0
 62
7
  6
CONTINUOUS
370
-3
390
F
  0
LAYER
  5
20A
100
AcDbSymbolTableRecord
100
AcDbLayerTableRecord
  2
04___PRT_ALL_DTM_PNT
 70
0
 62
7
  6
CONTINUOUS
370
-3
390
F
  0
LAYER
  5
20B
100
AcDbSymbolTableRecord
100
AcDbLayerTableRecord
  2
05_ALL_DTM_CSYS
 70
0
 62
7
  6
CONTINUOUS
370
-3
390
F
  0
LAYER
  5
20C
100
AcDbSymbolTableRecord
100
AcDbLayerTableRecord
  2
05__ASM_ALL_DTM_CSYS
 70
0
 62
7
  6
CONTINUOUS
370
-3
390
F
  0
LAYER
  5
20D
100
AcDbSymbolTableRecord
100
AcDbLayerTableRecord
  2
05__ASM_DEF_DTM_CSYS
 70
0
 62
7
  6
CONTINUOUS
370
-3
390
F
  0
LAYER
  5
20E
100
AcDbSymbolTableRecord
100
AcDbLayerTableRecord
  2
05___PRT_ALL_DTM_CSYS
 70
0
 62
7
  6
CONTINUOUS
370
-3
390
F
  0
LAYER
  5
20F
100
AcDbSymbolTableRecord
100
AcDbLayerTableRecord
  2
05___PRT_DEF_DTM_CSYS
 70
0
 62
7
  6
CONTINUOUS
370
-3
390
F
  0
LAYER
  5
210
100
AcDbSymbolTableRecord
100
AcDbLayerTableRecord
  2
06_ALL_SURFS
 70
0
 62
7
  6
CONTINUOUS
370
-3
390
F
  0
LAYER
  5
211
100
AcDbSymbolTableRecord
100
AcDbLayerTableRecord
  2
06__ASM_ALL_SURFS
 70
0
 62
7
  6
CONTINUOUS
370
-3
390
F
  0
LAYER
  5
212
100
AcDbSymbolTableRecord
100
AcDbLayerTableRecord
  2
06___PRT_ALL_SURFS
 70
0
 62
7
  6
CONTINUOUS
370
-3
390
F
  0
LAYER
  5
213
100
AcDbSymbolTableRecord
100
AcDbLayerTableRecord
  2
07__ASM_ALL_SKELETONS
 70
0
 62
7
  6
CONTINUOUS
370
-3
390
F
  0
LAYER
  5
214
100
AcDbSymbolTableRecord
100
AcDbLayerTableRecord
  2
COPY_GEO_FET
 70
0
 62
7
  6
CONTINUOUS
370
-3
390
F
  0
LAYER
  5
215
100
AcDbSymbolTableRecord
100
AcDbLayerTableRecord
  2
COSMETIC
 70
0
 62
7
  6
CONTINUOUS
370
-3
390
F
  0
LAYER
  5
216
100
AcDbSymbolTableRecord
100
AcDbLayerTableRecord
  2
CUT_REF_SURF
 70
0
 62
7
  6
CONTINUOUS
370
-3
390
F
  0
LAYER
  5
217
100
AcDbSymbolTableRecord
100
AcDbLayerTableRecord
  2
DATESTAMP
 70
0
 62
7
  6
CONTINUOUS
370
-3
390
F
  0
LAYER
  5
218
100
AcDbSymbolTableRecord
100
AcDbLayerTableRecord
  2
DATUM
 70
0
 62
7
  6
CONTINUOUS
370
-3
390
F
  0
LAYER
  5
219
100
AcDbSymbolTableRecord
100
AcDbLayerTableRecord
  2
DATUM_B
 70
0
 62
7
  6
CONTINUOUS
370
-3
390
F
  0
LAYER
  5
21A
100
AcDbSymbolTableRecord
100
AcDbLayerTableRecord
  2
DATUM_PLANES
 70
0
 62
7
  6
CONTINUOUS
370
-3
390
F
  0
LAYER
  5
21B
100
AcDbSymbolTableRecord
100
AcDbLayerTableRecord
  2
DIM
 70
0
 62
7
  6
CONTINUOUS
370
-3
390
F
  0
LAYER
  5
21C
100
AcDbSymbolTableRecord
100
AcDbLayerTableRecord
  2
DIMENSIONS
 70
0
 62
7
  6
CONTINUOUS
370
-3
390
F
  0
LAYER
  5
21D
100
AcDbSymbolTableRecord
100
AcDbLayerTableRecord
  2
DIM_1
 70
0
 62
7
  6
CONTINUOUS
370
-3
390
F
  0
LAYER
  5
21E
100
AcDbSymbolTableRecord
100
AcDbLayerTableRecord
  2
DIM_2
 70
0
 62
7
  6
CONTINUOUS
370
-3
390
F
  0
LAYER
  5
21F
100
AcDbSymbolTableRecord
100
AcDbLayerTableRecord
  2
DIM_3
 70
0
 62
7
  6
CONTINUOUS
370
-3
390
F
  0
LAYER
  5
220
100
AcDbSymbolTableRecord
100
AcDbLayerTableRecord
  2
DIM_4
 70
0
 62
7
  6
CONTINUOUS
370
-3
390
F
  0
LAYER
  5
221
100
AcDbSymbolTableRecord
100
AcDbLayerTableRecord
  2
DIM_5
 70
0
 62
7
  6
CONTINUOUS
370
-3
390
F
  0
LAYER
  5
222
100
AcDbSymbolTableRecord
100
AcDbLayerTableRecord
  2
DTM
 70
0
 62
7
  6
CONTINUOUS
370
-3
390
F
  0
LAYER
  5
223
100
AcDbSymbolTableRecord
100
AcDbLayerTableRecord
  2
EBK_10
 70
0
 62
7
  6
CONTINUOUS
370
-3
390
F
  0
LAYER
  5
224
100
AcDbSymbolTableRecord
100
AcDbLayerTableRecord
  2
EBK_2
 70
0
 62
7
  6
CONTINUOUS
370
-3
390
F
  0
LAYER
  5
225
100
AcDbSymbolTableRecord
100
AcDbLayerTableRecord
  2
EBK_5
 70
0
 62
7
  6
CONTINUOUS
370
-3
390
F
  0
LAYER
  5
226
100
AcDbSymbolTableRecord
100
AcDbLayerTableRecord
  2
EBK_6
 70
0
 62
7
  6
CONTINUOUS
370
-3
390
F
  0
LAYER
  5
227
100
AcDbSymbolTableRecord
100
AcDbLayerTableRecord
  2
EBK_7
 70
0
 62
7
  6
CONTINUOUS
370
-3
390
F
  0
LAYER
  5
228
100
AcDbSymbolTableRecord
100
AcDbLayerTableRecord
  2
EBK_8
 70
0
 62
7
  6
CONTINUOUS
370
-3
390
F
  0
LAYER
  5
229
100
AcDbSymbolTableRecord
100
AcDbLayerTableRecord
  2
EXT_COPY_GEO
 70
0
 62
7
  6
CONTINUOUS
370
-3
390
F
  0
LAYER
  5
22A
100
AcDbSymbolTableRecord
100
AcDbLayerTableRecord
  2
LS
 70
0
 62
7
  6
CONTINUOUS
370
-3
390
F
  0
LAYER
  5
22B
100
AcDbSymbolTableRecord
100
AcDbLayerTableRecord
  2
ORIGIN
 70
0
 62
7
  6
CONTINUOUS
370
-3
390
F
  0
LAYER
  5
22C
100
AcDbSymbolTableRecord
100
AcDbLayerTableRecord
  2
PARAMETERDIMENSIONS
 70
0
 62
7
  6
CONTINUOUS
370
-3
390
F
  0
LAYER
  5
22D
100
AcDbSymbolTableRecord
100
AcDbLayerTableRecord
  2
PARTNUMBER
 70
0
 62
7
  6
CONTINUOUS
370
-3
390
F
  0
LAYER
  5
22E
100
AcDbSymbolTableRecord
100
AcDbLayerTableRecord
  2
PORT_AREAS
 70
0
 62
7
  6
CONTINUOUS
370
-3
390
F
  0
LAYER
  5
22F
100
AcDbSymbolTableRecord
100
AcDbLayerTableRecord
  2
TEXT
 70
0
 62
7
  6
CONTINUOUS
370
-3
390
F
  0
LAYER
  5
230
100
AcDbSymbolTableRecord
100
AcDbLayerTableRecord
  2
THREAD
 70
0
 62
7
  6
CONTINUOUS
370
-3
390
F
  0
LAYER
  5
231
100
AcDbSymbolTableRecord
100
AcDbLayerTableRecord
  2
THREADS
 70
0
 62
7
  6
CONTINUOUS
370
-3
390
F
  0
ENDTAB
  0
TABLE
  2
STYLE
  5
3
100
AcDbSymbolTable
 70
1
  0
STYLE
  5
11
100
AcDbSymbolTableRecord
100
AcDbTextStyleTableRecord
  2
STANDARD
 70
0
 40
0.0
 41
0.8
 50
0.0
 71
0
 42
0.2
  3
txt
  4

  0
ENDTAB
  0
TABLE
  2
VIEW
  5
6
100
AcDbSymbolTable
 70
0
  0
ENDTAB
  0
TABLE
  2
UCS
  5
7
100
AcDbSymbolTable
 70
0
  0
ENDTAB
  0
TABLE
  2
APPID
  5
9
100
AcDbSymbolTable
 70
1
  0
APPID
  5
232
100
AcDbSymbolTableRecord
100
AcDbRegAppTableRecord
  2
ACAD
 70
0
  0
ENDTAB
  0
TABLE
  2
BLOCK_RECORD
  5
1
100
AcDbSymbolTable
 70
0
  0
BLOCK_RECORD
  5
1F
100
AcDbSymbolTableRecord
100
AcDbBlockTableRecord
  2
*MODEL_SPACE
  0
BLOCK_RECORD
  5
1B
100
AcDbSymbolTableRecord
100
AcDbBlockTableRecord
  2
*PAPER_SPACE
  0
ENDTAB
  0
TABLE
  2
DIMSTYLE
  5
A
100
AcDbSymbolTable
 70
1
100
AcDbDimStyleTable
 71
0
  0
DIMSTYLE
105
233
100
AcDbSymbolTableRecord
100
AcDbDimStyleTableRecord
  2
STANDARD
 70
0
  3

  4

 40
1.0
 41
0.1875
 42
0.0625
 43
0.38
 44
0.18
 45
0.0
 46
0.0
 47
0.01
 48
0.01
140
0.15625
141
0.09
142
0.0
143
25.4
144
1.0
145
0.0
146
1.0
147
0.09
 71
0.0
 72
0.0
 73
1
 74
1
 75
0
 76
0
 77
0
 78
4
170
0
171
2
172
0
173
0
174
0
175
0
176
0
177
0
178
0
270
2
271
2
272
2
273
2
274
2
275
0
280
0
281
0
282
0
283
1
284
4
285
0
286
0
287
3
288
0
340
11
  0
ENDTAB
  0
ENDSEC
  0
SECTION
  2
BLOCKS
  0
BLOCK
  5
20
100
AcDbEntity
  8
0
100
AcDbBlockBegin
  2
*MODEL_SPACE
 70
0
 10
0.0
 20
0.0
 30
0.0
  3
*MODEL_SPACE
  1

  0
ENDBLK
  5
21
100
AcDbEntity
  8
0
100
AcDbBlockEnd
  0
BLOCK
  5
1C
100
AcDbEntity
  8
0
100
AcDbBlockBegin
  2
*PAPER_SPACE
 70
0
 10
0.0
 20
0.0
 30
0.0
  3
*PAPER_SPACE
  1

  0
ENDBLK
  5
1D
100
AcDbEntity
  8
0
100
AcDbBlockEnd
  0
ENDSEC
  0
SECTION
  2
ENTITIES
  0
LINE
  5
234
100
AcDbEntity
  8
03__ASM_ALL_CURVES
100
AcDbLine
 62
4
  6
CONTINUOUS
 10
8.5102787934
 20
6.7269675506
 11
8.5177787934
 21
6.7169675503
  0
LINE
  5
235
100
AcDbEntity
  8
03__ASM_ALL_CURVES
100
AcDbLine
 62
4
  6
CONTINUOUS
 10
8.6427787934
 20
6.7236342171
 11
8.6377787934
 21
6.730300884
  0
LINE
  5
236
100
AcDbEntity
  8
03__ASM_ALL_CURVES
100
AcDbLine
 62
4
  6
CONTINUOUS
 10
8.6527787934
 20
6.7169675503
 11
8.6427787934
 21
6.7236342171
  0
LINE
  5
237
100
AcDbEntity
  8
03__ASM_ALL_CURVES
100
AcDbLine
 62
4
  6
CONTINUOUS
 10
8.6627787934
 20
6.7703008852
 11
8.6727787934
 21
6.7636342154
  0
LINE
  5
238
100
AcDbEntity
  8
03__ASM_ALL_CURVES
100
AcDbLine
 62
4
  6
CONTINUOUS
 10
8.6727787934
 20
6.7636342154
 11
8.6777787934
 21
6.7569675503
  0
LINE
  5
239
100
AcDbEntity
  8
03__ASM_ALL_CURVES
100
AcDbLine
 62
4
  6
CONTINUOUS
 10
8.8127787934
 20
6.730300884
 11
8.8227787934
 21
6.7169675503
  0
LINE
  5
23A
100
AcDbEntity
  8
03__ASM_ALL_CURVES
100
AcDbLine
 62
4
  6
CONTINUOUS
 10
9.0702787934
 20
6.7269675506
 11
9.0777787934
 21
6.7169675503
  0
LINE
  5
23B
100
AcDbEntity
  8
03__ASM_ALL_CURVES
100
AcDbLine
 62
4
  6
CONTINUOUS
 10
8.6777787934
 20
6.7569675503
 11
8.6827787934
 21
6.7436342177
  0
LINE
  5
23C
100
AcDbEntity
  8
03__ASM_ALL_CURVES
100
AcDbLine
 62
4
  6
CONTINUOUS
 10
8.4177787934
 20
6.7969675503
 11
8.4177787934
 21
6.7169675503
  0
LINE
  5
23D
100
AcDbEntity
  8
03__ASM_ALL_CURVES
100
AcDbLine
 62
4
  6
CONTINUOUS
 10
8.5102787934
 20
6.7169675503
 11
8.5102787934
 21
6.7269675506
  0
LINE
  5
23E
100
AcDbEntity
  8
03__ASM_ALL_CURVES
100
AcDbLine
 62
4
  6
CONTINUOUS
 10
9.2927787934
 20
6.7969675503
 11
9.3027787934
 21
6.7836342154
  0
LINE
  5
23F
100
AcDbEntity
  8
03__ASM_ALL_CURVES
100
AcDbLine
 62
4
  6
CONTINUOUS
 10
8.8077787934
 20
6.7503008828
 11
8.8127787934
 21
6.730300884
  0
LINE
  5
240
100
AcDbEntity
  8
03__ASM_ALL_CURVES
100
AcDbLine
 62
4
  6
CONTINUOUS
 10
8.8077787934
 20
6.7636342154
 11
8.8077787934
 21
6.7503008828
  0
LINE
  5
241
100
AcDbEntity
  8
03__ASM_ALL_CURVES
100
AcDbLine
 62
4
  6
CONTINUOUS
 10
8.9127787934
 20
6.7169675503
 11
8.9127787934
 21
6.7969675503
  0
LINE
  5
242
100
AcDbEntity
  8
03__ASM_ALL_CURVES
100
AcDbLine
 62
4
  6
CONTINUOUS
 10
8.5777787934
 20
6.7169675503
 11
8.5827787934
 21
6.7503008828
  0
LINE
  5
243
100
AcDbEntity
  8
03__ASM_ALL_CURVES
100
AcDbLine
 62
4
  6
CONTINUOUS
 10
9.0777787934
 20
6.7169675503
 11
9.0702787934
 21
6.7169675503
  0
LINE
  5
244
100
AcDbEntity
  8
03__ASM_ALL_CURVES
100
AcDbLine
 62
4
  6
CONTINUOUS
 10
8.6627787934
 20
6.7169675503
 11
8.6527787934
 21
6.7169675503
  0
LINE
  5
245
100
AcDbEntity
  8
03__ASM_ALL_CURVES
100
AcDbLine
 62
4
  6
CONTINUOUS
 10
8.5177787934
 20
6.7169675503
 11
8.5102787934
 21
6.7169675503
  0
LINE
  5
246
100
AcDbEntity
  8
03__ASM_ALL_CURVES
100
AcDbLine
 62
4
  6
CONTINUOUS
 10
8.8777787934
 20
6.7369675503
 11
8.9227787934
 21
6.7369675503
  0
LINE
  5
247
100
AcDbEntity
  8
03__ASM_ALL_CURVES
100
AcDbLine
 62
4
  6
CONTINUOUS
 10
8.9577787934
 20
6.7369675503
 11
9.0027787934
 21
6.7369675503
  0
LINE
  5
248
100
AcDbEntity
  8
03__ASM_ALL_CURVES
100
AcDbLine
 62
4
  6
CONTINUOUS
 10
9.1177787934
 20
6.7369675503
 11
9.1627787934
 21
6.7369675503
  0
LINE
  5
249
100
AcDbEntity
  8
03__ASM_ALL_CURVES
100
AcDbLine
 62
4
  6
CONTINUOUS
 10
9.1977787934
 20
6.7369675503
 11
9.2427787934
 21
6.7369675503
  0
LINE
  5
24A
100
AcDbEntity
  8
0
100
AcDbLine
 62
7
  6
CONTINUOUS
 10
11.9877787934
 20
6.7569675503
 11
9.7377787934
 21
6.7569675503
  0
LINE
  5
24B
100
AcDbEntity
  8
03__ASM_ALL_CURVES
100
AcDbLine
 62
4
  6
CONTINUOUS
 10
9.6577787934
 20
6.7569675503
 11
9.4177787934
 21
6.7569675503
  0
LINE
  5
24C
100
AcDbEntity
  8
03__ASM_ALL_CURVES
100
AcDbLine
 62
4
  6
CONTINUOUS
 10
8.6527787934
 20
6.7703008852
 11
8.6627787934
 21
6.7703008852
  0
LINE
  5
24D
100
AcDbEntity
  8
03__ASM_ALL_CURVES
100
AcDbLine
 62
4
  6
CONTINUOUS
 10
8.6777787934
 20
6.7969675503
 11
8.6477787934
 21
6.7969675503
  0
LINE
  5
24E
100
AcDbEntity
  8
03__ASM_ALL_CURVES
100
AcDbLine
 62
4
  6
CONTINUOUS
 10
8.5977787934
 20
6.7969675503
 11
8.5577787934
 21
6.7969675503
  0
LINE
  5
24F
100
AcDbEntity
  8
0
100
AcDbLine
 62
7
  6
CONTINUOUS
 10
12.7067787934
 20
6.8189675503
 11
11.9877787934
 21
6.8189675503
  0
LINE
  5
250
100
AcDbEntity
  8
03__ASM_ALL_CURVES
100
AcDbLine
 62
4
  6
CONTINUOUS
 10
8.9927787934
 20
6.7169675503
 11
8.9927787934
 21
6.7969675503
  0
LINE
  5
251
100
AcDbEntity
  8
03__ASM_ALL_CURVES
100
AcDbLine
 62
4
  6
CONTINUOUS
 10
9.0702787934
 20
6.7169675503
 11
9.0702787934
 21
6.7269675506
  0
LINE
  5
252
100
AcDbEntity
  8
03__ASM_ALL_CURVES
100
AcDbLine
 62
4
  6
CONTINUOUS
 10
8.6477787934
 20
6.7969675503
 11
8.6427787934
 21
6.7636342154
  0
LINE
  5
253
100
AcDbEntity
  8
03__ASM_ALL_CURVES
100
AcDbLine
 62
4
  6
CONTINUOUS
 10
8.5827787934
 20
6.7503008828
 11
8.5877787934
 21
6.7703008852
  0
LINE
  5
254
100
AcDbEntity
  8
03__ASM_ALL_CURVES
100
AcDbLine
 62
4
  6
CONTINUOUS
 10
9.3027787934
 20
6.7836342154
 11
9.3077787934
 21
6.7636342154
  0
LINE
  5
255
100
AcDbEntity
  8
03__ASM_ALL_CURVES
100
AcDbLine
 62
4
  6
CONTINUOUS
 10
9.1527787934
 20
6.7169675503
 11
9.1527787934
 21
6.7969675503
  0
LINE
  5
256
100
AcDbEntity
  8
03__ASM_ALL_CURVES
100
AcDbLine
 62
4
  6
CONTINUOUS
 10
9.1977787934
 20
8.4936342177
 11
9.1977787934
 21
8.5203008852
  0
LINE
  5
257
100
AcDbEntity
  8
03__ASM_ALL_CURVES
100
AcDbLine
 62
4
  6
CONTINUOUS
 10
9.2327787934
 20
6.7169675503
 11
9.2327787934
 21
6.7969675503
  0
LINE
  5
258
100
AcDbEntity
  8
03__ASM_ALL_CURVES
100
AcDbLine
 62
4
  6
CONTINUOUS
 10
9.2377787934
 20
8.5203008852
 11
9.2377787934
 21
8.4936342177
  0
LINE
  5
259
100
AcDbEntity
  8
03__ASM_ALL_CURVES
100
AcDbLine
 62
4
  6
CONTINUOUS
 10
8.8127787934
 20
6.7836342154
 11
8.8077787934
 21
6.7636342154
  0
LINE
  5
25A
100
AcDbEntity
  8
03__ASM_ALL_CURVES
100
AcDbLine
 62
4
  6
CONTINUOUS
 10
9.1977787934
 20
8.5203008852
 11
9.2027787934
 21
8.5336342154
  0
LINE
  5
25B
100
AcDbEntity
  8
0
100
AcDbLine
 62
7
  6
CONTINUOUS
 10
12.7377787934
 20
7.1939675503
 11
11.9877787934
 21
7.1939675503
  0
LINE
  5
25C
100
AcDbEntity
  8
03__ASM_ALL_CURVES
100
AcDbLine
 62
4
  6
CONTINUOUS
 10
9.2027787934
 20
8.480300884
 11
9.1977787934
 21
8.4936342177
  0
LINE
  5
25D
100
AcDbEntity
  8
03__ASM_ALL_CURVES
100
AcDbLine
 62
4
  6
CONTINUOUS
 10
9.3077787934
 20
6.7636342154
 11
9.3077787934
 21
6.7503008828
  0
LINE
  5
25E
100
AcDbEntity
  8
03__ASM_ALL_CURVES
100
AcDbLine
 62
4
  6
CONTINUOUS
 10
8.5877787934
 20
6.7703008852
 11
8.5977787934
 21
6.7969675503
  0
LINE
  5
25F
100
AcDbEntity
  8
03__ASM_ALL_CURVES
100
AcDbLine
 62
4
  6
CONTINUOUS
 10
9.2377787934
 20
8.4936342177
 11
9.2327787934
 21
8.480300884
  0
LINE
  5
260
100
AcDbEntity
  8
03__ASM_ALL_CURVES
100
AcDbLine
 62
4
  6
CONTINUOUS
 10
8.6827787934
 20
6.7436342177
 11
8.6777787934
 21
6.730300884
  0
LINE
  5
261
100
AcDbEntity
  8
03__ASM_ALL_CURVES
100
AcDbLine
 62
4
  6
CONTINUOUS
 10
9.2027787934
 20
8.5336342154
 11
9.2077787934
 21
8.5403008852
  0
LINE
  5
262
100
AcDbEntity
  8
03__ASM_ALL_CURVES
100
AcDbLine
 62
4
  6
CONTINUOUS
 10
9.2077787934
 20
8.4736342171
 11
9.2027787934
 21
8.480300884
  0
LINE
  5
263
100
AcDbEntity
  8
03__ASM_ALL_CURVES
100
AcDbLine
 62
4
  6
CONTINUOUS
 10
9.2327787934
 20
8.5336342154
 11
9.2377787934
 21
8.5203008852
  0
LINE
  5
264
100
AcDbEntity
  8
03__ASM_ALL_CURVES
100
AcDbLine
 62
4
  6
CONTINUOUS
 10
9.6977787934
 20
9.0269675503
 11
9.7044454585
 21
9.0369675503
  0
LINE
  5
265
100
AcDbEntity
  8
03__ASM_ALL_CURVES
100
AcDbLine
 62
4
  6
CONTINUOUS
 10
9.7777787934
 20
9.0269675503
 11
9.7711121266
 21
9.0169675503
  0
LINE
  5
266
100
AcDbEntity
  8
03__ASM_ALL_CURVES
100
AcDbLine
 62
4
  6
CONTINUOUS
 10
9.2327787934
 20
8.480300884
 11
9.2277787934
 21
8.4736342171
  0
LINE
  5
267
100
AcDbEntity
  8
03__ASM_ALL_CURVES
100
AcDbLine
 62
4
  6
CONTINUOUS
 10
9.7044454585
 20
9.0369675503
 11
9.7111121283
 21
9.0419675503
  0
LINE
  5
268
100
AcDbEntity
  8
03__ASM_ALL_CURVES
100
AcDbLine
 62
4
  6
CONTINUOUS
 10
9.2277787934
 20
8.5403008852
 11
9.2327787934
 21
8.5336342154
  0
LINE
  5
269
100
AcDbEntity
  8
0
100
AcDbLine
 62
7
  6
CONTINUOUS
 10
9.7377787934
 20
6.7569675503
 11
9.7377787934
 21
8.5069675503
  0
LINE
  5
26A
100
AcDbEntity
  8
03__ASM_ALL_CURVES
100
AcDbLine
 62
4
  6
CONTINUOUS
 10
9.7377787934
 20
8.5869675503
 11
9.7377787934
 21
8.8269675503
  0
LINE
  5
26B
100
AcDbEntity
  8
03__ASM_ALL_CURVES
100
AcDbLine
 62
4
  6
CONTINUOUS
 10
9.3077787934
 20
6.7503008828
 11
9.3027787934
 21
6.730300884
  0
LINE
  5
26C
100
AcDbEntity
  8
03__ASM_ALL_CURVES
100
AcDbLine
 62
4
  6
CONTINUOUS
 10
9.7711121266
 20
9.0169675503
 11
9.7644454597
 21
9.0119675503
  0
LINE
  5
26D
100
AcDbEntity
  8
03__ASM_ALL_CURVES
100
AcDbLine
 62
4
  6
CONTINUOUS
 10
9.2077787934
 20
8.5403008852
 11
9.2177787934
 21
8.5469675503
  0
LINE
  5
26E
100
AcDbEntity
  8
03__ASM_ALL_CURVES
100
AcDbLine
 62
4
  6
CONTINUOUS
 10
9.7111121283
 20
9.0419675503
 11
9.7244454585
 21
9.0469675503
  0
LINE
  5
26F
100
AcDbEntity
  8
03__ASM_ALL_CURVES
100
AcDbLine
 62
4
  6
CONTINUOUS
 10
9.7644454597
 20
9.0119675503
 11
9.751112126
 21
9.0069675503
  0
LINE
  5
270
100
AcDbEntity
  8
03__ASM_ALL_CURVES
100
AcDbLine
 62
4
  6
CONTINUOUS
 10
9.2177787934
 20
8.4669675503
 11
9.2077787934
 21
8.4736342171
  0
LINE
  5
271
100
AcDbEntity
  8
03__ASM_ALL_CURVES
100
AcDbLine
 62
4
  6
CONTINUOUS
 10
9.2177787934
 20
8.5469675503
 11
9.2277787934
 21
8.5403008852
  0
LINE
  5
272
100
AcDbEntity
  8
03__ASM_ALL_CURVES
100
AcDbLine
 62
4
  6
CONTINUOUS
 10
8.9127787934
 20
6.7969675503
 11
8.8777787934
 21
6.7369675503
  0
LINE
  5
273
100
AcDbEntity
  8
03__ASM_ALL_CURVES
100
AcDbLine
 62
4
  6
CONTINUOUS
 10
12.0097787934
 20
10.3019675503
 11
12.0231121283
 21
10.3119675503
  0
LINE
  5
274
100
AcDbEntity
  8
03__ASM_ALL_CURVES
100
AcDbLine
 62
4
  6
CONTINUOUS
 10
9.2277787934
 20
8.4736342171
 11
9.2177787934
 21
8.4669675503
  0
LINE
  5
275
100
AcDbEntity
  8
03__ASM_ALL_CURVES
100
AcDbLine
 62
4
  6
CONTINUOUS
 10
12.0497787934
 20
9.7619675503
 11
12.063112126
 21
9.7669675503
  0
LINE
  5
276
100
AcDbEntity
  8
03__ASM_ALL_CURVES
100
AcDbLine
 62
4
  6
CONTINUOUS
 10
12.0764454597
 20
9.7319675503
 11
12.063112126
 21
9.7269675503
  0
LINE
  5
277
100
AcDbEntity
  8
03__ASM_ALL_CURVES
100
AcDbLine
 62
4
  6
CONTINUOUS
 10
8.9927787934
 20
6.7969675503
 11
8.9577787934
 21
6.7369675503
  0
LINE
  5
278
100
AcDbEntity
  8
03__ASM_ALL_CURVES
100
AcDbLine
 62
4
  6
CONTINUOUS
 10
9.1527787934
 20
6.7969675503
 11
9.1177787934
 21
6.7369675503
  0
LINE
  5
279
100
AcDbEntity
  8
03__ASM_ALL_CURVES
100
AcDbLine
 62
4
  6
CONTINUOUS
 10
8.6777787934
 20
6.730300884
 11
8.6727787934
 21
6.7236342171
  0
LINE
  5
27A
100
AcDbEntity
  8
03__ASM_ALL_CURVES
100
AcDbLine
 62
4
  6
CONTINUOUS
 10
8.8227787934
 20
6.7969675503
 11
8.8127787934
 21
6.7836342154
  0
LINE
  5
27B
100
AcDbEntity
  8
03__ASM_ALL_CURVES
100
AcDbLine
 62
4
  6
CONTINUOUS
 10
12.0231121283
 20
10.2469675503
 11
12.0164454585
 21
10.2419675503
  0
LINE
  5
27C
100
AcDbEntity
  8
03__ASM_ALL_CURVES
100
AcDbLine
 62
4
  6
CONTINUOUS
 10
12.0564454609
 20
10.2419675503
 11
12.063112126
 21
10.2469675503
  0
LINE
  5
27D
100
AcDbEntity
  8
03__ASM_ALL_CURVES
100
AcDbLine
 62
4
  6
CONTINUOUS
 10
12.0297787934
 20
10.2069675503
 11
12.0364454585
 21
10.2119675503
  0
LINE
  5
27E
100
AcDbEntity
  8
03__ASM_ALL_CURVES
100
AcDbLine
 62
4
  6
CONTINUOUS
 10
12.0831121266
 20
10.2119675503
 11
12.0697787934
 21
10.2019675503
  0
LINE
  5
27F
100
AcDbEntity
  8
03__ASM_ALL_CURVES
100
AcDbLine
 62
4
  6
CONTINUOUS
 10
12.0497787934
 20
9.5269675503
 11
12.063112126
 21
9.5319675503
  0
LINE
  5
280
100
AcDbEntity
  8
03__ASM_ALL_CURVES
100
AcDbLine
 62
4
  6
CONTINUOUS
 10
12.7111121283
 20
9.7619675503
 11
12.7244454585
 21
9.7669675503
  0
LINE
  5
281
100
AcDbEntity
  8
03__ASM_ALL_CURVES
100
AcDbLine
 62
4
  6
CONTINUOUS
 10
12.7377787934
 20
9.7319675503
 11
12.7244454585
 21
9.7269675503
  0
LINE
  5
282
100
AcDbEntity
  8
0
100
AcDbLine
 62
7
  6
CONTINUOUS
 10
12.7377787934
 20
8.0689675503
 11
11.9877787934
 21
8.0689675503
  0
LINE
  5
283
100
AcDbEntity
  8
03__ASM_ALL_CURVES
100
AcDbLine
 62
4
  6
CONTINUOUS
 10
9.7044454585
 20
9.0169675503
 11
9.6977787934
 21
9.0269675503
  0
LINE
  5
284
100
AcDbEntity
  8
03__ASM_ALL_CURVES
100
AcDbLine
 62
4
  6
CONTINUOUS
 10
9.7711121266
 20
9.0369675503
 11
9.7777787934
 21
9.0269675503
  0
LINE
  5
285
100
AcDbEntity
  8
03__ASM_ALL_CURVES
100
AcDbLine
 62
4
  6
CONTINUOUS
 10
9.2327787934
 20
6.7969675503
 11
9.1977787934
 21
6.7369675503
  0
LINE
  5
286
100
AcDbEntity
  8
03__ASM_ALL_CURVES
100
AcDbLine
 62
4
  6
CONTINUOUS
 10
12.0764454597
 20
10.0619675503
 11
12.0897787934
 21
10.0719675503
  0
LINE
  5
287
100
AcDbEntity
  8
03__ASM_ALL_CURVES
100
AcDbLine
 62
4
  6
CONTINUOUS
 10
12.0097787934
 20
9.9019675503
 11
12.0231121283
 21
9.9119675503
  0
LINE
  5
288
100
AcDbEntity
  8
03__ASM_ALL_CURVES
100
AcDbLine
 62
4
  6
CONTINUOUS
 10
12.7377787934
 20
9.5219675503
 11
12.751112126
 21
9.5269675503
  0
LINE
  5
289
100
AcDbEntity
  8
03__ASM_ALL_CURVES
100
AcDbLine
 62
4
  6
CONTINUOUS
 10
12.0164454585
 20
9.7569675503
 11
12.0231121283
 21
9.7619675503
  0
LINE
  5
28A
100
AcDbEntity
  8
03__ASM_ALL_CURVES
100
AcDbLine
 62
4
  6
CONTINUOUS
 10
12.0831121266
 20
9.7369675503
 11
12.0764454597
 21
9.7319675503
  0
LINE
  5
28B
100
AcDbEntity
  8
03__ASM_ALL_CURVES
100
AcDbLine
 62
4
  6
CONTINUOUS
 10
12.0797787931
 20
9.6794675503
 11
12.0897787934
 21
9.6869675503
  0
LINE
  5
28C
100
AcDbEntity
  8
03__ASM_ALL_CURVES
100
AcDbLine
 62
4
  6
CONTINUOUS
 10
12.0164454585
 20
9.6019675503
 11
12.0231121283
 21
9.6069675503
  0
LINE
  5
28D
100
AcDbEntity
  8
03__ASM_ALL_CURVES
100
AcDbLine
 62
4
  6
CONTINUOUS
 10
12.0497787934
 20
9.6019675503
 11
12.063112126
 21
9.6119675503
  0
LINE
  5
28E
100
AcDbEntity
  8
03__ASM_ALL_CURVES
100
AcDbLine
 62
4
  6
CONTINUOUS
 10
12.0364454585
 20
9.5719675503
 11
12.0297787934
 21
9.5669675503
  0
LINE
  5
28F
100
AcDbEntity
  8
03__ASM_ALL_CURVES
100
AcDbLine
 62
4
  6
CONTINUOUS
 10
12.7644454597
 20
9.4919675503
 11
12.751112126
 21
9.4869675503
  0
LINE
  5
290
100
AcDbEntity
  8
0
100
AcDbLine
 62
7
  6
CONTINUOUS
 10
12.7067787934
 20
8.4439675503
 11
11.9877787934
 21
8.4439675503
  0
LINE
  5
291
100
AcDbEntity
  8
03__ASM_ALL_CURVES
100
AcDbLine
 62
4
  6
CONTINUOUS
 10
9.6577787934
 20
8.5069675503
 11
9.4177787934
 21
8.5069675503
  0
LINE
  5
292
100
AcDbEntity
  8
0
100
AcDbLine
 62
7
  6
CONTINUOUS
 10
9.7377787934
 20
8.5069675503
 11
11.9877787934
 21
8.5069675503
  0
LINE
  5
293
100
AcDbEntity
  8
03__ASM_ALL_CURVES
100
AcDbLine
 62
4
  6
CONTINUOUS
 10
9.7111121283
 20
9.0119675503
 11
9.7044454585
 21
9.0169675503
  0
LINE
  5
294
100
AcDbEntity
  8
03__ASM_ALL_CURVES
100
AcDbLine
 62
4
  6
CONTINUOUS
 10
9.7644454597
 20
9.0419675503
 11
9.7711121266
 21
9.0369675503
  0
LINE
  5
295
100
AcDbEntity
  8
03__ASM_ALL_CURVES
100
AcDbLine
 62
4
  6
CONTINUOUS
 10
9.3027787934
 20
6.730300884
 11
9.2927787934
 21
6.7169675503
  0
LINE
  5
296
100
AcDbEntity
  8
03__ASM_ALL_CURVES
100
AcDbLine
 62
4
  6
CONTINUOUS
 10
12.0831121266
 20
9.5719675503
 11
12.0697787934
 21
9.5619675503
  0
LINE
  5
297
100
AcDbEntity
  8
03__ASM_ALL_CURVES
100
AcDbLine
 62
4
  6
CONTINUOUS
 10
12.0431121283
 20
9.5219675503
 11
12.0497787934
 21
9.5269675503
  0
LINE
  5
298
100
AcDbEntity
  8
03__ASM_ALL_CURVES
100
AcDbLine
 62
4
  6
CONTINUOUS
 10
12.0831121266
 20
9.4919675503
 11
12.0764454597
 21
9.4869675503
  0
LINE
  5
299
100
AcDbEntity
  8
03__ASM_ALL_CURVES
100
AcDbLine
 62
4
  6
CONTINUOUS
 10
12.0764454597
 20
9.4219675503
 11
12.0897787934
 21
9.4319675503
  0
LINE
  5
29A
100
AcDbEntity
  8
03__ASM_ALL_CURVES
100
AcDbLine
 62
4
  6
CONTINUOUS
 10
12.7111121283
 20
9.2019675503
 11
12.7244454585
 21
9.2069675503
  0
LINE
  5
29B
100
AcDbEntity
  8
03__ASM_ALL_CURVES
100
AcDbLine
 62
4
  6
CONTINUOUS
 10
12.7644454597
 20
9.1719675503
 11
12.751112126
 21
9.1669675503
  0
LINE
  5
29C
100
AcDbEntity
  8
03__ASM_ALL_CURVES
100
AcDbLine
 62
4
  6
CONTINUOUS
 10
9.7244454585
 20
9.0069675503
 11
9.7111121283
 21
9.0119675503
  0
LINE
  5
29D
100
AcDbEntity
  8
03__ASM_ALL_CURVES
100
AcDbLine
 62
4
  6
CONTINUOUS
 10
9.751112126
 20
9.0469675503
 11
9.7644454597
 21
9.0419675503
  0
LINE
  5
29E
100
AcDbEntity
  8
03__ASM_ALL_CURVES
100
AcDbLine
 62
4
  6
CONTINUOUS
 10
12.0164454585
 20
10.2419675503
 11
12.0097787934
 21
10.2319675503
  0
LINE
  5
29F
100
AcDbEntity
  8
03__ASM_ALL_CURVES
100
AcDbLine
 62
4
  6
CONTINUOUS
 10
12.0364454585
 20
10.2119675503
 11
12.0564454609
 21
10.2419675503
  0
LINE
  5
2A0
100
AcDbEntity
  8
03__ASM_ALL_CURVES
100
AcDbLine
 62
4
  6
CONTINUOUS
 10
12.0897787934
 20
10.2219675503
 11
12.0831121266
 21
10.2119675503
  0
LINE
  5
2A1
100
AcDbEntity
  8
03__ASM_ALL_CURVES
100
AcDbLine
 62
4
  6
CONTINUOUS
 10
12.6977787934
 20
9.8219675503
 11
12.7111121283
 21
9.8319675503
  0
LINE
  5
2A2
100
AcDbEntity
  8
03__ASM_ALL_CURVES
100
AcDbLine
 62
4
  6
CONTINUOUS
 10
12.7044454585
 20
9.7569675503
 11
12.7111121283
 21
9.7619675503
  0
LINE
  5
2A3
100
AcDbEntity
  8
03__ASM_ALL_CURVES
100
AcDbLine
 62
4
  6
CONTINUOUS
 10
12.0164454585
 20
9.2019675503
 11
12.0231121283
 21
9.2069675503
  0
LINE
  5
2A4
100
AcDbEntity
  8
03__ASM_ALL_CURVES
100
AcDbLine
 62
4
  6
CONTINUOUS
 10
12.0497787934
 20
9.2019675503
 11
12.063112126
 21
9.2119675503
  0
LINE
  5
2A5
100
AcDbEntity
  8
03__ASM_ALL_CURVES
100
AcDbLine
 62
4
  6
CONTINUOUS
 10
12.7711121266
 20
9.7369675503
 11
12.7644454597
 21
9.7319675503
  0
LINE
  5
2A6
100
AcDbEntity
  8
03__ASM_ALL_CURVES
100
AcDbLine
 62
4
  6
CONTINUOUS
 10
12.0831121266
 20
9.1719675503
 11
12.0764454597
 21
9.1669675503
  0
LINE
  5
2A7
100
AcDbEntity
  8
03__ASM_ALL_CURVES
100
AcDbLine
 62
4
  6
CONTINUOUS
 10
8.6427787934
 20
6.7636342154
 11
8.6527787934
 21
6.7703008852
  0
LINE
  5
2A8
100
AcDbEntity
  8
03__ASM_ALL_CURVES
100
AcDbLine
 62
4
  6
CONTINUOUS
 10
12.7444454609
 20
9.3369675503
 11
12.7644454597
 21
9.3419675503
  0
LINE
  5
2A9
100
AcDbEntity
  8
03__ASM_ALL_CURVES
100
AcDbLine
 62
4
  6
CONTINUOUS
 10
12.0097787934
 20
9.7469675503
 11
12.0164454585
 21
9.7569675503
  0
LINE
  5
2AA
100
AcDbEntity
  8
03__ASM_ALL_CURVES
100
AcDbLine
 62
4
  6
CONTINUOUS
 10
12.0897787934
 20
9.7469675503
 11
12.0831121266
 21
9.7369675503
  0
LINE
  5
2AB
100
AcDbEntity
  8
03__ASM_ALL_CURVES
100
AcDbLine
 62
4
  6
CONTINUOUS
 10
12.0097787934
 20
9.5919675503
 11
12.0164454585
 21
9.6019675503
  0
LINE
  5
2AC
100
AcDbEntity
  8
03__ASM_ALL_CURVES
100
AcDbLine
 62
4
  6
CONTINUOUS
 10
12.0797787931
 20
9.1194675503
 11
12.0897787934
 21
9.1269675503
  0
LINE
  5
2AD
100
AcDbEntity
  8
03__ASM_ALL_CURVES
100
AcDbLine
 62
4
  6
CONTINUOUS
 10
12.0164454585
 20
9.0419675503
 11
12.0231121283
 21
9.0469675503
  0
LINE
  5
2AE
100
AcDbEntity
  8
03__ASM_ALL_CURVES
100
AcDbLine
 62
4
  6
CONTINUOUS
 10
12.7677787931
 20
9.5994675503
 11
12.7777787934
 21
9.6069675503
  0
LINE
  5
2AF
100
AcDbEntity
  8
03__ASM_ALL_CURVES
100
AcDbLine
 62
4
  6
CONTINUOUS
 10
12.7044454585
 20
9.5169675503
 11
12.7111121283
 21
9.5219675503
  0
LINE
  5
2B0
100
AcDbEntity
  8
03__ASM_ALL_CURVES
100
AcDbLine
 62
4
  6
CONTINUOUS
 10
12.7711121266
 20
9.4969675503
 11
12.7644454597
 21
9.4919675503
  0
LINE
  5
2B1
100
AcDbEntity
  8
03__ASM_ALL_CURVES
100
AcDbLine
 62
4
  6
CONTINUOUS
 10
8.6727787934
 20
6.7236342171
 11
8.6627787934
 21
6.7169675503
  0
LINE
  5
2B2
100
AcDbEntity
  8
03__ASM_ALL_CURVES
100
AcDbLine
 62
4
  6
CONTINUOUS
 10
12.0564454609
 20
9.4169675503
 11
12.0764454597
 21
9.4219675503
  0
LINE
  5
2B3
100
AcDbEntity
  8
03__ASM_ALL_CURVES
100
AcDbLine
 62
4
  6
CONTINUOUS
 10
9.751112126
 20
9.0069675503
 11
9.7244454585
 21
9.0069675503
  0
LINE
  5
2B4
100
AcDbEntity
  8
03__ASM_ALL_CURVES
100
AcDbLine
 62
4
  6
CONTINUOUS
 10
9.7244454585
 20
9.0469675503
 11
9.751112126
 21
9.0469675503
  0
LINE
  5
2B5
100
AcDbEntity
  8
03__ASM_ALL_CURVES
100
AcDbLine
 62
4
  6
CONTINUOUS
 10
12.0231121283
 20
9.0469675503
 11
12.0364454585
 21
9.0469675503
  0
LINE
  5
2B6
100
AcDbEntity
  8
03__ASM_ALL_CURVES
100
AcDbLine
 62
4
  6
CONTINUOUS
 10
12.7111121283
 20
9.0469675503
 11
12.7177787934
 21
9.0469675503
  0
LINE
  5
2B7
100
AcDbEntity
  8
03__ASM_ALL_CURVES
100
AcDbLine
 62
4
  6
CONTINUOUS
 10
12.751112126
 20
9.0519675503
 11
12.7577787934
 21
9.0519675503
  0
LINE
  5
2B8
100
AcDbEntity
  8
03__ASM_ALL_CURVES
100
AcDbLine
 62
4
  6
CONTINUOUS
 10
12.0431121283
 20
9.5919675503
 11
12.0497787934
 21
9.6019675503
  0
LINE
  5
2B9
100
AcDbEntity
  8
03__ASM_ALL_CURVES
100
AcDbLine
 62
4
  6
CONTINUOUS
 10
12.0431121283
 20
9.5819675503
 11
12.0364454585
 21
9.5719675503
  0
LINE
  5
2BA
100
AcDbEntity
  8
03__ASM_ALL_CURVES
100
AcDbLine
 62
4
  6
CONTINUOUS
 10
12.0364454585
 20
9.5119675503
 11
12.0431121283
 21
9.5219675503
  0
LINE
  5
2BB
100
AcDbEntity
  8
03__ASM_ALL_CURVES
100
AcDbLine
 62
4
  6
CONTINUOUS
 10
12.0897787934
 20
9.5819675503
 11
12.0831121266
 21
9.5719675503
  0
LINE
  5
2BC
100
AcDbEntity
  8
03__ASM_ALL_CURVES
100
AcDbLine
 62
4
  6
CONTINUOUS
 10
12.0897787934
 20
9.5019675503
 11
12.0831121266
 21
9.4919675503
  0
LINE
  5
2BD
100
AcDbEntity
  8
03__ASM_ALL_CURVES
100
AcDbLine
 62
4
  6
CONTINUOUS
 10
12.7644454597
 20
9.3419675503
 11
12.7777787934
 21
9.3519675503
  0
LINE
  5
2BE
100
AcDbEntity
  8
03__ASM_ALL_CURVES
100
AcDbLine
 62
4
  6
CONTINUOUS
 10
12.7044454585
 20
9.1969675503
 11
12.7111121283
 21
9.2019675503
  0
LINE
  5
2BF
100
AcDbEntity
  8
03__ASM_ALL_CURVES
100
AcDbLine
 62
4
  6
CONTINUOUS
 10
12.7711121266
 20
9.1769675503
 11
12.7644454597
 21
9.1719675503
  0
LINE
  5
2C0
100
AcDbEntity
  8
03__ASM_ALL_CURVES
100
AcDbLine
 62
4
  6
CONTINUOUS
 10
12.7111121283
 20
9.8319675503
 11
12.7311121283
 21
9.8369675503
  0
LINE
  5
2C1
100
AcDbEntity
  8
03__ASM_ALL_CURVES
100
AcDbLine
 62
4
  6
CONTINUOUS
 10
12.7777787934
 20
9.1194675503
 11
12.7677787931
 21
9.1194675503
  0
LINE
  5
2C2
100
AcDbEntity
  8
03__ASM_ALL_CURVES
100
AcDbLine
 62
4
  6
CONTINUOUS
 10
12.0897787934
 20
9.1194675503
 11
12.0797787931
 21
9.1194675503
  0
LINE
  5
2C3
100
AcDbEntity
  8
03__ASM_ALL_CURVES
100
AcDbLine
 62
4
  6
CONTINUOUS
 10
12.751112126
 20
9.1669675503
 11
12.7244454585
 21
9.1669675503
  0
LINE
  5
2C4
100
AcDbEntity
  8
03__ASM_ALL_CURVES
100
AcDbLine
 62
4
  6
CONTINUOUS
 10
12.0231121283
 20
9.2069675503
 11
12.0297787934
 21
9.2069675503
  0
LINE
  5
2C5
100
AcDbEntity
  8
03__ASM_ALL_CURVES
100
AcDbLine
 62
4
  6
CONTINUOUS
 10
12.7244454585
 20
9.2069675503
 11
12.751112126
 21
9.2069675503
  0
LINE
  5
2C6
100
AcDbEntity
  8
03__ASM_ALL_CURVES
100
AcDbLine
 62
4
  6
CONTINUOUS
 10
12.063112126
 20
9.2119675503
 11
12.0697787934
 21
9.2119675503
  0
LINE
  5
2C7
100
AcDbEntity
  8
03__ASM_ALL_CURVES
100
AcDbLine
 62
4
  6
CONTINUOUS
 10
12.0097787934
 20
9.2669675503
 11
12.0897787934
 21
9.2669675503
  0
LINE
  5
2C8
100
AcDbEntity
  8
03__ASM_ALL_CURVES
100
AcDbLine
 62
4
  6
CONTINUOUS
 10
12.0431121283
 20
9.7469675503
 11
12.0497787934
 21
9.7619675503
  0
LINE
  5
2C9
100
AcDbEntity
  8
03__ASM_ALL_CURVES
100
AcDbLine
 62
4
  6
CONTINUOUS
 10
12.0097787934
 20
9.1919675503
 11
12.0164454585
 21
9.2019675503
  0
LINE
  5
2CA
100
AcDbEntity
  8
03__ASM_ALL_CURVES
100
AcDbLine
 62
4
  6
CONTINUOUS
 10
12.0431121283
 20
9.1919675503
 11
12.0497787934
 21
9.2019675503
  0
LINE
  5
2CB
100
AcDbEntity
  8
03__ASM_ALL_CURVES
100
AcDbLine
 62
4
  6
CONTINUOUS
 10
12.0897787934
 20
9.1819675503
 11
12.0831121266
 21
9.1719675503
  0
LINE
  5
2CC
100
AcDbEntity
  8
03__ASM_ALL_CURVES
100
AcDbLine
 62
4
  6
CONTINUOUS
 10
12.0097787934
 20
9.0319675503
 11
12.0164454585
 21
9.0419675503
  0
LINE
  5
2CD
100
AcDbEntity
  8
03__ASM_ALL_CURVES
100
AcDbLine
 62
4
  6
CONTINUOUS
 10
12.7677787931
 20
9.1194675503
 11
12.7777787934
 21
9.1269675503
  0
LINE
  5
2CE
100
AcDbEntity
  8
03__ASM_ALL_CURVES
100
AcDbLine
 62
4
  6
CONTINUOUS
 10
12.7044454585
 20
9.0419675503
 11
12.7111121283
 21
9.0469675503
  0
LINE
  5
2CF
100
AcDbEntity
  8
03__ASM_ALL_CURVES
100
AcDbLine
 62
4
  6
CONTINUOUS
 10
12.7377787934
 20
9.0419675503
 11
12.751112126
 21
9.0519675503
  0
LINE
  5
2D0
100
AcDbEntity
  8
03__ASM_ALL_CURVES
100
AcDbLine
 62
4
  6
CONTINUOUS
 10
12.7711121266
 20
9.0119675503
 11
12.7644454597
 21
9.0069675503
  0
LINE
  5
2D1
100
AcDbEntity
  8
03__ASM_ALL_CURVES
100
AcDbLine
 62
4
  6
CONTINUOUS
 10
12.7311121283
 20
9.3369675503
 11
12.7444454609
 21
9.3369675503
  0
LINE
  5
2D2
100
AcDbEntity
  8
03__ASM_ALL_CURVES
100
AcDbLine
 62
4
  6
CONTINUOUS
 10
12.0431121283
 20
9.4169675503
 11
12.0564454609
 21
9.4169675503
  0
LINE
  5
2D3
100
AcDbEntity
  8
03__ASM_ALL_CURVES
100
AcDbLine
 62
4
  6
CONTINUOUS
 10
12.0697787934
 20
9.0119675503
 11
12.0897787934
 21
9.0069675503
  0
LINE
  5
2D4
100
AcDbEntity
  8
03__ASM_ALL_CURVES
100
AcDbLine
 62
4
  6
CONTINUOUS
 10
12.6977787934
 20
9.7469675503
 11
12.7044454585
 21
9.7569675503
  0
LINE
  5
2D5
100
AcDbEntity
  8
03__ASM_ALL_CURVES
100
AcDbLine
 62
4
  6
CONTINUOUS
 10
12.7777787934
 20
9.7469675503
 11
12.7711121266
 21
9.7369675503
  0
LINE
  5
2D6
100
AcDbEntity
  8
03__ASM_ALL_CURVES
100
AcDbLine
 62
4
  6
CONTINUOUS
 10
12.0231121283
 20
9.9119675503
 11
12.0431121283
 21
9.9169675503
  0
LINE
  5
2D7
100
AcDbEntity
  8
03__ASM_ALL_CURVES
100
AcDbLine
 62
4
  6
CONTINUOUS
 10
12.0564454609
 20
10.0569675503
 11
12.0764454597
 21
10.0619675503
  0
LINE
  5
2D8
100
AcDbEntity
  8
03__ASM_ALL_CURVES
100
AcDbLine
 62
4
  6
CONTINUOUS
 10
12.751112126
 20
9.4869675503
 11
12.7244454585
 21
9.4869675503
  0
LINE
  5
2D9
100
AcDbEntity
  8
03__ASM_ALL_CURVES
100
AcDbLine
 62
4
  6
CONTINUOUS
 10
12.0697787934
 20
9.5619675503
 11
12.063112126
 21
9.5619675503
  0
LINE
  5
2DA
100
AcDbEntity
  8
03__ASM_ALL_CURVES
100
AcDbLine
 62
4
  6
CONTINUOUS
 10
12.0297787934
 20
9.5669675503
 11
12.0231121283
 21
9.5669675503
  0
LINE
  5
2DB
100
AcDbEntity
  8
03__ASM_ALL_CURVES
100
AcDbLine
 62
4
  6
CONTINUOUS
 10
12.7777787934
 20
9.5994675503
 11
12.7677787931
 21
9.5994675503
  0
LINE
  5
2DC
100
AcDbEntity
  8
03__ASM_ALL_CURVES
100
AcDbLine
 62
4
  6
CONTINUOUS
 10
12.0231121283
 20
9.6069675503
 11
12.0297787934
 21
9.6069675503
  0
LINE
  5
2DD
100
AcDbEntity
  8
03__ASM_ALL_CURVES
100
AcDbLine
 62
4
  6
CONTINUOUS
 10
12.063112126
 20
9.6119675503
 11
12.0697787934
 21
9.6119675503
  0
LINE
  5
2DE
100
AcDbEntity
  8
03__ASM_ALL_CURVES
100
AcDbLine
 62
4
  6
CONTINUOUS
 10
12.6977787934
 20
9.6669675503
 11
12.7777787934
 21
9.6669675503
  0
LINE
  5
2DF
100
AcDbEntity
  8
03__ASM_ALL_CURVES
100
AcDbLine
 62
4
  6
CONTINUOUS
 10
12.6977787934
 20
9.5069675503
 11
12.7044454585
 21
9.5169675503
  0
LINE
  5
2E0
100
AcDbEntity
  8
03__ASM_ALL_CURVES
100
AcDbLine
 62
4
  6
CONTINUOUS
 10
12.7777787934
 20
9.5069675503
 11
12.7711121266
 21
9.4969675503
  0
LINE
  5
2E1
100
AcDbEntity
  8
03__ASM_ALL_CURVES
100
AcDbLine
 62
4
  6
CONTINUOUS
 10
12.0897787934
 20
9.6794675503
 11
12.0797787931
 21
9.6794675503
  0
LINE
  5
2E2
100
AcDbEntity
  8
03__ASM_ALL_CURVES
100
AcDbLine
 62
4
  6
CONTINUOUS
 10
12.063112126
 20
9.7269675503
 11
12.0364454585
 21
9.7269675503
  0
LINE
  5
2E3
100
AcDbEntity
  8
03__ASM_ALL_CURVES
100
AcDbLine
 62
4
  6
CONTINUOUS
 10
12.7244454585
 20
9.7669675503
 11
12.751112126
 21
9.7669675503
  0
LINE
  5
2E4
100
AcDbEntity
  8
03__ASM_ALL_CURVES
100
AcDbLine
 62
4
  6
CONTINUOUS
 10
12.7311121283
 20
9.8369675503
 11
12.7444454609
 21
9.8369675503
  0
LINE
  5
2E5
100
AcDbEntity
  8
03__ASM_ALL_CURVES
100
AcDbLine
 62
4
  6
CONTINUOUS
 10
12.0097787934
 20
9.4969675503
 11
12.0431121283
 21
9.4919675503
  0
LINE
  5
2E6
100
AcDbEntity
  8
03__ASM_ALL_CURVES
100
AcDbLine
 62
4
  6
CONTINUOUS
 10
12.7777787934
 20
9.4269675503
 11
12.7444454609
 21
9.4319675503
  0
LINE
  5
2E7
100
AcDbEntity
  8
03__ASM_ALL_CURVES
100
AcDbLine
 62
4
  6
CONTINUOUS
 10
12.0231121283
 20
9.4219675503
 11
12.0431121283
 21
9.4169675503
  0
LINE
  5
2E8
100
AcDbEntity
  8
03__ASM_ALL_CURVES
100
AcDbLine
 62
4
  6
CONTINUOUS
 10
12.7111121283
 20
9.3419675503
 11
12.7311121283
 21
9.3369675503
  0
LINE
  5
2E9
100
AcDbEntity
  8
03__ASM_ALL_CURVES
100
AcDbLine
 62
4
  6
CONTINUOUS
 10
12.0231121283
 20
9.0069675503
 11
12.0164454585
 21
9.0119675503
  0
LINE
  5
2EA
100
AcDbEntity
  8
03__ASM_ALL_CURVES
100
AcDbLine
 62
4
  6
CONTINUOUS
 10
12.0564454609
 20
9.0219675503
 11
12.0697787934
 21
9.0119675503
  0
LINE
  5
2EB
100
AcDbEntity
  8
03__ASM_ALL_CURVES
100
AcDbLine
 62
4
  6
CONTINUOUS
 10
12.0364454585
 20
9.0469675503
 11
12.0431121283
 21
9.0419675503
  0
LINE
  5
2EC
100
AcDbEntity
  8
0
100
AcDbLine
 62
7
  6
CONTINUOUS
 10
11.9877787934
 20
8.5069675503
 11
11.9877787934
 21
6.7569675503
  0
LINE
  5
2ED
100
AcDbEntity
  8
03__ASM_ALL_CURVES
100
AcDbLine
 62
4
  6
CONTINUOUS
 10
12.0097787934
 20
10.2319675503
 11
12.0097787934
 21
10.2219675503
  0
LINE
  5
2EE
100
AcDbEntity
  8
03__ASM_ALL_CURVES
100
AcDbLine
 62
4
  6
CONTINUOUS
 10
12.0097787934
 20
9.8469675503
 11
12.0097787934
 21
9.8069675503
  0
LINE
  5
2EF
100
AcDbEntity
  8
03__ASM_ALL_CURVES
100
AcDbLine
 62
4
  6
CONTINUOUS
 10
12.0097787934
 20
9.5269675503
 11
12.0097787934
 21
9.4969675503
  0
LINE
  5
2F0
100
AcDbEntity
  8
03__ASM_ALL_CURVES
100
AcDbLine
 62
4
  6
CONTINUOUS
 10
12.0097787934
 20
9.0219675503
 11
12.0097787934
 21
9.0319675503
  0
LINE
  5
2F1
100
AcDbEntity
  8
03__ASM_ALL_CURVES
100
AcDbLine
 62
4
  6
CONTINUOUS
 10
12.0097787934
 20
9.1819675503
 11
12.0097787934
 21
9.1919675503
  0
LINE
  5
2F2
100
AcDbEntity
  8
03__ASM_ALL_CURVES
100
AcDbLine
 62
4
  6
CONTINUOUS
 10
12.0097787934
 20
9.5819675503
 11
12.0097787934
 21
9.5919675503
  0
LINE
  5
2F3
100
AcDbEntity
  8
03__ASM_ALL_CURVES
100
AcDbLine
 62
4
  6
CONTINUOUS
 10
12.0364454585
 20
9.5019675503
 11
12.0364454585
 21
9.5119675503
  0
LINE
  5
2F4
100
AcDbEntity
  8
03__ASM_ALL_CURVES
100
AcDbLine
 62
4
  6
CONTINUOUS
 10
12.0431121283
 20
9.1819675503
 11
12.0431121283
 21
9.1919675503
  0
LINE
  5
2F5
100
AcDbEntity
  8
03__ASM_ALL_CURVES
100
AcDbLine
 62
4
  6
CONTINUOUS
 10
12.0431121283
 20
9.5819675503
 11
12.0431121283
 21
9.5919675503
  0
LINE
  5
2F6
100
AcDbEntity
  8
03__ASM_ALL_CURVES
100
AcDbLine
 62
4
  6
CONTINUOUS
 10
12.0497787934
 20
8.5869675503
 11
12.0497787934
 21
8.8269675503
  0
LINE
  5
2F7
100
AcDbEntity
  8
03__ASM_ALL_CURVES
100
AcDbLine
 62
4
  6
CONTINUOUS
 10
12.0897787934
 20
10.2319675503
 11
12.0897787934
 21
10.2219675503
  0
LINE
  5
2F8
100
AcDbEntity
  8
03__ASM_ALL_CURVES
100
AcDbLine
 62
4
  6
CONTINUOUS
 10
12.0897787934
 20
9.6869675503
 11
12.0897787934
 21
9.6794675503
  0
LINE
  5
2F9
100
AcDbEntity
  8
03__ASM_ALL_CURVES
100
AcDbLine
 62
4
  6
CONTINUOUS
 10
12.0897787934
 20
9.5919675503
 11
12.0897787934
 21
9.5819675503
  0
LINE
  5
2FA
100
AcDbEntity
  8
03__ASM_ALL_CURVES
100
AcDbLine
 62
4
  6
CONTINUOUS
 10
12.0897787934
 20
9.5119675503
 11
12.0897787934
 21
9.5019675503
  0
LINE
  5
2FB
100
AcDbEntity
  8
03__ASM_ALL_CURVES
100
AcDbLine
 62
4
  6
CONTINUOUS
 10
12.0897787934
 20
9.1919675503
 11
12.0897787934
 21
9.1819675503
  0
LINE
  5
2FC
100
AcDbEntity
  8
03__ASM_ALL_CURVES
100
AcDbLine
 62
4
  6
CONTINUOUS
 10
12.0897787934
 20
9.1269675503
 11
12.0897787934
 21
9.1194675503
  0
LINE
  5
2FD
100
AcDbEntity
  8
03__ASM_ALL_CURVES
100
AcDbLine
 62
4
  6
CONTINUOUS
 10
12.0897787934
 20
9.0069675503
 11
12.0897787934
 21
9.0469675503
  0
LINE
  5
2FE
100
AcDbEntity
  8
03__ASM_ALL_CURVES
100
AcDbLine
 62
4
  6
CONTINUOUS
 10
12.0897787934
 20
10.1269675503
 11
12.0897787934
 21
10.1669675503
  0
LINE
  5
2FF
100
AcDbEntity
  8
03__ASM_ALL_CURVES
100
AcDbLine
 62
4
  6
CONTINUOUS
 10
12.7444454609
 20
9.7469675503
 11
12.7377787934
 21
9.7319675503
  0
LINE
  5
300
100
AcDbEntity
  8
03__ASM_ALL_CURVES
100
AcDbLine
 62
4
  6
CONTINUOUS
 10
12.6977787934
 20
9.1869675503
 11
12.7044454585
 21
9.1969675503
  0
LINE
  5
301
100
AcDbEntity
  8
03__ASM_ALL_CURVES
100
AcDbLine
 62
4
  6
CONTINUOUS
 10
12.7777787934
 20
9.1869675503
 11
12.7711121266
 21
9.1769675503
  0
LINE
  5
302
100
AcDbEntity
  8
03__ASM_ALL_CURVES
100
AcDbLine
 62
4
  6
CONTINUOUS
 10
12.6977787934
 20
9.0319675503
 11
12.7044454585
 21
9.0419675503
  0
LINE
  5
303
100
AcDbEntity
  8
03__ASM_ALL_CURVES
100
AcDbLine
 62
4
  6
CONTINUOUS
 10
12.7311121283
 20
9.0319675503
 11
12.7377787934
 21
9.0419675503
  0
LINE
  5
304
100
AcDbEntity
  8
03__ASM_ALL_CURVES
100
AcDbLine
 62
4
  6
CONTINUOUS
 10
12.0231121283
 20
10.3119675503
 11
12.0431121283
 21
10.3169675503
  0
LINE
  5
305
100
AcDbEntity
  8
03__ASM_ALL_CURVES
100
AcDbLine
 62
4
  6
CONTINUOUS
 10
12.0431121283
 20
9.9169675503
 11
12.0564454609
 21
9.9169675503
  0
LINE
  5
306
100
AcDbEntity
  8
03__ASM_ALL_CURVES
100
AcDbLine
 62
4
  6
CONTINUOUS
 10
12.0897787934
 20
9.8269675503
 11
12.0564454609
 21
9.8319675503
  0
LINE
  5
307
100
AcDbEntity
  8
03__ASM_ALL_CURVES
100
AcDbLine
 62
4
  6
CONTINUOUS
 10
12.7444454609
 20
9.4319675503
 11
12.7244454585
 21
9.4369675503
  0
LINE
  5
308
100
AcDbEntity
  8
03__ASM_ALL_CURVES
100
AcDbLine
 62
4
  6
CONTINUOUS
 10
12.7244454585
 20
9.1669675503
 11
12.7111121283
 21
9.1719675503
  0
LINE
  5
309
100
AcDbEntity
  8
03__ASM_ALL_CURVES
100
AcDbLine
 62
4
  6
CONTINUOUS
 10
12.751112126
 20
9.2069675503
 11
12.7644454597
 21
9.2019675503
  0
LINE
  5
30A
100
AcDbEntity
  8
03__ASM_ALL_CURVES
100
AcDbLine
 62
4
  6
CONTINUOUS
 10
12.063112126
 20
9.5319675503
 11
12.0764454597
 21
9.5269675503
  0
LINE
  5
30B
100
AcDbEntity
  8
03__ASM_ALL_CURVES
100
AcDbLine
 62
4
  6
CONTINUOUS
 10
12.0297787934
 20
9.2069675503
 11
12.0364454585
 21
9.2019675503
  0
LINE
  5
30C
100
AcDbEntity
  8
03__ASM_ALL_CURVES
100
AcDbLine
 62
4
  6
CONTINUOUS
 10
12.0697787934
 20
9.2119675503
 11
12.0831121266
 21
9.2019675503
  0
LINE
  5
30D
100
AcDbEntity
  8
0
100
AcDbLine
 62
7
  6
CONTINUOUS
 10
12.7377787934
 20
8.4129675503
 11
12.7067787934
 21
8.4439675503
  0
LINE
  5
30E
100
AcDbEntity
  8
03__ASM_ALL_CURVES
100
AcDbLine
 62
4
  6
CONTINUOUS
 10
12.0164454585
 20
9.0119675503
 11
12.0097787934
 21
9.0219675503
  0
LINE
  5
30F
100
AcDbEntity
  8
03__ASM_ALL_CURVES
100
AcDbLine
 62
4
  6
CONTINUOUS
 10
12.0431121283
 20
9.0419675503
 11
12.0564454609
 21
9.0219675503
  0
LINE
  5
310
100
AcDbEntity
  8
03__ASM_ALL_CURVES
100
AcDbLine
 62
4
  6
CONTINUOUS
 10
12.7311121283
 20
9.5069675503
 11
12.7377787934
 21
9.5219675503
  0
LINE
  5
311
100
AcDbEntity
  8
03__ASM_ALL_CURVES
100
AcDbLine
 62
4
  6
CONTINUOUS
 10
12.7777787934
 20
9.0219675503
 11
12.7711121266
 21
9.0119675503
  0
LINE
  5
312
100
AcDbEntity
  8
03__ASM_ALL_CURVES
100
AcDbLine
 62
4
  6
CONTINUOUS
 10
12.0431121283
 20
10.0569675503
 11
12.0564454609
 21
10.0569675503
  0
LINE
  5
313
100
AcDbEntity
  8
03__ASM_ALL_CURVES
100
AcDbLine
 62
4
  6
CONTINUOUS
 10
12.0097787934
 20
10.1269675503
 11
12.0897787934
 21
10.1269675503
  0
LINE
  5
314
100
AcDbEntity
  8
03__ASM_ALL_CURVES
100
AcDbLine
 62
4
  6
CONTINUOUS
 10
12.0231121283
 20
10.2069675503
 11
12.0297787934
 21
10.2069675503
  0
LINE
  5
315
100
AcDbEntity
  8
03__ASM_ALL_CURVES
100
AcDbLine
 62
4
  6
CONTINUOUS
 10
12.0564454609
 20
9.8319675503
 11
12.0364454585
 21
9.8369675503
  0
LINE
  5
316
100
AcDbEntity
  8
03__ASM_ALL_CURVES
100
AcDbLine
 62
4
  6
CONTINUOUS
 10
12.0564454609
 20
9.9169675503
 11
12.0764454597
 21
9.9119675503
  0
LINE
  5
317
100
AcDbEntity
  8
03__ASM_ALL_CURVES
100
AcDbLine
 62
4
  6
CONTINUOUS
 10
12.7244454585
 20
9.4369675503
 11
12.6977787934
 21
9.4469675503
  0
LINE
  5
318
100
AcDbEntity
  8
03__ASM_ALL_CURVES
100
AcDbLine
 62
4
  6
CONTINUOUS
 10
12.0364454585
 20
9.7269675503
 11
12.0231121283
 21
9.7319675503
  0
LINE
  5
319
100
AcDbEntity
  8
03__ASM_ALL_CURVES
100
AcDbLine
 62
4
  6
CONTINUOUS
 10
12.063112126
 20
9.7269675503
 11
12.0497787934
 21
9.7319675503
  0
LINE
  5
31A
100
AcDbEntity
  8
03__ASM_ALL_CURVES
100
AcDbLine
 62
4
  6
CONTINUOUS
 10
12.7244454585
 20
9.4869675503
 11
12.7111121283
 21
9.4919675503
  0
LINE
  5
31B
100
AcDbEntity
  8
03__ASM_ALL_CURVES
100
AcDbLine
 62
4
  6
CONTINUOUS
 10
12.751112126
 20
9.4869675503
 11
12.7377787934
 21
9.4919675503
  0
LINE
  5
31C
100
AcDbEntity
  8
03__ASM_ALL_CURVES
100
AcDbLine
 62
4
  6
CONTINUOUS
 10
12.063112126
 20
9.7669675503
 11
12.0764454597
 21
9.7619675503
  0
LINE
  5
31D
100
AcDbEntity
  8
03__ASM_ALL_CURVES
100
AcDbLine
 62
4
  6
CONTINUOUS
 10
12.751112126
 20
9.5269675503
 11
12.7644454597
 21
9.5219675503
  0
LINE
  5
31E
100
AcDbEntity
  8
03__ASM_ALL_CURVES
100
AcDbLine
 62
4
  6
CONTINUOUS
 10
12.0097787934
 20
9.4319675503
 11
12.0231121283
 21
9.4219675503
  0
LINE
  5
31F
100
AcDbEntity
  8
03__ASM_ALL_CURVES
100
AcDbLine
 62
4
  6
CONTINUOUS
 10
12.0231121283
 20
9.5669675503
 11
12.0164454585
 21
9.5719675503
  0
LINE
  5
320
100
AcDbEntity
  8
03__ASM_ALL_CURVES
100
AcDbLine
 62
4
  6
CONTINUOUS
 10
12.0764454597
 20
9.5269675503
 11
12.0831121266
 21
9.5219675503
  0
LINE
  5
321
100
AcDbEntity
  8
03__ASM_ALL_CURVES
100
AcDbLine
 62
4
  6
CONTINUOUS
 10
12.7177787934
 20
9.0469675503
 11
12.7244454585
 21
9.0419675503
  0
LINE
  5
322
100
AcDbEntity
  8
03__ASM_ALL_CURVES
100
AcDbLine
 62
4
  6
CONTINUOUS
 10
12.063112126
 20
9.5619675503
 11
12.0497787934
 21
9.5719675503
  0
LINE
  5
323
100
AcDbEntity
  8
03__ASM_ALL_CURVES
100
AcDbLine
 62
4
  6
CONTINUOUS
 10
12.0164454585
 20
9.1719675503
 11
12.0097787934
 21
9.1819675503
  0
LINE
  5
324
100
AcDbEntity
  8
03__ASM_ALL_CURVES
100
AcDbLine
 62
4
  6
CONTINUOUS
 10
12.0364454585
 20
9.2019675503
 11
12.0431121283
 21
9.1919675503
  0
LINE
  5
325
100
AcDbEntity
  8
03__ASM_ALL_CURVES
100
AcDbLine
 62
4
  6
CONTINUOUS
 10
12.0831121266
 20
9.2019675503
 11
12.0897787934
 21
9.1919675503
  0
LINE
  5
326
100
AcDbEntity
  8
03__ASM_ALL_CURVES
100
AcDbLine
 62
4
  6
CONTINUOUS
 10
12.063112126
 20
10.2469675503
 11
12.0764454597
 21
10.2469675503
  0
LINE
  5
327
100
AcDbEntity
  8
03__ASM_ALL_CURVES
100
AcDbLine
 62
4
  6
CONTINUOUS
 10
12.0431121283
 20
10.3169675503
 11
12.0564454609
 21
10.3169675503
  0
LINE
  5
328
100
AcDbEntity
  8
03__ASM_ALL_CURVES
100
AcDbLine
 62
4
  6
CONTINUOUS
 10
12.7444454609
 20
9.8369675503
 11
12.7644454597
 21
9.8319675503
  0
LINE
  5
329
100
AcDbEntity
  8
03__ASM_ALL_CURVES
100
AcDbLine
 62
4
  6
CONTINUOUS
 10
12.0231121283
 20
10.0619675503
 11
12.0431121283
 21
10.0569675503
  0
LINE
  5
32A
100
AcDbEntity
  8
03__ASM_ALL_CURVES
100
AcDbLine
 62
4
  6
CONTINUOUS
 10
12.0364454585
 20
9.8369675503
 11
12.0097787934
 21
9.8469675503
  0
LINE
  5
32B
100
AcDbEntity
  8
03__ASM_ALL_CURVES
100
AcDbLine
 62
4
  6
CONTINUOUS
 10
12.7244454585
 20
9.7269675503
 11
12.7111121283
 21
9.7319675503
  0
LINE
  5
32C
100
AcDbEntity
  8
03__ASM_ALL_CURVES
100
AcDbLine
 62
4
  6
CONTINUOUS
 10
12.7577787934
 20
9.0519675503
 11
12.7711121266
 21
9.0419675503
  0
LINE
  5
32D
100
AcDbEntity
  8
03__ASM_ALL_CURVES
100
AcDbLine
 62
4
  6
CONTINUOUS
 10
12.0297787934
 20
9.6069675503
 11
12.0364454585
 21
9.6019675503
  0
LINE
  5
32E
100
AcDbEntity
  8
03__ASM_ALL_CURVES
100
AcDbLine
 62
4
  6
CONTINUOUS
 10
12.0697787934
 20
9.6119675503
 11
12.0831121266
 21
9.6019675503
  0
LINE
  5
32F
100
AcDbEntity
  8
03__ASM_ALL_CURVES
100
AcDbLine
 62
4
  6
CONTINUOUS
 10
12.7111121283
 20
9.1719675503
 11
12.7044454585
 21
9.1769675503
  0
LINE
  5
330
100
AcDbEntity
  8
03__ASM_ALL_CURVES
100
AcDbLine
 62
4
  6
CONTINUOUS
 10
12.0231121283
 20
9.7319675503
 11
12.0164454585
 21
9.7369675503
  0
LINE
  5
331
100
AcDbEntity
  8
03__ASM_ALL_CURVES
100
AcDbLine
 62
4
  6
CONTINUOUS
 10
12.7644454597
 20
9.2019675503
 11
12.7711121266
 21
9.1969675503
  0
LINE
  5
332
100
AcDbEntity
  8
03__ASM_ALL_CURVES
100
AcDbLine
 62
4
  6
CONTINUOUS
 10
12.0764454597
 20
9.7619675503
 11
12.0831121266
 21
9.7569675503
  0
LINE
  5
333
100
AcDbEntity
  8
03__ASM_ALL_CURVES
100
AcDbLine
 62
4
  6
CONTINUOUS
 10
12.0431121283
 20
9.4919675503
 11
12.0364454585
 21
9.5019675503
  0
LINE
  5
334
100
AcDbEntity
  8
03__ASM_ALL_CURVES
100
AcDbLine
 62
4
  6
CONTINUOUS
 10
12.0164454585
 20
9.5719675503
 11
12.0097787934
 21
9.5819675503
  0
LINE
  5
335
100
AcDbEntity
  8
03__ASM_ALL_CURVES
100
AcDbLine
 62
4
  6
CONTINUOUS
 10
12.0831121266
 20
9.5219675503
 11
12.0897787934
 21
9.5119675503
  0
LINE
  5
336
100
AcDbEntity
  8
03__ASM_ALL_CURVES
100
AcDbLine
 62
4
  6
CONTINUOUS
 10
12.0497787934
 20
9.5719675503
 11
12.0431121283
 21
9.5819675503
  0
LINE
  5
337
100
AcDbEntity
  8
03__ASM_ALL_CURVES
100
AcDbLine
 62
4
  6
CONTINUOUS
 10
12.0364454585
 20
9.6019675503
 11
12.0431121283
 21
9.5919675503
  0
LINE
  5
338
100
AcDbEntity
  8
03__ASM_ALL_CURVES
100
AcDbLine
 62
4
  6
CONTINUOUS
 10
12.0831121266
 20
9.6019675503
 11
12.0897787934
 21
9.5919675503
  0
LINE
  5
339
100
AcDbEntity
  8
03__ASM_ALL_CURVES
100
AcDbLine
 62
4
  6
CONTINUOUS
 10
12.0164454585
 20
9.7369675503
 11
12.0097787934
 21
9.7469675503
  0
LINE
  5
33A
100
AcDbEntity
  8
03__ASM_ALL_CURVES
100
AcDbLine
 62
4
  6
CONTINUOUS
 10
12.0497787934
 20
9.7319675503
 11
12.0431121283
 21
9.7469675503
  0
LINE
  5
33B
100
AcDbEntity
  8
03__ASM_ALL_CURVES
100
AcDbLine
 62
4
  6
CONTINUOUS
 10
12.0564454609
 20
10.3169675503
 11
12.0764454597
 21
10.3119675503
  0
LINE
  5
33C
100
AcDbEntity
  8
03__ASM_ALL_CURVES
100
AcDbLine
 62
4
  6
CONTINUOUS
 10
12.7244454585
 20
9.7669675503
 11
12.7377787934
 21
9.7619675503
  0
LINE
  5
33D
100
AcDbEntity
  8
03__ASM_ALL_CURVES
100
AcDbLine
 62
4
  6
CONTINUOUS
 10
12.751112126
 20
9.7669675503
 11
12.7644454597
 21
9.7619675503
  0
LINE
  5
33E
100
AcDbEntity
  8
03__ASM_ALL_CURVES
100
AcDbLine
 62
4
  6
CONTINUOUS
 10
12.6977787934
 20
9.3519675503
 11
12.7111121283
 21
9.3419675503
  0
LINE
  5
33F
100
AcDbEntity
  8
03__ASM_ALL_CURVES
100
AcDbLine
 62
4
  6
CONTINUOUS
 10
12.0764454597
 20
9.9119675503
 11
12.0897787934
 21
9.9019675503
  0
LINE
  5
340
100
AcDbEntity
  8
03__ASM_ALL_CURVES
100
AcDbLine
 62
4
  6
CONTINUOUS
 10
12.7111121283
 20
9.4919675503
 11
12.7044454585
 21
9.4969675503
  0
LINE
  5
341
100
AcDbEntity
  8
03__ASM_ALL_CURVES
100
AcDbLine
 62
4
  6
CONTINUOUS
 10
12.0097787934
 20
10.0719675503
 11
12.0231121283
 21
10.0619675503
  0
LINE
  5
342
100
AcDbEntity
  8
03__ASM_ALL_CURVES
100
AcDbLine
 62
4
  6
CONTINUOUS
 10
12.0831121266
 20
9.7569675503
 11
12.0897787934
 21
9.7469675503
  0
LINE
  5
343
100
AcDbEntity
  8
03__ASM_ALL_CURVES
100
AcDbLine
 62
4
  6
CONTINUOUS
 10
12.7044454585
 20
9.0119675503
 11
12.6977787934
 21
9.0219675503
  0
LINE
  5
344
100
AcDbEntity
  8
03__ASM_ALL_CURVES
100
AcDbLine
 62
4
  6
CONTINUOUS
 10
12.7244454585
 20
9.0419675503
 11
12.7311121283
 21
9.0319675503
  0
LINE
  5
345
100
AcDbEntity
  8
03__ASM_ALL_CURVES
100
AcDbLine
 62
4
  6
CONTINUOUS
 10
12.6977787934
 20
9.4469675503
 11
12.6977787934
 21
9.4069675503
  0
LINE
  5
346
100
AcDbEntity
  8
03__ASM_ALL_CURVES
100
AcDbLine
 62
4
  6
CONTINUOUS
 10
12.6977787934
 20
9.0219675503
 11
12.6977787934
 21
9.0319675503
  0
LINE
  5
347
100
AcDbEntity
  8
0
100
AcDbLine
 62
7
  6
CONTINUOUS
 10
12.7067787934
 20
6.8189675503
 11
12.7067787934
 21
8.4439675503
  0
LINE
  5
348
100
AcDbEntity
  8
03__ASM_ALL_CURVES
100
AcDbLine
 62
4
  6
CONTINUOUS
 10
12.7311121283
 20
9.0219675503
 11
12.7311121283
 21
9.0319675503
  0
LINE
  5
349
100
AcDbEntity
  8
0
100
AcDbLine
 62
7
  6
CONTINUOUS
 10
12.7377787934
 20
6.8499675503
 11
12.7377787934
 21
8.4129675503
  0
LINE
  5
34A
100
AcDbEntity
  8
03__ASM_ALL_CURVES
100
AcDbLine
 62
4
  6
CONTINUOUS
 10
12.7377787934
 20
8.5869675503
 11
12.7377787934
 21
8.8269675503
  0
LINE
  5
34B
100
AcDbEntity
  8
03__ASM_ALL_CURVES
100
AcDbLine
 62
4
  6
CONTINUOUS
 10
12.7777787934
 20
9.6069675503
 11
12.7777787934
 21
9.5994675503
  0
LINE
  5
34C
100
AcDbEntity
  8
03__ASM_ALL_CURVES
100
AcDbLine
 62
4
  6
CONTINUOUS
 10
12.7777787934
 20
9.1269675503
 11
12.7777787934
 21
9.1194675503
  0
LINE
  5
34D
100
AcDbEntity
  8
03__ASM_ALL_CURVES
100
AcDbLine
 62
4
  6
CONTINUOUS
 10
12.7777787934
 20
9.0319675503
 11
12.7777787934
 21
9.0219675503
  0
LINE
  5
34E
100
AcDbEntity
  8
03__ASM_ALL_CURVES
100
AcDbLine
 62
4
  6
CONTINUOUS
 10
12.7644454597
 20
9.5219675503
 11
12.7711121266
 21
9.5169675503
  0
LINE
  5
34F
100
AcDbEntity
  8
03__ASM_ALL_CURVES
100
AcDbLine
 62
4
  6
CONTINUOUS
 10
12.0164454585
 20
10.2119675503
 11
12.0231121283
 21
10.2069675503
  0
LINE
  5
350
100
AcDbEntity
  8
03__ASM_ALL_CURVES
100
AcDbLine
 62
4
  6
CONTINUOUS
 10
12.7111121283
 20
9.7319675503
 11
12.7044454585
 21
9.7369675503
  0
LINE
  5
351
100
AcDbEntity
  8
03__ASM_ALL_CURVES
100
AcDbLine
 62
4
  6
CONTINUOUS
 10
12.0764454597
 20
10.2469675503
 11
12.0831121266
 21
10.2419675503
  0
LINE
  5
352
100
AcDbEntity
  8
03__ASM_ALL_CURVES
100
AcDbLine
 62
4
  6
CONTINUOUS
 10
12.7711121266
 20
9.0419675503
 11
12.7777787934
 21
9.0319675503
  0
LINE
  5
353
100
AcDbEntity
  8
03__ASM_ALL_CURVES
100
AcDbLine
 62
4
  6
CONTINUOUS
 10
12.7044454585
 20
9.1769675503
 11
12.6977787934
 21
9.1869675503
  0
LINE
  5
354
100
AcDbEntity
  8
03__ASM_ALL_CURVES
100
AcDbLine
 62
4
  6
CONTINUOUS
 10
12.0097787934
 20
10.2219675503
 11
12.0164454585
 21
10.2119675503
  0
LINE
  5
355
100
AcDbEntity
  8
03__ASM_ALL_CURVES
100
AcDbLine
 62
4
  6
CONTINUOUS
 10
12.7711121266
 20
9.1969675503
 11
12.7777787934
 21
9.1869675503
  0
LINE
  5
356
100
AcDbEntity
  8
03__ASM_ALL_CURVES
100
AcDbLine
 62
4
  6
CONTINUOUS
 10
12.0831121266
 20
10.2419675503
 11
12.0897787934
 21
10.2319675503
  0
LINE
  5
357
100
AcDbEntity
  8
03__ASM_ALL_CURVES
100
AcDbLine
 62
4
  6
CONTINUOUS
 10
12.7644454597
 20
9.7619675503
 11
12.7711121266
 21
9.7569675503
  0
LINE
  5
358
100
AcDbEntity
  8
03__ASM_ALL_CURVES
100
AcDbLine
 62
4
  6
CONTINUOUS
 10
12.0764454597
 20
10.3119675503
 11
12.0897787934
 21
10.3019675503
  0
LINE
  5
359
100
AcDbEntity
  8
03__ASM_ALL_CURVES
100
AcDbLine
 62
4
  6
CONTINUOUS
 10
12.7644454597
 20
9.8319675503
 11
12.7777787934
 21
9.8219675503
  0
LINE
  5
35A
100
AcDbEntity
  8
03__ASM_ALL_CURVES
100
AcDbLine
 62
4
  6
CONTINUOUS
 10
12.7044454585
 20
9.4969675503
 11
12.6977787934
 21
9.5069675503
  0
LINE
  5
35B
100
AcDbEntity
  8
03__ASM_ALL_CURVES
100
AcDbLine
 62
4
  6
CONTINUOUS
 10
12.7711121266
 20
9.5169675503
 11
12.7777787934
 21
9.5069675503
  0
LINE
  5
35C
100
AcDbEntity
  8
03__ASM_ALL_CURVES
100
AcDbLine
 62
4
  6
CONTINUOUS
 10
12.7044454585
 20
9.7369675503
 11
12.6977787934
 21
9.7469675503
  0
LINE
  5
35D
100
AcDbEntity
  8
03__ASM_ALL_CURVES
100
AcDbLine
 62
4
  6
CONTINUOUS
 10
12.7377787934
 20
9.4919675503
 11
12.7311121283
 21
9.5069675503
  0
LINE
  5
35E
100
AcDbEntity
  8
03__ASM_ALL_CURVES
100
AcDbLine
 62
4
  6
CONTINUOUS
 10
12.7377787934
 20
9.7619675503
 11
12.7444454609
 21
9.7469675503
  0
LINE
  5
35F
100
AcDbEntity
  8
0
100
AcDbLine
 62
7
  6
CONTINUOUS
 10
12.7377787934
 20
6.8499675503
 11
12.7067787934
 21
6.8189675503
  0
LINE
  5
360
100
AcDbEntity
  8
03__ASM_ALL_CURVES
100
AcDbLine
 62
4
  6
CONTINUOUS
 10
12.7711121266
 20
9.7569675503
 11
12.7777787934
 21
9.7469675503
  0
CIRCLE
  5
361
100
AcDbEntity
  8
0
100
AcDbCircle
 62
7
  6
CONTINUOUS
 10
10.0657788025
 20
7.0069675503
 40
0.148
  0
CIRCLE
  5
362
100
AcDbEntity
  8
0
100
AcDbCircle
 62
7
  6
CONTINUOUS
 10
10.0657788025
 20
8.2569675503
 40
0.148
  0
CIRCLE
  5
363
100
AcDbEntity
  8
0
100
AcDbCircle
 62
7
  6
CONTINUOUS
 10
10.4097787844
 20
8.2729675529
 40
0.078
  0
CIRCLE
  5
364
100
AcDbEntity
  8
0
100
AcDbCircle
 62
7
  6
CONTINUOUS
 10
10.8627787934
 20
7.6319675503
 40
0.065
  0
CIRCLE
  5
365
100
AcDbEntity
  8
0
100
AcDbCircle
 62
7
  6
CONTINUOUS
 10
11.659778844
 20
7.0069675503
 40
0.148
  0
CIRCLE
  5
366
100
AcDbEntity
  8
0
100
AcDbCircle
 62
7
  6
CONTINUOUS
 10
11.3157787429
 20
6.9909675178
 40
0.078
  0
CIRCLE
  5
367
100
AcDbEntity
  8
0
100
AcDbCircle
 62
7
  6
CONTINUOUS
 10
11.659778844
 20
8.2569675503
 40
0.148
  0
SPLINE
  5
368
100
AcDbEntity
  8
0
100
AcDbSpline
 62
7
  6
CONTINUOUS
 70
0
 71
3
 72
8
 73
4
 74
2
 42
0.0000001
 43
0.0000001
 44
0.0000000001
 12
-0.0024427411
 22
0.0070942352
 32
0.0
 13
-0.0018968886
 23
0.0072616298
 33
0.0
 40
0.0
 40
0.0
 40
0.0
 40
0.0
 40
1.0
 40
1.0
 40
1.0
 40
1.0
 10
10.7127937565
 20
8.0023235514
 30
0.0
 10
10.7119795095
 20
8.0046882965
 30
0.0
 10
10.7112551234
 20
8.0070850847
 30
0.0
 10
10.7106228272
 20
8.0095056279
 30
0.0
 11
10.7127937565
 21
8.0023235514
 31
0.0
 11
10.7106228272
 21
8.0095056279
 31
0.0
  0
SPLINE
  5
369
100
AcDbEntity
  8
0
100
AcDbSpline
 62
7
  6
CONTINUOUS
 70
0
 71
3
 72
8
 73
4
 74
2
 42
0.0000001
 43
0.0000001
 44
0.0000000001
 12
0.0001096616
 22
0.0000378302
 32
0.0
 13
0.0001096834
 23
0.000037767
 33
0.0
 40
0.0
 40
0.0
 40
0.0
 40
0.0
 40
1.0
 40
1.0
 40
1.0
 40
1.0
 10
10.821973102
 20
8.1721195723
 30
0.0
 10
10.8220096558
 20
8.1721321824
 30
0.0
 10
10.8220462134
 20
8.1721447819
 30
0.0
 10
10.8220827745
 20
8.1721573709
 30
0.0
 11
10.821973102
 21
8.1721195723
 31
0.0
 11
10.8220827745
 21
8.1721573709
 31
0.0
  0
SPLINE
  5
36A
100
AcDbEntity
  8
0
100
AcDbSpline
 62
7
  6
CONTINUOUS
 70
0
 71
3
 72
8
 73
4
 74
2
 42
0.0000001
 43
0.0000001
 44
0.0000000001
 12
-0.0073666885
 22
0.0
 32
0.0
 13
-0.007347225
 23
0.0005657635
 33
0.0
 40
0.0
 40
0.0
 40
0.0
 40
0.0
 40
1.0
 40
1.0
 40
1.0
 40
1.0
 10
11.221778761
 20
7.4687916391
 30
0.0
 10
11.2193231982
 20
7.4687916391
 30
0.0
 10
11.2168665928
 20
7.4688862461
 30
0.0
 10
11.2144175179
 20
7.469074834
 30
0.0
 11
11.221778761
 21
7.4687916391
 31
0.0
 11
11.2144175179
 21
7.469074834
 31
0.0
  0
SPLINE
  5
36B
100
AcDbEntity
  8
0
100
AcDbSpline
 62
7
  6
CONTINUOUS
 70
0
 71
3
 72
8
 73
4
 74
2
 42
0.0000001
 43
0.0000001
 44
0.0000000001
 12
-0.0000003699
 22
0.0002806604
 32
0.0
 13
0.0
 23
0.0002806606
 33
0.0
 40
0.0
 40
0.0
 40
0.0
 40
0.0
 40
1.0
 40
1.0
 40
1.0
 40
1.0
 10
11.0967789362
 20
7.6316868936
 30
0.0
 10
11.0967788129
 20
7.6317804471
 30
0.0
 10
11.0967787513
 20
7.6318740006
 30
0.0
 10
11.0967787513
 20
7.6319675542
 30
0.0
 11
11.0967789362
 21
7.6316868936
 31
0.0
 11
11.0967787513
 21
7.6319675542
 31
0.0
  0
SPLINE
  5
36C
100
AcDbEntity
  8
0
100
AcDbSpline
 62
7
  6
CONTINUOUS
 70
0
 71
3
 72
8
 73
4
 74
2
 42
0.0000001
 43
0.0000001
 44
0.0000000001
 12
-0.0087575404
 22
0.0
 32
0.0
 13
-0.0087371233
 23
0.0006319678
 33
0.0
 40
0.0
 40
0.0
 40
0.0
 40
0.0
 40
1.0
 40
1.0
 40
1.0
 40
1.0
 10
10.8627787934
 20
7.0811407961
 30
0.0
 10
10.8598596133
 20
7.0811407961
 30
0.0
 10
10.8569393357
 20
7.0812462856
 30
0.0
 10
10.8540269613
 20
7.0814569416
 30
0.0
 11
10.8627787934
 21
7.0811407961
 31
0.0
 11
10.8540269613
 21
7.0814569416
 31
0.0
  0
SPLINE
  5
36D
100
AcDbEntity
  8
0
100
AcDbSpline
 62
7
  6
CONTINUOUS
 70
0
 71
3
 72
8
 73
4
 74
2
 42
0.0000001
 43
0.0000001
 44
0.0000000001
 12
-0.0006609846
 22
0.0093478191
 32
0.0
 13
-0.0
 23
0.0093711587
 33
0.0
 40
0.0
 40
0.0
 40
0.0
 40
0.0
 40
1.0
 40
1.0
 40
1.0
 40
1.0
 10
10.7381093974
 20
7.2006041207
 30
0.0
 10
10.7378890692
 20
7.2037200604
 30
0.0
 10
10.7377787934
 20
7.20684378
 30
0.0
 10
10.7377787934
 20
7.2099674995
 30
0.0
 11
10.7381093974
 21
7.2006041207
 31
0.0
 11
10.7377787934
 21
7.2099674995
 31
0.0
  0
SPLINE
  5
36E
100
AcDbEntity
  8
0
100
AcDbSpline
 62
7
  6
CONTINUOUS
 70
0
 71
3
 72
8
 73
4
 74
2
 42
0.0000001
 43
0.0000001
 44
0.0000000001
 12
-0.0075030108
 22
0.0
 32
0.0
 13
-0.0074835733
 23
0.0005706121
 33
0.0
 40
0.0
 40
0.0
 40
0.0
 40
0.0
 40
1.0
 40
1.0
 40
1.0
 40
1.0
 10
10.5037787662
 20
7.4733402734
 30
0.0
 10
10.5012777626
 20
7.4733402734
 30
0.0
 10
10.4987757175
 20
7.4734356708
 30
0.0
 10
10.4962811931
 20
7.4736258748
 30
0.0
 11
10.5037787662
 21
7.4733402734
 31
0.0
 11
10.4962811931
 21
7.4736258748
 31
0.0
  0
SPLINE
  5
36F
100
AcDbEntity
  8
0
100
AcDbSpline
 62
7
  6
CONTINUOUS
 70
0
 71
3
 72
8
 73
4
 74
2
 42
0.0000001
 43
0.0000001
 44
0.0000000001
 12
-0.0000000714
 22
0.0001198907
 32
0.0
 13
0.0
 23
0.0001198908
 33
0.0
 40
0.0
 40
0.0
 40
0.0
 40
0.0
 40
1.0
 40
1.0
 40
1.0
 40
1.0
 10
10.3787787947
 20
7.6318476624
 30
0.0
 10
10.3787787709
 20
7.631887626
 30
0.0
 10
10.378778759
 20
7.6319275896
 30
0.0
 10
10.378778759
 20
7.6319675531
 30
0.0
 11
10.3787787947
 21
7.6318476624
 31
0.0
 11
10.378778759
 21
7.6319675531
 31
0.0
  0
SPLINE
  5
370
100
AcDbEntity
  8
0
100
AcDbSpline
 62
7
  6
CONTINUOUS
 70
0
 71
3
 72
8
 73
4
 74
2
 42
0.0000001
 43
0.0000001
 44
0.0000000001
 12
0.008633648
 22
-0.0
 32
0.0
 13
0.0086140868
 23
-0.0006142239
 33
0.0
 40
0.0
 40
0.0
 40
0.0
 40
0.0
 40
1.0
 40
1.0
 40
1.0
 40
1.0
 10
10.8627787934
 20
7.126865395
 30
0.0
 10
10.8656566761
 20
7.126865395
 30
0.0
 10
10.8685356099
 20
7.1267628718
 30
0.0
 10
10.8714069722
 20
7.1265581305
 30
0.0
 11
10.8627787934
 21
7.126865395
 31
0.0
 11
10.8714069722
 21
7.1265581305
 31
0.0
  0
SPLINE
  5
371
100
AcDbEntity
  8
0
100
AcDbSpline
 62
7
  6
CONTINUOUS
 70
0
 71
3
 72
15
 73
11
 74
9
 42
0.0000001
 43
0.0000001
 44
0.0000000001
 12
0.0669770279
 22
-0.0047757691
 32
0.0
 13
0.0547133255
 23
-0.0389185161
 33
0.0
 40
0.0
 40
0.0
 40
0.0
 40
0.0
 40
0.1287711446
 40
0.2576284672
 40
0.38681688
 40
0.5161940843
 40
0.6461048984
 40
0.7763764266
 40
0.9072370928
 40
1.0
 40
1.0
 40
1.0
 40
1.0
 10
10.8714069722
 20
7.1265581305
 30
0.0
 10
10.874281875
 20
7.1263531368
 30
0.0
 10
10.880018419
 20
7.1257380028
 30
0.0
 10
10.8885444899
 20
7.1242040797
 30
0.0
 10
10.8969529811
 20
7.122064585
 30
0.0
 10
10.9052106888
 20
7.1193259105
 30
0.0
 10
10.9132756943
 20
7.1159989918
 30
0.0
 10
10.9211143078
 20
7.1120939876
 30
0.0
 10
10.9279403274
 20
7.1080666829
 30
0.0
 10
10.9320910165
 20
7.1052672841
 30
0.0
 10
10.9337828055
 20
7.1040638859
 30
0.0
 11
10.8714069722
 21
7.1265581305
 31
0.0
 11
10.880002011
 21
7.1256366535
 31
0.0
 11
10.888515445
 21
7.1241052141
 31
0.0
 11
10.8969200313
 21
7.1219670379
 31
0.0
 11
10.9051635973
 21
7.1192334574
 31
0.0
 11
10.9132255787
 21
7.1159082823
 31
0.0
 11
10.9210532925
 21
7.1120092885
 31
0.0
 11
10.9286194794
 21
7.1075459559
 31
0.0
 11
10.9337828055
 21
7.1040638859
 31
0.0
  0
SPLINE
  5
372
100
AcDbEntity
  8
0
100
AcDbSpline
 62
7
  6
CONTINUOUS
 70
0
 71
3
 72
15
 73
11
 74
9
 42
0.0000001
 43
0.0000001
 44
0.0000000001
 12
0.0547130249
 22
0.0389182995
 32
0.0
 13
0.0669766445
 23
0.0047759454
 33
0.0
 40
0.0
 40
0.0
 40
0.0
 40
0.0
 40
0.0927601011
 40
0.2236198924
 40
0.3538846558
 40
0.4837942768
 40
0.6131937754
 40
0.7423855404
 40
0.8712295984
 40
1.0
 40
1.0
 40
1.0
 40
1.0
 10
10.7917747847
 20
7.1040638883
 30
0.0
 10
10.7934665133
 20
7.1052672434
 30
0.0
 10
10.7976171086
 20
7.1080665842
 30
0.0
 10
10.80444288
 20
7.1120937626
 30
0.0
 10
10.812281254
 20
7.1159986932
 30
0.0
 10
10.820346487
 20
7.1193257744
 30
0.0
 10
10.8286046663
 20
7.1220646228
 30
0.0
 10
10.8370133901
 20
7.124204134
 30
0.0
 10
10.8455391798
 20
7.1257379921
 30
0.0
 10
10.8512753782
 20
7.1263531043
 30
0.0
 10
10.854150248
 20
7.1265581044
 30
0.0
 11
10.7917747847
 21
7.1040638883
 31
0.0
 11
10.7969379232
 21
7.1075458383
 31
0.0
 11
10.8045040079
 21
7.1120091329
 31
0.0
 11
10.8123312536
 21
7.1159079393
 31
0.0
 11
10.8203930921
 21
7.119233124
 31
0.0
 11
10.8286380279
 21
7.1219671761
 31
0.0
 11
10.8370427959
 21
7.1241053559
 31
0.0
 11
10.8455553089
 21
7.1256366152
 31
0.0
 11
10.854150248
 21
7.1265581044
 31
0.0
  0
SPLINE
  5
373
100
AcDbEntity
  8
0
100
AcDbSpline
 62
7
  6
CONTINUOUS
 70
0
 71
3
 72
8
 73
4
 74
2
 42
0.0000001
 43
0.0000001
 44
0.0000000001
 12
0.0086144516
 22
0.0006142761
 32
0.0
 13
0.0086340152
 23
-0.0
 33
0.0
 40
0.0
 40
0.0
 40
0.0
 40
0.0
 40
1.0
 40
1.0
 40
1.0
 40
1.0
 10
10.854150248
 20
7.1265581044
 30
0.0
 10
10.8570217319
 20
7.1267628631
 30
0.0
 10
10.8599007883
 20
7.126865395
 30
0.0
 10
10.8627787934
 20
7.126865395
 30
0.0
 11
10.854150248
 21
7.1265581044
 31
0.0
 11
10.8627787934
 21
7.126865395
 31
0.0
  0
SPLINE
  5
374
100
AcDbEntity
  8
0
100
AcDbSpline
 62
7
  6
CONTINUOUS
 70
0
 71
3
 72
8
 73
4
 74
2
 42
0.0000001
 43
0.0000001
 44
0.0000000001
 12
-0.0074835903
 22
-0.0005706147
 32
0.0
 13
-0.0075030278
 23
0.0
 33
0.0
 40
0.0
 40
0.0
 40
0.0
 40
0.0
 40
1.0
 40
1.0
 40
1.0
 40
1.0
 10
10.5112763564
 20
7.4736258761
 30
0.0
 10
10.5087818263
 20
7.4734356712
 30
0.0
 10
10.5062797755
 20
7.4733402734
 30
0.0
 10
10.5037787662
 20
7.4733402734
 30
0.0
 11
10.5112763564
 21
7.4736258761
 31
0.0
 11
10.5037787662
 21
7.4733402734
 31
0.0
  0
SPLINE
  5
375
100
AcDbEntity
  8
0
100
AcDbSpline
 62
7
  6
CONTINUOUS
 70
0
 71
3
 72
28
 73
24
 74
22
 42
0.0000001
 43
0.0000001
 44
0.0000000001
 12
0.0000000002
 22
-0.1906060431
 32
0.0
 13
-0.1901221997
 23
-0.0137517967
 33
0.0
 40
0.0
 40
0.0
 40
0.0
 40
0.0
 40
0.0491633905
 40
0.0982938421
 40
0.1473570461
 40
0.1963212798
 40
0.2451570601
 40
0.2938378507
 40
0.3423404428
 40
0.3906456952
 40
0.4387386086
 40
0.4866087905
 40
0.5342505683
 40
0.5816628449
 40
0.6288494178
 40
0.6758183381
 40
0.7225820891
 40
0.7691570891
 40
0.8155632363
 40
0.8618237831
 40
0.9079644538
 40
0.9540132963
 40
1.0
 40
1.0
 40
1.0
 40
1.0
 10
10.9877787934
 20
7.2099674999
 30
0.0
 10
10.9877787934
 20
7.2068438868
 30
0.0
 10
10.9875583308
 20
7.2005987534
 30
0.0
 10
10.9865683719
 20
7.1912829888
 30
0.0
 10
10.984925875
 20
7.1820727359
 30
0.0
 10
10.9826418962
 20
7.1730195587
 30
0.0
 10
10.9797316389
 20
7.1641734391
 30
0.0
 10
10.9762142101
 20
7.1555824164
 30
0.0
 10
10.972112314
 20
7.1472921992
 30
0.0
 10
10.9674519117
 20
7.1393458602
 30
0.0
 10
10.9622618448
 20
7.1317835766
 30
0.0
 10
10.9565734541
 20
7.1246424564
 30
0.0
 10
10.950420196
 20
7.1179564263
 30
0.0
 10
10.9438372644
 20
7.1117561752
 30
0.0
 10
10.9368612549
 20
7.1060691742
 30
0.0
 10
10.9295298338
 20
7.100919718
 30
0.0
 10
10.9218814735
 20
7.0963290276
 30
0.0
 10
10.9139552067
 20
7.0923153649
 30
0.0
 10
10.9057904382
 20
7.0888941673
 30
0.0
 10
10.8974267877
 20
7.0860781964
 30
0.0
 10
10.8889040386
 20
7.0838776693
 30
0.0
 10
10.8802618205
 20
7.0823003889
 30
0.0
 10
10.8744449921
 20
7.0816677417
 30
0.0
 10
10.8715306277
 20
7.0814569417
 30
0.0
 11
10.9877787934
 21
7.2099674999
 31
0.0
 11
10.9874482119
 21
7.2006044396
 31
0.0
 11
10.9864586931
 21
7.1912942595
 31
0.0
 11
10.984816961
 21
7.1820897218
 31
0.0
 11
10.9825340925
 21
7.1730423473
 31
0.0
 11
10.9796253285
 21
7.1642021357
 31
0.0
 11
10.9761098143
 21
7.1556171178
 31
0.0
 11
10.9720103057
 21
7.147333007
 31
0.0
 11
10.9673528007
 21
7.1393928347
 31
0.0
 11
10.9621661886
 21
7.1318367513
 31
0.0
 11
10.9564818447
 21
7.1247018115
 31
0.0
 11
10.950333244
 21
7.118021871
 31
0.0
 11
10.9437556122
 21
7.1118275647
 31
0.0
 11
10.9367855248
 21
7.1061462649
 31
0.0
 11
10.9294606576
 21
7.1010022019
 31
0.0
 11
10.9218194482
 21
7.0964165073
 31
0.0
 11
10.9139008867
 21
7.0924073605
 31
0.0
 11
10.9057443392
 21
7.088990132
 31
0.0
 11
10.8973893489
 21
7.0861775049
 31
0.0
 11
10.8888756017
 21
7.0839796452
 31
0.0
 11
10.8802427951
 21
7.0824043052
 31
0.0
 11
10.8715306277
 21
7.0814569417
 31
0.0
  0
SPLINE
  5
376
100
AcDbEntity
  8
0
100
AcDbSpline
 62
7
  6
CONTINUOUS
 70
0
 71
3
 72
8
 73
4
 74
2
 42
0.0000001
 43
0.0000001
 44
0.0000000001
 12
-0.0087371255
 22
-0.0006319681
 32
0.0
 13
-0.0087575426
 23
0.0
 33
0.0
 40
0.0
 40
0.0
 40
0.0
 40
0.0
 40
1.0
 40
1.0
 40
1.0
 40
1.0
 10
10.8715306277
 20
7.0814569417
 30
0.0
 10
10.8686182526
 20
7.0812462857
 30
0.0
 10
10.8656979743
 20
7.0811407961
 30
0.0
 10
10.8627787934
 20
7.0811407961
 30
0.0
 11
10.8715306277
 21
7.0814569417
 31
0.0
 11
10.8627787934
 21
7.0811407961
 31
0.0
  0
SPLINE
  5
377
100
AcDbEntity
  8
0
100
AcDbSpline
 62
7
  6
CONTINUOUS
 70
0
 71
3
 72
8
 73
4
 74
2
 42
0.0000001
 43
0.0000001
 44
0.0000000001
 12
-0.0073472465
 22
-0.0005657668
 32
0.0
 13
-0.0073667101
 23
0.0
 33
0.0
 40
0.0
 40
0.0
 40
0.0
 40
0.0
 40
1.0
 40
1.0
 40
1.0
 40
1.0
 10
11.2291400257
 20
7.4690748356
 30
0.0
 10
11.2266909435
 20
7.4688862467
 30
0.0
 10
11.224234331
 20
7.4687916391
 30
0.0
 10
11.221778761
 20
7.4687916391
 30
0.0
 11
11.2291400257
 21
7.4690748356
 31
0.0
 11
11.221778761
 21
7.4687916391
 31
0.0
  0
SPLINE
  5
378
100
AcDbEntity
  8
0
100
AcDbSpline
 62
7
  6
CONTINUOUS
 70
0
 71
3
 72
8
 73
4
 74
2
 42
0.0000001
 43
0.0000001
 44
0.0000000001
 12
-0.0029759456
 22
0.0068900999
 32
0.0
 13
-0.002442747
 23
0.0070942525
 33
0.0
 40
0.0
 40
0.0
 40
0.0
 40
0.0
 40
1.0
 40
1.0
 40
1.0
 40
1.0
 10
10.7155047759
 20
7.9953274235
 30
0.0
 10
10.7145127941
 20
7.9976241235
 30
0.0
 10
10.7136080055
 20
7.9999588006
 30
0.0
 10
10.7127937565
 20
8.0023235514
 30
0.0
 11
10.7155047759
 21
7.9953274235
 31
0.0
 11
10.7127937565
 21
8.0023235514
 31
0.0
  0
SPLINE
  5
379
100
AcDbEntity
  8
0
100
AcDbSpline
 62
7
  6
CONTINUOUS
 70
0
 71
3
 72
30
 73
26
 74
24
 42
0.0000001
 43
0.0000001
 44
0.0000000001
 12
0.2272819088
 22
0.0
 32
0.0
 13
-0.0000000042
 23
-0.2273192927
 33
0.0
 40
0.0
 40
0.0
 40
0.0
 40
0.0
 40
0.0324121423
 40
0.0650015919
 40
0.0979457574
 40
0.1314210572
 40
0.1656051081
 40
0.2006728881
 40
0.236796025
 40
0.2741431649
 40
0.3128738354
 40
0.3531365254
 40
0.3950642298
 40
0.4387680419
 40
0.4843313314
 40
0.531803301
 40
0.5811920846
 40
0.6324576842
 40
0.6855090111
 40
0.7401983109
 40
0.7963233756
 40
0.8536289317
 40
0.9118140027
 40
0.9705420922
 40
1.0
 40
1.0
 40
1.0
 40
1.0
 10
11.221778761
 20
7.7951434614
 30
0.0
 10
11.2242343255
 20
7.7951434614
 30
0.0
 10
11.2291609781
 20
7.7949537296
 30
0.0
 10
11.2365389252
 20
7.7940982849
 30
0.0
 10
11.2439091586
 20
7.7926645305
 30
0.0
 10
11.2512649382
 20
7.7906406852
 30
0.0
 10
11.2585976699
 20
7.7880107645
 30
0.0
 10
11.2658951166
 20
7.7847551276
 30
0.0
 10
11.2731408084
 20
7.7808512546
 30
0.0
 10
11.2803131284
 20
7.7762747497
 30
0.0
 10
11.2873846303
 20
7.7710005835
 30
0.0
 10
11.2943213173
 20
7.7650047306
 30
0.0
 10
11.3010822567
 20
7.7582659982
 30
0.0
 10
11.3076193754
 20
7.7507682047
 30
0.0
 10
11.3138776241
 20
7.7425025933
 30
0.0
 10
11.3197956167
 20
7.7334703347
 30
0.0
 10
11.3253067302
 20
7.7236850951
 30
0.0
 10
11.3303408497
 20
7.7131752889
 30
0.0
 10
11.3348265793
 20
7.7019860401
 30
0.0
 10
11.3386940659
 20
7.6901802211
 30
0.0
 10
11.3418780713
 20
7.6778388011
 30
0.0
 10
11.3443212709
 20
7.6650598326
 30
0.0
 10
11.3459773754
 20
7.6519563954
 30
0.0
 10
11.3466737197
 20
7.6408817895
 30
0.0
 10
11.3467787708
 20
7.6341996633
 30
0.0
 10
11.3467787707
 20
7.6319675464
 30
0.0
 11
11.221778761
 21
7.7951434614
 31
0.0
 11
11.2291400092
 21
7.7948602662
 31
0.0
 11
11.2364978341
 21
7.7940082408
 31
0.0
 11
11.2438479933
 21
7.7925801279
 31
0.0
 11
11.251184367
 21
7.7905641156
 31
0.0
 11
11.2584986728
 21
7.7879440466
 31
0.0
 11
11.2657789318
 21
7.7847001193
 31
0.0
 11
11.2730087766
 21
7.7808096606
 31
0.0
 11
11.2801670993
 21
7.7762478464
 31
0.0
 11
11.2872266145
 21
7.770989311
 31
0.0
 11
11.2941535741
 21
7.765009538
 31
0.0
 11
11.300907308
 21
7.7582866884
 31
0.0
 11
11.3074398567
 21
7.750803908
 31
0.0
 11
11.3136961934
 21
7.7425516955
 31
0.0
 11
11.3196148442
 21
7.7335304256
 31
0.0
 11
11.3251289689
 21
7.7237529501
 31
0.0
 11
11.3301679671
 21
7.7132471603
 31
0.0
 11
11.3346599601
 21
7.7020575275
 31
0.0
 11
11.3385343325
 21
7.6902468812
 31
0.0
 11
11.3417251252
 21
7.6778961816
 31
0.0
 11
11.3441742381
 21
7.6651040016
 31
0.0
 11
11.3458347092
 21
7.651984247
 31
0.0
 11
11.346673496
 21
7.6386627958
 31
0.0
 11
11.3467787707
 21
7.6319675464
 31
0.0
  0
SPLINE
  5
37A
100
AcDbEntity
  8
0
100
AcDbSpline
 62
7
  6
CONTINUOUS
 70
0
 71
3
 72
30
 73
26
 74
24
 42
0.0000001
 43
0.0000001
 44
0.0000000001
 12
0.2234993414
 22
0.0
 32
0.0
 13
-0.0000000033
 23
-0.2235369652
 33
0.0
 40
0.0
 40
0.0
 40
0.0
 40
0.0
 40
0.0335707332
 40
0.0673065219
 40
0.101372349
 40
0.1359317478
 40
0.1711481749
 40
0.2071814786
 40
0.2441873505
 40
0.2823167375
 40
0.3217105544
 40
0.3624981828
 40
0.4047930631
 40
0.448687236
 40
0.4942469565
 40
0.541507058
 40
0.5904654435
 40
0.6410783627
 40
0.6932576909
 40
0.7468674022
 40
0.8017260507
 40
0.8576081078
 40
0.9142507788
 40
0.9713621779
 40
1.0
 40
1.0
 40
1.0
 40
1.0
 10
10.5037787895
 20
7.790594828
 30
0.0
 10
10.5062798017
 20
7.790594828
 30
0.0
 10
10.5112962109
 20
7.7904035595
 30
0.0
 10
10.5188060416
 20
7.7895415086
 30
0.0
 10
10.5263015763
 20
7.7880979647
 30
0.0
 10
10.5337728902
 20
7.786062985
 30
0.0
 10
10.5412083303
 20
7.7834231706
 30
0.0
 10
10.5485928175
 20
7.7801622168
 30
0.0
 10
10.5559073295
 20
7.7762616739
 30
0.0
 10
10.5631280982
 20
7.7717019157
 30
0.0
 10
10.5702260434
 20
7.7664633166
 30
0.0
 10
10.5771662096
 20
7.760527748
 30
0.0
 10
10.5839075083
 20
7.7538802321
 30
0.0
 10
10.5904026558
 20
7.7465108604
 30
0.0
 10
10.5965984522
 20
7.7384168652
 30
0.0
 10
10.6024364765
 20
7.7296047234
 30
0.0
 10
10.607854194
 20
7.7200922455
 30
0.0
 10
10.6127865802
 20
7.7099103726
 30
0.0
 10
10.6171681405
 20
7.6991046459
 30
0.0
 10
10.6209353909
 20
7.6877359255
 30
0.0
 10
10.6240295224
 20
7.6758804834
 30
0.0
 10
10.626399208
 20
7.6636289901
 30
0.0
 10
10.6280032181
 20
7.6510846974
 30
0.0
 10
10.6286771643
 20
7.6404907916
 30
0.0
 10
10.6287787735
 20
7.634101418
 30
0.0
 10
10.6287787735
 20
7.6319675474
 30
0.0
 11
10.5037787895
 21
7.790594828
 31
0.0
 11
10.5112763884
 21
7.790309222
 31
0.0
 11
10.5187672368
 21
7.7894503371
 31
0.0
 11
10.5262438332
 21
7.7880120115
 31
0.0
 11
10.533696914
 21
7.7859842526
 31
0.0
 11
10.5411150912
 21
7.7833534922
 31
0.0
 11
10.5484835114
 21
7.7801032691
 31
0.0
 11
10.5557833
 21
7.7762149505
 31
0.0
 11
10.5629911159
 21
7.771668518
 31
0.0
 11
10.5700779982
 21
7.766444039
 31
0.0
 11
10.5770092249
 21
7.7605229158
 31
0.0
 11
10.5837439109
 21
7.7538895981
 31
0.0
 11
10.5902348202
 21
7.7465336175
 31
0.0
 11
10.5964287609
 21
7.7384515522
 31
0.0
 11
10.6022672032
 21
7.7296492148
 31
0.0
 11
10.6076873642
 21
7.7201438021
 31
0.0
 11
10.6126238099
 21
7.7099657959
 31
0.0
 11
10.6170105963
 21
7.6991602691
 31
0.0
 11
10.6207835855
 21
7.6877880868
 31
0.0
 11
10.623883366
 21
7.6759255264
 31
0.0
 11
10.6262579591
 21
7.6636637366
 31
0.0
 11
10.6278655881
 21
7.6511066273
 31
0.0
 11
10.6286769697
 21
7.6383680816
 31
0.0
 11
10.6287787735
 21
7.6319675474
 31
0.0
  0
SPLINE
  5
37B
100
AcDbEntity
  8
0
100
AcDbSpline
 62
7
  6
CONTINUOUS
 70
0
 71
3
 72
29
 73
25
 74
23
 42
0.0000001
 43
0.0000001
 44
0.0000000001
 12
-0.0000000002
 22
0.1993653607
 32
0.0
 13
0.1993239799
 23
-0.0
 33
0.0
 40
0.0
 40
0.0
 40
0.0
 40
0.0
 40
0.0470033475
 40
0.0939752032
 40
0.1408827661
 40
0.1876957068
 40
0.234385838
 40
0.2809277891
 40
0.327299371
 40
0.3734822836
 40
0.4194621865
 40
0.4652291437
 40
0.5107777321
 40
0.5561069027
 40
0.601220286
 40
0.6461255795
 40
0.6908347181
 40
0.7353633986
 40
0.7797306451
 40
0.8239586882
 40
0.868072122
 40
0.9120977623
 40
0.9560639889
 40
1.0
 40
1.0
 40
1.0
 40
1.0
 10
10.7377787934
 20
7.2099674995
 30
0.0
 10
10.7377787934
 20
7.2130911127
 30
0.0
 10
10.7379992561
 20
7.2193362461
 30
0.0
 10
10.7389892149
 20
7.2286520107
 30
0.0
 10
10.7406317119
 20
7.2378622636
 30
0.0
 10
10.7429156906
 20
7.2469154408
 30
0.0
 10
10.7458259479
 20
7.2557615604
 30
0.0
 10
10.7493433767
 20
7.2643525831
 30
0.0
 10
10.7534452728
 20
7.2726428003
 30
0.0
 10
10.7581056751
 20
7.2805891392
 30
0.0
 10
10.763295742
 20
7.2881514228
 30
0.0
 10
10.7689841328
 20
7.2952925431
 30
0.0
 10
10.7751373909
 20
7.3019785731
 30
0.0
 10
10.7817203224
 20
7.3081788242
 30
0.0
 10
10.788696332
 20
7.3138658253
 30
0.0
 10
10.796027753
 20
7.3190152815
 30
0.0
 10
10.8036761134
 20
7.3236059718
 30
0.0
 10
10.8116023801
 20
7.3276196346
 30
0.0
 10
10.8197671487
 20
7.3310408321
 30
0.0
 10
10.8281307992
 20
7.3338568031
 30
0.0
 10
10.8366535482
 20
7.3360573302
 30
0.0
 10
10.845295766
 20
7.3376346104
 30
0.0
 10
10.8540170467
 20
7.3385831507
 30
0.0
 10
10.8598595836
 20
7.3387942018
 30
0.0
 10
10.8627787505
 20
7.3387942018
 30
0.0
 11
10.7377787934
 21
7.2099674995
 31
0.0
 11
10.7381093749
 21
7.2193305598
 31
0.0
 11
10.7390988937
 21
7.22864074
 31
0.0
 11
10.7407406259
 21
7.2378452777
 31
0.0
 11
10.7430234943
 21
7.2468926521
 31
0.0
 11
10.7459322584
 21
7.2557328637
 31
0.0
 11
10.7494477726
 21
7.2643178817
 31
0.0
 11
10.7535472811
 21
7.2726019925
 31
0.0
 11
10.7582047861
 21
7.2805421647
 31
0.0
 11
10.7633913982
 21
7.2880982481
 31
0.0
 11
10.7690757421
 21
7.2952331879
 31
0.0
 11
10.7752243429
 21
7.3019131284
 31
0.0
 11
10.7818019747
 21
7.3081074347
 31
0.0
 11
10.788772062
 21
7.3137887346
 31
0.0
 11
10.7960969292
 21
7.3189327975
 31
0.0
 11
10.8037381386
 21
7.3235184921
 31
0.0
 11
10.8116567002
 21
7.3275276389
 31
0.0
 11
10.8198132476
 21
7.3309448674
 31
0.0
 11
10.828168238
 21
7.3337574946
 31
0.0
 11
10.8366819852
 21
7.3359553543
 31
0.0
 11
10.8453147917
 21
7.3375306943
 31
0.0
 11
10.8540269581
 21
7.3384780576
 31
0.0
 11
10.8627787505
 21
7.3387942018
 31
0.0
  0
SPLINE
  5
37C
100
AcDbEntity
  8
0
100
AcDbSpline
 62
7
  6
CONTINUOUS
 70
0
 71
3
 72
30
 73
26
 74
24
 42
0.0000001
 43
0.0000001
 44
0.0000000001
 12
0.0727642776
 22
-0.2113228064
 32
0.0
 13
-0.2113583816
 23
-0.0727765236
 33
0.0
 40
0.0
 40
0.0
 40
0.0
 40
0.0
 40
0.0335708601
 40
0.0673066444
 40
0.1013724671
 40
0.1359318614
 40
0.1711482838
 40
0.2071815828
 40
0.2441874499
 40
0.282316832
 40
0.3217106437
 40
0.3624982668
 40
0.4047931416
 40
0.4486873088
 40
0.4942470233
 40
0.5415071186
 40
0.5904654978
 40
0.6410784103
 40
0.6932577318
 40
0.746867436
 40
0.8017260774
 40
0.8576081272
 40
0.9142507908
 40
0.9713621824
 40
1.0
 40
1.0
 40
1.0
 40
1.0
 10
11.0127638303
 20
8.1056115372
 30
0.0
 10
11.0135780834
 20
8.1032467744
 30
0.0
 10
11.0150304215
 20
8.0984413861
 30
0.0
 10
11.0166603004
 20
8.0910600359
 30
0.0
 10
11.0177357102
 20
8.0835028966
 30
0.0
 10
11.0182440209
 20
8.0757761059
 30
0.0
 10
11.0181687699
 20
8.0678863197
 30
0.0
 10
11.0174896313
 20
8.0598424872
 30
0.0
 10
11.0161829677
 20
8.0516565876
 30
0.0
 10
11.014222484
 20
8.0433447047
 30
0.0
 10
11.0115801562
 20
8.0349279446
 30
0.0
 10
11.0082274629
 20
8.0264334564
 30
0.0
 10
11.0041368653
 20
8.0178952138
 30
0.0
 10
10.9992836006
 20
8.0093546984
 30
0.0
 10
10.9936477318
 20
8.0008613108
 30
0.0
 10
10.9872163628
 20
7.9924723977
 30
0.0
 10
10.9799859746
 20
7.9842528852
 30
0.0
 10
10.9719646524
 20
7.9762743289
 30
0.0
 10
10.9631741336
 20
7.9686134818
 30
0.0
 10
10.953651294
 20
7.9613501832
 30
0.0
 10
10.943449104
 20
7.95456487
 30
0.0
 10
10.9326365836
 20
7.9483355922
 30
0.0
 10
10.9212979365
 20
7.9427349487
 30
0.0
 10
10.9115006173
 20
7.9386486817
 30
0.0
 10
10.9054924266
 20
7.9364724318
 30
0.0
 10
10.9034748124
 20
7.9357777115
 30
0.0
 11
11.0127638303
 21
8.1056115372
 31
0.0
 11
11.0149347724
 21
8.0984294058
 31
0.0
 11
11.0165614624
 21
8.091067044
 31
0.0
 11
11.0176356406
 21
8.0835295102
 31
0.0
 11
11.0181448426
 21
8.0758223101
 31
0.0
 11
11.018072532
 21
8.067951794
 31
0.0
 11
11.0173983086
 21
8.0599266466
 31
0.0
 11
11.0160984098
 21
8.0517586482
 31
0.0
 11
11.0141463088
 21
8.0434633508
 31
0.0
 11
11.01151373
 21
8.0350616479
 31
0.0
 11
11.0081717847
 21
8.0265803152
 31
0.0
 11
11.0040924589
 21
8.0180529474
 31
0.0
 11
10.9992504759
 21
8.0095207991
 31
0.0
 11
10.9936252829
 21
8.00103305
 31
0.0
 11
10.9872033203
 21
7.9926469337
 31
0.0
 11
10.9799804077
 21
7.9844274111
 31
0.0
 11
10.9719640634
 21
7.9764462753
 31
0.0
 11
10.963175435
 21
7.9687805518
 31
0.0
 11
10.9536511905
 21
7.9615107001
 31
0.0
 11
10.9434441091
 21
7.9547177282
 31
0.0
 11
10.932623451
 21
7.948480458
 31
0.0
 11
10.9212738637
 21
7.9428722201
 31
0.0
 11
10.9094934921
 21
7.9379577789
 31
0.0
 11
10.9034748124
 21
7.9357777115
 31
0.0
  0
SPLINE
  5
37D
100
AcDbEntity
  8
0
100
AcDbSpline
 62
7
  6
CONTINUOUS
 70
0
 71
3
 72
30
 73
26
 74
24
 42
0.0000001
 43
0.0000001
 44
0.0000000001
 12
-0.0727265149
 22
0.2112131357
 32
0.0
 13
0.2112067344
 23
0.0728604959
 33
0.0
 40
0.0
 40
0.0
 40
0.0
 40
0.0
 40
0.0335880249
 40
0.0673413426
 40
0.1014249101
 40
0.1360028955
 40
0.1712379977
 40
0.2072904136
 40
0.2443163536
 40
0.2824659991
 40
0.3218808157
 40
0.362690177
 40
0.4050072893
 40
0.4489244811
 40
0.4945080067
 40
0.541792617
 40
0.5907762602
 40
0.6414153848
 40
0.6936213878
 40
0.7472587856
 40
0.8021456252
 40
0.8580565266
 40
0.9147285098
 40
0.9718694735
 40
1.0
 40
1.0
 40
1.0
 40
1.0
 10
10.7127937565
 20
8.0023235514
 30
0.0
 10
10.7119795099
 20
8.0046882955
 30
0.0
 10
10.7105271734
 20
8.0094936647
 30
0.0
 10
10.7088972948
 20
8.0168750003
 30
0.0
 10
10.7078218739
 20
8.0244321921
 30
0.0
 10
10.7073135606
 20
8.0321590648
 30
0.0
 10
10.707388824
 20
8.0400489589
 30
0.0
 10
10.7080679909
 20
8.0480929132
 30
0.0
 10
10.7093747029
 20
8.056278936
 30
0.0
 10
10.7113352564
 20
8.064590946
 30
0.0
 10
10.7139776639
 20
8.0730078043
 30
0.0
 10
10.7173304462
 20
8.0815023686
 30
0.0
 10
10.721421133
 20
8.0900406567
 30
0.0
 10
10.7262744776
 20
8.0985811836
 30
0.0
 10
10.7319104164
 20
8.1070745572
 30
0.0
 10
10.7383418365
 20
8.1154634285
 30
0.0
 10
10.7455722604
 20
8.1236828846
 30
0.0
 10
10.7535935923
 20
8.1316613638
 30
0.0
 10
10.7623841136
 20
8.1393221369
 30
0.0
 10
10.7719069353
 20
8.1465853555
 30
0.0
 10
10.7821091157
 20
8.153370603
 30
0.0
 10
10.7929216238
 20
8.1595998209
 30
0.0
 10
10.8042602676
 20
8.165200414
 30
0.0
 10
10.8140216795
 20
8.1692716667
 30
0.0
 10
10.8199926497
 20
8.1714363709
 30
0.0
 10
10.821973102
 20
8.1721195723
 30
0.0
 11
10.7127937565
 21
8.0023235514
 31
0.0
 11
10.710622828
 21
8.0095056247
 31
0.0
 11
10.7089961333
 21
8.0168679893
 31
0.0
 11
10.7079219502
 21
8.0244055351
 31
0.0
 11
10.7074127412
 21
8.0321128794
 31
0.0
 11
10.7074850639
 21
8.0399834834
 31
0.0
 11
10.7081593127
 21
8.0480087199
 31
0.0
 11
10.7094592693
 21
8.0561769031
 31
0.0
 11
10.7114114317
 21
8.0644722928
 31
0.0
 11
10.7140440915
 21
8.072874099
 31
0.0
 11
10.7173861335
 21
8.081355528
 31
0.0
 11
10.7214655405
 21
8.0898829253
 31
0.0
 11
10.7263076047
 21
8.0984150874
 31
0.0
 11
10.7319328718
 21
8.1069028288
 31
0.0
 11
10.7383548836
 21
8.1152889006
 31
0.0
 11
10.745577821
 21
8.1235083546
 31
0.0
 11
10.753594198
 21
8.1314894359
 31
0.0
 11
10.7623827949
 21
8.1391550556
 31
0.0
 11
10.7719070461
 21
8.1464248458
 31
0.0
 11
10.7821141016
 21
8.1532177411
 31
0.0
 11
10.7929347508
 21
8.1594549531
 31
0.0
 11
10.8042843391
 21
8.1650631427
 31
0.0
 11
10.8160647101
 21
8.1699775375
 31
0.0
 11
10.821973102
 21
8.1721195723
 31
0.0
  0
SPLINE
  5
37E
100
AcDbEntity
  8
0
100
AcDbSpline
 62
7
  6
CONTINUOUS
 70
0
 71
3
 72
30
 73
26
 74
24
 42
0.0000001
 43
0.0000001
 44
0.0000000001
 12
-0.2270012942
 22
0.0
 32
0.0
 13
-0.0002991943
 23
0.2270384353
 33
0.0
 40
0.0
 40
0.0
 40
0.0
 40
0.0
 40
0.0324521651
 40
0.0650819194
 40
0.09806683
 40
0.1315842863
 40
0.1658110825
 40
0.20092259
 40
0.2370913963
 40
0.2744852724
 40
0.3132643453
 40
0.3535773952
 40
0.3955572311
 40
0.4393151833
 40
0.4849348551
 40
0.5324654069
 40
0.5819147989
 40
0.6332435721
 40
0.6863598678
 40
0.7411164546
 40
0.7973104881
 40
0.8546865771
 40
0.91294343
 40
0.9717439675
 40
1.0
 40
1.0
 40
1.0
 40
1.0
 10
11.221778761
 20
7.4687916391
 30
0.0
 10
11.2193231998
 20
7.4687916391
 30
0.0
 10
11.2143965492
 20
7.4689813706
 30
0.0
 10
11.2070186025
 20
7.4698368146
 30
0.0
 10
11.1996483086
 20
7.4712705805
 30
0.0
 10
11.1922924367
 20
7.4732944581
 30
0.0
 10
11.1849595939
 20
7.4759244373
 30
0.0
 10
11.1776620271
 20
7.4791801548
 30
0.0
 10
11.1704162214
 20
7.4830841304
 30
0.0
 10
11.1632437931
 20
7.4876607626
 30
0.0
 10
11.1561722234
 20
7.492935051
 30
0.0
 10
11.1492354982
 20
7.4989310237
 30
0.0
 10
11.1424745557
 20
7.5056698606
 30
0.0
 10
11.1359374693
 20
7.5131677298
 30
0.0
 10
11.1296792768
 20
7.5214333903
 30
0.0
 10
11.1237613655
 20
7.5304656577
 30
0.0
 10
11.1182503388
 20
7.5402508811
 30
0.0
 10
11.1132163164
 20
7.5507606281
 30
0.0
 10
11.1087306701
 20
7.5619498177
 30
0.0
 10
11.1048632607
 20
7.5737555549
 30
0.0
 10
11.101679316
 20
7.5860969092
 30
0.0
 10
11.0992361647
 20
7.5988758202
 30
0.0
 10
11.0975800991
 20
7.6119792162
 30
0.0
 10
11.0968896656
 20
7.6229602265
 30
0.0
 10
11.0967817542
 20
7.6295484918
 30
0.0
 10
11.0967789362
 20
7.6316868936
 30
0.0
 11
11.221778761
 21
7.4687916391
 31
0.0
 11
11.2144175229
 21
7.4690748336
 31
0.0
 11
11.2070596938
 21
7.4699268589
 31
0.0
 11
11.1997095301
 21
7.4713549723
 31
0.0
 11
11.1923729884
 21
7.4733710376
 31
0.0
 11
11.1850585843
 21
7.4759911602
 31
0.0
 11
11.177778257
 21
7.4792351448
 31
0.0
 11
11.1705482264
 21
7.4831257443
 31
0.0
 11
11.1633898211
 21
7.487687669
 31
0.0
 11
11.1563302446
 21
7.4929463214
 31
0.0
 11
11.1494032268
 21
7.498926231
 31
0.0
 11
11.1426494949
 21
7.5056491797
 31
0.0
 11
11.1361169849
 21
7.5131320283
 31
0.0
 11
11.1298606995
 21
7.5213842961
 31
0.0
 11
11.1239421224
 21
7.5304055868
 31
0.0
 11
11.1184281064
 21
7.5401830076
 31
0.0
 11
11.1133891838
 21
7.5506887834
 31
0.0
 11
11.1088972942
 21
7.5618783079
 31
0.0
 11
11.10502299
 21
7.5736889004
 31
0.0
 11
11.1018322617
 21
7.5860395201
 31
0.0
 11
11.0993831981
 21
7.5988316385
 31
0.0
 11
11.0977227644
 21
7.6119513646
 31
0.0
 11
11.0968840109
 21
7.6252727837
 31
0.0
 11
11.0967789362
 21
7.6316868936
 31
0.0
  0
SPLINE
  5
37F
100
AcDbEntity
  8
0
100
AcDbSpline
 62
7
  6
CONTINUOUS
 70
0
 71
3
 72
29
 73
25
 74
23
 42
0.0000001
 43
0.0000001
 44
0.0000000001
 12
-0.1993240228
 22
0.0
 32
0.0
 13
-0.0
 23
0.1993654036
 33
0.0
 40
0.0
 40
0.0
 40
0.0
 40
0.0
 40
0.0439361973
 40
0.08790237
 40
0.1319279569
 40
0.1760413287
 40
0.220269268
 40
0.2646364655
 40
0.3091650413
 40
0.3538740968
 40
0.3987793076
 40
0.4438925662
 40
0.4892216843
 40
0.5347701649
 40
0.5805370548
 40
0.6265168861
 40
0.6726997136
 40
0.7190712551
 40
0.7656131357
 40
0.8123032361
 40
0.8591161402
 40
0.9060236726
 40
0.952995515
 40
1.0
 40
1.0
 40
1.0
 40
1.0
 10
10.8627787934
 20
7.0811407961
 30
0.0
 10
10.8598596136
 20
7.0811407961
 30
0.0
 10
10.8540170666
 20
7.0813518472
 30
0.0
 10
10.8452957788
 20
7.0823003874
 30
0.0
 10
10.83665357
 20
7.0838776647
 30
0.0
 10
10.8281308327
 20
7.0860781868
 30
0.0
 10
10.819767193
 20
7.0888941509
 30
0.0
 10
10.811602437
 20
7.0923153389
 30
0.0
 10
10.8036761804
 20
7.0963289911
 30
0.0
 10
10.7960278307
 20
7.1009196679
 30
0.0
 10
10.7886964198
 20
7.1060691082
 30
0.0
 10
10.7817204168
 20
7.111756093
 30
0.0
 10
10.7751374911
 20
7.1179563254
 30
0.0
 10
10.7689842341
 20
7.1246423386
 30
0.0
 10
10.7632958433
 20
7.1317834402
 30
0.0
 10
10.7581057734
 20
7.1393457061
 30
0.0
 10
10.7534453651
 20
7.1472920287
 30
0.0
 10
10.7493434612
 20
7.1555822297
 30
0.0
 10
10.7458260216
 20
7.1641732398
 30
0.0
 10
10.7429157519
 20
7.1730193479
 30
0.0
 10
10.7406317591
 20
7.1820725168
 30
0.0
 10
10.738989247
 20
7.1912827636
 30
0.0
 10
10.7379992642
 20
7.2005986009
 30
0.0
 10
10.7377787934
 20
7.2068438103
 30
0.0
 10
10.7377787934
 20
7.2099674997
 30
0.0
 11
10.8627787934
 21
7.0811407961
 31
0.0
 11
10.8540269621
 21
7.0814569415
 31
0.0
 11
10.8453148045
 21
7.0824043033
 31
0.0
 11
10.8366820063
 21
7.0839796406
 31
0.0
 11
10.8281682687
 21
7.0861774958
 31
0.0
 11
10.8198132952
 21
7.088990114
 31
0.0
 11
10.8116567535
 21
7.0924073359
 31
0.0
 11
10.8037382066
 21
7.0964164698
 31
0.0
 11
10.7960970067
 21
7.1010021516
 31
0.0
 11
10.7887721473
 21
7.1061462003
 31
0.0
 11
10.7818020724
 21
7.1118274791
 31
0.0
 11
10.7752244402
 21
7.1180217726
 31
0.0
 11
10.7690758449
 21
7.1247016916
 31
0.0
 11
10.763391499
 21
7.1318366151
 31
0.0
 11
10.7582048836
 21
7.1393926813
 31
0.0
 11
10.7535473746
 21
7.1473328339
 31
0.0
 11
10.749447856
 21
7.155616933
 31
0.0
 11
10.7459323327
 21
7.1642019342
 31
0.0
 11
10.7430235554
 21
7.173042137
 31
0.0
 11
10.740740673
 21
7.1820895025
 31
0.0
 11
10.7390989258
 21
7.1912940334
 31
0.0
 11
10.738109391
 21
7.2006042112
 31
0.0
 11
10.7377787934
 21
7.2099674997
 31
0.0
  0
SPLINE
  5
380
100
AcDbEntity
  8
0
100
AcDbSpline
 62
7
  6
CONTINUOUS
 70
0
 71
3
 72
30
 73
26
 74
24
 42
0.0000001
 43
0.0000001
 44
0.0000000001
 12
-0.2233794938
 22
0.0
 32
0.0
 13
-0.0001330784
 23
0.2234170581
 33
0.0
 40
0.0
 40
0.0
 40
0.0
 40
0.0
 40
0.0335886122
 40
0.0673425202
 40
0.1014266837
 40
0.1360052739
 40
0.1712409926
 40
0.2072940393
 40
0.2443206273
 40
0.2824709406
 40
0.3218864474
 40
0.3626965235
 40
0.4050143772
 40
0.4489323385
 40
0.494516663
 40
0.541802102
 40
0.5907866039
 40
0.6414266161
 40
0.6936335341
 40
0.7472718718
 40
0.802159673
 40
0.8580715535
 40
0.9147445287
 40
0.9718864922
 40
1.0
 40
1.0
 40
1.0
 40
1.0
 10
10.5037787662
 20
7.4733402734
 30
0.0
 10
10.5012777638
 20
7.4733402734
 30
0.0
 10
10.496261363
 20
7.4735315375
 30
0.0
 10
10.4887515359
 20
7.474393585
 30
0.0
 10
10.4812559472
 20
7.4758371358
 30
0.0
 10
10.4737845542
 20
7.4778721401
 30
0.0
 10
10.4663490155
 20
7.4805120018
 30
0.0
 10
10.4589644218
 20
7.4837730228
 30
0.0
 10
10.4516498084
 20
7.4876736522
 30
0.0
 10
10.4444289418
 20
7.4922335186
 30
0.0
 10
10.4373309292
 20
7.4974722259
 30
0.0
 10
10.4303907196
 20
7.5034079046
 30
0.0
 10
10.4236494065
 20
7.5100555208
 30
0.0
 10
10.4171542739
 20
7.5174249733
 30
0.0
 10
10.4109585133
 20
7.5255190315
 30
0.0
 10
10.4051205452
 20
7.5343312097
 30
0.0
 10
10.3997028927
 20
7.5438437046
 30
0.0
 10
10.3947705829
 20
7.5540255634
 30
0.0
 10
10.3903890938
 20
7.5648312701
 30
0.0
 10
10.3866219139
 20
7.5761999494
 30
0.0
 10
10.3835278422
 20
7.5880553627
 30
0.0
 10
10.3811582104
 20
7.6003068265
 30
0.0
 10
10.3795542481
 20
7.6128511011
 30
0.0
 10
10.378882892
 20
7.6234048667
 30
0.0
 10
10.3787800418
 20
7.6297539833
 30
0.0
 10
10.3787787947
 20
7.6318476624
 30
0.0
 11
10.5037787662
 21
7.4733402734
 31
0.0
 11
10.4962811967
 21
7.4736258746
 31
0.0
 11
10.4887903436
 21
7.4744847561
 31
0.0
 11
10.4813137336
 21
7.4759230811
 31
0.0
 11
10.4738605134
 21
7.4779508808
 31
0.0
 11
10.4664422565
 21
7.4805816817
 31
0.0
 11
10.4590737597
 21
7.4838319585
 31
0.0
 11
10.4517738146
 21
7.4877203927
 31
0.0
 11
10.4445659309
 21
7.492266914
 31
0.0
 11
10.4374789767
 21
7.4974915042
 31
0.0
 11
10.4305476901
 21
7.5034127513
 31
0.0
 11
10.4238130022
 21
7.5100461567
 31
0.0
 11
10.417322106
 21
7.5174022199
 31
0.0
 11
10.4111281965
 21
7.5254843542
 31
0.0
 11
10.4052898123
 21
7.5342867252
 31
0.0
 11
10.3998697244
 21
7.5437921408
 31
0.0
 11
10.3949333411
 21
7.5539701619
 31
0.0
 11
10.3905466431
 21
7.5647756269
 31
0.0
 11
10.3867737149
 21
7.5761477973
 31
0.0
 11
10.3836739992
 21
7.58801031
 31
0.0
 11
10.3812994593
 21
7.600272074
 31
0.0
 11
10.3796918777
 21
7.61282917
 31
0.0
 11
10.3788805411
 21
7.6255677014
 31
0.0
 11
10.3787787947
 21
7.6318476624
 31
0.0
  0
SPLINE
  5
381
100
AcDbEntity
  8
0
100
AcDbSpline
 62
7
  6
CONTINUOUS
 70
0
 71
3
 72
16
 73
12
 74
10
 42
0.0000001
 43
0.0000001
 44
0.0000000001
 12
0.0757628364
 22
-0.0
 32
0.0
 13
0.0617501874
 23
-0.043923999
 33
0.0
 40
0.0
 40
0.0
 40
0.0
 40
0.0
 40
0.1139502751
 40
0.2279761533
 40
0.3421517944
 40
0.4565489335
 40
0.5712351703
 40
0.6862732912
 40
0.8017194543
 40
0.9176226624
 40
1.0
 40
1.0
 40
1.0
 40
1.0
 10
10.8627787934
 20
7.126865395
 30
0.0
 10
10.8656565254
 20
7.126865395
 30
0.0
 10
10.8714160022
 20
7.126660302
 30
0.0
 10
10.8800144733
 20
7.1257385065
 30
0.0
 10
10.888537194
 20
7.1242056006
 30
0.0
 10
10.8969454681
 20
7.1220667682
 30
0.0
 10
10.9052013388
 20
7.1193293693
 30
0.0
 10
10.9132666857
 20
7.1160030404
 30
0.0
 10
10.9211035498
 20
7.1120998063
 30
0.0
 10
10.9279334561
 20
7.1080711204
 30
0.0
 10
10.9320872502
 20
7.1052699643
 30
0.0
 10
10.9337828556
 20
7.1040638503
 30
0.0
 11
10.8627787934
 21
7.126865395
 31
0.0
 11
10.871406521
 21
7.1265581627
 31
0.0
 11
10.8799962445
 21
7.1256374801
 31
0.0
 11
10.8885099391
 21
7.1241064079
 31
0.0
 11
10.8969095794
 21
7.1219700958
 31
0.0
 11
10.9051571188
 21
7.1192358637
 31
0.0
 11
10.9132145644
 21
7.1159132887
 31
0.0
 11
10.921043993
 21
7.1120143385
 31
0.0
 11
10.9286076882
 21
7.1075534851
 31
0.0
 11
10.9337828556
 21
7.1040638503
 31
0.0
  0
SPLINE
  5
382
100
AcDbEntity
  8
0
100
AcDbSpline
 62
7
  6
CONTINUOUS
 70
0
 71
3
 72
16
 73
12
 74
10
 42
0.0000001
 43
0.0000001
 44
0.0000000001
 12
0.0617501874
 22
0.0439239991
 32
0.0
 13
0.0757628366
 23
-0.0
 33
0.0
 40
0.0
 40
0.0
 40
0.0
 40
0.0
 40
0.0823773376
 40
0.1982805445
 40
0.3137267027
 40
0.4287648222
 40
0.5434510724
 40
0.6578482129
 40
0.7720238446
 40
0.886049718
 40
1.0
 40
1.0
 40
1.0
 40
1.0
 10
10.7917747311
 20
7.1040638502
 30
0.0
 10
10.7934703365
 20
7.1052699642
 30
0.0
 10
10.7976241306
 20
7.1080711203
 30
0.0
 10
10.8044540367
 20
7.1120998062
 30
0.0
 10
10.8122909007
 20
7.1160030402
 30
0.0
 10
10.8203562478
 20
7.1193293692
 30
0.0
 10
10.8286121188
 20
7.1220667682
 30
0.0
 10
10.8370203931
 20
7.1242056006
 30
0.0
 10
10.8455431134
 20
7.1257385065
 30
0.0
 10
10.8541415844
 20
7.126660302
 30
0.0
 10
10.8599010612
 20
7.126865395
 30
0.0
 10
10.8627787934
 20
7.126865395
 30
0.0
 11
10.7917747311
 21
7.1040638502
 31
0.0
 11
10.7969498985
 21
7.1075534851
 31
0.0
 11
10.8045135936
 21
7.1120143384
 31
0.0
 11
10.8123430219
 21
7.1159132885
 31
0.0
 11
10.8204004674
 21
7.1192358634
 31
0.0
 11
10.8286480078
 21
7.1219700959
 31
0.0
 11
10.8370476482
 21
7.124106408
 31
0.0
 11
10.8455613421
 21
7.1256374801
 31
0.0
 11
10.8541510653
 21
7.1265581627
 31
0.0
 11
10.8627787934
 21
7.126865395
 31
0.0
  0
SPLINE
  5
383
100
AcDbEntity
  8
0
100
AcDbSpline
 62
7
  6
CONTINUOUS
 70
0
 71
3
 72
8
 73
4
 74
2
 42
0.0000001
 43
0.0000001
 44
0.0000000001
 12
0.0
 22
-0.0064004936
 32
0.0
 13
-0.0002035367
 23
-0.0063972622
 33
0.0
 40
0.0
 40
0.0
 40
0.0
 40
0.0
 40
1.0
 40
1.0
 40
1.0
 40
1.0
 10
10.6287787735
 20
7.6319675503
 30
0.0
 10
10.6287787735
 20
7.6298340524
 30
0.0
 10
10.6287448507
 20
7.6277005546
 30
0.0
 10
10.6286770051
 20
7.6255681339
 30
0.0
 11
10.6287787735
 21
7.6319675503
 31
0.0
 11
10.6286770051
 21
7.6255681339
 31
0.0
  0
SPLINE
  5
384
100
AcDbEntity
  8
0
100
AcDbSpline
 62
7
  6
CONTINUOUS
 70
0
 71
3
 72
29
 73
25
 74
23
 42
0.0000001
 43
0.0000001
 44
0.0000000001
 12
-0.0069049737
 22
-0.2170268672
 32
0.0
 13
-0.2170999453
 23
0.0
 33
0.0
 40
0.0
 40
0.0
 40
0.0
 40
0.0
 40
0.0587969242
 40
0.1171091381
 40
0.1746382425
 40
0.2311136461
 40
0.2863034457
 40
0.3400204224
 40
0.392125171
 40
0.4425265245
 40
0.4911796706
 40
0.5380824985
 40
0.5832707646
 40
0.6268126412
 40
0.6688031289
 40
0.7093587104
 40
0.7486125041
 40
0.7867100697
 40
0.8238059352
 40
0.8600608321
 40
0.8956395934
 40
0.930709627
 40
0.9654398521
 40
1.0
 40
1.0
 40
1.0
 40
1.0
 10
10.6286770051
 20
7.6255681339
 30
0.0
 10
10.6285416747
 20
7.6213146298
 30
0.0
 10
10.628003301
 20
7.6128512226
 30
0.0
 10
10.6263993171
 20
7.6003067954
 30
0.0
 10
10.6240296837
 20
7.5880553341
 30
0.0
 10
10.6209356108
 20
7.5761999234
 30
0.0
 10
10.61716843
 20
7.5648312468
 30
0.0
 10
10.6127869403
 20
7.5540255427
 30
0.0
 10
10.6078546302
 20
7.5438436865
 30
0.0
 10
10.6024369776
 20
7.5343311941
 30
0.0
 10
10.5965990097
 20
7.5255190183
 30
0.0
 10
10.5904032495
 20
7.5174249623
 30
0.0
 10
10.5839081175
 20
7.5100555118
 30
0.0
 10
10.577166805
 20
7.5034078973
 30
0.0
 10
10.5702265961
 20
7.4974722203
 30
0.0
 10
10.5631285843
 20
7.4922335142
 30
0.0
 10
10.5559077184
 20
7.4876736489
 30
0.0
 10
10.5485931058
 20
7.4837730204
 30
0.0
 10
10.5412085128
 20
7.4805120002
 30
0.0
 10
10.5337729748
 20
7.4778721391
 30
0.0
 10
10.5263015826
 20
7.4758371352
 30
0.0
 10
10.5188059948
 20
7.4743935848
 30
0.0
 10
10.5112961685
 20
7.4735315375
 30
0.0
 10
10.5062797683
 20
7.4733402734
 30
0.0
 10
10.5037787662
 20
7.4733402734
 30
0.0
 11
10.6286770051
 21
7.6255681339
 31
0.0
 11
10.6278656516
 21
7.6128291366
 31
0.0
 11
10.6262580682
 21
7.6002720429
 31
0.0
 11
10.6238835267
 21
7.5880102813
 31
0.0
 11
10.6207838099
 21
7.5761477713
 31
0.0
 11
10.6170108808
 21
7.5647756035
 31
0.0
 11
10.6126241822
 21
7.5539701412
 31
0.0
 11
10.6076877985
 21
7.5437921228
 31
0.0
 11
10.6022677106
 21
7.5342867096
 31
0.0
 11
10.5964293266
 21
7.525484341
 31
0.0
 11
10.5902354174
 21
7.5174022089
 31
0.0
 11
10.5837445218
 21
7.5100461477
 31
0.0
 11
10.5770098346
 21
7.5034127441
 31
0.0
 11
10.5700785486
 21
7.4974914986
 31
0.0
 11
10.5629915952
 21
7.4922669097
 31
0.0
 11
10.5557837122
 21
7.4877203894
 31
0.0
 11
10.5484837679
 21
7.4838319561
 31
0.0
 11
10.5411152719
 21
7.4805816801
 31
0.0
 11
10.5336970157
 21
7.4779508797
 31
0.0
 11
10.5262437963
 21
7.4759230805
 31
0.0
 11
10.518767187
 21
7.4744847558
 31
0.0
 11
10.5112763348
 21
7.4736258745
 31
0.0
 11
10.5037787662
 21
7.4733402734
 31
0.0
  0
SPLINE
  5
385
100
AcDbEntity
  8
0
100
AcDbSpline
 62
7
  6
CONTINUOUS
 70
0
 71
3
 72
8
 73
4
 74
2
 42
0.0000001
 43
0.0000001
 44
0.0000000001
 12
0.0
 22
-0.0093709316
 32
0.0
 13
-0.0006609526
 23
-0.0093475938
 33
0.0
 40
0.0
 40
0.0
 40
0.0
 40
0.0
 40
1.0
 40
1.0
 40
1.0
 40
1.0
 10
10.9877787934
 20
7.2099674997
 30
0.0
 10
10.9877787934
 20
7.2068438559
 30
0.0
 10
10.987668523
 20
7.203720212
 30
0.0
 10
10.9874482054
 20
7.2006043474
 30
0.0
 11
10.9877787934
 21
7.2099674997
 31
0.0
 11
10.9874482054
 21
7.2006043474
 31
0.0
  0
SPLINE
  5
386
100
AcDbEntity
  8
0
100
AcDbSpline
 62
7
  6
CONTINUOUS
 70
0
 71
3
 72
27
 73
23
 74
21
 42
0.0000001
 43
0.0000001
 44
0.0000000001
 12
-0.0127829149
 22
-0.1807837542
 32
0.0
 13
-0.1807750556
 23
-0.0130757051
 33
0.0
 40
0.0
 40
0.0
 40
0.0
 40
0.0
 40
0.051671306
 40
0.1032713586
 40
0.1547673167
 40
0.2061281863
 40
0.2573260084
 40
0.3083364512
 40
0.3591393015
 40
0.4097188484
 40
0.4600641517
 40
0.5101691965
 40
0.5600329342
 40
0.6096592183
 40
0.6590566419
 40
0.7082382872
 40
0.757221398
 40
0.8060269865
 40
0.8546793856
 40
0.9032057561
 40
0.9516355598
 40
1.0
 40
1.0
 40
1.0
 40
1.0
 10
10.9874482054
 20
7.2006043474
 30
0.0
 10
10.9872280355
 20
7.1974905698
 30
0.0
 10
10.9865683512
 20
7.1912828356
 30
0.0
 10
10.9849258362
 20
7.1820725558
 30
0.0
 10
10.9826418455
 20
7.173019384
 30
0.0
 10
10.9797315776
 20
7.1641732731
 30
0.0
 10
10.9762141393
 20
7.15558226
 30
0.0
 10
10.9721122365
 20
7.147292056
 30
0.0
 10
10.967451829
 20
7.1393457305
 30
0.0
 10
10.9622617595
 20
7.1317834617
 30
0.0
 10
10.9565733687
 20
7.1246423572
 30
0.0
 10
10.9504201115
 20
7.1179563413
 30
0.0
 10
10.9438371853
 20
7.1117561063
 30
0.0
 10
10.9368611815
 20
7.1060691191
 30
0.0
 10
10.9295297696
 20
7.1009196766
 30
0.0
 10
10.9218814187
 20
7.0963289978
 30
0.0
 10
10.9139551607
 20
7.0923153439
 30
0.0
 10
10.9057904031
 20
7.0888941544
 30
0.0
 10
10.8974267617
 20
7.086078189
 30
0.0
 10
10.8889040226
 20
7.0838776659
 30
0.0
 10
10.8802618123
 20
7.0823003879
 30
0.0
 10
10.8744449892
 20
7.0816677415
 30
0.0
 10
10.8715306277
 20
7.0814569417
 30
0.0
 11
10.9874482054
 21
7.2006043474
 31
0.0
 11
10.9864586669
 21
7.191294075
 31
0.0
 11
10.9848169222
 21
7.1820895414
 31
0.0
 11
10.982534042
 21
7.1730421732
 31
0.0
 11
10.9796252664
 21
7.1642019674
 31
0.0
 11
10.9761097445
 21
7.1556169633
 31
0.0
 11
10.972010227
 21
7.1473328612
 31
0.0
 11
10.9673527187
 21
7.1393927057
 31
0.0
 11
10.9621661037
 21
7.1318366366
 31
0.0
 11
10.9564817579
 21
7.1247017102
 31
0.0
 11
10.9503331624
 21
7.1180217885
 31
0.0
 11
10.9437555297
 21
7.1118274924
 31
0.0
 11
10.936785454
 21
7.1061462113
 31
0.0
 11
10.9294605936
 21
7.1010021603
 31
0.0
 11
10.9218193924
 21
7.0964164765
 31
0.0
 11
10.9139008441
 21
7.0924073409
 31
0.0
 11
10.9057443009
 21
7.0889901175
 31
0.0
 11
10.8973893256
 21
7.086177498
 31
0.0
 11
10.8888755863
 21
7.0839796418
 31
0.0
 11
10.8802427863
 21
7.0824043039
 31
0.0
 11
10.8715306277
 21
7.0814569417
 31
0.0
  0
SPLINE
  5
387
100
AcDbEntity
  8
0
100
AcDbSpline
 62
7
  6
CONTINUOUS
 70
0
 71
3
 72
8
 73
4
 74
2
 42
0.0000001
 43
0.0000001
 44
0.0000000001
 12
0.0
 22
-0.0066955277
 32
0.0
 13
-0.0002104979
 23
-0.0066922246
 33
0.0
 40
0.0
 40
0.0
 40
0.0
 40
0.0
 40
1.0
 40
1.0
 40
1.0
 40
1.0
 10
11.3467787707
 20
7.6319675503
 30
0.0
 10
11.3467787707
 20
7.6297357077
 30
0.0
 10
11.3467436878
 20
7.6275038652
 30
0.0
 10
11.3466735218
 20
7.6252731236
 30
0.0
 11
11.3467787707
 21
7.6319675503
 31
0.0
 11
11.3466735218
 21
7.6252731236
 31
0.0
  0
SPLINE
  5
388
100
AcDbEntity
  8
0
100
AcDbSpline
 62
7
  6
CONTINUOUS
 70
0
 71
3
 72
29
 73
25
 74
23
 42
0.0000001
 43
0.0000001
 44
0.0000000001
 12
-0.0069360979
 22
-0.2205149234
 32
0.0
 13
-0.2205874783
 23
-0.0
 33
0.0
 40
0.0
 40
0.0
 40
0.0
 40
0.0
 40
0.0605117473
 40
0.1204624809
 40
0.1795068415
 40
0.2373347773
 40
0.2936834713
 40
0.348344181
 40
0.4011653939
 40
0.4520525805
 40
0.5009651344
 40
0.5479112473
 40
0.5929415091
 40
0.6361419538
 40
0.6776271491
 40
0.7175337657
 40
0.7560149097
 40
0.7932353641
 40
0.8293677776
 40
0.8645897561
 40
0.8990817698
 40
0.9330257532
 40
0.9666042533
 40
1.0
 40
1.0
 40
1.0
 40
1.0
 10
11.3466735218
 20
7.6252731236
 30
0.0
 10
11.3465336167
 20
7.6208252092
 30
0.0
 10
11.3459774374
 20
7.6119793316
 30
0.0
 10
11.3443213579
 20
7.5988758243
 30
0.0
 10
11.3418782069
 20
7.5860969131
 30
0.0
 10
11.3386942624
 20
7.5737555586
 30
0.0
 10
11.3348268531
 20
7.5619498211
 30
0.0
 10
11.330341207
 20
7.5507606312
 30
0.0
 10
11.3253071847
 20
7.5402508839
 30
0.0
 10
11.3197961581
 20
7.5304656603
 30
0.0
 10
11.3138782469
 20
7.5214333926
 30
0.0
 10
11.3076200544
 20
7.5131677319
 30
0.0
 10
11.3010829681
 20
7.5056698626
 30
0.0
 10
11.2943220256
 20
7.4989310255
 30
0.0
 10
11.2873853005
 20
7.4929350525
 30
0.0
 10
11.2803137307
 20
7.4876607638
 30
0.0
 10
11.2731413023
 20
7.4830841314
 30
0.0
 10
11.2658954964
 20
7.4791801555
 30
0.0
 10
11.2585979293
 20
7.4759244378
 30
0.0
 10
11.2512650862
 20
7.4732944584
 30
0.0
 10
11.243909214
 20
7.4712705807
 30
0.0
 10
11.2365389198
 20
7.4698368146
 30
0.0
 10
11.2291609729
 20
7.4689813706
 30
0.0
 10
11.2242343222
 20
7.4687916391
 30
0.0
 10
11.221778761
 20
7.4687916391
 30
0.0
 11
11.3466735218
 21
7.6252731236
 31
0.0
 11
11.345834758
 21
7.611951369
 31
0.0
 11
11.3441743245
 21
7.5988316427
 31
0.0
 11
11.3417252611
 21
7.5860395241
 31
0.0
 11
11.3385345331
 21
7.5736889041
 31
0.0
 11
11.3346602291
 21
7.5618783113
 31
0.0
 11
11.3301683395
 21
7.5506887865
 31
0.0
 11
11.3251294171
 21
7.5401830104
 31
0.0
 11
11.3196154012
 21
7.5304055893
 31
0.0
 11
11.3136968241
 21
7.5213842984
 31
0.0
 11
11.3074405388
 21
7.5131320304
 31
0.0
 11
11.3009080289
 21
7.5056491816
 31
0.0
 11
11.2941542971
 21
7.4989262328
 31
0.0
 11
11.2872272792
 21
7.4929463229
 31
0.0
 11
11.2801677027
 21
7.4876876703
 31
0.0
 11
11.2730092973
 21
7.4831257453
 31
0.0
 11
11.2657792665
 21
7.4792351456
 31
0.0
 11
11.2584989389
 21
7.4759911607
 31
0.0
 11
11.2511845345
 21
7.4733710378
 31
0.0
 11
11.2438479925
 21
7.4713549724
 31
0.0
 11
11.2364978285
 21
7.4699268589
 31
0.0
 11
11.2291399992
 21
7.4690748336
 31
0.0
 11
11.221778761
 21
7.4687916391
 31
0.0
  0
SPLINE
  5
389
100
AcDbEntity
  8
0
100
AcDbSpline
 62
7
  6
CONTINUOUS
 70
0
 71
3
 72
8
 73
4
 74
2
 42
0.0000001
 43
0.0000001
 44
0.0000000001
 12
-0.006051778
 22
-0.0020837943
 32
0.0
 13
-0.0061149875
 23
-0.001890295
 33
0.0
 40
0.0
 40
0.0
 40
0.0
 40
0.0
 40
1.0
 40
1.0
 40
1.0
 40
1.0
 10
10.9034748151
 20
7.9357777124
 30
0.0
 10
10.9014575558
 20
7.9350831143
 30
0.0
 10
10.8994292523
 20
7.9344205908
 30
0.0
 10
10.8973909231
 20
7.9337904925
 30
0.0
 11
10.9034748151
 21
7.9357777124
 31
0.0
 11
10.8973909231
 21
7.9337904925
 31
0.0
  0
SPLINE
  5
38A
100
AcDbEntity
  8
0
100
AcDbSpline
 62
7
  6
CONTINUOUS
 70
0
 71
3
 72
29
 73
25
 74
23
 42
0.0000001
 43
0.0000001
 44
0.0000000001
 12
-0.207450979
 22
-0.0641282664
 32
0.0
 13
-0.0706808311
 23
0.2052720386
 33
0.0
 40
0.0
 40
0.0
 40
0.0
 40
0.0
 40
0.0587968527
 40
0.1171090706
 40
0.1746381794
 40
0.2311135876
 40
0.2863033921
 40
0.3400203736
 40
0.3921251271
 40
0.4425264852
 40
0.4911796358
 40
0.5380824678
 40
0.5832707379
 40
0.626812618
 40
0.668803109
 40
0.7093586936
 40
0.74861249
 40
0.7867100581
 40
0.8238059259
 40
0.8600608248
 40
0.8956395882
 40
0.9307096235
 40
0.9654398504
 40
1.0
 40
1.0
 40
1.0
 40
1.0
 10
10.8973909231
 20
7.9337904925
 30
0.0
 10
10.8933251016
 20
7.9325336457
 30
0.0
 10
10.8851475201
 20
7.9302872728
 30
0.0
 10
10.8727643294
 20
7.9277198028
 30
0.0
 10
10.8604088668
 20
7.925971648
 30
0.0
 10
10.8481920228
 20
7.9250374058
 30
0.0
 10
10.8362162523
 20
7.924898065
 30
0.0
 10
10.8245727833
 20
7.9255228507
 30
0.0
 10
10.8133398445
 20
7.9268715526
 30
0.0
 10
10.8025817895
 20
7.9288970786
 30
0.0
 10
10.7923490556
 20
7.9315480214
 30
0.0
 10
10.7826788317
 20
7.9347710605
 30
0.0
 10
10.7735962698
 20
7.93851307
 30
0.0
 10
10.7651160689
 20
7.9427228546
 30
0.0
 10
10.7572442638
 20
7.9473524836
 30
0.0
 10
10.7499800822
 20
7.95235823
 30
0.0
 10
10.7433177599
 20
7.9577011461
 30
0.0
 10
10.7372482374
 20
7.9633473281
 30
0.0
 10
10.7317606932
 20
7.969267914
 30
0.0
 10
10.7268438805
 20
7.975438899
 30
0.0
 10
10.7224872985
 20
7.9818407072
 30
0.0
 10
10.7186820696
 20
7.9884579512
 30
0.0
 10
10.7154220273
 20
7.9952779769
 30
0.0
 10
10.7136080032
 20
7.9999588073
 30
0.0
 10
10.7127937565
 20
8.0023235514
 30
0.0
 11
10.8973909231
 21
7.9337904925
 31
0.0
 11
10.8850818285
 21
7.9304102335
 31
0.0
 11
10.8726854842
 21
7.927842042
 31
0.0
 11
10.8603186845
 21
7.9260951744
 31
0.0
 11
10.8480932905
 21
7.9251639574
 31
0.0
 11
10.8361123475
 21
7.925028915
 31
0.0
 11
10.8244674113
 21
7.9256587047
 31
0.0
 11
10.8132367749
 21
7.9270125076
 31
0.0
 11
10.8024846206
 21
7.929042641
 31
0.0
 11
10.7922610242
 21
7.9316971701
 31
0.0
 11
10.7826026771
 21
7.9349223412
 31
0.0
 11
10.7735341543
 21
7.9386647041
 31
0.0
 11
10.765069547
 21
7.942872851
 31
0.0
 11
10.7572142922
 21
7.9474987417
 31
0.0
 11
10.749967059
 21
7.9524986282
 31
0.0
 11
10.7433215815
 21
7.9578336135
 31
0.0
 11
10.7372683653
 21
7.9634698967
 31
0.0
 11
10.7317962205
 21
7.9693787606
 31
0.0
 11
10.7268936013
 21
7.9755363553
 31
0.0
 11
10.722549748
 21
7.9819233263
 31
0.0
 11
10.718755639
 21
7.988524327
 31
0.0
 11
10.7155047675
 21
7.9953274431
 31
0.0
 11
10.7127937565
 21
8.0023235514
 31
0.0
  0
SPLINE
  5
38B
100
AcDbEntity
  8
0
100
AcDbSpline
 62
7
  6
CONTINUOUS
 70
0
 71
3
 72
29
 73
25
 74
23
 42
0.0000001
 43
0.0000001
 44
0.0000000001
 12
0.1993240657
 22
-0.0
 32
0.0
 13
0.0
 23
-0.1993654465
 33
0.0
 40
0.0
 40
0.0
 40
0.0
 40
0.0
 40
0.0439361977
 40
0.0879023706
 40
0.1319279574
 40
0.1760413292
 40
0.2202692683
 40
0.2646364656
 40
0.3091650412
 40
0.3538740964
 40
0.3987793069
 40
0.4438925653
 40
0.4892216831
 40
0.5347701635
 40
0.5805370534
 40
0.6265168847
 40
0.6726997122
 40
0.7190712537
 40
0.7656131345
 40
0.8123032352
 40
0.8591161395
 40
0.9060236722
 40
0.9529955149
 40
1.0
 40
1.0
 40
1.0
 40
1.0
 10
10.8627787505
 20
7.3387942018
 30
0.0
 10
10.865697931
 20
7.3387942018
 30
0.0
 10
10.8715404794
 20
7.3385831565
 30
0.0
 10
10.8802617694
 20
7.3376346175
 30
0.0
 10
10.8889039806
 20
7.3360573429
 30
0.0
 10
10.8974267203
 20
7.3338568228
 30
0.0
 10
10.9057903626
 20
7.3310408604
 30
0.0
 10
10.9139551212
 20
7.3276196738
 30
0.0
 10
10.9218813805
 20
7.3236060228
 30
0.0
 10
10.9295297328
 20
7.3190153468
 30
0.0
 10
10.9368611464
 20
7.313865907
 30
0.0
 10
10.943837152
 20
7.3081789224
 30
0.0
 10
10.9504200802
 20
7.3019786898
 30
0.0
 10
10.9565733396
 20
7.2952926763
 30
0.0
 10
10.9622617327
 20
7.2881515739
 30
0.0
 10
10.9674518048
 20
7.2805893072
 30
0.0
 10
10.9721122149
 20
7.2726429834
 30
0.0
 10
10.9762141206
 20
7.264352781
 30
0.0
 10
10.9797315617
 20
7.2557617693
 30
0.0
 10
10.9826418327
 20
7.2469156595
 30
0.0
 10
10.9849258265
 20
7.2378624887
 30
0.0
 10
10.9865683393
 20
7.2286522399
 30
0.0
 10
10.9875583226
 20
7.2193364006
 30
0.0
 10
10.9877787934
 20
7.2130911898
 30
0.0
 10
10.9877787934
 20
7.2099674997
 30
0.0
 11
10.8627787505
 21
7.3387942018
 31
0.0
 11
10.8715305839
 21
7.3384780609
 31
0.0
 11
10.8802427438
 21
7.3375307017
 31
0.0
 11
10.8888755443
 21
7.3359553669
 31
0.0
 11
10.8973892843
 21
7.3337575137
 31
0.0
 11
10.9057442604
 21
7.3309448972
 31
0.0
 11
10.9139008047
 21
7.3275276768
 31
0.0
 11
10.9218193542
 21
7.323518544
 31
0.0
 11
10.9294605569
 21
7.318932863
 31
0.0
 11
10.9367854189
 21
7.3137888148
 31
0.0
 11
10.9437554964
 21
7.3081075362
 31
0.0
 11
10.9503331311
 21
7.3019132426
 31
0.0
 11
10.9564817288
 21
7.2952333233
 31
0.0
 11
10.9621660769
 21
7.288098399
 31
0.0
 11
10.9673526945
 21
7.2805423319
 31
0.0
 11
10.9720102055
 21
7.2726021782
 31
0.0
 11
10.9761097257
 21
7.2643180777
 31
0.0
 11
10.9796252506
 21
7.255733075
 31
0.0
 11
10.9825340292
 21
7.2468928703
 31
0.0
 11
10.9848169125
 21
7.237845503
 31
0.0
 11
10.9864586604
 21
7.2286409701
 31
0.0
 11
10.9874481957
 21
7.2193307903
 31
0.0
 11
10.9877787934
 21
7.2099674997
 31
0.0
  0
SPLINE
  5
38C
100
AcDbEntity
  8
0
100
AcDbSpline
 62
7
  6
CONTINUOUS
 70
0
 71
3
 72
30
 73
26
 74
24
 42
0.0000001
 43
0.0000001
 44
0.0000000001
 12
-0.0
 22
0.2273192889
 32
0.0
 13
0.2272819048
 23
0.0
 33
0.0
 40
0.0
 40
0.0
 40
0.0
 40
0.0
 40
0.0294557639
 40
0.0881837044
 40
0.1463686318
 40
0.2036738828
 40
0.259798538
 40
0.3144875213
 40
0.3675382388
 40
0.4188036406
 40
0.4681919813
 40
0.5156638508
 40
0.5612271994
 40
0.6049311269
 40
0.6468591333
 40
0.6871224117
 40
0.7258536073
 40
0.7632013167
 40
0.7993254691
 40
0.8343936281
 40
0.8685781684
 40
0.9020542444
 40
0.9349984319
 40
0.9675879012
 40
1.0
 40
1.0
 40
1.0
 40
1.0
 10
11.0967787513
 20
7.6319675503
 30
0.0
 10
11.0967787513
 20
7.6341995047
 30
0.0
 10
11.0968837921
 20
7.640881457
 30
0.0
 10
11.0975800987
 20
7.65195588
 30
0.0
 10
11.099236164
 20
7.6650592762
 30
0.0
 10
11.1016793151
 20
7.6778381874
 30
0.0
 10
11.1048632596
 20
7.6901795419
 30
0.0
 10
11.1087306689
 20
7.7019852794
 30
0.0
 10
11.113216315
 20
7.7131744693
 30
0.0
 10
11.1182503373
 20
7.7236842166
 30
0.0
 10
11.1237613639
 20
7.7334694403
 30
0.0
 10
11.1296792751
 20
7.7425017079
 30
0.0
 10
11.1359374676
 20
7.7507673686
 30
0.0
 10
11.1424745539
 20
7.758265238
 30
0.0
 10
11.1492354964
 20
7.7650040751
 30
0.0
 10
11.1561722215
 20
7.7710000481
 30
0.0
 10
11.1632437913
 20
7.7762743367
 30
0.0
 10
11.1704162197
 20
7.7808509691
 30
0.0
 10
11.1776620256
 20
7.784754945
 30
0.0
 10
11.1849595927
 20
7.7880106627
 30
0.0
 10
11.1922924358
 20
7.7906406422
 30
0.0
 10
11.199648308
 20
7.7926645199
 30
0.0
 10
11.2070186022
 20
7.7940982859
 30
0.0
 10
11.2143965491
 20
7.7949537299
 30
0.0
 10
11.2193231998
 20
7.7951434614
 30
0.0
 10
11.221778761
 20
7.7951434614
 30
0.0
 11
11.0967787513
 21
7.6319675503
 31
0.0
 11
11.0968840108
 21
7.6386623124
 31
0.0
 11
11.097722764
 21
7.6519837316
 31
0.0
 11
11.0993831975
 21
7.6651034578
 31
0.0
 11
11.1018322608
 21
7.6778955764
 31
0.0
 11
11.1050229889
 21
7.6902461964
 31
0.0
 11
11.1088972929
 21
7.7020567892
 31
0.0
 11
11.1133891825
 21
7.713246314
 31
0.0
 11
11.1184281049
 21
7.7237520901
 31
0.0
 11
11.1239421208
 21
7.7335295112
 31
0.0
 11
11.1298606979
 21
7.7425508021
 31
0.0
 11
11.1361169832
 21
7.7508030701
 31
0.0
 11
11.1426494931
 21
7.7582859189
 31
0.0
 11
11.1494032249
 21
7.7650088678
 31
0.0
 11
11.1563302428
 21
7.7709887777
 31
0.0
 11
11.1633898192
 21
7.7762474302
 31
0.0
 11
11.1705482247
 21
7.7808093552
 31
0.0
 11
11.1777782555
 21
7.784699955
 31
0.0
 11
11.1850585831
 21
7.7879439398
 31
0.0
 11
11.1923729875
 21
7.7905640627
 31
0.0
 11
11.1997095295
 21
7.7925801281
 31
0.0
 11
11.2070596935
 21
7.7940082417
 31
0.0
 11
11.2144175228
 21
7.794860267
 31
0.0
 11
11.221778761
 21
7.7951434614
 31
0.0
  0
SPLINE
  5
38D
100
AcDbEntity
  8
0
100
AcDbSpline
 62
7
  6
CONTINUOUS
 70
0
 71
3
 72
30
 73
26
 74
24
 42
0.0000001
 43
0.0000001
 44
0.0000000001
 12
0.2113583666
 22
0.0727765219
 32
0.0
 13
0.0727642728
 23
-0.2113227924
 33
0.0
 40
0.0
 40
0.0
 40
0.0
 40
0.0
 40
0.0286348021
 40
0.0857461154
 40
0.1423886919
 40
0.1982705819
 40
0.2531289418
 40
0.3067385085
 40
0.3589174233
 40
0.4095302727
 40
0.4584884998
 40
0.5057485755
 40
0.5513084492
 40
0.5952028537
 40
0.637498009
 40
0.6782861958
 40
0.7176805615
 40
0.7558104129
 40
0.7928171419
 40
0.828850852
 40
0.8640676725
 40
0.898627717
 40
0.9326935997
 40
0.9664294035
 40
1.0
 40
1.0
 40
1.0
 40
1.0
 10
10.8220827718
 20
8.17215737
 30
0.0
 10
10.8241001734
 20
8.1728520171
 30
0.0
 10
10.8301743025
 20
8.1748360586
 30
0.0
 10
10.8404102137
 20
8.17764784
 30
0.0
 10
10.8527932563
 20
8.1802152794
 30
0.0
 10
10.8651487186
 20
8.1819634343
 30
0.0
 10
10.8773655622
 20
8.1828976765
 30
0.0
 10
10.8893413323
 20
8.1830370175
 30
0.0
 10
10.900984801
 20
8.1824122319
 30
0.0
 10
10.9122177394
 20
8.1810635302
 30
0.0
 10
10.9229757942
 20
8.1790380045
 30
0.0
 10
10.9332085279
 20
8.176387062
 30
0.0
 10
10.9428787517
 20
8.1731640232
 30
0.0
 10
10.9519613135
 20
8.169422014
 30
0.0
 10
10.9604415144
 20
8.1652122298
 30
0.0
 10
10.9683133195
 20
8.1605826011
 30
0.0
 10
10.9755775011
 20
8.1555768551
 30
0.0
 10
10.9822398234
 20
8.1502339393
 30
0.0
 10
10.9883093461
 20
8.1445877576
 30
0.0
 10
10.9937968905
 20
8.1386671721
 30
0.0
 10
10.9987137034
 20
8.1324961875
 30
0.0
 10
11.0030702855
 20
8.1260943797
 30
0.0
 10
11.0068755149
 20
8.1194771362
 30
0.0
 10
11.0101355564
 20
8.1126571104
 30
0.0
 10
11.0119495836
 20
8.1079762813
 30
0.0
 10
11.0127638303
 20
8.1056115372
 30
0.0
 11
10.8220827718
 21
8.17215737
 31
0.0
 11
10.8281670952
 21
8.1741447234
 31
0.0
 11
10.8404757577
 21
8.1775248488
 31
0.0
 11
10.8528721016
 21
8.1800930403
 31
0.0
 11
10.8652389008
 21
8.1818399078
 31
0.0
 11
10.8774642945
 21
8.182771125
 31
0.0
 11
10.889445237
 21
8.1829061674
 31
0.0
 11
10.9010901729
 21
8.182276378
 31
0.0
 11
10.912320809
 21
8.1809225753
 31
0.0
 11
10.9230729631
 21
8.1788924421
 31
0.0
 11
10.9332965594
 21
8.1762379133
 31
0.0
 11
10.9429549063
 21
8.1730127425
 31
0.0
 11
10.952023429
 21
8.1692703799
 31
0.0
 11
10.9604880363
 21
8.1650622334
 31
0.0
 11
10.9683432911
 21
8.160436343
 31
0.0
 11
10.9755905243
 21
8.1554364569
 31
0.0
 11
10.9822360019
 21
8.1501014719
 31
0.0
 11
10.9882892182
 21
8.1444651891
 31
0.0
 11
10.9937613631
 21
8.1385563255
 31
0.0
 11
10.9986639825
 21
8.1323987312
 31
0.0
 11
11.003007836
 21
8.1260117606
 31
0.0
 11
11.0068019453
 21
8.1194107602
 31
0.0
 11
11.0100528171
 21
8.1126076445
 31
0.0
 11
11.0127638303
 21
8.1056115372
 31
0.0
  0
SPLINE
  5
38E
100
AcDbEntity
  8
0
100
AcDbSpline
 62
7
  6
CONTINUOUS
 70
0
 71
3
 72
30
 73
26
 74
24
 42
0.0000001
 43
0.0000001
 44
0.0000000001
 12
-0.0
 22
0.2235370088
 32
0.0
 13
0.2234993848
 23
0.0
 33
0.0
 40
0.0
 40
0.0
 40
0.0
 40
0.0
 40
0.0286349121
 40
0.0857462223
 40
0.142388795
 40
0.1982706805
 40
0.2531290354
 40
0.3067385965
 40
0.3589175053
 40
0.4095303484
 40
0.4584885689
 40
0.5057486379
 40
0.5513085049
 40
0.5952029027
 40
0.6374980515
 40
0.678286232
 40
0.7176805918
 40
0.7558104377
 40
0.7928171616
 40
0.828850867
 40
0.8640676835
 40
0.8986277244
 40
0.932693604
 40
0.9664294055
 40
1.0
 40
1.0
 40
1.0
 40
1.0
 10
10.378778759
 20
7.6319675503
 30
0.0
 10
10.378778759
 20
7.6341012045
 30
0.0
 10
10.3788803545
 20
7.6404903558
 30
0.0
 10
10.3795542515
 20
7.6510840354
 30
0.0
 10
10.381158216
 20
7.6636283094
 30
0.0
 10
10.38352785
 20
7.6758797723
 30
0.0
 10
10.3866219237
 20
7.6877351844
 30
0.0
 10
10.3903891055
 20
7.6991038622
 30
0.0
 10
10.3947705963
 20
7.7099095673
 30
0.0
 10
10.3997029075
 20
7.7200914242
 30
0.0
 10
10.4051205614
 20
7.7296039172
 30
0.0
 10
10.4109585306
 20
7.7384160933
 30
0.0
 10
10.4171542921
 20
7.7465101494
 30
0.0
 10
10.4236494255
 20
7.7538795998
 30
0.0
 10
10.4303907392
 20
7.760527214
 30
0.0
 10
10.4373309493
 20
7.7664628907
 30
0.0
 10
10.4444289625
 20
7.7717015961
 30
0.0
 10
10.4516498296
 20
7.7762614607
 30
0.0
 10
10.4589644434
 20
7.7801620883
 30
0.0
 10
10.4663490375
 20
7.7834231075
 30
0.0
 10
10.4737845766
 20
7.7860629674
 30
0.0
 10
10.48125597
 20
7.78809797
 30
0.0
 10
10.4887515589
 20
7.7895415191
 30
0.0
 10
10.4962613863
 20
7.7904035647
 30
0.0
 10
10.5012777871
 20
7.790594828
 30
0.0
 10
10.5037787895
 20
7.790594828
 30
0.0
 11
10.378778759
 21
7.6319675503
 31
0.0
 11
10.3788805423
 21
7.6383674355
 31
0.0
 11
10.3796918811
 21
7.6511059665
 31
0.0
 11
10.381299465
 21
7.6636630619
 31
0.0
 11
10.3836740071
 21
7.675924825
 31
0.0
 11
10.3867737247
 21
7.6877873364
 31
0.0
 11
10.3905466547
 21
7.6991595054
 31
0.0
 11
10.3949333545
 21
7.7099649687
 31
0.0
 11
10.3998697393
 21
7.720142988
 31
0.0
 11
10.4052898285
 21
7.7296484017
 31
0.0
 11
10.4111282138
 21
7.7384507706
 31
0.0
 11
10.4173221242
 21
7.7465329028
 31
0.0
 11
10.4238130211
 21
7.7538889639
 31
0.0
 11
10.4305477097
 21
7.7605223673
 31
0.0
 11
10.4374789969
 21
7.7664436123
 31
0.0
 11
10.4445659515
 21
7.7716682006
 31
0.0
 11
10.4517738357
 21
7.7762147201
 31
0.0
 11
10.4590737812
 21
7.7801031525
 31
0.0
 11
10.4664422784
 21
7.7833534276
 31
0.0
 11
10.4738605358
 21
7.7859842267
 31
0.0
 11
10.4813137563
 21
7.7880120247
 31
0.0
 11
10.4887903666
 21
7.789450348
 31
0.0
 11
10.4962812199
 21
7.7903092277
 31
0.0
 11
10.5037787895
 21
7.790594828
 31
0.0
  0
ENDSEC
  0
SECTION
  2
OBJECTS
  0
DICTIONARY
  5
C
100
AcDbDictionary
280
0
281
1
  3
ACAD_GROUP
350
D
  3
ACAD_MLINESTYLE
350
17
  3
ACAD_LAYOUT
350
1A
  3
ACAD_PLOTSETTINGS
350
19
  3
ACAD_PLOTSTYLENAME
350
E
  0
DICTIONARY
  5
D
102
{ACAD_REACTORS
330
C
102
}
100
AcDbDictionary
280
0
281
1
  0
ACDBDICTIONARYWDFLT
  5
E
102
{ACAD_REACTORS
330
C
102
}
100
AcDbDictionary
281
1
  3
Normal
350
F
100
AcDbDictionaryWithDefault
340
F
  0
DICTIONARY
  5
17
102
{ACAD_REACTORS
330
C
102
}
100
AcDbDictionary
280
0
281
1
  3
Standard
350
18
  0
DICTIONARY
  5
19
102
{ACAD_REACTORS
330
C
102
}
100
AcDbDictionary
281
1
  0
DICTIONARY
  5
1A
102
{ACAD_REACTORS
330
C
102
}
100
AcDbDictionary
281
1
  3
Layout1
350
1E
  3
Model
350
22
  0
ACDBPLACEHOLDER
  5
F
102
{ACAD_REACTORS
330
E
102
}
  0
MLINESTYLE
  5
18
102
{ACAD_REACTORS
330
17
102
}
100
AcDbMlineStyle
  2
STANDARD
 70
0
  3

 62
256
 51
90.0
 52
90.0
 71
2
 49
0.5
 62
256
  6
BYLAYER
 49
-0.5
 62
256
  6
BYLAYER
  0
LAYOUT
  5
1E
102
{ACAD_REACTORS
330
1A
102
}
100
AcDbPlotSettings
  1

  2

  4

  6

 40
0.0
 41
0.0
 42
0.0
 43
0.0
 44
0.0
 45
0.0
 46
0.0
 47
0.0
 48
0.0
 49
0.0
140
0.0
141
0.0
142
1.0
143
1.0
 70
0
 72
0
 73
0
 74
0
  7

 75
0
147
1.0
148
0.0
149
0.0
100
AcDbLayout
  1
Layout1
 70
0
 71
0
 10
0.0
 20
0.0
 11
0.0
 21
0.0
 12
0.0
 22
0.0
 32
0.0
 14
0.0
 24
0.0
 34
0.0
 15
0.0
 25
0.0
 35
0.0
146
0.0
 13
0.0
 23
0.0
 33
0.0
 16
0.0
 26
0.0
 36
0.0
 17
0.0
 27
0.0
 37
0.0
 76
0
330
1B
331
0
345
0
346
0
  0
LAYOUT
  5
22
102
{ACAD_REACTORS
330
1A
102
}
100
AcDbPlotSettings
  1

  2

  4

  6

 40
0.0
 41
0.0
 42
0.0
 43
0.0
 44
0.0
 45
0.0
 46
0.0
 47
0.0
 48
0.0
 49
0.0
140
0.0
141
0.0
142
1.0
143
1.0
 70
0
 72
0
 73
0
 74
0
  7

 75
0
147
1.0
148
0.0
149
0.0
100
AcDbLayout
  1
Model
 70
0
 71
0
 10
0.0
 20
0.0
 11
0.0
 21
0.0
 12
0.0
 22
0.0
 32
0.0
 14
0.0
 24
0.0
 34
0.0
 15
0.0
 25
0.0
 35
0.0
146
0.0
 13
0.0
 23
0.0
 33
0.0
 16
0.0
 26
0.0
 36
0.0
 17
0.0
 27
0.0
 37
0.0
 76
0
330
1F
331
0
345
0
346
0
  0
ENDSEC
  0
EOF
