999
DXF file: EB9_assy_2.dxf
999
Pro/ENGINEER 2014200 by Parametric Technology Corporation
  0
SECTION
  2
HEADER
  9
$ACADVER
  1
AC1021
  9
$DWGCODEPAGE
  3
ANSI_1252
  9
$EXTMAX
 10
22.0
 20
17.0
 30
0.0
  9
$EXTMIN
 10
0.0
 20
0.0
 30
0.0
  9
$LIMMIN
 10
0.0
 20
0.0
  9
$LIMMAX
 10
22.0
 20
17.0
  9
$VIEWCTR
 10
11.0
 20
8.5
  9
$VIEWSIZE
 40
17.0
  9
$CLAYER
  8
0
  9
$LTSCALE
 40
1.21
  9
$CELTYPE
  6
BYLAYER
  9
$DIMSCALE
 40
1.0
  9
$DIMASZ
 40
0.1875
  9
$DIMEXO
 40
0.0625
  9
$DIMDLI
 40
0.836
  9
$DIMEXE
 40
0.125
  9
$DIMCEN
 40
0.198
  9
$DIMLFAC
 40
1.0
  9
$DIMBLK
  1
_FILLED
  9
$DIMTXT
 40
0.1
  9
$DIMTOL
 70
0
  9
$DIMLIM
 70
0
  9
$DIMTFAC
 40
1.0
  9
$DIMGAP
 40
0.09
  9
$DIMDSEP
 70
46
  9
$AUNITS
 70
0
  9
$PDMODE
 70
3
  9
$PDSIZE
 40
0.3125
  9
$HANDSEED
  5
400
  9
$TILEMODE
 70
1
  9
$MEASUREMENT
 70
0
  9
$INSUNITS
 70
1
  0
ENDSEC
  0
SECTION
  2
CLASSES
  0
CLASS
  1
ACDBDICTIONARYWDFLT
  2
AcDbDictionaryWithDefault
  3
AutoCAD 2000
 90
0
 91
1
280
0
281
0
  0
CLASS
  1
ACDBPLACEHOLDER
  2
AcDbPlaceHolder
  3
AutoCAD 2000
 90
0
 91
1
280
0
281
0
  0
CLASS
  1
LAYOUT
  2
AcDbLayout
  3
AutoCAD 2000
 90
0
 91
0
280
0
281
0
  0
CLASS
  1
RASTERVARIABLES
  2
AcDbRasterVariables
  3
ISM
 90
0
 91
1
280
0
281
0
  0
CLASS
  1
IMAGEDEF
  2
AcDbRasterImageDef
  3
ISM
 90
0
 91
1
280
0
281
0
  0
CLASS
  1
IMAGEDEF_REACTOR
  2
AcDbRasterImageDefReactor
  3
ISM
 90
0
 91
1
280
0
281
0
  0
CLASS
  1
IMAGE
  2
AcDbRasterImage
  3
ISM
 90
127
 91
1
280
0
281
1
  0
CLASS
  1
TABLESTYLE
  2
AcDbTableStyle
  3
ObjectDBX Classes
 90
2047
 91
1
280
0
281
0
  0
CLASS
  1
ACAD_TABLE
  2
AcDbTable
  3
ObjectDBX Classes
 90
1025
 91
2
280
0
281
1
  0
ENDSEC
  0
SECTION
  2
TABLES
  0
TABLE
  2
VPORT
  5
8
100
AcDbSymbolTable
 70
2
  0
VPORT
  5
1F4
100
AcDbSymbolTableRecord
100
AcDbViewportTableRecord
  2
*ACTIVE
 70
0
 10
0.0
 20
0.0
 11
1.0
 21
1.0
 12
11.0
 22
8.5
 13
0.0
 23
0.0
 14
1.0
 24
1.0
 15
0.0
 25
0.0
 16
0.0
 26
0.0
 36
1.0
 17
0.0
 27
0.0
 37
0.0
 40
17.0
 41
1.2941176471
 42
50.0
 43
0.0
 44
0.0
 50
0.0
 51
0.0
 71
0
 72
100
 73
1
 74
1
 75
0
 76
0
 77
0
 78
0
  0
ENDTAB
  0
TABLE
  2
LTYPE
  5
5
100
AcDbSymbolTable
 70
6
  0
LTYPE
  5
14
100
AcDbSymbolTableRecord
100
AcDbLinetypeTableRecord
  2
BYBLOCK
 70
0
  3

 72
65
 73
0
 40
0.0
  0
LTYPE
  5
15
100
AcDbSymbolTableRecord
100
AcDbLinetypeTableRecord
  2
BYLAYER
 70
0
  3

 72
65
 73
0
 40
0.0
  0
LTYPE
  5
16
100
AcDbSymbolTableRecord
100
AcDbLinetypeTableRecord
  2
CONTINUOUS
 70
64
  3
Solid line
 72
65
 73
0
 40
0.0
  0
LTYPE
  5
1F5
100
AcDbSymbolTableRecord
100
AcDbLinetypeTableRecord
  2
CENTER
 70
64
  3
____ _ ____ _ ____ _ ____ _ ____ _ ____ _ ____
 72
65
 73
4
 40
0.6
 49
0.375
 74
0
 49
-0.075
 74
0
 49
0.075
 74
0
 49
-0.075
 74
0
  0
LTYPE
  5
1F6
100
AcDbSymbolTableRecord
100
AcDbLinetypeTableRecord
  2
HIDDEN
 70
64
  3
- - - - - - - - - - - - - - - - - - - -
 72
65
 73
2
 40
0.2
 49
0.1
 74
0
 49
-0.1
 74
0
  0
LTYPE
  5
1F7
100
AcDbSymbolTableRecord
100
AcDbLinetypeTableRecord
  2
PHANTOM
 70
64
  3
_____ _ _ _____ _ _ _____ _ _ _____
 72
65
 73
6
 40
0.8
 49
0.45
 74
0
 49
-0.05
 74
0
 49
0.1
 74
0
 49
-0.05
 74
0
 49
0.1
 74
0
 49
-0.05
 74
0
  0
LTYPE
  5
1F8
100
AcDbSymbolTableRecord
100
AcDbLinetypeTableRecord
  2
DOT
 70
64
  3
. . . . . . . . . . . . . . . . . . . .
 72
65
 73
2
 40
0.2
 49
0.1
 74
0
 49
-0.1
 74
0
  0
LTYPE
  5
1F9
100
AcDbSymbolTableRecord
100
AcDbLinetypeTableRecord
  2
DASHED
 70
64
  3
- - - - - - - - - - - - - - - - - - - -
 72
65
 73
2
 40
0.2
 49
0.1
 74
0
 49
-0.1
 74
0
  0
ENDTAB
  0
TABLE
  2
LAYER
  5
2
100
AcDbSymbolTable
 70
36
  0
LAYER
  5
10
100
AcDbSymbolTableRecord
100
AcDbLayerTableRecord
  2
0
 70
0
 62
7
  6
CONTINUOUS
370
-3
390
F
  0
LAYER
  5
1FA
100
AcDbSymbolTableRecord
100
AcDbLayerTableRecord
  2
DEFAULT_1
 70
0
 62
7
  6
CENTER
370
-3
390
F
  0
LAYER
  5
1FB
100
AcDbSymbolTableRecord
100
AcDbLayerTableRecord
  2
DEFAULT_2
 70
0
 62
8
  6
HIDDEN
370
-3
390
F
  0
LAYER
  5
1FC
100
AcDbSymbolTableRecord
100
AcDbLayerTableRecord
  2
DEFAULT_3
 70
0
 62
7
  6
PHANTOM
370
-3
390
F
  0
LAYER
  5
1FD
100
AcDbSymbolTableRecord
100
AcDbLayerTableRecord
  2
01___PRT_ALL_DTM_PLN
 70
0
 62
7
  6
CONTINUOUS
370
-3
390
F
  0
LAYER
  5
1FE
100
AcDbSymbolTableRecord
100
AcDbLayerTableRecord
  2
01___PRT_DEF_DTM_PLN
 70
0
 62
7
  6
CONTINUOUS
370
-3
390
F
  0
LAYER
  5
1FF
100
AcDbSymbolTableRecord
100
AcDbLayerTableRecord
  2
02___PRT_ALL_AXES
 70
0
 62
7
  6
CONTINUOUS
370
-3
390
F
  0
LAYER
  5
200
100
AcDbSymbolTableRecord
100
AcDbLayerTableRecord
  2
03___PRT_ALL_CURVES
 70
0
 62
7
  6
CONTINUOUS
370
-3
390
F
  0
LAYER
  5
201
100
AcDbSymbolTableRecord
100
AcDbLayerTableRecord
  2
04___PRT_ALL_DTM_PNT
 70
0
 62
7
  6
CONTINUOUS
370
-3
390
F
  0
LAYER
  5
202
100
AcDbSymbolTableRecord
100
AcDbLayerTableRecord
  2
05___PRT_ALL_DTM_CSYS
 70
0
 62
7
  6
CONTINUOUS
370
-3
390
F
  0
LAYER
  5
203
100
AcDbSymbolTableRecord
100
AcDbLayerTableRecord
  2
05___PRT_DEF_DTM_CSYS
 70
0
 62
7
  6
CONTINUOUS
370
-3
390
F
  0
LAYER
  5
204
100
AcDbSymbolTableRecord
100
AcDbLayerTableRecord
  2
06___PRT_ALL_SURFS
 70
0
 62
7
  6
CONTINUOUS
370
-3
390
F
  0
LAYER
  5
205
100
AcDbSymbolTableRecord
100
AcDbLayerTableRecord
  2
DATUM_PLANES
 70
0
 62
7
  6
CONTINUOUS
370
-3
390
F
  0
LAYER
  5
206
100
AcDbSymbolTableRecord
100
AcDbLayerTableRecord
  2
DIMENSIONS
 70
0
 62
7
  6
CONTINUOUS
370
-3
390
F
  0
LAYER
  5
207
100
AcDbSymbolTableRecord
100
AcDbLayerTableRecord
  2
PARAMETERDIMENSIONS
 70
0
 62
7
  6
CONTINUOUS
370
-3
390
F
  0
LAYER
  5
208
100
AcDbSymbolTableRecord
100
AcDbLayerTableRecord
  2
PORT_AREAS
 70
0
 62
7
  6
CONTINUOUS
370
-3
390
F
  0
LAYER
  5
209
100
AcDbSymbolTableRecord
100
AcDbLayerTableRecord
  2
SUNNBOMCOSMETIC
 70
0
 62
7
  6
CONTINUOUS
370
-3
390
F
  0
LAYER
  5
20A
100
AcDbSymbolTableRecord
100
AcDbLayerTableRecord
  2
SUNNBOMSTAMPING
 70
0
 62
7
  6
CONTINUOUS
370
-3
390
F
  0
LAYER
  5
20B
100
AcDbSymbolTableRecord
100
AcDbLayerTableRecord
  2
THREADS
 70
0
 62
7
  6
CONTINUOUS
370
-3
390
F
  0
ENDTAB
  0
TABLE
  2
STYLE
  5
3
100
AcDbSymbolTable
 70
1
  0
STYLE
  5
11
100
AcDbSymbolTableRecord
100
AcDbTextStyleTableRecord
  2
STANDARD
 70
0
 40
0.0
 41
0.8
 50
0.0
 71
0
 42
0.2
  3
txt
  4

  0
STYLE
  5
20C
100
AcDbSymbolTableRecord
100
AcDbTextStyleTableRecord
  2
TEXTSTYLE_1
 70
0
 40
0.0
 41
0.8
 50
0.0
 71
0
 42
0.2
  3
gdt
  4

  0
ENDTAB
  0
TABLE
  2
VIEW
  5
6
100
AcDbSymbolTable
 70
0
  0
ENDTAB
  0
TABLE
  2
UCS
  5
7
100
AcDbSymbolTable
 70
0
  0
ENDTAB
  0
TABLE
  2
APPID
  5
9
100
AcDbSymbolTable
 70
1
  0
APPID
  5
20D
100
AcDbSymbolTableRecord
100
AcDbRegAppTableRecord
  2
ACAD
 70
0
  0
ENDTAB
  0
TABLE
  2
BLOCK_RECORD
  5
1
100
AcDbSymbolTable
 70
0
  0
BLOCK_RECORD
  5
20E
100
AcDbSymbolTableRecord
100
AcDbBlockTableRecord
  2
*Model_Space
  0
BLOCK_RECORD
  5
20F
100
AcDbSymbolTableRecord
100
AcDbBlockTableRecord
  2
*Paper_Space
  0
BLOCK_RECORD
  5
210
100
AcDbSymbolTableRecord
100
AcDbBlockTableRecord
  2
SUN_FIRST_THIRD_ANGLE_BL0
  0
BLOCK_RECORD
  5
211
100
AcDbSymbolTableRecord
100
AcDbBlockTableRecord
  2
*T1
  0
BLOCK_RECORD
  5
212
100
AcDbSymbolTableRecord
100
AcDbBlockTableRecord
  2
*T2
  0
ENDTAB
  0
TABLE
  2
DIMSTYLE
  5
A
100
AcDbSymbolTable
 70
1
100
AcDbDimStyleTable
 71
0
  0
DIMSTYLE
105
213
100
AcDbSymbolTableRecord
100
AcDbDimStyleTableRecord
  2
STANDARD
 70
0
  3

  4

 40
1.0
 41
0.1875
 42
0.0625
 43
0.38
 44
0.125
 45
0.0
 46
0.0
 47
0.001
 48
0.001
140
0.1
141
0.09
142
0.0
143
25.4
144
1.0
145
0.0
146
1.0
147
0.09
 71
0.0
 72
0.0
 73
1
 74
1
 75
0
 76
0
 77
0
 78
4
170
0
171
2
172
0
173
0
174
0
175
0
176
0
177
0
178
0
270
2
271
3
272
3
273
2
274
2
275
0
280
0
281
0
282
0
283
1
284
4
285
0
286
0
287
3
288
0
340
11
278
46
  0
ENDTAB
  0
ENDSEC
  0
SECTION
  2
BLOCKS
  0
BLOCK
  5
20
100
AcDbEntity
  8
0
100
AcDbBlockBegin
  2
*Model_Space
 70
0
 10
0.0
 20
0.0
 30
0.0
  3
*Model_Space
  1

  0
ENDBLK
  5
21
100
AcDbEntity
  8
0
100
AcDbBlockEnd
  0
BLOCK
  5
1C
100
AcDbEntity
  8
0
100
AcDbBlockBegin
  2
*Paper_Space
 70
0
 10
0.0
 20
0.0
 30
0.0
  3
*Paper_Space
  1

  0
ENDBLK
  5
1D
100
AcDbEntity
  8
0
100
AcDbBlockEnd
  0
BLOCK
  5
214
100
AcDbEntity
  8
0
100
AcDbBlockBegin
 62
2
  6
CONTINUOUS
  2
SUN_FIRST_THIRD_ANGLE_BL0
 70
64
 10
20.4816717061
 20
1.2289683772
  3
SUN_FIRST_THIRD_ANGLE_BL0
  1

  0
TEXT
  5
215
100
AcDbEntity
  8
0
100
AcDbText
 62
2
  6
CONTINUOUS
 10
19.4750896608
 20
1.4136269581
  7
STANDARD
 40
0.08
  1
FIRST ANGLE
 41
0.8
 72
0
100
AcDbText
  0
TEXT
  5
216
100
AcDbEntity
  8
0
100
AcDbText
 62
2
  6
CONTINUOUS
 10
20.7842537513
 20
1.4047600029
  7
STANDARD
 40
0.08
  1
THIRD ANGLE
 41
0.8
 72
0
100
AcDbText
  0
LINE
  5
217
100
AcDbEntity
  8
0
100
AcDbLine
 62
7
  6
CONTINUOUS
 10
19.4767170086
 20
1.1727031207
 11
19.6334271527
 21
1.1717972817
  0
LINE
  5
218
100
AcDbEntity
  8
0
100
AcDbLine
 62
7
  6
CONTINUOUS
 10
19.6596964832
 20
1.1717972817
 11
19.6950230232
 21
1.171593082
  0
LINE
  5
219
100
AcDbEntity
  8
0
100
AcDbLine
 62
7
  6
CONTINUOUS
 10
19.7194818561
 20
1.1708914427
 11
19.8852396156
 21
1.1699333054
  0
LINE
  5
21A
100
AcDbEntity
  8
0
100
AcDbLine
 62
7
  6
CONTINUOUS
 10
19.4758111696
 20
1.2723454088
 11
19.88525039
 21
1.3511534004
  0
LINE
  5
21B
100
AcDbEntity
  8
0
100
AcDbLine
 62
7
  6
CONTINUOUS
 10
19.88525039
 20
1.3511534004
 11
19.8831348489
 21
0.9851647912
  0
LINE
  5
21C
100
AcDbEntity
  8
0
100
AcDbLine
 62
7
  6
CONTINUOUS
 10
19.8831348489
 20
0.9851647912
 11
19.4767170086
 21
1.0658141206
  0
LINE
  5
21D
100
AcDbEntity
  8
0
100
AcDbLine
 62
7
  6
CONTINUOUS
 10
19.4767170086
 20
1.0658141206
 11
19.4779056764
 21
1.2714536432
  0
CIRCLE
  5
21E
100
AcDbEntity
  8
0
100
AcDbCircle
 62
7
  6
CONTINUOUS
 10
20.2068232291
 20
1.1717972817
 40
0.175742101
  0
CIRCLE
  5
21F
100
AcDbEntity
  8
0
100
AcDbCircle
 62
7
  6
CONTINUOUS
 10
20.2068232291
 20
1.1717972817
 40
0.1005522074
  0
LINE
  5
220
100
AcDbEntity
  8
0
100
AcDbLine
 62
7
  6
CONTINUOUS
 10
20.2077290681
 20
1.3756110529
 11
20.2071171714
 21
1.2379342989
  0
LINE
  5
221
100
AcDbEntity
  8
0
100
AcDbLine
 62
7
  6
CONTINUOUS
 10
20.2077290681
 20
1.2016899681
 11
20.2074674401
 21
1.1428236749
  0
LINE
  5
222
100
AcDbEntity
  8
0
100
AcDbLine
 62
7
  6
CONTINUOUS
 10
20.208634907
 20
1.101141841
 11
20.2080230104
 21
0.963465087
  0
LINE
  5
223
100
AcDbEntity
  8
0
100
AcDbLine
 62
7
  6
CONTINUOUS
 10
20.0066328138
 20
1.1745147986
 11
20.1443095678
 21
1.1739029019
  0
LINE
  5
224
100
AcDbEntity
  8
0
100
AcDbLine
 62
7
  6
CONTINUOUS
 10
20.1832714155
 20
1.1727031207
 11
20.238153505
 21
1.172335442
  0
LINE
  5
225
100
AcDbEntity
  8
0
100
AcDbLine
 62
7
  6
CONTINUOUS
 10
20.2756669918
 20
1.1717972817
 11
20.407916871
 21
1.1712095044
  0
CIRCLE
  5
226
100
AcDbEntity
  8
0
100
AcDbCircle
 62
7
  6
CONTINUOUS
 10
20.7509457401
 20
1.1693297793
 40
0.1722024983
  0
CIRCLE
  5
227
100
AcDbEntity
  8
0
100
AcDbCircle
 62
7
  6
CONTINUOUS
 10
20.7509457401
 20
1.1693297793
 40
0.0985164967
  0
LINE
  5
228
100
AcDbEntity
  8
0
100
AcDbLine
 62
7
  6
CONTINUOUS
 10
20.7169767782
 20
1.170462078
 11
20.7825395137
 21
1.1682766535
  0
LINE
  5
229
100
AcDbEntity
  8
0
100
AcDbLine
 62
7
  6
CONTINUOUS
 10
20.8177513651
 20
1.1693297793
 11
20.947965719
 21
1.1693297793
  0
LINE
  5
22A
100
AcDbEntity
  8
0
100
AcDbLine
 62
7
  6
CONTINUOUS
 10
20.6875370113
 20
1.170462078
 11
20.5573226574
 21
1.170462078
  0
LINE
  5
22B
100
AcDbEntity
  8
0
100
AcDbLine
 62
7
  6
CONTINUOUS
 10
20.7486811426
 20
1.1987695462
 11
20.7486811426
 21
1.1432869085
  0
LINE
  5
22C
100
AcDbEntity
  8
0
100
AcDbLine
 62
7
  6
CONTINUOUS
 10
20.7498134414
 20
1.1059210505
 11
20.7498134414
 21
0.9757066966
  0
LINE
  5
22D
100
AcDbEntity
  8
0
100
AcDbLine
 62
7
  6
CONTINUOUS
 10
20.7486811426
 20
1.2338708068
 11
20.7486811426
 21
1.3640851607
  0
LINE
  5
22E
100
AcDbEntity
  8
0
100
AcDbLine
 62
7
  6
CONTINUOUS
 10
21.0702539817
 20
1.2701043662
 11
21.4790138229
 21
1.3448360823
  0
LINE
  5
22F
100
AcDbEntity
  8
0
100
AcDbLine
 62
7
  6
CONTINUOUS
 10
21.4790138229
 20
1.3448360823
 11
21.4790138229
 21
0.9779712941
  0
LINE
  5
230
100
AcDbEntity
  8
0
100
AcDbLine
 62
7
  6
CONTINUOUS
 10
21.4790138229
 20
0.9779712941
 11
21.069121683
 21
1.0617614
  0
LINE
  5
231
100
AcDbEntity
  8
0
100
AcDbLine
 62
7
  6
CONTINUOUS
 10
21.0702539817
 20
1.2701043662
 11
21.069121683
 21
1.0617614
  0
LINE
  5
232
100
AcDbEntity
  8
0
100
AcDbLine
 62
7
  6
CONTINUOUS
 10
21.4790138229
 20
1.1693297793
 11
21.3159628059
 21
1.1693297793
  0
LINE
  5
233
100
AcDbEntity
  8
0
100
AcDbLine
 62
7
  6
CONTINUOUS
 10
21.2876553377
 20
1.1693297793
 11
21.2502894796
 21
1.1693297793
  0
LINE
  5
234
100
AcDbEntity
  8
0
100
AcDbLine
 62
7
  6
CONTINUOUS
 10
21.2208497126
 20
1.1659328831
 11
21.0713862804
 21
1.1659328831
  0
LINE
  5
235
100
AcDbEntity
  8
0
100
AcDbLine
 62
7
  6
CONTINUOUS
 10
20.4796138713
 20
1.5284908897
 11
20.4766766948
 21
0.9294458646
  0
ENDBLK
  5
236
100
AcDbEntity
  8
0
  6
BYBLOCK
 62
0
100
AcDbBlockEnd
  0
BLOCK
  5
237
100
AcDbEntity
  8
0
100
AcDbBlockBegin
  2
*T1
 70
1
 10
0.0
 20
0.0
  3
*T1
  1

  0
LINE
  5
238
100
AcDbEntity
  8
0
100
AcDbLine
 62
2
  6
CONTINUOUS
 10
9.275
 20
0.0
 11
-0.0
 21
0.0
  0
LINE
  5
239
100
AcDbEntity
  8
0
100
AcDbLine
 62
2
  6
CONTINUOUS
 10
9.275
 20
0.0
 11
9.275
 21
1.25
  0
LINE
  5
23A
100
AcDbEntity
  8
0
100
AcDbLine
 62
2
  6
CONTINUOUS
 10
9.275
 20
0.625
 11
-0.0
 21
0.625
  0
LINE
  5
23B
100
AcDbEntity
  8
0
100
AcDbLine
 62
2
  6
CONTINUOUS
 10
9.275
 20
1.25
 11
-0.0
 21
1.25
  0
LINE
  5
23C
100
AcDbEntity
  8
0
100
AcDbLine
 62
2
  6
CONTINUOUS
 10
6.8
 20
0.0
 11
6.8
 21
1.25
  0
LINE
  5
23D
100
AcDbEntity
  8
0
100
AcDbLine
 62
2
  6
CONTINUOUS
 10
6.4
 20
0.0
 11
6.4
 21
0.625
  0
LINE
  5
23E
100
AcDbEntity
  8
0
100
AcDbLine
 62
2
  6
CONTINUOUS
 10
5.9
 20
0.0
 11
5.9
 21
0.625
  0
LINE
  5
23F
100
AcDbEntity
  8
0
100
AcDbLine
 62
2
  6
CONTINUOUS
 10
5.2
 20
0.0
 11
5.2
 21
0.625
  0
LINE
  5
240
100
AcDbEntity
  8
0
100
AcDbLine
 62
2
  6
CONTINUOUS
 10
4.1
 20
0.0
 11
4.1
 21
1.25
  0
LINE
  5
241
100
AcDbEntity
  8
0
100
AcDbLine
 62
2
  6
CONTINUOUS
 10
-0.0
 20
0.0
 11
-0.0
 21
1.25
  0
MTEXT
  5
242
100
AcDbEntity
  8
0
100
AcDbMText
 62
2
  6
CONTINUOUS
  7
STANDARD
 71
2
 72
1
 10
6.6
 20
0.325
 30
0.0
 11
1.0
 21
0.0
 31
0.0
 44
0.9
  1
2
 40
0.125
 41
0.2
  0
MTEXT
  5
243
100
AcDbEntity
  8
0
100
AcDbMText
 62
2
  6
CONTINUOUS
  7
STANDARD
 71
2
 72
1
 10
6.15
 20
0.325
 30
0.0
 11
1.0
 21
0.0
 31
0.0
 44
0.9
  1
C
 40
0.125
 41
0.2
  0
MTEXT
  5
244
100
AcDbEntity
  8
0
100
AcDbMText
 62
2
  6
CONTINUOUS
  7
STANDARD
 71
2
 72
1
 10
5.55
 20
0.325
 30
0.0
 11
1.0
 21
0.0
 31
0.0
 44
0.9
  1
1.000
 40
0.125
 41
1.0
  0
MTEXT
  5
245
100
AcDbEntity
  8
0
100
AcDbMText
 62
2
  6
CONTINUOUS
  7
STANDARD
 71
2
 72
1
 10
4.65
 20
0.325
 30
0.0
 11
1.0
 21
0.0
 31
0.0
 44
0.9
  1
Aug-23-23
 40
0.125
 41
1.8
  0
MTEXT
  5
246
100
AcDbEntity
  8
0
100
AcDbMText
 62
2
  6
CONTINUOUS
  7
STANDARD
 71
2
 72
1
 10
2.05
 20
0.4625
 30
0.0
 11
1.0
 21
0.0
 31
0.0
 44
0.9
  1
T-11A Sandwich ISO 03\P(See Technical Data for Body Features)
 40
0.125
 41
7.6
  0
MTEXT
  5
247
100
AcDbEntity
  8
0
100
AcDbMText
 62
2
  6
CONTINUOUS
  7
STANDARD
 71
1
 72
1
 10
6.45
 20
0.5625
 30
0.0
 11
1.0
 21
0.0
 31
0.0
 44
0.9
  1
SHEET
 40
0.06
 41
0.48
  0
MTEXT
  5
248
100
AcDbEntity
  8
0
100
AcDbMText
 62
2
  6
CONTINUOUS
  7
STANDARD
 71
1
 72
1
 10
5.95
 20
0.5625
 30
0.0
 11
1.0
 21
0.0
 31
0.0
 44
0.9
  1
DWG SIZE
 40
0.06
 41
0.768
  0
MTEXT
  5
249
100
AcDbEntity
  8
0
100
AcDbMText
 62
2
  6
CONTINUOUS
  7
STANDARD
 71
1
 72
1
 10
5.25
 20
0.5625
 30
0.0
 11
1.0
 21
0.0
 31
0.0
 44
0.9
  1
SCALE
 40
0.06
 41
0.48
  0
MTEXT
  5
24A
100
AcDbEntity
  8
0
100
AcDbMText
 62
2
  6
CONTINUOUS
  7
STANDARD
 71
1
 72
1
 10
4.15
 20
0.5625
 30
0.0
 11
1.0
 21
0.0
 31
0.0
 44
0.9
  1
DATE
 40
0.06
 41
0.384
  0
MTEXT
  5
24B
100
AcDbEntity
  8
0
100
AcDbMText
 62
2
  6
CONTINUOUS
  7
STANDARD
 71
1
 72
1
 10
0.05
 20
0.5625
 30
0.0
 11
1.0
 21
0.0
 31
0.0
 44
0.9
  1
DESCRIPTION
 40
0.06
 41
1.056
  0
MTEXT
  5
24C
100
AcDbEntity
  8
0
100
AcDbMText
 62
2
  6
CONTINUOUS
  7
STANDARD
 71
2
 72
1
 10
5.45
 20
1.0375
 30
0.0
 11
1.0
 21
0.0
 31
0.0
 44
0.9
  1
ALL DIMENSIONS IN INCH\PVIEWS ARE THIRD ANGLE
 40
0.12
 41
4.224
  0
MTEXT
  5
24D
100
AcDbEntity
  8
0
100
AcDbMText
 62
2
  6
CONTINUOUS
  7
STANDARD
 71
2
 72
1
 10
2.05
 20
0.95
 30
0.0
 11
1.0
 21
0.0
 31
0.0
 44
0.9
  1
EB9
 40
0.125
 41
0.6
  0
MTEXT
  5
24E
100
AcDbEntity
  8
0
100
AcDbMText
 62
2
  6
CONTINUOUS
  7
STANDARD
 71
1
 72
1
 10
0.05
 20
1.1875
 30
0.0
 11
1.0
 21
0.0
 31
0.0
 44
0.9
  1
MODEL
 40
0.06
 41
0.48
  0
ENDBLK
  5
24F
100
AcDbEntity
  8
0
  6
BYBLOCK
 62
0
100
AcDbBlockEnd
  0
BLOCK
  5
250
100
AcDbEntity
  8
0
100
AcDbBlockBegin
  2
*T2
 70
1
 10
0.0
 20
0.0
  3
*T2
  1

  0
LINE
  5
251
100
AcDbEntity
  8
0
100
AcDbLine
 62
2
  6
CONTINUOUS
 10
0.0
 20
0.0
 11
9.055
 21
0.0
  0
LINE
  5
252
100
AcDbEntity
  8
0
100
AcDbLine
 62
2
  6
CONTINUOUS
 10
0.0
 20
0.0
 11
0.0
 21
-2.094
  0
LINE
  5
253
100
AcDbEntity
  8
0
100
AcDbLine
 62
2
  6
CONTINUOUS
 10
0.0
 20
-0.344
 11
9.055
 21
-0.344
  0
LINE
  5
254
100
AcDbEntity
  8
0
100
AcDbLine
 62
2
  6
CONTINUOUS
 10
0.0
 20
-0.594
 11
9.055
 21
-0.594
  0
LINE
  5
255
100
AcDbEntity
  8
0
100
AcDbLine
 62
2
  6
CONTINUOUS
 10
0.0
 20
-0.844
 11
9.055
 21
-0.844
  0
LINE
  5
256
100
AcDbEntity
  8
0
100
AcDbLine
 62
2
  6
CONTINUOUS
 10
0.0
 20
-1.094
 11
9.055
 21
-1.094
  0
LINE
  5
257
100
AcDbEntity
  8
0
100
AcDbLine
 62
2
  6
CONTINUOUS
 10
0.0
 20
-1.344
 11
9.055
 21
-1.344
  0
LINE
  5
258
100
AcDbEntity
  8
0
100
AcDbLine
 62
2
  6
CONTINUOUS
 10
0.0
 20
-1.594
 11
9.055
 21
-1.594
  0
LINE
  5
259
100
AcDbEntity
  8
0
100
AcDbLine
 62
2
  6
CONTINUOUS
 10
0.0
 20
-1.844
 11
9.055
 21
-1.844
  0
LINE
  5
25A
100
AcDbEntity
  8
0
100
AcDbLine
 62
2
  6
CONTINUOUS
 10
0.0
 20
-2.094
 11
9.055
 21
-2.094
  0
LINE
  5
25B
100
AcDbEntity
  8
0
100
AcDbLine
 62
2
  6
CONTINUOUS
 10
3.055
 20
0.0
 11
3.055
 21
-2.094
  0
LINE
  5
25C
100
AcDbEntity
  8
0
100
AcDbLine
 62
2
  6
CONTINUOUS
 10
9.055
 20
0.0
 11
9.055
 21
-2.094
  0
MTEXT
  5
25D
100
AcDbEntity
  8
0
100
AcDbMText
 62
2
  6
CONTINUOUS
  7
STANDARD
 71
2
 72
1
 10
1.5275
 20
-0.0995
 30
0.0
 11
1.0
 21
0.0
 31
0.0
 44
0.9
  1
Technical Data
 40
0.145
 41
3.248
  0
MTEXT
  5
25E
100
AcDbEntity
  8
0
100
AcDbMText
 62
2
  6
CONTINUOUS
  7
STANDARD
 71
2
 72
1
 10
4.555
 20
-0.0995
 30
0.0
 11
1.0
 21
0.0
 31
0.0
 44
0.9
  1
U.S. Units
 40
0.145
 41
2.32
  0
MTEXT
  5
25F
100
AcDbEntity
  8
0
100
AcDbMText
 62
2
  6
CONTINUOUS
  7
STANDARD
 71
2
 72
1
 10
7.555
 20
-0.0995
 30
0.0
 11
1.0
 21
0.0
 31
0.0
 44
0.9
  1
Metric Units
 40
0.145
 41
2.784
  0
MTEXT
  5
260
100
AcDbEntity
  8
0
100
AcDbMText
 62
2
  6
CONTINUOUS
  7
STANDARD
 71
2
 72
1
 10
1.5275
 20
-0.4065
 30
0.0
 11
1.0
 21
0.0
 31
0.0
 44
0.9
  1
Cavity
 40
0.125
 41
1.2
  0
MTEXT
  5
261
100
AcDbEntity
  8
0
100
AcDbMText
 62
2
  6
CONTINUOUS
  7
STANDARD
 71
2
 72
1
 10
6.055
 20
-0.4065
 30
0.0
 11
1.0
 21
0.0
 31
0.0
 44
0.9
  1
T-11A
 40
0.125
 41
1.0
  0
MTEXT
  5
262
100
AcDbEntity
  8
0
100
AcDbMText
 62
2
  6
CONTINUOUS
  7
STANDARD
 71
2
 72
1
 10
1.5275
 20
-0.6565
 30
0.0
 11
1.0
 21
0.0
 31
0.0
 44
0.9
  1
Body Features
 40
0.125
 41
2.6
  0
MTEXT
  5
263
100
AcDbEntity
  8
0
100
AcDbMText
 62
2
  6
CONTINUOUS
  7
STANDARD
 71
2
 72
1
 10
6.055
 20
-0.6565
 30
0.0
 11
1.0
 21
0.0
 31
0.0
 44
0.9
  1
Reducer on A and B with reverse flow check
 40
0.125
 41
8.4
  0
MTEXT
  5
264
100
AcDbEntity
  8
0
100
AcDbMText
 62
2
  6
CONTINUOUS
  7
STANDARD
 71
2
 72
1
 10
1.5275
 20
-0.9065
 30
0.0
 11
1.0
 21
0.0
 31
0.0
 44
0.9
  1
Body Type
 40
0.125
 41
1.8
  0
MTEXT
  5
265
100
AcDbEntity
  8
0
100
AcDbMText
 62
2
  6
CONTINUOUS
  7
STANDARD
 71
2
 72
1
 10
6.055
 20
-0.9065
 30
0.0
 11
1.0
 21
0.0
 31
0.0
 44
0.9
  1
Sandwich
 40
0.125
 41
1.6
  0
MTEXT
  5
266
100
AcDbEntity
  8
0
100
AcDbMText
 62
2
  6
CONTINUOUS
  7
STANDARD
 71
2
 72
1
 10
1.5275
 20
-1.1565
 30
0.0
 11
1.0
 21
0.0
 31
0.0
 44
0.9
  1
Interface
 40
0.125
 41
1.8
  0
MTEXT
  5
267
100
AcDbEntity
  8
0
100
AcDbMText
 62
2
  6
CONTINUOUS
  7
STANDARD
 71
2
 72
1
 10
6.055
 20
-1.1565
 30
0.0
 11
1.0
 21
0.0
 31
0.0
 44
0.9
  1
ISO 03
 40
0.125
 41
1.2
  0
MTEXT
  5
268
100
AcDbEntity
  8
0
100
AcDbMText
 62
2
  6
CONTINUOUS
  7
STANDARD
 71
2
 72
1
 10
1.5275
 20
-1.4065
 30
0.0
 11
1.0
 21
0.0
 31
0.0
 44
0.9
  1
Open Cavity Quantity
 40
0.125
 41
4.0
  0
MTEXT
  5
269
100
AcDbEntity
  8
0
100
AcDbMText
 62
2
  6
CONTINUOUS
  7
STANDARD
 71
2
 72
1
 10
6.055
 20
-1.4065
 30
0.0
 11
1.0
 21
0.0
 31
0.0
 44
0.9
  1
2
 40
0.125
 41
0.2
  0
MTEXT
  5
26A
100
AcDbEntity
  8
0
100
AcDbMText
 62
2
  6
CONTINUOUS
  7
STANDARD
 71
2
 72
1
 10
1.5275
 20
-1.6565
 30
0.0
 11
1.0
 21
0.0
 31
0.0
 44
0.9
  1
Stack Height
 40
0.125
 41
2.4
  0
MTEXT
  5
26B
100
AcDbEntity
  8
0
100
AcDbMText
 62
2
  6
CONTINUOUS
  7
STANDARD
 71
2
 72
1
 10
4.555
 20
-1.6565
 30
0.0
 11
1.0
 21
0.0
 31
0.0
 44
0.9
  1
2.49 in.
 40
0.125
 41
1.6
  0
MTEXT
  5
26C
100
AcDbEntity
  8
0
100
AcDbMText
 62
2
  6
CONTINUOUS
  7
STANDARD
 71
2
 72
1
 10
7.555
 20
-1.6565
 30
0.0
 11
1.0
 21
0.0
 31
0.0
 44
0.9
  1
63 mm
 40
0.125
 41
1.0
  0
MTEXT
  5
26D
100
AcDbEntity
  8
0
100
AcDbMText
 62
2
  6
CONTINUOUS
  7
STANDARD
 71
2
 72
1
 10
1.5275
 20
-1.9065
 30
0.0
 11
1.0
 21
0.0
 31
0.0
 44
0.9
  1
Weight
 40
0.125
 41
1.2
  0
MTEXT
  5
26E
100
AcDbEntity
  8
0
100
AcDbMText
 62
2
  6
CONTINUOUS
  7
STANDARD
 71
2
 72
1
 10
4.555
 20
-1.9065
 30
0.0
 11
1.0
 21
0.0
 31
0.0
 44
0.9
  1
2.105 lb.
 40
0.125
 41
1.8
  0
MTEXT
  5
26F
100
AcDbEntity
  8
0
100
AcDbMText
 62
2
  6
CONTINUOUS
  7
STANDARD
 71
2
 72
1
 10
7.555
 20
-1.9065
 30
0.0
 11
1.0
 21
0.0
 31
0.0
 44
0.9
  1
0,955 kg.
 40
0.125
 41
1.8
  0
ENDBLK
  5
270
100
AcDbEntity
  8
0
  6
BYBLOCK
 62
0
100
AcDbBlockEnd
  0
ENDSEC
  0
SECTION
  2
ENTITIES
  0
IMAGE
  5
271
100
AcDbEntity
  8
0
100
AcDbRasterImage
 62
7
  6
CONTINUOUS
 10
19.2297077316
 20
0.3094318264
 30
0.0
 11
0.0066666667
 21
0.0
 31
0.0
 12
0.0
 22
0.0066666667
 32
0.0
 13
369.0
 23
92.0
340
       3FD
 70
9
280
0
281
50
282
50
283
0
360
       3F7
 71
1
 91
2
 14
-0.5
 24
-0.5
 14
368.5
 24
91.5
  0
INSERT
  5
272
100
AcDbEntity
  8
0
100
AcDbBlockReference
 62
2
  6
CONTINUOUS
  2
SUN_FIRST_THIRD_ANGLE_BL0
 10
20.4816717061
 20
1.2289683772
  0
ACAD_TABLE
  5
273
100
AcDbEntity
  8
0
 62
2
  6
CONTINUOUS
100
AcDbBlockReference
  2
*T1
 10
12.42375
 20
0.30125
 30
0.0
100
AcDbTable
342
       3FF
343
211
 11
1.0
 21
0.0
 31
0.0
 90
6
 91
4
 92
6
 93
20
 94
0
 95
0
 96
0
 70
1
 41
0.0
141
0.525
141
0.1
141
0.525
141
0.1
142
4.1
142
1.1
142
0.7
142
0.5
142
0.4
142
2.475
171
1
172
0
173
0
174
0
175
1
176
1
 91
33
178
0
145
0.0
301
CELL_VALUE
 90
4
  1
T-11A Sandwich ISO 03\P(See Technical Data for Body Features)
304
ACVALUE_END
170
2
140
0.125
171
1
172
0
173
0
174
0
175
1
176
1
 91
33
178
0
145
0.0
301
CELL_VALUE
 90
4
  1
Aug-23-23
304
ACVALUE_END
170
5
140
0.125
171
1
172
0
173
0
174
0
175
1
176
1
 91
33
178
0
145
0.0
301
CELL_VALUE
 90
4
  1
1.000
304
ACVALUE_END
170
5
140
0.125
171
1
172
0
173
0
174
0
175
1
176
1
 91
33
178
0
145
0.0
301
CELL_VALUE
 90
4
  1
C
304
ACVALUE_END
170
5
140
0.125
171
1
172
0
173
0
174
0
175
1
176
1
 91
33
178
0
145
0.0
301
CELL_VALUE
 90
4
  1
2
304
ACVALUE_END
170
5
140
0.125
171
1
172
0
173
0
174
0
175
1
176
1
 91
33
178
0
145
0.0
301
CELL_VALUE
 90
4
  1
 
304
ACVALUE_END
170
1
140
0.125
171
1
172
0
173
0
174
0
175
1
176
1
 91
33
178
0
145
0.0
301
CELL_VALUE
 90
4
  1
DESCRIPTION
304
ACVALUE_END
170
1
140
0.06
171
1
172
0
173
0
174
0
175
1
176
1
 91
33
178
0
145
0.0
301
CELL_VALUE
 90
4
  1
DATE
304
ACVALUE_END
170
1
140
0.06
171
1
172
0
173
0
174
0
175
1
176
1
 91
33
178
0
145
0.0
301
CELL_VALUE
 90
4
  1
SCALE
304
ACVALUE_END
170
1
140
0.06
171
1
172
0
173
0
174
0
175
1
176
1
 91
33
178
0
145
0.0
301
CELL_VALUE
 90
4
  1
DWG SIZE
304
ACVALUE_END
170
1
140
0.06
171
1
172
0
173
0
174
0
175
1
176
1
 91
33
178
0
145
0.0
301
CELL_VALUE
 90
4
  1
SHEET
304
ACVALUE_END
170
1
140
0.06
171
1
172
0
173
0
174
0
175
1
176
1
 91
33
178
0
145
0.0
301
CELL_VALUE
 90
4
  1
 
304
ACVALUE_END
170
1
140
0.125
171
1
172
0
173
0
174
0
175
1
176
1
 91
33
178
0
145
0.0
301
CELL_VALUE
 90
4
  1
EB9
304
ACVALUE_END
170
5
140
0.125
171
1
172
0
173
0
174
0
175
4
176
1
 91
33
178
0
145
0.0
301
CELL_VALUE
 90
4
  1
ALL DIMENSIONS IN INCH\PVIEWS ARE THIRD ANGLE
304
ACVALUE_END
170
5
140
0.12
171
1
172
0
173
1
174
0
175
1
176
1
 91
1
178
0
145
0.0
170
1
171
1
172
0
173
1
174
0
175
1
176
1
 91
1
178
0
145
0.0
170
1
171
1
172
0
173
1
174
0
175
1
176
1
 91
1
178
0
145
0.0
170
5
171
1
172
0
173
0
174
0
175
1
176
1
 91
33
178
0
145
0.0
301
CELL_VALUE
 90
4
  1
 
304
ACVALUE_END
170
1
140
0.125
171
1
172
0
173
0
174
0
175
1
176
1
 91
33
178
0
145
0.0
301
CELL_VALUE
 90
4
  1
MODEL
304
ACVALUE_END
170
1
140
0.06
171
1
172
0
173
0
174
0
175
1
176
1
 91
33
178
0
145
0.0
301
CELL_VALUE
 90
4
  1
 
304
ACVALUE_END
170
1
140
0.125
171
1
172
0
173
0
174
0
175
1
176
1
 91
33
178
0
145
0.0
301
CELL_VALUE
 90
4
  1
 
304
ACVALUE_END
170
1
140
0.125
171
1
172
0
173
0
174
0
175
1
176
1
 91
33
178
0
145
0.0
301
CELL_VALUE
 90
4
  1
 
304
ACVALUE_END
170
1
140
0.125
171
1
172
0
173
0
174
0
175
1
176
1
 91
33
178
0
145
0.0
301
CELL_VALUE
 90
4
  1
 
304
ACVALUE_END
170
1
140
0.125
171
1
172
0
173
0
174
0
175
1
176
1
 91
33
178
0
145
0.0
301
CELL_VALUE
 90
4
  1
 
304
ACVALUE_END
170
1
140
0.125
  0
ACAD_TABLE
  5
274
100
AcDbEntity
  8
0
 62
2
  6
CONTINUOUS
100
AcDbBlockReference
  2
*T2
 10
12.4237499994
 20
16.47875
 30
0.0
100
AcDbTable
342
       3FE
343
212
 11
1.0
 21
0.0
 31
0.0
 90
22
 91
8
 92
3
 93
16
 94
0
 95
0
 96
0
 41
0.028
141
0.344
141
0.25
141
0.25
141
0.25
141
0.25
141
0.25
141
0.25
141
0.25
142
3.055
142
3.0
142
3.0
171
1
172
0
173
0
174
0
175
1
176
1
 91
33
178
0
145
0.0
301
CELL_VALUE
 90
4
  1
Technical Data
304
ACVALUE_END
170
5
140
0.145
171
1
172
0
173
0
174
0
175
1
176
1
 91
33
178
0
145
0.0
301
CELL_VALUE
 90
4
  1
U.S. Units
304
ACVALUE_END
170
5
140
0.145
171
1
172
0
173
0
174
0
175
1
176
1
 91
33
178
0
145
0.0
301
CELL_VALUE
 90
4
  1
Metric Units
304
ACVALUE_END
170
5
140
0.145
171
1
172
0
173
0
174
0
175
1
176
1
 91
33
178
0
145
0.0
301
CELL_VALUE
 90
4
  1
Cavity
304
ACVALUE_END
170
5
140
0.125
171
1
172
0
173
0
174
0
175
2
176
1
 91
33
178
0
145
0.0
301
CELL_VALUE
 90
4
  1
T-11A
304
ACVALUE_END
170
5
140
0.125
171
1
172
0
173
1
174
0
175
1
176
1
 91
1
178
0
145
0.0
170
1
171
1
172
0
173
0
174
0
175
1
176
1
 91
33
178
0
145
0.0
301
CELL_VALUE
 90
4
  1
Body Features
304
ACVALUE_END
170
5
140
0.125
171
1
172
0
173
0
174
0
175
2
176
1
 91
33
178
0
145
0.0
301
CELL_VALUE
 90
4
  1
Reducer on A and B with reverse flow check
304
ACVALUE_END
170
5
140
0.125
171
1
172
0
173
1
174
0
175
1
176
1
 91
1
178
0
145
0.0
170
1
171
1
172
0
173
0
174
0
175
1
176
1
 91
33
178
0
145
0.0
301
CELL_VALUE
 90
4
  1
Body Type
304
ACVALUE_END
170
5
140
0.125
171
1
172
0
173
0
174
0
175
2
176
1
 91
33
178
0
145
0.0
301
CELL_VALUE
 90
4
  1
Sandwich
304
ACVALUE_END
170
5
140
0.125
171
1
172
0
173
1
174
0
175
1
176
1
 91
1
178
0
145
0.0
170
1
171
1
172
0
173
0
174
0
175
1
176
1
 91
33
178
0
145
0.0
301
CELL_VALUE
 90
4
  1
Interface
304
ACVALUE_END
170
5
140
0.125
171
1
172
0
173
0
174
0
175
2
176
1
 91
33
178
0
145
0.0
301
CELL_VALUE
 90
4
  1
ISO 03
304
ACVALUE_END
170
5
140
0.125
171
1
172
0
173
1
174
0
175
1
176
1
 91
1
178
0
145
0.0
170
1
171
1
172
0
173
0
174
0
175
1
176
1
 91
33
178
0
145
0.0
301
CELL_VALUE
 90
4
  1
Open Cavity Quantity
304
ACVALUE_END
170
5
140
0.125
171
1
172
0
173
0
174
0
175
2
176
1
 91
33
178
0
145
0.0
301
CELL_VALUE
 90
4
  1
2
304
ACVALUE_END
170
5
140
0.125
171
1
172
0
173
1
174
0
175
1
176
1
 91
1
178
0
145
0.0
170
1
171
1
172
0
173
0
174
0
175
1
176
1
 91
33
178
0
145
0.0
301
CELL_VALUE
 90
4
  1
Stack Height
304
ACVALUE_END
170
5
140
0.125
171
1
172
0
173
0
174
0
175
1
176
1
 91
33
178
0
145
0.0
301
CELL_VALUE
 90
4
  1
2.49 in.
304
ACVALUE_END
170
5
140
0.125
171
1
172
0
173
0
174
0
175
1
176
1
 91
33
178
0
145
0.0
301
CELL_VALUE
 90
4
  1
63 mm
304
ACVALUE_END
170
5
140
0.125
171
1
172
0
173
0
174
0
175
1
176
1
 91
33
178
0
145
0.0
301
CELL_VALUE
 90
4
  1
Weight
304
ACVALUE_END
170
5
140
0.125
171
1
172
0
173
0
174
0
175
1
176
1
 91
33
178
0
145
0.0
301
CELL_VALUE
 90
4
  1
2.105 lb.
304
ACVALUE_END
170
5
140
0.125
171
1
172
0
173
0
174
0
175
1
176
1
 91
33
178
0
145
0.0
301
CELL_VALUE
 90
4
  1
0,955 kg.
304
ACVALUE_END
170
5
140
0.125
  0
MTEXT
  5
275
100
AcDbEntity
  8
0
100
AcDbMText
 62
2
  6
CONTINUOUS
  7
STANDARD
 71
1
 72
1
 10
0.52125
 20
5.75995
 30
0.0
 11
1.0
 21
0.0
 31
0.0
 44
0.6
  3
Notes\P \P1. Important: Carefully consider\P   the maximum system pressure. The\P   pressure rating of the manifold is\P   dependent on the manifold material,\P   with the port type/size a secondary\P   consideration. Manifolds\P   constructed of alu
  3
minum are not\P   rated for pressures higher than\P   3000 psi (210 bar), regardless of\P   the port type/size specified.\P2. This drawing is for reference\P   only. It is generated by an\P   automated process and does not fall\P   under Sun's docume
  1
nt control\P   process.\P3. Items without balloons are\P   shipped loose.
 40
0.1
 41
3.04
  0
LINE
  5
276
100
AcDbEntity
  8
0
100
AcDbLine
 62
7
  6
CONTINUOUS
 10
0.30125
 20
0.30125
 11
0.30125
 21
16.69875
  0
LINE
  5
277
100
AcDbEntity
  8
0
100
AcDbLine
 62
7
  6
CONTINUOUS
 10
0.30125
 20
0.30125
 11
21.69875
 21
0.30125
  0
LINE
  5
278
100
AcDbEntity
  8
0
100
AcDbLine
 62
7
  6
CONTINUOUS
 10
0.30125
 20
16.69875
 11
21.69875
 21
16.69875
  0
LINE
  5
279
100
AcDbEntity
  8
0
100
AcDbLine
 62
7
  6
CONTINUOUS
 10
21.69875
 20
0.30125
 11
21.69875
 21
16.69875
  0
LINE
  5
27A
100
AcDbEntity
  8
0
100
AcDbLine
 62
7
  6
CONTINUOUS
 10
7.78657689
 20
9.2077911552
 11
7.7785421799
 21
9.1941684265
  0
LINE
  5
27B
100
AcDbEntity
  8
0
100
AcDbLine
 62
7
  6
CONTINUOUS
 10
7.7368078539
 20
8.3992160434
 11
7.7253252744
 21
8.4268039742
  0
LINE
  5
27C
100
AcDbEntity
  8
0
100
AcDbLine
 62
7
  6
CONTINUOUS
 10
8.3528207291
 20
8.8038405327
 11
8.3528207291
 21
7.9586553846
  0
LINE
  5
27D
100
AcDbEntity
  8
0
100
AcDbLine
 62
7
  6
CONTINUOUS
 10
8.3747410477
 20
8.7940139358
 11
8.3747410477
 21
7.9488287877
  0
LINE
  5
27E
100
AcDbEntity
  8
0
100
AcDbLine
 62
7
  6
CONTINUOUS
 10
8.4225856912
 20
7.6828370185
 11
8.3967102154
 21
7.7146522683
  0
LINE
  5
27F
100
AcDbEntity
  8
0
100
AcDbLine
 62
7
  6
CONTINUOUS
 10
8.8704583921
 20
9.6361186536
 11
8.4418544071
 21
9.2221189707
  0
LINE
  5
280
100
AcDbEntity
  8
0
100
AcDbLine
 62
7
  6
CONTINUOUS
 10
8.9004020945
 20
9.6639857532
 11
8.4717981095
 21
9.2499860703
  0
LINE
  5
281
100
AcDbEntity
  8
0
100
AcDbLine
 62
7
  6
CONTINUOUS
 10
8.9013182976
 20
9.6648545982
 11
8.9004020945
 21
9.6639857532
  0
LINE
  5
282
100
AcDbEntity
  8
0
100
AcDbLine
 62
7
  6
CONTINUOUS
 10
8.8712998071
 20
9.6369164102
 11
8.8704583921
 21
9.6361186536
  0
LINE
  5
283
100
AcDbEntity
  8
0
100
AcDbLine
 62
7
  6
CONTINUOUS
 10
8.9003940453
 20
9.6639944018
 11
8.8712988557
 21
9.6369156741
  0
LINE
  5
284
100
AcDbEntity
  8
0
100
AcDbLine
 62
7
  6
CONTINUOUS
 10
8.8704583921
 20
9.6361186536
 11
8.9004020945
 21
9.6639857532
  0
LINE
  5
285
100
AcDbEntity
  8
0
100
AcDbLine
 62
7
  6
CONTINUOUS
 10
8.4418544071
 20
9.2221189707
 11
8.4717981095
 21
9.2499860703
  0
LINE
  5
286
100
AcDbEntity
  8
0
100
AcDbLine
 62
7
  6
CONTINUOUS
 10
8.3528207291
 20
7.9586553846
 11
8.3747410477
 21
7.9488287877
  0
LINE
  5
287
100
AcDbEntity
  8
0
100
AcDbLine
 62
7
  6
CONTINUOUS
 10
8.3563785613
 20
9.1970945966
 11
8.3175691155
 21
9.2448128385
  0
LINE
  5
288
100
AcDbEntity
  8
0
100
AcDbLine
 62
7
  6
CONTINUOUS
 10
9.7596013541
 20
9.11579598
 11
9.7596013541
 21
7.4254256839
  0
LINE
  5
289
100
AcDbEntity
  8
0
100
AcDbLine
 62
7
  6
CONTINUOUS
 10
9.7596013541
 20
9.11579598
 11
10.3906016559
 21
9.7252955041
  0
LINE
  5
28A
100
AcDbEntity
  8
0
100
AcDbLine
 62
7
  6
CONTINUOUS
 10
13.3640444081
 20
7.6101599162
 11
13.3260773219
 21
7.604486525
  0
LINE
  5
28B
100
AcDbEntity
  8
0
100
AcDbLine
 62
7
  6
CONTINUOUS
 10
11.9329348223
 20
7.2747044959
 11
9.7596013541
 21
7.4254256839
  0
LINE
  5
28C
100
AcDbEntity
  8
0
100
AcDbLine
 62
4
  6
CONTINUOUS
 10
10.0914176537
 20
9.1553058658
 11
10.0871040074
 21
9.1511392033
  0
LINE
  5
28D
100
AcDbEntity
  8
0
100
AcDbLine
 62
4
  6
CONTINUOUS
 10
10.4618172862
 20
9.3430845638
 11
10.4695818512
 21
9.3505845581
  0
LINE
  5
28E
100
AcDbEntity
  8
0
100
AcDbLine
 62
4
  6
CONTINUOUS
 10
10.5120082743
 20
9.3315653383
 11
10.5197728393
 21
9.3390653326
  0
LINE
  5
28F
100
AcDbEntity
  8
0
100
AcDbLine
 62
4
  6
CONTINUOUS
 10
10.0340606308
 20
9.1436532334
 11
10.021553123
 21
9.1378219081
  0
LINE
  5
290
100
AcDbEntity
  8
0
100
AcDbLine
 62
7
  6
CONTINUOUS
 10
12.0081889559
 20
7.4204625607
 11
13.3971903589
 21
7.3241349862
  0
LINE
  5
291
100
AcDbEntity
  8
0
100
AcDbLine
 62
7
  6
CONTINUOUS
 10
9.7596013541
 20
7.5773685664
 11
8.4458540847
 21
7.668477249
  0
LINE
  5
292
100
AcDbEntity
  8
0
100
AcDbLine
 62
4
  6
CONTINUOUS
 10
10.6086008627
 20
9.3248666196
 11
10.6241299926
 21
9.3398666081
  0
LINE
  5
293
100
AcDbEntity
  8
0
100
AcDbLine
 62
4
  6
CONTINUOUS
 10
10.6627670279
 20
9.3371871206
 11
10.647237898
 21
9.3221871321
  0
LINE
  5
294
100
AcDbEntity
  8
0
100
AcDbLine
 62
4
  6
CONTINUOUS
 10
10.7014040632
 20
9.3345076331
 11
10.6703458035
 21
9.304507656
  0
LINE
  5
295
100
AcDbEntity
  8
0
100
AcDbLine
 62
4
  6
CONTINUOUS
 10
10.8915387343
 20
9.4853065096
 11
10.8604804745
 21
9.4553065325
  0
LINE
  5
296
100
AcDbEntity
  8
0
100
AcDbLine
 62
4
  6
CONTINUOUS
 10
10.7400410986
 20
9.3318281456
 11
10.7245119687
 21
9.316828157
  0
LINE
  5
297
100
AcDbEntity
  8
0
100
AcDbLine
 62
4
  6
CONTINUOUS
 10
10.9118338106
 20
9.456338577
 11
10.934018282
 21
9.477767132
  0
LINE
  5
298
100
AcDbEntity
  8
0
100
AcDbLine
 62
4
  6
CONTINUOUS
 10
10.7824675217
 20
9.3128089258
 11
10.7979966516
 21
9.3278089143
  0
LINE
  5
299
100
AcDbEntity
  8
0
100
AcDbLine
 62
4
  6
CONTINUOUS
 10
10.821104557
 20
9.3101294383
 11
10.8366336869
 21
9.3251294268
  0
LINE
  5
29A
100
AcDbEntity
  8
0
100
AcDbLine
 62
4
  6
CONTINUOUS
 10
10.9964107294
 20
9.478033612
 11
10.9653524697
 21
9.448033635
  0
LINE
  5
29B
100
AcDbEntity
  8
0
100
AcDbLine
 62
4
  6
CONTINUOUS
 10
11.0029068067
 20
9.4500226432
 11
11.0250912781
 21
9.4714511983
  0
LINE
  5
29C
100
AcDbEntity
  8
0
100
AcDbLine
 62
4
  6
CONTINUOUS
 10
11.0613378333
 20
9.3936055561
 11
11.0441846836
 21
9.3856083093
  0
LINE
  5
29D
100
AcDbEntity
  8
0
100
AcDbLine
 62
4
  6
CONTINUOUS
 10
11.4883057962
 20
9.5920963325
 11
11.4757982884
 21
9.5862650071
  0
LINE
  5
29E
100
AcDbEntity
  8
0
100
AcDbLine
 62
4
  6
CONTINUOUS
 10
11.6090465334
 20
9.583722934
 11
11.6215540412
 21
9.5895542593
  0
LINE
  5
29F
100
AcDbEntity
  8
0
100
AcDbLine
 62
4
  6
CONTINUOUS
 10
11.6814909758
 20
9.5786988948
 11
11.668983468
 21
9.5728675694
  0
LINE
  5
2A0
100
AcDbEntity
  8
0
100
AcDbLine
 62
7
  6
CONTINUOUS
 10
13.3260773219
 20
7.604486525
 11
11.9370759189
 21
7.7008140994
  0
LINE
  5
2A1
100
AcDbEntity
  8
0
100
AcDbLine
 62
7
  6
CONTINUOUS
 10
8.3747410477
 20
7.9488287877
 11
9.7596013541
 21
7.8527883993
  0
LINE
  5
2A2
100
AcDbEntity
  8
0
100
AcDbLine
 62
7
  6
CONTINUOUS
 10
8.3528207291
 20
8.8038405327
 11
8.3747410477
 21
8.7940139358
  0
LINE
  5
2A3
100
AcDbEntity
  8
0
100
AcDbLine
 62
4
  6
CONTINUOUS
 10
10.8945892399
 20
9.3211101956
 11
10.8842364867
 21
9.3111102032
  0
LINE
  5
2A4
100
AcDbEntity
  8
0
100
AcDbLine
 62
4
  6
CONTINUOUS
 10
11.0830468311
 20
9.4674319671
 11
11.0608623597
 21
9.446003412
  0
LINE
  5
2A5
100
AcDbEntity
  8
0
100
AcDbLine
 62
4
  6
CONTINUOUS
 10
11.0441846836
 20
9.3856083093
 11
11.0353108956
 21
9.3770368878
  0
LINE
  5
2A6
100
AcDbEntity
  8
0
100
AcDbLine
 62
4
  6
CONTINUOUS
 10
10.9756526984
 20
9.2994114883
 11
10.9911818283
 21
9.3144114768
  0
LINE
  5
2A7
100
AcDbEntity
  8
0
100
AcDbLine
 62
4
  6
CONTINUOUS
 10
11.1796393826
 20
9.4607332509
 11
11.1574549112
 21
9.4393046958
  0
LINE
  5
2A8
100
AcDbEntity
  8
0
100
AcDbLine
 62
4
  6
CONTINUOUS
 10
10.9987606038
 20
9.2817320123
 11
11.0298188636
 21
9.3117319893
  0
LINE
  5
2A9
100
AcDbEntity
  8
0
100
AcDbLine
 62
4
  6
CONTINUOUS
 10
11.0932664486
 20
9.3730176566
 11
11.1021402366
 21
9.3815890781
  0
LINE
  5
2AA
100
AcDbEntity
  8
0
100
AcDbLine
 62
4
  6
CONTINUOUS
 10
11.318401896
 20
9.59048176
 11
11.3442837795
 21
9.6154817413
  0
LINE
  5
2AB
100
AcDbEntity
  8
0
100
AcDbLine
 62
4
  6
CONTINUOUS
 10
11.1419130354
 20
9.3857209416
 11
11.1485683768
 21
9.3921495082
  0
LINE
  5
2AC
100
AcDbEntity
  8
0
100
AcDbLine
 62
4
  6
CONTINUOUS
 10
11.1346632663
 20
9.3701467775
 11
11.1413186082
 21
9.3765753445
  0
LINE
  5
2AD
100
AcDbEntity
  8
0
100
AcDbLine
 62
4
  6
CONTINUOUS
 10
11.3666981909
 20
9.5871324006
 11
11.3925800744
 21
9.6121323818
  0
LINE
  5
2AE
100
AcDbEntity
  8
0
100
AcDbLine
 62
4
  6
CONTINUOUS
 10
11.0877744166
 20
9.307712758
 11
11.0722452868
 21
9.2927127695
  0
LINE
  5
2AF
100
AcDbEntity
  8
0
100
AcDbLine
 62
4
  6
CONTINUOUS
 10
11.2109608243
 20
9.3924159881
 11
11.1799025645
 21
9.3624160111
  0
LINE
  5
2B0
100
AcDbEntity
  8
0
100
AcDbLine
 62
4
  6
CONTINUOUS
 10
11.1108823221
 20
9.290033282
 11
11.1419405819
 21
9.3200332591
  0
LINE
  5
2B1
100
AcDbEntity
  8
0
100
AcDbLine
 62
4
  6
CONTINUOUS
 10
11.184367005
 20
9.3010140393
 11
11.1688378751
 21
9.2860140508
  0
LINE
  5
2B2
100
AcDbEntity
  8
0
100
AcDbLine
 62
4
  6
CONTINUOUS
 10
11.8337171994
 20
9.5882381423
 11
11.7990354601
 21
9.5726907488
  0
LINE
  5
2B3
100
AcDbEntity
  8
0
100
AcDbLine
 62
4
  6
CONTINUOUS
 10
11.5566477189
 20
9.4391810448
 11
11.4924720022
 21
9.4114777712
  0
LINE
  5
2B4
100
AcDbEntity
  8
0
100
AcDbLine
 62
4
  6
CONTINUOUS
 10
11.3579429637
 20
9.4529612664
 11
11.3268847039
 21
9.4229612894
  0
LINE
  5
2B5
100
AcDbEntity
  8
0
100
AcDbLine
 62
4
  6
CONTINUOUS
 10
11.2937544734
 20
9.3866742291
 11
11.2626962137
 21
9.3566742521
  0
LINE
  5
2B6
100
AcDbEntity
  8
0
100
AcDbLine
 62
4
  6
CONTINUOUS
 10
11.2316973733
 20
9.2977316671
 11
11.2161682434
 21
9.2827316786
  0
LINE
  5
2B7
100
AcDbEntity
  8
0
100
AcDbLine
 62
4
  6
CONTINUOUS
 10
11.535735223
 20
9.5754096426
 11
11.5616171066
 21
9.6004096238
  0
LINE
  5
2B8
100
AcDbEntity
  8
0
100
AcDbLine
 62
4
  6
CONTINUOUS
 10
11.4241778775
 20
9.4483678595
 11
11.3931196177
 21
9.4183678825
  0
LINE
  5
2B9
100
AcDbEntity
  8
0
100
AcDbLine
 62
4
  6
CONTINUOUS
 10
11.2896529263
 20
9.2937124358
 11
11.2585946665
 21
9.2637124588
  0
LINE
  5
2BA
100
AcDbEntity
  8
0
100
AcDbLine
 62
4
  6
CONTINUOUS
 10
11.3745057725
 20
9.2556739963
 11
11.4055640323
 21
9.2856739733
  0
LINE
  5
2BB
100
AcDbEntity
  8
0
100
AcDbLine
 62
4
  6
CONTINUOUS
 10
11.7306541387
 20
9.5886868659
 11
11.7047722552
 21
9.5636868846
  0
LINE
  5
2BC
100
AcDbEntity
  8
0
100
AcDbLine
 62
4
  6
CONTINUOUS
 10
11.5769427538
 20
9.4102131151
 11
11.5991272251
 21
9.4316416702
  0
LINE
  5
2BD
100
AcDbEntity
  8
0
100
AcDbLine
 62
4
  6
CONTINUOUS
 10
11.4324613256
 20
9.2516547651
 11
11.4635195853
 21
9.2816547421
  0
LINE
  5
2BE
100
AcDbEntity
  8
0
100
AcDbLine
 62
4
  6
CONTINUOUS
 10
11.7789504336
 20
9.5853375064
 11
11.7530685501
 21
9.5603375252
  0
LINE
  5
2BF
100
AcDbEntity
  8
0
100
AcDbLine
 62
4
  6
CONTINUOUS
 10
11.4614391021
 20
9.2496451494
 11
11.4924973618
 21
9.2796451265
  0
LINE
  5
2C0
100
AcDbEntity
  8
0
100
AcDbLine
 62
4
  6
CONTINUOUS
 10
11.6615196657
 20
9.4319081506
 11
11.6304614059
 21
9.4019081736
  0
LINE
  5
2C1
100
AcDbEntity
  8
0
100
AcDbLine
 62
7
  6
CONTINUOUS
 10
13.3640444081
 20
8.4553450643
 11
13.3260773219
 21
8.449671673
  0
LINE
  5
2C2
100
AcDbEntity
  8
0
100
AcDbLine
 62
7
  6
CONTINUOUS
 10
8.1968688093
 20
8.298500409
 11
7.7762695836
 21
8.3276690644
  0
LINE
  5
2C3
100
AcDbEntity
  8
0
100
AcDbLine
 62
7
  6
CONTINUOUS
 10
13.7389522113
 20
7.9158792631
 11
14.159551437
 21
7.8867106077
  0
LINE
  5
2C4
100
AcDbEntity
  8
0
100
AcDbLine
 62
7
  6
CONTINUOUS
 10
8.1835933231
 20
8.3142819959
 11
7.7629940973
 21
8.3434506513
  0
LINE
  5
2C5
100
AcDbEntity
  8
0
100
AcDbLine
 62
7
  6
CONTINUOUS
 10
8.3528207291
 20
8.3402877572
 11
8.2832243755
 21
8.3451142808
  0
LINE
  5
2C6
100
AcDbEntity
  8
0
100
AcDbLine
 62
7
  6
CONTINUOUS
 10
13.4634604036
 20
7.985863692
 11
13.6440441787
 21
7.9733401647
  0
LINE
  5
2C7
100
AcDbEntity
  8
0
100
AcDbLine
 62
7
  6
CONTINUOUS
 10
13.6410440338
 20
8.0322702097
 11
14.0616432595
 21
8.0031015543
  0
LINE
  5
2C8
100
AcDbEntity
  8
0
100
AcDbLine
 62
7
  6
CONTINUOUS
 10
13.6333794282
 20
8.0744116019
 11
14.0539786539
 21
8.0452429465
  0
LINE
  5
2C9
100
AcDbEntity
  8
0
100
AcDbLine
 62
4
  6
CONTINUOUS
 10
11.8337171994
 20
9.5882381423
 11
11.7897179974
 21
9.5457381742
  0
LINE
  5
2CA
100
AcDbEntity
  8
0
100
AcDbLine
 62
4
  6
CONTINUOUS
 10
11.5504529148
 20
9.2756258952
 11
11.5193946551
 21
9.2456259182
  0
LINE
  5
2CB
100
AcDbEntity
  8
0
100
AcDbLine
 62
4
  6
CONTINUOUS
 10
11.5639015615
 20
9.2586162911
 11
11.5794306914
 21
9.2736162796
  0
LINE
  5
2CC
100
AcDbEntity
  8
0
100
AcDbLine
 62
4
  6
CONTINUOUS
 10
11.6063279846
 20
9.2395970713
 11
11.6218571145
 21
9.2545970598
  0
LINE
  5
2CD
100
AcDbEntity
  8
0
100
AcDbLine
 62
7
  6
CONTINUOUS
 10
8.1270660104
 20
8.6250794178
 11
7.7064667846
 21
8.6542480731
  0
LINE
  5
2CE
100
AcDbEntity
  8
0
100
AcDbLine
 62
7
  6
CONTINUOUS
 10
8.1270660104
 20
8.6822888632
 11
7.7064667846
 21
8.7114575186
  0
LINE
  5
2CF
100
AcDbEntity
  8
0
100
AcDbLine
 62
4
  6
CONTINUOUS
 10
12.2425019627
 20
9.5330939267
 11
12.2683838463
 21
9.558093908
  0
LINE
  5
2D0
100
AcDbEntity
  8
0
100
AcDbLine
 62
7
  6
CONTINUOUS
 10
13.3260773219
 20
8.449671673
 11
11.9370759189
 21
8.5459992475
  0
LINE
  5
2D1
100
AcDbEntity
  8
0
100
AcDbLine
 62
7
  6
CONTINUOUS
 10
8.3747410477
 20
8.7940139358
 11
9.7596013541
 21
8.6979735474
  0
LINE
  5
2D2
100
AcDbEntity
  8
0
100
AcDbLine
 62
7
  6
CONTINUOUS
 10
13.6333794282
 20
8.4963375808
 11
14.0539786539
 21
8.4671689254
  0
LINE
  5
2D3
100
AcDbEntity
  8
0
100
AcDbLine
 62
7
  6
CONTINUOUS
 10
13.6410440338
 20
8.5532858548
 11
14.0616432595
 21
8.5241171994
  0
LINE
  5
2D4
100
AcDbEntity
  8
0
100
AcDbLine
 62
4
  6
CONTINUOUS
 10
10.0875374415
 20
9.1578078685
 11
10.0914176537
 21
9.1553058658
  0
LINE
  5
2D5
100
AcDbEntity
  8
0
100
AcDbLine
 62
4
  6
CONTINUOUS
 10
11.4887392302
 20
9.5987649978
 11
11.4883057962
 21
9.5920963325
  0
LINE
  5
2D6
100
AcDbEntity
  8
0
100
AcDbLine
 62
7
  6
CONTINUOUS
 10
11.9329348223
 20
8.9650747921
 11
12.5639351241
 21
9.5745743161
  0
LINE
  5
2D7
100
AcDbEntity
  8
0
100
AcDbLine
 62
7
  6
CONTINUOUS
 10
12.0341329807
 20
9.001971382
 11
12.4627369657
 21
9.4159710649
  0
LINE
  5
2D8
100
AcDbEntity
  8
0
100
AcDbLine
 62
7
  6
CONTINUOUS
 10
8.1835933231
 20
9.1022886739
 11
7.7629940973
 21
9.1314573292
  0
LINE
  5
2D9
100
AcDbEntity
  8
0
100
AcDbLine
 62
7
  6
CONTINUOUS
 10
8.1968688093
 20
9.1437165324
 11
7.7762695836
 21
9.1728851878
  0
LINE
  5
2DA
100
AcDbEntity
  8
0
100
AcDbLine
 62
4
  6
CONTINUOUS
 10
10.0776201909
 20
9.1607285396
 11
10.0875374415
 21
9.1578078685
  0
LINE
  5
2DB
100
AcDbEntity
  8
0
100
AcDbLine
 62
4
  6
CONTINUOUS
 10
11.4924720022
 20
9.4114777712
 11
11.4904127913
 21
9.4437744526
  0
LINE
  5
2DC
100
AcDbEntity
  8
0
100
AcDbLine
 62
4
  6
CONTINUOUS
 10
11.6086130994
 20
9.5770542687
 11
11.6090465334
 21
9.583722934
  0
LINE
  5
2DD
100
AcDbEntity
  8
0
100
AcDbLine
 62
4
  6
CONTINUOUS
 10
11.6819244098
 20
9.58536756
 11
11.6814909758
 21
9.5786988948
  0
LINE
  5
2DE
100
AcDbEntity
  8
0
100
AcDbLine
 62
4
  6
CONTINUOUS
 10
10.0789101459
 20
9.1494745404
 11
10.0504483515
 21
9.1469825569
  0
LINE
  5
2DF
100
AcDbEntity
  8
0
100
AcDbLine
 62
7
  6
CONTINUOUS
 10
8.4210288699
 20
9.1926110825
 11
8.3423767522
 21
9.1980656254
  0
LINE
  5
2E0
100
AcDbEntity
  8
0
100
AcDbLine
 62
7
  6
CONTINUOUS
 10
13.5226777467
 20
8.8388105312
 11
13.7027867542
 21
8.8263199291
  0
LINE
  5
2E1
100
AcDbEntity
  8
0
100
AcDbLine
 62
7
  6
CONTINUOUS
 10
9.7596013541
 20
9.11579598
 11
11.9329348223
 21
8.9650747921
  0
LINE
  5
2E2
100
AcDbEntity
  8
0
100
AcDbLine
 62
7
  6
CONTINUOUS
 10
13.7389522113
 20
8.8588208871
 11
14.159551437
 21
8.8296522317
  0
LINE
  5
2E3
100
AcDbEntity
  8
0
100
AcDbLine
 62
7
  6
CONTINUOUS
 10
13.7542814224
 20
8.8736277689
 11
14.1748806482
 21
8.8444591136
  0
LINE
  5
2E4
100
AcDbEntity
  8
0
100
AcDbLine
 62
7
  6
CONTINUOUS
 10
8.3099234346
 20
9.2529189212
 11
7.8893242089
 21
9.2820875766
  0
LINE
  5
2E5
100
AcDbEntity
  8
0
100
AcDbLine
 62
4
  6
CONTINUOUS
 10
10.021553123
 20
9.1378219081
 11
10.0698494179
 21
9.1344725486
  0
LINE
  5
2E6
100
AcDbEntity
  8
0
100
AcDbLine
 62
7
  6
CONTINUOUS
 10
13.4231343837
 20
8.9056438075
 11
12.0341329807
 21
9.001971382
  0
LINE
  5
2E7
100
AcDbEntity
  8
0
100
AcDbLine
 62
7
  6
CONTINUOUS
 10
8.4717981095
 20
9.2499860703
 11
9.8029527181
 21
9.1576701847
  0
LINE
  5
2E8
100
AcDbEntity
  8
0
100
AcDbLine
 62
4
  6
CONTINUOUS
 10
10.0655461171
 20
9.1615658795
 11
10.0776201909
 21
9.1607285396
  0
LINE
  5
2E9
100
AcDbEntity
  8
0
100
AcDbLine
 62
4
  6
CONTINUOUS
 10
11.8337171994
 20
9.5882381423
 11
11.8337172147
 21
9.570285561
  0
LINE
  5
2EA
100
AcDbEntity
  8
0
100
AcDbLine
 62
7
  6
CONTINUOUS
 10
11.9329348223
 20
8.9650747921
 11
11.9329348223
 21
7.2747044959
  0
LINE
  5
2EB
100
AcDbEntity
  8
0
100
AcDbLine
 62
7
  6
CONTINUOUS
 10
11.9370759189
 20
7.7008140994
 11
11.9370759189
 21
8.5459992475
  0
LINE
  5
2EC
100
AcDbEntity
  8
0
100
AcDbLine
 62
4
  6
CONTINUOUS
 10
10.0871040074
 20
9.1511392033
 11
10.0789101459
 21
9.1494745404
  0
LINE
  5
2ED
100
AcDbEntity
  8
0
100
AcDbLine
 62
4
  6
CONTINUOUS
 10
10.0504483515
 20
9.1469825569
 11
10.0340606308
 21
9.1436532334
  0
LINE
  5
2EE
100
AcDbEntity
  8
0
100
AcDbLine
 62
4
  6
CONTINUOUS
 10
10.0431213588
 20
9.1586552253
 11
10.0513152203
 21
9.1603198881
  0
LINE
  5
2EF
100
AcDbEntity
  8
0
100
AcDbLine
 62
4
  6
CONTINUOUS
 10
11.668983468
 20
9.5728675694
 11
11.6525957465
 21
9.5695382453
  0
LINE
  5
2F0
100
AcDbEntity
  8
0
100
AcDbLine
 62
4
  6
CONTINUOUS
 10
11.6215540412
 20
9.5895542593
 11
11.6379417621
 21
9.5928835829
  0
LINE
  5
2F1
100
AcDbEntity
  8
0
100
AcDbLine
 62
4
  6
CONTINUOUS
 10
11.4757982884
 20
9.5862650071
 11
11.4594105669
 21
9.582935683
  0
LINE
  5
2F2
100
AcDbEntity
  8
0
100
AcDbLine
 62
4
  6
CONTINUOUS
 10
11.5991272251
 20
9.4316416702
 11
11.620122848
 21
9.4347790297
  0
LINE
  5
2F3
100
AcDbEntity
  8
0
100
AcDbLine
 62
4
  6
CONTINUOUS
 10
11.1413186082
 20
9.3765753445
 11
11.1623142375
 21
9.3797127031
  0
LINE
  5
2F4
100
AcDbEntity
  8
0
100
AcDbLine
 62
4
  6
CONTINUOUS
 10
11.0722708193
 20
9.369880298
 11
11.0932664486
 21
9.3730176566
  0
LINE
  5
2F5
100
AcDbEntity
  8
0
100
AcDbLine
 62
4
  6
CONTINUOUS
 10
11.1485683768
 20
9.3921495082
 11
11.1695640066
 21
9.3952868672
  0
LINE
  5
2F6
100
AcDbEntity
  8
0
100
AcDbLine
 62
4
  6
CONTINUOUS
 10
11.103329079
 20
9.399880275
 11
11.0613378333
 21
9.3936055561
  0
LINE
  5
2F7
100
AcDbEntity
  8
0
100
AcDbLine
 62
4
  6
CONTINUOUS
 10
11.1574549112
 20
9.4393046958
 11
11.1364592957
 21
9.4361673363
  0
LINE
  5
2F8
100
AcDbEntity
  8
0
100
AcDbLine
 62
4
  6
CONTINUOUS
 10
11.0608623597
 20
9.446003412
 11
11.0398667442
 21
9.4428660525
  0
LINE
  5
2F9
100
AcDbEntity
  8
0
100
AcDbLine
 62
4
  6
CONTINUOUS
 10
11.0250912781
 20
9.4714511983
 11
11.0460868941
 21
9.4745885583
  0
LINE
  5
2FA
100
AcDbEntity
  8
0
100
AcDbLine
 62
4
  6
CONTINUOUS
 10
10.0513152203
 20
9.1603198881
 11
10.0655461171
 21
9.1615658795
  0
LINE
  5
2FB
100
AcDbEntity
  8
0
100
AcDbLine
 62
4
  6
CONTINUOUS
 10
11.6643714313
 20
9.4118055997
 11
11.7144439035
 21
9.4144576101
  0
LINE
  5
2FC
100
AcDbEntity
  8
0
100
AcDbLine
 62
4
  6
CONTINUOUS
 10
11.4324613256
 20
9.2516547651
 11
11.3745057725
 21
9.2556739963
  0
LINE
  5
2FD
100
AcDbEntity
  8
0
100
AcDbLine
 62
4
  6
CONTINUOUS
 10
11.5483724316
 20
9.2436163026
 11
11.6063279846
 21
9.2395970713
  0
LINE
  5
2FE
100
AcDbEntity
  8
0
100
AcDbLine
 62
4
  6
CONTINUOUS
 10
10.6467177772
 20
9.3141847339
 11
10.6322288889
 21
9.3151895417
  0
LINE
  5
2FF
100
AcDbEntity
  8
0
100
AcDbLine
 62
4
  6
CONTINUOUS
 10
11.6218571145
 20
9.2545970598
 11
11.5639015615
 21
9.2586162911
  0
LINE
  5
300
100
AcDbEntity
  8
0
100
AcDbLine
 62
4
  6
CONTINUOUS
 10
11.0722452868
 20
9.2927127695
 11
11.0142897337
 21
9.2967320008
  0
LINE
  5
301
100
AcDbEntity
  8
0
100
AcDbLine
 62
4
  6
CONTINUOUS
 10
10.9756526984
 20
9.2994114883
 11
10.9176971454
 21
9.3034307195
  0
LINE
  5
302
100
AcDbEntity
  8
0
100
AcDbLine
 62
4
  6
CONTINUOUS
 10
10.6086008627
 20
9.3248666196
 11
10.5506453096
 21
9.3288858508
  0
LINE
  5
303
100
AcDbEntity
  8
0
100
AcDbLine
 62
4
  6
CONTINUOUS
 10
10.5120082743
 20
9.3315653383
 11
10.4540527213
 21
9.3355845696
  0
LINE
  5
304
100
AcDbEntity
  8
0
100
AcDbLine
 62
4
  6
CONTINUOUS
 10
10.821104557
 20
9.3101294383
 11
10.8597415924
 21
9.3074499508
  0
LINE
  5
305
100
AcDbEntity
  8
0
100
AcDbLine
 62
4
  6
CONTINUOUS
 10
11.2161682434
 20
9.2827316786
 11
11.2741237964
 21
9.2787124473
  0
LINE
  5
306
100
AcDbEntity
  8
0
100
AcDbLine
 62
4
  6
CONTINUOUS
 10
10.8842364867
 20
9.3111102032
 11
10.8262809337
 21
9.3151294345
  0
LINE
  5
307
100
AcDbEntity
  8
0
100
AcDbLine
 62
4
  6
CONTINUOUS
 10
10.5197728393
 20
9.3390653326
 11
10.4618172862
 21
9.3430845638
  0
LINE
  5
308
100
AcDbEntity
  8
0
100
AcDbLine
 62
4
  6
CONTINUOUS
 10
10.7979966516
 20
9.3278089143
 11
10.7400410986
 21
9.3318281456
  0
LINE
  5
309
100
AcDbEntity
  8
0
100
AcDbLine
 62
4
  6
CONTINUOUS
 10
10.6241299926
 20
9.3398666081
 11
10.5661744395
 21
9.3438858393
  0
LINE
  5
30A
100
AcDbEntity
  8
0
100
AcDbLine
 62
4
  6
CONTINUOUS
 10
10.4695818512
 20
9.3505845581
 11
10.5275374042
 21
9.3465653268
  0
LINE
  5
30B
100
AcDbEntity
  8
0
100
AcDbLine
 62
4
  6
CONTINUOUS
 10
10.8366336869
 20
9.3251294268
 11
10.8945892399
 21
9.3211101956
  0
LINE
  5
30C
100
AcDbEntity
  8
0
100
AcDbLine
 62
4
  6
CONTINUOUS
 10
11.0298188636
 20
9.3117319893
 11
11.0877744166
 21
9.307712758
  0
LINE
  5
30D
100
AcDbEntity
  8
0
100
AcDbLine
 62
4
  6
CONTINUOUS
 10
11.126411452
 20
9.3050332705
 11
11.184367005
 21
9.3010140393
  0
LINE
  5
30E
100
AcDbEntity
  8
0
100
AcDbLine
 62
4
  6
CONTINUOUS
 10
11.4924973618
 20
9.2796451265
 11
11.5504529148
 21
9.2756258952
  0
LINE
  5
30F
100
AcDbEntity
  8
0
100
AcDbLine
 62
4
  6
CONTINUOUS
 10
11.5794306914
 20
9.2736162796
 11
11.6373862444
 21
9.2695970483
  0
LINE
  5
310
100
AcDbEntity
  8
0
100
AcDbLine
 62
4
  6
CONTINUOUS
 10
11.1419405819
 20
9.3200332591
 11
11.1805776172
 21
9.3173537715
  0
LINE
  5
311
100
AcDbEntity
  8
0
100
AcDbLine
 62
4
  6
CONTINUOUS
 10
11.2626962137
 20
9.3566742521
 11
11.2130200249
 21
9.3601193074
  0
LINE
  5
312
100
AcDbEntity
  8
0
100
AcDbLine
 62
4
  6
CONTINUOUS
 10
11.1799025645
 20
9.3624160111
 11
11.1550644753
 21
9.3641385385
  0
LINE
  5
313
100
AcDbEntity
  8
0
100
AcDbLine
 62
4
  6
CONTINUOUS
 10
11.047432737
 20
9.3716028249
 11
11.0722708193
 21
9.369880298
  0
LINE
  5
314
100
AcDbEntity
  8
0
100
AcDbLine
 62
4
  6
CONTINUOUS
 10
11.2428894353
 20
9.371828088
 11
11.2760068956
 21
9.3695313843
  0
LINE
  5
315
100
AcDbEntity
  8
0
100
AcDbLine
 62
4
  6
CONTINUOUS
 10
11.1540348768
 20
9.3802868787
 11
11.1954316944
 21
9.3774159996
  0
LINE
  5
316
100
AcDbEntity
  8
0
100
AcDbLine
 62
4
  6
CONTINUOUS
 10
11.0900183962
 20
9.3870231419
 11
11.0541411616
 21
9.3895112366
  0
LINE
  5
317
100
AcDbEntity
  8
0
100
AcDbLine
 62
4
  6
CONTINUOUS
 10
11.2937544734
 20
9.3866742291
 11
11.2440782846
 21
9.3901192845
  0
LINE
  5
318
100
AcDbEntity
  8
0
100
AcDbLine
 62
4
  6
CONTINUOUS
 10
11.1695640066
 20
9.3952868672
 11
11.2109608243
 21
9.3924159881
  0
LINE
  5
319
100
AcDbEntity
  8
0
100
AcDbLine
 62
4
  6
CONTINUOUS
 10
11.6304614059
 20
9.4019081736
 11
11.5890645882
 21
9.4047790526
  0
LINE
  5
31A
100
AcDbEntity
  8
0
100
AcDbLine
 62
4
  6
CONTINUOUS
 10
11.4262370884
 20
9.4160711781
 11
11.3600021746
 21
9.420664585
  0
LINE
  5
31B
100
AcDbEntity
  8
0
100
AcDbLine
 62
4
  6
CONTINUOUS
 10
11.3268847039
 20
9.4229612894
 11
11.2772085117
 21
9.426406345
  0
LINE
  5
31C
100
AcDbEntity
  8
0
100
AcDbLine
 62
4
  6
CONTINUOUS
 10
11.1364592957
 20
9.4361673363
 11
11.1033418526
 21
9.4384640388
  0
LINE
  5
31D
100
AcDbEntity
  8
0
100
AcDbLine
 62
4
  6
CONTINUOUS
 10
11.0398667442
 20
9.4428660525
 11
11.0150286343
 21
9.4445885813
  0
LINE
  5
31E
100
AcDbEntity
  8
0
100
AcDbLine
 62
4
  6
CONTINUOUS
 10
10.9653524697
 20
9.448033635
 11
10.9239556382
 21
9.450904515
  0
LINE
  5
31F
100
AcDbEntity
  8
0
100
AcDbLine
 62
4
  6
CONTINUOUS
 10
10.8604804745
 20
9.4553065325
 11
10.8108043099
 21
9.4587515863
  0
LINE
  5
320
100
AcDbEntity
  8
0
100
AcDbLine
 62
4
  6
CONTINUOUS
 10
10.8406737134
 20
9.4704603673
 11
10.8737911565
 21
9.4681636648
  0
LINE
  5
321
100
AcDbEntity
  8
0
100
AcDbLine
 62
4
  6
CONTINUOUS
 10
11.3070779152
 20
9.438115126
 11
11.3401953859
 21
9.4358184216
  0
LINE
  5
322
100
AcDbEntity
  8
0
100
AcDbLine
 62
4
  6
CONTINUOUS
 10
11.5367347777
 20
9.4313751902
 11
11.4925781685
 21
9.4344374615
  0
LINE
  5
323
100
AcDbEntity
  8
0
100
AcDbLine
 62
4
  6
CONTINUOUS
 10
11.1550644753
 20
9.3641385385
 11
11.1475245909
 21
9.3654270006
  0
LINE
  5
324
100
AcDbEntity
  8
0
100
AcDbLine
 62
4
  6
CONTINUOUS
 10
10.7895185841
 20
9.4724768507
 11
10.7512778345
 21
9.4812534039
  0
LINE
  5
325
100
AcDbEntity
  8
0
100
AcDbLine
 62
4
  6
CONTINUOUS
 10
11.1475245909
 20
9.3654270006
 11
11.1346632663
 21
9.3701467775
  0
LINE
  5
326
100
AcDbEntity
  8
0
100
AcDbLine
 62
4
  6
CONTINUOUS
 10
11.0353108956
 20
9.3770368878
 11
11.047432737
 21
9.3716028249
  0
LINE
  5
327
100
AcDbEntity
  8
0
100
AcDbLine
 62
4
  6
CONTINUOUS
 10
10.9239556382
 20
9.450904515
 11
10.9118338106
 21
9.456338577
  0
LINE
  5
328
100
AcDbEntity
  8
0
100
AcDbLine
 62
4
  6
CONTINUOUS
 10
11.1021402366
 20
9.3815890781
 11
11.0900183962
 21
9.3870231419
  0
LINE
  5
329
100
AcDbEntity
  8
0
100
AcDbLine
 62
4
  6
CONTINUOUS
 10
11.1540348768
 20
9.3802868787
 11
11.1419130354
 21
9.3857209416
  0
LINE
  5
32A
100
AcDbEntity
  8
0
100
AcDbLine
 62
4
  6
CONTINUOUS
 10
11.0150286343
 20
9.4445885813
 11
11.0029068067
 21
9.4500226432
  0
LINE
  5
32B
100
AcDbEntity
  8
0
100
AcDbLine
 62
4
  6
CONTINUOUS
 10
11.070925004
 20
9.4728660295
 11
11.0830468311
 21
9.4674319671
  0
LINE
  5
32C
100
AcDbEntity
  8
0
100
AcDbLine
 62
4
  6
CONTINUOUS
 10
11.1675175555
 20
9.4661673133
 11
11.1796393826
 21
9.4607332509
  0
LINE
  5
32D
100
AcDbEntity
  8
0
100
AcDbLine
 62
4
  6
CONTINUOUS
 10
11.436562722
 20
9.6046163588
 11
11.4447565825
 21
9.6062810207
  0
LINE
  5
32E
100
AcDbEntity
  8
0
100
AcDbLine
 62
4
  6
CONTINUOUS
 10
10.934018282
 20
9.477767132
 11
10.955013898
 21
9.480904492
  0
LINE
  5
32F
100
AcDbEntity
  8
0
100
AcDbLine
 62
4
  6
CONTINUOUS
 10
11.6525957465
 20
9.5695382453
 11
11.6383648497
 21
9.5682922538
  0
LINE
  5
330
100
AcDbEntity
  8
0
100
AcDbLine
 62
4
  6
CONTINUOUS
 10
11.6379417621
 20
9.5928835829
 11
11.6521726595
 21
9.5941295749
  0
LINE
  5
331
100
AcDbEntity
  8
0
100
AcDbLine
 62
4
  6
CONTINUOUS
 10
11.4594105669
 20
9.582935683
 11
11.4451796701
 21
9.5816896915
  0
LINE
  5
332
100
AcDbEntity
  8
0
100
AcDbLine
 62
4
  6
CONTINUOUS
 10
11.4447565825
 20
9.6062810207
 11
11.4589874799
 21
9.6075270126
  0
LINE
  5
333
100
AcDbEntity
  8
0
100
AcDbLine
 62
4
  6
CONTINUOUS
 10
10.7512778345
 20
9.4812534039
 11
10.8013503028
 21
9.4839054141
  0
LINE
  5
334
100
AcDbEntity
  8
0
100
AcDbLine
 62
4
  6
CONTINUOUS
 10
11.3579429637
 20
9.4529612664
 11
11.3082667715
 21
9.456406322
  0
LINE
  5
335
100
AcDbEntity
  8
0
100
AcDbLine
 62
4
  6
CONTINUOUS
 10
10.8915387343
 20
9.4853065096
 11
10.8418625697
 21
9.4887515633
  0
LINE
  5
336
100
AcDbEntity
  8
0
100
AcDbLine
 62
4
  6
CONTINUOUS
 10
10.955013898
 20
9.480904492
 11
10.9964107294
 21
9.478033612
  0
LINE
  5
337
100
AcDbEntity
  8
0
100
AcDbLine
 62
4
  6
CONTINUOUS
 10
11.0460868941
 20
9.4745885583
 11
11.070925004
 21
9.4728660295
  0
LINE
  5
338
100
AcDbEntity
  8
0
100
AcDbLine
 62
4
  6
CONTINUOUS
 10
11.1344001124
 20
9.4684640158
 11
11.1675175555
 21
9.4661673133
  0
LINE
  5
339
100
AcDbEntity
  8
0
100
AcDbLine
 62
4
  6
CONTINUOUS
 10
11.620122848
 20
9.4347790297
 11
11.6615196657
 21
9.4319081506
  0
LINE
  5
33A
100
AcDbEntity
  8
0
100
AcDbLine
 62
7
  6
CONTINUOUS
 10
13.8517383687
 20
9.3196434904
 11
12.4627369657
 21
9.4159710649
  0
LINE
  5
33B
100
AcDbEntity
  8
0
100
AcDbLine
 62
7
  6
CONTINUOUS
 10
8.9004020945
 20
9.6639857532
 11
10.2315567031
 21
9.5716698675
  0
LINE
  5
33C
100
AcDbEntity
  8
0
100
AcDbLine
 62
7
  6
CONTINUOUS
 10
12.4886809906
 20
9.4278503255
 11
13.8776823936
 21
9.331522751
  0
LINE
  5
33D
100
AcDbEntity
  8
0
100
AcDbLine
 62
7
  6
CONTINUOUS
 10
10.2447691057
 20
9.5844320692
 11
8.9263461193
 21
9.6758650138
  0
LINE
  5
33E
100
AcDbEntity
  8
0
100
AcDbLine
 62
4
  6
CONTINUOUS
 10
11.7897179974
 20
9.5457381742
 11
11.2101624586
 21
9.5859304873
  0
LINE
  5
33F
100
AcDbEntity
  8
0
100
AcDbLine
 62
4
  6
CONTINUOUS
 10
11.6383648497
 20
9.5682922538
 11
11.626290776
 21
9.5691295937
  0
LINE
  5
340
100
AcDbEntity
  8
0
100
AcDbLine
 62
4
  6
CONTINUOUS
 10
11.5659204073
 20
9.573316293
 11
11.5055500387
 21
9.5775029923
  0
LINE
  5
341
100
AcDbEntity
  8
0
100
AcDbLine
 62
4
  6
CONTINUOUS
 10
11.4451796701
 20
9.5816896915
 11
11.4331055964
 21
9.5825270314
  0
LINE
  5
342
100
AcDbEntity
  8
0
100
AcDbLine
 62
4
  6
CONTINUOUS
 10
11.3796391327
 20
9.5996323912
 11
11.3313428378
 21
9.6029817507
  0
LINE
  5
343
100
AcDbEntity
  8
0
100
AcDbLine
 62
4
  6
CONTINUOUS
 10
11.4589874799
 20
9.6075270126
 11
11.4710615536
 21
9.6066896728
  0
LINE
  5
344
100
AcDbEntity
  8
0
100
AcDbLine
 62
4
  6
CONTINUOUS
 10
11.6521726595
 20
9.5941295749
 11
11.6642467332
 21
9.5932922351
  0
LINE
  5
345
100
AcDbEntity
  8
0
100
AcDbLine
 62
7
  6
CONTINUOUS
 10
10.3906016559
 20
9.7252955041
 11
12.5639351241
 21
9.5745743161
  0
LINE
  5
346
100
AcDbEntity
  8
0
100
AcDbLine
 62
4
  6
CONTINUOUS
 10
11.7144439035
 20
9.4144576101
 11
11.6762031499
 21
9.423234163
  0
LINE
  5
347
100
AcDbEntity
  8
0
100
AcDbLine
 62
4
  6
CONTINUOUS
 10
11.4331055964
 20
9.5825270314
 11
11.4231883458
 21
9.5854477025
  0
LINE
  5
348
100
AcDbEntity
  8
0
100
AcDbLine
 62
4
  6
CONTINUOUS
 10
11.4710615536
 20
9.6066896728
 11
11.4809788037
 21
9.6037690011
  0
LINE
  5
349
100
AcDbEntity
  8
0
100
AcDbLine
 62
4
  6
CONTINUOUS
 10
11.626290776
 20
9.5691295937
 11
11.6163735254
 21
9.5720502648
  0
LINE
  5
34A
100
AcDbEntity
  8
0
100
AcDbLine
 62
4
  6
CONTINUOUS
 10
11.5890645882
 20
9.4047790526
 11
11.5769427538
 21
9.4102131151
  0
LINE
  5
34B
100
AcDbEntity
  8
0
100
AcDbLine
 62
4
  6
CONTINUOUS
 10
11.4231883458
 20
9.5854477025
 11
11.4193081336
 21
9.5879497052
  0
LINE
  5
34C
100
AcDbEntity
  8
0
100
AcDbLine
 62
4
  6
CONTINUOUS
 10
11.4809788037
 20
9.6037690011
 11
11.4887392302
 21
9.5987649978
  0
LINE
  5
34D
100
AcDbEntity
  8
0
100
AcDbLine
 62
7
  6
CONTINUOUS
 10
13.4231343837
 20
8.9056438075
 11
13.8517383687
 21
9.3196434904
  0
LINE
  5
34E
100
AcDbEntity
  8
0
100
AcDbLine
 62
7
  6
CONTINUOUS
 10
13.4530780861
 20
8.8736235023
 11
13.8816820711
 21
9.2876231852
  0
LINE
  5
34F
100
AcDbEntity
  8
0
100
AcDbLine
 62
4
  6
CONTINUOUS
 10
11.6642467332
 20
9.5932922351
 11
11.6741639833
 21
9.5903715634
  0
LINE
  5
350
100
AcDbEntity
  8
0
100
AcDbLine
 62
4
  6
CONTINUOUS
 10
11.6163735254
 20
9.5720502648
 11
11.6086130994
 21
9.5770542687
  0
LINE
  5
351
100
AcDbEntity
  8
0
100
AcDbLine
 62
4
  6
CONTINUOUS
 10
11.6741639833
 20
9.5903715634
 11
11.6819244098
 21
9.58536756
  0
LINE
  5
352
100
AcDbEntity
  8
0
100
AcDbLine
 62
4
  6
CONTINUOUS
 10
11.7530685501
 20
9.5603375252
 11
11.7306541387
 21
9.5886868659
  0
LINE
  5
353
100
AcDbEntity
  8
0
100
AcDbLine
 62
7
  6
CONTINUOUS
 10
12.5639351241
 20
9.5745743161
 11
12.5639351241
 21
9.4226314336
  0
LINE
  5
354
100
AcDbEntity
  8
0
100
AcDbLine
 62
7
  6
CONTINUOUS
 10
11.9329348223
 20
7.2747044959
 11
12.0787673725
 21
7.4155679308
  0
LINE
  5
355
100
AcDbEntity
  8
0
100
AcDbLine
 62
7
  6
CONTINUOUS
 10
13.687212375
 20
8.8118065433
 11
13.6882567869
 21
8.8127969711
  0
LINE
  5
356
100
AcDbEntity
  8
0
100
AcDbLine
 62
7
  6
CONTINUOUS
 10
13.7466168169
 20
8.8670912731
 11
13.7478115497
 21
8.8682242507
  0
LINE
  5
357
100
AcDbEntity
  8
0
100
AcDbLine
 62
7
  6
CONTINUOUS
 10
13.6882568465
 20
8.8127970265
 11
13.7478115457
 21
8.8682242469
  0
LINE
  5
358
100
AcDbEntity
  8
0
100
AcDbLine
 62
4
  6
CONTINUOUS
 10
13.4689954502
 20
7.6661363139
 11
13.4651131678
 21
7.6720455758
  0
LINE
  5
359
100
AcDbEntity
  8
0
100
AcDbLine
 62
4
  6
CONTINUOUS
 10
13.4728777326
 20
7.7857974144
 11
13.476760015
 21
7.7798881551
  0
LINE
  5
35A
100
AcDbEntity
  8
0
100
AcDbLine
 62
7
  6
CONTINUOUS
 10
13.6311102181
 20
7.988767693
 11
13.6394954842
 21
7.9784575702
  0
LINE
  5
35B
100
AcDbEntity
  8
0
100
AcDbLine
 62
4
  6
CONTINUOUS
 10
13.5330531096
 20
7.8439223686
 11
13.5369353919
 21
7.8380131093
  0
LINE
  5
35C
100
AcDbEntity
  8
0
100
AcDbLine
 62
7
  6
CONTINUOUS
 10
13.4530780861
 20
8.8736235023
 11
13.4231343837
 21
8.9056438075
  0
LINE
  5
35D
100
AcDbEntity
  8
0
100
AcDbLine
 62
7
  6
CONTINUOUS
 10
13.3260773219
 20
7.604486525
 11
13.3260773219
 21
8.449671673
  0
LINE
  5
35E
100
AcDbEntity
  8
0
100
AcDbLine
 62
7
  6
CONTINUOUS
 10
13.3640444081
 20
7.6101599162
 11
13.3640444081
 21
8.4553450643
  0
LINE
  5
35F
100
AcDbEntity
  8
0
100
AcDbLine
 62
4
  6
CONTINUOUS
 10
13.4689954502
 20
7.7820474174
 11
13.4728777326
 21
7.7857974144
  0
LINE
  5
360
100
AcDbEntity
  8
0
100
AcDbLine
 62
4
  6
CONTINUOUS
 10
13.5252885448
 20
7.8364223745
 11
13.5330531096
 21
7.8439223686
  0
LINE
  5
361
100
AcDbEntity
  8
0
100
AcDbLine
 62
4
  6
CONTINUOUS
 10
13.5582879451
 20
7.7910232816
 11
13.5699347922
 21
7.8022732727
  0
LINE
  5
362
100
AcDbEntity
  8
0
100
AcDbLine
 62
4
  6
CONTINUOUS
 10
13.5330531096
 20
7.7280112652
 11
13.5252885448
 21
7.7205112711
  0
LINE
  5
363
100
AcDbEntity
  8
0
100
AcDbLine
 62
4
  6
CONTINUOUS
 10
13.4728777326
 20
7.669886311
 11
13.4689954502
 21
7.6661363139
  0
LINE
  5
364
100
AcDbEntity
  8
0
100
AcDbLine
 62
4
  6
CONTINUOUS
 10
13.4651131678
 20
7.6720455758
 11
13.4612308854
 21
7.6876140957
  0
LINE
  5
365
100
AcDbEntity
  8
0
100
AcDbLine
 62
4
  6
CONTINUOUS
 10
13.476760015
 20
7.7798881551
 11
13.4787011562
 21
7.7721038904
  0
LINE
  5
366
100
AcDbEntity
  8
0
100
AcDbLine
 62
4
  6
CONTINUOUS
 10
13.5369353919
 20
7.8380131093
 11
13.5408176743
 21
7.8224445868
  0
LINE
  5
367
100
AcDbEntity
  8
0
100
AcDbLine
 62
4
  6
CONTINUOUS
 10
13.4942302857
 20
7.8064223982
 11
13.5097594152
 21
7.7055112829
  0
LINE
  5
368
100
AcDbEntity
  8
0
100
AcDbLine
 62
4
  6
CONTINUOUS
 10
13.5641113687
 20
7.8739223449
 11
13.5738170746
 21
7.7673862341
  0
LINE
  5
369
100
AcDbEntity
  8
0
100
AcDbLine
 62
4
  6
CONTINUOUS
 10
13.4612308854
 20
7.6876140957
 11
13.4592897442
 21
7.714716873
  0
LINE
  5
36A
100
AcDbEntity
  8
0
100
AcDbLine
 62
4
  6
CONTINUOUS
 10
13.5408176743
 20
7.8224445868
 11
13.5427588155
 21
7.7953418095
  0
LINE
  5
36B
100
AcDbEntity
  8
0
100
AcDbLine
 62
4
  6
CONTINUOUS
 10
13.5252885448
 20
7.7205112711
 11
13.5252885448
 21
7.8364223745
  0
LINE
  5
36C
100
AcDbEntity
  8
0
100
AcDbLine
 62
4
  6
CONTINUOUS
 10
13.4592897442
 20
7.714716873
 11
13.4612308854
 21
7.7455696474
  0
LINE
  5
36D
100
AcDbEntity
  8
0
100
AcDbLine
 62
4
  6
CONTINUOUS
 10
13.5427588155
 20
7.7953418095
 11
13.5408176743
 21
7.7644890351
  0
LINE
  5
36E
100
AcDbEntity
  8
0
100
AcDbLine
 62
4
  6
CONTINUOUS
 10
13.5544056627
 20
7.7486362489
 11
13.5641113687
 21
7.8739223449
  0
LINE
  5
36F
100
AcDbEntity
  8
0
100
AcDbLine
 62
4
  6
CONTINUOUS
 10
13.4942302857
 20
7.6905112947
 11
13.5097594152
 21
7.8214223863
  0
LINE
  5
370
100
AcDbEntity
  8
0
100
AcDbLine
 62
4
  6
CONTINUOUS
 10
13.4612308854
 20
7.7455696474
 11
13.4651131678
 21
7.768638164
  0
LINE
  5
371
100
AcDbEntity
  8
0
100
AcDbLine
 62
4
  6
CONTINUOUS
 10
13.4787011562
 20
7.6948298244
 11
13.476760015
 21
7.6832955669
  0
LINE
  5
372
100
AcDbEntity
  8
0
100
AcDbLine
 62
4
  6
CONTINUOUS
 10
13.4651131678
 20
7.768638164
 11
13.4689954502
 21
7.7820474174
  0
LINE
  5
373
100
AcDbEntity
  8
0
100
AcDbLine
 62
4
  6
CONTINUOUS
 10
13.476760015
 20
7.6832955669
 11
13.4728777326
 21
7.669886311
  0
LINE
  5
374
100
AcDbEntity
  8
0
100
AcDbLine
 62
7
  6
CONTINUOUS
 10
13.8816820711
 20
7.7778810293
 11
13.4530780861
 21
7.3638813464
  0
LINE
  5
375
100
AcDbEntity
  8
0
100
AcDbLine
 62
7
  6
CONTINUOUS
 10
13.4530780861
 20
7.3638813464
 11
13.4522366711
 21
7.3630835898
  0
LINE
  5
376
100
AcDbEntity
  8
0
100
AcDbLine
 62
7
  6
CONTINUOUS
 10
13.4222181807
 20
7.3351454018
 11
13.4522376225
 21
7.3630843259
  0
LINE
  5
377
100
AcDbEntity
  8
0
100
AcDbLine
 62
4
  6
CONTINUOUS
 10
13.5408176743
 20
7.7644890351
 11
13.5369353919
 21
7.7414205211
  0
LINE
  5
378
100
AcDbEntity
  8
0
100
AcDbLine
 62
4
  6
CONTINUOUS
 10
13.5369353919
 20
7.7414205211
 11
13.5330531096
 21
7.7280112652
  0
LINE
  5
379
100
AcDbEntity
  8
0
100
AcDbLine
 62
7
  6
CONTINUOUS
 10
13.8816820711
 20
9.2876231852
 11
13.8517383687
 21
9.3196434904
  0
LINE
  5
37A
100
AcDbEntity
  8
0
100
AcDbLine
 62
7
  6
CONTINUOUS
 10
13.900950787
 20
9.3171629815
 11
13.9268262628
 21
9.2853477317
  0
LINE
  5
37B
100
AcDbEntity
  8
0
100
AcDbLine
 62
7
  6
CONTINUOUS
 10
13.9707157491
 20
9.0413446154
 11
13.9707157491
 21
8.8586179974
  0
LINE
  5
37C
100
AcDbEntity
  8
0
100
AcDbLine
 62
7
  6
CONTINUOUS
 10
14.2049087723
 20
7.9482141584
 11
14.221470759
 21
7.9762947547
  0
LINE
  5
37D
100
AcDbEntity
  8
0
100
AcDbLine
 62
7
  6
CONTINUOUS
 10
14.2679887786
 20
8.7597538834
 11
14.2746876645
 21
8.743659207
  0
ARC
  5
37E
100
AcDbEntity
  8
0
100
AcDbCircle
 62
7
  6
CONTINUOUS
 10
9.922384003
 20
8.6534071949
 40
1.7955502904
100
AcDbArc
 50
179.0783499239
 51
179.9983226951
  0
ARC
  5
37F
100
AcDbEntity
  8
0
100
AcDbCircle
 62
7
  6
CONTINUOUS
 10
9.5017847772
 20
8.6825758503
 40
1.7955502904
100
AcDbArc
 50
179.0783499239
 51
179.9983226951
  0
ARC
  5
380
100
AcDbEntity
  8
0
100
AcDbCircle
 62
7
  6
CONTINUOUS
 10
15.4056334398
 20
8.2868017847
 40
1.7845978627
100
AcDbArc
 50
171.4122212986
 51
173.2571510468
  0
ARC
  5
381
100
AcDbEntity
  8
0
100
AcDbCircle
 62
7
  6
CONTINUOUS
 10
15.8262326656
 20
8.2576331293
 40
1.7845978627
100
AcDbArc
 50
171.4122212986
 51
173.2571510468
  0
ARC
  5
382
100
AcDbEntity
  8
0
100
AcDbCircle
 62
7
  6
CONTINUOUS
 10
9.8533234759
 20
8.6534001952
 40
1.7264897635
100
AcDbArc
 50
179.9980233072
 51
180.9399035171
  0
ARC
  5
383
100
AcDbEntity
  8
0
100
AcDbCircle
 62
7
  6
CONTINUOUS
 10
9.4176599717
 20
8.6824455474
 40
1.7114254938
100
AcDbArc
 50
179.9938779146
 51
180.9440489097
  0
ARC
  5
384
100
AcDbEntity
  8
0
100
AcDbCircle
 62
7
  6
CONTINUOUS
 10
10.502146405
 20
7.6966956228
 40
0.0696546291
100
AcDbArc
 50
220.3859807913
 51
227.7533728077
  0
SPLINE
  5
385
100
AcDbEntity
  8
0
100
AcDbSpline
 62
7
  6
CONTINUOUS
 70
0
 71
3
 72
48
 73
44
 74
0
 42
0.0000001
 43
0.0000001
 44
0.0000000001
 40
0.0
 40
0.0
 40
0.0
 40
0.0
 40
0.0354700631
 40
0.0712720273
 40
0.1073441761
 40
0.1436239937
 40
0.18004856
 40
0.2165546346
 40
0.2530787966
 40
0.2895575852
 40
0.3259276395
 40
0.3621258387
 40
0.3980894409
 40
0.4337562271
 40
0.4690646366
 40
0.5039539167
 40
0.5383642605
 40
0.5722369541
 40
0.6055145287
 40
0.6381409033
 40
0.6700615528
 40
0.701223658
 40
0.7315762839
 40
0.7610705577
 40
0.7896598574
 40
0.8036013928
 40
0.817300341
 40
0.8307516071
 40
0.8439502853
 40
0.8568916606
 40
0.869571221
 40
0.8819846749
 40
0.8941279563
 40
0.9059972361
 40
0.9175889429
 40
0.9288997777
 40
0.9399267263
 40
0.9506670818
 40
0.9611184733
 40
0.9712788828
 40
0.981146674
 40
0.9907206327
 40
1.0
 40
1.0
 40
1.0
 40
1.0
 10
7.6886018221
 20
8.699660232
 30
0.0
 10
7.6886018221
 20
8.7056525794
 30
0.0
 10
7.6886716042
 20
8.7176934535
 30
0.0
 10
7.6889814995
 20
8.7358259951
 30
0.0
 10
7.6894965983
 20
8.7540907403
 30
0.0
 10
7.6902159534
 20
8.7724538327
 30
0.0
 10
7.691138235
 20
8.7908812497
 30
0.0
 10
7.6922617391
 20
8.809338847
 30
0.0
 10
7.693584383
 20
8.8277924273
 30
0.0
 10
7.6951037178
 20
8.8462077994
 30
0.0
 10
7.6968169254
 20
8.8645508438
 30
0.0
 10
7.6987208281
 20
8.8827875749
 30
0.0
 10
7.7008118945
 20
8.9008842054
 30
0.0
 10
7.7030862417
 20
8.9188072083
 30
0.0
 10
7.7055396496
 20
8.9365233795
 30
0.0
 10
7.7081675608
 20
8.9539999001
 30
0.0
 10
7.710965095
 20
8.9712043968
 30
0.0
 10
7.7139270558
 20
8.9881050033
 30
0.0
 10
7.7170479377
 20
9.0046704189
 30
0.0
 10
7.7203219427
 20
9.0208699678
 30
0.0
 10
7.7237429819
 20
9.0366736576
 30
0.0
 10
7.7273046958
 20
9.0520522309
 30
0.0
 10
7.7310004595
 20
9.0669772389
 30
0.0
 10
7.7348233979
 20
9.0814210311
 30
0.0
 10
7.7381363052
 20
9.0931300675
 30
0.0
 10
7.7408476795
 20
9.1022345409
 30
0.0
 10
7.7428915329
 20
9.1088690466
 30
0.0
 10
7.7449617595
 20
9.1153637718
 30
0.0
 10
7.7470574041
 20
9.1217157149
 30
0.0
 10
7.7491774931
 20
9.1279219347
 30
0.0
 10
7.7513210447
 20
9.1339795591
 30
0.0
 10
7.7534870634
 20
9.1398857859
 30
0.0
 10
7.7556745445
 20
9.1456378833
 30
0.0
 10
7.7578824747
 20
9.1512331907
 30
0.0
 10
7.76010983
 20
9.1566691215
 30
0.0
 10
7.7623555771
 20
9.1619431644
 30
0.0
 10
7.7646186762
 20
9.1670528828
 30
0.0
 10
7.7668980796
 20
9.1719959169
 30
0.0
 10
7.7691927313
 20
9.1767699872
 30
0.0
 10
7.7715015687
 20
9.1813728905
 30
0.0
 10
7.7738235303
 20
9.1858025126
 30
0.0
 10
7.7761575284
 20
9.1900567883
 30
0.0
 10
7.7777457002
 20
9.1928180056
 30
0.0
 10
7.7785421085
 20
9.1941683051
 30
0.0
  0
SPLINE
  5
386
100
AcDbEntity
  8
0
100
AcDbSpline
 62
7
  6
CONTINUOUS
 70
0
 71
3
 72
11
 73
7
 74
0
 42
0.0000001
 43
0.0000001
 44
0.0000000001
 40
0.0
 40
0.0
 40
0.0
 40
0.0
 40
0.2381382387
 40
0.4839733075
 40
0.737830157
 40
1.0
 40
1.0
 40
1.0
 40
1.0
 10
8.3099234346
 20
9.2529189212
 30
0.0
 10
8.3105824737
 20
9.2523277043
 30
0.0
 10
8.311894921
 20
9.2510958358
 30
0.0
 10
8.3138156216
 20
9.2491363349
 30
0.0
 10
8.3157182912
 20
9.2470371409
 30
0.0
 10
8.3169540878
 20
9.2455690457
 30
0.0
 10
8.3175690998
 20
9.2448128574
 30
0.0
  0
SPLINE
  5
387
100
AcDbEntity
  8
0
100
AcDbSpline
 62
7
  6
CONTINUOUS
 70
0
 71
3
 72
15
 73
11
 74
0
 42
0.0000001
 43
0.0000001
 44
0.0000000001
 40
0.0
 40
0.0
 40
0.0
 40
0.0
 40
0.1130134526
 40
0.2292354891
 40
0.3487879676
 40
0.4717828379
 40
0.598318796
 40
0.7284835129
 40
0.8623555254
 40
1.0
 40
1.0
 40
1.0
 40
1.0
 10
7.7762695836
 20
8.3276690644
 30
0.0
 10
7.7756898052
 20
8.3281891775
 30
0.0
 10
7.7745346034
 20
8.3292675893
 30
0.0
 10
7.772838976
 20
8.3309721726
 30
0.0
 10
7.7711572076
 20
8.3327854352
 30
0.0
 10
7.769489705
 20
8.3347069176
 30
0.0
 10
7.7678368157
 20
8.3367361889
 30
0.0
 10
7.7661989009
 20
8.3388727952
 30
0.0
 10
7.7645763404
 20
8.341116224
 30
0.0
 10
7.7635199101
 20
8.3426610696
 30
0.0
 10
7.7629940973
 20
8.3434506513
 30
0.0
  0
SPLINE
  5
388
100
AcDbEntity
  8
0
100
AcDbSpline
 62
7
  6
CONTINUOUS
 70
0
 71
3
 72
11
 73
7
 74
0
 42
0.0000001
 43
0.0000001
 44
0.0000000001
 40
0.0
 40
0.0
 40
0.0
 40
0.0
 40
0.2527935986
 40
0.5037865761
 40
0.7528844832
 40
1.0
 40
1.0
 40
1.0
 40
1.0
 10
7.7629940973
 20
8.3434506513
 30
0.0
 10
7.7606000108
 20
8.3480605347
 30
0.0
 10
7.7559116164
 20
8.3572907542
 30
0.0
 10
7.7491762195
 20
8.3712192692
 30
0.0
 10
7.742784666
 20
8.3851807918
 30
0.0
 10
7.7387513864
 20
8.3945467479
 30
0.0
 10
7.7368001004
 20
8.3992346726
 30
0.0
  0
SPLINE
  5
389
100
AcDbEntity
  8
0
100
AcDbSpline
 62
7
  6
CONTINUOUS
 70
0
 71
3
 72
28
 73
24
 74
0
 42
0.0000001
 43
0.0000001
 44
0.0000000001
 40
0.0
 40
0.0
 40
0.0
 40
0.0
 40
0.0230088566
 40
0.0466005931
 40
0.0707783753
 40
0.0955435638
 40
0.1208959491
 40
0.1468337465
 40
0.1733537739
 40
0.200451588
 40
0.2281215229
 40
0.2563569012
 40
0.3144913236
 40
0.3747858073
 40
0.4371597232
 40
0.5015253138
 40
0.5677902701
 40
0.6358599226
 40
0.7056390556
 40
0.7770333641
 40
0.849950603
 40
0.92430142
 40
1.0
 40
1.0
 40
1.0
 40
1.0
 10
8.2968700848
 20
8.3441675857
 30
0.0
 10
8.2962091269
 20
8.3436375279
 30
0.0
 10
8.2948573017
 20
8.3425803055
 30
0.0
 10
8.2927680638
 20
8.3410218926
 30
0.0
 10
8.2905930119
 20
8.3394714025
 30
0.0
 10
8.288333241
 20
8.3379290859
 30
0.0
 10
8.2859899163
 20
8.3363951764
 30
0.0
 10
8.2835643086
 20
8.3348698823
 30
0.0
 10
8.2810577712
 20
8.3333533933
 30
0.0
 10
8.2784717315
 20
8.3318458899
 30
0.0
 10
8.2758076889
 20
8.3303475116
 30
0.0
 10
8.2721178518
 20
8.3283425719
 30
0.0
 10
8.2673190741
 20
8.325863609
 30
0.0
 10
8.2613297171
 20
8.3229550906
 30
0.0
 10
8.2550686046
 20
8.3200849849
 30
0.0
 10
8.2485496672
 20
8.3172533808
 30
0.0
 10
8.2417867895
 20
8.3144601179
 30
0.0
 10
8.2347937044
 20
8.3117048267
 30
0.0
 10
8.2275838302
 20
8.308986953
 30
0.0
 10
8.2201701634
 20
8.3063057874
 30
0.0
 10
8.2125651892
 20
8.3036604922
 30
0.0
 10
8.2047808363
 20
8.3010501315
 30
0.0
 10
8.1995245018
 20
8.2993471734
 30
0.0
 10
8.1968688093
 20
8.298500409
 30
0.0
  0
SPLINE
  5
38A
100
AcDbEntity
  8
0
100
AcDbSpline
 62
7
  6
CONTINUOUS
 70
0
 71
3
 72
35
 73
31
 74
0
 42
0.0000001
 43
0.0000001
 44
0.0000000001
 40
0.0
 40
0.0
 40
0.0
 40
0.0
 40
0.0207059403
 40
0.0422070895
 40
0.064500464
 40
0.0875813335
 40
0.1114433907
 40
0.1360788917
 40
0.1614787825
 40
0.1876328051
 40
0.214529589
 40
0.2421567323
 40
0.270500873
 40
0.2995477492
 40
0.3292822566
 40
0.3596884986
 40
0.3907498327
 40
0.4224489131
 40
0.454767729
 40
0.4876876391
 40
0.5211894075
 40
0.5552532314
 40
0.5898587729
 40
0.6249851897
 40
0.6606111595
 40
0.6967149078
 40
0.7702659484
 40
0.8454566246
 40
0.9220989128
 40
1.0
 40
1.0
 40
1.0
 40
1.0
 10
7.7253252454
 20
8.4268040449
 30
0.0
 10
7.7245912279
 20
8.4285675893
 30
0.0
 10
7.7231427724
 20
8.4321824466
 30
0.0
 10
7.7210634592
 20
8.4377582743
 30
0.0
 10
7.7190378858
 20
8.4435863065
 30
0.0
 10
7.7170674527
 20
8.4496625437
 30
0.0
 10
7.7151534993
 20
8.455982879
 30
0.0
 10
7.7132973356
 20
8.462543015
 30
0.0
 10
7.7115002315
 20
8.4693384923
 30
0.0
 10
7.709763418
 20
8.4763646861
 30
0.0
 10
7.7080880853
 20
8.4836168119
 30
0.0
 10
7.7064753823
 20
8.4910899286
 30
0.0
 10
7.7049264149
 20
8.4987789422
 30
0.0
 10
7.7034422457
 20
8.5066786093
 30
0.0
 10
7.7020238929
 20
8.5147835412
 30
0.0
 10
7.7006723293
 20
8.5230882074
 30
0.0
 10
7.6993884823
 20
8.53158694
 30
0.0
 10
7.6981732327
 20
8.5402739378
 30
0.0
 10
7.6970274143
 20
8.5491432703
 30
0.0
 10
7.6959518133
 20
8.5581888816
 30
0.0
 10
7.6949471679
 20
8.5674045949
 30
0.0
 10
7.6940141673
 20
8.5767841162
 30
0.0
 10
7.6931534513
 20
8.5863210397
 30
0.0
 10
7.6923656117
 20
8.5960088495
 30
0.0
 10
7.691651184
 20
8.605840935
 30
0.0
 10
7.69079188
 20
8.6192161923
 30
0.0
 10
7.6899080962
 20
8.6362467664
 30
0.0
 10
7.6891536081
 20
8.6570263919
 30
0.0
 10
7.6887008877
 20
8.678216128
 30
0.0
 10
7.6886018221
 20
8.6924735606
 30
0.0
 10
7.6886018221
 20
8.699660232
 30
0.0
  0
SPLINE
  5
38B
100
AcDbEntity
  8
0
100
AcDbSpline
 62
7
  6
CONTINUOUS
 70
0
 71
3
 72
33
 73
29
 74
0
 42
0.0000001
 43
0.0000001
 44
0.0000000001
 40
0.0
 40
0.0
 40
0.0
 40
0.0
 40
0.0223512378
 40
0.0451417926
 40
0.0921458188
 40
0.1412242902
 40
0.1925525028
 40
0.2191076467
 40
0.2462745752
 40
0.2740647715
 40
0.3024872764
 40
0.3315487276
 40
0.3612534176
 40
0.3916033736
 40
0.4225984528
 40
0.4542364767
 40
0.4865133752
 40
0.5194233333
 40
0.5529589434
 40
0.5871113609
 40
0.6218704756
 40
0.657225072
 40
0.6931629819
 40
0.7296712322
 40
0.7667361909
 40
0.8424783417
 40
0.9202730619
 40
1.0
 40
1.0
 40
1.0
 40
1.0
 10
7.7865665825
 20
9.2077736786
 30
0.0
 10
7.787053256
 20
9.2085988718
 30
0.0
 10
7.788065238
 20
9.2102485281
 30
0.0
 10
7.7902429617
 20
9.2135441412
 30
0.0
 10
7.7932620544
 20
9.2176532289
 30
0.0
 10
7.7973122415
 20
9.2225072605
 30
0.0
 10
7.801034178
 20
9.226481302
 30
0.0
 10
7.8042383976
 20
9.2296451891
 30
0.0
 10
7.8067858287
 20
9.2320367741
 30
0.0
 10
7.8094496675
 20
9.2344197052
 30
0.0
 10
7.8122291696
 20
9.2367936712
 30
0.0
 10
7.81512332
 20
9.2391583452
 30
0.0
 10
7.818130897
 20
9.2415134355
 30
0.0
 10
7.8212504673
 20
9.2438586734
 30
0.0
 10
7.8244804022
 20
9.2461938206
 30
0.0
 10
7.8278188928
 20
9.2485186674
 30
0.0
 10
7.831263967
 20
9.2508330336
 30
0.0
 10
7.8348135063
 20
9.2531367689
 30
0.0
 10
7.8384652628
 20
9.2554297531
 30
0.0
 10
7.8422168759
 20
9.2577118975
 30
0.0
 10
7.8460658917
 20
9.2599831417
 30
0.0
 10
7.850009781
 20
9.2622434541
 30
0.0
 10
7.8540459545
 20
9.2644928283
 30
0.0
 10
7.8581717821
 20
9.2667312918
 30
0.0
 10
7.8638295783
 20
9.2697229194
 30
0.0
 10
7.8711096807
 20
9.2734311369
 30
0.0
 10
7.880099641
 20
9.2778074491
 30
0.0
 10
7.8862175704
 20
9.2806640694
 30
0.0
 10
7.8893242089
 20
9.2820875766
 30
0.0
  0
SPLINE
  5
38C
100
AcDbEntity
  8
0
100
AcDbSpline
 62
7
  6
CONTINUOUS
 70
0
 71
3
 72
11
 73
7
 74
0
 42
0.0000001
 43
0.0000001
 44
0.0000000001
 40
0.0
 40
0.0
 40
0.0
 40
0.0
 40
0.2597794222
 40
0.5131607124
 40
0.7599591931
 40
1.0
 40
1.0
 40
1.0
 40
1.0
 10
8.1835933231
 20
9.1022886739
 30
0.0
 10
8.1846468356
 20
9.1059059007
 30
0.0
 10
8.1867727576
 20
9.1130383075
 30
0.0
 10
8.190061567
 20
9.1235580454
 30
0.0
 10
8.1934083361
 20
9.1337586481
 30
0.0
 10
8.1957085778
 20
9.1404343056
 30
0.0
 10
8.1968688093
 20
9.1437165324
 30
0.0
  0
SPLINE
  5
38D
100
AcDbEntity
  8
0
100
AcDbSpline
 62
7
  6
CONTINUOUS
 70
0
 71
3
 72
74
 73
70
 74
0
 42
0.0000001
 43
0.0000001
 44
0.0000000001
 40
0.0
 40
0.0
 40
0.0
 40
0.0
 40
0.0417732297
 40
0.0840354996
 40
0.1266562577
 40
0.1695035058
 40
0.2124443552
 40
0.2553455509
 40
0.2980739934
 40
0.3404972635
 40
0.3824841492
 40
0.4239051745
 40
0.4443637943
 40
0.464633458
 40
0.4846987079
 40
0.5045442975
 40
0.5241552074
 40
0.5435166634
 40
0.5626141553
 40
0.5814334554
 40
0.5999606365
 40
0.6181820936
 40
0.6360845632
 40
0.653655144
 40
0.6708813217
 40
0.6877509903
 40
0.7042524783
 40
0.7203745771
 40
0.7361065684
 40
0.7514382573
 40
0.7663600087
 40
0.7808627848
 40
0.794938191
 40
0.8085785257
 40
0.8217768377
 40
0.8345269928
 40
0.8468237521
 40
0.8586628616
 40
0.8700411615
 40
0.8809567139
 40
0.8914089572
 40
0.8964617499
 40
0.9013992372
 40
0.9062218242
 40
0.9109300492
 40
0.9155245826
 40
0.920006251
 40
0.9243760336
 40
0.9286350922
 40
0.9327847673
 40
0.9368266121
 40
0.9407623908
 40
0.9445941146
 40
0.9483240447
 40
0.9519547268
 40
0.9554890015
 40
0.958930035
 40
0.9622813357
 40
0.9655467796
 40
0.9718361743
 40
0.9778384563
 40
0.9807468794
 40
0.9836013294
 40
0.9864086074
 40
0.9891758984
 40
0.9919107394
 40
0.9946209632
 40
0.9973146395
 40
1.0
 40
1.0
 40
1.0
 40
1.0
 10
8.2021555134
 20
8.664715035
 30
0.0
 10
8.2021555134
 20
8.6726904124
 30
0.0
 10
8.2022799388
 20
8.688734786
 30
0.0
 10
8.2028299946
 20
8.7129106797
 30
0.0
 10
8.2037429585
 20
8.737280826
 30
0.0
 10
8.2050158289
 20
8.7617645273
 30
0.0
 10
8.2066444058
 20
8.7862808013
 30
0.0
 10
8.2086233027
 20
8.810748533
 30
0.0
 10
8.2109459659
 20
8.8350867724
 30
0.0
 10
8.2136046943
 20
8.8592150136
 30
0.0
 10
8.2165906709
 20
8.8830533959
 30
0.0
 10
8.2193545944
 20
8.9026909895
 30
0.0
 10
8.2217239614
 20
8.9181951368
 30
0.0
 10
8.2235690544
 20
8.9296544252
 30
0.0
 10
8.2254879274
 20
8.9409828972
 30
0.0
 10
8.2274789958
 20
8.952171186
 30
0.0
 10
8.229540608
 20
8.9632100316
 30
0.0
 10
8.2316710559
 20
8.9740903006
 30
0.0
 10
8.2338685735
 20
8.9848029904
 30
0.0
 10
8.2361313394
 20
8.9953392378
 30
0.0
 10
8.2384574777
 20
9.0056903261
 30
0.0
 10
8.2408450602
 20
9.0158476923
 30
0.0
 10
8.2432921074
 20
9.0258029346
 30
0.0
 10
8.2457965903
 20
9.035547819
 30
0.0
 10
8.2483564322
 20
9.0450742866
 30
0.0
 10
8.2509695106
 20
9.0543744602
 30
0.0
 10
8.2536336585
 20
9.0634406511
 30
0.0
 10
8.2563466666
 20
9.0722653657
 30
0.0
 10
8.2591062849
 20
9.0808413117
 30
0.0
 10
8.2619102251
 20
9.0891614046
 30
0.0
 10
8.264756162
 20
9.0972187739
 30
0.0
 10
8.2676417362
 20
9.105006769
 30
0.0
 10
8.2705645559
 20
9.1125189654
 30
0.0
 10
8.2735221993
 20
9.11974917
 30
0.0
 10
8.2765122172
 20
9.1266914278
 30
0.0
 10
8.2795321354
 20
9.1333400261
 30
0.0
 10
8.2825794585
 20
9.1396895028
 30
0.0
 10
8.2856516707
 20
9.1457346445
 30
0.0
 10
8.2887462477
 20
9.1514705155
 30
0.0
 10
8.2918606333
 20
9.1568923812
 30
0.0
 10
8.2944992683
 20
9.1611924554
 30
0.0
 10
8.2966199737
 20
9.1644691038
 30
0.0
 10
8.298195904
 20
9.1668175707
 30
0.0
 10
8.2997748565
 20
9.1690842876
 30
0.0
 10
8.3013565113
 20
9.1712687932
 30
0.0
 10
8.3029405468
 20
9.1733706355
 30
0.0
 10
8.3045266349
 20
9.1753893857
 30
0.0
 10
8.3061144574
 20
9.1773246261
 30
0.0
 10
8.3077036855
 20
9.1791759629
 30
0.0
 10
8.3092940028
 20
9.1809430119
 30
0.0
 10
8.3108850817
 20
9.1826254142
 30
0.0
 10
8.3124766072
 20
9.1842228195
 30
0.0
 10
8.3140682544
 20
9.1857349028
 30
0.0
 10
8.3156597099
 20
9.1871613479
 30
0.0
 10
8.3172506518
 20
9.1885018613
 30
0.0
 10
8.3188407705
 20
9.1897561624
 30
0.0
 10
8.3204297382
 20
9.1909239809
 30
0.0
 10
8.3220172834
 20
9.1920050949
 30
0.0
 10
8.3241054006
 20
9.1933141622
 30
0.0
 10
8.3267137624
 20
9.1947423295
 30
0.0
 10
8.3293759642
 20
9.1959087262
 30
0.0
 10
8.3314942767
 20
9.1966582565
 30
0.0
 10
8.3330628253
 20
9.1971264983
 30
0.0
 10
8.3346273439
 20
9.1975065284
 30
0.0
 10
8.3361875253
 20
9.197798237
 30
0.0
 10
8.3377430067
 20
9.1980015371
 30
0.0
 10
8.3392934548
 20
9.1981163471
 30
0.0
 10
8.3408384402
 20
9.198142636
 30
0.0
 10
8.3418652407
 20
9.1981010974
 30
0.0
 10
8.3423767034
 20
9.1980656279
 30
0.0
  0
SPLINE
  5
38E
100
AcDbEntity
  8
0
100
AcDbSpline
 62
7
  6
CONTINUOUS
 70
0
 71
3
 72
15
 73
11
 74
0
 42
0.0000001
 43
0.0000001
 44
0.0000000001
 40
0.0
 40
0.0
 40
0.0
 40
0.0
 40
0.1376444746
 40
0.2715164871
 40
0.401681204
 40
0.5282171621
 40
0.6512120324
 40
0.7707645109
 40
0.8869865474
 40
1.0
 40
1.0
 40
1.0
 40
1.0
 10
8.1835933231
 20
8.3142819959
 30
0.0
 10
8.1841191359
 20
8.3134924143
 30
0.0
 10
8.1851755662
 20
8.3119475686
 30
0.0
 10
8.1867981267
 20
8.3097041398
 30
0.0
 10
8.1884360415
 20
8.3075675335
 30
0.0
 10
8.1900889307
 20
8.3055382623
 30
0.0
 10
8.1917564333
 20
8.3036167798
 30
0.0
 10
8.1934382017
 20
8.3018035172
 30
0.0
 10
8.1951338292
 20
8.3000989339
 30
0.0
 10
8.1962890309
 20
8.2990205221
 30
0.0
 10
8.1968688093
 20
8.298500409
 30
0.0
  0
SPLINE
  5
38F
100
AcDbEntity
  8
0
100
AcDbSpline
 62
7
  6
CONTINUOUS
 70
0
 71
3
 72
59
 73
55
 74
0
 42
0.0000001
 43
0.0000001
 44
0.0000000001
 40
0.0
 40
0.0
 40
0.0
 40
0.0
 40
0.0484988171
 40
0.0964105471
 40
0.1436624267
 40
0.1901827136
 40
0.235901292
 40
0.2807497153
 40
0.3246613844
 40
0.3675717406
 40
0.409418443
 40
0.4501415678
 40
0.4896838325
 40
0.5279908197
 40
0.5466651232
 40
0.565011644
 40
0.583024507
 40
0.6006980663
 40
0.6180269308
 40
0.6350059627
 40
0.651630291
 40
0.6678953402
 40
0.6837968328
 40
0.6993308086
 40
0.7144936575
 40
0.7292821277
 40
0.7436933519
 40
0.7577248903
 40
0.7713747458
 40
0.7846414022
 40
0.7975238789
 40
0.8100217626
 40
0.8221352615
 40
0.8338652799
 40
0.8452134725
 40
0.8561823266
 40
0.8667752659
 40
0.8769967401
 40
0.8868523459
 40
0.8963489756
 40
0.9054949535
 40
0.9143002079
 40
0.9227764694
 40
0.9309374566
 40
0.9387990872
 40
0.9463796946
 40
0.9537002083
 40
0.9607843133
 40
0.967658554
 40
0.9743523288
 40
0.9808977763
 40
0.9873295147
 40
0.9936842104
 40
1.0
 40
1.0
 40
1.0
 40
1.0
 10
8.2021555134
 20
8.664715035
 30
0.0
 10
8.2021555134
 20
8.6591532217
 30
0.0
 10
8.2022153359
 20
8.6480968208
 30
0.0
 10
8.2024878029
 20
8.6316236264
 30
0.0
 10
8.2029420392
 20
8.6153813909
 30
0.0
 10
8.2035772868
 20
8.59939692
 30
0.0
 10
8.2043924815
 20
8.5836965855
 30
0.0
 10
8.2053862626
 20
8.5683062849
 30
0.0
 10
8.2065569737
 20
8.5532514004
 30
0.0
 10
8.2079026615
 20
8.5385567564
 30
0.0
 10
8.2094210833
 20
8.5242465816
 30
0.0
 10
8.2111097083
 20
8.5103444517
 30
0.0
 10
8.2129657265
 20
8.4968733078
 30
0.0
 10
8.2146633582
 20
8.4859343588
 30
0.0
 10
8.2161056487
 20
8.4774169588
 30
0.0
 10
8.217218082
 20
8.4712044426
 30
0.0
 10
8.2183699233
 20
8.465115873
 30
0.0
 10
8.2195607027
 20
8.4591537561
 30
0.0
 10
8.2207899247
 20
8.4533205502
 30
0.0
 10
8.2220570813
 20
8.4476186589
 30
0.0
 10
8.22336165
 20
8.4420504322
 30
0.0
 10
8.2247030896
 20
8.4366181634
 30
0.0
 10
8.2260808456
 20
8.4313240897
 30
0.0
 10
8.2274943502
 20
8.4261703913
 30
0.0
 10
8.2289430175
 20
8.4211591885
 30
0.0
 10
8.2304262494
 20
8.4162925429
 30
0.0
 10
8.2319434354
 20
8.4115724562
 30
0.0
 10
8.2334939476
 20
8.4070008673
 30
0.0
 10
8.2350771473
 20
8.4025796536
 30
0.0
 10
8.2366923844
 20
8.3983106298
 30
0.0
 10
8.2383389931
 20
8.3941955454
 30
0.0
 10
8.2400162977
 20
8.3902360854
 30
0.0
 10
8.2417236138
 20
8.3864338702
 30
0.0
 10
8.243460242
 20
8.382790452
 30
0.0
 10
8.2452254762
 20
8.3793073167
 30
0.0
 10
8.2470186037
 20
8.3759858836
 30
0.0
 10
8.2488389001
 20
8.3728275019
 30
0.0
 10
8.2506856375
 20
8.3698334535
 30
0.0
 10
8.2525580855
 20
8.3670049539
 30
0.0
 10
8.2544555059
 20
8.3643431479
 30
0.0
 10
8.2563771624
 20
8.3618491157
 30
0.0
 10
8.2583223207
 20
8.3595238751
 30
0.0
 10
8.2602902432
 20
8.3573683781
 30
0.0
 10
8.2622801973
 20
8.3553835216
 30
0.0
 10
8.2642914537
 20
8.3535701522
 30
0.0
 10
8.2663232762
 20
8.3519290644
 30
0.0
 10
8.2683749246
 20
8.350461015
 30
0.0
 10
8.2704456435
 20
8.3491667275
 30
0.0
 10
8.2725346421
 20
8.3480468845
 30
0.0
 10
8.2746410919
 20
8.347102134
 30
0.0
 10
8.2767640859
 20
8.3463330783
 30
0.0
 10
8.2789027065
 20
8.3457402375
 30
0.0
 10
8.281055722
 20
8.3453240558
 30
0.0
 10
8.2825018689
 20
8.3451643867
 30
0.0
 10
8.2832244242
 20
8.3451142782
 30
0.0
  0
SPLINE
  5
390
100
AcDbEntity
  8
0
100
AcDbSpline
 62
7
  6
CONTINUOUS
 70
0
 71
3
 72
11
 73
7
 74
0
 42
0.0000001
 43
0.0000001
 44
0.0000000001
 40
0.0
 40
0.0
 40
0.0
 40
0.0
 40
0.2597794222
 40
0.5131607124
 40
0.7599591931
 40
1.0
 40
1.0
 40
1.0
 40
1.0
 10
7.7629940973
 20
9.1314573292
 30
0.0
 10
7.7640476098
 20
9.1350745561
 30
0.0
 10
7.7661735319
 20
9.1422069628
 30
0.0
 10
7.7694623412
 20
9.1527267008
 30
0.0
 10
7.7728091104
 20
9.1629273035
 30
0.0
 10
7.775109352
 20
9.169602961
 30
0.0
 10
7.7762695836
 20
9.1728851878
 30
0.0
  0
SPLINE
  5
391
100
AcDbEntity
  8
0
100
AcDbSpline
 62
7
  6
CONTINUOUS
 70
0
 71
3
 72
39
 73
35
 74
0
 42
0.0000001
 43
0.0000001
 44
0.0000000001
 40
0.0
 40
0.0
 40
0.0
 40
0.0
 40
0.0287392737
 40
0.057444492
 40
0.0861263421
 40
0.1147977187
 40
0.1434740043
 40
0.1721732015
 40
0.2009160276
 40
0.2297259006
 40
0.2586288096
 40
0.2876530224
 40
0.3168286023
 40
0.3461867839
 40
0.3757591781
 40
0.4055768356
 40
0.435669292
 40
0.4660635978
 40
0.4967834384
 40
0.5278484461
 40
0.5592736974
 40
0.5910694797
 40
0.6232413002
 40
0.6557901158
 40
0.6887127446
 40
0.7220023984
 40
0.755649298
 40
0.789641288
 40
0.823964438
 40
0.8586036053
 40
0.8935429153
 40
0.9287661746
 40
0.9642571664
 40
1.0
 40
1.0
 40
1.0
 40
1.0
 10
8.1835933231
 20
8.3142819959
 30
0.0
 10
8.1848912432
 20
8.3172112559
 30
0.0
 10
8.1874102519
 20
8.3231000524
 30
0.0
 10
8.190943515
 20
8.3320292215
 30
0.0
 10
8.1942129703
 20
8.3410505106
 30
0.0
 10
8.1972018585
 20
8.3501653661
 30
0.0
 10
8.1998929284
 20
8.3593747568
 30
0.0
 10
8.2022685504
 20
8.3686789331
 30
0.0
 10
8.204310951
 20
8.3780773302
 30
0.0
 10
8.2060024862
 20
8.3875684351
 30
0.0
 10
8.2073259714
 20
8.3971496764
 30
0.0
 10
8.208265052
 20
8.4068173331
 30
0.0
 10
8.2088046369
 20
8.4165664742
 30
0.0
 10
8.2089313238
 20
8.4263909491
 30
0.0
 10
8.20863382
 20
8.4362834281
 30
0.0
 10
8.207903378
 20
8.446235505
 30
0.0
 10
8.2067340907
 20
8.4562378579
 30
0.0
 10
8.2051231473
 20
8.4662804618
 30
0.0
 10
8.2030709852
 20
8.4763528479
 30
0.0
 10
8.2005812387
 20
8.4864443682
 30
0.0
 10
8.197660665
 20
8.4965444842
 30
0.0
 10
8.1943188772
 20
8.5066430226
 30
0.0
 10
8.1905679993
 20
8.5167303976
 30
0.0
 10
8.1864223
 20
8.5267978066
 30
0.0
 10
8.1818977235
 20
8.5368373505
 30
0.0
 10
8.1770114574
 20
8.5468421193
 30
0.0
 10
8.1717815145
 20
8.5568062294
 30
0.0
 10
8.1662263286
 20
8.5667248086
 30
0.0
 10
8.1603644192
 20
8.5765939574
 30
0.0
 10
8.1542141036
 20
8.5864106843
 30
0.0
 10
8.1477932657
 20
8.5961728194
 30
0.0
 10
8.1411191701
 20
8.6058789346
 30
0.0
 10
8.1342083725
 20
8.6155282006
 30
0.0
 10
8.1294698432
 20
8.621901454
 30
0.0
 10
8.1270660104
 20
8.6250794178
 30
0.0
  0
SPLINE
  5
392
100
AcDbEntity
  8
0
100
AcDbSpline
 62
7
  6
CONTINUOUS
 70
0
 71
3
 72
34
 73
30
 74
0
 42
0.0000001
 43
0.0000001
 44
0.0000000001
 40
0.0
 40
0.0
 40
0.0
 40
0.0
 40
0.061561428
 40
0.1232190827
 40
0.1540880803
 40
0.1849851141
 40
0.2159114717
 40
0.2468684002
 40
0.2778570865
 40
0.3088786359
 40
0.3399340495
 40
0.3710242041
 40
0.4021498319
 40
0.4333115035
 40
0.464509613
 40
0.4957443671
 40
0.5270157798
 40
0.5583236707
 40
0.58966767
 40
0.621047227
 40
0.6524616235
 40
0.6839099903
 40
0.7153913262
 40
0.7469045201
 40
0.7784483733
 40
0.8100216206
 40
0.8732494308
 40
0.9365790957
 40
1.0
 40
1.0
 40
1.0
 40
1.0
 10
7.7064667846
 20
8.7114575186
 30
0.0
 10
7.7053989053
 20
8.7201918285
 30
0.0
 10
7.703474589
 20
8.7377009955
 30
0.0
 10
7.7016506351
 20
8.7596530933
 30
0.0
 10
7.700569052
 20
8.7772621574
 30
0.0
 10
7.6999539537
 20
8.7904974815
 30
0.0
 10
7.6995426175
 20
8.8037532939
 30
0.0
 10
7.6993420315
 20
8.8170271112
 30
0.0
 10
7.6993587781
 20
8.8303160709
 30
0.0
 10
7.6995989196
 20
8.8436169815
 30
0.0
 10
7.7000678925
 20
8.8569263308
 30
0.0
 10
7.7007704036
 20
8.8702403193
 30
0.0
 10
7.7017103355
 20
8.8835549009
 30
0.0
 10
7.7028906631
 20
8.8968658337
 30
0.0
 10
7.7043133869
 20
8.9101687404
 30
0.0
 10
7.705979485
 20
8.9234591745
 30
0.0
 10
7.7078888875
 20
8.9367326912
 30
0.0
 10
7.7100404719
 20
8.9499849199
 30
0.0
 10
7.7124320877
 20
8.9632116347
 30
0.0
 10
7.7150605998
 20
8.9764088198
 30
0.0
 10
7.7179219539
 20
8.9895727288
 30
0.0
 10
7.7210112578
 20
9.002699932
 30
0.0
 10
7.7243228785
 20
9.0157873589
 30
0.0
 10
7.7278505401
 20
9.0288323119
 30
0.0
 10
7.7315874546
 20
9.0418325304
 30
0.0
 10
7.7368415515
 20
9.0591111775
 30
0.0
 10
7.7438958939
 20
9.080588301
 30
0.0
 10
7.7530726828
 20
9.1061485093
 30
0.0
 10
7.7596213136
 20
9.1230429962
 30
0.0
 10
7.7629940973
 20
9.1314573292
 30
0.0
  0
SPLINE
  5
393
100
AcDbEntity
  8
0
100
AcDbSpline
 62
7
  6
CONTINUOUS
 70
0
 71
3
 72
37
 73
33
 74
0
 42
0.0000001
 43
0.0000001
 44
0.0000000001
 40
0.0
 40
0.0
 40
0.0
 40
0.0
 40
0.0319772853
 40
0.063929836
 40
0.0958551057
 40
0.1277502897
 40
0.1596124143
 40
0.1914383246
 40
0.2232247182
 40
0.2549681851
 40
0.2866652769
 40
0.3183125805
 40
0.3499067901
 40
0.38144482
 40
0.4129239071
 40
0.4443417036
 40
0.4756963812
 40
0.5069867052
 40
0.5382120872
 40
0.5693726087
 40
0.6004690183
 40
0.6315026907
 40
0.6624755568
 40
0.693390034
 40
0.7242489149
 40
0.7550552653
 40
0.7858123415
 40
0.8165234822
 40
0.8471920297
 40
0.8778212749
 40
0.9389708206
 40
1.0
 40
1.0
 40
1.0
 40
1.0
 10
8.1270660104
 20
8.6822888632
 30
0.0
 10
8.1294770899
 20
8.6862939432
 30
0.0
 10
8.1342304943
 20
8.6943415256
 30
0.0
 10
8.1411420037
 20
8.7065326377
 30
0.0
 10
8.1478166976
 20
8.7188415056
 30
0.0
 10
8.1542379826
 20
8.7312696796
 30
0.0
 10
8.1603885537
 20
8.7438179866
 30
0.0
 10
8.1662504844
 20
8.7564863128
 30
0.0
 10
8.1718054149
 20
8.7692734611
 30
0.0
 10
8.1770347879
 20
8.7821769934
 30
0.0
 10
8.1819201398
 20
8.7951930959
 30
0.0
 10
8.1864434415
 20
8.8083164707
 30
0.0
 10
8.1905875091
 20
8.8215402619
 30
0.0
 10
8.1943364252
 20
8.8348560456
 30
0.0
 10
8.1976759737
 20
8.8482538857
 30
0.0
 10
8.2005941111
 20
8.861722451
 30
0.0
 10
8.2030813253
 20
8.8752492264
 30
0.0
 10
8.2051309754
 20
8.8888207794
 30
0.0
 10
8.2067395471
 20
8.9024230828
 30
0.0
 10
8.2079067133
 20
8.9160418822
 30
0.0
 10
8.2086353751
 20
8.9296630587
 30
0.0
 10
8.2089315001
 20
8.9432729865
 30
0.0
 10
8.2088038627
 20
8.9568588461
 30
0.0
 10
8.208263749
 20
8.9704088806
 30
0.0
 10
8.207324526
 20
8.9839125844
 30
0.0
 10
8.2060012294
 20
8.9973608176
 30
0.0
 10
8.2043101444
 20
9.0107458628
 30
0.0
 10
8.2022683879
 20
9.0240613869
 30
0.0
 10
8.1998935209
 20
9.0373024771
 30
0.0
 10
8.1963087341
 20
9.0548421781
 30
0.0
 10
8.1910835121
 20
9.076569598
 30
0.0
 10
8.1861931609
 20
9.0937538908
 30
0.0
 10
8.1835933231
 20
9.1022886739
 30
0.0
  0
SPLINE
  5
394
100
AcDbEntity
  8
0
100
AcDbSpline
 62
7
  6
CONTINUOUS
 70
0
 71
3
 72
15
 73
11
 74
0
 42
0.0000001
 43
0.0000001
 44
0.0000000001
 40
0.0
 40
0.0
 40
0.0
 40
0.0
 40
0.1193179785
 40
0.2392558022
 40
0.3602592438
 40
0.4828260531
 40
0.6074987705
 40
0.734853864
 40
0.8654876895
 40
1.0
 40
1.0
 40
1.0
 40
1.0
 10
7.7762695836
 20
9.1728851878
 30
0.0
 10
7.7763228271
 20
9.1743462306
 30
0.0
 10
7.7765118796
 20
9.1772736476
 30
0.0
 10
7.7770553296
 20
9.1816569165
 30
0.0
 10
7.7778732611
 20
9.1860382156
 30
0.0
 10
7.7789796755
 20
9.1904157083
 30
0.0
 10
7.780388173
 20
9.1947875187
 30
0.0
 10
7.7821117152
 20
9.1991515515
 30
0.0
 10
7.7841621688
 20
9.2035053091
 30
0.0
 10
7.7857292997
 20
9.2063539997
 30
0.0
 10
7.7865665825
 20
9.2077736786
 30
0.0
  0
SPLINE
  5
395
100
AcDbEntity
  8
0
100
AcDbSpline
 62
7
  6
CONTINUOUS
 70
0
 71
3
 72
59
 73
55
 74
0
 42
0.0000001
 43
0.0000001
 44
0.0000000001
 40
0.0
 40
0.0
 40
0.0
 40
0.0
 40
0.0505532802
 40
0.1001011968
 40
0.1485728382
 40
0.1958941167
 40
0.2419885794
 40
0.2867783223
 40
0.3301852992
 40
0.3513465567
 40
0.372133698
 40
0.3925377467
 40
0.4125501152
 40
0.4321626789
 40
0.4513678894
 40
0.4701588657
 40
0.4885294904
 40
0.5064745517
 40
0.5239898333
 40
0.5410722222
 40
0.5577198698
 40
0.5739322777
 40
0.5897103978
 40
0.6050567956
 40
0.6199757269
 40
0.6344732084
 40
0.6485571513
 40
0.6622374218
 40
0.675525854
 40
0.6884363162
 40
0.7009847295
 40
0.7250636108
 40
0.7366409476
 40
0.7479390534
 40
0.7589828083
 40
0.7697983948
 40
0.7804129868
 40
0.7908544444
 40
0.8011510067
 40
0.8113309129
 40
0.8214220504
 40
0.8314516346
 40
0.8414458747
 40
0.8514297005
 40
0.8614265474
 40
0.8714581672
 40
0.8815445121
 40
0.8917036776
 40
0.9019518679
 40
0.9123034337
 40
0.9333615024
 40
0.9549626344
 40
0.9771632956
 40
1.0
 40
1.0
 40
1.0
 40
1.0
 10
8.1968688093
 20
9.1437165324
 30
0.0
 10
8.1998094188
 20
9.1446541422
 30
0.0
 10
8.2056226531
 20
9.1465407222
 30
0.0
 10
8.2142181717
 20
9.1494394739
 30
0.0
 10
8.2225902154
 20
9.1523813321
 30
0.0
 10
8.230722342
 20
9.1553675331
 30
0.0
 10
8.2385973085
 20
9.1583991516
 30
0.0
 10
8.246197117
 20
9.1614770514
 30
0.0
 10
8.2523364335
 20
9.1641027613
 30
0.0
 10
8.2570937314
 20
9.1662303057
 30
0.0
 10
8.260550878
 20
9.1678243475
 30
0.0
 10
8.2639250211
 20
9.1694302385
 30
0.0
 10
8.267213798
 20
9.1710479362
 30
0.0
 10
8.2704148701
 20
9.1726773684
 30
0.0
 10
8.2735259423
 20
9.1743184309
 30
0.0
 10
8.2765447717
 20
9.1759709927
 30
0.0
 10
8.2794691809
 20
9.1776348976
 30
0.0
 10
8.2822970774
 20
9.1793099532
 30
0.0
 10
8.2850264628
 20
9.1809959399
 30
0.0
 10
8.2876554455
 20
9.1826926143
 30
0.0
 10
8.2901822625
 20
9.1843996963
 30
0.0
 10
8.2926052864
 20
9.1861168805
 30
0.0
 10
8.294923035
 20
9.1878438416
 30
0.0
 10
8.2971341931
 20
9.1895802217
 30
0.0
 10
8.2992376169
 20
9.1913256408
 30
0.0
 10
8.301232337
 20
9.1930797058
 30
0.0
 10
8.3031175751
 20
9.1948419972
 30
0.0
 10
8.3048927543
 20
9.196612085
 30
0.0
 10
8.3065574666
 20
9.198389504
 30
0.0
 10
8.3081115764
 20
9.2001738782
 30
0.0
 10
8.3100099484
 20
9.2025289894
 30
0.0
 10
8.311720206
 20
9.2049292633
 30
0.0
 10
8.3132244534
 20
9.2073705796
 30
0.0
 10
8.3142292861
 20
9.2091822547
 30
0.0
 10
8.3151263322
 20
9.2109979113
 30
0.0
 10
8.3159167296
 20
9.2128170991
 30
0.0
 10
8.31660173
 20
9.2146393238
 30
0.0
 10
8.3171827357
 20
9.216464111
 30
0.0
 10
8.3176612971
 20
9.2182909871
 30
0.0
 10
8.3180390857
 20
9.2201194946
 30
0.0
 10
8.3183178813
 20
9.2219491926
 30
0.0
 10
8.3184995771
 20
9.2237796591
 30
0.0
 10
8.3185861463
 20
9.2256104978
 30
0.0
 10
8.3185796334
 20
9.2274413389
 30
0.0
 10
8.3184821493
 20
9.2292718422
 30
0.0
 10
8.3182958419
 20
9.2311016966
 30
0.0
 10
8.3180228921
 20
9.2329306232
 30
0.0
 10
8.3176655035
 20
9.2347583635
 30
0.0
 10
8.317225872
 20
9.2365847181
 30
0.0
 10
8.3165290992
 20
9.2390314067
 30
0.0
 10
8.3154587337
 20
9.2420893424
 30
0.0
 10
8.313887935
 20
9.2457275391
 30
0.0
 10
8.3120405215
 20
9.2493551261
 30
0.0
 10
8.310655214
 20
9.2517321268
 30
0.0
 10
8.3099234346
 20
9.2529189212
 30
0.0
  0
SPLINE
  5
396
100
AcDbEntity
  8
0
100
AcDbSpline
 62
7
  6
CONTINUOUS
 70
0
 71
3
 72
32
 73
28
 74
0
 42
0.0000001
 43
0.0000001
 44
0.0000000001
 40
0.0
 40
0.0
 40
0.0
 40
0.0
 40
0.0669070547
 40
0.1331426244
 40
0.1986929028
 40
0.2635539078
 40
0.2957290437
 40
0.3277354949
 40
0.3595759859
 40
0.3912539677
 40
0.4227735907
 40
0.4541396632
 40
0.4853575967
 40
0.51643334
 40
0.5473733046
 40
0.5781842823
 40
0.6088733592
 40
0.639447828
 40
0.6699151013
 40
0.7002826286
 40
0.7305578184
 40
0.7607479678
 40
0.7908601996
 40
0.8209014097
 40
0.8807948723
 40
0.9404798545
 40
1.0
 40
1.0
 40
1.0
 40
1.0
 10
7.7368001004
 20
8.3992346726
 30
0.0
 10
7.7345667935
 20
8.404600147
 30
0.0
 10
7.7302714714
 20
8.4153400647
 30
0.0
 10
7.7243491522
 20
8.431554008
 30
0.0
 10
7.7190100239
 20
8.447782627
 30
0.0
 10
7.715058965
 20
8.4613446843
 30
0.0
 10
7.7122170485
 20
8.4721879305
 30
0.0
 10
7.7102514618
 20
8.4802942434
 30
0.0
 10
7.7084479119
 20
8.4883938938
 30
0.0
 10
7.706807684
 20
8.4964850663
 30
0.0
 10
7.7053316137
 20
8.50456591
 30
0.0
 10
7.7040200558
 20
8.5126346038
 30
0.0
 10
7.7028728847
 20
8.5206893648
 30
0.0
 10
7.701889497
 20
8.5287284708
 30
0.0
 10
7.701068822
 20
8.5367502776
 30
0.0
 10
7.7004093385
 20
8.5447532361
 30
0.0
 10
7.6999090992
 20
8.5527359059
 30
0.0
 10
7.6995657587
 20
8.5606969678
 30
0.0
 10
7.6993766075
 20
8.5686352328
 30
0.0
 10
7.6993386083
 20
8.5765496476
 30
0.0
 10
7.6994484356
 20
8.5844393018
 30
0.0
 10
7.6997025133
 20
8.5923034169
 30
0.0
 10
7.7000970656
 20
8.6001413891
 30
0.0
 10
7.7008043891
 20
8.6105453786
 30
0.0
 10
7.7020191245
 20
8.6234875104
 30
0.0
 10
7.7039747329
 20
8.6389234445
 30
0.0
 10
7.7055885518
 20
8.6491531461
 30
0.0
 10
7.7064667846
 20
8.6542480731
 30
0.0
  0
SPLINE
  5
397
100
AcDbEntity
  8
0
100
AcDbSpline
 62
7
  6
CONTINUOUS
 70
0
 71
3
 72
11
 73
7
 74
0
 42
0.0000001
 43
0.0000001
 44
0.0000000001
 40
0.0
 40
0.0
 40
0.0
 40
0.0
 40
0.2394749506
 40
0.485822197
 40
0.7392645615
 40
1.0
 40
1.0
 40
1.0
 40
1.0
 10
14.159551437
 20
7.8867106077
 30
0.0
 10
14.1601983986
 20
7.8871890342
 30
0.0
 10
14.1614929457
 20
7.8881840966
 30
0.0
 10
14.1634090458
 20
7.8897654877
 30
0.0
 10
14.1653259114
 20
7.891455987
 30
0.0
 10
14.1665859185
 20
7.8926384504
 30
0.0
 10
14.1672160426
 20
7.8932471036
 30
0.0
  0
SPLINE
  5
398
100
AcDbEntity
  8
0
100
AcDbSpline
 62
7
  6
CONTINUOUS
 70
0
 71
3
 72
11
 73
7
 74
0
 42
0.0000001
 43
0.0000001
 44
0.0000000001
 40
0.0
 40
0.0
 40
0.0
 40
0.0
 40
0.2396605935
 40
0.4861361377
 40
0.7395476642
 40
1.0
 40
1.0
 40
1.0
 40
1.0
 10
14.1672160426
 20
7.8932471036
 30
0.0
 10
14.1678642205
 20
7.8938731954
 30
0.0
 10
14.1691602506
 20
7.895162734
 30
0.0
 10
14.1710768421
 20
7.8971780997
 30
0.0
 10
14.172992498
 20
7.8993008748
 30
0.0
 10
14.1742513126
 20
7.9007670986
 30
0.0
 10
14.1748806482
 20
7.9015174896
 30
0.0
  0
SPLINE
  5
399
100
AcDbEntity
  8
0
100
AcDbSpline
 62
7
  6
CONTINUOUS
 70
0
 71
3
 72
11
 73
7
 74
0
 42
0.0000001
 43
0.0000001
 44
0.0000000001
 40
0.0
 40
0.0
 40
0.0
 40
0.0
 40
0.2523402475
 40
0.5031675623
 40
0.7524100652
 40
1.0
 40
1.0
 40
1.0
 40
1.0
 10
14.1748806482
 20
7.9015174896
 30
0.0
 10
14.1775442365
 20
7.9053573067
 30
0.0
 10
14.182794365
 20
7.9130565311
 30
0.0
 10
14.1904462988
 20
7.9247026051
 30
0.0
 10
14.1978362593
 20
7.9364128376
 30
0.0
 10
14.2025937892
 20
7.9442893538
 30
0.0
 10
14.2049232849
 20
7.9482387654
 30
0.0
  0
SPLINE
  5
39A
100
AcDbEntity
  8
0
100
AcDbSpline
 62
7
  6
CONTINUOUS
 70
0
 71
3
 72
81
 73
77
 74
0
 42
0.0000001
 43
0.0000001
 44
0.0000000001
 40
0.0
 40
0.0
 40
0.0
 40
0.0
 40
0.004808067
 40
0.0097392237
 40
0.0147932589
 40
0.0199698409
 40
0.0252685131
 40
0.0306887136
 40
0.0362297736
 40
0.0418909281
 40
0.0476713221
 40
0.0535700098
 40
0.0657179267
 40
0.0783257596
 40
0.0913832741
 40
0.104879213
 40
0.1188013808
 40
0.1331367199
 40
0.1478713742
 40
0.1629907488
 40
0.1784795611
 40
0.1943218895
 40
0.2105012178
 40
0.2270004767
 40
0.243802083
 40
0.2608879767
 40
0.278239657
 40
0.295838216
 40
0.3136643738
 40
0.3316985095
 40
0.3499206957
 40
0.368310728
 40
0.3868481585
 40
0.4055123252
 40
0.4242823838
 40
0.443137338
 40
0.4620560698
 40
0.4810173706
 40
0.499999971
 40
0.5189825717
 40
0.5379438726
 40
0.5568626049
 40
0.5757175592
 40
0.5944876184
 40
0.6131517858
 40
0.6316892172
 40
0.6500792507
 40
0.668301438
 40
0.686335575
 40
0.7041617338
 40
0.7217602941
 40
0.7391119756
 40
0.7561978712
 40
0.7729994795
 40
0.7894987407
 40
0.805678071
 40
0.8215204014
 40
0.8370092153
 40
0.8521285919
 40
0.8668632486
 40
0.8811985904
 40
0.8951207613
 40
0.908616703
 40
0.9216742202
 40
0.9342820553
 40
0.9464299745
 40
0.9523286647
 40
0.9581090588
 40
0.963770216
 40
0.9693112766
 40
0.9747314791
 40
0.9800301526
 40
0.9852067356
 40
0.9902607733
 40
0.9951919303
 40
1.0
 40
1.0
 40
1.0
 40
1.0
 10
14.2214707253
 20
7.9762946984
 30
0.0
 10
14.2221087221
 20
7.9773764118
 30
0.0
 10
14.2233818901
 20
7.9795788844
 30
0.0
 10
14.2252605212
 20
7.9829555519
 30
0.0
 10
14.22713165
 20
7.9864459895
 30
0.0
 10
14.2289947056
 20
7.9900491455
 30
0.0
 10
14.2308491382
 20
7.9937639486
 30
0.0
 10
14.23269439
 20
7.9975892909
 30
0.0
 10
14.2345299115
 20
8.0015240315
 30
0.0
 10
14.2363551525
 20
8.0055669954
 30
0.0
 10
14.2381695712
 20
8.0097169795
 30
0.0
 10
14.2405974194
 20
8.0154475003
 30
0.0
 10
14.24359828
 20
8.0228713875
 30
0.0
 10
14.2471132191
 20
8.0321020563
 30
0.0
 10
14.2505721925
 20
8.0417288073
 30
0.0
 10
14.2539710476
 20
8.0517401294
 30
0.0
 10
14.2573057069
 20
8.0621240933
 30
0.0
 10
14.2605721683
 20
8.0728683032
 30
0.0
 10
14.2637665118
 20
8.0839599305
 30
0.0
 10
14.2668849036
 20
8.0953857253
 30
0.0
 10
14.2699236017
 20
8.1071320342
 30
0.0
 10
14.2728789598
 20
8.1191848166
 30
0.0
 10
14.2757474324
 20
8.1315296629
 30
0.0
 10
14.2785255783
 20
8.1441518117
 30
0.0
 10
14.281210065
 20
8.1570361676
 30
0.0
 10
14.283797673
 20
8.1701673204
 30
0.0
 10
14.2862852991
 20
8.1835295629
 30
0.0
 10
14.2886699603
 20
8.1971069102
 30
0.0
 10
14.2909487979
 20
8.2108831188
 30
0.0
 10
14.29311908
 20
8.2248417066
 30
0.0
 10
14.2951782052
 20
8.2389659724
 30
0.0
 10
14.2971237058
 20
8.2532390163
 30
0.0
 10
14.2989532502
 20
8.2676437597
 30
0.0
 10
14.3006646463
 20
8.2821629662
 30
0.0
 10
14.3022558437
 20
8.2967792619
 30
0.0
 10
14.3037249363
 20
8.3114751563
 30
0.0
 10
14.3050701646
 20
8.3262330636
 30
0.0
 10
14.306289918
 20
8.3410353235
 30
0.0
 10
14.3073827361
 20
8.3558642225
 30
0.0
 10
14.308347311
 20
8.3707020153
 30
0.0
 10
14.3091824885
 20
8.3855309458
 30
0.0
 10
14.3098872697
 20
8.4003332685
 30
0.0
 10
14.3104608124
 20
8.4150912699
 30
0.0
 10
14.3109024316
 20
8.4297872894
 30
0.0
 10
14.311211601
 20
8.4444037413
 30
0.0
 10
14.3113879532
 20
8.4589231347
 30
0.0
 10
14.3114312799
 20
8.4733280957
 30
0.0
 10
14.3113415328
 20
8.4876013873
 30
0.0
 10
14.3111188232
 20
8.5017259306
 30
0.0
 10
14.3107634222
 20
8.5156848253
 30
0.0
 10
14.3102757603
 20
8.5294613699
 30
0.0
 10
14.3096564271
 20
8.543039082
 30
0.0
 10
14.3089061703
 20
8.5564017179
 30
0.0
 10
14.3080258953
 20
8.5695332927
 30
0.0
 10
14.3070166636
 20
8.5824180987
 30
0.0
 10
14.3058796918
 20
8.5950407253
 30
0.0
 10
14.3046163506
 20
8.6073860771
 30
0.0
 10
14.3032281626
 20
8.6194393932
 30
0.0
 10
14.3017168011
 20
8.6311862642
 30
0.0
 10
14.3000840878
 20
8.6426126511
 30
0.0
 10
14.2983319907
 20
8.6537049015
 30
0.0
 10
14.2964626215
 20
8.6644497685
 30
0.0
 10
14.2944782328
 20
8.6748344223
 30
0.0
 10
14.2923812162
 20
8.6848464847
 30
0.0
 10
14.2901740959
 20
8.6944739818
 30
0.0
 10
14.2882267298
 20
8.7022410315
 30
0.0
 10
14.2866131465
 20
8.7082518285
 30
0.0
 10
14.2853889454
 20
8.7126125426
 30
0.0
 10
14.284139256
 20
8.7168687553
 30
0.0
 10
14.282864443
 20
8.7210191994
 30
0.0
 10
14.2815648938
 20
8.7250626359
 30
0.0
 10
14.2802409925
 20
8.7289978584
 30
0.0
 10
14.2788931385
 20
8.7328236929
 30
0.0
 10
14.2775217315
 20
8.7365390028
 30
0.0
 10
14.2761271866
 20
8.7401426668
 30
0.0
 10
14.2751702296
 20
8.7424998006
 30
0.0
 10
14.2746876563
 20
8.7436592265
 30
0.0
  0
SPLINE
  5
39B
100
AcDbEntity
  8
0
100
AcDbSpline
 62
7
  6
CONTINUOUS
 70
0
 71
3
 72
34
 73
30
 74
0
 42
0.0000001
 43
0.0000001
 44
0.0000000001
 40
0.0
 40
0.0
 40
0.0
 40
0.0
 40
0.0216083256
 40
0.0436800296
 40
0.0893355668
 40
0.1372133491
 40
0.1875183949
 40
0.2136366283
 40
0.240419722
 40
0.2678813046
 40
0.2960321837
 40
0.3248803765
 40
0.3544311657
 40
0.384687207
 40
0.4156486553
 40
0.4473133095
 40
0.4796767721
 40
0.5127326187
 40
0.5464725835
 40
0.5808867555
 40
0.6159637668
 40
0.651690979
 40
0.6880546639
 40
0.7250401804
 40
0.7626321468
 40
0.8008145938
 40
0.8395711107
 40
0.9187385546
 40
1.0
 40
1.0
 40
1.0
 40
1.0
 10
14.2680004814
 20
8.7597257651
 30
0.0
 10
14.2676468301
 20
8.7605755324
 30
0.0
 10
14.2668994956
 20
8.7622799888
 30
0.0
 10
14.2652452817
 20
8.765707669
 30
0.0
 10
14.2628678491
 20
8.7700249359
 30
0.0
 10
14.2595613427
 20
8.7751876817
 30
0.0
 10
14.2564367162
 20
8.7794661207
 30
0.0
 10
14.2536990381
 20
8.782906279
 30
0.0
 10
14.2514966442
 20
8.785527345
 30
0.0
 10
14.2491712452
 20
8.7881565833
 30
0.0
 10
14.246723446
 20
8.7907935867
 30
0.0
 10
14.2441541536
 20
8.7934378873
 30
0.0
 10
14.2414645153
 20
8.7960890219
 30
0.0
 10
14.2386559202
 20
8.7987465182
 30
0.0
 10
14.2357299817
 20
8.8014099023
 30
0.0
 10
14.232688522
 20
8.804078702
 30
0.0
 10
14.2295335556
 20
8.8067524493
 30
0.0
 10
14.226267271
 20
8.8094306849
 30
0.0
 10
14.2228920111
 20
8.8121129606
 30
0.0
 10
14.2194102519
 20
8.8147988413
 30
0.0
 10
14.2158245829
 20
8.8174879071
 30
0.0
 10
14.2121376866
 20
8.8201797557
 30
0.0
 10
14.2083523201
 20
8.8228740037
 30
0.0
 10
14.2044712962
 20
8.8255702884
 30
0.0
 10
14.2004974649
 20
8.828268266
 30
0.0
 10
14.1964336972
 20
8.8309676206
 30
0.0
 10
14.1908598921
 20
8.834593782
 30
0.0
 10
14.1836854444
 20
8.8391237192
 30
0.0
 10
14.1778493216
 20
8.8426791834
 30
0.0
 10
14.1748806482
 20
8.8444591136
 30
0.0
  0
SPLINE
  5
39C
100
AcDbEntity
  8
0
100
AcDbSpline
 62
7
  6
CONTINUOUS
 70
0
 71
3
 72
9
 73
5
 74
0
 42
0.0000001
 43
0.0000001
 44
0.0000000001
 40
0.0
 40
0.0
 40
0.0
 40
0.0
 40
0.5119716051
 40
1.0
 40
1.0
 40
1.0
 40
1.0
 10
13.7478115497
 20
8.8682242502
 30
0.0
 10
13.7488650216
 20
8.8692047101
 30
0.0
 10
13.750970848
 20
8.8710689044
 30
0.0
 10
13.7531784232
 20
8.8728121037
 30
0.0
 10
13.7542814224
 20
8.8736277689
 30
0.0
  0
SPLINE
  5
39D
100
AcDbEntity
  8
0
100
AcDbSpline
 62
7
  6
CONTINUOUS
 70
0
 71
3
 72
33
 73
29
 74
0
 42
0.0000001
 43
0.0000001
 44
0.0000000001
 40
0.0
 40
0.0
 40
0.0
 40
0.0
 40
0.0211114097
 40
0.0429001209
 40
0.065379765
 40
0.0885607877
 40
0.1124505682
 40
0.1370535465
 40
0.1623714874
 40
0.1884036669
 40
0.2151470123
 40
0.2425963651
 40
0.2707446947
 40
0.2995832488
 40
0.329101782
 40
0.3592887632
 40
0.3901315205
 40
0.4216164355
 40
0.4537291117
 40
0.4864545062
 40
0.5197770915
 40
0.5536809657
 40
0.6231671426
 40
0.6947834866
 40
0.7684000428
 40
0.8438894975
 40
0.9211287001
 40
1.0
 40
1.0
 40
1.0
 40
1.0
 10
13.6394826903
 20
7.9784733017
 30
0.0
 10
13.640008323
 20
7.977827011
 30
0.0
 10
13.6410990778
 20
7.9765319525
 30
0.0
 10
13.6428230613
 20
7.9746121491
 30
0.0
 10
13.6446597243
 20
7.9726853616
 30
0.0
 10
13.6466081898
 20
7.9707521396
 30
0.0
 10
13.648667415
 20
7.9688130001
 30
0.0
 10
13.6508361533
 20
7.966868469
 30
0.0
 10
13.6531129869
 20
7.9649190739
 30
0.0
 10
13.6554963332
 20
7.9629653434
 30
0.0
 10
13.65798445
 20
7.9610077932
 30
0.0
 10
13.660575457
 20
7.959046932
 30
0.0
 10
13.6632673517
 20
7.9570832604
 30
0.0
 10
13.666058018
 20
7.9551172595
 30
0.0
 10
13.6689452444
 20
7.9531493938
 30
0.0
 10
13.6719267424
 20
7.951180113
 30
0.0
 10
13.6750001569
 20
7.9492098432
 30
0.0
 10
13.6781630813
 20
7.9472389886
 30
0.0
 10
13.6814130748
 20
7.9452679341
 30
0.0
 10
13.6847476711
 20
7.9432970403
 30
0.0
 10
13.688164393
 20
7.9413266382
 30
0.0
 10
13.6928646782
 20
7.9386788722
 30
0.0
 10
13.6989299168
 20
7.9353761551
 30
0.0
 10
13.706438944
 20
7.9314507451
 30
0.0
 10
13.714218199
 20
7.9275331854
 30
0.0
 10
13.722249547
 20
7.9236248733
 30
0.0
 10
13.7305157189
 20
7.9197269245
 30
0.0
 10
13.7361163031
 20
7.9171613624
 30
0.0
 10
13.7389522113
 20
7.9158792631
 30
0.0
  0
SPLINE
  5
39E
100
AcDbEntity
  8
0
100
AcDbSpline
 62
7
  6
CONTINUOUS
 70
0
 71
3
 72
11
 73
7
 74
0
 42
0.0000001
 43
0.0000001
 44
0.0000000001
 40
0.0
 40
0.0
 40
0.0
 40
0.0
 40
0.2600920509
 40
0.5135755305
 40
0.7602686496
 40
1.0
 40
1.0
 40
1.0
 40
1.0
 10
13.6333794282
 20
8.0744116019
 30
0.0
 10
13.6339432959
 20
8.070740683
 30
0.0
 10
13.6351034474
 20
8.0634991936
 30
0.0
 10
13.6369677964
 20
8.0528038982
 30
0.0
 10
13.6389325921
 20
8.042422338
 30
0.0
 10
13.6403285156
 20
8.0356178292
 30
0.0
 10
13.6410440338
 20
8.0322702097
 30
0.0
  0
SPLINE
  5
39F
100
AcDbEntity
  8
0
100
AcDbSpline
 62
7
  6
CONTINUOUS
 70
0
 71
3
 72
11
 73
7
 74
0
 42
0.0000001
 43
0.0000001
 44
0.0000000001
 40
0.0
 40
0.0
 40
0.0
 40
0.0
 40
0.2396605935
 40
0.4861361377
 40
0.7395476642
 40
1.0
 40
1.0
 40
1.0
 40
1.0
 10
13.7466168169
 20
8.8670912731
 30
0.0
 10
13.7459686389
 20
8.8664651812
 30
0.0
 10
13.7446726089
 20
8.8651756427
 30
0.0
 10
13.7427560174
 20
8.863160277
 30
0.0
 10
13.7408403615
 20
8.8610375019
 30
0.0
 10
13.7395815469
 20
8.8595712781
 30
0.0
 10
13.7389522113
 20
8.8588208871
 30
0.0
  0
SPLINE
  5
3A0
100
AcDbEntity
  8
0
100
AcDbSpline
 62
7
  6
CONTINUOUS
 70
0
 71
3
 72
97
 73
93
 74
0
 42
0.0000001
 43
0.0000001
 44
0.0000000001
 40
0.0
 40
0.0
 40
0.0
 40
0.0
 40
0.0037552215
 40
0.0076544173
 40
0.0117006892
 40
0.0158967252
 40
0.0202446461
 40
0.0247461164
 40
0.0294024054
 40
0.0342144075
 40
0.039182688
 40
0.0443075153
 40
0.0495888811
 40
0.0550265304
 40
0.0606199829
 40
0.0663685452
 40
0.0722713319
 40
0.0783272809
 40
0.0845351601
 40
0.0908935833
 40
0.097401021
 40
0.1040558034
 40
0.1108561334
 40
0.1178000949
 40
0.1248856531
 40
0.1321106654
 40
0.1394728878
 40
0.1469699745
 40
0.1623587408
 40
0.1782565744
 40
0.1946415982
 40
0.2114907269
 40
0.2287797714
 40
0.2464835261
 40
0.2645758507
 40
0.2830297523
 40
0.3018174592
 40
0.3209104898
 40
0.3402797266
 40
0.3598954813
 40
0.3797275616
 40
0.3997453372
 40
0.419917805
 40
0.4402136513
 40
0.4606013182
 40
0.4810490647
 40
0.5015250317
 40
0.5219973034
 40
0.5424339724
 40
0.5628032007
 40
0.5830732846
 40
0.6032127161
 40
0.6231902493
 40
0.6429749601
 40
0.6625363145
 40
0.6818442314
 40
0.7008691482
 40
0.7195820877
 40
0.7379547288
 40
0.7559594711
 40
0.7735695129
 40
0.7907589246
 40
0.8075027268
 40
0.8237769771
 40
0.8395588634
 40
0.8548267996
 40
0.862261742
 40
0.8695607217
 40
0.8767214409
 40
0.8837416998
 40
0.8906194058
 40
0.8973525798
 40
0.9039393577
 40
0.9103780007
 40
0.9166669051
 40
0.9228046042
 40
0.9287897821
 40
0.9346212858
 40
0.9402981312
 40
0.9458195205
 40
0.9511848585
 40
0.9563937644
 40
0.9614460952
 40
0.9663419696
 40
0.9710817873
 40
0.9756662625
 40
0.9800964591
 40
0.9843738231
 40
0.9885002297
 40
0.9924780355
 40
0.9963101296
 40
1.0
 40
1.0
 40
1.0
 40
1.0
 10
13.687212375
 20
8.8118065433
 30
0.0
 10
13.6864459985
 20
8.8110662803
 30
0.0
 10
13.6849139607
 20
8.8095259468
 30
0.0
 10
13.6826596199
 20
8.8070878221
 30
0.0
 10
13.6804072679
 20
8.8044802148
 30
0.0
 10
13.6781578607
 20
8.8017042562
 30
0.0
 10
13.67591228
 20
8.7987610602
 30
0.0
 10
13.6736714413
 20
8.7956518367
 30
0.0
 10
13.6714362575
 20
8.7923778592
 30
0.0
 10
13.6692076406
 20
8.7889404726
 30
0.0
 10
13.6669865052
 20
8.7853410896
 30
0.0
 10
13.6647737676
 20
8.7815811908
 30
0.0
 10
13.6625703386
 20
8.7776623266
 30
0.0
 10
13.6603771291
 20
8.7735861141
 30
0.0
 10
13.6581950486
 20
8.7693542355
 30
0.0
 10
13.6560249999
 20
8.764968441
 30
0.0
 10
13.653867883
 20
8.7604305449
 30
0.0
 10
13.651724595
 20
8.7557424248
 30
0.0
 10
13.6495960248
 20
8.7509060229
 30
0.0
 10
13.6474830565
 20
8.7459233433
 30
0.0
 10
13.6453865702
 20
8.7407964509
 30
0.0
 10
13.6433074363
 20
8.7355274722
 30
0.0
 10
13.6412465191
 20
8.7301185931
 30
0.0
 10
13.6392046777
 20
8.7245720572
 30
0.0
 10
13.6371827596
 20
8.7188901667
 30
0.0
 10
13.6351816074
 20
8.7130752812
 30
0.0
 10
13.6332020495
 20
8.7071298106
 30
0.0
 10
13.6305696713
 20
8.6989606916
 30
0.0
 10
13.6273424936
 20
8.6884392629
 30
0.0
 10
13.623601803
 20
8.6754396869
 30
0.0
 10
13.619966438
 20
8.6619805951
 30
0.0
 10
13.6164424626
 20
8.6480843549
 30
0.0
 10
13.6130357565
 20
8.6337740193
 30
0.0
 10
13.6097520032
 20
8.6190733494
 30
0.0
 10
13.6065966775
 20
8.6040067574
 30
0.0
 10
13.603575041
 20
8.5885992688
 30
0.0
 10
13.6006921317
 20
8.5728764789
 30
0.0
 10
13.5979527532
 20
8.5568645106
 30
0.0
 10
13.595361471
 20
8.5405899697
 30
0.0
 10
13.592922603
 20
8.5240799004
 30
0.0
 10
13.5906402104
 20
8.5073617404
 30
0.0
 10
13.5885180952
 20
8.4904632743
 30
0.0
 10
13.5865597913
 20
8.4734125879
 30
0.0
 10
13.5847685575
 20
8.4562380207
 30
0.0
 10
13.5831473758
 20
8.438968119
 30
0.0
 10
13.581698944
 20
8.4216315877
 30
0.0
 10
13.5804256699
 20
8.4042572436
 30
0.0
 10
13.5793296713
 20
8.3868739656
 30
0.0
 10
13.5784127695
 20
8.3695106483
 30
0.0
 10
13.5776764856
 20
8.3521961525
 30
0.0
 10
13.5771220413
 20
8.3349592581
 30
0.0
 10
13.5767503543
 20
8.3178286151
 30
0.0
 10
13.5765620358
 20
8.3008326966
 30
0.0
 10
13.5765573929
 20
8.2839997509
 30
0.0
 10
13.5767364254
 20
8.2673577544
 30
0.0
 10
13.5770988248
 20
8.2509343647
 30
0.0
 10
13.5776439785
 20
8.2347568749
 30
0.0
 10
13.5783709673
 20
8.2188521669
 30
0.0
 10
13.5792785668
 20
8.2032466672
 30
0.0
 10
13.5803652524
 20
8.1879663018
 30
0.0
 10
13.5816291987
 20
8.1730364533
 30
0.0
 10
13.583068282
 20
8.1584819158
 30
0.0
 10
13.5846800877
 20
8.1443268587
 30
0.0
 10
13.5864619082
 20
8.1305947665
 30
0.0
 10
13.5884107567
 20
8.1173084623
 30
0.0
 10
13.5901865551
 20
8.1065333815
 30
0.0
 10
13.5916912404
 20
8.0981545063
 30
0.0
 10
13.5928494666
 20
8.0920508844
 30
0.0
 10
13.5940468781
 20
8.0860747835
 30
0.0
 10
13.5952829829
 20
8.0802286803
 30
0.0
 10
13.5965572649
 20
8.0745150027
 30
0.0
 10
13.5978691919
 20
8.0689361215
 30
0.0
 10
13.5992182187
 20
8.0634943518
 30
0.0
 10
13.6006037839
 20
8.0581919512
 30
0.0
 10
13.602025309
 20
8.0530311179
 30
0.0
 10
13.6034822036
 20
8.0480139915
 30
0.0
 10
13.6049738622
 20
8.0431426512
 30
0.0
 10
13.6064996627
 20
8.0384191136
 30
0.0
 10
13.6080589724
 20
8.0338453341
 30
0.0
 10
13.6096511449
 20
8.0294232047
 30
0.0
 10
13.611275518
 20
8.0251545521
 30
0.0
 10
13.6129314205
 20
8.0210411392
 30
0.0
 10
13.6146181691
 20
8.0170846627
 30
0.0
 10
13.6163350662
 20
8.0132867514
 30
0.0
 10
13.6180814076
 20
8.0096489681
 30
0.0
 10
13.6198564791
 20
8.0061728073
 30
0.0
 10
13.6216595548
 20
8.0028596933
 30
0.0
 10
13.6234899063
 20
7.9997109819
 30
0.0
 10
13.6253467944
 20
7.9967279653
 30
0.0
 10
13.627229489
 20
7.9939118437
 30
0.0
 10
13.6291372008
 20
7.9912638252
 30
0.0
 10
13.6304496336
 20
7.9895799168
 30
0.0
 10
13.6311102401
 20
7.988767667
 30
0.0
  0
SPLINE
  5
3A1
100
AcDbEntity
  8
0
100
AcDbSpline
 62
7
  6
CONTINUOUS
 70
0
 71
3
 72
11
 73
7
 74
0
 42
0.0000001
 43
0.0000001
 44
0.0000000001
 40
0.0
 40
0.0
 40
0.0
 40
0.0
 40
0.2396605935
 40
0.4861361377
 40
0.7395476642
 40
1.0
 40
1.0
 40
1.0
 40
1.0
 10
14.1672160426
 20
8.8379226177
 30
0.0
 10
14.1665678647
 20
8.8372965259
 30
0.0
 10
14.1652718346
 20
8.8360069873
 30
0.0
 10
14.1633552431
 20
8.8339916216
 30
0.0
 10
14.1614395873
 20
8.8318688465
 30
0.0
 10
14.1601807726
 20
8.8304026227
 30
0.0
 10
14.159551437
 20
8.8296522317
 30
0.0
  0
SPLINE
  5
3A2
100
AcDbEntity
  8
0
100
AcDbSpline
 62
7
  6
CONTINUOUS
 70
0
 71
3
 72
11
 73
7
 74
0
 42
0.0000001
 43
0.0000001
 44
0.0000000001
 40
0.0
 40
0.0
 40
0.0
 40
0.0
 40
0.2600920509
 40
0.5135755305
 40
0.7602686496
 40
1.0
 40
1.0
 40
1.0
 40
1.0
 10
14.0539786539
 20
8.0452429465
 30
0.0
 10
14.0545425216
 20
8.0415720277
 30
0.0
 10
14.0557026731
 20
8.0343305383
 30
0.0
 10
14.0575670222
 20
8.0236352428
 30
0.0
 10
14.0595318178
 20
8.0132536826
 30
0.0
 10
14.0609277413
 20
8.0064491739
 30
0.0
 10
14.0616432595
 20
8.0031015543
 30
0.0
  0
SPLINE
  5
3A3
100
AcDbEntity
  8
0
100
AcDbSpline
 62
7
  6
CONTINUOUS
 70
0
 71
3
 72
11
 73
7
 74
0
 42
0.0000001
 43
0.0000001
 44
0.0000000001
 40
0.0
 40
0.0
 40
0.0
 40
0.0
 40
0.2394749506
 40
0.485822197
 40
0.7392645615
 40
1.0
 40
1.0
 40
1.0
 40
1.0
 10
14.1748806482
 20
8.8444591136
 30
0.0
 10
14.1742336866
 20
8.8439806871
 30
0.0
 10
14.1729391395
 20
8.8429856247
 30
0.0
 10
14.1710230394
 20
8.8414042336
 30
0.0
 10
14.1691061738
 20
8.8397137343
 30
0.0
 10
14.1678461667
 20
8.8385312709
 30
0.0
 10
14.1672160426
 20
8.8379226177
 30
0.0
  0
SPLINE
  5
3A4
100
AcDbEntity
  8
0
100
AcDbSpline
 62
7
  6
CONTINUOUS
 70
0
 71
3
 72
47
 73
43
 74
0
 42
0.0000001
 43
0.0000001
 44
0.0000000001
 40
0.0
 40
0.0
 40
0.0
 40
0.0
 40
0.0470737043
 40
0.0925008329
 40
0.136287069
 40
0.1784424061
 40
0.218981687
 40
0.25792523
 40
0.2952995218
 40
0.3311380374
 40
0.3654821913
 40
0.3983824151
 40
0.4298993084
 40
0.4601048955
 40
0.4890839236
 40
0.5031456991
 40
0.5169391063
 40
0.5437760863
 40
0.5697281065
 40
0.5949399684
 40
0.6073205064
 40
0.6195769512
 40
0.6317312046
 40
0.6438057689
 40
0.6558236422
 40
0.6678081782
 40
0.6797829416
 40
0.6917715608
 40
0.7037975747
 40
0.7158842867
 40
0.7280546141
 40
0.7403309703
 40
0.7527351337
 40
0.7652881483
 40
0.790915652
 40
0.8173700918
 40
0.8447871794
 40
0.8732869875
 40
0.9029743114
 40
0.9339393926
 40
0.966259794
 40
1.0
 40
1.0
 40
1.0
 40
1.0
 10
14.2746876563
 20
8.7436592265
 30
0.0
 10
14.2740666627
 20
8.7451512198
 30
0.0
 10
14.2728133307
 20
8.7480694159
 30
0.0
 10
14.2708616541
 20
8.7523222763
 30
0.0
 10
14.2688727533
 20
8.756370634
 30
0.0
 10
14.2668476648
 20
8.7602123622
 30
0.0
 10
14.2647874209
 20
8.7638454824
 30
0.0
 10
14.2626930677
 20
8.7672681203
 30
0.0
 10
14.2605656545
 20
8.770478515
 30
0.0
 10
14.2584062322
 20
8.7734750137
 30
0.0
 10
14.2562158469
 20
8.7762560727
 30
0.0
 10
14.2539955488
 20
8.7788202454
 30
0.0
 10
14.2517463511
 20
8.781166201
 30
0.0
 10
14.249469357
 20
8.7832926144
 30
0.0
 10
14.2475303575
 20
8.7848965439
 30
0.0
 10
14.2459670535
 20
8.7860646159
 30
0.0
 10
14.2444254297
 20
8.7871369656
 30
0.0
 10
14.2424813092
 20
8.7883433711
 30
0.0
 10
14.2401033936
 20
8.7895803631
 30
0.0
 10
14.2380906695
 20
8.7904289143
 30
0.0
 10
14.2364739525
 20
8.7909914476
 30
0.0
 10
14.2352637497
 20
8.7913544948
 30
0.0
 10
14.2340488739
 20
8.7916611128
 30
0.0
 10
14.2328294721
 20
8.7919112589
 30
0.0
 10
14.2316057233
 20
8.7921048896
 30
0.0
 10
14.2303778014
 20
8.7922419781
 30
0.0
 10
14.2291458825
 20
8.7923224956
 30
0.0
 10
14.2279101446
 20
8.7923464368
 30
0.0
 10
14.2266707651
 20
8.7923137989
 30
0.0
 10
14.2254279224
 20
8.7922245872
 30
0.0
 10
14.224181791
 20
8.7920788264
 30
0.0
 10
14.2229325523
 20
8.791876541
 30
0.0
 10
14.2216803592
 20
8.7916177606
 30
0.0
 10
14.2199956523
 20
8.7911946141
 30
0.0
 10
14.217878876
 20
8.7905203011
 30
0.0
 10
14.2153483624
 20
8.7894912656
 30
0.0
 10
14.2128109662
 20
8.7882376367
 30
0.0
 10
14.2102680397
 20
8.7867603543
 30
0.0
 10
14.2077207378
 20
8.7850603785
 30
0.0
 10
14.2051702199
 20
8.7831387128
 30
0.0
 10
14.2026177455
 20
8.7809964951
 30
0.0
 10
14.2009521472
 20
8.7794559013
 30
0.0
 10
14.2001190192
 20
8.7786511614
 30
0.0
  0
SPLINE
  5
3A5
100
AcDbEntity
  8
0
100
AcDbSpline
 62
7
  6
CONTINUOUS
 70
0
 71
3
 72
34
 73
30
 74
0
 42
0.0000001
 43
0.0000001
 44
0.0000000001
 40
0.0
 40
0.0
 40
0.0
 40
0.0
 40
0.0587347016
 40
0.0881762424
 40
0.1176763415
 40
0.147243137
 40
0.1768853141
 40
0.2066120572
 40
0.2364329738
 40
0.2663579977
 40
0.2963972689
 40
0.3265609925
 40
0.3568592808
 40
0.3873019836
 40
0.4178985118
 40
0.4486576625
 40
0.4795874524
 40
0.5106949686
 40
0.5419862439
 40
0.573466162
 40
0.6051383972
 40
0.6370053871
 40
0.6690683413
 40
0.7013272811
 40
0.7337811075
 40
0.7992613333
 40
0.8654846801
 40
0.9324127598
 40
1.0
 40
1.0
 40
1.0
 40
1.0
 10
14.159551437
 20
8.8296522317
 30
0.0
 10
14.1597740978
 20
8.8232520048
 30
0.0
 10
14.1599449962
 20
8.8136366168
 30
0.0
 10
14.1598182726
 20
8.8008059318
 30
0.0
 10
14.1595380363
 20
8.7911588887
 30
0.0
 10
14.1590651269
 20
8.7814974744
 30
0.0
 10
14.1583921568
 20
8.7718230999
 30
0.0
 10
14.1575119793
 20
8.7621375098
 30
0.0
 10
14.1564177949
 20
8.7524426768
 30
0.0
 10
14.1551032538
 20
8.7427408296
 30
0.0
 10
14.1535625638
 20
8.7330344348
 30
0.0
 10
14.1517905973
 20
8.7233261832
 30
0.0
 10
14.1497829923
 20
8.713618963
 30
0.0
 10
14.1475362444
 20
8.7039158281
 30
0.0
 10
14.1450477848
 20
8.6942199569
 30
0.0
 10
14.1423160419
 20
8.6845346068
 30
0.0
 10
14.1393404824
 20
8.6748630629
 30
0.0
 10
14.1361216288
 20
8.6652085854
 30
0.0
 10
14.1326610561
 20
8.6555743549
 30
0.0
 10
14.1289613598
 20
8.6459634217
 30
0.0
 10
14.1250261045
 20
8.6363786593
 30
0.0
 10
14.1208597497
 20
8.6268227196
 30
0.0
 10
14.1164675707
 20
8.6172980132
 30
0.0
 10
14.1118555282
 20
8.6078066315
 30
0.0
 10
14.1054029965
 20
8.5951615352
 30
0.0
 10
14.096818838
 20
8.5794506468
 30
0.0
 10
14.0857851529
 20
8.5608099434
 30
0.0
 10
14.074051871
 20
8.5423295265
 30
0.0
 10
14.0658435538
 20
8.530172325
 30
0.0
 10
14.0616432595
 20
8.5241171994
 30
0.0
  0
SPLINE
  5
3A6
100
AcDbEntity
  8
0
100
AcDbSpline
 62
7
  6
CONTINUOUS
 70
0
 71
3
 72
39
 73
35
 74
0
 42
0.0000001
 43
0.0000001
 44
0.0000000001
 40
0.0
 40
0.0
 40
0.0
 40
0.0
 40
0.0355293782
 40
0.0708198155
 40
0.1058562104
 40
0.1406231448
 40
0.1751052191
 40
0.2092873295
 40
0.2431550591
 40
0.2766951313
 40
0.309895942
 40
0.3427481272
 40
0.3752451424
 40
0.4073838432
 40
0.4391649873
 40
0.4705936211
 40
0.5016792966
 40
0.5324360796
 40
0.5628823308
 40
0.5930402345
 40
0.6229351536
 40
0.6525948057
 40
0.682048354
 40
0.7113255141
 40
0.7404556762
 40
0.7694671589
 40
0.7983866245
 40
0.827238622
 40
0.8560453091
 40
0.8848263284
 40
0.9135987882
 40
0.942377347
 40
0.9711743315
 40
1.0
 40
1.0
 40
1.0
 40
1.0
 10
13.7389522113
 20
8.8588208871
 30
0.0
 10
13.7361418943
 20
8.8559505991
 30
0.0
 10
13.7305873739
 20
8.8501828353
 30
0.0
 10
13.7224399839
 20
8.8414149432
 30
0.0
 10
13.7145194198
 20
8.8325567475
 30
0.0
 10
13.7068421969
 20
8.8236067797
 30
0.0
 10
13.6994256133
 20
8.814564077
 30
0.0
 10
13.6922876814
 20
8.8054283389
 30
0.0
 10
13.6854469537
 20
8.7962000342
 30
0.0
 10
13.6789223058
 20
8.7868805205
 30
0.0
 10
13.6727326596
 20
8.7774721488
 30
0.0
 10
13.6668966553
 20
8.7679783505
 30
0.0
 10
13.6614322535
 20
8.7584037073
 30
0.0
 10
13.656356315
 20
8.7487539717
 30
0.0
 10
13.6516841609
 20
8.7390360411
 30
0.0
 10
13.6474290909
 20
8.7292578997
 30
0.0
 10
13.6436019947
 20
8.719428472
 30
0.0
 10
13.64021098
 20
8.709557446
 30
0.0
 10
13.6372610747
 20
8.6996550505
 30
0.0
 10
13.6347541149
 20
8.6897317763
 30
0.0
 10
13.6326886599
 20
8.6797981149
 30
0.0
 10
13.6310601084
 20
8.6698642778
 30
0.0
 10
13.6298609241
 20
8.659939947
 30
0.0
 10
13.6290809065
 20
8.6500340737
 30
0.0
 10
13.6287076088
 20
8.6401547149
 30
0.0
 10
13.6287267487
 20
8.6303089351
 30
0.0
 10
13.6291226303
 20
8.6205027574
 30
0.0
 10
13.629878581
 20
8.6107411637
 30
0.0
 10
13.630977331
 20
8.6010281354
 30
0.0
 10
13.6324013534
 20
8.591366718
 30
0.0
 10
13.6341331536
 20
8.5817591158
 30
0.0
 10
13.6361555138
 20
8.5722067583
 30
0.0
 10
13.6384516397
 20
8.5627105223
 30
0.0
 10
13.6401531582
 20
8.5564208142
 30
0.0
 10
13.6410440338
 20
8.5532858548
 30
0.0
  0
SPLINE
  5
3A7
100
AcDbEntity
  8
0
100
AcDbSpline
 62
7
  6
CONTINUOUS
 70
0
 71
3
 72
34
 73
30
 74
0
 42
0.0000001
 43
0.0000001
 44
0.0000000001
 40
0.0
 40
0.0
 40
0.0
 40
0.0
 40
0.0635009768
 40
0.1269006218
 40
0.1901876085
 40
0.221786201
 40
0.2533524803
 40
0.2848851293
 40
0.31638291
 40
0.3478446865
 40
0.3792694491
 40
0.4106563362
 40
0.4420046549
 40
0.4733138973
 40
0.5045837536
 40
0.53581412
 40
0.5670051023
 40
0.5981570127
 40
0.6292703627
 40
0.6603458495
 40
0.6913843396
 40
0.7223868484
 40
0.7533545189
 40
0.784288598
 40
0.8151904133
 40
0.8460613491
 40
0.8769028256
 40
0.9385016541
 40
1.0
 40
1.0
 40
1.0
 40
1.0
 10
14.0539786539
 20
8.4671689254
 30
0.0
 10
14.056198079
 20
8.4584080931
 30
0.0
 10
14.0604330585
 20
8.4408487666
 30
0.0
 10
14.0661167017
 20
8.4143813709
 30
0.0
 10
14.0702421754
 20
8.3922314011
 30
0.0
 10
14.0731438143
 20
8.3744693825
 30
0.0
 10
14.0751126748
 20
8.3611358494
 30
0.0
 10
14.0768682534
 20
8.3477870241
 30
0.0
 10
14.0784041262
 20
8.3344260703
 30
0.0
 10
14.0797144349
 20
8.3210565121
 30
0.0
 10
14.0807940079
 20
8.3076821527
 30
0.0
 10
14.0816384552
 20
8.2943070476
 30
0.0
 10
14.0822442594
 20
8.2809354493
 30
0.0
 10
14.0826088498
 20
8.2675717493
 30
0.0
 10
14.0827306587
 20
8.2542204111
 30
0.0
 10
14.0826091568
 20
8.240885899
 30
0.0
 10
14.0822448672
 20
8.2275726058
 30
0.0
 10
14.0816393518
 20
8.2142847817
 30
0.0
 10
14.0807951759
 20
8.201026468
 30
0.0
 10
14.0797158527
 20
8.187801438
 30
0.0
 10
14.0784057682
 20
8.1746131473
 30
0.0
 10
14.0768700925
 20
8.1614646945
 30
0.0
 10
14.0751146801
 20
8.1483587946
 30
0.0
 10
14.0731459629
 20
8.13529776
 30
0.0
 10
14.0709708442
 20
8.1222835071
 30
0.0
 10
14.0685965787
 20
8.1093175222
 30
0.0
 10
14.0651769998
 20
8.0921034197
 30
0.0
 10
14.0604428114
 20
8.0707090743
 30
0.0
 10
14.0562013963
 20
8.0537085782
 30
0.0
 10
14.0539786539
 20
8.0452429465
 30
0.0
  0
SPLINE
  5
3A8
100
AcDbEntity
  8
0
100
AcDbSpline
 62
7
  6
CONTINUOUS
 70
0
 71
3
 72
37
 73
33
 74
0
 42
0.0000001
 43
0.0000001
 44
0.0000000001
 40
0.0
 40
0.0
 40
0.0
 40
0.0
 40
0.0609409746
 40
0.1220038181
 40
0.1525908227
 40
0.1832181958
 40
0.2138895222
 40
0.2446084685
 40
0.2753787261
 40
0.3062039275
 40
0.3370875329
 40
0.3680327385
 40
0.3990423657
 40
0.4301187379
 40
0.4612635998
 40
0.4924780354
 40
0.5237624163
 40
0.5551163914
 40
0.5865389031
 40
0.6180282384
 40
0.6495821016
 40
0.6811977224
 40
0.712871953
 40
0.7446013778
 40
0.7763824337
 40
0.8082114904
 40
0.840084932
 40
0.8719992337
 40
0.9039510079
 40
0.9359370443
 40
0.9679543014
 40
1.0
 40
1.0
 40
1.0
 40
1.0
 10
13.6333794282
 20
8.4963375808
 30
0.0
 10
13.6296655481
 20
8.4882799093
 30
0.0
 10
13.6225288707
 20
8.4720086308
 30
0.0
 10
13.6144547452
 20
8.4513039735
 30
0.0
 10
13.608564349
 20
8.4345028635
 30
0.0
 10
13.6044458059
 20
8.4217735358
 30
0.0
 10
13.6006473697
 20
8.4089249256
 30
0.0
 10
13.5971870946
 20
8.3959594584
 30
0.0
 10
13.5940827846
 20
8.3828810226
 30
0.0
 10
13.5913516045
 20
8.3696949862
 30
0.0
 10
13.5890096704
 20
8.3564082926
 30
0.0
 10
13.5870716271
 20
8.3430294621
 30
0.0
 10
13.5855502245
 20
8.3295685362
 30
0.0
 10
13.584455865
 20
8.3160369494
 30
0.0
 10
13.5837962776
 20
8.3024473186
 30
0.0
 10
13.5835762181
 20
8.2888131686
 30
0.0
 10
13.583797262
 20
8.2751486019
 30
0.0
 10
13.5844577965
 20
8.2614679356
 30
0.0
 10
13.5855530314
 20
8.2477853296
 30
0.0
 10
13.58707521
 20
8.2341144346
 30
0.0
 10
13.5890139098
 20
8.2204680816
 30
0.0
 10
13.5913563699
 20
8.2068580246
 30
0.0
 10
13.5940879426
 20
8.1932947604
 30
0.0
 10
13.5971925167
 20
8.1797874143
 30
0.0
 10
13.6006529363
 20
8.1663436912
 30
0.0
 10
13.6044514172
 20
8.152969893
 30
0.0
 10
13.6085698989
 20
8.1396709778
 30
0.0
 10
13.6129903518
 20
8.1264506535
 30
0.0
 10
13.6176950306
 20
8.1133115
 30
0.0
 10
13.6226666809
 20
8.1002550845
 30
0.0
 10
13.6278886563
 20
8.0872821628
 30
0.0
 10
13.631524801
 20
8.0786926573
 30
0.0
 10
13.6333794282
 20
8.0744116019
 30
0.0
  0
SPLINE
  5
3A9
100
AcDbEntity
  8
0
100
AcDbSpline
 62
7
  6
CONTINUOUS
 70
0
 71
3
 72
39
 73
35
 74
0
 42
0.0000001
 43
0.0000001
 44
0.0000000001
 40
0.0
 40
0.0
 40
0.0
 40
0.0
 40
0.0456955419
 40
0.0905834148
 40
0.1346261228
 40
0.1777863341
 40
0.2200273954
 40
0.2613138611
 40
0.3016121232
 40
0.3408911018
 40
0.3791229973
 40
0.4162840877
 40
0.4523555537
 40
0.4873243001
 40
0.5211837449
 40
0.5539345441
 40
0.5855852136
 40
0.6161526124
 40
0.6456622523
 40
0.6741484013
 40
0.701653943
 40
0.7282299857
 40
0.7539352106
 40
0.7788349646
 40
0.8030001162
 40
0.8265057134
 40
0.8494294928
 40
0.8718503097
 40
0.8938465695
 40
0.9154947416
 40
0.9368680277
 40
0.9580352503
 40
0.979059986
 40
1.0
 40
1.0
 40
1.0
 40
1.0
 10
14.0616432595
 20
8.0031015543
 30
0.0
 10
14.0637352722
 20
8.0018472444
 30
0.0
 10
14.0678699655
 20
7.9993401033
 30
0.0
 10
14.0739740648
 20
7.9955472929
 30
0.0
 10
14.0799189176
 20
7.9917554934
 30
0.0
 10
14.0856966483
 20
7.9879654159
 30
0.0
 10
14.0912993241
 20
7.9841778468
 30
0.0
 10
14.096719014
 20
7.9803936543
 30
0.0
 10
14.1019478734
 20
7.9766137863
 30
0.0
 10
14.1069782338
 20
7.9728392673
 30
0.0
 10
14.1118027024
 20
7.9690711922
 30
0.0
 10
14.1164142669
 20
7.9653107184
 30
0.0
 10
14.1208064043
 20
7.9615590548
 30
0.0
 10
14.1249731893
 20
7.9578174485
 30
0.0
 10
14.1289093981
 20
7.9540871692
 30
0.0
 10
14.1326106037
 20
7.9503694917
 30
0.0
 10
14.1360732592
 20
7.9466656784
 30
0.0
 10
14.1392947655
 20
7.9429769607
 30
0.0
 10
14.1422735188
 20
7.9393045217
 30
0.0
 10
14.1450089397
 20
7.9356494812
 30
0.0
 10
14.1475014762
 20
7.9320128819
 30
0.0
 10
14.1497525875
 20
7.9283956792
 30
0.0
 10
14.1517647072
 20
7.924798734
 30
0.0
 10
14.1535411889
 20
7.9212228077
 30
0.0
 10
14.1550862386
 20
7.9176685587
 30
0.0
 10
14.1564048342
 20
7.9141365402
 30
0.0
 10
14.1575026372
 20
7.9106271967
 30
0.0
 10
14.1583858966
 20
7.9071408601
 30
0.0
 10
14.1590613491
 20
7.9036777464
 30
0.0
 10
14.1595361178
 20
7.9002379488
 30
0.0
 10
14.1598176123
 20
7.8968214479
 30
0.0
 10
14.1599134253
 20
7.8934280678
 30
0.0
 10
14.1598312578
 20
7.8900576505
 30
0.0
 10
14.1596627342
 20
7.8878228288
 30
0.0
 10
14.159551437
 20
7.8867106077
 30
0.0
  0
SPLINE
  5
3AA
100
AcDbEntity
  8
0
100
AcDbSpline
 62
7
  6
CONTINUOUS
 70
0
 71
3
 72
34
 73
30
 74
0
 42
0.0000001
 43
0.0000001
 44
0.0000000001
 40
0.0
 40
0.0
 40
0.0
 40
0.0
 40
0.0657754678
 40
0.1295352896
 40
0.1913829087
 40
0.2514830081
 40
0.3100744642
 40
0.3389097929
 40
0.3674974886
 40
0.3958928247
 40
0.4241570125
 40
0.4523570569
 40
0.48056536
 40
0.5088591508
 40
0.5373197963
 40
0.5660318595
 40
0.5950820798
 40
0.6245583203
 40
0.6545483455
 40
0.6851387257
 40
0.7164138343
 40
0.7484547659
 40
0.7813385549
 40
0.8151375518
 40
0.849918725
 40
0.8857433217
 40
0.9226666866
 40
0.960737944
 40
1.0
 40
1.0
 40
1.0
 40
1.0
 10
13.6410440338
 20
8.0322702097
 30
0.0
 10
13.6401802829
 20
8.031284508
 30
0.0
 10
13.6385273989
 20
8.0293002517
 30
0.0
 10
13.6362572234
 20
8.0262334414
 30
0.0
 10
13.6342505347
 20
8.0231210315
 30
0.0
 10
13.6325236316
 20
8.0199614852
 30
0.0
 10
13.6313252234
 20
8.0172730223
 30
0.0
 10
13.6305279359
 20
8.0151024918
 30
0.0
 10
13.6300135947
 20
8.0134710194
 30
0.0
 10
13.6295819261
 20
8.0118274935
 30
0.0
 10
13.6292350169
 20
8.0101718519
 30
0.0
 10
13.6289749535
 20
8.0085040998
 30
0.0
 10
13.6288037851
 20
8.0068242661
 30
0.0
 10
13.6287235046
 20
8.0051324179
 30
0.0
 10
13.6287360513
 20
8.0034286551
 30
0.0
 10
13.6288432834
 20
8.0017131115
 30
0.0
 10
13.6290469629
 20
7.9999859509
 30
0.0
 10
13.6293487617
 20
7.9982473665
 30
0.0
 10
13.6297502273
 20
7.9964975758
 30
0.0
 10
13.6302527817
 20
7.9947368177
 30
0.0
 10
13.6308577256
 20
7.9929653557
 30
0.0
 10
13.6315662058
 20
7.9911834701
 30
0.0
 10
13.6323792196
 20
7.9893914592
 30
0.0
 10
13.6332976185
 20
7.9875896465
 30
0.0
 10
13.6343220786
 20
7.9857783699
 30
0.0
 10
13.6354531041
 20
7.983957988
 30
0.0
 10
13.6366910396
 20
7.9821288775
 30
0.0
 10
13.6380360164
 20
7.9802914607
 30
0.0
 10
13.6389890758
 20
7.9790802243
 30
0.0
 10
13.6394826903
 20
7.9784733017
 30
0.0
  0
SPLINE
  5
3AB
100
AcDbEntity
  8
0
100
AcDbSpline
 62
7
  6
CONTINUOUS
 70
0
 71
3
 72
120
 73
116
 74
0
 42
0.0000001
 43
0.0000001
 44
0.0000000001
 40
0.0
 40
0.0
 40
0.0
 40
0.0
 40
0.0042132224
 40
0.0086210271
 40
0.0132282511
 40
0.0180387753
 40
0.0230554977
 40
0.0282805241
 40
0.0337152406
 40
0.0393604018
 40
0.0452162022
 40
0.0512823351
 40
0.0575580439
 40
0.0640421639
 40
0.0707331601
 40
0.0776291602
 40
0.0847279818
 40
0.0920271562
 40
0.0995239487
 40
0.1072153768
 40
0.1150982276
 40
0.1231690725
 40
0.1314242796
 40
0.1398600249
 40
0.1484723028
 40
0.1572569371
 40
0.1662095893
 40
0.1753257679
 40
0.1846008344
 40
0.1940300109
 40
0.2036083882
 40
0.213330932
 40
0.2331876279
 40
0.2535577244
 40
0.2743970411
 40
0.2956599447
 40
0.3172995113
 40
0.3392676907
 40
0.3615154586
 40
0.3839929725
 40
0.4066497228
 40
0.4294346811
 40
0.4522964513
 40
0.4751834169
 40
0.498043889
 40
0.5208262548
 40
0.5434791254
 40
0.5659514841
 40
0.5881928356
 40
0.6101533567
 40
0.6317840453
 40
0.6530368773
 40
0.6738649605
 40
0.694222694
 40
0.7140659381
 40
0.7237813611
 40
0.7333523614
 40
0.7427739108
 40
0.752041107
 40
0.7611491797
 40
0.7700934971
 40
0.7788695739
 40
0.7874730804
 40
0.795899849
 40
0.8041458834
 40
0.812207369
 40
0.8200806826
 40
0.8277624061
 40
0.8352493386
 40
0.8425385105
 40
0.8496271994
 40
0.8565129495
 40
0.8631935934
 40
0.8696672756
 40
0.8759324798
 40
0.8819880607
 40
0.8878332818
 40
0.8934678604
 40
0.8988920182
 40
0.9041065405
 40
0.909112848
 40
0.9139130794
 40
0.9185101917
 40
0.9229080753
 40
0.9271116865
 40
0.9311272019
 40
0.934962193
 40
0.9386258169
 40
0.9421290177
 40
0.9454847219
 40
0.9487080088
 40
0.9518162233
 40
0.9533335855
 40
0.9548297283
 40
0.9563074388
 40
0.9577696203
 40
0.9592192803
 40
0.9606595108
 40
0.9620934717
 40
0.9635243676
 40
0.9649554259
 40
0.9663898725
 40
0.9678309088
 40
0.9692816883
 40
0.970745296
 40
0.9722247293
 40
0.9737228801
 40
0.9752425242
 40
0.9783560705
 40
0.9815856151
 40
0.9849483881
 40
0.988459361
 40
0.9921313403
 40
0.9959752161
 40
1.0
 40
1.0
 40
1.0
 40
1.0
 10
14.2001190192
 20
8.7786511614
 30
0.0
 10
14.1991875205
 20
8.7777514027
 30
0.0
 10
14.1973258288
 20
8.7758640004
 30
0.0
 10
14.1945972844
 20
8.7728477618
 30
0.0
 10
14.1918722499
 20
8.7695852955
 30
0.0
 10
14.1891523719
 20
8.7660786245
 30
0.0
 10
14.186439195
 20
8.7623297781
 30
0.0
 10
14.1837343114
 20
8.7583409799
 30
0.0
 10
14.1810393104
 20
8.7541145864
 30
0.0
 10
14.1783557881
 20
8.7496531048
 30
0.0
 10
14.1756853406
 20
8.7449591867
 30
0.0
 10
14.173029562
 20
8.740035627
 30
0.0
 10
14.1703900425
 20
8.7348853628
 30
0.0
 10
14.167768365
 20
8.7295114713
 30
0.0
 10
14.1651661042
 20
8.7239171682
 30
0.0
 10
14.1625848251
 20
8.7181058037
 30
0.0
 10
14.1600260814
 20
8.7120808612
 30
0.0
 10
14.1574914147
 20
8.7058459544
 30
0.0
 10
14.1549823522
 20
8.6994048261
 30
0.0
 10
14.152500406
 20
8.6927613449
 30
0.0
 10
14.1500470728
 20
8.6859195025
 30
0.0
 10
14.1476238318
 20
8.6788834109
 30
0.0
 10
14.1452321448
 20
8.6716573002
 30
0.0
 10
14.1428734545
 20
8.664245516
 30
0.0
 10
14.1405491832
 20
8.6566525169
 30
0.0
 10
14.1382607327
 20
8.6488828712
 30
0.0
 10
14.1360094836
 20
8.640941254
 30
0.0
 10
14.1337967939
 20
8.6328324442
 30
0.0
 10
14.1316239979
 20
8.6245613218
 30
0.0
 10
14.1294924073
 20
8.6161328673
 30
0.0
 10
14.1274033017
 20
8.607552149
 30
0.0
 10
14.1246569455
 20
8.5958329911
 30
0.0
 10
14.1213428352
 20
8.5808403981
 30
0.0
 10
14.1175822291
 20
8.5624493057
 30
0.0
 10
14.1140197412
 20
8.5435787643
 30
0.0
 10
14.1106639839
 20
8.5242742237
 30
0.0
 10
14.1075230668
 20
8.5045821349
 30
0.0
 10
14.1046045802
 20
8.4845499029
 30
0.0
 10
14.1019155736
 20
8.4642257528
 30
0.0
 10
14.0994625384
 20
8.4436586182
 30
0.0
 10
14.0972513977
 20
8.4228980201
 30
0.0
 10
14.0952874843
 20
8.4019939483
 30
0.0
 10
14.0935755352
 20
8.3809967397
 30
0.0
 10
14.0921196766
 20
8.3599569562
 30
0.0
 10
14.0909234128
 20
8.3389252632
 30
0.0
 10
14.0899896229
 20
8.3179523063
 30
0.0
 10
14.089320547
 20
8.297088589
 30
0.0
 10
14.088917786
 20
8.2763843509
 30
0.0
 10
14.0887822961
 20
8.255889445
 30
0.0
 10
14.0889143831
 20
8.2356532187
 30
0.0
 10
14.0893137075
 20
8.2157243911
 30
0.0
 10
14.0899792793
 20
8.196150941
 30
0.0
 10
14.0909094597
 20
8.1769799712
 30
0.0
 10
14.09210198
 20
8.1582576594
 30
0.0
 10
14.0933202938
 20
8.1429617076
 30
0.0
 10
14.0944270162
 20
8.1309846647
 30
0.0
 10
14.0953148535
 20
8.1222048719
 30
0.0
 10
14.0962657591
 20
8.1135702845
 30
0.0
 10
14.0972791636
 20
8.1050860942
 30
0.0
 10
14.0983544528
 20
8.0967574098
 30
0.0
 10
14.0994909774
 20
8.0885892443
 30
0.0
 10
14.1006880506
 20
8.080586514
 30
0.0
 10
14.1019449484
 20
8.0727540345
 30
0.0
 10
14.1032609108
 20
8.0650965182
 30
0.0
 10
14.1046351426
 20
8.0576185716
 30
0.0
 10
14.1060668132
 20
8.0503246927
 30
0.0
 10
14.1075550577
 20
8.0432192676
 30
0.0
 10
14.1090989764
 20
8.0363065674
 30
0.0
 10
14.1106976363
 20
8.0295907457
 30
0.0
 10
14.1123500719
 20
8.0230758365
 30
0.0
 10
14.1140552854
 20
8.0167657512
 30
0.0
 10
14.1158122482
 20
8.0106642763
 30
0.0
 10
14.1176199006
 20
8.0047750697
 30
0.0
 10
14.1194771533
 20
7.9991016588
 30
0.0
 10
14.1213828889
 20
7.9936474383
 30
0.0
 10
14.1233359628
 20
7.9884156679
 30
0.0
 10
14.1253352052
 20
7.9834094697
 30
0.0
 10
14.1273794218
 20
7.9786318252
 30
0.0
 10
14.1294673963
 20
7.9740855732
 30
0.0
 10
14.1315978933
 20
7.9697734087
 30
0.0
 10
14.1337696613
 20
7.965697881
 30
0.0
 10
14.1359814367
 20
7.9618613931
 30
0.0
 10
14.1382319473
 20
7.9582662004
 30
0.0
 10
14.1405199176
 20
7.9549144119
 30
0.0
 10
14.1428440754
 20
7.9518079945
 30
0.0
 10
14.1452031573
 20
7.9489487791
 30
0.0
 10
14.1475959126
 20
7.9463384713
 30
0.0
 10
14.1500211101
 20
7.9439786627
 30
0.0
 10
14.1524775133
 20
7.9418708583
 30
0.0
 10
14.1549639406
 20
7.9400164722
 30
0.0
 10
14.1574789795
 20
7.9384169465
 30
0.0
 10
14.1596149003
 20
7.9372884313
 30
0.0
 10
14.1613327629
 20
7.9365191353
 30
0.0
 10
14.1626169203
 20
7.9360110445
 30
0.0
 10
14.1639068121
 20
7.9355673917
 30
0.0
 10
14.1652022581
 20
7.9351882494
 30
0.0
 10
14.1665030436
 20
7.9348736876
 30
0.0
 10
14.167808961
 20
7.9346237742
 30
0.0
 10
14.1691197939
 20
7.9344385515
 30
0.0
 10
14.1704353256
 20
7.9343180567
 30
0.0
 10
14.1717553366
 20
7.9342623143
 30
0.0
 10
14.1730796067
 20
7.934271325
 30
0.0
 10
14.1744079156
 20
7.9343450911
 30
0.0
 10
14.1757400441
 20
7.9344835858
 30
0.0
 10
14.1770757766
 20
7.9346867802
 30
0.0
 10
14.1784148913
 20
7.9349546287
 30
0.0
 10
14.1797572009
 20
7.9352870807
 30
0.0
 10
14.1815653271
 20
7.9358206372
 30
0.0
 10
14.1838371085
 20
7.9366544581
 30
0.0
 10
14.186549237
 20
7.9379044101
 30
0.0
 10
14.1892681359
 20
7.9394106751
 30
0.0
 10
14.1919922007
 20
7.9411720127
 30
0.0
 10
14.1947200955
 20
7.9431871992
 30
0.0
 10
14.1974502993
 20
7.9454548409
 30
0.0
 10
14.1992291823
 20
7.9470953851
 30
0.0
 10
14.2001190192
 20
7.9479549016
 30
0.0
  0
SPLINE
  5
3AC
100
AcDbEntity
  8
0
100
AcDbSpline
 62
7
  6
CONTINUOUS
 70
0
 71
3
 72
15
 73
11
 74
0
 42
0.0000001
 43
0.0000001
 44
0.0000000001
 40
0.0
 40
0.0
 40
0.0
 40
0.0
 40
0.1073054298
 40
0.2194830238
 40
0.3366524156
 40
0.458910322
 40
0.586329353
 40
0.7189627769
 40
0.8568462626
 40
1.0
 40
1.0
 40
1.0
 40
1.0
 10
14.2001190192
 20
7.9479549016
 30
0.0
 10
14.2010345136
 20
7.9488392013
 30
0.0
 10
14.202864266
 20
7.9506926883
 30
0.0
 10
14.2055470609
 20
7.9536519689
 30
0.0
 10
14.2082265212
 20
7.9568493484
 30
0.0
 10
14.2109010802
 20
7.9602829076
 30
0.0
 10
14.2135692675
 20
7.9639507236
 30
0.0
 10
14.2162295734
 20
7.9678507001
 30
0.0
 10
14.2188804686
 20
7.9719805768
 30
0.0
 10
14.2206080709
 20
7.9748320814
 30
0.0
 10
14.2214707253
 20
7.9762946984
 30
0.0
  0
SPLINE
  5
3AD
100
AcDbEntity
  8
0
100
AcDbSpline
 62
7
  6
CONTINUOUS
 70
0
 71
3
 72
15
 73
11
 74
0
 42
0.0000001
 43
0.0000001
 44
0.0000000001
 40
0.0
 40
0.0
 40
0.0
 40
0.0
 40
0.1273482808
 40
0.2538605196
 40
0.3795878971
 40
0.5046050835
 40
0.6290174393
 40
0.7529533827
 40
0.8765605876
 40
1.0
 40
1.0
 40
1.0
 40
1.0
 10
10.2275924447
 20
8.8573140335
 30
0.0
 10
10.2275924447
 20
8.8539416877
 30
0.0
 10
10.2272704583
 20
8.8472144734
 30
0.0
 10
10.2258142978
 20
8.8372530335
 30
0.0
 10
10.2233997409
 20
8.8275418837
 30
0.0
 10
10.2200485923
 20
8.8181718407
 30
0.0
 10
10.2157916137
 20
8.809229311
 30
0.0
 10
10.2106675959
 20
8.8007968687
 30
0.0
 10
10.2047247058
 20
8.7929535355
 30
0.0
 10
10.2002500201
 20
8.7881623602
 30
0.0
 10
10.1978989063
 20
8.7858913387
 30
0.0
  0
SPLINE
  5
3AE
100
AcDbEntity
  8
0
100
AcDbSpline
 62
7
  6
CONTINUOUS
 70
0
 71
3
 72
15
 73
11
 74
0
 42
0.0000001
 43
0.0000001
 44
0.0000000001
 40
0.0
 40
0.0
 40
0.0
 40
0.0
 40
0.1273482808
 40
0.2538605196
 40
0.3795878971
 40
0.5046050835
 40
0.6290174393
 40
0.7529533827
 40
0.8765605876
 40
1.0
 40
1.0
 40
1.0
 40
1.0
 10
11.7672782855
 20
8.7196268244
 30
0.0
 10
11.7672782855
 20
8.7162544787
 30
0.0
 10
11.7669562991
 20
8.7095272643
 30
0.0
 10
11.7655001387
 20
8.6995658244
 30
0.0
 10
11.7630855818
 20
8.6898546746
 30
0.0
 10
11.7597344331
 20
8.6804846316
 30
0.0
 10
11.7554774545
 20
8.671542102
 30
0.0
 10
11.7503534367
 20
8.6631096596
 30
0.0
 10
11.7444105466
 20
8.6552663264
 30
0.0
 10
11.7399358609
 20
8.6504751511
 30
0.0
 10
11.7375847471
 20
8.6482041296
 30
0.0
  0
SPLINE
  5
3AF
100
AcDbEntity
  8
0
100
AcDbSpline
 62
7
  6
CONTINUOUS
 70
0
 71
3
 72
15
 73
11
 74
0
 42
0.0000001
 43
0.0000001
 44
0.0000000001
 40
0.0
 40
0.0
 40
0.0
 40
0.0
 40
0.1273482808
 40
0.2538605196
 40
0.3795878971
 40
0.5046050835
 40
0.6290174393
 40
0.7529533827
 40
0.8765605876
 40
1.0
 40
1.0
 40
1.0
 40
1.0
 10
10.2275924447
 20
7.6189970169
 30
0.0
 10
10.2275924447
 20
7.6156246712
 30
0.0
 10
10.2272704583
 20
7.6088974569
 30
0.0
 10
10.2258142978
 20
7.598936017
 30
0.0
 10
10.2233997409
 20
7.5892248672
 30
0.0
 10
10.2200485923
 20
7.5798548242
 30
0.0
 10
10.2157916137
 20
7.5709122945
 30
0.0
 10
10.2106675959
 20
7.5624798522
 30
0.0
 10
10.2047247058
 20
7.554636519
 30
0.0
 10
10.2002500201
 20
7.5498453437
 30
0.0
 10
10.1978989063
 20
7.5475743222
 30
0.0
  0
SPLINE
  5
3B0
100
AcDbEntity
  8
0
100
AcDbSpline
 62
7
  6
CONTINUOUS
 70
0
 71
3
 72
15
 73
11
 74
0
 42
0.0000001
 43
0.0000001
 44
0.0000000001
 40
0.0
 40
0.0
 40
0.0
 40
0.0
 40
0.1273482808
 40
0.2538605196
 40
0.3795878971
 40
0.5046050835
 40
0.6290174393
 40
0.7529533827
 40
0.8765605876
 40
1.0
 40
1.0
 40
1.0
 40
1.0
 10
11.7672782855
 20
7.5431291321
 30
0.0
 10
11.7672782855
 20
7.5397567864
 30
0.0
 10
11.7669562991
 20
7.533029572
 30
0.0
 10
11.7655001387
 20
7.5230681321
 30
0.0
 10
11.7630855818
 20
7.5133569824
 30
0.0
 10
11.7597344331
 20
7.5039869394
 30
0.0
 10
11.7554774545
 20
7.4950444097
 30
0.0
 10
11.7503534367
 20
7.4866119674
 30
0.0
 10
11.7444105466
 20
7.4787686342
 30
0.0
 10
11.7399358609
 20
7.4739774589
 30
0.0
 10
11.7375847471
 20
7.4717064374
 30
0.0
  0
SPLINE
  5
3B1
100
AcDbEntity
  8
0
100
AcDbSpline
 62
7
  6
CONTINUOUS
 70
0
 71
3
 72
15
 73
11
 74
0
 42
0.0000001
 43
0.0000001
 44
0.0000000001
 40
0.0
 40
0.0
 40
0.0
 40
0.0
 40
0.1273483281
 40
0.2538605602
 40
0.3795878981
 40
0.5046051042
 40
0.6290174419
 40
0.7529533761
 40
0.876560577
 40
1.0
 40
1.0
 40
1.0
 40
1.0
 10
10.9670088236
 20
8.5944975536
 30
0.0
 10
10.9670088236
 20
8.5906477947
 30
0.0
 10
10.9666412492
 20
8.5829682298
 30
0.0
 10
10.9649789241
 20
8.5715965847
 30
0.0
 10
10.9622225132
 20
8.5605106686
 30
0.0
 10
10.9583969125
 20
8.5498141554
 30
0.0
 10
10.95353723
 20
8.5396056881
 30
0.0
 10
10.9476877424
 20
8.5299795426
 30
0.0
 10
10.9409034644
 20
8.5210259081
 30
0.0
 10
10.9357952452
 20
8.5155565261
 30
0.0
 10
10.9331112784
 20
8.5129640173
 30
0.0
  0
SPLINE
  5
3B2
100
AcDbEntity
  8
0
100
AcDbSpline
 62
7
  6
CONTINUOUS
 70
0
 71
3
 72
15
 73
11
 74
0
 42
0.0000001
 43
0.0000001
 44
0.0000000001
 40
0.0
 40
0.0
 40
0.0
 40
0.0
 40
0.1273483281
 40
0.2538605602
 40
0.3795878981
 40
0.5046051042
 40
0.6290174419
 40
0.7529533761
 40
0.876560577
 40
1.0
 40
1.0
 40
1.0
 40
1.0
 10
10.9670088236
 20
7.7792560679
 30
0.0
 10
10.9670088236
 20
7.775406309
 30
0.0
 10
10.9666412492
 20
7.767726744
 30
0.0
 10
10.9649789241
 20
7.7563550989
 30
0.0
 10
10.9622225132
 20
7.7452691828
 30
0.0
 10
10.9583969125
 20
7.7345726697
 30
0.0
 10
10.95353723
 20
7.7243642023
 30
0.0
 10
10.9476877424
 20
7.7147380569
 30
0.0
 10
10.9409034644
 20
7.7057844224
 30
0.0
 10
10.9357952452
 20
7.7003150404
 30
0.0
 10
10.9331112784
 20
7.6977225316
 30
0.0
  0
SPLINE
  5
3B3
100
AcDbEntity
  8
0
100
AcDbSpline
 62
7
  6
CONTINUOUS
 70
0
 71
3
 72
15
 73
11
 74
0
 42
0.0000001
 43
0.0000001
 44
0.0000000001
 40
0.0
 40
0.0
 40
0.0
 40
0.0
 40
0.1273473901
 40
0.2538608346
 40
0.3795878351
 40
0.5046051039
 40
0.6290174461
 40
0.7529533848
 40
0.8765605883
 40
1.0
 40
1.0
 40
1.0
 40
1.0
 10
10.9090532706
 20
8.1908960708
 30
0.0
 10
10.9090532706
 20
8.1888942349
 30
0.0
 10
10.9088621311
 20
8.1849009056
 30
0.0
 10
10.907997765
 20
8.1789877173
 30
0.0
 10
10.9065644521
 20
8.1732230937
 30
0.0
 10
10.9045751895
 20
8.1676609693
 30
0.0
 10
10.9020482083
 20
8.1623526179
 30
0.0
 10
10.8990065489
 20
8.1573470594
 30
0.0
 10
10.8954788047
 20
8.1526911979
 30
0.0
 10
10.8928225997
 20
8.149847118
 30
0.0
 10
10.8914269606
 20
8.1484990227
 30
0.0
  0
SPLINE
  5
3B4
100
AcDbEntity
  8
0
100
AcDbSpline
 62
7
  6
CONTINUOUS
 70
0
 71
3
 72
15
 73
11
 74
0
 42
0.0000001
 43
0.0000001
 44
0.0000000001
 40
0.0
 40
0.0
 40
0.0
 40
0.0
 40
0.1273479682
 40
0.253860626
 40
0.3795879528
 40
0.5046051059
 40
0.6290174614
 40
0.7529533792
 40
0.8765605791
 40
1.0
 40
1.0
 40
1.0
 40
1.0
 10
10.4840458156
 20
8.8395289318
 30
0.0
 10
10.4840458156
 20
8.8371266833
 30
0.0
 10
10.4838164471
 20
8.8323346225
 30
0.0
 10
10.4827791604
 20
8.8252386971
 30
0.0
 10
10.4810591467
 20
8.8183210638
 30
0.0
 10
10.4786719526
 20
8.8116464296
 30
0.0
 10
10.4756394911
 20
8.8052763379
 30
0.0
 10
10.4719893941
 20
8.7992696142
 30
0.0
 10
10.4677559913
 20
8.7936825358
 30
0.0
 10
10.4645684469
 20
8.790269641
 30
0.0
 10
10.462893646
 20
8.7886519134
 30
0.0
  0
SPLINE
  5
3B5
100
AcDbEntity
  8
0
100
AcDbSpline
 62
7
  6
CONTINUOUS
 70
0
 71
3
 72
15
 73
11
 74
0
 42
0.0000001
 43
0.0000001
 44
0.0000000001
 40
0.0
 40
0.0
 40
0.0
 40
0.0
 40
0.1273473901
 40
0.2538608346
 40
0.3795878351
 40
0.5046051039
 40
0.6290174461
 40
0.7529533848
 40
0.8765605883
 40
1.0
 40
1.0
 40
1.0
 40
1.0
 10
10.4714887791
 20
7.6020827487
 30
0.0
 10
10.4714887791
 20
7.6000809128
 30
0.0
 10
10.4712976395
 20
7.5960875835
 30
0.0
 10
10.4704332734
 20
7.5901743952
 30
0.0
 10
10.4689999606
 20
7.5844097716
 30
0.0
 10
10.467010698
 20
7.5788476472
 30
0.0
 10
10.4644837167
 20
7.5735392958
 30
0.0
 10
10.4614420574
 20
7.5685337373
 30
0.0
 10
10.4579143131
 20
7.5638778758
 30
0.0
 10
10.4552581081
 20
7.5610337959
 30
0.0
 10
10.453862469
 20
7.5596857006
 30
0.0
  0
SPLINE
  5
3B6
100
AcDbEntity
  8
0
100
AcDbSpline
 62
7
  6
CONTINUOUS
 70
0
 71
3
 72
50
 73
46
 74
0
 42
0.0000001
 43
0.0000001
 44
0.0000000001
 40
0.0
 40
0.0
 40
0.0
 40
0.0
 40
0.0417744591
 40
0.0840381198
 40
0.1266601534
 40
0.1695087396
 40
0.2124509082
 40
0.2553534299
 40
0.2980831906
 40
0.3405077712
 40
0.3824959546
 40
0.4239182613
 40
0.4646474805
 40
0.5045592119
 40
0.5435324166
 40
0.5814499846
 40
0.6181993253
 40
0.6536729913
 40
0.6877693505
 40
0.7203933294
 40
0.751457256
 40
0.7808818522
 40
0.7949577198
 40
0.8085984755
 40
0.8217972213
 40
0.8345477729
 40
0.8468449369
 40
0.8586844179
 40
0.8700630925
 40
0.8809789914
 40
0.8914315785
 40
0.9014218354
 40
0.9109525628
 40
0.9200286018
 40
0.9286571898
 40
0.9368483568
 40
0.9446153781
 40
0.9519753766
 40
0.9589498962
 40
0.965565679
 40
0.9778458808
 40
0.9836071375
 40
0.9891799038
 40
0.9946230061
 40
1.0
 40
1.0
 40
1.0
 40
1.0
 10
13.394196802
 20
8.3038419018
 30
0.0
 10
13.394196802
 20
8.3118732293
 30
0.0
 10
13.3943221015
 20
8.328030188
 30
0.0
 10
13.3948760139
 20
8.3523757165
 30
0.0
 10
13.3957953859
 20
8.3769168749
 30
0.0
 10
13.3970771854
 20
8.4015723675
 30
0.0
 10
13.3987171896
 20
8.4262606695
 30
0.0
 10
13.4007099705
 20
8.4509000849
 30
0.0
 10
13.4030489301
 20
8.4754091032
 30
0.0
 10
13.4057263132
 20
8.4997066406
 30
0.0
 10
13.4087332376
 20
8.5237123202
 30
0.0
 10
13.4120597204
 20
8.5473467365
 30
0.0
 10
13.4156947122
 20
8.5705317223
 30
0.0
 10
13.4196261319
 20
8.5931906097
 30
0.0
 10
13.4238409065
 20
8.6152484874
 30
0.0
 10
13.4283250131
 20
8.6366324545
 30
0.0
 10
13.4330635248
 20
8.6572718661
 30
0.0
 10
13.4380406586
 20
8.6770985826
 30
0.0
 10
13.4432398296
 20
8.696047183
 30
0.0
 10
13.4486437007
 20
8.7140552824
 30
0.0
 10
13.4542342655
 20
8.7310634661
 30
0.0
 10
13.4591023477
 20
8.7445495858
 30
0.0
 10
13.4630857972
 20
8.75478808
 30
0.0
 10
13.4660642228
 20
8.7620690286
 30
0.0
 10
13.4690752036
 20
8.7690600092
 30
0.0
 10
13.4721163232
 20
8.7757552669
 30
0.0
 10
13.4751850173
 20
8.7821493083
 30
0.0
 10
13.4782787955
 20
8.7882368777
 30
0.0
 10
13.4813950751
 20
8.7940130007
 30
0.0
 10
13.4845313296
 20
8.7994729494
 30
0.0
 10
13.4876849721
 20
8.8046122856
 30
0.0
 10
13.4908534613
 20
8.8094268306
 30
0.0
 10
13.4940342346
 20
8.8139126966
 30
0.0
 10
13.4972247654
 20
8.8180662678
 30
0.0
 10
13.500422562
 20
8.8218842103
 30
0.0
 10
13.5036251424
 20
8.82536346
 30
0.0
 10
13.5068301979
 20
8.8285012332
 30
0.0
 10
13.5100351547
 20
8.8312948689
 30
0.0
 10
13.5132386006
 20
8.8337423656
 30
0.0
 10
13.5173989719
 20
8.8364723129
 30
0.0
 10
13.5216644655
 20
8.8386072871
 30
0.0
 10
13.5259849841
 20
8.8400233817
 30
0.0
 10
13.529143875
 20
8.8407063921
 30
0.0
 10
13.5322850636
 20
8.8410305965
 30
0.0
 10
13.5343705776
 20
8.8410068316
 30
0.0
 10
13.5354018521
 20
8.8409353162
 30
0.0
  0
SPLINE
  5
3B7
100
AcDbEntity
  8
0
100
AcDbSpline
 62
7
  6
CONTINUOUS
 70
0
 71
3
 72
23
 73
19
 74
0
 42
0.0000001
 43
0.0000001
 44
0.0000000001
 40
0.0
 40
0.0
 40
0.0
 40
0.0
 40
0.0839170217
 40
0.1652800295
 40
0.2439973272
 40
0.3199836562
 40
0.3931605718
 40
0.4634568497
 40
0.5308098314
 40
0.5951659712
 40
0.6564819125
 40
0.7147264559
 40
0.7698818078
 40
0.821945991
 40
0.8709361507
 40
0.9168917056
 40
0.9598794797
 40
1.0
 40
1.0
 40
1.0
 40
1.0
 10
13.7331412335
 20
8.8546674969
 30
0.0
 10
13.7343806115
 20
8.8589806367
 30
0.0
 10
13.7368868228
 20
8.8674571096
 30
0.0
 10
13.7407926929
 20
8.8799078158
 30
0.0
 10
13.7447830275
 20
8.8918855857
 30
0.0
 10
13.7488521312
 20
8.9033734814
 30
0.0
 10
13.7529942127
 20
8.9143553218
 30
0.0
 10
13.7572034212
 20
8.9248156334
 30
0.0
 10
13.7614737652
 20
8.9347397225
 30
0.0
 10
13.7657991931
 20
8.9441136757
 30
0.0
 10
13.7701736292
 20
8.9529243747
 30
0.0
 10
13.7745908931
 20
8.9611595647
 30
0.0
 10
13.7790448202
 20
8.968807834
 30
0.0
 10
13.7835292928
 20
8.9758586526
 30
0.0
 10
13.7880381389
 20
8.9823023837
 30
0.0
 10
13.7925655145
 20
8.9881304177
 30
0.0
 10
13.7971052332
 20
8.993334518
 30
0.0
 10
13.8002418125
 20
8.9964894772
 30
0.0
 10
13.8018123872
 20
8.9979512109
 30
0.0
  0
SPLINE
  5
3B8
100
AcDbEntity
  8
0
100
AcDbSpline
 62
7
  6
CONTINUOUS
 70
0
 71
3
 72
31
 73
27
 74
0
 42
0.0000001
 43
0.0000001
 44
0.0000000001
 40
0.0
 40
0.0
 40
0.0
 40
0.0
 40
0.0851788837
 40
0.1685813066
 40
0.2498840119
 40
0.3287751356
 40
0.4049557415
 40
0.4781421254
 40
0.5480679845
 40
0.6144869819
 40
0.6463115569
 40
0.6771777789
 40
0.707061738
 40
0.7359417808
 40
0.7637980324
 40
0.7906132552
 40
0.8163724294
 40
0.8410636987
 40
0.8646780573
 40
0.8872104235
 40
0.9086595085
 40
0.9290290893
 40
0.948328174
 40
0.9665725896
 40
0.9837856077
 40
1.0
 40
1.0
 40
1.0
 40
1.0
 10
8.3528207291
 20
7.9586553846
 30
0.0
 10
8.3528207291
 20
7.9515278312
 30
0.0
 10
8.3529421863
 20
7.9374210306
 30
0.0
 10
8.3534992416
 20
7.9165176577
 30
0.0
 10
8.3544270377
 20
7.8961539748
 30
0.0
 10
8.3557215409
 20
7.8764157687
 30
0.0
 10
8.3573771544
 20
7.8573860492
 30
0.0
 10
8.3593867074
 20
7.839144766
 30
0.0
 10
8.361741572
 20
7.8217686556
 30
0.0
 10
8.3640142886
 20
7.8078791586
 30
0.0
 10
8.3660074528
 20
7.7972606228
 30
0.0
 10
8.3675607789
 20
7.7896711536
 30
0.0
 10
8.369192237
 20
7.7823503064
 30
0.0
 10
8.3709000582
 20
7.7753057551
 30
0.0
 10
8.3726824949
 20
7.7685448932
 30
0.0
 10
8.3745375936
 20
7.7620747969
 30
0.0
 10
8.3764634652
 20
7.7559022385
 30
0.0
 10
8.3784580077
 20
7.7500336504
 30
0.0
 10
8.3805192004
 20
7.744475151
 30
0.0
 10
8.3826448145
 20
7.7392324903
 30
0.0
 10
8.3848327214
 20
7.7343111008
 30
0.0
 10
8.387080602
 20
7.7297160106
 30
0.0
 10
8.3893862513
 20
7.7254519521
 30
0.0
 10
8.3917473594
 20
7.721523159
 30
0.0
 10
8.3941615788
 20
7.7179338256
 30
0.0
 10
8.3958544207
 20
7.7157045079
 30
0.0
 10
8.3967105095
 20
7.7146519102
 30
0.0
  0
SPLINE
  5
3B9
100
AcDbEntity
  8
0
100
AcDbSpline
 62
7
  6
CONTINUOUS
 70
0
 71
3
 72
39
 73
35
 74
0
 42
0.0000001
 43
0.0000001
 44
0.0000000001
 40
0.0
 40
0.0
 40
0.0
 40
0.0
 40
0.0071625678
 40
0.0146567179
 40
0.0224900413
 40
0.0306687017
 40
0.0391977329
 40
0.0480809761
 40
0.0573207983
 40
0.0669183965
 40
0.0768741435
 40
0.0871874377
 40
0.1088799456
 40
0.131978928
 40
0.1564568622
 40
0.182278431
 40
0.2094015018
 40
0.2377780607
 40
0.2673549092
 40
0.2980741881
 40
0.3298737896
 40
0.3626878448
 40
0.3964471028
 40
0.4310792359
 40
0.4665091073
 40
0.5026591244
 40
0.5394495258
 40
0.5767986285
 40
0.6146230679
 40
0.6913563402
 40
0.7689609431
 40
0.8467367595
 40
0.9239813805
 40
1.0
 40
1.0
 40
1.0
 40
1.0
 10
8.4418544071
 20
9.2221189707
 30
0.0
 10
8.4411092626
 20
9.2213992163
 30
0.0
 10
8.4396199559
 20
9.2198893054
 30
0.0
 10
8.4374370996
 20
9.2174763165
 30
0.0
 10
8.4352569833
 20
9.2148662876
 30
0.0
 10
8.4330810663
 20
9.2120609038
 30
0.0
 10
8.4309105285
 20
9.2090618449
 30
0.0
 10
8.4287466488
 20
9.205870818
 30
0.0
 10
8.4265906536
 20
9.2024897065
 30
0.0
 10
8.4244438177
 20
9.1989205257
 30
0.0
 10
8.4223074559
 20
9.195165378
 30
0.0
 10
8.4194259419
 20
9.1898232003
 30
0.0
 10
8.4158678898
 20
9.1826884981
 30
0.0
 10
8.4117288262
 20
9.1735621883
 30
0.0
 10
8.4076613929
 20
9.1637540425
 30
0.0
 10
8.4036754137
 20
9.1532874994
 30
0.0
 10
8.3997805067
 20
9.1421874526
 30
0.0
 10
8.3959860976
 20
9.1304804457
 30
0.0
 10
8.3923013779
 20
9.1181945012
 30
0.0
 10
8.3887352822
 20
9.1053590774
 30
0.0
 10
8.3852964353
 20
9.0920049931
 30
0.0
 10
8.3819931608
 20
9.0781643362
 30
0.0
 10
8.3788334567
 20
9.0638703736
 30
0.0
 10
8.3758249773
 20
9.049157478
 30
0.0
 10
8.3729749895
 20
9.0340610494
 30
0.0
 10
8.3702903798
 20
9.0186174161
 30
0.0
 10
8.3677776471
 20
9.0028637518
 30
0.0
 10
8.365442845
 20
8.986837948
 30
0.0
 10
8.3625609611
 20
8.9650554044
 30
0.0
 10
8.3594477736
 20
8.9374326445
 30
0.0
 10
8.3565155536
 20
8.9039846772
 30
0.0
 10
8.3543977748
 20
8.8704010021
 30
0.0
 10
8.3531147549
 20
8.8370048662
 30
0.0
 10
8.3528207291
 20
8.8148358845
 30
0.0
 10
8.3528207291
 20
8.8038405327
 30
0.0
  0
SPLINE
  5
3BA
100
AcDbEntity
  8
0
100
AcDbSpline
 62
7
  6
CONTINUOUS
 70
0
 71
3
 72
23
 73
19
 74
0
 42
0.0000001
 43
0.0000001
 44
0.0000000001
 40
0.0
 40
0.0
 40
0.0
 40
0.0
 40
0.0843274457
 40
0.1661560417
 40
0.2453672411
 40
0.3218497585
 40
0.3954998946
 40
0.4662220133
 40
0.5339301911
 40
0.5985485664
 40
0.6600127973
 40
0.7182721473
 40
0.7732907871
 40
0.8250510462
 40
0.8735561365
 40
0.9188351649
 40
0.9609514061
 40
1.0
 40
1.0
 40
1.0
 40
1.0
 10
13.936710699
 20
7.9021000951
 30
0.0
 10
13.9357528949
 20
7.8983645254
 30
0.0
 10
13.9338094056
 20
7.8910183459
 30
0.0
 10
13.9307618371
 20
7.8802186233
 30
0.0
 10
13.9276295456
 20
7.8698172142
 30
0.0
 10
13.9244180117
 20
7.8598321218
 30
0.0
 10
13.9211328348
 20
7.8502805743
 30
0.0
 10
13.917779695
 20
7.8411790547
 30
0.0
 10
13.9143644578
 20
7.832543223
 30
0.0
 10
13.9108930465
 20
7.8243879167
 30
0.0
 10
13.9073714502
 20
7.8167271176
 30
0.0
 10
13.9038057948
 20
7.8095738784
 30
0.0
 10
13.9002021712
 20
7.8029403456
 30
0.0
 10
13.896566685
 20
7.7968377078
 30
0.0
 10
13.8929055226
 20
7.7912761555
 30
0.0
 10
13.8892244448
 20
7.7862646951
 30
0.0
 10
13.8855296423
 20
7.7818120306
 30
0.0
 10
13.8829664758
 20
7.779121669
 30
0.0
 10
13.8816820711
 20
7.7778810293
 30
0.0
  0
SPLINE
  5
3BB
100
AcDbEntity
  8
0
100
AcDbSpline
 62
7
  6
CONTINUOUS
 70
0
 71
3
 72
40
 73
36
 74
0
 42
0.0000001
 43
0.0000001
 44
0.0000000001
 40
0.0
 40
0.0
 40
0.0
 40
0.0
 40
0.0299422973
 40
0.0449240327
 40
0.059914866
 40
0.089929696
 40
0.1200152967
 40
0.1501925739
 40
0.180480241
 40
0.2108943975
 40
0.2414481839
 40
0.2721515165
 40
0.3030109074
 40
0.3340293686
 40
0.3652063985
 40
0.3965380456
 40
0.4280170434
 40
0.4596330122
 40
0.4913727167
 40
0.5232203738
 40
0.5551580001
 40
0.587165795
 40
0.6192225506
 40
0.6513060818
 40
0.6833936709
 40
0.7154625181
 40
0.7474901959
 40
0.7794550985
 40
0.8113368727
 40
0.8431168595
 40
0.8747783985
 40
0.906307485
 40
0.9376922173
 40
0.9689252845
 40
1.0
 40
1.0
 40
1.0
 40
1.0
 10
10.0457482145
 20
8.9434069223
 30
0.0
 10
10.0475647815
 20
8.9451616066
 30
0.0
 10
10.0503966714
 20
8.9476873517
 30
0.0
 10
10.0543627249
 20
8.9508212164
 30
0.0
 10
10.0584550347
 20
8.9537991556
 30
0.0
 10
10.0637950228
 20
8.9572188532
 30
0.0
 10
10.0705184448
 20
8.960810519
 30
0.0
 10
10.0775240945
 20
8.9638730411
 30
0.0
 10
10.0847731078
 20
8.9663894473
 30
0.0
 10
10.0922255914
 20
8.9683460079
 30
0.0
 10
10.0998404728
 20
8.9697320314
 30
0.0
 10
10.10757583
 20
8.970539992
 30
0.0
 10
10.1153890959
 20
8.9707655447
 30
0.0
 10
10.1232373001
 20
8.9704075493
 30
0.0
 10
10.131077301
 20
8.9694680697
 30
0.0
 10
10.1388660215
 20
8.9679523585
 30
0.0
 10
10.1465606833
 20
8.9658688274
 30
0.0
 10
10.1541190396
 20
8.9632289992
 30
0.0
 10
10.1614996034
 20
8.9600474379
 30
0.0
 10
10.1686618717
 20
8.9563416688
 30
0.0
 10
10.1755665446
 20
8.9521320817
 30
0.0
 10
10.1821757377
 20
8.9474418191
 30
0.0
 10
10.1884531874
 20
8.9422966496
 30
0.0
 10
10.194364447
 20
8.9367248283
 30
0.0
 10
10.1998770739
 20
8.9307569426
 30
0.0
 10
10.2049608048
 20
8.9244257458
 30
0.0
 10
10.2095877248
 20
8.9177659827
 30
0.0
 10
10.2137324162
 20
8.9108141977
 30
0.0
 10
10.2173721006
 20
8.9036085354
 30
0.0
 10
10.220486747
 20
8.8961885386
 30
0.0
 10
10.2230592259
 20
8.8885949115
 30
0.0
 10
10.2250752982
 20
8.8808693931
 30
0.0
 10
10.2265239079
 20
8.8730541955
 30
0.0
 10
10.2273968907
 20
8.8651928699
 30
0.0
 10
10.2275924447
 20
8.8599351881
 30
0.0
 10
10.2275924447
 20
8.8573140335
 30
0.0
  0
SPLINE
  5
3BC
100
AcDbEntity
  8
0
100
AcDbSpline
 62
7
  6
CONTINUOUS
 70
0
 71
3
 72
40
 73
36
 74
0
 42
0.0000001
 43
0.0000001
 44
0.0000000001
 40
0.0
 40
0.0
 40
0.0
 40
0.0
 40
0.0299422973
 40
0.0449240327
 40
0.059914866
 40
0.089929696
 40
0.1200152967
 40
0.1501925739
 40
0.180480241
 40
0.2108943975
 40
0.2414481839
 40
0.2721515165
 40
0.3030109074
 40
0.3340293686
 40
0.3652063985
 40
0.3965380456
 40
0.4280170434
 40
0.4596330122
 40
0.4913727167
 40
0.5232203738
 40
0.5551580001
 40
0.587165795
 40
0.6192225506
 40
0.6513060818
 40
0.6833936709
 40
0.7154625181
 40
0.7474901959
 40
0.7794550985
 40
0.8113368727
 40
0.8431168595
 40
0.8747783985
 40
0.906307485
 40
0.9376922173
 40
0.9689252845
 40
1.0
 40
1.0
 40
1.0
 40
1.0
 10
11.5854340554
 20
8.8057197132
 30
0.0
 10
11.5872506223
 20
8.8074743976
 30
0.0
 10
11.5900825123
 20
8.8100001426
 30
0.0
 10
11.5940485657
 20
8.8131340073
 30
0.0
 10
11.5981408755
 20
8.8161119465
 30
0.0
 10
11.6034808637
 20
8.8195316442
 30
0.0
 10
11.6102042856
 20
8.8231233099
 30
0.0
 10
11.6172099354
 20
8.826185832
 30
0.0
 10
11.6244589486
 20
8.8287022382
 30
0.0
 10
11.6319114322
 20
8.8306587988
 30
0.0
 10
11.6395263136
 20
8.8320448224
 30
0.0
 10
11.6472616708
 20
8.832852783
 30
0.0
 10
11.6550749368
 20
8.8330783357
 30
0.0
 10
11.6629231409
 20
8.8327203402
 30
0.0
 10
11.6707631418
 20
8.8317808606
 30
0.0
 10
11.6785518623
 20
8.8302651494
 30
0.0
 10
11.6862465241
 20
8.8281816183
 30
0.0
 10
11.6938048805
 20
8.8255417901
 30
0.0
 10
11.7011854443
 20
8.8223602288
 30
0.0
 10
11.7083477125
 20
8.8186544597
 30
0.0
 10
11.7152523854
 20
8.8144448727
 30
0.0
 10
11.7218615785
 20
8.80975461
 30
0.0
 10
11.7281390282
 20
8.8046094406
 30
0.0
 10
11.7340502878
 20
8.7990376192
 30
0.0
 10
11.7395629147
 20
8.7930697335
 30
0.0
 10
11.7446466456
 20
8.7867385368
 30
0.0
 10
11.7492735657
 20
8.7800787736
 30
0.0
 10
11.753418257
 20
8.7731269886
 30
0.0
 10
11.7570579415
 20
8.7659213263
 30
0.0
 10
11.7601725878
 20
8.7585013296
 30
0.0
 10
11.7627450667
 20
8.7509077024
 30
0.0
 10
11.7647611391
 20
8.743182184
 30
0.0
 10
11.7662097487
 20
8.7353669864
 30
0.0
 10
11.7670827315
 20
8.7275056609
 30
0.0
 10
11.7672782855
 20
8.7222479791
 30
0.0
 10
11.7672782855
 20
8.7196268244
 30
0.0
  0
SPLINE
  5
3BD
100
AcDbEntity
  8
0
100
AcDbSpline
 62
7
  6
CONTINUOUS
 70
0
 71
3
 72
40
 73
36
 74
0
 42
0.0000001
 43
0.0000001
 44
0.0000000001
 40
0.0
 40
0.0
 40
0.0
 40
0.0
 40
0.0299422973
 40
0.0449240327
 40
0.059914866
 40
0.089929696
 40
0.1200152967
 40
0.1501925739
 40
0.180480241
 40
0.2108943975
 40
0.2414481839
 40
0.2721515165
 40
0.3030109074
 40
0.3340293686
 40
0.3652063985
 40
0.3965380456
 40
0.4280170434
 40
0.4596330122
 40
0.4913727167
 40
0.5232203738
 40
0.5551580001
 40
0.587165795
 40
0.6192225506
 40
0.6513060818
 40
0.6833936709
 40
0.7154625181
 40
0.7474901959
 40
0.7794550985
 40
0.8113368727
 40
0.8431168595
 40
0.8747783985
 40
0.906307485
 40
0.9376922173
 40
0.9689252845
 40
1.0
 40
1.0
 40
1.0
 40
1.0
 10
10.0457482145
 20
7.7050899058
 30
0.0
 10
10.0475647815
 20
7.7068445901
 30
0.0
 10
10.0503966714
 20
7.7093703351
 30
0.0
 10
10.0543627249
 20
7.7125041999
 30
0.0
 10
10.0584550347
 20
7.715482139
 30
0.0
 10
10.0637950228
 20
7.7189018367
 30
0.0
 10
10.0705184448
 20
7.7224935025
 30
0.0
 10
10.0775240945
 20
7.7255560246
 30
0.0
 10
10.0847731078
 20
7.7280724308
 30
0.0
 10
10.0922255914
 20
7.7300289914
 30
0.0
 10
10.0998404728
 20
7.7314150149
 30
0.0
 10
10.10757583
 20
7.7322229755
 30
0.0
 10
10.1153890959
 20
7.7324485282
 30
0.0
 10
10.1232373001
 20
7.7320905327
 30
0.0
 10
10.131077301
 20
7.7311510531
 30
0.0
 10
10.1388660215
 20
7.7296353419
 30
0.0
 10
10.1465606833
 20
7.7275518109
 30
0.0
 10
10.1541190396
 20
7.7249119827
 30
0.0
 10
10.1614996034
 20
7.7217304213
 30
0.0
 10
10.1686618717
 20
7.7180246523
 30
0.0
 10
10.1755665446
 20
7.7138150652
 30
0.0
 10
10.1821757377
 20
7.7091248025
 30
0.0
 10
10.1884531874
 20
7.7039796331
 30
0.0
 10
10.194364447
 20
7.6984078118
 30
0.0
 10
10.1998770739
 20
7.692439926
 30
0.0
 10
10.2049608048
 20
7.6861087293
 30
0.0
 10
10.2095877248
 20
7.6794489662
 30
0.0
 10
10.2137324162
 20
7.6724971811
 30
0.0
 10
10.2173721006
 20
7.6652915189
 30
0.0
 10
10.220486747
 20
7.6578715221
 30
0.0
 10
10.2230592259
 20
7.6502778949
 30
0.0
 10
10.2250752982
 20
7.6425523766
 30
0.0
 10
10.2265239079
 20
7.6347371789
 30
0.0
 10
10.2273968907
 20
7.6268758534
 30
0.0
 10
10.2275924447
 20
7.6216181716
 30
0.0
 10
10.2275924447
 20
7.6189970169
 30
0.0
  0
SPLINE
  5
3BE
100
AcDbEntity
  8
0
100
AcDbSpline
 62
7
  6
CONTINUOUS
 70
0
 71
3
 72
40
 73
36
 74
0
 42
0.0000001
 43
0.0000001
 44
0.0000000001
 40
0.0
 40
0.0
 40
0.0
 40
0.0
 40
0.0299422973
 40
0.0449240327
 40
0.059914866
 40
0.089929696
 40
0.1200152967
 40
0.1501925739
 40
0.180480241
 40
0.2108943975
 40
0.2414481839
 40
0.2721515165
 40
0.3030109074
 40
0.3340293686
 40
0.3652063985
 40
0.3965380456
 40
0.4280170434
 40
0.4596330122
 40
0.4913727167
 40
0.5232203738
 40
0.5551580001
 40
0.587165795
 40
0.6192225506
 40
0.6513060818
 40
0.6833936709
 40
0.7154625181
 40
0.7474901959
 40
0.7794550985
 40
0.8113368727
 40
0.8431168595
 40
0.8747783985
 40
0.906307485
 40
0.9376922173
 40
0.9689252845
 40
1.0
 40
1.0
 40
1.0
 40
1.0
 10
11.5854340554
 20
7.6292220209
 30
0.0
 10
11.5872506223
 20
7.6309767053
 30
0.0
 10
11.5900825123
 20
7.6335024503
 30
0.0
 10
11.5940485657
 20
7.6366363151
 30
0.0
 10
11.5981408755
 20
7.6396142542
 30
0.0
 10
11.6034808637
 20
7.6430339519
 30
0.0
 10
11.6102042856
 20
7.6466256177
 30
0.0
 10
11.6172099354
 20
7.6496881398
 30
0.0
 10
11.6244589486
 20
7.652204546
 30
0.0
 10
11.6319114322
 20
7.6541611065
 30
0.0
 10
11.6395263136
 20
7.6555471301
 30
0.0
 10
11.6472616708
 20
7.6563550907
 30
0.0
 10
11.6550749368
 20
7.6565806434
 30
0.0
 10
11.6629231409
 20
7.6562226479
 30
0.0
 10
11.6707631418
 20
7.6552831683
 30
0.0
 10
11.6785518623
 20
7.6537674571
 30
0.0
 10
11.6862465241
 20
7.6516839261
 30
0.0
 10
11.6938048805
 20
7.6490440978
 30
0.0
 10
11.7011854443
 20
7.6458625365
 30
0.0
 10
11.7083477125
 20
7.6421567675
 30
0.0
 10
11.7152523854
 20
7.6379471804
 30
0.0
 10
11.7218615785
 20
7.6332569177
 30
0.0
 10
11.7281390282
 20
7.6281117483
 30
0.0
 10
11.7340502878
 20
7.622539927
 30
0.0
 10
11.7395629147
 20
7.6165720412
 30
0.0
 10
11.7446466456
 20
7.6102408445
 30
0.0
 10
11.7492735657
 20
7.6035810813
 30
0.0
 10
11.753418257
 20
7.5966292963
 30
0.0
 10
11.7570579415
 20
7.5894236341
 30
0.0
 10
11.7601725878
 20
7.5820036373
 30
0.0
 10
11.7627450667
 20
7.5744100101
 30
0.0
 10
11.7647611391
 20
7.5666844917
 30
0.0
 10
11.7662097487
 20
7.5588692941
 30
0.0
 10
11.7670827315
 20
7.5510079686
 30
0.0
 10
11.7672782855
 20
7.5457502868
 30
0.0
 10
11.7672782855
 20
7.5431291321
 30
0.0
  0
SPLINE
  5
3BF
100
AcDbEntity
  8
0
100
AcDbSpline
 62
7
  6
CONTINUOUS
 70
0
 71
3
 72
40
 73
36
 74
0
 42
0.0000001
 43
0.0000001
 44
0.0000000001
 40
0.0
 40
0.0
 40
0.0
 40
0.0
 40
0.0299422956
 40
0.059908968
 40
0.0899238
 40
0.1200094056
 40
0.1350882594
 40
0.1501924656
 40
0.1804801452
 40
0.2108943177
 40
0.241448122
 40
0.2721514726
 40
0.3030108797
 40
0.334029354
 40
0.3652063934
 40
0.3965380465
 40
0.4280170486
 40
0.4596330217
 40
0.4913727316
 40
0.5232203951
 40
0.5551580282
 40
0.5871658292
 40
0.6192225887
 40
0.6513061205
 40
0.6833937063
 40
0.715462548
 40
0.7474902197
 40
0.779455117
 40
0.8113368874
 40
0.8431168691
 40
0.8747784143
 40
0.9063074703
 40
0.9376922765
 40
0.9689251917
 40
1.0
 40
1.0
 40
1.0
 40
1.0
 10
10.759424898
 20
8.6927778868
 30
0.0
 10
10.7614986065
 20
8.6947809323
 30
0.0
 10
10.7658090779
 20
8.6986253576
 30
0.0
 10
10.7727151859
 20
8.7038627411
 30
0.0
 10
10.7800260957
 20
8.7085445168
 30
0.0
 10
10.7864183179
 20
8.7119591514
 30
0.0
 10
10.7916901261
 20
8.7143882586
 30
0.0
 10
10.79707086
 20
8.7166168463
 30
0.0
 10
10.8039740893
 20
8.7190132137
 30
0.0
 10
10.8124812814
 20
8.7212465724
 30
0.0
 10
10.8211741037
 20
8.7228287413
 30
0.0
 10
10.8300043825
 20
8.7237509925
 30
0.0
 10
10.8389236105
 20
8.724008405
 30
0.0
 10
10.8478827113
 20
8.7235996697
 30
0.0
 10
10.8568324436
 20
8.7225271479
 30
0.0
 10
10.8657236329
 20
8.7207968384
 30
0.0
 10
10.8745074476
 20
8.7184183443
 30
0.0
 10
10.8831356617
 20
8.7154048159
 30
0.0
 10
10.8915609159
 20
8.711772877
 30
0.0
 10
10.8997369738
 20
8.7075425318
 30
0.0
 10
10.9076189721
 20
8.7027370554
 30
0.0
 10
10.9151636634
 20
8.6973828655
 30
0.0
 10
10.9223296503
 20
8.6915093785
 30
0.0
 10
10.9290776111
 20
8.6851488504
 30
0.0
 10
10.9353705135
 20
8.6783362006
 30
0.0
 10
10.9411738141
 20
8.6711088205
 30
0.0
 10
10.9464556472
 20
8.6635063714
 30
0.0
 10
10.9511869962
 20
8.6555705685
 30
0.0
 10
10.9553418572
 20
8.6473449546
 30
0.0
 10
10.9588973655
 20
8.6388746687
 30
0.0
 10
10.9618339595
 20
8.6302061778
 30
0.0
 10
10.9641354009
 20
8.6213871228
 30
0.0
 10
10.9657890384
 20
8.6124657072
 30
0.0
 10
10.9667855957
 20
8.6034916267
 30
0.0
 10
10.9670088236
 20
8.5974897363
 30
0.0
 10
10.9670088236
 20
8.5944975536
 30
0.0
  0
SPLINE
  5
3C0
100
AcDbEntity
  8
0
100
AcDbSpline
 62
7
  6
CONTINUOUS
 70
0
 71
3
 72
40
 73
36
 74
0
 42
0.0000001
 43
0.0000001
 44
0.0000000001
 40
0.0
 40
0.0
 40
0.0
 40
0.0
 40
0.0299422956
 40
0.059908968
 40
0.0899238
 40
0.1200094056
 40
0.1350882594
 40
0.1501924656
 40
0.1804801452
 40
0.2108943177
 40
0.241448122
 40
0.2721514726
 40
0.3030108797
 40
0.334029354
 40
0.3652063934
 40
0.3965380465
 40
0.4280170486
 40
0.4596330217
 40
0.4913727316
 40
0.5232203951
 40
0.5551580282
 40
0.5871658292
 40
0.6192225887
 40
0.6513061205
 40
0.6833937063
 40
0.715462548
 40
0.7474902197
 40
0.779455117
 40
0.8113368874
 40
0.8431168691
 40
0.8747784143
 40
0.9063074703
 40
0.9376922765
 40
0.9689251917
 40
1.0
 40
1.0
 40
1.0
 40
1.0
 10
10.759424898
 20
7.877536401
 30
0.0
 10
10.7614986065
 20
7.8795394465
 30
0.0
 10
10.7658090779
 20
7.8833838719
 30
0.0
 10
10.7727151859
 20
7.8886212554
 30
0.0
 10
10.7800260957
 20
7.893303031
 30
0.0
 10
10.7864183179
 20
7.8967176656
 30
0.0
 10
10.7916901261
 20
7.8991467728
 30
0.0
 10
10.79707086
 20
7.9013753605
 30
0.0
 10
10.8039740893
 20
7.903771728
 30
0.0
 10
10.8124812814
 20
7.9060050867
 30
0.0
 10
10.8211741037
 20
7.9075872555
 30
0.0
 10
10.8300043825
 20
7.9085095067
 30
0.0
 10
10.8389236105
 20
7.9087669193
 30
0.0
 10
10.8478827113
 20
7.9083581839
 30
0.0
 10
10.8568324436
 20
7.9072856621
 30
0.0
 10
10.8657236329
 20
7.9055553526
 30
0.0
 10
10.8745074476
 20
7.9031768585
 30
0.0
 10
10.8831356617
 20
7.9001633302
 30
0.0
 10
10.8915609159
 20
7.8965313912
 30
0.0
 10
10.8997369738
 20
7.8923010461
 30
0.0
 10
10.9076189721
 20
7.8874955696
 30
0.0
 10
10.9151636634
 20
7.8821413797
 30
0.0
 10
10.9223296503
 20
7.8762678927
 30
0.0
 10
10.9290776111
 20
7.8699073647
 30
0.0
 10
10.9353705135
 20
7.8630947148
 30
0.0
 10
10.9411738141
 20
7.8558673347
 30
0.0
 10
10.9464556472
 20
7.8482648856
 30
0.0
 10
10.9511869962
 20
7.8403290827
 30
0.0
 10
10.9553418572
 20
7.8321034689
 30
0.0
 10
10.9588973655
 20
7.823633183
 30
0.0
 10
10.9618339595
 20
7.8149646921
 30
0.0
 10
10.9641354009
 20
7.806145637
 30
0.0
 10
10.9657890384
 20
7.7972242214
 30
0.0
 10
10.9667855957
 20
7.788250141
 30
0.0
 10
10.9670088236
 20
7.7822482505
 30
0.0
 10
10.9670088236
 20
7.7792560679
 30
0.0
  0
SPLINE
  5
3C1
100
AcDbEntity
  8
0
100
AcDbSpline
 62
7
  6
CONTINUOUS
 70
0
 71
3
 72
39
 73
35
 74
0
 42
0.0000001
 43
0.0000001
 44
0.0000000001
 40
0.0
 40
0.0
 40
0.0
 40
0.0
 40
0.0299424796
 40
0.0599093277
 40
0.0899243268
 40
0.1200100989
 40
0.1501875564
 40
0.1804754082
 40
0.2108897438
 40
0.2414437065
 40
0.2721472214
 40
0.3030068034
 40
0.334025452
 40
0.3652026597
 40
0.3965344836
 40
0.4280136674
 40
0.4596298279
 40
0.4913697183
 40
0.5232175588
 40
0.5551553757
 40
0.587163368
 40
0.6192203146
 40
0.6513040285
 40
0.6833918015
 40
0.7154608406
 40
0.7474887097
 40
0.7794537919
 40
0.8113357643
 40
0.8431159187
 40
0.8747776681
 40
0.9063070433
 40
0.9376914486
 40
0.9689258945
 40
1.0
 40
1.0
 40
1.0
 40
1.0
 10
10.8011092158
 20
8.2420014532
 30
0.0
 10
10.8021875434
 20
8.2430430465
 30
0.0
 10
10.8044289767
 20
8.2450421878
 30
0.0
 10
10.808020125
 20
8.2477656468
 30
0.0
 10
10.8118218868
 20
8.2502002561
 30
0.0
 10
10.8158130267
 20
8.2523323548
 30
0.0
 10
10.8199716079
 20
8.2541502847
 30
0.0
 10
10.8242746839
 20
8.2556440355
 30
0.0
 10
10.8286985319
 20
8.256805457
 30
0.0
 10
10.8332187797
 20
8.2576282145
 30
0.0
 10
10.8378105427
 20
8.258107836
 30
0.0
 10
10.8424485552
 20
8.2582417195
 30
0.0
 10
10.8471073054
 20
8.258029196
 30
0.0
 10
10.8517611851
 20
8.2574715101
 30
0.0
 10
10.8563846265
 20
8.2565717814
 30
0.0
 10
10.8609522359
 20
8.2553349914
 30
0.0
 10
10.8654389281
 20
8.2537679615
 30
0.0
 10
10.8698200816
 20
8.2518793589
 30
0.0
 10
10.8740716573
 20
8.2496795916
 30
0.0
 10
10.8781703271
 20
8.2471807597
 30
0.0
 10
10.8820935905
 20
8.2443965823
 30
0.0
 10
10.8858199212
 20
8.2413423617
 30
0.0
 10
10.8893288836
 20
8.2380348854
 30
0.0
 10
10.8926012229
 20
8.2344923102
 30
0.0
 10
10.8956189696
 20
8.2307340718
 30
0.0
 10
10.8983655354
 20
8.2267807833
 30
0.0
 10
10.9008258507
 20
8.2226541515
 30
0.0
 10
10.9029863951
 20
8.2183768205
 30
0.0
 10
10.9048352858
 20
8.2139722622
 30
0.0
 10
10.9063623302
 20
8.2094646245
 30
0.0
 10
10.9075590531
 20
8.2048787135
 30
0.0
 10
10.9084189942
 20
8.2002395222
 30
0.0
 10
10.9089371636
 20
8.1955729836
 30
0.0
 10
10.9090532706
 20
8.1924519674
 30
0.0
 10
10.9090532706
 20
8.1908960708
 30
0.0
  0
SPLINE
  5
3C2
100
AcDbEntity
  8
0
100
AcDbSpline
 62
7
  6
CONTINUOUS
 70
0
 71
3
 72
37
 73
33
 74
0
 42
0.0000001
 43
0.0000001
 44
0.0000000001
 40
0.0
 40
0.0
 40
0.0
 40
0.0
 40
0.0299447936
 40
0.0599139685
 40
0.0899313111
 40
0.1200194352
 40
0.1501992442
 40
0.180489451
 40
0.2109061585
 40
0.2414625113
 40
0.2721684281
 40
0.3030304183
 40
0.3340514866
 40
0.3652311292
 40
0.3965653974
 40
0.4280470303
 40
0.4596656502
 40
0.491408017
 40
0.5551595119
 40
0.6191908015
 40
0.6512770143
 40
0.6833672795
 40
0.7154387951
 40
0.7474691381
 40
0.7794367026
 40
0.8113211444
 40
0.8431037821
 40
0.8747679493
 40
0.9062997436
 40
0.9376868029
 40
0.9689230915
 40
1.0
 40
1.0
 40
1.0
 40
1.0
 10
10.3545135472
 20
8.9008559514
 30
0.0
 10
10.3558075414
 20
8.9021058494
 30
0.0
 10
10.358497287
 20
8.9045047646
 30
0.0
 10
10.3628066648
 20
8.9077728727
 30
0.0
 10
10.3673687891
 20
8.9106943469
 30
0.0
 10
10.3721581717
 20
8.91325279
 30
0.0
 10
10.3771484763
 20
8.9154342296
 30
0.0
 10
10.3823121585
 20
8.917226682
 30
0.0
 10
10.3876207638
 20
8.9186203429
 30
0.0
 10
10.3930450475
 20
8.9196076019
 30
0.0
 10
10.3985551465
 20
8.9201830898
 30
0.0
 10
10.404120739
 20
8.9203437026
 30
0.0
 10
10.4097112149
 20
8.9200886392
 30
0.0
 10
10.4152958391
 20
8.9194193805
 30
0.0
 10
10.4208439486
 20
8.918339659
 30
0.0
 10
10.4263249996
 20
8.9168555097
 30
0.0
 10
10.4317091729
 20
8.9149749587
 30
0.0
 10
10.4387271691
 20
8.9119497991
 30
0.0
 10
10.4471079448
 20
8.9072313569
 30
0.0
 10
10.4547678631
 20
8.9013823469
 30
0.0
 10
10.4603766409
 20
8.896095403
 30
0.0
 10
10.4643035724
 20
8.8918441839
 30
0.0
 10
10.4679247784
 20
8.8873343319
 30
0.0
 10
10.4712206511
 20
8.8825903989
 30
0.0
 10
10.4741730119
 20
8.8776384668
 30
0.0
 10
10.4767656488
 20
8.8725056888
 30
0.0
 10
10.4789842774
 20
8.8672202327
 30
0.0
 10
10.4808167082
 20
8.8618110918
 30
0.0
 10
10.4822527794
 20
8.8563080172
 30
0.0
 10
10.483284683
 20
8.8507410339
 30
0.0
 10
10.4839065034
 20
8.8451412142
 30
0.0
 10
10.4840458156
 20
8.8413960225
 30
0.0
 10
10.4840458156
 20
8.8395289318
 30
0.0
  0
SPLINE
  5
3C3
100
AcDbEntity
  8
0
100
AcDbSpline
 62
7
  6
CONTINUOUS
 70
0
 71
3
 72
39
 73
35
 74
0
 42
0.0000001
 43
0.0000001
 44
0.0000000001
 40
0.0
 40
0.0
 40
0.0
 40
0.0
 40
0.0299424796
 40
0.0599093277
 40
0.0899243268
 40
0.1200100989
 40
0.1501875564
 40
0.1804754082
 40
0.2108897438
 40
0.2414437065
 40
0.2721472214
 40
0.3030068034
 40
0.334025452
 40
0.3652026597
 40
0.3965344836
 40
0.4280136674
 40
0.4596298279
 40
0.4913697183
 40
0.5232175588
 40
0.5551553757
 40
0.587163368
 40
0.6192203146
 40
0.6513040285
 40
0.6833918015
 40
0.7154608406
 40
0.7474887097
 40
0.7794537919
 40
0.8113357643
 40
0.8431159187
 40
0.8747776681
 40
0.9063070433
 40
0.9376914486
 40
0.9689258945
 40
1.0
 40
1.0
 40
1.0
 40
1.0
 10
10.3635447242
 20
7.6531881311
 30
0.0
 10
10.3646230519
 20
7.6542297244
 30
0.0
 10
10.3668644852
 20
7.6562288657
 30
0.0
 10
10.3704556334
 20
7.6589523246
 30
0.0
 10
10.3742573952
 20
7.661386934
 30
0.0
 10
10.3782485351
 20
7.6635190327
 30
0.0
 10
10.3824071163
 20
7.6653369626
 30
0.0
 10
10.3867101924
 20
7.6668307134
 30
0.0
 10
10.3911340403
 20
7.6679921349
 30
0.0
 10
10.3956542881
 20
7.6688148924
 30
0.0
 10
10.4002460512
 20
7.6692945139
 30
0.0
 10
10.4048840636
 20
7.6694283974
 30
0.0
 10
10.4095428138
 20
7.6692158739
 30
0.0
 10
10.4141966936
 20
7.668658188
 30
0.0
 10
10.4188201349
 20
7.6677584593
 30
0.0
 10
10.4233877443
 20
7.6665216693
 30
0.0
 10
10.4278744365
 20
7.6649546394
 30
0.0
 10
10.43225559
 20
7.6630660368
 30
0.0
 10
10.4365071657
 20
7.6608662695
 30
0.0
 10
10.4406058355
 20
7.6583674376
 30
0.0
 10
10.4445290989
 20
7.6555832602
 30
0.0
 10
10.4482554296
 20
7.6525290396
 30
0.0
 10
10.4517643921
 20
7.6492215633
 30
0.0
 10
10.4550367313
 20
7.6456789881
 30
0.0
 10
10.4580544781
 20
7.6419207497
 30
0.0
 10
10.4608010439
 20
7.6379674612
 30
0.0
 10
10.4632613591
 20
7.6338408294
 30
0.0
 10
10.4654219035
 20
7.6295634984
 30
0.0
 10
10.4672707942
 20
7.6251589401
 30
0.0
 10
10.4687978386
 20
7.6206513024
 30
0.0
 10
10.4699945615
 20
7.6160653914
 30
0.0
 10
10.4708545027
 20
7.6114262001
 30
0.0
 10
10.471372672
 20
7.6067596615
 30
0.0
 10
10.4714887791
 20
7.6036386453
 30
0.0
 10
10.4714887791
 20
7.6020827487
 30
0.0
  0
SPLINE
  5
3C4
100
AcDbEntity
  8
0
100
AcDbSpline
 62
7
  6
CONTINUOUS
 70
0
 71
3
 72
17
 73
13
 74
0
 42
0.0000001
 43
0.0000001
 44
0.0000000001
 40
0.0
 40
0.0
 40
0.0
 40
0.0
 40
0.1492506635
 40
0.2896780469
 40
0.4219823974
 40
0.4853805152
 40
0.5471014468
 40
0.6660508601
 40
0.7801597401
 40
0.8909114747
 40
0.9455641552
 40
1.0
 40
1.0
 40
1.0
 40
1.0
 10
13.4222181807
 20
7.3351454097
 30
0.0
 10
13.4211939501
 20
7.3341921788
 30
0.0
 10
13.41914676
 20
7.3324039864
 30
0.0
 10
13.4159812064
 20
7.3300252817
 30
0.0
 10
13.4133097036
 20
7.3283455765
 30
0.0
 10
13.4111798606
 20
7.3272089538
 30
0.0
 10
13.409109843
 20
7.3262323929
 30
0.0
 10
13.4065215575
 20
7.3252473466
 30
0.0
 10
13.4033909144
 20
7.3244507744
 30
0.0
 10
13.4007835806
 20
7.3241211825
 30
0.0
 10
13.3987223373
 20
7.3240622963
 30
0.0
 10
13.3976994554
 20
7.3240996886
 30
0.0
 10
13.3971903597
 20
7.3241349981
 30
0.0
  0
SPLINE
  5
3C5
100
AcDbEntity
  8
0
100
AcDbSpline
 62
7
  6
CONTINUOUS
 70
0
 71
3
 72
31
 73
27
 74
0
 42
0.0000001
 43
0.0000001
 44
0.0000000001
 40
0.0
 40
0.0
 40
0.0
 40
0.0
 40
0.0162143923
 40
0.0334274104
 40
0.051671826
 40
0.0709709107
 40
0.0913404915
 40
0.1127895765
 40
0.1353219427
 40
0.1589363013
 40
0.1836275706
 40
0.2093867448
 40
0.2362019676
 40
0.2640582192
 40
0.292938262
 40
0.3228222211
 40
0.3536884431
 40
0.3855130181
 40
0.4519320155
 40
0.5218578746
 40
0.5950442585
 40
0.6712248644
 40
0.7501159881
 40
0.8314186934
 40
0.9148211163
 40
1.0
 40
1.0
 40
1.0
 40
1.0
 10
13.9268259687
 20
9.2853480898
 30
0.0
 10
13.9276820576
 20
9.2842954921
 30
0.0
 10
13.9293748994
 20
9.2820661744
 30
0.0
 10
13.9317891188
 20
9.278476841
 30
0.0
 10
13.934150227
 20
9.2745480479
 30
0.0
 10
13.9364558763
 20
9.2702839894
 30
0.0
 10
13.9387037569
 20
9.2656888992
 30
0.0
 10
13.9408916638
 20
9.2607675097
 30
0.0
 10
13.9430172778
 20
9.255524849
 30
0.0
 10
13.9450784706
 20
9.2499663496
 30
0.0
 10
13.9470730131
 20
9.2440977615
 30
0.0
 10
13.9489988847
 20
9.2379252031
 30
0.0
 10
13.9508539833
 20
9.2314551068
 30
0.0
 10
13.9526364201
 20
9.2246942449
 30
0.0
 10
13.9543442412
 20
9.2176496936
 30
0.0
 10
13.9559756993
 20
9.2103288464
 30
0.0
 10
13.9575290255
 20
9.2027393772
 30
0.0
 10
13.9595221897
 20
9.1921208414
 30
0.0
 10
13.9617949062
 20
9.1782313444
 30
0.0
 10
13.9641497709
 20
9.160855234
 30
0.0
 10
13.9661593238
 20
9.1426139508
 30
0.0
 10
13.9678149373
 20
9.1235842313
 30
0.0
 10
13.9691094406
 20
9.1038460252
 30
0.0
 10
13.9700372367
 20
9.0834823423
 30
0.0
 10
13.9705942919
 20
9.0625789694
 30
0.0
 10
13.9707157491
 20
9.0484721688
 30
0.0
 10
13.9707157491
 20
9.0413446154
 30
0.0
  0
SPLINE
  5
3C6
100
AcDbEntity
  8
0
100
AcDbSpline
 62
7
  6
CONTINUOUS
 70
0
 71
3
 72
17
 73
13
 74
0
 42
0.0000001
 43
0.0000001
 44
0.0000000001
 40
0.0
 40
0.0
 40
0.0
 40
0.0
 40
0.0544361239
 40
0.1090890654
 40
0.2198413957
 40
0.3339503404
 40
0.4529002993
 40
0.5146222749
 40
0.5780215285
 40
0.7103273933
 40
0.8507479293
 40
1.0
 40
1.0
 40
1.0
 40
1.0
 10
13.8776823927
 20
9.3315227392
 30
0.0
 10
13.8781914911
 20
9.3314874295
 30
0.0
 10
13.8792097453
 20
9.3313832514
 30
0.0
 10
13.8812431454
 20
9.3310404381
 30
0.0
 10
13.8837800245
 20
9.3303540568
 30
0.0
 10
13.8867707622
 20
9.3291329905
 30
0.0
 10
13.889198308
 20
9.3278000754
 30
0.0
 10
13.8911137124
 20
9.3265470851
 30
0.0
 10
13.8930663141
 20
9.3251273459
 30
0.0
 10
13.8954803126
 20
9.3230949335
 30
0.0
 10
13.8982872462
 20
9.3203021233
 30
0.0
 10
13.9000679408
 20
9.3182484719
 30
0.0
 10
13.9009507851
 20
9.317162967
 30
0.0
  0
SPLINE
  5
3C7
100
AcDbEntity
  8
0
100
AcDbSpline
 62
7
  6
CONTINUOUS
 70
0
 71
3
 72
11
 73
7
 74
0
 42
0.0000001
 43
0.0000001
 44
0.0000000001
 40
0.0
 40
0.0
 40
0.0
 40
0.0
 40
0.2584401865
 40
0.5097223221
 40
0.7561061029
 40
1.0
 40
1.0
 40
1.0
 40
1.0
 10
13.783806686
 20
8.9761190922
 30
0.0
 10
13.7847502561
 20
8.9764411824
 30
0.0
 10
13.7866407485
 20
8.9769943661
 30
0.0
 10
13.7895105843
 20
8.9775417661
 30
0.0
 10
13.7923652905
 20
8.9777923129
 30
0.0
 10
13.7942605387
 20
8.977760742
 30
0.0
 10
13.7951991953
 20
8.9776956452
 30
0.0
  0
SPLINE
  5
3C8
100
AcDbEntity
  8
0
100
AcDbSpline
 62
7
  6
CONTINUOUS
 70
0
 71
3
 72
35
 73
31
 74
0
 42
0.0000001
 43
0.0000001
 44
0.0000000001
 40
0.0
 40
0.0
 40
0.0
 40
0.0
 40
0.0055894899
 40
0.0112349566
 40
0.0169906466
 40
0.0229074856
 40
0.035394573
 40
0.0490196656
 40
0.0640117928
 40
0.0805304657
 40
0.0986810148
 40
0.118527206
 40
0.140101804
 40
0.163413967
 40
0.1884538478
 40
0.2151969172
 40
0.2436064159
 40
0.2736349454
 40
0.3052265595
 40
0.338317495
 40
0.3728370128
 40
0.4087086037
 40
0.4458501404
 40
0.4841746109
 40
0.5640009141
 40
0.6474156686
 40
0.7335948714
 40
0.8216778493
 40
0.9107790803
 40
1.0
 40
1.0
 40
1.0
 40
1.0
 10
13.6263799765
 20
7.8380062646
 30
0.0
 10
13.6261099751
 20
7.8380249847
 30
0.0
 10
13.6255688173
 20
7.8380909667
 30
0.0
 10
13.6247654427
 20
7.8382744099
 30
0.0
 10
13.6239693709
 20
7.8385423158
 30
0.0
 10
13.6228998217
 20
7.839019961
 30
0.0
 10
13.6215764184
 20
7.8398438362
 30
0.0
 10
13.6200617726
 20
7.8411443214
 30
0.0
 10
13.6185923071
 20
7.8427685795
 30
0.0
 10
13.6171700268
 20
7.8447118409
 30
0.0
 10
13.6157970301
 20
7.8469694701
 30
0.0
 10
13.6144761152
 20
7.8495360364
 30
0.0
 10
13.613210341
 20
7.8524052629
 30
0.0
 10
13.6120029241
 20
7.8555699353
 30
0.0
 10
13.6108569804
 20
7.8590219029
 30
0.0
 10
13.6097755865
 20
7.8627521632
 30
0.0
 10
13.6087616842
 20
7.8667508887
 30
0.0
 10
13.6078179993
 20
7.871007466
 30
0.0
 10
13.6069471286
 20
7.8755105566
 30
0.0
 10
13.6061514566
 20
7.8802481261
 30
0.0
 10
13.6054331338
 20
7.8852074855
 30
0.0
 10
13.6047941556
 20
7.8903753328
 30
0.0
 10
13.604236239
 20
7.8957378054
 30
0.0
 10
13.6035938159
 20
7.9032300871
 30
0.0
 10
13.6030118957
 20
7.9129746649
 30
0.0
 10
13.6026629927
 20
7.9250485239
 30
0.0
 10
13.6026586874
 20
7.93752715
 30
0.0
 10
13.6029992309
 20
7.9502764732
 30
0.0
 10
13.6036811115
 20
7.9631594596
 30
0.0
 10
13.6043602643
 20
7.9717684226
 30
0.0
 10
13.6047563019
 20
7.9760704111
 30
0.0
  0
SPLINE
  5
3C9
100
AcDbEntity
  8
0
100
AcDbSpline
 62
7
  6
CONTINUOUS
 70
0
 71
3
 72
40
 73
36
 74
0
 42
0.0000001
 43
0.0000001
 44
0.0000000001
 40
0.0
 40
0.0
 40
0.0
 40
0.0
 40
0.0063160423
 40
0.0126709865
 40
0.0191029724
 40
0.0256486827
 40
0.0323427081
 40
0.0392172067
 40
0.0536153583
 40
0.0690524996
 40
0.0856858071
 40
0.1036340937
 40
0.1229841962
 40
0.143797065
 40
0.1661130709
 40
0.1899559871
 40
0.2153360382
 40
0.2422525011
 40
0.2706954866
 40
0.3006471939
 40
0.3320831972
 40
0.3649732978
 40
0.3992820311
 40
0.4349693787
 40
0.4719912661
 40
0.5102997798
 40
0.5498435954
 40
0.5905683418
 40
0.6324167182
 40
0.6753287759
 40
0.7192421939
 40
0.7640923801
 40
0.8098128754
 40
0.9035866165
 40
1.0
 40
1.0
 40
1.0
 40
1.0
 10
13.4758347657
 20
7.9819983224
 30
0.0
 10
13.475107139
 20
7.9820487808
 30
0.0
 10
13.4736508438
 20
7.9822095794
 30
0.0
 10
13.4714827159
 20
7.9826286577
 30
0.0
 10
13.4693290767
 20
7.9832256381
 30
0.0
 10
13.4671912005
 20
7.9840000967
 30
0.0
 10
13.4650699196
 20
7.9849514796
 30
0.0
 10
13.4622215002
 20
7.9864783671
 30
0.0
 10
13.458696828
 20
7.9888558974
 30
0.0
 10
13.4546199928
 20
7.9923605394
 30
0.0
 10
13.4506339641
 20
7.9965525638
 30
0.0
 10
13.4467433885
 20
8.0014242481
 30
0.0
 10
13.4429524733
 20
8.006967963
 30
0.0
 10
13.4392661785
 20
8.0131751466
 30
0.0
 10
13.435689743
 20
8.0200362747
 30
0.0
 10
13.4322285814
 20
8.0275406651
 30
0.0
 10
13.4288880872
 20
8.0356764622
 30
0.0
 10
13.4256736317
 20
8.0444306899
 30
0.0
 10
13.4225904707
 20
8.0537892645
 30
0.0
 10
13.4196436482
 20
8.0637370146
 30
0.0
 10
13.4168380391
 20
8.0742577489
 30
0.0
 10
13.4141783204
 20
8.0853342894
 30
0.0
 10
13.4116688957
 20
8.0969484914
 30
0.0
 10
13.409313938
 20
8.109081299
 30
0.0
 10
13.4071173902
 20
8.1217127841
 30
0.0
 10
13.4050829012
 20
8.1348221704
 30
0.0
 10
13.403213852
 20
8.1483878787
 30
0.0
 10
13.4015133739
 20
8.1623875715
 30
0.0
 10
13.3999842982
 20
8.1767981829
 30
0.0
 10
13.3986291589
 20
8.1915959598
 30
0.0
 10
13.3974502332
 20
8.2067564993
 30
0.0
 10
13.396449464
 20
8.2222548354
 30
0.0
 10
13.3953456787
 20
8.2435147069
 30
0.0
 10
13.3944326831
 20
8.270744598
 30
0.0
 10
13.394196802
 20
8.2927081202
 30
0.0
 10
13.394196802
 20
8.3038419018
 30
0.0
  0
SPLINE
  5
3CA
100
AcDbEntity
  8
0
100
AcDbSpline
 62
7
  6
CONTINUOUS
 70
0
 71
3
 72
17
 73
13
 74
0
 42
0.0000001
 43
0.0000001
 44
0.0000000001
 40
0.0
 40
0.0
 40
0.0
 40
0.0
 40
0.0544358448
 40
0.1090885253
 40
0.2198402599
 40
0.3339491399
 40
0.4528985532
 40
0.5146194848
 40
0.5780176026
 40
0.7103219531
 40
0.8507493365
 40
1.0
 40
1.0
 40
1.0
 40
1.0
 10
8.9263461185
 20
9.6758650019
 30
0.0
 10
8.9258370228
 20
9.6759003114
 30
0.0
 10
8.9248141409
 20
9.6759377037
 30
0.0
 10
8.9227528976
 20
9.6758788175
 30
0.0
 10
8.9201455639
 20
9.6755492256
 30
0.0
 10
8.9170149208
 20
9.6747526534
 30
0.0
 10
8.9144266352
 20
9.6737676071
 30
0.0
 10
8.9123566177
 20
9.6727910462
 30
0.0
 10
8.9102267746
 20
9.6716544235
 30
0.0
 10
8.9075552719
 20
9.6699747183
 30
0.0
 10
8.9043897182
 20
9.6675960136
 30
0.0
 10
8.9023425281
 20
9.6658078212
 30
0.0
 10
8.9013182975
 20
9.6648545903
 30
0.0
  0
SPLINE
  5
3CB
100
AcDbEntity
  8
0
100
AcDbSpline
 62
7
  6
CONTINUOUS
 70
0
 71
3
 72
17
 73
13
 74
0
 42
0.0000001
 43
0.0000001
 44
0.0000000001
 40
0.0
 40
0.0
 40
0.0
 40
0.0
 40
0.1492520707
 40
0.2896726067
 40
0.4219784715
 40
0.4853777251
 40
0.5470997007
 40
0.6660496596
 40
0.7801586043
 40
0.8909109346
 40
0.9455638761
 40
1.0
 40
1.0
 40
1.0
 40
1.0
 10
8.4225856932
 20
7.682837033
 30
0.0
 10
8.4234685375
 20
7.6817515281
 30
0.0
 10
8.4252492321
 20
7.6796978767
 30
0.0
 10
8.4280561656
 20
7.6769050665
 30
0.0
 10
8.4304701641
 20
7.6748726541
 30
0.0
 10
8.4324227658
 20
7.6734529149
 30
0.0
 10
8.4343381702
 20
7.6721999246
 30
0.0
 10
8.436765716
 20
7.6708670095
 30
0.0
 10
8.4397564537
 20
7.6696459432
 30
0.0
 10
8.4422933329
 20
7.6689595619
 30
0.0
 10
8.4443267329
 20
7.6686167486
 30
0.0
 10
8.4453449871
 20
7.6685125705
 30
0.0
 10
8.4458540855
 20
7.6684772608
 30
0.0
  0
SPLINE
  5
3CC
100
AcDbEntity
  8
0
100
AcDbSpline
 62
7
  6
CONTINUOUS
 70
0
 71
3
 72
18
 73
14
 74
0
 42
0.0000001
 43
0.0000001
 44
0.0000000001
 40
0.0
 40
0.0
 40
0.0
 40
0.0
 40
0.150465277
 40
0.2917135888
 40
0.4244428697
 40
0.4879101177
 40
0.5496092744
 40
0.6682620957
 40
0.7817884661
 40
0.8371381947
 40
0.8918080597
 40
0.9460194495
 40
1.0
 40
1.0
 40
1.0
 40
1.0
 10
12.4627369657
 20
9.4159710649
 30
0.0
 10
12.4637970896
 20
9.416995066
 30
0.0
 10
12.4659159413
 20
9.4189164098
 30
0.0
 10
12.4691967337
 20
9.4214768871
 30
0.0
 10
12.4719679617
 20
9.4232877888
 30
0.0
 10
12.4741777464
 20
9.4245140858
 30
0.0
 10
12.4763225104
 20
9.4255668966
 30
0.0
 10
12.4790041675
 20
9.4266306953
 30
0.0
 10
12.4817335057
 20
9.4273567336
 30
0.0
 10
12.4838952455
 20
9.4277143486
 30
0.0
 10
12.4854973831
 20
9.4278731038
 30
0.0
 10
12.4870930419
 20
9.4279244129
 30
0.0
 10
12.4881531586
 20
9.4278869153
 30
0.0
 10
12.4886806718
 20
9.4278503357
 30
0.0
  0
SPLINE
  5
3CD
100
AcDbEntity
  8
0
100
AcDbSpline
 62
7
  6
CONTINUOUS
 70
0
 71
3
 72
39
 73
35
 74
0
 42
0.0000001
 43
0.0000001
 44
0.0000000001
 40
0.0
 40
0.0
 40
0.0
 40
0.0
 40
0.0760185458
 40
0.1532632554
 40
0.2310390604
 40
0.3086436563
 40
0.3853769375
 40
0.42320137
 40
0.4605504649
 40
0.4973408779
 40
0.533490906
 40
0.5689207649
 40
0.6035528818
 40
0.6373121533
 40
0.6701262286
 40
0.7019258193
 40
0.7326450735
 40
0.7622219321
 40
0.790598514
 40
0.817721583
 40
0.8435431249
 40
0.868021063
 40
0.8911200625
 40
0.9128125786
 40
0.9231258585
 40
0.9330815931
 40
0.9426792004
 40
0.9519190187
 40
0.9608022954
 40
0.9693313294
 40
0.9775099463
 40
0.9853432204
 40
0.9928373695
 40
1.0
 40
1.0
 40
1.0
 40
1.0
 10
11.9370759189
 20
8.5459992475
 30
0.0
 10
11.9370759189
 20
8.5579854479
 30
0.0
 10
11.9373964405
 20
8.5821522181
 30
0.0
 10
11.9387950834
 20
8.61855789
 30
0.0
 10
11.9411037027
 20
8.6551680126
 30
0.0
 10
11.944300175
 20
8.6916301836
 30
0.0
 10
11.9476938977
 20
8.7217422047
 30
0.0
 10
11.9508354942
 20
8.7454877081
 30
0.0
 10
11.9533807039
 20
8.7629576967
 30
0.0
 10
11.9561198678
 20
8.7801310261
 30
0.0
 10
11.9590464005
 20
8.7969663845
 30
0.0
 10
11.9621532242
 20
8.8134232433
 30
0.0
 10
11.9654328226
 20
8.8294620066
 30
0.0
 10
11.9688772619
 20
8.8450440919
 30
0.0
 10
11.9724782091
 20
8.8601320226
 30
0.0
 10
11.9762269557
 20
8.8746895238
 30
0.0
 10
11.9801144226
 20
8.8886816218
 30
0.0
 10
11.9841311913
 20
8.9020747326
 30
0.0
 10
11.9882675331
 20
8.9148367384
 30
0.0
 10
11.9925134342
 20
8.9269370794
 30
0.0
 10
11.9968586242
 20
8.9383468207
 30
0.0
 10
12.0012925964
 20
8.9490388403
 30
0.0
 10
12.0058046529
 20
8.9589875861
 30
0.0
 10
12.0096833431
 20
8.9667652433
 30
0.0
 10
12.0128245318
 20
8.9725888331
 30
0.0
 10
12.0151534161
 20
8.9766823766
 30
0.0
 10
12.0174937058
 20
8.9805732041
 30
0.0
 10
12.0198440051
 20
8.9842590073
 30
0.0
 10
12.0222028854
 20
8.9877376038
 30
0.0
 10
12.0245690235
 20
8.9910069259
 30
0.0
 10
12.0269410196
 20
8.9940651073
 30
0.0
 10
12.0293175829
 20
8.9969103372
 30
0.0
 10
12.0316971535
 20
8.9995407755
 30
0.0
 10
12.0333206794
 20
9.0011867591
 30
0.0
 10
12.0341329807
 20
9.001971382
 30
0.0
  0
SPLINE
  5
3CE
100
AcDbEntity
  8
0
100
AcDbSpline
 62
7
  6
CONTINUOUS
 70
0
 71
3
 72
32
 73
28
 74
0
 42
0.0000001
 43
0.0000001
 44
0.0000000001
 40
0.0
 40
0.0
 40
0.0
 40
0.0
 40
0.0980610267
 40
0.1926709038
 40
0.2833943868
 40
0.3698322148
 40
0.4516110134
 40
0.528396034
 40
0.599894381
 40
0.6335854185
 40
0.6658690324
 40
0.6967245028
 40
0.72613669
 40
0.7540951002
 40
0.7805965497
 40
0.8056444602
 40
0.8292517053
 40
0.8514412995
 40
0.8722490203
 40
0.8917262904
 40
0.9099427894
 40
0.9269915069
 40
0.9429915898
 40
0.9580936272
 40
0.9724808304
 40
0.986368966
 40
1.0
 40
1.0
 40
1.0
 40
1.0
 10
13.6598110656
 20
7.909034988
 30
0.0
 10
13.6593236155
 20
7.906396121
 30
0.0
 10
13.6583116233
 20
7.9012210683
 30
0.0
 10
13.6566509889
 20
7.893644958
 30
0.0
 10
13.6548810145
 20
7.8864205899
 30
0.0
 10
13.653010887
 20
7.8795847812
 30
0.0
 10
13.6510502141
 20
7.8731720539
 30
0.0
 10
13.6490091143
 20
7.8672149611
 30
0.0
 10
13.6472162029
 20
7.862567347
 30
0.0
 10
13.645743605
 20
7.8591051571
 30
0.0
 10
13.6446475512
 20
7.856692323
 30
0.0
 10
13.643539303
 20
7.8544145737
 30
0.0
 10
13.6424203034
 20
7.8522747559
 30
0.0
 10
13.641291905
 20
7.8502755728
 30
0.0
 10
13.6401555847
 20
7.8484194919
 30
0.0
 10
13.6390126959
 20
7.8467088331
 30
0.0
 10
13.6378646668
 20
7.8451456835
 30
0.0
 10
13.6367128467
 20
7.8437319541
 30
0.0
 10
13.6355585417
 20
7.8424693752
 30
0.0
 10
13.6344030446
 20
7.8413594574
 30
0.0
 10
13.6332474725
 20
7.8404036593
 30
0.0
 10
13.6320929901
 20
7.8396032171
 30
0.0
 10
13.6309405583
 20
7.8389595272
 30
0.0
 10
13.6297913484
 20
7.8384738614
 30
0.0
 10
13.6286465381
 20
7.8381477662
 30
0.0
 10
13.6275082152
 20
7.8379825787
 30
0.0
 10
13.6267521061
 20
7.8379804635
 30
0.0
 10
13.6263799765
 20
7.8380062646
 30
0.0
  0
SPLINE
  5
3CF
100
AcDbEntity
  8
0
100
AcDbSpline
 62
7
  6
CONTINUOUS
 70
0
 71
3
 72
31
 73
27
 74
0
 42
0.0000001
 43
0.0000001
 44
0.0000000001
 40
0.0
 40
0.0
 40
0.0
 40
0.0
 40
0.0851788813
 40
0.1685809389
 40
0.249883622
 40
0.3287745949
 40
0.4049551209
 40
0.4781414285
 40
0.5480672398
 40
0.6144862131
 40
0.6463108357
 40
0.6771770133
 40
0.7070610423
 40
0.7359410463
 40
0.7637973898
 40
0.7906125804
 40
0.8163718673
 40
0.8410631119
 40
0.8646776016
 40
0.887209952
 40
0.9086591826
 40
0.9290287577
 40
0.948327997
 40
0.9665724178
 40
0.9837855919
 40
1.0
 40
1.0
 40
1.0
 40
1.0
 10
8.3747410477
 20
7.9488287877
 30
0.0
 10
8.3747410477
 20
7.9410589406
 30
0.0
 10
8.3748734476
 20
7.92568095
 30
0.0
 10
8.3754807024
 20
7.9028939215
 30
0.0
 10
8.3764920968
 20
7.8806952297
 30
0.0
 10
8.3779032486
 20
7.8591783532
 30
0.0
 10
8.3797080455
 20
7.8384338124
 30
0.0
 10
8.3818986781
 20
7.8185487478
 30
0.0
 10
8.3844657325
 20
7.7996068137
 30
0.0
 10
8.3869432518
 20
7.7844656778
 30
0.0
 10
8.389115997
 20
7.7728902567
 30
0.0
 10
8.3908093125
 20
7.7646168642
 30
0.0
 10
8.392587755
 20
7.7566362983
 30
0.0
 10
8.3944494926
 20
7.7489569256
 30
0.0
 10
8.3963925136
 20
7.7415868015
 30
0.0
 10
8.3984148047
 20
7.7345336475
 30
0.0
 10
8.4005141808
 20
7.7278048345
 30
0.0
 10
8.402688486
 20
7.721407391
 30
0.0
 10
8.4049353723
 20
7.7153479645
 30
0.0
 10
8.4072525648
 20
7.7096328525
 30
0.0
 10
8.4096375793
 20
7.704267939
 30
0.0
 10
8.4120880601
 20
7.6992587531
 30
0.0
 10
8.4146014237
 20
7.6946103948
 30
0.0
 10
8.4171753374
 20
7.69032755
 30
0.0
 10
8.4198070555
 20
7.6864147091
 30
0.0
 10
8.4216524629
 20
7.6839844901
 30
0.0
 10
8.4225856932
 20
7.682837033
 30
0.0
  0
SPLINE
  5
3D0
100
AcDbEntity
  8
0
100
AcDbSpline
 62
7
  6
CONTINUOUS
 70
0
 71
3
 72
39
 73
35
 74
0
 42
0.0000001
 43
0.0000001
 44
0.0000000001
 40
0.0
 40
0.0
 40
0.0
 40
0.0
 40
0.0760186195
 40
0.1532632405
 40
0.2310390569
 40
0.3086436598
 40
0.3853769321
 40
0.4232013715
 40
0.4605504742
 40
0.4973408756
 40
0.5334908927
 40
0.5689207641
 40
0.6035528972
 40
0.6373121552
 40
0.6701262104
 40
0.7019258119
 40
0.7326450908
 40
0.7622219393
 40
0.7905984982
 40
0.817721569
 40
0.8435431378
 40
0.868021072
 40
0.8911200544
 40
0.9128125623
 40
0.9231258565
 40
0.9330816035
 40
0.9426792017
 40
0.9519190239
 40
0.9608022671
 40
0.9693312983
 40
0.9775099587
 40
0.9853432821
 40
0.9928374322
 40
1.0
 40
1.0
 40
1.0
 40
1.0
 10
13.3640444081
 20
8.4553450643
 30
0.0
 10
13.3640444081
 20
8.4663404161
 30
0.0
 10
13.3643384339
 20
8.4885093978
 30
0.0
 10
13.3656214538
 20
8.5219055337
 30
0.0
 10
13.3677392326
 20
8.5554892088
 30
0.0
 10
13.3706714526
 20
8.5889371761
 30
0.0
 10
13.3737846401
 20
8.616559936
 30
0.0
 10
13.376666524
 20
8.6383424796
 30
0.0
 10
13.3790013261
 20
8.6543682834
 30
0.0
 10
13.3815140588
 20
8.6701219477
 30
0.0
 10
13.3841986685
 20
8.685565581
 30
0.0
 10
13.3870486563
 20
8.7006620096
 30
0.0
 10
13.3900571357
 20
8.7153749052
 30
0.0
 10
13.3932168398
 20
8.7296688678
 30
0.0
 10
13.3965201143
 20
8.7435095247
 30
0.0
 10
13.3999589612
 20
8.756863609
 30
0.0
 10
13.4035250569
 20
8.7696990328
 30
0.0
 10
13.4072097766
 20
8.7819849773
 30
0.0
 10
13.4110041857
 20
8.7936919842
 30
0.0
 10
13.4148990927
 20
8.804792031
 30
0.0
 10
13.4188850719
 20
8.8152585741
 30
0.0
 10
13.4229525052
 20
8.8250667199
 30
0.0
 10
13.4270915688
 20
8.8341930297
 30
0.0
 10
13.4306496209
 20
8.8413277319
 30
0.0
 10
13.4335311349
 20
8.8466699096
 30
0.0
 10
13.4356674967
 20
8.8504250573
 30
0.0
 10
13.4378143326
 20
8.8539942381
 30
0.0
 10
13.4399703278
 20
8.8573753496
 30
0.0
 10
13.4421342075
 20
8.8605663766
 30
0.0
 10
13.4443047453
 20
8.8635654354
 30
0.0
 10
13.4464806623
 20
8.8663708192
 30
0.0
 10
13.4486607786
 20
8.8689808481
 30
0.0
 10
13.4508436349
 20
8.871393837
 30
0.0
 10
13.4523329416
 20
8.8729037479
 30
0.0
 10
13.4530780861
 20
8.8736235023
 30
0.0
  0
SPLINE
  5
3D1
100
AcDbEntity
  8
0
100
AcDbSpline
 62
7
  6
CONTINUOUS
 70
0
 71
3
 72
39
 73
35
 74
0
 42
0.0000001
 43
0.0000001
 44
0.0000000001
 40
0.0
 40
0.0
 40
0.0
 40
0.0
 40
0.0760185458
 40
0.1532632554
 40
0.2310390604
 40
0.3086436563
 40
0.3853769375
 40
0.42320137
 40
0.4605504649
 40
0.4973408779
 40
0.533490906
 40
0.5689207649
 40
0.6035528818
 40
0.6373121533
 40
0.6701262286
 40
0.7019258193
 40
0.7326450735
 40
0.7622219321
 40
0.790598514
 40
0.817721583
 40
0.8435431249
 40
0.868021063
 40
0.8911200625
 40
0.9128125786
 40
0.9231258585
 40
0.9330815931
 40
0.9426792004
 40
0.9519190187
 40
0.9608022954
 40
0.9693313294
 40
0.9775099463
 40
0.9853432204
 40
0.9928373695
 40
1.0
 40
1.0
 40
1.0
 40
1.0
 10
13.3260773219
 20
8.449671673
 30
0.0
 10
13.3260773219
 20
8.4616578734
 30
0.0
 10
13.3263978435
 20
8.4858246437
 30
0.0
 10
13.3277964864
 20
8.5222303155
 30
0.0
 10
13.3301051057
 20
8.5588404381
 30
0.0
 10
13.333301578
 20
8.5953026092
 30
0.0
 10
13.3366953007
 20
8.6254146302
 30
0.0
 10
13.3398368972
 20
8.6491601337
 30
0.0
 10
13.342382107
 20
8.6666301222
 30
0.0
 10
13.3451212708
 20
8.6838034516
 30
0.0
 10
13.3480478035
 20
8.7006388101
 30
0.0
 10
13.3511546272
 20
8.7170956688
 30
0.0
 10
13.3544342256
 20
8.7331344321
 30
0.0
 10
13.3578786649
 20
8.7487165174
 30
0.0
 10
13.3614796121
 20
8.7638044481
 30
0.0
 10
13.3652283587
 20
8.7783619494
 30
0.0
 10
13.3691158256
 20
8.7923540474
 30
0.0
 10
13.3731325943
 20
8.8057471581
 30
0.0
 10
13.3772689361
 20
8.8185091639
 30
0.0
 10
13.3815148372
 20
8.830609505
 30
0.0
 10
13.3858600272
 20
8.8420192463
 30
0.0
 10
13.3902939994
 20
8.8527112658
 30
0.0
 10
13.3948060559
 20
8.8626600116
 30
0.0
 10
13.3986847461
 20
8.8704376688
 30
0.0
 10
13.4018259348
 20
8.8762612587
 30
0.0
 10
13.4041548191
 20
8.8803548022
 30
0.0
 10
13.4064951088
 20
8.8842456297
 30
0.0
 10
13.4088454081
 20
8.8879314328
 30
0.0
 10
13.4112042884
 20
8.8914100294
 30
0.0
 10
13.4135704265
 20
8.8946793514
 30
0.0
 10
13.4159424226
 20
8.8977375328
 30
0.0
 10
13.4183189859
 20
8.9005827627
 30
0.0
 10
13.4206985565
 20
8.903213201
 30
0.0
 10
13.4223220824
 20
8.9048591847
 30
0.0
 10
13.4231343837
 20
8.9056438075
 30
0.0
  0
SPLINE
  5
3D2
100
AcDbEntity
  8
0
100
AcDbSpline
 62
7
  6
CONTINUOUS
 70
0
 71
3
 72
23
 73
19
 74
0
 42
0.0000001
 43
0.0000001
 44
0.0000000001
 40
0.0
 40
0.0
 40
0.0
 40
0.0
 40
0.0755954479
 40
0.1466391714
 40
0.2134657403
 40
0.2765145402
 40
0.3363265376
 40
0.3935471486
 40
0.4489234403
 40
0.5032885643
 40
0.5575265067
 40
0.6125277807
 40
0.6691438784
 40
0.7281492575
 40
0.7902198463
 40
0.8559237775
 40
0.9257267722
 40
1.0
 40
1.0
 40
1.0
 40
1.0
 10
13.8816820711
 20
9.2876231852
 30
0.0
 10
13.8826381205
 20
9.2885466581
 30
0.0
 10
13.8845489811
 20
9.2902812373
 30
0.0
 10
13.8875062164
 20
9.2925985644
 30
0.0
 10
13.8904600136
 20
9.2945447873
 30
0.0
 10
13.8934075997
 20
9.2961169938
 30
0.0
 10
13.8963465523
 20
9.2973122823
 30
0.0
 10
13.8992738148
 20
9.2981278318
 30
0.0
 10
13.9021855865
 20
9.2985606291
 30
0.0
 10
13.905076985
 20
9.2986087679
 30
0.0
 10
13.9079424602
 20
9.2982713826
 30
0.0
 10
13.9107764764
 20
9.2975496429
 30
0.0
 10
13.9135741831
 20
9.2964458245
 30
0.0
 10
13.9163319238
 20
9.2949632897
 30
0.0
 10
13.9190468403
 20
9.2931053064
 30
0.0
 10
13.9217168211
 20
9.2908752103
 30
0.0
 10
13.9243396191
 20
9.2882761952
 30
0.0
 10
13.926001937
 20
9.286361272
 30
0.0
 10
13.9268259687
 20
9.2853480898
 30
0.0
  0
SPLINE
  5
3D3
100
AcDbEntity
  8
0
100
AcDbSpline
 62
7
  6
CONTINUOUS
 70
0
 71
3
 72
18
 73
14
 74
0
 42
0.0000001
 43
0.0000001
 44
0.0000000001
 40
0.0
 40
0.0
 40
0.0
 40
0.0
 40
0.1504654776
 40
0.2917138659
 40
0.4244431221
 40
0.4879103299
 40
0.5496094336
 40
0.6682621302
 40
0.7817883943
 40
0.837138095
 40
0.8918079579
 40
0.9460193786
 40
1.0
 40
1.0
 40
1.0
 40
1.0
 10
13.8517383687
 20
9.3196434904
 30
0.0
 10
13.8527985055
 20
9.320667504
 30
0.0
 10
13.8549173829
 20
9.3225888696
 30
0.0
 10
13.8581982166
 20
9.3251493716
 30
0.0
 10
13.8609694798
 20
9.3269602855
 30
0.0
 10
13.8631792923
 20
9.3281865865
 30
0.0
 10
13.8653240827
 20
9.3292393973
 30
0.0
 10
13.8680057732
 20
9.3303031899
 30
0.0
 10
13.8707351449
 20
9.3310292124
 30
0.0
 10
13.8728969104
 20
9.3313868092
 30
0.0
 10
13.8744990672
 20
9.3315455482
 30
0.0
 10
13.8760947449
 20
9.3315968384
 30
0.0
 10
13.8771548736
 20
9.3315593264
 30
0.0
 10
13.8776823927
 20
9.3315227392
 30
0.0
  0
SPLINE
  5
3D4
100
AcDbEntity
  8
0
100
AcDbSpline
 62
7
  6
CONTINUOUS
 70
0
 71
3
 72
11
 73
7
 74
0
 42
0.0000001
 43
0.0000001
 44
0.0000000001
 40
0.0
 40
0.0
 40
0.0
 40
0.0
 40
0.2603419793
 40
0.5119349624
 40
0.7575040107
 40
1.0
 40
1.0
 40
1.0
 40
1.0
 10
13.4885563285
 20
7.9840594123
 30
0.0
 10
13.4875055221
 20
7.9836521081
 30
0.0
 10
13.4853992973
 20
7.9829489612
 30
0.0
 10
13.4821910022
 20
7.9822413013
 30
0.0
 10
13.4790002999
 20
7.9819034605
 30
0.0
 10
13.4768819811
 20
7.9819257016
 30
0.0
 10
13.4758347657
 20
7.9819983224
 30
0.0
  0
SPLINE
  5
3D5
100
AcDbEntity
  8
0
100
AcDbSpline
 62
7
  6
CONTINUOUS
 70
0
 71
3
 72
15
 73
11
 74
0
 42
0.0000001
 43
0.0000001
 44
0.0000000001
 40
0.0
 40
0.0
 40
0.0
 40
0.0
 40
0.1273482808
 40
0.2538605196
 40
0.3795878971
 40
0.5046050835
 40
0.6290174393
 40
0.7529533827
 40
0.8765605876
 40
1.0
 40
1.0
 40
1.0
 40
1.0
 10
10.0160546762
 20
8.8719842275
 30
0.0
 10
10.0160546762
 20
8.8753565733
 30
0.0
 10
10.0163766626
 20
8.8820837876
 30
0.0
 10
10.017832823
 20
8.8920452275
 30
0.0
 10
10.0202473799
 20
8.9017563773
 30
0.0
 10
10.0235985285
 20
8.9111264203
 30
0.0
 10
10.0278555072
 20
8.9200689499
 30
0.0
 10
10.0329795249
 20
8.9285013923
 30
0.0
 10
10.0389224151
 20
8.9363447255
 30
0.0
 10
10.0433971007
 20
8.9411359008
 30
0.0
 10
10.0457482145
 20
8.9434069223
 30
0.0
  0
SPLINE
  5
3D6
100
AcDbEntity
  8
0
100
AcDbSpline
 62
7
  6
CONTINUOUS
 70
0
 71
3
 72
39
 73
35
 74
0
 42
0.0000001
 43
0.0000001
 44
0.0000000001
 40
0.0
 40
0.0
 40
0.0
 40
0.0
 40
0.0071626305
 40
0.0146567796
 40
0.0224900537
 40
0.0306686706
 40
0.0391977046
 40
0.0480809813
 40
0.0573207996
 40
0.0669184069
 40
0.0768741415
 40
0.0871874214
 40
0.1088799375
 40
0.131978937
 40
0.1564568751
 40
0.182278417
 40
0.209401486
 40
0.2377780679
 40
0.2673549265
 40
0.2980741807
 40
0.3298737714
 40
0.3626878467
 40
0.3964471182
 40
0.4310792351
 40
0.466509094
 40
0.5026591221
 40
0.5394495351
 40
0.57679863
 40
0.6146230625
 40
0.6913563437
 40
0.7689609396
 40
0.8467367446
 40
0.9239814542
 40
1.0
 40
1.0
 40
1.0
 40
1.0
 10
8.4717981095
 20
9.2499860703
 30
0.0
 10
8.4709858082
 20
9.2492014474
 30
0.0
 10
8.4693622822
 20
9.2475554637
 30
0.0
 10
8.4669827117
 20
9.2449250255
 30
0.0
 10
8.4646061484
 20
9.2420797956
 30
0.0
 10
8.4622341523
 20
9.2390216142
 30
0.0
 10
8.4598680142
 20
9.2357522921
 30
0.0
 10
8.4575091339
 20
9.2322736956
 30
0.0
 10
8.4551588345
 20
9.2285878924
 30
0.0
 10
8.4528185449
 20
9.2246970649
 30
0.0
 10
8.4504896606
 20
9.2206035214
 30
0.0
 10
8.4473484719
 20
9.2147799316
 30
0.0
 10
8.4434697817
 20
9.2070022744
 30
0.0
 10
8.4389577252
 20
9.1970535286
 30
0.0
 10
8.434523753
 20
9.186361509
 30
0.0
 10
8.4301785629
 20
9.1749517677
 30
0.0
 10
8.4259326618
 20
9.1628514267
 30
0.0
 10
8.4217963201
 20
9.1500894209
 30
0.0
 10
8.4177795514
 20
9.1366963101
 30
0.0
 10
8.4138920844
 20
9.1227042121
 30
0.0
 10
8.4101433379
 20
9.1081467109
 30
0.0
 10
8.4065423907
 20
9.0930587802
 30
0.0
 10
8.4030979514
 20
9.0774766949
 30
0.0
 10
8.399818353
 20
9.0614379316
 30
0.0
 10
8.3967115293
 20
9.0449810728
 30
0.0
 10
8.3937849966
 20
9.0281457144
 30
0.0
 10
8.3910458327
 20
9.010972385
 30
0.0
 10
8.388500623
 20
8.9935023964
 30
0.0
 10
8.3853590265
 20
8.969756893
 30
0.0
 10
8.3819653037
 20
8.9396448719
 30
0.0
 10
8.3787688314
 20
8.9031827009
 30
0.0
 10
8.3764602122
 20
8.8665725783
 30
0.0
 10
8.3750615693
 20
8.8301669064
 30
0.0
 10
8.3747410477
 20
8.8060001362
 30
0.0
 10
8.3747410477
 20
8.7940139358
 30
0.0
  0
SPLINE
  5
3D7
100
AcDbEntity
  8
0
100
AcDbSpline
 62
7
  6
CONTINUOUS
 70
0
 71
3
 72
40
 73
36
 74
0
 42
0.0000001
 43
0.0000001
 44
0.0000000001
 40
0.0
 40
0.0
 40
0.0
 40
0.0
 40
0.0299422973
 40
0.0449240327
 40
0.059914866
 40
0.089929696
 40
0.1200152967
 40
0.1501925739
 40
0.180480241
 40
0.2108943975
 40
0.2414481839
 40
0.2721515165
 40
0.3030109074
 40
0.3340293686
 40
0.3652063985
 40
0.3965380456
 40
0.4280170434
 40
0.4596330122
 40
0.4913727167
 40
0.5232203738
 40
0.5551580001
 40
0.587165795
 40
0.6192225506
 40
0.6513060818
 40
0.6833936709
 40
0.7154625181
 40
0.7474901959
 40
0.7794550985
 40
0.8113368727
 40
0.8431168595
 40
0.8747783985
 40
0.906307485
 40
0.9376922173
 40
0.9689252845
 40
1.0
 40
1.0
 40
1.0
 40
1.0
 10
10.1978989063
 20
8.7858913387
 30
0.0
 10
10.1960823393
 20
8.7841366544
 30
0.0
 10
10.1932504494
 20
8.7816109093
 30
0.0
 10
10.1892843959
 20
8.7784770446
 30
0.0
 10
10.1851920861
 20
8.7754991054
 30
0.0
 10
10.179852098
 20
8.7720794077
 30
0.0
 10
10.1731286761
 20
8.768487742
 30
0.0
 10
10.1661230263
 20
8.7654252199
 30
0.0
 10
10.158874013
 20
8.7629088137
 30
0.0
 10
10.1514215294
 20
8.7609522531
 30
0.0
 10
10.143806648
 20
8.7595662295
 30
0.0
 10
10.1360712909
 20
8.758758269
 30
0.0
 10
10.1282580249
 20
8.7585327162
 30
0.0
 10
10.1204098207
 20
8.7588907117
 30
0.0
 10
10.1125698199
 20
8.7598301913
 30
0.0
 10
10.1047810993
 20
8.7613459025
 30
0.0
 10
10.0970864375
 20
8.7634294336
 30
0.0
 10
10.0895280812
 20
8.7660692618
 30
0.0
 10
10.0821475174
 20
8.7692508231
 30
0.0
 10
10.0749852491
 20
8.7729565922
 30
0.0
 10
10.0680805762
 20
8.7771661793
 30
0.0
 10
10.0614713831
 20
8.7818564419
 30
0.0
 10
10.0551939334
 20
8.7870016114
 30
0.0
 10
10.0492826738
 20
8.7925734327
 30
0.0
 10
10.0437700469
 20
8.7985413184
 30
0.0
 10
10.0386863161
 20
8.8048725151
 30
0.0
 10
10.034059396
 20
8.8115322783
 30
0.0
 10
10.0299147046
 20
8.8184840633
 30
0.0
 10
10.0262750202
 20
8.8256897256
 30
0.0
 10
10.0231603738
 20
8.8331097223
 30
0.0
 10
10.0205878949
 20
8.8407033495
 30
0.0
 10
10.0185718226
 20
8.8484288679
 30
0.0
 10
10.017123213
 20
8.8562440655
 30
0.0
 10
10.0162502302
 20
8.864105391
 30
0.0
 10
10.0160546762
 20
8.8693630729
 30
0.0
 10
10.0160546762
 20
8.8719842275
 30
0.0
  0
SPLINE
  5
3D8
100
AcDbEntity
  8
0
100
AcDbSpline
 62
7
  6
CONTINUOUS
 70
0
 71
3
 72
40
 73
36
 74
0
 42
0.0000001
 43
0.0000001
 44
0.0000000001
 40
0.0
 40
0.0
 40
0.0
 40
0.0
 40
0.0299422973
 40
0.0449240327
 40
0.059914866
 40
0.089929696
 40
0.1200152967
 40
0.1501925739
 40
0.180480241
 40
0.2108943975
 40
0.2414481839
 40
0.2721515165
 40
0.3030109074
 40
0.3340293686
 40
0.3652063985
 40
0.3965380456
 40
0.4280170434
 40
0.4596330122
 40
0.4913727167
 40
0.5232203738
 40
0.5551580001
 40
0.587165795
 40
0.6192225506
 40
0.6513060818
 40
0.6833936709
 40
0.7154625181
 40
0.7474901959
 40
0.7794550985
 40
0.8113368727
 40
0.8431168595
 40
0.8747783985
 40
0.906307485
 40
0.9376922173
 40
0.9689252845
 40
1.0
 40
1.0
 40
1.0
 40
1.0
 10
11.7375847471
 20
8.6482041296
 30
0.0
 10
11.7357681801
 20
8.6464494453
 30
0.0
 10
11.7329362902
 20
8.6439237003
 30
0.0
 10
11.7289702368
 20
8.6407898355
 30
0.0
 10
11.724877927
 20
8.6378118963
 30
0.0
 10
11.7195379388
 20
8.6343921987
 30
0.0
 10
11.7128145169
 20
8.6308005329
 30
0.0
 10
11.7058088671
 20
8.6277380108
 30
0.0
 10
11.6985598539
 20
8.6252216046
 30
0.0
 10
11.6911073703
 20
8.623265044
 30
0.0
 10
11.6834924889
 20
8.6218790205
 30
0.0
 10
11.6757571317
 20
8.6210710599
 30
0.0
 10
11.6679438657
 20
8.6208455072
 30
0.0
 10
11.6600956616
 20
8.6212035027
 30
0.0
 10
11.6522556607
 20
8.6221429822
 30
0.0
 10
11.6444669402
 20
8.6236586935
 30
0.0
 10
11.6367722784
 20
8.6257422245
 30
0.0
 10
11.629213922
 20
8.6283820527
 30
0.0
 10
11.6218333582
 20
8.631563614
 30
0.0
 10
11.6146710899
 20
8.6352693831
 30
0.0
 10
11.6077664171
 20
8.6394789702
 30
0.0
 10
11.601157224
 20
8.6441692329
 30
0.0
 10
11.5948797743
 20
8.6493144023
 30
0.0
 10
11.5889685147
 20
8.6548862236
 30
0.0
 10
11.5834558878
 20
8.6608541093
 30
0.0
 10
11.5783721569
 20
8.6671853061
 30
0.0
 10
11.5737452368
 20
8.6738450692
 30
0.0
 10
11.5696005455
 20
8.6807968542
 30
0.0
 10
11.565960861
 20
8.6880025165
 30
0.0
 10
11.5628462146
 20
8.6954225133
 30
0.0
 10
11.5602737358
 20
8.7030161405
 30
0.0
 10
11.5582576634
 20
8.7107416588
 30
0.0
 10
11.5568090538
 20
8.7185568564
 30
0.0
 10
11.555936071
 20
8.726418182
 30
0.0
 10
11.555740517
 20
8.7316758638
 30
0.0
 10
11.555740517
 20
8.7342970185
 30
0.0
  0
SPLINE
  5
3D9
100
AcDbEntity
  8
0
100
AcDbSpline
 62
7
  6
CONTINUOUS
 70
0
 71
3
 72
40
 73
36
 74
0
 42
0.0000001
 43
0.0000001
 44
0.0000000001
 40
0.0
 40
0.0
 40
0.0
 40
0.0
 40
0.0299422973
 40
0.0449240327
 40
0.059914866
 40
0.089929696
 40
0.1200152967
 40
0.1501925739
 40
0.180480241
 40
0.2108943975
 40
0.2414481839
 40
0.2721515165
 40
0.3030109074
 40
0.3340293686
 40
0.3652063985
 40
0.3965380456
 40
0.4280170434
 40
0.4596330122
 40
0.4913727167
 40
0.5232203738
 40
0.5551580001
 40
0.587165795
 40
0.6192225506
 40
0.6513060818
 40
0.6833936709
 40
0.7154625181
 40
0.7474901959
 40
0.7794550985
 40
0.8113368727
 40
0.8431168595
 40
0.8747783985
 40
0.906307485
 40
0.9376922173
 40
0.9689252845
 40
1.0
 40
1.0
 40
1.0
 40
1.0
 10
10.1978989063
 20
7.5475743222
 30
0.0
 10
10.1960823393
 20
7.5458196378
 30
0.0
 10
10.1932504494
 20
7.5432938928
 30
0.0
 10
10.1892843959
 20
7.540160028
 30
0.0
 10
10.1851920861
 20
7.5371820889
 30
0.0
 10
10.179852098
 20
7.5337623912
 30
0.0
 10
10.1731286761
 20
7.5301707254
 30
0.0
 10
10.1661230263
 20
7.5271082033
 30
0.0
 10
10.158874013
 20
7.5245917971
 30
0.0
 10
10.1514215294
 20
7.5226352366
 30
0.0
 10
10.143806648
 20
7.521249213
 30
0.0
 10
10.1360712909
 20
7.5204412524
 30
0.0
 10
10.1282580249
 20
7.5202156997
 30
0.0
 10
10.1204098207
 20
7.5205736952
 30
0.0
 10
10.1125698199
 20
7.5215131748
 30
0.0
 10
10.1047810993
 20
7.523028886
 30
0.0
 10
10.0970864375
 20
7.525112417
 30
0.0
 10
10.0895280812
 20
7.5277522453
 30
0.0
 10
10.0821475174
 20
7.5309338066
 30
0.0
 10
10.0749852491
 20
7.5346395756
 30
0.0
 10
10.0680805762
 20
7.5388491627
 30
0.0
 10
10.0614713831
 20
7.5435394254
 30
0.0
 10
10.0551939334
 20
7.5486845948
 30
0.0
 10
10.0492826738
 20
7.5542564161
 30
0.0
 10
10.0437700469
 20
7.5602243019
 30
0.0
 10
10.0386863161
 20
7.5665554986
 30
0.0
 10
10.034059396
 20
7.5732152618
 30
0.0
 10
10.0299147046
 20
7.5801670468
 30
0.0
 10
10.0262750202
 20
7.5873727091
 30
0.0
 10
10.0231603738
 20
7.5947927058
 30
0.0
 10
10.0205878949
 20
7.602386333
 30
0.0
 10
10.0185718226
 20
7.6101118514
 30
0.0
 10
10.017123213
 20
7.617927049
 30
0.0
 10
10.0162502302
 20
7.6257883745
 30
0.0
 10
10.0160546762
 20
7.6310460563
 30
0.0
 10
10.0160546762
 20
7.633667211
 30
0.0
  0
SPLINE
  5
3DA
100
AcDbEntity
  8
0
100
AcDbSpline
 62
7
  6
CONTINUOUS
 70
0
 71
3
 72
40
 73
36
 74
0
 42
0.0000001
 43
0.0000001
 44
0.0000000001
 40
0.0
 40
0.0
 40
0.0
 40
0.0
 40
0.0299422973
 40
0.0449240327
 40
0.059914866
 40
0.089929696
 40
0.1200152967
 40
0.1501925739
 40
0.180480241
 40
0.2108943975
 40
0.2414481839
 40
0.2721515165
 40
0.3030109074
 40
0.3340293686
 40
0.3652063985
 40
0.3965380456
 40
0.4280170434
 40
0.4596330122
 40
0.4913727167
 40
0.5232203738
 40
0.5551580001
 40
0.587165795
 40
0.6192225506
 40
0.6513060818
 40
0.6833936709
 40
0.7154625181
 40
0.7474901959
 40
0.7794550985
 40
0.8113368727
 40
0.8431168595
 40
0.8747783985
 40
0.906307485
 40
0.9376922173
 40
0.9689252845
 40
1.0
 40
1.0
 40
1.0
 40
1.0
 10
11.7375847471
 20
7.4717064374
 30
0.0
 10
11.7357681801
 20
7.469951753
 30
0.0
 10
11.7329362902
 20
7.467426008
 30
0.0
 10
11.7289702368
 20
7.4642921432
 30
0.0
 10
11.724877927
 20
7.4613142041
 30
0.0
 10
11.7195379388
 20
7.4578945064
 30
0.0
 10
11.7128145169
 20
7.4543028406
 30
0.0
 10
11.7058088671
 20
7.4512403185
 30
0.0
 10
11.6985598539
 20
7.4487239123
 30
0.0
 10
11.6911073703
 20
7.4467673517
 30
0.0
 10
11.6834924889
 20
7.4453813282
 30
0.0
 10
11.6757571317
 20
7.4445733676
 30
0.0
 10
11.6679438657
 20
7.4443478149
 30
0.0
 10
11.6600956616
 20
7.4447058104
 30
0.0
 10
11.6522556607
 20
7.44564529
 30
0.0
 10
11.6444669402
 20
7.4471610012
 30
0.0
 10
11.6367722784
 20
7.4492445322
 30
0.0
 10
11.629213922
 20
7.4518843605
 30
0.0
 10
11.6218333582
 20
7.4550659218
 30
0.0
 10
11.6146710899
 20
7.4587716908
 30
0.0
 10
11.6077664171
 20
7.4629812779
 30
0.0
 10
11.601157224
 20
7.4676715406
 30
0.0
 10
11.5948797743
 20
7.47281671
 30
0.0
 10
11.5889685147
 20
7.4783885313
 30
0.0
 10
11.5834558878
 20
7.4843564171
 30
0.0
 10
11.5783721569
 20
7.4906876138
 30
0.0
 10
11.5737452368
 20
7.4973473769
 30
0.0
 10
11.5696005455
 20
7.504299162
 30
0.0
 10
11.565960861
 20
7.5115048242
 30
0.0
 10
11.5628462146
 20
7.518924821
 30
0.0
 10
11.5602737358
 20
7.5265184482
 30
0.0
 10
11.5582576634
 20
7.5342439666
 30
0.0
 10
11.5568090538
 20
7.5420591642
 30
0.0
 10
11.555936071
 20
7.5499204897
 30
0.0
 10
11.555740517
 20
7.5551781715
 30
0.0
 10
11.555740517
 20
7.5577993262
 30
0.0
  0
SPLINE
  5
3DB
100
AcDbEntity
  8
0
100
AcDbSpline
 62
7
  6
CONTINUOUS
 70
0
 71
3
 72
15
 73
11
 74
0
 42
0.0000001
 43
0.0000001
 44
0.0000000001
 40
0.0
 40
0.0
 40
0.0
 40
0.0
 40
0.1273482808
 40
0.2538605196
 40
0.3795878971
 40
0.5046050835
 40
0.6290174393
 40
0.7529533827
 40
0.8765605876
 40
1.0
 40
1.0
 40
1.0
 40
1.0
 10
11.555740517
 20
7.5577993262
 30
0.0
 10
11.555740517
 20
7.5611716719
 30
0.0
 10
11.5560625034
 20
7.5678988863
 30
0.0
 10
11.5575186638
 20
7.5778603262
 30
0.0
 10
11.5599332207
 20
7.5875714759
 30
0.0
 10
11.5632843694
 20
7.5969415189
 30
0.0
 10
11.567541348
 20
7.6058840486
 30
0.0
 10
11.5726653657
 20
7.6143164909
 30
0.0
 10
11.5786082559
 20
7.6221598241
 30
0.0
 10
11.5830829415
 20
7.6269509994
 30
0.0
 10
11.5854340554
 20
7.6292220209
 30
0.0
  0
SPLINE
  5
3DC
100
AcDbEntity
  8
0
100
AcDbSpline
 62
7
  6
CONTINUOUS
 70
0
 71
3
 72
40
 73
36
 74
0
 42
0.0000001
 43
0.0000001
 44
0.0000000001
 40
0.0
 40
0.0
 40
0.0
 40
0.0
 40
0.0299422956
 40
0.059908968
 40
0.0899238
 40
0.1200094056
 40
0.1350882594
 40
0.1501924656
 40
0.1804801452
 40
0.2108943177
 40
0.241448122
 40
0.2721514726
 40
0.3030108797
 40
0.334029354
 40
0.3652063934
 40
0.3965380465
 40
0.4280170486
 40
0.4596330217
 40
0.4913727316
 40
0.5232203951
 40
0.5551580282
 40
0.5871658292
 40
0.6192225887
 40
0.6513061205
 40
0.6833937063
 40
0.715462548
 40
0.7474902197
 40
0.779455117
 40
0.8113368874
 40
0.8431168691
 40
0.8747784143
 40
0.9063074703
 40
0.9376922765
 40
0.9689251917
 40
1.0
 40
1.0
 40
1.0
 40
1.0
 10
10.9331112784
 20
8.5129640173
 30
0.0
 10
10.9310375699
 20
8.5109609719
 30
0.0
 10
10.9267270985
 20
8.5071165465
 30
0.0
 10
10.9198209905
 20
8.501879163
 30
0.0
 10
10.9125100807
 20
8.4971973874
 30
0.0
 10
10.9061178585
 20
8.4937827528
 30
0.0
 10
10.9008460503
 20
8.4913536455
 30
0.0
 10
10.8954653164
 20
8.4891250579
 30
0.0
 10
10.8885620871
 20
8.4867286904
 30
0.0
 10
10.880054895
 20
8.4844953317
 30
0.0
 10
10.8713620727
 20
8.4829131628
 30
0.0
 10
10.8625317939
 20
8.4819909117
 30
0.0
 10
10.8536125659
 20
8.4817334991
 30
0.0
 10
10.8446534651
 20
8.4821422345
 30
0.0
 10
10.8357037328
 20
8.4832147563
 30
0.0
 10
10.8268125435
 20
8.4849450657
 30
0.0
 10
10.8180287288
 20
8.4873235598
 30
0.0
 10
10.8094005147
 20
8.4903370882
 30
0.0
 10
10.8009752605
 20
8.4939690272
 30
0.0
 10
10.7927992026
 20
8.4981993723
 30
0.0
 10
10.7849172043
 20
8.5030048488
 30
0.0
 10
10.777372513
 20
8.5083590387
 30
0.0
 10
10.7702065261
 20
8.5142325256
 30
0.0
 10
10.7634585653
 20
8.5205930537
 30
0.0
 10
10.7571656629
 20
8.5274057036
 30
0.0
 10
10.7513623624
 20
8.5346330836
 30
0.0
 10
10.7460805292
 20
8.5422355328
 30
0.0
 10
10.7413491802
 20
8.5501713356
 30
0.0
 10
10.7371943192
 20
8.5583969495
 30
0.0
 10
10.7336388109
 20
8.5668672354
 30
0.0
 10
10.7307022169
 20
8.5755357263
 30
0.0
 10
10.7284007755
 20
8.5843547814
 30
0.0
 10
10.726747138
 20
8.593276197
 30
0.0
 10
10.7257505807
 20
8.6022502774
 30
0.0
 10
10.7255273528
 20
8.6082521679
 30
0.0
 10
10.7255273528
 20
8.6112443505
 30
0.0
  0
SPLINE
  5
3DD
100
AcDbEntity
  8
0
100
AcDbSpline
 62
7
  6
CONTINUOUS
 70
0
 71
3
 72
15
 73
11
 74
0
 42
0.0000001
 43
0.0000001
 44
0.0000000001
 40
0.0
 40
0.0
 40
0.0
 40
0.0
 40
0.1273473901
 40
0.2538608346
 40
0.3795878351
 40
0.5046051039
 40
0.6290174461
 40
0.7529533848
 40
0.8765605883
 40
1.0
 40
1.0
 40
1.0
 40
1.0
 10
10.7834829058
 20
8.1996044052
 30
0.0
 10
10.7834829058
 20
8.201606241
 30
0.0
 10
10.7836740453
 20
8.2055995703
 30
0.0
 10
10.7845384114
 20
8.2115127587
 30
0.0
 10
10.7859717243
 20
8.2172773822
 30
0.0
 10
10.7879609869
 20
8.2228395067
 30
0.0
 10
10.7904879681
 20
8.228147858
 30
0.0
 10
10.7935296275
 20
8.2331534165
 30
0.0
 10
10.7970573717
 20
8.237809278
 30
0.0
 10
10.7997135767
 20
8.2406533579
 30
0.0
 10
10.8011092158
 20
8.2420014532
 30
0.0
  0
SPLINE
  5
3DE
100
AcDbEntity
  8
0
100
AcDbSpline
 62
7
  6
CONTINUOUS
 70
0
 71
3
 72
15
 73
11
 74
0
 42
0.0000001
 43
0.0000001
 44
0.0000000001
 40
0.0
 40
0.0
 40
0.0
 40
0.0
 40
0.1273483281
 40
0.2538605602
 40
0.3795878981
 40
0.5046051042
 40
0.6290174419
 40
0.7529533761
 40
0.876560577
 40
1.0
 40
1.0
 40
1.0
 40
1.0
 10
10.7255273528
 20
8.6112443505
 30
0.0
 10
10.7255273528
 20
8.6150941094
 30
0.0
 10
10.7258949272
 20
8.6227736743
 30
0.0
 10
10.7275572523
 20
8.6341453194
 30
0.0
 10
10.7303136632
 20
8.6452312356
 30
0.0
 10
10.7341392639
 20
8.6559277487
 30
0.0
 10
10.7389989464
 20
8.6661362161
 30
0.0
 10
10.744848434
 20
8.6757623615
 30
0.0
 10
10.751632712
 20
8.684715996
 30
0.0
 10
10.7567409312
 20
8.690185378
 30
0.0
 10
10.759424898
 20
8.6927778868
 30
0.0
  0
SPLINE
  5
3DF
100
AcDbEntity
  8
0
100
AcDbSpline
 62
7
  6
CONTINUOUS
 70
0
 71
3
 72
40
 73
36
 74
0
 42
0.0000001
 43
0.0000001
 44
0.0000000001
 40
0.0
 40
0.0
 40
0.0
 40
0.0
 40
0.0299422956
 40
0.059908968
 40
0.0899238
 40
0.1200094056
 40
0.1350882594
 40
0.1501924656
 40
0.1804801452
 40
0.2108943177
 40
0.241448122
 40
0.2721514726
 40
0.3030108797
 40
0.334029354
 40
0.3652063934
 40
0.3965380465
 40
0.4280170486
 40
0.4596330217
 40
0.4913727316
 40
0.5232203951
 40
0.5551580282
 40
0.5871658292
 40
0.6192225887
 40
0.6513061205
 40
0.6833937063
 40
0.715462548
 40
0.7474902197
 40
0.779455117
 40
0.8113368874
 40
0.8431168691
 40
0.8747784143
 40
0.9063074703
 40
0.9376922765
 40
0.9689251917
 40
1.0
 40
1.0
 40
1.0
 40
1.0
 10
10.9331112784
 20
7.6977225316
 30
0.0
 10
10.9310375699
 20
7.6957194861
 30
0.0
 10
10.9267270985
 20
7.6918750608
 30
0.0
 10
10.9198209905
 20
7.6866376772
 30
0.0
 10
10.9125100807
 20
7.6819559016
 30
0.0
 10
10.9061178585
 20
7.678541267
 30
0.0
 10
10.9008460503
 20
7.6761121598
 30
0.0
 10
10.8954653164
 20
7.6738835721
 30
0.0
 10
10.8885620871
 20
7.6714872047
 30
0.0
 10
10.880054895
 20
7.6692538459
 30
0.0
 10
10.8713620727
 20
7.6676716771
 30
0.0
 10
10.8625317939
 20
7.6667494259
 30
0.0
 10
10.8536125659
 20
7.6664920133
 30
0.0
 10
10.8446534651
 20
7.6669007487
 30
0.0
 10
10.8357037328
 20
7.6679732705
 30
0.0
 10
10.8268125435
 20
7.66970358
 30
0.0
 10
10.8180287288
 20
7.6720820741
 30
0.0
 10
10.8094005147
 20
7.6750956024
 30
0.0
 10
10.8009752605
 20
7.6787275414
 30
0.0
 10
10.7927992026
 20
7.6829578866
 30
0.0
 10
10.7849172043
 20
7.687763363
 30
0.0
 10
10.777372513
 20
7.6931175529
 30
0.0
 10
10.7702065261
 20
7.6989910399
 30
0.0
 10
10.7634585653
 20
7.7053515679
 30
0.0
 10
10.7571656629
 20
7.7121642178
 30
0.0
 10
10.7513623624
 20
7.7193915979
 30
0.0
 10
10.7460805292
 20
7.726994047
 30
0.0
 10
10.7413491802
 20
7.7349298499
 30
0.0
 10
10.7371943192
 20
7.7431554638
 30
0.0
 10
10.7336388109
 20
7.7516257496
 30
0.0
 10
10.7307022169
 20
7.7602942406
 30
0.0
 10
10.7284007755
 20
7.7691132956
 30
0.0
 10
10.726747138
 20
7.7780347112
 30
0.0
 10
10.7257505807
 20
7.7870087916
 30
0.0
 10
10.7255273528
 20
7.7930106821
 30
0.0
 10
10.7255273528
 20
7.7960028648
 30
0.0
  0
SPLINE
  5
3E0
100
AcDbEntity
  8
0
100
AcDbSpline
 62
7
  6
CONTINUOUS
 70
0
 71
3
 72
15
 73
11
 74
0
 42
0.0000001
 43
0.0000001
 44
0.0000000001
 40
0.0
 40
0.0
 40
0.0
 40
0.0
 40
0.1273479682
 40
0.253860626
 40
0.3795879528
 40
0.5046051059
 40
0.6290174614
 40
0.7529533792
 40
0.8765605791
 40
1.0
 40
1.0
 40
1.0
 40
1.0
 10
10.3333613777
 20
8.849978933
 30
0.0
 10
10.3333613777
 20
8.8523811815
 30
0.0
 10
10.3335907462
 20
8.8571732423
 30
0.0
 10
10.3346280329
 20
8.8642691677
 30
0.0
 10
10.3363480465
 20
8.871186801
 30
0.0
 10
10.3387352407
 20
8.8778614352
 30
0.0
 10
10.3417677022
 20
8.8842315269
 30
0.0
 10
10.3454177991
 20
8.8902382506
 30
0.0
 10
10.349651202
 20
8.895825329
 30
0.0
 10
10.3528387464
 20
8.8992382238
 30
0.0
 10
10.3545135472
 20
8.9008559514
 30
0.0
  0
SPLINE
  5
3E1
100
AcDbEntity
  8
0
100
AcDbSpline
 62
7
  6
CONTINUOUS
 70
0
 71
3
 72
39
 73
35
 74
0
 42
0.0000001
 43
0.0000001
 44
0.0000000001
 40
0.0
 40
0.0
 40
0.0
 40
0.0
 40
0.0299424796
 40
0.0599093277
 40
0.0899243268
 40
0.1200100989
 40
0.1501875564
 40
0.1804754082
 40
0.2108897438
 40
0.2414437065
 40
0.2721472214
 40
0.3030068034
 40
0.334025452
 40
0.3652026597
 40
0.3965344836
 40
0.4280136674
 40
0.4596298279
 40
0.4913697183
 40
0.5232175588
 40
0.5551553757
 40
0.587163368
 40
0.6192203146
 40
0.6513040285
 40
0.6833918015
 40
0.7154608406
 40
0.7474887097
 40
0.7794537919
 40
0.8113357643
 40
0.8431159187
 40
0.8747776681
 40
0.9063070433
 40
0.9376914486
 40
0.9689258945
 40
1.0
 40
1.0
 40
1.0
 40
1.0
 10
10.8914269606
 20
8.1484990227
 30
0.0
 10
10.890348633
 20
8.1474574294
 30
0.0
 10
10.8881071997
 20
8.1454582881
 30
0.0
 10
10.8845160514
 20
8.1427348292
 30
0.0
 10
10.8807142896
 20
8.1403002199
 30
0.0
 10
10.8767231497
 20
8.1381681211
 30
0.0
 10
10.8725645685
 20
8.1363501912
 30
0.0
 10
10.8682614925
 20
8.1348564404
 30
0.0
 10
10.8638376445
 20
8.1336950189
 30
0.0
 10
10.8593173967
 20
8.1328722614
 30
0.0
 10
10.8547256337
 20
8.1323926399
 30
0.0
 10
10.8500876212
 20
8.1322587565
 30
0.0
 10
10.845428871
 20
8.1324712799
 30
0.0
 10
10.8407749913
 20
8.1330289659
 30
0.0
 10
10.8361515499
 20
8.1339286946
 30
0.0
 10
10.8315839405
 20
8.1351654846
 30
0.0
 10
10.8270972483
 20
8.1367325145
 30
0.0
 10
10.8227160948
 20
8.1386211171
 30
0.0
 10
10.8184645191
 20
8.1408208843
 30
0.0
 10
10.8143658493
 20
8.1433197163
 30
0.0
 10
10.8104425859
 20
8.1461038937
 30
0.0
 10
10.8067162553
 20
8.1491581143
 30
0.0
 10
10.8032072928
 20
8.1524655906
 30
0.0
 10
10.7999349535
 20
8.1560081657
 30
0.0
 10
10.7969172068
 20
8.1597664042
 30
0.0
 10
10.794170641
 20
8.1637196927
 30
0.0
 10
10.7917103257
 20
8.1678463245
 30
0.0
 10
10.7895497813
 20
8.1721236555
 30
0.0
 10
10.7877008906
 20
8.1765282137
 30
0.0
 10
10.7861738462
 20
8.1810358515
 30
0.0
 10
10.7849771233
 20
8.1856217625
 30
0.0
 10
10.7841171822
 20
8.1902609537
 30
0.0
 10
10.7835990128
 20
8.1949274923
 30
0.0
 10
10.7834829058
 20
8.1980485086
 30
0.0
 10
10.7834829058
 20
8.1996044052
 30
0.0
  0
SPLINE
  5
3E2
100
AcDbEntity
  8
0
100
AcDbSpline
 62
7
  6
CONTINUOUS
 70
0
 71
3
 72
37
 73
33
 74
0
 42
0.0000001
 43
0.0000001
 44
0.0000000001
 40
0.0
 40
0.0
 40
0.0
 40
0.0
 40
0.0299447936
 40
0.0599139685
 40
0.0899313111
 40
0.1200194352
 40
0.1501992442
 40
0.180489451
 40
0.2109061585
 40
0.2414625113
 40
0.2721684281
 40
0.3030304183
 40
0.3340514866
 40
0.3652311292
 40
0.3965653974
 40
0.4280470303
 40
0.4596656502
 40
0.491408017
 40
0.5551595119
 40
0.6191908015
 40
0.6512770143
 40
0.6833672795
 40
0.7154387951
 40
0.7474691381
 40
0.7794367026
 40
0.8113211444
 40
0.8431037821
 40
0.8747679493
 40
0.9062997436
 40
0.9376868029
 40
0.9689230915
 40
1.0
 40
1.0
 40
1.0
 40
1.0
 10
10.462893646
 20
8.7886519134
 30
0.0
 10
10.4615996518
 20
8.7874020154
 30
0.0
 10
10.4589099063
 20
8.7850031002
 30
0.0
 10
10.4546005285
 20
8.7817349921
 30
0.0
 10
10.4500384042
 20
8.7788135179
 30
0.0
 10
10.4452490216
 20
8.7762550748
 30
0.0
 10
10.4402587169
 20
8.7740736353
 30
0.0
 10
10.4350950348
 20
8.7722811828
 30
0.0
 10
10.4297864295
 20
8.7708875219
 30
0.0
 10
10.4243621458
 20
8.7699002629
 30
0.0
 10
10.4188520468
 20
8.769324775
 30
0.0
 10
10.4132864543
 20
8.7691641622
 30
0.0
 10
10.4076959784
 20
8.7694192256
 30
0.0
 10
10.4021113542
 20
8.7700884843
 30
0.0
 10
10.3965632447
 20
8.7711682058
 30
0.0
 10
10.3910821937
 20
8.7726523551
 30
0.0
 10
10.3856980204
 20
8.7745329061
 30
0.0
 10
10.3786800242
 20
8.7775580657
 30
0.0
 10
10.3702992485
 20
8.7822765079
 30
0.0
 10
10.3626393302
 20
8.788125518
 30
0.0
 10
10.3570305523
 20
8.7934124618
 30
0.0
 10
10.3531036209
 20
8.7976636809
 30
0.0
 10
10.3494824148
 20
8.8021735329
 30
0.0
 10
10.3461865422
 20
8.8069174659
 30
0.0
 10
10.3432341814
 20
8.811869398
 30
0.0
 10
10.3406415445
 20
8.817002176
 30
0.0
 10
10.3384229159
 20
8.8222876321
 30
0.0
 10
10.3365904851
 20
8.827696773
 30
0.0
 10
10.3351544138
 20
8.8331998476
 30
0.0
 10
10.3341225102
 20
8.8387668309
 30
0.0
 10
10.3335006899
 20
8.8443666506
 30
0.0
 10
10.3333613777
 20
8.8481118423
 30
0.0
 10
10.3333613777
 20
8.849978933
 30
0.0
  0
SPLINE
  5
3E3
100
AcDbEntity
  8
0
100
AcDbSpline
 62
7
  6
CONTINUOUS
 70
0
 71
3
 72
39
 73
35
 74
0
 42
0.0000001
 43
0.0000001
 44
0.0000000001
 40
0.0
 40
0.0
 40
0.0
 40
0.0
 40
0.0299424796
 40
0.0599093277
 40
0.0899243268
 40
0.1200100989
 40
0.1501875564
 40
0.1804754082
 40
0.2108897438
 40
0.2414437065
 40
0.2721472214
 40
0.3030068034
 40
0.334025452
 40
0.3652026597
 40
0.3965344836
 40
0.4280136674
 40
0.4596298279
 40
0.4913697183
 40
0.5232175588
 40
0.5551553757
 40
0.587163368
 40
0.6192203146
 40
0.6513040285
 40
0.6833918015
 40
0.7154608406
 40
0.7474887097
 40
0.7794537919
 40
0.8113357643
 40
0.8431159187
 40
0.8747776681
 40
0.9063070433
 40
0.9376914486
 40
0.9689258945
 40
1.0
 40
1.0
 40
1.0
 40
1.0
 10
10.453862469
 20
7.5596857006
 30
0.0
 10
10.4527841414
 20
7.5586441073
 30
0.0
 10
10.4505427081
 20
7.556644966
 30
0.0
 10
10.4469515599
 20
7.5539215071
 30
0.0
 10
10.4431497981
 20
7.5514868978
 30
0.0
 10
10.4391586582
 20
7.549354799
 30
0.0
 10
10.4350000769
 20
7.5475368691
 30
0.0
 10
10.4306970009
 20
7.5460431183
 30
0.0
 10
10.426273153
 20
7.5448816968
 30
0.0
 10
10.4217529052
 20
7.5440589393
 30
0.0
 10
10.4171611421
 20
7.5435793178
 30
0.0
 10
10.4125231297
 20
7.5434454344
 30
0.0
 10
10.4078643795
 20
7.5436579578
 30
0.0
 10
10.4032104997
 20
7.5442156438
 30
0.0
 10
10.3985870584
 20
7.5451153725
 30
0.0
 10
10.394019449
 20
7.5463521625
 30
0.0
 10
10.3895327568
 20
7.5479191924
 30
0.0
 10
10.3851516032
 20
7.549807795
 30
0.0
 10
10.3809000276
 20
7.5520075622
 30
0.0
 10
10.3768013578
 20
7.5545063941
 30
0.0
 10
10.3728780944
 20
7.5572905716
 30
0.0
 10
10.3691517637
 20
7.5603447922
 30
0.0
 10
10.3656428012
 20
7.5636522685
 30
0.0
 10
10.3623704619
 20
7.5671948436
 30
0.0
 10
10.3593527152
 20
7.5709530821
 30
0.0
 10
10.3566061494
 20
7.5749063706
 30
0.0
 10
10.3541458342
 20
7.5790330024
 30
0.0
 10
10.3519852898
 20
7.5833103334
 30
0.0
 10
10.3501363991
 20
7.5877148916
 30
0.0
 10
10.3486093546
 20
7.5922225294
 30
0.0
 10
10.3474126317
 20
7.5968084404
 30
0.0
 10
10.3465526906
 20
7.6014476316
 30
0.0
 10
10.3460345213
 20
7.6061141702
 30
0.0
 10
10.3459184142
 20
7.6092351865
 30
0.0
 10
10.3459184142
 20
7.6107910831
 30
0.0
  0
SPLINE
  5
3E4
100
AcDbEntity
  8
0
100
AcDbSpline
 62
7
  6
CONTINUOUS
 70
0
 71
3
 72
15
 73
11
 74
0
 42
0.0000001
 43
0.0000001
 44
0.0000000001
 40
0.0
 40
0.0
 40
0.0
 40
0.0
 40
0.1273482808
 40
0.2538605196
 40
0.3795878971
 40
0.5046050835
 40
0.6290174393
 40
0.7529533827
 40
0.8765605876
 40
1.0
 40
1.0
 40
1.0
 40
1.0
 10
10.0160546762
 20
7.633667211
 30
0.0
 10
10.0160546762
 20
7.6370395567
 30
0.0
 10
10.0163766626
 20
7.6437667711
 30
0.0
 10
10.017832823
 20
7.653728211
 30
0.0
 10
10.0202473799
 20
7.6634393607
 30
0.0
 10
10.0235985285
 20
7.6728094038
 30
0.0
 10
10.0278555072
 20
7.6817519334
 30
0.0
 10
10.0329795249
 20
7.6901843757
 30
0.0
 10
10.0389224151
 20
7.6980277089
 30
0.0
 10
10.0433971007
 20
7.7028188842
 30
0.0
 10
10.0457482145
 20
7.7050899058
 30
0.0
  0
SPLINE
  5
3E5
100
AcDbEntity
  8
0
100
AcDbSpline
 62
7
  6
CONTINUOUS
 70
0
 71
3
 72
15
 73
11
 74
0
 42
0.0000001
 43
0.0000001
 44
0.0000000001
 40
0.0
 40
0.0
 40
0.0
 40
0.0
 40
0.1273473901
 40
0.2538608346
 40
0.3795878351
 40
0.5046051039
 40
0.6290174461
 40
0.7529533848
 40
0.8765605883
 40
1.0
 40
1.0
 40
1.0
 40
1.0
 10
10.3459184142
 20
7.6107910831
 30
0.0
 10
10.3459184142
 20
7.6127929189
 30
0.0
 10
10.3461095538
 20
7.6167862482
 30
0.0
 10
10.3469739199
 20
7.6226994366
 30
0.0
 10
10.3484072327
 20
7.6284640601
 30
0.0
 10
10.3503964953
 20
7.6340261846
 30
0.0
 10
10.3529234765
 20
7.6393345359
 30
0.0
 10
10.3559651359
 20
7.6443400944
 30
0.0
 10
10.3594928802
 20
7.6489959559
 30
0.0
 10
10.3621490851
 20
7.6518400358
 30
0.0
 10
10.3635447242
 20
7.6531881311
 30
0.0
  0
SPLINE
  5
3E6
100
AcDbEntity
  8
0
100
AcDbSpline
 62
7
  6
CONTINUOUS
 70
0
 71
3
 72
53
 73
49
 74
0
 42
0.0000001
 43
0.0000001
 44
0.0000000001
 40
0.0
 40
0.0
 40
0.0
 40
0.0
 40
0.0095821603
 40
0.0187371838
 40
0.0274872302
 40
0.0358598335
 40
0.0515978114
 40
0.0590555925
 40
0.0662983352
 40
0.0733795061
 40
0.080356772
 40
0.0872905952
 40
0.0942426898
 40
0.1012742186
 40
0.1084441701
 40
0.1158078304
 40
0.1234158648
 40
0.131313715
 40
0.1395412652
 40
0.1481332074
 40
0.1571191227
 40
0.1665239627
 40
0.1763687164
 40
0.1866705196
 40
0.1974434102
 40
0.208698671
 40
0.2204449374
 40
0.2326889046
 40
0.2454352722
 40
0.2586870155
 40
0.2724458384
 40
0.3014825337
 40
0.3325362976
 40
0.365580377
 40
0.400575222
 40
0.4374705007
 40
0.4762065478
 40
0.5167153987
 40
0.558921816
 40
0.6027441125
 40
0.6480947745
 40
0.6948809482
 40
0.7430049461
 40
0.7923649942
 40
0.8428553916
 40
0.8943659478
 40
0.9467875089
 40
1.0
 40
1.0
 40
1.0
 40
1.0
 10
13.4522366707
 20
7.3630834481
 30
0.0
 10
13.4515290671
 20
7.3624249249
 30
0.0
 10
13.4501144217
 20
7.3611698807
 30
0.0
 10
13.4479440245
 20
7.359442085
 30
0.0
 10
13.4457755578
 20
7.3579141165
 30
0.0
 10
13.4429482057
 20
7.3561810587
 30
0.0
 10
13.4400637793
 20
7.354797276
 30
0.0
 10
13.4371486952
 20
7.3538225491
 30
0.0
 10
13.4350091821
 20
7.3533089289
 30
0.0
 10
13.4328794376
 20
7.3530007223
 30
0.0
 10
13.4307609714
 20
7.352898278
 30
0.0
 10
13.4286555425
 20
7.3530019713
 30
0.0
 10
13.4265649351
 20
7.3533116969
 30
0.0
 10
13.4244908669
 20
7.3538270361
 30
0.0
 10
13.4224349713
 20
7.3545474444
 30
0.0
 10
13.4203986443
 20
7.3554719719
 30
0.0
 10
13.4183831475
 20
7.3565996916
 30
0.0
 10
13.4163896294
 20
7.3579296099
 30
0.0
 10
13.4144190606
 20
7.3594605883
 30
0.0
 10
13.4124724741
 20
7.3611916028
 30
0.0
 10
13.4105508168
 20
7.3631214894
 30
0.0
 10
13.4086550205
 20
7.36524903
 30
0.0
 10
13.406786126
 20
7.367573003
 30
0.0
 10
13.4049450611
 20
7.3700919984
 30
0.0
 10
13.4031328378
 20
7.3728045667
 30
0.0
 10
13.4013504923
 20
7.375709152
 30
0.0
 10
13.3995989655
 20
7.3788040375
 30
0.0
 10
13.3978793058
 20
7.3820874502
 30
0.0
 10
13.3961924997
 20
7.3855574666
 30
0.0
 10
13.3945394675
 20
7.389212054
 30
0.0
 10
13.3923423088
 20
7.3944221209
 30
0.0
 10
13.3896975784
 20
7.4013895075
 30
0.0
 10
13.3867281204
 20
7.4103053743
 30
0.0
 10
13.3839154165
 20
7.4198997431
 30
0.0
 10
13.3812661809
 20
7.4301500084
 30
0.0
 10
13.3787867735
 20
7.4410321769
 30
0.0
 10
13.3764831777
 20
7.4525205957
 30
0.0
 10
13.3743609372
 20
7.464588122
 30
0.0
 10
13.372425166
 20
7.4772061814
 30
0.0
 10
13.3706805379
 20
7.4903448676
 30
0.0
 10
13.3691312746
 20
7.5039730113
 30
0.0
 10
13.3677811071
 20
7.5180582459
 30
0.0
 10
13.3666332854
 20
7.5325671114
 30
0.0
 10
13.3656905868
 20
7.5474651394
 30
0.0
 10
13.3649553107
 20
7.5627168355
 30
0.0
 10
13.364429186
 20
7.5782861701
 30
0.0
 10
13.3641135602
 20
7.5941357921
 30
0.0
 10
13.3640444081
 20
7.6047919934
 30
0.0
 10
13.3640444081
 20
7.6101599162
 30
0.0
  0
SPLINE
  5
3E7
100
AcDbEntity
  8
0
100
AcDbSpline
 62
7
  6
CONTINUOUS
 70
0
 71
3
 72
15
 73
11
 74
0
 42
0.0000001
 43
0.0000001
 44
0.0000000001
 40
0.0
 40
0.0
 40
0.0
 40
0.0
 40
0.1273482808
 40
0.2538605196
 40
0.3795878971
 40
0.5046050835
 40
0.6290174393
 40
0.7529533827
 40
0.8765605876
 40
1.0
 40
1.0
 40
1.0
 40
1.0
 10
11.555740517
 20
8.7342970185
 30
0.0
 10
11.555740517
 20
8.7376693642
 30
0.0
 10
11.5560625034
 20
8.7443965785
 30
0.0
 10
11.5575186638
 20
8.7543580184
 30
0.0
 10
11.5599332207
 20
8.7640691682
 30
0.0
 10
11.5632843694
 20
8.7734392112
 30
0.0
 10
11.567541348
 20
8.7823817409
 30
0.0
 10
11.5726653657
 20
8.7908141832
 30
0.0
 10
11.5786082559
 20
8.7986575164
 30
0.0
 10
11.5830829415
 20
8.8034486917
 30
0.0
 10
11.5854340554
 20
8.8057197132
 30
0.0
  0
SPLINE
  5
3E8
100
AcDbEntity
  8
0
100
AcDbSpline
 62
7
  6
CONTINUOUS
 70
0
 71
3
 72
15
 73
11
 74
0
 42
0.0000001
 43
0.0000001
 44
0.0000000001
 40
0.0
 40
0.0
 40
0.0
 40
0.0
 40
0.1269644928
 40
0.2533073664
 40
0.3790218928
 40
0.5041589778
 40
0.628760755
 40
0.7528864449
 40
0.8766065494
 40
1.0
 40
1.0
 40
1.0
 40
1.0
 10
10.7995296731
 20
8.215104393
 30
0.0
 10
10.7995296731
 20
8.2166266698
 30
0.0
 10
10.7996402721
 20
8.2196649708
 30
0.0
 10
10.8001398062
 20
8.2241858067
 30
0.0
 10
10.8009702244
 20
8.2286357346
 30
0.0
 10
10.8021269278
 20
8.2329906069
 30
0.0
 10
10.8036039646
 20
8.2372274017
 30
0.0
 10
10.8053934975
 20
8.2413235605
 30
0.0
 10
10.8074858131
 20
8.2452569813
 30
0.0
 10
10.8090774006
 20
8.2477602092
 30
0.0
 10
10.8099191892
 20
8.2489768423
 30
0.0
  0
SPLINE
  5
3E9
100
AcDbEntity
  8
0
100
AcDbSpline
 62
7
  6
CONTINUOUS
 70
0
 71
3
 72
39
 73
35
 74
0
 42
0.0000001
 43
0.0000001
 44
0.0000000001
 40
0.0
 40
0.0
 40
0.0
 40
0.0
 40
0.00631605
 40
0.0126710036
 40
0.0191030137
 40
0.0256487366
 40
0.0323427745
 40
0.0392173093
 40
0.0536154999
 40
0.0690527098
 40
0.0856860775
 40
0.103634432
 40
0.1229846057
 40
0.1437975285
 40
0.1661136281
 40
0.1899566057
 40
0.2153367
 40
0.2422532743
 40
0.2706963086
 40
0.3006480514
 40
0.3320841722
 40
0.3649743116
 40
0.3992830784
 40
0.4349705379
 40
0.4719924585
 40
0.5103010083
 40
0.5498449224
 40
0.5905696991
 40
0.6324181177
 40
0.6753302619
 40
0.7192436941
 40
0.8098127521
 40
0.903586456
 40
1.0
 40
1.0
 40
1.0
 40
1.0
 10
13.3971903597
 20
7.3241349981
 30
0.0
 10
13.3965565397
 20
7.3241789581
 30
0.0
 10
13.3952879917
 20
7.3243190251
 30
0.0
 10
13.3933993775
 20
7.3246840735
 30
0.0
 10
13.3915233963
 20
7.3252041316
 30
0.0
 10
13.3896611352
 20
7.3258787463
 30
0.0
 10
13.3878133283
 20
7.3267074797
 30
0.0
 10
13.3853321445
 20
7.3280375581
 30
0.0
 10
13.3822618647
 20
7.3301085739
 30
0.0
 10
13.3787106329
 20
7.3331614302
 30
0.0
 10
13.3752384857
 20
7.3368130318
 30
0.0
 10
13.3718494915
 20
7.3410566761
 30
0.0
 10
13.3685473115
 20
7.3458857097
 30
0.0
 10
13.3653362523
 20
7.3512926718
 30
0.0
 10
13.362220908
 20
7.3572692792
 30
0.0
 10
13.3592059641
 20
7.3638062097
 30
0.0
 10
13.3562961226
 20
7.3708931437
 30
0.0
 10
13.3534960971
 20
7.3785187872
 30
0.0
 10
13.3508104175
 20
7.3866708548
 30
0.0
 10
13.3482434951
 20
7.3953361402
 30
0.0
 10
13.3457996088
 20
7.404500546
 30
0.0
 10
13.3434827788
 20
7.414149095
 30
0.0
 10
13.3412968657
 20
7.424265989
 30
0.0
 10
13.3392455309
 20
7.4348346332
 30
0.0
 10
13.3373321586
 20
7.4458376598
 30
0.0
 10
13.3355599538
 20
7.457256975
 30
0.0
 10
13.3339318808
 20
7.4690737845
 30
0.0
 10
13.3324506234
 20
7.481268627
 30
0.0
 10
13.3311186793
 20
7.4938214071
 30
0.0
 10
13.329938243
 20
7.5067114537
 30
0.0
 10
13.328554818
 20
7.5245026492
 30
0.0
 10
13.3272293979
 20
7.5474277854
 30
0.0
 10
13.3262827554
 20
7.5756560709
 30
0.0
 10
13.3260773219
 20
7.5947881159
 30
0.0
 10
13.3260773219
 20
7.604486525
 30
0.0
  0
SPLINE
  5
3EA
100
AcDbEntity
  8
0
100
AcDbSpline
 62
7
  6
CONTINUOUS
 70
0
 71
3
 72
39
 73
35
 74
0
 42
0.0000001
 43
0.0000001
 44
0.0000000001
 40
0.0
 40
0.0
 40
0.0
 40
0.0
 40
0.0063160566
 40
0.0126710106
 40
0.0191030154
 40
0.0256487277
 40
0.0323427504
 40
0.039217266
 40
0.0536154085
 40
0.0690525617
 40
0.0856858679
 40
0.1036341595
 40
0.1229842714
 40
0.1437971352
 40
0.1661131805
 40
0.1899561089
 40
0.2153361604
 40
0.2422526985
 40
0.2706957037
 40
0.3006474247
 40
0.3320835311
 40
0.3649736636
 40
0.3992824308
 40
0.434969898
 40
0.4719918335
 40
0.5103004051
 40
0.5498443477
 40
0.5905691592
 40
0.6324176188
 40
0.6753298096
 40
0.7192432939
 40
0.8098124703
 40
0.9035863088
 40
1.0
 40
1.0
 40
1.0
 40
1.0
 10
12.0081892747
 20
7.4204625505
 30
0.0
 10
12.0075554527
 20
7.420506502
 30
0.0
 10
12.0062869008
 20
7.4206465521
 30
0.0
 10
12.0043982796
 20
7.4210115761
 30
0.0
 10
12.0025222913
 20
7.4215316107
 30
0.0
 10
12.0006600231
 20
7.4222062027
 30
0.0
 10
11.9988122091
 20
7.4230349144
 30
0.0
 10
11.996331016
 20
7.4243649643
 30
0.0
 10
11.9932607238
 20
7.4264359469
 30
0.0
 10
11.9897094771
 20
7.429488768
 30
0.0
 10
11.9862373152
 20
7.4331403381
 30
0.0
 10
11.9828483065
 20
7.4373839543
 30
0.0
 10
11.9795461122
 20
7.4422129634
 30
0.0
 10
11.9763350389
 20
7.4476199044
 30
0.0
 10
11.9732196808
 20
7.4535964942
 30
0.0
 10
11.9702047232
 20
7.4601334106
 30
0.0
 10
11.9672948684
 20
7.467220334
 30
0.0
 10
11.9644948299
 20
7.4748459703
 30
0.0
 10
11.9618091377
 20
7.4829980341
 30
0.0
 10
11.9592422031
 20
7.491663319
 30
0.0
 10
11.956798305
 20
7.5008277275
 30
0.0
 10
11.9544814638
 20
7.5104762824
 30
0.0
 10
11.9522955399
 20
7.5205931855
 30
0.0
 10
11.950244195
 20
7.5311618416
 30
0.0
 10
11.9483308132
 20
7.5421648831
 30
0.0
 10
11.9465585994
 20
7.5535842159
 30
0.0
 10
11.9449305182
 20
7.5654010456
 30
0.0
 10
11.9434492533
 20
7.5775959107
 30
0.0
 10
11.9421173024
 20
7.5901487159
 30
0.0
 10
11.94093686
 20
7.6030387898
 30
0.0
 10
11.9395534279
 20
7.6208300256
 30
0.0
 10
11.9382280008
 20
7.6437552163
 30
0.0
 10
11.9372813535
 20
7.6719835718
 30
0.0
 10
11.9370759189
 20
7.6911156653
 30
0.0
 10
11.9370759189
 20
7.7008140994
 30
0.0
  0
SPLINE
  5
3EB
100
AcDbEntity
  8
0
100
AcDbSpline
 62
7
  6
CONTINUOUS
 70
0
 71
3
 72
29
 73
25
 74
0
 42
0.0000001
 43
0.0000001
 44
0.0000000001
 40
0.0
 40
0.0
 40
0.0
 40
0.0
 40
0.0620556238
 40
0.1246724771
 40
0.1877908792
 40
0.251312092
 40
0.3151104831
 40
0.3790415058
 40
0.4429516155
 40
0.5066886659
 40
0.5701122573
 40
0.6331034548
 40
0.6644251226
 40
0.6956083746
 40
0.7266479949
 40
0.7575413574
 40
0.7882885756
 40
0.8188925436
 40
0.8493588596
 40
0.8796957845
 40
0.9099141571
 40
0.9400271583
 40
0.9700500613
 40
1.0
 40
1.0
 40
1.0
 40
1.0
 10
10.7995296731
 20
8.215104393
 30
0.0
 10
10.7995296731
 20
8.2122284991
 30
0.0
 10
10.7999278043
 20
8.2064433797
 30
0.0
 10
10.8016879934
 20
8.1978953568
 30
0.0
 10
10.8045799988
 20
8.1895880408
 30
0.0
 10
10.8085493359
 20
8.1816779398
 30
0.0
 10
10.813521536
 20
8.1743113483
 30
0.0
 10
10.8194039983
 20
8.167625259
 30
0.0
 10
10.8260871526
 20
8.1617438011
 30
0.0
 10
10.8334471891
 20
8.1567764008
 30
0.0
 10
10.8413464548
 20
8.1528160021
 30
0.0
 10
10.8482740507
 20
8.1504109236
 30
0.0
 10
10.8539342938
 20
8.1490586461
 30
0.0
 10
10.8582120753
 20
8.1483346444
 30
0.0
 10
10.8625090669
 20
8.1479028442
 30
0.0
 10
10.8668053853
 20
8.1477652702
 30
0.0
 10
10.8710808574
 20
8.1479225831
 30
0.0
 10
10.8753154853
 20
8.1483740588
 30
0.0
 10
10.8794894205
 20
8.1491176787
 30
0.0
 10
10.8835831045
 20
8.1501499883
 30
0.0
 10
10.8875773382
 20
8.1514661327
 30
0.0
 10
10.8914534468
 20
8.1530600508
 30
0.0
 10
10.8951929733
 20
8.154924176
 30
0.0
 10
10.8975862952
 20
8.1563430123
 30
0.0
 10
10.8987535902
 20
8.1570939786
 30
0.0
  0
SPLINE
  5
3EC
100
AcDbEntity
  8
0
100
AcDbSpline
 62
7
  6
CONTINUOUS
 70
0
 71
3
 72
11
 73
7
 74
0
 42
0.0000001
 43
0.0000001
 44
0.0000000001
 40
0.0
 40
0.0
 40
0.0
 40
0.0
 40
0.2523049621
 40
0.5030074581
 40
0.7521929457
 40
1.0
 40
1.0
 40
1.0
 40
1.0
 10
10.3737371163
 20
8.888978904
 30
0.0
 10
10.3737371163
 20
8.8913065313
 30
0.0
 10
10.3739524529
 20
8.895949988
 30
0.0
 10
10.374926279
 20
8.9028308029
 30
0.0
 10
10.3765413565
 20
8.9095473724
 30
0.0
 10
10.3780409644
 20
8.9138891778
 30
0.0
 10
10.3788920112
 20
8.9160109976
 30
0.0
  0
SPLINE
  5
3ED
100
AcDbEntity
  8
0
100
AcDbSpline
 62
7
  6
CONTINUOUS
 70
0
 71
3
 72
26
 73
22
 74
0
 42
0.0000001
 43
0.0000001
 44
0.0000000001
 40
0.0
 40
0.0
 40
0.0
 40
0.0
 40
0.0617755368
 40
0.1240596606
 40
0.1868088251
 40
0.2499489199
 40
0.3133847711
 40
0.3770045518
 40
0.4406862362
 40
0.5043043879
 40
0.5677370668
 40
0.6308726087
 40
0.6936160067
 40
0.7558945472
 40
0.8176624928
 40
0.8483637373
 40
0.8789342251
 40
0.9093770389
 40
0.9396972865
 40
0.9699019807
 40
1.0
 40
1.0
 40
1.0
 40
1.0
 10
10.3737371163
 20
8.888978904
 30
0.0
 10
10.3737371163
 20
8.8858629484
 30
0.0
 10
10.3741262254
 20
8.8795988714
 30
0.0
 10
10.3758505742
 20
8.8703133129
 30
0.0
 10
10.3786908859
 20
8.8612330865
 30
0.0
 10
10.3826035521
 20
8.8524979633
 30
0.0
 10
10.3875285633
 20
8.8442399964
 30
0.0
 10
10.3933908559
 20
8.8365845886
 30
0.0
 10
10.4001013249
 20
8.8296478997
 30
0.0
 10
10.4075580176
 20
8.8235352219
 30
0.0
 10
10.4156478371
 20
8.8183395091
 30
0.0
 10
10.4242480284
 20
8.814140004
 30
0.0
 10
10.433228334
 20
8.8110009047
 30
0.0
 10
10.4424514243
 20
8.80897051
 30
0.0
 10
10.4502429586
 20
8.8082273596
 30
0.0
 10
10.4564523708
 20
8.8082137883
 30
0.0
 10
10.4610732372
 20
8.8084920892
 30
0.0
 10
10.4656482579
 20
8.8090579052
 30
0.0
 10
10.4701602387
 20
8.8099090616
 30
0.0
 10
10.4745916193
 20
8.8110423363
 30
0.0
 10
10.4774862318
 20
8.811984783
 30
0.0
 10
10.4789137716
 20
8.812501395
 30
0.0
  0
SPLINE
  5
3EE
100
AcDbEntity
  8
0
100
AcDbSpline
 62
7
  6
CONTINUOUS
 70
0
 71
3
 72
33
 73
29
 74
0
 42
0.0000001
 43
0.0000001
 44
0.0000000001
 40
0.0
 40
0.0
 40
0.0
 40
0.0
 40
0.0179760926
 40
0.0360874236
 40
0.0544659772
 40
0.0732375259
 40
0.092519533
 40
0.1124192568
 40
0.133033224
 40
0.1544470444
 40
0.1767353199
 40
0.1999628577
 40
0.2241850219
 40
0.2494486159
 40
0.2757932708
 40
0.3032515228
 40
0.3318501322
 40
0.3616108127
 40
0.3925502059
 40
0.4246812473
 40
0.458013104
 40
0.4925514702
 40
0.5652532646
 40
0.6427856038
 40
0.7251077562
 40
0.8121503571
 40
0.9038194926
 40
1.0
 40
1.0
 40
1.0
 40
1.0
 10
13.7951991953
 20
8.9776956452
 30
0.0
 10
13.7960038622
 20
8.9776398407
 30
0.0
 10
13.7976151264
 20
8.9774548898
 30
0.0
 10
13.8000114676
 20
8.9769597191
 30
0.0
 10
13.8023896565
 20
8.97624691
 30
0.0
 10
13.8047480217
 20
8.975317212
 30
0.0
 10
13.8070852949
 20
8.9741713514
 30
0.0
 10
13.8094003159
 20
8.9728103178
 30
0.0
 10
13.8116920074
 20
8.971235054
 30
0.0
 10
13.8139593153
 20
8.969446526
 30
0.0
 10
13.8162013137
 20
8.9674458456
 30
0.0
 10
13.8184169885
 20
8.9652340574
 30
0.0
 10
13.8206053759
 20
8.9628123309
 30
0.0
 10
13.8227655399
 20
8.9601819234
 30
0.0
 10
13.8248964391
 20
8.9573441055
 30
0.0
 10
13.8269971322
 20
8.9543003176
 30
0.0
 10
13.8290666274
 20
8.951052057
 30
0.0
 10
13.8311038937
 20
8.9476009064
 30
0.0
 10
13.8331080044
 20
8.9439485997
 30
0.0
 10
13.8350779348
 20
8.9400969276
 30
0.0
 10
13.8370127423
 20
8.9360477958
 30
0.0
 10
13.8395885102
 20
8.9302895167
 30
0.0
 10
13.8427030496
 20
8.9226026797
 30
0.0
 10
13.8462243048
 20
8.9127772132
 30
0.0
 10
13.8495835346
 20
8.9022180704
 30
0.0
 10
13.8527739613
 20
8.8909463096
 30
0.0
 10
13.8557891029
 20
8.8789843594
 30
0.0
 10
13.8576348554
 20
8.8707589381
 30
0.0
 10
13.8585305738
 20
8.8665372287
 30
0.0
  0
SPLINE
  5
3EF
100
AcDbEntity
  8
0
100
AcDbSpline
 62
7
  6
CONTINUOUS
 70
0
 71
3
 72
39
 73
35
 74
0
 42
0.0000001
 43
0.0000001
 44
0.0000000001
 40
0.0
 40
0.0
 40
0.0
 40
0.0
 40
0.0254364385
 40
0.0493394443
 40
0.0718368362
 40
0.0930885268
 40
0.1132901971
 40
0.1326741372
 40
0.1515069014
 40
0.1700812051
 40
0.1887031445
 40
0.207676289
 40
0.2272864519
 40
0.2477900785
 40
0.2694083304
 40
0.2923253972
 40
0.3166909556
 40
0.3426236592
 40
0.3702156301
 40
0.3995367712
 40
0.4306380877
 40
0.4635553779
 40
0.4983111057
 40
0.5349170773
 40
0.5733756469
 40
0.6136812034
 40
0.6558213663
 40
0.6997774266
 40
0.7455256507
 40
0.7930371763
 40
0.8422790927
 40
0.8932144265
 40
0.9458026297
 40
1.0
 40
1.0
 40
1.0
 40
1.0
 10
13.8018123872
 20
8.9979512109
 30
0.0
 10
13.803112297
 20
8.999161037
 30
0.0
 10
13.8057103467
 20
9.0014277424
 30
0.0
 10
13.8097305567
 20
9.0044346184
 30
0.0
 10
13.8137449911
 20
9.0069350379
 30
0.0
 10
13.8177501542
 20
9.0089248916
 30
0.0
 10
13.8217424278
 20
9.0104003272
 30
0.0
 10
13.8257174458
 20
9.011357153
 30
0.0
 10
13.8296695317
 20
9.0117918402
 30
0.0
 10
13.833591729
 20
9.0117019233
 30
0.0
 10
13.8374763142
 20
9.0110871594
 30
0.0
 10
13.8413159251
 20
9.009949596
 30
0.0
 10
13.8451043973
 20
9.008292921
 30
0.0
 10
13.8488371393
 20
9.0061217711
 30
0.0
 10
13.8525105843
 20
9.0034406392
 30
0.0
 10
13.8561218932
 20
9.0002540056
 30
0.0
 10
13.859668266
 20
8.9965660586
 30
0.0
 10
13.8631468959
 20
8.9923811324
 30
0.0
 10
13.8665548079
 20
8.9877037927
 30
0.0
 10
13.8698888166
 20
8.9825389787
 30
0.0
 10
13.8731457429
 20
8.976892172
 30
0.0
 10
13.876322203
 20
8.9707693187
 30
0.0
 10
13.8794149441
 20
8.9641769758
 30
0.0
 10
13.8824206167
 20
8.9571222069
 30
0.0
 10
13.8853359846
 20
8.9496126453
 30
0.0
 10
13.8881578706
 20
8.9416564524
 30
0.0
 10
13.8908831307
 20
8.9332623041
 30
0.0
 10
13.8935088049
 20
8.9244393988
 30
0.0
 10
13.8960319213
 20
8.9151974134
 30
0.0
 10
13.8984497273
 20
8.9055465174
 30
0.0
 10
13.9007594968
 20
8.8954973407
 30
0.0
 10
13.9029586702
 20
8.8850609583
 30
0.0
 10
13.9050448024
 20
8.8742489224
 30
0.0
 10
13.9063395081
 20
8.8669068268
 30
0.0
 10
13.9069687567
 20
8.8631758365
 30
0.0
  0
SPLINE
  5
3F0
100
AcDbEntity
  8
0
100
AcDbSpline
 62
7
  6
CONTINUOUS
 70
0
 71
3
 72
11
 73
7
 74
0
 42
0.0000001
 43
0.0000001
 44
0.0000000001
 40
0.0
 40
0.0
 40
0.0
 40
0.0
 40
0.2570008885
 40
0.5107914393
 40
0.7591680224
 40
1.0
 40
1.0
 40
1.0
 40
1.0
 10
13.6658131828
 20
7.9553228479
 30
0.0
 10
13.6654946193
 20
7.951335388
 30
0.0
 10
13.6647663207
 20
7.9434175365
 30
0.0
 10
13.6633965507
 20
7.931679721
 30
0.0
 10
13.6617659722
 20
7.9202293884
 30
0.0
 10
13.6604919672
 20
7.9127211268
 30
0.0
 10
13.6598110656
 20
7.909034988
 30
0.0
  0
SPLINE
  5
3F1
100
AcDbEntity
  8
0
100
AcDbSpline
 62
7
  6
CONTINUOUS
 70
0
 71
3
 72
15
 73
11
 74
0
 42
0.0000001
 43
0.0000001
 44
0.0000000001
 40
0.0
 40
0.0
 40
0.0
 40
0.0
 40
0.1273483281
 40
0.2538605602
 40
0.3795878981
 40
0.5046051042
 40
0.6290174419
 40
0.7529533761
 40
0.876560577
 40
1.0
 40
1.0
 40
1.0
 40
1.0
 10
10.7255273528
 20
7.7960028648
 30
0.0
 10
10.7255273528
 20
7.7998526236
 30
0.0
 10
10.7258949272
 20
7.8075321886
 30
0.0
 10
10.7275572523
 20
7.8189038337
 30
0.0
 10
10.7303136632
 20
7.8299897498
 30
0.0
 10
10.7341392639
 20
7.8406862629
 30
0.0
 10
10.7389989464
 20
7.8508947303
 30
0.0
 10
10.744848434
 20
7.8605208758
 30
0.0
 10
10.751632712
 20
7.8694745103
 30
0.0
 10
10.7567409312
 20
7.8749438922
 30
0.0
 10
10.759424898
 20
7.877536401
 30
0.0
  0
SPLINE
  5
3F2
100
AcDbEntity
  8
0
100
AcDbSpline
 62
7
  6
CONTINUOUS
 70
0
 71
3
 72
11
 73
7
 74
0
 42
0.0000001
 43
0.0000001
 44
0.0000000001
 40
0.0
 40
0.0
 40
0.0
 40
0.0
 40
0.2424234943
 40
0.4879502721
 40
0.7395594861
 40
1.0
 40
1.0
 40
1.0
 40
1.0
 10
13.5354018521
 20
8.8409353162
 30
0.0
 10
13.5364545024
 20
8.8408623186
 30
0.0
 10
13.538566632
 20
8.8405899067
 30
0.0
 10
13.5416962083
 20
8.839807931
 30
0.0
 10
13.5447917417
 20
8.8386534085
 30
0.0
 10
13.546790317
 20
8.8376569288
 30
0.0
 10
13.5477795154
 20
8.837103273
 30
0.0
  0
SPLINE
  5
3F3
100
AcDbEntity
  8
0
100
AcDbSpline
 62
4
  6
CONTINUOUS
 70
0
 71
3
 72
517
 73
513
 74
0
 42
0.0000001
 43
0.0000001
 44
0.0000000001
 40
0.0
 40
0.0
 40
0.0
 40
0.0
 40
0.0078125
 40
0.015625
 40
0.0234375
 40
0.03125
 40
0.03515625
 40
0.0390625
 40
0.04296875
 40
0.046875
 40
0.05078125
 40
0.052734375
 40
0.0546875
 40
0.056640625
 40
0.0576171875
 40
0.05859375
 40
0.0595703125
 40
0.060546875
 40
0.0610351562
 40
0.0615234375
 40
0.0617675781
 40
0.0620117188
 40
0.0622558594
 40
0.0623779297
 40
0.0624389648
 40
0.0625
 40
0.0625610352
 40
0.0626220703
 40
0.0627441406
 40
0.0629882812
 40
0.0632324219
 40
0.0634765625
 40
0.0639648438
 40
0.064453125
 40
0.0654296875
 40
0.06640625
 40
0.0673828125
 40
0.068359375
 40
0.0703125
 40
0.072265625
 40
0.07421875
 40
0.078125
 40
0.08203125
 40
0.0859375
 40
0.08984375
 40
0.09375
 40
0.09765625
 40
0.1015625
 40
0.10546875
 40
0.109375
 40
0.11328125
 40
0.115234375
 40
0.1171875
 40
0.119140625
 40
0.1201171875
 40
0.12109375
 40
0.1220703125
 40
0.123046875
 40
0.1235351562
 40
0.1240234375
 40
0.1242675781
 40
0.1245117188
 40
0.1247558594
 40
0.1248779297
 40
0.1249389648
 40
0.125
 40
0.1250610352
 40
0.1251220703
 40
0.1252441406
 40
0.1254882812
 40
0.1257324219
 40
0.1259765625
 40
0.1264648438
 40
0.126953125
 40
0.1279296875
 40
0.12890625
 40
0.1298828125
 40
0.130859375
 40
0.1328125
 40
0.134765625
 40
0.13671875
 40
0.140625
 40
0.14453125
 40
0.1484375
 40
0.15234375
 40
0.15625
 40
0.16015625
 40
0.1640625
 40
0.16796875
 40
0.171875
 40
0.17578125
 40
0.177734375
 40
0.1796875
 40
0.181640625
 40
0.1826171875
 40
0.18359375
 40
0.1845703125
 40
0.185546875
 40
0.1860351562
 40
0.1865234375
 40
0.1867675781
 40
0.1870117188
 40
0.1872558594
 40
0.1873779297
 40
0.1874389648
 40
0.1875
 40
0.1875610352
 40
0.1876220703
 40
0.1877441406
 40
0.1879882812
 40
0.1882324219
 40
0.1884765625
 40
0.1889648438
 40
0.189453125
 40
0.1904296875
 40
0.19140625
 40
0.1923828125
 40
0.193359375
 40
0.1953125
 40
0.197265625
 40
0.19921875
 40
0.203125
 40
0.20703125
 40
0.2109375
 40
0.21484375
 40
0.21875
 40
0.2265625
 40
0.23046875
 40
0.234375
 40
0.23828125
 40
0.240234375
 40
0.2421875
 40
0.244140625
 40
0.2451171875
 40
0.24609375
 40
0.2470703125
 40
0.248046875
 40
0.2485351562
 40
0.2490234375
 40
0.2492675781
 40
0.2495117188
 40
0.2497558594
 40
0.2498779297
 40
0.2499389648
 40
0.25
 40
0.2500610352
 40
0.2501220703
 40
0.2502441406
 40
0.2504882812
 40
0.2507324219
 40
0.2509765625
 40
0.2514648438
 40
0.251953125
 40
0.2529296875
 40
0.25390625
 40
0.2548828125
 40
0.255859375
 40
0.2578125
 40
0.259765625
 40
0.26171875
 40
0.265625
 40
0.26953125
 40
0.2734375
 40
0.28125
 40
0.2890625
 40
0.29296875
 40
0.296875
 40
0.30078125
 40
0.302734375
 40
0.3046875
 40
0.306640625
 40
0.3076171875
 40
0.30859375
 40
0.3095703125
 40
0.310546875
 40
0.3110351562
 40
0.3115234375
 40
0.3117675781
 40
0.3120117188
 40
0.3122558594
 40
0.3123779297
 40
0.3125
 40
0.3126220703
 40
0.3127441406
 40
0.3129882812
 40
0.3132324219
 40
0.3134765625
 40
0.3139648438
 40
0.314453125
 40
0.3154296875
 40
0.31640625
 40
0.3173828125
 40
0.318359375
 40
0.3203125
 40
0.322265625
 40
0.32421875
 40
0.328125
 40
0.33203125
 40
0.3359375
 40
0.34375
 40
0.3515625
 40
0.35546875
 40
0.359375
 40
0.36328125
 40
0.365234375
 40
0.3671875
 40
0.369140625
 40
0.37109375
 40
0.3720703125
 40
0.373046875
 40
0.3735351562
 40
0.3740234375
 40
0.3745117188
 40
0.3747558594
 40
0.3748779297
 40
0.375
 40
0.3751220703
 40
0.3752441406
 40
0.3754882812
 40
0.3759765625
 40
0.3764648438
 40
0.376953125
 40
0.3779296875
 40
0.37890625
 40
0.380859375
 40
0.3828125
 40
0.384765625
 40
0.38671875
 40
0.390625
 40
0.39453125
 40
0.3984375
 40
0.40625
 40
0.4140625
 40
0.41796875
 40
0.421875
 40
0.42578125
 40
0.427734375
 40
0.4296875
 40
0.431640625
 40
0.43359375
 40
0.4345703125
 40
0.435546875
 40
0.4360351562
 40
0.4365234375
 40
0.4370117188
 40
0.4372558594
 40
0.4373779297
 40
0.4375
 40
0.4376220703
 40
0.4377441406
 40
0.4379882812
 40
0.4384765625
 40
0.4389648438
 40
0.439453125
 40
0.4404296875
 40
0.44140625
 40
0.443359375
 40
0.4453125
 40
0.447265625
 40
0.44921875
 40
0.453125
 40
0.45703125
 40
0.4609375
 40
0.46875
 40
0.4765625
 40
0.48046875
 40
0.484375
 40
0.48828125
 40
0.4921875
 40
0.494140625
 40
0.49609375
 40
0.4970703125
 40
0.498046875
 40
0.4990234375
 40
0.4995117188
 40
0.4997558594
 40
0.5
 40
0.5002441406
 40
0.5004882812
 40
0.5009765625
 40
0.501953125
 40
0.5029296875
 40
0.50390625
 40
0.505859375
 40
0.5078125
 40
0.51171875
 40
0.515625
 40
0.51953125
 40
0.5234375
 40
0.53125
 40
0.5390625
 40
0.54296875
 40
0.546875
 40
0.55078125
 40
0.5546875
 40
0.556640625
 40
0.55859375
 40
0.5595703125
 40
0.560546875
 40
0.5615234375
 40
0.5620117188
 40
0.5622558594
 40
0.5625
 40
0.5627441406
 40
0.5629882812
 40
0.5634765625
 40
0.564453125
 40
0.5654296875
 40
0.56640625
 40
0.568359375
 40
0.5703125
 40
0.57421875
 40
0.578125
 40
0.58203125
 40
0.5859375
 40
0.59375
 40
0.6015625
 40
0.60546875
 40
0.609375
 40
0.61328125
 40
0.6171875
 40
0.619140625
 40
0.62109375
 40
0.6220703125
 40
0.623046875
 40
0.6240234375
 40
0.6245117188
 40
0.6247558594
 40
0.625
 40
0.6252441406
 40
0.6254882812
 40
0.6259765625
 40
0.626953125
 40
0.6279296875
 40
0.62890625
 40
0.630859375
 40
0.6328125
 40
0.63671875
 40
0.640625
 40
0.64453125
 40
0.6484375
 40
0.65625
 40
0.6640625
 40
0.66796875
 40
0.671875
 40
0.67578125
 40
0.6796875
 40
0.681640625
 40
0.68359375
 40
0.6845703125
 40
0.685546875
 40
0.6865234375
 40
0.6870117188
 40
0.6872558594
 40
0.6875
 40
0.6877441406
 40
0.6879882812
 40
0.6884765625
 40
0.689453125
 40
0.6904296875
 40
0.69140625
 40
0.693359375
 40
0.6953125
 40
0.69921875
 40
0.703125
 40
0.70703125
 40
0.7109375
 40
0.71875
 40
0.7265625
 40
0.73046875
 40
0.734375
 40
0.73828125
 40
0.740234375
 40
0.7421875
 40
0.744140625
 40
0.74609375
 40
0.7470703125
 40
0.748046875
 40
0.7485351562
 40
0.7490234375
 40
0.7495117188
 40
0.7497558594
 40
0.7498779297
 40
0.75
 40
0.7501220703
 40
0.7502441406
 40
0.7504882812
 40
0.7509765625
 40
0.7514648438
 40
0.751953125
 40
0.7529296875
 40
0.75390625
 40
0.755859375
 40
0.7578125
 40
0.759765625
 40
0.76171875
 40
0.765625
 40
0.76953125
 40
0.7734375
 40
0.78125
 40
0.7890625
 40
0.79296875
 40
0.796875
 40
0.80078125
 40
0.802734375
 40
0.8046875
 40
0.806640625
 40
0.80859375
 40
0.8095703125
 40
0.810546875
 40
0.8110351562
 40
0.8115234375
 40
0.8120117188
 40
0.8122558594
 40
0.8123779297
 40
0.8125
 40
0.8126220703
 40
0.8127441406
 40
0.8129882812
 40
0.8134765625
 40
0.8139648438
 40
0.814453125
 40
0.8154296875
 40
0.81640625
 40
0.818359375
 40
0.8203125
 40
0.822265625
 40
0.82421875
 40
0.828125
 40
0.83203125
 40
0.8359375
 40
0.84375
 40
0.8515625
 40
0.85546875
 40
0.859375
 40
0.86328125
 40
0.865234375
 40
0.8671875
 40
0.869140625
 40
0.8701171875
 40
0.87109375
 40
0.8720703125
 40
0.873046875
 40
0.8735351562
 40
0.8740234375
 40
0.8742675781
 40
0.8745117188
 40
0.8747558594
 40
0.8748779297
 40
0.875
 40
0.8751220703
 40
0.8752441406
 40
0.8754882812
 40
0.8757324219
 40
0.8759765625
 40
0.8764648438
 40
0.876953125
 40
0.8779296875
 40
0.87890625
 40
0.8798828125
 40
0.880859375
 40
0.8828125
 40
0.884765625
 40
0.88671875
 40
0.890625
 40
0.89453125
 40
0.8984375
 40
0.90625
 40
0.91015625
 40
0.9140625
 40
0.91796875
 40
0.921875
 40
0.92578125
 40
0.927734375
 40
0.9296875
 40
0.931640625
 40
0.9326171875
 40
0.93359375
 40
0.9345703125
 40
0.935546875
 40
0.9360351562
 40
0.9365234375
 40
0.9367675781
 40
0.9370117188
 40
0.9372558594
 40
0.9373779297
 40
0.9374389648
 40
0.9375
 40
0.9375610352
 40
0.9376220703
 40
0.9377441406
 40
0.9379882812
 40
0.9382324219
 40
0.9384765625
 40
0.9389648438
 40
0.939453125
 40
0.9404296875
 40
0.94140625
 40
0.9423828125
 40
0.943359375
 40
0.9453125
 40
0.947265625
 40
0.94921875
 40
0.953125
 40
0.95703125
 40
0.9609375
 40
0.96484375
 40
0.96875
 40
0.9765625
 40
0.984375
 40
0.9921875
 40
1.0
 40
1.0
 40
1.0
 40
1.0
 10
11.3320793494
 20
9.2746932161
 30
0.0
 10
11.3318402824
 20
9.2743194588
 30
0.0
 10
11.3313621484
 20
9.2735719441
 30
0.0
 10
11.3306449474
 20
9.2724506721
 30
0.0
 10
11.3299277465
 20
9.2713294001
 30
0.0
 10
11.329330079
 20
9.2703950067
 30
0.0
 10
11.328851945
 20
9.2696474921
 30
0.0
 10
11.3284933445
 20
9.2690868561
 30
0.0
 10
11.328134744
 20
9.2685262201
 30
0.0
 10
11.3277761435
 20
9.2679655841
 30
0.0
 10
11.3274773098
 20
9.2674983874
 30
0.0
 10
11.3272382428
 20
9.2671246301
 30
0.0
 10
11.3270589425
 20
9.2668443121
 30
0.0
 10
11.3269095256
 20
9.2666107137
 30
0.0
 10
11.3267899922
 20
9.2664238351
 30
0.0
 10
11.3267003418
 20
9.2662836761
 30
0.0
 10
11.3266106926
 20
9.2661435171
 30
0.0
 10
11.3265359814
 20
9.2660267179
 30
0.0
 10
11.3264762202
 20
9.2659332785
 30
0.0
 10
11.3264388519
 20
9.2658748792
 30
0.0
 10
11.3264089974
 20
9.265828159
 30
0.0
 10
11.3263864967
 20
9.2657931208
 30
0.0
 10
11.3263680955
 20
9.2657639162
 30
0.0
 10
11.326354529
 20
9.2657434849
 30
0.0
 10
11.3263478473
 20
9.2657317914
 30
0.0
 10
11.32633982
 20
9.2657230731
 30
0.0
 10
11.3263433218
 20
9.2657141566
 30
0.0
 10
11.3263439694
 20
9.2657023372
 30
0.0
 10
11.3263469764
 20
9.2656816209
 30
0.0
 10
11.3263502924
 20
9.265652043
 30
0.0
 10
11.326354691
 20
9.2656165424
 30
0.0
 10
11.3263604094
 20
9.2655692107
 30
0.0
 10
11.3263676074
 20
9.2655100452
 30
0.0
 10
11.3263790963
 20
9.2654153809
 30
0.0
 10
11.326393467
 20
9.2652970504
 30
0.0
 10
11.3264107078
 20
9.2651550539
 30
0.0
 10
11.3264279496
 20
9.2650130574
 30
0.0
 10
11.3264509383
 20
9.2648237286
 30
0.0
 10
11.3264796744
 20
9.2645870677
 30
0.0
 10
11.3265141576
 20
9.2643030747
 30
0.0
 10
11.3265601352
 20
9.2639244172
 30
0.0
 10
11.3266176072
 20
9.2634510954
 30
0.0
 10
11.3266865737
 20
9.2628831093
 30
0.0
 10
11.3267555401
 20
9.2623151231
 30
0.0
 10
11.3268245065
 20
9.2617471369
 30
0.0
 10
11.3268934729
 20
9.2611791508
 30
0.0
 10
11.3269624394
 20
9.2606111646
 30
0.0
 10
11.3270314058
 20
9.2600431784
 30
0.0
 10
11.3271003722
 20
9.2594751923
 30
0.0
 10
11.3271693386
 20
9.2589072061
 30
0.0
 10
11.3272268107
 20
9.2584338843
 30
0.0
 10
11.3272727883
 20
9.2580552269
 30
0.0
 10
11.3273072715
 20
9.2577712338
 30
0.0
 10
11.3273360075
 20
9.2575345729
 30
0.0
 10
11.3273589964
 20
9.2573452442
 30
0.0
 10
11.3273762377
 20
9.2572032476
 30
0.0
 10
11.3273934802
 20
9.2570612511
 30
0.0
 10
11.3274078455
 20
9.2569429206
 30
0.0
 10
11.3274193454
 20
9.2568482564
 30
0.0
 10
11.3274265154
 20
9.2567890907
 30
0.0
 10
11.3274322913
 20
9.2567417595
 30
0.0
 10
11.3274365141
 20
9.2567062574
 30
0.0
 10
11.3274403803
 20
9.256676684
 30
0.0
 10
11.3274424052
 20
9.2566559597
 30
0.0
 10
11.3274446263
 20
9.256644153
 30
0.0
 10
11.3274432946
 20
9.2566351973
 30
0.0
 10
11.3274534212
 20
9.2566266267
 30
0.0
 10
11.3274629266
 20
9.2566150648
 30
0.0
 10
11.3274814231
 20
9.2565948943
 30
0.0
 10
11.3275068732
 20
9.2565660464
 30
0.0
 10
11.32753783
 20
9.256531443
 30
0.0
 10
11.3275789602
 20
9.2564853002
 30
0.0
 10
11.3276304227
 20
9.2564276234
 30
0.0
 10
11.327712735
 20
9.2563353395
 30
0.0
 10
11.3278156349
 20
9.2562199851
 30
0.0
 10
11.3279391106
 20
9.2560815596
 30
0.0
 10
11.3280625874
 20
9.2559431341
 30
0.0
 10
11.3282272228
 20
9.2557585668
 30
0.0
 10
11.3284330172
 20
9.2555278576
 30
0.0
 10
11.3286799704
 20
9.2552510067
 30
0.0
 10
11.3290092414
 20
9.2548818721
 30
0.0
 10
11.3294208301
 20
9.2544204538
 30
0.0
 10
11.3299147365
 20
9.2538667519
 30
0.0
 10
11.330408643
 20
9.25331305
 30
0.0
 10
11.3309025494
 20
9.2527593481
 30
0.0
 10
11.3313964558
 20
9.2522056462
 30
0.0
 10
11.3318903623
 20
9.2516519443
 30
0.0
 10
11.3323842687
 20
9.2510982424
 30
0.0
 10
11.3328781752
 20
9.2505445405
 30
0.0
 10
11.3333720816
 20
9.2499908386
 30
0.0
 10
11.3337836703
 20
9.2495294203
 30
0.0
 10
11.3341129413
 20
9.2491602857
 30
0.0
 10
11.3343598945
 20
9.2488834347
 30
0.0
 10
11.3345656888
 20
9.2486527256
 30
0.0
 10
11.3347303243
 20
9.2484681583
 30
0.0
 10
11.3348538007
 20
9.2483297328
 30
0.0
 10
11.3349772782
 20
9.2481913074
 30
0.0
 10
11.3350801727
 20
9.2480759527
 30
0.0
 10
11.3351624959
 20
9.2479836694
 30
0.0
 10
11.3352139305
 20
9.2479259912
 30
0.0
 10
11.3352551181
 20
9.2478798512
 30
0.0
 10
11.3352858995
 20
9.2478452393
 30
0.0
 10
11.3353118985
 20
9.2478164178
 30
0.0
 10
11.3353294151
 20
9.2477962002
 30
0.0
 10
11.3353404906
 20
9.2477847138
 30
0.0
 10
11.3353457942
 20
9.2477759116
 30
0.0
 10
11.3353625767
 20
9.2477678256
 30
0.0
 10
11.3353809495
 20
9.2477567945
 30
0.0
 10
11.3354149673
 20
9.2477376066
 30
0.0
 10
11.3354625889
 20
9.2477101343
 30
0.0
 10
11.3355201523
 20
9.2476771936
 30
0.0
 10
11.3355967577
 20
9.2476332637
 30
0.0
 10
11.3356925643
 20
9.2475783543
 30
0.0
 10
11.335845827
 20
9.2474904976
 30
0.0
 10
11.336037415
 20
9.2473806773
 30
0.0
 10
11.3362673164
 20
9.2472488926
 30
0.0
 10
11.336497219
 20
9.2471171081
 30
0.0
 10
11.3368037553
 20
9.2469413953
 30
0.0
 10
11.3371869259
 20
9.2467217544
 30
0.0
 10
11.3376467305
 20
9.2464581852
 30
0.0
 10
11.3382598034
 20
9.2461067597
 30
0.0
 10
11.3390261444
 20
9.2456674778
 30
0.0
 10
11.3399457537
 20
9.2451403396
 30
0.0
 10
11.340865363
 20
9.2446132013
 30
0.0
 10
11.3417849722
 20
9.244086063
 30
0.0
 10
11.3430111179
 20
9.243383212
 30
0.0
 10
11.3442372636
 20
9.242680361
 30
0.0
 10
11.3454634093
 20
9.2419775099
 30
0.0
 10
11.3463830186
 20
9.2414503717
 30
0.0
 10
11.3471493597
 20
9.2410110898
 30
0.0
 10
11.3477624325
 20
9.2406596643
 30
0.0
 10
11.3482222371
 20
9.2403960951
 30
0.0
 10
11.3486054076
 20
9.2401764542
 30
0.0
 10
11.3489119441
 20
9.2400007414
 30
0.0
 10
11.3491418462
 20
9.2398689568
 30
0.0
 10
11.3493717493
 20
9.2397371724
 30
0.0
 10
11.3495633323
 20
9.2396273515
 30
0.0
 10
11.3497166051
 20
9.239539496
 30
0.0
 10
11.349812386
 20
9.2394845836
 30
0.0
 10
11.3498890443
 20
9.2394406598
 30
0.0
 10
11.3499464459
 20
9.2394077002
 30
0.0
 10
11.3499945736
 20
9.2393802871
 30
0.0
 10
11.350027688
 20
9.2393609935
 30
0.0
 10
11.3500475083
 20
9.2393501316
 30
0.0
 10
11.3500598445
 20
9.2393415261
 30
0.0
 10
11.3500818478
 20
9.2393346754
 30
0.0
 10
11.3501078135
 20
9.2393249291
 30
0.0
 10
11.3501548246
 20
9.2393081582
 30
0.0
 10
11.3502211619
 20
9.2392840507
 30
0.0
 10
11.3503011182
 20
9.2392551855
 30
0.0
 10
11.3504076039
 20
9.2392166763
 30
0.0
 10
11.350540753
 20
9.2391685474
 30
0.0
 10
11.3507537681
 20
9.2390915369
 30
0.0
 10
11.3510200451
 20
9.2389952752
 30
0.0
 10
11.351339574
 20
9.2388797606
 30
0.0
 10
11.3516591038
 20
9.2387642462
 30
0.0
 10
11.3520851432
 20
9.2386102269
 30
0.0
 10
11.3526176926
 20
9.2384177028
 30
0.0
 10
11.3532567518
 20
9.2381866738
 30
0.0
 10
11.3541088308
 20
9.2378786352
 30
0.0
 10
11.3551739295
 20
9.2374935869
 30
0.0
 10
11.356452048
 20
9.237031529
 30
0.0
 10
11.3581562059
 20
9.2364154518
 30
0.0
 10
11.3602864034
 20
9.2356453553
 30
0.0
 10
11.3624166008
 20
9.2348752588
 30
0.0
 10
11.3641207588
 20
9.2342591816
 30
0.0
 10
11.3653988772
 20
9.2337971237
 30
0.0
 10
11.3664639759
 20
9.2334120754
 30
0.0
 10
11.3673160549
 20
9.2331040368
 30
0.0
 10
11.3679551141
 20
9.2328730078
 30
0.0
 10
11.3684876636
 20
9.2326804837
 30
0.0
 10
11.3689137029
 20
9.2325264644
 30
0.0
 10
11.369233233
 20
9.23241095
 30
0.0
 10
11.3695527608
 20
9.2322954351
 30
0.0
 10
11.3698190412
 20
9.2321991744
 30
0.0
 10
11.3700320492
 20
9.2321221621
 30
0.0
 10
11.3701652165
 20
9.2320740378
 30
0.0
 10
11.3702716649
 20
9.2320355191
 30
0.0
 10
11.370351735
 20
9.232006683
 30
0.0
 10
11.3704177165
 20
9.2319824844
 30
0.0
 10
11.3704721692
 20
9.2319635034
 30
0.0
 10
11.3705084525
 20
9.2319482353
 30
0.0
 10
11.3705621272
 20
9.2319369077
 30
0.0
 10
11.3706276183
 20
9.2319204277
 30
0.0
 10
11.3707115666
 20
9.2319003001
 30
0.0
 10
11.3708114124
 20
9.2318759447
 30
0.0
 10
11.3709448518
 20
9.2318435416
 30
0.0
 10
11.3711115442
 20
9.2318030134
 30
0.0
 10
11.3713783118
 20
9.2317381819
 30
0.0
 10
11.3717117508
 20
9.2316571378
 30
0.0
 10
11.3721118864
 20
9.231559887
 30
0.0
 10
11.3725120197
 20
9.2314626356
 30
0.0
 10
11.3730455315
 20
9.2313329672
 30
0.0
 10
11.373712421
 20
9.2311708817
 30
0.0
 10
11.3745126885
 20
9.2309763792
 30
0.0
 10
11.3755797118
 20
9.2307170424
 30
0.0
 10
11.3769134909
 20
9.2303928714
 30
0.0
 10
11.3785140259
 20
9.2300038663
 30
0.0
 10
11.3806480725
 20
9.2294851928
 30
0.0
 10
11.3833156308
 20
9.2288368509
 30
0.0
 10
11.3859831891
 20
9.228188509
 30
0.0
 10
11.3881172357
 20
9.2276698354
 30
0.0
 10
11.3897177706
 20
9.2272808303
 30
0.0
 10
11.3910515497
 20
9.2269566593
 30
0.0
 10
11.3921185731
 20
9.2266973226
 30
0.0
 10
11.3929188403
 20
9.2265028199
 30
0.0
 10
11.3937191089
 20
9.2263083177
 30
0.0
 10
11.3943859951
 20
9.2261462311
 30
0.0
 10
11.3949195135
 20
9.226016565
 30
0.0
 10
11.3952529411
 20
9.2259355165
 30
0.0
 10
11.3955197323
 20
9.2258706941
 30
0.0
 10
11.3957196913
 20
9.2258220323
 30
0.0
 10
11.3958867511
 20
9.2257816243
 30
0.0
 10
11.3960028544
 20
9.2257530569
 30
0.0
 10
11.3960705085
 20
9.2257371727
 30
0.0
 10
11.3961175605
 20
9.2257240199
 30
0.0
 10
11.3961787124
 20
9.2257156058
 30
0.0
 10
11.39625533
 20
9.2257027341
 30
0.0
 10
11.3963917023
 20
9.2256809788
 30
0.0
 10
11.3965853219
 20
9.2256494971
 30
0.0
 10
11.3968181782
 20
9.2256118915
 30
0.0
 10
11.3971284742
 20
9.2255616904
 30
0.0
 10
11.3975164055
 20
9.2254989597
 30
0.0
 10
11.3981370612
 20
9.225398579
 30
0.0
 10
11.3989128927
 20
9.225273107
 30
0.0
 10
11.3998438854
 20
9.225122539
 30
0.0
 10
11.4007748795
 20
9.2249719715
 30
0.0
 10
11.4020162045
 20
9.2247712146
 30
0.0
 10
11.4035678608
 20
9.2245202685
 30
0.0
 10
11.4054298484
 20
9.2242191332
 30
0.0
 10
11.4079124985
 20
9.2238176195
 30
0.0
 10
11.4110158112
 20
9.2233157273
 30
0.0
 10
11.4141191238
 20
9.2228138352
 30
0.0
 10
11.4166017739
 20
9.2224123214
 30
0.0
 10
11.4184637615
 20
9.2221111861
 30
0.0
 10
11.4200154178
 20
9.22186024
 30
0.0
 10
11.4212567429
 20
9.2216594832
 30
0.0
 10
11.4221877365
 20
9.2215089155
 30
0.0
 10
11.4231187312
 20
9.2213583482
 30
0.0
 10
11.4238945565
 20
9.2212328739
 30
0.0
 10
11.4245152249
 20
9.221132498
 30
0.0
 10
11.424903124
 20
9.2210697551
 30
0.0
 10
11.4252134861
 20
9.221019579
 30
0.0
 10
11.4254461403
 20
9.2209818972
 30
0.0
 10
11.4256403922
 20
9.2209506537
 30
0.0
 10
11.4257756357
 20
9.2209284731
 30
0.0
 10
11.4258540619
 20
9.2209162828
 30
0.0
 10
11.4259096586
 20
9.2209057759
 30
0.0
 10
11.425977575
 20
9.2209004835
 30
0.0
 10
11.426063833
 20
9.220891608
 30
0.0
 10
11.4262167866
 20
9.2208769235
 30
0.0
 10
11.4264342451
 20
9.2208555026
 30
0.0
 10
11.4266956433
 20
9.2208299871
 30
0.0
 10
11.4270440177
 20
9.2207959002
 30
0.0
 10
11.4274795394
 20
9.2207533143
 30
0.0
 10
11.428176344
 20
9.2206851641
 30
0.0
 10
11.4290473601
 20
9.2205999807
 30
0.0
 10
11.430092575
 20
9.2204977588
 30
0.0
 10
11.4311377911
 20
9.2203955374
 30
0.0
 10
11.4325314122
 20
9.2202592421
 30
0.0
 10
11.4342734386
 20
9.2200888729
 30
0.0
 10
11.4363638703
 20
9.2198844299
 30
0.0
 10
11.4391511125
 20
9.2196118392
 30
0.0
 10
11.4426351653
 20
9.2192711009
 30
0.0
 10
11.4461192181
 20
9.2189303625
 30
0.0
 10
11.4489064604
 20
9.2186577719
 30
0.0
 10
11.4509968919
 20
9.2184533286
 30
0.0
 10
11.4530873242
 20
9.2182488865
 30
0.0
 10
11.4548293487
 20
9.2180785145
 30
0.0
 10
11.4562229737
 20
9.217942225
 30
0.0
 10
11.457093977
 20
9.2178570257
 30
0.0
 10
11.457790808
 20
9.2177889082
 30
0.0
 10
11.4583133534
 20
9.2177377053
 30
0.0
 10
11.4587490555
 20
9.2176954012
 30
0.0
 10
11.4590535612
 20
9.2176650722
 30
0.0
 10
11.4592283228
 20
9.2176488595
 30
0.0
 10
11.4593572579
 20
9.2176335501
 30
0.0
 10
11.4594943581
 20
9.217630281
 30
0.0
 10
11.4596743103
 20
9.2176217224
 30
0.0
 10
11.4599905535
 20
9.2176087016
 30
0.0
 10
11.4604416358
 20
9.2175890775
 30
0.0
 10
11.4609832315
 20
9.2175659665
 30
0.0
 10
11.4617052553
 20
9.2175349988
 30
0.0
 10
11.4626078207
 20
9.2174963416
 30
0.0
 10
11.4640519054
 20
9.2174344608
 30
0.0
 10
11.4658570181
 20
9.2173571198
 30
0.0
 10
11.4680231505
 20
9.2172643064
 30
0.0
 10
11.4701892836
 20
9.217171494
 30
0.0
 10
11.4730774608
 20
9.2170477439
 30
0.0
 10
11.4766876824
 20
9.2168930563
 30
0.0
 10
11.480297904
 20
9.2167383687
 30
0.0
 10
11.4831860813
 20
9.2166146187
 30
0.0
 10
11.4853522142
 20
9.2165218059
 30
0.0
 10
11.4875183474
 20
9.2164289942
 30
0.0
 10
11.4893234575
 20
9.2163516476
 30
0.0
 10
11.4907675476
 20
9.2162897783
 30
0.0
 10
11.4916700993
 20
9.2162510918
 30
0.0
 10
11.4923921512
 20
9.2162201842
 30
0.0
 10
11.4929336611
 20
9.2161968898
 30
0.0
 10
11.4933850121
 20
9.2161778395
 30
0.0
 10
11.4937007756
 20
9.2161637944
 30
0.0
 10
11.4938814963
 20
9.216156877
 30
0.0
 10
11.4940162356
 20
9.2161485665
 30
0.0
 10
11.4941540379
 20
9.2161521919
 30
0.0
 10
11.4943367059
 20
9.2161528623
 30
0.0
 10
11.4946568726
 20
9.2161559753
 30
0.0
 10
11.4951139934
 20
9.2161594084
 30
0.0
 10
11.4956626498
 20
9.2161639621
 30
0.0
 10
11.4963941528
 20
9.2161698822
 30
0.0
 10
11.4973085448
 20
9.2161773342
 30
0.0
 10
11.4987715645
 20
9.2161892283
 30
0.0
 10
11.5006003418
 20
9.216204106
 30
0.0
 10
11.5027948734
 20
9.2162219549
 30
0.0
 10
11.5049894052
 20
9.2162398049
 30
0.0
 10
11.5079154477
 20
9.2162636046
 30
0.0
 10
11.5115730007
 20
9.2162933543
 30
0.0
 10
11.5152305538
 20
9.216323104
 30
0.0
 10
11.5181565962
 20
9.2163469038
 30
0.0
 10
11.5203511281
 20
9.2163647534
 30
0.0
 10
11.5225456595
 20
9.2163826041
 30
0.0
 10
11.5243744374
 20
9.2163974761
 30
0.0
 10
11.5258374558
 20
9.2164093817
 30
0.0
 10
11.5267518513
 20
9.2164168046
 30
0.0
 10
11.527483347
 20
9.2164227843
 30
0.0
 10
11.5280320255
 20
9.216427156
 30
0.0
 10
11.5284890771
 20
9.2164311586
 30
0.0
 10
11.5288093674
 20
9.2164332549
 30
0.0
 10
11.5289918375
 20
9.2164355544
 30
0.0
 10
11.5291302474
 20
9.2164341757
 30
0.0
 10
11.5292627046
 20
9.2164446595
 30
0.0
 10
11.5294413906
 20
9.2164545002
 30
0.0
 10
11.5297531236
 20
9.2164736492
 30
0.0
 10
11.5301989622
 20
9.216499997
 30
0.0
 10
11.5307337521
 20
9.2165320458
 30
0.0
 10
11.5314468809
 20
9.2165746269
 30
0.0
 10
11.532338266
 20
9.2166279048
 30
0.0
 10
11.5337644966
 20
9.2167131207
 30
0.0
 10
11.5355472799
 20
9.2168196504
 30
0.0
 10
11.537686622
 20
9.2169474817
 30
0.0
 10
11.5398259636
 20
9.2170753143
 30
0.0
 10
11.5426784192
 20
9.2172457572
 30
0.0
 10
11.5462439886
 20
9.2174588111
 30
0.0
 10
11.549809558
 20
9.2176718649
 30
0.0
 10
11.5526620135
 20
9.217842308
 30
0.0
 10
11.5548013554
 20
9.21797014
 30
0.0
 10
11.5569406962
 20
9.2180979732
 30
0.0
 10
11.5587234835
 20
9.2182044973
 30
0.0
 10
11.560149706
 20
9.2182897246
 30
0.0
 10
11.5610411119
 20
9.2183429735
 30
0.0
 10
11.561754198
 20
9.218385614
 30
0.0
 10
11.5622891181
 20
9.2184174812
 30
0.0
 10
11.5627345494
 20
9.2184443973
 30
0.0
 10
11.5630470096
 20
9.2184625318
 30
0.0
 10
11.5632245303
 20
9.218473998
 30
0.0
 10
11.5633605668
 20
9.2184794887
 30
0.0
 10
11.5634855334
 20
9.2184968633
 30
0.0
 10
11.5636560168
 20
9.2185158841
 30
0.0
 10
11.5639525637
 20
9.218551102
 30
0.0
 10
11.5643771427
 20
9.2186004034
 30
0.0
 10
11.5648862349
 20
9.2186599974
 30
0.0
 10
11.5655651652
 20
9.218739305
 30
0.0
 10
11.5664137798
 20
9.2188384913
 30
0.0
 10
11.5677715902
 20
9.2189971604
 30
0.0
 10
11.5694688439
 20
9.2191955067
 30
0.0
 10
11.5715055523
 20
9.219433518
 30
0.0
 10
11.5735422596
 20
9.2196715304
 30
0.0
 10
11.5762578698
 20
9.2199888799
 30
0.0
 10
11.5796523824
 20
9.220385567
 30
0.0
 10
11.583046895
 20
9.2207822539
 30
0.0
 10
11.5857625051
 20
9.2210996035
 30
0.0
 10
11.5877992126
 20
9.2213376157
 30
0.0
 10
11.589496469
 20
9.2215359592
 30
0.0
 10
11.5908542739
 20
9.2216946341
 30
0.0
 10
11.591872628
 20
9.2218136401
 30
0.0
 10
11.5928909808
 20
9.2219326465
 30
0.0
 10
11.5937396121
 20
9.2220318171
 30
0.0
 10
11.5944185081
 20
9.2221111569
 30
0.0
 10
11.5948428387
 20
9.2221607367
 30
0.0
 10
11.5951822561
 20
9.2222004179
 30
0.0
 10
11.5954369482
 20
9.2222301311
 30
0.0
 10
11.5956487807
 20
9.2222550438
 30
0.0
 10
11.59579787
 20
9.2222721851
 30
0.0
 10
11.5958818046
 20
9.2222824448
 30
0.0
 10
11.595948303
 20
9.2222888305
 30
0.0
 10
11.5960012409
 20
9.2223002202
 30
0.0
 10
11.5960765549
 20
9.2223136611
 30
0.0
 10
11.5962061504
 20
9.2223379958
 30
0.0
 10
11.5963924392
 20
9.2223723345
 30
0.0
 10
11.5966154924
 20
9.2224137229
 30
0.0
 10
11.5969130691
 20
9.2224688439
 30
0.0
 10
11.5972849809
 20
9.2225377669
 30
0.0
 10
11.5978800728
 20
9.2226480315
 30
0.0
 10
11.5986239263
 20
9.2227858665
 30
0.0
 10
11.5995165554
 20
9.2229512667
 30
0.0
 10
11.6004091832
 20
9.2231166674
 30
0.0
 10
11.6015993541
 20
9.2233372014
 30
0.0
 10
11.6030870675
 20
9.223612869
 30
0.0
 10
11.6048723236
 20
9.2239436702
 30
0.0
 10
11.6072526652
 20
9.2243847383
 30
0.0
 10
11.6102280921
 20
9.2249360735
 30
0.0
 10
11.613203519
 20
9.2254874088
 30
0.0
 10
11.6155838605
 20
9.2259284769
 30
0.0
 10
11.6173691166
 20
9.2262592781
 30
0.0
 10
11.6188568301
 20
9.2265349456
 30
0.0
 10
11.6200470008
 20
9.2267554798
 30
0.0
 10
11.6209396292
 20
9.2269208802
 30
0.0
 10
11.6218322561
 20
9.2270862811
 30
0.0
 10
11.6225761164
 20
9.2272241139
 30
0.0
 10
11.6231711945
 20
9.2273343831
 30
0.0
 10
11.6235431414
 20
9.2274032945
 30
0.0
 10
11.623840646
 20
9.2274584393
 30
0.0
 10
11.6240639195
 20
9.227499755
 30
0.0
 10
11.6242495193
 20
9.2275343212
 30
0.0
 10
11.6243803446
 20
9.2275582498
 30
0.0
 10
11.6244536883
 20
9.2275723412
 30
0.0
 10
11.6245126782
 20
9.2275817325
 30
0.0
 10
11.6245564463
 20
9.227595624
 30
0.0
 10
11.6246201134
 20
9.2276125763
 30
0.0
 10
11.6247290569
 20
9.2276429742
 30
0.0
 10
11.6248859839
 20
9.2276860174
 30
0.0
 10
11.6250737427
 20
9.2277378329
 30
0.0
 10
11.6253242811
 20
9.2278068631
 30
0.0
 10
11.6256373879
 20
9.2278931704
 30
0.0
 10
11.6261383957
 20
9.2280312511
 30
0.0
 10
11.6267646429
 20
9.2282038557
 30
0.0
 10
11.6275161449
 20
9.2284109797
 30
0.0
 10
11.6282676454
 20
9.228618104
 30
0.0
 10
11.6292696467
 20
9.2288942697
 30
0.0
 10
11.630522148
 20
9.2292394769
 30
0.0
 10
11.6320251498
 20
9.2296537255
 30
0.0
 10
11.634029152
 20
9.230206057
 30
0.0
 10
11.6365341549
 20
9.2308964713
 30
0.0
 10
11.6390391577
 20
9.2315868856
 30
0.0
 10
11.64104316
 20
9.232139217
 30
0.0
 10
11.6425461617
 20
9.2325534656
 30
0.0
 10
11.6437986631
 20
9.2328986728
 30
0.0
 10
11.6448006643
 20
9.2331748385
 30
0.0
 10
11.6455521651
 20
9.2333819628
 30
0.0
 10
11.6461784158
 20
9.2335545664
 30
0.0
 10
11.6466794165
 20
9.2336926492
 30
0.0
 10
11.6470551664
 20
9.2337962115
 30
0.0
 10
11.6474309188
 20
9.2338997732
 30
0.0
 10
11.6477440381
 20
9.2339860762
 30
0.0
 10
11.6479945508
 20
9.2340551152
 30
0.0
 10
11.6481510819
 20
9.2340982724
 30
0.0
 10
11.6482763967
 20
9.2341327802
 30
0.0
 10
11.6483701368
 20
9.2341587101
 30
0.0
 10
11.6484490363
 20
9.2341801623
 30
0.0
 10
11.6485104001
 20
9.2341976741
 30
0.0
 10
11.6485612207
 20
9.2342098516
 30
0.0
 10
11.6485937282
 20
9.2342256793
 30
0.0
 10
11.6486434686
 20
9.2342455078
 30
0.0
 10
11.6487034493
 20
9.2342707309
 30
0.0
 10
11.6487763655
 20
9.2343008113
 30
0.0
 10
11.648873259
 20
9.234340984
 30
0.0
 10
11.6489944883
 20
9.2343911775
 30
0.0
 10
11.6491883923
 20
9.2344714995
 30
0.0
 10
11.6494307939
 20
9.2345718978
 30
0.0
 10
11.6497216665
 20
9.2346923775
 30
0.0
 10
11.6500125417
 20
9.2348128568
 30
0.0
 10
11.6504003743
 20
9.234973496
 30
0.0
 10
11.6508851654
 20
9.2351742949
 30
0.0
 10
11.6514669145
 20
9.2354152536
 30
0.0
 10
11.6522425802
 20
9.2357365319
 30
0.0
 10
11.6532121622
 20
9.2361381298
 30
0.0
 10
11.6543756606
 20
9.2366200472
 30
0.0
 10
11.6559269918
 20
9.2372626038
 30
0.0
 10
11.657478323
 20
9.2379051604
 30
0.0
 10
11.6590296542
 20
9.238547717
 30
0.0
 10
11.6601931526
 20
9.2390296345
 30
0.0
 10
11.661356651
 20
9.2395115519
 30
0.0
 10
11.6625201494
 20
9.2399934694
 30
0.0
 10
11.6634897314
 20
9.2403950673
 30
0.0
 10
11.664265397
 20
9.2407163456
 30
0.0
 10
11.6648471462
 20
9.2409573043
 30
0.0
 10
11.6653319372
 20
9.2411581032
 30
0.0
 10
11.6657197699
 20
9.2413187424
 30
0.0
 10
11.6660106448
 20
9.2414392217
 30
0.0
 10
11.6663015186
 20
9.2415597012
 30
0.0
 10
11.6665439165
 20
9.2416601003
 30
0.0
 10
11.666737828
 20
9.2417404206
 30
0.0
 10
11.6668590381
 20
9.2417906184
 30
0.0
 10
11.666955971
 20
9.2418307822
 30
0.0
 10
11.6670287668
 20
9.2418608899
 30
0.0
 10
11.6670891245
 20
9.2418860279
 30
0.0
 10
11.6671319741
 20
9.2419035297
 30
0.0
 10
11.6671555241
 20
9.2419136788
 30
0.0
 10
11.6671758219
 20
9.2419208735
 30
0.0
 10
11.6671860461
 20
9.2419296625
 30
0.0
 10
11.6672031921
 20
9.2419408251
 30
0.0
 10
11.6672315604
 20
9.2419606188
 30
0.0
 10
11.6672729426
 20
9.24198876
 30
0.0
 10
11.6673222348
 20
9.2420225874
 30
0.0
 10
11.6673880856
 20
9.2420676703
 30
0.0
 10
11.6674703554
 20
9.2421240309
 30
0.0
 10
11.6676020116
 20
9.2422142041
 30
0.0
 10
11.6677665734
 20
9.2423269218
 30
0.0
 10
11.6679640512
 20
9.2424621825
 30
0.0
 10
11.668161528
 20
9.2425974434
 30
0.0
 10
11.6684248307
 20
9.2427777911
 30
0.0
 10
11.6687539591
 20
9.2430032259
 30
0.0
 10
11.6691489131
 20
9.2432737475
 30
0.0
 10
11.6696755184
 20
9.2436344431
 30
0.0
 10
11.6703337751
 20
9.2440853125
 30
0.0
 10
11.6711236832
 20
9.2446263559
 30
0.0
 10
11.6719135912
 20
9.2451673992
 30
0.0
 10
11.6727034992
 20
9.2457084425
 30
0.0
 10
11.67375671
 20
9.2464298336
 30
0.0
 10
11.6750732233
 20
9.2473315725
 30
0.0
 10
11.6766530394
 20
9.2484136592
 30
0.0
 10
11.6782328555
 20
9.2494957458
 30
0.0
 10
11.6792860662
 20
9.2502171369
 30
0.0
 10
11.6798126716
 20
9.2505778325
 30
0.0
  0
SPLINE
  5
3F4
100
AcDbEntity
  8
0
100
AcDbSpline
 62
4
  6
CONTINUOUS
 70
0
 71
3
 72
517
 73
513
 74
0
 42
0.0000001
 43
0.0000001
 44
0.0000000001
 40
0.0
 40
0.0
 40
0.0
 40
0.0
 40
0.0078125
 40
0.015625
 40
0.0234375
 40
0.03125
 40
0.03515625
 40
0.0390625
 40
0.04296875
 40
0.046875
 40
0.05078125
 40
0.052734375
 40
0.0546875
 40
0.056640625
 40
0.0576171875
 40
0.05859375
 40
0.0595703125
 40
0.060546875
 40
0.0610351562
 40
0.0615234375
 40
0.0617675781
 40
0.0620117188
 40
0.0622558594
 40
0.0623779297
 40
0.0624389648
 40
0.0625
 40
0.0625610352
 40
0.0626220703
 40
0.0627441406
 40
0.0629882812
 40
0.0632324219
 40
0.0634765625
 40
0.0639648438
 40
0.064453125
 40
0.0654296875
 40
0.06640625
 40
0.0673828125
 40
0.068359375
 40
0.0703125
 40
0.072265625
 40
0.07421875
 40
0.078125
 40
0.08203125
 40
0.0859375
 40
0.08984375
 40
0.09375
 40
0.09765625
 40
0.1015625
 40
0.10546875
 40
0.109375
 40
0.11328125
 40
0.115234375
 40
0.1171875
 40
0.119140625
 40
0.1201171875
 40
0.12109375
 40
0.1220703125
 40
0.123046875
 40
0.1235351562
 40
0.1240234375
 40
0.1242675781
 40
0.1245117188
 40
0.1247558594
 40
0.1248779297
 40
0.1249389648
 40
0.125
 40
0.1250610352
 40
0.1251220703
 40
0.1252441406
 40
0.1254882812
 40
0.1257324219
 40
0.1259765625
 40
0.1264648438
 40
0.126953125
 40
0.1279296875
 40
0.12890625
 40
0.1298828125
 40
0.130859375
 40
0.1328125
 40
0.134765625
 40
0.13671875
 40
0.140625
 40
0.14453125
 40
0.1484375
 40
0.15234375
 40
0.15625
 40
0.16015625
 40
0.1640625
 40
0.16796875
 40
0.171875
 40
0.17578125
 40
0.177734375
 40
0.1796875
 40
0.181640625
 40
0.1826171875
 40
0.18359375
 40
0.1845703125
 40
0.185546875
 40
0.1860351562
 40
0.1865234375
 40
0.1867675781
 40
0.1870117188
 40
0.1872558594
 40
0.1873779297
 40
0.1874389648
 40
0.1875
 40
0.1875610352
 40
0.1876220703
 40
0.1877441406
 40
0.1879882812
 40
0.1882324219
 40
0.1884765625
 40
0.1889648438
 40
0.189453125
 40
0.1904296875
 40
0.19140625
 40
0.1923828125
 40
0.193359375
 40
0.1953125
 40
0.197265625
 40
0.19921875
 40
0.203125
 40
0.20703125
 40
0.2109375
 40
0.21484375
 40
0.21875
 40
0.2265625
 40
0.23046875
 40
0.234375
 40
0.23828125
 40
0.240234375
 40
0.2421875
 40
0.244140625
 40
0.2451171875
 40
0.24609375
 40
0.2470703125
 40
0.248046875
 40
0.2485351562
 40
0.2490234375
 40
0.2492675781
 40
0.2495117188
 40
0.2497558594
 40
0.2498779297
 40
0.2499389648
 40
0.25
 40
0.2500610352
 40
0.2501220703
 40
0.2502441406
 40
0.2504882812
 40
0.2507324219
 40
0.2509765625
 40
0.2514648438
 40
0.251953125
 40
0.2529296875
 40
0.25390625
 40
0.2548828125
 40
0.255859375
 40
0.2578125
 40
0.259765625
 40
0.26171875
 40
0.265625
 40
0.26953125
 40
0.2734375
 40
0.28125
 40
0.2890625
 40
0.29296875
 40
0.296875
 40
0.30078125
 40
0.302734375
 40
0.3046875
 40
0.306640625
 40
0.3076171875
 40
0.30859375
 40
0.3095703125
 40
0.310546875
 40
0.3110351562
 40
0.3115234375
 40
0.3117675781
 40
0.3120117188
 40
0.3122558594
 40
0.3123779297
 40
0.3125
 40
0.3126220703
 40
0.3127441406
 40
0.3129882812
 40
0.3132324219
 40
0.3134765625
 40
0.3139648438
 40
0.314453125
 40
0.3154296875
 40
0.31640625
 40
0.3173828125
 40
0.318359375
 40
0.3203125
 40
0.322265625
 40
0.32421875
 40
0.328125
 40
0.33203125
 40
0.3359375
 40
0.34375
 40
0.3515625
 40
0.35546875
 40
0.359375
 40
0.36328125
 40
0.365234375
 40
0.3671875
 40
0.369140625
 40
0.37109375
 40
0.3720703125
 40
0.373046875
 40
0.3735351562
 40
0.3740234375
 40
0.3745117188
 40
0.3747558594
 40
0.3748779297
 40
0.375
 40
0.3751220703
 40
0.3752441406
 40
0.3754882812
 40
0.3759765625
 40
0.3764648438
 40
0.376953125
 40
0.3779296875
 40
0.37890625
 40
0.380859375
 40
0.3828125
 40
0.384765625
 40
0.38671875
 40
0.390625
 40
0.39453125
 40
0.3984375
 40
0.40625
 40
0.4140625
 40
0.41796875
 40
0.421875
 40
0.42578125
 40
0.427734375
 40
0.4296875
 40
0.431640625
 40
0.43359375
 40
0.4345703125
 40
0.435546875
 40
0.4360351562
 40
0.4365234375
 40
0.4370117188
 40
0.4372558594
 40
0.4373779297
 40
0.4375
 40
0.4376220703
 40
0.4377441406
 40
0.4379882812
 40
0.4384765625
 40
0.4389648438
 40
0.439453125
 40
0.4404296875
 40
0.44140625
 40
0.443359375
 40
0.4453125
 40
0.447265625
 40
0.44921875
 40
0.453125
 40
0.45703125
 40
0.4609375
 40
0.46875
 40
0.4765625
 40
0.48046875
 40
0.484375
 40
0.48828125
 40
0.4921875
 40
0.494140625
 40
0.49609375
 40
0.4970703125
 40
0.498046875
 40
0.4990234375
 40
0.4995117188
 40
0.4997558594
 40
0.5
 40
0.5002441406
 40
0.5004882812
 40
0.5009765625
 40
0.501953125
 40
0.5029296875
 40
0.50390625
 40
0.505859375
 40
0.5078125
 40
0.51171875
 40
0.515625
 40
0.51953125
 40
0.5234375
 40
0.53125
 40
0.5390625
 40
0.54296875
 40
0.546875
 40
0.55078125
 40
0.5546875
 40
0.556640625
 40
0.55859375
 40
0.5595703125
 40
0.560546875
 40
0.5615234375
 40
0.5620117188
 40
0.5622558594
 40
0.5625
 40
0.5627441406
 40
0.5629882812
 40
0.5634765625
 40
0.564453125
 40
0.5654296875
 40
0.56640625
 40
0.568359375
 40
0.5703125
 40
0.57421875
 40
0.578125
 40
0.58203125
 40
0.5859375
 40
0.59375
 40
0.6015625
 40
0.60546875
 40
0.609375
 40
0.61328125
 40
0.6171875
 40
0.619140625
 40
0.62109375
 40
0.6220703125
 40
0.623046875
 40
0.6240234375
 40
0.6245117188
 40
0.6247558594
 40
0.625
 40
0.6252441406
 40
0.6254882812
 40
0.6259765625
 40
0.626953125
 40
0.6279296875
 40
0.62890625
 40
0.630859375
 40
0.6328125
 40
0.63671875
 40
0.640625
 40
0.64453125
 40
0.6484375
 40
0.65625
 40
0.6640625
 40
0.66796875
 40
0.671875
 40
0.67578125
 40
0.6796875
 40
0.681640625
 40
0.68359375
 40
0.6845703125
 40
0.685546875
 40
0.6865234375
 40
0.6870117188
 40
0.6872558594
 40
0.6875
 40
0.6877441406
 40
0.6879882812
 40
0.6884765625
 40
0.689453125
 40
0.6904296875
 40
0.69140625
 40
0.693359375
 40
0.6953125
 40
0.69921875
 40
0.703125
 40
0.70703125
 40
0.7109375
 40
0.71875
 40
0.7265625
 40
0.73046875
 40
0.734375
 40
0.73828125
 40
0.740234375
 40
0.7421875
 40
0.744140625
 40
0.74609375
 40
0.7470703125
 40
0.748046875
 40
0.7485351562
 40
0.7490234375
 40
0.7495117188
 40
0.7497558594
 40
0.7498779297
 40
0.75
 40
0.7501220703
 40
0.7502441406
 40
0.7504882812
 40
0.7509765625
 40
0.7514648438
 40
0.751953125
 40
0.7529296875
 40
0.75390625
 40
0.755859375
 40
0.7578125
 40
0.759765625
 40
0.76171875
 40
0.765625
 40
0.76953125
 40
0.7734375
 40
0.78125
 40
0.7890625
 40
0.79296875
 40
0.796875
 40
0.80078125
 40
0.802734375
 40
0.8046875
 40
0.806640625
 40
0.80859375
 40
0.8095703125
 40
0.810546875
 40
0.8110351562
 40
0.8115234375
 40
0.8120117188
 40
0.8122558594
 40
0.8123779297
 40
0.8125
 40
0.8126220703
 40
0.8127441406
 40
0.8129882812
 40
0.8134765625
 40
0.8139648438
 40
0.814453125
 40
0.8154296875
 40
0.81640625
 40
0.818359375
 40
0.8203125
 40
0.822265625
 40
0.82421875
 40
0.828125
 40
0.83203125
 40
0.8359375
 40
0.84375
 40
0.8515625
 40
0.85546875
 40
0.859375
 40
0.86328125
 40
0.865234375
 40
0.8671875
 40
0.869140625
 40
0.8701171875
 40
0.87109375
 40
0.8720703125
 40
0.873046875
 40
0.8735351562
 40
0.8740234375
 40
0.8742675781
 40
0.8745117188
 40
0.8747558594
 40
0.8748779297
 40
0.875
 40
0.8751220703
 40
0.8752441406
 40
0.8754882812
 40
0.8757324219
 40
0.8759765625
 40
0.8764648438
 40
0.876953125
 40
0.8779296875
 40
0.87890625
 40
0.8798828125
 40
0.880859375
 40
0.8828125
 40
0.884765625
 40
0.88671875
 40
0.890625
 40
0.89453125
 40
0.8984375
 40
0.90625
 40
0.91015625
 40
0.9140625
 40
0.91796875
 40
0.921875
 40
0.92578125
 40
0.927734375
 40
0.9296875
 40
0.931640625
 40
0.9326171875
 40
0.93359375
 40
0.9345703125
 40
0.935546875
 40
0.9360351562
 40
0.9365234375
 40
0.9367675781
 40
0.9370117188
 40
0.9372558594
 40
0.9373779297
 40
0.9374389648
 40
0.9375
 40
0.9375610352
 40
0.9376220703
 40
0.9377441406
 40
0.9379882812
 40
0.9382324219
 40
0.9384765625
 40
0.9389648438
 40
0.939453125
 40
0.9404296875
 40
0.94140625
 40
0.9423828125
 40
0.943359375
 40
0.9453125
 40
0.947265625
 40
0.94921875
 40
0.953125
 40
0.95703125
 40
0.9609375
 40
0.96484375
 40
0.96875
 40
0.9765625
 40
0.984375
 40
0.9921875
 40
1.0
 40
1.0
 40
1.0
 40
1.0
 10
11.6798126675
 20
9.2505778286
 30
0.0
 10
11.6800517345
 20
9.2509515859
 30
0.0
 10
11.6805298685
 20
9.2516991006
 30
0.0
 10
11.6812470695
 20
9.2528203726
 30
0.0
 10
11.6819642704
 20
9.2539416446
 30
0.0
 10
11.6825619379
 20
9.2548760379
 30
0.0
 10
11.6830400719
 20
9.2556235526
 30
0.0
 10
11.6833986724
 20
9.2561841886
 30
0.0
 10
11.6837572729
 20
9.2567448246
 30
0.0
 10
11.6841158734
 20
9.2573054606
 30
0.0
 10
11.6844147072
 20
9.2577726572
 30
0.0
 10
11.6846537742
 20
9.2581464146
 30
0.0
 10
11.6848330744
 20
9.2584267326
 30
0.0
 10
11.6849824913
 20
9.2586603309
 30
0.0
 10
11.6851020247
 20
9.2588472096
 30
0.0
 10
11.6851916751
 20
9.2589873686
 30
0.0
 10
11.6852813243
 20
9.2591275276
 30
0.0
 10
11.6853560355
 20
9.2592443267
 30
0.0
 10
11.6854157967
 20
9.2593377661
 30
0.0
 10
11.685453165
 20
9.2593961655
 30
0.0
 10
11.6854830195
 20
9.2594428856
 30
0.0
 10
11.6855055202
 20
9.2594779239
 30
0.0
 10
11.6855239214
 20
9.2595071284
 30
0.0
 10
11.6855374879
 20
9.2595275598
 30
0.0
 10
11.6855441696
 20
9.2595392533
 30
0.0
 10
11.6855521969
 20
9.2595479716
 30
0.0
 10
11.6855486951
 20
9.259556888
 30
0.0
 10
11.6855480475
 20
9.2595687075
 30
0.0
 10
11.6855450405
 20
9.2595894238
 30
0.0
 10
11.6855417245
 20
9.2596190017
 30
0.0
 10
11.6855373259
 20
9.2596545023
 30
0.0
 10
11.6855316075
 20
9.259701834
 30
0.0
 10
11.6855244095
 20
9.2597609995
 30
0.0
 10
11.6855129206
 20
9.2598556637
 30
0.0
 10
11.6854985499
 20
9.2599739942
 30
0.0
 10
11.6854813091
 20
9.2601159907
 30
0.0
 10
11.6854640673
 20
9.2602579873
 30
0.0
 10
11.6854410786
 20
9.260447316
 30
0.0
 10
11.6854123425
 20
9.2606839769
 30
0.0
 10
11.6853778593
 20
9.26096797
 30
0.0
 10
11.6853318817
 20
9.2613466274
 30
0.0
 10
11.6852744097
 20
9.2618199492
 30
0.0
 10
11.6852054432
 20
9.2623879354
 30
0.0
 10
11.6851364768
 20
9.2629559216
 30
0.0
 10
11.6850675104
 20
9.2635239077
 30
0.0
 10
11.684998544
 20
9.2640918939
 30
0.0
 10
11.6849295775
 20
9.26465988
 30
0.0
 10
11.6848606111
 20
9.2652278662
 30
0.0
 10
11.6847916447
 20
9.2657958524
 30
0.0
 10
11.6847226783
 20
9.2663638385
 30
0.0
 10
11.6846652062
 20
9.2668371603
 30
0.0
 10
11.6846192286
 20
9.2672158178
 30
0.0
 10
11.6845847454
 20
9.2674998109
 30
0.0
 10
11.6845560094
 20
9.2677364718
 30
0.0
 10
11.6845330205
 20
9.2679258005
 30
0.0
 10
11.6845157792
 20
9.268067797
 30
0.0
 10
11.6844985367
 20
9.2682097935
 30
0.0
 10
11.6844841714
 20
9.2683281241
 30
0.0
 10
11.6844726715
 20
9.2684227883
 30
0.0
 10
11.6844655015
 20
9.268481954
 30
0.0
 10
11.6844597256
 20
9.2685292852
 30
0.0
 10
11.6844555028
 20
9.2685647873
 30
0.0
 10
11.6844516366
 20
9.2685943606
 30
0.0
 10
11.6844496117
 20
9.2686150849
 30
0.0
 10
11.6844473906
 20
9.2686268916
 30
0.0
 10
11.6844487223
 20
9.2686358474
 30
0.0
 10
11.6844385957
 20
9.268644418
 30
0.0
 10
11.6844290903
 20
9.2686559798
 30
0.0
 10
11.6844105938
 20
9.2686761504
 30
0.0
 10
11.6843851437
 20
9.2687049983
 30
0.0
 10
11.6843541869
 20
9.2687396017
 30
0.0
 10
11.6843130567
 20
9.2687857445
 30
0.0
 10
11.6842615942
 20
9.2688434213
 30
0.0
 10
11.6841792819
 20
9.2689357051
 30
0.0
 10
11.684076382
 20
9.2690510596
 30
0.0
 10
11.6839529063
 20
9.2691894851
 30
0.0
 10
11.6838294295
 20
9.2693279106
 30
0.0
 10
11.6836647941
 20
9.2695124779
 30
0.0
 10
11.6834589997
 20
9.269743187
 30
0.0
 10
11.6832120465
 20
9.270020038
 30
0.0
 10
11.6828827755
 20
9.2703891726
 30
0.0
 10
11.6824711868
 20
9.2708505908
 30
0.0
 10
11.6819772804
 20
9.2714042927
 30
0.0
 10
11.6814833739
 20
9.2719579946
 30
0.0
 10
11.6809894675
 20
9.2725116965
 30
0.0
 10
11.6804955611
 20
9.2730653985
 30
0.0
 10
11.6800016546
 20
9.2736191004
 30
0.0
 10
11.6795077482
 20
9.2741728023
 30
0.0
 10
11.6790138417
 20
9.2747265042
 30
0.0
 10
11.6785199353
 20
9.2752802061
 30
0.0
 10
11.6781083466
 20
9.2757416243
 30
0.0
 10
11.6777790757
 20
9.276110759
 30
0.0
 10
11.6775321224
 20
9.2763876099
 30
0.0
 10
11.6773263281
 20
9.276618319
 30
0.0
 10
11.6771616926
 20
9.2768028863
 30
0.0
 10
11.6770382162
 20
9.2769413118
 30
0.0
 10
11.6769147387
 20
9.2770797372
 30
0.0
 10
11.6768118442
 20
9.277195092
 30
0.0
 10
11.676729521
 20
9.2772873753
 30
0.0
 10
11.6766780864
 20
9.2773450534
 30
0.0
 10
11.6766368988
 20
9.2773911935
 30
0.0
 10
11.6766061174
 20
9.2774258053
 30
0.0
 10
11.6765801184
 20
9.2774546268
 30
0.0
 10
11.6765626018
 20
9.2774748445
 30
0.0
 10
11.6765515264
 20
9.2774863309
 30
0.0
 10
11.6765462227
 20
9.2774951331
 30
0.0
 10
11.6765294402
 20
9.277503219
 30
0.0
 10
11.6765110674
 20
9.2775142501
 30
0.0
 10
11.6764770496
 20
9.2775334381
 30
0.0
 10
11.676429428
 20
9.2775609103
 30
0.0
 10
11.6763718646
 20
9.277593851
 30
0.0
 10
11.6762952592
 20
9.277637781
 30
0.0
 10
11.6761994526
 20
9.2776926904
 30
0.0
 10
11.6760461899
 20
9.2777805471
 30
0.0
 10
11.6758546019
 20
9.2778903674
 30
0.0
 10
11.6756247005
 20
9.278022152
 30
0.0
 10
11.6753947979
 20
9.2781539366
 30
0.0
 10
11.6750882616
 20
9.2783296493
 30
0.0
 10
11.674705091
 20
9.2785492903
 30
0.0
 10
11.6742452864
 20
9.2788128594
 30
0.0
 10
11.6736322135
 20
9.2791642849
 30
0.0
 10
11.6728658725
 20
9.2796035668
 30
0.0
 10
11.6719462632
 20
9.2801307051
 30
0.0
 10
11.6710266539
 20
9.2806578434
 30
0.0
 10
11.6701070447
 20
9.2811849816
 30
0.0
 10
11.668880899
 20
9.2818878327
 30
0.0
 10
11.6676547533
 20
9.2825906837
 30
0.0
 10
11.6664286076
 20
9.2832935347
 30
0.0
 10
11.6655089983
 20
9.283820673
 30
0.0
 10
11.6647426573
 20
9.2842599549
 30
0.0
 10
11.6641295844
 20
9.2846113804
 30
0.0
 10
11.6636697798
 20
9.2848749495
 30
0.0
 10
11.6632866093
 20
9.2850945905
 30
0.0
 10
11.6629800728
 20
9.2852703032
 30
0.0
 10
11.6627501707
 20
9.2854020878
 30
0.0
 10
11.6625202676
 20
9.2855338723
 30
0.0
 10
11.6623286846
 20
9.2856436932
 30
0.0
 10
11.6621754118
 20
9.2857315487
 30
0.0
 10
11.6620796309
 20
9.2857864611
 30
0.0
 10
11.6620029726
 20
9.2858303849
 30
0.0
 10
11.661945571
 20
9.2858633444
 30
0.0
 10
11.6618974433
 20
9.2858907576
 30
0.0
 10
11.6618643289
 20
9.2859100511
 30
0.0
 10
11.6618445086
 20
9.285920913
 30
0.0
 10
11.6618321724
 20
9.2859295186
 30
0.0
 10
11.6618101691
 20
9.2859363692
 30
0.0
 10
11.6617842034
 20
9.2859461156
 30
0.0
 10
11.6617371923
 20
9.2859628864
 30
0.0
 10
11.661670855
 20
9.285986994
 30
0.0
 10
11.6615908987
 20
9.2860158592
 30
0.0
 10
11.661484413
 20
9.2860543684
 30
0.0
 10
11.6613512639
 20
9.2861024973
 30
0.0
 10
11.6611382488
 20
9.2861795078
 30
0.0
 10
11.6608719718
 20
9.2862757694
 30
0.0
 10
11.6605524429
 20
9.286391284
 30
0.0
 10
11.6602329131
 20
9.2865067985
 30
0.0
 10
11.6598068737
 20
9.2866608178
 30
0.0
 10
11.6592743243
 20
9.2868533419
 30
0.0
 10
11.6586352651
 20
9.2870843709
 30
0.0
 10
11.6577831861
 20
9.2873924095
 30
0.0
 10
11.6567180874
 20
9.2877774577
 30
0.0
 10
11.6554399689
 20
9.2882395156
 30
0.0
 10
11.653735811
 20
9.2888555928
 30
0.0
 10
11.6516056135
 20
9.2896256894
 30
0.0
 10
11.6494754161
 20
9.2903957859
 30
0.0
 10
11.6477712581
 20
9.2910118631
 30
0.0
 10
11.6464931397
 20
9.291473921
 30
0.0
 10
11.645428041
 20
9.2918589693
 30
0.0
 10
11.644575962
 20
9.2921670079
 30
0.0
 10
11.6439369028
 20
9.2923980368
 30
0.0
 10
11.6434043533
 20
9.2925905609
 30
0.0
 10
11.642978314
 20
9.2927445803
 30
0.0
 10
11.6426587839
 20
9.2928600946
 30
0.0
 10
11.6423392561
 20
9.2929756095
 30
0.0
 10
11.6420729757
 20
9.2930718703
 30
0.0
 10
11.6418599677
 20
9.2931488826
 30
0.0
 10
11.6417268005
 20
9.2931970069
 30
0.0
 10
11.641620352
 20
9.2932355256
 30
0.0
 10
11.641540282
 20
9.2932643617
 30
0.0
 10
11.6414743004
 20
9.2932885602
 30
0.0
 10
11.6414198477
 20
9.2933075413
 30
0.0
 10
11.6413835644
 20
9.2933228094
 30
0.0
 10
11.6413298897
 20
9.293334137
 30
0.0
 10
11.6412643986
 20
9.2933506169
 30
0.0
 10
11.6411804503
 20
9.2933707446
 30
0.0
 10
11.6410806045
 20
9.2933950999
 30
0.0
 10
11.6409471651
 20
9.2934275031
 30
0.0
 10
11.6407804727
 20
9.2934680312
 30
0.0
 10
11.6405137051
 20
9.2935328628
 30
0.0
 10
11.6401802661
 20
9.2936139068
 30
0.0
 10
11.6397801305
 20
9.2937111577
 30
0.0
 10
11.6393799972
 20
9.2938084091
 30
0.0
 10
11.6388464854
 20
9.2939380774
 30
0.0
 10
11.6381795959
 20
9.2941001629
 30
0.0
 10
11.6373793284
 20
9.2942946655
 30
0.0
 10
11.6363123051
 20
9.2945540023
 30
0.0
 10
11.634978526
 20
9.2948781732
 30
0.0
 10
11.633377991
 20
9.2952671784
 30
0.0
 10
11.6312439444
 20
9.2957858519
 30
0.0
 10
11.6285763861
 20
9.2964341938
 30
0.0
 10
11.6259088279
 20
9.2970825357
 30
0.0
 10
11.6237747812
 20
9.2976012092
 30
0.0
 10
11.6221742463
 20
9.2979902144
 30
0.0
 10
11.6208404672
 20
9.2983143853
 30
0.0
 10
11.6197734438
 20
9.2985737221
 30
0.0
 10
11.6189731766
 20
9.2987682247
 30
0.0
 10
11.618172908
 20
9.298962727
 30
0.0
 10
11.6175060218
 20
9.2991248135
 30
0.0
 10
11.6169725034
 20
9.2992544797
 30
0.0
 10
11.6166390758
 20
9.2993355282
 30
0.0
 10
11.6163722846
 20
9.2994003505
 30
0.0
 10
11.6161723256
 20
9.2994490124
 30
0.0
 10
11.6160052658
 20
9.2994894204
 30
0.0
 10
11.6158891625
 20
9.2995179878
 30
0.0
 10
11.6158215084
 20
9.2995338719
 30
0.0
 10
11.6157744564
 20
9.2995470248
 30
0.0
 10
11.6157133045
 20
9.2995554388
 30
0.0
 10
11.6156366869
 20
9.2995683105
 30
0.0
 10
11.6155003146
 20
9.2995900658
 30
0.0
 10
11.615306695
 20
9.2996215475
 30
0.0
 10
11.6150738387
 20
9.2996591532
 30
0.0
 10
11.6147635427
 20
9.2997093543
 30
0.0
 10
11.6143756114
 20
9.299772085
 30
0.0
 10
11.6137549557
 20
9.2998724657
 30
0.0
 10
11.6129791242
 20
9.2999979376
 30
0.0
 10
11.6120481315
 20
9.3001485056
 30
0.0
 10
11.6111171374
 20
9.3002990732
 30
0.0
 10
11.6098758124
 20
9.3004998301
 30
0.0
 10
11.6083241561
 20
9.3007507761
 30
0.0
 10
11.6064621685
 20
9.3010519114
 30
0.0
 10
11.6039795184
 20
9.3014534252
 30
0.0
 10
11.6008762057
 20
9.3019553173
 30
0.0
 10
11.5977728931
 20
9.3024572095
 30
0.0
 10
11.595290243
 20
9.3028587232
 30
0.0
 10
11.5934282554
 20
9.3031598585
 30
0.0
 10
11.5918765991
 20
9.3034108046
 30
0.0
 10
11.590635274
 20
9.3036115614
 30
0.0
 10
11.5897042804
 20
9.3037621292
 30
0.0
 10
11.5887732857
 20
9.3039126965
 30
0.0
 10
11.5879974604
 20
9.3040381707
 30
0.0
 10
11.587376792
 20
9.3041385467
 30
0.0
 10
11.5869888929
 20
9.3042012895
 30
0.0
 10
11.5866785308
 20
9.3042514657
 30
0.0
 10
11.5864458766
 20
9.3042891475
 30
0.0
 10
11.5862516247
 20
9.304320391
 30
0.0
 10
11.5861163812
 20
9.3043425715
 30
0.0
 10
11.586037955
 20
9.3043547619
 30
0.0
 10
11.5859823584
 20
9.3043652688
 30
0.0
 10
11.5859144419
 20
9.3043705612
 30
0.0
 10
11.5858281839
 20
9.3043794366
 30
0.0
 10
11.5856752303
 20
9.3043941211
 30
0.0
 10
11.5854577718
 20
9.3044155421
 30
0.0
 10
11.5851963736
 20
9.3044410576
 30
0.0
 10
11.5848479992
 20
9.3044751445
 30
0.0
 10
11.5844124775
 20
9.3045177304
 30
0.0
 10
11.5837156729
 20
9.3045858806
 30
0.0
 10
11.5828446568
 20
9.3046710639
 30
0.0
 10
11.5817994419
 20
9.3047732858
 30
0.0
 10
11.5807542258
 20
9.3048755072
 30
0.0
 10
11.5793606048
 20
9.3050118026
 30
0.0
 10
11.5776185783
 20
9.3051821717
 30
0.0
 10
11.5755281466
 20
9.3053866148
 30
0.0
 10
11.5727409044
 20
9.3056592054
 30
0.0
 10
11.5692568516
 20
9.3059999438
 30
0.0
 10
11.5657727988
 20
9.3063406822
 30
0.0
 10
11.5629855565
 20
9.3066132728
 30
0.0
 10
11.560895125
 20
9.306817716
 30
0.0
 10
11.5588046927
 20
9.3070221581
 30
0.0
 10
11.5570626682
 20
9.3071925301
 30
0.0
 10
11.5556690432
 20
9.3073288197
 30
0.0
 10
11.5547980399
 20
9.307414019
 30
0.0
 10
11.5541012089
 20
9.3074821365
 30
0.0
 10
11.5535786635
 20
9.3075333393
 30
0.0
 10
11.5531429614
 20
9.3075756435
 30
0.0
 10
11.5528384557
 20
9.3076059725
 30
0.0
 10
11.5526636941
 20
9.3076221852
 30
0.0
 10
11.552534759
 20
9.3076374946
 30
0.0
 10
11.5523976588
 20
9.3076407637
 30
0.0
 10
11.5522177067
 20
9.3076493223
 30
0.0
 10
11.5519014634
 20
9.307662343
 30
0.0
 10
11.5514503811
 20
9.3076819671
 30
0.0
 10
11.5509087854
 20
9.3077050782
 30
0.0
 10
11.5501867616
 20
9.3077360458
 30
0.0
 10
11.5492841962
 20
9.307774703
 30
0.0
 10
11.5478401115
 20
9.3078365838
 30
0.0
 10
11.5460349988
 20
9.3079139248
 30
0.0
 10
11.5438688664
 20
9.3080067383
 30
0.0
 10
11.5417027333
 20
9.3080995506
 30
0.0
 10
11.5388145561
 20
9.3082233008
 30
0.0
 10
11.5352043345
 20
9.3083779883
 30
0.0
 10
11.5315941129
 20
9.308532676
 30
0.0
 10
11.5287059356
 20
9.308656426
 30
0.0
 10
11.5265398027
 20
9.3087492388
 30
0.0
 10
11.5243736695
 20
9.3088420504
 30
0.0
 10
11.5225685594
 20
9.308919397
 30
0.0
 10
11.5211244693
 20
9.3089812664
 30
0.0
 10
11.5202219177
 20
9.3090199528
 30
0.0
 10
11.5194998657
 20
9.3090508605
 30
0.0
 10
11.5189583559
 20
9.3090741549
 30
0.0
 10
11.5185070048
 20
9.3090932052
 30
0.0
 10
11.5181912413
 20
9.3091072503
 30
0.0
 10
11.5180105206
 20
9.3091141676
 30
0.0
 10
11.5178757813
 20
9.3091224781
 30
0.0
 10
11.517737979
 20
9.3091188528
 30
0.0
 10
11.517555311
 20
9.3091181824
 30
0.0
 10
11.5172351443
 20
9.3091150693
 30
0.0
 10
11.5167780235
 20
9.3091116363
 30
0.0
 10
11.5162293671
 20
9.3091070825
 30
0.0
 10
11.5154978641
 20
9.3091011625
 30
0.0
 10
11.5145834721
 20
9.3090937105
 30
0.0
 10
11.5131204524
 20
9.3090818163
 30
0.0
 10
11.5112916751
 20
9.3090669387
 30
0.0
 10
11.5090971436
 20
9.3090490898
 30
0.0
 10
11.5069026117
 20
9.3090312397
 30
0.0
 10
11.5039765693
 20
9.3090074401
 30
0.0
 10
11.5003190162
 20
9.3089776903
 30
0.0
 10
11.4966614631
 20
9.3089479407
 30
0.0
 10
11.4937354207
 20
9.3089241409
 30
0.0
 10
11.4915408888
 20
9.3089062913
 30
0.0
 10
11.4893463574
 20
9.3088884406
 30
0.0
 10
11.4875175795
 20
9.3088735685
 30
0.0
 10
11.4860545611
 20
9.308861663
 30
0.0
 10
11.4851401656
 20
9.30885424
 30
0.0
 10
11.4844086699
 20
9.3088482604
 30
0.0
 10
11.4838599914
 20
9.3088438887
 30
0.0
 10
11.4834029398
 20
9.3088398861
 30
0.0
 10
11.4830826495
 20
9.3088377898
 30
0.0
 10
11.4829001794
 20
9.3088354903
 30
0.0
 10
11.4827617695
 20
9.308836869
 30
0.0
 10
11.4826293123
 20
9.3088263851
 30
0.0
 10
11.4824506263
 20
9.3088165445
 30
0.0
 10
11.4821388933
 20
9.3087973955
 30
0.0
 10
11.4816930547
 20
9.3087710476
 30
0.0
 10
11.4811582648
 20
9.3087389988
 30
0.0
 10
11.480445136
 20
9.3086964178
 30
0.0
 10
11.4795537509
 20
9.3086431398
 30
0.0
 10
11.4781275203
 20
9.308557924
 30
0.0
 10
11.476344737
 20
9.3084513943
 30
0.0
 10
11.4742053949
 20
9.3083235629
 30
0.0
 10
11.4720660533
 20
9.3081957304
 30
0.0
 10
11.4692135977
 20
9.3080252874
 30
0.0
 10
11.4656480283
 20
9.3078122336
 30
0.0
 10
11.4620824589
 20
9.3075991798
 30
0.0
 10
11.4592300034
 20
9.3074287367
 30
0.0
 10
11.4570906615
 20
9.3073009046
 30
0.0
 10
11.4549513207
 20
9.3071730714
 30
0.0
 10
11.4531685334
 20
9.3070665473
 30
0.0
 10
11.4517423109
 20
9.3069813201
 30
0.0
 10
11.450850905
 20
9.3069280711
 30
0.0
 10
11.4501378189
 20
9.3068854306
 30
0.0
 10
11.4496028988
 20
9.3068535635
 30
0.0
 10
11.4491574675
 20
9.3068266473
 30
0.0
 10
11.4488450073
 20
9.3068085128
 30
0.0
 10
11.4486674866
 20
9.3067970466
 30
0.0
 10
11.4485314501
 20
9.3067915559
 30
0.0
 10
11.4484064835
 20
9.3067741814
 30
0.0
 10
11.4482360001
 20
9.3067551605
 30
0.0
 10
11.4479394532
 20
9.3067199427
 30
0.0
 10
11.4475148742
 20
9.3066706412
 30
0.0
 10
11.447005782
 20
9.3066110473
 30
0.0
 10
11.4463268517
 20
9.3065317396
 30
0.0
 10
11.4454782371
 20
9.3064325534
 30
0.0
 10
11.4441204267
 20
9.3062738843
 30
0.0
 10
11.442423173
 20
9.306075538
 30
0.0
 10
11.4403864646
 20
9.3058375267
 30
0.0
 10
11.4383497573
 20
9.3055995142
 30
0.0
 10
11.4356341471
 20
9.3052821647
 30
0.0
 10
11.4322396345
 20
9.3048854777
 30
0.0
 10
11.4288451219
 20
9.3044887907
 30
0.0
 10
11.4261295118
 20
9.3041714411
 30
0.0
 10
11.4240928043
 20
9.3039334289
 30
0.0
 10
11.4223955479
 20
9.3037350854
 30
0.0
 10
11.421037743
 20
9.3035764106
 30
0.0
 10
11.4200193889
 20
9.3034574046
 30
0.0
 10
11.4190010361
 20
9.3033383981
 30
0.0
 10
11.4181524048
 20
9.3032392276
 30
0.0
 10
11.4174735088
 20
9.3031598878
 30
0.0
 10
11.4170491782
 20
9.303110308
 30
0.0
 10
11.4167097609
 20
9.3030706268
 30
0.0
 10
11.4164550687
 20
9.3030409135
 30
0.0
 10
11.4162432362
 20
9.3030160008
 30
0.0
 10
11.4160941469
 20
9.3029988595
 30
0.0
 10
11.4160102124
 20
9.3029885998
 30
0.0
 10
11.4159437139
 20
9.3029822141
 30
0.0
 10
11.415890776
 20
9.3029708244
 30
0.0
 10
11.415815462
 20
9.3029573836
 30
0.0
 10
11.4156858665
 20
9.3029330489
 30
0.0
 10
11.4154995777
 20
9.3028987102
 30
0.0
 10
11.4152765245
 20
9.3028573218
 30
0.0
 10
11.4149789478
 20
9.3028022008
 30
0.0
 10
11.414607036
 20
9.3027332778
 30
0.0
 10
11.4140119441
 20
9.3026230131
 30
0.0
 10
11.4132680906
 20
9.3024851781
 30
0.0
 10
11.4123754615
 20
9.302319778
 30
0.0
 10
11.4114828337
 20
9.3021543773
 30
0.0
 10
11.4102926628
 20
9.3019338432
 30
0.0
 10
11.4088049494
 20
9.3016581756
 30
0.0
 10
11.4070196933
 20
9.3013273745
 30
0.0
 10
11.4046393517
 20
9.3008863063
 30
0.0
 10
11.4016639248
 20
9.3003349711
 30
0.0
 10
11.3986884979
 20
9.2997836359
 30
0.0
 10
11.3963081564
 20
9.2993425677
 30
0.0
 10
11.3945229003
 20
9.2990117666
 30
0.0
 10
11.3930351868
 20
9.298736099
 30
0.0
 10
11.3918450161
 20
9.2985155649
 30
0.0
 10
11.3909523877
 20
9.2983501644
 30
0.0
 10
11.3900597608
 20
9.2981847635
 30
0.0
 10
11.3893159005
 20
9.2980469308
 30
0.0
 10
11.3887208224
 20
9.2979366616
 30
0.0
 10
11.3883488755
 20
9.2978677502
 30
0.0
 10
11.3880513709
 20
9.2978126054
 30
0.0
 10
11.3878280975
 20
9.2977712897
 30
0.0
 10
11.3876424976
 20
9.2977367235
 30
0.0
 10
11.3875116723
 20
9.2977127949
 30
0.0
 10
11.3874383286
 20
9.2976987034
 30
0.0
 10
11.3873793387
 20
9.2976893121
 30
0.0
 10
11.3873355706
 20
9.2976754206
 30
0.0
 10
11.3872719035
 20
9.2976584683
 30
0.0
 10
11.38716296
 20
9.2976280704
 30
0.0
 10
11.387006033
 20
9.2975850272
 30
0.0
 10
11.3868182742
 20
9.2975332117
 30
0.0
 10
11.3865677358
 20
9.2974641816
 30
0.0
 10
11.386254629
 20
9.2973778743
 30
0.0
 10
11.3857536212
 20
9.2972397936
 30
0.0
 10
11.385127374
 20
9.2970671889
 30
0.0
 10
11.384375872
 20
9.296860065
 30
0.0
 10
11.3836243715
 20
9.2966529406
 30
0.0
 10
11.3826223702
 20
9.2963767749
 30
0.0
 10
11.3813698689
 20
9.2960315677
 30
0.0
 10
11.3798668671
 20
9.2956173192
 30
0.0
 10
11.3778628649
 20
9.2950649877
 30
0.0
 10
11.375357862
 20
9.2943745734
 30
0.0
 10
11.3728528592
 20
9.2936841591
 30
0.0
 10
11.3708488569
 20
9.2931318276
 30
0.0
 10
11.3693458552
 20
9.292717579
 30
0.0
 10
11.3680933538
 20
9.2923723719
 30
0.0
 10
11.3670913526
 20
9.2920962061
 30
0.0
 10
11.3663398518
 20
9.2918890819
 30
0.0
 10
11.3657136011
 20
9.2917164783
 30
0.0
 10
11.3652126004
 20
9.2915783954
 30
0.0
 10
11.3648368505
 20
9.2914748332
 30
0.0
 10
11.3644610981
 20
9.2913712714
 30
0.0
 10
11.3641479788
 20
9.2912849684
 30
0.0
 10
11.3638974662
 20
9.2912159295
 30
0.0
 10
11.363740935
 20
9.2911727723
 30
0.0
 10
11.3636156202
 20
9.2911382645
 30
0.0
 10
11.3635218801
 20
9.2911123345
 30
0.0
 10
11.3634429806
 20
9.2910908823
 30
0.0
 10
11.3633816168
 20
9.2910733706
 30
0.0
 10
11.3633307962
 20
9.291061193
 30
0.0
 10
11.3632982887
 20
9.2910453654
 30
0.0
 10
11.3632485483
 20
9.2910255369
 30
0.0
 10
11.3631885676
 20
9.2910003138
 30
0.0
 10
11.3631156514
 20
9.2909702333
 30
0.0
 10
11.3630187579
 20
9.2909300606
 30
0.0
 10
11.3628975286
 20
9.2908798672
 30
0.0
 10
11.3627036246
 20
9.2907995451
 30
0.0
 10
11.362461223
 20
9.2906991469
 30
0.0
 10
11.3621703504
 20
9.2905786671
 30
0.0
 10
11.3618794753
 20
9.2904581879
 30
0.0
 10
11.3614916426
 20
9.2902975487
 30
0.0
 10
11.3610068515
 20
9.2900967498
 30
0.0
 10
11.3604251024
 20
9.289855791
 30
0.0
 10
11.3596494367
 20
9.2895345127
 30
0.0
 10
11.3586798548
 20
9.2891329149
 30
0.0
 10
11.3575163563
 20
9.2886509974
 30
0.0
 10
11.3559650251
 20
9.2880084408
 30
0.0
 10
11.3544136939
 20
9.2873658842
 30
0.0
 10
11.3528623627
 20
9.2867233276
 30
0.0
 10
11.3516988643
 20
9.2862414102
 30
0.0
 10
11.3505353659
 20
9.2857594927
 30
0.0
 10
11.3493718675
 20
9.2852775753
 30
0.0
 10
11.3484022855
 20
9.2848759774
 30
0.0
 10
11.3476266199
 20
9.2845546991
 30
0.0
 10
11.3470448707
 20
9.2843137404
 30
0.0
 10
11.3465600797
 20
9.2841129414
 30
0.0
 10
11.346172247
 20
9.2839523023
 30
0.0
 10
11.3458813722
 20
9.2838318229
 30
0.0
 10
11.3455904983
 20
9.2837113434
 30
0.0
 10
11.3453481004
 20
9.2836109444
 30
0.0
 10
11.3451541889
 20
9.283530624
 30
0.0
 10
11.3450329788
 20
9.2834804262
 30
0.0
 10
11.3449360459
 20
9.2834402624
 30
0.0
 10
11.3448632502
 20
9.2834101548
 30
0.0
 10
11.3448028924
 20
9.2833850168
 30
0.0
 10
11.3447600428
 20
9.283367515
 30
0.0
 10
11.3447364928
 20
9.2833573659
 30
0.0
 10
11.344716195
 20
9.2833501712
 30
0.0
 10
11.3447059708
 20
9.2833413821
 30
0.0
 10
11.3446888248
 20
9.2833302195
 30
0.0
 10
11.3446604565
 20
9.2833104259
 30
0.0
 10
11.3446190743
 20
9.2832822847
 30
0.0
 10
11.3445697821
 20
9.2832484573
 30
0.0
 10
11.3445039313
 20
9.2832033743
 30
0.0
 10
11.3444216615
 20
9.2831470137
 30
0.0
 10
11.3442900053
 20
9.2830568406
 30
0.0
 10
11.3441254435
 20
9.2829441229
 30
0.0
 10
11.3439279657
 20
9.2828088621
 30
0.0
 10
11.3437304889
 20
9.2826736013
 30
0.0
 10
11.3434671862
 20
9.2824932535
 30
0.0
 10
11.3431380578
 20
9.2822678188
 30
0.0
 10
11.3427431038
 20
9.2819972971
 30
0.0
 10
11.3422164985
 20
9.2816366016
 30
0.0
 10
11.3415582418
 20
9.2811857321
 30
0.0
 10
11.3407683337
 20
9.2806446888
 30
0.0
 10
11.3399784257
 20
9.2801036455
 30
0.0
 10
11.3391885177
 20
9.2795626021
 30
0.0
 10
11.3381353069
 20
9.278841211
 30
0.0
 10
11.3368187936
 20
9.2779394721
 30
0.0
 10
11.3352389775
 20
9.2768573855
 30
0.0
 10
11.3336591614
 20
9.2757752988
 30
0.0
 10
11.3326059507
 20
9.2750539077
 30
0.0
 10
11.3320793453
 20
9.2746932122
 30
0.0
  0
ELLIPSE
  5
3F5
100
AcDbEntity
  8
0
100
AcDbEllipse
 62
7
  6
CONTINUOUS
 10
11.1930354491
 20
8.1712018398
 30
0.0
 11
0.1264413675
 21
-0.0475541342
 31
0.0
 40
0.8814491255
 41
0.0
 42
6.2831853072
  0
ELLIPSE
  5
3F6
100
AcDbEntity
  8
0
100
AcDbEllipse
 62
7
  6
CONTINUOUS
 10
10.4985346412
 20
8.2193656344
 30
0.0
 11
0.1280069935
 21
-0.041493089
 31
0.0
 40
0.8883297848
 41
0.0
 42
6.2831853072
  0
ENDSEC
  0
SECTION
  2
OBJECTS
  0
DICTIONARY
  5
C
100
AcDbDictionary
280
0
281
1
  3
ACAD_GROUP
350
D
  3
ACAD_MLINESTYLE
350
17
  3
ACAD_LAYOUT
350
1A
  3
ACAD_PLOTSETTINGS
350
19
  3
ACAD_PLOTSTYLENAME
350
E
  3
ACAD_IMAGE_DICT
350
       3F8
  3
ACAD_IMAGE_VARS
350
       3F9
  3
ACAD_TABLESTYLE
350
       3FA
  0
IMAGEDEF_REACTOR
  5
3F7
100
AcDbRasterImageDefReactor
 90
2
330
271
  0
DICTIONARY
  5
D
102
{ACAD_REACTORS
330
C
102
}
100
AcDbDictionary
280
0
281
1
  0
ACDBDICTIONARYWDFLT
  5
E
102
{ACAD_REACTORS
330
C
102
}
100
AcDbDictionary
281
1
  3
Normal
350
F
100
AcDbDictionaryWithDefault
340
F
  0
DICTIONARY
  5
3F8
330
C
100
AcDbDictionary
281
1
  3
EB9_assy_2_img_1
350
       3FD
  0
RASTERVARIABLES
  5
3F9
330
C
100
AcDbRasterVariables
 90
0
 70
0
 71
1
 72
5
  0
DICTIONARY
  5
17
102
{ACAD_REACTORS
330
C
102
}
100
AcDbDictionary
280
0
281
1
  3
Standard
350
18
  0
DICTIONARY
  5
3FA
330
C
100
AcDbDictionary
281
1
  3
Standard
350
       3FE
  3
Standard1
350
       3FF
  0
DICTIONARY
  5
19
102
{ACAD_REACTORS
330
C
102
}
100
AcDbDictionary
281
1
  0
DICTIONARY
  5
1A
102
{ACAD_REACTORS
330
C
102
}
100
AcDbDictionary
281
1
  3
Model
350
3FB
  3
Layout1
350
3FC
  0
ACDBPLACEHOLDER
  5
F
102
{ACAD_REACTORS
330
E
102
}
  0
MLINESTYLE
  5
18
102
{ACAD_REACTORS
330
17
102
}
100
AcDbMlineStyle
  2
STANDARD
 70
0
  3

 62
256
 51
90.0
 52
90.0
 71
2
 49
0.5
 62
256
  6
BYLAYER
 49
-0.5
 62
256
  6
BYLAYER
  0
LAYOUT
  5
3FB
102
{ACAD_REACTORS
330
1A
102
}
100
AcDbPlotSettings
  1

  2
none_device
  4
ANSI_C_(22.00_x_17.00_Inches)
  6

 40
0.0
 41
0.0
 42
0.0
 43
0.0
 44
558.8
 45
431.8
 46
0.0
 47
0.0
 48
0.0
 49
0.0
140
0.0
141
0.0
142
1.0
143
1.0
 70
1024
 72
0
 73
0
 74
0
  7

 75
0
147
1.0
148
0.0
149
0.0
100
AcDbLayout
  1
Model
 70
0
 71
0
 10
0.0
 20
0.0
 11
22.0
 21
17.0
 12
0.0
 22
0.0
 32
0.0
 14
0.0
 24
0.0
 34
0.0
 15
0.0
 25
0.0
 35
0.0
146
0.0
 13
0.0
 23
0.0
 33
0.0
 16
1.0
 26
0.0
 36
0.0
 17
0.0
 27
1.0
 37
0.0
 76
0
330
20E
345
0
346
0
  0
LAYOUT
  5
3FC
102
{ACAD_REACTORS
330
1A
102
}
100
AcDbPlotSettings
  1

  2
none_device
  4
ANSI_C_(22.00_x_17.00_Inches)
  6

 40
0.0
 41
0.0
 42
0.0
 43
0.0
 44
558.8
 45
431.8
 46
0.0
 47
0.0
 48
0.0
 49
0.0
140
0.0
141
0.0
142
1.0
143
1.0
 70
0
 72
0
 73
0
 74
0
  7

 75
0
147
1.0
148
0.0
149
0.0
100
AcDbLayout
  1
Layout1
 70
0
 71
1
 10
0.0
 20
0.0
 11
22.0
 21
17.0
 12
0.0
 22
0.0
 32
0.0
 14
0.0
 24
0.0
 34
0.0
 15
0.0
 25
0.0
 35
0.0
146
0.0
 13
0.0
 23
0.0
 33
0.0
 16
1.0
 26
0.0
 36
0.0
 17
0.0
 27
1.0
 37
0.0
 76
0
330
20F
345
0
346
0
  0
IMAGEDEF
  5
3FD
102
{ACAD_REACTORS
330
3F8
330
3F7
102
}
100
AcDbRasterImageDef
 90
0
  1
EB9_assy_2_img_1.png
 10
369.0
 20
92.0
 11
0.0066666667
 21
0.0066666667
280
1
281
0
  0
TABLESTYLE
  5
3FE
102
{ACAD_REACTORS
330
3FA
330
274
102
}
330
3FA
100
AcDbTableStyle
  3
Standard
 70
0
 71
0
 40
0.06
 41
0.06
280
1
281
1
  7
Standard
140
0.18
170
1
 62
0
 63
7
283
0
  7
Standard
140
0.18
170
1
 62
0
 63
7
283
0
  7
Standard
140
0.18
170
1
 62
0
 63
7
283
0
  0
TABLESTYLE
  5
3FF
102
{ACAD_REACTORS
330
3FA
330
273
102
}
330
3FA
100
AcDbTableStyle
  3
Standard1
 70
1
 71
0
 40
0.06
 41
0.06
280
1
281
1
  7
Standard
140
0.18
170
1
 62
0
 63
7
283
0
  7
Standard
140
0.18
170
1
 62
0
 63
7
283
0
  7
Standard
140
0.18
170
1
 62
0
 63
7
283
0
  0
ENDSEC
  0
EOF
