999
DXF file: EB8_8.dxf
999
Pro/ENGINEER 2006240 by Parametric Technology Corporation
  0
SECTION
  2
HEADER
  9
$ACADVER
  1
AC1015
  9
$DWGCODEPAGE
  3
ANSI_1252
  9
$EXTMAX
 10
22.0
 20
17.0
 30
0.0
  9
$EXTMIN
 10
0.0
 20
0.0
 30
0.0
  9
$LIMMIN
 10
0.0
 20
0.0
  9
$LIMMAX
 10
22.0
 20
17.0
  9
$VIEWCTR
 10
11.0
 20
8.5
  9
$VIEWSIZE
 40
17.0
  9
$CLAYER
  8
0
  9
$LTSCALE
 40
1.21
  9
$CELTYPE
  6
BYLAYER
  9
$DIMSCALE
 40
1.0
  9
$DIMASZ
 40
0.1875
  9
$DIMEXO
 40
0.1375
  9
$DIMDLI
 40
0.836
  9
$DIMEXE
 40
0.396
  9
$DIMCEN
 40
0.198
  9
$DIMLFAC
 40
1.0
  9
$DIMBLK
  1
_CLOSED
  9
$DIMTXT
 40
0.15625
  9
$DIMTOL
 70
0
  9
$DIMLIM
 70
0
  9
$DIMTFAC
 40
1.0
  9
$PDMODE
 70
3
  9
$PDSIZE
 40
0.3125
  9
$HANDSEED
  5
561
  9
$MEASUREMENT
 70
0
  9
$INSUNITS
 70
1
  0
ENDSEC
  0
SECTION
  2
CLASSES
  0
CLASS
  1
ACDBDICTIONARYWDFLT
  2
AcDbDictionaryWithDefault
  3
AutoCAD 2000
 90
0
280
0
281
0
  0
CLASS
  1
ACDBPLACEHOLDER
  2
AcDbPlaceHolder
  3
AutoCAD 2000
 90
0
280
0
281
0
  0
CLASS
  1
LAYOUT
  2
AcDbLayout
  3
AutoCAD 2000
 90
0
280
0
281
0
  0
ENDSEC
  0
SECTION
  2
TABLES
  0
TABLE
  2
VPORT
  5
8
100
AcDbSymbolTable
 70
2
  0
VPORT
  5
1F4
100
AcDbSymbolTableRecord
100
AcDbViewportTableRecord
  2
*ACTIVE
 70
0
 10
0.0
 20
0.0
 11
1.0
 21
1.0
 12
11.0
 22
8.5
 13
0.0
 23
0.0
 14
1.0
 24
1.0
 15
0.0
 25
0.0
 16
0.0
 26
0.0
 36
1.0
 17
0.0
 27
0.0
 37
0.0
 40
17.0
 41
1.2941176471
 42
50.0
 43
0.0
 44
0.0
 50
0.0
 51
0.0
 71
0
 72
100
 73
1
 74
1
 75
0
 76
0
 77
0
 78
0
  0
ENDTAB
  0
TABLE
  2
LTYPE
  5
5
100
AcDbSymbolTable
 70
6
  0
LTYPE
  5
14
100
AcDbSymbolTableRecord
100
AcDbLinetypeTableRecord
  2
BYBLOCK
 70
0
  3

 72
65
 73
0
 40
0.0
  0
LTYPE
  5
15
100
AcDbSymbolTableRecord
100
AcDbLinetypeTableRecord
  2
BYLAYER
 70
0
  3

 72
65
 73
0
 40
0.0
  0
LTYPE
  5
16
100
AcDbSymbolTableRecord
100
AcDbLinetypeTableRecord
  2
CONTINUOUS
 70
64
  3
Solid line
 72
65
 73
0
 40
0.0
  0
LTYPE
  5
1F5
100
AcDbSymbolTableRecord
100
AcDbLinetypeTableRecord
  2
CENTER
 70
64
  3
____ _ ____ _ ____ _ ____ _ ____ _ ____ _ ____
 72
65
 73
4
 40
0.6
 49
0.375
 74
0
 49
-0.075
 74
0
 49
0.075
 74
0
 49
-0.075
 74
0
  0
LTYPE
  5
1F6
100
AcDbSymbolTableRecord
100
AcDbLinetypeTableRecord
  2
HIDDEN
 70
64
  3
- - - - - - - - - - - - - - - - - - - -
 72
65
 73
2
 40
0.2
 49
0.1
 74
0
 49
-0.1
 74
0
  0
LTYPE
  5
1F7
100
AcDbSymbolTableRecord
100
AcDbLinetypeTableRecord
  2
PHANTOM
 70
64
  3
_____ _ _ _____ _ _ _____ _ _ _____
 72
65
 73
6
 40
0.8
 49
0.45
 74
0
 49
-0.05
 74
0
 49
0.1
 74
0
 49
-0.05
 74
0
 49
0.1
 74
0
 49
-0.05
 74
0
  0
LTYPE
  5
1F8
100
AcDbSymbolTableRecord
100
AcDbLinetypeTableRecord
  2
DOT
 70
64
  3
. . . . . . . . . . . . . . . . . . . .
 72
65
 73
2
 40
0.2
 49
0.1
 74
0
 49
-0.1
 74
0
  0
LTYPE
  5
1F9
100
AcDbSymbolTableRecord
100
AcDbLinetypeTableRecord
  2
DASHED
 70
64
  3
- - - - - - - - - - - - - - - - - - - -
 72
65
 73
2
 40
0.2
 49
0.1
 74
0
 49
-0.1
 74
0
  0
ENDTAB
  0
TABLE
  2
LAYER
  5
2
100
AcDbSymbolTable
 70
36
  0
LAYER
  5
10
100
AcDbSymbolTableRecord
100
AcDbLayerTableRecord
  2
0
 70
0
 62
7
  6
CONTINUOUS
370
-3
390
F
  0
LAYER
  5
1FA
100
AcDbSymbolTableRecord
100
AcDbLayerTableRecord
  2
DEFAULT_1
 70
0
 62
7
  6
CENTER
370
-3
390
F
  0
LAYER
  5
1FB
100
AcDbSymbolTableRecord
100
AcDbLayerTableRecord
  2
DEFAULT_2
 70
0
 62
8
  6
HIDDEN
370
-3
390
F
  0
LAYER
  5
1FC
100
AcDbSymbolTableRecord
100
AcDbLayerTableRecord
  2
DEFAULT_3
 70
0
 62
7
  6
PHANTOM
370
-3
390
F
  0
LAYER
  5
1FD
100
AcDbSymbolTableRecord
100
AcDbLayerTableRecord
  2
01_ALL_DTM_PLN
 70
0
 62
7
  6
CONTINUOUS
370
-3
390
F
  0
LAYER
  5
1FE
100
AcDbSymbolTableRecord
100
AcDbLayerTableRecord
  2
01__ASM_ALL_DTM_PLN
 70
0
 62
7
  6
CONTINUOUS
370
-3
390
F
  0
LAYER
  5
1FF
100
AcDbSymbolTableRecord
100
AcDbLayerTableRecord
  2
01__ASM_DEF_DTM_PLN
 70
0
 62
7
  6
CONTINUOUS
370
-3
390
F
  0
LAYER
  5
200
100
AcDbSymbolTableRecord
100
AcDbLayerTableRecord
  2
01___PRT_ALL_DTM_PLN
 70
0
 62
7
  6
CONTINUOUS
370
-3
390
F
  0
LAYER
  5
201
100
AcDbSymbolTableRecord
100
AcDbLayerTableRecord
  2
01___PRT_DEF_DTM_PLN
 70
0
 62
7
  6
CONTINUOUS
370
-3
390
F
  0
LAYER
  5
202
100
AcDbSymbolTableRecord
100
AcDbLayerTableRecord
  2
02_ALL_AXES
 70
0
 62
7
  6
CONTINUOUS
370
-3
390
F
  0
LAYER
  5
203
100
AcDbSymbolTableRecord
100
AcDbLayerTableRecord
  2
02__ASM_ALL_AXES
 70
0
 62
7
  6
CONTINUOUS
370
-3
390
F
  0
LAYER
  5
204
100
AcDbSymbolTableRecord
100
AcDbLayerTableRecord
  2
02___PRT_ALL_AXES
 70
0
 62
7
  6
CONTINUOUS
370
-3
390
F
  0
LAYER
  5
205
100
AcDbSymbolTableRecord
100
AcDbLayerTableRecord
  2
03_ALL_CURVES
 70
0
 62
7
  6
CONTINUOUS
370
-3
390
F
  0
LAYER
  5
206
100
AcDbSymbolTableRecord
100
AcDbLayerTableRecord
  2
03__ASM_ALL_CURVES
 70
0
 62
7
  6
CONTINUOUS
370
-3
390
F
  0
LAYER
  5
207
100
AcDbSymbolTableRecord
100
AcDbLayerTableRecord
  2
03___PRT_ALL_CURVES
 70
0
 62
7
  6
CONTINUOUS
370
-3
390
F
  0
LAYER
  5
208
100
AcDbSymbolTableRecord
100
AcDbLayerTableRecord
  2
04_ALL_DTM_PNT
 70
0
 62
7
  6
CONTINUOUS
370
-3
390
F
  0
LAYER
  5
209
100
AcDbSymbolTableRecord
100
AcDbLayerTableRecord
  2
04__ASM_ALL_DTM_PNT
 70
0
 62
7
  6
CONTINUOUS
370
-3
390
F
  0
LAYER
  5
20A
100
AcDbSymbolTableRecord
100
AcDbLayerTableRecord
  2
04___PRT_ALL_DTM_PNT
 70
0
 62
7
  6
CONTINUOUS
370
-3
390
F
  0
LAYER
  5
20B
100
AcDbSymbolTableRecord
100
AcDbLayerTableRecord
  2
05_ALL_DTM_CSYS
 70
0
 62
7
  6
CONTINUOUS
370
-3
390
F
  0
LAYER
  5
20C
100
AcDbSymbolTableRecord
100
AcDbLayerTableRecord
  2
05__ASM_ALL_DTM_CSYS
 70
0
 62
7
  6
CONTINUOUS
370
-3
390
F
  0
LAYER
  5
20D
100
AcDbSymbolTableRecord
100
AcDbLayerTableRecord
  2
05__ASM_DEF_DTM_CSYS
 70
0
 62
7
  6
CONTINUOUS
370
-3
390
F
  0
LAYER
  5
20E
100
AcDbSymbolTableRecord
100
AcDbLayerTableRecord
  2
05___PRT_ALL_DTM_CSYS
 70
0
 62
7
  6
CONTINUOUS
370
-3
390
F
  0
LAYER
  5
20F
100
AcDbSymbolTableRecord
100
AcDbLayerTableRecord
  2
05___PRT_DEF_DTM_CSYS
 70
0
 62
7
  6
CONTINUOUS
370
-3
390
F
  0
LAYER
  5
210
100
AcDbSymbolTableRecord
100
AcDbLayerTableRecord
  2
06_ALL_SURFS
 70
0
 62
7
  6
CONTINUOUS
370
-3
390
F
  0
LAYER
  5
211
100
AcDbSymbolTableRecord
100
AcDbLayerTableRecord
  2
06__ASM_ALL_SURFS
 70
0
 62
7
  6
CONTINUOUS
370
-3
390
F
  0
LAYER
  5
212
100
AcDbSymbolTableRecord
100
AcDbLayerTableRecord
  2
06___PRT_ALL_SURFS
 70
0
 62
7
  6
CONTINUOUS
370
-3
390
F
  0
LAYER
  5
213
100
AcDbSymbolTableRecord
100
AcDbLayerTableRecord
  2
07__ASM_ALL_SKELETONS
 70
0
 62
7
  6
CONTINUOUS
370
-3
390
F
  0
LAYER
  5
214
100
AcDbSymbolTableRecord
100
AcDbLayerTableRecord
  2
COPY_GEO_FET
 70
0
 62
7
  6
CONTINUOUS
370
-3
390
F
  0
LAYER
  5
215
100
AcDbSymbolTableRecord
100
AcDbLayerTableRecord
  2
COSMETIC
 70
0
 62
7
  6
CONTINUOUS
370
-3
390
F
  0
LAYER
  5
216
100
AcDbSymbolTableRecord
100
AcDbLayerTableRecord
  2
CUT_REF_SURF
 70
0
 62
7
  6
CONTINUOUS
370
-3
390
F
  0
LAYER
  5
217
100
AcDbSymbolTableRecord
100
AcDbLayerTableRecord
  2
DATESTAMP
 70
0
 62
7
  6
CONTINUOUS
370
-3
390
F
  0
LAYER
  5
218
100
AcDbSymbolTableRecord
100
AcDbLayerTableRecord
  2
DATUM
 70
0
 62
7
  6
CONTINUOUS
370
-3
390
F
  0
LAYER
  5
219
100
AcDbSymbolTableRecord
100
AcDbLayerTableRecord
  2
DATUM_B
 70
0
 62
7
  6
CONTINUOUS
370
-3
390
F
  0
LAYER
  5
21A
100
AcDbSymbolTableRecord
100
AcDbLayerTableRecord
  2
DATUM_PLANES
 70
0
 62
7
  6
CONTINUOUS
370
-3
390
F
  0
LAYER
  5
21B
100
AcDbSymbolTableRecord
100
AcDbLayerTableRecord
  2
DIM
 70
0
 62
7
  6
CONTINUOUS
370
-3
390
F
  0
LAYER
  5
21C
100
AcDbSymbolTableRecord
100
AcDbLayerTableRecord
  2
DIMENSIONS
 70
0
 62
7
  6
CONTINUOUS
370
-3
390
F
  0
LAYER
  5
21D
100
AcDbSymbolTableRecord
100
AcDbLayerTableRecord
  2
DIM_1
 70
0
 62
7
  6
CONTINUOUS
370
-3
390
F
  0
LAYER
  5
21E
100
AcDbSymbolTableRecord
100
AcDbLayerTableRecord
  2
DIM_2
 70
0
 62
7
  6
CONTINUOUS
370
-3
390
F
  0
LAYER
  5
21F
100
AcDbSymbolTableRecord
100
AcDbLayerTableRecord
  2
DIM_3
 70
0
 62
7
  6
CONTINUOUS
370
-3
390
F
  0
LAYER
  5
220
100
AcDbSymbolTableRecord
100
AcDbLayerTableRecord
  2
DIM_4
 70
0
 62
7
  6
CONTINUOUS
370
-3
390
F
  0
LAYER
  5
221
100
AcDbSymbolTableRecord
100
AcDbLayerTableRecord
  2
DIM_5
 70
0
 62
7
  6
CONTINUOUS
370
-3
390
F
  0
LAYER
  5
222
100
AcDbSymbolTableRecord
100
AcDbLayerTableRecord
  2
DIM_6
 70
0
 62
7
  6
CONTINUOUS
370
-3
390
F
  0
LAYER
  5
223
100
AcDbSymbolTableRecord
100
AcDbLayerTableRecord
  2
DIM_7
 70
0
 62
7
  6
CONTINUOUS
370
-3
390
F
  0
LAYER
  5
224
100
AcDbSymbolTableRecord
100
AcDbLayerTableRecord
  2
DTM
 70
0
 62
7
  6
CONTINUOUS
370
-3
390
F
  0
LAYER
  5
225
100
AcDbSymbolTableRecord
100
AcDbLayerTableRecord
  2
EB8_10
 70
0
 62
7
  6
CONTINUOUS
370
-3
390
F
  0
LAYER
  5
226
100
AcDbSymbolTableRecord
100
AcDbLayerTableRecord
  2
EB8_2
 70
0
 62
7
  6
CONTINUOUS
370
-3
390
F
  0
LAYER
  5
227
100
AcDbSymbolTableRecord
100
AcDbLayerTableRecord
  2
EB8_5
 70
0
 62
7
  6
CONTINUOUS
370
-3
390
F
  0
LAYER
  5
228
100
AcDbSymbolTableRecord
100
AcDbLayerTableRecord
  2
EB8_6
 70
0
 62
7
  6
CONTINUOUS
370
-3
390
F
  0
LAYER
  5
229
100
AcDbSymbolTableRecord
100
AcDbLayerTableRecord
  2
EB8_7
 70
0
 62
7
  6
CONTINUOUS
370
-3
390
F
  0
LAYER
  5
22A
100
AcDbSymbolTableRecord
100
AcDbLayerTableRecord
  2
EB8_8
 70
0
 62
7
  6
CONTINUOUS
370
-3
390
F
  0
LAYER
  5
22B
100
AcDbSymbolTableRecord
100
AcDbLayerTableRecord
  2
EXT_COPY_GEO
 70
0
 62
7
  6
CONTINUOUS
370
-3
390
F
  0
LAYER
  5
22C
100
AcDbSymbolTableRecord
100
AcDbLayerTableRecord
  2
LS
 70
0
 62
7
  6
CONTINUOUS
370
-3
390
F
  0
LAYER
  5
22D
100
AcDbSymbolTableRecord
100
AcDbLayerTableRecord
  2
LS_1
 70
0
 62
7
  6
CONTINUOUS
370
-3
390
F
  0
LAYER
  5
22E
100
AcDbSymbolTableRecord
100
AcDbLayerTableRecord
  2
ORIGIN
 70
0
 62
7
  6
CONTINUOUS
370
-3
390
F
  0
LAYER
  5
22F
100
AcDbSymbolTableRecord
100
AcDbLayerTableRecord
  2
PARAMETERDIMENSIONS
 70
0
 62
7
  6
CONTINUOUS
370
-3
390
F
  0
LAYER
  5
230
100
AcDbSymbolTableRecord
100
AcDbLayerTableRecord
  2
PARTNUMBER
 70
0
 62
7
  6
CONTINUOUS
370
-3
390
F
  0
LAYER
  5
231
100
AcDbSymbolTableRecord
100
AcDbLayerTableRecord
  2
PORT_AREAS
 70
0
 62
7
  6
CONTINUOUS
370
-3
390
F
  0
LAYER
  5
232
100
AcDbSymbolTableRecord
100
AcDbLayerTableRecord
  2
TEXT
 70
0
 62
7
  6
CONTINUOUS
370
-3
390
F
  0
LAYER
  5
233
100
AcDbSymbolTableRecord
100
AcDbLayerTableRecord
  2
THREAD
 70
0
 62
7
  6
CONTINUOUS
370
-3
390
F
  0
LAYER
  5
234
100
AcDbSymbolTableRecord
100
AcDbLayerTableRecord
  2
THREADS
 70
0
 62
7
  6
CONTINUOUS
370
-3
390
F
  0
ENDTAB
  0
TABLE
  2
STYLE
  5
3
100
AcDbSymbolTable
 70
1
  0
STYLE
  5
11
100
AcDbSymbolTableRecord
100
AcDbTextStyleTableRecord
  2
STANDARD
 70
0
 40
0.0
 41
0.8
 50
0.0
 71
0
 42
0.2
  3
txt
  4

  0
ENDTAB
  0
TABLE
  2
VIEW
  5
6
100
AcDbSymbolTable
 70
0
  0
ENDTAB
  0
TABLE
  2
UCS
  5
7
100
AcDbSymbolTable
 70
0
  0
ENDTAB
  0
TABLE
  2
APPID
  5
9
100
AcDbSymbolTable
 70
1
  0
APPID
  5
235
100
AcDbSymbolTableRecord
100
AcDbRegAppTableRecord
  2
ACAD
 70
0
  0
ENDTAB
  0
TABLE
  2
BLOCK_RECORD
  5
1
100
AcDbSymbolTable
 70
0
  0
BLOCK_RECORD
  5
1F
100
AcDbSymbolTableRecord
100
AcDbBlockTableRecord
  2
*MODEL_SPACE
  0
BLOCK_RECORD
  5
1B
100
AcDbSymbolTableRecord
100
AcDbBlockTableRecord
  2
*PAPER_SPACE
  0
ENDTAB
  0
TABLE
  2
DIMSTYLE
  5
A
100
AcDbSymbolTable
 70
1
100
AcDbDimStyleTable
 71
0
  0
DIMSTYLE
105
236
100
AcDbSymbolTableRecord
100
AcDbDimStyleTableRecord
  2
STANDARD
 70
0
  3

  4

 40
1.0
 41
0.1875
 42
0.0625
 43
0.38
 44
0.18
 45
0.0
 46
0.0
 47
0.01
 48
0.01
140
0.15625
141
0.09
142
0.0
143
25.4
144
1.0
145
0.0
146
1.0
147
0.09
 71
0.0
 72
0.0
 73
1
 74
1
 75
0
 76
0
 77
0
 78
4
170
0
171
2
172
0
173
0
174
0
175
0
176
0
177
0
178
0
270
2
271
2
272
2
273
2
274
2
275
0
280
0
281
0
282
0
283
1
284
4
285
0
286
0
287
3
288
0
340
11
  0
ENDTAB
  0
ENDSEC
  0
SECTION
  2
BLOCKS
  0
BLOCK
  5
20
100
AcDbEntity
  8
0
100
AcDbBlockBegin
  2
*MODEL_SPACE
 70
0
 10
0.0
 20
0.0
 30
0.0
  3
*MODEL_SPACE
  1

  0
ENDBLK
  5
21
100
AcDbEntity
  8
0
100
AcDbBlockEnd
  0
BLOCK
  5
1C
100
AcDbEntity
  8
0
100
AcDbBlockBegin
  2
*PAPER_SPACE
 70
0
 10
0.0
 20
0.0
 30
0.0
  3
*PAPER_SPACE
  1

  0
ENDBLK
  5
1D
100
AcDbEntity
  8
0
100
AcDbBlockEnd
  0
ENDSEC
  0
SECTION
  2
ENTITIES
  0
LINE
  5
237
100
AcDbEntity
  8
03__ASM_ALL_CURVES
100
AcDbLine
 62
4
  6
CONTINUOUS
 10
6.6527213288
 20
11.5791376917
 11
6.6527213288
 21
11.5174466917
  0
LINE
  5
238
100
AcDbEntity
  8
03__ASM_ALL_CURVES
100
AcDbLine
 62
4
  6
CONTINUOUS
 10
6.6527213288
 20
10.2219356917
 11
6.6527213288
 21
10.1756674417
  0
LINE
  5
239
100
AcDbEntity
  8
03__ASM_ALL_CURVES
100
AcDbLine
 62
4
  6
CONTINUOUS
 10
6.6527213288
 20
10.5535248167
 11
6.6527213288
 21
10.5689475667
  0
LINE
  5
23A
100
AcDbEntity
  8
03__ASM_ALL_CURVES
100
AcDbLine
 62
4
  6
CONTINUOUS
 10
6.6527213288
 20
11.4171988167
 11
6.6527213288
 21
11.4326215667
  0
LINE
  5
23B
100
AcDbEntity
  8
03__ASM_ALL_CURVES
100
AcDbLine
 62
4
  6
CONTINUOUS
 10
6.6938486597
 20
10.1833788167
 11
6.6938486597
 21
10.1988015667
  0
LINE
  5
23C
100
AcDbEntity
  8
03__ASM_ALL_CURVES
100
AcDbLine
 62
4
  6
CONTINUOUS
 10
6.6527213288
 20
11.4326215667
 11
6.6630031597
 21
11.4480443167
  0
LINE
  5
23D
100
AcDbEntity
  8
0
100
AcDbLine
 62
7
  6
CONTINUOUS
 10
7.2134121267
 20
6.9981072098
 11
7.2444121267
 21
6.9671072098
  0
LINE
  5
23E
100
AcDbEntity
  8
0
100
AcDbLine
 62
7
  6
CONTINUOUS
 10
6.7187654637
 20
8.1705669907
 11
6.7144121267
 21
8.1781071917
  0
LINE
  5
23F
100
AcDbEntity
  8
03__ASM_ALL_CURVES
100
AcDbLine
 62
4
  6
CONTINUOUS
 10
6.704130498
 20
10.5535248167
 11
6.704130498
 21
10.5689475667
  0
LINE
  5
240
100
AcDbEntity
  8
0
100
AcDbLine
 62
7
  6
CONTINUOUS
 10
6.7144121267
 20
8.1781071917
 11
6.7144121267
 21
9.0381071917
  0
LINE
  5
241
100
AcDbEntity
  8
03__ASM_ALL_CURVES
100
AcDbLine
 62
4
  6
CONTINUOUS
 10
6.7144123288
 20
9.5124891917
 11
6.7144123288
 21
9.8826351917
  0
LINE
  5
242
100
AcDbEntity
  8
03__ASM_ALL_CURVES
100
AcDbLine
 62
4
  6
CONTINUOUS
 10
6.7452578288
 20
11.0239186917
 11
6.7452578288
 21
11.0933210667
  0
LINE
  5
243
100
AcDbEntity
  8
03__ASM_ALL_CURVES
100
AcDbLine
 62
4
  6
CONTINUOUS
 10
6.7452578288
 20
11.1473006917
 11
6.7452578288
 21
11.2167030667
  0
LINE
  5
244
100
AcDbEntity
  8
0
100
AcDbLine
 62
7
  6
CONTINUOUS
 10
6.7484757925
 20
8.1705911577
 11
6.7484757925
 21
8.2002049441
  0
LINE
  5
245
100
AcDbEntity
  8
0
100
AcDbLine
 62
7
  6
CONTINUOUS
 10
6.7484757925
 20
8.5784934054
 11
6.7484757925
 21
8.637720978
  0
LINE
  5
246
100
AcDbEntity
  8
0
100
AcDbLine
 62
7
  6
CONTINUOUS
 10
6.7484757925
 20
9.0160094394
 11
6.7484757925
 21
9.0456232257
  0
LINE
  5
247
100
AcDbEntity
  8
03__ASM_ALL_CURVES
100
AcDbLine
 62
4
  6
CONTINUOUS
 10
6.7761033288
 20
11.3323736917
 11
6.7761033288
 21
11.3208066292
  0
LINE
  5
248
100
AcDbEntity
  8
03__ASM_ALL_CURVES
100
AcDbLine
 62
4
  6
CONTINUOUS
 10
6.7761033288
 20
10.5689475667
 11
6.7761033288
 21
10.5535248167
  0
LINE
  5
249
100
AcDbEntity
  8
03__ASM_ALL_CURVES
100
AcDbLine
 62
4
  6
CONTINUOUS
 10
6.7761033288
 20
10.3453176917
 11
6.7761033288
 21
10.3337506292
  0
LINE
  5
24A
100
AcDbEntity
  8
03__ASM_ALL_CURVES
100
AcDbLine
 62
4
  6
CONTINUOUS
 10
6.7761033288
 20
10.1988015667
 11
6.7761033288
 21
10.1833788167
  0
LINE
  5
24B
100
AcDbEntity
  8
03__ASM_ALL_CURVES
100
AcDbLine
 62
4
  6
CONTINUOUS
 10
6.7761033288
 20
11.3940646917
 11
6.7761033288
 21
11.4557556917
  0
LINE
  5
24C
100
AcDbEntity
  8
03__ASM_ALL_CURVES
100
AcDbLine
 62
4
  6
CONTINUOUS
 10
6.704130498
 20
10.4378541917
 11
6.7144123288
 21
10.4609883167
  0
LINE
  5
24D
100
AcDbEntity
  8
03__ASM_ALL_CURVES
100
AcDbLine
 62
4
  6
CONTINUOUS
 10
7.1928486597
 20
11.4326215667
 11
7.203130498
 21
11.4480443167
  0
LINE
  5
24E
100
AcDbEntity
  8
03__ASM_ALL_CURVES
100
AcDbLine
 62
4
  6
CONTINUOUS
 10
6.6527213288
 20
10.5689475667
 11
6.6630031597
 21
10.5843703167
  0
LINE
  5
24F
100
AcDbEntity
  8
03__ASM_ALL_CURVES
100
AcDbLine
 62
4
  6
CONTINUOUS
 10
6.704130498
 20
10.5689475667
 11
6.7144123288
 21
10.5843703167
  0
LINE
  5
250
100
AcDbEntity
  8
03__ASM_ALL_CURVES
100
AcDbLine
 62
4
  6
CONTINUOUS
 10
7.2751033288
 20
11.4171988167
 11
7.2648214952
 21
11.4017760667
  0
LINE
  5
251
100
AcDbEntity
  8
03__ASM_ALL_CURVES
100
AcDbLine
 62
4
  6
CONTINUOUS
 10
6.704130498
 20
10.5535248167
 11
6.6938486597
 21
10.5381020667
  0
LINE
  5
252
100
AcDbEntity
  8
03__ASM_ALL_CURVES
100
AcDbLine
 62
4
  6
CONTINUOUS
 10
6.6527213288
 20
10.4378541917
 11
6.6630031597
 21
10.4532769417
  0
LINE
  5
253
100
AcDbEntity
  8
03__ASM_ALL_CURVES
100
AcDbLine
 62
4
  6
CONTINUOUS
 10
6.7761033288
 20
10.5535248167
 11
6.7658214952
 21
10.5381020667
  0
LINE
  5
254
100
AcDbEntity
  8
03__ASM_ALL_CURVES
100
AcDbLine
 62
4
  6
CONTINUOUS
 10
7.1517213288
 20
11.0624755667
 11
7.1620031597
 21
11.0778983167
  0
LINE
  5
255
100
AcDbEntity
  8
03__ASM_ALL_CURVES
100
AcDbLine
 62
4
  6
CONTINUOUS
 10
6.7761033288
 20
10.4378541917
 11
6.7658214952
 21
10.4224314417
  0
LINE
  5
256
100
AcDbEntity
  8
03__ASM_ALL_CURVES
100
AcDbLine
 62
4
  6
CONTINUOUS
 10
7.203130498
 20
11.0624755667
 11
7.2134123288
 21
11.0778983167
  0
LINE
  5
257
100
AcDbEntity
  8
03__ASM_ALL_CURVES
100
AcDbLine
 62
4
  6
CONTINUOUS
 10
6.6527213288
 20
11.6639628167
 11
6.673284998
 21
11.6793855667
  0
LINE
  5
258
100
AcDbEntity
  8
03__ASM_ALL_CURVES
100
AcDbLine
 62
4
  6
CONTINUOUS
 10
6.6630031597
 20
11.4480443167
 11
6.673284998
 21
11.4557556917
  0
LINE
  5
259
100
AcDbEntity
  8
0
100
AcDbLine
 62
7
  6
CONTINUOUS
 10
7.1219121267
 20
8.2002049441
 11
7.1219121267
 21
8.1705911577
  0
LINE
  5
25A
100
AcDbEntity
  8
0
100
AcDbLine
 62
7
  6
CONTINUOUS
 10
7.1219121267
 20
8.5784934054
 11
7.1219121267
 21
8.637720978
  0
LINE
  5
25B
100
AcDbEntity
  8
0
100
AcDbLine
 62
7
  6
CONTINUOUS
 10
7.1219121267
 20
9.0160094394
 11
7.1219121267
 21
9.0456232257
  0
LINE
  5
25C
100
AcDbEntity
  8
03__ASM_ALL_CURVES
100
AcDbLine
 62
4
  6
CONTINUOUS
 10
7.1517213288
 20
11.5791376917
 11
7.1517213288
 21
11.5174466917
  0
LINE
  5
25D
100
AcDbEntity
  8
03__ASM_ALL_CURVES
100
AcDbLine
 62
4
  6
CONTINUOUS
 10
7.1517213288
 20
11.4557556917
 11
7.1517213288
 21
11.4094874417
  0
LINE
  5
25E
100
AcDbEntity
  8
03__ASM_ALL_CURVES
100
AcDbLine
 62
4
  6
CONTINUOUS
 10
7.1517213288
 20
10.2219356917
 11
7.1517213288
 21
10.1756674417
  0
LINE
  5
25F
100
AcDbEntity
  8
03__ASM_ALL_CURVES
100
AcDbLine
 62
4
  6
CONTINUOUS
 10
7.1517213288
 20
10.5535248167
 11
7.1517213288
 21
10.5689475667
  0
LINE
  5
260
100
AcDbEntity
  8
03__ASM_ALL_CURVES
100
AcDbLine
 62
4
  6
CONTINUOUS
 10
7.1517213288
 20
11.0470528167
 11
7.1517213288
 21
11.0624755667
  0
LINE
  5
261
100
AcDbEntity
  8
0
100
AcDbLine
 62
7
  6
CONTINUOUS
 10
7.1824121267
 20
8.1796071917
 11
7.1824121267
 21
9.0366071917
  0
LINE
  5
262
100
AcDbEntity
  8
03__ASM_ALL_CURVES
100
AcDbLine
 62
4
  6
CONTINUOUS
 10
7.1928486597
 20
10.1833788167
 11
7.1928486597
 21
10.1988015667
  0
LINE
  5
263
100
AcDbEntity
  8
03__ASM_ALL_CURVES
100
AcDbLine
 62
4
  6
CONTINUOUS
 10
7.1928486597
 20
11.4171988167
 11
7.1928486597
 21
11.4326215667
  0
LINE
  5
264
100
AcDbEntity
  8
03__ASM_ALL_CURVES
100
AcDbLine
 62
4
  6
CONTINUOUS
 10
7.203130498
 20
10.5535248167
 11
7.203130498
 21
10.5689475667
  0
LINE
  5
265
100
AcDbEntity
  8
03__ASM_ALL_CURVES
100
AcDbLine
 62
4
  6
CONTINUOUS
 10
7.203130498
 20
11.0470528167
 11
7.203130498
 21
11.0624755667
  0
LINE
  5
266
100
AcDbEntity
  8
0
100
AcDbLine
 62
7
  6
CONTINUOUS
 10
7.2134121267
 20
9.3421072098
 11
7.2134121267
 21
6.9981072098
  0
LINE
  5
267
100
AcDbEntity
  8
03__ASM_ALL_CURVES
100
AcDbLine
 62
4
  6
CONTINUOUS
 10
7.2134123288
 20
9.5124891917
 11
7.2134123288
 21
9.8826351917
  0
LINE
  5
268
100
AcDbEntity
  8
0
100
AcDbLine
 62
7
  6
CONTINUOUS
 10
7.2444121267
 20
9.3731072098
 11
7.2444121267
 21
6.9671072098
  0
LINE
  5
269
100
AcDbEntity
  8
03__ASM_ALL_CURVES
100
AcDbLine
 62
4
  6
CONTINUOUS
 10
7.2751033288
 20
11.4326215667
 11
7.2751033288
 21
11.4171988167
  0
LINE
  5
26A
100
AcDbEntity
  8
03__ASM_ALL_CURVES
100
AcDbLine
 62
4
  6
CONTINUOUS
 10
7.2751033288
 20
11.3323736917
 11
7.2751033288
 21
11.3208066292
  0
LINE
  5
26B
100
AcDbEntity
  8
03__ASM_ALL_CURVES
100
AcDbLine
 62
4
  6
CONTINUOUS
 10
7.2751033288
 20
11.0624755667
 11
7.2751033288
 21
11.0470528167
  0
LINE
  5
26C
100
AcDbEntity
  8
03__ASM_ALL_CURVES
100
AcDbLine
 62
4
  6
CONTINUOUS
 10
7.2751033288
 20
10.5689475667
 11
7.2751033288
 21
10.5535248167
  0
LINE
  5
26D
100
AcDbEntity
  8
03__ASM_ALL_CURVES
100
AcDbLine
 62
4
  6
CONTINUOUS
 10
7.2751033288
 20
10.3453176917
 11
7.2751033288
 21
10.3337506292
  0
LINE
  5
26E
100
AcDbEntity
  8
03__ASM_ALL_CURVES
100
AcDbLine
 62
4
  6
CONTINUOUS
 10
7.2751033288
 20
10.1988015667
 11
7.2751033288
 21
10.1833788167
  0
LINE
  5
26F
100
AcDbEntity
  8
03__ASM_ALL_CURVES
100
AcDbLine
 62
4
  6
CONTINUOUS
 10
7.8500031597
 20
11.9415723167
 11
7.8397213288
 21
11.9261495667
  0
LINE
  5
270
100
AcDbEntity
  8
03__ASM_ALL_CURVES
100
AcDbLine
 62
4
  6
CONTINUOUS
 10
6.6938486597
 20
10.1988015667
 11
6.704130498
 21
10.2142243167
  0
LINE
  5
271
100
AcDbEntity
  8
03__ASM_ALL_CURVES
100
AcDbLine
 62
4
  6
CONTINUOUS
 10
7.2751033288
 20
11.0470528167
 11
7.2648214952
 21
11.0316300667
  0
LINE
  5
272
100
AcDbEntity
  8
03__ASM_ALL_CURVES
100
AcDbLine
 62
4
  6
CONTINUOUS
 10
7.8808486597
 20
11.8953040667
 11
7.9116941634
 21
11.9415723167
  0
LINE
  5
273
100
AcDbEntity
  8
03__ASM_ALL_CURVES
100
AcDbLine
 62
4
  6
CONTINUOUS
 10
6.7761033288
 20
10.1833788167
 11
6.7658214952
 21
10.1679560667
  0
LINE
  5
274
100
AcDbEntity
  8
03__ASM_ALL_CURVES
100
AcDbLine
 62
4
  6
CONTINUOUS
 10
7.9631033288
 20
11.9107268167
 11
7.9528214952
 21
11.8953040667
  0
LINE
  5
275
100
AcDbEntity
  8
03__ASM_ALL_CURVES
100
AcDbLine
 62
4
  6
CONTINUOUS
 10
7.1517213288
 20
10.5689475667
 11
7.1620031597
 21
10.5843703167
  0
LINE
  5
276
100
AcDbEntity
  8
03__ASM_ALL_CURVES
100
AcDbLine
 62
4
  6
CONTINUOUS
 10
7.203130498
 20
10.5689475667
 11
7.2134123288
 21
10.5843703167
  0
LINE
  5
277
100
AcDbEntity
  8
03__ASM_ALL_CURVES
100
AcDbLine
 62
4
  6
CONTINUOUS
 10
7.203130498
 20
10.5535248167
 11
7.1928486597
 21
10.5381020667
  0
LINE
  5
278
100
AcDbEntity
  8
03__ASM_ALL_CURVES
100
AcDbLine
 62
4
  6
CONTINUOUS
 10
7.2751033288
 20
10.5535248167
 11
7.2648214952
 21
10.5381020667
  0
LINE
  5
279
100
AcDbEntity
  8
03__ASM_ALL_CURVES
100
AcDbLine
 62
4
  6
CONTINUOUS
 10
7.1517213288
 20
11.6639628167
 11
7.172284998
 21
11.6793855667
  0
LINE
  5
27A
100
AcDbEntity
  8
03__ASM_ALL_CURVES
100
AcDbLine
 62
4
  6
CONTINUOUS
 10
6.7606805784
 20
11.3208066292
 11
6.7761033288
 21
11.3323736917
  0
LINE
  5
27B
100
AcDbEntity
  8
03__ASM_ALL_CURVES
100
AcDbLine
 62
4
  6
CONTINUOUS
 10
7.8397213288
 20
12.0341088167
 11
7.860284998
 21
12.0495315667
  0
LINE
  5
27C
100
AcDbEntity
  8
03__ASM_ALL_CURVES
100
AcDbLine
 62
4
  6
CONTINUOUS
 10
7.860284998
 20
11.9492836917
 11
7.8500031597
 21
11.9415723167
  0
LINE
  5
27D
100
AcDbEntity
  8
03__ASM_ALL_CURVES
100
AcDbLine
 62
4
  6
CONTINUOUS
 10
7.203130498
 20
11.4480443167
 11
7.2134123288
 21
11.4557556917
  0
LINE
  5
27E
100
AcDbEntity
  8
03__ASM_ALL_CURVES
100
AcDbLine
 62
4
  6
CONTINUOUS
 10
7.9116941634
 20
11.9415723167
 11
7.9219759943
 21
11.9492836917
  0
LINE
  5
27F
100
AcDbEntity
  8
03__ASM_ALL_CURVES
100
AcDbLine
 62
4
  6
CONTINUOUS
 10
7.8705668288
 20
11.8875926917
 11
7.8808486597
 21
11.8953040667
  0
LINE
  5
280
100
AcDbEntity
  8
03__ASM_ALL_CURVES
100
AcDbLine
 62
4
  6
CONTINUOUS
 10
7.2648214952
 20
11.4017760667
 11
7.2545396616
 21
11.3940646917
  0
LINE
  5
281
100
AcDbEntity
  8
03__ASM_ALL_CURVES
100
AcDbLine
 62
4
  6
CONTINUOUS
 10
7.9528214952
 20
11.8953040667
 11
7.9322578288
 21
11.8798813167
  0
LINE
  5
282
100
AcDbEntity
  8
0
100
AcDbLine
 62
7
  6
CONTINUOUS
 10
6.7187654637
 20
9.0456473927
 11
6.7144121267
 21
9.0381071917
  0
LINE
  5
283
100
AcDbEntity
  8
03__ASM_ALL_CURVES
100
AcDbLine
 62
4
  6
CONTINUOUS
 10
7.8397213288
 20
11.3092395667
 11
7.8500031597
 21
11.3246623167
  0
LINE
  5
284
100
AcDbEntity
  8
03__ASM_ALL_CURVES
100
AcDbLine
 62
4
  6
CONTINUOUS
 10
7.891130498
 20
11.3092395667
 11
7.9014123288
 21
11.3246623167
  0
LINE
  5
285
100
AcDbEntity
  8
03__ASM_ALL_CURVES
100
AcDbLine
 62
4
  6
CONTINUOUS
 10
7.1928486597
 20
10.1988015667
 11
7.203130498
 21
10.2142243167
  0
LINE
  5
286
100
AcDbEntity
  8
03__ASM_ALL_CURVES
100
AcDbLine
 62
4
  6
CONTINUOUS
 10
7.9631033288
 20
11.2938168167
 11
7.9528214952
 21
11.2783940667
  0
LINE
  5
287
100
AcDbEntity
  8
03__ASM_ALL_CURVES
100
AcDbLine
 62
4
  6
CONTINUOUS
 10
7.2751033288
 20
10.1833788167
 11
7.2648214952
 21
10.1679560667
  0
LINE
  5
288
100
AcDbEntity
  8
03__ASM_ALL_CURVES
100
AcDbLine
 62
4
  6
CONTINUOUS
 10
7.2596805784
 20
11.3208066292
 11
7.2751033288
 21
11.3323736917
  0
LINE
  5
289
100
AcDbEntity
  8
03__ASM_ALL_CURVES
100
AcDbLine
 62
4
  6
CONTINUOUS
 10
6.7555396616
 20
10.8002888167
 11
6.7761033288
 21
10.8157115667
  0
LINE
  5
28A
100
AcDbEntity
  8
03__ASM_ALL_CURVES
100
AcDbLine
 62
4
  6
CONTINUOUS
 10
7.9425396616
 20
11.6639628167
 11
7.9631033288
 21
11.6793855667
  0
LINE
  5
28B
100
AcDbEntity
  8
03__ASM_ALL_CURVES
100
AcDbLine
 62
4
  6
CONTINUOUS
 10
7.1620031597
 20
11.0778983167
 11
7.172284998
 21
11.0856096917
  0
LINE
  5
28C
100
AcDbEntity
  8
03__ASM_ALL_CURVES
100
AcDbLine
 62
4
  6
CONTINUOUS
 10
7.2134123288
 20
11.0778983167
 11
7.2339759943
 21
11.0933210667
  0
LINE
  5
28D
100
AcDbEntity
  8
03__ASM_ALL_CURVES
100
AcDbLine
 62
4
  6
CONTINUOUS
 10
6.6630031597
 20
10.5843703167
 11
6.673284998
 21
10.5920816917
  0
LINE
  5
28E
100
AcDbEntity
  8
03__ASM_ALL_CURVES
100
AcDbLine
 62
4
  6
CONTINUOUS
 10
7.2648214952
 20
11.0316300667
 11
7.2545396616
 21
11.0239186917
  0
LINE
  5
28F
100
AcDbEntity
  8
03__ASM_ALL_CURVES
100
AcDbLine
 62
4
  6
CONTINUOUS
 10
6.7144123288
 20
10.5843703167
 11
6.7349759943
 21
10.5997930667
  0
LINE
  5
290
100
AcDbEntity
  8
03__ASM_ALL_CURVES
100
AcDbLine
 62
4
  6
CONTINUOUS
 10
7.8397213288
 20
11.4171988167
 11
7.860284998
 21
11.4326215667
  0
LINE
  5
291
100
AcDbEntity
  8
03__ASM_ALL_CURVES
100
AcDbLine
 62
4
  6
CONTINUOUS
 10
6.6938486597
 20
10.5381020667
 11
6.6835668288
 21
10.5303906917
  0
LINE
  5
292
100
AcDbEntity
  8
03__ASM_ALL_CURVES
100
AcDbLine
 62
4
  6
CONTINUOUS
 10
6.7658214952
 20
10.5381020667
 11
6.7452578288
 21
10.5226793167
  0
LINE
  5
293
100
AcDbEntity
  8
03__ASM_ALL_CURVES
100
AcDbLine
 62
4
  6
CONTINUOUS
 10
6.7144123288
 20
10.4147200667
 11
6.704130498
 21
10.4378541917
  0
LINE
  5
294
100
AcDbEntity
  8
03__ASM_ALL_CURVES
100
AcDbLine
 62
4
  6
CONTINUOUS
 10
7.8397213288
 20
11.9261495667
 11
7.8397213288
 21
11.9107268167
  0
LINE
  5
295
100
AcDbEntity
  8
03__ASM_ALL_CURVES
100
AcDbLine
 62
4
  6
CONTINUOUS
 10
7.8397213288
 20
10.4686996917
 11
7.8397213288
 21
10.4224314417
  0
LINE
  5
296
100
AcDbEntity
  8
03__ASM_ALL_CURVES
100
AcDbLine
 62
4
  6
CONTINUOUS
 10
7.8397213288
 20
11.2938168167
 11
7.8397213288
 21
11.3092395667
  0
LINE
  5
297
100
AcDbEntity
  8
03__ASM_ALL_CURVES
100
AcDbLine
 62
4
  6
CONTINUOUS
 10
7.8808486597
 20
10.4301428167
 11
7.8808486597
 21
10.4455655667
  0
LINE
  5
298
100
AcDbEntity
  8
03__ASM_ALL_CURVES
100
AcDbLine
 62
4
  6
CONTINUOUS
 10
7.891130498
 20
11.2938168167
 11
7.891130498
 21
11.3092395667
  0
LINE
  5
299
100
AcDbEntity
  8
03__ASM_ALL_CURVES
100
AcDbLine
 62
4
  6
CONTINUOUS
 10
7.9014123288
 20
9.5124891917
 11
7.9014123288
 21
9.8826351917
  0
LINE
  5
29A
100
AcDbEntity
  8
03__ASM_ALL_CURVES
100
AcDbLine
 62
4
  6
CONTINUOUS
 10
7.9322578288
 20
10.1602446917
 11
7.9322578288
 21
10.2296470667
  0
LINE
  5
29B
100
AcDbEntity
  8
03__ASM_ALL_CURVES
100
AcDbLine
 62
4
  6
CONTINUOUS
 10
7.9322578288
 20
11.0239186917
 11
7.9322578288
 21
11.0933210667
  0
LINE
  5
29C
100
AcDbEntity
  8
03__ASM_ALL_CURVES
100
AcDbLine
 62
4
  6
CONTINUOUS
 10
7.9631033288
 20
11.9261495667
 11
7.9631033288
 21
11.9107268167
  0
LINE
  5
29D
100
AcDbEntity
  8
03__ASM_ALL_CURVES
100
AcDbLine
 62
4
  6
CONTINUOUS
 10
7.9631033288
 20
11.3092395667
 11
7.9631033288
 21
11.2938168167
  0
LINE
  5
29E
100
AcDbEntity
  8
03__ASM_ALL_CURVES
100
AcDbLine
 62
4
  6
CONTINUOUS
 10
7.9631033288
 20
11.2089916917
 11
7.9631033288
 21
11.1974246292
  0
LINE
  5
29F
100
AcDbEntity
  8
03__ASM_ALL_CURVES
100
AcDbLine
 62
4
  6
CONTINUOUS
 10
7.9631033288
 20
10.4455655667
 11
7.9631033288
 21
10.4301428167
  0
LINE
  5
2A0
100
AcDbEntity
  8
03__ASM_ALL_CURVES
100
AcDbLine
 62
4
  6
CONTINUOUS
 10
7.9631033288
 20
10.3453176917
 11
7.9631033288
 21
10.3337506292
  0
LINE
  5
2A1
100
AcDbEntity
  8
03__ASM_ALL_CURVES
100
AcDbLine
 62
4
  6
CONTINUOUS
 10
7.9631033288
 20
11.7642106917
 11
7.9631033288
 21
11.8259016917
  0
LINE
  5
2A2
100
AcDbEntity
  8
03__ASM_ALL_CURVES
100
AcDbLine
 62
4
  6
CONTINUOUS
 10
7.8808486597
 20
10.4455655667
 11
7.891130498
 21
10.4609883167
  0
LINE
  5
2A3
100
AcDbEntity
  8
03__ASM_ALL_CURVES
100
AcDbLine
 62
4
  6
CONTINUOUS
 10
7.9631033288
 20
10.4301428167
 11
7.9528214952
 21
10.4147200667
  0
LINE
  5
2A4
100
AcDbEntity
  8
03__ASM_ALL_CURVES
100
AcDbLine
 62
4
  6
CONTINUOUS
 10
6.6630031597
 20
10.4532769417
 11
6.673284998
 21
10.4609883167
  0
LINE
  5
2A5
100
AcDbEntity
  8
03__ASM_ALL_CURVES
100
AcDbLine
 62
4
  6
CONTINUOUS
 10
7.8500031597
 20
11.3246623167
 11
7.860284998
 21
11.3323736917
  0
LINE
  5
2A6
100
AcDbEntity
  8
03__ASM_ALL_CURVES
100
AcDbLine
 62
4
  6
CONTINUOUS
 10
7.9014123288
 20
11.3246623167
 11
7.9219759943
 21
11.3400850667
  0
LINE
  5
2A7
100
AcDbEntity
  8
03__ASM_ALL_CURVES
100
AcDbLine
 62
4
  6
CONTINUOUS
 10
7.2545396616
 20
10.8002888167
 11
7.2751033288
 21
10.8157115667
  0
LINE
  5
2A8
100
AcDbEntity
  8
03__ASM_ALL_CURVES
100
AcDbLine
 62
4
  6
CONTINUOUS
 10
6.7658214952
 20
10.4224314417
 11
6.7555396616
 21
10.4147200667
  0
LINE
  5
2A9
100
AcDbEntity
  8
03__ASM_ALL_CURVES
100
AcDbLine
 62
4
  6
CONTINUOUS
 10
7.9528214952
 20
11.2783940667
 11
7.9425396616
 21
11.2706826917
  0
LINE
  5
2AA
100
AcDbEntity
  8
03__ASM_ALL_CURVES
100
AcDbLine
 62
4
  6
CONTINUOUS
 10
6.7606805784
 20
10.3337506292
 11
6.7761033288
 21
10.3453176917
  0
LINE
  5
2AB
100
AcDbEntity
  8
03__ASM_ALL_CURVES
100
AcDbLine
 62
4
  6
CONTINUOUS
 10
7.9476805784
 20
11.1974246292
 11
7.9631033288
 21
11.2089916917
  0
LINE
  5
2AC
100
AcDbEntity
  8
03__ASM_ALL_CURVES
100
AcDbLine
 62
4
  6
CONTINUOUS
 10
7.1620031597
 20
10.5843703167
 11
7.172284998
 21
10.5920816917
  0
LINE
  5
2AD
100
AcDbEntity
  8
03__ASM_ALL_CURVES
100
AcDbLine
 62
4
  6
CONTINUOUS
 10
6.704130498
 20
10.2142243167
 11
6.7144123288
 21
10.2219356917
  0
LINE
  5
2AE
100
AcDbEntity
  8
03__ASM_ALL_CURVES
100
AcDbLine
 62
4
  6
CONTINUOUS
 10
7.2134123288
 20
10.5843703167
 11
7.2339759943
 21
10.5997930667
  0
LINE
  5
2AF
100
AcDbEntity
  8
03__ASM_ALL_CURVES
100
AcDbLine
 62
4
  6
CONTINUOUS
 10
7.1928486597
 20
10.5381020667
 11
7.1825668288
 21
10.5303906917
  0
LINE
  5
2B0
100
AcDbEntity
  8
03__ASM_ALL_CURVES
100
AcDbLine
 62
4
  6
CONTINUOUS
 10
6.7658214952
 20
10.1679560667
 11
6.7555396616
 21
10.1602446917
  0
LINE
  5
2B1
100
AcDbEntity
  8
03__ASM_ALL_CURVES
100
AcDbLine
 62
4
  6
CONTINUOUS
 10
7.2648214952
 20
10.5381020667
 11
7.2442578288
 21
10.5226793167
  0
LINE
  5
2B2
100
AcDbEntity
  8
03__ASM_ALL_CURVES
100
AcDbLine
 62
4
  6
CONTINUOUS
 10
7.2134123288
 20
11.4557556917
 11
7.2339759943
 21
11.4634670667
  0
LINE
  5
2B3
100
AcDbEntity
  8
0
100
AcDbLine
 62
7
  6
CONTINUOUS
 10
7.1824121267
 20
9.0366071917
 11
7.1733689119
 21
9.0456504065
  0
LINE
  5
2B4
100
AcDbEntity
  8
03__ASM_ALL_CURVES
100
AcDbLine
 62
4
  6
CONTINUOUS
 10
6.704130498
 20
10.1679560667
 11
6.6938486597
 21
10.1833788167
  0
LINE
  5
2B5
100
AcDbEntity
  8
03__ASM_ALL_CURVES
100
AcDbLine
 62
4
  6
CONTINUOUS
 10
6.7658214952
 20
10.2142243167
 11
6.7761033288
 21
10.1988015667
  0
LINE
  5
2B6
100
AcDbEntity
  8
03__ASM_ALL_CURVES
100
AcDbLine
 62
4
  6
CONTINUOUS
 10
6.6630031597
 20
10.4224314417
 11
6.6527213288
 21
10.4378541917
  0
LINE
  5
2B7
100
AcDbEntity
  8
03__ASM_ALL_CURVES
100
AcDbLine
 62
4
  6
CONTINUOUS
 10
6.6630031597
 20
10.5381020667
 11
6.6527213288
 21
10.5535248167
  0
LINE
  5
2B8
100
AcDbEntity
  8
03__ASM_ALL_CURVES
100
AcDbLine
 62
4
  6
CONTINUOUS
 10
6.7658214952
 20
10.4532769417
 11
6.7761033288
 21
10.4378541917
  0
LINE
  5
2B9
100
AcDbEntity
  8
03__ASM_ALL_CURVES
100
AcDbLine
 62
4
  6
CONTINUOUS
 10
6.7144123288
 20
10.5381020667
 11
6.704130498
 21
10.5535248167
  0
LINE
  5
2BA
100
AcDbEntity
  8
03__ASM_ALL_CURVES
100
AcDbLine
 62
4
  6
CONTINUOUS
 10
6.6938486597
 20
10.5843703167
 11
6.704130498
 21
10.5689475667
  0
LINE
  5
2BB
100
AcDbEntity
  8
03__ASM_ALL_CURVES
100
AcDbLine
 62
4
  6
CONTINUOUS
 10
6.7658214952
 20
10.5843703167
 11
6.7761033288
 21
10.5689475667
  0
LINE
  5
2BC
100
AcDbEntity
  8
03__ASM_ALL_CURVES
100
AcDbLine
 62
4
  6
CONTINUOUS
 10
7.2596805784
 20
10.3337506292
 11
7.2751033288
 21
10.3453176917
  0
LINE
  5
2BD
100
AcDbEntity
  8
03__ASM_ALL_CURVES
100
AcDbLine
 62
4
  6
CONTINUOUS
 10
7.203130498
 20
10.2142243167
 11
7.2134123288
 21
10.2219356917
  0
LINE
  5
2BE
100
AcDbEntity
  8
03__ASM_ALL_CURVES
100
AcDbLine
 62
4
  6
CONTINUOUS
 10
7.9425396616
 20
10.6769068167
 11
7.9631033288
 21
10.6923295667
  0
LINE
  5
2BF
100
AcDbEntity
  8
03__ASM_ALL_CURVES
100
AcDbLine
 62
4
  6
CONTINUOUS
 10
7.2648214952
 20
10.1679560667
 11
7.2545396616
 21
10.1602446917
  0
LINE
  5
2C0
100
AcDbEntity
  8
03__ASM_ALL_CURVES
100
AcDbLine
 62
4
  6
CONTINUOUS
 10
7.203130498
 20
10.1679560667
 11
7.1928486597
 21
10.1833788167
  0
LINE
  5
2C1
100
AcDbEntity
  8
03__ASM_ALL_CURVES
100
AcDbLine
 62
4
  6
CONTINUOUS
 10
7.2648214952
 20
10.2142243167
 11
7.2751033288
 21
10.1988015667
  0
LINE
  5
2C2
100
AcDbEntity
  8
03__ASM_ALL_CURVES
100
AcDbLine
 62
4
  6
CONTINUOUS
 10
7.1620031597
 20
10.5381020667
 11
7.1517213288
 21
10.5535248167
  0
LINE
  5
2C3
100
AcDbEntity
  8
03__ASM_ALL_CURVES
100
AcDbLine
 62
4
  6
CONTINUOUS
 10
7.2134123288
 20
10.5381020667
 11
7.203130498
 21
10.5535248167
  0
LINE
  5
2C4
100
AcDbEntity
  8
03__ASM_ALL_CURVES
100
AcDbLine
 62
4
  6
CONTINUOUS
 10
7.1928486597
 20
10.5843703167
 11
7.203130498
 21
10.5689475667
  0
LINE
  5
2C5
100
AcDbEntity
  8
0
100
AcDbLine
 62
7
  6
CONTINUOUS
 10
9.2114123288
 20
7.1801071917
 11
9.2714123288
 21
7.0601071917
  0
LINE
  5
2C6
100
AcDbEntity
  8
0
100
AcDbLine
 62
7
  6
CONTINUOUS
 10
9.1514123288
 20
7.0451071917
 11
9.1206305159
 21
7.1296795276
  0
LINE
  5
2C7
100
AcDbEntity
  8
0
100
AcDbLine
 62
7
  6
CONTINUOUS
 10
8.6824121085
 20
6.951107228
 11
8.6824121085
 21
9.3891071917
  0
LINE
  5
2C8
100
AcDbEntity
  8
0
100
AcDbLine
 62
7
  6
CONTINUOUS
 10
7.2134121267
 20
9.3421072098
 11
7.2444121267
 21
9.3731072098
  0
LINE
  5
2C9
100
AcDbEntity
  8
03__ASM_ALL_CURVES
100
AcDbLine
 62
4
  6
CONTINUOUS
 10
7.891130498
 20
10.4609883167
 11
7.9014123288
 21
10.4686996917
  0
LINE
  5
2CA
100
AcDbEntity
  8
03__ASM_ALL_CURVES
100
AcDbLine
 62
4
  6
CONTINUOUS
 10
7.9528214952
 20
10.4147200667
 11
7.9425396616
 21
10.4070086917
  0
LINE
  5
2CB
100
AcDbEntity
  8
03__ASM_ALL_CURVES
100
AcDbLine
 62
4
  6
CONTINUOUS
 10
7.9476805784
 20
10.3337506292
 11
7.9631033288
 21
10.3453176917
  0
LINE
  5
2CC
100
AcDbEntity
  8
03__ASM_ALL_CURVES
100
AcDbLine
 62
4
  6
CONTINUOUS
 10
6.7144123288
 20
10.4609883167
 11
6.7349759943
 21
10.4686996917
  0
LINE
  5
2CD
100
AcDbEntity
  8
03__ASM_ALL_CURVES
100
AcDbLine
 62
4
  6
CONTINUOUS
 10
15.4676468288
 20
6.8894161917
 11
15.4560797663
 21
6.8894161917
  0
LINE
  5
2CE
100
AcDbEntity
  8
03__ASM_ALL_CURVES
100
AcDbLine
 62
4
  6
CONTINUOUS
 10
14.8276027038
 20
6.8894161917
 11
14.8121799538
 21
6.8894161917
  0
LINE
  5
2CF
100
AcDbEntity
  8
03__ASM_ALL_CURVES
100
AcDbLine
 62
4
  6
CONTINUOUS
 10
14.6039728288
 20
6.8894161917
 11
14.5924057663
 21
6.8894161917
  0
LINE
  5
2D0
100
AcDbEntity
  8
03__ASM_ALL_CURVES
100
AcDbLine
 62
4
  6
CONTINUOUS
 10
14.4188998288
 20
6.8894161917
 11
14.4805908288
 21
6.8894161917
  0
LINE
  5
2D1
100
AcDbEntity
  8
03__ASM_ALL_CURVES
100
AcDbLine
 62
4
  6
CONTINUOUS
 10
15.6527198288
 20
6.8894161917
 11
15.7144108288
 21
6.8894161917
  0
LINE
  5
2D2
100
AcDbEntity
  8
03__ASM_ALL_CURVES
100
AcDbLine
 62
4
  6
CONTINUOUS
 10
14.6656638288
 20
6.9202616917
 11
14.7350662038
 21
6.9202616917
  0
LINE
  5
2D3
100
AcDbEntity
  8
0
100
AcDbLine
 62
7
  6
CONTINUOUS
 10
10.932412347
 20
6.951107228
 11
8.6824121085
 21
6.951107228
  0
LINE
  5
2D4
100
AcDbEntity
  8
03__ASM_ALL_CURVES
100
AcDbLine
 62
4
  6
CONTINUOUS
 10
12.5247943288
 20
6.9511071917
 11
13.7711443288
 21
6.9511071917
  0
LINE
  5
2D5
100
AcDbEntity
  8
03__ASM_ALL_CURVES
100
AcDbLine
 62
4
  6
CONTINUOUS
 10
14.8121799538
 20
6.9613890226
 11
14.8276027038
 21
6.9613890226
  0
LINE
  5
2D6
100
AcDbEntity
  8
0
100
AcDbLine
 62
7
  6
CONTINUOUS
 10
12.3704123288
 20
6.9671072098
 11
10.932412347
 21
6.9671072098
  0
LINE
  5
2D7
100
AcDbEntity
  8
0
100
AcDbLine
 62
7
  6
CONTINUOUS
 10
8.6824121085
 20
6.9671072098
 11
7.2444121267
 21
6.9671072098
  0
LINE
  5
2D8
100
AcDbEntity
  8
03__ASM_ALL_CURVES
100
AcDbLine
 62
4
  6
CONTINUOUS
 10
15.5910288288
 20
7.0127981917
 11
15.5293378288
 21
7.0127981917
  0
LINE
  5
2D9
100
AcDbEntity
  8
03__ASM_ALL_CURVES
100
AcDbLine
 62
4
  6
CONTINUOUS
 10
14.4420339538
 20
7.0127981917
 11
14.4574567038
 21
7.0127981917
  0
LINE
  5
2DA
100
AcDbEntity
  8
03__ASM_ALL_CURVES
100
AcDbLine
 62
4
  6
CONTINUOUS
 10
14.8121799538
 20
7.0127981917
 11
14.8276027038
 21
7.0127981917
  0
LINE
  5
2DB
100
AcDbEntity
  8
03__ASM_ALL_CURVES
100
AcDbLine
 62
4
  6
CONTINUOUS
 10
15.6758539538
 20
7.0127981917
 11
15.6912767038
 21
7.0127981917
  0
LINE
  5
2DC
100
AcDbEntity
  8
0
100
AcDbLine
 62
7
  6
CONTINUOUS
 10
9.3614123288
 20
7.0601071917
 11
9.3014123288
 21
7.0601071917
  0
LINE
  5
2DD
100
AcDbEntity
  8
0
100
AcDbLine
 62
7
  6
CONTINUOUS
 10
9.4814123288
 20
7.0601071917
 11
9.5414123288
 21
7.0601071917
  0
LINE
  5
2DE
100
AcDbEntity
  8
03__ASM_ALL_CURVES
100
AcDbLine
 62
4
  6
CONTINUOUS
 10
9.2599123288
 20
7.8711071923
 11
9.2749123288
 21
7.8511071917
  0
LINE
  5
2DF
100
AcDbEntity
  8
03__ASM_ALL_CURVES
100
AcDbLine
 62
4
  6
CONTINUOUS
 10
6.6630031597
 20
11.4017760667
 11
6.6527213288
 21
11.4171988167
  0
LINE
  5
2E0
100
AcDbEntity
  8
03__ASM_ALL_CURVES
100
AcDbLine
 62
4
  6
CONTINUOUS
 10
7.2648214952
 20
10.5843703167
 11
7.2751033288
 21
10.5689475667
  0
LINE
  5
2E1
100
AcDbEntity
  8
03__ASM_ALL_CURVES
100
AcDbLine
 62
4
  6
CONTINUOUS
 10
6.704130498
 20
11.4480443167
 11
6.7246941634
 21
11.4171988167
  0
LINE
  5
2E2
100
AcDbEntity
  8
03__ASM_ALL_CURVES
100
AcDbLine
 62
4
  6
CONTINUOUS
 10
7.1620031597
 20
11.0316300667
 11
7.1517213288
 21
11.0470528167
  0
LINE
  5
2E3
100
AcDbEntity
  8
03__ASM_ALL_CURVES
100
AcDbLine
 62
4
  6
CONTINUOUS
 10
7.1928486597
 20
11.0778983167
 11
7.203130498
 21
11.0624755667
  0
LINE
  5
2E4
100
AcDbEntity
  8
03__ASM_ALL_CURVES
100
AcDbLine
 62
4
  6
CONTINUOUS
 10
7.2648214952
 20
11.0778983167
 11
7.2751033288
 21
11.0624755667
  0
LINE
  5
2E5
100
AcDbEntity
  8
03__ASM_ALL_CURVES
100
AcDbLine
 62
4
  6
CONTINUOUS
 10
8.8364123288
 20
7.1651071917
 11
8.8364123288
 21
7.0451071917
  0
LINE
  5
2E6
100
AcDbEntity
  8
0
100
AcDbLine
 62
7
  6
CONTINUOUS
 10
9.1474123288
 20
8.5111071917
 11
9.1474123288
 21
8.4511071917
  0
LINE
  5
2E7
100
AcDbEntity
  8
0
100
AcDbLine
 62
7
  6
CONTINUOUS
 10
9.1514123288
 20
7.0451071917
 11
9.1514123288
 21
7.1951071917
  0
LINE
  5
2E8
100
AcDbEntity
  8
03__ASM_ALL_CURVES
100
AcDbLine
 62
4
  6
CONTINUOUS
 10
6.7555396616
 20
10.4147200667
 11
6.7349759943
 21
10.4070086917
  0
LINE
  5
2E9
100
AcDbEntity
  8
03__ASM_ALL_CURVES
100
AcDbLine
 62
4
  6
CONTINUOUS
 10
6.7144123288
 20
10.2219356917
 11
6.7349759943
 21
10.2296470667
  0
LINE
  5
2EA
100
AcDbEntity
  8
0
100
AcDbLine
 62
7
  6
CONTINUOUS
 10
9.5714123288
 20
7.1201071917
 11
9.6314123288
 21
7.1201071917
  0
LINE
  5
2EB
100
AcDbEntity
  8
0
100
AcDbLine
 62
7
  6
CONTINUOUS
 10
9.3014123288
 20
7.1801071917
 11
9.3614123288
 21
7.1801071917
  0
LINE
  5
2EC
100
AcDbEntity
  8
0
100
AcDbLine
 62
7
  6
CONTINUOUS
 10
9.3914123288
 20
7.1801071917
 11
9.4514123288
 21
7.1801071917
  0
LINE
  5
2ED
100
AcDbEntity
  8
0
100
AcDbLine
 62
7
  6
CONTINUOUS
 10
9.4814123288
 20
7.1801071917
 11
9.5414123288
 21
7.1801071917
  0
LINE
  5
2EE
100
AcDbEntity
  8
0
100
AcDbLine
 62
7
  6
CONTINUOUS
 10
9.1514123288
 20
7.1951071917
 11
9.6464123288
 21
7.1951071917
  0
LINE
  5
2EF
100
AcDbEntity
  8
0
100
AcDbLine
 62
7
  6
CONTINUOUS
 10
12.4014123288
 20
7.3421072098
 11
10.932412347
 21
7.3421072098
  0
LINE
  5
2F0
100
AcDbEntity
  8
0
100
AcDbLine
 62
7
  6
CONTINUOUS
 10
7.2134121267
 20
7.3421072098
 11
8.6824121085
 21
7.3421072098
  0
LINE
  5
2F1
100
AcDbEntity
  8
03__ASM_ALL_CURVES
100
AcDbLine
 62
4
  6
CONTINUOUS
 10
9.3874123288
 20
7.9711071917
 11
9.4024123288
 21
7.9611071941
  0
LINE
  5
2F2
100
AcDbEntity
  8
03__ASM_ALL_CURVES
100
AcDbLine
 62
4
  6
CONTINUOUS
 10
9.8599123288
 20
7.8511071917
 11
9.8449123288
 21
7.861107192
  0
LINE
  5
2F3
100
AcDbEntity
  8
03__ASM_ALL_CURVES
100
AcDbLine
 62
4
  6
CONTINUOUS
 10
9.9799123288
 20
7.8511071917
 11
9.9649123288
 21
7.861107192
  0
LINE
  5
2F4
100
AcDbEntity
  8
03__ASM_ALL_CURVES
100
AcDbLine
 62
4
  6
CONTINUOUS
 10
6.7555396616
 20
10.2219356917
 11
6.7658214952
 21
10.2142243167
  0
LINE
  5
2F5
100
AcDbEntity
  8
03__ASM_ALL_CURVES
100
AcDbLine
 62
4
  6
CONTINUOUS
 10
9.4024123288
 20
7.9611071941
 11
9.4174123288
 21
7.9411071917
  0
LINE
  5
2F6
100
AcDbEntity
  8
03__ASM_ALL_CURVES
100
AcDbLine
 62
4
  6
CONTINUOUS
 10
9.8449123288
 20
7.861107192
 11
9.8299123288
 21
7.8811071917
  0
LINE
  5
2F7
100
AcDbEntity
  8
03__ASM_ALL_CURVES
100
AcDbLine
 62
4
  6
CONTINUOUS
 10
7.203130498
 20
11.4017760667
 11
7.1928486597
 21
11.4171988167
  0
LINE
  5
2F8
100
AcDbEntity
  8
03__ASM_ALL_CURVES
100
AcDbLine
 62
4
  6
CONTINUOUS
 10
7.891130498
 20
10.4147200667
 11
7.8808486597
 21
10.4301428167
  0
LINE
  5
2F9
100
AcDbEntity
  8
03__ASM_ALL_CURVES
100
AcDbLine
 62
4
  6
CONTINUOUS
 10
7.2648214952
 20
11.4480443167
 11
7.2751033288
 21
11.4326215667
  0
LINE
  5
2FA
100
AcDbEntity
  8
03__ASM_ALL_CURVES
100
AcDbLine
 62
4
  6
CONTINUOUS
 10
7.9528214952
 20
10.4609883167
 11
7.9631033288
 21
10.4455655667
  0
LINE
  5
2FB
100
AcDbEntity
  8
03__ASM_ALL_CURVES
100
AcDbLine
 62
4
  6
CONTINUOUS
 10
9.5074123288
 20
7.9711071917
 11
9.5449123288
 21
7.8511071917
  0
LINE
  5
2FC
100
AcDbEntity
  8
03__ASM_ALL_CURVES
100
AcDbLine
 62
4
  6
CONTINUOUS
 10
9.2524123288
 20
7.9011071905
 11
9.2599123288
 21
7.8711071923
  0
LINE
  5
2FD
100
AcDbEntity
  8
03__ASM_ALL_CURVES
100
AcDbLine
 62
4
  6
CONTINUOUS
 10
9.4174123288
 20
7.9411071917
 11
9.4249123288
 21
7.9111071917
  0
LINE
  5
2FE
100
AcDbEntity
  8
0
100
AcDbLine
 62
7
  6
CONTINUOUS
 10
9.2074123288
 20
8.4511071917
 11
9.2074123288
 21
8.3911071917
  0
LINE
  5
2FF
100
AcDbEntity
  8
0
100
AcDbLine
 62
7
  6
CONTINUOUS
 10
9.2114123288
 20
7.0601071917
 11
9.2114123288
 21
7.1801071917
  0
LINE
  5
300
100
AcDbEntity
  8
0
100
AcDbLine
 62
7
  6
CONTINUOUS
 10
9.2374123288
 20
8.3911071917
 11
9.2374123288
 21
8.5111071917
  0
LINE
  5
301
100
AcDbEntity
  8
03__ASM_ALL_CURVES
100
AcDbLine
 62
4
  6
CONTINUOUS
 10
9.2524123288
 20
7.9211071893
 11
9.2524123288
 21
7.9011071905
  0
LINE
  5
302
100
AcDbEntity
  8
0
100
AcDbLine
 62
7
  6
CONTINUOUS
 10
9.2714123288
 20
7.0601071917
 11
9.2714123288
 21
7.1801071917
  0
LINE
  5
303
100
AcDbEntity
  8
0
100
AcDbLine
 62
7
  6
CONTINUOUS
 10
9.2974123288
 20
8.5111071917
 11
9.2974123288
 21
8.3911071917
  0
LINE
  5
304
100
AcDbEntity
  8
0
100
AcDbLine
 62
7
  6
CONTINUOUS
 10
9.3014123288
 20
7.0601071917
 11
9.3014123288
 21
7.1801071917
  0
LINE
  5
305
100
AcDbEntity
  8
0
100
AcDbLine
 62
7
  6
CONTINUOUS
 10
9.3274123288
 20
8.5111071917
 11
9.3274123288
 21
8.3911071917
  0
LINE
  5
306
100
AcDbEntity
  8
03__ASM_ALL_CURVES
100
AcDbLine
 62
4
  6
CONTINUOUS
 10
9.3574123288
 20
7.8511071917
 11
9.3574123288
 21
7.9711071917
  0
LINE
  5
307
100
AcDbEntity
  8
0
100
AcDbLine
 62
7
  6
CONTINUOUS
 10
9.3614123288
 20
7.1801071917
 11
9.3614123288
 21
7.0601071917
  0
LINE
  5
308
100
AcDbEntity
  8
0
100
AcDbLine
 62
7
  6
CONTINUOUS
 10
9.3874123288
 20
8.5111071917
 11
9.3874123288
 21
8.3911071917
  0
LINE
  5
309
100
AcDbEntity
  8
0
100
AcDbLine
 62
7
  6
CONTINUOUS
 10
9.4214123288
 20
7.1801071917
 11
9.4214123288
 21
7.0601071917
  0
LINE
  5
30A
100
AcDbEntity
  8
0
100
AcDbLine
 62
7
  6
CONTINUOUS
 10
9.4814123288
 20
7.1801071917
 11
9.4814123288
 21
7.0601071917
  0
LINE
  5
30B
100
AcDbEntity
  8
0
100
AcDbLine
 62
7
  6
CONTINUOUS
 10
9.5074123288
 20
8.3911071917
 11
9.5074123288
 21
8.5111071917
  0
LINE
  5
30C
100
AcDbEntity
  8
0
100
AcDbLine
 62
7
  6
CONTINUOUS
 10
7.1824121267
 20
8.1796071917
 11
7.1733689119
 21
8.170563977
  0
LINE
  5
30D
100
AcDbEntity
  8
03__ASM_ALL_CURVES
100
AcDbLine
 62
4
  6
CONTINUOUS
 10
11.6517213288
 20
12.1574908167
 11
11.672284998
 21
12.1729135667
  0
LINE
  5
30E
100
AcDbEntity
  8
03__ASM_ALL_CURVES
100
AcDbLine
 62
4
  6
CONTINUOUS
 10
11.672284998
 20
12.0726656917
 11
11.6620031597
 21
12.0649543167
  0
LINE
  5
30F
100
AcDbEntity
  8
03__ASM_ALL_CURVES
100
AcDbLine
 62
4
  6
CONTINUOUS
 10
11.7236941634
 20
12.0649543167
 11
11.7339759943
 21
12.0726656917
  0
LINE
  5
310
100
AcDbEntity
  8
03__ASM_ALL_CURVES
100
AcDbLine
 62
4
  6
CONTINUOUS
 10
7.2134123288
 20
10.2219356917
 11
7.2339759943
 21
10.2296470667
  0
LINE
  5
311
100
AcDbEntity
  8
03__ASM_ALL_CURVES
100
AcDbLine
 62
4
  6
CONTINUOUS
 10
7.9014123288
 20
10.4686996917
 11
7.9219759943
 21
10.4764110667
  0
LINE
  5
312
100
AcDbEntity
  8
03__ASM_ALL_CURVES
100
AcDbLine
 62
4
  6
CONTINUOUS
 10
9.8749123288
 20
7.9711071917
 11
9.8899123288
 21
7.9611071941
  0
LINE
  5
313
100
AcDbEntity
  8
03__ASM_ALL_CURVES
100
AcDbLine
 62
4
  6
CONTINUOUS
 10
9.9949123288
 20
7.9711071917
 11
10.0099123288
 21
7.9611071941
  0
LINE
  5
314
100
AcDbEntity
  8
03__ASM_ALL_CURVES
100
AcDbLine
 62
4
  6
CONTINUOUS
 10
9.9199123288
 20
8.0911071917
 11
9.9049123288
 21
8.101107192
  0
LINE
  5
315
100
AcDbEntity
  8
03__ASM_ALL_CURVES
100
AcDbLine
 62
4
  6
CONTINUOUS
 10
10.1074123288
 20
7.9711071917
 11
10.1224123288
 21
7.9611071941
  0
LINE
  5
316
100
AcDbEntity
  8
03__ASM_ALL_CURVES
100
AcDbLine
 62
4
  6
CONTINUOUS
 10
9.9199123288
 20
8.1611071893
 11
9.9049123288
 21
8.1711071941
  0
LINE
  5
317
100
AcDbEntity
  8
03__ASM_ALL_CURVES
100
AcDbLine
 62
4
  6
CONTINUOUS
 10
9.9349123288
 20
8.1611071893
 11
9.9499123288
 21
8.1511071917
  0
LINE
  5
318
100
AcDbEntity
  8
03__ASM_ALL_CURVES
100
AcDbLine
 62
4
  6
CONTINUOUS
 10
9.9349123288
 20
8.2111071917
 11
9.9499123288
 21
8.2011071941
  0
LINE
  5
319
100
AcDbEntity
  8
03__ASM_ALL_CURVES
100
AcDbLine
 62
4
  6
CONTINUOUS
 10
6.673284998
 20
10.4147200667
 11
6.6630031597
 21
10.4224314417
  0
LINE
  5
31A
100
AcDbEntity
  8
03__ASM_ALL_CURVES
100
AcDbLine
 62
4
  6
CONTINUOUS
 10
6.7555396616
 20
10.4609883167
 11
6.7658214952
 21
10.4532769417
  0
LINE
  5
31B
100
AcDbEntity
  8
03__ASM_ALL_CURVES
100
AcDbLine
 62
4
  6
CONTINUOUS
 10
6.673284998
 20
10.5303906917
 11
6.6630031597
 21
10.5381020667
  0
LINE
  5
31C
100
AcDbEntity
  8
03__ASM_ALL_CURVES
100
AcDbLine
 62
4
  6
CONTINUOUS
 10
6.7349759943
 20
10.5226793167
 11
6.7144123288
 21
10.5381020667
  0
LINE
  5
31D
100
AcDbEntity
  8
03__ASM_ALL_CURVES
100
AcDbLine
 62
4
  6
CONTINUOUS
 10
6.6835668288
 20
10.5920816917
 11
6.6938486597
 21
10.5843703167
  0
LINE
  5
31E
100
AcDbEntity
  8
03__ASM_ALL_CURVES
100
AcDbLine
 62
4
  6
CONTINUOUS
 10
6.7452578288
 20
10.5997930667
 11
6.7658214952
 21
10.5843703167
  0
LINE
  5
31F
100
AcDbEntity
  8
03__ASM_ALL_CURVES
100
AcDbLine
 62
4
  6
CONTINUOUS
 10
7.2545396616
 20
10.2219356917
 11
7.2648214952
 21
10.2142243167
  0
LINE
  5
320
100
AcDbEntity
  8
03__ASM_ALL_CURVES
100
AcDbLine
 62
4
  6
CONTINUOUS
 10
6.6527213288
 20
10.8157115667
 11
6.673284998
 21
10.8002888167
  0
LINE
  5
321
100
AcDbEntity
  8
03__ASM_ALL_CURVES
100
AcDbLine
 62
4
  6
CONTINUOUS
 10
9.8899123288
 20
7.9611071941
 11
9.8974123288
 21
7.9511071893
  0
LINE
  5
322
100
AcDbEntity
  8
03__ASM_ALL_CURVES
100
AcDbLine
 62
4
  6
CONTINUOUS
 10
9.9649123288
 20
7.861107192
 11
9.9499123288
 21
7.8811071917
  0
LINE
  5
323
100
AcDbEntity
  8
03__ASM_ALL_CURVES
100
AcDbLine
 62
4
  6
CONTINUOUS
 10
9.8374123288
 20
8.1411071905
 11
9.8224123288
 21
8.1611071893
  0
LINE
  5
324
100
AcDbEntity
  8
03__ASM_ALL_CURVES
100
AcDbLine
 62
4
  6
CONTINUOUS
 10
9.9049123288
 20
8.101107192
 11
9.8899123288
 21
8.1211071917
  0
LINE
  5
325
100
AcDbEntity
  8
03__ASM_ALL_CURVES
100
AcDbLine
 62
4
  6
CONTINUOUS
 10
9.8299123288
 20
8.2011071941
 11
9.8224123288
 21
8.2111071917
  0
LINE
  5
326
100
AcDbEntity
  8
03__ASM_ALL_CURVES
100
AcDbLine
 62
4
  6
CONTINUOUS
 10
10.0099123288
 20
7.9611071941
 11
10.0249123288
 21
7.9411071917
  0
LINE
  5
327
100
AcDbEntity
  8
03__ASM_ALL_CURVES
100
AcDbLine
 62
4
  6
CONTINUOUS
 10
9.9049123288
 20
8.1711071941
 11
9.8974123288
 21
8.1811071917
  0
LINE
  5
328
100
AcDbEntity
  8
03__ASM_ALL_CURVES
100
AcDbLine
 62
4
  6
CONTINUOUS
 10
9.9499123288
 20
8.1511071917
 11
9.9649123288
 21
8.1311071929
  0
LINE
  5
329
100
AcDbEntity
  8
03__ASM_ALL_CURVES
100
AcDbLine
 62
4
  6
CONTINUOUS
 10
10.1224123288
 20
7.9611071941
 11
10.1374123288
 21
7.9411071917
  0
LINE
  5
32A
100
AcDbEntity
  8
03__ASM_ALL_CURVES
100
AcDbLine
 62
4
  6
CONTINUOUS
 10
9.9499123288
 20
8.2011071941
 11
9.9574123288
 21
8.1911071893
  0
LINE
  5
32B
100
AcDbEntity
  8
03__ASM_ALL_CURVES
100
AcDbLine
 62
4
  6
CONTINUOUS
 10
7.8500031597
 20
11.2783940667
 11
7.8397213288
 21
11.2938168167
  0
LINE
  5
32C
100
AcDbEntity
  8
03__ASM_ALL_CURVES
100
AcDbLine
 62
4
  6
CONTINUOUS
 10
7.8808486597
 20
11.3246623167
 11
7.891130498
 21
11.3092395667
  0
LINE
  5
32D
100
AcDbEntity
  8
03__ASM_ALL_CURVES
100
AcDbLine
 62
4
  6
CONTINUOUS
 10
7.9528214952
 20
11.3246623167
 11
7.9631033288
 21
11.3092395667
  0
LINE
  5
32E
100
AcDbEntity
  8
03__ASM_ALL_CURVES
100
AcDbLine
 62
4
  6
CONTINUOUS
 10
9.8299123288
 20
7.8811071917
 11
9.8224123288
 21
7.9111071917
  0
LINE
  5
32F
100
AcDbEntity
  8
0
100
AcDbLine
 62
7
  6
CONTINUOUS
 10
9.5674123288
 20
8.3911071917
 11
9.5674123288
 21
8.4511071917
  0
LINE
  5
330
100
AcDbEntity
  8
0
100
AcDbLine
 62
7
  6
CONTINUOUS
 10
9.5714123288
 20
7.1801071917
 11
9.5714123288
 21
7.0601071917
  0
LINE
  5
331
100
AcDbEntity
  8
0
100
AcDbLine
 62
7
  6
CONTINUOUS
 10
9.6074123288
 20
8.3911071917
 11
9.6074123288
 21
8.4511071917
  0
LINE
  5
332
100
AcDbEntity
  8
03__ASM_ALL_CURVES
100
AcDbLine
 62
4
  6
CONTINUOUS
 10
9.6274123288
 20
7.9711071917
 11
9.6274123288
 21
7.8511071917
  0
LINE
  5
333
100
AcDbEntity
  8
0
100
AcDbLine
 62
7
  6
CONTINUOUS
 10
9.6314123288
 20
7.1801071917
 11
9.6314123288
 21
7.0601071917
  0
LINE
  5
334
100
AcDbEntity
  8
03__ASM_ALL_CURVES
100
AcDbLine
 62
4
  6
CONTINUOUS
 10
9.6574123288
 20
8.0911071917
 11
9.6574123288
 21
8.2111071917
  0
LINE
  5
335
100
AcDbEntity
  8
0
100
AcDbLine
 62
7
  6
CONTINUOUS
 10
9.6674123288
 20
8.4511071917
 11
9.6674123288
 21
8.3311071917
  0
LINE
  5
336
100
AcDbEntity
  8
0
100
AcDbLine
 62
7
  6
CONTINUOUS
 10
9.7074123288
 20
8.3911071917
 11
9.7074123288
 21
8.4511071917
  0
LINE
  5
337
100
AcDbEntity
  8
03__ASM_ALL_CURVES
100
AcDbLine
 62
4
  6
CONTINUOUS
 10
9.7174123288
 20
7.8511071917
 11
9.7174123288
 21
7.9711071917
  0
LINE
  5
338
100
AcDbEntity
  8
0
100
AcDbLine
 62
7
  6
CONTINUOUS
 10
9.7674123288
 20
8.5111071917
 11
9.7674123288
 21
8.3911071917
  0
LINE
  5
339
100
AcDbEntity
  8
03__ASM_ALL_CURVES
100
AcDbLine
 62
4
  6
CONTINUOUS
 10
9.7699123288
 20
8.2111071917
 11
9.7699123288
 21
8.0911071917
  0
LINE
  5
33A
100
AcDbEntity
  8
0
100
AcDbLine
 62
7
  6
CONTINUOUS
 10
9.8074123288
 20
8.4511071917
 11
9.8074123288
 21
8.3911071917
  0
LINE
  5
33B
100
AcDbEntity
  8
03__ASM_ALL_CURVES
100
AcDbLine
 62
4
  6
CONTINUOUS
 10
9.8299123288
 20
8.1711071941
 11
9.8299123288
 21
8.2011071941
  0
LINE
  5
33C
100
AcDbEntity
  8
03__ASM_ALL_CURVES
100
AcDbLine
 62
4
  6
CONTINUOUS
 10
9.8374123288
 20
8.1111071923
 11
9.8374123288
 21
8.1411071905
  0
LINE
  5
33D
100
AcDbEntity
  8
03__ASM_ALL_CURVES
100
AcDbLine
 62
4
  6
CONTINUOUS
 10
9.2599123288
 20
7.9511071893
 11
9.2524123288
 21
7.9211071893
  0
LINE
  5
33E
100
AcDbEntity
  8
03__ASM_ALL_CURVES
100
AcDbLine
 62
4
  6
CONTINUOUS
 10
9.4249123288
 20
7.9111071917
 11
9.4174123288
 21
7.8811071917
  0
LINE
  5
33F
100
AcDbEntity
  8
03__ASM_ALL_CURVES
100
AcDbLine
 62
4
  6
CONTINUOUS
 10
11.6825668288
 20
12.0109746917
 11
11.6928486597
 21
12.0186860667
  0
LINE
  5
340
100
AcDbEntity
  8
03__ASM_ALL_CURVES
100
AcDbLine
 62
4
  6
CONTINUOUS
 10
11.7648214952
 20
12.0186860667
 11
11.7442578288
 21
12.0032633167
  0
LINE
  5
341
100
AcDbEntity
  8
03__ASM_ALL_CURVES
100
AcDbLine
 62
4
  6
CONTINUOUS
 10
11.7545396616
 20
11.7873448167
 11
11.7751033288
 21
11.8027675667
  0
LINE
  5
342
100
AcDbEntity
  8
03__ASM_ALL_CURVES
100
AcDbLine
 62
4
  6
CONTINUOUS
 10
10.2574123288
 20
7.8511071917
 11
10.1974123288
 21
7.8511071917
  0
LINE
  5
343
100
AcDbEntity
  8
03__ASM_ALL_CURVES
100
AcDbLine
 62
4
  6
CONTINUOUS
 10
10.1074123288
 20
7.8511071917
 11
10.0774123288
 21
7.8511071917
  0
LINE
  5
344
100
AcDbEntity
  8
03__ASM_ALL_CURVES
100
AcDbLine
 62
4
  6
CONTINUOUS
 10
9.9949123288
 20
7.8511071917
 11
9.9799123288
 21
7.8511071917
  0
LINE
  5
345
100
AcDbEntity
  8
03__ASM_ALL_CURVES
100
AcDbLine
 62
4
  6
CONTINUOUS
 10
9.8749123288
 20
7.8511071917
 11
9.8599123288
 21
7.8511071917
  0
LINE
  5
346
100
AcDbEntity
  8
03__ASM_ALL_CURVES
100
AcDbLine
 62
4
  6
CONTINUOUS
 10
9.7774123288
 20
7.8511071917
 11
9.7174123288
 21
7.8511071917
  0
LINE
  5
347
100
AcDbEntity
  8
03__ASM_ALL_CURVES
100
AcDbLine
 62
4
  6
CONTINUOUS
 10
9.3874123288
 20
7.8511071917
 11
9.3574123288
 21
7.8511071917
  0
LINE
  5
348
100
AcDbEntity
  8
03__ASM_ALL_CURVES
100
AcDbLine
 62
4
  6
CONTINUOUS
 10
9.4849123288
 20
7.8911071929
 11
9.5299123288
 21
7.8911071929
  0
LINE
  5
349
100
AcDbEntity
  8
03__ASM_ALL_CURVES
100
AcDbLine
 62
4
  6
CONTINUOUS
 10
9.7174123288
 20
7.9111071917
 11
9.7549123288
 21
7.9111071917
  0
LINE
  5
34A
100
AcDbEntity
  8
03__ASM_ALL_CURVES
100
AcDbLine
 62
4
  6
CONTINUOUS
 10
10.1974123288
 20
7.9111071917
 11
10.2349123288
 21
7.9111071917
  0
LINE
  5
34B
100
AcDbEntity
  8
03__ASM_ALL_CURVES
100
AcDbLine
 62
4
  6
CONTINUOUS
 10
9.3574123288
 20
7.9711071917
 11
9.3874123288
 21
7.9711071917
  0
LINE
  5
34C
100
AcDbEntity
  8
03__ASM_ALL_CURVES
100
AcDbLine
 62
4
  6
CONTINUOUS
 10
9.5899123288
 20
7.9711071917
 11
9.6649123288
 21
7.9711071917
  0
LINE
  5
34D
100
AcDbEntity
  8
03__ASM_ALL_CURVES
100
AcDbLine
 62
4
  6
CONTINUOUS
 10
9.7174123288
 20
7.9711071917
 11
9.7774123288
 21
7.9711071917
  0
LINE
  5
34E
100
AcDbEntity
  8
03__ASM_ALL_CURVES
100
AcDbLine
 62
4
  6
CONTINUOUS
 10
9.8599123288
 20
7.9711071917
 11
9.8749123288
 21
7.9711071917
  0
LINE
  5
34F
100
AcDbEntity
  8
03__ASM_ALL_CURVES
100
AcDbLine
 62
4
  6
CONTINUOUS
 10
9.9799123288
 20
7.9711071917
 11
9.9949123288
 21
7.9711071917
  0
LINE
  5
350
100
AcDbEntity
  8
03__ASM_ALL_CURVES
100
AcDbLine
 62
4
  6
CONTINUOUS
 10
10.0774123288
 20
7.9711071917
 11
10.1074123288
 21
7.9711071917
  0
LINE
  5
351
100
AcDbEntity
  8
03__ASM_ALL_CURVES
100
AcDbLine
 62
4
  6
CONTINUOUS
 10
10.1974123288
 20
7.9711071917
 11
10.2574123288
 21
7.9711071917
  0
LINE
  5
352
100
AcDbEntity
  8
03__ASM_ALL_CURVES
100
AcDbLine
 62
4
  6
CONTINUOUS
 10
9.9349123288
 20
8.0911071917
 11
9.9199123288
 21
8.0911071917
  0
LINE
  5
353
100
AcDbEntity
  8
03__ASM_ALL_CURVES
100
AcDbLine
 62
4
  6
CONTINUOUS
 10
9.7174123288
 20
8.0911071917
 11
9.6574123288
 21
8.0911071917
  0
LINE
  5
354
100
AcDbEntity
  8
03__ASM_ALL_CURVES
100
AcDbLine
 62
4
  6
CONTINUOUS
 10
9.7699123288
 20
8.0911071917
 11
9.8224123288
 21
8.0911071917
  0
LINE
  5
355
100
AcDbEntity
  8
03__ASM_ALL_CURVES
100
AcDbLine
 62
4
  6
CONTINUOUS
 10
9.6574123288
 20
8.1511071917
 11
9.6949123288
 21
8.1511071917
  0
LINE
  5
356
100
AcDbEntity
  8
03__ASM_ALL_CURVES
100
AcDbLine
 62
4
  6
CONTINUOUS
 10
9.7699123288
 20
8.1611071893
 11
9.8224123288
 21
8.1611071893
  0
LINE
  5
357
100
AcDbEntity
  8
03__ASM_ALL_CURVES
100
AcDbLine
 62
4
  6
CONTINUOUS
 10
9.9199123288
 20
8.1611071893
 11
9.9349123288
 21
8.1611071893
  0
LINE
  5
358
100
AcDbEntity
  8
0
100
AcDbLine
 62
7
  6
CONTINUOUS
 10
6.7187515109
 20
8.1705911577
 11
7.1733960979
 21
8.1705911577
  0
LINE
  5
359
100
AcDbEntity
  8
0
100
AcDbLine
 62
7
  6
CONTINUOUS
 10
12.4414283576
 20
8.1705911577
 11
12.8960729446
 21
8.1705911577
  0
LINE
  5
35A
100
AcDbEntity
  8
03__ASM_ALL_CURVES
100
AcDbLine
 62
4
  6
CONTINUOUS
 10
7.172284998
 20
10.5303906917
 11
7.1620031597
 21
10.5381020667
  0
LINE
  5
35B
100
AcDbEntity
  8
03__ASM_ALL_CURVES
100
AcDbLine
 62
4
  6
CONTINUOUS
 10
7.2339759943
 20
10.5226793167
 11
7.2134123288
 21
10.5381020667
  0
LINE
  5
35C
100
AcDbEntity
  8
03__ASM_ALL_CURVES
100
AcDbLine
 62
4
  6
CONTINUOUS
 10
7.1825668288
 20
10.5920816917
 11
7.1928486597
 21
10.5843703167
  0
LINE
  5
35D
100
AcDbEntity
  8
03__ASM_ALL_CURVES
100
AcDbLine
 62
4
  6
CONTINUOUS
 10
7.2442578288
 20
10.5997930667
 11
7.2648214952
 21
10.5843703167
  0
LINE
  5
35E
100
AcDbEntity
  8
03__ASM_ALL_CURVES
100
AcDbLine
 62
4
  6
CONTINUOUS
 10
7.1517213288
 20
10.8157115667
 11
7.172284998
 21
10.8002888167
  0
LINE
  5
35F
100
AcDbEntity
  8
03__ASM_ALL_CURVES
100
AcDbLine
 62
4
  6
CONTINUOUS
 10
10.3399123288
 20
7.9711071917
 11
10.3549123288
 21
7.9511071893
  0
LINE
  5
360
100
AcDbEntity
  8
03__ASM_ALL_CURVES
100
AcDbLine
 62
4
  6
CONTINUOUS
 10
7.8397213288
 20
11.9107268167
 11
7.8500031597
 21
11.8953040667
  0
LINE
  5
361
100
AcDbEntity
  8
03__ASM_ALL_CURVES
100
AcDbLine
 62
4
  6
CONTINUOUS
 10
7.9528214952
 20
11.9415723167
 11
7.9631033288
 21
11.9261495667
  0
LINE
  5
362
100
AcDbEntity
  8
03__ASM_ALL_CURVES
100
AcDbLine
 62
4
  6
CONTINUOUS
 10
9.9499123288
 20
7.8811071917
 11
9.9424123288
 21
7.9111071917
  0
LINE
  5
363
100
AcDbEntity
  8
03__ASM_ALL_CURVES
100
AcDbLine
 62
4
  6
CONTINUOUS
 10
10.0249123288
 20
7.9411071917
 11
10.0324123288
 21
7.9111071917
  0
LINE
  5
364
100
AcDbEntity
  8
03__ASM_ALL_CURVES
100
AcDbLine
 62
4
  6
CONTINUOUS
 10
10.1374123288
 20
7.9411071917
 11
10.1449123288
 21
7.9111071917
  0
LINE
  5
365
100
AcDbEntity
  8
03__ASM_ALL_CURVES
100
AcDbLine
 62
4
  6
CONTINUOUS
 10
9.8899123288
 20
8.1211071917
 11
9.8899123288
 21
8.1311071929
  0
LINE
  5
366
100
AcDbEntity
  8
03__ASM_ALL_CURVES
100
AcDbLine
 62
4
  6
CONTINUOUS
 10
9.8974123288
 20
8.1811071917
 11
9.8974123288
 21
8.1911071893
  0
LINE
  5
367
100
AcDbEntity
  8
0
100
AcDbLine
 62
7
  6
CONTINUOUS
 10
9.9074123288
 20
8.3911071917
 11
9.9074123288
 21
8.4311071917
  0
LINE
  5
368
100
AcDbEntity
  8
03__ASM_ALL_CURVES
100
AcDbLine
 62
4
  6
CONTINUOUS
 10
9.9574123288
 20
8.1911071893
 11
9.9574123288
 21
8.1811071917
  0
LINE
  5
369
100
AcDbEntity
  8
03__ASM_ALL_CURVES
100
AcDbLine
 62
4
  6
CONTINUOUS
 10
9.9649123288
 20
8.1311071929
 11
9.9649123288
 21
8.1211071917
  0
LINE
  5
36A
100
AcDbEntity
  8
0
100
AcDbLine
 62
7
  6
CONTINUOUS
 10
9.9674123288
 20
8.4511071917
 11
9.9674123288
 21
8.3911071917
  0
LINE
  5
36B
100
AcDbEntity
  8
0
100
AcDbLine
 62
7
  6
CONTINUOUS
 10
10.0074123288
 20
8.4511071917
 11
10.0074123288
 21
8.3911071917
  0
LINE
  5
36C
100
AcDbEntity
  8
0
100
AcDbLine
 62
7
  6
CONTINUOUS
 10
10.0674123288
 20
8.3911071917
 11
10.0674123288
 21
8.4511071917
  0
LINE
  5
36D
100
AcDbEntity
  8
03__ASM_ALL_CURVES
100
AcDbLine
 62
4
  6
CONTINUOUS
 10
10.0774123288
 20
7.8511071917
 11
10.0774123288
 21
7.9711071917
  0
LINE
  5
36E
100
AcDbEntity
  8
0
100
AcDbLine
 62
7
  6
CONTINUOUS
 10
10.1074123288
 20
8.3911071917
 11
10.1074123288
 21
8.5111071917
  0
LINE
  5
36F
100
AcDbEntity
  8
0
100
AcDbLine
 62
7
  6
CONTINUOUS
 10
10.1474123288
 20
8.3911071917
 11
10.1474123288
 21
8.4511071917
  0
LINE
  5
370
100
AcDbEntity
  8
0
100
AcDbLine
 62
7
  6
CONTINUOUS
 10
10.1874123288
 20
8.4511071917
 11
10.1874123288
 21
8.3911071917
  0
LINE
  5
371
100
AcDbEntity
  8
03__ASM_ALL_CURVES
100
AcDbLine
 62
4
  6
CONTINUOUS
 10
10.1974123288
 20
7.8511071917
 11
10.1974123288
 21
7.9711071917
  0
LINE
  5
372
100
AcDbEntity
  8
03__ASM_ALL_CURVES
100
AcDbLine
 62
4
  6
CONTINUOUS
 10
9.4699123288
 20
7.8511071917
 11
9.5074123288
 21
7.9711071917
  0
LINE
  5
373
100
AcDbEntity
  8
0
100
AcDbLine
 62
7
  6
CONTINUOUS
 10
9.1514123288
 20
7.0451071917
 11
9.1821941417
 21
7.1296795276
  0
LINE
  5
374
100
AcDbEntity
  8
03__ASM_ALL_CURVES
100
AcDbLine
 62
4
  6
CONTINUOUS
 10
11.6620031597
 20
12.0649543167
 11
11.6517213288
 21
12.0495315667
  0
LINE
  5
375
100
AcDbEntity
  8
03__ASM_ALL_CURVES
100
AcDbLine
 62
4
  6
CONTINUOUS
 10
11.6517213288
 20
11.5405808167
 11
11.672284998
 21
11.5560035667
  0
LINE
  5
376
100
AcDbEntity
  8
03__ASM_ALL_CURVES
100
AcDbLine
 62
4
  6
CONTINUOUS
 10
11.6620031597
 20
11.3246623167
 11
11.672284998
 21
11.3323736917
  0
LINE
  5
377
100
AcDbEntity
  8
03__ASM_ALL_CURVES
100
AcDbLine
 62
4
  6
CONTINUOUS
 10
11.7596805784
 20
11.1974246292
 11
11.7751033288
 21
11.2089916917
  0
LINE
  5
378
100
AcDbEntity
  8
0
100
AcDbLine
 62
7
  6
CONTINUOUS
 10
7.2134121267
 20
8.1796071917
 11
7.1824121267
 21
8.1796071917
  0
LINE
  5
379
100
AcDbEntity
  8
0
100
AcDbLine
 62
7
  6
CONTINUOUS
 10
12.4014123288
 20
8.1796071917
 11
12.4324123288
 21
8.1796071917
  0
LINE
  5
37A
100
AcDbEntity
  8
0
100
AcDbLine
 62
7
  6
CONTINUOUS
 10
7.1219121267
 20
8.2002049441
 11
6.7484757925
 21
8.2002049441
  0
LINE
  5
37B
100
AcDbEntity
  8
0
100
AcDbLine
 62
7
  6
CONTINUOUS
 10
12.4929123288
 20
8.2002049441
 11
12.866348663
 21
8.2002049441
  0
LINE
  5
37C
100
AcDbEntity
  8
03__ASM_ALL_CURVES
100
AcDbLine
 62
4
  6
CONTINUOUS
 10
9.8224123288
 20
8.2111071917
 11
9.7699123288
 21
8.2111071917
  0
LINE
  5
37D
100
AcDbEntity
  8
03__ASM_ALL_CURVES
100
AcDbLine
 62
4
  6
CONTINUOUS
 10
9.6574123288
 20
8.2111071917
 11
9.7174123288
 21
8.2111071917
  0
LINE
  5
37E
100
AcDbEntity
  8
03__ASM_ALL_CURVES
100
AcDbLine
 62
4
  6
CONTINUOUS
 10
9.9199123288
 20
8.2111071917
 11
9.9349123288
 21
8.2111071917
  0
LINE
  5
37F
100
AcDbEntity
  8
0
100
AcDbLine
 62
7
  6
CONTINUOUS
 10
9.6674123288
 20
8.3311071917
 11
9.6274123288
 21
8.3311071917
  0
LINE
  5
380
100
AcDbEntity
  8
0
100
AcDbLine
 62
7
  6
CONTINUOUS
 10
10.3474123288
 20
8.3911071917
 11
10.2874123288
 21
8.3911071917
  0
LINE
  5
381
100
AcDbEntity
  8
0
100
AcDbLine
 62
7
  6
CONTINUOUS
 10
9.9674123288
 20
8.3911071917
 11
9.9074123288
 21
8.3911071917
  0
LINE
  5
382
100
AcDbEntity
  8
0
100
AcDbLine
 62
7
  6
CONTINUOUS
 10
9.7674123288
 20
8.3911071917
 11
9.7074123288
 21
8.3911071917
  0
LINE
  5
383
100
AcDbEntity
  8
0
100
AcDbLine
 62
7
  6
CONTINUOUS
 10
9.6674123288
 20
8.3911071917
 11
9.6074123288
 21
8.3911071917
  0
LINE
  5
384
100
AcDbEntity
  8
0
100
AcDbLine
 62
7
  6
CONTINUOUS
 10
9.2974123288
 20
8.3911071917
 11
9.2374123288
 21
8.3911071917
  0
LINE
  5
385
100
AcDbEntity
  8
0
100
AcDbLine
 62
7
  6
CONTINUOUS
 10
9.2074123288
 20
8.3911071917
 11
9.1474123288
 21
8.3911071917
  0
LINE
  5
386
100
AcDbEntity
  8
0
100
AcDbLine
 62
7
  6
CONTINUOUS
 10
10.0074123288
 20
8.3911071917
 11
10.0674123288
 21
8.3911071917
  0
LINE
  5
387
100
AcDbEntity
  8
0
100
AcDbLine
 62
7
  6
CONTINUOUS
 10
10.1874123288
 20
8.3911071917
 11
10.2474123288
 21
8.3911071917
  0
LINE
  5
388
100
AcDbEntity
  8
0
100
AcDbLine
 62
7
  6
CONTINUOUS
 10
10.2874123288
 20
8.4211071917
 11
10.3474123288
 21
8.4211071917
  0
LINE
  5
389
100
AcDbEntity
  8
0
100
AcDbLine
 62
7
  6
CONTINUOUS
 10
9.9074123288
 20
8.4311071917
 11
9.9674123288
 21
8.4311071917
  0
LINE
  5
38A
100
AcDbEntity
  8
0
100
AcDbLine
 62
7
  6
CONTINUOUS
 10
9.9674123288
 20
8.4511071917
 11
9.9274123288
 21
8.4511071917
  0
LINE
  5
38B
100
AcDbEntity
  8
0
100
AcDbLine
 62
7
  6
CONTINUOUS
 10
9.5674123288
 20
8.4511071917
 11
9.5074123288
 21
8.4511071917
  0
LINE
  5
38C
100
AcDbEntity
  8
0
100
AcDbLine
 62
7
  6
CONTINUOUS
 10
9.1474123288
 20
8.4511071917
 11
9.2074123288
 21
8.4511071917
  0
LINE
  5
38D
100
AcDbEntity
  8
0
100
AcDbLine
 62
7
  6
CONTINUOUS
 10
9.7074123288
 20
8.4511071917
 11
9.7674123288
 21
8.4511071917
  0
LINE
  5
38E
100
AcDbEntity
  8
0
100
AcDbLine
 62
7
  6
CONTINUOUS
 10
9.8074123288
 20
8.4511071917
 11
9.8674123288
 21
8.4511071917
  0
LINE
  5
38F
100
AcDbEntity
  8
0
100
AcDbLine
 62
7
  6
CONTINUOUS
 10
10.1874123288
 20
8.4511071917
 11
10.2474123288
 21
8.4511071917
  0
LINE
  5
390
100
AcDbEntity
  8
0
100
AcDbLine
 62
7
  6
CONTINUOUS
 10
10.2874123288
 20
8.4511071917
 11
10.3474123288
 21
8.4511071917
  0
LINE
  5
391
100
AcDbEntity
  8
0
100
AcDbLine
 62
7
  6
CONTINUOUS
 10
10.1399123288
 20
8.4811071917
 11
10.1549123288
 21
8.4811071917
  0
LINE
  5
392
100
AcDbEntity
  8
0
100
AcDbLine
 62
7
  6
CONTINUOUS
 10
9.2074123288
 20
8.5111071917
 11
9.1474123288
 21
8.5111071917
  0
LINE
  5
393
100
AcDbEntity
  8
0
100
AcDbLine
 62
7
  6
CONTINUOUS
 10
9.3274123288
 20
8.5111071917
 11
9.3874123288
 21
8.5111071917
  0
LINE
  5
394
100
AcDbEntity
  8
03__ASM_ALL_CURVES
100
AcDbLine
 62
4
  6
CONTINUOUS
 10
7.8397213288
 20
10.2142243167
 11
7.9322578288
 21
10.1602446917
  0
LINE
  5
395
100
AcDbEntity
  8
03__ASM_ALL_CURVES
100
AcDbLine
 62
4
  6
CONTINUOUS
 10
6.673284998
 20
11.3940646917
 11
6.6630031597
 21
11.4017760667
  0
LINE
  5
396
100
AcDbEntity
  8
03__ASM_ALL_CURVES
100
AcDbLine
 62
4
  6
CONTINUOUS
 10
7.9425396616
 20
10.4686996917
 11
7.9528214952
 21
10.4609883167
  0
LINE
  5
397
100
AcDbEntity
  8
03__ASM_ALL_CURVES
100
AcDbLine
 62
4
  6
CONTINUOUS
 10
6.7246941634
 20
11.4171988167
 11
6.7452578288
 21
11.4017760667
  0
LINE
  5
398
100
AcDbEntity
  8
03__ASM_ALL_CURVES
100
AcDbLine
 62
4
  6
CONTINUOUS
 10
7.1825668288
 20
11.0856096917
 11
7.1928486597
 21
11.0778983167
  0
LINE
  5
399
100
AcDbEntity
  8
03__ASM_ALL_CURVES
100
AcDbLine
 62
4
  6
CONTINUOUS
 10
6.6938486597
 20
11.4557556917
 11
6.704130498
 21
11.4480443167
  0
LINE
  5
39A
100
AcDbEntity
  8
03__ASM_ALL_CURVES
100
AcDbLine
 62
4
  6
CONTINUOUS
 10
7.2442578288
 20
11.0933210667
 11
7.2648214952
 21
11.0778983167
  0
LINE
  5
39B
100
AcDbEntity
  8
03__ASM_ALL_CURVES
100
AcDbLine
 62
4
  6
CONTINUOUS
 10
7.8397213288
 20
10.6923295667
 11
7.860284998
 21
10.6769068167
  0
LINE
  5
39C
100
AcDbEntity
  8
03__ASM_ALL_CURVES
100
AcDbLine
 62
4
  6
CONTINUOUS
 10
10.3549123288
 20
7.9511071893
 11
10.3624123288
 21
7.9211071893
  0
LINE
  5
39D
100
AcDbEntity
  8
0
100
AcDbLine
 62
7
  6
CONTINUOUS
 10
10.2874123288
 20
8.4511071917
 11
10.2874123288
 21
8.4211071917
  0
LINE
  5
39E
100
AcDbEntity
  8
0
100
AcDbLine
 62
7
  6
CONTINUOUS
 10
10.3474123288
 20
8.4211071917
 11
10.3474123288
 21
8.3911071917
  0
LINE
  5
39F
100
AcDbEntity
  8
03__ASM_ALL_CURVES
100
AcDbLine
 62
4
  6
CONTINUOUS
 10
10.3624123288
 20
7.9211071893
 11
10.3624123288
 21
7.9011071905
  0
LINE
  5
3A0
100
AcDbEntity
  8
03__ASM_ALL_CURVES
100
AcDbLine
 62
4
  6
CONTINUOUS
 10
9.8224123288
 20
7.9111071917
 11
9.8299123288
 21
7.9411071917
  0
LINE
  5
3A1
100
AcDbEntity
  8
03__ASM_ALL_CURVES
100
AcDbLine
 62
4
  6
CONTINUOUS
 10
9.9424123288
 20
7.9111071917
 11
9.9499123288
 21
7.9411071917
  0
LINE
  5
3A2
100
AcDbEntity
  8
03__ASM_ALL_CURVES
100
AcDbLine
 62
4
  6
CONTINUOUS
 10
10.0324123288
 20
7.9111071917
 11
10.0249123288
 21
7.8811071917
  0
LINE
  5
3A3
100
AcDbEntity
  8
03__ASM_ALL_CURVES
100
AcDbLine
 62
4
  6
CONTINUOUS
 10
10.1449123288
 20
7.9111071917
 11
10.1374123288
 21
7.8811071917
  0
LINE
  5
3A4
100
AcDbEntity
  8
03__ASM_ALL_CURVES
100
AcDbLine
 62
4
  6
CONTINUOUS
 10
11.6928486597
 20
12.0186860667
 11
11.7236941634
 21
12.0649543167
  0
LINE
  5
3A5
100
AcDbEntity
  8
03__ASM_ALL_CURVES
100
AcDbLine
 62
4
  6
CONTINUOUS
 10
11.7751033288
 20
12.0341088167
 11
11.7648214952
 21
12.0186860667
  0
LINE
  5
3A6
100
AcDbEntity
  8
03__ASM_ALL_CURVES
100
AcDbLine
 62
4
  6
CONTINUOUS
 10
11.7545396616
 20
10.8002888167
 11
11.7751033288
 21
10.8157115667
  0
LINE
  5
3A7
100
AcDbEntity
  8
03__ASM_ALL_CURVES
100
AcDbLine
 62
4
  6
CONTINUOUS
 10
11.7134123288
 20
10.4609883167
 11
11.7339759943
 21
10.4686996917
  0
LINE
  5
3A8
100
AcDbEntity
  8
0
100
AcDbLine
 62
7
  6
CONTINUOUS
 10
7.1219121267
 20
8.5784934054
 11
6.7484757925
 21
8.5784934054
  0
LINE
  5
3A9
100
AcDbEntity
  8
0
100
AcDbLine
 62
7
  6
CONTINUOUS
 10
12.4929123288
 20
8.5784934054
 11
12.866348663
 21
8.5784934054
  0
LINE
  5
3AA
100
AcDbEntity
  8
0
100
AcDbLine
 62
7
  6
CONTINUOUS
 10
7.1219121267
 20
8.637720978
 11
6.7484757925
 21
8.637720978
  0
LINE
  5
3AB
100
AcDbEntity
  8
0
100
AcDbLine
 62
7
  6
CONTINUOUS
 10
12.4929123288
 20
8.637720978
 11
12.866348663
 21
8.637720978
  0
LINE
  5
3AC
100
AcDbEntity
  8
03__ASM_ALL_CURVES
100
AcDbLine
 62
4
  6
CONTINUOUS
 10
6.7349759943
 20
10.2296470667
 11
6.7555396616
 21
10.2219356917
  0
LINE
  5
3AD
100
AcDbEntity
  8
03__ASM_ALL_CURVES
100
AcDbLine
 62
4
  6
CONTINUOUS
 10
6.6938486597
 20
10.4070086917
 11
6.673284998
 21
10.4147200667
  0
LINE
  5
3AE
100
AcDbEntity
  8
03__ASM_ALL_CURVES
100
AcDbLine
 62
4
  6
CONTINUOUS
 10
6.7349759943
 20
10.4070086917
 11
6.7144123288
 21
10.4147200667
  0
LINE
  5
3AF
100
AcDbEntity
  8
03__ASM_ALL_CURVES
100
AcDbLine
 62
4
  6
CONTINUOUS
 10
7.2339759943
 20
10.2296470667
 11
7.2545396616
 21
10.2219356917
  0
LINE
  5
3B0
100
AcDbEntity
  8
03__ASM_ALL_CURVES
100
AcDbLine
 62
4
  6
CONTINUOUS
 10
6.7349759943
 20
10.4686996917
 11
6.7555396616
 21
10.4609883167
  0
LINE
  5
3B1
100
AcDbEntity
  8
03__ASM_ALL_CURVES
100
AcDbLine
 62
4
  6
CONTINUOUS
 10
15.1900373288
 20
6.9613890226
 11
15.2131714538
 21
6.9511071917
  0
LINE
  5
3B2
100
AcDbEntity
  8
03__ASM_ALL_CURVES
100
AcDbLine
 62
4
  6
CONTINUOUS
 10
6.6527213288
 20
11.0778983167
 11
6.7452578288
 21
11.0239186917
  0
LINE
  5
3B3
100
AcDbEntity
  8
03__ASM_ALL_CURVES
100
AcDbLine
 62
4
  6
CONTINUOUS
 10
6.6527213288
 20
11.2012803167
 11
6.7452578288
 21
11.1473006917
  0
LINE
  5
3B4
100
AcDbEntity
  8
03__ASM_ALL_CURVES
100
AcDbLine
 62
4
  6
CONTINUOUS
 10
6.7555396616
 20
11.6793855667
 11
6.7761033288
 21
11.6639628167
  0
LINE
  5
3B5
100
AcDbEntity
  8
03__ASM_ALL_CURVES
100
AcDbLine
 62
4
  6
CONTINUOUS
 10
7.2545396616
 20
11.4557556917
 11
7.2648214952
 21
11.4480443167
  0
LINE
  5
3B6
100
AcDbEntity
  8
03__ASM_ALL_CURVES
100
AcDbLine
 62
4
  6
CONTINUOUS
 10
7.2545396616
 20
11.6793855667
 11
7.2751033288
 21
11.6639628167
  0
LINE
  5
3B7
100
AcDbEntity
  8
03__ASM_ALL_CURVES
100
AcDbLine
 62
4
  6
CONTINUOUS
 10
10.7914123288
 20
9.2391071941
 11
10.7914123288
 21
9.2591071893
  0
LINE
  5
3B8
100
AcDbEntity
  8
03__ASM_ALL_CURVES
100
AcDbLine
 62
4
  6
CONTINUOUS
 10
10.3624123288
 20
7.9011071905
 11
10.3549123288
 21
7.8711071923
  0
LINE
  5
3B9
100
AcDbEntity
  8
03__ASM_ALL_CURVES
100
AcDbLine
 62
4
  6
CONTINUOUS
 10
10.8439123288
 20
9.3091071917
 11
10.8514123288
 21
9.3391071917
  0
LINE
  5
3BA
100
AcDbEntity
  8
03__ASM_ALL_CURVES
100
AcDbLine
 62
4
  6
CONTINUOUS
 10
11.6517213288
 20
11.3092395667
 11
11.6620031597
 21
11.3246623167
  0
LINE
  5
3BB
100
AcDbEntity
  8
03__ASM_ALL_CURVES
100
AcDbLine
 62
4
  6
CONTINUOUS
 10
9.2749123288
 20
7.9711071917
 11
9.2599123288
 21
7.9511071893
  0
LINE
  5
3BC
100
AcDbEntity
  8
03__ASM_ALL_CURVES
100
AcDbLine
 62
4
  6
CONTINUOUS
 10
9.4174123288
 20
7.8811071917
 11
9.4024123288
 21
7.861107192
  0
LINE
  5
3BD
100
AcDbEntity
  8
03__ASM_ALL_CURVES
100
AcDbLine
 62
4
  6
CONTINUOUS
 10
9.8224123288
 20
8.1611071893
 11
9.8299123288
 21
8.1711071941
  0
LINE
  5
3BE
100
AcDbEntity
  8
03__ASM_ALL_CURVES
100
AcDbLine
 62
4
  6
CONTINUOUS
 10
12.8387213288
 20
11.5405808167
 11
12.859284998
 21
11.5560035667
  0
LINE
  5
3BF
100
AcDbEntity
  8
03__ASM_ALL_CURVES
100
AcDbLine
 62
4
  6
CONTINUOUS
 10
11.6620031597
 20
10.5843703167
 11
11.672284998
 21
10.5920816917
  0
LINE
  5
3C0
100
AcDbEntity
  8
03__ASM_ALL_CURVES
100
AcDbLine
 62
4
  6
CONTINUOUS
 10
11.7134123288
 20
10.5843703167
 11
11.7339759943
 21
10.5997930667
  0
LINE
  5
3C1
100
AcDbEntity
  8
03__ASM_ALL_CURVES
100
AcDbLine
 62
4
  6
CONTINUOUS
 10
11.6928486597
 20
10.5381020667
 11
11.6825668288
 21
10.5303906917
  0
LINE
  5
3C2
100
AcDbEntity
  8
03__ASM_ALL_CURVES
100
AcDbLine
 62
4
  6
CONTINUOUS
 10
11.7648214952
 20
10.5381020667
 11
11.7442578288
 21
10.5226793167
  0
LINE
  5
3C3
100
AcDbEntity
  8
03__ASM_ALL_CURVES
100
AcDbLine
 62
4
  6
CONTINUOUS
 10
11.6620031597
 20
10.4532769417
 11
11.672284998
 21
10.4609883167
  0
LINE
  5
3C4
100
AcDbEntity
  8
03__ASM_ALL_CURVES
100
AcDbLine
 62
4
  6
CONTINUOUS
 10
11.7648214952
 20
10.4224314417
 11
11.7545396616
 21
10.4147200667
  0
LINE
  5
3C5
100
AcDbEntity
  8
03__ASM_ALL_CURVES
100
AcDbLine
 62
4
  6
CONTINUOUS
 10
11.7596805784
 20
10.3337506292
 11
11.7751033288
 21
10.3453176917
  0
LINE
  5
3C6
100
AcDbEntity
  8
03__ASM_ALL_CURVES
100
AcDbLine
 62
4
  6
CONTINUOUS
 10
11.7545396616
 20
10.4147200667
 11
11.7339759943
 21
10.4070086917
  0
LINE
  5
3C7
100
AcDbEntity
  8
03__ASM_ALL_CURVES
100
AcDbLine
 62
4
  6
CONTINUOUS
 10
11.672284998
 20
10.2142243167
 11
11.6928486597
 21
10.2219356917
  0
LINE
  5
3C8
100
AcDbEntity
  8
03__ASM_ALL_CURVES
100
AcDbLine
 62
4
  6
CONTINUOUS
 10
12.859284998
 20
10.5843703167
 11
12.8798486597
 21
10.5920816917
  0
LINE
  5
3C9
100
AcDbEntity
  8
03__ASM_ALL_CURVES
100
AcDbLine
 62
4
  6
CONTINUOUS
 10
11.7545396616
 20
10.1679560667
 11
11.7339759943
 21
10.1602446917
  0
LINE
  5
3CA
100
AcDbEntity
  8
03__ASM_ALL_CURVES
100
AcDbLine
 62
4
  6
CONTINUOUS
 10
12.9004123288
 20
10.5381020667
 11
12.8798486597
 21
10.5303906917
  0
LINE
  5
3CB
100
AcDbEntity
  8
0
100
AcDbLine
 62
7
  6
CONTINUOUS
 10
12.4014123288
 20
8.9981072098
 11
10.932412347
 21
8.9981072098
  0
LINE
  5
3CC
100
AcDbEntity
  8
0
100
AcDbLine
 62
7
  6
CONTINUOUS
 10
7.2134121267
 20
8.9981072098
 11
8.6824121085
 21
8.9981072098
  0
LINE
  5
3CD
100
AcDbEntity
  8
0
100
AcDbLine
 62
7
  6
CONTINUOUS
 10
7.1219121267
 20
9.0160094394
 11
6.7484757925
 21
9.0160094394
  0
LINE
  5
3CE
100
AcDbEntity
  8
0
100
AcDbLine
 62
7
  6
CONTINUOUS
 10
12.4929123288
 20
9.0160094394
 11
12.866348663
 21
9.0160094394
  0
LINE
  5
3CF
100
AcDbEntity
  8
0
100
AcDbLine
 62
7
  6
CONTINUOUS
 10
7.2134121267
 20
9.0366071917
 11
7.1824121267
 21
9.0366071917
  0
LINE
  5
3D0
100
AcDbEntity
  8
0
100
AcDbLine
 62
7
  6
CONTINUOUS
 10
12.4014123288
 20
9.0366071917
 11
12.4324123288
 21
9.0366071917
  0
LINE
  5
3D1
100
AcDbEntity
  8
0
100
AcDbLine
 62
7
  6
CONTINUOUS
 10
6.7187515109
 20
9.0456232257
 11
7.1733960926
 21
9.0456232257
  0
LINE
  5
3D2
100
AcDbEntity
  8
0
100
AcDbLine
 62
7
  6
CONTINUOUS
 10
12.4414283576
 20
9.0456232257
 11
12.8960729446
 21
9.0456232257
  0
LINE
  5
3D3
100
AcDbEntity
  8
03__ASM_ALL_CURVES
100
AcDbLine
 62
4
  6
CONTINUOUS
 10
10.8289123288
 20
9.2191071917
 11
10.8139123288
 21
9.2191071917
  0
LINE
  5
3D4
100
AcDbEntity
  8
03__ASM_ALL_CURVES
100
AcDbLine
 62
4
  6
CONTINUOUS
 10
7.8397213288
 20
11.0778983167
 11
7.9322578288
 21
11.0239186917
  0
LINE
  5
3D5
100
AcDbEntity
  8
03__ASM_ALL_CURVES
100
AcDbLine
 62
4
  6
CONTINUOUS
 10
10.8139123288
 20
9.2191071917
 11
10.7989123288
 21
9.2291071893
  0
LINE
  5
3D6
100
AcDbEntity
  8
03__ASM_ALL_CURVES
100
AcDbLine
 62
4
  6
CONTINUOUS
 10
14.4574567038
 20
7.0127981917
 11
14.4728794538
 21
7.0025163608
  0
LINE
  5
3D7
100
AcDbEntity
  8
03__ASM_ALL_CURVES
100
AcDbLine
 62
4
  6
CONTINUOUS
 10
7.8705668288
 20
11.3323736917
 11
7.8808486597
 21
11.3246623167
  0
LINE
  5
3D8
100
AcDbEntity
  8
03__ASM_ALL_CURVES
100
AcDbLine
 62
4
  6
CONTINUOUS
 10
7.9322578288
 20
11.3400850667
 11
7.9528214952
 21
11.3246623167
  0
LINE
  5
3D9
100
AcDbEntity
  8
03__ASM_ALL_CURVES
100
AcDbLine
 62
4
  6
CONTINUOUS
 10
7.9425396616
 20
11.4326215667
 11
7.9631033288
 21
11.4171988167
  0
LINE
  5
3DA
100
AcDbEntity
  8
03__ASM_ALL_CURVES
100
AcDbLine
 62
4
  6
CONTINUOUS
 10
7.8397213288
 20
11.6793855667
 11
7.860284998
 21
11.6639628167
  0
LINE
  5
3DB
100
AcDbEntity
  8
03__ASM_ALL_CURVES
100
AcDbLine
 62
4
  6
CONTINUOUS
 10
10.7989123288
 20
9.2291071893
 11
10.7914123288
 21
9.2391071941
  0
LINE
  5
3DC
100
AcDbEntity
  8
0
100
AcDbLine
 62
7
  6
CONTINUOUS
 10
10.932412347
 20
6.951107228
 11
10.932412347
 21
9.3891071917
  0
LINE
  5
3DD
100
AcDbEntity
  8
03__ASM_ALL_CURVES
100
AcDbLine
 62
4
  6
CONTINUOUS
 10
11.6517213288
 20
10.5689475667
 11
11.6620031597
 21
10.5843703167
  0
LINE
  5
3DE
100
AcDbEntity
  8
03__ASM_ALL_CURVES
100
AcDbLine
 62
4
  6
CONTINUOUS
 10
11.703130498
 20
10.5689475667
 11
11.7134123288
 21
10.5843703167
  0
LINE
  5
3DF
100
AcDbEntity
  8
03__ASM_ALL_CURVES
100
AcDbLine
 62
4
  6
CONTINUOUS
 10
11.703130498
 20
10.5535248167
 11
11.6928486597
 21
10.5381020667
  0
LINE
  5
3E0
100
AcDbEntity
  8
03__ASM_ALL_CURVES
100
AcDbLine
 62
4
  6
CONTINUOUS
 10
11.6517213288
 20
10.4378541917
 11
11.6620031597
 21
10.4532769417
  0
LINE
  5
3E1
100
AcDbEntity
  8
03__ASM_ALL_CURVES
100
AcDbLine
 62
4
  6
CONTINUOUS
 10
11.7751033288
 20
10.5535248167
 11
11.7648214952
 21
10.5381020667
  0
LINE
  5
3E2
100
AcDbEntity
  8
03__ASM_ALL_CURVES
100
AcDbLine
 62
4
  6
CONTINUOUS
 10
11.7751033288
 20
10.4378541917
 11
11.7648214952
 21
10.4224314417
  0
LINE
  5
3E3
100
AcDbEntity
  8
03__ASM_ALL_CURVES
100
AcDbLine
 62
4
  6
CONTINUOUS
 10
11.6517213288
 20
10.1910901917
 11
11.6620031597
 21
10.2065129417
  0
LINE
  5
3E4
100
AcDbEntity
  8
03__ASM_ALL_CURVES
100
AcDbLine
 62
4
  6
CONTINUOUS
 10
9.8974123288
 20
8.1911071893
 11
9.9049123288
 21
8.2011071941
  0
LINE
  5
3E5
100
AcDbEntity
  8
03__ASM_ALL_CURVES
100
AcDbLine
 62
4
  6
CONTINUOUS
 10
9.8224123288
 20
8.0911071917
 11
9.8374123288
 21
8.1111071923
  0
LINE
  5
3E6
100
AcDbEntity
  8
03__ASM_ALL_CURVES
100
AcDbLine
 62
4
  6
CONTINUOUS
 10
9.8899123288
 20
8.1311071929
 11
9.9049123288
 21
8.1511071917
  0
LINE
  5
3E7
100
AcDbEntity
  8
03__ASM_ALL_CURVES
100
AcDbLine
 62
4
  6
CONTINUOUS
 10
9.9574123288
 20
8.1811071917
 11
9.9499123288
 21
8.1711071941
  0
LINE
  5
3E8
100
AcDbEntity
  8
03__ASM_ALL_CURVES
100
AcDbLine
 62
4
  6
CONTINUOUS
 10
10.7914123288
 20
9.2591071893
 11
10.7989123288
 21
9.2691071941
  0
LINE
  5
3E9
100
AcDbEntity
  8
03__ASM_ALL_CURVES
100
AcDbLine
 62
4
  6
CONTINUOUS
 10
10.8289123288
 20
9.2891071929
 11
10.8439123288
 21
9.3091071917
  0
LINE
  5
3EA
100
AcDbEntity
  8
03__ASM_ALL_CURVES
100
AcDbLine
 62
4
  6
CONTINUOUS
 10
9.9649123288
 20
8.1211071917
 11
9.9499123288
 21
8.101107192
  0
LINE
  5
3EB
100
AcDbEntity
  8
03__ASM_ALL_CURVES
100
AcDbLine
 62
4
  6
CONTINUOUS
 10
9.8299123288
 20
7.9411071917
 11
9.8449123288
 21
7.9611071941
  0
LINE
  5
3EC
100
AcDbEntity
  8
03__ASM_ALL_CURVES
100
AcDbLine
 62
4
  6
CONTINUOUS
 10
10.8514123288
 20
9.2391071941
 11
10.8439123288
 21
9.2291071893
  0
LINE
  5
3ED
100
AcDbEntity
  8
03__ASM_ALL_CURVES
100
AcDbLine
 62
4
  6
CONTINUOUS
 10
9.8974123288
 20
7.8711071923
 11
9.8899123288
 21
7.861107192
  0
LINE
  5
3EE
100
AcDbEntity
  8
03__ASM_ALL_CURVES
100
AcDbLine
 62
4
  6
CONTINUOUS
 10
9.9499123288
 20
7.9411071917
 11
9.9649123288
 21
7.9611071941
  0
LINE
  5
3EF
100
AcDbEntity
  8
03__ASM_ALL_CURVES
100
AcDbLine
 62
4
  6
CONTINUOUS
 10
10.0249123288
 20
7.8811071917
 11
10.0099123288
 21
7.861107192
  0
LINE
  5
3F0
100
AcDbEntity
  8
03__ASM_ALL_CURVES
100
AcDbLine
 62
4
  6
CONTINUOUS
 10
12.9466805784
 20
11.1974246292
 11
12.9621033288
 21
11.2089916917
  0
LINE
  5
3F1
100
AcDbEntity
  8
03__ASM_ALL_CURVES
100
AcDbLine
 62
4
  6
CONTINUOUS
 10
11.6620031597
 20
10.2065129417
 11
11.672284998
 21
10.2142243167
  0
LINE
  5
3F2
100
AcDbEntity
  8
03__ASM_ALL_CURVES
100
AcDbLine
 62
4
  6
CONTINUOUS
 10
12.8490031597
 20
11.0778983167
 11
12.859284998
 21
11.0856096917
  0
LINE
  5
3F3
100
AcDbEntity
  8
03__ASM_ALL_CURVES
100
AcDbLine
 62
4
  6
CONTINUOUS
 10
11.7648214952
 20
10.1756674417
 11
11.7545396616
 21
10.1679560667
  0
LINE
  5
3F4
100
AcDbEntity
  8
03__ASM_ALL_CURVES
100
AcDbLine
 62
4
  6
CONTINUOUS
 10
12.9415396616
 20
10.8002888167
 11
12.9621033288
 21
10.8157115667
  0
LINE
  5
3F5
100
AcDbEntity
  8
03__ASM_ALL_CURVES
100
AcDbLine
 62
4
  6
CONTINUOUS
 10
10.7989123288
 20
9.2691071941
 11
10.8289123288
 21
9.2891071929
  0
LINE
  5
3F6
100
AcDbEntity
  8
03__ASM_ALL_CURVES
100
AcDbLine
 62
4
  6
CONTINUOUS
 10
10.8439123288
 20
9.2291071893
 11
10.8289123288
 21
9.2191071917
  0
LINE
  5
3F7
100
AcDbEntity
  8
03__ASM_ALL_CURVES
100
AcDbLine
 62
4
  6
CONTINUOUS
 10
12.360284998
 20
10.2142243167
 11
12.3808486597
 21
10.2219356917
  0
LINE
  5
3F8
100
AcDbEntity
  8
03__ASM_ALL_CURVES
100
AcDbLine
 62
4
  6
CONTINUOUS
 10
12.4425396616
 20
10.1679560667
 11
12.4219759943
 21
10.1602446917
  0
LINE
  5
3F9
100
AcDbEntity
  8
03__ASM_ALL_CURVES
100
AcDbLine
 62
4
  6
CONTINUOUS
 10
12.859284998
 20
10.2142243167
 11
12.8798486597
 21
10.2219356917
  0
LINE
  5
3FA
100
AcDbEntity
  8
03__ASM_ALL_CURVES
100
AcDbLine
 62
4
  6
CONTINUOUS
 10
12.9415396616
 20
10.1679560667
 11
12.9209759943
 21
10.1602446917
  0
LINE
  5
3FB
100
AcDbEntity
  8
03__ASM_ALL_CURVES
100
AcDbLine
 62
4
  6
CONTINUOUS
 10
10.8514123288
 20
9.3391071917
 11
10.7914123288
 21
9.3391071917
  0
LINE
  5
3FC
100
AcDbEntity
  8
0
100
AcDbLine
 62
7
  6
CONTINUOUS
 10
12.3704123288
 20
9.3731072098
 11
10.932412347
 21
9.3731072098
  0
LINE
  5
3FD
100
AcDbEntity
  8
0
100
AcDbLine
 62
7
  6
CONTINUOUS
 10
7.2444121267
 20
9.3731072098
 11
8.6824121085
 21
9.3731072098
  0
LINE
  5
3FE
100
AcDbEntity
  8
0
100
AcDbLine
 62
7
  6
CONTINUOUS
 10
8.6824121085
 20
9.3891071917
 11
10.932412347
 21
9.3891071917
  0
LINE
  5
3FF
100
AcDbEntity
  8
03__ASM_ALL_CURVES
100
AcDbLine
 62
4
  6
CONTINUOUS
 10
12.5247943288
 20
9.3891071917
 11
12.8949403288
 21
9.3891071917
  0
LINE
  5
400
100
AcDbEntity
  8
03__ASM_ALL_CURVES
100
AcDbLine
 62
4
  6
CONTINUOUS
 10
6.6527213288
 20
10.1756674417
 11
6.704130498
 21
10.1679560667
  0
LINE
  5
401
100
AcDbEntity
  8
03__ASM_ALL_CURVES
100
AcDbLine
 62
4
  6
CONTINUOUS
 10
7.1517213288
 20
10.1756674417
 11
7.203130498
 21
10.1679560667
  0
LINE
  5
402
100
AcDbEntity
  8
03__ASM_ALL_CURVES
100
AcDbLine
 62
4
  6
CONTINUOUS
 10
7.9219759943
 20
10.4764110667
 11
7.9425396616
 21
10.4686996917
  0
LINE
  5
403
100
AcDbEntity
  8
03__ASM_ALL_CURVES
100
AcDbLine
 62
4
  6
CONTINUOUS
 10
14.8121799538
 20
6.8894161917
 11
14.7967572038
 21
6.8996980254
  0
LINE
  5
404
100
AcDbEntity
  8
03__ASM_ALL_CURVES
100
AcDbLine
 62
4
  6
CONTINUOUS
 10
14.8276027038
 20
6.9613890226
 11
14.8430254538
 21
6.9511071917
  0
LINE
  5
405
100
AcDbEntity
  8
03__ASM_ALL_CURVES
100
AcDbLine
 62
4
  6
CONTINUOUS
 10
14.8276027038
 20
7.0127981917
 11
14.8430254538
 21
7.0025163608
  0
LINE
  5
406
100
AcDbEntity
  8
03__ASM_ALL_CURVES
100
AcDbLine
 62
4
  6
CONTINUOUS
 10
15.1900373288
 20
6.8894161917
 11
15.1746145788
 21
6.8996980254
  0
LINE
  5
407
100
AcDbEntity
  8
03__ASM_ALL_CURVES
100
AcDbLine
 62
4
  6
CONTINUOUS
 10
7.8500031597
 20
11.8953040667
 11
7.860284998
 21
11.8875926917
  0
LINE
  5
408
100
AcDbEntity
  8
03__ASM_ALL_CURVES
100
AcDbLine
 62
4
  6
CONTINUOUS
 10
7.9425396616
 20
11.9492836917
 11
7.9528214952
 21
11.9415723167
  0
LINE
  5
409
100
AcDbEntity
  8
03__ASM_ALL_CURVES
100
AcDbLine
 62
4
  6
CONTINUOUS
 10
7.9425396616
 20
12.0495315667
 11
7.9631033288
 21
12.0341088167
  0
LINE
  5
40A
100
AcDbEntity
  8
0
100
AcDbLine
 62
7
  6
CONTINUOUS
 10
12.4324123288
 20
8.1796071917
 11
12.4414555436
 21
8.170563977
  0
LINE
  5
40B
100
AcDbEntity
  8
03__ASM_ALL_CURVES
100
AcDbLine
 62
4
  6
CONTINUOUS
 10
11.703130498
 20
10.4378541917
 11
11.7134123288
 21
10.4609883167
  0
LINE
  5
40C
100
AcDbEntity
  8
03__ASM_ALL_CURVES
100
AcDbLine
 62
4
  6
CONTINUOUS
 10
11.7751033288
 20
10.1910901917
 11
11.7648214952
 21
10.1756674417
  0
LINE
  5
40D
100
AcDbEntity
  8
03__ASM_ALL_CURVES
100
AcDbLine
 62
4
  6
CONTINUOUS
 10
10.1374123288
 20
7.8811071917
 11
10.1224123288
 21
7.861107192
  0
LINE
  5
40E
100
AcDbEntity
  8
03__ASM_ALL_CURVES
100
AcDbLine
 62
4
  6
CONTINUOUS
 10
10.3549123288
 20
7.8711071923
 11
10.3399123288
 21
7.8511071917
  0
LINE
  5
40F
100
AcDbEntity
  8
03__ASM_ALL_CURVES
100
AcDbLine
 62
4
  6
CONTINUOUS
 10
12.3500031597
 20
10.2065129417
 11
12.360284998
 21
10.2142243167
  0
LINE
  5
410
100
AcDbEntity
  8
03__ASM_ALL_CURVES
100
AcDbLine
 62
4
  6
CONTINUOUS
 10
12.8490031597
 20
10.5766589417
 11
12.859284998
 21
10.5843703167
  0
LINE
  5
411
100
AcDbEntity
  8
03__ASM_ALL_CURVES
100
AcDbLine
 62
4
  6
CONTINUOUS
 10
12.4528214952
 20
10.1756674417
 11
12.4425396616
 21
10.1679560667
  0
LINE
  5
412
100
AcDbEntity
  8
03__ASM_ALL_CURVES
100
AcDbLine
 62
4
  6
CONTINUOUS
 10
12.9518214952
 20
10.5458134417
 11
12.9415396616
 21
10.5381020667
  0
LINE
  5
413
100
AcDbEntity
  8
03__ASM_ALL_CURVES
100
AcDbLine
 62
4
  6
CONTINUOUS
 10
12.9466805784
 20
10.3337506292
 11
12.9621033288
 21
10.3453176917
  0
LINE
  5
414
100
AcDbEntity
  8
03__ASM_ALL_CURVES
100
AcDbLine
 62
4
  6
CONTINUOUS
 10
9.9049123288
 20
8.2011071941
 11
9.9199123288
 21
8.2111071917
  0
LINE
  5
415
100
AcDbEntity
  8
03__ASM_ALL_CURVES
100
AcDbLine
 62
4
  6
CONTINUOUS
 10
9.4024123288
 20
7.861107192
 11
9.3874123288
 21
7.8511071917
  0
LINE
  5
416
100
AcDbEntity
  8
03__ASM_ALL_CURVES
100
AcDbLine
 62
4
  6
CONTINUOUS
 10
7.8397213288
 20
10.4224314417
 11
7.891130498
 21
10.4147200667
  0
LINE
  5
417
100
AcDbEntity
  8
03__ASM_ALL_CURVES
100
AcDbLine
 62
4
  6
CONTINUOUS
 10
6.673284998
 20
10.8002888167
 11
6.704130498
 21
10.7925774417
  0
LINE
  5
418
100
AcDbEntity
  8
03__ASM_ALL_CURVES
100
AcDbLine
 62
4
  6
CONTINUOUS
 10
7.172284998
 20
10.8002888167
 11
7.203130498
 21
10.7925774417
  0
LINE
  5
419
100
AcDbEntity
  8
03__ASM_ALL_CURVES
100
AcDbLine
 62
4
  6
CONTINUOUS
 10
7.860284998
 20
10.6769068167
 11
7.891130498
 21
10.6691954417
  0
LINE
  5
41A
100
AcDbEntity
  8
03__ASM_ALL_CURVES
100
AcDbLine
 62
4
  6
CONTINUOUS
 10
6.6938486597
 20
11.5637149417
 11
6.6527213288
 21
11.5791376917
  0
LINE
  5
41B
100
AcDbEntity
  8
03__ASM_ALL_CURVES
100
AcDbLine
 62
4
  6
CONTINUOUS
 10
7.2339759943
 20
11.4634670667
 11
7.2545396616
 21
11.4557556917
  0
LINE
  5
41C
100
AcDbEntity
  8
03__ASM_ALL_CURVES
100
AcDbLine
 62
4
  6
CONTINUOUS
 10
15.1900373288
 20
7.0127981917
 11
15.2054600788
 21
7.0025163608
  0
LINE
  5
41D
100
AcDbEntity
  8
03__ASM_ALL_CURVES
100
AcDbLine
 62
4
  6
CONTINUOUS
 10
15.6912767038
 20
7.0127981917
 11
15.7066994538
 21
7.0025163608
  0
LINE
  5
41E
100
AcDbEntity
  8
03__ASM_ALL_CURVES
100
AcDbLine
 62
4
  6
CONTINUOUS
 10
11.6517213288
 20
12.0495315667
 11
11.6517213288
 21
12.0341088167
  0
LINE
  5
41F
100
AcDbEntity
  8
03__ASM_ALL_CURVES
100
AcDbLine
 62
4
  6
CONTINUOUS
 10
11.6517213288
 20
11.4557556917
 11
11.6517213288
 21
11.3940646917
  0
LINE
  5
420
100
AcDbEntity
  8
03__ASM_ALL_CURVES
100
AcDbLine
 62
4
  6
CONTINUOUS
 10
11.6517213288
 20
11.0856096917
 11
11.6517213288
 21
11.0239186917
  0
LINE
  5
421
100
AcDbEntity
  8
03__ASM_ALL_CURVES
100
AcDbLine
 62
4
  6
CONTINUOUS
 10
11.6517213288
 20
10.5535248167
 11
11.6517213288
 21
10.5689475667
  0
LINE
  5
422
100
AcDbEntity
  8
03__ASM_ALL_CURVES
100
AcDbLine
 62
4
  6
CONTINUOUS
 10
11.6517213288
 20
11.2938168167
 11
11.6517213288
 21
11.3092395667
  0
LINE
  5
423
100
AcDbEntity
  8
03__ASM_ALL_CURVES
100
AcDbLine
 62
4
  6
CONTINUOUS
 10
11.703130498
 20
10.5535248167
 11
11.703130498
 21
10.5689475667
  0
LINE
  5
424
100
AcDbEntity
  8
03__ASM_ALL_CURVES
100
AcDbLine
 62
4
  6
CONTINUOUS
 10
11.7134123288
 20
9.5124891917
 11
11.7134123288
 21
9.8826351917
  0
LINE
  5
425
100
AcDbEntity
  8
03__ASM_ALL_CURVES
100
AcDbLine
 62
4
  6
CONTINUOUS
 10
11.7751033288
 20
12.0495315667
 11
11.7751033288
 21
12.0341088167
  0
LINE
  5
426
100
AcDbEntity
  8
03__ASM_ALL_CURVES
100
AcDbLine
 62
4
  6
CONTINUOUS
 10
11.7751033288
 20
11.2089916917
 11
11.7751033288
 21
11.1974246292
  0
LINE
  5
427
100
AcDbEntity
  8
03__ASM_ALL_CURVES
100
AcDbLine
 62
4
  6
CONTINUOUS
 10
11.7751033288
 20
10.5689475667
 11
11.7751033288
 21
10.5535248167
  0
LINE
  5
428
100
AcDbEntity
  8
03__ASM_ALL_CURVES
100
AcDbLine
 62
4
  6
CONTINUOUS
 10
11.7751033288
 20
10.3453176917
 11
11.7751033288
 21
10.3337506292
  0
LINE
  5
429
100
AcDbEntity
  8
03__ASM_ALL_CURVES
100
AcDbLine
 62
4
  6
CONTINUOUS
 10
11.7751033288
 20
11.2706826917
 11
11.7751033288
 21
11.3323736917
  0
LINE
  5
42A
100
AcDbEntity
  8
03__ASM_ALL_CURVES
100
AcDbLine
 62
4
  6
CONTINUOUS
 10
11.7751033288
 20
11.8875926917
 11
11.7751033288
 21
11.9492836917
  0
LINE
  5
42B
100
AcDbEntity
  8
03__ASM_ALL_CURVES
100
AcDbLine
 62
4
  6
CONTINUOUS
 10
12.8387213288
 20
11.0624755667
 11
12.8490031597
 21
11.0778983167
  0
LINE
  5
42C
100
AcDbEntity
  8
03__ASM_ALL_CURVES
100
AcDbLine
 62
4
  6
CONTINUOUS
 10
12.3397213288
 20
10.1910901917
 11
12.3500031597
 21
10.2065129417
  0
LINE
  5
42D
100
AcDbEntity
  8
03__ASM_ALL_CURVES
100
AcDbLine
 62
4
  6
CONTINUOUS
 10
12.4631033288
 20
10.1910901917
 11
12.4528214952
 21
10.1756674417
  0
LINE
  5
42E
100
AcDbEntity
  8
03__ASM_ALL_CURVES
100
AcDbLine
 62
4
  6
CONTINUOUS
 10
12.8490031597
 20
10.2065129417
 11
12.859284998
 21
10.2142243167
  0
LINE
  5
42F
100
AcDbEntity
  8
03__ASM_ALL_CURVES
100
AcDbLine
 62
4
  6
CONTINUOUS
 10
12.9518214952
 20
10.1756674417
 11
12.9415396616
 21
10.1679560667
  0
LINE
  5
430
100
AcDbEntity
  8
03__ASM_ALL_CURVES
100
AcDbLine
 62
4
  6
CONTINUOUS
 10
9.9049123288
 20
8.1511071917
 11
9.9199123288
 21
8.1611071893
  0
LINE
  5
431
100
AcDbEntity
  8
03__ASM_ALL_CURVES
100
AcDbLine
 62
4
  6
CONTINUOUS
 10
9.9499123288
 20
8.1711071941
 11
9.9349123288
 21
8.1611071893
  0
LINE
  5
432
100
AcDbEntity
  8
03__ASM_ALL_CURVES
100
AcDbLine
 62
4
  6
CONTINUOUS
 10
9.9499123288
 20
8.101107192
 11
9.9349123288
 21
8.0911071917
  0
LINE
  5
433
100
AcDbEntity
  8
03__ASM_ALL_CURVES
100
AcDbLine
 62
4
  6
CONTINUOUS
 10
9.8449123288
 20
7.9611071941
 11
9.8599123288
 21
7.9711071917
  0
LINE
  5
434
100
AcDbEntity
  8
03__ASM_ALL_CURVES
100
AcDbLine
 62
4
  6
CONTINUOUS
 10
9.9649123288
 20
7.9611071941
 11
9.9799123288
 21
7.9711071917
  0
LINE
  5
435
100
AcDbEntity
  8
03__ASM_ALL_CURVES
100
AcDbLine
 62
4
  6
CONTINUOUS
 10
9.8899123288
 20
7.861107192
 11
9.8749123288
 21
7.8511071917
  0
LINE
  5
436
100
AcDbEntity
  8
03__ASM_ALL_CURVES
100
AcDbLine
 62
4
  6
CONTINUOUS
 10
10.0099123288
 20
7.861107192
 11
9.9949123288
 21
7.8511071917
  0
LINE
  5
437
100
AcDbEntity
  8
03__ASM_ALL_CURVES
100
AcDbLine
 62
4
  6
CONTINUOUS
 10
12.9209759943
 20
10.1602446917
 11
12.8798486597
 21
10.1602446917
  0
LINE
  5
438
100
AcDbEntity
  8
03__ASM_ALL_CURVES
100
AcDbLine
 62
4
  6
CONTINUOUS
 10
12.4219759943
 20
10.1602446917
 11
12.3808486597
 21
10.1602446917
  0
LINE
  5
439
100
AcDbEntity
  8
03__ASM_ALL_CURVES
100
AcDbLine
 62
4
  6
CONTINUOUS
 10
11.7339759943
 20
10.1602446917
 11
11.6928486597
 21
10.1602446917
  0
LINE
  5
43A
100
AcDbEntity
  8
03__ASM_ALL_CURVES
100
AcDbLine
 62
4
  6
CONTINUOUS
 10
7.9631033288
 20
10.2142243167
 11
7.8397213288
 21
10.2142243167
  0
LINE
  5
43B
100
AcDbEntity
  8
03__ASM_ALL_CURVES
100
AcDbLine
 62
4
  6
CONTINUOUS
 10
11.6928486597
 20
10.2219356917
 11
11.7339759943
 21
10.2219356917
  0
LINE
  5
43C
100
AcDbEntity
  8
03__ASM_ALL_CURVES
100
AcDbLine
 62
4
  6
CONTINUOUS
 10
12.3808486597
 20
10.2219356917
 11
12.4219759943
 21
10.2219356917
  0
LINE
  5
43D
100
AcDbEntity
  8
03__ASM_ALL_CURVES
100
AcDbLine
 62
4
  6
CONTINUOUS
 10
12.8798486597
 20
10.2219356917
 11
12.9209759943
 21
10.2219356917
  0
LINE
  5
43E
100
AcDbEntity
  8
03__ASM_ALL_CURVES
100
AcDbLine
 62
4
  6
CONTINUOUS
 10
6.7452578288
 20
11.4017760667
 11
6.7761033288
 21
11.3940646917
  0
LINE
  5
43F
100
AcDbEntity
  8
03__ASM_ALL_CURVES
100
AcDbLine
 62
4
  6
CONTINUOUS
 10
7.1928486597
 20
11.5637149417
 11
7.1517213288
 21
11.5791376917
  0
LINE
  5
440
100
AcDbEntity
  8
03__ASM_ALL_CURVES
100
AcDbLine
 62
4
  6
CONTINUOUS
 10
11.6928486597
 20
10.1602446917
 11
11.672284998
 21
10.1679560667
  0
LINE
  5
441
100
AcDbEntity
  8
0
100
AcDbLine
 62
7
  6
CONTINUOUS
 10
12.4014123288
 20
9.3421072098
 11
12.3704123288
 21
9.3731072098
  0
LINE
  5
442
100
AcDbEntity
  8
03__ASM_ALL_CURVES
100
AcDbLine
 62
4
  6
CONTINUOUS
 10
11.6620031597
 20
10.1756674417
 11
11.6517213288
 21
10.1910901917
  0
LINE
  5
443
100
AcDbEntity
  8
03__ASM_ALL_CURVES
100
AcDbLine
 62
4
  6
CONTINUOUS
 10
12.8387213288
 20
10.5612361917
 11
12.8490031597
 21
10.5766589417
  0
LINE
  5
444
100
AcDbEntity
  8
03__ASM_ALL_CURVES
100
AcDbLine
 62
4
  6
CONTINUOUS
 10
12.9621033288
 20
10.5612361917
 11
12.9518214952
 21
10.5458134417
  0
LINE
  5
445
100
AcDbEntity
  8
03__ASM_ALL_CURVES
100
AcDbLine
 62
4
  6
CONTINUOUS
 10
12.8387213288
 20
10.1910901917
 11
12.8490031597
 21
10.2065129417
  0
LINE
  5
446
100
AcDbEntity
  8
03__ASM_ALL_CURVES
100
AcDbLine
 62
4
  6
CONTINUOUS
 10
12.9621033288
 20
10.1910901917
 11
12.9518214952
 21
10.1756674417
  0
LINE
  5
447
100
AcDbEntity
  8
03__ASM_ALL_CURVES
100
AcDbLine
 62
4
  6
CONTINUOUS
 10
10.1224123288
 20
7.861107192
 11
10.1074123288
 21
7.8511071917
  0
LINE
  5
448
100
AcDbEntity
  8
03__ASM_ALL_CURVES
100
AcDbLine
 62
4
  6
CONTINUOUS
 10
12.9106941634
 20
10.7925774417
 11
12.9415396616
 21
10.8002888167
  0
LINE
  5
449
100
AcDbEntity
  8
03__ASM_ALL_CURVES
100
AcDbLine
 62
4
  6
CONTINUOUS
 10
11.7236941634
 20
10.7925774417
 11
11.7545396616
 21
10.8002888167
  0
LINE
  5
44A
100
AcDbEntity
  8
03__ASM_ALL_CURVES
100
AcDbLine
 62
4
  6
CONTINUOUS
 10
12.9621033288
 20
10.3337506292
 11
12.9466805784
 21
10.3337506292
  0
LINE
  5
44B
100
AcDbEntity
  8
03__ASM_ALL_CURVES
100
AcDbLine
 62
4
  6
CONTINUOUS
 10
11.7751033288
 20
10.3337506292
 11
11.7596805784
 21
10.3337506292
  0
LINE
  5
44C
100
AcDbEntity
  8
03__ASM_ALL_CURVES
100
AcDbLine
 62
4
  6
CONTINUOUS
 10
7.9631033288
 20
10.3337506292
 11
7.9476805784
 21
10.3337506292
  0
LINE
  5
44D
100
AcDbEntity
  8
03__ASM_ALL_CURVES
100
AcDbLine
 62
4
  6
CONTINUOUS
 10
7.2751033288
 20
10.3337506292
 11
7.2596805784
 21
10.3337506292
  0
LINE
  5
44E
100
AcDbEntity
  8
03__ASM_ALL_CURVES
100
AcDbLine
 62
4
  6
CONTINUOUS
 10
6.7761033288
 20
10.3337506292
 11
6.7606805784
 21
10.3337506292
  0
LINE
  5
44F
100
AcDbEntity
  8
03__ASM_ALL_CURVES
100
AcDbLine
 62
4
  6
CONTINUOUS
 10
11.7339759943
 20
10.4070086917
 11
11.6928486597
 21
10.4070086917
  0
LINE
  5
450
100
AcDbEntity
  8
03__ASM_ALL_CURVES
100
AcDbLine
 62
4
  6
CONTINUOUS
 10
6.7349759943
 20
10.4070086917
 11
6.6938486597
 21
10.4070086917
  0
LINE
  5
451
100
AcDbEntity
  8
03__ASM_ALL_CURVES
100
AcDbLine
 62
4
  6
CONTINUOUS
 10
7.1517213288
 20
10.4378541917
 11
7.2751033288
 21
10.4378541917
  0
LINE
  5
452
100
AcDbEntity
  8
03__ASM_ALL_CURVES
100
AcDbLine
 62
4
  6
CONTINUOUS
 10
12.9621033288
 20
10.4609883167
 11
12.8387213288
 21
10.4609883167
  0
LINE
  5
453
100
AcDbEntity
  8
03__ASM_ALL_CURVES
100
AcDbLine
 62
4
  6
CONTINUOUS
 10
11.7442578288
 20
10.5226793167
 11
11.7339759943
 21
10.5226793167
  0
LINE
  5
454
100
AcDbEntity
  8
03__ASM_ALL_CURVES
100
AcDbLine
 62
4
  6
CONTINUOUS
 10
7.2442578288
 20
10.5226793167
 11
7.2339759943
 21
10.5226793167
  0
LINE
  5
455
100
AcDbEntity
  8
03__ASM_ALL_CURVES
100
AcDbLine
 62
4
  6
CONTINUOUS
 10
6.7452578288
 20
10.5226793167
 11
6.7349759943
 21
10.5226793167
  0
LINE
  5
456
100
AcDbEntity
  8
03__ASM_ALL_CURVES
100
AcDbLine
 62
4
  6
CONTINUOUS
 10
11.6825668288
 20
10.5303906917
 11
11.672284998
 21
10.5303906917
  0
LINE
  5
457
100
AcDbEntity
  8
03__ASM_ALL_CURVES
100
AcDbLine
 62
4
  6
CONTINUOUS
 10
7.1825668288
 20
10.5303906917
 11
7.172284998
 21
10.5303906917
  0
LINE
  5
458
100
AcDbEntity
  8
03__ASM_ALL_CURVES
100
AcDbLine
 62
4
  6
CONTINUOUS
 10
6.6835668288
 20
10.5303906917
 11
6.673284998
 21
10.5303906917
  0
LINE
  5
459
100
AcDbEntity
  8
03__ASM_ALL_CURVES
100
AcDbLine
 62
4
  6
CONTINUOUS
 10
6.673284998
 20
10.5920816917
 11
6.6835668288
 21
10.5920816917
  0
LINE
  5
45A
100
AcDbEntity
  8
03__ASM_ALL_CURVES
100
AcDbLine
 62
4
  6
CONTINUOUS
 10
7.172284998
 20
10.5920816917
 11
7.1825668288
 21
10.5920816917
  0
LINE
  5
45B
100
AcDbEntity
  8
03__ASM_ALL_CURVES
100
AcDbLine
 62
4
  6
CONTINUOUS
 10
11.672284998
 20
10.5920816917
 11
11.6825668288
 21
10.5920816917
  0
LINE
  5
45C
100
AcDbEntity
  8
03__ASM_ALL_CURVES
100
AcDbLine
 62
4
  6
CONTINUOUS
 10
12.8798486597
 20
10.5920816917
 11
12.9209759943
 21
10.5920816917
  0
LINE
  5
45D
100
AcDbEntity
  8
03__ASM_ALL_CURVES
100
AcDbLine
 62
4
  6
CONTINUOUS
 10
6.7349759943
 20
10.5997930667
 11
6.7452578288
 21
10.5997930667
  0
LINE
  5
45E
100
AcDbEntity
  8
03__ASM_ALL_CURVES
100
AcDbLine
 62
4
  6
CONTINUOUS
 10
7.2339759943
 20
10.5997930667
 11
7.2442578288
 21
10.5997930667
  0
LINE
  5
45F
100
AcDbEntity
  8
03__ASM_ALL_CURVES
100
AcDbLine
 62
4
  6
CONTINUOUS
 10
11.7339759943
 20
10.5997930667
 11
11.7442578288
 21
10.5997930667
  0
LINE
  5
460
100
AcDbEntity
  8
03__ASM_ALL_CURVES
100
AcDbLine
 62
4
  6
CONTINUOUS
 10
6.7246941634
 20
11.5560035667
 11
6.6938486597
 21
11.5637149417
  0
LINE
  5
461
100
AcDbEntity
  8
03__ASM_ALL_CURVES
100
AcDbLine
 62
4
  6
CONTINUOUS
 10
7.2236941634
 20
11.5560035667
 11
7.1928486597
 21
11.5637149417
  0
LINE
  5
462
100
AcDbEntity
  8
03__ASM_ALL_CURVES
100
AcDbLine
 62
4
  6
CONTINUOUS
 10
6.7246941634
 20
11.6870969417
 11
6.7555396616
 21
11.6793855667
  0
LINE
  5
463
100
AcDbEntity
  8
03__ASM_ALL_CURVES
100
AcDbLine
 62
4
  6
CONTINUOUS
 10
7.9116941634
 20
11.4403329417
 11
7.9425396616
 21
11.4326215667
  0
LINE
  5
464
100
AcDbEntity
  8
03__ASM_ALL_CURVES
100
AcDbLine
 62
4
  6
CONTINUOUS
 10
11.7339759943
 20
10.2219356917
 11
11.7545396616
 21
10.2142243167
  0
LINE
  5
465
100
AcDbEntity
  8
03__ASM_ALL_CURVES
100
AcDbLine
 62
4
  6
CONTINUOUS
 10
11.6928486597
 20
10.4070086917
 11
11.672284998
 21
10.4147200667
  0
LINE
  5
466
100
AcDbEntity
  8
03__ASM_ALL_CURVES
100
AcDbLine
 62
4
  6
CONTINUOUS
 10
12.3808486597
 20
10.1602446917
 11
12.360284998
 21
10.1679560667
  0
LINE
  5
467
100
AcDbEntity
  8
03__ASM_ALL_CURVES
100
AcDbLine
 62
4
  6
CONTINUOUS
 10
11.7339759943
 20
10.4070086917
 11
11.7134123288
 21
10.4147200667
  0
LINE
  5
468
100
AcDbEntity
  8
03__ASM_ALL_CURVES
100
AcDbLine
 62
4
  6
CONTINUOUS
 10
11.7339759943
 20
10.4686996917
 11
11.7545396616
 21
10.4609883167
  0
LINE
  5
469
100
AcDbEntity
  8
03__ASM_ALL_CURVES
100
AcDbLine
 62
4
  6
CONTINUOUS
 10
12.4219759943
 20
10.2219356917
 11
12.4425396616
 21
10.2142243167
  0
LINE
  5
46A
100
AcDbEntity
  8
03__ASM_ALL_CURVES
100
AcDbLine
 62
4
  6
CONTINUOUS
 10
13.2033953288
 20
9.3274161917
 11
13.1879725788
 21
9.3376980254
  0
LINE
  5
46B
100
AcDbEntity
  8
03__ASM_ALL_CURVES
100
AcDbLine
 62
4
  6
CONTINUOUS
 10
13.2033953288
 20
9.4507981917
 11
13.2188180788
 21
9.4405163608
  0
LINE
  5
46C
100
AcDbEntity
  8
03__ASM_ALL_CURVES
100
AcDbLine
 62
4
  6
CONTINUOUS
 10
11.672284998
 20
10.1679560667
 11
11.6620031597
 21
10.1756674417
  0
LINE
  5
46D
100
AcDbEntity
  8
03__ASM_ALL_CURVES
100
AcDbLine
 62
4
  6
CONTINUOUS
 10
11.7545396616
 20
10.2142243167
 11
11.7648214952
 21
10.2065129417
  0
LINE
  5
46E
100
AcDbEntity
  8
03__ASM_ALL_CURVES
100
AcDbLine
 62
4
  6
CONTINUOUS
 10
11.672284998
 20
10.4147200667
 11
11.6620031597
 21
10.4224314417
  0
LINE
  5
46F
100
AcDbEntity
  8
03__ASM_ALL_CURVES
100
AcDbLine
 62
4
  6
CONTINUOUS
 10
11.7545396616
 20
10.4609883167
 11
11.7648214952
 21
10.4532769417
  0
LINE
  5
470
100
AcDbEntity
  8
03__ASM_ALL_CURVES
100
AcDbLine
 62
4
  6
CONTINUOUS
 10
11.672284998
 20
10.5303906917
 11
11.6620031597
 21
10.5381020667
  0
LINE
  5
471
100
AcDbEntity
  8
03__ASM_ALL_CURVES
100
AcDbLine
 62
4
  6
CONTINUOUS
 10
11.7339759943
 20
10.5226793167
 11
11.7134123288
 21
10.5381020667
  0
LINE
  5
472
100
AcDbEntity
  8
03__ASM_ALL_CURVES
100
AcDbLine
 62
4
  6
CONTINUOUS
 10
14.4728794538
 20
7.0025163608
 11
14.4805908288
 21
6.9922345226
  0
LINE
  5
473
100
AcDbEntity
  8
03__ASM_ALL_CURVES
100
AcDbLine
 62
4
  6
CONTINUOUS
 10
14.5924057663
 20
6.9048389422
 11
14.6039728288
 21
6.8894161917
  0
LINE
  5
474
100
AcDbEntity
  8
03__ASM_ALL_CURVES
100
AcDbLine
 62
4
  6
CONTINUOUS
 10
11.7648214952
 20
10.2065129417
 11
11.7751033288
 21
10.1910901917
  0
LINE
  5
475
100
AcDbEntity
  8
03__ASM_ALL_CURVES
100
AcDbLine
 62
4
  6
CONTINUOUS
 10
11.6620031597
 20
10.4224314417
 11
11.6517213288
 21
10.4378541917
  0
LINE
  5
476
100
AcDbEntity
  8
03__ASM_ALL_CURVES
100
AcDbLine
 62
4
  6
CONTINUOUS
 10
11.6620031597
 20
10.5381020667
 11
11.6517213288
 21
10.5535248167
  0
LINE
  5
477
100
AcDbEntity
  8
03__ASM_ALL_CURVES
100
AcDbLine
 62
4
  6
CONTINUOUS
 10
11.7648214952
 20
10.4532769417
 11
11.7751033288
 21
10.4378541917
  0
LINE
  5
478
100
AcDbEntity
  8
03__ASM_ALL_CURVES
100
AcDbLine
 62
4
  6
CONTINUOUS
 10
11.7134123288
 20
10.5381020667
 11
11.703130498
 21
10.5535248167
  0
LINE
  5
479
100
AcDbEntity
  8
03__ASM_ALL_CURVES
100
AcDbLine
 62
4
  6
CONTINUOUS
 10
11.6928486597
 20
10.5843703167
 11
11.703130498
 21
10.5689475667
  0
LINE
  5
47A
100
AcDbEntity
  8
03__ASM_ALL_CURVES
100
AcDbLine
 62
4
  6
CONTINUOUS
 10
11.7648214952
 20
10.5843703167
 11
11.7751033288
 21
10.5689475667
  0
LINE
  5
47B
100
AcDbEntity
  8
03__ASM_ALL_CURVES
100
AcDbLine
 62
4
  6
CONTINUOUS
 10
11.7134123288
 20
10.4147200667
 11
11.703130498
 21
10.4378541917
  0
LINE
  5
47C
100
AcDbEntity
  8
0
100
AcDbLine
 62
7
  6
CONTINUOUS
 10
12.3704123288
 20
6.9671072098
 11
12.3704123288
 21
9.3731072098
  0
LINE
  5
47D
100
AcDbEntity
  8
0
100
AcDbLine
 62
7
  6
CONTINUOUS
 10
12.4014123288
 20
6.9981072098
 11
12.4014123288
 21
9.3421072098
  0
LINE
  5
47E
100
AcDbEntity
  8
03__ASM_ALL_CURVES
100
AcDbLine
 62
4
  6
CONTINUOUS
 10
12.4014123288
 20
9.5124891917
 11
12.4014123288
 21
9.8826351917
  0
LINE
  5
47F
100
AcDbEntity
  8
0
100
AcDbLine
 62
7
  6
CONTINUOUS
 10
12.4324123288
 20
8.1796071917
 11
12.4324123288
 21
9.0366071917
  0
LINE
  5
480
100
AcDbEntity
  8
0
100
AcDbLine
 62
7
  6
CONTINUOUS
 10
12.4929123288
 20
8.2002049441
 11
12.4929123288
 21
8.1705911577
  0
LINE
  5
481
100
AcDbEntity
  8
0
100
AcDbLine
 62
7
  6
CONTINUOUS
 10
12.4929123288
 20
8.5784934054
 11
12.4929123288
 21
8.637720978
  0
LINE
  5
482
100
AcDbEntity
  8
0
100
AcDbLine
 62
7
  6
CONTINUOUS
 10
12.4929123288
 20
9.0160094394
 11
12.4929123288
 21
9.0456232257
  0
LINE
  5
483
100
AcDbEntity
  8
03__ASM_ALL_CURVES
100
AcDbLine
 62
4
  6
CONTINUOUS
 10
12.9106941634
 20
10.5612361917
 11
12.9004123288
 21
10.5381020667
  0
LINE
  5
484
100
AcDbEntity
  8
0
100
AcDbLine
 62
7
  6
CONTINUOUS
 10
12.4324123288
 20
9.0366071917
 11
12.4414555436
 21
9.0456504065
  0
LINE
  5
485
100
AcDbEntity
  8
03__ASM_ALL_CURVES
100
AcDbLine
 62
4
  6
CONTINUOUS
 10
13.1879725788
 20
9.4405163608
 11
13.2033953288
 21
9.4507981917
  0
LINE
  5
486
100
AcDbEntity
  8
03__ASM_ALL_CURVES
100
AcDbLine
 62
4
  6
CONTINUOUS
 10
13.2188180788
 20
9.3376980254
 11
13.2033953288
 21
9.3274161917
  0
LINE
  5
487
100
AcDbEntity
  8
03__ASM_ALL_CURVES
100
AcDbLine
 62
4
  6
CONTINUOUS
 10
7.891130498
 20
10.6691954417
 11
7.9116941634
 21
10.6691954417
  0
LINE
  5
488
100
AcDbEntity
  8
03__ASM_ALL_CURVES
100
AcDbLine
 62
4
  6
CONTINUOUS
 10
6.704130498
 20
10.7925774417
 11
6.7246941634
 21
10.7925774417
  0
LINE
  5
489
100
AcDbEntity
  8
03__ASM_ALL_CURVES
100
AcDbLine
 62
4
  6
CONTINUOUS
 10
7.203130498
 20
10.7925774417
 11
7.2236941634
 21
10.7925774417
  0
LINE
  5
48A
100
AcDbEntity
  8
03__ASM_ALL_CURVES
100
AcDbLine
 62
4
  6
CONTINUOUS
 10
11.703130498
 20
10.7925774417
 11
11.7236941634
 21
10.7925774417
  0
LINE
  5
48B
100
AcDbEntity
  8
03__ASM_ALL_CURVES
100
AcDbLine
 62
4
  6
CONTINUOUS
 10
12.890130498
 20
10.7925774417
 11
12.9106941634
 21
10.7925774417
  0
LINE
  5
48C
100
AcDbEntity
  8
03__ASM_ALL_CURVES
100
AcDbLine
 62
4
  6
CONTINUOUS
 10
7.8397213288
 20
10.8080001917
 11
7.9631033288
 21
10.8080001917
  0
LINE
  5
48D
100
AcDbEntity
  8
03__ASM_ALL_CURVES
100
AcDbLine
 62
4
  6
CONTINUOUS
 10
6.6527213288
 20
10.9313821917
 11
6.7761033288
 21
10.9313821917
  0
LINE
  5
48E
100
AcDbEntity
  8
03__ASM_ALL_CURVES
100
AcDbLine
 62
4
  6
CONTINUOUS
 10
7.1517213288
 20
10.9313821917
 11
7.2751033288
 21
10.9313821917
  0
LINE
  5
48F
100
AcDbEntity
  8
03__ASM_ALL_CURVES
100
AcDbLine
 62
4
  6
CONTINUOUS
 10
7.8397213288
 20
10.9313821917
 11
7.9631033288
 21
10.9313821917
  0
LINE
  5
490
100
AcDbEntity
  8
03__ASM_ALL_CURVES
100
AcDbLine
 62
4
  6
CONTINUOUS
 10
11.6517213288
 20
10.9313821917
 11
11.7751033288
 21
10.9313821917
  0
LINE
  5
491
100
AcDbEntity
  8
03__ASM_ALL_CURVES
100
AcDbLine
 62
4
  6
CONTINUOUS
 10
12.8387213288
 20
10.9313821917
 11
12.9621033288
 21
10.9313821917
  0
LINE
  5
492
100
AcDbEntity
  8
03__ASM_ALL_CURVES
100
AcDbLine
 62
4
  6
CONTINUOUS
 10
7.1517213288
 20
11.4094874417
 11
7.203130498
 21
11.4017760667
  0
LINE
  5
493
100
AcDbEntity
  8
03__ASM_ALL_CURVES
100
AcDbLine
 62
4
  6
CONTINUOUS
 10
6.7761033288
 20
11.5482921917
 11
6.7246941634
 21
11.5560035667
  0
LINE
  5
494
100
AcDbEntity
  8
03__ASM_ALL_CURVES
100
AcDbLine
 62
4
  6
CONTINUOUS
 10
7.2751033288
 20
11.5482921917
 11
7.2236941634
 21
11.5560035667
  0
LINE
  5
495
100
AcDbEntity
  8
03__ASM_ALL_CURVES
100
AcDbLine
 62
4
  6
CONTINUOUS
 10
7.2236941634
 20
11.6870969417
 11
7.2545396616
 21
11.6793855667
  0
LINE
  5
496
100
AcDbEntity
  8
03__ASM_ALL_CURVES
100
AcDbLine
 62
4
  6
CONTINUOUS
 10
7.860284998
 20
11.6639628167
 11
7.891130498
 21
11.6562514417
  0
LINE
  5
497
100
AcDbEntity
  8
03__ASM_ALL_CURVES
100
AcDbLine
 62
4
  6
CONTINUOUS
 10
11.672284998
 20
10.8002888167
 11
11.703130498
 21
10.7925774417
  0
LINE
  5
498
100
AcDbEntity
  8
03__ASM_ALL_CURVES
100
AcDbLine
 62
4
  6
CONTINUOUS
 10
12.8798486597
 20
10.1602446917
 11
12.859284998
 21
10.1679560667
  0
LINE
  5
499
100
AcDbEntity
  8
03__ASM_ALL_CURVES
100
AcDbLine
 62
4
  6
CONTINUOUS
 10
12.9209759943
 20
10.2219356917
 11
12.9415396616
 21
10.2142243167
  0
LINE
  5
49A
100
AcDbEntity
  8
03__ASM_ALL_CURVES
100
AcDbLine
 62
4
  6
CONTINUOUS
 10
11.6825668288
 20
10.5920816917
 11
11.6928486597
 21
10.5843703167
  0
LINE
  5
49B
100
AcDbEntity
  8
03__ASM_ALL_CURVES
100
AcDbLine
 62
4
  6
CONTINUOUS
 10
11.7442578288
 20
10.5997930667
 11
11.7648214952
 21
10.5843703167
  0
LINE
  5
49C
100
AcDbEntity
  8
03__ASM_ALL_CURVES
100
AcDbLine
 62
4
  6
CONTINUOUS
 10
12.360284998
 20
10.1679560667
 11
12.3500031597
 21
10.1756674417
  0
LINE
  5
49D
100
AcDbEntity
  8
03__ASM_ALL_CURVES
100
AcDbLine
 62
4
  6
CONTINUOUS
 10
12.4425396616
 20
10.2142243167
 11
12.4528214952
 21
10.2065129417
  0
LINE
  5
49E
100
AcDbEntity
  8
03__ASM_ALL_CURVES
100
AcDbLine
 62
4
  6
CONTINUOUS
 10
11.6517213288
 20
10.8157115667
 11
11.672284998
 21
10.8002888167
  0
LINE
  5
49F
100
AcDbEntity
  8
03__ASM_ALL_CURVES
100
AcDbLine
 62
4
  6
CONTINUOUS
 10
14.7967572038
 20
6.8996980254
 11
14.7890458288
 21
6.909979859
  0
LINE
  5
4A0
100
AcDbEntity
  8
03__ASM_ALL_CURVES
100
AcDbLine
 62
4
  6
CONTINUOUS
 10
14.8430254538
 20
6.9511071917
 11
14.8584482038
 21
6.9305435263
  0
LINE
  5
4A1
100
AcDbEntity
  8
03__ASM_ALL_CURVES
100
AcDbLine
 62
4
  6
CONTINUOUS
 10
14.8430254538
 20
7.0025163608
 11
14.8507368288
 21
6.9922345226
  0
LINE
  5
4A2
100
AcDbEntity
  8
03__ASM_ALL_CURVES
100
AcDbLine
 62
4
  6
CONTINUOUS
 10
13.1879725788
 20
9.3376980254
 11
13.1802612038
 21
9.347979859
  0
LINE
  5
4A3
100
AcDbEntity
  8
03__ASM_ALL_CURVES
100
AcDbLine
 62
4
  6
CONTINUOUS
 10
12.3500031597
 20
10.1756674417
 11
12.3397213288
 21
10.1910901917
  0
LINE
  5
4A4
100
AcDbEntity
  8
03__ASM_ALL_CURVES
100
AcDbLine
 62
4
  6
CONTINUOUS
 10
11.6620031597
 20
11.2783940667
 11
11.6517213288
 21
11.2938168167
  0
LINE
  5
4A5
100
AcDbEntity
  8
03__ASM_ALL_CURVES
100
AcDbLine
 62
4
  6
CONTINUOUS
 10
11.703130498
 20
11.3246623167
 11
11.7236941634
 21
11.2938168167
  0
LINE
  5
4A6
100
AcDbEntity
  8
03__ASM_ALL_CURVES
100
AcDbLine
 62
4
  6
CONTINUOUS
 10
12.4528214952
 20
10.2065129417
 11
12.4631033288
 21
10.1910901917
  0
LINE
  5
4A7
100
AcDbEntity
  8
0
100
AcDbLine
 62
7
  6
CONTINUOUS
 10
12.8960729444
 20
9.045623226
 11
12.9004123288
 21
9.0381071917
  0
LINE
  5
4A8
100
AcDbEntity
  8
03__ASM_ALL_CURVES
100
AcDbLine
 62
4
  6
CONTINUOUS
 10
12.8387213288
 20
11.0470528167
 11
12.8387213288
 21
11.0624755667
  0
LINE
  5
4A9
100
AcDbEntity
  8
0
100
AcDbLine
 62
7
  6
CONTINUOUS
 10
12.866348663
 20
9.0456232257
 11
12.866348663
 21
9.0160094394
  0
LINE
  5
4AA
100
AcDbEntity
  8
0
100
AcDbLine
 62
7
  6
CONTINUOUS
 10
12.866348663
 20
8.637720978
 11
12.866348663
 21
8.5784934054
  0
LINE
  5
4AB
100
AcDbEntity
  8
0
100
AcDbLine
 62
7
  6
CONTINUOUS
 10
12.866348663
 20
8.2002049441
 11
12.866348663
 21
8.1705911577
  0
LINE
  5
4AC
100
AcDbEntity
  8
0
100
AcDbLine
 62
7
  6
CONTINUOUS
 10
12.9004123288
 20
9.0381071917
 11
12.9004123288
 21
8.1781071917
  0
LINE
  5
4AD
100
AcDbEntity
  8
03__ASM_ALL_CURVES
100
AcDbLine
 62
4
  6
CONTINUOUS
 10
12.9004123288
 20
9.5124891917
 11
12.9004123288
 21
9.8826351917
  0
LINE
  5
4AE
100
AcDbEntity
  8
03__ASM_ALL_CURVES
100
AcDbLine
 62
4
  6
CONTINUOUS
 10
12.9312578288
 20
10.4070086917
 11
12.9312578288
 21
10.4764110667
  0
LINE
  5
4AF
100
AcDbEntity
  8
03__ASM_ALL_CURVES
100
AcDbLine
 62
4
  6
CONTINUOUS
 10
12.9312578288
 20
11.2706826917
 11
12.9312578288
 21
11.3400850667
  0
LINE
  5
4B0
100
AcDbEntity
  8
03__ASM_ALL_CURVES
100
AcDbLine
 62
4
  6
CONTINUOUS
 10
12.9312578288
 20
11.3940646917
 11
12.9312578288
 21
11.4634670667
  0
LINE
  5
4B1
100
AcDbEntity
  8
03__ASM_ALL_CURVES
100
AcDbLine
 62
4
  6
CONTINUOUS
 10
12.9621033288
 20
11.2089916917
 11
12.9621033288
 21
11.1974246292
  0
LINE
  5
4B2
100
AcDbEntity
  8
03__ASM_ALL_CURVES
100
AcDbLine
 62
4
  6
CONTINUOUS
 10
12.9621033288
 20
10.3453176917
 11
12.9621033288
 21
10.3337506292
  0
LINE
  5
4B3
100
AcDbEntity
  8
03__ASM_ALL_CURVES
100
AcDbLine
 62
4
  6
CONTINUOUS
 10
12.9621033288
 20
11.0239186917
 11
12.9621033288
 21
11.0856096917
  0
LINE
  5
4B4
100
AcDbEntity
  8
03__ASM_ALL_CURVES
100
AcDbLine
 62
4
  6
CONTINUOUS
 10
13.1802612038
 20
9.4302345226
 11
13.1879725788
 21
9.4405163608
  0
LINE
  5
4B5
100
AcDbEntity
  8
03__ASM_ALL_CURVES
100
AcDbLine
 62
4
  6
CONTINUOUS
 10
13.2265294538
 20
9.347979859
 11
13.2188180788
 21
9.3376980254
  0
LINE
  5
4B6
100
AcDbEntity
  8
03__ASM_ALL_CURVES
100
AcDbLine
 62
4
  6
CONTINUOUS
 10
12.859284998
 20
11.5560035667
 11
12.890130498
 21
11.5637149417
  0
LINE
  5
4B7
100
AcDbEntity
  8
03__ASM_ALL_CURVES
100
AcDbLine
 62
4
  6
CONTINUOUS
 10
7.9631033288
 20
11.0778983167
 11
7.8397213288
 21
11.0778983167
  0
LINE
  5
4B8
100
AcDbEntity
  8
03__ASM_ALL_CURVES
100
AcDbLine
 62
4
  6
CONTINUOUS
 10
6.7761033288
 20
11.0778983167
 11
6.6527213288
 21
11.0778983167
  0
LINE
  5
4B9
100
AcDbEntity
  8
03__ASM_ALL_CURVES
100
AcDbLine
 62
4
  6
CONTINUOUS
 10
7.172284998
 20
11.0856096917
 11
7.1825668288
 21
11.0856096917
  0
LINE
  5
4BA
100
AcDbEntity
  8
03__ASM_ALL_CURVES
100
AcDbLine
 62
4
  6
CONTINUOUS
 10
12.859284998
 20
11.0856096917
 11
12.8798486597
 21
11.0856096917
  0
LINE
  5
4BB
100
AcDbEntity
  8
03__ASM_ALL_CURVES
100
AcDbLine
 62
4
  6
CONTINUOUS
 10
7.2339759943
 20
11.0933210667
 11
7.2442578288
 21
11.0933210667
  0
LINE
  5
4BC
100
AcDbEntity
  8
03__ASM_ALL_CURVES
100
AcDbLine
 62
4
  6
CONTINUOUS
 10
7.1517213288
 20
11.1781461917
 11
7.2751033288
 21
11.1781461917
  0
LINE
  5
4BD
100
AcDbEntity
  8
03__ASM_ALL_CURVES
100
AcDbLine
 62
4
  6
CONTINUOUS
 10
12.9621033288
 20
11.1974246292
 11
12.9466805784
 21
11.1974246292
  0
LINE
  5
4BE
100
AcDbEntity
  8
03__ASM_ALL_CURVES
100
AcDbLine
 62
4
  6
CONTINUOUS
 10
11.7751033288
 20
11.1974246292
 11
11.7596805784
 21
11.1974246292
  0
LINE
  5
4BF
100
AcDbEntity
  8
03__ASM_ALL_CURVES
100
AcDbLine
 62
4
  6
CONTINUOUS
 10
7.9631033288
 20
11.1974246292
 11
7.9476805784
 21
11.1974246292
  0
LINE
  5
4C0
100
AcDbEntity
  8
03__ASM_ALL_CURVES
100
AcDbLine
 62
4
  6
CONTINUOUS
 10
6.7761033288
 20
11.2012803167
 11
6.6527213288
 21
11.2012803167
  0
LINE
  5
4C1
100
AcDbEntity
  8
03__ASM_ALL_CURVES
100
AcDbLine
 62
4
  6
CONTINUOUS
 10
7.2751033288
 20
11.3208066292
 11
7.2596805784
 21
11.3208066292
  0
LINE
  5
4C2
100
AcDbEntity
  8
03__ASM_ALL_CURVES
100
AcDbLine
 62
4
  6
CONTINUOUS
 10
6.7761033288
 20
11.3208066292
 11
6.7606805784
 21
11.3208066292
  0
LINE
  5
4C3
100
AcDbEntity
  8
03__ASM_ALL_CURVES
100
AcDbLine
 62
4
  6
CONTINUOUS
 10
12.9621033288
 20
11.3246623167
 11
12.8387213288
 21
11.3246623167
  0
LINE
  5
4C4
100
AcDbEntity
  8
03__ASM_ALL_CURVES
100
AcDbLine
 62
4
  6
CONTINUOUS
 10
7.860284998
 20
11.3323736917
 11
7.8705668288
 21
11.3323736917
  0
LINE
  5
4C5
100
AcDbEntity
  8
03__ASM_ALL_CURVES
100
AcDbLine
 62
4
  6
CONTINUOUS
 10
11.672284998
 20
11.3323736917
 11
11.6928486597
 21
11.3323736917
  0
LINE
  5
4C6
100
AcDbEntity
  8
03__ASM_ALL_CURVES
100
AcDbLine
 62
4
  6
CONTINUOUS
 10
7.9219759943
 20
11.3400850667
 11
7.9322578288
 21
11.3400850667
  0
LINE
  5
4C7
100
AcDbEntity
  8
03__ASM_ALL_CURVES
100
AcDbLine
 62
4
  6
CONTINUOUS
 10
11.7751033288
 20
11.0547641917
 11
11.7236941634
 21
11.0624755667
  0
LINE
  5
4C8
100
AcDbEntity
  8
03__ASM_ALL_CURVES
100
AcDbLine
 62
4
  6
CONTINUOUS
 10
11.7236941634
 20
11.0624755667
 11
11.6928486597
 21
11.0701869417
  0
LINE
  5
4C9
100
AcDbEntity
  8
03__ASM_ALL_CURVES
100
AcDbLine
 62
4
  6
CONTINUOUS
 10
12.859284998
 20
10.8002888167
 11
12.890130498
 21
10.7925774417
  0
LINE
  5
4CA
100
AcDbEntity
  8
03__ASM_ALL_CURVES
100
AcDbLine
 62
4
  6
CONTINUOUS
 10
7.9116941634
 20
12.0572429417
 11
7.9425396616
 21
12.0495315667
  0
LINE
  5
4CB
100
AcDbEntity
  8
03__ASM_ALL_CURVES
100
AcDbLine
 62
4
  6
CONTINUOUS
 10
12.8798486597
 20
10.5303906917
 11
12.859284998
 21
10.5381020667
  0
LINE
  5
4CC
100
AcDbEntity
  8
03__ASM_ALL_CURVES
100
AcDbLine
 62
4
  6
CONTINUOUS
 10
12.8798486597
 20
10.5920816917
 11
12.9004123288
 21
10.5843703167
  0
LINE
  5
4CD
100
AcDbEntity
  8
03__ASM_ALL_CURVES
100
AcDbLine
 62
4
  6
CONTINUOUS
 10
12.9209759943
 20
10.5920816917
 11
12.9415396616
 21
10.5843703167
  0
LINE
  5
4CE
100
AcDbEntity
  8
03__ASM_ALL_CURVES
100
AcDbLine
 62
4
  6
CONTINUOUS
 10
11.6928486597
 20
11.0701869417
 11
11.6517213288
 21
11.0856096917
  0
LINE
  5
4CF
100
AcDbEntity
  8
03__ASM_ALL_CURVES
100
AcDbLine
 62
4
  6
CONTINUOUS
 10
12.8387213288
 20
10.4609883167
 11
12.9312578288
 21
10.4070086917
  0
LINE
  5
4D0
100
AcDbEntity
  8
03__ASM_ALL_CURVES
100
AcDbLine
 62
4
  6
CONTINUOUS
 10
12.859284998
 20
10.1679560667
 11
12.8490031597
 21
10.1756674417
  0
LINE
  5
4D1
100
AcDbEntity
  8
03__ASM_ALL_CURVES
100
AcDbLine
 62
4
  6
CONTINUOUS
 10
12.9415396616
 20
10.2142243167
 11
12.9518214952
 21
10.2065129417
  0
LINE
  5
4D2
100
AcDbEntity
  8
03__ASM_ALL_CURVES
100
AcDbLine
 62
4
  6
CONTINUOUS
 10
11.672284998
 20
11.2706826917
 11
11.6620031597
 21
11.2783940667
  0
LINE
  5
4D3
100
AcDbEntity
  8
03__ASM_ALL_CURVES
100
AcDbLine
 62
4
  6
CONTINUOUS
 10
11.7236941634
 20
11.2938168167
 11
11.7442578288
 21
11.2783940667
  0
LINE
  5
4D4
100
AcDbEntity
  8
03__ASM_ALL_CURVES
100
AcDbLine
 62
4
  6
CONTINUOUS
 10
11.6928486597
 20
11.3323736917
 11
11.703130498
 21
11.3246623167
  0
LINE
  5
4D5
100
AcDbEntity
  8
03__ASM_ALL_CURVES
100
AcDbLine
 62
4
  6
CONTINUOUS
 10
12.859284998
 20
10.5381020667
 11
12.8490031597
 21
10.5458134417
  0
LINE
  5
4D6
100
AcDbEntity
  8
03__ASM_ALL_CURVES
100
AcDbLine
 62
4
  6
CONTINUOUS
 10
15.0589439538
 20
6.909979859
 11
15.0743667038
 21
6.8894161917
  0
LINE
  5
4D7
100
AcDbEntity
  8
03__ASM_ALL_CURVES
100
AcDbLine
 62
4
  6
CONTINUOUS
 10
13.2188180788
 20
9.4405163608
 11
13.2265294538
 21
9.4302345226
  0
LINE
  5
4D8
100
AcDbEntity
  8
03__ASM_ALL_CURVES
100
AcDbLine
 62
4
  6
CONTINUOUS
 10
15.1746145788
 20
6.8996980254
 11
15.1669032038
 21
6.909979859
  0
LINE
  5
4D9
100
AcDbEntity
  8
03__ASM_ALL_CURVES
100
AcDbLine
 62
4
  6
CONTINUOUS
 10
15.2054600788
 20
7.0025163608
 11
15.2131714538
 21
6.9922345226
  0
LINE
  5
4DA
100
AcDbEntity
  8
03__ASM_ALL_CURVES
100
AcDbLine
 62
4
  6
CONTINUOUS
 10
15.4560797663
 20
6.9048389422
 11
15.4676468288
 21
6.8894161917
  0
LINE
  5
4DB
100
AcDbEntity
  8
03__ASM_ALL_CURVES
100
AcDbLine
 62
4
  6
CONTINUOUS
 10
12.8490031597
 20
10.1756674417
 11
12.8387213288
 21
10.1910901917
  0
LINE
  5
4DC
100
AcDbEntity
  8
03__ASM_ALL_CURVES
100
AcDbLine
 62
4
  6
CONTINUOUS
 10
11.6517213288
 20
12.0341088167
 11
11.6620031597
 21
12.0186860667
  0
LINE
  5
4DD
100
AcDbEntity
  8
03__ASM_ALL_CURVES
100
AcDbLine
 62
4
  6
CONTINUOUS
 10
12.9518214952
 20
10.2065129417
 11
12.9621033288
 21
10.1910901917
  0
LINE
  5
4DE
100
AcDbEntity
  8
03__ASM_ALL_CURVES
100
AcDbLine
 62
4
  6
CONTINUOUS
 10
13.1802612038
 20
9.347979859
 11
13.1725498288
 21
9.3685435263
  0
LINE
  5
4DF
100
AcDbEntity
  8
03__ASM_ALL_CURVES
100
AcDbLine
 62
4
  6
CONTINUOUS
 10
13.1725498288
 20
9.3685435263
 11
13.1725498288
 21
9.4096708608
  0
LINE
  5
4E0
100
AcDbEntity
  8
03__ASM_ALL_CURVES
100
AcDbLine
 62
4
  6
CONTINUOUS
 10
13.2342408288
 20
9.4096708608
 11
13.2342408288
 21
9.3685435263
  0
LINE
  5
4E1
100
AcDbEntity
  8
03__ASM_ALL_CURVES
100
AcDbLine
 62
4
  6
CONTINUOUS
 10
13.1725498288
 20
9.4096708608
 11
13.1802612038
 21
9.4302345226
  0
LINE
  5
4E2
100
AcDbEntity
  8
03__ASM_ALL_CURVES
100
AcDbLine
 62
4
  6
CONTINUOUS
 10
13.2342408288
 20
9.3685435263
 11
13.2265294538
 21
9.347979859
  0
LINE
  5
4E3
100
AcDbEntity
  8
0
100
AcDbLine
 62
7
  6
CONTINUOUS
 10
12.8960729444
 20
8.1705911574
 11
12.9004123288
 21
8.1781071917
  0
LINE
  5
4E4
100
AcDbEntity
  8
03__ASM_ALL_CURVES
100
AcDbLine
 62
4
  6
CONTINUOUS
 10
11.672284998
 20
11.5560035667
 11
11.703130498
 21
11.5637149417
  0
LINE
  5
4E5
100
AcDbEntity
  8
03__ASM_ALL_CURVES
100
AcDbLine
 62
4
  6
CONTINUOUS
 10
7.9116941634
 20
10.6691954417
 11
7.9425396616
 21
10.6769068167
  0
LINE
  5
4E6
100
AcDbEntity
  8
03__ASM_ALL_CURVES
100
AcDbLine
 62
4
  6
CONTINUOUS
 10
11.7236941634
 20
11.7796334417
 11
11.7545396616
 21
11.7873448167
  0
LINE
  5
4E7
100
AcDbEntity
  8
03__ASM_ALL_CURVES
100
AcDbLine
 62
4
  6
CONTINUOUS
 10
7.891130498
 20
11.4403329417
 11
7.9116941634
 21
11.4403329417
  0
LINE
  5
4E8
100
AcDbEntity
  8
03__ASM_ALL_CURVES
100
AcDbLine
 62
4
  6
CONTINUOUS
 10
12.9621033288
 20
11.4480443167
 11
12.8387213288
 21
11.4480443167
  0
LINE
  5
4E9
100
AcDbEntity
  8
03__ASM_ALL_CURVES
100
AcDbLine
 62
4
  6
CONTINUOUS
 10
6.673284998
 20
11.4557556917
 11
6.6938486597
 21
11.4557556917
  0
LINE
  5
4EA
100
AcDbEntity
  8
03__ASM_ALL_CURVES
100
AcDbLine
 62
4
  6
CONTINUOUS
 10
11.703130498
 20
11.5637149417
 11
11.7236941634
 21
11.5637149417
  0
LINE
  5
4EB
100
AcDbEntity
  8
03__ASM_ALL_CURVES
100
AcDbLine
 62
4
  6
CONTINUOUS
 10
12.890130498
 20
11.5637149417
 11
12.9106941634
 21
11.5637149417
  0
LINE
  5
4EC
100
AcDbEntity
  8
03__ASM_ALL_CURVES
100
AcDbLine
 62
4
  6
CONTINUOUS
 10
7.891130498
 20
11.6562514417
 11
7.9116941634
 21
11.6562514417
  0
LINE
  5
4ED
100
AcDbEntity
  8
03__ASM_ALL_CURVES
100
AcDbLine
 62
4
  6
CONTINUOUS
 10
6.704130498
 20
11.6870969417
 11
6.7246941634
 21
11.6870969417
  0
LINE
  5
4EE
100
AcDbEntity
  8
03__ASM_ALL_CURVES
100
AcDbLine
 62
4
  6
CONTINUOUS
 10
7.203130498
 20
11.6870969417
 11
7.2236941634
 21
11.6870969417
  0
LINE
  5
4EF
100
AcDbEntity
  8
03__ASM_ALL_CURVES
100
AcDbLine
 62
4
  6
CONTINUOUS
 10
11.7751033288
 20
11.4249101917
 11
11.7236941634
 21
11.4326215667
  0
LINE
  5
4F0
100
AcDbEntity
  8
03__ASM_ALL_CURVES
100
AcDbLine
 62
4
  6
CONTINUOUS
 10
11.7442578288
 20
11.2783940667
 11
11.7751033288
 21
11.2706826917
  0
LINE
  5
4F1
100
AcDbEntity
  8
03__ASM_ALL_CURVES
100
AcDbLine
 62
4
  6
CONTINUOUS
 10
12.9312578288
 20
11.0316300667
 11
12.9621033288
 21
11.0239186917
  0
LINE
  5
4F2
100
AcDbEntity
  8
03__ASM_ALL_CURVES
100
AcDbLine
 62
4
  6
CONTINUOUS
 10
11.7236941634
 20
11.4326215667
 11
11.6928486597
 21
11.4403329417
  0
LINE
  5
4F3
100
AcDbEntity
  8
03__ASM_ALL_CURVES
100
AcDbLine
 62
4
  6
CONTINUOUS
 10
11.7236941634
 20
11.5637149417
 11
11.7545396616
 21
11.5560035667
  0
LINE
  5
4F4
100
AcDbEntity
  8
03__ASM_ALL_CURVES
100
AcDbLine
 62
4
  6
CONTINUOUS
 10
11.6928486597
 20
11.4403329417
 11
11.6517213288
 21
11.4557556917
  0
LINE
  5
4F5
100
AcDbEntity
  8
03__ASM_ALL_CURVES
100
AcDbLine
 62
4
  6
CONTINUOUS
 10
12.9415396616
 20
10.5843703167
 11
12.9518214952
 21
10.5766589417
  0
LINE
  5
4F6
100
AcDbEntity
  8
03__ASM_ALL_CURVES
100
AcDbLine
 62
4
  6
CONTINUOUS
 10
11.7545396616
 20
11.5560035667
 11
11.7751033288
 21
11.5405808167
  0
LINE
  5
4F7
100
AcDbEntity
  8
03__ASM_ALL_CURVES
100
AcDbLine
 62
4
  6
CONTINUOUS
 10
12.8387213288
 20
10.8157115667
 11
12.859284998
 21
10.8002888167
  0
LINE
  5
4F8
100
AcDbEntity
  8
03__ASM_ALL_CURVES
100
AcDbLine
 62
4
  6
CONTINUOUS
 10
11.6517213288
 20
11.8027675667
 11
11.672284998
 21
11.7873448167
  0
LINE
  5
4F9
100
AcDbEntity
  8
03__ASM_ALL_CURVES
100
AcDbLine
 62
4
  6
CONTINUOUS
 10
12.859284998
 20
11.0239186917
 11
12.8490031597
 21
11.0316300667
  0
LINE
  5
4FA
100
AcDbEntity
  8
03__ASM_ALL_CURVES
100
AcDbLine
 62
4
  6
CONTINUOUS
 10
15.7066994538
 20
7.0025163608
 11
15.7144108288
 21
6.9922345226
  0
LINE
  5
4FB
100
AcDbEntity
  8
03__ASM_ALL_CURVES
100
AcDbLine
 62
4
  6
CONTINUOUS
 10
15.7992359538
 20
7.0127981917
 11
15.8146587038
 21
6.9922345226
  0
LINE
  5
4FC
100
AcDbEntity
  8
03__ASM_ALL_CURVES
100
AcDbLine
 62
4
  6
CONTINUOUS
 10
11.7648214952
 20
12.0649543167
 11
11.7751033288
 21
12.0495315667
  0
LINE
  5
4FD
100
AcDbEntity
  8
03__ASM_ALL_CURVES
100
AcDbLine
 62
4
  6
CONTINUOUS
 10
12.8490031597
 20
10.5458134417
 11
12.8387213288
 21
10.5612361917
  0
LINE
  5
4FE
100
AcDbEntity
  8
03__ASM_ALL_CURVES
100
AcDbLine
 62
4
  6
CONTINUOUS
 10
12.9518214952
 20
10.5766589417
 11
12.9621033288
 21
10.5612361917
  0
LINE
  5
4FF
100
AcDbEntity
  8
03__ASM_ALL_CURVES
100
AcDbLine
 62
4
  6
CONTINUOUS
 10
12.9004123288
 20
10.5843703167
 11
12.9106941634
 21
10.5612361917
  0
LINE
  5
500
100
AcDbEntity
  8
03__ASM_ALL_CURVES
100
AcDbLine
 62
4
  6
CONTINUOUS
 10
13.2265294538
 20
9.4302345226
 11
13.2342408288
 21
9.4096708608
  0
LINE
  5
501
100
AcDbEntity
  8
03__ASM_ALL_CURVES
100
AcDbLine
 62
4
  6
CONTINUOUS
 10
7.2236941634
 20
10.7925774417
 11
7.2545396616
 21
10.8002888167
  0
LINE
  5
502
100
AcDbEntity
  8
03__ASM_ALL_CURVES
100
AcDbLine
 62
4
  6
CONTINUOUS
 10
6.7246941634
 20
10.7925774417
 11
6.7555396616
 21
10.8002888167
  0
LINE
  5
503
100
AcDbEntity
  8
03__ASM_ALL_CURVES
100
AcDbLine
 62
4
  6
CONTINUOUS
 10
11.672284998
 20
12.1729135667
 11
11.703130498
 21
12.1806249417
  0
LINE
  5
504
100
AcDbEntity
  8
03__ASM_ALL_CURVES
100
AcDbLine
 62
4
  6
CONTINUOUS
 10
7.8397213288
 20
11.7642106917
 11
7.9631033288
 21
11.7642106917
  0
LINE
  5
505
100
AcDbEntity
  8
03__ASM_ALL_CURVES
100
AcDbLine
 62
4
  6
CONTINUOUS
 10
11.703130498
 20
11.7796334417
 11
11.7236941634
 21
11.7796334417
  0
LINE
  5
506
100
AcDbEntity
  8
03__ASM_ALL_CURVES
100
AcDbLine
 62
4
  6
CONTINUOUS
 10
7.860284998
 20
11.8875926917
 11
7.8705668288
 21
11.8875926917
  0
LINE
  5
507
100
AcDbEntity
  8
03__ASM_ALL_CURVES
100
AcDbLine
 62
4
  6
CONTINUOUS
 10
11.6517213288
 20
11.8875926917
 11
11.7751033288
 21
11.8875926917
  0
LINE
  5
508
100
AcDbEntity
  8
03__ASM_ALL_CURVES
100
AcDbLine
 62
4
  6
CONTINUOUS
 10
7.9219759943
 20
11.9492836917
 11
7.9425396616
 21
11.9492836917
  0
LINE
  5
509
100
AcDbEntity
  8
03__ASM_ALL_CURVES
100
AcDbLine
 62
4
  6
CONTINUOUS
 10
11.672284998
 20
12.0109746917
 11
11.6825668288
 21
12.0109746917
  0
LINE
  5
50A
100
AcDbEntity
  8
03__ASM_ALL_CURVES
100
AcDbLine
 62
4
  6
CONTINUOUS
 10
11.672284998
 20
11.7873448167
 11
11.703130498
 21
11.7796334417
  0
LINE
  5
50B
100
AcDbEntity
  8
03__ASM_ALL_CURVES
100
AcDbLine
 62
4
  6
CONTINUOUS
 10
12.9106941634
 20
11.5637149417
 11
12.9415396616
 21
11.5560035667
  0
LINE
  5
50C
100
AcDbEntity
  8
03__ASM_ALL_CURVES
100
AcDbLine
 62
4
  6
CONTINUOUS
 10
12.8387213288
 20
11.3246623167
 11
12.9312578288
 21
11.2706826917
  0
LINE
  5
50D
100
AcDbEntity
  8
03__ASM_ALL_CURVES
100
AcDbLine
 62
4
  6
CONTINUOUS
 10
12.8387213288
 20
11.4480443167
 11
12.9312578288
 21
11.3940646917
  0
LINE
  5
50E
100
AcDbEntity
  8
03__ASM_ALL_CURVES
100
AcDbLine
 62
4
  6
CONTINUOUS
 10
12.9106941634
 20
11.0470528167
 11
12.9312578288
 21
11.0316300667
  0
LINE
  5
50F
100
AcDbEntity
  8
03__ASM_ALL_CURVES
100
AcDbLine
 62
4
  6
CONTINUOUS
 10
12.8798486597
 20
11.0856096917
 11
12.890130498
 21
11.0778983167
  0
LINE
  5
510
100
AcDbEntity
  8
03__ASM_ALL_CURVES
100
AcDbLine
 62
4
  6
CONTINUOUS
 10
11.6620031597
 20
12.0186860667
 11
11.672284998
 21
12.0109746917
  0
LINE
  5
511
100
AcDbEntity
  8
03__ASM_ALL_CURVES
100
AcDbLine
 62
4
  6
CONTINUOUS
 10
11.7545396616
 20
12.0726656917
 11
11.7648214952
 21
12.0649543167
  0
LINE
  5
512
100
AcDbEntity
  8
03__ASM_ALL_CURVES
100
AcDbLine
 62
4
  6
CONTINUOUS
 10
11.7545396616
 20
12.1729135667
 11
11.7751033288
 21
12.1574908167
  0
LINE
  5
513
100
AcDbEntity
  8
03__ASM_ALL_CURVES
100
AcDbLine
 62
4
  6
CONTINUOUS
 10
12.8490031597
 20
11.0316300667
 11
12.8387213288
 21
11.0470528167
  0
LINE
  5
514
100
AcDbEntity
  8
03__ASM_ALL_CURVES
100
AcDbLine
 62
4
  6
CONTINUOUS
 10
12.890130498
 20
11.0778983167
 11
12.9106941634
 21
11.0470528167
  0
LINE
  5
515
100
AcDbEntity
  8
0
100
AcDbLine
 62
7
  6
CONTINUOUS
 10
12.4014123288
 20
6.9981072098
 11
12.3704123288
 21
6.9671072098
  0
LINE
  5
516
100
AcDbEntity
  8
03__ASM_ALL_CURVES
100
AcDbLine
 62
4
  6
CONTINUOUS
 10
7.860284998
 20
11.4326215667
 11
7.891130498
 21
11.4403329417
  0
LINE
  5
517
100
AcDbEntity
  8
03__ASM_ALL_CURVES
100
AcDbLine
 62
4
  6
CONTINUOUS
 10
7.9116941634
 20
11.6562514417
 11
7.9425396616
 21
11.6639628167
  0
LINE
  5
518
100
AcDbEntity
  8
03__ASM_ALL_CURVES
100
AcDbLine
 62
4
  6
CONTINUOUS
 10
7.891130498
 20
12.0572429417
 11
7.9116941634
 21
12.0572429417
  0
LINE
  5
519
100
AcDbEntity
  8
03__ASM_ALL_CURVES
100
AcDbLine
 62
4
  6
CONTINUOUS
 10
11.7339759943
 20
12.0726656917
 11
11.7545396616
 21
12.0726656917
  0
LINE
  5
51A
100
AcDbEntity
  8
03__ASM_ALL_CURVES
100
AcDbLine
 62
4
  6
CONTINUOUS
 10
11.703130498
 20
12.1806249417
 11
11.7236941634
 21
12.1806249417
  0
LINE
  5
51B
100
AcDbEntity
  8
03__ASM_ALL_CURVES
100
AcDbLine
 62
4
  6
CONTINUOUS
 10
11.7236941634
 20
12.1806249417
 11
11.7545396616
 21
12.1729135667
  0
LINE
  5
51C
100
AcDbEntity
  8
03__ASM_ALL_CURVES
100
AcDbLine
 62
4
  6
CONTINUOUS
 10
12.9415396616
 20
11.5560035667
 11
12.9621033288
 21
11.5405808167
  0
LINE
  5
51D
100
AcDbEntity
  8
03__ASM_ALL_CURVES
100
AcDbLine
 62
4
  6
CONTINUOUS
 10
15.1669032038
 20
6.909979859
 11
15.1591918288
 21
6.9305435263
  0
LINE
  5
51E
100
AcDbEntity
  8
03__ASM_ALL_CURVES
100
AcDbLine
 62
4
  6
CONTINUOUS
 10
15.2131714538
 20
6.9511071917
 11
15.2208828288
 21
6.9305435263
  0
LINE
  5
51F
100
AcDbEntity
  8
03__ASM_ALL_CURVES
100
AcDbLine
 62
4
  6
CONTINUOUS
 10
7.172284998
 20
11.6793855667
 11
7.203130498
 21
11.6870969417
  0
LINE
  5
520
100
AcDbEntity
  8
03__ASM_ALL_CURVES
100
AcDbLine
 62
4
  6
CONTINUOUS
 10
6.673284998
 20
11.6793855667
 11
6.704130498
 21
11.6870969417
  0
LINE
  5
521
100
AcDbEntity
  8
03__ASM_ALL_CURVES
100
AcDbLine
 62
4
  6
CONTINUOUS
 10
15.0512325788
 20
6.9408253572
 11
15.0589439538
 21
6.909979859
  0
LINE
  5
522
100
AcDbEntity
  8
03__ASM_ALL_CURVES
100
AcDbLine
 62
4
  6
CONTINUOUS
 10
14.4805908288
 20
6.9922345226
 11
14.4805908288
 21
6.9716708608
  0
LINE
  5
523
100
AcDbEntity
  8
03__ASM_ALL_CURVES
100
AcDbLine
 62
4
  6
CONTINUOUS
 10
14.5924057663
 20
6.8894161917
 11
14.5924057663
 21
6.9048389422
  0
LINE
  5
524
100
AcDbEntity
  8
03__ASM_ALL_CURVES
100
AcDbLine
 62
4
  6
CONTINUOUS
 10
14.7196434538
 20
6.8894161917
 11
14.7196434538
 21
7.0127981917
  0
LINE
  5
525
100
AcDbEntity
  8
03__ASM_ALL_CURVES
100
AcDbLine
 62
4
  6
CONTINUOUS
 10
7.860284998
 20
12.0495315667
 11
7.891130498
 21
12.0572429417
  0
LINE
  5
526
100
AcDbEntity
  8
03__ASM_ALL_CURVES
100
AcDbLine
 62
4
  6
CONTINUOUS
 10
14.8507368288
 20
6.9922345226
 11
14.8507368288
 21
6.9819526917
  0
LINE
  5
527
100
AcDbEntity
  8
03__ASM_ALL_CURVES
100
AcDbLine
 62
4
  6
CONTINUOUS
 10
14.8584482038
 20
6.9305435263
 11
14.8584482038
 21
6.9202616917
  0
LINE
  5
528
100
AcDbEntity
  8
03__ASM_ALL_CURVES
100
AcDbLine
 62
4
  6
CONTINUOUS
 10
15.0512325788
 20
6.9613890226
 11
15.0512325788
 21
6.9408253572
  0
LINE
  5
529
100
AcDbEntity
  8
03__ASM_ALL_CURVES
100
AcDbLine
 62
4
  6
CONTINUOUS
 10
15.1591918288
 20
6.9305435263
 11
15.1591918288
 21
6.9716708608
  0
LINE
  5
52A
100
AcDbEntity
  8
03__ASM_ALL_CURVES
100
AcDbLine
 62
4
  6
CONTINUOUS
 10
14.4266112038
 20
6.9202616917
 11
14.4188998288
 21
6.8894161917
  0
LINE
  5
52B
100
AcDbEntity
  8
03__ASM_ALL_CURVES
100
AcDbLine
 62
4
  6
CONTINUOUS
 10
14.4266112038
 20
7.0025163608
 11
14.4420339538
 21
7.0127981917
  0
LINE
  5
52C
100
AcDbEntity
  8
03__ASM_ALL_CURVES
100
AcDbLine
 62
4
  6
CONTINUOUS
 10
15.8146587038
 20
6.9922345226
 11
15.8223700788
 21
6.9613890226
  0
LINE
  5
52D
100
AcDbEntity
  8
03__ASM_ALL_CURVES
100
AcDbLine
 62
4
  6
CONTINUOUS
 10
15.3134193288
 20
7.0127981917
 11
15.3134193288
 21
6.8894161917
  0
LINE
  5
52E
100
AcDbEntity
  8
03__ASM_ALL_CURVES
100
AcDbLine
 62
4
  6
CONTINUOUS
 10
15.4560797663
 20
6.8894161917
 11
15.4560797663
 21
6.9048389422
  0
LINE
  5
52F
100
AcDbEntity
  8
03__ASM_ALL_CURVES
100
AcDbLine
 62
4
  6
CONTINUOUS
 10
14.7196434538
 20
7.0127981917
 11
14.6656638288
 21
6.9202616917
  0
LINE
  5
530
100
AcDbEntity
  8
03__ASM_ALL_CURVES
100
AcDbLine
 62
4
  6
CONTINUOUS
 10
14.4188998288
 20
6.9922345226
 11
14.4266112038
 21
7.0025163608
  0
LINE
  5
531
100
AcDbEntity
  8
03__ASM_ALL_CURVES
100
AcDbLine
 62
4
  6
CONTINUOUS
 10
14.4420339538
 20
6.9408253572
 11
14.4266112038
 21
6.9202616917
  0
LINE
  5
532
100
AcDbEntity
  8
03__ASM_ALL_CURVES
100
AcDbLine
 62
4
  6
CONTINUOUS
 10
14.4805908288
 20
6.9716708608
 11
14.4728794538
 21
6.9613890226
  0
LINE
  5
533
100
AcDbEntity
  8
03__ASM_ALL_CURVES
100
AcDbLine
 62
4
  6
CONTINUOUS
 10
14.4728794538
 20
6.9613890226
 11
14.4420339538
 21
6.9408253572
  0
LINE
  5
534
100
AcDbEntity
  8
03__ASM_ALL_CURVES
100
AcDbLine
 62
4
  6
CONTINUOUS
 10
14.7967572038
 20
7.0025163608
 11
14.8121799538
 21
7.0127981917
  0
LINE
  5
535
100
AcDbEntity
  8
03__ASM_ALL_CURVES
100
AcDbLine
 62
4
  6
CONTINUOUS
 10
14.8430254538
 20
6.9716708608
 11
14.8276027038
 21
6.9613890226
  0
LINE
  5
536
100
AcDbEntity
  8
03__ASM_ALL_CURVES
100
AcDbLine
 62
4
  6
CONTINUOUS
 10
14.8430254538
 20
6.8996980254
 11
14.8276027038
 21
6.8894161917
  0
LINE
  5
537
100
AcDbEntity
  8
03__ASM_ALL_CURVES
100
AcDbLine
 62
4
  6
CONTINUOUS
 10
15.1669032038
 20
6.9511071917
 11
15.1900373288
 21
6.9613890226
  0
LINE
  5
538
100
AcDbEntity
  8
03__ASM_ALL_CURVES
100
AcDbLine
 62
4
  6
CONTINUOUS
 10
15.7144108288
 20
6.9922345226
 11
15.7144108288
 21
6.9716708608
  0
LINE
  5
539
100
AcDbEntity
  8
03__ASM_ALL_CURVES
100
AcDbLine
 62
4
  6
CONTINUOUS
 10
15.8223700788
 20
6.9613890226
 11
15.8223700788
 21
6.9408253572
  0
LINE
  5
53A
100
AcDbEntity
  8
03__ASM_ALL_CURVES
100
AcDbLine
 62
4
  6
CONTINUOUS
 10
15.0589439538
 20
6.9922345226
 11
15.0512325788
 21
6.9613890226
  0
LINE
  5
53B
100
AcDbEntity
  8
03__ASM_ALL_CURVES
100
AcDbLine
 62
4
  6
CONTINUOUS
 10
15.1591918288
 20
6.9716708608
 11
15.1669032038
 21
6.9922345226
  0
LINE
  5
53C
100
AcDbEntity
  8
03__ASM_ALL_CURVES
100
AcDbLine
 62
4
  6
CONTINUOUS
 10
15.1591918288
 20
6.9305435263
 11
15.1669032038
 21
6.9511071917
  0
LINE
  5
53D
100
AcDbEntity
  8
03__ASM_ALL_CURVES
100
AcDbLine
 62
4
  6
CONTINUOUS
 10
14.8507368288
 20
6.9819526917
 11
14.8430254538
 21
6.9716708608
  0
LINE
  5
53E
100
AcDbEntity
  8
03__ASM_ALL_CURVES
100
AcDbLine
 62
4
  6
CONTINUOUS
 10
14.8584482038
 20
6.9202616917
 11
14.8430254538
 21
6.8996980254
  0
LINE
  5
53F
100
AcDbEntity
  8
03__ASM_ALL_CURVES
100
AcDbLine
 62
4
  6
CONTINUOUS
 10
15.0743667038
 20
7.0127981917
 11
15.0589439538
 21
6.9922345226
  0
LINE
  5
540
100
AcDbEntity
  8
03__ASM_ALL_CURVES
100
AcDbLine
 62
4
  6
CONTINUOUS
 10
15.1746145788
 20
7.0025163608
 11
15.1900373288
 21
7.0127981917
  0
LINE
  5
541
100
AcDbEntity
  8
03__ASM_ALL_CURVES
100
AcDbLine
 62
4
  6
CONTINUOUS
 10
15.2054600788
 20
6.8996980254
 11
15.1900373288
 21
6.8894161917
  0
LINE
  5
542
100
AcDbEntity
  8
03__ASM_ALL_CURVES
100
AcDbLine
 62
4
  6
CONTINUOUS
 10
15.6604312038
 20
7.0025163608
 11
15.6758539538
 21
7.0127981917
  0
LINE
  5
543
100
AcDbEntity
  8
03__ASM_ALL_CURVES
100
AcDbLine
 62
4
  6
CONTINUOUS
 10
15.7066994538
 20
6.9613890226
 11
15.6758539538
 21
6.9408253572
  0
LINE
  5
544
100
AcDbEntity
  8
03__ASM_ALL_CURVES
100
AcDbLine
 62
4
  6
CONTINUOUS
 10
15.5601833288
 20
6.8894161917
 11
15.5678947038
 21
6.9408253572
  0
LINE
  5
545
100
AcDbEntity
  8
03__ASM_ALL_CURVES
100
AcDbLine
 62
4
  6
CONTINUOUS
 10
15.5678947038
 20
6.9408253572
 11
15.5756060788
 21
6.9716708608
  0
LINE
  5
546
100
AcDbEntity
  8
03__ASM_ALL_CURVES
100
AcDbLine
 62
4
  6
CONTINUOUS
 10
15.6604312038
 20
6.9202616917
 11
15.6527198288
 21
6.8894161917
  0
LINE
  5
547
100
AcDbEntity
  8
03__ASM_ALL_CURVES
100
AcDbLine
 62
4
  6
CONTINUOUS
 10
15.8223700788
 20
6.9408253572
 11
15.8146587038
 21
6.909979859
  0
LINE
  5
548
100
AcDbEntity
  8
03__ASM_ALL_CURVES
100
AcDbLine
 62
4
  6
CONTINUOUS
 10
15.2208828288
 20
6.9305435263
 11
15.2131714538
 21
6.909979859
  0
LINE
  5
549
100
AcDbEntity
  8
03__ASM_ALL_CURVES
100
AcDbLine
 62
4
  6
CONTINUOUS
 10
15.5756060788
 20
6.9716708608
 11
15.5910288288
 21
7.0127981917
  0
LINE
  5
54A
100
AcDbEntity
  8
03__ASM_ALL_CURVES
100
AcDbLine
 62
4
  6
CONTINUOUS
 10
15.1669032038
 20
6.9922345226
 11
15.1746145788
 21
7.0025163608
  0
LINE
  5
54B
100
AcDbEntity
  8
03__ASM_ALL_CURVES
100
AcDbLine
 62
4
  6
CONTINUOUS
 10
15.2131714538
 20
6.909979859
 11
15.2054600788
 21
6.8996980254
  0
LINE
  5
54C
100
AcDbEntity
  8
03__ASM_ALL_CURVES
100
AcDbLine
 62
4
  6
CONTINUOUS
 10
15.6527198288
 20
6.9922345226
 11
15.6604312038
 21
7.0025163608
  0
LINE
  5
54D
100
AcDbEntity
  8
03__ASM_ALL_CURVES
100
AcDbLine
 62
4
  6
CONTINUOUS
 10
15.6758539538
 20
6.9408253572
 11
15.6604312038
 21
6.9202616917
  0
LINE
  5
54E
100
AcDbEntity
  8
03__ASM_ALL_CURVES
100
AcDbLine
 62
4
  6
CONTINUOUS
 10
15.7144108288
 20
6.9716708608
 11
15.7066994538
 21
6.9613890226
  0
LINE
  5
54F
100
AcDbEntity
  8
03__ASM_ALL_CURVES
100
AcDbLine
 62
4
  6
CONTINUOUS
 10
15.8146587038
 20
6.909979859
 11
15.7992359538
 21
6.8894161917
  0
CIRCLE
  5
550
100
AcDbEntity
  8
0
100
AcDbCircle
 62
7
  6
CONTINUOUS
 10
9.2674123288
 20
8.4511071917
 40
0.18
  0
SPLINE
  5
551
100
AcDbEntity
  8
0
100
AcDbSpline
 62
7
  6
CONTINUOUS
 70
0
 71
3
 72
45
 73
41
 74
39
 42
0.0000001
 43
0.0000001
 44
0.0000000001
 12
-0.1096690883
 22
0.3683171013
 32
0.0
 13
0.1096690883
 23
0.3683171013
 33
0.0
 40
0.0
 40
0.0
 40
0.0
 40
0.0
 40
0.02800783
 40
0.0556703133
 40
0.0830197224
 40
0.1100915548
 40
0.1369178206
 40
0.1635313203
 40
0.1899627546
 40
0.2162351954
 40
0.2423738248
 40
0.2683997735
 40
0.2943295547
 40
0.320182853
 40
0.3459729212
 40
0.3717114219
 40
0.3974125929
 40
0.4230836531
 40
0.4487329298
 40
0.4743703682
 40
0.5000000521
 40
0.5256297269
 40
0.5512671662
 40
0.5769164481
 40
0.6025875007
 40
0.6282886741
 40
0.654027177
 40
0.6798172399
 40
0.7056705424
 40
0.7316003163
 40
0.7576262528
 40
0.7837648777
 40
0.8100373056
 40
0.8364687289
 40
0.8630822228
 40
0.8899084785
 40
0.9169803009
 40
0.9443297004
 40
0.9719921749
 40
1.0
 40
1.0
 40
1.0
 40
1.0
 10
6.7484757925
 20
8.2002049441
 30
0.0
 10
6.7474519281
 20
8.2036435316
 30
0.0
 10
6.7454576066
 20
8.210490536
 30
0.0
 10
6.7426102327
 20
8.2207373104
 30
0.0
 10
6.7399243966
 20
8.2309036718
 30
0.0
 10
6.7373982317
 20
8.2410005053
 30
0.0
 10
6.735030249
 20
8.2510387871
 30
0.0
 10
6.7328195082
 20
8.2610288787
 30
0.0
 10
6.7307657008
 20
8.270979997
 30
0.0
 10
6.7288690387
 20
8.2809003496
 30
0.0
 10
6.7271302283
 20
8.2907968662
 30
0.0
 10
6.7255503278
 20
8.300675558
 30
0.0
 10
6.7241306423
 20
8.3105416338
 30
0.0
 10
6.7228726996
 20
8.3203991882
 30
0.0
 10
6.7217781148
 20
8.3302515769
 30
0.0
 10
6.7208485104
 20
8.3401013378
 30
0.0
 10
6.7200854553
 20
8.3499501196
 30
0.0
 10
6.7194903545
 20
8.3597990341
 30
0.0
 10
6.7190643826
 20
8.3696485473
 30
0.0
 10
6.7188084324
 20
8.3794986473
 30
0.0
 10
6.7187230543
 20
8.3893491936
 30
0.0
 10
6.718808433
 20
8.39919974
 30
0.0
 10
6.7190643839
 20
8.4090498396
 30
0.0
 10
6.7194903564
 20
8.4188993525
 30
0.0
 10
6.7200854579
 20
8.428748267
 30
0.0
 10
6.7208485135
 20
8.4385970484
 30
0.0
 10
6.7217781185
 20
8.4484468091
 30
0.0
 10
6.722872704
 20
8.458299198
 30
0.0
 10
6.7241306472
 20
8.4681567512
 30
0.0
 10
6.7255503329
 20
8.478022825
 30
0.0
 10
6.7271302334
 20
8.4879015136
 30
0.0
 10
6.7288690436
 20
8.4977980265
 30
0.0
 10
6.7307657054
 20
8.5077183754
 30
0.0
 10
6.7328195123
 20
8.5176694899
 30
0.0
 10
6.7350302526
 20
8.527659578
 30
0.0
 10
6.7373982347
 20
8.5376978566
 30
0.0
 10
6.7399243989
 20
8.5477946864
 30
0.0
 10
6.7426102341
 20
8.5579610442
 30
0.0
 10
6.7454576072
 20
8.5682078158
 30
0.0
 10
6.7474519283
 20
8.5750548184
 30
0.0
 10
6.7484757925
 20
8.5784934054
 30
0.0
 11
6.7484757925
 21
8.2002049441
 31
0.0
 11
6.7454667407
 21
8.2105391229
 31
0.0
 11
6.7426214292
 21
8.2207819021
 31
0.0
 11
6.7399376966
 21
8.2309438092
 31
0.0
 11
6.7374134474
 21
8.2410365792
 31
0.0
 11
6.735047327
 21
8.2510706522
 31
0.0
 11
6.7328383067
 21
8.2610567514
 31
0.0
 11
6.730785937
 21
8.2710047882
 31
0.0
 11
6.7288906856
 21
8.2809217507
 31
0.0
 11
6.7271531079
 21
8.2908153448
 31
0.0
 11
6.7255742594
 21
8.3006916566
 31
0.0
 11
6.7241555987
 21
8.3105549116
 31
0.0
 11
6.7228984778
 21
8.3204104245
 31
0.0
 11
6.7218046
 21
8.3302609407
 31
0.0
 11
6.7208756379
 21
8.3401084702
 31
0.0
 11
6.7201130486
 21
8.3499558901
 31
0.0
 11
6.7195183244
 21
8.3598032794
 31
0.0
 11
6.7190926339
 21
8.3696510434
 31
0.0
 11
6.7188368344
 21
8.3795001333
 31
0.0
 11
6.7187515109
 21
8.3893491948
 31
0.0
 11
6.7188368351
 21
8.3991982527
 31
0.0
 11
6.7190926352
 21
8.4090473429
 31
0.0
 11
6.7195183264
 21
8.4188951089
 31
0.0
 11
6.720113051
 21
8.4287424953
 31
0.0
 11
6.7208756411
 21
8.438589916
 31
0.0
 11
6.7218046038
 21
8.4484374464
 31
0.0
 11
6.722898482
 21
8.4582879604
 31
0.0
 11
6.7241556037
 21
8.4681434749
 31
0.0
 11
6.7255742646
 21
8.478006727
 31
0.0
 11
6.7271531128
 21
8.4878830341
 31
0.0
 11
6.7288906906
 21
8.4977766264
 31
0.0
 11
6.7307859415
 21
8.507693584
 31
0.0
 11
6.7328383107
 21
8.5176416166
 31
0.0
 11
6.7350473307
 21
8.5276277135
 31
0.0
 11
6.7374134505
 21
8.5376617827
 31
0.0
 11
6.7399376988
 21
8.5477545489
 31
0.0
 11
6.7426214306
 21
8.5579164524
 31
0.0
 11
6.7454667412
 21
8.5681592283
 31
0.0
 11
6.7484757925
 21
8.5784934054
 31
0.0
  0
SPLINE
  5
552
100
AcDbEntity
  8
0
100
AcDbSpline
 62
7
  6
CONTINUOUS
 70
0
 71
3
 72
50
 73
46
 74
44
 42
0.0000001
 43
0.0000001
 44
0.0000000001
 12
0.181453252
 22
0.3518372194
 32
0.0
 13
-0.181453252
 23
0.3518372194
 33
0.0
 40
0.0
 40
0.0
 40
0.0
 40
0.0
 40
0.0272150247
 40
0.0537972684
 40
0.079788796
 40
0.1052375766
 40
0.1301850434
 40
0.1546742238
 40
0.1787478229
 40
0.2024383797
 40
0.2257833687
 40
0.2488149224
 40
0.2715598965
 40
0.29405229
 40
0.3163179465
 40
0.3383825675
 40
0.3602765412
 40
0.3820200319
 40
0.4036380604
 40
0.4251568894
 40
0.4465948962
 40
0.4679791798
 40
0.4893310372
 40
0.510669116
 40
0.5320209584
 40
0.5534052589
 40
0.5748432497
 40
0.5963620718
 40
0.6179801151
 40
0.6397235792
 40
0.6616175492
 40
0.6836821749
 40
0.7059478148
 40
0.7284402095
 40
0.7511851678
 40
0.7742166984
 40
0.7975616811
 40
0.8212522178
 40
0.8453258017
 40
0.8698149759
 40
0.8947624351
 40
0.9202112112
 40
0.9462027358
 40
0.9727849765
 40
1.0
 40
1.0
 40
1.0
 40
1.0
 10
7.1219121267
 20
8.2002049441
 30
0.0
 10
7.1235582116
 20
8.2033966969
 30
0.0
 10
7.1267601108
 20
8.2097329872
 30
0.0
 10
7.1313461465
 20
8.2192110164
 30
0.0
 10
7.1356651043
 20
8.2285576023
 30
0.0
 10
7.1397250613
 20
8.2377843799
 30
0.0
 10
7.1435335843
 20
8.2469033047
 30
0.0
 10
7.1470973587
 20
8.2559258294
 30
0.0
 10
7.1504220268
 20
8.2648624438
 30
0.0
 10
7.1535124136
 20
8.2737230306
 30
0.0
 10
7.156372368
 20
8.2825161996
 30
0.0
 10
7.1590050356
 20
8.2912498561
 30
0.0
 10
7.1614130242
 20
8.299931439
 30
0.0
 10
7.1635983351
 20
8.3085675438
 30
0.0
 10
7.165562584
 20
8.3171645536
 30
0.0
 10
7.1673069879
 20
8.3257283041
 30
0.0
 10
7.1688323446
 20
8.3342638067
 30
0.0
 10
7.1701392375
 20
8.3427758812
 30
0.0
 10
7.1712280242
 20
8.3512687049
 30
0.0
 10
7.172098906
 20
8.3597461249
 30
0.0
 10
7.1727520354
 20
8.3682121715
 30
0.0
 10
7.1731874497
 20
8.3766701499
 30
0.0
 10
7.1734051502
 20
8.3851233449
 30
0.0
 10
7.1734051494
 20
8.3935750633
 30
0.0
 10
7.1731874474
 20
8.4020282584
 30
0.0
 10
7.1727520318
 20
8.4104862349
 30
0.0
 10
7.1720989009
 20
8.4189522806
 30
0.0
 10
7.1712280179
 20
8.4274296995
 30
0.0
 10
7.1701392301
 20
8.4359225205
 30
0.0
 10
7.1688323363
 20
8.4444345928
 30
0.0
 10
7.167306979
 20
8.4529700919
 30
0.0
 10
7.1655625745
 20
8.4615338401
 30
0.0
 10
7.1635983248
 20
8.4701308483
 30
0.0
 10
7.161413014
 20
8.4787669488
 30
0.0
 10
7.1590050259
 20
8.4874485267
 30
0.0
 10
7.1563723594
 20
8.4961821773
 30
0.0
 10
7.1535124064
 20
8.5049753399
 30
0.0
 10
7.1504220211
 20
8.5138359214
 30
0.0
 10
7.1470973547
 20
8.5227725306
 30
0.0
 10
7.1435335814
 20
8.5317950516
 30
0.0
 10
7.1397250593
 20
8.5409139742
 30
0.0
 10
7.135665103
 20
8.55014075
 30
0.0
 10
7.1313461458
 20
8.5594873346
 30
0.0
 10
7.1267601104
 20
8.5689653628
 30
0.0
 10
7.1235582115
 20
8.5753016527
 30
0.0
 10
7.1219121267
 20
8.5784934054
 30
0.0
 11
7.1219121267
 21
8.2002049441
 31
0.0
 11
7.1267696772
 21
8.2098213956
 31
0.0
 11
7.1313515794
 21
8.2192946867
 31
0.0
 11
7.1356661778
 21
8.2286356907
 31
0.0
 11
7.1397222603
 21
8.2378575656
 31
0.0
 11
7.1435269539
 21
8.2469712804
 31
0.0
 11
7.1470870535
 21
8.2559885212
 31
0.0
 11
7.1504086602
 21
8.2649209949
 31
0.0
 11
7.153495902
 21
8.2737767214
 31
0.0
 11
7.1563530823
 21
8.2825655915
 31
0.0
 11
7.158983326
 21
8.2912955127
 31
0.0
 11
7.1613887851
 21
8.2999723549
 31
0.0
 11
7.163572008
 21
8.3086046621
 31
0.0
 11
7.1655343387
 21
8.3171978023
 31
0.0
 11
7.1672768775
 21
8.3257569918
 31
0.0
 11
7.1688008086
 21
8.3342891789
 31
0.0
 11
7.1701063598
 21
8.3427972352
 31
0.0
 11
7.1711939906
 21
8.3512858146
 31
0.0
 11
7.1720640421
 21
8.3597599709
 31
0.0
 11
7.1727164537
 21
8.3682215654
 31
0.0
 11
7.1731514252
 21
8.3766758242
 31
0.0
 11
7.1733689123
 21
8.3851256301
 31
0.0
 11
7.1733689115
 21
8.39357278
 31
0.0
 11
7.1731514231
 21
8.4020225799
 31
0.0
 11
7.1727164497
 21
8.4104768454
 31
0.0
 11
7.1720640372
 21
8.4189384334
 31
0.0
 11
7.1711939846
 21
8.4274125869
 31
0.0
 11
7.1701063517
 21
8.4359011719
 31
0.0
 11
7.1688008008
 21
8.4444092176
 31
0.0
 11
7.1672768688
 21
8.4529414031
 31
0.0
 11
7.1655343285
 21
8.4615005941
 31
0.0
 11
7.1635719983
 21
8.4700937277
 31
0.0
 11
7.1613887744
 21
8.4787260351
 31
0.0
 11
7.1589833161
 21
8.4874028711
 31
0.0
 11
7.1563530743
 21
8.4961327833
 31
0.0
 11
7.1534958943
 21
8.5049216509
 31
0.0
 11
7.1504086548
 21
8.5137773697
 31
0.0
 11
7.1470870498
 21
8.5227098377
 31
0.0
 11
7.143526951
 21
8.5317270761
 31
0.0
 11
7.1397222585
 21
8.5408407881
 31
0.0
 11
7.1356661766
 21
8.5500626614
 31
0.0
 11
7.1313515787
 21
8.5594036642
 31
0.0
 11
7.126769677
 21
8.5688769543
 31
0.0
 11
7.1219121267
 21
8.5784934054
 31
0.0
  0
SPLINE
  5
553
100
AcDbEntity
  8
0
100
AcDbSpline
 62
7
  6
CONTINUOUS
 70
0
 71
3
 72
45
 73
41
 74
39
 42
0.0000001
 43
0.0000001
 44
0.0000000001
 12
-0.1096690883
 22
0.3683171013
 32
0.0
 13
0.1096690883
 23
0.3683171013
 33
0.0
 40
0.0
 40
0.0
 40
0.0
 40
0.0
 40
0.02800783
 40
0.0556703133
 40
0.0830197224
 40
0.1100915548
 40
0.1369178206
 40
0.1635313203
 40
0.1899627546
 40
0.2162351954
 40
0.2423738248
 40
0.2683997735
 40
0.2943295547
 40
0.320182853
 40
0.3459729212
 40
0.3717114219
 40
0.3974125929
 40
0.4230836531
 40
0.4487329298
 40
0.4743703682
 40
0.5000000521
 40
0.5256297269
 40
0.5512671662
 40
0.5769164481
 40
0.6025875007
 40
0.6282886741
 40
0.654027177
 40
0.6798172399
 40
0.7056705424
 40
0.7316003163
 40
0.7576262528
 40
0.7837648777
 40
0.8100373056
 40
0.8364687289
 40
0.8630822228
 40
0.8899084785
 40
0.9169803009
 40
0.9443297004
 40
0.9719921749
 40
1.0
 40
1.0
 40
1.0
 40
1.0
 10
6.7484757925
 20
8.637720978
 30
0.0
 10
6.7474519281
 20
8.6411595656
 30
0.0
 10
6.7454576066
 20
8.64800657
 30
0.0
 10
6.7426102327
 20
8.6582533444
 30
0.0
 10
6.7399243966
 20
8.6684197058
 30
0.0
 10
6.7373982317
 20
8.6785165393
 30
0.0
 10
6.735030249
 20
8.6885548211
 30
0.0
 10
6.7328195082
 20
8.6985449127
 30
0.0
 10
6.7307657008
 20
8.708496031
 30
0.0
 10
6.7288690387
 20
8.7184163836
 30
0.0
 10
6.7271302283
 20
8.7283129002
 30
0.0
 10
6.7255503278
 20
8.738191592
 30
0.0
 10
6.7241306423
 20
8.7480576678
 30
0.0
 10
6.7228726996
 20
8.7579152222
 30
0.0
 10
6.7217781148
 20
8.7677676109
 30
0.0
 10
6.7208485104
 20
8.7776173718
 30
0.0
 10
6.7200854553
 20
8.7874661536
 30
0.0
 10
6.7194903545
 20
8.7973150681
 30
0.0
 10
6.7190643826
 20
8.8071645813
 30
0.0
 10
6.7188084324
 20
8.8170146813
 30
0.0
 10
6.7187230543
 20
8.8268652276
 30
0.0
 10
6.718808433
 20
8.836715774
 30
0.0
 10
6.7190643839
 20
8.8465658736
 30
0.0
 10
6.7194903564
 20
8.8564153865
 30
0.0
 10
6.7200854579
 20
8.866264301
 30
0.0
 10
6.7208485135
 20
8.8761130824
 30
0.0
 10
6.7217781185
 20
8.8859628431
 30
0.0
 10
6.722872704
 20
8.895815232
 30
0.0
 10
6.7241306472
 20
8.9056727852
 30
0.0
 10
6.7255503329
 20
8.915538859
 30
0.0
 10
6.7271302334
 20
8.9254175476
 30
0.0
 10
6.7288690436
 20
8.9353140604
 30
0.0
 10
6.7307657054
 20
8.9452344094
 30
0.0
 10
6.7328195123
 20
8.9551855239
 30
0.0
 10
6.7350302526
 20
8.965175612
 30
0.0
 10
6.7373982347
 20
8.9752138906
 30
0.0
 10
6.7399243989
 20
8.9853107204
 30
0.0
 10
6.7426102341
 20
8.9954770782
 30
0.0
 10
6.7454576072
 20
9.0057238498
 30
0.0
 10
6.7474519283
 20
9.0125708524
 30
0.0
 10
6.7484757925
 20
9.0160094394
 30
0.0
 11
6.7484757925
 21
8.637720978
 31
0.0
 11
6.7454667407
 21
8.6480551569
 31
0.0
 11
6.7426214292
 21
8.6582979361
 31
0.0
 11
6.7399376966
 21
8.6684598432
 31
0.0
 11
6.7374134474
 21
8.6785526132
 31
0.0
 11
6.735047327
 21
8.6885866862
 31
0.0
 11
6.7328383067
 21
8.6985727854
 31
0.0
 11
6.730785937
 21
8.7085208222
 31
0.0
 11
6.7288906856
 21
8.7184377847
 31
0.0
 11
6.7271531079
 21
8.7283313788
 31
0.0
 11
6.7255742594
 21
8.7382076906
 31
0.0
 11
6.7241555987
 21
8.7480709456
 31
0.0
 11
6.7228984778
 21
8.7579264585
 31
0.0
 11
6.7218046
 21
8.7677769747
 31
0.0
 11
6.7208756379
 21
8.7776245042
 31
0.0
 11
6.7201130486
 21
8.7874719241
 31
0.0
 11
6.7195183244
 21
8.7973193134
 31
0.0
 11
6.7190926339
 21
8.8071670774
 31
0.0
 11
6.7188368344
 21
8.8170161673
 31
0.0
 11
6.7187515109
 21
8.8268652287
 31
0.0
 11
6.7188368351
 21
8.8367142867
 31
0.0
 11
6.7190926352
 21
8.8465633769
 31
0.0
 11
6.7195183264
 21
8.8564111429
 31
0.0
 11
6.720113051
 21
8.8662585293
 31
0.0
 11
6.7208756411
 21
8.87610595
 31
0.0
 11
6.7218046038
 21
8.8859534803
 31
0.0
 11
6.722898482
 21
8.8958039944
 31
0.0
 11
6.7241556037
 21
8.9056595088
 31
0.0
 11
6.7255742646
 21
8.915522761
 31
0.0
 11
6.7271531128
 21
8.9253990681
 31
0.0
 11
6.7288906906
 21
8.9352926604
 31
0.0
 11
6.7307859415
 21
8.9452096179
 31
0.0
 11
6.7328383107
 21
8.9551576506
 31
0.0
 11
6.7350473307
 21
8.9651437474
 31
0.0
 11
6.7374134505
 21
8.9751778167
 31
0.0
 11
6.7399376988
 21
8.9852705829
 31
0.0
 11
6.7426214306
 21
8.9954324864
 31
0.0
 11
6.7454667412
 21
9.0056752623
 31
0.0
 11
6.7484757925
 21
9.0160094394
 31
0.0
  0
SPLINE
  5
554
100
AcDbEntity
  8
0
100
AcDbSpline
 62
7
  6
CONTINUOUS
 70
0
 71
3
 72
50
 73
46
 74
44
 42
0.0000001
 43
0.0000001
 44
0.0000000001
 12
0.181453252
 22
0.3518372194
 32
0.0
 13
-0.181453252
 23
0.3518372194
 33
0.0
 40
0.0
 40
0.0
 40
0.0
 40
0.0
 40
0.0272150247
 40
0.0537972684
 40
0.079788796
 40
0.1052375766
 40
0.1301850434
 40
0.1546742238
 40
0.1787478229
 40
0.2024383797
 40
0.2257833687
 40
0.2488149224
 40
0.2715598965
 40
0.29405229
 40
0.3163179465
 40
0.3383825675
 40
0.3602765412
 40
0.3820200319
 40
0.4036380604
 40
0.4251568894
 40
0.4465948962
 40
0.4679791798
 40
0.4893310372
 40
0.510669116
 40
0.5320209584
 40
0.5534052589
 40
0.5748432497
 40
0.5963620718
 40
0.6179801151
 40
0.6397235792
 40
0.6616175492
 40
0.6836821749
 40
0.7059478148
 40
0.7284402095
 40
0.7511851678
 40
0.7742166984
 40
0.7975616811
 40
0.8212522178
 40
0.8453258017
 40
0.8698149759
 40
0.8947624351
 40
0.9202112112
 40
0.9462027358
 40
0.9727849765
 40
1.0
 40
1.0
 40
1.0
 40
1.0
 10
7.1219121267
 20
8.637720978
 30
0.0
 10
7.1235582116
 20
8.6409127309
 30
0.0
 10
7.1267601108
 20
8.6472490212
 30
0.0
 10
7.1313461465
 20
8.6567270503
 30
0.0
 10
7.1356651043
 20
8.6660736363
 30
0.0
 10
7.1397250613
 20
8.6753004139
 30
0.0
 10
7.1435335843
 20
8.6844193387
 30
0.0
 10
7.1470973587
 20
8.6934418634
 30
0.0
 10
7.1504220268
 20
8.7023784778
 30
0.0
 10
7.1535124136
 20
8.7112390646
 30
0.0
 10
7.156372368
 20
8.7200322336
 30
0.0
 10
7.1590050356
 20
8.7287658901
 30
0.0
 10
7.1614130242
 20
8.737447473
 30
0.0
 10
7.1635983351
 20
8.7460835778
 30
0.0
 10
7.165562584
 20
8.7546805876
 30
0.0
 10
7.1673069879
 20
8.763244338
 30
0.0
 10
7.1688323446
 20
8.7717798407
 30
0.0
 10
7.1701392375
 20
8.7802919152
 30
0.0
 10
7.1712280242
 20
8.7887847389
 30
0.0
 10
7.172098906
 20
8.7972621589
 30
0.0
 10
7.1727520354
 20
8.8057282055
 30
0.0
 10
7.1731874497
 20
8.8141861839
 30
0.0
 10
7.1734051502
 20
8.8226393789
 30
0.0
 10
7.1734051494
 20
8.8310910973
 30
0.0
 10
7.1731874474
 20
8.8395442924
 30
0.0
 10
7.1727520318
 20
8.8480022689
 30
0.0
 10
7.1720989009
 20
8.8564683146
 30
0.0
 10
7.1712280179
 20
8.8649457334
 30
0.0
 10
7.1701392301
 20
8.8734385545
 30
0.0
 10
7.1688323363
 20
8.8819506268
 30
0.0
 10
7.167306979
 20
8.8904861259
 30
0.0
 10
7.1655625745
 20
8.8990498741
 30
0.0
 10
7.1635983248
 20
8.9076468823
 30
0.0
 10
7.161413014
 20
8.9162829828
 30
0.0
 10
7.1590050259
 20
8.9249645607
 30
0.0
 10
7.1563723594
 20
8.9336982113
 30
0.0
 10
7.1535124064
 20
8.9424913739
 30
0.0
 10
7.1504220211
 20
8.9513519554
 30
0.0
 10
7.1470973547
 20
8.9602885646
 30
0.0
 10
7.1435335814
 20
8.9693110856
 30
0.0
 10
7.1397250593
 20
8.9784300082
 30
0.0
 10
7.135665103
 20
8.987656784
 30
0.0
 10
7.1313461458
 20
8.9970033686
 30
0.0
 10
7.1267601104
 20
9.0064813968
 30
0.0
 10
7.1235582115
 20
9.0128176867
 30
0.0
 10
7.1219121267
 20
9.0160094394
 30
0.0
 11
7.1219121267
 21
8.637720978
 31
0.0
 11
7.1267696772
 21
8.6473374295
 31
0.0
 11
7.1313515794
 21
8.6568107207
 31
0.0
 11
7.1356661778
 21
8.6661517246
 31
0.0
 11
7.1397222603
 21
8.6753735996
 31
0.0
 11
7.1435269539
 21
8.6844873144
 31
0.0
 11
7.1470870535
 21
8.6935045552
 31
0.0
 11
7.1504086602
 21
8.7024370289
 31
0.0
 11
7.153495902
 21
8.7112927554
 31
0.0
 11
7.1563530823
 21
8.7200816255
 31
0.0
 11
7.158983326
 21
8.7288115467
 31
0.0
 11
7.1613887851
 21
8.7374883889
 31
0.0
 11
7.163572008
 21
8.7461206961
 31
0.0
 11
7.1655343387
 21
8.7547138363
 31
0.0
 11
7.1672768775
 21
8.7632730258
 31
0.0
 11
7.1688008086
 21
8.7718052129
 31
0.0
 11
7.1701063598
 21
8.7803132692
 31
0.0
 11
7.1711939906
 21
8.7888018486
 31
0.0
 11
7.1720640421
 21
8.7972760049
 31
0.0
 11
7.1727164537
 21
8.8057375994
 31
0.0
 11
7.1731514252
 21
8.8141918582
 31
0.0
 11
7.1733689123
 21
8.8226416641
 31
0.0
 11
7.1733689115
 21
8.831088814
 31
0.0
 11
7.1731514231
 21
8.8395386139
 31
0.0
 11
7.1727164497
 21
8.8479928793
 31
0.0
 11
7.1720640372
 21
8.8564544674
 31
0.0
 11
7.1711939846
 21
8.8649286209
 31
0.0
 11
7.1701063517
 21
8.8734172059
 31
0.0
 11
7.1688008008
 21
8.8819252516
 31
0.0
 11
7.1672768688
 21
8.8904574371
 31
0.0
 11
7.1655343285
 21
8.8990166281
 31
0.0
 11
7.1635719983
 21
8.9076097617
 31
0.0
 11
7.1613887744
 21
8.9162420691
 31
0.0
 11
7.1589833161
 21
8.9249189051
 31
0.0
 11
7.1563530743
 21
8.9336488172
 31
0.0
 11
7.1534958943
 21
8.9424376849
 31
0.0
 11
7.1504086548
 21
8.9512934037
 31
0.0
 11
7.1470870498
 21
8.9602258717
 31
0.0
 11
7.143526951
 21
8.9692431101
 31
0.0
 11
7.1397222585
 21
8.9783568221
 31
0.0
 11
7.1356661766
 21
8.9875786954
 31
0.0
 11
7.1313515787
 21
8.9969196982
 31
0.0
 11
7.126769677
 21
9.0063929883
 31
0.0
 11
7.1219121267
 21
9.0160094394
 31
0.0
  0
SPLINE
  5
555
100
AcDbEntity
  8
0
100
AcDbSpline
 62
7
  6
CONTINUOUS
 70
0
 71
3
 72
45
 73
41
 74
39
 42
0.0000001
 43
0.0000001
 44
0.0000000001
 12
0.1096690883
 22
-0.3683171013
 32
0.0
 13
-0.1096690883
 23
-0.3683171013
 33
0.0
 40
0.0
 40
0.0
 40
0.0
 40
0.0
 40
0.02800783
 40
0.0556703133
 40
0.0830197224
 40
0.1100915548
 40
0.1369178206
 40
0.1635313203
 40
0.1899627546
 40
0.2162351954
 40
0.2423738248
 40
0.2683997735
 40
0.2943295547
 40
0.320182853
 40
0.3459729212
 40
0.3717114219
 40
0.3974125929
 40
0.4230836531
 40
0.4487329298
 40
0.4743703682
 40
0.5000000521
 40
0.5256297269
 40
0.5512671662
 40
0.5769164481
 40
0.6025875007
 40
0.6282886741
 40
0.654027177
 40
0.6798172399
 40
0.7056705424
 40
0.7316003163
 40
0.7576262528
 40
0.7837648777
 40
0.8100373056
 40
0.8364687289
 40
0.8630822228
 40
0.8899084785
 40
0.9169803009
 40
0.9443297004
 40
0.9719921749
 40
1.0
 40
1.0
 40
1.0
 40
1.0
 10
12.866348663
 20
9.0160094394
 30
0.0
 10
12.8673725274
 20
9.0125708518
 30
0.0
 10
12.8693668489
 20
9.0057238475
 30
0.0
 10
12.8722142228
 20
8.9954770731
 30
0.0
 10
12.8749000589
 20
8.9853107116
 30
0.0
 10
12.8774262238
 20
8.9752138782
 30
0.0
 10
12.8797942065
 20
8.9651755963
 30
0.0
 10
12.8820049473
 20
8.9551855048
 30
0.0
 10
12.8840587547
 20
8.9452343865
 30
0.0
 10
12.8859554168
 20
8.9353140339
 30
0.0
 10
12.8876942272
 20
8.9254175172
 30
0.0
 10
12.8892741277
 20
8.9155388255
 30
0.0
 10
12.8906938132
 20
8.9056727497
 30
0.0
 10
12.8919517559
 20
8.8958151953
 30
0.0
 10
12.8930463407
 20
8.8859628065
 30
0.0
 10
12.8939759451
 20
8.8761130457
 30
0.0
 10
12.8947390002
 20
8.8662642638
 30
0.0
 10
12.895334101
 20
8.8564153493
 30
0.0
 10
12.8957600729
 20
8.8465658362
 30
0.0
 10
12.8960160231
 20
8.8367157362
 30
0.0
 10
12.8961014012
 20
8.8268651899
 30
0.0
 10
12.8960160225
 20
8.8170146435
 30
0.0
 10
12.8957600716
 20
8.8071645439
 30
0.0
 10
12.8953340991
 20
8.7973150309
 30
0.0
 10
12.8947389976
 20
8.7874661164
 30
0.0
 10
12.893975942
 20
8.777617335
 30
0.0
 10
12.893046337
 20
8.7677675743
 30
0.0
 10
12.8919517515
 20
8.7579151855
 30
0.0
 10
12.8906938083
 20
8.7480576323
 30
0.0
 10
12.8892741226
 20
8.7381915585
 30
0.0
 10
12.8876942221
 20
8.7283128698
 30
0.0
 10
12.8859554119
 20
8.718416357
 30
0.0
 10
12.8840587501
 20
8.7084960081
 30
0.0
 10
12.8820049432
 20
8.6985448936
 30
0.0
 10
12.8797942029
 20
8.6885548054
 30
0.0
 10
12.8774262208
 20
8.6785165269
 30
0.0
 10
12.8749000566
 20
8.6684196971
 30
0.0
 10
12.8722142214
 20
8.6582533392
 30
0.0
 10
12.8693668483
 20
8.6480065677
 30
0.0
 10
12.8673725272
 20
8.641159565
 30
0.0
 10
12.866348663
 20
8.637720978
 30
0.0
 11
12.866348663
 21
9.0160094394
 31
0.0
 11
12.8693577148
 21
9.0056752605
 31
0.0
 11
12.8722030263
 21
8.9954324813
 31
0.0
 11
12.8748867589
 21
8.9852705742
 31
0.0
 11
12.8774110081
 21
8.9751778042
 31
0.0
 11
12.8797771285
 21
8.9651437312
 31
0.0
 11
12.8819861488
 21
8.9551576321
 31
0.0
 11
12.8840385185
 21
8.9452095952
 31
0.0
 11
12.8859337699
 21
8.9352926328
 31
0.0
 11
12.8876713476
 21
8.9253990387
 31
0.0
 11
12.8892501961
 21
8.9155227269
 31
0.0
 11
12.8906688568
 21
8.9056594719
 31
0.0
 11
12.8919259777
 21
8.8958039589
 31
0.0
 11
12.8930198555
 21
8.8859534428
 31
0.0
 11
12.8939488176
 21
8.8761059133
 31
0.0
 11
12.8947114069
 21
8.8662584934
 31
0.0
 11
12.8953061311
 21
8.8564111041
 31
0.0
 11
12.8957318216
 21
8.84656334
 31
0.0
 11
12.8959876211
 21
8.8367142502
 31
0.0
 11
12.8960729446
 21
8.8268651887
 31
0.0
 11
12.8959876204
 21
8.8170161307
 31
0.0
 11
12.8957318203
 21
8.8071670406
 31
0.0
 11
12.8953061291
 21
8.7973192745
 31
0.0
 11
12.8947114045
 21
8.7874718882
 31
0.0
 11
12.8939488144
 21
8.7776244674
 31
0.0
 11
12.8930198516
 21
8.7677769371
 31
0.0
 11
12.8919259735
 21
8.7579264231
 31
0.0
 11
12.8906688518
 21
8.7480709086
 31
0.0
 11
12.8892501909
 21
8.7382076565
 31
0.0
 11
12.8876713427
 21
8.7283313493
 31
0.0
 11
12.8859337649
 21
8.7184377571
 31
0.0
 11
12.884038514
 21
8.7085207995
 31
0.0
 11
12.8819861448
 21
8.6985727669
 31
0.0
 11
12.8797771248
 21
8.68858667
 31
0.0
 11
12.877411005
 21
8.6785526008
 31
0.0
 11
12.8748867567
 21
8.6684598345
 31
0.0
 11
12.8722030249
 21
8.658297931
 31
0.0
 11
12.8693577143
 21
8.6480551551
 31
0.0
 11
12.866348663
 21
8.637720978
 31
0.0
  0
SPLINE
  5
556
100
AcDbEntity
  8
0
100
AcDbSpline
 62
7
  6
CONTINUOUS
 70
0
 71
3
 72
50
 73
46
 74
44
 42
0.0000001
 43
0.0000001
 44
0.0000000001
 12
-0.181453252
 22
-0.3518372194
 32
0.0
 13
0.181453252
 23
-0.3518372194
 33
0.0
 40
0.0
 40
0.0
 40
0.0
 40
0.0
 40
0.0272150247
 40
0.0537972684
 40
0.079788796
 40
0.1052375766
 40
0.1301850434
 40
0.1546742238
 40
0.1787478229
 40
0.2024383797
 40
0.2257833687
 40
0.2488149224
 40
0.2715598965
 40
0.29405229
 40
0.3163179465
 40
0.3383825675
 40
0.3602765412
 40
0.3820200319
 40
0.4036380604
 40
0.4251568894
 40
0.4465948962
 40
0.4679791798
 40
0.4893310372
 40
0.510669116
 40
0.5320209584
 40
0.5534052589
 40
0.5748432497
 40
0.5963620718
 40
0.6179801151
 40
0.6397235792
 40
0.6616175492
 40
0.6836821749
 40
0.7059478148
 40
0.7284402095
 40
0.7511851678
 40
0.7742166984
 40
0.7975616811
 40
0.8212522178
 40
0.8453258017
 40
0.8698149759
 40
0.8947624351
 40
0.9202112112
 40
0.9462027358
 40
0.9727849765
 40
1.0
 40
1.0
 40
1.0
 40
1.0
 10
12.4929123288
 20
9.0160094394
 30
0.0
 10
12.4912662439
 20
9.0128176865
 30
0.0
 10
12.4880643447
 20
9.0064813962
 30
0.0
 10
12.483478309
 20
8.9970033671
 30
0.0
 10
12.4791593512
 20
8.9876567812
 30
0.0
 10
12.4750993942
 20
8.9784300036
 30
0.0
 10
12.4712908712
 20
8.9693110787
 30
0.0
 10
12.4677270968
 20
8.9602885541
 30
0.0
 10
12.4644024287
 20
8.9513519397
 30
0.0
 10
12.4613120419
 20
8.9424913528
 30
0.0
 10
12.4584520875
 20
8.9336981838
 30
0.0
 10
12.4558194199
 20
8.9249645273
 30
0.0
 10
12.4534114313
 20
8.9162829444
 30
0.0
 10
12.4512261204
 20
8.9076468396
 30
0.0
 10
12.4492618715
 20
8.8990498298
 30
0.0
 10
12.4475174676
 20
8.8904860794
 30
0.0
 10
12.4459921109
 20
8.8819505768
 30
0.0
 10
12.444685218
 20
8.8734385022
 30
0.0
 10
12.4435964313
 20
8.8649456786
 30
0.0
 10
12.4427255495
 20
8.8564682586
 30
0.0
 10
12.4420724201
 20
8.848002212
 30
0.0
 10
12.4416370058
 20
8.8395442335
 30
0.0
 10
12.4414193053
 20
8.8310910386
 30
0.0
 10
12.4414193061
 20
8.8226393202
 30
0.0
 10
12.4416370081
 20
8.814186125
 30
0.0
 10
12.4420724237
 20
8.8057281485
 30
0.0
 10
12.4427255546
 20
8.7972621028
 30
0.0
 10
12.4435964376
 20
8.788784684
 30
0.0
 10
12.4446852254
 20
8.780291863
 30
0.0
 10
12.4459921192
 20
8.7717797907
 30
0.0
 10
12.4475174765
 20
8.7632442916
 30
0.0
 10
12.449261881
 20
8.7546805434
 30
0.0
 10
12.4512261307
 20
8.7460835352
 30
0.0
 10
12.4534114415
 20
8.7374474346
 30
0.0
 10
12.4558194296
 20
8.7287658568
 30
0.0
 10
12.4584520961
 20
8.7200322061
 30
0.0
 10
12.4613120491
 20
8.7112390435
 30
0.0
 10
12.4644024344
 20
8.702378462
 30
0.0
 10
12.4677271008
 20
8.6934418529
 30
0.0
 10
12.4712908741
 20
8.6844193318
 30
0.0
 10
12.4750993962
 20
8.6753004092
 30
0.0
 10
12.4791593525
 20
8.6660736335
 30
0.0
 10
12.4834783097
 20
8.6567270488
 30
0.0
 10
12.4880643451
 20
8.6472490206
 30
0.0
 10
12.491266244
 20
8.6409127308
 30
0.0
 10
12.4929123288
 20
8.637720978
 30
0.0
 11
12.4929123288
 21
9.0160094394
 31
0.0
 11
12.4880547783
 21
9.0063929879
 31
0.0
 11
12.4834728761
 21
8.9969196967
 31
0.0
 11
12.4791582777
 21
8.9875786928
 31
0.0
 11
12.4751021952
 21
8.9783568178
 31
0.0
 11
12.4712975016
 21
8.969243103
 31
0.0
 11
12.467737402
 21
8.9602258622
 31
0.0
 11
12.4644157953
 21
8.9512933886
 31
0.0
 11
12.4613285535
 21
8.942437662
 31
0.0
 11
12.4584713732
 21
8.9336487919
 31
0.0
 11
12.4558411295
 21
8.9249188708
 31
0.0
 11
12.4534356704
 21
8.9162420286
 31
0.0
 11
12.4512524475
 21
8.9076097214
 31
0.0
 11
12.4492901168
 21
8.8990165811
 31
0.0
 11
12.447547578
 21
8.8904573917
 31
0.0
 11
12.4460236469
 21
8.8819252046
 31
0.0
 11
12.4447180957
 21
8.8734171483
 31
0.0
 11
12.4436304649
 21
8.8649285689
 31
0.0
 11
12.4427604134
 21
8.8564544126
 31
0.0
 11
12.4421080018
 21
8.8479928181
 31
0.0
 11
12.4416730303
 21
8.8395385593
 31
0.0
 11
12.4414555432
 21
8.8310887533
 31
0.0
 11
12.441455544
 21
8.8226416035
 31
0.0
 11
12.4416730324
 21
8.8141918035
 31
0.0
 11
12.4421080058
 21
8.8057375381
 31
0.0
 11
12.4427604183
 21
8.79727595
 31
0.0
 11
12.4436304709
 21
8.7888017966
 31
0.0
 11
12.4447181038
 21
8.7803132115
 31
0.0
 11
12.4460236547
 21
8.7718051659
 31
0.0
 11
12.4475475867
 21
8.7632729804
 31
0.0
 11
12.449290127
 21
8.7547137893
 31
0.0
 11
12.4512524572
 21
8.7461206557
 31
0.0
 11
12.4534356811
 21
8.7374883483
 31
0.0
 11
12.4558411394
 21
8.7288115124
 31
0.0
 11
12.4584713812
 21
8.7200816002
 31
0.0
 11
12.4613285612
 21
8.7112927326
 31
0.0
 11
12.4644158007
 21
8.7024370137
 31
0.0
 11
12.4677374057
 21
8.6935045458
 31
0.0
 11
12.4712975045
 21
8.6844873074
 31
0.0
 11
12.475102197
 21
8.6753735954
 31
0.0
 11
12.4791582789
 21
8.666151722
 31
0.0
 11
12.4834728768
 21
8.6568107192
 31
0.0
 11
12.4880547785
 21
8.6473374291
 31
0.0
 11
12.4929123288
 21
8.637720978
 31
0.0
  0
SPLINE
  5
557
100
AcDbEntity
  8
0
100
AcDbSpline
 62
7
  6
CONTINUOUS
 70
0
 71
3
 72
45
 73
41
 74
39
 42
0.0000001
 43
0.0000001
 44
0.0000000001
 12
0.1096690883
 22
-0.3683171013
 32
0.0
 13
-0.1096690883
 23
-0.3683171013
 33
0.0
 40
0.0
 40
0.0
 40
0.0
 40
0.0
 40
0.02800783
 40
0.0556703133
 40
0.0830197224
 40
0.1100915548
 40
0.1369178206
 40
0.1635313203
 40
0.1899627546
 40
0.2162351954
 40
0.2423738248
 40
0.2683997735
 40
0.2943295547
 40
0.320182853
 40
0.3459729212
 40
0.3717114219
 40
0.3974125929
 40
0.4230836531
 40
0.4487329298
 40
0.4743703682
 40
0.5000000521
 40
0.5256297269
 40
0.5512671662
 40
0.5769164481
 40
0.6025875007
 40
0.6282886741
 40
0.654027177
 40
0.6798172399
 40
0.7056705424
 40
0.7316003163
 40
0.7576262528
 40
0.7837648777
 40
0.8100373056
 40
0.8364687289
 40
0.8630822228
 40
0.8899084785
 40
0.9169803009
 40
0.9443297004
 40
0.9719921749
 40
1.0
 40
1.0
 40
1.0
 40
1.0
 10
12.866348663
 20
8.5784934054
 30
0.0
 10
12.8673725274
 20
8.5750548178
 30
0.0
 10
12.8693668489
 20
8.5682078135
 30
0.0
 10
12.8722142228
 20
8.5579610391
 30
0.0
 10
12.8749000589
 20
8.5477946777
 30
0.0
 10
12.8774262238
 20
8.5376978442
 30
0.0
 10
12.8797942065
 20
8.5276595623
 30
0.0
 10
12.8820049473
 20
8.5176694708
 30
0.0
 10
12.8840587547
 20
8.5077183525
 30
0.0
 10
12.8859554168
 20
8.4977979999
 30
0.0
 10
12.8876942272
 20
8.4879014832
 30
0.0
 10
12.8892741277
 20
8.4780227915
 30
0.0
 10
12.8906938132
 20
8.4681567157
 30
0.0
 10
12.8919517559
 20
8.4582991613
 30
0.0
 10
12.8930463407
 20
8.4484467725
 30
0.0
 10
12.8939759451
 20
8.4385970117
 30
0.0
 10
12.8947390002
 20
8.4287482298
 30
0.0
 10
12.895334101
 20
8.4188993153
 30
0.0
 10
12.8957600729
 20
8.4090498022
 30
0.0
 10
12.8960160231
 20
8.3991997022
 30
0.0
 10
12.8961014012
 20
8.3893491559
 30
0.0
 10
12.8960160225
 20
8.3794986095
 30
0.0
 10
12.8957600716
 20
8.3696485099
 30
0.0
 10
12.8953340991
 20
8.3597989969
 30
0.0
 10
12.8947389976
 20
8.3499500825
 30
0.0
 10
12.893975942
 20
8.340101301
 30
0.0
 10
12.893046337
 20
8.3302515403
 30
0.0
 10
12.8919517515
 20
8.3203991515
 30
0.0
 10
12.8906938083
 20
8.3105415983
 30
0.0
 10
12.8892741226
 20
8.3006755245
 30
0.0
 10
12.8876942221
 20
8.2907968358
 30
0.0
 10
12.8859554119
 20
8.280900323
 30
0.0
 10
12.8840587501
 20
8.2709799741
 30
0.0
 10
12.8820049432
 20
8.2610288596
 30
0.0
 10
12.8797942029
 20
8.2510387714
 30
0.0
 10
12.8774262208
 20
8.2410004929
 30
0.0
 10
12.8749000566
 20
8.2309036631
 30
0.0
 10
12.8722142214
 20
8.2207373052
 30
0.0
 10
12.8693668483
 20
8.2104905337
 30
0.0
 10
12.8673725272
 20
8.203643531
 30
0.0
 10
12.866348663
 20
8.2002049441
 30
0.0
 11
12.866348663
 21
8.5784934054
 31
0.0
 11
12.8693577148
 21
8.5681592265
 31
0.0
 11
12.8722030263
 21
8.5579164473
 31
0.0
 11
12.8748867589
 21
8.5477545402
 31
0.0
 11
12.8774110081
 21
8.5376617702
 31
0.0
 11
12.8797771285
 21
8.5276276972
 31
0.0
 11
12.8819861488
 21
8.5176415981
 31
0.0
 11
12.8840385185
 21
8.5076935612
 31
0.0
 11
12.8859337699
 21
8.4977765988
 31
0.0
 11
12.8876713476
 21
8.4878830047
 31
0.0
 11
12.8892501961
 21
8.4780066929
 31
0.0
 11
12.8906688568
 21
8.4681434379
 31
0.0
 11
12.8919259777
 21
8.4582879249
 31
0.0
 11
12.8930198555
 21
8.4484374088
 31
0.0
 11
12.8939488176
 21
8.4385898793
 31
0.0
 11
12.8947114069
 21
8.4287424594
 31
0.0
 11
12.8953061311
 21
8.4188950701
 31
0.0
 11
12.8957318216
 21
8.409047306
 31
0.0
 11
12.8959876211
 21
8.3991982162
 31
0.0
 11
12.8960729446
 21
8.3893491547
 31
0.0
 11
12.8959876204
 21
8.3795000968
 31
0.0
 11
12.8957318203
 21
8.3696510066
 31
0.0
 11
12.8953061291
 21
8.3598032405
 31
0.0
 11
12.8947114045
 21
8.3499558542
 31
0.0
 11
12.8939488144
 21
8.3401084334
 31
0.0
 11
12.8930198516
 21
8.3302609031
 31
0.0
 11
12.8919259735
 21
8.3204103891
 31
0.0
 11
12.8906688518
 21
8.3105548746
 31
0.0
 11
12.8892501909
 21
8.3006916225
 31
0.0
 11
12.8876713427
 21
8.2908153153
 31
0.0
 11
12.8859337649
 21
8.2809217231
 31
0.0
 11
12.884038514
 21
8.2710047655
 31
0.0
 11
12.8819861448
 21
8.2610567329
 31
0.0
 11
12.8797771248
 21
8.251070636
 31
0.0
 11
12.877411005
 21
8.2410365668
 31
0.0
 11
12.8748867567
 21
8.2309438006
 31
0.0
 11
12.8722030249
 21
8.2207818971
 31
0.0
 11
12.8693577143
 21
8.2105391211
 31
0.0
 11
12.866348663
 21
8.2002049441
 31
0.0
  0
SPLINE
  5
558
100
AcDbEntity
  8
0
100
AcDbSpline
 62
7
  6
CONTINUOUS
 70
0
 71
3
 72
50
 73
46
 74
44
 42
0.0000001
 43
0.0000001
 44
0.0000000001
 12
-0.181453252
 22
-0.3518372194
 32
0.0
 13
0.181453252
 23
-0.3518372194
 33
0.0
 40
0.0
 40
0.0
 40
0.0
 40
0.0
 40
0.0272150247
 40
0.0537972684
 40
0.079788796
 40
0.1052375766
 40
0.1301850434
 40
0.1546742238
 40
0.1787478229
 40
0.2024383797
 40
0.2257833687
 40
0.2488149224
 40
0.2715598965
 40
0.29405229
 40
0.3163179465
 40
0.3383825675
 40
0.3602765412
 40
0.3820200319
 40
0.4036380604
 40
0.4251568894
 40
0.4465948962
 40
0.4679791798
 40
0.4893310372
 40
0.510669116
 40
0.5320209584
 40
0.5534052589
 40
0.5748432497
 40
0.5963620718
 40
0.6179801151
 40
0.6397235792
 40
0.6616175492
 40
0.6836821749
 40
0.7059478148
 40
0.7284402095
 40
0.7511851678
 40
0.7742166984
 40
0.7975616811
 40
0.8212522178
 40
0.8453258017
 40
0.8698149759
 40
0.8947624351
 40
0.9202112112
 40
0.9462027358
 40
0.9727849765
 40
1.0
 40
1.0
 40
1.0
 40
1.0
 10
12.4929123288
 20
8.5784934054
 30
0.0
 10
12.4912662439
 20
8.5753016525
 30
0.0
 10
12.4880643447
 20
8.5689653622
 30
0.0
 10
12.483478309
 20
8.5594873331
 30
0.0
 10
12.4791593512
 20
8.5501407472
 30
0.0
 10
12.4750993942
 20
8.5409139696
 30
0.0
 10
12.4712908712
 20
8.5317950447
 30
0.0
 10
12.4677270968
 20
8.5227725201
 30
0.0
 10
12.4644024287
 20
8.5138359057
 30
0.0
 10
12.4613120419
 20
8.5049753188
 30
0.0
 10
12.4584520875
 20
8.4961821499
 30
0.0
 10
12.4558194199
 20
8.4874484933
 30
0.0
 10
12.4534114313
 20
8.4787669104
 30
0.0
 10
12.4512261204
 20
8.4701308057
 30
0.0
 10
12.4492618715
 20
8.4615337958
 30
0.0
 10
12.4475174676
 20
8.4529700454
 30
0.0
 10
12.4459921109
 20
8.4444345428
 30
0.0
 10
12.444685218
 20
8.4359224683
 30
0.0
 10
12.4435964313
 20
8.4274296446
 30
0.0
 10
12.4427255495
 20
8.4189522246
 30
0.0
 10
12.4420724201
 20
8.410486178
 30
0.0
 10
12.4416370058
 20
8.4020281995
 30
0.0
 10
12.4414193053
 20
8.3935750046
 30
0.0
 10
12.4414193061
 20
8.3851232862
 30
0.0
 10
12.4416370081
 20
8.376670091
 30
0.0
 10
12.4420724237
 20
8.3682121145
 30
0.0
 10
12.4427255546
 20
8.3597460688
 30
0.0
 10
12.4435964376
 20
8.35126865
 30
0.0
 10
12.4446852254
 20
8.342775829
 30
0.0
 10
12.4459921192
 20
8.3342637567
 30
0.0
 10
12.4475174765
 20
8.3257282576
 30
0.0
 10
12.449261881
 20
8.3171645094
 30
0.0
 10
12.4512261307
 20
8.3085675012
 30
0.0
 10
12.4534114415
 20
8.2999314007
 30
0.0
 10
12.4558194296
 20
8.2912498228
 30
0.0
 10
12.4584520961
 20
8.2825161722
 30
0.0
 10
12.4613120491
 20
8.2737230096
 30
0.0
 10
12.4644024344
 20
8.264862428
 30
0.0
 10
12.4677271008
 20
8.2559258189
 30
0.0
 10
12.4712908741
 20
8.2469032978
 30
0.0
 10
12.4750993962
 20
8.2377843752
 30
0.0
 10
12.4791593525
 20
8.2285575995
 30
0.0
 10
12.4834783097
 20
8.2192110148
 30
0.0
 10
12.4880643451
 20
8.2097329866
 30
0.0
 10
12.491266244
 20
8.2033966968
 30
0.0
 10
12.4929123288
 20
8.2002049441
 30
0.0
 11
12.4929123288
 21
8.5784934054
 31
0.0
 11
12.4880547783
 21
8.5688769539
 31
0.0
 11
12.4834728761
 21
8.5594036627
 31
0.0
 11
12.4791582777
 21
8.5500626588
 31
0.0
 11
12.4751021952
 21
8.5408407838
 31
0.0
 11
12.4712975016
 21
8.531727069
 31
0.0
 11
12.467737402
 21
8.5227098282
 31
0.0
 11
12.4644157953
 21
8.5137773546
 31
0.0
 11
12.4613285535
 21
8.5049216281
 31
0.0
 11
12.4584713732
 21
8.4961327579
 31
0.0
 11
12.4558411295
 21
8.4874028368
 31
0.0
 11
12.4534356704
 21
8.4787259946
 31
0.0
 11
12.4512524475
 21
8.4700936874
 31
0.0
 11
12.4492901168
 21
8.4615005471
 31
0.0
 11
12.447547578
 21
8.4529413577
 31
0.0
 11
12.4460236469
 21
8.4444091706
 31
0.0
 11
12.4447180957
 21
8.4359011143
 31
0.0
 11
12.4436304649
 21
8.4274125349
 31
0.0
 11
12.4427604134
 21
8.4189383786
 31
0.0
 11
12.4421080018
 21
8.4104767841
 31
0.0
 11
12.4416730303
 21
8.4020225253
 31
0.0
 11
12.4414555432
 21
8.3935727193
 31
0.0
 11
12.441455544
 21
8.3851255695
 31
0.0
 11
12.4416730324
 21
8.3766757695
 31
0.0
 11
12.4421080058
 21
8.3682215041
 31
0.0
 11
12.4427604183
 21
8.359759916
 31
0.0
 11
12.4436304709
 21
8.3512857626
 31
0.0
 11
12.4447181038
 21
8.3427971775
 31
0.0
 11
12.4460236547
 21
8.3342891319
 31
0.0
 11
12.4475475867
 21
8.3257569464
 31
0.0
 11
12.449290127
 21
8.3171977553
 31
0.0
 11
12.4512524572
 21
8.3086046218
 31
0.0
 11
12.4534356811
 21
8.2999723144
 31
0.0
 11
12.4558411394
 21
8.2912954784
 31
0.0
 11
12.4584713812
 21
8.2825655662
 31
0.0
 11
12.4613285612
 21
8.2737766986
 31
0.0
 11
12.4644158007
 21
8.2649209797
 31
0.0
 11
12.4677374057
 21
8.2559885118
 31
0.0
 11
12.4712975045
 21
8.2469712734
 31
0.0
 11
12.475102197
 21
8.2378575614
 31
0.0
 11
12.4791582789
 21
8.228635688
 31
0.0
 11
12.4834728768
 21
8.2192946852
 31
0.0
 11
12.4880547785
 21
8.2098213951
 31
0.0
 11
12.4929123288
 21
8.2002049441
 31
0.0
  0
SPLINE
  5
559
100
AcDbEntity
  8
0
100
AcDbSpline
 62
7
  6
CONTINUOUS
 70
0
 71
3
 72
53
 73
49
 74
47
 42
0.0000001
 43
0.0000001
 44
0.0000000001
 12
0.1096694271
 22
-0.3683182391
 32
0.0
 13
-0.1096694271
 23
-0.3683182391
 33
0.0
 40
0.0
 40
0.0
 40
0.0
 40
0.0
 40
0.0231631758
 40
0.0460807742
 40
0.068775472
 40
0.09126879
 40
0.113580739
 40
0.1357300791
 40
0.1577342481
 40
0.1796094747
 40
0.20137082
 40
0.2230321965
 40
0.2446064002
 40
0.2661051323
 40
0.2875389863
 40
0.3089175795
 40
0.3302495763
 40
0.3515427331
 40
0.372803961
 40
0.3940393723
 40
0.4152543452
 40
0.4364537166
 40
0.4576418396
 40
0.4788226932
 40
0.5
 40
0.5211773068
 40
0.5423581604
 40
0.5635462834
 40
0.5847456548
 40
0.6059606278
 40
0.627196039
 40
0.6484572669
 40
0.6697504238
 40
0.6910824205
 40
0.7124610137
 40
0.7338948677
 40
0.7553935999
 40
0.7769678035
 40
0.79862918
 40
0.8203905253
 40
0.8422657519
 40
0.864269921
 40
0.886419261
 40
0.90873121
 40
0.931224528
 40
0.9539192258
 40
0.9768368242
 40
1.0
 40
1.0
 40
1.0
 40
1.0
 10
12.866348663
 20
9.0160094394
 30
0.0
 10
12.867195427
 20
9.0131656327
 30
0.0
 10
12.8688520558
 20
9.0074998083
 30
0.0
 10
12.8712383722
 20
8.9990188747
 30
0.0
 10
12.8735137574
 20
8.9905963457
 30
0.0
 10
12.8756796387
 20
8.982225105
 30
0.0
 10
12.8777371066
 20
8.9738984972
 30
0.0
 10
12.8796869232
 20
8.9656103757
 30
0.0
 10
12.8815295524
 20
8.9573550713
 30
0.0
 10
12.883265184
 20
8.949127392
 30
0.0
 10
12.8848937614
 20
8.9409226112
 30
0.0
 10
12.8864150086
 20
8.9327364645
 30
0.0
 10
12.8878284583
 20
8.9245651487
 30
0.0
 10
12.889133482
 20
8.916405324
 30
0.0
 10
12.8903293223
 20
8.9082541025
 30
0.0
 10
12.8914151279
 20
8.9001090355
 30
0.0
 10
12.892389988
 20
8.8919680912
 30
0.0
 10
12.8932529668
 20
8.8838296401
 30
0.0
 10
12.8940031371
 20
8.8756924358
 30
0.0
 10
12.8946396139
 20
8.8675555908
 30
0.0
 10
12.895161587
 20
8.8594185344
 30
0.0
 10
12.8955683501
 20
8.8512809673
 30
0.0
 10
12.8958593263
 20
8.8431428084
 30
0.0
 10
12.8960340878
 20
8.83500415
 30
0.0
 10
12.8960923713
 20
8.8268652087
 30
0.0
 10
12.8960340878
 20
8.8187262674
 30
0.0
 10
12.8958593263
 20
8.810587609
 30
0.0
 10
12.8955683501
 20
8.8024494501
 30
0.0
 10
12.895161587
 20
8.7943118831
 30
0.0
 10
12.8946396139
 20
8.7861748267
 30
0.0
 10
12.8940031371
 20
8.7780379816
 30
0.0
 10
12.8932529668
 20
8.7699007773
 30
0.0
 10
12.892389988
 20
8.7617623262
 30
0.0
 10
12.8914151279
 20
8.7536213819
 30
0.0
 10
12.8903293223
 20
8.7454763149
 30
0.0
 10
12.889133482
 20
8.7373250934
 30
0.0
 10
12.8878284583
 20
8.7291652687
 30
0.0
 10
12.8864150086
 20
8.7209939529
 30
0.0
 10
12.8848937614
 20
8.7128078062
 30
0.0
 10
12.883265184
 20
8.7046030255
 30
0.0
 10
12.8815295524
 20
8.6963753462
 30
0.0
 10
12.8796869232
 20
8.6881200417
 30
0.0
 10
12.8777371066
 20
8.6798319203
 30
0.0
 10
12.8756796387
 20
8.6715053125
 30
0.0
 10
12.8735137574
 20
8.6631340718
 30
0.0
 10
12.8712383722
 20
8.6547115427
 30
0.0
 10
12.8688520558
 20
8.6462306091
 30
0.0
 10
12.867195427
 20
8.6405647848
 30
0.0
 10
12.866348663
 20
8.637720978
 30
0.0
 11
12.866348663
 21
9.0160094394
 31
0.0
 11
12.8688462914
 21
9.0074654318
 31
0.0
 11
12.8712312805
 21
8.9989872969
 31
0.0
 11
12.8735054116
 21
8.9905674543
 31
0.0
 11
12.8756701252
 21
8.9821987326
 31
0.0
 11
12.8777265007
 21
8.9738745105
 31
0.0
 11
12.8796753007
 21
8.9655886314
 31
0.0
 11
12.8815169842
 21
8.9573354394
 31
0.0
 11
12.8832517387
 21
8.9491097473
 31
0.0
 11
12.8848795057
 21
8.9409068301
 31
0.0
 11
12.8864000074
 21
8.9327224268
 31
0.0
 11
12.8878127752
 21
8.9245527359
 31
0.0
 11
12.8891171798
 21
8.9163944153
 31
0.0
 11
12.8903124607
 21
8.9082445926
 31
0.0
 11
12.8913977656
 21
8.900100821
 31
0.0
 11
12.8923721824
 21
8.891961073
 31
0.0
 11
12.8932347741
 21
8.8838237259
 31
0.0
 11
12.8939846124
 21
8.8756875374
 31
0.0
 11
12.8946208112
 21
8.8675516268
 31
0.0
 11
12.8951425581
 21
8.859415446
 31
0.0
 11
12.8955491465
 21
8.8512787014
 31
0.0
 11
12.8958399985
 21
8.8431413235
 31
0.0
 11
12.8960146858
 21
8.8350034177
 31
0.0
 11
12.8960729446
 21
8.8268652087
 31
0.0
 11
12.8960146858
 21
8.8187269998
 31
0.0
 11
12.8958399985
 21
8.810589094
 31
0.0
 11
12.8955491465
 21
8.8024517161
 31
0.0
 11
12.8951425581
 21
8.7943149714
 31
0.0
 11
12.8946208112
 21
8.7861787907
 31
0.0
 11
12.8939846124
 21
8.77804288
 31
0.0
 11
12.8932347741
 21
8.7699066916
 31
0.0
 11
12.8923721824
 21
8.7617693444
 31
0.0
 11
12.8913977656
 21
8.7536295965
 31
0.0
 11
12.8903124607
 21
8.7454858248
 31
0.0
 11
12.8891171798
 21
8.7373360022
 31
0.0
 11
12.8878127752
 21
8.7291776815
 31
0.0
 11
12.8864000074
 21
8.7210079907
 31
0.0
 11
12.8848795057
 21
8.7128235873
 31
0.0
 11
12.8832517387
 21
8.7046206701
 31
0.0
 11
12.8815169842
 21
8.696394978
 31
0.0
 11
12.8796753007
 21
8.688141786
 31
0.0
 11
12.8777265007
 21
8.6798559069
 31
0.0
 11
12.8756701252
 21
8.6715316849
 31
0.0
 11
12.8735054116
 21
8.6631629631
 31
0.0
 11
12.8712312805
 21
8.6547431205
 31
0.0
 11
12.8688462914
 21
8.6462649857
 31
0.0
 11
12.866348663
 21
8.637720978
 31
0.0
  0
SPLINE
  5
55A
100
AcDbEntity
  8
0
100
AcDbSpline
 62
7
  6
CONTINUOUS
 70
0
 71
3
 72
59
 73
55
 74
53
 42
0.0000001
 43
0.0000001
 44
0.0000000001
 12
-0.1814544218
 22
-0.3518394876
 32
0.0
 13
0.1814544218
 23
-0.3518394876
 33
0.0
 40
0.0
 40
0.0
 40
0.0
 40
0.0
 40
0.0225618519
 40
0.0446778882
 40
0.0663775263
 40
0.0876887716
 40
0.1086378568
 40
0.1292496227
 40
0.1495474724
 40
0.1695536073
 40
0.1892891401
 40
0.2087741572
 40
0.2280278063
 40
0.2470683628
 40
0.2659132201
 40
0.2845791236
 40
0.3030821948
 40
0.3214379738
 40
0.3396614786
 40
0.3577672267
 40
0.3757692349
 40
0.3936812516
 40
0.411516725
 40
0.4292888397
 40
0.4470105616
 40
0.4646946198
 40
0.4823535757
 40
0.5
 40
0.5176464243
 40
0.5353053803
 40
0.5529894384
 40
0.5707111603
 40
0.588483275
 40
0.6063187484
 40
0.6242307652
 40
0.6422327733
 40
0.6603385215
 40
0.6785620262
 40
0.6969178052
 40
0.7154208764
 40
0.7340867799
 40
0.7529316372
 40
0.7719721937
 40
0.7912258428
 40
0.8107108599
 40
0.8304463927
 40
0.8504525276
 40
0.8707503773
 40
0.8913621432
 40
0.9123112284
 40
0.9336224737
 40
0.9553221118
 40
0.9774381481
 40
1.0
 40
1.0
 40
1.0
 40
1.0
 10
12.4929123288
 20
9.0160094394
 30
0.0
 10
12.4915476796
 20
9.0133633893
 30
0.0
 10
12.4888811579
 20
9.0081050045
 30
0.0
 10
12.4850308043
 20
9.0002372889
 30
0.0
 10
12.4813657457
 20
8.9924636063
 30
0.0
 10
12.4778807223
 20
8.9847763214
 30
0.0
 10
12.4745710208
 20
8.9771682252
 30
0.0
 10
12.4714324722
 20
8.9696325886
 30
0.0
 10
12.4684613961
 20
8.9621631035
 30
0.0
 10
12.4656545663
 20
8.9547538663
 30
0.0
 10
12.4630091707
 20
8.9473993436
 30
0.0
 10
12.460522779
 20
8.9400943554
 30
0.0
 10
12.4581933126
 20
8.9328340632
 30
0.0
 10
12.4560190172
 20
8.9256139656
 30
0.0
 10
12.4539984282
 20
8.9184298752
 30
0.0
 10
12.4521303396
 20
8.9112778983
 30
0.0
 10
12.450413772
 20
8.904154406
 30
0.0
 10
12.4488479471
 20
8.8970560264
 30
0.0
 10
12.4474322628
 20
8.8899796352
 30
0.0
 10
12.4461662678
 20
8.8829223503
 30
0.0
 10
12.4450496341
 20
8.8758815016
 30
0.0
 10
12.4440821322
 20
8.8688546065
 30
0.0
 10
12.4432636084
 20
8.8618393375
 30
0.0
 10
12.4425939687
 20
8.8548335131
 30
0.0
 10
12.4420731618
 20
8.8478350854
 30
0.0
 10
12.4417011645
 20
8.8408421213
 30
0.0
 10
12.4414779678
 20
8.833852766
 30
0.0
 10
12.4414035691
 20
8.8268652087
 30
0.0
 10
12.4414779678
 20
8.8198776514
 30
0.0
 10
12.4417011645
 20
8.8128882962
 30
0.0
 10
12.4420731618
 20
8.8058953321
 30
0.0
 10
12.4425939687
 20
8.7988969043
 30
0.0
 10
12.4432636084
 20
8.79189108
 30
0.0
 10
12.4440821322
 20
8.784875811
 30
0.0
 10
12.4450496341
 20
8.7778489159
 30
0.0
 10
12.4461662678
 20
8.7708080672
 30
0.0
 10
12.4474322628
 20
8.7637507822
 30
0.0
 10
12.4488479471
 20
8.756674391
 30
0.0
 10
12.450413772
 20
8.7495760114
 30
0.0
 10
12.4521303396
 20
8.7424525191
 30
0.0
 10
12.4539984282
 20
8.7353005422
 30
0.0
 10
12.4560190172
 20
8.7281164519
 30
0.0
 10
12.4581933126
 20
8.7208963543
 30
0.0
 10
12.460522779
 20
8.713636062
 30
0.0
 10
12.4630091707
 20
8.7063310738
 30
0.0
 10
12.4656545663
 20
8.6989765511
 30
0.0
 10
12.4684613961
 20
8.6915673139
 30
0.0
 10
12.4714324722
 20
8.6840978288
 30
0.0
 10
12.4745710208
 20
8.6765621922
 30
0.0
 10
12.4778807223
 20
8.6689540961
 30
0.0
 10
12.4813657457
 20
8.6612668112
 30
0.0
 10
12.4850308043
 20
8.6534931285
 30
0.0
 10
12.4888811579
 20
8.645625413
 30
0.0
 10
12.4915476796
 20
8.6403670282
 30
0.0
 10
12.4929123288
 20
8.637720978
 30
0.0
 11
12.4929123288
 21
9.0160094394
 31
0.0
 11
12.4888736498
 21
9.0080430279
 31
0.0
 11
12.4850259765
 21
9.0001786429
 31
0.0
 11
12.481363464
 21
8.9924081936
 31
0.0
 11
12.4778808253
 21
8.9847239801
 31
0.0
 11
12.4745733737
 21
8.9771188422
 31
0.0
 11
12.4714369395
 21
8.9695860417
 31
0.0
 11
12.4684678564
 21
8.9621192979
 31
0.0
 11
12.4656629051
 21
8.9547127194
 31
0.0
 11
12.4630192771
 21
8.947360779
 31
0.0
 11
12.4605345465
 21
8.940058306
 31
0.0
 11
12.4582066377
 21
8.9328004686
 31
0.0
 11
12.4560337955
 21
8.9255827627
 31
0.0
 11
12.4540145636
 21
8.9184010287
 31
0.0
 11
12.4521477356
 21
8.9112513739
 31
0.0
 11
12.4504323317
 21
8.9041301731
 31
0.0
 11
12.448867574
 21
8.8970340597
 31
0.0
 11
12.4474528588
 21
8.8899599095
 31
0.0
 11
12.4461877332
 21
8.8829048375
 31
0.0
 11
12.4450718725
 21
8.8758662008
 31
0.0
 11
12.4441050439
 21
8.8688415091
 31
0.0
 11
12.4432870926
 21
8.8618284362
 31
0.0
 11
12.4426179232
 21
8.8548248022
 31
0.0
 11
12.4420974827
 21
8.8478285526
 31
0.0
 11
12.4417257475
 21
8.8408377589
 31
0.0
 11
12.4415027088
 21
8.833850585
 31
0.0
 11
12.4414283628
 21
8.8268652087
 31
0.0
 11
12.4415027088
 21
8.8198798325
 31
0.0
 11
12.4417257475
 21
8.8128926585
 31
0.0
 11
12.4420974827
 21
8.8059018648
 31
0.0
 11
12.4426179232
 21
8.7989056152
 31
0.0
 11
12.4432870926
 21
8.7919019813
 31
0.0
 11
12.4441050439
 21
8.7848889083
 31
0.0
 11
12.4450718725
 21
8.7778642166
 31
0.0
 11
12.4461877332
 21
8.77082558
 31
0.0
 11
12.4474528588
 21
8.7637705079
 31
0.0
 11
12.448867574
 21
8.7566963578
 31
0.0
 11
12.4504323317
 21
8.7496002443
 31
0.0
 11
12.4521477356
 21
8.7424790435
 31
0.0
 11
12.4540145636
 21
8.7353293888
 31
0.0
 11
12.4560337955
 21
8.7281476547
 31
0.0
 11
12.4582066377
 21
8.7209299489
 31
0.0
 11
12.4605345465
 21
8.7136721115
 31
0.0
 11
12.4630192771
 21
8.7063696385
 31
0.0
 11
12.4656629051
 21
8.699017698
 31
0.0
 11
12.4684678564
 21
8.6916111196
 31
0.0
 11
12.4714369395
 21
8.6841443758
 31
0.0
 11
12.4745733737
 21
8.6766115753
 31
0.0
 11
12.4778808253
 21
8.6690064373
 31
0.0
 11
12.481363464
 21
8.6613222238
 31
0.0
 11
12.4850259765
 21
8.6535517745
 31
0.0
 11
12.4888736498
 21
8.6456873896
 31
0.0
 11
12.4929123288
 21
8.637720978
 31
0.0
  0
SPLINE
  5
55B
100
AcDbEntity
  8
0
100
AcDbSpline
 62
7
  6
CONTINUOUS
 70
0
 71
3
 72
53
 73
49
 74
47
 42
0.0000001
 43
0.0000001
 44
0.0000000001
 12
0.1096694271
 22
-0.3683182391
 32
0.0
 13
-0.1096694271
 23
-0.3683182391
 33
0.0
 40
0.0
 40
0.0
 40
0.0
 40
0.0
 40
0.0231631758
 40
0.0460807742
 40
0.068775472
 40
0.09126879
 40
0.113580739
 40
0.1357300791
 40
0.1577342481
 40
0.1796094747
 40
0.20137082
 40
0.2230321965
 40
0.2446064002
 40
0.2661051323
 40
0.2875389863
 40
0.3089175795
 40
0.3302495763
 40
0.3515427331
 40
0.372803961
 40
0.3940393723
 40
0.4152543452
 40
0.4364537166
 40
0.4576418396
 40
0.4788226932
 40
0.5
 40
0.5211773068
 40
0.5423581604
 40
0.5635462834
 40
0.5847456548
 40
0.6059606278
 40
0.627196039
 40
0.6484572669
 40
0.6697504238
 40
0.6910824205
 40
0.7124610137
 40
0.7338948677
 40
0.7553935999
 40
0.7769678035
 40
0.79862918
 40
0.8203905253
 40
0.8422657519
 40
0.864269921
 40
0.886419261
 40
0.90873121
 40
0.931224528
 40
0.9539192258
 40
0.9768368242
 40
1.0
 40
1.0
 40
1.0
 40
1.0
 10
12.866348663
 20
8.5784934054
 30
0.0
 10
12.867195427
 20
8.5756495987
 30
0.0
 10
12.8688520558
 20
8.5699837743
 30
0.0
 10
12.8712383722
 20
8.5615028407
 30
0.0
 10
12.8735137574
 20
8.5530803117
 30
0.0
 10
12.8756796387
 20
8.544709071
 30
0.0
 10
12.8777371066
 20
8.5363824632
 30
0.0
 10
12.8796869232
 20
8.5280943417
 30
0.0
 10
12.8815295524
 20
8.5198390373
 30
0.0
 10
12.883265184
 20
8.511611358
 30
0.0
 10
12.8848937614
 20
8.5034065772
 30
0.0
 10
12.8864150086
 20
8.4952204305
 30
0.0
 10
12.8878284583
 20
8.4870491147
 30
0.0
 10
12.889133482
 20
8.47888929
 30
0.0
 10
12.8903293223
 20
8.4707380685
 30
0.0
 10
12.8914151279
 20
8.4625930015
 30
0.0
 10
12.892389988
 20
8.4544520572
 30
0.0
 10
12.8932529668
 20
8.4463136061
 30
0.0
 10
12.8940031371
 20
8.4381764018
 30
0.0
 10
12.8946396139
 20
8.4300395568
 30
0.0
 10
12.895161587
 20
8.4219025004
 30
0.0
 10
12.8955683501
 20
8.4137649333
 30
0.0
 10
12.8958593263
 20
8.4056267744
 30
0.0
 10
12.8960340878
 20
8.397488116
 30
0.0
 10
12.8960923713
 20
8.3893491747
 30
0.0
 10
12.8960340878
 20
8.3812102334
 30
0.0
 10
12.8958593263
 20
8.373071575
 30
0.0
 10
12.8955683501
 20
8.3649334161
 30
0.0
 10
12.895161587
 20
8.3567958491
 30
0.0
 10
12.8946396139
 20
8.3486587927
 30
0.0
 10
12.8940031371
 20
8.3405219476
 30
0.0
 10
12.8932529668
 20
8.3323847433
 30
0.0
 10
12.892389988
 20
8.3242462923
 30
0.0
 10
12.8914151279
 20
8.3161053479
 30
0.0
 10
12.8903293223
 20
8.3079602809
 30
0.0
 10
12.889133482
 20
8.2998090595
 30
0.0
 10
12.8878284583
 20
8.2916492347
 30
0.0
 10
12.8864150086
 20
8.2834779189
 30
0.0
 10
12.8848937614
 20
8.2752917722
 30
0.0
 10
12.883265184
 20
8.2670869915
 30
0.0
 10
12.8815295524
 20
8.2588593122
 30
0.0
 10
12.8796869232
 20
8.2506040077
 30
0.0
 10
12.8777371066
 20
8.2423158863
 30
0.0
 10
12.8756796387
 20
8.2339892785
 30
0.0
 10
12.8735137574
 20
8.2256180378
 30
0.0
 10
12.8712383722
 20
8.2171955087
 30
0.0
 10
12.8688520558
 20
8.2087145751
 30
0.0
 10
12.867195427
 20
8.2030487508
 30
0.0
 10
12.866348663
 20
8.2002049441
 30
0.0
 11
12.866348663
 21
8.5784934054
 31
0.0
 11
12.8688462914
 21
8.5699493978
 31
0.0
 11
12.8712312805
 21
8.5614712629
 31
0.0
 11
12.8735054116
 21
8.5530514203
 31
0.0
 11
12.8756701252
 21
8.5446826986
 31
0.0
 11
12.8777265007
 21
8.5363584765
 31
0.0
 11
12.8796753007
 21
8.5280725974
 31
0.0
 11
12.8815169842
 21
8.5198194054
 31
0.0
 11
12.8832517387
 21
8.5115937133
 31
0.0
 11
12.8848795057
 21
8.5033907962
 31
0.0
 11
12.8864000074
 21
8.4952063928
 31
0.0
 11
12.8878127752
 21
8.487036702
 31
0.0
 11
12.8891171798
 21
8.4788783813
 31
0.0
 11
12.8903124607
 21
8.4707285586
 31
0.0
 11
12.8913977656
 21
8.462584787
 31
0.0
 11
12.8923721824
 21
8.454445039
 31
0.0
 11
12.8932347741
 21
8.4463076919
 31
0.0
 11
12.8939846124
 21
8.4381715034
 31
0.0
 11
12.8946208112
 21
8.4300355928
 31
0.0
 11
12.8951425581
 21
8.4218994121
 31
0.0
 11
12.8955491465
 21
8.4137626674
 31
0.0
 11
12.8958399985
 21
8.4056252895
 31
0.0
 11
12.8960146858
 21
8.3974873837
 31
0.0
 11
12.8960729446
 21
8.3893491747
 31
0.0
 11
12.8960146858
 21
8.3812109658
 31
0.0
 11
12.8958399985
 21
8.37307306
 31
0.0
 11
12.8955491465
 21
8.3649356821
 31
0.0
 11
12.8951425581
 21
8.3567989374
 31
0.0
 11
12.8946208112
 21
8.3486627567
 31
0.0
 11
12.8939846124
 21
8.340526846
 31
0.0
 11
12.8932347741
 21
8.3323906576
 31
0.0
 11
12.8923721824
 21
8.3242533104
 31
0.0
 11
12.8913977656
 21
8.3161135625
 31
0.0
 11
12.8903124607
 21
8.3079697908
 31
0.0
 11
12.8891171798
 21
8.2998199682
 31
0.0
 11
12.8878127752
 21
8.2916616475
 31
0.0
 11
12.8864000074
 21
8.2834919567
 31
0.0
 11
12.8848795057
 21
8.2753075533
 31
0.0
 11
12.8832517387
 21
8.2671046361
 31
0.0
 11
12.8815169842
 21
8.2588789441
 31
0.0
 11
12.8796753007
 21
8.250625752
 31
0.0
 11
12.8777265007
 21
8.2423398729
 31
0.0
 11
12.8756701252
 21
8.2340156509
 31
0.0
 11
12.8735054116
 21
8.2256469291
 31
0.0
 11
12.8712312805
 21
8.2172270865
 31
0.0
 11
12.8688462914
 21
8.2087489517
 31
0.0
 11
12.866348663
 21
8.2002049441
 31
0.0
  0
SPLINE
  5
55C
100
AcDbEntity
  8
0
100
AcDbSpline
 62
7
  6
CONTINUOUS
 70
0
 71
3
 72
59
 73
55
 74
53
 42
0.0000001
 43
0.0000001
 44
0.0000000001
 12
-0.1814544218
 22
-0.3518394876
 32
0.0
 13
0.1814544218
 23
-0.3518394876
 33
0.0
 40
0.0
 40
0.0
 40
0.0
 40
0.0
 40
0.0225618519
 40
0.0446778882
 40
0.0663775263
 40
0.0876887716
 40
0.1086378568
 40
0.1292496227
 40
0.1495474724
 40
0.1695536073
 40
0.1892891401
 40
0.2087741572
 40
0.2280278063
 40
0.2470683628
 40
0.2659132201
 40
0.2845791236
 40
0.3030821948
 40
0.3214379738
 40
0.3396614786
 40
0.3577672267
 40
0.3757692349
 40
0.3936812516
 40
0.411516725
 40
0.4292888397
 40
0.4470105616
 40
0.4646946198
 40
0.4823535757
 40
0.5
 40
0.5176464243
 40
0.5353053803
 40
0.5529894384
 40
0.5707111603
 40
0.588483275
 40
0.6063187484
 40
0.6242307652
 40
0.6422327733
 40
0.6603385215
 40
0.6785620262
 40
0.6969178052
 40
0.7154208764
 40
0.7340867799
 40
0.7529316372
 40
0.7719721937
 40
0.7912258428
 40
0.8107108599
 40
0.8304463927
 40
0.8504525276
 40
0.8707503773
 40
0.8913621432
 40
0.9123112284
 40
0.9336224737
 40
0.9553221118
 40
0.9774381481
 40
1.0
 40
1.0
 40
1.0
 40
1.0
 10
12.4929123288
 20
8.5784934054
 30
0.0
 10
12.4915476796
 20
8.5758473553
 30
0.0
 10
12.4888811579
 20
8.5705889705
 30
0.0
 10
12.4850308043
 20
8.5627212549
 30
0.0
 10
12.4813657457
 20
8.5549475723
 30
0.0
 10
12.4778807223
 20
8.5472602874
 30
0.0
 10
12.4745710208
 20
8.5396521913
 30
0.0
 10
12.4714324722
 20
8.5321165546
 30
0.0
 10
12.4684613961
 20
8.5246470695
 30
0.0
 10
12.4656545663
 20
8.5172378323
 30
0.0
 10
12.4630091707
 20
8.5098833096
 30
0.0
 10
12.460522779
 20
8.5025783214
 30
0.0
 10
12.4581933126
 20
8.4953180292
 30
0.0
 10
12.4560190172
 20
8.4880979316
 30
0.0
 10
12.4539984282
 20
8.4809138413
 30
0.0
 10
12.4521303396
 20
8.4737618643
 30
0.0
 10
12.450413772
 20
8.466638372
 30
0.0
 10
12.4488479471
 20
8.4595399924
 30
0.0
 10
12.4474322628
 20
8.4524636012
 30
0.0
 10
12.4461662678
 20
8.4454063163
 30
0.0
 10
12.4450496341
 20
8.4383654676
 30
0.0
 10
12.4440821322
 20
8.4313385725
 30
0.0
 10
12.4432636084
 20
8.4243233035
 30
0.0
 10
12.4425939687
 20
8.4173174791
 30
0.0
 10
12.4420731618
 20
8.4103190514
 30
0.0
 10
12.4417011645
 20
8.4033260873
 30
0.0
 10
12.4414779678
 20
8.396336732
 30
0.0
 10
12.4414035691
 20
8.3893491747
 30
0.0
 10
12.4414779678
 20
8.3823616174
 30
0.0
 10
12.4417011645
 20
8.3753722622
 30
0.0
 10
12.4420731618
 20
8.3683792981
 30
0.0
 10
12.4425939687
 20
8.3613808703
 30
0.0
 10
12.4432636084
 20
8.354375046
 30
0.0
 10
12.4440821322
 20
8.347359777
 30
0.0
 10
12.4450496341
 20
8.3403328819
 30
0.0
 10
12.4461662678
 20
8.3332920332
 30
0.0
 10
12.4474322628
 20
8.3262347482
 30
0.0
 10
12.4488479471
 20
8.319158357
 30
0.0
 10
12.450413772
 20
8.3120599775
 30
0.0
 10
12.4521303396
 20
8.3049364851
 30
0.0
 10
12.4539984282
 20
8.2977845082
 30
0.0
 10
12.4560190172
 20
8.2906004179
 30
0.0
 10
12.4581933126
 20
8.2833803203
 30
0.0
 10
12.460522779
 20
8.276120028
 30
0.0
 10
12.4630091707
 20
8.2688150398
 30
0.0
 10
12.4656545663
 20
8.2614605171
 30
0.0
 10
12.4684613961
 20
8.2540512799
 30
0.0
 10
12.4714324722
 20
8.2465817948
 30
0.0
 10
12.4745710208
 20
8.2390461582
 30
0.0
 10
12.4778807223
 20
8.2314380621
 30
0.0
 10
12.4813657457
 20
8.2237507772
 30
0.0
 10
12.4850308043
 20
8.2159770946
 30
0.0
 10
12.4888811579
 20
8.208109379
 30
0.0
 10
12.4915476796
 20
8.2028509942
 30
0.0
 10
12.4929123288
 20
8.2002049441
 30
0.0
 11
12.4929123288
 21
8.5784934054
 31
0.0
 11
12.4888736498
 21
8.5705269939
 31
0.0
 11
12.4850259765
 21
8.5626626089
 31
0.0
 11
12.481363464
 21
8.5548921596
 31
0.0
 11
12.4778808253
 21
8.5472079461
 31
0.0
 11
12.4745733737
 21
8.5396028082
 31
0.0
 11
12.4714369395
 21
8.5320700077
 31
0.0
 11
12.4684678564
 21
8.5246032639
 31
0.0
 11
12.4656629051
 21
8.5171966854
 31
0.0
 11
12.4630192771
 21
8.509844745
 31
0.0
 11
12.4605345465
 21
8.502542272
 31
0.0
 11
12.4582066377
 21
8.4952844346
 31
0.0
 11
12.4560337955
 21
8.4880667287
 31
0.0
 11
12.4540145636
 21
8.4808849947
 31
0.0
 11
12.4521477356
 21
8.4737353399
 31
0.0
 11
12.4504323317
 21
8.4666141391
 31
0.0
 11
12.448867574
 21
8.4595180257
 31
0.0
 11
12.4474528588
 21
8.4524438755
 31
0.0
 11
12.4461877332
 21
8.4453888035
 31
0.0
 11
12.4450718725
 21
8.4383501668
 31
0.0
 11
12.4441050439
 21
8.4313254751
 31
0.0
 11
12.4432870926
 21
8.4243124022
 31
0.0
 11
12.4426179232
 21
8.4173087682
 31
0.0
 11
12.4420974827
 21
8.4103125186
 31
0.0
 11
12.4417257475
 21
8.403321725
 31
0.0
 11
12.4415027088
 21
8.396334551
 31
0.0
 11
12.4414283628
 21
8.3893491747
 31
0.0
 11
12.4415027088
 21
8.3823637985
 31
0.0
 11
12.4417257475
 21
8.3753766245
 31
0.0
 11
12.4420974827
 21
8.3683858308
 31
0.0
 11
12.4426179232
 21
8.3613895812
 31
0.0
 11
12.4432870926
 21
8.3543859473
 31
0.0
 11
12.4441050439
 21
8.3473728743
 31
0.0
 11
12.4450718725
 21
8.3403481827
 31
0.0
 11
12.4461877332
 21
8.333309546
 31
0.0
 11
12.4474528588
 21
8.3262544739
 31
0.0
 11
12.448867574
 21
8.3191803238
 31
0.0
 11
12.4504323317
 21
8.3120842103
 31
0.0
 11
12.4521477356
 21
8.3049630095
 31
0.0
 11
12.4540145636
 21
8.2978133548
 31
0.0
 11
12.4560337955
 21
8.2906316207
 31
0.0
 11
12.4582066377
 21
8.2834139149
 31
0.0
 11
12.4605345465
 21
8.2761560775
 31
0.0
 11
12.4630192771
 21
8.2688536045
 31
0.0
 11
12.4656629051
 21
8.261501664
 31
0.0
 11
12.4684678564
 21
8.2540950856
 31
0.0
 11
12.4714369395
 21
8.2466283418
 31
0.0
 11
12.4745733737
 21
8.2390955413
 31
0.0
 11
12.4778808253
 21
8.2314904033
 31
0.0
 11
12.481363464
 21
8.2238061899
 31
0.0
 11
12.4850259765
 21
8.2160357405
 31
0.0
 11
12.4888736498
 21
8.2081713556
 31
0.0
 11
12.4929123288
 21
8.2002049441
 31
0.0
  0
SPLINE
  5
55D
100
AcDbEntity
  8
0
100
AcDbSpline
 62
7
  6
CONTINUOUS
 70
0
 71
3
 72
54
 73
50
 74
48
 42
0.0000001
 43
0.0000001
 44
0.0000000001
 12
-0.1096694577
 22
0.3683183421
 32
0.0
 13
0.1096694577
 23
0.3683183421
 33
0.0
 40
0.0
 40
0.0
 40
0.0
 40
0.0
 40
0.0226729782
 40
0.0451102513
 40
0.0673330985
 40
0.0893617861
 40
0.1112151707
 40
0.132910943
 40
0.1544655736
 40
0.1758944496
 40
0.1972118742
 40
0.218431094
 40
0.2395643136
 40
0.2606226691
 40
0.2816163677
 40
0.3025546924
 40
0.3234460341
 40
0.3442979295
 40
0.3651170446
 40
0.3859093489
 40
0.406680176
 40
0.4274342838
 40
0.4481759407
 40
0.4689089582
 40
0.4896368795
 40
0.5103631205
 40
0.5310910418
 40
0.5518240593
 40
0.5725657163
 40
0.593319824
 40
0.6140906511
 40
0.6348829554
 40
0.6557020705
 40
0.6765539659
 40
0.6974453076
 40
0.7183836324
 40
0.7393773309
 40
0.7604356865
 40
0.781568906
 40
0.8027881258
 40
0.8241055504
 40
0.8455344264
 40
0.867089057
 40
0.8887848293
 40
0.9106382139
 40
0.9326669015
 40
0.9548897487
 40
0.9773270218
 40
1.0
 40
1.0
 40
1.0
 40
1.0
 10
6.7484757925
 20
8.2002049441
 30
0.0
 10
6.7476469481
 20
8.2029885686
 30
0.0
 10
6.7460246316
 20
8.2085348905
 30
0.0
 10
6.743685654
 20
8.2168371938
 30
0.0
 10
6.7414529987
 20
8.225083258
 30
0.0
 10
6.73932531
 20
8.2332797793
 30
0.0
 10
6.737301542
 20
8.2414330328
 30
0.0
 10
6.7353809533
 20
8.2495488213
 30
0.0
 10
6.7335630777
 20
8.2576325107
 30
0.0
 10
6.7318477032
 20
8.2656890306
 30
0.0
 10
6.7302348468
 20
8.2737228867
 30
0.0
 10
6.7287247321
 20
8.2817381574
 30
0.0
 10
6.7273177644
 20
8.2897384891
 30
0.0
 10
6.7260145029
 20
8.2977271048
 30
0.0
 10
6.724815631
 20
8.3057068133
 30
0.0
 10
6.7237219253
 20
8.3136800271
 30
0.0
 10
6.7227342267
 20
8.3216487682
 30
0.0
 10
6.72185341
 20
8.3296146726
 30
0.0
 10
6.7210803517
 20
8.3375790149
 30
0.0
 10
6.7204158993
 20
8.3455427365
 30
0.0
 10
6.7198608412
 20
8.3535064866
 30
0.0
 10
6.7194158802
 20
8.3614706518
 30
0.0
 10
6.7190816109
 20
8.3694353856
 30
0.0
 10
6.7188584981
 20
8.3774006542
 30
0.0
 10
6.7187468608
 20
8.3853662913
 30
0.0
 10
6.7187468608
 20
8.3933320582
 30
0.0
 10
6.7188584981
 20
8.4012976953
 30
0.0
 10
6.7190816109
 20
8.4092629639
 30
0.0
 10
6.7194158802
 20
8.4172276977
 30
0.0
 10
6.7198608412
 20
8.4251918629
 30
0.0
 10
6.7204158994
 20
8.4331556129
 30
0.0
 10
6.7210803517
 20
8.4411193346
 30
0.0
 10
6.72185341
 20
8.4490836769
 30
0.0
 10
6.7227342267
 20
8.4570495813
 30
0.0
 10
6.7237219253
 20
8.4650183224
 30
0.0
 10
6.724815631
 20
8.4729915362
 30
0.0
 10
6.7260145029
 20
8.4809712447
 30
0.0
 10
6.7273177644
 20
8.4889598603
 30
0.0
 10
6.7287247321
 20
8.496960192
 30
0.0
 10
6.7302348468
 20
8.5049754628
 30
0.0
 10
6.7318477032
 20
8.5130093188
 30
0.0
 10
6.7335630777
 20
8.5210658388
 30
0.0
 10
6.7353809533
 20
8.5291495282
 30
0.0
 10
6.737301542
 20
8.5372653166
 30
0.0
 10
6.73932531
 20
8.5454185702
 30
0.0
 10
6.7414529987
 20
8.5536150915
 30
0.0
 10
6.743685654
 20
8.5618611556
 30
0.0
 10
6.7460246316
 20
8.5701634589
 30
0.0
 10
6.7476469481
 20
8.5757097808
 30
0.0
 10
6.7484757925
 20
8.5784934054
 30
0.0
 11
6.7484757925
 21
8.2002049441
 31
0.0
 11
6.7460301255
 21
8.2085678773
 31
0.0
 11
6.7436923941
 21
8.216867555
 31
0.0
 11
6.7414609193
 21
8.2251110905
 31
0.0
 11
6.7393343309
 21
8.2333052398
 31
0.0
 11
6.7373115935
 21
8.2414562458
 31
0.0
 11
6.7353919654
 21
8.2495699192
 31
0.0
 11
6.7335749859
 21
8.2576516093
 31
0.0
 11
6.7318604442
 21
8.2657062463
 31
0.0
 11
6.7302483591
 21
8.2737383331
 31
0.0
 11
6.7287389553
 21
8.2817519471
 31
0.0
 11
6.7273326388
 21
8.2897507385
 31
0.0
 11
6.7260299724
 21
8.2977379135
 31
0.0
 11
6.7248316402
 21
8.3057162813
 31
0.0
 11
6.7237384199
 21
8.3136882513
 31
0.0
 11
6.7227511535
 21
8.3216558417
 31
0.0
 11
6.721870716
 21
8.3296206919
 31
0.0
 11
6.7210979868
 21
8.3375840557
 31
0.0
 11
6.7204338143
 21
8.3455468682
 31
0.0
 11
6.7198789874
 21
8.3535097724
 31
0.0
 11
6.7194342102
 21
8.3614731458
 31
0.0
 11
6.7191000776
 21
8.3694371395
 31
0.0
 11
6.7188770557
 21
8.3774016973
 31
0.0
 11
6.7187654637
 21
8.3853666369
 31
0.0
 11
6.7187654637
 21
8.3933317125
 31
0.0
 11
6.7188770557
 21
8.4012966521
 31
0.0
 11
6.7191000776
 21
8.40926121
 31
0.0
 11
6.7194342102
 21
8.4172252037
 31
0.0
 11
6.7198789874
 21
8.425188577
 31
0.0
 11
6.7204338143
 21
8.4331514812
 31
0.0
 11
6.7210979868
 21
8.4411142938
 31
0.0
 11
6.721870716
 21
8.4490776576
 31
0.0
 11
6.7227511535
 21
8.4570425078
 31
0.0
 11
6.7237384199
 21
8.4650100982
 31
0.0
 11
6.7248316402
 21
8.4729820682
 31
0.0
 11
6.7260299724
 21
8.480960436
 31
0.0
 11
6.7273326388
 21
8.488947611
 31
0.0
 11
6.7287389553
 21
8.4969464024
 31
0.0
 11
6.7302483591
 21
8.5049600164
 31
0.0
 11
6.7318604442
 21
8.5129921032
 31
0.0
 11
6.7335749859
 21
8.5210467402
 31
0.0
 11
6.7353919654
 21
8.5291284303
 31
0.0
 11
6.7373115935
 21
8.5372421036
 31
0.0
 11
6.7393343309
 21
8.5453931096
 31
0.0
 11
6.7414609193
 21
8.5535872589
 31
0.0
 11
6.7436923941
 21
8.5618307945
 31
0.0
 11
6.7460301255
 21
8.5701304722
 31
0.0
 11
6.7484757925
 21
8.5784934054
 31
0.0
  0
SPLINE
  5
55E
100
AcDbEntity
  8
0
100
AcDbSpline
 62
7
  6
CONTINUOUS
 70
0
 71
3
 72
60
 73
56
 74
54
 42
0.0000001
 43
0.0000001
 44
0.0000000001
 12
0.1814545164
 22
0.351839671
 32
0.0
 13
-0.1814545164
 23
0.351839671
 33
0.0
 40
0.0
 40
0.0
 40
0.0
 40
0.0
 40
0.0221403721
 40
0.0438510519
 40
0.065159847
 40
0.0860933059
 40
0.1066763049
 40
0.1269323979
 40
0.1468837886
 40
0.166551613
 40
0.1859559666
 40
0.2051159828
 40
0.2240499022
 40
0.2427750412
 40
0.2613080424
 40
0.2796649061
 40
0.2978610234
 40
0.3159112318
 40
0.333829764
 40
0.3516304188
 40
0.3693266659
 40
0.386931628
 40
0.4044581249
 40
0.4219186545
 40
0.4393254218
 40
0.4566905726
 40
0.4740261225
 40
0.4913439902
 40
0.5086560099
 40
0.5259738775
 40
0.5433094274
 40
0.5606745782
 40
0.5780813455
 40
0.5955418751
 40
0.613068372
 40
0.6306733341
 40
0.6483695812
 40
0.666170236
 40
0.6840887683
 40
0.7021389766
 40
0.7203350939
 40
0.7386919576
 40
0.7572249588
 40
0.7759500978
 40
0.7948840172
 40
0.8140440334
 40
0.833448387
 40
0.8531162114
 40
0.8730676021
 40
0.8933236951
 40
0.9139066941
 40
0.934840153
 40
0.9561489481
 40
0.9778596279
 40
1.0
 40
1.0
 40
1.0
 40
1.0
 10
7.1219121267
 20
8.2002049441
 30
0.0
 10
7.1232512835
 20
8.2028015645
 30
0.0
 10
7.1258691139
 20
8.2079622951
 30
0.0
 10
7.1296519376
 20
8.2156841524
 30
0.0
 10
7.1332561973
 20
8.223315211
 30
0.0
 10
7.1366868871
 20
8.2308627043
 30
0.0
 10
7.1399484928
 20
8.2383334705
 30
0.0
 10
7.1430449902
 20
8.2457338947
 30
0.0
 10
7.1459799007
 20
8.2530699729
 30
0.0
 10
7.1487563225
 20
8.2603473273
 30
0.0
 10
7.1513769676
 20
8.26757124
 30
0.0
 10
7.1538441878
 20
8.2747466594
 30
0.0
 10
7.1561599994
 20
8.2818782013
 30
0.0
 10
7.1583261155
 20
8.2889701714
 30
0.0
 10
7.1603439761
 20
8.2960265853
 30
0.0
 10
7.1622147791
 20
8.3030511977
 30
0.0
 10
7.1639395038
 20
8.310047509
 30
0.0
 10
7.165518932
 20
8.3170187619
 30
0.0
 10
7.1669536747
 20
8.3239679573
 30
0.0
 10
7.168244199
 20
8.3308978787
 30
0.0
 10
7.1693908532
 20
8.3378111218
 30
0.0
 10
7.1703938871
 20
8.3447101111
 30
0.0
 10
7.1712534694
 20
8.3515971005
 30
0.0
 10
7.1719697057
 20
8.3584741821
 30
0.0
 10
7.1725426577
 20
8.3653433215
 30
0.0
 10
7.1729723584
 20
8.3722063877
 30
0.0
 10
7.1732588229
 20
8.3790651852
 30
0.0
 10
7.1734020553
 20
8.3859214571
 30
0.0
 10
7.1734020553
 20
8.3927768923
 30
0.0
 10
7.1732588229
 20
8.3996331643
 30
0.0
 10
7.1729723584
 20
8.4064919617
 30
0.0
 10
7.1725426577
 20
8.413355028
 30
0.0
 10
7.1719697057
 20
8.4202241674
 30
0.0
 10
7.1712534694
 20
8.427101249
 30
0.0
 10
7.1703938871
 20
8.4339882384
 30
0.0
 10
7.1693908532
 20
8.4408872277
 30
0.0
 10
7.168244199
 20
8.4478004708
 30
0.0
 10
7.1669536747
 20
8.4547303922
 30
0.0
 10
7.165518932
 20
8.4616795876
 30
0.0
 10
7.1639395038
 20
8.4686508405
 30
0.0
 10
7.1622147791
 20
8.4756471517
 30
0.0
 10
7.1603439761
 20
8.4826717642
 30
0.0
 10
7.1583261155
 20
8.4897281781
 30
0.0
 10
7.1561599994
 20
8.4968201482
 30
0.0
 10
7.1538441878
 20
8.5039516901
 30
0.0
 10
7.1513769676
 20
8.5111271095
 30
0.0
 10
7.1487563225
 20
8.5183510222
 30
0.0
 10
7.1459799007
 20
8.5256283766
 30
0.0
 10
7.1430449902
 20
8.5329644547
 30
0.0
 10
7.1399484928
 20
8.540364879
 30
0.0
 10
7.1366868871
 20
8.5478356451
 30
0.0
 10
7.1332561973
 20
8.5553831384
 30
0.0
 10
7.1296519376
 20
8.5630141971
 30
0.0
 10
7.1258691139
 20
8.5707360544
 30
0.0
 10
7.1232512835
 20
8.575896785
 30
0.0
 10
7.1219121267
 20
8.5784934054
 30
0.0
 11
7.1219121267
 21
8.2002049441
 31
0.0
 11
7.1258763912
 21
8.208022016
 31
0.0
 11
7.1296566805
 21
8.2157407263
 31
0.0
 11
7.1332585273
 21
8.2233687219
 31
0.0
 11
7.1366869557
 21
8.2309133056
 31
0.0
 11
7.1399464266
 21
8.2383812709
 31
0.0
 11
7.143040916
 21
8.2457790095
 31
0.0
 11
7.1459739288
 21
8.253112484
 31
0.0
 11
7.1487485607
 21
8.260387315
 31
0.0
 11
7.1513675193
 21
8.2676087763
 31
0.0
 11
7.1538331528
 21
8.274781809
 31
0.0
 11
7.1561474784
 21
8.2819110344
 31
0.0
 11
7.1583121993
 21
8.2890007283
 31
0.0
 11
7.1603287551
 21
8.2960549035
 31
0.0
 11
7.1621983438
 21
8.3030773125
 31
0.0
 11
7.1639219439
 21
8.3100714501
 31
0.0
 11
7.1655003402
 21
8.3170405677
 31
0.0
 11
7.1669341402
 21
8.3239876466
 31
0.0
 11
7.1682238102
 21
8.3309154591
 31
0.0
 11
7.1693697012
 21
8.337826606
 31
0.0
 11
7.1703720641
 21
8.3447235091
 31
0.0
 11
7.1712310696
 21
8.3516084279
 31
0.0
 11
7.171946824
 21
8.3584834544
 31
0.0
 11
7.1725193879
 21
8.3653505275
 31
0.0
 11
7.1729487966
 21
8.3722115294
 31
0.0
 11
7.1732350659
 21
8.3790682643
 31
0.0
 11
7.1733782007
 21
8.3859224782
 31
0.0
 11
7.1733782007
 21
8.3927758713
 31
0.0
 11
7.1732350659
 21
8.3996300852
 31
0.0
 11
7.1729487966
 21
8.4064868201
 31
0.0
 11
7.1725193879
 21
8.413347822
 31
0.0
 11
7.171946824
 21
8.420214895
 31
0.0
 11
7.1712310696
 21
8.4270899216
 31
0.0
 11
7.1703720641
 21
8.4339748404
 31
0.0
 11
7.1693697012
 21
8.4408717434
 31
0.0
 11
7.1682238102
 21
8.4477828903
 31
0.0
 11
7.1669341402
 21
8.4547107028
 31
0.0
 11
7.1655003402
 21
8.4616577818
 31
0.0
 11
7.1639219439
 21
8.4686268994
 31
0.0
 11
7.1621983438
 21
8.475621037
 31
0.0
 11
7.1603287551
 21
8.4826434459
 31
0.0
 11
7.1583121993
 21
8.4896976212
 31
0.0
 11
7.1561474784
 21
8.4967873151
 31
0.0
 11
7.1538331528
 21
8.5039165404
 31
0.0
 11
7.1513675193
 21
8.5110895732
 31
0.0
 11
7.1487485607
 21
8.5183110344
 31
0.0
 11
7.1459739288
 21
8.5255858655
 31
0.0
 11
7.143040916
 21
8.53291934
 31
0.0
 11
7.1399464266
 21
8.5403170786
 31
0.0
 11
7.1366869557
 21
8.5477850438
 31
0.0
 11
7.1332585273
 21
8.5553296276
 31
0.0
 11
7.1296566805
 21
8.5629576231
 31
0.0
 11
7.1258763912
 21
8.5706763335
 31
0.0
 11
7.1219121267
 21
8.5784934054
 31
0.0
  0
SPLINE
  5
55F
100
AcDbEntity
  8
0
100
AcDbSpline
 62
7
  6
CONTINUOUS
 70
0
 71
3
 72
54
 73
50
 74
48
 42
0.0000001
 43
0.0000001
 44
0.0000000001
 12
-0.1096694577
 22
0.3683183421
 32
0.0
 13
0.1096694577
 23
0.3683183421
 33
0.0
 40
0.0
 40
0.0
 40
0.0
 40
0.0
 40
0.0226729782
 40
0.0451102513
 40
0.0673330985
 40
0.0893617861
 40
0.1112151707
 40
0.132910943
 40
0.1544655736
 40
0.1758944496
 40
0.1972118742
 40
0.218431094
 40
0.2395643136
 40
0.2606226691
 40
0.2816163677
 40
0.3025546924
 40
0.3234460341
 40
0.3442979295
 40
0.3651170446
 40
0.3859093489
 40
0.406680176
 40
0.4274342838
 40
0.4481759407
 40
0.4689089582
 40
0.4896368795
 40
0.5103631205
 40
0.5310910418
 40
0.5518240593
 40
0.5725657163
 40
0.593319824
 40
0.6140906511
 40
0.6348829554
 40
0.6557020705
 40
0.6765539659
 40
0.6974453076
 40
0.7183836324
 40
0.7393773309
 40
0.7604356865
 40
0.781568906
 40
0.8027881258
 40
0.8241055504
 40
0.8455344264
 40
0.867089057
 40
0.8887848293
 40
0.9106382139
 40
0.9326669015
 40
0.9548897487
 40
0.9773270218
 40
1.0
 40
1.0
 40
1.0
 40
1.0
 10
6.7484757925
 20
8.637720978
 30
0.0
 10
6.7476469481
 20
8.6405046026
 30
0.0
 10
6.7460246316
 20
8.6460509245
 30
0.0
 10
6.743685654
 20
8.6543532278
 30
0.0
 10
6.7414529987
 20
8.662599292
 30
0.0
 10
6.73932531
 20
8.6707958133
 30
0.0
 10
6.737301542
 20
8.6789490668
 30
0.0
 10
6.7353809533
 20
8.6870648553
 30
0.0
 10
6.7335630777
 20
8.6951485447
 30
0.0
 10
6.7318477032
 20
8.7032050646
 30
0.0
 10
6.7302348468
 20
8.7112389207
 30
0.0
 10
6.7287247321
 20
8.7192541914
 30
0.0
 10
6.7273177644
 20
8.7272545231
 30
0.0
 10
6.7260145029
 20
8.7352431388
 30
0.0
 10
6.724815631
 20
8.7432228473
 30
0.0
 10
6.7237219253
 20
8.7511960611
 30
0.0
 10
6.7227342267
 20
8.7591648021
 30
0.0
 10
6.72185341
 20
8.7671307066
 30
0.0
 10
6.7210803517
 20
8.7750950488
 30
0.0
 10
6.7204158993
 20
8.7830587705
 30
0.0
 10
6.7198608412
 20
8.7910225205
 30
0.0
 10
6.7194158802
 20
8.7989866858
 30
0.0
 10
6.7190816109
 20
8.8069514196
 30
0.0
 10
6.7188584981
 20
8.8149166882
 30
0.0
 10
6.7187468608
 20
8.8228823253
 30
0.0
 10
6.7187468608
 20
8.8308480922
 30
0.0
 10
6.7188584981
 20
8.8388137293
 30
0.0
 10
6.7190816109
 20
8.8467789979
 30
0.0
 10
6.7194158802
 20
8.8547437317
 30
0.0
 10
6.7198608412
 20
8.8627078969
 30
0.0
 10
6.7204158994
 20
8.8706716469
 30
0.0
 10
6.7210803517
 20
8.8786353686
 30
0.0
 10
6.72185341
 20
8.8865997109
 30
0.0
 10
6.7227342267
 20
8.8945656153
 30
0.0
 10
6.7237219253
 20
8.9025343564
 30
0.0
 10
6.724815631
 20
8.9105075702
 30
0.0
 10
6.7260145029
 20
8.9184872787
 30
0.0
 10
6.7273177644
 20
8.9264758943
 30
0.0
 10
6.7287247321
 20
8.934476226
 30
0.0
 10
6.7302348468
 20
8.9424914968
 30
0.0
 10
6.7318477032
 20
8.9505253528
 30
0.0
 10
6.7335630777
 20
8.9585818728
 30
0.0
 10
6.7353809533
 20
8.9666655622
 30
0.0
 10
6.737301542
 20
8.9747813506
 30
0.0
 10
6.73932531
 20
8.9829346042
 30
0.0
 10
6.7414529987
 20
8.9911311255
 30
0.0
 10
6.743685654
 20
8.9993771896
 30
0.0
 10
6.7460246316
 20
9.0076794929
 30
0.0
 10
6.7476469481
 20
9.0132258148
 30
0.0
 10
6.7484757925
 20
9.0160094394
 30
0.0
 11
6.7484757925
 21
8.637720978
 31
0.0
 11
6.7460301255
 21
8.6460839113
 31
0.0
 11
6.7436923941
 21
8.654383589
 31
0.0
 11
6.7414609193
 21
8.6626271245
 31
0.0
 11
6.7393343309
 21
8.6708212738
 31
0.0
 11
6.7373115935
 21
8.6789722798
 31
0.0
 11
6.7353919654
 21
8.6870859532
 31
0.0
 11
6.7335749859
 21
8.6951676432
 31
0.0
 11
6.7318604442
 21
8.7032222803
 31
0.0
 11
6.7302483591
 21
8.7112543671
 31
0.0
 11
6.7287389553
 21
8.7192679811
 31
0.0
 11
6.7273326388
 21
8.7272667724
 31
0.0
 11
6.7260299724
 21
8.7352539475
 31
0.0
 11
6.7248316402
 21
8.7432323153
 31
0.0
 11
6.7237384199
 21
8.7512042853
 31
0.0
 11
6.7227511535
 21
8.7591718757
 31
0.0
 11
6.721870716
 21
8.7671367259
 31
0.0
 11
6.7210979868
 21
8.7751000897
 31
0.0
 11
6.7204338143
 21
8.7830629022
 31
0.0
 11
6.7198789874
 21
8.7910258064
 31
0.0
 11
6.7194342102
 21
8.7989891798
 31
0.0
 11
6.7191000776
 21
8.8069531735
 31
0.0
 11
6.7188770557
 21
8.8149177313
 31
0.0
 11
6.7187654637
 21
8.8228826709
 31
0.0
 11
6.7187654637
 21
8.8308477465
 31
0.0
 11
6.7188770557
 21
8.8388126861
 31
0.0
 11
6.7191000776
 21
8.846777244
 31
0.0
 11
6.7194342102
 21
8.8547412377
 31
0.0
 11
6.7198789874
 21
8.862704611
 31
0.0
 11
6.7204338143
 21
8.8706675152
 31
0.0
 11
6.7210979868
 21
8.8786303278
 31
0.0
 11
6.721870716
 21
8.8865936915
 31
0.0
 11
6.7227511535
 21
8.8945585418
 31
0.0
 11
6.7237384199
 21
8.9025261322
 31
0.0
 11
6.7248316402
 21
8.9104981022
 31
0.0
 11
6.7260299724
 21
8.91847647
 31
0.0
 11
6.7273326388
 21
8.926463645
 31
0.0
 11
6.7287389553
 21
8.9344624364
 31
0.0
 11
6.7302483591
 21
8.9424760503
 31
0.0
 11
6.7318604442
 21
8.9505081372
 31
0.0
 11
6.7335749859
 21
8.9585627742
 31
0.0
 11
6.7353919654
 21
8.9666444643
 31
0.0
 11
6.7373115935
 21
8.9747581376
 31
0.0
 11
6.7393343309
 21
8.9829091436
 31
0.0
 11
6.7414609193
 21
8.9911032929
 31
0.0
 11
6.7436923941
 21
8.9993468284
 31
0.0
 11
6.7460301255
 21
9.0076465062
 31
0.0
 11
6.7484757925
 21
9.0160094394
 31
0.0
  0
SPLINE
  5
560
100
AcDbEntity
  8
0
100
AcDbSpline
 62
7
  6
CONTINUOUS
 70
0
 71
3
 72
60
 73
56
 74
54
 42
0.0000001
 43
0.0000001
 44
0.0000000001
 12
0.1814545164
 22
0.351839671
 32
0.0
 13
-0.1814545164
 23
0.351839671
 33
0.0
 40
0.0
 40
0.0
 40
0.0
 40
0.0
 40
0.0221403721
 40
0.0438510519
 40
0.065159847
 40
0.0860933059
 40
0.1066763049
 40
0.1269323979
 40
0.1468837886
 40
0.166551613
 40
0.1859559666
 40
0.2051159828
 40
0.2240499022
 40
0.2427750412
 40
0.2613080424
 40
0.2796649061
 40
0.2978610234
 40
0.3159112318
 40
0.333829764
 40
0.3516304188
 40
0.3693266659
 40
0.386931628
 40
0.4044581249
 40
0.4219186545
 40
0.4393254218
 40
0.4566905726
 40
0.4740261225
 40
0.4913439902
 40
0.5086560099
 40
0.5259738775
 40
0.5433094274
 40
0.5606745782
 40
0.5780813455
 40
0.5955418751
 40
0.613068372
 40
0.6306733341
 40
0.6483695812
 40
0.666170236
 40
0.6840887683
 40
0.7021389766
 40
0.7203350939
 40
0.7386919576
 40
0.7572249588
 40
0.7759500978
 40
0.7948840172
 40
0.8140440334
 40
0.833448387
 40
0.8531162114
 40
0.8730676021
 40
0.8933236951
 40
0.9139066941
 40
0.934840153
 40
0.9561489481
 40
0.9778596279
 40
1.0
 40
1.0
 40
1.0
 40
1.0
 10
7.1219121267
 20
8.637720978
 30
0.0
 10
7.1232512835
 20
8.6403175985
 30
0.0
 10
7.1258691139
 20
8.6454783291
 30
0.0
 10
7.1296519376
 20
8.6532001864
 30
0.0
 10
7.1332561973
 20
8.660831245
 30
0.0
 10
7.1366868871
 20
8.6683787383
 30
0.0
 10
7.1399484928
 20
8.6758495045
 30
0.0
 10
7.1430449902
 20
8.6832499287
 30
0.0
 10
7.1459799007
 20
8.6905860069
 30
0.0
 10
7.1487563225
 20
8.6978633613
 30
0.0
 10
7.1513769676
 20
8.705087274
 30
0.0
 10
7.1538441878
 20
8.7122626934
 30
0.0
 10
7.1561599994
 20
8.7193942353
 30
0.0
 10
7.1583261155
 20
8.7264862054
 30
0.0
 10
7.1603439761
 20
8.7335426193
 30
0.0
 10
7.1622147791
 20
8.7405672317
 30
0.0
 10
7.1639395038
 20
8.747563543
 30
0.0
 10
7.165518932
 20
8.7545347958
 30
0.0
 10
7.1669536747
 20
8.7614839913
 30
0.0
 10
7.168244199
 20
8.7684139127
 30
0.0
 10
7.1693908532
 20
8.7753271558
 30
0.0
 10
7.1703938871
 20
8.7822261451
 30
0.0
 10
7.1712534694
 20
8.7891131345
 30
0.0
 10
7.1719697057
 20
8.7959902161
 30
0.0
 10
7.1725426577
 20
8.8028593555
 30
0.0
 10
7.1729723584
 20
8.8097224217
 30
0.0
 10
7.1732588229
 20
8.8165812192
 30
0.0
 10
7.1734020553
 20
8.8234374911
 30
0.0
 10
7.1734020553
 20
8.8302929263
 30
0.0
 10
7.1732588229
 20
8.8371491983
 30
0.0
 10
7.1729723584
 20
8.8440079957
 30
0.0
 10
7.1725426577
 20
8.850871062
 30
0.0
 10
7.1719697057
 20
8.8577402014
 30
0.0
 10
7.1712534694
 20
8.864617283
 30
0.0
 10
7.1703938871
 20
8.8715042724
 30
0.0
 10
7.1693908532
 20
8.8784032616
 30
0.0
 10
7.168244199
 20
8.8853165048
 30
0.0
 10
7.1669536747
 20
8.8922464261
 30
0.0
 10
7.165518932
 20
8.8991956216
 30
0.0
 10
7.1639395038
 20
8.9061668745
 30
0.0
 10
7.1622147791
 20
8.9131631857
 30
0.0
 10
7.1603439761
 20
8.9201877982
 30
0.0
 10
7.1583261155
 20
8.9272442121
 30
0.0
 10
7.1561599994
 20
8.9343361822
 30
0.0
 10
7.1538441878
 20
8.9414677241
 30
0.0
 10
7.1513769676
 20
8.9486431435
 30
0.0
 10
7.1487563225
 20
8.9558670561
 30
0.0
 10
7.1459799007
 20
8.9631444106
 30
0.0
 10
7.1430449902
 20
8.9704804887
 30
0.0
 10
7.1399484928
 20
8.977880913
 30
0.0
 10
7.1366868871
 20
8.9853516791
 30
0.0
 10
7.1332561973
 20
8.9928991724
 30
0.0
 10
7.1296519376
 20
9.0005302311
 30
0.0
 10
7.1258691139
 20
9.0082520883
 30
0.0
 10
7.1232512835
 20
9.013412819
 30
0.0
 10
7.1219121267
 20
9.0160094394
 30
0.0
 11
7.1219121267
 21
8.637720978
 31
0.0
 11
7.1258763912
 21
8.64553805
 31
0.0
 11
7.1296566805
 21
8.6532567603
 31
0.0
 11
7.1332585273
 21
8.6608847559
 31
0.0
 11
7.1366869557
 21
8.6684293396
 31
0.0
 11
7.1399464266
 21
8.6758973049
 31
0.0
 11
7.143040916
 21
8.6832950435
 31
0.0
 11
7.1459739288
 21
8.690628518
 31
0.0
 11
7.1487485607
 21
8.697903349
 31
0.0
 11
7.1513675193
 21
8.7051248102
 31
0.0
 11
7.1538331528
 21
8.712297843
 31
0.0
 11
7.1561474784
 21
8.7194270684
 31
0.0
 11
7.1583121993
 21
8.7265167622
 31
0.0
 11
7.1603287551
 21
8.7335709375
 31
0.0
 11
7.1621983438
 21
8.7405933464
 31
0.0
 11
7.1639219439
 21
8.7475874841
 31
0.0
 11
7.1655003402
 21
8.7545566017
 31
0.0
 11
7.1669341402
 21
8.7615036806
 31
0.0
 11
7.1682238102
 21
8.7684314931
 31
0.0
 11
7.1693697012
 21
8.77534264
 31
0.0
 11
7.1703720641
 21
8.7822395431
 31
0.0
 11
7.1712310696
 21
8.7891244619
 31
0.0
 11
7.171946824
 21
8.7959994884
 31
0.0
 11
7.1725193879
 21
8.8028665615
 31
0.0
 11
7.1729487966
 21
8.8097275634
 31
0.0
 11
7.1732350659
 21
8.8165842983
 31
0.0
 11
7.1733782007
 21
8.8234385121
 31
0.0
 11
7.1733782007
 21
8.8302919053
 31
0.0
 11
7.1732350659
 21
8.8371461192
 31
0.0
 11
7.1729487966
 21
8.8440028541
 31
0.0
 11
7.1725193879
 21
8.850863856
 31
0.0
 11
7.171946824
 21
8.857730929
 31
0.0
 11
7.1712310696
 21
8.8646059556
 31
0.0
 11
7.1703720641
 21
8.8714908744
 31
0.0
 11
7.1693697012
 21
8.8783877774
 31
0.0
 11
7.1682238102
 21
8.8852989243
 31
0.0
 11
7.1669341402
 21
8.8922267368
 31
0.0
 11
7.1655003402
 21
8.8991738158
 31
0.0
 11
7.1639219439
 21
8.9061429334
 31
0.0
 11
7.1621983438
 21
8.913137071
 31
0.0
 11
7.1603287551
 21
8.9201594799
 31
0.0
 11
7.1583121993
 21
8.9272136552
 31
0.0
 11
7.1561474784
 21
8.9343033491
 31
0.0
 11
7.1538331528
 21
8.9414325744
 31
0.0
 11
7.1513675193
 21
8.9486056072
 31
0.0
 11
7.1487485607
 21
8.9558270684
 31
0.0
 11
7.1459739288
 21
8.9631018995
 31
0.0
 11
7.143040916
 21
8.970435374
 31
0.0
 11
7.1399464266
 21
8.9778331126
 31
0.0
 11
7.1366869557
 21
8.9853010778
 31
0.0
 11
7.1332585273
 21
8.9928456615
 31
0.0
 11
7.1296566805
 21
9.0004736571
 31
0.0
 11
7.1258763912
 21
9.0081923674
 31
0.0
 11
7.1219121267
 21
9.0160094394
 31
0.0
  0
ENDSEC
  0
SECTION
  2
OBJECTS
  0
DICTIONARY
  5
C
100
AcDbDictionary
280
0
281
1
  3
ACAD_GROUP
350
D
  3
ACAD_MLINESTYLE
350
17
  3
ACAD_LAYOUT
350
1A
  3
ACAD_PLOTSETTINGS
350
19
  3
ACAD_PLOTSTYLENAME
350
E
  0
DICTIONARY
  5
D
102
{ACAD_REACTORS
330
C
102
}
100
AcDbDictionary
280
0
281
1
  0
ACDBDICTIONARYWDFLT
  5
E
102
{ACAD_REACTORS
330
C
102
}
100
AcDbDictionary
281
1
  3
Normal
350
F
100
AcDbDictionaryWithDefault
340
F
  0
DICTIONARY
  5
17
102
{ACAD_REACTORS
330
C
102
}
100
AcDbDictionary
280
0
281
1
  3
Standard
350
18
  0
DICTIONARY
  5
19
102
{ACAD_REACTORS
330
C
102
}
100
AcDbDictionary
281
1
  0
DICTIONARY
  5
1A
102
{ACAD_REACTORS
330
C
102
}
100
AcDbDictionary
281
1
  3
Layout1
350
1E
  3
Model
350
22
  0
ACDBPLACEHOLDER
  5
F
102
{ACAD_REACTORS
330
E
102
}
  0
MLINESTYLE
  5
18
102
{ACAD_REACTORS
330
17
102
}
100
AcDbMlineStyle
  2
STANDARD
 70
0
  3

 62
256
 51
90.0
 52
90.0
 71
2
 49
0.5
 62
256
  6
BYLAYER
 49
-0.5
 62
256
  6
BYLAYER
  0
LAYOUT
  5
1E
102
{ACAD_REACTORS
330
1A
102
}
100
AcDbPlotSettings
  1

  2

  4

  6

 40
0.0
 41
0.0
 42
0.0
 43
0.0
 44
0.0
 45
0.0
 46
0.0
 47
0.0
 48
0.0
 49
0.0
140
0.0
141
0.0
142
1.0
143
1.0
 70
0
 72
0
 73
0
 74
0
  7

 75
0
147
1.0
148
0.0
149
0.0
100
AcDbLayout
  1
Layout1
 70
0
 71
0
 10
0.0
 20
0.0
 11
0.0
 21
0.0
 12
0.0
 22
0.0
 32
0.0
 14
0.0
 24
0.0
 34
0.0
 15
0.0
 25
0.0
 35
0.0
146
0.0
 13
0.0
 23
0.0
 33
0.0
 16
0.0
 26
0.0
 36
0.0
 17
0.0
 27
0.0
 37
0.0
 76
0
330
1B
331
0
345
0
346
0
  0
LAYOUT
  5
22
102
{ACAD_REACTORS
330
1A
102
}
100
AcDbPlotSettings
  1

  2

  4

  6

 40
0.0
 41
0.0
 42
0.0
 43
0.0
 44
0.0
 45
0.0
 46
0.0
 47
0.0
 48
0.0
 49
0.0
140
0.0
141
0.0
142
1.0
143
1.0
 70
0
 72
0
 73
0
 74
0
  7

 75
0
147
1.0
148
0.0
149
0.0
100
AcDbLayout
  1
Model
 70
0
 71
0
 10
0.0
 20
0.0
 11
0.0
 21
0.0
 12
0.0
 22
0.0
 32
0.0
 14
0.0
 24
0.0
 34
0.0
 15
0.0
 25
0.0
 35
0.0
146
0.0
 13
0.0
 23
0.0
 33
0.0
 16
0.0
 26
0.0
 36
0.0
 17
0.0
 27
0.0
 37
0.0
 76
0
330
1F
331
0
345
0
346
0
  0
ENDSEC
  0
EOF
