999
DXF file: EB8_7.dxf
999
Pro/ENGINEER 2006240 by Parametric Technology Corporation
  0
SECTION
  2
HEADER
  9
$ACADVER
  1
AC1015
  9
$DWGCODEPAGE
  3
ANSI_1252
  9
$EXTMAX
 10
22.0
 20
17.0
 30
0.0
  9
$EXTMIN
 10
0.0
 20
0.0
 30
0.0
  9
$LIMMIN
 10
0.0
 20
0.0
  9
$LIMMAX
 10
22.0
 20
17.0
  9
$VIEWCTR
 10
11.0
 20
8.5
  9
$VIEWSIZE
 40
17.0
  9
$CLAYER
  8
0
  9
$LTSCALE
 40
1.21
  9
$CELTYPE
  6
BYLAYER
  9
$DIMSCALE
 40
1.0
  9
$DIMASZ
 40
0.1875
  9
$DIMEXO
 40
0.1375
  9
$DIMDLI
 40
0.836
  9
$DIMEXE
 40
0.396
  9
$DIMCEN
 40
0.198
  9
$DIMLFAC
 40
1.0
  9
$DIMBLK
  1
_CLOSED
  9
$DIMTXT
 40
0.15625
  9
$DIMTOL
 70
0
  9
$DIMLIM
 70
0
  9
$DIMTFAC
 40
1.0
  9
$PDMODE
 70
3
  9
$PDSIZE
 40
0.3125
  9
$HANDSEED
  5
58B
  9
$MEASUREMENT
 70
0
  9
$INSUNITS
 70
1
  0
ENDSEC
  0
SECTION
  2
CLASSES
  0
CLASS
  1
ACDBDICTIONARYWDFLT
  2
AcDbDictionaryWithDefault
  3
AutoCAD 2000
 90
0
280
0
281
0
  0
CLASS
  1
ACDBPLACEHOLDER
  2
AcDbPlaceHolder
  3
AutoCAD 2000
 90
0
280
0
281
0
  0
CLASS
  1
LAYOUT
  2
AcDbLayout
  3
AutoCAD 2000
 90
0
280
0
281
0
  0
ENDSEC
  0
SECTION
  2
TABLES
  0
TABLE
  2
VPORT
  5
8
100
AcDbSymbolTable
 70
2
  0
VPORT
  5
1F4
100
AcDbSymbolTableRecord
100
AcDbViewportTableRecord
  2
*ACTIVE
 70
0
 10
0.0
 20
0.0
 11
1.0
 21
1.0
 12
11.0
 22
8.5
 13
0.0
 23
0.0
 14
1.0
 24
1.0
 15
0.0
 25
0.0
 16
0.0
 26
0.0
 36
1.0
 17
0.0
 27
0.0
 37
0.0
 40
17.0
 41
1.2941176471
 42
50.0
 43
0.0
 44
0.0
 50
0.0
 51
0.0
 71
0
 72
100
 73
1
 74
1
 75
0
 76
0
 77
0
 78
0
  0
ENDTAB
  0
TABLE
  2
LTYPE
  5
5
100
AcDbSymbolTable
 70
6
  0
LTYPE
  5
14
100
AcDbSymbolTableRecord
100
AcDbLinetypeTableRecord
  2
BYBLOCK
 70
0
  3

 72
65
 73
0
 40
0.0
  0
LTYPE
  5
15
100
AcDbSymbolTableRecord
100
AcDbLinetypeTableRecord
  2
BYLAYER
 70
0
  3

 72
65
 73
0
 40
0.0
  0
LTYPE
  5
16
100
AcDbSymbolTableRecord
100
AcDbLinetypeTableRecord
  2
CONTINUOUS
 70
64
  3
Solid line
 72
65
 73
0
 40
0.0
  0
LTYPE
  5
1F5
100
AcDbSymbolTableRecord
100
AcDbLinetypeTableRecord
  2
CENTER
 70
64
  3
____ _ ____ _ ____ _ ____ _ ____ _ ____ _ ____
 72
65
 73
4
 40
0.6
 49
0.375
 74
0
 49
-0.075
 74
0
 49
0.075
 74
0
 49
-0.075
 74
0
  0
LTYPE
  5
1F6
100
AcDbSymbolTableRecord
100
AcDbLinetypeTableRecord
  2
HIDDEN
 70
64
  3
- - - - - - - - - - - - - - - - - - - -
 72
65
 73
2
 40
0.2
 49
0.1
 74
0
 49
-0.1
 74
0
  0
LTYPE
  5
1F7
100
AcDbSymbolTableRecord
100
AcDbLinetypeTableRecord
  2
PHANTOM
 70
64
  3
_____ _ _ _____ _ _ _____ _ _ _____
 72
65
 73
6
 40
0.8
 49
0.45
 74
0
 49
-0.05
 74
0
 49
0.1
 74
0
 49
-0.05
 74
0
 49
0.1
 74
0
 49
-0.05
 74
0
  0
LTYPE
  5
1F8
100
AcDbSymbolTableRecord
100
AcDbLinetypeTableRecord
  2
DOT
 70
64
  3
. . . . . . . . . . . . . . . . . . . .
 72
65
 73
2
 40
0.2
 49
0.1
 74
0
 49
-0.1
 74
0
  0
LTYPE
  5
1F9
100
AcDbSymbolTableRecord
100
AcDbLinetypeTableRecord
  2
DASHED
 70
64
  3
- - - - - - - - - - - - - - - - - - - -
 72
65
 73
2
 40
0.2
 49
0.1
 74
0
 49
-0.1
 74
0
  0
ENDTAB
  0
TABLE
  2
LAYER
  5
2
100
AcDbSymbolTable
 70
36
  0
LAYER
  5
10
100
AcDbSymbolTableRecord
100
AcDbLayerTableRecord
  2
0
 70
0
 62
7
  6
CONTINUOUS
370
-3
390
F
  0
LAYER
  5
1FA
100
AcDbSymbolTableRecord
100
AcDbLayerTableRecord
  2
DEFAULT_1
 70
0
 62
7
  6
CENTER
370
-3
390
F
  0
LAYER
  5
1FB
100
AcDbSymbolTableRecord
100
AcDbLayerTableRecord
  2
DEFAULT_2
 70
0
 62
8
  6
HIDDEN
370
-3
390
F
  0
LAYER
  5
1FC
100
AcDbSymbolTableRecord
100
AcDbLayerTableRecord
  2
DEFAULT_3
 70
0
 62
7
  6
PHANTOM
370
-3
390
F
  0
LAYER
  5
1FD
100
AcDbSymbolTableRecord
100
AcDbLayerTableRecord
  2
01_ALL_DTM_PLN
 70
0
 62
7
  6
CONTINUOUS
370
-3
390
F
  0
LAYER
  5
1FE
100
AcDbSymbolTableRecord
100
AcDbLayerTableRecord
  2
01__ASM_ALL_DTM_PLN
 70
0
 62
7
  6
CONTINUOUS
370
-3
390
F
  0
LAYER
  5
1FF
100
AcDbSymbolTableRecord
100
AcDbLayerTableRecord
  2
01__ASM_DEF_DTM_PLN
 70
0
 62
7
  6
CONTINUOUS
370
-3
390
F
  0
LAYER
  5
200
100
AcDbSymbolTableRecord
100
AcDbLayerTableRecord
  2
01___PRT_ALL_DTM_PLN
 70
0
 62
7
  6
CONTINUOUS
370
-3
390
F
  0
LAYER
  5
201
100
AcDbSymbolTableRecord
100
AcDbLayerTableRecord
  2
01___PRT_DEF_DTM_PLN
 70
0
 62
7
  6
CONTINUOUS
370
-3
390
F
  0
LAYER
  5
202
100
AcDbSymbolTableRecord
100
AcDbLayerTableRecord
  2
02_ALL_AXES
 70
0
 62
7
  6
CONTINUOUS
370
-3
390
F
  0
LAYER
  5
203
100
AcDbSymbolTableRecord
100
AcDbLayerTableRecord
  2
02__ASM_ALL_AXES
 70
0
 62
7
  6
CONTINUOUS
370
-3
390
F
  0
LAYER
  5
204
100
AcDbSymbolTableRecord
100
AcDbLayerTableRecord
  2
02___PRT_ALL_AXES
 70
0
 62
7
  6
CONTINUOUS
370
-3
390
F
  0
LAYER
  5
205
100
AcDbSymbolTableRecord
100
AcDbLayerTableRecord
  2
03_ALL_CURVES
 70
0
 62
7
  6
CONTINUOUS
370
-3
390
F
  0
LAYER
  5
206
100
AcDbSymbolTableRecord
100
AcDbLayerTableRecord
  2
03__ASM_ALL_CURVES
 70
0
 62
7
  6
CONTINUOUS
370
-3
390
F
  0
LAYER
  5
207
100
AcDbSymbolTableRecord
100
AcDbLayerTableRecord
  2
03___PRT_ALL_CURVES
 70
0
 62
7
  6
CONTINUOUS
370
-3
390
F
  0
LAYER
  5
208
100
AcDbSymbolTableRecord
100
AcDbLayerTableRecord
  2
04_ALL_DTM_PNT
 70
0
 62
7
  6
CONTINUOUS
370
-3
390
F
  0
LAYER
  5
209
100
AcDbSymbolTableRecord
100
AcDbLayerTableRecord
  2
04__ASM_ALL_DTM_PNT
 70
0
 62
7
  6
CONTINUOUS
370
-3
390
F
  0
LAYER
  5
20A
100
AcDbSymbolTableRecord
100
AcDbLayerTableRecord
  2
04___PRT_ALL_DTM_PNT
 70
0
 62
7
  6
CONTINUOUS
370
-3
390
F
  0
LAYER
  5
20B
100
AcDbSymbolTableRecord
100
AcDbLayerTableRecord
  2
05_ALL_DTM_CSYS
 70
0
 62
7
  6
CONTINUOUS
370
-3
390
F
  0
LAYER
  5
20C
100
AcDbSymbolTableRecord
100
AcDbLayerTableRecord
  2
05__ASM_ALL_DTM_CSYS
 70
0
 62
7
  6
CONTINUOUS
370
-3
390
F
  0
LAYER
  5
20D
100
AcDbSymbolTableRecord
100
AcDbLayerTableRecord
  2
05__ASM_DEF_DTM_CSYS
 70
0
 62
7
  6
CONTINUOUS
370
-3
390
F
  0
LAYER
  5
20E
100
AcDbSymbolTableRecord
100
AcDbLayerTableRecord
  2
05___PRT_ALL_DTM_CSYS
 70
0
 62
7
  6
CONTINUOUS
370
-3
390
F
  0
LAYER
  5
20F
100
AcDbSymbolTableRecord
100
AcDbLayerTableRecord
  2
05___PRT_DEF_DTM_CSYS
 70
0
 62
7
  6
CONTINUOUS
370
-3
390
F
  0
LAYER
  5
210
100
AcDbSymbolTableRecord
100
AcDbLayerTableRecord
  2
06_ALL_SURFS
 70
0
 62
7
  6
CONTINUOUS
370
-3
390
F
  0
LAYER
  5
211
100
AcDbSymbolTableRecord
100
AcDbLayerTableRecord
  2
06__ASM_ALL_SURFS
 70
0
 62
7
  6
CONTINUOUS
370
-3
390
F
  0
LAYER
  5
212
100
AcDbSymbolTableRecord
100
AcDbLayerTableRecord
  2
06___PRT_ALL_SURFS
 70
0
 62
7
  6
CONTINUOUS
370
-3
390
F
  0
LAYER
  5
213
100
AcDbSymbolTableRecord
100
AcDbLayerTableRecord
  2
07__ASM_ALL_SKELETONS
 70
0
 62
7
  6
CONTINUOUS
370
-3
390
F
  0
LAYER
  5
214
100
AcDbSymbolTableRecord
100
AcDbLayerTableRecord
  2
COPY_GEO_FET
 70
0
 62
7
  6
CONTINUOUS
370
-3
390
F
  0
LAYER
  5
215
100
AcDbSymbolTableRecord
100
AcDbLayerTableRecord
  2
COSMETIC
 70
0
 62
7
  6
CONTINUOUS
370
-3
390
F
  0
LAYER
  5
216
100
AcDbSymbolTableRecord
100
AcDbLayerTableRecord
  2
CUT_REF_SURF
 70
0
 62
7
  6
CONTINUOUS
370
-3
390
F
  0
LAYER
  5
217
100
AcDbSymbolTableRecord
100
AcDbLayerTableRecord
  2
DATESTAMP
 70
0
 62
7
  6
CONTINUOUS
370
-3
390
F
  0
LAYER
  5
218
100
AcDbSymbolTableRecord
100
AcDbLayerTableRecord
  2
DATUM
 70
0
 62
7
  6
CONTINUOUS
370
-3
390
F
  0
LAYER
  5
219
100
AcDbSymbolTableRecord
100
AcDbLayerTableRecord
  2
DATUM_B
 70
0
 62
7
  6
CONTINUOUS
370
-3
390
F
  0
LAYER
  5
21A
100
AcDbSymbolTableRecord
100
AcDbLayerTableRecord
  2
DATUM_PLANES
 70
0
 62
7
  6
CONTINUOUS
370
-3
390
F
  0
LAYER
  5
21B
100
AcDbSymbolTableRecord
100
AcDbLayerTableRecord
  2
DIM
 70
0
 62
7
  6
CONTINUOUS
370
-3
390
F
  0
LAYER
  5
21C
100
AcDbSymbolTableRecord
100
AcDbLayerTableRecord
  2
DIMENSIONS
 70
0
 62
7
  6
CONTINUOUS
370
-3
390
F
  0
LAYER
  5
21D
100
AcDbSymbolTableRecord
100
AcDbLayerTableRecord
  2
DIM_1
 70
0
 62
7
  6
CONTINUOUS
370
-3
390
F
  0
LAYER
  5
21E
100
AcDbSymbolTableRecord
100
AcDbLayerTableRecord
  2
DIM_2
 70
0
 62
7
  6
CONTINUOUS
370
-3
390
F
  0
LAYER
  5
21F
100
AcDbSymbolTableRecord
100
AcDbLayerTableRecord
  2
DIM_3
 70
0
 62
7
  6
CONTINUOUS
370
-3
390
F
  0
LAYER
  5
220
100
AcDbSymbolTableRecord
100
AcDbLayerTableRecord
  2
DIM_4
 70
0
 62
7
  6
CONTINUOUS
370
-3
390
F
  0
LAYER
  5
221
100
AcDbSymbolTableRecord
100
AcDbLayerTableRecord
  2
DIM_5
 70
0
 62
7
  6
CONTINUOUS
370
-3
390
F
  0
LAYER
  5
222
100
AcDbSymbolTableRecord
100
AcDbLayerTableRecord
  2
DIM_6
 70
0
 62
7
  6
CONTINUOUS
370
-3
390
F
  0
LAYER
  5
223
100
AcDbSymbolTableRecord
100
AcDbLayerTableRecord
  2
DIM_7
 70
0
 62
7
  6
CONTINUOUS
370
-3
390
F
  0
LAYER
  5
224
100
AcDbSymbolTableRecord
100
AcDbLayerTableRecord
  2
DTM
 70
0
 62
7
  6
CONTINUOUS
370
-3
390
F
  0
LAYER
  5
225
100
AcDbSymbolTableRecord
100
AcDbLayerTableRecord
  2
EB8_10
 70
0
 62
7
  6
CONTINUOUS
370
-3
390
F
  0
LAYER
  5
226
100
AcDbSymbolTableRecord
100
AcDbLayerTableRecord
  2
EB8_2
 70
0
 62
7
  6
CONTINUOUS
370
-3
390
F
  0
LAYER
  5
227
100
AcDbSymbolTableRecord
100
AcDbLayerTableRecord
  2
EB8_5
 70
0
 62
7
  6
CONTINUOUS
370
-3
390
F
  0
LAYER
  5
228
100
AcDbSymbolTableRecord
100
AcDbLayerTableRecord
  2
EB8_6
 70
0
 62
7
  6
CONTINUOUS
370
-3
390
F
  0
LAYER
  5
229
100
AcDbSymbolTableRecord
100
AcDbLayerTableRecord
  2
EB8_7
 70
0
 62
7
  6
CONTINUOUS
370
-3
390
F
  0
LAYER
  5
22A
100
AcDbSymbolTableRecord
100
AcDbLayerTableRecord
  2
EB8_8
 70
0
 62
7
  6
CONTINUOUS
370
-3
390
F
  0
LAYER
  5
22B
100
AcDbSymbolTableRecord
100
AcDbLayerTableRecord
  2
EXT_COPY_GEO
 70
0
 62
7
  6
CONTINUOUS
370
-3
390
F
  0
LAYER
  5
22C
100
AcDbSymbolTableRecord
100
AcDbLayerTableRecord
  2
LS
 70
0
 62
7
  6
CONTINUOUS
370
-3
390
F
  0
LAYER
  5
22D
100
AcDbSymbolTableRecord
100
AcDbLayerTableRecord
  2
LS_1
 70
0
 62
7
  6
CONTINUOUS
370
-3
390
F
  0
LAYER
  5
22E
100
AcDbSymbolTableRecord
100
AcDbLayerTableRecord
  2
ORIGIN
 70
0
 62
7
  6
CONTINUOUS
370
-3
390
F
  0
LAYER
  5
22F
100
AcDbSymbolTableRecord
100
AcDbLayerTableRecord
  2
PARAMETERDIMENSIONS
 70
0
 62
7
  6
CONTINUOUS
370
-3
390
F
  0
LAYER
  5
230
100
AcDbSymbolTableRecord
100
AcDbLayerTableRecord
  2
PARTNUMBER
 70
0
 62
7
  6
CONTINUOUS
370
-3
390
F
  0
LAYER
  5
231
100
AcDbSymbolTableRecord
100
AcDbLayerTableRecord
  2
PORT_AREAS
 70
0
 62
7
  6
CONTINUOUS
370
-3
390
F
  0
LAYER
  5
232
100
AcDbSymbolTableRecord
100
AcDbLayerTableRecord
  2
TEXT
 70
0
 62
7
  6
CONTINUOUS
370
-3
390
F
  0
LAYER
  5
233
100
AcDbSymbolTableRecord
100
AcDbLayerTableRecord
  2
THREAD
 70
0
 62
7
  6
CONTINUOUS
370
-3
390
F
  0
LAYER
  5
234
100
AcDbSymbolTableRecord
100
AcDbLayerTableRecord
  2
THREADS
 70
0
 62
7
  6
CONTINUOUS
370
-3
390
F
  0
ENDTAB
  0
TABLE
  2
STYLE
  5
3
100
AcDbSymbolTable
 70
1
  0
STYLE
  5
11
100
AcDbSymbolTableRecord
100
AcDbTextStyleTableRecord
  2
STANDARD
 70
0
 40
0.0
 41
0.8
 50
0.0
 71
0
 42
0.2
  3
txt
  4

  0
ENDTAB
  0
TABLE
  2
VIEW
  5
6
100
AcDbSymbolTable
 70
0
  0
ENDTAB
  0
TABLE
  2
UCS
  5
7
100
AcDbSymbolTable
 70
0
  0
ENDTAB
  0
TABLE
  2
APPID
  5
9
100
AcDbSymbolTable
 70
1
  0
APPID
  5
235
100
AcDbSymbolTableRecord
100
AcDbRegAppTableRecord
  2
ACAD
 70
0
  0
ENDTAB
  0
TABLE
  2
BLOCK_RECORD
  5
1
100
AcDbSymbolTable
 70
0
  0
BLOCK_RECORD
  5
1F
100
AcDbSymbolTableRecord
100
AcDbBlockTableRecord
  2
*MODEL_SPACE
  0
BLOCK_RECORD
  5
1B
100
AcDbSymbolTableRecord
100
AcDbBlockTableRecord
  2
*PAPER_SPACE
  0
ENDTAB
  0
TABLE
  2
DIMSTYLE
  5
A
100
AcDbSymbolTable
 70
1
100
AcDbDimStyleTable
 71
0
  0
DIMSTYLE
105
236
100
AcDbSymbolTableRecord
100
AcDbDimStyleTableRecord
  2
STANDARD
 70
0
  3

  4

 40
1.0
 41
0.1875
 42
0.0625
 43
0.38
 44
0.18
 45
0.0
 46
0.0
 47
0.01
 48
0.01
140
0.15625
141
0.09
142
0.0
143
25.4
144
1.0
145
0.0
146
1.0
147
0.09
 71
0.0
 72
0.0
 73
1
 74
1
 75
0
 76
0
 77
0
 78
4
170
0
171
2
172
0
173
0
174
0
175
0
176
0
177
0
178
0
270
2
271
2
272
2
273
2
274
2
275
0
280
0
281
0
282
0
283
1
284
4
285
0
286
0
287
3
288
0
340
11
  0
ENDTAB
  0
ENDSEC
  0
SECTION
  2
BLOCKS
  0
BLOCK
  5
20
100
AcDbEntity
  8
0
100
AcDbBlockBegin
  2
*MODEL_SPACE
 70
0
 10
0.0
 20
0.0
 30
0.0
  3
*MODEL_SPACE
  1

  0
ENDBLK
  5
21
100
AcDbEntity
  8
0
100
AcDbBlockEnd
  0
BLOCK
  5
1C
100
AcDbEntity
  8
0
100
AcDbBlockBegin
  2
*PAPER_SPACE
 70
0
 10
0.0
 20
0.0
 30
0.0
  3
*PAPER_SPACE
  1

  0
ENDBLK
  5
1D
100
AcDbEntity
  8
0
100
AcDbBlockEnd
  0
ENDSEC
  0
SECTION
  2
ENTITIES
  0
LINE
  5
237
100
AcDbEntity
  8
03__ASM_ALL_CURVES
100
AcDbLine
 62
4
  6
CONTINUOUS
 10
10.8125227091
 20
6.2324051808
 11
10.8050227091
 21
6.2324051808
  0
LINE
  5
238
100
AcDbEntity
  8
03__ASM_ALL_CURVES
100
AcDbLine
 62
4
  6
CONTINUOUS
 10
10.3975227091
 20
6.2324051808
 11
10.3875227091
 21
6.2324051808
  0
LINE
  5
239
100
AcDbEntity
  8
03__ASM_ALL_CURVES
100
AcDbLine
 62
4
  6
CONTINUOUS
 10
10.2525227091
 20
6.2324051808
 11
10.2450227091
 21
6.2324051808
  0
LINE
  5
23A
100
AcDbEntity
  8
03__ASM_ALL_CURVES
100
AcDbLine
 62
4
  6
CONTINUOUS
 10
10.1325227091
 20
6.2324051808
 11
10.1725227091
 21
6.2324051808
  0
LINE
  5
23B
100
AcDbEntity
  8
03__ASM_ALL_CURVES
100
AcDbLine
 62
4
  6
CONTINUOUS
 10
10.9325227091
 20
6.2324051808
 11
10.9725227091
 21
6.2324051808
  0
LINE
  5
23C
100
AcDbEntity
  8
03__ASM_ALL_CURVES
100
AcDbLine
 62
4
  6
CONTINUOUS
 10
10.2925227091
 20
6.2524051808
 11
10.3375227091
 21
6.2524051808
  0
LINE
  5
23D
100
AcDbEntity
  8
0
100
AcDbLine
 62
7
  6
CONTINUOUS
 10
9.6325227091
 20
6.272405217
 11
7.8825227091
 21
6.272405217
  0
LINE
  5
23E
100
AcDbEntity
  8
03__ASM_ALL_CURVES
100
AcDbLine
 62
4
  6
CONTINUOUS
 10
9.7125227091
 20
6.2724051808
 11
9.9525227091
 21
6.2724051808
  0
LINE
  5
23F
100
AcDbEntity
  8
03__ASM_ALL_CURVES
100
AcDbLine
 62
4
  6
CONTINUOUS
 10
10.3875227091
 20
6.2790718458
 11
10.3975227091
 21
6.2790718458
  0
LINE
  5
240
100
AcDbEntity
  8
0
100
AcDbLine
 62
7
  6
CONTINUOUS
 10
9.1945227091
 20
6.2884051989
 11
8.3195227091
 21
6.2884051989
  0
LINE
  5
241
100
AcDbEntity
  8
03__ASM_ALL_CURVES
100
AcDbLine
 62
4
  6
CONTINUOUS
 10
10.8925227091
 20
6.3124051808
 11
10.8525227091
 21
6.3124051808
  0
LINE
  5
242
100
AcDbEntity
  8
03__ASM_ALL_CURVES
100
AcDbLine
 62
4
  6
CONTINUOUS
 10
10.1475227091
 20
6.3124051808
 11
10.1575227091
 21
6.3124051808
  0
LINE
  5
243
100
AcDbEntity
  8
03__ASM_ALL_CURVES
100
AcDbLine
 62
4
  6
CONTINUOUS
 10
10.3875227091
 20
6.3124051808
 11
10.3975227091
 21
6.3124051808
  0
LINE
  5
244
100
AcDbEntity
  8
03__ASM_ALL_CURVES
100
AcDbLine
 62
4
  6
CONTINUOUS
 10
10.9475227091
 20
6.3124051808
 11
10.9575227091
 21
6.3124051808
  0
LINE
  5
245
100
AcDbEntity
  8
0
100
AcDbLine
 62
7
  6
CONTINUOUS
 10
9.1945227091
 20
6.3194051989
 11
8.3195227091
 21
6.3194051989
  0
LINE
  5
246
100
AcDbEntity
  8
03__ASM_ALL_CURVES
100
AcDbLine
 62
4
  6
CONTINUOUS
 10
7.8425227091
 20
10.1054051808
 11
7.855856044
 21
10.1154051808
  0
LINE
  5
247
100
AcDbEntity
  8
03__ASM_ALL_CURVES
100
AcDbLine
 62
4
  6
CONTINUOUS
 10
7.8425227091
 20
9.4904051808
 11
7.8425227091
 21
9.4604051808
  0
LINE
  5
248
100
AcDbEntity
  8
03__ASM_ALL_CURVES
100
AcDbLine
 62
4
  6
CONTINUOUS
 10
7.8425227091
 20
9.4104051808
 11
7.8425227091
 21
9.3704051808
  0
LINE
  5
249
100
AcDbEntity
  8
03__ASM_ALL_CURVES
100
AcDbLine
 62
4
  6
CONTINUOUS
 10
7.8691893742
 20
9.4654051808
 11
7.8691893742
 21
9.4754051808
  0
LINE
  5
24A
100
AcDbEntity
  8
0
100
AcDbLine
 62
7
  6
CONTINUOUS
 10
7.8825227091
 20
6.272405217
 11
7.8825227091
 21
8.7104051808
  0
LINE
  5
24B
100
AcDbEntity
  8
03__ASM_ALL_CURVES
100
AcDbLine
 62
4
  6
CONTINUOUS
 10
7.8825227091
 20
8.7904051808
 11
7.8825227091
 21
9.0304051808
  0
LINE
  5
24C
100
AcDbEntity
  8
03__ASM_ALL_CURVES
100
AcDbLine
 62
4
  6
CONTINUOUS
 10
7.9025227091
 20
9.6904051808
 11
7.9025227091
 21
9.7354051808
  0
LINE
  5
24D
100
AcDbEntity
  8
03__ASM_ALL_CURVES
100
AcDbLine
 62
4
  6
CONTINUOUS
 10
7.9025227091
 20
9.7704051808
 11
7.9025227091
 21
9.8154051808
  0
LINE
  5
24E
100
AcDbEntity
  8
03__ASM_ALL_CURVES
100
AcDbLine
 62
4
  6
CONTINUOUS
 10
7.9025227091
 20
9.9304051808
 11
7.9025227091
 21
9.9754051808
  0
LINE
  5
24F
100
AcDbEntity
  8
03__ASM_ALL_CURVES
100
AcDbLine
 62
4
  6
CONTINUOUS
 10
7.9025227091
 20
10.0104051808
 11
7.9025227091
 21
10.0554051808
  0
LINE
  5
250
100
AcDbEntity
  8
03__ASM_ALL_CURVES
100
AcDbLine
 62
4
  6
CONTINUOUS
 10
7.9225227091
 20
9.8904051808
 11
7.9225227091
 21
9.8829051808
  0
LINE
  5
251
100
AcDbEntity
  8
03__ASM_ALL_CURVES
100
AcDbLine
 62
4
  6
CONTINUOUS
 10
7.9225227091
 20
9.4754051808
 11
7.9225227091
 21
9.4654051808
  0
LINE
  5
252
100
AcDbEntity
  8
03__ASM_ALL_CURVES
100
AcDbLine
 62
4
  6
CONTINUOUS
 10
7.9225227091
 20
9.3304051808
 11
7.9225227091
 21
9.3229051808
  0
LINE
  5
253
100
AcDbEntity
  8
0
100
AcDbLine
 62
7
  6
CONTINUOUS
 10
7.9445227091
 20
6.6634051989
 11
7.9445227091
 21
8.3194051989
  0
LINE
  5
254
100
AcDbEntity
  8
0
100
AcDbLine
 62
7
  6
CONTINUOUS
 10
7.9755227091
 20
6.6634051989
 11
7.9755227091
 21
8.3194051989
  0
LINE
  5
255
100
AcDbEntity
  8
03__ASM_ALL_CURVES
100
AcDbLine
 62
4
  6
CONTINUOUS
 10
7.8691893742
 20
9.4754051808
 11
7.875856044
 21
9.4854051808
  0
LINE
  5
256
100
AcDbEntity
  8
03__ASM_ALL_CURVES
100
AcDbLine
 62
4
  6
CONTINUOUS
 10
7.9225227091
 20
9.4654051808
 11
7.9158560422
 21
9.4554051808
  0
LINE
  5
257
100
AcDbEntity
  8
03__ASM_ALL_CURVES
100
AcDbLine
 62
4
  6
CONTINUOUS
 10
7.9125227088
 20
9.8829051808
 11
7.9225227091
 21
9.8904051808
  0
LINE
  5
258
100
AcDbEntity
  8
0
100
AcDbLine
 62
7
  6
CONTINUOUS
 10
7.9755227091
 20
6.6634051989
 11
7.9445227091
 21
6.6634051989
  0
LINE
  5
259
100
AcDbEntity
  8
0
100
AcDbLine
 62
7
  6
CONTINUOUS
 10
9.5385227091
 20
6.6634051989
 11
9.5695227091
 21
6.6634051989
  0
LINE
  5
25A
100
AcDbEntity
  8
03__ASM_ALL_CURVES
100
AcDbLine
 62
4
  6
CONTINUOUS
 10
10.6325227091
 20
6.2790718458
 11
10.6475227091
 21
6.2724051808
  0
LINE
  5
25B
100
AcDbEntity
  8
03__ASM_ALL_CURVES
100
AcDbLine
 62
4
  6
CONTINUOUS
 10
10.1575227091
 20
6.3124051808
 11
10.1675227091
 21
6.3057385157
  0
LINE
  5
25C
100
AcDbEntity
  8
03__ASM_ALL_CURVES
100
AcDbLine
 62
4
  6
CONTINUOUS
 10
8.4985227091
 20
10.0354051808
 11
8.5051893742
 21
10.0454051808
  0
LINE
  5
25D
100
AcDbEntity
  8
03__ASM_ALL_CURVES
100
AcDbLine
 62
4
  6
CONTINUOUS
 10
8.531856044
 20
10.0354051808
 11
8.5385227091
 21
10.0454051808
  0
LINE
  5
25E
100
AcDbEntity
  8
03__ASM_ALL_CURVES
100
AcDbLine
 62
4
  6
CONTINUOUS
 10
8.531856044
 20
10.0254051808
 11
8.5251893742
 21
10.0154051808
  0
LINE
  5
25F
100
AcDbEntity
  8
03__ASM_ALL_CURVES
100
AcDbLine
 62
4
  6
CONTINUOUS
 10
8.4985227091
 20
9.9504051808
 11
8.5051893742
 21
9.9604051808
  0
LINE
  5
260
100
AcDbEntity
  8
03__ASM_ALL_CURVES
100
AcDbLine
 62
4
  6
CONTINUOUS
 10
8.5785227091
 20
10.0254051808
 11
8.5718560422
 21
10.0154051808
  0
LINE
  5
261
100
AcDbEntity
  8
03__ASM_ALL_CURVES
100
AcDbLine
 62
4
  6
CONTINUOUS
 10
8.5785227091
 20
9.9504051808
 11
8.5718560422
 21
9.9404051808
  0
LINE
  5
262
100
AcDbEntity
  8
03__ASM_ALL_CURVES
100
AcDbLine
 62
4
  6
CONTINUOUS
 10
8.4985227091
 20
10.1054051808
 11
8.511856044
 21
10.1154051808
  0
LINE
  5
263
100
AcDbEntity
  8
03__ASM_ALL_CURVES
100
AcDbLine
 62
4
  6
CONTINUOUS
 10
7.9091893754
 20
9.6254051808
 11
7.9225227091
 21
9.6354051808
  0
LINE
  5
264
100
AcDbEntity
  8
03__ASM_ALL_CURVES
100
AcDbLine
 62
4
  6
CONTINUOUS
 10
8.5051893742
 20
10.0454051808
 11
8.511856044
 21
10.0504051808
  0
LINE
  5
265
100
AcDbEntity
  8
03__ASM_ALL_CURVES
100
AcDbLine
 62
4
  6
CONTINUOUS
 10
8.5385227091
 20
10.0454051808
 11
8.5518560416
 21
10.0554051808
  0
LINE
  5
266
100
AcDbEntity
  8
03__ASM_ALL_CURVES
100
AcDbLine
 62
4
  6
CONTINUOUS
 10
8.5251893742
 20
10.0154051808
 11
8.5185227091
 21
10.0104051808
  0
LINE
  5
267
100
AcDbEntity
  8
03__ASM_ALL_CURVES
100
AcDbLine
 62
4
  6
CONTINUOUS
 10
10.8125227091
 20
6.8424051808
 11
10.8050227091
 21
6.8424051808
  0
LINE
  5
268
100
AcDbEntity
  8
03__ASM_ALL_CURVES
100
AcDbLine
 62
4
  6
CONTINUOUS
 10
10.3175227091
 20
6.8424051808
 11
10.3075227091
 21
6.8424051808
  0
LINE
  5
269
100
AcDbEntity
  8
03__ASM_ALL_CURVES
100
AcDbLine
 62
4
  6
CONTINUOUS
 10
10.2525227091
 20
6.8424051808
 11
10.2450227091
 21
6.8424051808
  0
LINE
  5
26A
100
AcDbEntity
  8
03__ASM_ALL_CURVES
100
AcDbLine
 62
4
  6
CONTINUOUS
 10
10.3725227091
 20
6.8424051808
 11
10.4125227091
 21
6.8424051808
  0
LINE
  5
26B
100
AcDbEntity
  8
03__ASM_ALL_CURVES
100
AcDbLine
 62
4
  6
CONTINUOUS
 10
10.8525227091
 20
6.8424051808
 11
10.8925227091
 21
6.8424051808
  0
LINE
  5
26C
100
AcDbEntity
  8
03__ASM_ALL_CURVES
100
AcDbLine
 62
4
  6
CONTINUOUS
 10
10.9325227091
 20
6.8424051808
 11
10.9725227091
 21
6.8424051808
  0
LINE
  5
26D
100
AcDbEntity
  8
03__ASM_ALL_CURVES
100
AcDbLine
 62
4
  6
CONTINUOUS
 10
10.6125227091
 20
6.8624051808
 11
10.6575227091
 21
6.8624051808
  0
LINE
  5
26E
100
AcDbEntity
  8
03__ASM_ALL_CURVES
100
AcDbLine
 62
4
  6
CONTINUOUS
 10
9.7125227091
 20
6.8824051808
 11
9.9525227091
 21
6.8824051808
  0
LINE
  5
26F
100
AcDbEntity
  8
03__ASM_ALL_CURVES
100
AcDbLine
 62
4
  6
CONTINUOUS
 10
10.3075227091
 20
6.8890718458
 11
10.3175227091
 21
6.8890718458
  0
LINE
  5
270
100
AcDbEntity
  8
03__ASM_ALL_CURVES
100
AcDbLine
 62
4
  6
CONTINUOUS
 10
10.3075227091
 20
6.9224051808
 11
10.3175227091
 21
6.9224051808
  0
LINE
  5
271
100
AcDbEntity
  8
03__ASM_ALL_CURVES
100
AcDbLine
 62
4
  6
CONTINUOUS
 10
10.3875227091
 20
6.9224051808
 11
10.3975227091
 21
6.9224051808
  0
LINE
  5
272
100
AcDbEntity
  8
03__ASM_ALL_CURVES
100
AcDbLine
 62
4
  6
CONTINUOUS
 10
10.8675227091
 20
6.9224051808
 11
10.8775227091
 21
6.9224051808
  0
LINE
  5
273
100
AcDbEntity
  8
03__ASM_ALL_CURVES
100
AcDbLine
 62
4
  6
CONTINUOUS
 10
10.9475227091
 20
6.9224051808
 11
10.9575227091
 21
6.9224051808
  0
LINE
  5
274
100
AcDbEntity
  8
03__ASM_ALL_CURVES
100
AcDbLine
 62
4
  6
CONTINUOUS
 10
10.3875227091
 20
6.2324051808
 11
10.3775227091
 21
6.2390718476
  0
LINE
  5
275
100
AcDbEntity
  8
03__ASM_ALL_CURVES
100
AcDbLine
 62
4
  6
CONTINUOUS
 10
10.3975227091
 20
6.2790718458
 11
10.4075227091
 21
6.2724051808
  0
LINE
  5
276
100
AcDbEntity
  8
03__ASM_ALL_CURVES
100
AcDbLine
 62
4
  6
CONTINUOUS
 10
10.3975227091
 20
6.3124051808
 11
10.4075227091
 21
6.3057385157
  0
LINE
  5
277
100
AcDbEntity
  8
03__ASM_ALL_CURVES
100
AcDbLine
 62
4
  6
CONTINUOUS
 10
10.6325227091
 20
6.2324051808
 11
10.6225227091
 21
6.2390718476
  0
LINE
  5
278
100
AcDbEntity
  8
0
100
AcDbLine
 62
7
  6
CONTINUOUS
 10
8.2694202366
 20
7.8997913944
 11
8.4878251816
 21
7.5215029331
  0
LINE
  5
279
100
AcDbEntity
  8
0
100
AcDbLine
 62
7
  6
CONTINUOUS
 10
8.3195227091
 20
6.3194051989
 11
8.3195227091
 21
6.2884051989
  0
LINE
  5
27A
100
AcDbEntity
  8
0
100
AcDbLine
 62
7
  6
CONTINUOUS
 10
8.3195227091
 20
8.6634051989
 11
8.3195227091
 21
8.6944051989
  0
LINE
  5
27B
100
AcDbEntity
  8
03__ASM_ALL_CURVES
100
AcDbLine
 62
4
  6
CONTINUOUS
 10
8.531856044
 20
9.9504051808
 11
8.5385227091
 21
9.9654051808
  0
LINE
  5
27C
100
AcDbEntity
  8
03__ASM_ALL_CURVES
100
AcDbLine
 62
4
  6
CONTINUOUS
 10
8.7641893766
 20
10.0304051808
 11
8.7575227091
 21
10.0154051808
  0
LINE
  5
27D
100
AcDbEntity
  8
03__ASM_ALL_CURVES
100
AcDbLine
 62
4
  6
CONTINUOUS
 10
8.5451893766
 20
9.4704051808
 11
8.5385227091
 21
9.4554051808
  0
LINE
  5
27E
100
AcDbEntity
  8
03__ASM_ALL_CURVES
100
AcDbLine
 62
4
  6
CONTINUOUS
 10
8.4985227091
 20
9.7154051808
 11
8.5051893742
 21
9.7254051808
  0
LINE
  5
27F
100
AcDbEntity
  8
03__ASM_ALL_CURVES
100
AcDbLine
 62
4
  6
CONTINUOUS
 10
8.7175227091
 20
10.0304051808
 11
8.7241893742
 21
10.0404051808
  0
LINE
  5
280
100
AcDbEntity
  8
03__ASM_ALL_CURVES
100
AcDbLine
 62
4
  6
CONTINUOUS
 10
8.7175227091
 20
9.9504051808
 11
8.7241893742
 21
9.9604051808
  0
LINE
  5
281
100
AcDbEntity
  8
03__ASM_ALL_CURVES
100
AcDbLine
 62
4
  6
CONTINUOUS
 10
8.7975227091
 20
10.0304051808
 11
8.7908560422
 21
10.0204051808
  0
LINE
  5
282
100
AcDbEntity
  8
03__ASM_ALL_CURVES
100
AcDbLine
 62
4
  6
CONTINUOUS
 10
8.7975227091
 20
9.9504051808
 11
8.7908560422
 21
9.9404051808
  0
LINE
  5
283
100
AcDbEntity
  8
03__ASM_ALL_CURVES
100
AcDbLine
 62
4
  6
CONTINUOUS
 10
8.4985227091
 20
9.4704051808
 11
8.5051893742
 21
9.4804051808
  0
LINE
  5
284
100
AcDbEntity
  8
03__ASM_ALL_CURVES
100
AcDbLine
 62
4
  6
CONTINUOUS
 10
8.7175227091
 20
9.7954051808
 11
8.7241893742
 21
9.8054051808
  0
LINE
  5
285
100
AcDbEntity
  8
03__ASM_ALL_CURVES
100
AcDbLine
 62
4
  6
CONTINUOUS
 10
8.5718560422
 20
10.0154051808
 11
8.5585227091
 21
10.0054051808
  0
LINE
  5
286
100
AcDbEntity
  8
03__ASM_ALL_CURVES
100
AcDbLine
 62
4
  6
CONTINUOUS
 10
8.5051893742
 20
9.9604051808
 11
8.511856044
 21
9.9654051808
  0
LINE
  5
287
100
AcDbEntity
  8
03__ASM_ALL_CURVES
100
AcDbLine
 62
4
  6
CONTINUOUS
 10
7.875856044
 20
9.4854051808
 11
7.8825227091
 21
9.4904051808
  0
LINE
  5
288
100
AcDbEntity
  8
03__ASM_ALL_CURVES
100
AcDbLine
 62
4
  6
CONTINUOUS
 10
8.7175227091
 20
10.1054051808
 11
8.730856044
 21
10.1154051808
  0
LINE
  5
289
100
AcDbEntity
  8
03__ASM_ALL_CURVES
100
AcDbLine
 62
4
  6
CONTINUOUS
 10
7.9158560422
 20
9.4554051808
 11
7.9091893754
 21
9.4504051808
  0
LINE
  5
28A
100
AcDbEntity
  8
03__ASM_ALL_CURVES
100
AcDbLine
 62
4
  6
CONTINUOUS
 10
8.5718560422
 20
9.9404051808
 11
8.5651893754
 21
9.9354051808
  0
LINE
  5
28B
100
AcDbEntity
  8
03__ASM_ALL_CURVES
100
AcDbLine
 62
4
  6
CONTINUOUS
 10
8.7241893742
 20
10.0404051808
 11
8.730856044
 21
10.0454051808
  0
LINE
  5
28C
100
AcDbEntity
  8
03__ASM_ALL_CURVES
100
AcDbLine
 62
4
  6
CONTINUOUS
 10
8.8605227091
 20
10.1054051808
 11
8.873856044
 21
10.1154051808
  0
LINE
  5
28D
100
AcDbEntity
  8
03__ASM_ALL_CURVES
100
AcDbLine
 62
4
  6
CONTINUOUS
 10
8.5685227088
 20
9.8829051808
 11
8.5785227091
 21
9.8904051808
  0
LINE
  5
28E
100
AcDbEntity
  8
03__ASM_ALL_CURVES
100
AcDbLine
 62
4
  6
CONTINUOUS
 10
8.7908560422
 20
10.0204051808
 11
8.7841893754
 21
10.0154051808
  0
LINE
  5
28F
100
AcDbEntity
  8
03__ASM_ALL_CURVES
100
AcDbLine
 62
4
  6
CONTINUOUS
 10
8.7241893742
 20
9.9604051808
 11
8.730856044
 21
9.9654051808
  0
LINE
  5
290
100
AcDbEntity
  8
03__ASM_ALL_CURVES
100
AcDbLine
 62
4
  6
CONTINUOUS
 10
7.9125227088
 20
9.3229051808
 11
7.9225227091
 21
9.3304051808
  0
LINE
  5
291
100
AcDbEntity
  8
03__ASM_ALL_CURVES
100
AcDbLine
 62
4
  6
CONTINUOUS
 10
8.7908560422
 20
9.9404051808
 11
8.7841893754
 21
9.9354051808
  0
LINE
  5
292
100
AcDbEntity
  8
03__ASM_ALL_CURVES
100
AcDbLine
 62
4
  6
CONTINUOUS
 10
8.5051893742
 20
9.7254051808
 11
8.511856044
 21
9.7304051808
  0
LINE
  5
293
100
AcDbEntity
  8
03__ASM_ALL_CURVES
100
AcDbLine
 62
4
  6
CONTINUOUS
 10
10.6325227091
 20
6.3124051808
 11
10.6425227091
 21
6.3057385157
  0
LINE
  5
294
100
AcDbEntity
  8
03__ASM_ALL_CURVES
100
AcDbLine
 62
4
  6
CONTINUOUS
 10
10.9575227091
 20
6.3124051808
 11
10.9675227091
 21
6.3057385157
  0
LINE
  5
295
100
AcDbEntity
  8
03__ASM_ALL_CURVES
100
AcDbLine
 62
4
  6
CONTINUOUS
 10
8.4985227091
 20
9.8104051808
 11
8.4985227091
 21
9.7704051808
  0
LINE
  5
296
100
AcDbEntity
  8
03__ASM_ALL_CURVES
100
AcDbLine
 62
4
  6
CONTINUOUS
 10
8.4985227091
 20
9.7054051808
 11
8.4985227091
 21
9.7154051808
  0
LINE
  5
297
100
AcDbEntity
  8
03__ASM_ALL_CURVES
100
AcDbLine
 62
4
  6
CONTINUOUS
 10
8.4985227091
 20
10.0254051808
 11
8.4985227091
 21
10.0354051808
  0
LINE
  5
298
100
AcDbEntity
  8
03__ASM_ALL_CURVES
100
AcDbLine
 62
4
  6
CONTINUOUS
 10
8.531856044
 20
10.0254051808
 11
8.531856044
 21
10.0354051808
  0
LINE
  5
299
100
AcDbEntity
  8
03__ASM_ALL_CURVES
100
AcDbLine
 62
4
  6
CONTINUOUS
 10
8.5385227091
 20
8.7904051808
 11
8.5385227091
 21
9.0304051808
  0
LINE
  5
29A
100
AcDbEntity
  8
03__ASM_ALL_CURVES
100
AcDbLine
 62
4
  6
CONTINUOUS
 10
8.5785227091
 20
10.0354051808
 11
8.5785227091
 21
10.0254051808
  0
LINE
  5
29B
100
AcDbEntity
  8
03__ASM_ALL_CURVES
100
AcDbLine
 62
4
  6
CONTINUOUS
 10
8.5785227091
 20
9.8904051808
 11
8.5785227091
 21
9.8829051808
  0
LINE
  5
29C
100
AcDbEntity
  8
03__ASM_ALL_CURVES
100
AcDbLine
 62
4
  6
CONTINUOUS
 10
8.5785227091
 20
9.3304051808
 11
8.5785227091
 21
9.3229051808
  0
LINE
  5
29D
100
AcDbEntity
  8
03__ASM_ALL_CURVES
100
AcDbLine
 62
4
  6
CONTINUOUS
 10
8.5785227091
 20
9.6904051808
 11
8.5785227091
 21
9.7304051808
  0
LINE
  5
29E
100
AcDbEntity
  8
03__ASM_ALL_CURVES
100
AcDbLine
 62
4
  6
CONTINUOUS
 10
8.4985227091
 20
9.3904051808
 11
8.5051893742
 21
9.4004051808
  0
LINE
  5
29F
100
AcDbEntity
  8
03__ASM_ALL_CURVES
100
AcDbLine
 62
4
  6
CONTINUOUS
 10
8.7175227091
 20
9.7154051808
 11
8.7241893742
 21
9.7254051808
  0
LINE
  5
2A0
100
AcDbEntity
  8
03__ASM_ALL_CURVES
100
AcDbLine
 62
4
  6
CONTINUOUS
 10
8.8871893742
 20
9.9554051808
 11
8.893856044
 21
9.9654051808
  0
LINE
  5
2A1
100
AcDbEntity
  8
03__ASM_ALL_CURVES
100
AcDbLine
 62
4
  6
CONTINUOUS
 10
8.5785227091
 20
9.4704051808
 11
8.5718560422
 21
9.4604051808
  0
LINE
  5
2A2
100
AcDbEntity
  8
03__ASM_ALL_CURVES
100
AcDbLine
 62
4
  6
CONTINUOUS
 10
8.9405227091
 20
9.9454051808
 11
8.9338560422
 21
9.9354051808
  0
LINE
  5
2A3
100
AcDbEntity
  8
03__ASM_ALL_CURVES
100
AcDbLine
 62
4
  6
CONTINUOUS
 10
8.5785227091
 20
9.3904051808
 11
8.5718560422
 21
9.3804051808
  0
LINE
  5
2A4
100
AcDbEntity
  8
03__ASM_ALL_CURVES
100
AcDbLine
 62
4
  6
CONTINUOUS
 10
8.8605227091
 20
9.7904051808
 11
8.8671893742
 21
9.8004051808
  0
LINE
  5
2A5
100
AcDbEntity
  8
03__ASM_ALL_CURVES
100
AcDbLine
 62
4
  6
CONTINUOUS
 10
8.8605227091
 20
9.7154051808
 11
8.8671893742
 21
9.7254051808
  0
LINE
  5
2A6
100
AcDbEntity
  8
03__ASM_ALL_CURVES
100
AcDbLine
 62
4
  6
CONTINUOUS
 10
8.9405227091
 20
9.7904051808
 11
8.9338560422
 21
9.7804051808
  0
LINE
  5
2A7
100
AcDbEntity
  8
03__ASM_ALL_CURVES
100
AcDbLine
 62
4
  6
CONTINUOUS
 10
8.7175227091
 20
9.3954051808
 11
8.7241893742
 21
9.4054051808
  0
LINE
  5
2A8
100
AcDbEntity
  8
03__ASM_ALL_CURVES
100
AcDbLine
 62
4
  6
CONTINUOUS
 10
8.750856044
 20
9.3954051808
 11
8.7575227091
 21
9.4054051808
  0
LINE
  5
2A9
100
AcDbEntity
  8
03__ASM_ALL_CURVES
100
AcDbLine
 62
4
  6
CONTINUOUS
 10
8.750856044
 20
9.3854051808
 11
8.7441893742
 21
9.3754051808
  0
LINE
  5
2AA
100
AcDbEntity
  8
03__ASM_ALL_CURVES
100
AcDbLine
 62
4
  6
CONTINUOUS
 10
8.893856044
 20
9.9654051808
 11
8.9005227091
 21
9.9704051808
  0
LINE
  5
2AB
100
AcDbEntity
  8
03__ASM_ALL_CURVES
100
AcDbLine
 62
4
  6
CONTINUOUS
 10
8.7875227088
 20
9.8829051808
 11
8.7975227091
 21
9.8904051808
  0
LINE
  5
2AC
100
AcDbEntity
  8
03__ASM_ALL_CURVES
100
AcDbLine
 62
4
  6
CONTINUOUS
 10
8.7241893742
 20
9.8054051808
 11
8.730856044
 21
9.8104051808
  0
LINE
  5
2AD
100
AcDbEntity
  8
03__ASM_ALL_CURVES
100
AcDbLine
 62
4
  6
CONTINUOUS
 10
8.9338560422
 20
9.9354051808
 11
8.9271893754
 21
9.9304051808
  0
LINE
  5
2AE
100
AcDbEntity
  8
03__ASM_ALL_CURVES
100
AcDbLine
 62
4
  6
CONTINUOUS
 10
8.5651893754
 20
9.6254051808
 11
8.5785227091
 21
9.6354051808
  0
LINE
  5
2AF
100
AcDbEntity
  8
03__ASM_ALL_CURVES
100
AcDbLine
 62
4
  6
CONTINUOUS
 10
8.9305227088
 20
9.8829051808
 11
8.9405227091
 21
9.8904051808
  0
LINE
  5
2B0
100
AcDbEntity
  8
03__ASM_ALL_CURVES
100
AcDbLine
 62
4
  6
CONTINUOUS
 10
8.7241893742
 20
9.7254051808
 11
8.730856044
 21
9.7304051808
  0
LINE
  5
2B1
100
AcDbEntity
  8
03__ASM_ALL_CURVES
100
AcDbLine
 62
4
  6
CONTINUOUS
 10
8.8671893742
 20
9.8004051808
 11
8.873856044
 21
9.8054051808
  0
LINE
  5
2B2
100
AcDbEntity
  8
03__ASM_ALL_CURVES
100
AcDbLine
 62
4
  6
CONTINUOUS
 10
8.5051893742
 20
9.4804051808
 11
8.511856044
 21
9.4854051808
  0
LINE
  5
2B3
100
AcDbEntity
  8
03__ASM_ALL_CURVES
100
AcDbLine
 62
4
  6
CONTINUOUS
 10
8.9338560422
 20
9.7804051808
 11
8.9271893754
 21
9.7754051808
  0
LINE
  5
2B4
100
AcDbEntity
  8
03__ASM_ALL_CURVES
100
AcDbLine
 62
4
  6
CONTINUOUS
 10
8.8671893742
 20
9.7254051808
 11
8.873856044
 21
9.7304051808
  0
LINE
  5
2B5
100
AcDbEntity
  8
03__ASM_ALL_CURVES
100
AcDbLine
 62
4
  6
CONTINUOUS
 10
8.7841893754
 20
9.6254051808
 11
8.7975227091
 21
9.6354051808
  0
LINE
  5
2B6
100
AcDbEntity
  8
03__ASM_ALL_CURVES
100
AcDbLine
 62
4
  6
CONTINUOUS
 10
8.5718560422
 20
9.4604051808
 11
8.5651893754
 21
9.4554051808
  0
LINE
  5
2B7
100
AcDbEntity
  8
03__ASM_ALL_CURVES
100
AcDbLine
 62
4
  6
CONTINUOUS
 10
8.730856044
 20
10.0454051808
 11
8.7441893742
 21
10.0504051808
  0
LINE
  5
2B8
100
AcDbEntity
  8
03__ASM_ALL_CURVES
100
AcDbLine
 62
4
  6
CONTINUOUS
 10
8.5385227091
 20
9.9654051808
 11
8.5518560416
 21
9.9704051808
  0
LINE
  5
2B9
100
AcDbEntity
  8
03__ASM_ALL_CURVES
100
AcDbLine
 62
4
  6
CONTINUOUS
 10
8.7575227091
 20
10.0154051808
 11
8.7441893742
 21
10.0104051808
  0
LINE
  5
2BA
100
AcDbEntity
  8
03__ASM_ALL_CURVES
100
AcDbLine
 62
4
  6
CONTINUOUS
 10
8.5651893754
 20
9.9354051808
 11
8.5518560416
 21
9.9304051808
  0
LINE
  5
2BB
100
AcDbEntity
  8
03__ASM_ALL_CURVES
100
AcDbLine
 62
4
  6
CONTINUOUS
 10
8.730856044
 20
9.9654051808
 11
8.7441893742
 21
9.9704051808
  0
LINE
  5
2BC
100
AcDbEntity
  8
03__ASM_ALL_CURVES
100
AcDbLine
 62
4
  6
CONTINUOUS
 10
8.7841893754
 20
9.9354051808
 11
8.7708560416
 21
9.9304051808
  0
LINE
  5
2BD
100
AcDbEntity
  8
03__ASM_ALL_CURVES
100
AcDbLine
 62
4
  6
CONTINUOUS
 10
8.9005227091
 20
9.9704051808
 11
8.9138560416
 21
9.9754051808
  0
LINE
  5
2BE
100
AcDbEntity
  8
0
100
AcDbLine
 62
7
  6
CONTINUOUS
 10
8.5391177641
 20
7.4918891468
 11
8.9759276541
 21
7.4918891468
  0
LINE
  5
2BF
100
AcDbEntity
  8
03__ASM_ALL_CURVES
100
AcDbLine
 62
4
  6
CONTINUOUS
 10
10.7125227091
 20
6.8890718458
 11
10.7275227091
 21
6.8824051808
  0
LINE
  5
2C0
100
AcDbEntity
  8
03__ASM_ALL_CURVES
100
AcDbLine
 62
4
  6
CONTINUOUS
 10
10.3075227091
 20
6.8424051808
 11
10.2975227091
 21
6.8490718476
  0
LINE
  5
2C1
100
AcDbEntity
  8
03__ASM_ALL_CURVES
100
AcDbLine
 62
4
  6
CONTINUOUS
 10
10.3075227091
 20
6.8890718458
 11
10.2975227091
 21
6.8957385157
  0
LINE
  5
2C2
100
AcDbEntity
  8
03__ASM_ALL_CURVES
100
AcDbLine
 62
4
  6
CONTINUOUS
 10
10.3175227091
 20
6.8890718458
 11
10.3275227091
 21
6.8824051808
  0
LINE
  5
2C3
100
AcDbEntity
  8
03__ASM_ALL_CURVES
100
AcDbLine
 62
4
  6
CONTINUOUS
 10
10.3175227091
 20
6.9224051808
 11
10.3275227091
 21
6.9157385157
  0
LINE
  5
2C4
100
AcDbEntity
  8
03__ASM_ALL_CURVES
100
AcDbLine
 62
4
  6
CONTINUOUS
 10
10.3975227091
 20
6.9224051808
 11
10.4075227091
 21
6.9157385157
  0
LINE
  5
2C5
100
AcDbEntity
  8
03__ASM_ALL_CURVES
100
AcDbLine
 62
4
  6
CONTINUOUS
 10
10.1675227091
 20
6.3057385157
 11
10.1725227091
 21
6.2990718458
  0
LINE
  5
2C6
100
AcDbEntity
  8
03__ASM_ALL_CURVES
100
AcDbLine
 62
4
  6
CONTINUOUS
 10
10.2450227091
 20
6.2424051811
 11
10.2525227091
 21
6.2324051808
  0
LINE
  5
2C7
100
AcDbEntity
  8
03__ASM_ALL_CURVES
100
AcDbLine
 62
4
  6
CONTINUOUS
 10
7.875856044
 20
9.4554051808
 11
7.8691893742
 21
9.4654051808
  0
LINE
  5
2C8
100
AcDbEntity
  8
03__ASM_ALL_CURVES
100
AcDbLine
 62
4
  6
CONTINUOUS
 10
7.9158560422
 20
9.4854051808
 11
7.9225227091
 21
9.4754051808
  0
LINE
  5
2C9
100
AcDbEntity
  8
03__ASM_ALL_CURVES
100
AcDbLine
 62
4
  6
CONTINUOUS
 10
8.7175227091
 20
9.4904051808
 11
8.7175227091
 21
9.4504051808
  0
LINE
  5
2CA
100
AcDbEntity
  8
03__ASM_ALL_CURVES
100
AcDbLine
 62
4
  6
CONTINUOUS
 10
8.7175227091
 20
9.3854051808
 11
8.7175227091
 21
9.3954051808
  0
LINE
  5
2CB
100
AcDbEntity
  8
03__ASM_ALL_CURVES
100
AcDbLine
 62
4
  6
CONTINUOUS
 10
8.7175227091
 20
9.7054051808
 11
8.7175227091
 21
9.7154051808
  0
LINE
  5
2CC
100
AcDbEntity
  8
03__ASM_ALL_CURVES
100
AcDbLine
 62
4
  6
CONTINUOUS
 10
8.7175227091
 20
9.7854051808
 11
8.7175227091
 21
9.7954051808
  0
LINE
  5
2CD
100
AcDbEntity
  8
03__ASM_ALL_CURVES
100
AcDbLine
 62
4
  6
CONTINUOUS
 10
8.750856044
 20
9.3854051808
 11
8.750856044
 21
9.3954051808
  0
LINE
  5
2CE
100
AcDbEntity
  8
03__ASM_ALL_CURVES
100
AcDbLine
 62
4
  6
CONTINUOUS
 10
8.7575227091
 20
8.7904051808
 11
8.7575227091
 21
9.0304051808
  0
LINE
  5
2CF
100
AcDbEntity
  8
03__ASM_ALL_CURVES
100
AcDbLine
 62
4
  6
CONTINUOUS
 10
8.7975227091
 20
9.8904051808
 11
8.7975227091
 21
9.8829051808
  0
LINE
  5
2D0
100
AcDbEntity
  8
03__ASM_ALL_CURVES
100
AcDbLine
 62
4
  6
CONTINUOUS
 10
8.7975227091
 20
9.3954051808
 11
8.7975227091
 21
9.3854051808
  0
LINE
  5
2D1
100
AcDbEntity
  8
03__ASM_ALL_CURVES
100
AcDbLine
 62
4
  6
CONTINUOUS
 10
8.7975227091
 20
9.3304051808
 11
8.7975227091
 21
9.3229051808
  0
LINE
  5
2D2
100
AcDbEntity
  8
03__ASM_ALL_CURVES
100
AcDbLine
 62
4
  6
CONTINUOUS
 10
8.7975227091
 20
9.6904051808
 11
8.7975227091
 21
9.7304051808
  0
LINE
  5
2D3
100
AcDbEntity
  8
03__ASM_ALL_CURVES
100
AcDbLine
 62
4
  6
CONTINUOUS
 10
8.7975227091
 20
9.7704051808
 11
8.7975227091
 21
9.8104051808
  0
LINE
  5
2D4
100
AcDbEntity
  8
03__ASM_ALL_CURVES
100
AcDbLine
 62
4
  6
CONTINUOUS
 10
8.8205227091
 20
8.7904051808
 11
8.8205227091
 21
8.8704051808
  0
LINE
  5
2D5
100
AcDbEntity
  8
03__ASM_ALL_CURVES
100
AcDbLine
 62
4
  6
CONTINUOUS
 10
8.8605227091
 20
10.0504051808
 11
8.8605227091
 21
10.0104051808
  0
LINE
  5
2D6
100
AcDbEntity
  8
03__ASM_ALL_CURVES
100
AcDbLine
 62
4
  6
CONTINUOUS
 10
8.8605227091
 20
9.9704051808
 11
8.8605227091
 21
9.9404051808
  0
LINE
  5
2D7
100
AcDbEntity
  8
03__ASM_ALL_CURVES
100
AcDbLine
 62
4
  6
CONTINUOUS
 10
8.8605227091
 20
9.3854051808
 11
8.8605227091
 21
9.3954051808
  0
LINE
  5
2D8
100
AcDbEntity
  8
03__ASM_ALL_CURVES
100
AcDbLine
 62
4
  6
CONTINUOUS
 10
8.8605227091
 20
9.7054051808
 11
8.8605227091
 21
9.7154051808
  0
LINE
  5
2D9
100
AcDbEntity
  8
03__ASM_ALL_CURVES
100
AcDbLine
 62
4
  6
CONTINUOUS
 10
8.8871893742
 20
9.9454051808
 11
8.8871893742
 21
9.9554051808
  0
LINE
  5
2DA
100
AcDbEntity
  8
03__ASM_ALL_CURVES
100
AcDbLine
 62
4
  6
CONTINUOUS
 10
8.893856044
 20
9.3854051808
 11
8.893856044
 21
9.3954051808
  0
LINE
  5
2DB
100
AcDbEntity
  8
03__ASM_ALL_CURVES
100
AcDbLine
 62
4
  6
CONTINUOUS
 10
8.9005227091
 20
8.9504051808
 11
8.9005227091
 21
9.0304051808
  0
LINE
  5
2DC
100
AcDbEntity
  8
03__ASM_ALL_CURVES
100
AcDbLine
 62
4
  6
CONTINUOUS
 10
8.7975227091
 20
9.3854051808
 11
8.7908560422
 21
9.3754051808
  0
LINE
  5
2DD
100
AcDbEntity
  8
03__ASM_ALL_CURVES
100
AcDbLine
 62
4
  6
CONTINUOUS
 10
8.7175227091
 20
9.2304051808
 11
8.7241893742
 21
9.2404051808
  0
LINE
  5
2DE
100
AcDbEntity
  8
03__ASM_ALL_CURVES
100
AcDbLine
 62
4
  6
CONTINUOUS
 10
8.8605227091
 20
9.3954051808
 11
8.8671893742
 21
9.4054051808
  0
LINE
  5
2DF
100
AcDbEntity
  8
03__ASM_ALL_CURVES
100
AcDbLine
 62
4
  6
CONTINUOUS
 10
8.893856044
 20
9.3954051808
 11
8.9005227091
 21
9.4054051808
  0
LINE
  5
2E0
100
AcDbEntity
  8
03__ASM_ALL_CURVES
100
AcDbLine
 62
4
  6
CONTINUOUS
 10
8.893856044
 20
9.3854051808
 11
8.8871893742
 21
9.3754051808
  0
LINE
  5
2E1
100
AcDbEntity
  8
03__ASM_ALL_CURVES
100
AcDbLine
 62
4
  6
CONTINUOUS
 10
8.7975227091
 20
9.2304051808
 11
8.7908560422
 21
9.2204051808
  0
LINE
  5
2E2
100
AcDbEntity
  8
03__ASM_ALL_CURVES
100
AcDbLine
 62
4
  6
CONTINUOUS
 10
8.9405227091
 20
9.3854051808
 11
8.9338560422
 21
9.3754051808
  0
LINE
  5
2E3
100
AcDbEntity
  8
03__ASM_ALL_CURVES
100
AcDbLine
 62
4
  6
CONTINUOUS
 10
8.8605227091
 20
9.2304051808
 11
8.8671893742
 21
9.2404051808
  0
LINE
  5
2E4
100
AcDbEntity
  8
03__ASM_ALL_CURVES
100
AcDbLine
 62
4
  6
CONTINUOUS
 10
8.5051893742
 20
9.4004051808
 11
8.511856044
 21
9.4054051808
  0
LINE
  5
2E5
100
AcDbEntity
  8
03__ASM_ALL_CURVES
100
AcDbLine
 62
4
  6
CONTINUOUS
 10
8.5718560422
 20
9.3804051808
 11
8.5651893754
 21
9.3754051808
  0
LINE
  5
2E6
100
AcDbEntity
  8
03__ASM_ALL_CURVES
100
AcDbLine
 62
4
  6
CONTINUOUS
 10
8.9271893754
 20
9.6254051808
 11
8.9405227091
 21
9.6354051808
  0
LINE
  5
2E7
100
AcDbEntity
  8
03__ASM_ALL_CURVES
100
AcDbLine
 62
4
  6
CONTINUOUS
 10
8.5685227088
 20
9.3229051808
 11
8.5785227091
 21
9.3304051808
  0
LINE
  5
2E8
100
AcDbEntity
  8
03__ASM_ALL_CURVES
100
AcDbLine
 62
4
  6
CONTINUOUS
 10
8.7241893742
 20
9.4054051808
 11
8.730856044
 21
9.4104051808
  0
LINE
  5
2E9
100
AcDbEntity
  8
03__ASM_ALL_CURVES
100
AcDbLine
 62
4
  6
CONTINUOUS
 10
8.7575227091
 20
9.4054051808
 11
8.7708560416
 21
9.4154051808
  0
LINE
  5
2EA
100
AcDbEntity
  8
03__ASM_ALL_CURVES
100
AcDbLine
 62
4
  6
CONTINUOUS
 10
8.7441893742
 20
9.3754051808
 11
8.7375227091
 21
9.3704051808
  0
LINE
  5
2EB
100
AcDbEntity
  8
03__ASM_ALL_CURVES
100
AcDbLine
 62
4
  6
CONTINUOUS
 10
8.7908560422
 20
9.3754051808
 11
8.7775227091
 21
9.3654051808
  0
LINE
  5
2EC
100
AcDbEntity
  8
03__ASM_ALL_CURVES
100
AcDbLine
 62
4
  6
CONTINUOUS
 10
8.8671893742
 20
9.4054051808
 11
8.873856044
 21
9.4104051808
  0
LINE
  5
2ED
100
AcDbEntity
  8
03__ASM_ALL_CURVES
100
AcDbLine
 62
4
  6
CONTINUOUS
 10
7.8825227091
 20
9.4904051808
 11
7.8958560416
 21
9.4954051808
  0
LINE
  5
2EE
100
AcDbEntity
  8
03__ASM_ALL_CURVES
100
AcDbLine
 62
4
  6
CONTINUOUS
 10
8.873856044
 20
9.8054051808
 11
8.8871893742
 21
9.8104051808
  0
LINE
  5
2EF
100
AcDbEntity
  8
03__ASM_ALL_CURVES
100
AcDbLine
 62
4
  6
CONTINUOUS
 10
8.9271893754
 20
9.7754051808
 11
8.9138560416
 21
9.7704051808
  0
LINE
  5
2F0
100
AcDbEntity
  8
03__ASM_ALL_CURVES
100
AcDbLine
 62
4
  6
CONTINUOUS
 10
8.511856044
 20
9.4854051808
 11
8.5251893742
 21
9.4904051808
  0
LINE
  5
2F1
100
AcDbEntity
  8
03__ASM_ALL_CURVES
100
AcDbLine
 62
4
  6
CONTINUOUS
 10
9.3535227091
 20
7.7254051808
 11
9.3235227091
 21
7.7329051808
  0
LINE
  5
2F2
100
AcDbEntity
  8
03__ASM_ALL_CURVES
100
AcDbLine
 62
4
  6
CONTINUOUS
 10
9.4135227091
 20
7.8604051808
 11
9.2935227091
 21
7.9204051808
  0
LINE
  5
2F3
100
AcDbEntity
  8
03__ASM_ALL_CURVES
100
AcDbLine
 62
4
  6
CONTINUOUS
 10
10.7125227091
 20
6.8424051808
 11
10.7025227091
 21
6.8490718476
  0
LINE
  5
2F4
100
AcDbEntity
  8
03__ASM_ALL_CURVES
100
AcDbLine
 62
4
  6
CONTINUOUS
 10
10.7125227091
 20
6.9224051808
 11
10.7225227091
 21
6.9157385157
  0
LINE
  5
2F5
100
AcDbEntity
  8
03__ASM_ALL_CURVES
100
AcDbLine
 62
4
  6
CONTINUOUS
 10
10.8775227091
 20
6.9224051808
 11
10.8875227091
 21
6.9157385157
  0
LINE
  5
2F6
100
AcDbEntity
  8
03__ASM_ALL_CURVES
100
AcDbLine
 62
4
  6
CONTINUOUS
 10
9.3235227091
 20
7.7329051808
 11
9.3035227067
 21
7.7479051808
  0
LINE
  5
2F7
100
AcDbEntity
  8
03__ASM_ALL_CURVES
100
AcDbLine
 62
4
  6
CONTINUOUS
 10
9.3935227085
 20
7.8004051808
 11
9.4035227088
 21
7.7929051808
  0
LINE
  5
2F8
100
AcDbEntity
  8
03__ASM_ALL_CURVES
100
AcDbLine
 62
4
  6
CONTINUOUS
 10
10.3775227091
 20
6.2390718476
 11
10.3725227091
 21
6.2457385145
  0
LINE
  5
2F9
100
AcDbEntity
  8
03__ASM_ALL_CURVES
100
AcDbLine
 62
4
  6
CONTINUOUS
 10
10.4075227091
 20
6.2724051808
 11
10.4175227091
 21
6.2590718482
  0
LINE
  5
2FA
100
AcDbEntity
  8
03__ASM_ALL_CURVES
100
AcDbLine
 62
4
  6
CONTINUOUS
 10
10.4075227091
 20
6.3057385157
 11
10.4125227091
 21
6.2990718458
  0
LINE
  5
2FB
100
AcDbEntity
  8
03__ASM_ALL_CURVES
100
AcDbLine
 62
4
  6
CONTINUOUS
 10
10.5475227091
 20
6.2457385145
 11
10.5575227091
 21
6.2324051808
  0
LINE
  5
2FC
100
AcDbEntity
  8
03__ASM_ALL_CURVES
100
AcDbLine
 62
4
  6
CONTINUOUS
 10
9.3035227067
 20
7.7479051808
 11
9.2935227091
 21
7.7629051808
  0
LINE
  5
2FD
100
AcDbEntity
  8
0
100
AcDbLine
 62
7
  6
CONTINUOUS
 10
9.2456251816
 20
7.9590189671
 11
9.0272202366
 21
8.3373074284
  0
LINE
  5
2FE
100
AcDbEntity
  8
03__ASM_ALL_CURVES
100
AcDbLine
 62
4
  6
CONTINUOUS
 10
8.9405227091
 20
9.9554051808
 11
8.9405227091
 21
9.9454051808
  0
LINE
  5
2FF
100
AcDbEntity
  8
03__ASM_ALL_CURVES
100
AcDbLine
 62
4
  6
CONTINUOUS
 10
8.9405227091
 20
9.8904051808
 11
8.9405227091
 21
9.8829051808
  0
LINE
  5
300
100
AcDbEntity
  8
03__ASM_ALL_CURVES
100
AcDbLine
 62
4
  6
CONTINUOUS
 10
8.9405227091
 20
9.3954051808
 11
8.9405227091
 21
9.3854051808
  0
LINE
  5
301
100
AcDbEntity
  8
03__ASM_ALL_CURVES
100
AcDbLine
 62
4
  6
CONTINUOUS
 10
8.9405227091
 20
9.3304051808
 11
8.9405227091
 21
9.3229051808
  0
LINE
  5
302
100
AcDbEntity
  8
03__ASM_ALL_CURVES
100
AcDbLine
 62
4
  6
CONTINUOUS
 10
8.9405227091
 20
9.6904051808
 11
8.9405227091
 21
9.7304051808
  0
LINE
  5
303
100
AcDbEntity
  8
0
100
AcDbLine
 62
7
  6
CONTINUOUS
 10
8.4878251816
 20
8.3373074284
 11
8.2694202366
 21
7.9590189671
  0
LINE
  5
304
100
AcDbEntity
  8
03__ASM_ALL_CURVES
100
AcDbLine
 62
4
  6
CONTINUOUS
 10
8.9405227091
 20
9.2304051808
 11
8.9338560422
 21
9.2204051808
  0
LINE
  5
305
100
AcDbEntity
  8
03__ASM_ALL_CURVES
100
AcDbLine
 62
4
  6
CONTINUOUS
 10
8.7875227088
 20
9.3229051808
 11
8.7975227091
 21
9.3304051808
  0
LINE
  5
306
100
AcDbEntity
  8
03__ASM_ALL_CURVES
100
AcDbLine
 62
4
  6
CONTINUOUS
 10
8.9005227091
 20
9.4054051808
 11
8.9138560416
 21
9.4154051808
  0
LINE
  5
307
100
AcDbEntity
  8
03__ASM_ALL_CURVES
100
AcDbLine
 62
4
  6
CONTINUOUS
 10
8.8871893742
 20
9.3754051808
 11
8.8805227091
 21
9.3704051808
  0
LINE
  5
308
100
AcDbEntity
  8
03__ASM_ALL_CURVES
100
AcDbLine
 62
4
  6
CONTINUOUS
 10
8.7241893742
 20
9.2404051808
 11
8.730856044
 21
9.2454051808
  0
LINE
  5
309
100
AcDbEntity
  8
03__ASM_ALL_CURVES
100
AcDbLine
 62
4
  6
CONTINUOUS
 10
8.9338560422
 20
9.3754051808
 11
8.9205227091
 21
9.3654051808
  0
LINE
  5
30A
100
AcDbEntity
  8
03__ASM_ALL_CURVES
100
AcDbLine
 62
4
  6
CONTINUOUS
 10
8.7908560422
 20
9.2204051808
 11
8.7841893754
 21
9.2154051808
  0
LINE
  5
30B
100
AcDbEntity
  8
03__ASM_ALL_CURVES
100
AcDbLine
 62
4
  6
CONTINUOUS
 10
8.9305227088
 20
9.3229051808
 11
8.9405227091
 21
9.3304051808
  0
LINE
  5
30C
100
AcDbEntity
  8
03__ASM_ALL_CURVES
100
AcDbLine
 62
4
  6
CONTINUOUS
 10
8.8671893742
 20
9.2404051808
 11
8.873856044
 21
9.2454051808
  0
LINE
  5
30D
100
AcDbEntity
  8
03__ASM_ALL_CURVES
100
AcDbLine
 62
4
  6
CONTINUOUS
 10
8.9338560422
 20
9.2204051808
 11
8.9271893754
 21
9.2154051808
  0
LINE
  5
30E
100
AcDbEntity
  8
03__ASM_ALL_CURVES
100
AcDbLine
 62
4
  6
CONTINUOUS
 10
8.5385227091
 20
9.4554051808
 11
8.5251893742
 21
9.4504051808
  0
LINE
  5
30F
100
AcDbEntity
  8
03__ASM_ALL_CURVES
100
AcDbLine
 62
4
  6
CONTINUOUS
 10
8.511856044
 20
9.4054051808
 11
8.5251893742
 21
9.4104051808
  0
LINE
  5
310
100
AcDbEntity
  8
03__ASM_ALL_CURVES
100
AcDbLine
 62
4
  6
CONTINUOUS
 10
8.5651893754
 20
9.3754051808
 11
8.5518560416
 21
9.3704051808
  0
LINE
  5
311
100
AcDbEntity
  8
03__ASM_ALL_CURVES
100
AcDbLine
 62
4
  6
CONTINUOUS
 10
9.3835227091
 20
7.7329051808
 11
9.3535227091
 21
7.7254051808
  0
LINE
  5
312
100
AcDbEntity
  8
03__ASM_ALL_CURVES
100
AcDbLine
 62
4
  6
CONTINUOUS
 10
10.8775227091
 20
7.8894051808
 11
10.8675227091
 21
7.8894051808
  0
LINE
  5
313
100
AcDbEntity
  8
03__ASM_ALL_CURVES
100
AcDbLine
 62
4
  6
CONTINUOUS
 10
10.8125227091
 20
7.8894051808
 11
10.8050227091
 21
7.8894051808
  0
LINE
  5
314
100
AcDbEntity
  8
03__ASM_ALL_CURVES
100
AcDbLine
 62
4
  6
CONTINUOUS
 10
10.3975227091
 20
7.8894051808
 11
10.3875227091
 21
7.8894051808
  0
LINE
  5
315
100
AcDbEntity
  8
03__ASM_ALL_CURVES
100
AcDbLine
 62
4
  6
CONTINUOUS
 10
10.2525227091
 20
7.8894051808
 11
10.2450227091
 21
7.8894051808
  0
LINE
  5
316
100
AcDbEntity
  8
03__ASM_ALL_CURVES
100
AcDbLine
 62
4
  6
CONTINUOUS
 10
9.7125227091
 20
7.9294051808
 11
9.9525227091
 21
7.9294051808
  0
LINE
  5
317
100
AcDbEntity
  8
03__ASM_ALL_CURVES
100
AcDbLine
 62
4
  6
CONTINUOUS
 10
10.3875227091
 20
7.9360718458
 11
10.3975227091
 21
7.9360718458
  0
LINE
  5
318
100
AcDbEntity
  8
03__ASM_ALL_CURVES
100
AcDbLine
 62
4
  6
CONTINUOUS
 10
10.8675227091
 20
7.9360718458
 11
10.8775227091
 21
7.9360718458
  0
LINE
  5
319
100
AcDbEntity
  8
03__ASM_ALL_CURVES
100
AcDbLine
 62
4
  6
CONTINUOUS
 10
10.3325227091
 20
7.9694051808
 11
10.2925227091
 21
7.9694051808
  0
LINE
  5
31A
100
AcDbEntity
  8
03__ASM_ALL_CURVES
100
AcDbLine
 62
4
  6
CONTINUOUS
 10
10.3875227091
 20
7.9694051808
 11
10.3975227091
 21
7.9694051808
  0
LINE
  5
31B
100
AcDbEntity
  8
03__ASM_ALL_CURVES
100
AcDbLine
 62
4
  6
CONTINUOUS
 10
10.8675227091
 20
7.9694051808
 11
10.8775227091
 21
7.9694051808
  0
LINE
  5
31C
100
AcDbEntity
  8
03__ASM_ALL_CURVES
100
AcDbLine
 62
4
  6
CONTINUOUS
 10
9.3535227091
 20
8.0479051808
 11
9.3835227091
 21
8.0404051808
  0
LINE
  5
31D
100
AcDbEntity
  8
03__ASM_ALL_CURVES
100
AcDbLine
 62
4
  6
CONTINUOUS
 10
9.3535227091
 20
8.0854051808
 11
9.3235227091
 21
8.0929051808
  0
LINE
  5
31E
100
AcDbEntity
  8
03__ASM_ALL_CURVES
100
AcDbLine
 62
4
  6
CONTINUOUS
 10
10.9575227091
 20
6.9224051808
 11
10.9675227091
 21
6.9157385157
  0
LINE
  5
31F
100
AcDbEntity
  8
03__ASM_ALL_CURVES
100
AcDbLine
 62
4
  6
CONTINUOUS
 10
9.3835227091
 20
8.0404051808
 11
9.4035227088
 21
8.0254051808
  0
LINE
  5
320
100
AcDbEntity
  8
03__ASM_ALL_CURVES
100
AcDbLine
 62
4
  6
CONTINUOUS
 10
9.3235227091
 20
8.0929051808
 11
9.3035227067
 21
8.1079051808
  0
LINE
  5
321
100
AcDbEntity
  8
03__ASM_ALL_CURVES
100
AcDbLine
 62
4
  6
CONTINUOUS
 10
9.3935227085
 20
8.1604051808
 11
9.4035227088
 21
8.1529051808
  0
LINE
  5
322
100
AcDbEntity
  8
03__ASM_ALL_CURVES
100
AcDbLine
 62
4
  6
CONTINUOUS
 10
10.6225227091
 20
6.2390718476
 11
10.6175227091
 21
6.2457385145
  0
LINE
  5
323
100
AcDbEntity
  8
03__ASM_ALL_CURVES
100
AcDbLine
 62
4
  6
CONTINUOUS
 10
10.6425227091
 20
6.3057385157
 11
10.6475227091
 21
6.2990718458
  0
LINE
  5
324
100
AcDbEntity
  8
03__ASM_ALL_CURVES
100
AcDbLine
 62
4
  6
CONTINUOUS
 10
10.2450227091
 20
6.8524051811
 11
10.2525227091
 21
6.8424051808
  0
LINE
  5
325
100
AcDbEntity
  8
03__ASM_ALL_CURVES
100
AcDbLine
 62
4
  6
CONTINUOUS
 10
10.2975227091
 20
6.8490718476
 11
10.2875227091
 21
6.8624051808
  0
LINE
  5
326
100
AcDbEntity
  8
03__ASM_ALL_CURVES
100
AcDbLine
 62
4
  6
CONTINUOUS
 10
10.2975227091
 20
6.8957385157
 11
10.2925227091
 21
6.9024051808
  0
LINE
  5
327
100
AcDbEntity
  8
03__ASM_ALL_CURVES
100
AcDbLine
 62
4
  6
CONTINUOUS
 10
10.8050227091
 20
6.2424051811
 11
10.8125227091
 21
6.2324051808
  0
LINE
  5
328
100
AcDbEntity
  8
03__ASM_ALL_CURVES
100
AcDbLine
 62
4
  6
CONTINUOUS
 10
10.3275227091
 20
6.8824051808
 11
10.3375227091
 21
6.8690718482
  0
LINE
  5
329
100
AcDbEntity
  8
03__ASM_ALL_CURVES
100
AcDbLine
 62
4
  6
CONTINUOUS
 10
10.3275227091
 20
6.9157385157
 11
10.3325227091
 21
6.9090718458
  0
LINE
  5
32A
100
AcDbEntity
  8
03__ASM_ALL_CURVES
100
AcDbLine
 62
4
  6
CONTINUOUS
 10
9.4035227088
 20
7.7929051808
 11
9.4135227091
 21
7.7779051808
  0
LINE
  5
32B
100
AcDbEntity
  8
03__ASM_ALL_CURVES
100
AcDbLine
 62
4
  6
CONTINUOUS
 10
9.3035227067
 20
8.1079051808
 11
9.2935227091
 21
8.1229051808
  0
LINE
  5
32C
100
AcDbEntity
  8
03__ASM_ALL_CURVES
100
AcDbLine
 62
4
  6
CONTINUOUS
 10
9.4035227088
 20
8.0254051808
 11
9.4135227091
 21
8.0104051808
  0
LINE
  5
32D
100
AcDbEntity
  8
03__ASM_ALL_CURVES
100
AcDbLine
 62
4
  6
CONTINUOUS
 10
8.5051893742
 20
9.3804051808
 11
8.4985227091
 21
9.3904051808
  0
LINE
  5
32E
100
AcDbEntity
  8
03__ASM_ALL_CURVES
100
AcDbLine
 62
4
  6
CONTINUOUS
 10
8.5051893742
 20
9.4604051808
 11
8.4985227091
 21
9.4704051808
  0
LINE
  5
32F
100
AcDbEntity
  8
03__ASM_ALL_CURVES
100
AcDbLine
 62
4
  6
CONTINUOUS
 10
8.5718560422
 20
9.4004051808
 11
8.5785227091
 21
9.3904051808
  0
LINE
  5
330
100
AcDbEntity
  8
03__ASM_ALL_CURVES
100
AcDbLine
 62
4
  6
CONTINUOUS
 10
9.4035227088
 20
8.1529051808
 11
9.4135227091
 21
8.1379051808
  0
LINE
  5
331
100
AcDbEntity
  8
03__ASM_ALL_CURVES
100
AcDbLine
 62
4
  6
CONTINUOUS
 10
8.5385227091
 20
9.4854051808
 11
8.5451893766
 21
9.4704051808
  0
LINE
  5
332
100
AcDbEntity
  8
03__ASM_ALL_CURVES
100
AcDbLine
 62
4
  6
CONTINUOUS
 10
8.5385227091
 20
9.9354051808
 11
8.531856044
 21
9.9504051808
  0
LINE
  5
333
100
AcDbEntity
  8
0
100
AcDbLine
 62
7
  6
CONTINUOUS
 10
9.1945227091
 20
6.3194051989
 11
9.1945227091
 21
6.2884051989
  0
LINE
  5
334
100
AcDbEntity
  8
0
100
AcDbLine
 62
7
  6
CONTINUOUS
 10
9.1945227091
 20
8.6634051989
 11
9.1945227091
 21
8.6944051989
  0
LINE
  5
335
100
AcDbEntity
  8
03__ASM_ALL_CURVES
100
AcDbLine
 62
4
  6
CONTINUOUS
 10
9.2935227091
 20
7.7629051808
 11
9.2935227091
 21
7.7779051808
  0
LINE
  5
336
100
AcDbEntity
  8
03__ASM_ALL_CURVES
100
AcDbLine
 62
4
  6
CONTINUOUS
 10
9.2935227091
 20
7.9804051808
 11
9.2935227091
 21
8.0104051808
  0
LINE
  5
337
100
AcDbEntity
  8
03__ASM_ALL_CURVES
100
AcDbLine
 62
4
  6
CONTINUOUS
 10
9.2935227091
 20
8.1229051808
 11
9.2935227091
 21
8.1379051808
  0
LINE
  5
338
100
AcDbEntity
  8
03__ASM_ALL_CURVES
100
AcDbLine
 62
4
  6
CONTINUOUS
 10
8.8205227091
 20
8.8704051808
 11
8.9005227091
 21
8.9504051808
  0
LINE
  5
339
100
AcDbEntity
  8
03__ASM_ALL_CURVES
100
AcDbLine
 62
4
  6
CONTINUOUS
 10
8.730856044
 20
9.2454051808
 11
8.7441893742
 21
9.2504051808
  0
LINE
  5
33A
100
AcDbEntity
  8
03__ASM_ALL_CURVES
100
AcDbLine
 62
4
  6
CONTINUOUS
 10
8.7841893754
 20
9.2154051808
 11
8.7708560416
 21
9.2104051808
  0
LINE
  5
33B
100
AcDbEntity
  8
03__ASM_ALL_CURVES
100
AcDbLine
 62
4
  6
CONTINUOUS
 10
8.873856044
 20
9.2454051808
 11
8.8871893742
 21
9.2504051808
  0
LINE
  5
33C
100
AcDbEntity
  8
03__ASM_ALL_CURVES
100
AcDbLine
 62
4
  6
CONTINUOUS
 10
8.9271893754
 20
9.2154051808
 11
8.9138560416
 21
9.2104051808
  0
LINE
  5
33D
100
AcDbEntity
  8
03__ASM_ALL_CURVES
100
AcDbLine
 62
4
  6
CONTINUOUS
 10
9.4135227091
 20
7.9804051808
 11
9.2935227091
 21
7.9804051808
  0
LINE
  5
33E
100
AcDbEntity
  8
03__ASM_ALL_CURVES
100
AcDbLine
 62
4
  6
CONTINUOUS
 10
10.1525227091
 20
7.8894051808
 11
10.1425227091
 21
7.8960718476
  0
LINE
  5
33F
100
AcDbEntity
  8
03__ASM_ALL_CURVES
100
AcDbLine
 62
4
  6
CONTINUOUS
 10
10.1525227091
 20
7.9694051808
 11
10.1625227091
 21
7.9627385157
  0
LINE
  5
340
100
AcDbEntity
  8
03__ASM_ALL_CURVES
100
AcDbLine
 62
4
  6
CONTINUOUS
 10
7.9091893754
 20
9.4904051808
 11
7.9158560422
 21
9.4854051808
  0
LINE
  5
341
100
AcDbEntity
  8
03__ASM_ALL_CURVES
100
AcDbLine
 62
4
  6
CONTINUOUS
 10
7.8425227091
 20
9.6354051808
 11
7.855856044
 21
9.6254051808
  0
LINE
  5
342
100
AcDbEntity
  8
03__ASM_ALL_CURVES
100
AcDbLine
 62
4
  6
CONTINUOUS
 10
10.4075227091
 20
6.9157385157
 11
10.4125227091
 21
6.9090718458
  0
LINE
  5
343
100
AcDbEntity
  8
03__ASM_ALL_CURVES
100
AcDbLine
 62
4
  6
CONTINUOUS
 10
10.5475227091
 20
6.8557385145
 11
10.5575227091
 21
6.8424051808
  0
LINE
  5
344
100
AcDbEntity
  8
03__ASM_ALL_CURVES
100
AcDbLine
 62
4
  6
CONTINUOUS
 10
10.9675227091
 20
6.3057385157
 11
10.9725227091
 21
6.2990718458
  0
LINE
  5
345
100
AcDbEntity
  8
03__ASM_ALL_CURVES
100
AcDbLine
 62
4
  6
CONTINUOUS
 10
11.0275227091
 20
6.3124051808
 11
11.0375227091
 21
6.2990718458
  0
LINE
  5
346
100
AcDbEntity
  8
03__ASM_ALL_CURVES
100
AcDbLine
 62
4
  6
CONTINUOUS
 10
8.7241893742
 20
9.2204051808
 11
8.7175227091
 21
9.2304051808
  0
LINE
  5
347
100
AcDbEntity
  8
03__ASM_ALL_CURVES
100
AcDbLine
 62
4
  6
CONTINUOUS
 10
8.5718560422
 20
9.4804051808
 11
8.5785227091
 21
9.4704051808
  0
LINE
  5
348
100
AcDbEntity
  8
03__ASM_ALL_CURVES
100
AcDbLine
 62
4
  6
CONTINUOUS
 10
8.7908560422
 20
9.2404051808
 11
8.7975227091
 21
9.2304051808
  0
LINE
  5
349
100
AcDbEntity
  8
03__ASM_ALL_CURVES
100
AcDbLine
 62
4
  6
CONTINUOUS
 10
8.5051893742
 20
9.6954051808
 11
8.4985227091
 21
9.7054051808
  0
LINE
  5
34A
100
AcDbEntity
  8
03__ASM_ALL_CURVES
100
AcDbLine
 62
4
  6
CONTINUOUS
 10
8.7241893742
 20
9.3754051808
 11
8.7175227091
 21
9.3854051808
  0
LINE
  5
34B
100
AcDbEntity
  8
03__ASM_ALL_CURVES
100
AcDbLine
 62
4
  6
CONTINUOUS
 10
8.7575227091
 20
9.3754051808
 11
8.750856044
 21
9.3854051808
  0
LINE
  5
34C
100
AcDbEntity
  8
03__ASM_ALL_CURVES
100
AcDbLine
 62
4
  6
CONTINUOUS
 10
8.8671893742
 20
9.2204051808
 11
8.8605227091
 21
9.2304051808
  0
LINE
  5
34D
100
AcDbEntity
  8
03__ASM_ALL_CURVES
100
AcDbLine
 62
4
  6
CONTINUOUS
 10
8.7441893742
 20
9.4054051808
 11
8.750856044
 21
9.3954051808
  0
LINE
  5
34E
100
AcDbEntity
  8
03__ASM_ALL_CURVES
100
AcDbLine
 62
4
  6
CONTINUOUS
 10
8.531856044
 20
9.7254051808
 11
8.5451893766
 21
9.7054051808
  0
LINE
  5
34F
100
AcDbEntity
  8
03__ASM_ALL_CURVES
100
AcDbLine
 62
4
  6
CONTINUOUS
 10
8.7908560422
 20
9.4054051808
 11
8.7975227091
 21
9.3954051808
  0
LINE
  5
350
100
AcDbEntity
  8
03__ASM_ALL_CURVES
100
AcDbLine
 62
4
  6
CONTINUOUS
 10
8.9338560422
 20
9.2404051808
 11
8.9405227091
 21
9.2304051808
  0
LINE
  5
351
100
AcDbEntity
  8
03__ASM_ALL_CURVES
100
AcDbLine
 62
4
  6
CONTINUOUS
 10
8.8671893742
 20
9.3754051808
 11
8.8605227091
 21
9.3854051808
  0
LINE
  5
352
100
AcDbEntity
  8
03__ASM_ALL_CURVES
100
AcDbLine
 62
4
  6
CONTINUOUS
 10
8.7575227091
 20
10.0454051808
 11
8.7641893766
 21
10.0304051808
  0
LINE
  5
353
100
AcDbEntity
  8
03__ASM_ALL_CURVES
100
AcDbLine
 62
4
  6
CONTINUOUS
 10
9.4135227091
 20
8.1379051808
 11
9.4135227091
 21
8.1229051808
  0
LINE
  5
354
100
AcDbEntity
  8
03__ASM_ALL_CURVES
100
AcDbLine
 62
4
  6
CONTINUOUS
 10
9.4135227091
 20
8.0104051808
 11
9.4135227091
 21
7.9804051808
  0
LINE
  5
355
100
AcDbEntity
  8
03__ASM_ALL_CURVES
100
AcDbLine
 62
4
  6
CONTINUOUS
 10
9.4135227091
 20
7.7779051808
 11
9.4135227091
 21
7.7629051808
  0
LINE
  5
356
100
AcDbEntity
  8
0
100
AcDbLine
 62
7
  6
CONTINUOUS
 10
9.5385227091
 20
8.3194051989
 11
9.5385227091
 21
6.6634051989
  0
LINE
  5
357
100
AcDbEntity
  8
0
100
AcDbLine
 62
7
  6
CONTINUOUS
 10
9.5695227091
 20
8.3194051989
 11
9.5695227091
 21
6.6634051989
  0
LINE
  5
358
100
AcDbEntity
  8
03__ASM_ALL_CURVES
100
AcDbLine
 62
4
  6
CONTINUOUS
 10
9.5925227091
 20
9.2304051808
 11
9.5991893742
 21
9.2404051808
  0
LINE
  5
359
100
AcDbEntity
  8
03__ASM_ALL_CURVES
100
AcDbLine
 62
4
  6
CONTINUOUS
 10
9.6725227091
 20
9.2304051808
 11
9.6658560422
 21
9.2204051808
  0
LINE
  5
35A
100
AcDbEntity
  8
03__ASM_ALL_CURVES
100
AcDbLine
 62
4
  6
CONTINUOUS
 10
9.5991893742
 20
9.2404051808
 11
9.605856044
 21
9.2454051808
  0
LINE
  5
35B
100
AcDbEntity
  8
03__ASM_ALL_CURVES
100
AcDbLine
 62
4
  6
CONTINUOUS
 10
9.6658560422
 20
9.2204051808
 11
9.6591893754
 21
9.2154051808
  0
LINE
  5
35C
100
AcDbEntity
  8
03__ASM_ALL_CURVES
100
AcDbLine
 62
4
  6
CONTINUOUS
 10
9.605856044
 20
9.2454051808
 11
9.6191893742
 21
9.2504051808
  0
LINE
  5
35D
100
AcDbEntity
  8
03__ASM_ALL_CURVES
100
AcDbLine
 62
4
  6
CONTINUOUS
 10
9.6591893754
 20
9.2154051808
 11
9.6458560416
 21
9.2104051808
  0
LINE
  5
35E
100
AcDbEntity
  8
03__ASM_ALL_CURVES
100
AcDbLine
 62
4
  6
CONTINUOUS
 10
9.3235227091
 20
8.0404051808
 11
9.3535227091
 21
8.0479051808
  0
LINE
  5
35F
100
AcDbEntity
  8
03__ASM_ALL_CURVES
100
AcDbLine
 62
4
  6
CONTINUOUS
 10
9.3835227091
 20
8.0929051808
 11
9.3535227091
 21
8.0854051808
  0
LINE
  5
360
100
AcDbEntity
  8
0
100
AcDbLine
 62
7
  6
CONTINUOUS
 10
7.9755227091
 20
8.3194051989
 11
7.9445227091
 21
8.3194051989
  0
LINE
  5
361
100
AcDbEntity
  8
0
100
AcDbLine
 62
7
  6
CONTINUOUS
 10
9.5385227091
 20
8.3194051989
 11
9.5695227091
 21
8.3194051989
  0
LINE
  5
362
100
AcDbEntity
  8
0
100
AcDbLine
 62
7
  6
CONTINUOUS
 10
8.9759276541
 20
8.3669212148
 11
8.5391177641
 21
8.3669212148
  0
LINE
  5
363
100
AcDbEntity
  8
03__ASM_ALL_CURVES
100
AcDbLine
 62
4
  6
CONTINUOUS
 10
10.7125227091
 20
7.9227385133
 11
10.6975227091
 21
7.9294051808
  0
LINE
  5
364
100
AcDbEntity
  8
03__ASM_ALL_CURVES
100
AcDbLine
 62
4
  6
CONTINUOUS
 10
10.3875227091
 20
7.8894051808
 11
10.3775227091
 21
7.8960718476
  0
LINE
  5
365
100
AcDbEntity
  8
03__ASM_ALL_CURVES
100
AcDbLine
 62
4
  6
CONTINUOUS
 10
10.3875227091
 20
7.9360718458
 11
10.3775227091
 21
7.9427385157
  0
LINE
  5
366
100
AcDbEntity
  8
03__ASM_ALL_CURVES
100
AcDbLine
 62
4
  6
CONTINUOUS
 10
10.3975227091
 20
7.9360718458
 11
10.4075227091
 21
7.9294051808
  0
LINE
  5
367
100
AcDbEntity
  8
03__ASM_ALL_CURVES
100
AcDbLine
 62
4
  6
CONTINUOUS
 10
10.3975227091
 20
7.9694051808
 11
10.4075227091
 21
7.9627385157
  0
LINE
  5
368
100
AcDbEntity
  8
03__ASM_ALL_CURVES
100
AcDbLine
 62
4
  6
CONTINUOUS
 10
8.511856044
 20
9.3754051808
 11
8.5051893742
 21
9.3804051808
  0
LINE
  5
369
100
AcDbEntity
  8
03__ASM_ALL_CURVES
100
AcDbLine
 62
4
  6
CONTINUOUS
 10
8.730856044
 20
9.2154051808
 11
8.7241893742
 21
9.2204051808
  0
LINE
  5
36A
100
AcDbEntity
  8
03__ASM_ALL_CURVES
100
AcDbLine
 62
4
  6
CONTINUOUS
 10
8.5651893754
 20
9.4054051808
 11
8.5718560422
 21
9.4004051808
  0
LINE
  5
36B
100
AcDbEntity
  8
03__ASM_ALL_CURVES
100
AcDbLine
 62
4
  6
CONTINUOUS
 10
8.7841893754
 20
9.2454051808
 11
8.7908560422
 21
9.2404051808
  0
LINE
  5
36C
100
AcDbEntity
  8
03__ASM_ALL_CURVES
100
AcDbLine
 62
4
  6
CONTINUOUS
 10
10.7025227091
 20
6.8490718476
 11
10.6975227091
 21
6.8557385145
  0
LINE
  5
36D
100
AcDbEntity
  8
03__ASM_ALL_CURVES
100
AcDbLine
 62
4
  6
CONTINUOUS
 10
10.7225227091
 20
6.9157385157
 11
10.7275227091
 21
6.9090718458
  0
LINE
  5
36E
100
AcDbEntity
  8
03__ASM_ALL_CURVES
100
AcDbLine
 62
4
  6
CONTINUOUS
 10
10.8050227091
 20
6.8524051811
 11
10.8125227091
 21
6.8424051808
  0
LINE
  5
36F
100
AcDbEntity
  8
03__ASM_ALL_CURVES
100
AcDbLine
 62
4
  6
CONTINUOUS
 10
10.1425227091
 20
7.8960718476
 11
10.1375227091
 21
7.9027385145
  0
LINE
  5
370
100
AcDbEntity
  8
03__ASM_ALL_CURVES
100
AcDbLine
 62
4
  6
CONTINUOUS
 10
10.8875227091
 20
6.9157385157
 11
10.8925227091
 21
6.9090718458
  0
LINE
  5
371
100
AcDbEntity
  8
03__ASM_ALL_CURVES
100
AcDbLine
 62
4
  6
CONTINUOUS
 10
8.5051893742
 20
9.9404051808
 11
8.4985227091
 21
9.9504051808
  0
LINE
  5
372
100
AcDbEntity
  8
03__ASM_ALL_CURVES
100
AcDbLine
 62
4
  6
CONTINUOUS
 10
8.9005227091
 20
9.3754051808
 11
8.893856044
 21
9.3854051808
  0
LINE
  5
373
100
AcDbEntity
  8
03__ASM_ALL_CURVES
100
AcDbLine
 62
4
  6
CONTINUOUS
 10
8.8871893742
 20
9.4054051808
 11
8.893856044
 21
9.3954051808
  0
LINE
  5
374
100
AcDbEntity
  8
03__ASM_ALL_CURVES
100
AcDbLine
 62
4
  6
CONTINUOUS
 10
8.5051893742
 20
10.0154051808
 11
8.4985227091
 21
10.0254051808
  0
LINE
  5
375
100
AcDbEntity
  8
03__ASM_ALL_CURVES
100
AcDbLine
 62
4
  6
CONTINUOUS
 10
8.7241893742
 20
9.6954051808
 11
8.7175227091
 21
9.7054051808
  0
LINE
  5
376
100
AcDbEntity
  8
03__ASM_ALL_CURVES
100
AcDbLine
 62
4
  6
CONTINUOUS
 10
8.9338560422
 20
9.4054051808
 11
8.9405227091
 21
9.3954051808
  0
LINE
  5
377
100
AcDbEntity
  8
03__ASM_ALL_CURVES
100
AcDbLine
 62
4
  6
CONTINUOUS
 10
8.5718560422
 20
9.9604051808
 11
8.5785227091
 21
9.9504051808
  0
LINE
  5
378
100
AcDbEntity
  8
03__ASM_ALL_CURVES
100
AcDbLine
 62
4
  6
CONTINUOUS
 10
8.5385227091
 20
10.0154051808
 11
8.531856044
 21
10.0254051808
  0
LINE
  5
379
100
AcDbEntity
  8
03__ASM_ALL_CURVES
100
AcDbLine
 62
4
  6
CONTINUOUS
 10
8.5251893742
 20
10.0454051808
 11
8.531856044
 21
10.0354051808
  0
LINE
  5
37A
100
AcDbEntity
  8
03__ASM_ALL_CURVES
100
AcDbLine
 62
4
  6
CONTINUOUS
 10
8.750856044
 20
9.7254051808
 11
8.7641893766
 21
9.7054051808
  0
LINE
  5
37B
100
AcDbEntity
  8
03__ASM_ALL_CURVES
100
AcDbLine
 62
4
  6
CONTINUOUS
 10
8.7241893742
 20
9.7754051808
 11
8.7175227091
 21
9.7854051808
  0
LINE
  5
37C
100
AcDbEntity
  8
03__ASM_ALL_CURVES
100
AcDbLine
 62
4
  6
CONTINUOUS
 10
8.5718560422
 20
10.0454051808
 11
8.5785227091
 21
10.0354051808
  0
LINE
  5
37D
100
AcDbEntity
  8
03__ASM_ALL_CURVES
100
AcDbLine
 62
4
  6
CONTINUOUS
 10
8.750856044
 20
9.8054051808
 11
8.7641893766
 21
9.7854051808
  0
LINE
  5
37E
100
AcDbEntity
  8
03__ASM_ALL_CURVES
100
AcDbLine
 62
4
  6
CONTINUOUS
 10
8.8671893742
 20
9.6954051808
 11
8.8605227091
 21
9.7054051808
  0
LINE
  5
37F
100
AcDbEntity
  8
03__ASM_ALL_CURVES
100
AcDbLine
 62
4
  6
CONTINUOUS
 10
8.7241893742
 20
9.9404051808
 11
8.7175227091
 21
9.9504051808
  0
LINE
  5
380
100
AcDbEntity
  8
03__ASM_ALL_CURVES
100
AcDbLine
 62
4
  6
CONTINUOUS
 10
8.893856044
 20
9.7254051808
 11
8.9071893766
 21
9.7054051808
  0
LINE
  5
381
100
AcDbEntity
  8
03__ASM_ALL_CURVES
100
AcDbLine
 62
4
  6
CONTINUOUS
 10
8.8671893742
 20
9.7804051808
 11
8.8605227091
 21
9.7904051808
  0
LINE
  5
382
100
AcDbEntity
  8
03__ASM_ALL_CURVES
100
AcDbLine
 62
4
  6
CONTINUOUS
 10
8.7241893742
 20
10.0204051808
 11
8.7175227091
 21
10.0304051808
  0
LINE
  5
383
100
AcDbEntity
  8
0
100
AcDbLine
 62
7
  6
CONTINUOUS
 10
9.6325227091
 20
6.272405217
 11
9.6325227091
 21
8.7104051808
  0
LINE
  5
384
100
AcDbEntity
  8
03__ASM_ALL_CURVES
100
AcDbLine
 62
4
  6
CONTINUOUS
 10
9.6325227091
 20
8.7904051808
 11
9.6325227091
 21
9.0304051808
  0
LINE
  5
385
100
AcDbEntity
  8
03__ASM_ALL_CURVES
100
AcDbLine
 62
4
  6
CONTINUOUS
 10
9.2935227091
 20
8.1379051808
 11
9.3035227067
 21
8.1529051808
  0
LINE
  5
386
100
AcDbEntity
  8
03__ASM_ALL_CURVES
100
AcDbLine
 62
4
  6
CONTINUOUS
 10
10.7975227091
 20
8.4704051808
 11
10.7875227091
 21
8.4704051808
  0
LINE
  5
387
100
AcDbEntity
  8
03__ASM_ALL_CURVES
100
AcDbLine
 62
4
  6
CONTINUOUS
 10
10.6525227091
 20
8.4704051808
 11
10.6450227091
 21
8.4704051808
  0
LINE
  5
388
100
AcDbEntity
  8
03__ASM_ALL_CURVES
100
AcDbLine
 62
4
  6
CONTINUOUS
 10
10.5575227091
 20
8.4704051808
 11
10.5475227091
 21
8.4704051808
  0
LINE
  5
389
100
AcDbEntity
  8
03__ASM_ALL_CURVES
100
AcDbLine
 62
4
  6
CONTINUOUS
 10
10.2525227091
 20
8.4704051808
 11
10.2450227091
 21
8.4704051808
  0
LINE
  5
38A
100
AcDbEntity
  8
03__ASM_ALL_CURVES
100
AcDbLine
 62
4
  6
CONTINUOUS
 10
10.2925227091
 20
8.4704051808
 11
10.3325227091
 21
8.4704051808
  0
LINE
  5
38B
100
AcDbEntity
  8
03__ASM_ALL_CURVES
100
AcDbLine
 62
4
  6
CONTINUOUS
 10
9.7125227091
 20
8.5104051808
 11
9.9525227091
 21
8.5104051808
  0
LINE
  5
38C
100
AcDbEntity
  8
03__ASM_ALL_CURVES
100
AcDbLine
 62
4
  6
CONTINUOUS
 10
10.7875227091
 20
8.5170718458
 11
10.7975227091
 21
8.5170718458
  0
LINE
  5
38D
100
AcDbEntity
  8
03__ASM_ALL_CURVES
100
AcDbLine
 62
4
  6
CONTINUOUS
 10
10.5475227091
 20
8.5237385157
 11
10.5575227091
 21
8.5237385157
  0
LINE
  5
38E
100
AcDbEntity
  8
03__ASM_ALL_CURVES
100
AcDbLine
 62
4
  6
CONTINUOUS
 10
10.5725227091
 20
8.5504051808
 11
10.5425227091
 21
8.5504051808
  0
LINE
  5
38F
100
AcDbEntity
  8
03__ASM_ALL_CURVES
100
AcDbLine
 62
4
  6
CONTINUOUS
 10
10.3075227091
 20
8.5504051808
 11
10.3175227091
 21
8.5504051808
  0
LINE
  5
390
100
AcDbEntity
  8
03__ASM_ALL_CURVES
100
AcDbLine
 62
4
  6
CONTINUOUS
 10
10.7875227091
 20
8.5504051808
 11
10.7975227091
 21
8.5504051808
  0
LINE
  5
391
100
AcDbEntity
  8
03__ASM_ALL_CURVES
100
AcDbLine
 62
4
  6
CONTINUOUS
 10
7.8691893742
 20
9.4004051808
 11
7.8425227091
 21
9.4104051808
  0
LINE
  5
392
100
AcDbEntity
  8
03__ASM_ALL_CURVES
100
AcDbLine
 62
4
  6
CONTINUOUS
 10
7.8425227091
 20
9.7254051808
 11
7.9025227091
 21
9.6904051808
  0
LINE
  5
393
100
AcDbEntity
  8
03__ASM_ALL_CURVES
100
AcDbLine
 62
4
  6
CONTINUOUS
 10
7.8425227091
 20
9.8054051808
 11
7.9025227091
 21
9.7704051808
  0
LINE
  5
394
100
AcDbEntity
  8
03__ASM_ALL_CURVES
100
AcDbLine
 62
4
  6
CONTINUOUS
 10
10.7125227091
 20
7.8894051808
 11
10.7025227091
 21
7.8960718476
  0
LINE
  5
395
100
AcDbEntity
  8
03__ASM_ALL_CURVES
100
AcDbLine
 62
4
  6
CONTINUOUS
 10
10.7125227091
 20
7.9694051808
 11
10.7225227091
 21
7.9627385157
  0
LINE
  5
396
100
AcDbEntity
  8
03__ASM_ALL_CURVES
100
AcDbLine
 62
4
  6
CONTINUOUS
 10
10.8675227091
 20
7.8894051808
 11
10.8575227091
 21
7.8960718476
  0
LINE
  5
397
100
AcDbEntity
  8
03__ASM_ALL_CURVES
100
AcDbLine
 62
4
  6
CONTINUOUS
 10
10.8675227091
 20
7.9360718458
 11
10.8575227091
 21
7.9427385157
  0
LINE
  5
398
100
AcDbEntity
  8
03__ASM_ALL_CURVES
100
AcDbLine
 62
4
  6
CONTINUOUS
 10
10.8775227091
 20
7.9360718458
 11
10.8875227091
 21
7.9294051808
  0
LINE
  5
399
100
AcDbEntity
  8
03__ASM_ALL_CURVES
100
AcDbLine
 62
4
  6
CONTINUOUS
 10
10.8775227091
 20
7.9694051808
 11
10.8875227091
 21
7.9627385157
  0
LINE
  5
39A
100
AcDbEntity
  8
03__ASM_ALL_CURVES
100
AcDbLine
 62
4
  6
CONTINUOUS
 10
10.1525227091
 20
8.4704051808
 11
10.1425227091
 21
8.4770718476
  0
LINE
  5
39B
100
AcDbEntity
  8
03__ASM_ALL_CURVES
100
AcDbLine
 62
4
  6
CONTINUOUS
 10
8.511856044
 20
9.4554051808
 11
8.5051893742
 21
9.4604051808
  0
LINE
  5
39C
100
AcDbEntity
  8
03__ASM_ALL_CURVES
100
AcDbLine
 62
4
  6
CONTINUOUS
 10
8.873856044
 20
9.2154051808
 11
8.8671893742
 21
9.2204051808
  0
LINE
  5
39D
100
AcDbEntity
  8
03__ASM_ALL_CURVES
100
AcDbLine
 62
4
  6
CONTINUOUS
 10
8.5651893754
 20
9.4854051808
 11
8.5718560422
 21
9.4804051808
  0
LINE
  5
39E
100
AcDbEntity
  8
03__ASM_ALL_CURVES
100
AcDbLine
 62
4
  6
CONTINUOUS
 10
8.730856044
 20
9.3704051808
 11
8.7241893742
 21
9.3754051808
  0
LINE
  5
39F
100
AcDbEntity
  8
03__ASM_ALL_CURVES
100
AcDbLine
 62
4
  6
CONTINUOUS
 10
8.9271893754
 20
9.2454051808
 11
8.9338560422
 21
9.2404051808
  0
LINE
  5
3A0
100
AcDbEntity
  8
03__ASM_ALL_CURVES
100
AcDbLine
 62
4
  6
CONTINUOUS
 10
8.7708560416
 20
9.3654051808
 11
8.7575227091
 21
9.3754051808
  0
LINE
  5
3A1
100
AcDbEntity
  8
03__ASM_ALL_CURVES
100
AcDbLine
 62
4
  6
CONTINUOUS
 10
8.7375227091
 20
9.4104051808
 11
8.7441893742
 21
9.4054051808
  0
LINE
  5
3A2
100
AcDbEntity
  8
03__ASM_ALL_CURVES
100
AcDbLine
 62
4
  6
CONTINUOUS
 10
8.7775227091
 20
9.4154051808
 11
8.7908560422
 21
9.4054051808
  0
LINE
  5
3A3
100
AcDbEntity
  8
03__ASM_ALL_CURVES
100
AcDbLine
 62
4
  6
CONTINUOUS
 10
8.4985227091
 20
9.6354051808
 11
8.511856044
 21
9.6254051808
  0
LINE
  5
3A4
100
AcDbEntity
  8
03__ASM_ALL_CURVES
100
AcDbLine
 62
4
  6
CONTINUOUS
 10
8.873856044
 20
9.3704051808
 11
8.8671893742
 21
9.3754051808
  0
LINE
  5
3A5
100
AcDbEntity
  8
03__ASM_ALL_CURVES
100
AcDbLine
 62
4
  6
CONTINUOUS
 10
7.9091893754
 20
10.1154051808
 11
7.9225227091
 21
10.1054051808
  0
LINE
  5
3A6
100
AcDbEntity
  8
03__ASM_ALL_CURVES
100
AcDbLine
 62
4
  6
CONTINUOUS
 10
8.9138560416
 20
9.3654051808
 11
8.9005227091
 21
9.3754051808
  0
LINE
  5
3A7
100
AcDbEntity
  8
03__ASM_ALL_CURVES
100
AcDbLine
 62
4
  6
CONTINUOUS
 10
8.8805227091
 20
9.4104051808
 11
8.8871893742
 21
9.4054051808
  0
LINE
  5
3A8
100
AcDbEntity
  8
03__ASM_ALL_CURVES
100
AcDbLine
 62
4
  6
CONTINUOUS
 10
8.511856044
 20
9.6904051808
 11
8.5051893742
 21
9.6954051808
  0
LINE
  5
3A9
100
AcDbEntity
  8
03__ASM_ALL_CURVES
100
AcDbLine
 62
4
  6
CONTINUOUS
 10
8.9205227091
 20
9.4154051808
 11
8.9338560422
 21
9.4054051808
  0
LINE
  5
3AA
100
AcDbEntity
  8
03__ASM_ALL_CURVES
100
AcDbLine
 62
4
  6
CONTINUOUS
 10
8.5451893766
 20
9.7054051808
 11
8.5585227091
 21
9.6954051808
  0
LINE
  5
3AB
100
AcDbEntity
  8
03__ASM_ALL_CURVES
100
AcDbLine
 62
4
  6
CONTINUOUS
 10
10.1625227091
 20
7.9627385157
 11
10.1675227091
 21
7.9560718458
  0
LINE
  5
3AC
100
AcDbEntity
  8
03__ASM_ALL_CURVES
100
AcDbLine
 62
4
  6
CONTINUOUS
 10
10.9675227091
 20
6.9157385157
 11
10.9725227091
 21
6.9090718458
  0
LINE
  5
3AD
100
AcDbEntity
  8
03__ASM_ALL_CURVES
100
AcDbLine
 62
4
  6
CONTINUOUS
 10
10.2450227091
 20
7.8994051811
 11
10.2525227091
 21
7.8894051808
  0
LINE
  5
3AE
100
AcDbEntity
  8
03__ASM_ALL_CURVES
100
AcDbLine
 62
4
  6
CONTINUOUS
 10
11.0275227091
 20
6.9224051808
 11
11.0375227091
 21
6.9090718458
  0
LINE
  5
3AF
100
AcDbEntity
  8
03__ASM_ALL_CURVES
100
AcDbLine
 62
4
  6
CONTINUOUS
 10
10.3775227091
 20
7.8960718476
 11
10.3675227091
 21
7.9094051808
  0
LINE
  5
3B0
100
AcDbEntity
  8
03__ASM_ALL_CURVES
100
AcDbLine
 62
4
  6
CONTINUOUS
 10
10.3775227091
 20
7.9427385157
 11
10.3725227091
 21
7.9494051808
  0
LINE
  5
3B1
100
AcDbEntity
  8
03__ASM_ALL_CURVES
100
AcDbLine
 62
4
  6
CONTINUOUS
 10
10.4075227091
 20
7.9294051808
 11
10.4175227091
 21
7.9160718482
  0
LINE
  5
3B2
100
AcDbEntity
  8
03__ASM_ALL_CURVES
100
AcDbLine
 62
4
  6
CONTINUOUS
 10
10.4075227091
 20
7.9627385157
 11
10.4125227091
 21
7.9560718458
  0
LINE
  5
3B3
100
AcDbEntity
  8
03__ASM_ALL_CURVES
100
AcDbLine
 62
4
  6
CONTINUOUS
 10
8.7908560422
 20
9.9604051808
 11
8.7975227091
 21
9.9504051808
  0
LINE
  5
3B4
100
AcDbEntity
  8
03__ASM_ALL_CURVES
100
AcDbLine
 62
4
  6
CONTINUOUS
 10
8.9338560422
 20
9.8004051808
 11
8.9405227091
 21
9.7904051808
  0
LINE
  5
3B5
100
AcDbEntity
  8
03__ASM_ALL_CURVES
100
AcDbLine
 62
4
  6
CONTINUOUS
 10
8.7908560422
 20
10.0404051808
 11
8.7975227091
 21
10.0304051808
  0
LINE
  5
3B6
100
AcDbEntity
  8
03__ASM_ALL_CURVES
100
AcDbLine
 62
4
  6
CONTINUOUS
 10
8.893856044
 20
9.9354051808
 11
8.8871893742
 21
9.9454051808
  0
LINE
  5
3B7
100
AcDbEntity
  8
03__ASM_ALL_CURVES
100
AcDbLine
 62
4
  6
CONTINUOUS
 10
8.9338560422
 20
9.9654051808
 11
8.9405227091
 21
9.9554051808
  0
LINE
  5
3B8
100
AcDbEntity
  8
03__ASM_ALL_CURVES
100
AcDbLine
 62
4
  6
CONTINUOUS
 10
10.6175227091
 20
6.2457385145
 11
10.6125227091
 21
6.2590718482
  0
LINE
  5
3B9
100
AcDbEntity
  8
03__ASM_ALL_CURVES
100
AcDbLine
 62
4
  6
CONTINUOUS
 10
10.6475227091
 20
6.2724051808
 11
10.6525227091
 21
6.2590718482
  0
LINE
  5
3BA
100
AcDbEntity
  8
03__ASM_ALL_CURVES
100
AcDbLine
 62
4
  6
CONTINUOUS
 10
10.1375227091
 20
7.9027385145
 11
10.1325227091
 21
7.9160718482
  0
LINE
  5
3BB
100
AcDbEntity
  8
0
100
AcDbLine
 62
7
  6
CONTINUOUS
 10
9.0272202366
 20
7.5215029331
 11
9.2456251816
 21
7.8997913944
  0
LINE
  5
3BC
100
AcDbEntity
  8
03__ASM_ALL_CURVES
100
AcDbLine
 62
4
  6
CONTINUOUS
 10
9.2935227091
 20
8.0104051808
 11
9.3035227067
 21
8.0254051808
  0
LINE
  5
3BD
100
AcDbEntity
  8
03__ASM_ALL_CURVES
100
AcDbLine
 62
4
  6
CONTINUOUS
 10
9.4135227091
 20
8.1229051808
 11
9.4035227088
 21
8.1079051808
  0
LINE
  5
3BE
100
AcDbEntity
  8
03__ASM_ALL_CURVES
100
AcDbLine
 62
4
  6
CONTINUOUS
 10
9.2935227091
 20
7.7779051808
 11
9.3035227067
 21
7.7929051808
  0
LINE
  5
3BF
100
AcDbEntity
  8
0
100
AcDbLine
 62
7
  6
CONTINUOUS
 10
8.3195227091
 20
8.6634051989
 11
9.1945227091
 21
8.6634051989
  0
LINE
  5
3C0
100
AcDbEntity
  8
0
100
AcDbLine
 62
7
  6
CONTINUOUS
 10
8.3195227091
 20
8.6944051989
 11
9.1945227091
 21
8.6944051989
  0
LINE
  5
3C1
100
AcDbEntity
  8
0
100
AcDbLine
 62
7
  6
CONTINUOUS
 10
9.6325227091
 20
8.7104051808
 11
7.8825227091
 21
8.7104051808
  0
LINE
  5
3C2
100
AcDbEntity
  8
03__ASM_ALL_CURVES
100
AcDbLine
 62
4
  6
CONTINUOUS
 10
9.7125227091
 20
8.7104051808
 11
9.9525227091
 21
8.7104051808
  0
LINE
  5
3C3
100
AcDbEntity
  8
03__ASM_ALL_CURVES
100
AcDbLine
 62
4
  6
CONTINUOUS
 10
7.8891893766
 20
9.3954051808
 11
7.8691893742
 21
9.4004051808
  0
LINE
  5
3C4
100
AcDbEntity
  8
03__ASM_ALL_CURVES
100
AcDbLine
 62
4
  6
CONTINUOUS
 10
7.8958560416
 20
9.4954051808
 11
7.9091893754
 21
9.4904051808
  0
LINE
  5
3C5
100
AcDbEntity
  8
03__ASM_ALL_CURVES
100
AcDbLine
 62
4
  6
CONTINUOUS
 10
8.7441893742
 20
9.2104051808
 11
8.730856044
 21
9.2154051808
  0
LINE
  5
3C6
100
AcDbEntity
  8
03__ASM_ALL_CURVES
100
AcDbLine
 62
4
  6
CONTINUOUS
 10
8.7708560416
 20
9.2504051808
 11
8.7841893754
 21
9.2454051808
  0
LINE
  5
3C7
100
AcDbEntity
  8
03__ASM_ALL_CURVES
100
AcDbLine
 62
4
  6
CONTINUOUS
 10
8.8871893742
 20
9.2104051808
 11
8.873856044
 21
9.2154051808
  0
LINE
  5
3C8
100
AcDbEntity
  8
03__ASM_ALL_CURVES
100
AcDbLine
 62
4
  6
CONTINUOUS
 10
8.5251893742
 20
9.3704051808
 11
8.511856044
 21
9.3754051808
  0
LINE
  5
3C9
100
AcDbEntity
  8
03__ASM_ALL_CURVES
100
AcDbLine
 62
4
  6
CONTINUOUS
 10
8.9138560416
 20
9.2504051808
 11
8.9271893754
 21
9.2454051808
  0
LINE
  5
3CA
100
AcDbEntity
  8
03__ASM_ALL_CURVES
100
AcDbLine
 62
4
  6
CONTINUOUS
 10
8.5518560416
 20
9.4104051808
 11
8.5651893754
 21
9.4054051808
  0
LINE
  5
3CB
100
AcDbEntity
  8
03__ASM_ALL_CURVES
100
AcDbLine
 62
4
  6
CONTINUOUS
 10
7.8425227091
 20
9.9654051808
 11
7.9025227091
 21
9.9304051808
  0
LINE
  5
3CC
100
AcDbEntity
  8
03__ASM_ALL_CURVES
100
AcDbLine
 62
4
  6
CONTINUOUS
 10
7.8425227091
 20
10.0454051808
 11
7.9025227091
 21
10.0104051808
  0
LINE
  5
3CD
100
AcDbEntity
  8
03__ASM_ALL_CURVES
100
AcDbLine
 62
4
  6
CONTINUOUS
 10
10.1525227091
 20
8.5504051808
 11
10.1625227091
 21
8.5437385157
  0
LINE
  5
3CE
100
AcDbEntity
  8
03__ASM_ALL_CURVES
100
AcDbLine
 62
4
  6
CONTINUOUS
 10
10.3175227091
 20
8.5504051808
 11
10.3275227091
 21
8.5437385157
  0
LINE
  5
3CF
100
AcDbEntity
  8
03__ASM_ALL_CURVES
100
AcDbLine
 62
4
  6
CONTINUOUS
 10
10.1525227091
 20
8.6704051808
 11
10.1425227091
 21
8.6770718476
  0
LINE
  5
3D0
100
AcDbEntity
  8
03__ASM_ALL_CURVES
100
AcDbLine
 62
4
  6
CONTINUOUS
 10
10.5475227091
 20
8.4704051808
 11
10.5375227091
 21
8.4770718476
  0
LINE
  5
3D1
100
AcDbEntity
  8
03__ASM_ALL_CURVES
100
AcDbLine
 62
4
  6
CONTINUOUS
 10
10.1525227091
 20
8.7504051808
 11
10.1625227091
 21
8.7437385157
  0
LINE
  5
3D2
100
AcDbEntity
  8
03__ASM_ALL_CURVES
100
AcDbLine
 62
4
  6
CONTINUOUS
 10
10.5575227091
 20
8.5237385157
 11
10.5675227091
 21
8.5170718458
  0
LINE
  5
3D3
100
AcDbEntity
  8
03__ASM_ALL_CURVES
100
AcDbLine
 62
4
  6
CONTINUOUS
 10
8.5251893742
 20
9.7304051808
 11
8.531856044
 21
9.7254051808
  0
LINE
  5
3D4
100
AcDbEntity
  8
03__ASM_ALL_CURVES
100
AcDbLine
 62
4
  6
CONTINUOUS
 10
8.7175227091
 20
9.6354051808
 11
8.730856044
 21
9.6254051808
  0
LINE
  5
3D5
100
AcDbEntity
  8
03__ASM_ALL_CURVES
100
AcDbLine
 62
4
  6
CONTINUOUS
 10
8.730856044
 20
9.6904051808
 11
8.7241893742
 21
9.6954051808
  0
LINE
  5
3D6
100
AcDbEntity
  8
03__ASM_ALL_CURVES
100
AcDbLine
 62
4
  6
CONTINUOUS
 10
8.7641893766
 20
9.7054051808
 11
8.7775227091
 21
9.6954051808
  0
LINE
  5
3D7
100
AcDbEntity
  8
03__ASM_ALL_CURVES
100
AcDbLine
 62
4
  6
CONTINUOUS
 10
8.8605227091
 20
9.6354051808
 11
8.873856044
 21
9.6254051808
  0
LINE
  5
3D8
100
AcDbEntity
  8
03__ASM_ALL_CURVES
100
AcDbLine
 62
4
  6
CONTINUOUS
 10
8.7441893742
 20
9.7304051808
 11
8.750856044
 21
9.7254051808
  0
LINE
  5
3D9
100
AcDbEntity
  8
03__ASM_ALL_CURVES
100
AcDbLine
 62
4
  6
CONTINUOUS
 10
8.730856044
 20
9.7704051808
 11
8.7241893742
 21
9.7754051808
  0
LINE
  5
3DA
100
AcDbEntity
  8
03__ASM_ALL_CURVES
100
AcDbLine
 62
4
  6
CONTINUOUS
 10
8.511856044
 20
9.9354051808
 11
8.5051893742
 21
9.9404051808
  0
LINE
  5
3DB
100
AcDbEntity
  8
03__ASM_ALL_CURVES
100
AcDbLine
 62
4
  6
CONTINUOUS
 10
8.873856044
 20
9.6904051808
 11
8.8671893742
 21
9.6954051808
  0
LINE
  5
3DC
100
AcDbEntity
  8
03__ASM_ALL_CURVES
100
AcDbLine
 62
4
  6
CONTINUOUS
 10
8.7641893766
 20
9.7854051808
 11
8.7775227091
 21
9.7754051808
  0
LINE
  5
3DD
100
AcDbEntity
  8
03__ASM_ALL_CURVES
100
AcDbLine
 62
4
  6
CONTINUOUS
 10
8.7441893742
 20
9.8104051808
 11
8.750856044
 21
9.8054051808
  0
LINE
  5
3DE
100
AcDbEntity
  8
03__ASM_ALL_CURVES
100
AcDbLine
 62
4
  6
CONTINUOUS
 10
8.9071893766
 20
9.7054051808
 11
8.9205227091
 21
9.6954051808
  0
LINE
  5
3DF
100
AcDbEntity
  8
03__ASM_ALL_CURVES
100
AcDbLine
 62
4
  6
CONTINUOUS
 10
8.5651893754
 20
9.9654051808
 11
8.5718560422
 21
9.9604051808
  0
LINE
  5
3E0
100
AcDbEntity
  8
03__ASM_ALL_CURVES
100
AcDbLine
 62
4
  6
CONTINUOUS
 10
8.511856044
 20
10.0104051808
 11
8.5051893742
 21
10.0154051808
  0
LINE
  5
3E1
100
AcDbEntity
  8
03__ASM_ALL_CURVES
100
AcDbLine
 62
4
  6
CONTINUOUS
 10
8.8871893742
 20
9.7304051808
 11
8.893856044
 21
9.7254051808
  0
LINE
  5
3E2
100
AcDbEntity
  8
03__ASM_ALL_CURVES
100
AcDbLine
 62
4
  6
CONTINUOUS
 10
10.5475227091
 20
7.9027385145
 11
10.5575227091
 21
7.8894051808
  0
LINE
  5
3E3
100
AcDbEntity
  8
03__ASM_ALL_CURVES
100
AcDbLine
 62
4
  6
CONTINUOUS
 10
10.1425227091
 20
8.4770718476
 11
10.1375227091
 21
8.4837385145
  0
LINE
  5
3E4
100
AcDbEntity
  8
03__ASM_ALL_CURVES
100
AcDbLine
 62
4
  6
CONTINUOUS
 10
10.1625227091
 20
8.5437385157
 11
10.1675227091
 21
8.5370718458
  0
LINE
  5
3E5
100
AcDbEntity
  8
03__ASM_ALL_CURVES
100
AcDbLine
 62
4
  6
CONTINUOUS
 10
10.2450227091
 20
8.4804051811
 11
10.2525227091
 21
8.4704051808
  0
LINE
  5
3E6
100
AcDbEntity
  8
03__ASM_ALL_CURVES
100
AcDbLine
 62
4
  6
CONTINUOUS
 10
10.7025227091
 20
7.8960718476
 11
10.6975227091
 21
7.9027385145
  0
LINE
  5
3E7
100
AcDbEntity
  8
03__ASM_ALL_CURVES
100
AcDbLine
 62
4
  6
CONTINUOUS
 10
10.1425227091
 20
8.6770718476
 11
10.1375227091
 21
8.6837385145
  0
LINE
  5
3E8
100
AcDbEntity
  8
03__ASM_ALL_CURVES
100
AcDbLine
 62
4
  6
CONTINUOUS
 10
10.7225227091
 20
7.9627385157
 11
10.7275227091
 21
7.9560718458
  0
LINE
  5
3E9
100
AcDbEntity
  8
03__ASM_ALL_CURVES
100
AcDbLine
 62
4
  6
CONTINUOUS
 10
9.5991893742
 20
9.2204051808
 11
9.5925227091
 21
9.2304051808
  0
LINE
  5
3EA
100
AcDbEntity
  8
03__ASM_ALL_CURVES
100
AcDbLine
 62
4
  6
CONTINUOUS
 10
9.6658560422
 20
9.2404051808
 11
9.6725227091
 21
9.2304051808
  0
LINE
  5
3EB
100
AcDbEntity
  8
03__ASM_ALL_CURVES
100
AcDbLine
 62
4
  6
CONTINUOUS
 10
10.1675227091
 20
7.9560718458
 11
10.1725227091
 21
7.9427385157
  0
LINE
  5
3EC
100
AcDbEntity
  8
03__ASM_ALL_CURVES
100
AcDbLine
 62
4
  6
CONTINUOUS
 10
10.6975227091
 20
6.8557385145
 11
10.6925227091
 21
6.8690718482
  0
LINE
  5
3ED
100
AcDbEntity
  8
03__ASM_ALL_CURVES
100
AcDbLine
 62
4
  6
CONTINUOUS
 10
10.7275227091
 20
6.8824051808
 11
10.7325227091
 21
6.8690718482
  0
LINE
  5
3EE
100
AcDbEntity
  8
03__ASM_ALL_CURVES
100
AcDbLine
 62
4
  6
CONTINUOUS
 10
10.1375227091
 20
8.4837385145
 11
10.1325227091
 21
8.4970718482
  0
LINE
  5
3EF
100
AcDbEntity
  8
03__ASM_ALL_CURVES
100
AcDbLine
 62
4
  6
CONTINUOUS
 10
10.1675227091
 20
8.5370718458
 11
10.1725227091
 21
8.5237385157
  0
LINE
  5
3F0
100
AcDbEntity
  8
03__ASM_ALL_CURVES
100
AcDbLine
 62
4
  6
CONTINUOUS
 10
10.5425227091
 20
6.2657385133
 11
10.5475227091
 21
6.2457385145
  0
LINE
  5
3F1
100
AcDbEntity
  8
03__ASM_ALL_CURVES
100
AcDbLine
 62
4
  6
CONTINUOUS
 10
10.5425227091
 20
6.8757385133
 11
10.5475227091
 21
6.8557385145
  0
LINE
  5
3F2
100
AcDbEntity
  8
03__ASM_ALL_CURVES
100
AcDbLine
 62
4
  6
CONTINUOUS
 10
10.1325227091
 20
7.9160718482
 11
10.1325227091
 21
7.9427385157
  0
LINE
  5
3F3
100
AcDbEntity
  8
03__ASM_ALL_CURVES
100
AcDbLine
 62
4
  6
CONTINUOUS
 10
10.1325227091
 20
8.4970718482
 11
10.1325227091
 21
8.5237385157
  0
LINE
  5
3F4
100
AcDbEntity
  8
03__ASM_ALL_CURVES
100
AcDbLine
 62
4
  6
CONTINUOUS
 10
10.1325227091
 20
8.6970718482
 11
10.1325227091
 21
8.7237385157
  0
LINE
  5
3F5
100
AcDbEntity
  8
03__ASM_ALL_CURVES
100
AcDbLine
 62
4
  6
CONTINUOUS
 10
10.1525227091
 20
6.9224051808
 11
10.1525227091
 21
6.8424051808
  0
LINE
  5
3F6
100
AcDbEntity
  8
03__ASM_ALL_CURVES
100
AcDbLine
 62
4
  6
CONTINUOUS
 10
10.1725227091
 20
8.7237385157
 11
10.1725227091
 21
8.6970718482
  0
LINE
  5
3F7
100
AcDbEntity
  8
03__ASM_ALL_CURVES
100
AcDbLine
 62
4
  6
CONTINUOUS
 10
10.1725227091
 20
8.5237385157
 11
10.1725227091
 21
8.4970718482
  0
LINE
  5
3F8
100
AcDbEntity
  8
03__ASM_ALL_CURVES
100
AcDbLine
 62
4
  6
CONTINUOUS
 10
10.1725227091
 20
7.9427385157
 11
10.1725227091
 21
7.9160718482
  0
LINE
  5
3F9
100
AcDbEntity
  8
03__ASM_ALL_CURVES
100
AcDbLine
 62
4
  6
CONTINUOUS
 10
10.1725227091
 20
6.2990718458
 11
10.1725227091
 21
6.2857385157
  0
LINE
  5
3FA
100
AcDbEntity
  8
03__ASM_ALL_CURVES
100
AcDbLine
 62
4
  6
CONTINUOUS
 10
10.2450227091
 20
6.2324051808
 11
10.2450227091
 21
6.2424051811
  0
LINE
  5
3FB
100
AcDbEntity
  8
03__ASM_ALL_CURVES
100
AcDbLine
 62
4
  6
CONTINUOUS
 10
10.2450227091
 20
6.8424051808
 11
10.2450227091
 21
6.8524051811
  0
LINE
  5
3FC
100
AcDbEntity
  8
03__ASM_ALL_CURVES
100
AcDbLine
 62
4
  6
CONTINUOUS
 10
10.2450227091
 20
7.8894051808
 11
10.2450227091
 21
7.8994051811
  0
LINE
  5
3FD
100
AcDbEntity
  8
03__ASM_ALL_CURVES
100
AcDbLine
 62
4
  6
CONTINUOUS
 10
10.2450227091
 20
8.4704051808
 11
10.2450227091
 21
8.4804051811
  0
LINE
  5
3FE
100
AcDbEntity
  8
03__ASM_ALL_CURVES
100
AcDbLine
 62
4
  6
CONTINUOUS
 10
10.1325227091
 20
8.7237385157
 11
10.1375227091
 21
8.7370718458
  0
LINE
  5
3FF
100
AcDbEntity
  8
03__ASM_ALL_CURVES
100
AcDbLine
 62
4
  6
CONTINUOUS
 10
10.1725227091
 20
8.6970718482
 11
10.1675227091
 21
8.6837385145
  0
LINE
  5
400
100
AcDbEntity
  8
03__ASM_ALL_CURVES
100
AcDbLine
 62
4
  6
CONTINUOUS
 10
10.1325227091
 20
8.5237385157
 11
10.1375227091
 21
8.5370718458
  0
LINE
  5
401
100
AcDbEntity
  8
03__ASM_ALL_CURVES
100
AcDbLine
 62
4
  6
CONTINUOUS
 10
9.4135227091
 20
7.7629051808
 11
9.4035227088
 21
7.7479051808
  0
LINE
  5
402
100
AcDbEntity
  8
03__ASM_ALL_CURVES
100
AcDbLine
 62
4
  6
CONTINUOUS
 10
10.1375227091
 20
8.7370718458
 11
10.1425227091
 21
8.7437385157
  0
LINE
  5
403
100
AcDbEntity
  8
03__ASM_ALL_CURVES
100
AcDbLine
 62
4
  6
CONTINUOUS
 10
10.1675227091
 20
8.6837385145
 11
10.1625227091
 21
8.6770718476
  0
LINE
  5
404
100
AcDbEntity
  8
03__ASM_ALL_CURVES
100
AcDbLine
 62
4
  6
CONTINUOUS
 10
9.3035227067
 20
8.1529051808
 11
9.3135227115
 21
8.1604051808
  0
LINE
  5
405
100
AcDbEntity
  8
03__ASM_ALL_CURVES
100
AcDbLine
 62
4
  6
CONTINUOUS
 10
9.4035227088
 20
8.1079051808
 11
9.3835227091
 21
8.0929051808
  0
LINE
  5
406
100
AcDbEntity
  8
03__ASM_ALL_CURVES
100
AcDbLine
 62
4
  6
CONTINUOUS
 10
9.3035227067
 20
8.0254051808
 11
9.3235227091
 21
8.0404051808
  0
LINE
  5
407
100
AcDbEntity
  8
03__ASM_ALL_CURVES
100
AcDbLine
 62
4
  6
CONTINUOUS
 10
10.1425227091
 20
8.7437385157
 11
10.1525227091
 21
8.7504051808
  0
LINE
  5
408
100
AcDbEntity
  8
03__ASM_ALL_CURVES
100
AcDbLine
 62
4
  6
CONTINUOUS
 10
10.1625227091
 20
8.6770718476
 11
10.1525227091
 21
8.6704051808
  0
LINE
  5
409
100
AcDbEntity
  8
03__ASM_ALL_CURVES
100
AcDbLine
 62
4
  6
CONTINUOUS
 10
7.9225227091
 20
9.3904051808
 11
7.8891893766
 21
9.3954051808
  0
LINE
  5
40A
100
AcDbEntity
  8
03__ASM_ALL_CURVES
100
AcDbLine
 62
4
  6
CONTINUOUS
 10
7.855856044
 20
9.6254051808
 11
7.875856044
 21
9.6204051808
  0
LINE
  5
40B
100
AcDbEntity
  8
03__ASM_ALL_CURVES
100
AcDbLine
 62
4
  6
CONTINUOUS
 10
8.5251893742
 20
9.4504051808
 11
8.511856044
 21
9.4554051808
  0
LINE
  5
40C
100
AcDbEntity
  8
03__ASM_ALL_CURVES
100
AcDbLine
 62
4
  6
CONTINUOUS
 10
8.5251893742
 20
9.4904051808
 11
8.5385227091
 21
9.4854051808
  0
LINE
  5
40D
100
AcDbEntity
  8
03__ASM_ALL_CURVES
100
AcDbLine
 62
4
  6
CONTINUOUS
 10
8.5518560416
 20
9.4904051808
 11
8.5651893754
 21
9.4854051808
  0
LINE
  5
40E
100
AcDbEntity
  8
03__ASM_ALL_CURVES
100
AcDbLine
 62
4
  6
CONTINUOUS
 10
8.7441893742
 20
9.4804051808
 11
8.7175227091
 21
9.4904051808
  0
LINE
  5
40F
100
AcDbEntity
  8
03__ASM_ALL_CURVES
100
AcDbLine
 62
4
  6
CONTINUOUS
 10
9.6191893742
 20
9.2104051808
 11
9.605856044
 21
9.2154051808
  0
LINE
  5
410
100
AcDbEntity
  8
03__ASM_ALL_CURVES
100
AcDbLine
 62
4
  6
CONTINUOUS
 10
9.6458560416
 20
9.2504051808
 11
9.6591893754
 21
9.2454051808
  0
LINE
  5
411
100
AcDbEntity
  8
03__ASM_ALL_CURVES
100
AcDbLine
 62
4
  6
CONTINUOUS
 10
10.7125227091
 20
8.4704051808
 11
10.7025227091
 21
8.4770718476
  0
LINE
  5
412
100
AcDbEntity
  8
03__ASM_ALL_CURVES
100
AcDbLine
 62
4
  6
CONTINUOUS
 10
10.7875227091
 20
8.4704051808
 11
10.7775227091
 21
8.4770718476
  0
LINE
  5
413
100
AcDbEntity
  8
03__ASM_ALL_CURVES
100
AcDbLine
 62
4
  6
CONTINUOUS
 10
10.7125227091
 20
8.5504051808
 11
10.7225227091
 21
8.5437385157
  0
LINE
  5
414
100
AcDbEntity
  8
03__ASM_ALL_CURVES
100
AcDbLine
 62
4
  6
CONTINUOUS
 10
10.7875227091
 20
8.5170718458
 11
10.7775227091
 21
8.5237385157
  0
LINE
  5
415
100
AcDbEntity
  8
03__ASM_ALL_CURVES
100
AcDbLine
 62
4
  6
CONTINUOUS
 10
10.7975227091
 20
8.5170718458
 11
10.8075227091
 21
8.5104051808
  0
LINE
  5
416
100
AcDbEntity
  8
03__ASM_ALL_CURVES
100
AcDbLine
 62
4
  6
CONTINUOUS
 10
10.7975227091
 20
8.5504051808
 11
10.8075227091
 21
8.5437385157
  0
LINE
  5
417
100
AcDbEntity
  8
03__ASM_ALL_CURVES
100
AcDbLine
 62
4
  6
CONTINUOUS
 10
8.5518560416
 20
10.0054051808
 11
8.5385227091
 21
10.0154051808
  0
LINE
  5
418
100
AcDbEntity
  8
03__ASM_ALL_CURVES
100
AcDbLine
 62
4
  6
CONTINUOUS
 10
9.605856044
 20
9.2154051808
 11
9.5991893742
 21
9.2204051808
  0
LINE
  5
419
100
AcDbEntity
  8
03__ASM_ALL_CURVES
100
AcDbLine
 62
4
  6
CONTINUOUS
 10
8.873856044
 20
9.7754051808
 11
8.8671893742
 21
9.7804051808
  0
LINE
  5
41A
100
AcDbEntity
  8
03__ASM_ALL_CURVES
100
AcDbLine
 62
4
  6
CONTINUOUS
 10
8.5185227091
 20
10.0504051808
 11
8.5251893742
 21
10.0454051808
  0
LINE
  5
41B
100
AcDbEntity
  8
03__ASM_ALL_CURVES
100
AcDbLine
 62
4
  6
CONTINUOUS
 10
8.5585227091
 20
10.0554051808
 11
8.5718560422
 21
10.0454051808
  0
LINE
  5
41C
100
AcDbEntity
  8
03__ASM_ALL_CURVES
100
AcDbLine
 62
4
  6
CONTINUOUS
 10
8.730856044
 20
9.9354051808
 11
8.7241893742
 21
9.9404051808
  0
LINE
  5
41D
100
AcDbEntity
  8
03__ASM_ALL_CURVES
100
AcDbLine
 62
4
  6
CONTINUOUS
 10
9.6591893754
 20
9.2454051808
 11
9.6658560422
 21
9.2404051808
  0
LINE
  5
41E
100
AcDbEntity
  8
03__ASM_ALL_CURVES
100
AcDbLine
 62
4
  6
CONTINUOUS
 10
8.9271893754
 20
9.8054051808
 11
8.9338560422
 21
9.8004051808
  0
LINE
  5
41F
100
AcDbEntity
  8
03__ASM_ALL_CURVES
100
AcDbLine
 62
4
  6
CONTINUOUS
 10
8.5651893754
 20
10.1154051808
 11
8.5785227091
 21
10.1054051808
  0
LINE
  5
420
100
AcDbEntity
  8
03__ASM_ALL_CURVES
100
AcDbLine
 62
4
  6
CONTINUOUS
 10
8.7841893754
 20
9.9654051808
 11
8.7908560422
 21
9.9604051808
  0
LINE
  5
421
100
AcDbEntity
  8
03__ASM_ALL_CURVES
100
AcDbLine
 62
4
  6
CONTINUOUS
 10
8.730856044
 20
10.0154051808
 11
8.7241893742
 21
10.0204051808
  0
LINE
  5
422
100
AcDbEntity
  8
03__ASM_ALL_CURVES
100
AcDbLine
 62
4
  6
CONTINUOUS
 10
8.7841893754
 20
10.0454051808
 11
8.7908560422
 21
10.0404051808
  0
LINE
  5
423
100
AcDbEntity
  8
03__ASM_ALL_CURVES
100
AcDbLine
 62
4
  6
CONTINUOUS
 10
8.9271893754
 20
9.9704051808
 11
8.9338560422
 21
9.9654051808
  0
LINE
  5
424
100
AcDbEntity
  8
03__ASM_ALL_CURVES
100
AcDbLine
 62
4
  6
CONTINUOUS
 10
10.1625227091
 20
8.7437385157
 11
10.1675227091
 21
8.7370718458
  0
LINE
  5
425
100
AcDbEntity
  8
03__ASM_ALL_CURVES
100
AcDbLine
 62
4
  6
CONTINUOUS
 10
10.8050227091
 20
7.8994051811
 11
10.8125227091
 21
7.8894051808
  0
LINE
  5
426
100
AcDbEntity
  8
03__ASM_ALL_CURVES
100
AcDbLine
 62
4
  6
CONTINUOUS
 10
10.3275227091
 20
8.5437385157
 11
10.3325227091
 21
8.5370718458
  0
LINE
  5
427
100
AcDbEntity
  8
03__ASM_ALL_CURVES
100
AcDbLine
 62
4
  6
CONTINUOUS
 10
10.8575227091
 20
7.8960718476
 11
10.8475227091
 21
7.9094051808
  0
LINE
  5
428
100
AcDbEntity
  8
03__ASM_ALL_CURVES
100
AcDbLine
 62
4
  6
CONTINUOUS
 10
10.8575227091
 20
7.9427385157
 11
10.8525227091
 21
7.9494051808
  0
LINE
  5
429
100
AcDbEntity
  8
03__ASM_ALL_CURVES
100
AcDbLine
 62
4
  6
CONTINUOUS
 10
10.4675227091
 20
8.4837385145
 11
10.4775227091
 21
8.4704051808
  0
LINE
  5
42A
100
AcDbEntity
  8
03__ASM_ALL_CURVES
100
AcDbLine
 62
4
  6
CONTINUOUS
 10
10.8875227091
 20
7.9294051808
 11
10.8975227091
 21
7.9160718482
  0
LINE
  5
42B
100
AcDbEntity
  8
03__ASM_ALL_CURVES
100
AcDbLine
 62
4
  6
CONTINUOUS
 10
10.8875227091
 20
7.9627385157
 11
10.8925227091
 21
7.9560718458
  0
LINE
  5
42C
100
AcDbEntity
  8
03__ASM_ALL_CURVES
100
AcDbLine
 62
4
  6
CONTINUOUS
 10
10.5375227091
 20
8.4770718476
 11
10.5325227091
 21
8.4837385145
  0
LINE
  5
42D
100
AcDbEntity
  8
03__ASM_ALL_CURVES
100
AcDbLine
 62
4
  6
CONTINUOUS
 10
10.5675227091
 20
8.5170718458
 11
10.5725227091
 21
8.5104051808
  0
LINE
  5
42E
100
AcDbEntity
  8
03__ASM_ALL_CURVES
100
AcDbLine
 62
4
  6
CONTINUOUS
 10
10.1375227091
 20
8.6837385145
 11
10.1325227091
 21
8.6970718482
  0
LINE
  5
42F
100
AcDbEntity
  8
03__ASM_ALL_CURVES
100
AcDbLine
 62
4
  6
CONTINUOUS
 10
10.1675227091
 20
8.7370718458
 11
10.1725227091
 21
8.7237385157
  0
LINE
  5
430
100
AcDbEntity
  8
03__ASM_ALL_CURVES
100
AcDbLine
 62
4
  6
CONTINUOUS
 10
10.2875227091
 20
6.8624051808
 11
10.2875227091
 21
6.8690718482
  0
LINE
  5
431
100
AcDbEntity
  8
03__ASM_ALL_CURVES
100
AcDbLine
 62
4
  6
CONTINUOUS
 10
10.2925227091
 20
6.9024051808
 11
10.2925227091
 21
6.9090718458
  0
LINE
  5
432
100
AcDbEntity
  8
03__ASM_ALL_CURVES
100
AcDbLine
 62
4
  6
CONTINUOUS
 10
10.3275227091
 20
6.2324051808
 11
10.3275227091
 21
6.3124051808
  0
LINE
  5
433
100
AcDbEntity
  8
03__ASM_ALL_CURVES
100
AcDbLine
 62
4
  6
CONTINUOUS
 10
10.3325227091
 20
8.5370718458
 11
10.3325227091
 21
8.5237385157
  0
LINE
  5
434
100
AcDbEntity
  8
03__ASM_ALL_CURVES
100
AcDbLine
 62
4
  6
CONTINUOUS
 10
10.3325227091
 20
6.9090718458
 11
10.3325227091
 21
6.9024051808
  0
LINE
  5
435
100
AcDbEntity
  8
03__ASM_ALL_CURVES
100
AcDbLine
 62
4
  6
CONTINUOUS
 10
10.3375227091
 20
6.8690718482
 11
10.3375227091
 21
6.8624051808
  0
LINE
  5
436
100
AcDbEntity
  8
03__ASM_ALL_CURVES
100
AcDbLine
 62
4
  6
CONTINUOUS
 10
10.3675227091
 20
7.9094051808
 11
10.3675227091
 21
7.9160718482
  0
LINE
  5
437
100
AcDbEntity
  8
03__ASM_ALL_CURVES
100
AcDbLine
 62
4
  6
CONTINUOUS
 10
10.3725227091
 20
7.9494051808
 11
10.3725227091
 21
7.9560718458
  0
LINE
  5
438
100
AcDbEntity
  8
03__ASM_ALL_CURVES
100
AcDbLine
 62
4
  6
CONTINUOUS
 10
10.4125227091
 20
7.9560718458
 11
10.4125227091
 21
7.9494051808
  0
LINE
  5
439
100
AcDbEntity
  8
03__ASM_ALL_CURVES
100
AcDbLine
 62
4
  6
CONTINUOUS
 10
10.4125227091
 20
6.9090718458
 11
10.4125227091
 21
6.8957385157
  0
LINE
  5
43A
100
AcDbEntity
  8
03__ASM_ALL_CURVES
100
AcDbLine
 62
4
  6
CONTINUOUS
 10
10.4125227091
 20
6.2990718458
 11
10.4125227091
 21
6.2924051808
  0
LINE
  5
43B
100
AcDbEntity
  8
03__ASM_ALL_CURVES
100
AcDbLine
 62
4
  6
CONTINUOUS
 10
10.4175227091
 20
7.9160718482
 11
10.4175227091
 21
7.9094051808
  0
LINE
  5
43C
100
AcDbEntity
  8
03__ASM_ALL_CURVES
100
AcDbLine
 62
4
  6
CONTINUOUS
 10
10.4175227091
 20
6.2590718482
 11
10.4175227091
 21
6.2524051808
  0
LINE
  5
43D
100
AcDbEntity
  8
03__ASM_ALL_CURVES
100
AcDbLine
 62
4
  6
CONTINUOUS
 10
10.4625227091
 20
8.5170718458
 11
10.4625227091
 21
8.5037385133
  0
LINE
  5
43E
100
AcDbEntity
  8
03__ASM_ALL_CURVES
100
AcDbLine
 62
4
  6
CONTINUOUS
 10
10.3125227091
 20
7.8894051808
 11
10.3175227091
 21
7.9227385133
  0
LINE
  5
43F
100
AcDbEntity
  8
03__ASM_ALL_CURVES
100
AcDbLine
 62
4
  6
CONTINUOUS
 10
10.2975227091
 20
8.4904051808
 11
10.2925227091
 21
8.4704051808
  0
LINE
  5
440
100
AcDbEntity
  8
03__ASM_ALL_CURVES
100
AcDbLine
 62
4
  6
CONTINUOUS
 10
10.1725227091
 20
8.4970718482
 11
10.1675227091
 21
8.4837385145
  0
LINE
  5
441
100
AcDbEntity
  8
03__ASM_ALL_CURVES
100
AcDbLine
 62
4
  6
CONTINUOUS
 10
10.1325227091
 20
7.9427385157
 11
10.1375227091
 21
7.9560718458
  0
LINE
  5
442
100
AcDbEntity
  8
03__ASM_ALL_CURVES
100
AcDbLine
 62
4
  6
CONTINUOUS
 10
10.1725227091
 20
7.9160718482
 11
10.1675227091
 21
7.9027385145
  0
LINE
  5
443
100
AcDbEntity
  8
03__ASM_ALL_CURVES
100
AcDbLine
 62
4
  6
CONTINUOUS
 10
10.1375227091
 20
8.5370718458
 11
10.1425227091
 21
8.5437385157
  0
LINE
  5
444
100
AcDbEntity
  8
03__ASM_ALL_CURVES
100
AcDbLine
 62
4
  6
CONTINUOUS
 10
10.1675227091
 20
8.4837385145
 11
10.1625227091
 21
8.4770718476
  0
LINE
  5
445
100
AcDbEntity
  8
03__ASM_ALL_CURVES
100
AcDbLine
 62
4
  6
CONTINUOUS
 10
10.2925227091
 20
8.5370718458
 11
10.2975227091
 21
8.5437385157
  0
LINE
  5
446
100
AcDbEntity
  8
03__ASM_ALL_CURVES
100
AcDbLine
 62
4
  6
CONTINUOUS
 10
10.3075227091
 20
8.5037385133
 11
10.2975227091
 21
8.4904051808
  0
LINE
  5
447
100
AcDbEntity
  8
03__ASM_ALL_CURVES
100
AcDbLine
 62
4
  6
CONTINUOUS
 10
10.3325227091
 20
8.5237385157
 11
10.3275227091
 21
8.5170718458
  0
LINE
  5
448
100
AcDbEntity
  8
03__ASM_ALL_CURVES
100
AcDbLine
 62
4
  6
CONTINUOUS
 10
9.3035227067
 20
7.7929051808
 11
9.3135227115
 21
7.8004051808
  0
LINE
  5
449
100
AcDbEntity
  8
03__ASM_ALL_CURVES
100
AcDbLine
 62
4
  6
CONTINUOUS
 10
10.1425227091
 20
8.5437385157
 11
10.1525227091
 21
8.5504051808
  0
LINE
  5
44A
100
AcDbEntity
  8
03__ASM_ALL_CURVES
100
AcDbLine
 62
4
  6
CONTINUOUS
 10
10.1625227091
 20
8.4770718476
 11
10.1525227091
 21
8.4704051808
  0
LINE
  5
44B
100
AcDbEntity
  8
03__ASM_ALL_CURVES
100
AcDbLine
 62
4
  6
CONTINUOUS
 10
10.2975227091
 20
8.5437385157
 11
10.3075227091
 21
8.5504051808
  0
LINE
  5
44C
100
AcDbEntity
  8
03__ASM_ALL_CURVES
100
AcDbLine
 62
4
  6
CONTINUOUS
 10
10.3275227091
 20
8.5170718458
 11
10.3075227091
 21
8.5037385133
  0
LINE
  5
44D
100
AcDbEntity
  8
03__ASM_ALL_CURVES
100
AcDbLine
 62
4
  6
CONTINUOUS
 10
9.6458560416
 20
9.2104051808
 11
9.6191893742
 21
9.2104051808
  0
LINE
  5
44E
100
AcDbEntity
  8
03__ASM_ALL_CURVES
100
AcDbLine
 62
4
  6
CONTINUOUS
 10
8.9138560416
 20
9.2104051808
 11
8.8871893742
 21
9.2104051808
  0
LINE
  5
44F
100
AcDbEntity
  8
03__ASM_ALL_CURVES
100
AcDbLine
 62
4
  6
CONTINUOUS
 10
8.7708560416
 20
9.2104051808
 11
8.7441893742
 21
9.2104051808
  0
LINE
  5
450
100
AcDbEntity
  8
03__ASM_ALL_CURVES
100
AcDbLine
 62
4
  6
CONTINUOUS
 10
7.8425227091
 20
9.2304051808
 11
7.9225227091
 21
9.2304051808
  0
LINE
  5
451
100
AcDbEntity
  8
03__ASM_ALL_CURVES
100
AcDbLine
 62
4
  6
CONTINUOUS
 10
8.4985227091
 20
9.2304051808
 11
8.5785227091
 21
9.2304051808
  0
LINE
  5
452
100
AcDbEntity
  8
03__ASM_ALL_CURVES
100
AcDbLine
 62
4
  6
CONTINUOUS
 10
8.7441893742
 20
9.2504051808
 11
8.7708560416
 21
9.2504051808
  0
LINE
  5
453
100
AcDbEntity
  8
03__ASM_ALL_CURVES
100
AcDbLine
 62
4
  6
CONTINUOUS
 10
8.8871893742
 20
9.2504051808
 11
8.9138560416
 21
9.2504051808
  0
LINE
  5
454
100
AcDbEntity
  8
03__ASM_ALL_CURVES
100
AcDbLine
 62
4
  6
CONTINUOUS
 10
9.6191893742
 20
9.2504051808
 11
9.6458560416
 21
9.2504051808
  0
LINE
  5
455
100
AcDbEntity
  8
03__ASM_ALL_CURVES
100
AcDbLine
 62
4
  6
CONTINUOUS
 10
8.9405227091
 20
9.3229051808
 11
8.9305227088
 21
9.3229051808
  0
LINE
  5
456
100
AcDbEntity
  8
03__ASM_ALL_CURVES
100
AcDbLine
 62
4
  6
CONTINUOUS
 10
8.7975227091
 20
9.3229051808
 11
8.7875227088
 21
9.3229051808
  0
LINE
  5
457
100
AcDbEntity
  8
03__ASM_ALL_CURVES
100
AcDbLine
 62
4
  6
CONTINUOUS
 10
8.5785227091
 20
9.3229051808
 11
8.5685227088
 21
9.3229051808
  0
LINE
  5
458
100
AcDbEntity
  8
03__ASM_ALL_CURVES
100
AcDbLine
 62
4
  6
CONTINUOUS
 10
7.9225227091
 20
9.3229051808
 11
7.9125227088
 21
9.3229051808
  0
LINE
  5
459
100
AcDbEntity
  8
03__ASM_ALL_CURVES
100
AcDbLine
 62
4
  6
CONTINUOUS
 10
7.8425227091
 20
9.4604051808
 11
7.875856044
 21
9.4554051808
  0
LINE
  5
45A
100
AcDbEntity
  8
03__ASM_ALL_CURVES
100
AcDbLine
 62
4
  6
CONTINUOUS
 10
8.7975227091
 20
9.4704051808
 11
8.7641893766
 21
9.4754051808
  0
LINE
  5
45B
100
AcDbEntity
  8
03__ASM_ALL_CURVES
100
AcDbLine
 62
4
  6
CONTINUOUS
 10
8.7641893766
 20
9.4754051808
 11
8.7441893742
 21
9.4804051808
  0
LINE
  5
45C
100
AcDbEntity
  8
03__ASM_ALL_CURVES
100
AcDbLine
 62
4
  6
CONTINUOUS
 10
8.511856044
 20
9.6254051808
 11
8.531856044
 21
9.6204051808
  0
LINE
  5
45D
100
AcDbEntity
  8
03__ASM_ALL_CURVES
100
AcDbLine
 62
4
  6
CONTINUOUS
 10
8.730856044
 20
9.6254051808
 11
8.750856044
 21
9.6204051808
  0
LINE
  5
45E
100
AcDbEntity
  8
03__ASM_ALL_CURVES
100
AcDbLine
 62
4
  6
CONTINUOUS
 10
8.5585227091
 20
9.6954051808
 11
8.5785227091
 21
9.6904051808
  0
LINE
  5
45F
100
AcDbEntity
  8
03__ASM_ALL_CURVES
100
AcDbLine
 62
4
  6
CONTINUOUS
 10
8.873856044
 20
9.6254051808
 11
8.893856044
 21
9.6204051808
  0
LINE
  5
460
100
AcDbEntity
  8
03__ASM_ALL_CURVES
100
AcDbLine
 62
4
  6
CONTINUOUS
 10
8.5251893742
 20
9.8004051808
 11
8.4985227091
 21
9.8104051808
  0
LINE
  5
461
100
AcDbEntity
  8
03__ASM_ALL_CURVES
100
AcDbLine
 62
4
  6
CONTINUOUS
 10
8.8871893742
 20
9.7704051808
 11
8.873856044
 21
9.7754051808
  0
LINE
  5
462
100
AcDbEntity
  8
03__ASM_ALL_CURVES
100
AcDbLine
 62
4
  6
CONTINUOUS
 10
8.5251893742
 20
9.9304051808
 11
8.511856044
 21
9.9354051808
  0
LINE
  5
463
100
AcDbEntity
  8
03__ASM_ALL_CURVES
100
AcDbLine
 62
4
  6
CONTINUOUS
 10
8.7841893754
 20
10.1154051808
 11
8.7975227091
 21
10.1054051808
  0
LINE
  5
464
100
AcDbEntity
  8
03__ASM_ALL_CURVES
100
AcDbLine
 62
4
  6
CONTINUOUS
 10
8.9271893754
 20
10.1154051808
 11
8.9405227091
 21
10.1054051808
  0
LINE
  5
465
100
AcDbEntity
  8
03__ASM_ALL_CURVES
100
AcDbLine
 62
4
  6
CONTINUOUS
 10
11.0275227091
 20
7.9694051808
 11
11.0375227091
 21
7.9560718458
  0
LINE
  5
466
100
AcDbEntity
  8
03__ASM_ALL_CURVES
100
AcDbLine
 62
4
  6
CONTINUOUS
 10
10.6450227091
 20
8.4804051811
 11
10.6525227091
 21
8.4704051808
  0
LINE
  5
467
100
AcDbEntity
  8
03__ASM_ALL_CURVES
100
AcDbLine
 62
4
  6
CONTINUOUS
 10
10.7025227091
 20
8.4770718476
 11
10.6975227091
 21
8.4837385145
  0
LINE
  5
468
100
AcDbEntity
  8
03__ASM_ALL_CURVES
100
AcDbLine
 62
4
  6
CONTINUOUS
 10
10.7225227091
 20
8.5437385157
 11
10.7275227091
 21
8.5370718458
  0
LINE
  5
469
100
AcDbEntity
  8
03__ASM_ALL_CURVES
100
AcDbLine
 62
4
  6
CONTINUOUS
 10
10.7775227091
 20
8.4770718476
 11
10.7675227091
 21
8.4904051808
  0
LINE
  5
46A
100
AcDbEntity
  8
03__ASM_ALL_CURVES
100
AcDbLine
 62
4
  6
CONTINUOUS
 10
10.7775227091
 20
8.5237385157
 11
10.7725227091
 21
8.5304051808
  0
LINE
  5
46B
100
AcDbEntity
  8
03__ASM_ALL_CURVES
100
AcDbLine
 62
4
  6
CONTINUOUS
 10
10.8075227091
 20
8.5104051808
 11
10.8175227091
 21
8.4970718482
  0
LINE
  5
46C
100
AcDbEntity
  8
03__ASM_ALL_CURVES
100
AcDbLine
 62
4
  6
CONTINUOUS
 10
10.8075227091
 20
8.5437385157
 11
10.8125227091
 21
8.5370718458
  0
LINE
  5
46D
100
AcDbEntity
  8
03__ASM_ALL_CURVES
100
AcDbLine
 62
4
  6
CONTINUOUS
 10
10.6975227091
 20
7.9294051808
 11
10.6925227091
 21
7.9427385157
  0
LINE
  5
46E
100
AcDbEntity
  8
03__ASM_ALL_CURVES
100
AcDbLine
 62
4
  6
CONTINUOUS
 10
10.7275227091
 20
7.9560718458
 11
10.7325227091
 21
7.9427385157
  0
LINE
  5
46F
100
AcDbEntity
  8
03__ASM_ALL_CURVES
100
AcDbLine
 62
4
  6
CONTINUOUS
 10
10.5725227091
 20
8.5104051808
 11
10.5775227091
 21
8.4970718482
  0
LINE
  5
470
100
AcDbEntity
  8
03__ASM_ALL_CURVES
100
AcDbLine
 62
4
  6
CONTINUOUS
 10
10.5425227091
 20
7.9227385133
 11
10.5475227091
 21
7.9027385145
  0
LINE
  5
471
100
AcDbEntity
  8
03__ASM_ALL_CURVES
100
AcDbLine
 62
4
  6
CONTINUOUS
 10
10.4625227091
 20
8.5037385133
 11
10.4675227091
 21
8.4837385145
  0
LINE
  5
472
100
AcDbEntity
  8
03__ASM_ALL_CURVES
100
AcDbLine
 62
4
  6
CONTINUOUS
 10
11.0375227091
 20
6.2990718458
 11
11.0425227091
 21
6.2790718458
  0
LINE
  5
473
100
AcDbEntity
  8
03__ASM_ALL_CURVES
100
AcDbLine
 62
4
  6
CONTINUOUS
 10
10.5425227091
 20
7.9360718458
 11
10.5425227091
 21
7.9227385133
  0
LINE
  5
474
100
AcDbEntity
  8
03__ASM_ALL_CURVES
100
AcDbLine
 62
4
  6
CONTINUOUS
 10
10.5425227091
 20
6.8890718458
 11
10.5425227091
 21
6.8757385133
  0
LINE
  5
475
100
AcDbEntity
  8
03__ASM_ALL_CURVES
100
AcDbLine
 62
4
  6
CONTINUOUS
 10
10.5425227091
 20
6.2790718458
 11
10.5425227091
 21
6.2657385133
  0
LINE
  5
476
100
AcDbEntity
  8
03__ASM_ALL_CURVES
100
AcDbLine
 62
4
  6
CONTINUOUS
 10
10.6125227091
 20
6.2590718482
 11
10.6125227091
 21
6.2857385157
  0
LINE
  5
477
100
AcDbEntity
  8
03__ASM_ALL_CURVES
100
AcDbLine
 62
4
  6
CONTINUOUS
 10
10.6325227091
 20
7.9694051808
 11
10.6325227091
 21
7.8894051808
  0
LINE
  5
478
100
AcDbEntity
  8
03__ASM_ALL_CURVES
100
AcDbLine
 62
4
  6
CONTINUOUS
 10
10.6450227091
 20
8.4704051808
 11
10.6450227091
 21
8.4804051811
  0
LINE
  5
479
100
AcDbEntity
  8
03__ASM_ALL_CURVES
100
AcDbLine
 62
4
  6
CONTINUOUS
 10
10.6475227091
 20
6.8424051808
 11
10.6475227091
 21
6.9224051808
  0
LINE
  5
47A
100
AcDbEntity
  8
03__ASM_ALL_CURVES
100
AcDbLine
 62
4
  6
CONTINUOUS
 10
10.6925227091
 20
6.8690718482
 11
10.6925227091
 21
6.8957385157
  0
LINE
  5
47B
100
AcDbEntity
  8
03__ASM_ALL_CURVES
100
AcDbLine
 62
4
  6
CONTINUOUS
 10
10.6925227091
 20
8.4970718482
 11
10.6925227091
 21
8.5237385157
  0
LINE
  5
47C
100
AcDbEntity
  8
03__ASM_ALL_CURVES
100
AcDbLine
 62
4
  6
CONTINUOUS
 10
10.7125227091
 20
6.3124051808
 11
10.7125227091
 21
6.2324051808
  0
LINE
  5
47D
100
AcDbEntity
  8
03__ASM_ALL_CURVES
100
AcDbLine
 62
4
  6
CONTINUOUS
 10
10.7325227091
 20
8.5237385157
 11
10.7325227091
 21
8.4970718482
  0
LINE
  5
47E
100
AcDbEntity
  8
03__ASM_ALL_CURVES
100
AcDbLine
 62
4
  6
CONTINUOUS
 10
10.7325227091
 20
7.9427385157
 11
10.7325227091
 21
7.9160718482
  0
LINE
  5
47F
100
AcDbEntity
  8
03__ASM_ALL_CURVES
100
AcDbLine
 62
4
  6
CONTINUOUS
 10
10.5425227091
 20
8.5504051808
 11
10.5375227091
 21
8.5170718458
  0
LINE
  5
480
100
AcDbEntity
  8
03__ASM_ALL_CURVES
100
AcDbLine
 62
4
  6
CONTINUOUS
 10
10.4675227091
 20
8.5370718458
 11
10.4625227091
 21
8.5170718458
  0
LINE
  5
481
100
AcDbEntity
  8
03__ASM_ALL_CURVES
100
AcDbLine
 62
4
  6
CONTINUOUS
 10
10.3175227091
 20
7.9227385133
 11
10.3225227091
 21
7.9427385157
  0
LINE
  5
482
100
AcDbEntity
  8
03__ASM_ALL_CURVES
100
AcDbLine
 62
4
  6
CONTINUOUS
 10
10.3225227091
 20
7.9427385157
 11
10.3325227091
 21
7.9694051808
  0
LINE
  5
483
100
AcDbEntity
  8
03__ASM_ALL_CURVES
100
AcDbLine
 62
4
  6
CONTINUOUS
 10
10.5775227091
 20
8.4970718482
 11
10.5725227091
 21
8.4837385145
  0
LINE
  5
484
100
AcDbEntity
  8
03__ASM_ALL_CURVES
100
AcDbLine
 62
4
  6
CONTINUOUS
 10
10.4775227091
 20
8.5504051808
 11
10.4675227091
 21
8.5370718458
  0
LINE
  5
485
100
AcDbEntity
  8
03__ASM_ALL_CURVES
100
AcDbLine
 62
4
  6
CONTINUOUS
 10
10.1375227091
 20
7.9560718458
 11
10.1425227091
 21
7.9627385157
  0
LINE
  5
486
100
AcDbEntity
  8
03__ASM_ALL_CURVES
100
AcDbLine
 62
4
  6
CONTINUOUS
 10
10.5725227091
 20
8.4837385145
 11
10.5675227091
 21
8.4770718476
  0
LINE
  5
487
100
AcDbEntity
  8
03__ASM_ALL_CURVES
100
AcDbLine
 62
4
  6
CONTINUOUS
 10
10.1675227091
 20
7.9027385145
 11
10.1625227091
 21
7.8960718476
  0
LINE
  5
488
100
AcDbEntity
  8
03__ASM_ALL_CURVES
100
AcDbLine
 62
4
  6
CONTINUOUS
 10
9.4035227088
 20
7.7479051808
 11
9.3835227091
 21
7.7329051808
  0
LINE
  5
489
100
AcDbEntity
  8
03__ASM_ALL_CURVES
100
AcDbLine
 62
4
  6
CONTINUOUS
 10
10.5375227091
 20
8.5170718458
 11
10.5475227091
 21
8.5237385157
  0
LINE
  5
48A
100
AcDbEntity
  8
03__ASM_ALL_CURVES
100
AcDbLine
 62
4
  6
CONTINUOUS
 10
10.5675227091
 20
8.4770718476
 11
10.5575227091
 21
8.4704051808
  0
LINE
  5
48B
100
AcDbEntity
  8
03__ASM_ALL_CURVES
100
AcDbLine
 62
4
  6
CONTINUOUS
 10
10.7025227091
 20
8.5437385157
 11
10.7125227091
 21
8.5504051808
  0
LINE
  5
48C
100
AcDbEntity
  8
03__ASM_ALL_CURVES
100
AcDbLine
 62
4
  6
CONTINUOUS
 10
10.7775227091
 20
8.5437385157
 11
10.7875227091
 21
8.5504051808
  0
LINE
  5
48D
100
AcDbEntity
  8
03__ASM_ALL_CURVES
100
AcDbLine
 62
4
  6
CONTINUOUS
 10
10.7225227091
 20
8.4770718476
 11
10.7125227091
 21
8.4704051808
  0
LINE
  5
48E
100
AcDbEntity
  8
03__ASM_ALL_CURVES
100
AcDbLine
 62
4
  6
CONTINUOUS
 10
10.7775227091
 20
8.5104051808
 11
10.7875227091
 21
8.5170718458
  0
LINE
  5
48F
100
AcDbEntity
  8
03__ASM_ALL_CURVES
100
AcDbLine
 62
4
  6
CONTINUOUS
 10
10.8075227091
 20
8.5237385157
 11
10.7975227091
 21
8.5170718458
  0
LINE
  5
490
100
AcDbEntity
  8
03__ASM_ALL_CURVES
100
AcDbLine
 62
4
  6
CONTINUOUS
 10
9.2935227091
 20
7.8604051808
 11
9.4135227091
 21
7.9204051808
  0
LINE
  5
491
100
AcDbEntity
  8
03__ASM_ALL_CURVES
100
AcDbLine
 62
4
  6
CONTINUOUS
 10
8.9205227091
 20
9.3654051808
 11
8.9138560416
 21
9.3654051808
  0
LINE
  5
492
100
AcDbEntity
  8
03__ASM_ALL_CURVES
100
AcDbLine
 62
4
  6
CONTINUOUS
 10
8.7775227091
 20
9.3654051808
 11
8.7708560416
 21
9.3654051808
  0
LINE
  5
493
100
AcDbEntity
  8
03__ASM_ALL_CURVES
100
AcDbLine
 62
4
  6
CONTINUOUS
 10
8.8805227091
 20
9.3704051808
 11
8.873856044
 21
9.3704051808
  0
LINE
  5
494
100
AcDbEntity
  8
03__ASM_ALL_CURVES
100
AcDbLine
 62
4
  6
CONTINUOUS
 10
8.7375227091
 20
9.3704051808
 11
8.730856044
 21
9.3704051808
  0
LINE
  5
495
100
AcDbEntity
  8
03__ASM_ALL_CURVES
100
AcDbLine
 62
4
  6
CONTINUOUS
 10
8.5518560416
 20
9.3704051808
 11
8.5251893742
 21
9.3704051808
  0
LINE
  5
496
100
AcDbEntity
  8
03__ASM_ALL_CURVES
100
AcDbLine
 62
4
  6
CONTINUOUS
 10
8.5251893742
 20
9.4104051808
 11
8.5518560416
 21
9.4104051808
  0
LINE
  5
497
100
AcDbEntity
  8
03__ASM_ALL_CURVES
100
AcDbLine
 62
4
  6
CONTINUOUS
 10
8.730856044
 20
9.4104051808
 11
8.7375227091
 21
9.4104051808
  0
LINE
  5
498
100
AcDbEntity
  8
03__ASM_ALL_CURVES
100
AcDbLine
 62
4
  6
CONTINUOUS
 10
8.873856044
 20
9.4104051808
 11
8.8805227091
 21
9.4104051808
  0
LINE
  5
499
100
AcDbEntity
  8
03__ASM_ALL_CURVES
100
AcDbLine
 62
4
  6
CONTINUOUS
 10
8.7708560416
 20
9.4154051808
 11
8.7775227091
 21
9.4154051808
  0
LINE
  5
49A
100
AcDbEntity
  8
03__ASM_ALL_CURVES
100
AcDbLine
 62
4
  6
CONTINUOUS
 10
8.9138560416
 20
9.4154051808
 11
8.9205227091
 21
9.4154051808
  0
LINE
  5
49B
100
AcDbEntity
  8
03__ASM_ALL_CURVES
100
AcDbLine
 62
4
  6
CONTINUOUS
 10
8.8605227091
 20
9.4704051808
 11
8.9405227091
 21
9.4704051808
  0
LINE
  5
49C
100
AcDbEntity
  8
03__ASM_ALL_CURVES
100
AcDbLine
 62
4
  6
CONTINUOUS
 10
8.5251893742
 20
9.4904051808
 11
8.5518560416
 21
9.4904051808
  0
LINE
  5
49D
100
AcDbEntity
  8
03__ASM_ALL_CURVES
100
AcDbLine
 62
4
  6
CONTINUOUS
 10
8.5785227091
 20
9.7904051808
 11
8.5451893766
 21
9.7954051808
  0
LINE
  5
49E
100
AcDbEntity
  8
03__ASM_ALL_CURVES
100
AcDbLine
 62
4
  6
CONTINUOUS
 10
8.7775227091
 20
9.6954051808
 11
8.7975227091
 21
9.6904051808
  0
LINE
  5
49F
100
AcDbEntity
  8
03__ASM_ALL_CURVES
100
AcDbLine
 62
4
  6
CONTINUOUS
 10
8.9205227091
 20
9.6954051808
 11
8.9405227091
 21
9.6904051808
  0
LINE
  5
4A0
100
AcDbEntity
  8
03__ASM_ALL_CURVES
100
AcDbLine
 62
4
  6
CONTINUOUS
 10
8.5451893766
 20
9.7954051808
 11
8.5251893742
 21
9.8004051808
  0
LINE
  5
4A1
100
AcDbEntity
  8
03__ASM_ALL_CURVES
100
AcDbLine
 62
4
  6
CONTINUOUS
 10
8.7775227091
 20
9.7754051808
 11
8.7975227091
 21
9.7704051808
  0
LINE
  5
4A2
100
AcDbEntity
  8
03__ASM_ALL_CURVES
100
AcDbLine
 62
4
  6
CONTINUOUS
 10
7.8891893766
 20
10.1204051808
 11
7.9091893754
 21
10.1154051808
  0
LINE
  5
4A3
100
AcDbEntity
  8
03__ASM_ALL_CURVES
100
AcDbLine
 62
4
  6
CONTINUOUS
 10
8.5518560416
 20
9.9304051808
 11
8.5385227091
 21
9.9354051808
  0
LINE
  5
4A4
100
AcDbEntity
  8
03__ASM_ALL_CURVES
100
AcDbLine
 62
4
  6
CONTINUOUS
 10
8.9138560416
 20
9.8104051808
 11
8.9271893754
 21
9.8054051808
  0
LINE
  5
4A5
100
AcDbEntity
  8
03__ASM_ALL_CURVES
100
AcDbLine
 62
4
  6
CONTINUOUS
 10
8.5518560416
 20
9.9704051808
 11
8.5651893754
 21
9.9654051808
  0
LINE
  5
4A6
100
AcDbEntity
  8
03__ASM_ALL_CURVES
100
AcDbLine
 62
4
  6
CONTINUOUS
 10
8.7441893742
 20
9.9304051808
 11
8.730856044
 21
9.9354051808
  0
LINE
  5
4A7
100
AcDbEntity
  8
03__ASM_ALL_CURVES
100
AcDbLine
 62
4
  6
CONTINUOUS
 10
8.7708560416
 20
9.9704051808
 11
8.7841893754
 21
9.9654051808
  0
LINE
  5
4A8
100
AcDbEntity
  8
03__ASM_ALL_CURVES
100
AcDbLine
 62
4
  6
CONTINUOUS
 10
8.7441893742
 20
10.0104051808
 11
8.730856044
 21
10.0154051808
  0
LINE
  5
4A9
100
AcDbEntity
  8
03__ASM_ALL_CURVES
100
AcDbLine
 62
4
  6
CONTINUOUS
 10
8.9138560416
 20
9.9754051808
 11
8.9271893754
 21
9.9704051808
  0
LINE
  5
4AA
100
AcDbEntity
  8
03__ASM_ALL_CURVES
100
AcDbLine
 62
4
  6
CONTINUOUS
 10
8.7441893742
 20
10.0504051808
 11
8.7575227091
 21
10.0454051808
  0
LINE
  5
4AB
100
AcDbEntity
  8
03__ASM_ALL_CURVES
100
AcDbLine
 62
4
  6
CONTINUOUS
 10
8.7708560416
 20
10.0504051808
 11
8.7841893754
 21
10.0454051808
  0
LINE
  5
4AC
100
AcDbEntity
  8
03__ASM_ALL_CURVES
100
AcDbLine
 62
4
  6
CONTINUOUS
 10
8.8871893742
 20
10.0404051808
 11
8.8605227091
 21
10.0504051808
  0
LINE
  5
4AD
100
AcDbEntity
  8
03__ASM_ALL_CURVES
100
AcDbLine
 62
4
  6
CONTINUOUS
 10
10.8675227091
 20
8.5504051808
 11
10.8775227091
 21
8.5370718458
  0
LINE
  5
4AE
100
AcDbEntity
  8
03__ASM_ALL_CURVES
100
AcDbLine
 62
4
  6
CONTINUOUS
 10
10.6975227091
 20
8.4837385145
 11
10.6925227091
 21
8.4970718482
  0
LINE
  5
4AF
100
AcDbEntity
  8
03__ASM_ALL_CURVES
100
AcDbLine
 62
4
  6
CONTINUOUS
 10
10.7275227091
 20
8.5370718458
 11
10.7325227091
 21
8.5237385157
  0
LINE
  5
4B0
100
AcDbEntity
  8
03__ASM_ALL_CURVES
100
AcDbLine
 62
4
  6
CONTINUOUS
 10
11.0375227091
 20
6.9090718458
 11
11.0425227091
 21
6.8890718458
  0
LINE
  5
4B1
100
AcDbEntity
  8
03__ASM_ALL_CURVES
100
AcDbLine
 62
4
  6
CONTINUOUS
 10
10.7675227091
 20
8.4904051808
 11
10.7675227091
 21
8.4970718482
  0
LINE
  5
4B2
100
AcDbEntity
  8
03__ASM_ALL_CURVES
100
AcDbLine
 62
4
  6
CONTINUOUS
 10
10.7725227091
 20
8.5304051808
 11
10.7725227091
 21
8.5370718458
  0
LINE
  5
4B3
100
AcDbEntity
  8
03__ASM_ALL_CURVES
100
AcDbLine
 62
4
  6
CONTINUOUS
 10
10.8050227091
 20
6.2324051808
 11
10.8050227091
 21
6.2424051811
  0
LINE
  5
4B4
100
AcDbEntity
  8
03__ASM_ALL_CURVES
100
AcDbLine
 62
4
  6
CONTINUOUS
 10
10.8050227091
 20
6.8424051808
 11
10.8050227091
 21
6.8524051811
  0
LINE
  5
4B5
100
AcDbEntity
  8
03__ASM_ALL_CURVES
100
AcDbLine
 62
4
  6
CONTINUOUS
 10
10.8050227091
 20
7.8894051808
 11
10.8050227091
 21
7.8994051811
  0
LINE
  5
4B6
100
AcDbEntity
  8
03__ASM_ALL_CURVES
100
AcDbLine
 62
4
  6
CONTINUOUS
 10
10.8125227091
 20
8.5370718458
 11
10.8125227091
 21
8.5304051808
  0
LINE
  5
4B7
100
AcDbEntity
  8
03__ASM_ALL_CURVES
100
AcDbLine
 62
4
  6
CONTINUOUS
 10
10.8175227091
 20
8.4970718482
 11
10.8175227091
 21
8.4904051808
  0
LINE
  5
4B8
100
AcDbEntity
  8
03__ASM_ALL_CURVES
100
AcDbLine
 62
4
  6
CONTINUOUS
 10
10.8475227091
 20
7.9094051808
 11
10.8475227091
 21
7.9160718482
  0
LINE
  5
4B9
100
AcDbEntity
  8
03__ASM_ALL_CURVES
100
AcDbLine
 62
4
  6
CONTINUOUS
 10
10.8525227091
 20
7.9494051808
 11
10.8525227091
 21
7.9560718458
  0
LINE
  5
4BA
100
AcDbEntity
  8
03__ASM_ALL_CURVES
100
AcDbLine
 62
4
  6
CONTINUOUS
 10
10.8825227091
 20
8.5170718458
 11
10.8825227091
 21
8.5037385133
  0
LINE
  5
4BB
100
AcDbEntity
  8
03__ASM_ALL_CURVES
100
AcDbLine
 62
4
  6
CONTINUOUS
 10
10.8925227091
 20
7.9560718458
 11
10.8925227091
 21
7.9494051808
  0
LINE
  5
4BC
100
AcDbEntity
  8
03__ASM_ALL_CURVES
100
AcDbLine
 62
4
  6
CONTINUOUS
 10
10.8925227091
 20
6.9090718458
 11
10.8925227091
 21
6.8957385157
  0
LINE
  5
4BD
100
AcDbEntity
  8
03__ASM_ALL_CURVES
100
AcDbLine
 62
4
  6
CONTINUOUS
 10
10.8975227091
 20
7.9160718482
 11
10.8975227091
 21
7.9094051808
  0
LINE
  5
4BE
100
AcDbEntity
  8
03__ASM_ALL_CURVES
100
AcDbLine
 62
4
  6
CONTINUOUS
 10
10.9525227091
 20
7.9694051808
 11
10.9525227091
 21
7.8894051808
  0
LINE
  5
4BF
100
AcDbEntity
  8
03__ASM_ALL_CURVES
100
AcDbLine
 62
4
  6
CONTINUOUS
 10
10.5475227091
 20
7.9560718458
 11
10.5425227091
 21
7.9360718458
  0
LINE
  5
4C0
100
AcDbEntity
  8
03__ASM_ALL_CURVES
100
AcDbLine
 62
4
  6
CONTINUOUS
 10
10.1375227091
 20
6.2524051808
 11
10.1325227091
 21
6.2324051808
  0
LINE
  5
4C1
100
AcDbEntity
  8
03__ASM_ALL_CURVES
100
AcDbLine
 62
4
  6
CONTINUOUS
 10
10.3775227091
 20
6.8624051808
 11
10.3725227091
 21
6.8424051808
  0
LINE
  5
4C2
100
AcDbEntity
  8
03__ASM_ALL_CURVES
100
AcDbLine
 62
4
  6
CONTINUOUS
 10
10.8825227091
 20
8.5037385133
 11
10.8775227091
 21
8.4837385145
  0
LINE
  5
4C3
100
AcDbEntity
  8
03__ASM_ALL_CURVES
100
AcDbLine
 62
4
  6
CONTINUOUS
 10
10.6925227091
 20
8.5237385157
 11
10.6975227091
 21
8.5370718458
  0
LINE
  5
4C4
100
AcDbEntity
  8
03__ASM_ALL_CURVES
100
AcDbLine
 62
4
  6
CONTINUOUS
 10
10.7325227091
 20
8.4970718482
 11
10.7275227091
 21
8.4837385145
  0
LINE
  5
4C5
100
AcDbEntity
  8
03__ASM_ALL_CURVES
100
AcDbLine
 62
4
  6
CONTINUOUS
 10
10.6975227091
 20
8.5370718458
 11
10.7025227091
 21
8.5437385157
  0
LINE
  5
4C6
100
AcDbEntity
  8
03__ASM_ALL_CURVES
100
AcDbLine
 62
4
  6
CONTINUOUS
 10
10.7275227091
 20
8.4837385145
 11
10.7225227091
 21
8.4770718476
  0
LINE
  5
4C7
100
AcDbEntity
  8
03__ASM_ALL_CURVES
100
AcDbLine
 62
4
  6
CONTINUOUS
 10
10.7725227091
 20
8.5370718458
 11
10.7775227091
 21
8.5437385157
  0
LINE
  5
4C8
100
AcDbEntity
  8
03__ASM_ALL_CURVES
100
AcDbLine
 62
4
  6
CONTINUOUS
 10
10.7675227091
 20
8.4970718482
 11
10.7775227091
 21
8.5104051808
  0
LINE
  5
4C9
100
AcDbEntity
  8
03__ASM_ALL_CURVES
100
AcDbLine
 62
4
  6
CONTINUOUS
 10
10.3725227091
 20
7.9560718458
 11
10.3775227091
 21
7.9627385157
  0
LINE
  5
4CA
100
AcDbEntity
  8
03__ASM_ALL_CURVES
100
AcDbLine
 62
4
  6
CONTINUOUS
 10
10.8125227091
 20
8.5304051808
 11
10.8075227091
 21
8.5237385157
  0
LINE
  5
4CB
100
AcDbEntity
  8
03__ASM_ALL_CURVES
100
AcDbLine
 62
4
  6
CONTINUOUS
 10
10.3675227091
 20
7.9160718482
 11
10.3775227091
 21
7.9294051808
  0
LINE
  5
4CC
100
AcDbEntity
  8
03__ASM_ALL_CURVES
100
AcDbLine
 62
4
  6
CONTINUOUS
 10
10.8175227091
 20
8.4904051808
 11
10.8075227091
 21
8.4770718476
  0
LINE
  5
4CD
100
AcDbEntity
  8
03__ASM_ALL_CURVES
100
AcDbLine
 62
4
  6
CONTINUOUS
 10
10.4125227091
 20
7.9494051808
 11
10.4075227091
 21
7.9427385157
  0
LINE
  5
4CE
100
AcDbEntity
  8
03__ASM_ALL_CURVES
100
AcDbLine
 62
4
  6
CONTINUOUS
 10
10.4175227091
 20
7.9094051808
 11
10.4075227091
 21
7.8960718476
  0
LINE
  5
4CF
100
AcDbEntity
  8
03__ASM_ALL_CURVES
100
AcDbLine
 62
4
  6
CONTINUOUS
 10
10.8775227091
 20
8.4837385145
 11
10.8675227091
 21
8.4704051808
  0
LINE
  5
4D0
100
AcDbEntity
  8
03__ASM_ALL_CURVES
100
AcDbLine
 62
4
  6
CONTINUOUS
 10
10.8075227091
 20
8.4770718476
 11
10.7975227091
 21
8.4704051808
  0
LINE
  5
4D1
100
AcDbEntity
  8
03__ASM_ALL_CURVES
100
AcDbLine
 62
4
  6
CONTINUOUS
 10
10.1425227091
 20
7.9627385157
 11
10.1525227091
 21
7.9694051808
  0
LINE
  5
4D2
100
AcDbEntity
  8
03__ASM_ALL_CURVES
100
AcDbLine
 62
4
  6
CONTINUOUS
 10
10.1625227091
 20
7.8960718476
 11
10.1525227091
 21
7.8894051808
  0
LINE
  5
4D3
100
AcDbEntity
  8
03__ASM_ALL_CURVES
100
AcDbLine
 62
4
  6
CONTINUOUS
 10
10.3775227091
 20
7.9627385157
 11
10.3875227091
 21
7.9694051808
  0
LINE
  5
4D4
100
AcDbEntity
  8
03__ASM_ALL_CURVES
100
AcDbLine
 62
4
  6
CONTINUOUS
 10
7.875856044
 20
9.6204051808
 11
7.8891893766
 21
9.6204051808
  0
LINE
  5
4D5
100
AcDbEntity
  8
03__ASM_ALL_CURVES
100
AcDbLine
 62
4
  6
CONTINUOUS
 10
8.531856044
 20
9.6204051808
 11
8.5451893766
 21
9.6204051808
  0
LINE
  5
4D6
100
AcDbEntity
  8
03__ASM_ALL_CURVES
100
AcDbLine
 62
4
  6
CONTINUOUS
 10
8.750856044
 20
9.6204051808
 11
8.7641893766
 21
9.6204051808
  0
LINE
  5
4D7
100
AcDbEntity
  8
03__ASM_ALL_CURVES
100
AcDbLine
 62
4
  6
CONTINUOUS
 10
8.893856044
 20
9.6204051808
 11
8.9071893766
 21
9.6204051808
  0
LINE
  5
4D8
100
AcDbEntity
  8
03__ASM_ALL_CURVES
100
AcDbLine
 62
4
  6
CONTINUOUS
 10
7.9225227091
 20
9.7254051808
 11
7.8425227091
 21
9.7254051808
  0
LINE
  5
4D9
100
AcDbEntity
  8
03__ASM_ALL_CURVES
100
AcDbLine
 62
4
  6
CONTINUOUS
 10
8.511856044
 20
9.7304051808
 11
8.5251893742
 21
9.7304051808
  0
LINE
  5
4DA
100
AcDbEntity
  8
03__ASM_ALL_CURVES
100
AcDbLine
 62
4
  6
CONTINUOUS
 10
8.730856044
 20
9.7304051808
 11
8.7441893742
 21
9.7304051808
  0
LINE
  5
4DB
100
AcDbEntity
  8
03__ASM_ALL_CURVES
100
AcDbLine
 62
4
  6
CONTINUOUS
 10
8.873856044
 20
9.7304051808
 11
8.8871893742
 21
9.7304051808
  0
LINE
  5
4DC
100
AcDbEntity
  8
03__ASM_ALL_CURVES
100
AcDbLine
 62
4
  6
CONTINUOUS
 10
8.9138560416
 20
9.7704051808
 11
8.8871893742
 21
9.7704051808
  0
LINE
  5
4DD
100
AcDbEntity
  8
03__ASM_ALL_CURVES
100
AcDbLine
 62
4
  6
CONTINUOUS
 10
8.8605227091
 20
9.9404051808
 11
8.893856044
 21
9.9354051808
  0
LINE
  5
4DE
100
AcDbEntity
  8
03__ASM_ALL_CURVES
100
AcDbLine
 62
4
  6
CONTINUOUS
 10
8.5451893766
 20
10.1204051808
 11
8.5651893754
 21
10.1154051808
  0
LINE
  5
4DF
100
AcDbEntity
  8
03__ASM_ALL_CURVES
100
AcDbLine
 62
4
  6
CONTINUOUS
 10
8.9071893766
 20
10.0354051808
 11
8.8871893742
 21
10.0404051808
  0
LINE
  5
4E0
100
AcDbEntity
  8
03__ASM_ALL_CURVES
100
AcDbLine
 62
4
  6
CONTINUOUS
 10
8.7641893766
 20
10.1204051808
 11
8.7841893754
 21
10.1154051808
  0
LINE
  5
4E1
100
AcDbEntity
  8
03__ASM_ALL_CURVES
100
AcDbLine
 62
4
  6
CONTINUOUS
 10
10.8775227091
 20
8.5370718458
 11
10.8825227091
 21
8.5170718458
  0
LINE
  5
4E2
100
AcDbEntity
  8
03__ASM_ALL_CURVES
100
AcDbLine
 62
4
  6
CONTINUOUS
 10
11.0375227091
 20
7.9560718458
 11
11.0425227091
 21
7.9360718458
  0
LINE
  5
4E3
100
AcDbEntity
  8
03__ASM_ALL_CURVES
100
AcDbLine
 62
4
  6
CONTINUOUS
 10
10.9725227091
 20
6.9090718458
 11
10.9725227091
 21
6.8957385157
  0
LINE
  5
4E4
100
AcDbEntity
  8
03__ASM_ALL_CURVES
100
AcDbLine
 62
4
  6
CONTINUOUS
 10
10.9725227091
 20
6.2990718458
 11
10.9725227091
 21
6.2857385157
  0
LINE
  5
4E5
100
AcDbEntity
  8
03__ASM_ALL_CURVES
100
AcDbLine
 62
4
  6
CONTINUOUS
 10
11.0425227091
 20
7.9360718458
 11
11.0425227091
 21
7.9227385133
  0
LINE
  5
4E6
100
AcDbEntity
  8
03__ASM_ALL_CURVES
100
AcDbLine
 62
4
  6
CONTINUOUS
 10
11.0425227091
 20
6.8890718458
 11
11.0425227091
 21
6.8757385133
  0
LINE
  5
4E7
100
AcDbEntity
  8
03__ASM_ALL_CURVES
100
AcDbLine
 62
4
  6
CONTINUOUS
 10
11.0425227091
 20
6.2790718458
 11
11.0425227091
 21
6.2657385133
  0
LINE
  5
4E8
100
AcDbEntity
  8
03__ASM_ALL_CURVES
100
AcDbLine
 62
4
  6
CONTINUOUS
 10
10.5475227091
 20
6.9090718458
 11
10.5425227091
 21
6.8890718458
  0
LINE
  5
4E9
100
AcDbEntity
  8
03__ASM_ALL_CURVES
100
AcDbLine
 62
4
  6
CONTINUOUS
 10
10.5475227091
 20
6.2990718458
 11
10.5425227091
 21
6.2790718458
  0
LINE
  5
4EA
100
AcDbEntity
  8
03__ASM_ALL_CURVES
100
AcDbLine
 62
4
  6
CONTINUOUS
 10
10.6925227091
 20
7.9427385157
 11
10.6975227091
 21
7.9560718458
  0
LINE
  5
4EB
100
AcDbEntity
  8
03__ASM_ALL_CURVES
100
AcDbLine
 62
4
  6
CONTINUOUS
 10
10.7325227091
 20
7.9427385157
 11
10.7275227091
 21
7.9294051808
  0
LINE
  5
4EC
100
AcDbEntity
  8
03__ASM_ALL_CURVES
100
AcDbLine
 62
4
  6
CONTINUOUS
 10
10.7325227091
 20
7.9160718482
 11
10.7275227091
 21
7.9027385145
  0
LINE
  5
4ED
100
AcDbEntity
  8
03__ASM_ALL_CURVES
100
AcDbLine
 62
4
  6
CONTINUOUS
 10
10.5575227091
 20
7.9694051808
 11
10.5475227091
 21
7.9560718458
  0
LINE
  5
4EE
100
AcDbEntity
  8
03__ASM_ALL_CURVES
100
AcDbLine
 62
4
  6
CONTINUOUS
 10
10.6975227091
 20
7.9560718458
 11
10.7025227091
 21
7.9627385157
  0
LINE
  5
4EF
100
AcDbEntity
  8
03__ASM_ALL_CURVES
100
AcDbLine
 62
4
  6
CONTINUOUS
 10
10.7275227091
 20
7.9027385145
 11
10.7225227091
 21
7.8960718476
  0
LINE
  5
4F0
100
AcDbEntity
  8
03__ASM_ALL_CURVES
100
AcDbLine
 62
4
  6
CONTINUOUS
 10
10.3775227091
 20
7.9294051808
 11
10.3875227091
 21
7.9360718458
  0
LINE
  5
4F1
100
AcDbEntity
  8
03__ASM_ALL_CURVES
100
AcDbLine
 62
4
  6
CONTINUOUS
 10
10.4075227091
 20
7.9427385157
 11
10.3975227091
 21
7.9360718458
  0
LINE
  5
4F2
100
AcDbEntity
  8
03__ASM_ALL_CURVES
100
AcDbLine
 62
4
  6
CONTINUOUS
 10
10.4075227091
 20
7.8960718476
 11
10.3975227091
 21
7.8894051808
  0
LINE
  5
4F3
100
AcDbEntity
  8
03__ASM_ALL_CURVES
100
AcDbLine
 62
4
  6
CONTINUOUS
 10
10.7025227091
 20
7.9627385157
 11
10.7125227091
 21
7.9694051808
  0
LINE
  5
4F4
100
AcDbEntity
  8
03__ASM_ALL_CURVES
100
AcDbLine
 62
4
  6
CONTINUOUS
 10
10.7275227091
 20
7.9294051808
 11
10.7125227091
 21
7.9227385133
  0
LINE
  5
4F5
100
AcDbEntity
  8
03__ASM_ALL_CURVES
100
AcDbLine
 62
4
  6
CONTINUOUS
 10
8.9071893766
 20
9.6204051808
 11
8.9271893754
 21
9.6254051808
  0
LINE
  5
4F6
100
AcDbEntity
  8
03__ASM_ALL_CURVES
100
AcDbLine
 62
4
  6
CONTINUOUS
 10
8.7641893766
 20
9.6204051808
 11
8.7841893754
 21
9.6254051808
  0
LINE
  5
4F7
100
AcDbEntity
  8
03__ASM_ALL_CURVES
100
AcDbLine
 62
4
  6
CONTINUOUS
 10
8.5451893766
 20
9.6204051808
 11
8.5651893754
 21
9.6254051808
  0
LINE
  5
4F8
100
AcDbEntity
  8
03__ASM_ALL_CURVES
100
AcDbLine
 62
4
  6
CONTINUOUS
 10
7.9225227091
 20
9.8054051808
 11
7.8425227091
 21
9.8054051808
  0
LINE
  5
4F9
100
AcDbEntity
  8
03__ASM_ALL_CURVES
100
AcDbLine
 62
4
  6
CONTINUOUS
 10
8.730856044
 20
9.8104051808
 11
8.7441893742
 21
9.8104051808
  0
LINE
  5
4FA
100
AcDbEntity
  8
03__ASM_ALL_CURVES
100
AcDbLine
 62
4
  6
CONTINUOUS
 10
8.8871893742
 20
9.8104051808
 11
8.9138560416
 21
9.8104051808
  0
LINE
  5
4FB
100
AcDbEntity
  8
03__ASM_ALL_CURVES
100
AcDbLine
 62
4
  6
CONTINUOUS
 10
8.9405227091
 20
9.8829051808
 11
8.9305227088
 21
9.8829051808
  0
LINE
  5
4FC
100
AcDbEntity
  8
03__ASM_ALL_CURVES
100
AcDbLine
 62
4
  6
CONTINUOUS
 10
8.7975227091
 20
9.8829051808
 11
8.7875227088
 21
9.8829051808
  0
LINE
  5
4FD
100
AcDbEntity
  8
03__ASM_ALL_CURVES
100
AcDbLine
 62
4
  6
CONTINUOUS
 10
8.5785227091
 20
9.8829051808
 11
8.5685227088
 21
9.8829051808
  0
LINE
  5
4FE
100
AcDbEntity
  8
03__ASM_ALL_CURVES
100
AcDbLine
 62
4
  6
CONTINUOUS
 10
7.9225227091
 20
9.8829051808
 11
7.9125227088
 21
9.8829051808
  0
LINE
  5
4FF
100
AcDbEntity
  8
03__ASM_ALL_CURVES
100
AcDbLine
 62
4
  6
CONTINUOUS
 10
8.7708560416
 20
9.9304051808
 11
8.7441893742
 21
9.9304051808
  0
LINE
  5
500
100
AcDbEntity
  8
03__ASM_ALL_CURVES
100
AcDbLine
 62
4
  6
CONTINUOUS
 10
8.5518560416
 20
9.9304051808
 11
8.5251893742
 21
9.9304051808
  0
LINE
  5
501
100
AcDbEntity
  8
03__ASM_ALL_CURVES
100
AcDbLine
 62
4
  6
CONTINUOUS
 10
7.9225227091
 20
9.9654051808
 11
7.8425227091
 21
9.9654051808
  0
LINE
  5
502
100
AcDbEntity
  8
03__ASM_ALL_CURVES
100
AcDbLine
 62
4
  6
CONTINUOUS
 10
8.7441893742
 20
9.9704051808
 11
8.7708560416
 21
9.9704051808
  0
LINE
  5
503
100
AcDbEntity
  8
03__ASM_ALL_CURVES
100
AcDbLine
 62
4
  6
CONTINUOUS
 10
8.5585227091
 20
10.0054051808
 11
8.5518560416
 21
10.0054051808
  0
LINE
  5
504
100
AcDbEntity
  8
03__ASM_ALL_CURVES
100
AcDbLine
 62
4
  6
CONTINUOUS
 10
8.5185227091
 20
10.0104051808
 11
8.511856044
 21
10.0104051808
  0
LINE
  5
505
100
AcDbEntity
  8
03__ASM_ALL_CURVES
100
AcDbLine
 62
4
  6
CONTINUOUS
 10
8.9405227091
 20
10.0304051808
 11
8.9071893766
 21
10.0354051808
  0
LINE
  5
506
100
AcDbEntity
  8
03__ASM_ALL_CURVES
100
AcDbLine
 62
4
  6
CONTINUOUS
 10
8.9071893766
 20
10.1204051808
 11
8.9271893754
 21
10.1154051808
  0
LINE
  5
507
100
AcDbEntity
  8
03__ASM_ALL_CURVES
100
AcDbLine
 62
4
  6
CONTINUOUS
 10
10.8725227091
 20
6.2324051808
 11
10.8775227091
 21
6.2657385133
  0
LINE
  5
508
100
AcDbEntity
  8
03__ASM_ALL_CURVES
100
AcDbLine
 62
4
  6
CONTINUOUS
 10
11.0425227091
 20
7.9227385133
 11
11.0375227091
 21
7.9027385145
  0
LINE
  5
509
100
AcDbEntity
  8
03__ASM_ALL_CURVES
100
AcDbLine
 62
4
  6
CONTINUOUS
 10
10.8575227091
 20
6.8624051808
 11
10.8525227091
 21
6.8424051808
  0
LINE
  5
50A
100
AcDbEntity
  8
03__ASM_ALL_CURVES
100
AcDbLine
 62
4
  6
CONTINUOUS
 10
10.9375227091
 20
6.8624051808
 11
10.9325227091
 21
6.8424051808
  0
LINE
  5
50B
100
AcDbEntity
  8
03__ASM_ALL_CURVES
100
AcDbLine
 62
4
  6
CONTINUOUS
 10
10.6925227091
 20
6.8957385157
 11
10.6975227091
 21
6.9090718458
  0
LINE
  5
50C
100
AcDbEntity
  8
03__ASM_ALL_CURVES
100
AcDbLine
 62
4
  6
CONTINUOUS
 10
10.6925227091
 20
6.8690718482
 11
10.6975227091
 21
6.8824051808
  0
LINE
  5
50D
100
AcDbEntity
  8
03__ASM_ALL_CURVES
100
AcDbLine
 62
4
  6
CONTINUOUS
 10
10.7325227091
 20
6.8690718482
 11
10.7275227091
 21
6.8557385145
  0
LINE
  5
50E
100
AcDbEntity
  8
03__ASM_ALL_CURVES
100
AcDbLine
 62
4
  6
CONTINUOUS
 10
10.8525227091
 20
7.9560718458
 11
10.8575227091
 21
7.9627385157
  0
LINE
  5
50F
100
AcDbEntity
  8
03__ASM_ALL_CURVES
100
AcDbLine
 62
4
  6
CONTINUOUS
 10
10.8475227091
 20
7.9160718482
 11
10.8575227091
 21
7.9294051808
  0
LINE
  5
510
100
AcDbEntity
  8
03__ASM_ALL_CURVES
100
AcDbLine
 62
4
  6
CONTINUOUS
 10
10.8925227091
 20
7.9494051808
 11
10.8875227091
 21
7.9427385157
  0
LINE
  5
511
100
AcDbEntity
  8
03__ASM_ALL_CURVES
100
AcDbLine
 62
4
  6
CONTINUOUS
 10
10.8975227091
 20
7.9094051808
 11
10.8875227091
 21
7.8960718476
  0
LINE
  5
512
100
AcDbEntity
  8
03__ASM_ALL_CURVES
100
AcDbLine
 62
4
  6
CONTINUOUS
 10
11.0375227091
 20
7.9027385145
 11
11.0275227091
 21
7.8894051808
  0
LINE
  5
513
100
AcDbEntity
  8
03__ASM_ALL_CURVES
100
AcDbLine
 62
4
  6
CONTINUOUS
 10
10.2925227091
 20
6.9090718458
 11
10.2975227091
 21
6.9157385157
  0
LINE
  5
514
100
AcDbEntity
  8
03__ASM_ALL_CURVES
100
AcDbLine
 62
4
  6
CONTINUOUS
 10
10.7225227091
 20
7.8960718476
 11
10.7125227091
 21
7.8894051808
  0
LINE
  5
515
100
AcDbEntity
  8
03__ASM_ALL_CURVES
100
AcDbLine
 62
4
  6
CONTINUOUS
 10
10.8575227091
 20
7.9627385157
 11
10.8675227091
 21
7.9694051808
  0
LINE
  5
516
100
AcDbEntity
  8
03__ASM_ALL_CURVES
100
AcDbLine
 62
4
  6
CONTINUOUS
 10
10.8575227091
 20
7.9294051808
 11
10.8675227091
 21
7.9360718458
  0
LINE
  5
517
100
AcDbEntity
  8
03__ASM_ALL_CURVES
100
AcDbLine
 62
4
  6
CONTINUOUS
 10
10.8875227091
 20
7.9427385157
 11
10.8775227091
 21
7.9360718458
  0
LINE
  5
518
100
AcDbEntity
  8
03__ASM_ALL_CURVES
100
AcDbLine
 62
4
  6
CONTINUOUS
 10
10.8875227091
 20
7.8960718476
 11
10.8775227091
 21
7.8894051808
  0
LINE
  5
519
100
AcDbEntity
  8
03__ASM_ALL_CURVES
100
AcDbLine
 62
4
  6
CONTINUOUS
 10
7.8891893766
 20
9.6204051808
 11
7.9091893754
 21
9.6254051808
  0
LINE
  5
51A
100
AcDbEntity
  8
03__ASM_ALL_CURVES
100
AcDbLine
 62
4
  6
CONTINUOUS
 10
7.9225227091
 20
10.0454051808
 11
7.8425227091
 21
10.0454051808
  0
LINE
  5
51B
100
AcDbEntity
  8
03__ASM_ALL_CURVES
100
AcDbLine
 62
4
  6
CONTINUOUS
 10
8.511856044
 20
10.0504051808
 11
8.5185227091
 21
10.0504051808
  0
LINE
  5
51C
100
AcDbEntity
  8
03__ASM_ALL_CURVES
100
AcDbLine
 62
4
  6
CONTINUOUS
 10
8.7441893742
 20
10.0504051808
 11
8.7708560416
 21
10.0504051808
  0
LINE
  5
51D
100
AcDbEntity
  8
03__ASM_ALL_CURVES
100
AcDbLine
 62
4
  6
CONTINUOUS
 10
8.5518560416
 20
10.0554051808
 11
8.5585227091
 21
10.0554051808
  0
LINE
  5
51E
100
AcDbEntity
  8
03__ASM_ALL_CURVES
100
AcDbLine
 62
4
  6
CONTINUOUS
 10
7.875856044
 20
10.1204051808
 11
7.8891893766
 21
10.1204051808
  0
LINE
  5
51F
100
AcDbEntity
  8
03__ASM_ALL_CURVES
100
AcDbLine
 62
4
  6
CONTINUOUS
 10
8.531856044
 20
10.1204051808
 11
8.5451893766
 21
10.1204051808
  0
LINE
  5
520
100
AcDbEntity
  8
03__ASM_ALL_CURVES
100
AcDbLine
 62
4
  6
CONTINUOUS
 10
8.750856044
 20
10.1204051808
 11
8.7641893766
 21
10.1204051808
  0
LINE
  5
521
100
AcDbEntity
  8
03__ASM_ALL_CURVES
100
AcDbLine
 62
4
  6
CONTINUOUS
 10
8.893856044
 20
10.1204051808
 11
8.9071893766
 21
10.1204051808
  0
LINE
  5
522
100
AcDbEntity
  8
03__ASM_ALL_CURVES
100
AcDbLine
 62
4
  6
CONTINUOUS
 10
10.8775227091
 20
6.2657385133
 11
10.8825227091
 21
6.2857385157
  0
LINE
  5
523
100
AcDbEntity
  8
03__ASM_ALL_CURVES
100
AcDbLine
 62
4
  6
CONTINUOUS
 10
11.0425227091
 20
6.8757385133
 11
11.0375227091
 21
6.8557385145
  0
LINE
  5
524
100
AcDbEntity
  8
03__ASM_ALL_CURVES
100
AcDbLine
 62
4
  6
CONTINUOUS
 10
10.9375227091
 20
6.2524051808
 11
10.9325227091
 21
6.2324051808
  0
LINE
  5
525
100
AcDbEntity
  8
03__ASM_ALL_CURVES
100
AcDbLine
 62
4
  6
CONTINUOUS
 10
11.0425227091
 20
6.2657385133
 11
11.0375227091
 21
6.2457385145
  0
LINE
  5
526
100
AcDbEntity
  8
03__ASM_ALL_CURVES
100
AcDbLine
 62
4
  6
CONTINUOUS
 10
10.6125227091
 20
6.2857385157
 11
10.6175227091
 21
6.2990718458
  0
LINE
  5
527
100
AcDbEntity
  8
03__ASM_ALL_CURVES
100
AcDbLine
 62
4
  6
CONTINUOUS
 10
10.6125227091
 20
6.2590718482
 11
10.6175227091
 21
6.2724051808
  0
LINE
  5
528
100
AcDbEntity
  8
03__ASM_ALL_CURVES
100
AcDbLine
 62
4
  6
CONTINUOUS
 10
10.6525227091
 20
6.2590718482
 11
10.6475227091
 21
6.2457385145
  0
LINE
  5
529
100
AcDbEntity
  8
03__ASM_ALL_CURVES
100
AcDbLine
 62
4
  6
CONTINUOUS
 10
10.6475227091
 20
6.9224051808
 11
10.6125227091
 21
6.8624051808
  0
LINE
  5
52A
100
AcDbEntity
  8
03__ASM_ALL_CURVES
100
AcDbLine
 62
4
  6
CONTINUOUS
 10
10.3275227091
 20
6.3124051808
 11
10.2925227091
 21
6.2524051808
  0
LINE
  5
52B
100
AcDbEntity
  8
03__ASM_ALL_CURVES
100
AcDbLine
 62
4
  6
CONTINUOUS
 10
10.2875227091
 20
6.8690718482
 11
10.2975227091
 21
6.8824051808
  0
LINE
  5
52C
100
AcDbEntity
  8
03__ASM_ALL_CURVES
100
AcDbLine
 62
4
  6
CONTINUOUS
 10
10.3325227091
 20
6.9024051808
 11
10.3275227091
 21
6.8957385157
  0
LINE
  5
52D
100
AcDbEntity
  8
03__ASM_ALL_CURVES
100
AcDbLine
 62
4
  6
CONTINUOUS
 10
10.3725227091
 20
6.9090718458
 11
10.3775227091
 21
6.9157385157
  0
LINE
  5
52E
100
AcDbEntity
  8
03__ASM_ALL_CURVES
100
AcDbLine
 62
4
  6
CONTINUOUS
 10
10.3375227091
 20
6.8624051808
 11
10.3275227091
 21
6.8490718476
  0
LINE
  5
52F
100
AcDbEntity
  8
03__ASM_ALL_CURVES
100
AcDbLine
 62
4
  6
CONTINUOUS
 10
10.3875227091
 20
6.8757385133
 11
10.3775227091
 21
6.8624051808
  0
LINE
  5
530
100
AcDbEntity
  8
03__ASM_ALL_CURVES
100
AcDbLine
 62
4
  6
CONTINUOUS
 10
10.4125227091
 20
6.8957385157
 11
10.4075227091
 21
6.8890718458
  0
LINE
  5
531
100
AcDbEntity
  8
03__ASM_ALL_CURVES
100
AcDbLine
 62
4
  6
CONTINUOUS
 10
10.5575227091
 20
6.9224051808
 11
10.5475227091
 21
6.9090718458
  0
LINE
  5
532
100
AcDbEntity
  8
03__ASM_ALL_CURVES
100
AcDbLine
 62
4
  6
CONTINUOUS
 10
10.1325227091
 20
6.2990718458
 11
10.1375227091
 21
6.3057385157
  0
LINE
  5
533
100
AcDbEntity
  8
03__ASM_ALL_CURVES
100
AcDbLine
 62
4
  6
CONTINUOUS
 10
8.873856044
 20
10.1154051808
 11
8.893856044
 21
10.1204051808
  0
LINE
  5
534
100
AcDbEntity
  8
03__ASM_ALL_CURVES
100
AcDbLine
 62
4
  6
CONTINUOUS
 10
8.730856044
 20
10.1154051808
 11
8.750856044
 21
10.1204051808
  0
LINE
  5
535
100
AcDbEntity
  8
03__ASM_ALL_CURVES
100
AcDbLine
 62
4
  6
CONTINUOUS
 10
8.511856044
 20
10.1154051808
 11
8.531856044
 21
10.1204051808
  0
LINE
  5
536
100
AcDbEntity
  8
03__ASM_ALL_CURVES
100
AcDbLine
 62
4
  6
CONTINUOUS
 10
10.8825227091
 20
6.2857385157
 11
10.8925227091
 21
6.3124051808
  0
LINE
  5
537
100
AcDbEntity
  8
03__ASM_ALL_CURVES
100
AcDbLine
 62
4
  6
CONTINUOUS
 10
10.1475227091
 20
6.2657385133
 11
10.1375227091
 21
6.2524051808
  0
LINE
  5
538
100
AcDbEntity
  8
03__ASM_ALL_CURVES
100
AcDbLine
 62
4
  6
CONTINUOUS
 10
10.1725227091
 20
6.2857385157
 11
10.1675227091
 21
6.2790718458
  0
LINE
  5
539
100
AcDbEntity
  8
03__ASM_ALL_CURVES
100
AcDbLine
 62
4
  6
CONTINUOUS
 10
10.6975227091
 20
6.9090718458
 11
10.7025227091
 21
6.9157385157
  0
LINE
  5
53A
100
AcDbEntity
  8
03__ASM_ALL_CURVES
100
AcDbLine
 62
4
  6
CONTINUOUS
 10
10.7275227091
 20
6.8557385145
 11
10.7225227091
 21
6.8490718476
  0
LINE
  5
53B
100
AcDbEntity
  8
03__ASM_ALL_CURVES
100
AcDbLine
 62
4
  6
CONTINUOUS
 10
10.8525227091
 20
6.9090718458
 11
10.8575227091
 21
6.9157385157
  0
LINE
  5
53C
100
AcDbEntity
  8
03__ASM_ALL_CURVES
100
AcDbLine
 62
4
  6
CONTINUOUS
 10
10.4125227091
 20
6.2924051808
 11
10.4075227091
 21
6.2857385157
  0
LINE
  5
53D
100
AcDbEntity
  8
03__ASM_ALL_CURVES
100
AcDbLine
 62
4
  6
CONTINUOUS
 10
10.2975227091
 20
6.9157385157
 11
10.3075227091
 21
6.9224051808
  0
LINE
  5
53E
100
AcDbEntity
  8
03__ASM_ALL_CURVES
100
AcDbLine
 62
4
  6
CONTINUOUS
 10
10.2975227091
 20
6.8824051808
 11
10.3075227091
 21
6.8890718458
  0
LINE
  5
53F
100
AcDbEntity
  8
03__ASM_ALL_CURVES
100
AcDbLine
 62
4
  6
CONTINUOUS
 10
10.3275227091
 20
6.8957385157
 11
10.3175227091
 21
6.8890718458
  0
LINE
  5
540
100
AcDbEntity
  8
03__ASM_ALL_CURVES
100
AcDbLine
 62
4
  6
CONTINUOUS
 10
10.3775227091
 20
6.9157385157
 11
10.3875227091
 21
6.9224051808
  0
LINE
  5
541
100
AcDbEntity
  8
03__ASM_ALL_CURVES
100
AcDbLine
 62
4
  6
CONTINUOUS
 10
10.3275227091
 20
6.8490718476
 11
10.3175227091
 21
6.8424051808
  0
LINE
  5
542
100
AcDbEntity
  8
03__ASM_ALL_CURVES
100
AcDbLine
 62
4
  6
CONTINUOUS
 10
10.4075227091
 20
6.8890718458
 11
10.3875227091
 21
6.8757385133
  0
LINE
  5
543
100
AcDbEntity
  8
03__ASM_ALL_CURVES
100
AcDbLine
 62
4
  6
CONTINUOUS
 10
7.855856044
 20
10.1154051808
 11
7.875856044
 21
10.1204051808
  0
LINE
  5
544
100
AcDbEntity
  8
03__ASM_ALL_CURVES
100
AcDbLine
 62
4
  6
CONTINUOUS
 10
10.8675227091
 20
6.8757385133
 11
10.8575227091
 21
6.8624051808
  0
LINE
  5
545
100
AcDbEntity
  8
03__ASM_ALL_CURVES
100
AcDbLine
 62
4
  6
CONTINUOUS
 10
10.8925227091
 20
6.8957385157
 11
10.8875227091
 21
6.8890718458
  0
LINE
  5
546
100
AcDbEntity
  8
03__ASM_ALL_CURVES
100
AcDbLine
 62
4
  6
CONTINUOUS
 10
10.4175227091
 20
6.2524051808
 11
10.4075227091
 21
6.2390718476
  0
LINE
  5
547
100
AcDbEntity
  8
03__ASM_ALL_CURVES
100
AcDbLine
 62
4
  6
CONTINUOUS
 10
10.9325227091
 20
6.9090718458
 11
10.9375227091
 21
6.9157385157
  0
LINE
  5
548
100
AcDbEntity
  8
03__ASM_ALL_CURVES
100
AcDbLine
 62
4
  6
CONTINUOUS
 10
10.9475227091
 20
6.8757385133
 11
10.9375227091
 21
6.8624051808
  0
LINE
  5
549
100
AcDbEntity
  8
03__ASM_ALL_CURVES
100
AcDbLine
 62
4
  6
CONTINUOUS
 10
10.9725227091
 20
6.8957385157
 11
10.9675227091
 21
6.8890718458
  0
LINE
  5
54A
100
AcDbEntity
  8
03__ASM_ALL_CURVES
100
AcDbLine
 62
4
  6
CONTINUOUS
 10
10.5575227091
 20
6.3124051808
 11
10.5475227091
 21
6.2990718458
  0
LINE
  5
54B
100
AcDbEntity
  8
03__ASM_ALL_CURVES
100
AcDbLine
 62
4
  6
CONTINUOUS
 10
10.6175227091
 20
6.2990718458
 11
10.6225227091
 21
6.3057385157
  0
LINE
  5
54C
100
AcDbEntity
  8
03__ASM_ALL_CURVES
100
AcDbLine
 62
4
  6
CONTINUOUS
 10
11.0375227091
 20
6.8557385145
 11
11.0275227091
 21
6.8424051808
  0
LINE
  5
54D
100
AcDbEntity
  8
03__ASM_ALL_CURVES
100
AcDbLine
 62
4
  6
CONTINUOUS
 10
10.6475227091
 20
6.2457385145
 11
10.6425227091
 21
6.2390718476
  0
LINE
  5
54E
100
AcDbEntity
  8
03__ASM_ALL_CURVES
100
AcDbLine
 62
4
  6
CONTINUOUS
 10
10.7025227091
 20
6.9157385157
 11
10.7125227091
 21
6.9224051808
  0
LINE
  5
54F
100
AcDbEntity
  8
03__ASM_ALL_CURVES
100
AcDbLine
 62
4
  6
CONTINUOUS
 10
10.7225227091
 20
6.8490718476
 11
10.7125227091
 21
6.8424051808
  0
LINE
  5
550
100
AcDbEntity
  8
03__ASM_ALL_CURVES
100
AcDbLine
 62
4
  6
CONTINUOUS
 10
10.8575227091
 20
6.9157385157
 11
10.8675227091
 21
6.9224051808
  0
LINE
  5
551
100
AcDbEntity
  8
03__ASM_ALL_CURVES
100
AcDbLine
 62
4
  6
CONTINUOUS
 10
10.6975227091
 20
6.8824051808
 11
10.7125227091
 21
6.8890718458
  0
LINE
  5
552
100
AcDbEntity
  8
03__ASM_ALL_CURVES
100
AcDbLine
 62
4
  6
CONTINUOUS
 10
10.9325227091
 20
6.2990718458
 11
10.9375227091
 21
6.3057385157
  0
LINE
  5
553
100
AcDbEntity
  8
03__ASM_ALL_CURVES
100
AcDbLine
 62
4
  6
CONTINUOUS
 10
10.9475227091
 20
6.2657385133
 11
10.9375227091
 21
6.2524051808
  0
LINE
  5
554
100
AcDbEntity
  8
03__ASM_ALL_CURVES
100
AcDbLine
 62
4
  6
CONTINUOUS
 10
10.9725227091
 20
6.2857385157
 11
10.9675227091
 21
6.2790718458
  0
LINE
  5
555
100
AcDbEntity
  8
03__ASM_ALL_CURVES
100
AcDbLine
 62
4
  6
CONTINUOUS
 10
10.8875227091
 20
6.8890718458
 11
10.8675227091
 21
6.8757385133
  0
LINE
  5
556
100
AcDbEntity
  8
03__ASM_ALL_CURVES
100
AcDbLine
 62
4
  6
CONTINUOUS
 10
10.9375227091
 20
6.9157385157
 11
10.9475227091
 21
6.9224051808
  0
LINE
  5
557
100
AcDbEntity
  8
03__ASM_ALL_CURVES
100
AcDbLine
 62
4
  6
CONTINUOUS
 10
10.9675227091
 20
6.8890718458
 11
10.9475227091
 21
6.8757385133
  0
LINE
  5
558
100
AcDbEntity
  8
03__ASM_ALL_CURVES
100
AcDbLine
 62
4
  6
CONTINUOUS
 10
10.1375227091
 20
6.3057385157
 11
10.1475227091
 21
6.3124051808
  0
LINE
  5
559
100
AcDbEntity
  8
03__ASM_ALL_CURVES
100
AcDbLine
 62
4
  6
CONTINUOUS
 10
10.1675227091
 20
6.2790718458
 11
10.1475227091
 21
6.2657385133
  0
LINE
  5
55A
100
AcDbEntity
  8
03__ASM_ALL_CURVES
100
AcDbLine
 62
4
  6
CONTINUOUS
 10
11.0375227091
 20
6.2457385145
 11
11.0275227091
 21
6.2324051808
  0
LINE
  5
55B
100
AcDbEntity
  8
03__ASM_ALL_CURVES
100
AcDbLine
 62
4
  6
CONTINUOUS
 10
10.3775227091
 20
6.3057385157
 11
10.3875227091
 21
6.3124051808
  0
LINE
  5
55C
100
AcDbEntity
  8
03__ASM_ALL_CURVES
100
AcDbLine
 62
4
  6
CONTINUOUS
 10
10.4075227091
 20
6.2857385157
 11
10.3975227091
 21
6.2790718458
  0
LINE
  5
55D
100
AcDbEntity
  8
03__ASM_ALL_CURVES
100
AcDbLine
 62
4
  6
CONTINUOUS
 10
10.4075227091
 20
6.2390718476
 11
10.3975227091
 21
6.2324051808
  0
LINE
  5
55E
100
AcDbEntity
  8
03__ASM_ALL_CURVES
100
AcDbLine
 62
4
  6
CONTINUOUS
 10
10.6225227091
 20
6.3057385157
 11
10.6325227091
 21
6.3124051808
  0
LINE
  5
55F
100
AcDbEntity
  8
03__ASM_ALL_CURVES
100
AcDbLine
 62
4
  6
CONTINUOUS
 10
10.6425227091
 20
6.2390718476
 11
10.6325227091
 21
6.2324051808
  0
LINE
  5
560
100
AcDbEntity
  8
03__ASM_ALL_CURVES
100
AcDbLine
 62
4
  6
CONTINUOUS
 10
10.9375227091
 20
6.3057385157
 11
10.9475227091
 21
6.3124051808
  0
LINE
  5
561
100
AcDbEntity
  8
03__ASM_ALL_CURVES
100
AcDbLine
 62
4
  6
CONTINUOUS
 10
10.9675227091
 20
6.2790718458
 11
10.9475227091
 21
6.2657385133
  0
LINE
  5
562
100
AcDbEntity
  8
03__ASM_ALL_CURVES
100
AcDbLine
 62
4
  6
CONTINUOUS
 10
10.6175227091
 20
6.2724051808
 11
10.6325227091
 21
6.2790718458
  0
ARC
  5
563
100
AcDbEntity
  8
0
100
AcDbCircle
 62
7
  6
CONTINUOUS
 10
8.3195227091
 20
6.6634051989
 40
0.375
100
AcDbArc
 50
180.0
 51
270.0
  0
ARC
  5
564
100
AcDbEntity
  8
0
100
AcDbCircle
 62
7
  6
CONTINUOUS
 10
8.3195227091
 20
6.6634051989
 40
0.344
100
AcDbArc
 50
180.0
 51
270.0
  0
ARC
  5
565
100
AcDbEntity
  8
0
100
AcDbCircle
 62
7
  6
CONTINUOUS
 10
8.3195227091
 20
8.3194051989
 40
0.375
100
AcDbArc
 50
90.0
 51
180.0
  0
ARC
  5
566
100
AcDbEntity
  8
0
100
AcDbCircle
 62
7
  6
CONTINUOUS
 10
8.3195227091
 20
8.3194051989
 40
0.344
100
AcDbArc
 50
90.0
 51
180.0
  0
CIRCLE
  5
567
100
AcDbEntity
  8
0
100
AcDbCircle
 62
7
  6
CONTINUOUS
 10
8.5385227272
 20
8.5104051778
 40
0.078
  0
CIRCLE
  5
568
100
AcDbEntity
  8
0
100
AcDbCircle
 62
7
  6
CONTINUOUS
 10
8.5385227272
 20
8.5104051778
 40
0.0625
  0
CIRCLE
  5
569
100
AcDbEntity
  8
0
100
AcDbCircle
 62
7
  6
CONTINUOUS
 10
8.8205227325
 20
6.8824052313
 40
0.4670000234
  0
CIRCLE
  5
56A
100
AcDbEntity
  8
0
100
AcDbCircle
 62
7
  6
CONTINUOUS
 10
8.8205227325
 20
6.8824052313
 40
0.4305
  0
CIRCLE
  5
56B
100
AcDbEntity
  8
0
100
AcDbCircle
 62
7
  6
CONTINUOUS
 10
8.8205227325
 20
6.8824052313
 40
0.4175
  0
CIRCLE
  5
56C
100
AcDbEntity
  8
0
100
AcDbCircle
 62
7
  6
CONTINUOUS
 10
8.8205227325
 20
6.8824052313
 40
0.407
  0
CIRCLE
  5
56D
100
AcDbEntity
  8
0
100
AcDbCircle
 62
7
  6
CONTINUOUS
 10
8.8205227325
 20
6.8824052313
 40
0.367
  0
CIRCLE
  5
56E
100
AcDbEntity
  8
0
100
AcDbCircle
 62
7
  6
CONTINUOUS
 10
8.8205227325
 20
6.8824052313
 40
0.3445
  0
CIRCLE
  5
56F
100
AcDbEntity
  8
0
100
AcDbCircle
 62
7
  6
CONTINUOUS
 10
8.8205227325
 20
6.8824052313
 40
0.2655
  0
ARC
  5
570
100
AcDbEntity
  8
0
100
AcDbCircle
 62
7
  6
CONTINUOUS
 10
9.1945227091
 20
6.6634051989
 40
0.375
100
AcDbArc
 50
270.0
 51
360.0
  0
ARC
  5
571
100
AcDbEntity
  8
0
100
AcDbCircle
 62
7
  6
CONTINUOUS
 10
9.1945227091
 20
6.6634051989
 40
0.344
100
AcDbArc
 50
270.0
 51
360.0
  0
ARC
  5
572
100
AcDbEntity
  8
0
100
AcDbCircle
 62
7
  6
CONTINUOUS
 10
8.7575227091
 20
7.9294051808
 40
0.489
100
AcDbArc
 50
296.5280494436
 51
303.4719505564
  0
ARC
  5
573
100
AcDbEntity
  8
0
100
AcDbCircle
 62
7
  6
CONTINUOUS
 10
8.7575227091
 20
7.9294051808
 40
0.489
100
AcDbArc
 50
236.5280494436
 51
243.4719505564
  0
ARC
  5
574
100
AcDbEntity
  8
0
100
AcDbCircle
 62
7
  6
CONTINUOUS
 10
8.7575227091
 20
7.9294051808
 40
0.489
100
AcDbArc
 50
56.5280494436
 51
63.4719505564
  0
ARC
  5
575
100
AcDbEntity
  8
0
100
AcDbCircle
 62
7
  6
CONTINUOUS
 10
8.7575227091
 20
7.9294051808
 40
0.489
100
AcDbArc
 50
116.5280494436
 51
123.4719505564
  0
ARC
  5
576
100
AcDbEntity
  8
0
100
AcDbCircle
 62
7
  6
CONTINUOUS
 10
8.7575227091
 20
7.9294051808
 40
0.489
100
AcDbArc
 50
176.5280494436
 51
183.4719505564
  0
ARC
  5
577
100
AcDbEntity
  8
0
100
AcDbCircle
 62
7
  6
CONTINUOUS
 10
8.7575227091
 20
7.9294051808
 40
0.489
100
AcDbArc
 50
356.5280494436
 51
3.4719505564
  0
ARC
  5
578
100
AcDbEntity
  8
0
100
AcDbCircle
 62
7
  6
CONTINUOUS
 10
8.7575227091
 20
7.9294051626
 40
0.4670000234
100
AcDbArc
 50
9.5425001977
 51
50.4607228644
  0
ARC
  5
579
100
AcDbEntity
  8
0
100
AcDbCircle
 62
7
  6
CONTINUOUS
 10
8.7575227091
 20
7.9294051626
 40
0.4670000234
100
AcDbArc
 50
309.5392708864
 51
350.4575061862
  0
ARC
  5
57A
100
AcDbEntity
  8
0
100
AcDbCircle
 62
7
  6
CONTINUOUS
 10
8.7575227091
 20
7.9294051626
 40
0.4670000234
100
AcDbArc
 50
249.5357874921
 51
290.4642125079
  0
ARC
  5
57B
100
AcDbEntity
  8
0
100
AcDbCircle
 62
7
  6
CONTINUOUS
 10
8.7575227091
 20
7.9294051626
 40
0.4670000234
100
AcDbArc
 50
189.5424938138
 51
230.4607291136
  0
ARC
  5
57C
100
AcDbEntity
  8
0
100
AcDbCircle
 62
7
  6
CONTINUOUS
 10
8.7575227091
 20
7.9294051626
 40
0.4670000234
100
AcDbArc
 50
129.5392771356
 51
170.4574998023
  0
ARC
  5
57D
100
AcDbEntity
  8
0
100
AcDbCircle
 62
7
  6
CONTINUOUS
 10
8.7575227091
 20
7.9294051626
 40
0.4670000234
100
AcDbArc
 50
69.5358005396
 51
110.4641994604
  0
CIRCLE
  5
57E
100
AcDbEntity
  8
0
100
AcDbCircle
 62
7
  6
CONTINUOUS
 10
8.7575227091
 20
7.9294051808
 40
0.43
  0
ARC
  5
57F
100
AcDbEntity
  8
0
100
AcDbCircle
 62
7
  6
CONTINUOUS
 10
9.1945227091
 20
8.3194051989
 40
0.375
100
AcDbArc
 50
0.0
 51
90.0
  0
ARC
  5
580
100
AcDbEntity
  8
0
100
AcDbCircle
 62
7
  6
CONTINUOUS
 10
9.1945227091
 20
8.3194051989
 40
0.344
100
AcDbArc
 50
0.0
 51
90.0
  0
SPLINE
  5
581
100
AcDbEntity
  8
0
100
AcDbSpline
 62
7
  6
CONTINUOUS
 70
0
 71
3
 72
8
 73
4
 74
2
 42
0.0000001
 43
0.0000001
 44
0.0000000001
 12
0.0009562761
 22
0.0010812987
 32
0.0
 13
0.0009614185
 23
0.001076834
 33
0.0
 40
0.0
 40
0.0
 40
0.0
 40
0.0
 40
1.0
 40
1.0
 40
1.0
 40
1.0
 10
8.7684295014
 20
6.6220659425
 30
0.0
 10
8.7687482601
 20
6.6224263754
 30
0.0
 10
8.7690678783
 20
6.6227860663
 30
0.0
 10
8.7693883511
 20
6.623145011
 30
0.0
 11
8.7684295014
 21
6.6220659425
 31
0.0
 11
8.7693883511
 21
6.623145011
 31
0.0
  0
SPLINE
  5
582
100
AcDbEntity
  8
0
100
AcDbSpline
 62
7
  6
CONTINUOUS
 70
0
 71
3
 72
10
 73
6
 74
4
 42
0.0000001
 43
0.0000001
 44
0.0000000001
 12
0.045879752
 22
0.0513874829
 32
0.0
 13
0.0556732467
 23
0.0405659931
 33
0.0
 40
0.0
 40
0.0
 40
0.0
 40
0.0
 40
0.3319829713
 40
0.6723708722
 40
1.0
 40
1.0
 40
1.0
 40
1.0
 10
8.7693883511
 20
6.623145011
 30
0.0
 10
8.7744654499
 20
6.6288316008
 30
0.0
 10
8.7851826248
 20
6.6399694081
 30
0.0
 10
8.8023130865
 20
6.6552882015
 30
0.0
 10
8.8144426734
 20
6.6646975123
 30
0.0
 10
8.8205227325
 20
6.6691277126
 30
0.0
 11
8.7693883511
 21
6.623145011
 31
0.0
 11
8.7852438934
 21
6.6396259107
 31
0.0
 11
8.8027098019
 21
6.6552697313
 31
0.0
 11
8.8205227325
 21
6.6691277126
 31
0.0
  0
SPLINE
  5
583
100
AcDbEntity
  8
0
100
AcDbSpline
 62
7
  6
CONTINUOUS
 70
0
 71
3
 72
8
 73
4
 74
2
 42
0.0000001
 43
0.0000001
 44
0.0000000001
 12
-0.0014929061
 22
-0.0018001925
 32
0.0
 13
-0.0015124198
 23
-0.00178427
 33
0.0
 40
0.0
 40
0.0
 40
0.0
 40
0.0
 40
1.0
 40
1.0
 40
1.0
 40
1.0
 10
9.0786359396
 20
6.9445970498
 30
0.0
 10
9.0781383042
 20
6.9439969857
 30
0.0
 10
9.0776375046
 20
6.943399453
 30
0.0
 10
9.0771333646
 20
6.9428046964
 30
0.0
 11
9.0786359396
 21
6.9445970498
 31
0.0
 11
9.0771333646
 21
6.9428046964
 31
0.0
  0
SPLINE
  5
584
100
AcDbEntity
  8
0
100
AcDbSpline
 62
7
  6
CONTINUOUS
 70
0
 71
3
 72
24
 73
20
 74
18
 42
0.0000001
 43
0.0000001
 44
0.0000000001
 12
-0.1918771759
 22
-0.2263661748
 32
0.0
 13
-0.0283801564
 23
0.2953434749
 33
0.0
 40
0.0
 40
0.0
 40
0.0
 40
0.0
 40
0.0417315181
 40
0.0860084819
 40
0.1264212806
 40
0.1634127279
 40
0.1978233189
 40
0.233537433
 40
0.2725884449
 40
0.316030029
 40
0.3653164024
 40
0.4212782356
 40
0.4832170738
 40
0.5500389945
 40
0.624241563
 40
0.7062604584
 40
0.7962464505
 40
0.8941353936
 40
1.0
 40
1.0
 40
1.0
 40
1.0
 10
9.0771333646
 20
6.9428046964
 30
0.0
 10
9.074464256
 20
6.9396558283
 30
0.0
 10
9.0687702659
 20
6.9333263942
 30
0.0
 10
9.0596532482
 20
6.9247352635
 30
0.0
 10
9.049863149
 20
6.9176621719
 30
0.0
 10
9.0396327738
 20
6.9130997892
 30
0.0
 10
9.0286857893
 20
6.912592829
 30
0.0
 10
9.0186047468
 20
6.9173189807
 30
0.0
 10
9.010061664
 20
6.925425596
 30
0.0
 10
9.002140605
 20
6.9358092094
 30
0.0
 10
8.9943011569
 20
6.9482637095
 30
0.0
 10
8.9862193626
 20
6.9626936258
 30
0.0
 10
8.9778163062
 20
6.9789183951
 30
0.0
 10
8.9690484194
 20
6.9969780289
 30
0.0
 10
8.9599912165
 20
7.0170966489
 30
0.0
 10
8.9508992754
 20
7.0396958433
 30
0.0
 10
8.9424002394
 20
7.0650222816
 30
0.0
 10
8.9353662963
 20
7.0932461177
 30
0.0
 10
8.9324035025
 20
7.1132216329
 30
0.0
 10
8.9314020178
 20
7.1236437732
 30
0.0
 11
9.0771333646
 21
6.9428046964
 31
0.0
 11
9.0688190432
 21
6.9336278032
 31
0.0
 11
9.0591815018
 21
6.9247001806
 31
0.0
 11
9.049355003
 21
6.9178288457
 31
0.0
 11
9.0391915179
 21
6.9136857413
 31
0.0
 11
9.0289854891
 21
6.9134098761
 31
0.0
 11
9.0192551851
 21
6.9176059875
 31
0.0
 11
9.0106038434
 21
6.9253133407
 31
0.0
 11
9.0026422281
 21
6.9354497309
 31
0.0
 11
8.9947542866
 21
6.9477633791
 31
0.0
 11
8.9865839849
 21
6.9622182089
 31
0.0
 11
8.9781066918
 21
6.9785236622
 31
0.0
 11
8.9694493277
 21
6.9963599504
 31
0.0
 11
8.9604382969
 21
7.0164476082
 31
0.0
 11
8.9514061512
 21
7.039044697
 31
0.0
 11
8.9429742592
 21
7.0643774856
 31
0.0
 11
8.9359995929
 21
7.0925716295
 31
0.0
 11
8.9314020178
 21
7.1236437732
 31
0.0
  0
SPLINE
  5
585
100
AcDbEntity
  8
0
100
AcDbSpline
 62
7
  6
CONTINUOUS
 70
0
 71
3
 72
21
 73
17
 74
15
 42
0.0000001
 43
0.0000001
 44
0.0000000001
 12
0.1848360635
 22
0.1346797415
 32
0.0
 13
0.0146351182
 23
-0.2282297449
 33
0.0
 40
0.0
 40
0.0
 40
0.0
 40
0.0
 40
0.1171811173
 40
0.2226236514
 40
0.3171086219
 40
0.4028271836
 40
0.4825244595
 40
0.5555077941
 40
0.6200743835
 40
0.6767360999
 40
0.7266507914
 40
0.772980894
 40
0.8216023887
 40
0.8756191515
 40
0.9346834955
 40
1.0
 40
1.0
 40
1.0
 40
1.0
 10
8.8205227325
 20
6.6691277126
 30
0.0
 10
8.8277424979
 20
6.6743883535
 30
0.0
 10
8.8418185443
 20
6.6838944792
 30
0.0
 10
8.8625425894
 20
6.6963523708
 30
0.0
 10
8.8815963036
 20
6.7069014066
 30
0.0
 10
8.8991862328
 20
6.7160246355
 30
0.0
 10
8.9155559129
 20
6.7239269033
 30
0.0
 10
8.9307698099
 20
6.7304890472
 30
0.0
 10
8.944803356
 20
6.7352914532
 30
0.0
 10
8.9576907385
 20
6.7377201875
 30
0.0
 10
8.9696315031
 20
6.7363653484
 30
0.0
 10
8.9790039627
 20
6.729746884
 30
0.0
 10
8.9850085679
 20
6.7198983604
 30
0.0
 10
8.9889765731
 20
6.7081768378
 30
0.0
 10
8.9915455739
 20
6.6947926014
 30
0.0
 10
8.9924666315
 20
6.685344913
 30
0.0
 10
8.9927852698
 20
6.6803758566
 30
0.0
 11
8.8205227325
 21
6.6691277126
 31
0.0
 11
8.8426918305
 21
6.6841851125
 31
0.0
 11
8.8633338188
 21
6.6966518605
 31
0.0
 11
8.8822293829
 21
6.7071346079
 31
0.0
 11
8.89963753
 21
6.7161491359
 31
0.0
 11
8.9160737253
 21
6.7240270898
 31
0.0
 11
8.9314455426
 21
6.7305311416
 31
0.0
 11
8.9454791916
 21
6.7351245915
 31
0.0
 11
8.9582828517
 21
6.7371215138
 31
0.0
 11
8.9695646859
 21
6.7353802734
 31
0.0
 11
8.9783043685
 21
6.7293898466
 31
0.0
 11
8.9844278907
 21
6.7201081777
 31
0.0
 11
8.9885911095
 21
6.7084772762
 31
0.0
 11
8.9912593386
 21
6.6952354999
 31
0.0
 11
8.9927852698
 21
6.6803758566
 31
0.0
  0
SPLINE
  5
586
100
AcDbEntity
  8
0
100
AcDbSpline
 62
7
  6
CONTINUOUS
 70
0
 71
3
 72
9
 73
5
 74
3
 42
0.0000001
 43
0.0000001
 44
0.0000000001
 12
-0.0012881924
 22
-0.0042908243
 32
0.0
 13
-0.0012402789
 23
-0.004304919
 33
0.0
 40
0.0
 40
0.0
 40
0.0
 40
0.0
 40
0.4058036216
 40
1.0
 40
1.0
 40
1.0
 40
1.0
 10
8.5686932017
 20
8.5642594258
 30
0.0
 10
8.5685189506
 20
8.5636790151
 30
0.0
 10
8.568092822
 20
8.5622477569
 30
0.0
 10
8.5676746984
 20
8.5608141373
 30
0.0
 10
8.567429042
 20
8.5599614816
 30
0.0
 11
8.5686932017
 21
8.5642594258
 31
0.0
 11
8.5681744198
 21
8.5625170067
 31
0.0
 11
8.567429042
 21
8.5599614816
 31
0.0
  0
SPLINE
  5
587
100
AcDbEntity
  8
0
100
AcDbSpline
 62
7
  6
CONTINUOUS
 70
0
 71
3
 72
85
 73
81
 74
79
 42
0.0000001
 43
0.0000001
 44
0.0000000001
 12
0.1850623792
 22
0.1348446452
 32
0.0
 13
0.0146530376
 23
-0.2285091924
 33
0.0
 40
0.0
 40
0.0
 40
0.0
 40
0.0
 40
0.0179301728
 40
0.0357786268
 40
0.0535683894
 40
0.0713250335
 40
0.0890763905
 40
0.1068458732
 40
0.1246579075
 40
0.1425372633
 40
0.1604999634
 40
0.1785617905
 40
0.196736736
 40
0.2150286791
 40
0.2334414219
 40
0.251973869
 40
0.2706140647
 40
0.2893497622
 40
0.3081561808
 40
0.3270037397
 40
0.3458547879
 40
0.3646568725
 40
0.3833568328
 40
0.4018907048
 40
0.4201933487
 40
0.438189448
 40
0.4558011928
 40
0.4729602277
 40
0.4895988645
 40
0.5056586754
 40
0.5210817943
 40
0.5358266577
 40
0.5498732884
 40
0.5632079021
 40
0.5758320965
 40
0.5877497151
 40
0.5989780013
 40
0.609549382
 40
0.619497708
 40
0.6288663646
 40
0.6376970797
 40
0.6460276822
 40
0.6539033967
 40
0.6613707845
 40
0.6684638051
 40
0.6752192691
 40
0.6816801654
 40
0.6878858487
 40
0.6938663821
 40
0.6996618288
 40
0.7053080352
 40
0.710836639
 40
0.7162862435
 40
0.7216805878
 40
0.7270372477
 40
0.7323819779
 40
0.7377323035
 40
0.743109182
 40
0.7485537184
 40
0.7541092468
 40
0.7598235536
 40
0.7657320385
 40
0.7718669523
 40
0.7782695118
 40
0.7850138981
 40
0.7921679082
 40
0.7997954891
 40
0.807984931
 40
0.8168313227
 40
0.8264241859
 40
0.8369035782
 40
0.8484379244
 40
0.8611854561
 40
0.8752527232
 40
0.8907585801
 40
0.9079754769
 40
0.9272044401
 40
0.9487408778
 40
0.9729054668
 40
1.0
 40
1.0
 40
1.0
 40
1.0
 10
8.8205227325
 20
6.6691277126
 30
0.0
 10
8.8216287993
 20
6.6699336419
 30
0.0
 10
8.8238446692
 20
6.6715298181
 30
0.0
 10
8.8271872744
 20
6.6738845531
 30
0.0
 10
8.8305426852
 20
6.6761977472
 30
0.0
 10
8.8339143616
 20
6.6784739373
 30
0.0
 10
8.8373059509
 20
6.6807175368
 30
0.0
 10
8.8407211701
 20
6.6829327702
 30
0.0
 10
8.8441636729
 20
6.6851236053
 30
0.0
 10
8.8476367575
 20
6.6872935844
 30
0.0
 10
8.8511432662
 20
6.6894457964
 30
0.0
 10
8.8546854283
 20
6.6915828124
 30
0.0
 10
8.8582647582
 20
6.6937066472
 30
0.0
 10
8.8618820507
 20
6.6958187829
 30
0.0
 10
8.8655371674
 20
6.6979200602
 30
0.0
 10
8.8692289804
 20
6.7000106541
 30
0.0
 10
8.8729553527
 20
6.7020900701
 30
0.0
 10
8.8767126271
 20
6.7041568564
 30
0.0
 10
8.8804960291
 20
6.7062088237
 30
0.0
 10
8.8842991467
 20
6.7082427504
 30
0.0
 10
8.888113777
 20
6.7102542935
 30
0.0
 10
8.8919301964
 20
6.712238133
 30
0.0
 10
8.8957369715
 20
6.7141878723
 30
0.0
 10
8.8995218739
 20
6.7160965165
 30
0.0
 10
8.9032712208
 20
6.7179561578
 30
0.0
 10
8.9069704104
 20
6.7197583034
 30
0.0
 10
8.910604607
 20
6.7214942965
 30
0.0
 10
8.9141594442
 20
6.7231557413
 30
0.0
 10
8.9176217904
 20
6.7247349569
 30
0.0
 10
8.9209790805
 20
6.7262247824
 30
0.0
 10
8.9242203444
 20
6.7276191793
 30
0.0
 10
8.927337031
 20
6.728913686
 30
0.0
 10
8.9303234013
 20
6.7301055922
 30
0.0
 10
8.9331764799
 20
6.731193882
 30
0.0
 10
8.9358946997
 20
6.7321786703
 30
0.0
 10
8.9384784399
 20
6.733061372
 30
0.0
 10
8.9409300595
 20
6.7338446185
 30
0.0
 10
8.9432539133
 20
6.7345320772
 30
0.0
 10
8.9454561493
 20
6.735128175
 30
0.0
 10
8.9475435363
 20
6.7356375774
 30
0.0
 10
8.9495231127
 20
6.7360649702
 30
0.0
 10
8.9514020503
 20
6.7364149552
 30
0.0
 10
8.953187905
 20
6.7366919922
 30
0.0
 10
8.9548879818
 20
6.7369001556
 30
0.0
 10
8.9565089797
 20
6.7370430841
 30
0.0
 10
8.958057348
 20
6.7371240396
 30
0.0
 10
8.959539963
 20
6.737145835
 30
0.0
 10
8.9609631771
 20
6.7371106857
 30
0.0
 10
8.9623330717
 20
6.7370202373
 30
0.0
 10
8.9636553742
 20
6.7368755296
 30
0.0
 10
8.9649357836
 20
6.7366768793
 30
0.0
 10
8.9661796732
 20
6.7364238867
 30
0.0
 10
8.9673912274
 20
6.7361155988
 30
0.0
 10
8.9685732666
 20
6.7357507482
 30
0.0
 10
8.9697273828
 20
6.7353280566
 30
0.0
 10
8.970854466
 20
6.7348462453
 30
0.0
 10
8.9719554096
 20
6.7343038365
 30
0.0
 10
8.9730319271
 20
6.7336987096
 30
0.0
 10
8.9740870549
 20
6.7330273439
 30
0.0
 10
8.9751248853
 20
6.7322843449
 30
0.0
 10
8.9761482931
 20
6.7314636976
 30
0.0
 10
8.9771586764
 20
6.7305592886
 30
0.0
 10
8.9781563981
 20
6.7295649928
 30
0.0
 10
8.9791432074
 20
6.7284722471
 30
0.0
 10
8.980121498
 20
6.7272697671
 30
0.0
 10
8.9810932323
 20
6.725944099
 30
0.0
 10
8.982059435
 20
6.7244802398
 30
0.0
 10
8.9830205623
 20
6.7228608208
 30
0.0
 10
8.9839761257
 20
6.7210661954
 30
0.0
 10
8.9849254428
 20
6.7190727329
 30
0.0
 10
8.9858676839
 20
6.7168511537
 30
0.0
 10
8.9868008239
 20
6.7143666707
 30
0.0
 10
8.9877186955
 20
6.7115864576
 30
0.0
 10
8.988611718
 20
6.7084813729
 30
0.0
 10
8.9894709449
 20
6.7050141679
 30
0.0
 10
8.9902876816
 20
6.701133101
 30
0.0
 10
8.9910509585
 20
6.6967730169
 30
0.0
 10
8.9917448117
 20
6.6918650955
 30
0.0
 10
8.9923478103
 20
6.6863408413
 30
0.0
 10
8.9926529307
 20
6.6824396399
 30
0.0
 10
8.9927852698
 20
6.6803758566
 30
0.0
 11
8.8205227325
 21
6.6691277126
 31
0.0
 11
8.8238539181
 21
6.6715275781
 31
0.0
 11
8.8271948933
 21
6.6738814556
 31
0.0
 11
8.8305485028
 21
6.6761937033
 31
0.0
 11
8.8339182287
 21
6.6784688756
 31
0.0
 11
8.837308141
 21
6.6807116672
 31
0.0
 11
8.8407216136
 21
6.6829260703
 31
0.0
 11
8.8441623432
 21
6.6851160793
 31
0.0
 11
8.8476342175
 21
6.6872856024
 31
0.0
 11
8.8511395321
 21
6.6894373771
 31
0.0
 11
8.8546806195
 21
6.6915740328
 31
0.0
 11
8.8582595423
 21
6.6936979032
 31
0.0
 11
8.8618764418
 21
6.695810071
 31
0.0
 11
8.8655315002
 21
6.6979115557
 31
0.0
 11
8.8692239906
 21
6.7000027471
 31
0.0
 11
8.8729510791
 21
6.7020827422
 31
0.0
 11
8.8767099304
 21
6.7041505327
 31
0.0
 11
8.8804952597
 21
6.7062036299
 31
0.0
 11
8.8843008805
 21
6.7082389178
 31
0.0
 11
8.8881190513
 21
6.7102522771
 31
0.0
 11
8.8919391037
 21
6.71223787
 31
0.0
 11
8.8957502935
 21
6.7141896404
 31
0.0
 11
8.8995397436
 21
6.7161002434
 31
0.0
 11
8.9032943893
 21
6.7179620655
 31
0.0
 11
8.9069991069
 21
6.7197663388
 31
0.0
 11
8.9106382386
 21
6.721504004
 31
0.0
 11
8.9141980182
 21
6.7231669552
 31
0.0
 11
8.917664713
 21
6.7247472376
 31
0.0
 11
8.921026353
 21
6.726237973
 31
0.0
 11
8.9242708565
 21
6.7276326535
 31
0.0
 11
8.9273892792
 21
6.7289266981
 31
0.0
 11
8.9303769473
 21
6.7301178818
 31
0.0
 11
8.9332302152
 21
6.7312049641
 31
0.0
 11
8.935948436
 21
6.7321884503
 31
0.0
 11
8.9385311723
 21
6.7330695019
 31
0.0
 11
8.9409806334
 21
6.7338507625
 31
0.0
 11
8.9433021614
 21
6.7345362585
 31
0.0
 11
8.9455013008
 21
6.7351302748
 31
0.0
 11
8.9475856392
 21
6.7356377267
 31
0.0
 11
8.9495623822
 21
6.7360633431
 31
0.0
 11
8.9514378575
 21
6.736411566
 31
0.0
 11
8.9532200735
 21
6.7366869701
 31
0.0
 11
8.9549173925
 21
6.736893776
 31
0.0
 11
8.9565353493
 21
6.7370354689
 31
0.0
 11
8.9580801428
 21
6.7371153246
 31
0.0
 11
8.9595594018
 21
6.7371362112
 31
0.0
 11
8.9609799167
 21
6.7371003224
 31
0.0
 11
8.9623463057
 21
6.7370093565
 31
0.0
 11
8.9636653878
 21
6.7368643097
 31
0.0
 11
8.9649428676
 21
6.7366654826
 31
0.0
 11
8.9661832901
 21
6.7364126296
 31
0.0
 11
8.967392478
 21
6.7361044492
 31
0.0
 11
8.9685726074
 21
6.7357397759
 31
0.0
 11
8.9697242497
 21
6.7353176747
 31
0.0
 11
8.9708494931
 21
6.7348364435
 31
0.0
 11
8.9719484319
 21
6.7342949392
 31
0.0
 11
8.9730217055
 21
6.7336916881
 31
0.0
 11
8.9740736102
 21
6.733022575
 31
0.0
 11
8.9751081345
 21
6.732282312
 31
0.0
 11
8.9761292033
 21
6.7314641011
 31
0.0
 11
8.9771376494
 21
6.7305622039
 31
0.0
 11
8.9781331833
 21
6.7295711072
 31
0.0
 11
8.9791163944
 21
6.7284836356
 31
0.0
 11
8.9800917863
 21
6.727286333
 31
0.0
 11
8.9810611879
 21
6.7259658481
 31
0.0
 11
8.9820244287
 21
6.7245089296
 31
0.0
 11
8.9829828159
 21
6.7228971316
 31
0.0
 11
8.9839363621
 21
6.7211099715
 31
0.0
 11
8.9848825151
 21
6.7191276323
 31
0.0
 11
8.9858214315
 21
6.7169193969
 31
0.0
 11
8.9867523149
 21
6.7144477663
 31
0.0
 11
8.9876699384
 21
6.7116768444
 31
0.0
 11
8.9885630414
 21
6.7085820317
 31
0.0
 11
8.9894201092
 21
6.7051365212
 31
0.0
 11
8.9902352523
 21
6.7012794151
 31
0.0
 11
8.9909981088
 21
6.6969429844
 31
0.0
 11
8.9916923417
 21
6.6920607139
 31
0.0
 11
8.9922969869
 21
6.686560678
 31
0.0
 11
8.9927852698
 21
6.6803758566
 31
0.0
  0
SPLINE
  5
588
100
AcDbEntity
  8
0
100
AcDbSpline
 62
7
  6
CONTINUOUS
 70
0
 71
3
 72
8
 73
4
 74
2
 42
0.0000001
 43
0.0000001
 44
0.0000000001
 12
-0.0015176731
 22
-0.0018300573
 32
0.0
 13
-0.0015378909
 23
-0.0018132244
 33
0.0
 40
0.0
 40
0.0
 40
0.0
 40
0.0
 40
1.0
 40
1.0
 40
1.0
 40
1.0
 10
9.0786359396
 20
6.9445970498
 30
0.0
 10
9.0781300486
 20
6.9439870307
 30
0.0
 10
9.0776208647
 20
6.9433797103
 30
0.0
 10
9.0771082344
 20
6.9427753022
 30
0.0
 11
9.0786359396
 21
6.9445970498
 31
0.0
 11
9.0771082344
 21
6.9427753022
 31
0.0
  0
SPLINE
  5
589
100
AcDbEntity
  8
0
100
AcDbSpline
 62
7
  6
CONTINUOUS
 70
0
 71
3
 72
100
 73
96
 74
94
 42
0.0000001
 43
0.0000001
 44
0.0000000001
 12
-0.1911262341
 22
-0.2253441613
 32
0.0
 13
-0.0296738728
 23
0.2939791434
 33
0.0
 40
0.0
 40
0.0
 40
0.0
 40
0.0
 40
0.0129353664
 40
0.0316521819
 40
0.0483388115
 40
0.0632433244
 40
0.0765952935
 40
0.0886291822
 40
0.0995398178
 40
0.1094087916
 40
0.1183345017
 40
0.1264487862
 40
0.1338857639
 40
0.1407369801
 40
0.1470773342
 40
0.1529873081
 40
0.1585248818
 40
0.1637452935
 40
0.1687096449
 40
0.1734603117
 40
0.178024913
 40
0.1824338287
 40
0.186726109
 40
0.1909367295
 40
0.1951022337
 40
0.1992524462
 40
0.2034148077
 40
0.2076008485
 40
0.2118205381
 40
0.2160929501
 40
0.220438266
 40
0.2248831
 40
0.2294470436
 40
0.2341479427
 40
0.2390082558
 40
0.2440635586
 40
0.2493419411
 40
0.2548690717
 40
0.2606775267
 40
0.2668024406
 40
0.273271902
 40
0.2801157607
 40
0.2873704546
 40
0.2950654011
 40
0.3032297079
 40
0.3118882229
 40
0.3210562525
 40
0.3307497323
 40
0.3409761583
 40
0.3517383159
 40
0.3630233272
 40
0.374806222
 40
0.3870596539
 40
0.3997481486
 40
0.4128311951
 40
0.4262539876
 40
0.4399631738
 40
0.4539069159
 40
0.4680338244
 40
0.482294294
 40
0.4966382903
 40
0.5110275608
 40
0.5254260652
 40
0.5398059162
 40
0.554142974
 40
0.5684184339
 40
0.5826228584
 40
0.596747208
 40
0.6107907772
 40
0.6247558616
 40
0.6386462771
 40
0.6524726174
 40
0.6662444576
 40
0.6799732527
 40
0.6936777578
 40
0.7073757578
 40
0.7210864425
 40
0.7348333103
 40
0.7486375237
 40
0.7625203823
 40
0.7765108334
 40
0.7906386807
 40
0.8049327721
 40
0.8194281824
 40
0.8341618488
 40
0.8491689145
 40
0.8644885909
 40
0.8801696617
 40
0.8962591915
 40
0.9128085935
 40
0.9298890719
 40
0.9475733345
 40
0.9659347864
 40
0.9850503156
 40
1.0
 40
1.0
 40
1.0
 40
1.0
 10
9.0771082344
 20
6.9427753022
 30
0.0
 10
9.0762841385
 20
6.9418036657
 30
0.0
 10
9.0742458232
 20
6.9394445376
 30
0.0
 10
9.0710456502
 20
6.935918646
 30
0.0
 10
9.0676004109
 20
6.9323564562
 30
0.0
 10
9.0644196744
 20
6.929276914
 30
0.0
 10
9.0614756704
 20
6.9266150087
 30
0.0
 10
9.0587399216
 20
6.9243126755
 30
0.0
 10
9.0561910115
 20
6.9223245598
 30
0.0
 10
9.0538153475
 20
6.9206156832
 30
0.0
 10
9.0516025711
 20
6.9191557362
 30
0.0
 10
9.0495360152
 20
6.9179129667
 30
0.0
 10
9.0475971204
 20
6.9168584016
 30
0.0
 10
9.0457699998
 20
6.9159682885
 30
0.0
 10
9.0440417587
 20
6.9152232341
 30
0.0
 10
9.0424010686
 20
6.9146069682
 30
0.0
 10
9.0408371619
 20
6.914105623
 30
0.0
 10
9.0393400293
 20
6.9137075209
 30
0.0
 10
9.037900219
 20
6.9134030443
 30
0.0
 10
9.0365102076
 20
6.9131846902
 30
0.0
 10
9.0351649446
 20
6.9130464862
 30
0.0
 10
9.0338592895
 20
6.9129832663
 30
0.0
 10
9.0325870019
 20
6.9129908247
 30
0.0
 10
9.0313409541
 20
6.9130662145
 30
0.0
 10
9.030114771
 20
6.9132077634
 30
0.0
 10
9.0289027797
 20
6.9134149036
 30
0.0
 10
9.027701764
 20
6.9136875682
 30
0.0
 10
9.0265104042
 20
6.9140256616
 30
0.0
 10
9.025328058
 20
6.9144289081
 30
0.0
 10
9.0241531408
 20
6.9148974093
 30
0.0
 10
9.0229824979
 20
6.9154322339
 30
0.0
 10
9.0218129906
 20
6.9160350275
 30
0.0
 10
9.020641775
 20
6.916707837
 30
0.0
 10
9.0194664221
 20
6.9174528919
 30
0.0
 10
9.0182832686
 20
6.9182736635
 30
0.0
 10
9.0170880789
 20
6.9191747779
 30
0.0
 10
9.0158766921
 20
6.9201616317
 30
0.0
 10
9.0146454584
 20
6.9212398886
 30
0.0
 10
9.0133904763
 20
6.9224160629
 30
0.0
 10
9.0121079698
 20
6.9236972163
 30
0.0
 10
9.0107945916
 20
6.9250905092
 30
0.0
 10
9.0094470679
 20
6.9266033963
 30
0.0
 10
9.0080621816
 20
6.9282436077
 30
0.0
 10
9.0066368521
 20
6.9300189452
 30
0.0
 10
9.0051687105
 20
6.931936376
 30
0.0
 10
9.0036561151
 20
6.9340017409
 30
0.0
 10
9.0020979535
 20
6.936219738
 30
0.0
 10
9.0004937814
 20
6.9385935359
 30
0.0
 10
8.9988434783
 20
6.9411251315
 30
0.0
 10
8.9971480687
 20
6.9438139834
 30
0.0
 10
8.9954098147
 20
6.9466566558
 30
0.0
 10
8.9936320262
 20
6.9496469801
 30
0.0
 10
8.991818691
 20
6.9527767032
 30
0.0
 10
8.9899741879
 20
6.9560361246
 30
0.0
 10
8.9881039392
 20
6.9594131114
 30
0.0
 10
8.9862139971
 20
6.9628939403
 30
0.0
 10
8.9843108077
 20
6.9664638947
 30
0.0
 10
8.982400617
 20
6.9701085835
 30
0.0
 10
8.9804895385
 20
6.9738140025
 30
0.0
 10
8.9785836917
 20
6.9775663808
 30
0.0
 10
8.9766887223
 20
6.9813531793
 30
0.0
 10
8.9748098103
 20
6.985163134
 30
0.0
 10
8.9729513106
 20
6.9889870139
 30
0.0
 10
8.9711171072
 20
6.9928169067
 30
0.0
 10
8.9693104724
 20
6.9966464866
 30
0.0
 10
8.96753401
 20
7.000471115
 30
0.0
 10
8.9657897951
 20
7.0042875369
 30
0.0
 10
8.9640792505
 20
7.0080941452
 30
0.0
 10
8.9624034105
 20
7.0118904084
 30
0.0
 10
8.9607628827
 20
7.0156769708
 30
0.0
 10
8.9591579195
 20
7.019455513
 30
0.0
 10
8.9575885879
 20
7.0232283907
 30
0.0
 10
8.9560547693
 20
7.026998669
 30
0.0
 10
8.9545561543
 20
7.0307701729
 30
0.0
 10
8.953092272
 20
7.0345474991
 30
0.0
 10
8.9516625415
 20
7.0383359819
 30
0.0
 10
8.9502664045
 20
7.0421414226
 30
0.0
 10
8.9489034035
 20
7.0459699685
 30
0.0
 10
8.9475732488
 20
7.0498279971
 30
0.0
 10
8.9462757335
 20
7.0537224266
 30
0.0
 10
8.9450106849
 20
7.0576610224
 30
0.0
 10
8.9437780649
 20
7.0616523046
 30
0.0
 10
8.9425780655
 20
7.0657054187
 30
0.0
 10
8.9414111445
 20
7.0698302334
 30
0.0
 10
8.9402781241
 20
7.0740372657
 30
0.0
 10
8.9391803085
 20
7.0783374706
 30
0.0
 10
8.9381193671
 20
7.0827429711
 30
0.0
 10
8.9370974615
 20
7.0872670689
 30
0.0
 10
8.9361173693
 20
7.091924267
 30
0.0
 10
8.9351824198
 20
7.096731245
 30
0.0
 10
8.934296688
 20
7.1017071742
 30
0.0
 10
8.9334653408
 20
7.1068733519
 30
0.0
 10
8.9326951063
 20
7.1122515884
 30
0.0
 10
8.9320554134
 20
7.1173755837
 30
0.0
 10
8.9316944545
 20
7.1207113605
 30
0.0
 10
8.9315465828
 20
7.1221763256
 30
0.0
 11
9.0771082344
 21
6.9427753022
 31
0.0
 11
9.0746085876
 21
6.9398838597
 31
0.0
 11
9.070888685
 21
6.9357916732
 31
0.0
 11
9.0674581865
 21
6.9322504244
 31
0.0
 11
9.0642917374
 21
6.9291898161
 31
0.0
 11
9.0613631885
 21
6.9265464425
 31
0.0
 11
9.0586407023
 21
6.9242593693
 31
0.0
 11
9.0560969452
 21
6.9222789815
 31
0.0
 11
9.0537282115
 21
6.9205783785
 31
0.0
 11
9.0515255759
 21
6.919127992
 31
0.0
 11
9.0494698569
 21
6.9178942406
 31
0.0
 11
9.0475385882
 21
6.9168460173
 31
0.0
 11
9.0457179763
 21
6.9159609928
 31
0.0
 11
9.0439970446
 21
6.9152207537
 31
0.0
 11
9.0423618659
 21
6.9146080003
 31
0.0
 11
9.0408034238
 21
6.9141096444
 31
0.0
 11
9.0393124915
 21
6.9137142414
 31
0.0
 11
9.0378772347
 21
6.9134116126
 31
0.0
 11
9.0364904504
 21
6.9131944949
 31
0.0
 11
9.0351487523
 21
6.9130572349
 31
0.0
 11
9.0338475552
 21
6.9129946647
 31
0.0
 11
9.032579341
 21
6.9130024985
 31
0.0
 11
9.0313375119
 21
6.9130778052
 31
0.0
 11
9.0301148573
 21
6.9132189955
 31
0.0
 11
9.02890611
 21
6.9134255083
 31
0.0
 11
9.0277067362
 21
6.9136976051
 31
0.0
 11
9.0265167913
 21
6.9140349826
 31
0.0
 11
9.0253366143
 21
6.9144370618
 31
0.0
 11
9.0241638475
 21
6.9149041708
 31
0.0
 11
9.0229958017
 21
6.9154371724
 31
0.0
 11
9.0218281299
 21
6.9160382834
 31
0.0
 11
9.020658466
 21
6.9167093695
 31
0.0
 11
9.0194849186
 21
6.9174523579
 31
0.0
 11
9.0183044945
 21
6.918270227
 31
0.0
 11
9.01711128
 21
6.9191687501
 31
0.0
 11
9.0159015377
 21
6.9201530675
 31
0.0
 11
9.0146723244
 21
6.9212282639
 31
0.0
 11
9.0134193988
 21
6.9224011215
 31
0.0
 11
9.0121383082
 21
6.9236793682
 31
0.0
 11
9.010826337
 21
6.9250695752
 31
0.0
 11
9.0094805276
 21
6.9265788454
 31
0.0
 11
9.0080967782
 21
6.9282159183
 31
0.0
 11
9.0066724584
 21
6.929988113
 31
0.0
 11
9.0052049744
 21
6.9319027157
 31
0.0
 11
9.0036924039
 21
6.9339660074
 31
0.0
 11
9.0021342555
 21
6.9361818983
 31
0.0
 11
9.0005295967
 21
6.9385543027
 31
0.0
 11
8.9988785462
 21
6.9410849325
 31
0.0
 11
8.9971815794
 21
6.9437741716
 31
0.0
 11
8.9954411941
 21
6.9466183119
 31
0.0
 11
8.9936612287
 21
6.9496103809
 31
0.0
 11
8.9918454016
 21
6.9527426186
 31
0.0
 11
8.9899982641
 21
6.9560050666
 31
0.0
 11
8.9881248096
 21
6.9593863919
 31
0.0
 11
8.986231854
 21
6.9628715161
 31
0.0
 11
8.9843258437
 21
6.9664457115
 31
0.0
 11
8.9824129703
 21
6.9700946729
 31
0.0
 11
8.9804994018
 21
6.973804273
 31
0.0
 11
8.9785911507
 21
6.977560928
 31
0.0
 11
8.9766943937
 21
6.9813510176
 31
0.0
 11
8.9748138738
 21
6.9851641108
 31
0.0
 11
8.9729541915
 21
6.9889904437
 31
0.0
 11
8.9711190274
 21
6.9928224862
 31
0.0
 11
8.9693117095
 21
6.9966537646
 31
0.0
 11
8.9675349966
 21
7.0004792731
 31
0.0
 11
8.9657905807
 21
7.0042965519
 31
0.0
 11
8.964080199
 21
7.0081032777
 31
0.0
 11
8.9624046595
 21
7.0118993921
 31
0.0
 11
8.9607645042
 21
7.0156856693
 31
0.0
 11
8.9591601823
 21
7.0194633104
 31
0.0
 11
8.9575914541
 21
7.0232353745
 31
0.0
 11
8.9560583071
 21
7.0270046616
 31
0.0
 11
8.9545606239
 21
7.0307744976
 31
0.0
 11
8.9530976264
 21
7.0345502337
 31
0.0
 11
8.9516688156
 21
7.0383369845
 31
0.0
 11
8.9502737278
 21
7.0421402811
 31
0.0
 11
8.9489116768
 21
7.0459668836
 31
0.0
 11
8.9475824549
 21
7.0498229399
 31
0.0
 11
8.9462860868
 21
7.0537146655
 31
0.0
 11
8.9450221785
 21
7.0576504564
 31
0.0
 11
8.9437906355
 21
7.0616390018
 31
0.0
 11
8.9425918506
 21
7.0656887684
 31
0.0
 11
8.941426148
 21
7.0698100334
 31
0.0
 11
8.9402942491
 21
7.0740136588
 31
0.0
 11
8.9391976023
 21
7.0783100398
 31
0.0
 11
8.9381379895
 21
7.0827107683
 31
0.0
 11
8.9371172975
 21
7.0872302228
 31
0.0
 11
8.9361384264
 21
7.0918823206
 31
0.0
 11
8.9352049771
 21
7.0966822434
 31
0.0
 11
8.9343206413
 21
7.1016509211
 31
0.0
 11
8.9334905587
 21
7.1068097273
 31
0.0
 11
8.9327214836
 21
7.1121801901
 31
0.0
 11
8.9320218053
 21
7.1177847425
 31
0.0
 11
8.9315465828
 21
7.1221763256
 31
0.0
  0
SPLINE
  5
58A
100
AcDbEntity
  8
0
100
AcDbSpline
 62
7
  6
CONTINUOUS
 70
0
 71
3
 72
23
 73
19
 74
17
 42
0.0000001
 43
0.0000001
 44
0.0000000001
 12
0.0459023905
 22
0.0514253626
 32
0.0
 13
0.0557107728
 23
0.0405933363
 33
0.0
 40
0.0
 40
0.0
 40
0.0
 40
0.0
 40
0.0539959827
 40
0.12612304
 40
0.1961158259
 40
0.264207374
 40
0.3306180006
 40
0.3955701005
 40
0.4592478554
 40
0.5218177992
 40
0.5834491366
 40
0.6442834515
 40
0.7044611978
 40
0.764121823
 40
0.8233821754
 40
0.8823648005
 40
0.9411980021
 40
1.0
 40
1.0
 40
1.0
 40
1.0
 10
8.7693673794
 20
6.6231215396
 30
0.0
 10
8.770193561
 20
6.6240471272
 30
0.0
 10
8.7721364623
 20
6.6261974293
 30
0.0
 10
8.7752046849
 20
6.629497918
 30
0.0
 10
8.7785495082
 20
6.6329826559
 30
0.0
 10
8.7818554743
 20
6.6363218197
 30
0.0
 10
8.7851285289
 20
6.6395298379
 30
0.0
 10
8.7883745961
 20
6.6426198046
 30
0.0
 10
8.791599389
 20
6.6456034706
 30
0.0
 10
8.7948083059
 20
6.6484913246
 30
0.0
 10
8.7980065252
 20
6.6512928125
 30
0.0
 10
8.8011992181
 20
6.6540166356
 30
0.0
 10
8.8043914245
 20
6.6566707347
 30
0.0
 10
8.8075880947
 20
6.6592623952
 30
0.0
 10
8.8107941629
 20
6.66179838
 30
0.0
 10
8.8140146355
 20
6.6642850531
 30
0.0
 10
8.8172547885
 20
6.6667285595
 30
0.0
 10
8.8194307642
 20
6.6683320562
 30
0.0
 10
8.8205227325
 20
6.6691277126
 30
0.0
 11
8.7693673794
 21
6.6231215396
 31
0.0
 11
8.7718627079
 21
6.6258832235
 31
0.0
 11
8.7752478403
 21
6.6295246125
 31
0.0
 11
8.7785887993
 21
6.633005358
 31
0.0
 11
8.7818910447
 21
6.6363408268
 31
0.0
 11
8.7851602859
 21
6.6395451959
 31
0.0
 11
8.7884031205
 21
6.6426321966
 31
0.0
 11
8.7916249341
 21
6.6456132375
 31
0.0
 11
8.7948307878
 21
6.6484984844
 31
0.0
 11
8.7980263843
 21
6.6512978413
 31
0.0
 11
8.801216444
 21
6.6540196
 31
0.0
 11
8.8044060066
 21
6.6566716974
 31
0.0
 11
8.807600409
 21
6.65926173
 31
0.0
 11
8.8108040848
 21
6.6617960465
 31
0.0
 11
8.8140220371
 21
6.6642810106
 31
0.0
 11
8.8172598363
 21
6.6667229917
 31
0.0
 11
8.8205227325
 21
6.6691277126
 31
0.0
  0
ENDSEC
  0
SECTION
  2
OBJECTS
  0
DICTIONARY
  5
C
100
AcDbDictionary
280
0
281
1
  3
ACAD_GROUP
350
D
  3
ACAD_MLINESTYLE
350
17
  3
ACAD_LAYOUT
350
1A
  3
ACAD_PLOTSETTINGS
350
19
  3
ACAD_PLOTSTYLENAME
350
E
  0
DICTIONARY
  5
D
102
{ACAD_REACTORS
330
C
102
}
100
AcDbDictionary
280
0
281
1
  0
ACDBDICTIONARYWDFLT
  5
E
102
{ACAD_REACTORS
330
C
102
}
100
AcDbDictionary
281
1
  3
Normal
350
F
100
AcDbDictionaryWithDefault
340
F
  0
DICTIONARY
  5
17
102
{ACAD_REACTORS
330
C
102
}
100
AcDbDictionary
280
0
281
1
  3
Standard
350
18
  0
DICTIONARY
  5
19
102
{ACAD_REACTORS
330
C
102
}
100
AcDbDictionary
281
1
  0
DICTIONARY
  5
1A
102
{ACAD_REACTORS
330
C
102
}
100
AcDbDictionary
281
1
  3
Layout1
350
1E
  3
Model
350
22
  0
ACDBPLACEHOLDER
  5
F
102
{ACAD_REACTORS
330
E
102
}
  0
MLINESTYLE
  5
18
102
{ACAD_REACTORS
330
17
102
}
100
AcDbMlineStyle
  2
STANDARD
 70
0
  3

 62
256
 51
90.0
 52
90.0
 71
2
 49
0.5
 62
256
  6
BYLAYER
 49
-0.5
 62
256
  6
BYLAYER
  0
LAYOUT
  5
1E
102
{ACAD_REACTORS
330
1A
102
}
100
AcDbPlotSettings
  1

  2

  4

  6

 40
0.0
 41
0.0
 42
0.0
 43
0.0
 44
0.0
 45
0.0
 46
0.0
 47
0.0
 48
0.0
 49
0.0
140
0.0
141
0.0
142
1.0
143
1.0
 70
0
 72
0
 73
0
 74
0
  7

 75
0
147
1.0
148
0.0
149
0.0
100
AcDbLayout
  1
Layout1
 70
0
 71
0
 10
0.0
 20
0.0
 11
0.0
 21
0.0
 12
0.0
 22
0.0
 32
0.0
 14
0.0
 24
0.0
 34
0.0
 15
0.0
 25
0.0
 35
0.0
146
0.0
 13
0.0
 23
0.0
 33
0.0
 16
0.0
 26
0.0
 36
0.0
 17
0.0
 27
0.0
 37
0.0
 76
0
330
1B
331
0
345
0
346
0
  0
LAYOUT
  5
22
102
{ACAD_REACTORS
330
1A
102
}
100
AcDbPlotSettings
  1

  2

  4

  6

 40
0.0
 41
0.0
 42
0.0
 43
0.0
 44
0.0
 45
0.0
 46
0.0
 47
0.0
 48
0.0
 49
0.0
140
0.0
141
0.0
142
1.0
143
1.0
 70
0
 72
0
 73
0
 74
0
  7

 75
0
147
1.0
148
0.0
149
0.0
100
AcDbLayout
  1
Model
 70
0
 71
0
 10
0.0
 20
0.0
 11
0.0
 21
0.0
 12
0.0
 22
0.0
 32
0.0
 14
0.0
 24
0.0
 34
0.0
 15
0.0
 25
0.0
 35
0.0
146
0.0
 13
0.0
 23
0.0
 33
0.0
 16
0.0
 26
0.0
 36
0.0
 17
0.0
 27
0.0
 37
0.0
 76
0
330
1F
331
0
345
0
346
0
  0
ENDSEC
  0
EOF
