999
DXF file: EB8_6.dxf
999
Pro/ENGINEER 2006240 by Parametric Technology Corporation
  0
SECTION
  2
HEADER
  9
$ACADVER
  1
AC1015
  9
$DWGCODEPAGE
  3
ANSI_1252
  9
$EXTMAX
 10
22.0
 20
17.0
 30
0.0
  9
$EXTMIN
 10
0.0
 20
0.0
 30
0.0
  9
$LIMMIN
 10
0.0
 20
0.0
  9
$LIMMAX
 10
22.0
 20
17.0
  9
$VIEWCTR
 10
11.0
 20
8.5
  9
$VIEWSIZE
 40
17.0
  9
$CLAYER
  8
0
  9
$LTSCALE
 40
1.21
  9
$CELTYPE
  6
BYLAYER
  9
$DIMSCALE
 40
1.0
  9
$DIMASZ
 40
0.1875
  9
$DIMEXO
 40
0.1375
  9
$DIMDLI
 40
0.836
  9
$DIMEXE
 40
0.396
  9
$DIMCEN
 40
0.198
  9
$DIMLFAC
 40
1.0
  9
$DIMBLK
  1
_CLOSED
  9
$DIMTXT
 40
0.15625
  9
$DIMTOL
 70
0
  9
$DIMLIM
 70
0
  9
$DIMTFAC
 40
1.0
  9
$PDMODE
 70
3
  9
$PDSIZE
 40
0.3125
  9
$HANDSEED
  5
4AE
  9
$MEASUREMENT
 70
0
  9
$INSUNITS
 70
1
  0
ENDSEC
  0
SECTION
  2
CLASSES
  0
CLASS
  1
ACDBDICTIONARYWDFLT
  2
AcDbDictionaryWithDefault
  3
AutoCAD 2000
 90
0
280
0
281
0
  0
CLASS
  1
ACDBPLACEHOLDER
  2
AcDbPlaceHolder
  3
AutoCAD 2000
 90
0
280
0
281
0
  0
CLASS
  1
LAYOUT
  2
AcDbLayout
  3
AutoCAD 2000
 90
0
280
0
281
0
  0
ENDSEC
  0
SECTION
  2
TABLES
  0
TABLE
  2
VPORT
  5
8
100
AcDbSymbolTable
 70
2
  0
VPORT
  5
1F4
100
AcDbSymbolTableRecord
100
AcDbViewportTableRecord
  2
*ACTIVE
 70
0
 10
0.0
 20
0.0
 11
1.0
 21
1.0
 12
11.0
 22
8.5
 13
0.0
 23
0.0
 14
1.0
 24
1.0
 15
0.0
 25
0.0
 16
0.0
 26
0.0
 36
1.0
 17
0.0
 27
0.0
 37
0.0
 40
17.0
 41
1.2941176471
 42
50.0
 43
0.0
 44
0.0
 50
0.0
 51
0.0
 71
0
 72
100
 73
1
 74
1
 75
0
 76
0
 77
0
 78
0
  0
ENDTAB
  0
TABLE
  2
LTYPE
  5
5
100
AcDbSymbolTable
 70
6
  0
LTYPE
  5
14
100
AcDbSymbolTableRecord
100
AcDbLinetypeTableRecord
  2
BYBLOCK
 70
0
  3

 72
65
 73
0
 40
0.0
  0
LTYPE
  5
15
100
AcDbSymbolTableRecord
100
AcDbLinetypeTableRecord
  2
BYLAYER
 70
0
  3

 72
65
 73
0
 40
0.0
  0
LTYPE
  5
16
100
AcDbSymbolTableRecord
100
AcDbLinetypeTableRecord
  2
CONTINUOUS
 70
64
  3
Solid line
 72
65
 73
0
 40
0.0
  0
LTYPE
  5
1F5
100
AcDbSymbolTableRecord
100
AcDbLinetypeTableRecord
  2
CENTER
 70
64
  3
____ _ ____ _ ____ _ ____ _ ____ _ ____ _ ____
 72
65
 73
4
 40
0.6
 49
0.375
 74
0
 49
-0.075
 74
0
 49
0.075
 74
0
 49
-0.075
 74
0
  0
LTYPE
  5
1F6
100
AcDbSymbolTableRecord
100
AcDbLinetypeTableRecord
  2
HIDDEN
 70
64
  3
- - - - - - - - - - - - - - - - - - - -
 72
65
 73
2
 40
0.2
 49
0.1
 74
0
 49
-0.1
 74
0
  0
LTYPE
  5
1F7
100
AcDbSymbolTableRecord
100
AcDbLinetypeTableRecord
  2
PHANTOM
 70
64
  3
_____ _ _ _____ _ _ _____ _ _ _____
 72
65
 73
6
 40
0.8
 49
0.45
 74
0
 49
-0.05
 74
0
 49
0.1
 74
0
 49
-0.05
 74
0
 49
0.1
 74
0
 49
-0.05
 74
0
  0
LTYPE
  5
1F8
100
AcDbSymbolTableRecord
100
AcDbLinetypeTableRecord
  2
DOT
 70
64
  3
. . . . . . . . . . . . . . . . . . . .
 72
65
 73
2
 40
0.2
 49
0.1
 74
0
 49
-0.1
 74
0
  0
LTYPE
  5
1F9
100
AcDbSymbolTableRecord
100
AcDbLinetypeTableRecord
  2
DASHED
 70
64
  3
- - - - - - - - - - - - - - - - - - - -
 72
65
 73
2
 40
0.2
 49
0.1
 74
0
 49
-0.1
 74
0
  0
ENDTAB
  0
TABLE
  2
LAYER
  5
2
100
AcDbSymbolTable
 70
36
  0
LAYER
  5
10
100
AcDbSymbolTableRecord
100
AcDbLayerTableRecord
  2
0
 70
0
 62
7
  6
CONTINUOUS
370
-3
390
F
  0
LAYER
  5
1FA
100
AcDbSymbolTableRecord
100
AcDbLayerTableRecord
  2
DEFAULT_1
 70
0
 62
7
  6
CENTER
370
-3
390
F
  0
LAYER
  5
1FB
100
AcDbSymbolTableRecord
100
AcDbLayerTableRecord
  2
DEFAULT_2
 70
0
 62
8
  6
HIDDEN
370
-3
390
F
  0
LAYER
  5
1FC
100
AcDbSymbolTableRecord
100
AcDbLayerTableRecord
  2
DEFAULT_3
 70
0
 62
7
  6
PHANTOM
370
-3
390
F
  0
LAYER
  5
1FD
100
AcDbSymbolTableRecord
100
AcDbLayerTableRecord
  2
01_ALL_DTM_PLN
 70
0
 62
7
  6
CONTINUOUS
370
-3
390
F
  0
LAYER
  5
1FE
100
AcDbSymbolTableRecord
100
AcDbLayerTableRecord
  2
01__ASM_ALL_DTM_PLN
 70
0
 62
7
  6
CONTINUOUS
370
-3
390
F
  0
LAYER
  5
1FF
100
AcDbSymbolTableRecord
100
AcDbLayerTableRecord
  2
01__ASM_DEF_DTM_PLN
 70
0
 62
7
  6
CONTINUOUS
370
-3
390
F
  0
LAYER
  5
200
100
AcDbSymbolTableRecord
100
AcDbLayerTableRecord
  2
01___PRT_ALL_DTM_PLN
 70
0
 62
7
  6
CONTINUOUS
370
-3
390
F
  0
LAYER
  5
201
100
AcDbSymbolTableRecord
100
AcDbLayerTableRecord
  2
01___PRT_DEF_DTM_PLN
 70
0
 62
7
  6
CONTINUOUS
370
-3
390
F
  0
LAYER
  5
202
100
AcDbSymbolTableRecord
100
AcDbLayerTableRecord
  2
02_ALL_AXES
 70
0
 62
7
  6
CONTINUOUS
370
-3
390
F
  0
LAYER
  5
203
100
AcDbSymbolTableRecord
100
AcDbLayerTableRecord
  2
02__ASM_ALL_AXES
 70
0
 62
7
  6
CONTINUOUS
370
-3
390
F
  0
LAYER
  5
204
100
AcDbSymbolTableRecord
100
AcDbLayerTableRecord
  2
02___PRT_ALL_AXES
 70
0
 62
7
  6
CONTINUOUS
370
-3
390
F
  0
LAYER
  5
205
100
AcDbSymbolTableRecord
100
AcDbLayerTableRecord
  2
03_ALL_CURVES
 70
0
 62
7
  6
CONTINUOUS
370
-3
390
F
  0
LAYER
  5
206
100
AcDbSymbolTableRecord
100
AcDbLayerTableRecord
  2
03__ASM_ALL_CURVES
 70
0
 62
7
  6
CONTINUOUS
370
-3
390
F
  0
LAYER
  5
207
100
AcDbSymbolTableRecord
100
AcDbLayerTableRecord
  2
03___PRT_ALL_CURVES
 70
0
 62
7
  6
CONTINUOUS
370
-3
390
F
  0
LAYER
  5
208
100
AcDbSymbolTableRecord
100
AcDbLayerTableRecord
  2
04_ALL_DTM_PNT
 70
0
 62
7
  6
CONTINUOUS
370
-3
390
F
  0
LAYER
  5
209
100
AcDbSymbolTableRecord
100
AcDbLayerTableRecord
  2
04__ASM_ALL_DTM_PNT
 70
0
 62
7
  6
CONTINUOUS
370
-3
390
F
  0
LAYER
  5
20A
100
AcDbSymbolTableRecord
100
AcDbLayerTableRecord
  2
04___PRT_ALL_DTM_PNT
 70
0
 62
7
  6
CONTINUOUS
370
-3
390
F
  0
LAYER
  5
20B
100
AcDbSymbolTableRecord
100
AcDbLayerTableRecord
  2
05_ALL_DTM_CSYS
 70
0
 62
7
  6
CONTINUOUS
370
-3
390
F
  0
LAYER
  5
20C
100
AcDbSymbolTableRecord
100
AcDbLayerTableRecord
  2
05__ASM_ALL_DTM_CSYS
 70
0
 62
7
  6
CONTINUOUS
370
-3
390
F
  0
LAYER
  5
20D
100
AcDbSymbolTableRecord
100
AcDbLayerTableRecord
  2
05__ASM_DEF_DTM_CSYS
 70
0
 62
7
  6
CONTINUOUS
370
-3
390
F
  0
LAYER
  5
20E
100
AcDbSymbolTableRecord
100
AcDbLayerTableRecord
  2
05___PRT_ALL_DTM_CSYS
 70
0
 62
7
  6
CONTINUOUS
370
-3
390
F
  0
LAYER
  5
20F
100
AcDbSymbolTableRecord
100
AcDbLayerTableRecord
  2
05___PRT_DEF_DTM_CSYS
 70
0
 62
7
  6
CONTINUOUS
370
-3
390
F
  0
LAYER
  5
210
100
AcDbSymbolTableRecord
100
AcDbLayerTableRecord
  2
06_ALL_SURFS
 70
0
 62
7
  6
CONTINUOUS
370
-3
390
F
  0
LAYER
  5
211
100
AcDbSymbolTableRecord
100
AcDbLayerTableRecord
  2
06__ASM_ALL_SURFS
 70
0
 62
7
  6
CONTINUOUS
370
-3
390
F
  0
LAYER
  5
212
100
AcDbSymbolTableRecord
100
AcDbLayerTableRecord
  2
06___PRT_ALL_SURFS
 70
0
 62
7
  6
CONTINUOUS
370
-3
390
F
  0
LAYER
  5
213
100
AcDbSymbolTableRecord
100
AcDbLayerTableRecord
  2
07__ASM_ALL_SKELETONS
 70
0
 62
7
  6
CONTINUOUS
370
-3
390
F
  0
LAYER
  5
214
100
AcDbSymbolTableRecord
100
AcDbLayerTableRecord
  2
COPY_GEO_FET
 70
0
 62
7
  6
CONTINUOUS
370
-3
390
F
  0
LAYER
  5
215
100
AcDbSymbolTableRecord
100
AcDbLayerTableRecord
  2
COSMETIC
 70
0
 62
7
  6
CONTINUOUS
370
-3
390
F
  0
LAYER
  5
216
100
AcDbSymbolTableRecord
100
AcDbLayerTableRecord
  2
CUT_REF_SURF
 70
0
 62
7
  6
CONTINUOUS
370
-3
390
F
  0
LAYER
  5
217
100
AcDbSymbolTableRecord
100
AcDbLayerTableRecord
  2
DATESTAMP
 70
0
 62
7
  6
CONTINUOUS
370
-3
390
F
  0
LAYER
  5
218
100
AcDbSymbolTableRecord
100
AcDbLayerTableRecord
  2
DATUM
 70
0
 62
7
  6
CONTINUOUS
370
-3
390
F
  0
LAYER
  5
219
100
AcDbSymbolTableRecord
100
AcDbLayerTableRecord
  2
DATUM_B
 70
0
 62
7
  6
CONTINUOUS
370
-3
390
F
  0
LAYER
  5
21A
100
AcDbSymbolTableRecord
100
AcDbLayerTableRecord
  2
DATUM_PLANES
 70
0
 62
7
  6
CONTINUOUS
370
-3
390
F
  0
LAYER
  5
21B
100
AcDbSymbolTableRecord
100
AcDbLayerTableRecord
  2
DIM
 70
0
 62
7
  6
CONTINUOUS
370
-3
390
F
  0
LAYER
  5
21C
100
AcDbSymbolTableRecord
100
AcDbLayerTableRecord
  2
DIMENSIONS
 70
0
 62
7
  6
CONTINUOUS
370
-3
390
F
  0
LAYER
  5
21D
100
AcDbSymbolTableRecord
100
AcDbLayerTableRecord
  2
DIM_1
 70
0
 62
7
  6
CONTINUOUS
370
-3
390
F
  0
LAYER
  5
21E
100
AcDbSymbolTableRecord
100
AcDbLayerTableRecord
  2
DIM_2
 70
0
 62
7
  6
CONTINUOUS
370
-3
390
F
  0
LAYER
  5
21F
100
AcDbSymbolTableRecord
100
AcDbLayerTableRecord
  2
DIM_3
 70
0
 62
7
  6
CONTINUOUS
370
-3
390
F
  0
LAYER
  5
220
100
AcDbSymbolTableRecord
100
AcDbLayerTableRecord
  2
DIM_4
 70
0
 62
7
  6
CONTINUOUS
370
-3
390
F
  0
LAYER
  5
221
100
AcDbSymbolTableRecord
100
AcDbLayerTableRecord
  2
DIM_5
 70
0
 62
7
  6
CONTINUOUS
370
-3
390
F
  0
LAYER
  5
222
100
AcDbSymbolTableRecord
100
AcDbLayerTableRecord
  2
DIM_6
 70
0
 62
7
  6
CONTINUOUS
370
-3
390
F
  0
LAYER
  5
223
100
AcDbSymbolTableRecord
100
AcDbLayerTableRecord
  2
DIM_7
 70
0
 62
7
  6
CONTINUOUS
370
-3
390
F
  0
LAYER
  5
224
100
AcDbSymbolTableRecord
100
AcDbLayerTableRecord
  2
DTM
 70
0
 62
7
  6
CONTINUOUS
370
-3
390
F
  0
LAYER
  5
225
100
AcDbSymbolTableRecord
100
AcDbLayerTableRecord
  2
EB8_10
 70
0
 62
7
  6
CONTINUOUS
370
-3
390
F
  0
LAYER
  5
226
100
AcDbSymbolTableRecord
100
AcDbLayerTableRecord
  2
EB8_2
 70
0
 62
7
  6
CONTINUOUS
370
-3
390
F
  0
LAYER
  5
227
100
AcDbSymbolTableRecord
100
AcDbLayerTableRecord
  2
EB8_5
 70
0
 62
7
  6
CONTINUOUS
370
-3
390
F
  0
LAYER
  5
228
100
AcDbSymbolTableRecord
100
AcDbLayerTableRecord
  2
EB8_6
 70
0
 62
7
  6
CONTINUOUS
370
-3
390
F
  0
LAYER
  5
229
100
AcDbSymbolTableRecord
100
AcDbLayerTableRecord
  2
EB8_7
 70
0
 62
7
  6
CONTINUOUS
370
-3
390
F
  0
LAYER
  5
22A
100
AcDbSymbolTableRecord
100
AcDbLayerTableRecord
  2
EB8_8
 70
0
 62
7
  6
CONTINUOUS
370
-3
390
F
  0
LAYER
  5
22B
100
AcDbSymbolTableRecord
100
AcDbLayerTableRecord
  2
EXT_COPY_GEO
 70
0
 62
7
  6
CONTINUOUS
370
-3
390
F
  0
LAYER
  5
22C
100
AcDbSymbolTableRecord
100
AcDbLayerTableRecord
  2
LS
 70
0
 62
7
  6
CONTINUOUS
370
-3
390
F
  0
LAYER
  5
22D
100
AcDbSymbolTableRecord
100
AcDbLayerTableRecord
  2
LS_1
 70
0
 62
7
  6
CONTINUOUS
370
-3
390
F
  0
LAYER
  5
22E
100
AcDbSymbolTableRecord
100
AcDbLayerTableRecord
  2
ORIGIN
 70
0
 62
7
  6
CONTINUOUS
370
-3
390
F
  0
LAYER
  5
22F
100
AcDbSymbolTableRecord
100
AcDbLayerTableRecord
  2
PARAMETERDIMENSIONS
 70
0
 62
7
  6
CONTINUOUS
370
-3
390
F
  0
LAYER
  5
230
100
AcDbSymbolTableRecord
100
AcDbLayerTableRecord
  2
PARTNUMBER
 70
0
 62
7
  6
CONTINUOUS
370
-3
390
F
  0
LAYER
  5
231
100
AcDbSymbolTableRecord
100
AcDbLayerTableRecord
  2
PORT_AREAS
 70
0
 62
7
  6
CONTINUOUS
370
-3
390
F
  0
LAYER
  5
232
100
AcDbSymbolTableRecord
100
AcDbLayerTableRecord
  2
TEXT
 70
0
 62
7
  6
CONTINUOUS
370
-3
390
F
  0
LAYER
  5
233
100
AcDbSymbolTableRecord
100
AcDbLayerTableRecord
  2
THREAD
 70
0
 62
7
  6
CONTINUOUS
370
-3
390
F
  0
LAYER
  5
234
100
AcDbSymbolTableRecord
100
AcDbLayerTableRecord
  2
THREADS
 70
0
 62
7
  6
CONTINUOUS
370
-3
390
F
  0
ENDTAB
  0
TABLE
  2
STYLE
  5
3
100
AcDbSymbolTable
 70
1
  0
STYLE
  5
11
100
AcDbSymbolTableRecord
100
AcDbTextStyleTableRecord
  2
STANDARD
 70
0
 40
0.0
 41
0.8
 50
0.0
 71
0
 42
0.2
  3
txt
  4

  0
ENDTAB
  0
TABLE
  2
VIEW
  5
6
100
AcDbSymbolTable
 70
0
  0
ENDTAB
  0
TABLE
  2
UCS
  5
7
100
AcDbSymbolTable
 70
0
  0
ENDTAB
  0
TABLE
  2
APPID
  5
9
100
AcDbSymbolTable
 70
1
  0
APPID
  5
235
100
AcDbSymbolTableRecord
100
AcDbRegAppTableRecord
  2
ACAD
 70
0
  0
ENDTAB
  0
TABLE
  2
BLOCK_RECORD
  5
1
100
AcDbSymbolTable
 70
0
  0
BLOCK_RECORD
  5
1F
100
AcDbSymbolTableRecord
100
AcDbBlockTableRecord
  2
*MODEL_SPACE
  0
BLOCK_RECORD
  5
1B
100
AcDbSymbolTableRecord
100
AcDbBlockTableRecord
  2
*PAPER_SPACE
  0
ENDTAB
  0
TABLE
  2
DIMSTYLE
  5
A
100
AcDbSymbolTable
 70
1
100
AcDbDimStyleTable
 71
0
  0
DIMSTYLE
105
236
100
AcDbSymbolTableRecord
100
AcDbDimStyleTableRecord
  2
STANDARD
 70
0
  3

  4

 40
1.0
 41
0.1875
 42
0.0625
 43
0.38
 44
0.18
 45
0.0
 46
0.0
 47
0.01
 48
0.01
140
0.15625
141
0.09
142
0.0
143
25.4
144
1.0
145
0.0
146
1.0
147
0.09
 71
0.0
 72
0.0
 73
1
 74
1
 75
0
 76
0
 77
0
 78
4
170
0
171
2
172
0
173
0
174
0
175
0
176
0
177
0
178
0
270
2
271
2
272
2
273
2
274
2
275
0
280
0
281
0
282
0
283
1
284
4
285
0
286
0
287
3
288
0
340
11
  0
ENDTAB
  0
ENDSEC
  0
SECTION
  2
BLOCKS
  0
BLOCK
  5
20
100
AcDbEntity
  8
0
100
AcDbBlockBegin
  2
*MODEL_SPACE
 70
0
 10
0.0
 20
0.0
 30
0.0
  3
*MODEL_SPACE
  1

  0
ENDBLK
  5
21
100
AcDbEntity
  8
0
100
AcDbBlockEnd
  0
BLOCK
  5
1C
100
AcDbEntity
  8
0
100
AcDbBlockBegin
  2
*PAPER_SPACE
 70
0
 10
0.0
 20
0.0
 30
0.0
  3
*PAPER_SPACE
  1

  0
ENDBLK
  5
1D
100
AcDbEntity
  8
0
100
AcDbBlockEnd
  0
ENDSEC
  0
SECTION
  2
ENTITIES
  0
LINE
  5
237
100
AcDbEntity
  8
03__ASM_ALL_CURVES
100
AcDbLine
 62
4
  6
CONTINUOUS
 10
5.8644773885
 20
6.6631653554
 11
5.8721887635
 21
6.6528835171
  0
LINE
  5
238
100
AcDbEntity
  8
03__ASM_ALL_CURVES
100
AcDbLine
 62
4
  6
CONTINUOUS
 10
5.984003701
 20
6.5654879367
 11
5.9955707635
 21
6.5500651862
  0
LINE
  5
239
100
AcDbEntity
  8
03__ASM_ALL_CURVES
100
AcDbLine
 62
4
  6
CONTINUOUS
 10
5.8490546385
 20
6.6734471862
 11
5.8644773885
 21
6.6631653554
  0
LINE
  5
23A
100
AcDbEntity
  8
03__ASM_ALL_CURVES
100
AcDbLine
 62
4
  6
CONTINUOUS
 10
6.1883551385
 20
6.5603470199
 11
6.1806437635
 21
6.5706288535
  0
LINE
  5
23B
100
AcDbEntity
  8
03__ASM_ALL_CURVES
100
AcDbLine
 62
4
  6
CONTINUOUS
 10
6.2346233885
 20
6.6117561862
 11
6.2500461385
 21
6.5911925208
  0
LINE
  5
23C
100
AcDbEntity
  8
03__ASM_ALL_CURVES
100
AcDbLine
 62
4
  6
CONTINUOUS
 10
6.2346233885
 20
6.6631653554
 11
6.2423347635
 21
6.6528835171
  0
LINE
  5
23D
100
AcDbEntity
  8
03__ASM_ALL_CURVES
100
AcDbLine
 62
4
  6
CONTINUOUS
 10
6.4505418885
 20
6.5706288535
 11
6.4659646385
 21
6.5500651862
  0
LINE
  5
23E
100
AcDbEntity
  8
03__ASM_ALL_CURVES
100
AcDbLine
 62
4
  6
CONTINUOUS
 10
6.5662125135
 20
6.5603470199
 11
6.5585011385
 21
6.5706288535
  0
LINE
  5
23F
100
AcDbEntity
  8
03__ASM_ALL_CURVES
100
AcDbLine
 62
4
  6
CONTINUOUS
 10
5.8721887635
 20
6.6528835171
 11
5.8721887635
 21
6.6323198554
  0
LINE
  5
240
100
AcDbEntity
  8
03__ASM_ALL_CURVES
100
AcDbLine
 62
4
  6
CONTINUOUS
 10
5.984003701
 20
6.5500651862
 11
5.984003701
 21
6.5654879367
  0
LINE
  5
241
100
AcDbEntity
  8
03__ASM_ALL_CURVES
100
AcDbLine
 62
4
  6
CONTINUOUS
 10
6.2037778885
 20
6.5500651862
 11
6.1883551385
 21
6.5603470199
  0
LINE
  5
242
100
AcDbEntity
  8
03__ASM_ALL_CURVES
100
AcDbLine
 62
4
  6
CONTINUOUS
 10
6.2192006385
 20
6.6220380171
 11
6.2346233885
 21
6.6117561862
  0
LINE
  5
243
100
AcDbEntity
  8
03__ASM_ALL_CURVES
100
AcDbLine
 62
4
  6
CONTINUOUS
 10
6.2192006385
 20
6.6734471862
 11
6.2346233885
 21
6.6631653554
  0
LINE
  5
244
100
AcDbEntity
  8
03__ASM_ALL_CURVES
100
AcDbLine
 62
4
  6
CONTINUOUS
 10
6.5816352635
 20
6.5500651862
 11
6.5662125135
 21
6.5603470199
  0
LINE
  5
245
100
AcDbEntity
  8
03__ASM_ALL_CURVES
100
AcDbLine
 62
4
  6
CONTINUOUS
 10
6.5970580135
 20
6.6631653554
 11
6.6047693885
 21
6.6528835171
  0
LINE
  5
246
100
AcDbEntity
  8
03__ASM_ALL_CURVES
100
AcDbLine
 62
4
  6
CONTINUOUS
 10
6.847677701
 20
6.5654879367
 11
6.8592447635
 21
6.5500651862
  0
LINE
  5
247
100
AcDbEntity
  8
03__ASM_ALL_CURVES
100
AcDbLine
 62
4
  6
CONTINUOUS
 10
6.5585011385
 20
6.5706288535
 11
6.5507897635
 21
6.5911925208
  0
LINE
  5
248
100
AcDbEntity
  8
03__ASM_ALL_CURVES
100
AcDbLine
 62
4
  6
CONTINUOUS
 10
6.6047693885
 20
6.6117561862
 11
6.6124807635
 21
6.5911925208
  0
LINE
  5
249
100
AcDbEntity
  8
03__ASM_ALL_CURVES
100
AcDbLine
 62
4
  6
CONTINUOUS
 10
6.4428305135
 20
6.6014743517
 11
6.4505418885
 21
6.5706288535
  0
LINE
  5
24A
100
AcDbEntity
  8
03__ASM_ALL_CURVES
100
AcDbLine
 62
4
  6
CONTINUOUS
 10
6.1112413885
 20
6.5500651862
 11
6.1112413885
 21
6.6734471862
  0
LINE
  5
24B
100
AcDbEntity
  8
03__ASM_ALL_CURVES
100
AcDbLine
 62
4
  6
CONTINUOUS
 10
6.2423347635
 20
6.6528835171
 11
6.2423347635
 21
6.6426016862
  0
LINE
  5
24C
100
AcDbEntity
  8
03__ASM_ALL_CURVES
100
AcDbLine
 62
4
  6
CONTINUOUS
 10
6.2500461385
 20
6.5911925208
 11
6.2500461385
 21
6.5809106862
  0
LINE
  5
24D
100
AcDbEntity
  8
03__ASM_ALL_CURVES
100
AcDbLine
 62
4
  6
CONTINUOUS
 10
6.4428305135
 20
6.6220380171
 11
6.4428305135
 21
6.6014743517
  0
LINE
  5
24E
100
AcDbEntity
  8
03__ASM_ALL_CURVES
100
AcDbLine
 62
4
  6
CONTINUOUS
 10
6.5816352635
 20
6.6220380171
 11
6.6047693885
 21
6.6117561862
  0
LINE
  5
24F
100
AcDbEntity
  8
03__ASM_ALL_CURVES
100
AcDbLine
 62
4
  6
CONTINUOUS
 10
6.5816352635
 20
6.6734471862
 11
6.5970580135
 21
6.6631653554
  0
LINE
  5
250
100
AcDbEntity
  8
03__ASM_ALL_CURVES
100
AcDbLine
 62
4
  6
CONTINUOUS
 10
7.0828746385
 20
6.6734471862
 11
7.0982973885
 21
6.6631653554
  0
LINE
  5
251
100
AcDbEntity
  8
03__ASM_ALL_CURVES
100
AcDbLine
 62
4
  6
CONTINUOUS
 10
7.0982973885
 20
6.6631653554
 11
7.1060087635
 21
6.6528835171
  0
LINE
  5
252
100
AcDbEntity
  8
03__ASM_ALL_CURVES
100
AcDbLine
 62
4
  6
CONTINUOUS
 10
7.1908338885
 20
6.6734471862
 11
7.2062566385
 21
6.6528835171
  0
LINE
  5
253
100
AcDbEntity
  8
03__ASM_ALL_CURVES
100
AcDbLine
 62
4
  6
CONTINUOUS
 10
6.5507897635
 20
6.5911925208
 11
6.5507897635
 21
6.6323198554
  0
LINE
  5
254
100
AcDbEntity
  8
03__ASM_ALL_CURVES
100
AcDbLine
 62
4
  6
CONTINUOUS
 10
6.7050172635
 20
6.6734471862
 11
6.7050172635
 21
6.5500651862
  0
LINE
  5
255
100
AcDbEntity
  8
03__ASM_ALL_CURVES
100
AcDbLine
 62
4
  6
CONTINUOUS
 10
5.8182091385
 20
6.5809106862
 11
5.8104977635
 21
6.5500651862
  0
LINE
  5
256
100
AcDbEntity
  8
03__ASM_ALL_CURVES
100
AcDbLine
 62
4
  6
CONTINUOUS
 10
7.2062566385
 20
6.6528835171
 11
7.2139680135
 21
6.6220380171
  0
LINE
  5
257
100
AcDbEntity
  8
03__ASM_ALL_CURVES
100
AcDbLine
 62
4
  6
CONTINUOUS
 10
6.847677701
 20
6.5500651862
 11
6.847677701
 21
6.5654879367
  0
LINE
  5
258
100
AcDbEntity
  8
03__ASM_ALL_CURVES
100
AcDbLine
 62
4
  6
CONTINUOUS
 10
7.1060087635
 20
6.6528835171
 11
7.1060087635
 21
6.6323198554
  0
LINE
  5
259
100
AcDbEntity
  8
03__ASM_ALL_CURVES
100
AcDbLine
 62
4
  6
CONTINUOUS
 10
7.2139680135
 20
6.6220380171
 11
7.2139680135
 21
6.6014743517
  0
LINE
  5
25A
100
AcDbEntity
  8
03__ASM_ALL_CURVES
100
AcDbLine
 62
4
  6
CONTINUOUS
 10
6.9517812635
 20
6.5500651862
 11
6.9594926385
 21
6.6014743517
  0
LINE
  5
25B
100
AcDbEntity
  8
03__ASM_ALL_CURVES
100
AcDbLine
 62
4
  6
CONTINUOUS
 10
6.4505418885
 20
6.6528835171
 11
6.4428305135
 21
6.6220380171
  0
LINE
  5
25C
100
AcDbEntity
  8
03__ASM_ALL_CURVES
100
AcDbLine
 62
4
  6
CONTINUOUS
 10
6.9594926385
 20
6.6014743517
 11
6.9672040135
 21
6.6323198554
  0
LINE
  5
25D
100
AcDbEntity
  8
03__ASM_ALL_CURVES
100
AcDbLine
 62
4
  6
CONTINUOUS
 10
7.0520291385
 20
6.5809106862
 11
7.0443177635
 21
6.5500651862
  0
LINE
  5
25E
100
AcDbEntity
  8
03__ASM_ALL_CURVES
100
AcDbLine
 62
4
  6
CONTINUOUS
 10
6.5507897635
 20
6.6323198554
 11
6.5585011385
 21
6.6528835171
  0
LINE
  5
25F
100
AcDbEntity
  8
03__ASM_ALL_CURVES
100
AcDbLine
 62
4
  6
CONTINUOUS
 10
6.5507897635
 20
6.5911925208
 11
6.5585011385
 21
6.6117561862
  0
LINE
  5
260
100
AcDbEntity
  8
03__ASM_ALL_CURVES
100
AcDbLine
 62
4
  6
CONTINUOUS
 10
6.6124807635
 20
6.5911925208
 11
6.6047693885
 21
6.5706288535
  0
LINE
  5
261
100
AcDbEntity
  8
03__ASM_ALL_CURVES
100
AcDbLine
 62
4
  6
CONTINUOUS
 10
8.5628052635
 20
11.2012298112
 11
8.5833689326
 21
11.2166525612
  0
LINE
  5
262
100
AcDbEntity
  8
03__ASM_ALL_CURVES
100
AcDbLine
 62
4
  6
CONTINUOUS
 10
6.8592447635
 20
6.5500651862
 11
6.847677701
 21
6.5500651862
  0
LINE
  5
263
100
AcDbEntity
  8
03__ASM_ALL_CURVES
100
AcDbLine
 62
4
  6
CONTINUOUS
 10
6.2192006385
 20
6.5500651862
 11
6.2037778885
 21
6.5500651862
  0
LINE
  5
264
100
AcDbEntity
  8
03__ASM_ALL_CURVES
100
AcDbLine
 62
4
  6
CONTINUOUS
 10
5.9955707635
 20
6.5500651862
 11
5.984003701
 21
6.5500651862
  0
LINE
  5
265
100
AcDbEntity
  8
03__ASM_ALL_CURVES
100
AcDbLine
 62
4
  6
CONTINUOUS
 10
5.8104977635
 20
6.5500651862
 11
5.8721887635
 21
6.5500651862
  0
LINE
  5
266
100
AcDbEntity
  8
03__ASM_ALL_CURVES
100
AcDbLine
 62
4
  6
CONTINUOUS
 10
7.0443177635
 20
6.5500651862
 11
7.1060087635
 21
6.5500651862
  0
LINE
  5
267
100
AcDbEntity
  8
03__ASM_ALL_CURVES
100
AcDbLine
 62
4
  6
CONTINUOUS
 10
6.0572617635
 20
6.5809106862
 11
6.1266641385
 21
6.5809106862
  0
LINE
  5
268
100
AcDbEntity
  8
03__ASM_ALL_CURVES
100
AcDbLine
 62
4
  6
CONTINUOUS
 10
9.0001142635
 20
6.6117561862
 11
7.7537642635
 21
6.6117561862
  0
LINE
  5
269
100
AcDbEntity
  8
0
100
AcDbLine
 62
7
  6
CONTINUOUS
 10
10.5924962454
 20
6.6117562225
 11
12.8424964838
 21
6.6117562225
  0
LINE
  5
26A
100
AcDbEntity
  8
03__ASM_ALL_CURVES
100
AcDbLine
 62
4
  6
CONTINUOUS
 10
6.2037778885
 20
6.6220380171
 11
6.2192006385
 21
6.6220380171
  0
LINE
  5
26B
100
AcDbEntity
  8
0
100
AcDbLine
 62
7
  6
CONTINUOUS
 10
14.2804964657
 20
6.6277562044
 11
12.8424964838
 21
6.6277562044
  0
LINE
  5
26C
100
AcDbEntity
  8
0
100
AcDbLine
 62
7
  6
CONTINUOUS
 10
10.5924962454
 20
6.6277562044
 11
9.1544962635
 21
6.6277562044
  0
LINE
  5
26D
100
AcDbEntity
  8
03__ASM_ALL_CURVES
100
AcDbLine
 62
4
  6
CONTINUOUS
 10
6.9826267635
 20
6.6734471862
 11
6.9209357635
 21
6.6734471862
  0
LINE
  5
26E
100
AcDbEntity
  8
03__ASM_ALL_CURVES
100
AcDbLine
 62
4
  6
CONTINUOUS
 10
5.8336318885
 20
6.6734471862
 11
5.8490546385
 21
6.6734471862
  0
LINE
  5
26F
100
AcDbEntity
  8
03__ASM_ALL_CURVES
100
AcDbLine
 62
4
  6
CONTINUOUS
 10
6.2037778885
 20
6.6734471862
 11
6.2192006385
 21
6.6734471862
  0
LINE
  5
270
100
AcDbEntity
  8
03__ASM_ALL_CURVES
100
AcDbLine
 62
4
  6
CONTINUOUS
 10
7.0674518885
 20
6.6734471862
 11
7.0828746385
 21
6.6734471862
  0
LINE
  5
271
100
AcDbEntity
  8
0
100
AcDbLine
 62
7
  6
CONTINUOUS
 10
9.1544962635
 20
6.6277562044
 11
9.1234962635
 21
6.6587562044
  0
LINE
  5
272
100
AcDbEntity
  8
03__ASM_ALL_CURVES
100
AcDbLine
 62
4
  6
CONTINUOUS
 10
7.2139680135
 20
6.6014743517
 11
7.2062566385
 21
6.5706288535
  0
LINE
  5
273
100
AcDbEntity
  8
03__ASM_ALL_CURVES
100
AcDbLine
 62
4
  6
CONTINUOUS
 10
6.9672040135
 20
6.6323198554
 11
6.9826267635
 21
6.6734471862
  0
LINE
  5
274
100
AcDbEntity
  8
03__ASM_ALL_CURVES
100
AcDbLine
 62
4
  6
CONTINUOUS
 10
6.1112413885
 20
6.6734471862
 11
6.0572617635
 21
6.5809106862
  0
LINE
  5
275
100
AcDbEntity
  8
03__ASM_ALL_CURVES
100
AcDbLine
 62
4
  6
CONTINUOUS
 10
8.5628052635
 20
10.7231245612
 11
8.5730870944
 21
10.7385473112
  0
LINE
  5
276
100
AcDbEntity
  8
03__ASM_ALL_CURVES
100
AcDbLine
 62
4
  6
CONTINUOUS
 10
9.7498052635
 20
11.8181398112
 11
9.7703689326
 21
11.8335625612
  0
LINE
  5
277
100
AcDbEntity
  8
03__ASM_ALL_CURVES
100
AcDbLine
 62
4
  6
CONTINUOUS
 10
9.7703689326
 20
11.7333146862
 11
9.7600870944
 21
11.7256033112
  0
LINE
  5
278
100
AcDbEntity
  8
03__ASM_ALL_CURVES
100
AcDbLine
 62
4
  6
CONTINUOUS
 10
9.821778098
 20
11.7256033112
 11
9.8320599289
 21
11.7333146862
  0
LINE
  5
279
100
AcDbEntity
  8
03__ASM_ALL_CURVES
100
AcDbLine
 62
4
  6
CONTINUOUS
 10
8.670764513
 20
10.8580736237
 11
8.6861872635
 21
10.8696406862
  0
LINE
  5
27A
100
AcDbEntity
  8
03__ASM_ALL_CURVES
100
AcDbLine
 62
4
  6
CONTINUOUS
 10
9.7806507635
 20
11.6716236862
 11
9.7909325944
 21
11.6793350612
  0
LINE
  5
27B
100
AcDbEntity
  8
03__ASM_ALL_CURVES
100
AcDbLine
 62
4
  6
CONTINUOUS
 10
8.5730870944
 20
10.7385473112
 11
8.5833689326
 21
10.7462586862
  0
LINE
  5
27C
100
AcDbEntity
  8
03__ASM_ALL_CURVES
100
AcDbLine
 62
4
  6
CONTINUOUS
 10
9.8629054298
 20
11.6793350612
 11
9.8423417635
 21
11.6639123112
  0
LINE
  5
27D
100
AcDbEntity
  8
0
100
AcDbLine
 62
7
  6
CONTINUOUS
 10
14.3114964657
 20
7.0027562044
 11
12.8424964838
 21
7.0027562044
  0
LINE
  5
27E
100
AcDbEntity
  8
0
100
AcDbLine
 62
7
  6
CONTINUOUS
 10
9.1234962635
 20
7.0027562044
 11
10.5924962454
 21
7.0027562044
  0
LINE
  5
27F
100
AcDbEntity
  8
0
100
AcDbLine
 62
7
  6
CONTINUOUS
 10
8.6288356479
 20
7.831240152
 11
8.6244962635
 21
7.8387561862
  0
LINE
  5
280
100
AcDbEntity
  8
03__ASM_ALL_CURVES
100
AcDbLine
 62
4
  6
CONTINUOUS
 10
8.2906677635
 20
9.0291925208
 11
8.2906677635
 21
9.0703198554
  0
LINE
  5
281
100
AcDbEntity
  8
03__ASM_ALL_CURVES
100
AcDbLine
 62
4
  6
CONTINUOUS
 10
8.3523587635
 20
9.0703198554
 11
8.3523587635
 21
9.0291925208
  0
LINE
  5
282
100
AcDbEntity
  8
03__ASM_ALL_CURVES
100
AcDbLine
 62
4
  6
CONTINUOUS
 10
8.5628052635
 20
10.7077018112
 11
8.5628052635
 21
10.7231245612
  0
LINE
  5
283
100
AcDbEntity
  8
03__ASM_ALL_CURVES
100
AcDbLine
 62
4
  6
CONTINUOUS
 10
8.2906677635
 20
9.0703198554
 11
8.2983791385
 21
9.0908835171
  0
LINE
  5
284
100
AcDbEntity
  8
03__ASM_ALL_CURVES
100
AcDbLine
 62
4
  6
CONTINUOUS
 10
8.3523587635
 20
9.0291925208
 11
8.3446473885
 21
9.0086288535
  0
LINE
  5
285
100
AcDbEntity
  8
03__ASM_ALL_CURVES
100
AcDbLine
 62
4
  6
CONTINUOUS
 10
8.634778098
 20
10.2218851862
 11
8.6244962635
 21
10.1987510612
  0
LINE
  5
286
100
AcDbEntity
  8
03__ASM_ALL_CURVES
100
AcDbLine
 62
4
  6
CONTINUOUS
 10
8.5628052635
 20
10.2218851862
 11
8.5730870944
 21
10.2373079362
  0
LINE
  5
287
100
AcDbEntity
  8
03__ASM_ALL_CURVES
100
AcDbLine
 62
4
  6
CONTINUOUS
 10
8.6861872635
 20
10.2218851862
 11
8.6759054298
 21
10.2064624362
  0
LINE
  5
288
100
AcDbEntity
  8
03__ASM_ALL_CURVES
100
AcDbLine
 62
4
  6
CONTINUOUS
 10
9.7600870944
 20
11.7256033112
 11
9.7498052635
 21
11.7101805612
  0
LINE
  5
289
100
AcDbEntity
  8
03__ASM_ALL_CURVES
100
AcDbLine
 62
4
  6
CONTINUOUS
 10
8.5628052635
 20
9.8517391862
 11
8.5730870944
 21
9.8671619362
  0
LINE
  5
28A
100
AcDbEntity
  8
03__ASM_ALL_CURVES
100
AcDbLine
 62
4
  6
CONTINUOUS
 10
9.7909325944
 20
11.6793350612
 11
9.821778098
 21
11.7256033112
  0
LINE
  5
28B
100
AcDbEntity
  8
03__ASM_ALL_CURVES
100
AcDbLine
 62
4
  6
CONTINUOUS
 10
9.8731872635
 20
11.6947578112
 11
9.8629054298
 21
11.6793350612
  0
LINE
  5
28C
100
AcDbEntity
  8
03__ASM_ALL_CURVES
100
AcDbLine
 62
4
  6
CONTINUOUS
 10
5.8104977635
 20
6.6528835171
 11
5.8182091385
 21
6.6631653554
  0
LINE
  5
28D
100
AcDbEntity
  8
03__ASM_ALL_CURVES
100
AcDbLine
 62
4
  6
CONTINUOUS
 10
5.8336318885
 20
6.6014743517
 11
5.8182091385
 21
6.5809106862
  0
LINE
  5
28E
100
AcDbEntity
  8
03__ASM_ALL_CURVES
100
AcDbLine
 62
4
  6
CONTINUOUS
 10
5.8721887635
 20
6.6323198554
 11
5.8644773885
 21
6.6220380171
  0
LINE
  5
28F
100
AcDbEntity
  8
03__ASM_ALL_CURVES
100
AcDbLine
 62
4
  6
CONTINUOUS
 10
9.8526235962
 20
11.4479938112
 11
9.8731872635
 21
11.4634165612
  0
LINE
  5
290
100
AcDbEntity
  8
03__ASM_ALL_CURVES
100
AcDbLine
 62
4
  6
CONTINUOUS
 10
8.6656235962
 20
10.4609378112
 11
8.6861872635
 21
10.4763605612
  0
LINE
  5
291
100
AcDbEntity
  8
03__ASM_ALL_CURVES
100
AcDbLine
 62
4
  6
CONTINUOUS
 10
9.7498052635
 20
11.2012298112
 11
9.7703689326
 21
11.2166525612
  0
LINE
  5
292
100
AcDbEntity
  8
03__ASM_ALL_CURVES
100
AcDbLine
 62
4
  6
CONTINUOUS
 10
8.5730870944
 20
10.2373079362
 11
8.5833689326
 21
10.2450193112
  0
LINE
  5
293
100
AcDbEntity
  8
03__ASM_ALL_CURVES
100
AcDbLine
 62
4
  6
CONTINUOUS
 10
8.6759054298
 20
10.2064624362
 11
8.6656235962
 21
10.1987510612
  0
LINE
  5
294
100
AcDbEntity
  8
03__ASM_ALL_CURVES
100
AcDbLine
 62
4
  6
CONTINUOUS
 10
9.7600870944
 20
10.9853113112
 11
9.7703689326
 21
10.9930226862
  0
LINE
  5
295
100
AcDbEntity
  8
03__ASM_ALL_CURVES
100
AcDbLine
 62
4
  6
CONTINUOUS
 10
8.2983791385
 20
9.0086288535
 11
8.2906677635
 21
9.0291925208
  0
LINE
  5
296
100
AcDbEntity
  8
03__ASM_ALL_CURVES
100
AcDbLine
 62
4
  6
CONTINUOUS
 10
8.3446473885
 20
9.0908835171
 11
8.3523587635
 21
9.0703198554
  0
LINE
  5
297
100
AcDbEntity
  8
0
100
AcDbLine
 62
7
  6
CONTINUOUS
 10
8.6244962635
 20
7.8387561862
 11
8.6244962635
 21
8.6987561862
  0
LINE
  5
298
100
AcDbEntity
  8
03__ASM_ALL_CURVES
100
AcDbLine
 62
4
  6
CONTINUOUS
 10
8.6244962635
 20
9.1731381862
 11
8.6244962635
 21
9.5432841862
  0
LINE
  5
299
100
AcDbEntity
  8
03__ASM_ALL_CURVES
100
AcDbLine
 62
4
  6
CONTINUOUS
 10
8.6553417635
 20
10.0676576862
 11
8.6553417635
 21
10.1370600612
  0
LINE
  5
29A
100
AcDbEntity
  8
03__ASM_ALL_CURVES
100
AcDbLine
 62
4
  6
CONTINUOUS
 10
8.6553417635
 20
10.9313316862
 11
8.6553417635
 21
11.0007340612
  0
LINE
  5
29B
100
AcDbEntity
  8
03__ASM_ALL_CURVES
100
AcDbLine
 62
4
  6
CONTINUOUS
 10
8.6553417635
 20
11.0547136862
 11
8.6553417635
 21
11.1241160612
  0
LINE
  5
29C
100
AcDbEntity
  8
0
100
AcDbLine
 62
7
  6
CONTINUOUS
 10
8.6585599294
 20
7.8312401523
 11
8.6585599294
 21
7.8608539386
  0
LINE
  5
29D
100
AcDbEntity
  8
0
100
AcDbLine
 62
7
  6
CONTINUOUS
 10
8.6585599294
 20
8.2391423999
 11
8.6585599294
 21
8.2983699726
  0
LINE
  5
29E
100
AcDbEntity
  8
0
100
AcDbLine
 62
7
  6
CONTINUOUS
 10
8.6585599294
 20
8.6766584339
 11
8.6585599294
 21
8.7062722202
  0
LINE
  5
29F
100
AcDbEntity
  8
03__ASM_ALL_CURVES
100
AcDbLine
 62
4
  6
CONTINUOUS
 10
8.6861872635
 20
10.8696406862
 11
8.6861872635
 21
10.8580736237
  0
LINE
  5
2A0
100
AcDbEntity
  8
03__ASM_ALL_CURVES
100
AcDbLine
 62
4
  6
CONTINUOUS
 10
8.6861872635
 20
10.0059666862
 11
8.6861872635
 21
9.9943996237
  0
LINE
  5
2A1
100
AcDbEntity
  8
03__ASM_ALL_CURVES
100
AcDbLine
 62
4
  6
CONTINUOUS
 10
8.6861872635
 20
10.6845676862
 11
8.6861872635
 21
10.7462586862
  0
LINE
  5
2A2
100
AcDbEntity
  8
03__ASM_ALL_CURVES
100
AcDbLine
 62
4
  6
CONTINUOUS
 10
8.6861872635
 20
9.8517391862
 11
8.6759054298
 21
9.8363164362
  0
LINE
  5
2A3
100
AcDbEntity
  8
03__ASM_ALL_CURVES
100
AcDbLine
 62
4
  6
CONTINUOUS
 10
9.7498052635
 20
10.9698885612
 11
9.7600870944
 21
10.9853113112
  0
LINE
  5
2A4
100
AcDbEntity
  8
03__ASM_ALL_CURVES
100
AcDbLine
 62
4
  6
CONTINUOUS
 10
9.0618052635
 20
9.8517391862
 11
9.0720870944
 21
9.8671619362
  0
LINE
  5
2A5
100
AcDbEntity
  8
03__ASM_ALL_CURVES
100
AcDbLine
 62
4
  6
CONTINUOUS
 10
6.2423347635
 20
6.6426016862
 11
6.2346233885
 21
6.6323198554
  0
LINE
  5
2A6
100
AcDbEntity
  8
03__ASM_ALL_CURVES
100
AcDbLine
 62
4
  6
CONTINUOUS
 10
6.2500461385
 20
6.5809106862
 11
6.2346233885
 21
6.5603470199
  0
LINE
  5
2A7
100
AcDbEntity
  8
03__ASM_ALL_CURVES
100
AcDbLine
 62
4
  6
CONTINUOUS
 10
6.4659646385
 20
6.6734471862
 11
6.4505418885
 21
6.6528835171
  0
LINE
  5
2A8
100
AcDbEntity
  8
03__ASM_ALL_CURVES
100
AcDbLine
 62
4
  6
CONTINUOUS
 10
8.2983791385
 20
9.0908835171
 11
8.3060905135
 21
9.1011653554
  0
LINE
  5
2A9
100
AcDbEntity
  8
03__ASM_ALL_CURVES
100
AcDbLine
 62
4
  6
CONTINUOUS
 10
6.5585011385
 20
6.6528835171
 11
6.5662125135
 21
6.6631653554
  0
LINE
  5
2AA
100
AcDbEntity
  8
03__ASM_ALL_CURVES
100
AcDbLine
 62
4
  6
CONTINUOUS
 10
8.3446473885
 20
9.0086288535
 11
8.3369360135
 21
8.9983470199
  0
LINE
  5
2AB
100
AcDbEntity
  8
03__ASM_ALL_CURVES
100
AcDbLine
 62
4
  6
CONTINUOUS
 10
6.6047693885
 20
6.5706288535
 11
6.5970580135
 21
6.5603470199
  0
LINE
  5
2AC
100
AcDbEntity
  8
03__ASM_ALL_CURVES
100
AcDbLine
 62
4
  6
CONTINUOUS
 10
8.670764513
 20
9.9943996237
 11
8.6861872635
 21
10.0059666862
  0
LINE
  5
2AD
100
AcDbEntity
  8
03__ASM_ALL_CURVES
100
AcDbLine
 62
4
  6
CONTINUOUS
 10
9.857764513
 20
10.8580736237
 11
9.8731872635
 21
10.8696406862
  0
LINE
  5
2AE
100
AcDbEntity
  8
03__ASM_ALL_CURVES
100
AcDbLine
 62
4
  6
CONTINUOUS
 10
8.5730870944
 20
9.8671619362
 11
8.5833689326
 21
9.8748733112
  0
LINE
  5
2AF
100
AcDbEntity
  8
03__ASM_ALL_CURVES
100
AcDbLine
 62
4
  6
CONTINUOUS
 10
8.6759054298
 20
9.8363164362
 11
8.6656235962
 21
9.8286050612
  0
LINE
  5
2B0
100
AcDbEntity
  8
03__ASM_ALL_CURVES
100
AcDbLine
 62
4
  6
CONTINUOUS
 10
8.5833689326
 20
10.2450193112
 11
8.6039325944
 21
10.2527306862
  0
LINE
  5
2B1
100
AcDbEntity
  8
03__ASM_ALL_CURVES
100
AcDbLine
 62
4
  6
CONTINUOUS
 10
8.6244962635
 20
10.1987510612
 11
8.6039325944
 21
10.1910396862
  0
LINE
  5
2B2
100
AcDbEntity
  8
0
100
AcDbLine
 62
7
  6
CONTINUOUS
 10
8.6288356477
 20
7.8312401523
 11
9.0834802347
 21
7.8312401523
  0
LINE
  5
2B3
100
AcDbEntity
  8
0
100
AcDbLine
 62
7
  6
CONTINUOUS
 10
14.3515124944
 20
7.8312401523
 11
14.8061570776
 21
7.8312401523
  0
LINE
  5
2B4
100
AcDbEntity
  8
03__ASM_ALL_CURVES
100
AcDbLine
 62
4
  6
CONTINUOUS
 10
8.3060905135
 20
8.9983470199
 11
8.2983791385
 21
9.0086288535
  0
LINE
  5
2B5
100
AcDbEntity
  8
03__ASM_ALL_CURVES
100
AcDbLine
 62
4
  6
CONTINUOUS
 10
8.3369360135
 20
9.1011653554
 11
8.3446473885
 21
9.0908835171
  0
LINE
  5
2B6
100
AcDbEntity
  8
0
100
AcDbLine
 62
7
  6
CONTINUOUS
 10
9.0319962635
 20
8.7062722202
 11
9.0319962635
 21
8.6766584339
  0
LINE
  5
2B7
100
AcDbEntity
  8
0
100
AcDbLine
 62
7
  6
CONTINUOUS
 10
9.0319962635
 20
7.8312401523
 11
9.0319962635
 21
7.8608539386
  0
LINE
  5
2B8
100
AcDbEntity
  8
0
100
AcDbLine
 62
7
  6
CONTINUOUS
 10
9.0319962635
 20
8.2391423999
 11
9.0319962635
 21
8.2983699726
  0
LINE
  5
2B9
100
AcDbEntity
  8
0
100
AcDbLine
 62
7
  6
CONTINUOUS
 10
9.0924962635
 20
7.8402561862
 11
9.0924962635
 21
8.6972561862
  0
LINE
  5
2BA
100
AcDbEntity
  8
0
100
AcDbLine
 62
7
  6
CONTINUOUS
 10
9.1234962635
 20
9.0027562044
 11
9.1234962635
 21
6.6587562044
  0
LINE
  5
2BB
100
AcDbEntity
  8
03__ASM_ALL_CURVES
100
AcDbLine
 62
4
  6
CONTINUOUS
 10
9.1234962635
 20
9.1731381862
 11
9.1234962635
 21
9.5432841862
  0
LINE
  5
2BC
100
AcDbEntity
  8
0
100
AcDbLine
 62
7
  6
CONTINUOUS
 10
9.1544962635
 20
9.0337562044
 11
9.1544962635
 21
6.6277562044
  0
LINE
  5
2BD
100
AcDbEntity
  8
0
100
AcDbLine
 62
7
  6
CONTINUOUS
 10
8.6288356479
 20
8.7062722205
 11
8.6244962635
 21
8.6987561862
  0
LINE
  5
2BE
100
AcDbEntity
  8
03__ASM_ALL_CURVES
100
AcDbLine
 62
4
  6
CONTINUOUS
 10
9.1851872635
 20
9.8517391862
 11
9.1749054298
 21
9.8363164362
  0
LINE
  5
2BF
100
AcDbEntity
  8
03__ASM_ALL_CURVES
100
AcDbLine
 62
4
  6
CONTINUOUS
 10
9.7498052635
 20
10.2295965612
 11
9.7600870944
 21
10.2450193112
  0
LINE
  5
2C0
100
AcDbEntity
  8
03__ASM_ALL_CURVES
100
AcDbLine
 62
4
  6
CONTINUOUS
 10
7.0443177635
 20
6.6528835171
 11
7.0520291385
 21
6.6631653554
  0
LINE
  5
2C1
100
AcDbEntity
  8
03__ASM_ALL_CURVES
100
AcDbLine
 62
4
  6
CONTINUOUS
 10
7.0674518885
 20
6.6014743517
 11
7.0520291385
 21
6.5809106862
  0
LINE
  5
2C2
100
AcDbEntity
  8
03__ASM_ALL_CURVES
100
AcDbLine
 62
4
  6
CONTINUOUS
 10
9.8526235962
 20
10.4609378112
 11
9.8731872635
 21
10.4763605612
  0
LINE
  5
2C3
100
AcDbEntity
  8
03__ASM_ALL_CURVES
100
AcDbLine
 62
4
  6
CONTINUOUS
 10
9.0720870944
 20
9.8671619362
 11
9.0823689326
 21
9.8748733112
  0
LINE
  5
2C4
100
AcDbEntity
  8
03__ASM_ALL_CURVES
100
AcDbLine
 62
4
  6
CONTINUOUS
 10
9.1749054298
 20
9.8363164362
 11
9.1646235962
 21
9.8286050612
  0
LINE
  5
2C5
100
AcDbEntity
  8
03__ASM_ALL_CURVES
100
AcDbLine
 62
4
  6
CONTINUOUS
 10
9.7600870944
 20
10.2450193112
 11
9.7703689326
 21
10.2527306862
  0
LINE
  5
2C6
100
AcDbEntity
  8
03__ASM_ALL_CURVES
100
AcDbLine
 62
4
  6
CONTINUOUS
 10
9.8114962635
 20
10.2450193112
 11
9.8320599289
 21
10.2604420612
  0
LINE
  5
2C7
100
AcDbEntity
  8
03__ASM_ALL_CURVES
100
AcDbLine
 62
4
  6
CONTINUOUS
 10
9.7909325944
 20
10.1987510612
 11
9.7806507635
 21
10.1910396862
  0
LINE
  5
2C8
100
AcDbEntity
  8
03__ASM_ALL_CURVES
100
AcDbLine
 62
4
  6
CONTINUOUS
 10
9.8629054298
 20
10.1987510612
 11
9.8423417635
 21
10.1833283112
  0
LINE
  5
2C9
100
AcDbEntity
  8
03__ASM_ALL_CURVES
100
AcDbLine
 62
4
  6
CONTINUOUS
 10
9.7600870944
 20
10.1139259362
 11
9.7703689326
 21
10.1216373112
  0
LINE
  5
2CA
100
AcDbEntity
  8
03__ASM_ALL_CURVES
100
AcDbLine
 62
4
  6
CONTINUOUS
 10
8.3060905135
 20
9.1011653554
 11
8.3215132635
 21
9.1114471862
  0
LINE
  5
2CB
100
AcDbEntity
  8
03__ASM_ALL_CURVES
100
AcDbLine
 62
4
  6
CONTINUOUS
 10
8.5833689326
 20
9.8748733112
 11
8.6039325944
 21
9.8825846862
  0
LINE
  5
2CC
100
AcDbEntity
  8
03__ASM_ALL_CURVES
100
AcDbLine
 62
4
  6
CONTINUOUS
 10
8.6656235962
 20
9.8286050612
 11
8.6450599289
 21
9.8208936862
  0
LINE
  5
2CD
100
AcDbEntity
  8
03__ASM_ALL_CURVES
100
AcDbLine
 62
4
  6
CONTINUOUS
 10
9.0823689326
 20
9.8748733112
 11
9.1029325944
 21
9.8825846862
  0
LINE
  5
2CE
100
AcDbEntity
  8
03__ASM_ALL_CURVES
100
AcDbLine
 62
4
  6
CONTINUOUS
 10
9.8114962635
 20
10.1216373112
 11
9.8320599289
 21
10.1293486862
  0
LINE
  5
2CF
100
AcDbEntity
  8
0
100
AcDbLine
 62
7
  6
CONTINUOUS
 10
9.1234962635
 20
7.8402561862
 11
9.0924962635
 21
7.8402561862
  0
LINE
  5
2D0
100
AcDbEntity
  8
0
100
AcDbLine
 62
7
  6
CONTINUOUS
 10
14.3114964657
 20
7.8402561862
 11
14.3424964657
 21
7.8402561862
  0
LINE
  5
2D1
100
AcDbEntity
  8
0
100
AcDbLine
 62
7
  6
CONTINUOUS
 10
9.0319962635
 20
7.8608539386
 11
8.6585599294
 21
7.8608539386
  0
LINE
  5
2D2
100
AcDbEntity
  8
0
100
AcDbLine
 62
7
  6
CONTINUOUS
 10
14.4029964657
 20
7.8608539386
 11
14.7764327998
 21
7.8608539386
  0
LINE
  5
2D3
100
AcDbEntity
  8
03__ASM_ALL_CURVES
100
AcDbLine
 62
4
  6
CONTINUOUS
 10
8.3215132635
 20
8.9880651862
 11
8.3060905135
 21
8.9983470199
  0
LINE
  5
2D4
100
AcDbEntity
  8
03__ASM_ALL_CURVES
100
AcDbLine
 62
4
  6
CONTINUOUS
 10
8.3215132635
 20
9.1114471862
 11
8.3369360135
 21
9.1011653554
  0
LINE
  5
2D5
100
AcDbEntity
  8
0
100
AcDbLine
 62
7
  6
CONTINUOUS
 10
9.0924962635
 20
8.6972561862
 11
9.0834530487
 21
8.706299401
  0
LINE
  5
2D6
100
AcDbEntity
  8
03__ASM_ALL_CURVES
100
AcDbLine
 62
4
  6
CONTINUOUS
 10
8.5730870944
 20
9.8363164362
 11
8.5628052635
 21
9.8517391862
  0
LINE
  5
2D7
100
AcDbEntity
  8
03__ASM_ALL_CURVES
100
AcDbLine
 62
4
  6
CONTINUOUS
 10
8.6244962635
 20
10.2450193112
 11
8.634778098
 21
10.2218851862
  0
LINE
  5
2D8
100
AcDbEntity
  8
03__ASM_ALL_CURVES
100
AcDbLine
 62
4
  6
CONTINUOUS
 10
9.8012144326
 20
10.0985031862
 11
9.8114962635
 21
10.1216373112
  0
LINE
  5
2D9
100
AcDbEntity
  8
03__ASM_ALL_CURVES
100
AcDbLine
 62
4
  6
CONTINUOUS
 10
9.8012144326
 20
10.2295965612
 11
9.8114962635
 21
10.2450193112
  0
LINE
  5
2DA
100
AcDbEntity
  8
03__ASM_ALL_CURVES
100
AcDbLine
 62
4
  6
CONTINUOUS
 10
9.8012144326
 20
10.2141738112
 11
9.7909325944
 21
10.1987510612
  0
LINE
  5
2DB
100
AcDbEntity
  8
03__ASM_ALL_CURVES
100
AcDbLine
 62
4
  6
CONTINUOUS
 10
9.7498052635
 20
10.0985031862
 11
9.7600870944
 21
10.1139259362
  0
LINE
  5
2DC
100
AcDbEntity
  8
03__ASM_ALL_CURVES
100
AcDbLine
 62
4
  6
CONTINUOUS
 10
9.8731872635
 20
10.2141738112
 11
9.8629054298
 21
10.1987510612
  0
LINE
  5
2DD
100
AcDbEntity
  8
03__ASM_ALL_CURVES
100
AcDbLine
 62
4
  6
CONTINUOUS
 10
9.8731872635
 20
10.0985031862
 11
9.8629054298
 21
10.0830804362
  0
LINE
  5
2DE
100
AcDbEntity
  8
03__ASM_ALL_CURVES
100
AcDbLine
 62
4
  6
CONTINUOUS
 10
9.7498052635
 20
9.8517391862
 11
9.7600870944
 21
9.8671619362
  0
LINE
  5
2DF
100
AcDbEntity
  8
03__ASM_ALL_CURVES
100
AcDbLine
 62
4
  6
CONTINUOUS
 10
9.8731872635
 20
9.8517391862
 11
9.8629054298
 21
9.8363164362
  0
LINE
  5
2E0
100
AcDbEntity
  8
03__ASM_ALL_CURVES
100
AcDbLine
 62
4
  6
CONTINUOUS
 10
7.1060087635
 20
6.6323198554
 11
7.0982973885
 21
6.6220380171
  0
LINE
  5
2E1
100
AcDbEntity
  8
03__ASM_ALL_CURVES
100
AcDbLine
 62
4
  6
CONTINUOUS
 10
7.2062566385
 20
6.5706288535
 11
7.1908338885
 21
6.5500651862
  0
LINE
  5
2E2
100
AcDbEntity
  8
0
100
AcDbLine
 62
7
  6
CONTINUOUS
 10
9.1234962635
 20
9.0027562044
 11
9.1544962635
 21
9.0337562044
  0
LINE
  5
2E3
100
AcDbEntity
  8
03__ASM_ALL_CURVES
100
AcDbLine
 62
4
  6
CONTINUOUS
 10
9.8629054298
 20
10.0830804362
 11
9.8526235962
 21
10.0753690612
  0
LINE
  5
2E4
100
AcDbEntity
  8
03__ASM_ALL_CURVES
100
AcDbLine
 62
4
  6
CONTINUOUS
 10
9.857764513
 20
9.9943996237
 11
9.8731872635
 21
10.0059666862
  0
LINE
  5
2E5
100
AcDbEntity
  8
03__ASM_ALL_CURVES
100
AcDbLine
 62
4
  6
CONTINUOUS
 10
9.7600870944
 20
9.8671619362
 11
9.7703689326
 21
9.8748733112
  0
LINE
  5
2E6
100
AcDbEntity
  8
03__ASM_ALL_CURVES
100
AcDbLine
 62
4
  6
CONTINUOUS
 10
9.8629054298
 20
9.8363164362
 11
9.8526235962
 21
9.8286050612
  0
LINE
  5
2E7
100
AcDbEntity
  8
03__ASM_ALL_CURVES
100
AcDbLine
 62
4
  6
CONTINUOUS
 10
8.3369360135
 20
8.9983470199
 11
8.3215132635
 21
8.9880651862
  0
LINE
  5
2E8
100
AcDbEntity
  8
03__ASM_ALL_CURVES
100
AcDbLine
 62
4
  6
CONTINUOUS
 10
9.1646235962
 20
9.8286050612
 11
9.1440599289
 21
9.8208936862
  0
LINE
  5
2E9
100
AcDbEntity
  8
03__ASM_ALL_CURVES
100
AcDbLine
 62
4
  6
CONTINUOUS
 10
9.8526235962
 20
10.0753690612
 11
9.8320599289
 21
10.0676576862
  0
LINE
  5
2EA
100
AcDbEntity
  8
03__ASM_ALL_CURVES
100
AcDbLine
 62
4
  6
CONTINUOUS
 10
9.7703689326
 20
9.8748733112
 11
9.7909325944
 21
9.8825846862
  0
LINE
  5
2EB
100
AcDbEntity
  8
03__ASM_ALL_CURVES
100
AcDbLine
 62
4
  6
CONTINUOUS
 10
9.8526235962
 20
9.8286050612
 11
9.8320599289
 21
9.8208936862
  0
LINE
  5
2EC
100
AcDbEntity
  8
0
100
AcDbLine
 62
7
  6
CONTINUOUS
 10
9.0319962635
 20
8.2391423999
 11
8.6585599294
 21
8.2391423999
  0
LINE
  5
2ED
100
AcDbEntity
  8
0
100
AcDbLine
 62
7
  6
CONTINUOUS
 10
14.4029964657
 20
8.2391423999
 11
14.7764327998
 21
8.2391423999
  0
LINE
  5
2EE
100
AcDbEntity
  8
0
100
AcDbLine
 62
7
  6
CONTINUOUS
 10
9.0319962635
 20
8.2983699726
 11
8.6585599294
 21
8.2983699726
  0
LINE
  5
2EF
100
AcDbEntity
  8
0
100
AcDbLine
 62
7
  6
CONTINUOUS
 10
14.4029964657
 20
8.2983699726
 11
14.7764327998
 21
8.2983699726
  0
LINE
  5
2F0
100
AcDbEntity
  8
03__ASM_ALL_CURVES
100
AcDbLine
 62
4
  6
CONTINUOUS
 10
8.6759054298
 20
9.8671619362
 11
8.6861872635
 21
9.8517391862
  0
LINE
  5
2F1
100
AcDbEntity
  8
03__ASM_ALL_CURVES
100
AcDbLine
 62
4
  6
CONTINUOUS
 10
8.5730870944
 20
10.2064624362
 11
8.5628052635
 21
10.2218851862
  0
LINE
  5
2F2
100
AcDbEntity
  8
03__ASM_ALL_CURVES
100
AcDbLine
 62
4
  6
CONTINUOUS
 10
8.6759054298
 20
10.2373079362
 11
8.6861872635
 21
10.2218851862
  0
LINE
  5
2F3
100
AcDbEntity
  8
03__ASM_ALL_CURVES
100
AcDbLine
 62
4
  6
CONTINUOUS
 10
9.7498052635
 20
11.7101805612
 11
9.7498052635
 21
11.6947578112
  0
LINE
  5
2F4
100
AcDbEntity
  8
03__ASM_ALL_CURVES
100
AcDbLine
 62
4
  6
CONTINUOUS
 10
9.7498052635
 20
11.1164046862
 11
9.7498052635
 21
11.0547136862
  0
LINE
  5
2F5
100
AcDbEntity
  8
03__ASM_ALL_CURVES
100
AcDbLine
 62
4
  6
CONTINUOUS
 10
9.7498052635
 20
10.7462586862
 11
9.7498052635
 21
10.6845676862
  0
LINE
  5
2F6
100
AcDbEntity
  8
03__ASM_ALL_CURVES
100
AcDbLine
 62
4
  6
CONTINUOUS
 10
9.7498052635
 20
10.2141738112
 11
9.7498052635
 21
10.2295965612
  0
LINE
  5
2F7
100
AcDbEntity
  8
03__ASM_ALL_CURVES
100
AcDbLine
 62
4
  6
CONTINUOUS
 10
9.7498052635
 20
10.9544658112
 11
9.7498052635
 21
10.9698885612
  0
LINE
  5
2F8
100
AcDbEntity
  8
03__ASM_ALL_CURVES
100
AcDbLine
 62
4
  6
CONTINUOUS
 10
9.8012144326
 20
10.2141738112
 11
9.8012144326
 21
10.2295965612
  0
LINE
  5
2F9
100
AcDbEntity
  8
03__ASM_ALL_CURVES
100
AcDbLine
 62
4
  6
CONTINUOUS
 10
9.8114962635
 20
9.1731381862
 11
9.8114962635
 21
9.5432841862
  0
LINE
  5
2FA
100
AcDbEntity
  8
03__ASM_ALL_CURVES
100
AcDbLine
 62
4
  6
CONTINUOUS
 10
9.8731872635
 20
11.7101805612
 11
9.8731872635
 21
11.6947578112
  0
LINE
  5
2FB
100
AcDbEntity
  8
03__ASM_ALL_CURVES
100
AcDbLine
 62
4
  6
CONTINUOUS
 10
9.8731872635
 20
10.8696406862
 11
9.8731872635
 21
10.8580736237
  0
LINE
  5
2FC
100
AcDbEntity
  8
03__ASM_ALL_CURVES
100
AcDbLine
 62
4
  6
CONTINUOUS
 10
9.8731872635
 20
10.2295965612
 11
9.8731872635
 21
10.2141738112
  0
LINE
  5
2FD
100
AcDbEntity
  8
03__ASM_ALL_CURVES
100
AcDbLine
 62
4
  6
CONTINUOUS
 10
9.8731872635
 20
10.0059666862
 11
9.8731872635
 21
9.9943996237
  0
LINE
  5
2FE
100
AcDbEntity
  8
03__ASM_ALL_CURVES
100
AcDbLine
 62
4
  6
CONTINUOUS
 10
9.8731872635
 20
10.9313316862
 11
9.8731872635
 21
10.9930226862
  0
LINE
  5
2FF
100
AcDbEntity
  8
03__ASM_ALL_CURVES
100
AcDbLine
 62
4
  6
CONTINUOUS
 10
9.8731872635
 20
11.5482416862
 11
9.8731872635
 21
11.6099326862
  0
LINE
  5
300
100
AcDbEntity
  8
03__ASM_ALL_CURVES
100
AcDbLine
 62
4
  6
CONTINUOUS
 10
5.8182091385
 20
6.6631653554
 11
5.8336318885
 21
6.6734471862
  0
LINE
  5
301
100
AcDbEntity
  8
03__ASM_ALL_CURVES
100
AcDbLine
 62
4
  6
CONTINUOUS
 10
5.8644773885
 20
6.6220380171
 11
5.8336318885
 21
6.6014743517
  0
LINE
  5
302
100
AcDbEntity
  8
03__ASM_ALL_CURVES
100
AcDbLine
 62
4
  6
CONTINUOUS
 10
14.3114962635
 20
11.1164046862
 11
14.3320599289
 21
11.1241160612
  0
LINE
  5
303
100
AcDbEntity
  8
0
100
AcDbLine
 62
7
  6
CONTINUOUS
 10
14.3114964657
 20
8.6587562044
 11
12.8424964838
 21
8.6587562044
  0
LINE
  5
304
100
AcDbEntity
  8
0
100
AcDbLine
 62
7
  6
CONTINUOUS
 10
9.1234962635
 20
8.6587562044
 11
10.5924962454
 21
8.6587562044
  0
LINE
  5
305
100
AcDbEntity
  8
0
100
AcDbLine
 62
7
  6
CONTINUOUS
 10
9.0319962635
 20
8.6766584339
 11
8.6585599294
 21
8.6766584339
  0
LINE
  5
306
100
AcDbEntity
  8
0
100
AcDbLine
 62
7
  6
CONTINUOUS
 10
14.4029964657
 20
8.6766584339
 11
14.7764327998
 21
8.6766584339
  0
LINE
  5
307
100
AcDbEntity
  8
0
100
AcDbLine
 62
7
  6
CONTINUOUS
 10
9.1234962635
 20
8.6972561862
 11
9.0924962635
 21
8.6972561862
  0
LINE
  5
308
100
AcDbEntity
  8
0
100
AcDbLine
 62
7
  6
CONTINUOUS
 10
14.3114964657
 20
8.6972561862
 11
14.3424964657
 21
8.6972561862
  0
LINE
  5
309
100
AcDbEntity
  8
0
100
AcDbLine
 62
7
  6
CONTINUOUS
 10
8.6288356477
 20
8.7062722202
 11
9.0834802347
 21
8.7062722202
  0
LINE
  5
30A
100
AcDbEntity
  8
0
100
AcDbLine
 62
7
  6
CONTINUOUS
 10
14.3515124944
 20
8.7062722202
 11
14.8061570814
 21
8.7062722202
  0
LINE
  5
30B
100
AcDbEntity
  8
03__ASM_ALL_CURVES
100
AcDbLine
 62
4
  6
CONTINUOUS
 10
8.5833689326
 20
9.8286050612
 11
8.5730870944
 21
9.8363164362
  0
LINE
  5
30C
100
AcDbEntity
  8
03__ASM_ALL_CURVES
100
AcDbLine
 62
4
  6
CONTINUOUS
 10
8.6656235962
 20
9.8748733112
 11
8.6759054298
 21
9.8671619362
  0
LINE
  5
30D
100
AcDbEntity
  8
03__ASM_ALL_CURVES
100
AcDbLine
 62
4
  6
CONTINUOUS
 10
9.0720870944
 20
9.8363164362
 11
9.0618052635
 21
9.8517391862
  0
LINE
  5
30E
100
AcDbEntity
  8
03__ASM_ALL_CURVES
100
AcDbLine
 62
4
  6
CONTINUOUS
 10
8.5730870944
 20
10.6922790612
 11
8.5628052635
 21
10.7077018112
  0
LINE
  5
30F
100
AcDbEntity
  8
03__ASM_ALL_CURVES
100
AcDbLine
 62
4
  6
CONTINUOUS
 10
9.1749054298
 20
9.8671619362
 11
9.1851872635
 21
9.8517391862
  0
LINE
  5
310
100
AcDbEntity
  8
03__ASM_ALL_CURVES
100
AcDbLine
 62
4
  6
CONTINUOUS
 10
8.6142144326
 20
10.7385473112
 11
8.634778098
 21
10.7077018112
  0
LINE
  5
311
100
AcDbEntity
  8
03__ASM_ALL_CURVES
100
AcDbLine
 62
4
  6
CONTINUOUS
 10
13.5618052635
 20
11.6947578112
 11
13.5823689326
 21
11.7101805612
  0
LINE
  5
312
100
AcDbEntity
  8
03__ASM_ALL_CURVES
100
AcDbLine
 62
4
  6
CONTINUOUS
 10
13.5823689326
 20
11.6099326862
 11
13.5720870944
 21
11.6022213112
  0
LINE
  5
313
100
AcDbEntity
  8
03__ASM_ALL_CURVES
100
AcDbLine
 62
4
  6
CONTINUOUS
 10
6.1883551385
 20
6.6631653554
 11
6.2037778885
 21
6.6734471862
  0
LINE
  5
314
100
AcDbEntity
  8
03__ASM_ALL_CURVES
100
AcDbLine
 62
4
  6
CONTINUOUS
 10
6.2346233885
 20
6.6323198554
 11
6.2192006385
 21
6.6220380171
  0
LINE
  5
315
100
AcDbEntity
  8
03__ASM_ALL_CURVES
100
AcDbLine
 62
4
  6
CONTINUOUS
 10
6.2346233885
 20
6.5603470199
 11
6.2192006385
 21
6.5500651862
  0
LINE
  5
316
100
AcDbEntity
  8
03__ASM_ALL_CURVES
100
AcDbLine
 62
4
  6
CONTINUOUS
 10
6.5662125135
 20
6.6631653554
 11
6.5816352635
 21
6.6734471862
  0
LINE
  5
317
100
AcDbEntity
  8
0
100
AcDbLine
 62
7
  6
CONTINUOUS
 10
14.2804964657
 20
9.0337562044
 11
12.8424964838
 21
9.0337562044
  0
LINE
  5
318
100
AcDbEntity
  8
0
100
AcDbLine
 62
7
  6
CONTINUOUS
 10
9.1544962635
 20
9.0337562044
 11
10.5924962454
 21
9.0337562044
  0
LINE
  5
319
100
AcDbEntity
  8
0
100
AcDbLine
 62
7
  6
CONTINUOUS
 10
12.8424964838
 20
9.0497561862
 11
10.5924962454
 21
9.0497561862
  0
LINE
  5
31A
100
AcDbEntity
  8
03__ASM_ALL_CURVES
100
AcDbLine
 62
4
  6
CONTINUOUS
 10
9.0001142635
 20
9.0497561862
 11
8.6299682635
 21
9.0497561862
  0
LINE
  5
31B
100
AcDbEntity
  8
03__ASM_ALL_CURVES
100
AcDbLine
 62
4
  6
CONTINUOUS
 10
8.6039325944
 20
9.8208936862
 11
8.5833689326
 21
9.8286050612
  0
LINE
  5
31C
100
AcDbEntity
  8
03__ASM_ALL_CURVES
100
AcDbLine
 62
4
  6
CONTINUOUS
 10
8.5628052635
 20
10.1216373112
 11
8.6553417635
 21
10.0676576862
  0
LINE
  5
31D
100
AcDbEntity
  8
03__ASM_ALL_CURVES
100
AcDbLine
 62
4
  6
CONTINUOUS
 10
8.5833689326
 20
10.1987510612
 11
8.5730870944
 21
10.2064624362
  0
LINE
  5
31E
100
AcDbEntity
  8
03__ASM_ALL_CURVES
100
AcDbLine
 62
4
  6
CONTINUOUS
 10
9.0823689326
 20
9.8286050612
 11
9.0720870944
 21
9.8363164362
  0
LINE
  5
31F
100
AcDbEntity
  8
03__ASM_ALL_CURVES
100
AcDbLine
 62
4
  6
CONTINUOUS
 10
8.6656235962
 20
10.2450193112
 11
8.6759054298
 21
10.2373079362
  0
LINE
  5
320
100
AcDbEntity
  8
03__ASM_ALL_CURVES
100
AcDbLine
 62
4
  6
CONTINUOUS
 10
9.1646235962
 20
9.8748733112
 11
9.1749054298
 21
9.8671619362
  0
LINE
  5
321
100
AcDbEntity
  8
03__ASM_ALL_CURVES
100
AcDbLine
 62
4
  6
CONTINUOUS
 10
8.5628052635
 20
10.4763605612
 11
8.5833689326
 21
10.4609378112
  0
LINE
  5
322
100
AcDbEntity
  8
03__ASM_ALL_CURVES
100
AcDbLine
 62
4
  6
CONTINUOUS
 10
9.7600870944
 20
9.8363164362
 11
9.7498052635
 21
9.8517391862
  0
LINE
  5
323
100
AcDbEntity
  8
03__ASM_ALL_CURVES
100
AcDbLine
 62
4
  6
CONTINUOUS
 10
9.8629054298
 20
9.8671619362
 11
9.8731872635
 21
9.8517391862
  0
LINE
  5
324
100
AcDbEntity
  8
03__ASM_ALL_CURVES
100
AcDbLine
 62
4
  6
CONTINUOUS
 10
9.8114962635
 20
10.0753690612
 11
9.8012144326
 21
10.0985031862
  0
LINE
  5
325
100
AcDbEntity
  8
0
100
AcDbLine
 62
7
  6
CONTINUOUS
 10
10.5924962454
 20
6.6117562225
 11
10.5924962454
 21
9.0497561862
  0
LINE
  5
326
100
AcDbEntity
  8
0
100
AcDbLine
 62
7
  6
CONTINUOUS
 10
9.0924962635
 20
7.8402561862
 11
9.0834530487
 21
7.8312129715
  0
LINE
  5
327
100
AcDbEntity
  8
03__ASM_ALL_CURVES
100
AcDbLine
 62
4
  6
CONTINUOUS
 10
13.633778098
 20
11.6022213112
 11
13.6440599289
 21
11.6099326862
  0
LINE
  5
328
100
AcDbEntity
  8
03__ASM_ALL_CURVES
100
AcDbLine
 62
4
  6
CONTINUOUS
 10
13.5926507635
 20
11.5482416862
 11
13.6029325944
 21
11.5559530612
  0
LINE
  5
329
100
AcDbEntity
  8
03__ASM_ALL_CURVES
100
AcDbLine
 62
4
  6
CONTINUOUS
 10
13.6749054298
 20
11.5559530612
 11
13.6543417635
 21
11.5405303112
  0
LINE
  5
32A
100
AcDbEntity
  8
03__ASM_ALL_CURVES
100
AcDbLine
 62
4
  6
CONTINUOUS
 10
13.6646235962
 20
11.3246118112
 11
13.6851872635
 21
11.3400345612
  0
LINE
  5
32B
100
AcDbEntity
  8
03__ASM_ALL_CURVES
100
AcDbLine
 62
4
  6
CONTINUOUS
 10
6.5970580135
 20
6.5603470199
 11
6.5816352635
 21
6.5500651862
  0
LINE
  5
32C
100
AcDbEntity
  8
03__ASM_ALL_CURVES
100
AcDbLine
 62
4
  6
CONTINUOUS
 10
7.0520291385
 20
6.6631653554
 11
7.0674518885
 21
6.6734471862
  0
LINE
  5
32D
100
AcDbEntity
  8
03__ASM_ALL_CURVES
100
AcDbLine
 62
4
  6
CONTINUOUS
 10
7.0982973885
 20
6.6220380171
 11
7.0674518885
 21
6.6014743517
  0
LINE
  5
32E
100
AcDbEntity
  8
03__ASM_ALL_CURVES
100
AcDbLine
 62
4
  6
CONTINUOUS
 10
13.6234962635
 20
10.1293486862
 11
13.6440599289
 21
10.1370600612
  0
LINE
  5
32F
100
AcDbEntity
  8
03__ASM_ALL_CURVES
100
AcDbLine
 62
4
  6
CONTINUOUS
 10
14.820778098
 20
10.4532264362
 11
14.8516235962
 21
10.4609378112
  0
LINE
  5
330
100
AcDbEntity
  8
03__ASM_ALL_CURVES
100
AcDbLine
 62
4
  6
CONTINUOUS
 10
14.321778098
 20
10.4532264362
 11
14.3526235962
 21
10.4609378112
  0
LINE
  5
331
100
AcDbEntity
  8
03__ASM_ALL_CURVES
100
AcDbLine
 62
4
  6
CONTINUOUS
 10
13.633778098
 20
10.3298444362
 11
13.6646235962
 21
10.3375558112
  0
LINE
  5
332
100
AcDbEntity
  8
03__ASM_ALL_CURVES
100
AcDbLine
 62
4
  6
CONTINUOUS
 10
8.6450599289
 20
9.8825846862
 11
8.6656235962
 21
9.8748733112
  0
LINE
  5
333
100
AcDbEntity
  8
03__ASM_ALL_CURVES
100
AcDbLine
 62
4
  6
CONTINUOUS
 10
9.1029325944
 20
9.8208936862
 11
9.0823689326
 21
9.8286050612
  0
LINE
  5
334
100
AcDbEntity
  8
03__ASM_ALL_CURVES
100
AcDbLine
 62
4
  6
CONTINUOUS
 10
9.1440599289
 20
9.8825846862
 11
9.1646235962
 21
9.8748733112
  0
LINE
  5
335
100
AcDbEntity
  8
03__ASM_ALL_CURVES
100
AcDbLine
 62
4
  6
CONTINUOUS
 10
8.6039325944
 20
10.1910396862
 11
8.5833689326
 21
10.1987510612
  0
LINE
  5
336
100
AcDbEntity
  8
03__ASM_ALL_CURVES
100
AcDbLine
 62
4
  6
CONTINUOUS
 10
8.6039325944
 20
10.2527306862
 11
8.6244962635
 21
10.2450193112
  0
LINE
  5
337
100
AcDbEntity
  8
03__ASM_ALL_CURVES
100
AcDbLine
 62
4
  6
CONTINUOUS
 10
8.5833689326
 20
10.6845676862
 11
8.5730870944
 21
10.6922790612
  0
LINE
  5
338
100
AcDbEntity
  8
03__ASM_ALL_CURVES
100
AcDbLine
 62
4
  6
CONTINUOUS
 10
9.7703689326
 20
9.8286050612
 11
9.7600870944
 21
9.8363164362
  0
LINE
  5
339
100
AcDbEntity
  8
03__ASM_ALL_CURVES
100
AcDbLine
 62
4
  6
CONTINUOUS
 10
8.634778098
 20
10.7077018112
 11
8.6553417635
 21
10.6922790612
  0
LINE
  5
33A
100
AcDbEntity
  8
03__ASM_ALL_CURVES
100
AcDbLine
 62
4
  6
CONTINUOUS
 10
8.6039325944
 20
10.7462586862
 11
8.6142144326
 21
10.7385473112
  0
LINE
  5
33B
100
AcDbEntity
  8
03__ASM_ALL_CURVES
100
AcDbLine
 62
4
  6
CONTINUOUS
 10
9.8526235962
 20
9.8748733112
 11
9.8629054298
 21
9.8671619362
  0
LINE
  5
33C
100
AcDbEntity
  8
03__ASM_ALL_CURVES
100
AcDbLine
 62
4
  6
CONTINUOUS
 10
9.7703689326
 20
10.0753690612
 11
9.7600870944
 21
10.0830804362
  0
LINE
  5
33D
100
AcDbEntity
  8
03__ASM_ALL_CURVES
100
AcDbLine
 62
4
  6
CONTINUOUS
 10
9.7600870944
 20
10.0830804362
 11
9.7498052635
 21
10.0985031862
  0
LINE
  5
33E
100
AcDbEntity
  8
03__ASM_ALL_CURVES
100
AcDbLine
 62
4
  6
CONTINUOUS
 10
9.7600870944
 20
10.1987510612
 11
9.7498052635
 21
10.2141738112
  0
LINE
  5
33F
100
AcDbEntity
  8
03__ASM_ALL_CURVES
100
AcDbLine
 62
4
  6
CONTINUOUS
 10
9.8629054298
 20
10.1139259362
 11
9.8731872635
 21
10.0985031862
  0
LINE
  5
340
100
AcDbEntity
  8
03__ASM_ALL_CURVES
100
AcDbLine
 62
4
  6
CONTINUOUS
 10
9.8114962635
 20
10.1987510612
 11
9.8012144326
 21
10.2141738112
  0
LINE
  5
341
100
AcDbEntity
  8
03__ASM_ALL_CURVES
100
AcDbLine
 62
4
  6
CONTINUOUS
 10
9.7909325944
 20
10.2450193112
 11
9.8012144326
 21
10.2295965612
  0
LINE
  5
342
100
AcDbEntity
  8
03__ASM_ALL_CURVES
100
AcDbLine
 62
4
  6
CONTINUOUS
 10
9.8629054298
 20
10.2450193112
 11
9.8731872635
 21
10.2295965612
  0
LINE
  5
343
100
AcDbEntity
  8
03__ASM_ALL_CURVES
100
AcDbLine
 62
4
  6
CONTINUOUS
 10
13.5618052635
 20
11.0778478112
 11
13.5823689326
 21
11.0932705612
  0
LINE
  5
344
100
AcDbEntity
  8
03__ASM_ALL_CURVES
100
AcDbLine
 62
4
  6
CONTINUOUS
 10
13.5720870944
 20
10.9853113112
 11
13.5823689326
 21
10.9930226862
  0
LINE
  5
345
100
AcDbEntity
  8
03__ASM_ALL_CURVES
100
AcDbLine
 62
4
  6
CONTINUOUS
 10
13.6234962635
 20
10.9853113112
 11
13.6440599289
 21
11.0007340612
  0
LINE
  5
346
100
AcDbEntity
  8
03__ASM_ALL_CURVES
100
AcDbLine
 62
4
  6
CONTINUOUS
 10
13.6749054298
 20
10.9390430612
 11
13.6646235962
 21
10.9313316862
  0
LINE
  5
347
100
AcDbEntity
  8
03__ASM_ALL_CURVES
100
AcDbLine
 62
4
  6
CONTINUOUS
 10
14.2498052635
 20
11.3246118112
 11
14.2703689326
 21
11.3400345612
  0
LINE
  5
348
100
AcDbEntity
  8
03__ASM_ALL_CURVES
100
AcDbLine
 62
4
  6
CONTINUOUS
 10
13.669764513
 20
10.8580736237
 11
13.6851872635
 21
10.8696406862
  0
LINE
  5
349
100
AcDbEntity
  8
03__ASM_ALL_CURVES
100
AcDbLine
 62
4
  6
CONTINUOUS
 10
14.8104962635
 20
10.1216373112
 11
14.8310599289
 21
10.1293486862
  0
LINE
  5
34A
100
AcDbEntity
  8
03__ASM_ALL_CURVES
100
AcDbLine
 62
4
  6
CONTINUOUS
 10
9.8320599289
 20
9.8208936862
 11
9.7909325944
 21
9.8208936862
  0
LINE
  5
34B
100
AcDbEntity
  8
03__ASM_ALL_CURVES
100
AcDbLine
 62
4
  6
CONTINUOUS
 10
9.1440599289
 20
9.8208936862
 11
9.1029325944
 21
9.8208936862
  0
LINE
  5
34C
100
AcDbEntity
  8
03__ASM_ALL_CURVES
100
AcDbLine
 62
4
  6
CONTINUOUS
 10
8.6450599289
 20
9.8208936862
 11
8.6039325944
 21
9.8208936862
  0
LINE
  5
34D
100
AcDbEntity
  8
03__ASM_ALL_CURVES
100
AcDbLine
 62
4
  6
CONTINUOUS
 10
13.6851872635
 20
9.8748733112
 11
13.5618052635
 21
9.8748733112
  0
LINE
  5
34E
100
AcDbEntity
  8
03__ASM_ALL_CURVES
100
AcDbLine
 62
4
  6
CONTINUOUS
 10
8.6039325944
 20
9.8825846862
 11
8.6450599289
 21
9.8825846862
  0
LINE
  5
34F
100
AcDbEntity
  8
03__ASM_ALL_CURVES
100
AcDbLine
 62
4
  6
CONTINUOUS
 10
9.1029325944
 20
9.8825846862
 11
9.1440599289
 21
9.8825846862
  0
LINE
  5
350
100
AcDbEntity
  8
03__ASM_ALL_CURVES
100
AcDbLine
 62
4
  6
CONTINUOUS
 10
9.7909325944
 20
9.8825846862
 11
9.8320599289
 21
9.8825846862
  0
LINE
  5
351
100
AcDbEntity
  8
03__ASM_ALL_CURVES
100
AcDbLine
 62
4
  6
CONTINUOUS
 10
9.7909325944
 20
9.8208936862
 11
9.7703689326
 21
9.8286050612
  0
LINE
  5
352
100
AcDbEntity
  8
03__ASM_ALL_CURVES
100
AcDbLine
 62
4
  6
CONTINUOUS
 10
8.6450599289
 20
10.2527306862
 11
8.6656235962
 21
10.2450193112
  0
LINE
  5
353
100
AcDbEntity
  8
03__ASM_ALL_CURVES
100
AcDbLine
 62
4
  6
CONTINUOUS
 10
9.8320599289
 20
9.8825846862
 11
9.8526235962
 21
9.8748733112
  0
LINE
  5
354
100
AcDbEntity
  8
03__ASM_ALL_CURVES
100
AcDbLine
 62
4
  6
CONTINUOUS
 10
9.7909325944
 20
10.0676576862
 11
9.7703689326
 21
10.0753690612
  0
LINE
  5
355
100
AcDbEntity
  8
03__ASM_ALL_CURVES
100
AcDbLine
 62
4
  6
CONTINUOUS
 10
9.8320599289
 20
10.0676576862
 11
9.8114962635
 21
10.0753690612
  0
LINE
  5
356
100
AcDbEntity
  8
03__ASM_ALL_CURVES
100
AcDbLine
 62
4
  6
CONTINUOUS
 10
9.8320599289
 20
10.1293486862
 11
9.8526235962
 21
10.1216373112
  0
LINE
  5
357
100
AcDbEntity
  8
03__ASM_ALL_CURVES
100
AcDbLine
 62
4
  6
CONTINUOUS
 10
8.5628052635
 20
10.9853113112
 11
8.6553417635
 21
10.9313316862
  0
LINE
  5
358
100
AcDbEntity
  8
03__ASM_ALL_CURVES
100
AcDbLine
 62
4
  6
CONTINUOUS
 10
9.8526235962
 20
10.1216373112
 11
9.8629054298
 21
10.1139259362
  0
LINE
  5
359
100
AcDbEntity
  8
03__ASM_ALL_CURVES
100
AcDbLine
 62
4
  6
CONTINUOUS
 10
9.7703689326
 20
10.1910396862
 11
9.7600870944
 21
10.1987510612
  0
LINE
  5
35A
100
AcDbEntity
  8
03__ASM_ALL_CURVES
100
AcDbLine
 62
4
  6
CONTINUOUS
 10
9.8320599289
 20
10.1833283112
 11
9.8114962635
 21
10.1987510612
  0
LINE
  5
35B
100
AcDbEntity
  8
03__ASM_ALL_CURVES
100
AcDbLine
 62
4
  6
CONTINUOUS
 10
9.7806507635
 20
10.2527306862
 11
9.7909325944
 21
10.2450193112
  0
LINE
  5
35C
100
AcDbEntity
  8
03__ASM_ALL_CURVES
100
AcDbLine
 62
4
  6
CONTINUOUS
 10
9.8423417635
 20
10.2604420612
 11
9.8629054298
 21
10.2450193112
  0
LINE
  5
35D
100
AcDbEntity
  8
03__ASM_ALL_CURVES
100
AcDbLine
 62
4
  6
CONTINUOUS
 10
8.6656235962
 20
11.2166525612
 11
8.6861872635
 21
11.2012298112
  0
LINE
  5
35E
100
AcDbEntity
  8
03__ASM_ALL_CURVES
100
AcDbLine
 62
4
  6
CONTINUOUS
 10
9.7498052635
 20
10.4763605612
 11
9.7703689326
 21
10.4609378112
  0
LINE
  5
35F
100
AcDbEntity
  8
03__ASM_ALL_CURVES
100
AcDbLine
 62
4
  6
CONTINUOUS
 10
9.7600870944
 20
10.9390430612
 11
9.7498052635
 21
10.9544658112
  0
LINE
  5
360
100
AcDbEntity
  8
03__ASM_ALL_CURVES
100
AcDbLine
 62
4
  6
CONTINUOUS
 10
9.8012144326
 20
10.9853113112
 11
9.821778098
 21
10.9544658112
  0
LINE
  5
361
100
AcDbEntity
  8
03__ASM_ALL_CURVES
100
AcDbLine
 62
4
  6
CONTINUOUS
 10
14.3012144326
 20
11.1086933112
 11
14.3114962635
 21
11.1164046862
  0
LINE
  5
362
100
AcDbEntity
  8
03__ASM_ALL_CURVES
100
AcDbLine
 62
4
  6
CONTINUOUS
 10
14.3629054298
 20
11.0624250612
 11
14.3526235962
 21
11.0547136862
  0
LINE
  5
363
100
AcDbEntity
  8
03__ASM_ALL_CURVES
100
AcDbLine
 62
4
  6
CONTINUOUS
 10
14.7488052635
 20
11.3246118112
 11
14.7693689326
 21
11.3400345612
  0
LINE
  5
364
100
AcDbEntity
  8
03__ASM_ALL_CURVES
100
AcDbLine
 62
4
  6
CONTINUOUS
 10
14.357764513
 20
10.9814556237
 11
14.3731872635
 21
10.9930226862
  0
LINE
  5
365
100
AcDbEntity
  8
03__ASM_ALL_CURVES
100
AcDbLine
 62
4
  6
CONTINUOUS
 10
6.5585011385
 20
6.6117561862
 11
6.5816352635
 21
6.6220380171
  0
LINE
  5
366
100
AcDbEntity
  8
03__ASM_ALL_CURVES
100
AcDbLine
 62
4
  6
CONTINUOUS
 10
14.3114962635
 20
9.8825846862
 11
14.3320599289
 21
9.8902960612
  0
LINE
  5
367
100
AcDbEntity
  8
03__ASM_ALL_CURVES
100
AcDbLine
 62
4
  6
CONTINUOUS
 10
14.8516235962
 20
10.0753690612
 11
14.8310599289
 21
10.0676576862
  0
LINE
  5
368
100
AcDbEntity
  8
03__ASM_ALL_CURVES
100
AcDbLine
 62
4
  6
CONTINUOUS
 10
14.8104962635
 20
9.8825846862
 11
14.8310599289
 21
9.8902960612
  0
LINE
  5
369
100
AcDbEntity
  8
03__ASM_ALL_CURVES
100
AcDbLine
 62
4
  6
CONTINUOUS
 10
14.7693689326
 20
11.3400345612
 11
14.8002144326
 21
11.3477459362
  0
LINE
  5
36A
100
AcDbEntity
  8
03__ASM_ALL_CURVES
100
AcDbLine
 62
4
  6
CONTINUOUS
 10
13.5823689326
 20
11.0932705612
 11
13.6132144326
 21
11.1009819362
  0
LINE
  5
36B
100
AcDbEntity
  8
03__ASM_ALL_CURVES
100
AcDbLine
 62
4
  6
CONTINUOUS
 10
14.8721872635
 20
9.9943996237
 11
14.856764513
 21
9.9943996237
  0
LINE
  5
36C
100
AcDbEntity
  8
03__ASM_ALL_CURVES
100
AcDbLine
 62
4
  6
CONTINUOUS
 10
14.3731872635
 20
9.9943996237
 11
14.357764513
 21
9.9943996237
  0
LINE
  5
36D
100
AcDbEntity
  8
03__ASM_ALL_CURVES
100
AcDbLine
 62
4
  6
CONTINUOUS
 10
13.6851872635
 20
9.9943996237
 11
13.669764513
 21
9.9943996237
  0
LINE
  5
36E
100
AcDbEntity
  8
03__ASM_ALL_CURVES
100
AcDbLine
 62
4
  6
CONTINUOUS
 10
9.8731872635
 20
9.9943996237
 11
9.857764513
 21
9.9943996237
  0
LINE
  5
36F
100
AcDbEntity
  8
03__ASM_ALL_CURVES
100
AcDbLine
 62
4
  6
CONTINUOUS
 10
8.6861872635
 20
9.9943996237
 11
8.670764513
 21
9.9943996237
  0
LINE
  5
370
100
AcDbEntity
  8
03__ASM_ALL_CURVES
100
AcDbLine
 62
4
  6
CONTINUOUS
 10
14.8310599289
 20
10.0676576862
 11
14.7899325944
 21
10.0676576862
  0
LINE
  5
371
100
AcDbEntity
  8
03__ASM_ALL_CURVES
100
AcDbLine
 62
4
  6
CONTINUOUS
 10
9.8320599289
 20
10.0676576862
 11
9.7909325944
 21
10.0676576862
  0
LINE
  5
372
100
AcDbEntity
  8
03__ASM_ALL_CURVES
100
AcDbLine
 62
4
  6
CONTINUOUS
 10
14.2498052635
 20
10.0985031862
 11
14.3731872635
 21
10.0985031862
  0
LINE
  5
373
100
AcDbEntity
  8
03__ASM_ALL_CURVES
100
AcDbLine
 62
4
  6
CONTINUOUS
 10
8.6861872635
 20
10.1216373112
 11
8.5628052635
 21
10.1216373112
  0
LINE
  5
374
100
AcDbEntity
  8
03__ASM_ALL_CURVES
100
AcDbLine
 62
4
  6
CONTINUOUS
 10
14.8413417635
 20
10.1833283112
 11
14.8310599289
 21
10.1833283112
  0
LINE
  5
375
100
AcDbEntity
  8
03__ASM_ALL_CURVES
100
AcDbLine
 62
4
  6
CONTINUOUS
 10
14.3423417635
 20
10.1833283112
 11
14.3320599289
 21
10.1833283112
  0
LINE
  5
376
100
AcDbEntity
  8
03__ASM_ALL_CURVES
100
AcDbLine
 62
4
  6
CONTINUOUS
 10
9.8423417635
 20
10.1833283112
 11
9.8320599289
 21
10.1833283112
  0
LINE
  5
377
100
AcDbEntity
  8
03__ASM_ALL_CURVES
100
AcDbLine
 62
4
  6
CONTINUOUS
 10
14.7796507635
 20
10.1910396862
 11
14.7693689326
 21
10.1910396862
  0
LINE
  5
378
100
AcDbEntity
  8
03__ASM_ALL_CURVES
100
AcDbLine
 62
4
  6
CONTINUOUS
 10
14.2806507635
 20
10.1910396862
 11
14.2703689326
 21
10.1910396862
  0
LINE
  5
379
100
AcDbEntity
  8
03__ASM_ALL_CURVES
100
AcDbLine
 62
4
  6
CONTINUOUS
 10
9.7806507635
 20
10.1910396862
 11
9.7703689326
 21
10.1910396862
  0
LINE
  5
37A
100
AcDbEntity
  8
03__ASM_ALL_CURVES
100
AcDbLine
 62
4
  6
CONTINUOUS
 10
8.6039325944
 20
10.2527306862
 11
8.6450599289
 21
10.2527306862
  0
LINE
  5
37B
100
AcDbEntity
  8
03__ASM_ALL_CURVES
100
AcDbLine
 62
4
  6
CONTINUOUS
 10
9.7703689326
 20
10.2527306862
 11
9.7806507635
 21
10.2527306862
  0
LINE
  5
37C
100
AcDbEntity
  8
03__ASM_ALL_CURVES
100
AcDbLine
 62
4
  6
CONTINUOUS
 10
14.2703689326
 20
10.2527306862
 11
14.2806507635
 21
10.2527306862
  0
LINE
  5
37D
100
AcDbEntity
  8
03__ASM_ALL_CURVES
100
AcDbLine
 62
4
  6
CONTINUOUS
 10
14.7693689326
 20
10.2527306862
 11
14.7796507635
 21
10.2527306862
  0
LINE
  5
37E
100
AcDbEntity
  8
03__ASM_ALL_CURVES
100
AcDbLine
 62
4
  6
CONTINUOUS
 10
9.8320599289
 20
10.2604420612
 11
9.8423417635
 21
10.2604420612
  0
LINE
  5
37F
100
AcDbEntity
  8
03__ASM_ALL_CURVES
100
AcDbLine
 62
4
  6
CONTINUOUS
 10
14.3320599289
 20
10.2604420612
 11
14.3423417635
 21
10.2604420612
  0
LINE
  5
380
100
AcDbEntity
  8
03__ASM_ALL_CURVES
100
AcDbLine
 62
4
  6
CONTINUOUS
 10
14.8310599289
 20
10.2604420612
 11
14.8413417635
 21
10.2604420612
  0
LINE
  5
381
100
AcDbEntity
  8
03__ASM_ALL_CURVES
100
AcDbLine
 62
4
  6
CONTINUOUS
 10
8.5833689326
 20
10.4609378112
 11
8.6142144326
 21
10.4532264362
  0
LINE
  5
382
100
AcDbEntity
  8
03__ASM_ALL_CURVES
100
AcDbLine
 62
4
  6
CONTINUOUS
 10
8.6553417635
 20
10.6922790612
 11
8.6861872635
 21
10.6845676862
  0
LINE
  5
383
100
AcDbEntity
  8
03__ASM_ALL_CURVES
100
AcDbLine
 62
4
  6
CONTINUOUS
 10
9.7703689326
 20
10.4609378112
 11
9.8012144326
 21
10.4532264362
  0
LINE
  5
384
100
AcDbEntity
  8
03__ASM_ALL_CURVES
100
AcDbLine
 62
4
  6
CONTINUOUS
 10
8.5628052635
 20
11.1086933112
 11
8.6553417635
 21
11.0547136862
  0
LINE
  5
385
100
AcDbEntity
  8
03__ASM_ALL_CURVES
100
AcDbLine
 62
4
  6
CONTINUOUS
 10
9.7703689326
 20
10.9313316862
 11
9.7600870944
 21
10.9390430612
  0
LINE
  5
386
100
AcDbEntity
  8
03__ASM_ALL_CURVES
100
AcDbLine
 62
4
  6
CONTINUOUS
 10
9.7498052635
 20
11.6947578112
 11
9.7600870944
 21
11.6793350612
  0
LINE
  5
387
100
AcDbEntity
  8
03__ASM_ALL_CURVES
100
AcDbLine
 62
4
  6
CONTINUOUS
 10
9.8629054298
 20
11.7256033112
 11
9.8731872635
 21
11.7101805612
  0
LINE
  5
388
100
AcDbEntity
  8
03__ASM_ALL_CURVES
100
AcDbLine
 62
4
  6
CONTINUOUS
 10
13.5720870944
 20
11.6022213112
 11
13.5618052635
 21
11.5867985612
  0
LINE
  5
389
100
AcDbEntity
  8
03__ASM_ALL_CURVES
100
AcDbLine
 62
4
  6
CONTINUOUS
 10
13.6029325944
 20
11.5559530612
 11
13.633778098
 21
11.6022213112
  0
LINE
  5
38A
100
AcDbEntity
  8
03__ASM_ALL_CURVES
100
AcDbLine
 62
4
  6
CONTINUOUS
 10
13.6646235962
 20
10.3375558112
 11
13.6851872635
 21
10.3529785612
  0
LINE
  5
38B
100
AcDbEntity
  8
03__ASM_ALL_CURVES
100
AcDbLine
 62
4
  6
CONTINUOUS
 10
14.2600870944
 20
10.7385473112
 11
14.2703689326
 21
10.7462586862
  0
LINE
  5
38C
100
AcDbEntity
  8
03__ASM_ALL_CURVES
100
AcDbLine
 62
4
  6
CONTINUOUS
 10
14.7590870944
 20
11.1086933112
 11
14.7693689326
 21
11.1164046862
  0
LINE
  5
38D
100
AcDbEntity
  8
03__ASM_ALL_CURVES
100
AcDbLine
 62
4
  6
CONTINUOUS
 10
14.3114962635
 20
10.7385473112
 11
14.3320599289
 21
10.7539700612
  0
LINE
  5
38E
100
AcDbEntity
  8
03__ASM_ALL_CURVES
100
AcDbLine
 62
4
  6
CONTINUOUS
 10
14.3629054298
 20
10.6922790612
 11
14.3526235962
 21
10.6845676862
  0
LINE
  5
38F
100
AcDbEntity
  8
03__ASM_ALL_CURVES
100
AcDbLine
 62
4
  6
CONTINUOUS
 10
13.6132144326
 20
10.1216373112
 11
13.6234962635
 21
10.1293486862
  0
LINE
  5
390
100
AcDbEntity
  8
03__ASM_ALL_CURVES
100
AcDbLine
 62
4
  6
CONTINUOUS
 10
14.856764513
 20
10.9814556237
 11
14.8721872635
 21
10.9930226862
  0
LINE
  5
391
100
AcDbEntity
  8
03__ASM_ALL_CURVES
100
AcDbLine
 62
4
  6
CONTINUOUS
 10
13.6749054298
 20
10.0753690612
 11
13.6646235962
 21
10.0676576862
  0
LINE
  5
392
100
AcDbEntity
  8
03__ASM_ALL_CURVES
100
AcDbLine
 62
4
  6
CONTINUOUS
 10
13.669764513
 20
9.9943996237
 11
13.6851872635
 21
10.0059666862
  0
LINE
  5
393
100
AcDbEntity
  8
03__ASM_ALL_CURVES
100
AcDbLine
 62
4
  6
CONTINUOUS
 10
14.3526235962
 20
10.4609378112
 11
14.3731872635
 21
10.4763605612
  0
LINE
  5
394
100
AcDbEntity
  8
03__ASM_ALL_CURVES
100
AcDbLine
 62
4
  6
CONTINUOUS
 10
14.2703689326
 20
11.3400345612
 11
14.3012144326
 21
11.3477459362
  0
LINE
  5
395
100
AcDbEntity
  8
03__ASM_ALL_CURVES
100
AcDbLine
 62
4
  6
CONTINUOUS
 10
13.633778098
 20
11.3169004362
 11
13.6646235962
 21
11.3246118112
  0
LINE
  5
396
100
AcDbEntity
  8
03__ASM_ALL_CURVES
100
AcDbLine
 62
4
  6
CONTINUOUS
 10
9.821778098
 20
10.4532264362
 11
9.8526235962
 21
10.4609378112
  0
LINE
  5
397
100
AcDbEntity
  8
03__ASM_ALL_CURVES
100
AcDbLine
 62
4
  6
CONTINUOUS
 10
13.6132144326
 20
10.3298444362
 11
13.633778098
 21
10.3298444362
  0
LINE
  5
398
100
AcDbEntity
  8
03__ASM_ALL_CURVES
100
AcDbLine
 62
4
  6
CONTINUOUS
 10
8.6142144326
 20
10.4532264362
 11
8.634778098
 21
10.4532264362
  0
LINE
  5
399
100
AcDbEntity
  8
03__ASM_ALL_CURVES
100
AcDbLine
 62
4
  6
CONTINUOUS
 10
9.8012144326
 20
10.4532264362
 11
9.821778098
 21
10.4532264362
  0
LINE
  5
39A
100
AcDbEntity
  8
03__ASM_ALL_CURVES
100
AcDbLine
 62
4
  6
CONTINUOUS
 10
14.3012144326
 20
10.4532264362
 11
14.321778098
 21
10.4532264362
  0
LINE
  5
39B
100
AcDbEntity
  8
03__ASM_ALL_CURVES
100
AcDbLine
 62
4
  6
CONTINUOUS
 10
14.8002144326
 20
10.4532264362
 11
14.820778098
 21
10.4532264362
  0
LINE
  5
39C
100
AcDbEntity
  8
03__ASM_ALL_CURVES
100
AcDbLine
 62
4
  6
CONTINUOUS
 10
13.5618052635
 20
10.4686491862
 11
13.6851872635
 21
10.4686491862
  0
LINE
  5
39D
100
AcDbEntity
  8
03__ASM_ALL_CURVES
100
AcDbLine
 62
4
  6
CONTINUOUS
 10
8.5628052635
 20
10.5920311862
 11
8.6861872635
 21
10.5920311862
  0
LINE
  5
39E
100
AcDbEntity
  8
03__ASM_ALL_CURVES
100
AcDbLine
 62
4
  6
CONTINUOUS
 10
9.7498052635
 20
10.5920311862
 11
9.8731872635
 21
10.5920311862
  0
LINE
  5
39F
100
AcDbEntity
  8
03__ASM_ALL_CURVES
100
AcDbLine
 62
4
  6
CONTINUOUS
 10
13.5618052635
 20
10.5920311862
 11
13.6851872635
 21
10.5920311862
  0
LINE
  5
3A0
100
AcDbEntity
  8
03__ASM_ALL_CURVES
100
AcDbLine
 62
4
  6
CONTINUOUS
 10
14.2498052635
 20
10.5920311862
 11
14.3731872635
 21
10.5920311862
  0
LINE
  5
3A1
100
AcDbEntity
  8
03__ASM_ALL_CURVES
100
AcDbLine
 62
4
  6
CONTINUOUS
 10
14.7488052635
 20
10.5920311862
 11
14.8721872635
 21
10.5920311862
  0
LINE
  5
3A2
100
AcDbEntity
  8
03__ASM_ALL_CURVES
100
AcDbLine
 62
4
  6
CONTINUOUS
 10
14.2498052635
 20
9.8363164362
 11
14.3012144326
 21
9.8286050612
  0
LINE
  5
3A3
100
AcDbEntity
  8
03__ASM_ALL_CURVES
100
AcDbLine
 62
4
  6
CONTINUOUS
 10
14.7488052635
 20
9.8363164362
 11
14.8002144326
 21
9.8286050612
  0
LINE
  5
3A4
100
AcDbEntity
  8
03__ASM_ALL_CURVES
100
AcDbLine
 62
4
  6
CONTINUOUS
 10
13.5618052635
 20
10.0830804362
 11
13.6132144326
 21
10.0753690612
  0
LINE
  5
3A5
100
AcDbEntity
  8
03__ASM_ALL_CURVES
100
AcDbLine
 62
4
  6
CONTINUOUS
 10
9.8731872635
 20
10.7154131862
 11
9.821778098
 21
10.7231245612
  0
LINE
  5
3A6
100
AcDbEntity
  8
03__ASM_ALL_CURVES
100
AcDbLine
 62
4
  6
CONTINUOUS
 10
9.821778098
 20
10.7231245612
 11
9.7909325944
 21
10.7308359362
  0
LINE
  5
3A7
100
AcDbEntity
  8
03__ASM_ALL_CURVES
100
AcDbLine
 62
4
  6
CONTINUOUS
 10
9.7909325944
 20
10.7308359362
 11
9.7498052635
 21
10.7462586862
  0
LINE
  5
3A8
100
AcDbEntity
  8
03__ASM_ALL_CURVES
100
AcDbLine
 62
4
  6
CONTINUOUS
 10
9.821778098
 20
10.9544658112
 11
9.8423417635
 21
10.9390430612
  0
LINE
  5
3A9
100
AcDbEntity
  8
03__ASM_ALL_CURVES
100
AcDbLine
 62
4
  6
CONTINUOUS
 10
9.7909325944
 20
10.9930226862
 11
9.8012144326
 21
10.9853113112
  0
LINE
  5
3AA
100
AcDbEntity
  8
03__ASM_ALL_CURVES
100
AcDbLine
 62
4
  6
CONTINUOUS
 10
9.8526235962
 20
11.2166525612
 11
9.8731872635
 21
11.2012298112
  0
LINE
  5
3AB
100
AcDbEntity
  8
03__ASM_ALL_CURVES
100
AcDbLine
 62
4
  6
CONTINUOUS
 10
13.6851872635
 20
11.5713758112
 11
13.6749054298
 21
11.5559530612
  0
LINE
  5
3AC
100
AcDbEntity
  8
03__ASM_ALL_CURVES
100
AcDbLine
 62
4
  6
CONTINUOUS
 10
13.5618052635
 20
10.9698885612
 11
13.5720870944
 21
10.9853113112
  0
LINE
  5
3AD
100
AcDbEntity
  8
03__ASM_ALL_CURVES
100
AcDbLine
 62
4
  6
CONTINUOUS
 10
13.6132144326
 20
10.9698885612
 11
13.6234962635
 21
10.9853113112
  0
LINE
  5
3AE
100
AcDbEntity
  8
03__ASM_ALL_CURVES
100
AcDbLine
 62
4
  6
CONTINUOUS
 10
14.2600870944
 20
10.2450193112
 11
14.2703689326
 21
10.2527306862
  0
LINE
  5
3AF
100
AcDbEntity
  8
03__ASM_ALL_CURVES
100
AcDbLine
 62
4
  6
CONTINUOUS
 10
14.3114962635
 20
10.2450193112
 11
14.3320599289
 21
10.2604420612
  0
LINE
  5
3B0
100
AcDbEntity
  8
03__ASM_ALL_CURVES
100
AcDbLine
 62
4
  6
CONTINUOUS
 10
14.2909325944
 20
10.1987510612
 11
14.2806507635
 21
10.1910396862
  0
LINE
  5
3B1
100
AcDbEntity
  8
03__ASM_ALL_CURVES
100
AcDbLine
 62
4
  6
CONTINUOUS
 10
14.3629054298
 20
10.1987510612
 11
14.3423417635
 21
10.1833283112
  0
LINE
  5
3B2
100
AcDbEntity
  8
03__ASM_ALL_CURVES
100
AcDbLine
 62
4
  6
CONTINUOUS
 10
14.8516235962
 20
10.4609378112
 11
14.8721872635
 21
10.4763605612
  0
LINE
  5
3B3
100
AcDbEntity
  8
03__ASM_ALL_CURVES
100
AcDbLine
 62
4
  6
CONTINUOUS
 10
14.357764513
 20
9.9943996237
 11
14.3731872635
 21
10.0059666862
  0
LINE
  5
3B4
100
AcDbEntity
  8
03__ASM_ALL_CURVES
100
AcDbLine
 62
4
  6
CONTINUOUS
 10
8.634778098
 20
10.4532264362
 11
8.6656235962
 21
10.4609378112
  0
LINE
  5
3B5
100
AcDbEntity
  8
03__ASM_ALL_CURVES
100
AcDbLine
 62
4
  6
CONTINUOUS
 10
13.5823689326
 20
11.7101805612
 11
13.6132144326
 21
11.7178919362
  0
LINE
  5
3B6
100
AcDbEntity
  8
03__ASM_ALL_CURVES
100
AcDbLine
 62
4
  6
CONTINUOUS
 10
14.8721872635
 20
10.7385473112
 11
14.7488052635
 21
10.7385473112
  0
LINE
  5
3B7
100
AcDbEntity
  8
03__ASM_ALL_CURVES
100
AcDbLine
 62
4
  6
CONTINUOUS
 10
13.6851872635
 20
10.7385473112
 11
13.5618052635
 21
10.7385473112
  0
LINE
  5
3B8
100
AcDbEntity
  8
03__ASM_ALL_CURVES
100
AcDbLine
 62
4
  6
CONTINUOUS
 10
8.5833689326
 20
10.7462586862
 11
8.6039325944
 21
10.7462586862
  0
LINE
  5
3B9
100
AcDbEntity
  8
03__ASM_ALL_CURVES
100
AcDbLine
 62
4
  6
CONTINUOUS
 10
14.2703689326
 20
10.7462586862
 11
14.2806507635
 21
10.7462586862
  0
LINE
  5
3BA
100
AcDbEntity
  8
03__ASM_ALL_CURVES
100
AcDbLine
 62
4
  6
CONTINUOUS
 10
14.3320599289
 20
10.7539700612
 11
14.3423417635
 21
10.7539700612
  0
LINE
  5
3BB
100
AcDbEntity
  8
03__ASM_ALL_CURVES
100
AcDbLine
 62
4
  6
CONTINUOUS
 10
14.2498052635
 20
10.8387951862
 11
14.3731872635
 21
10.8387951862
  0
LINE
  5
3BC
100
AcDbEntity
  8
03__ASM_ALL_CURVES
100
AcDbLine
 62
4
  6
CONTINUOUS
 10
13.6851872635
 20
10.8580736237
 11
13.669764513
 21
10.8580736237
  0
LINE
  5
3BD
100
AcDbEntity
  8
03__ASM_ALL_CURVES
100
AcDbLine
 62
4
  6
CONTINUOUS
 10
9.8731872635
 20
10.8580736237
 11
9.857764513
 21
10.8580736237
  0
LINE
  5
3BE
100
AcDbEntity
  8
03__ASM_ALL_CURVES
100
AcDbLine
 62
4
  6
CONTINUOUS
 10
8.6861872635
 20
10.8580736237
 11
8.670764513
 21
10.8580736237
  0
LINE
  5
3BF
100
AcDbEntity
  8
03__ASM_ALL_CURVES
100
AcDbLine
 62
4
  6
CONTINUOUS
 10
14.8721872635
 20
10.8619293112
 11
14.7488052635
 21
10.8619293112
  0
LINE
  5
3C0
100
AcDbEntity
  8
03__ASM_ALL_CURVES
100
AcDbLine
 62
4
  6
CONTINUOUS
 10
14.8721872635
 20
10.9814556237
 11
14.856764513
 21
10.9814556237
  0
LINE
  5
3C1
100
AcDbEntity
  8
03__ASM_ALL_CURVES
100
AcDbLine
 62
4
  6
CONTINUOUS
 10
14.3731872635
 20
10.9814556237
 11
14.357764513
 21
10.9814556237
  0
LINE
  5
3C2
100
AcDbEntity
  8
03__ASM_ALL_CURVES
100
AcDbLine
 62
4
  6
CONTINUOUS
 10
8.6861872635
 20
10.9853113112
 11
8.5628052635
 21
10.9853113112
  0
LINE
  5
3C3
100
AcDbEntity
  8
03__ASM_ALL_CURVES
100
AcDbLine
 62
4
  6
CONTINUOUS
 10
9.7703689326
 20
10.9930226862
 11
9.7909325944
 21
10.9930226862
  0
LINE
  5
3C4
100
AcDbEntity
  8
03__ASM_ALL_CURVES
100
AcDbLine
 62
4
  6
CONTINUOUS
 10
13.5823689326
 20
10.9930226862
 11
13.5926507635
 21
10.9930226862
  0
LINE
  5
3C5
100
AcDbEntity
  8
03__ASM_ALL_CURVES
100
AcDbLine
 62
4
  6
CONTINUOUS
 10
13.6440599289
 20
11.0007340612
 11
13.6543417635
 21
11.0007340612
  0
LINE
  5
3C6
100
AcDbEntity
  8
03__ASM_ALL_CURVES
100
AcDbLine
 62
4
  6
CONTINUOUS
 10
9.8731872635
 20
11.0855591862
 11
9.821778098
 21
11.0932705612
  0
LINE
  5
3C7
100
AcDbEntity
  8
03__ASM_ALL_CURVES
100
AcDbLine
 62
4
  6
CONTINUOUS
 10
8.634778098
 20
11.2243639362
 11
8.6656235962
 21
11.2166525612
  0
LINE
  5
3C8
100
AcDbEntity
  8
03__ASM_ALL_CURVES
100
AcDbLine
 62
4
  6
CONTINUOUS
 10
9.8423417635
 20
10.9390430612
 11
9.8731872635
 21
10.9313316862
  0
LINE
  5
3C9
100
AcDbEntity
  8
03__ASM_ALL_CURVES
100
AcDbLine
 62
4
  6
CONTINUOUS
 10
9.821778098
 20
11.0932705612
 11
9.7909325944
 21
11.1009819362
  0
LINE
  5
3CA
100
AcDbEntity
  8
03__ASM_ALL_CURVES
100
AcDbLine
 62
4
  6
CONTINUOUS
 10
9.7909325944
 20
11.1009819362
 11
9.7498052635
 21
11.1164046862
  0
LINE
  5
3CB
100
AcDbEntity
  8
03__ASM_ALL_CURVES
100
AcDbLine
 62
4
  6
CONTINUOUS
 10
9.7498052635
 20
11.4634165612
 11
9.7703689326
 21
11.4479938112
  0
LINE
  5
3CC
100
AcDbEntity
  8
03__ASM_ALL_CURVES
100
AcDbLine
 62
4
  6
CONTINUOUS
 10
9.7600870944
 20
11.6793350612
 11
9.7703689326
 21
11.6716236862
  0
LINE
  5
3CD
100
AcDbEntity
  8
03__ASM_ALL_CURVES
100
AcDbLine
 62
4
  6
CONTINUOUS
 10
9.8526235962
 20
11.7333146862
 11
9.8629054298
 21
11.7256033112
  0
LINE
  5
3CE
100
AcDbEntity
  8
03__ASM_ALL_CURVES
100
AcDbLine
 62
4
  6
CONTINUOUS
 10
13.6851872635
 20
10.9544658112
 11
13.6749054298
 21
10.9390430612
  0
LINE
  5
3CF
100
AcDbEntity
  8
03__ASM_ALL_CURVES
100
AcDbLine
 62
4
  6
CONTINUOUS
 10
14.7590870944
 20
10.2450193112
 11
14.7693689326
 21
10.2527306862
  0
LINE
  5
3D0
100
AcDbEntity
  8
03__ASM_ALL_CURVES
100
AcDbLine
 62
4
  6
CONTINUOUS
 10
14.3012144326
 20
9.8748733112
 11
14.3114962635
 21
9.8825846862
  0
LINE
  5
3D1
100
AcDbEntity
  8
03__ASM_ALL_CURVES
100
AcDbLine
 62
4
  6
CONTINUOUS
 10
14.8104962635
 20
10.2450193112
 11
14.8310599289
 21
10.2604420612
  0
LINE
  5
3D2
100
AcDbEntity
  8
03__ASM_ALL_CURVES
100
AcDbLine
 62
4
  6
CONTINUOUS
 10
14.7899325944
 20
10.1987510612
 11
14.7796507635
 21
10.1910396862
  0
LINE
  5
3D3
100
AcDbEntity
  8
03__ASM_ALL_CURVES
100
AcDbLine
 62
4
  6
CONTINUOUS
 10
14.3629054298
 20
9.8286050612
 11
14.3526235962
 21
9.8208936862
  0
LINE
  5
3D4
100
AcDbEntity
  8
03__ASM_ALL_CURVES
100
AcDbLine
 62
4
  6
CONTINUOUS
 10
14.8619054298
 20
10.1987510612
 11
14.8413417635
 21
10.1833283112
  0
LINE
  5
3D5
100
AcDbEntity
  8
03__ASM_ALL_CURVES
100
AcDbLine
 62
4
  6
CONTINUOUS
 10
14.7590870944
 20
10.1139259362
 11
14.7693689326
 21
10.1216373112
  0
LINE
  5
3D6
100
AcDbEntity
  8
03__ASM_ALL_CURVES
100
AcDbLine
 62
4
  6
CONTINUOUS
 10
14.8619054298
 20
10.0830804362
 11
14.8516235962
 21
10.0753690612
  0
LINE
  5
3D7
100
AcDbEntity
  8
03__ASM_ALL_CURVES
100
AcDbLine
 62
4
  6
CONTINUOUS
 10
14.856764513
 20
9.9943996237
 11
14.8721872635
 21
10.0059666862
  0
LINE
  5
3D8
100
AcDbEntity
  8
03__ASM_ALL_CURVES
100
AcDbLine
 62
4
  6
CONTINUOUS
 10
14.8002144326
 20
9.8748733112
 11
14.8104962635
 21
9.8825846862
  0
LINE
  5
3D9
100
AcDbEntity
  8
03__ASM_ALL_CURVES
100
AcDbLine
 62
4
  6
CONTINUOUS
 10
9.7703689326
 20
11.2166525612
 11
9.8012144326
 21
11.2243639362
  0
LINE
  5
3DA
100
AcDbEntity
  8
03__ASM_ALL_CURVES
100
AcDbLine
 62
4
  6
CONTINUOUS
 10
13.6132144326
 20
11.1009819362
 11
13.633778098
 21
11.1009819362
  0
LINE
  5
3DB
100
AcDbEntity
  8
03__ASM_ALL_CURVES
100
AcDbLine
 62
4
  6
CONTINUOUS
 10
8.6861872635
 20
11.1086933112
 11
8.5628052635
 21
11.1086933112
  0
LINE
  5
3DC
100
AcDbEntity
  8
03__ASM_ALL_CURVES
100
AcDbLine
 62
4
  6
CONTINUOUS
 10
14.7693689326
 20
11.1164046862
 11
14.7899325944
 21
11.1164046862
  0
LINE
  5
3DD
100
AcDbEntity
  8
03__ASM_ALL_CURVES
100
AcDbLine
 62
4
  6
CONTINUOUS
 10
8.6142144326
 20
11.2243639362
 11
8.634778098
 21
11.2243639362
  0
LINE
  5
3DE
100
AcDbEntity
  8
03__ASM_ALL_CURVES
100
AcDbLine
 62
4
  6
CONTINUOUS
 10
9.8012144326
 20
11.2243639362
 11
9.821778098
 21
11.2243639362
  0
LINE
  5
3DF
100
AcDbEntity
  8
03__ASM_ALL_CURVES
100
AcDbLine
 62
4
  6
CONTINUOUS
 10
13.6132144326
 20
11.3169004362
 11
13.633778098
 21
11.3169004362
  0
LINE
  5
3E0
100
AcDbEntity
  8
03__ASM_ALL_CURVES
100
AcDbLine
 62
4
  6
CONTINUOUS
 10
14.3012144326
 20
11.3477459362
 11
14.321778098
 21
11.3477459362
  0
LINE
  5
3E1
100
AcDbEntity
  8
03__ASM_ALL_CURVES
100
AcDbLine
 62
4
  6
CONTINUOUS
 10
14.8002144326
 20
11.3477459362
 11
14.820778098
 21
11.3477459362
  0
LINE
  5
3E2
100
AcDbEntity
  8
03__ASM_ALL_CURVES
100
AcDbLine
 62
4
  6
CONTINUOUS
 10
9.821778098
 20
11.2243639362
 11
9.8526235962
 21
11.2166525612
  0
LINE
  5
3E3
100
AcDbEntity
  8
03__ASM_ALL_CURVES
100
AcDbLine
 62
4
  6
CONTINUOUS
 10
13.5823689326
 20
10.3375558112
 11
13.6132144326
 21
10.3298444362
  0
LINE
  5
3E4
100
AcDbEntity
  8
03__ASM_ALL_CURVES
100
AcDbLine
 62
4
  6
CONTINUOUS
 10
9.7703689326
 20
11.4479938112
 11
9.8012144326
 21
11.4402824362
  0
LINE
  5
3E5
100
AcDbEntity
  8
03__ASM_ALL_CURVES
100
AcDbLine
 62
4
  6
CONTINUOUS
 10
13.6440599289
 20
10.1370600612
 11
13.6646235962
 21
10.1293486862
  0
LINE
  5
3E6
100
AcDbEntity
  8
03__ASM_ALL_CURVES
100
AcDbLine
 62
4
  6
CONTINUOUS
 10
14.3320599289
 20
9.8902960612
 11
14.3526235962
 21
9.8825846862
  0
LINE
  5
3E7
100
AcDbEntity
  8
03__ASM_ALL_CURVES
100
AcDbLine
 62
4
  6
CONTINUOUS
 10
9.8526235962
 20
11.8335625612
 11
9.8731872635
 21
11.8181398112
  0
LINE
  5
3E8
100
AcDbEntity
  8
0
100
AcDbLine
 62
7
  6
CONTINUOUS
 10
14.3424964657
 20
7.8402561862
 11
14.3515396804
 21
7.8312129715
  0
LINE
  5
3E9
100
AcDbEntity
  8
03__ASM_ALL_CURVES
100
AcDbLine
 62
4
  6
CONTINUOUS
 10
13.6029325944
 20
10.1062145612
 11
13.6132144326
 21
10.1216373112
  0
LINE
  5
3EA
100
AcDbEntity
  8
03__ASM_ALL_CURVES
100
AcDbLine
 62
4
  6
CONTINUOUS
 10
14.2909325944
 20
11.0932705612
 11
14.3012144326
 21
11.1086933112
  0
LINE
  5
3EB
100
AcDbEntity
  8
03__ASM_ALL_CURVES
100
AcDbLine
 62
4
  6
CONTINUOUS
 10
13.6851872635
 20
10.0907918112
 11
13.6749054298
 21
10.0753690612
  0
LINE
  5
3EC
100
AcDbEntity
  8
03__ASM_ALL_CURVES
100
AcDbLine
 62
4
  6
CONTINUOUS
 10
14.3731872635
 20
11.0778478112
 11
14.3629054298
 21
11.0624250612
  0
LINE
  5
3ED
100
AcDbEntity
  8
03__ASM_ALL_CURVES
100
AcDbLine
 62
4
  6
CONTINUOUS
 10
14.2498052635
 20
10.7231245612
 11
14.2600870944
 21
10.7385473112
  0
LINE
  5
3EE
100
AcDbEntity
  8
03__ASM_ALL_CURVES
100
AcDbLine
 62
4
  6
CONTINUOUS
 10
14.3012144326
 20
10.7231245612
 11
14.3114962635
 21
10.7385473112
  0
LINE
  5
3EF
100
AcDbEntity
  8
03__ASM_ALL_CURVES
100
AcDbLine
 62
4
  6
CONTINUOUS
 10
14.8619054298
 20
9.8286050612
 11
14.8516235962
 21
9.8208936862
  0
LINE
  5
3F0
100
AcDbEntity
  8
03__ASM_ALL_CURVES
100
AcDbLine
 62
4
  6
CONTINUOUS
 10
9.821778098
 20
11.4402824362
 11
9.8526235962
 21
11.4479938112
  0
LINE
  5
3F1
100
AcDbEntity
  8
03__ASM_ALL_CURVES
100
AcDbLine
 62
4
  6
CONTINUOUS
 10
8.5833689326
 20
11.2166525612
 11
8.6142144326
 21
11.2243639362
  0
LINE
  5
3F2
100
AcDbEntity
  8
03__ASM_ALL_CURVES
100
AcDbLine
 62
4
  6
CONTINUOUS
 10
13.5618052635
 20
11.4248596862
 11
13.6851872635
 21
11.4248596862
  0
LINE
  5
3F3
100
AcDbEntity
  8
03__ASM_ALL_CURVES
100
AcDbLine
 62
4
  6
CONTINUOUS
 10
9.8012144326
 20
11.4402824362
 11
9.821778098
 21
11.4402824362
  0
LINE
  5
3F4
100
AcDbEntity
  8
03__ASM_ALL_CURVES
100
AcDbLine
 62
4
  6
CONTINUOUS
 10
9.7498052635
 20
11.5482416862
 11
9.8731872635
 21
11.5482416862
  0
LINE
  5
3F5
100
AcDbEntity
  8
03__ASM_ALL_CURVES
100
AcDbLine
 62
4
  6
CONTINUOUS
 10
13.5823689326
 20
11.5482416862
 11
13.5926507635
 21
11.5482416862
  0
LINE
  5
3F6
100
AcDbEntity
  8
03__ASM_ALL_CURVES
100
AcDbLine
 62
4
  6
CONTINUOUS
 10
13.6440599289
 20
11.6099326862
 11
13.6646235962
 21
11.6099326862
  0
LINE
  5
3F7
100
AcDbEntity
  8
03__ASM_ALL_CURVES
100
AcDbLine
 62
4
  6
CONTINUOUS
 10
9.7703689326
 20
11.6716236862
 11
9.7806507635
 21
11.6716236862
  0
LINE
  5
3F8
100
AcDbEntity
  8
03__ASM_ALL_CURVES
100
AcDbLine
 62
4
  6
CONTINUOUS
 10
14.2498052635
 20
11.0701364362
 11
14.3012144326
 21
11.0624250612
  0
LINE
  5
3F9
100
AcDbEntity
  8
03__ASM_ALL_CURVES
100
AcDbLine
 62
4
  6
CONTINUOUS
 10
14.2703689326
 20
10.4609378112
 11
14.3012144326
 21
10.4532264362
  0
LINE
  5
3FA
100
AcDbEntity
  8
03__ASM_ALL_CURVES
100
AcDbLine
 62
4
  6
CONTINUOUS
 10
14.7693689326
 20
10.4609378112
 11
14.8002144326
 21
10.4532264362
  0
LINE
  5
3FB
100
AcDbEntity
  8
03__ASM_ALL_CURVES
100
AcDbLine
 62
4
  6
CONTINUOUS
 10
9.821778098
 20
11.8412739362
 11
9.8526235962
 21
11.8335625612
  0
LINE
  5
3FC
100
AcDbEntity
  8
03__ASM_ALL_CURVES
100
AcDbLine
 62
4
  6
CONTINUOUS
 10
14.8310599289
 20
9.8902960612
 11
14.8516235962
 21
9.8825846862
  0
LINE
  5
3FD
100
AcDbEntity
  8
03__ASM_ALL_CURVES
100
AcDbLine
 62
4
  6
CONTINUOUS
 10
14.7899325944
 20
10.0676576862
 11
14.7693689326
 21
10.0753690612
  0
LINE
  5
3FE
100
AcDbEntity
  8
03__ASM_ALL_CURVES
100
AcDbLine
 62
4
  6
CONTINUOUS
 10
14.8310599289
 20
10.0676576862
 11
14.8104962635
 21
10.0753690612
  0
LINE
  5
3FF
100
AcDbEntity
  8
03__ASM_ALL_CURVES
100
AcDbLine
 62
4
  6
CONTINUOUS
 10
14.8310599289
 20
10.1293486862
 11
14.8516235962
 21
10.1216373112
  0
LINE
  5
400
100
AcDbEntity
  8
03__ASM_ALL_CURVES
100
AcDbLine
 62
4
  6
CONTINUOUS
 10
13.5618052635
 20
9.8748733112
 11
13.6543417635
 21
9.8208936862
  0
LINE
  5
401
100
AcDbEntity
  8
0
100
AcDbLine
 62
7
  6
CONTINUOUS
 10
12.8424964838
 20
6.6117562225
 11
12.8424964838
 21
9.0497561862
  0
LINE
  5
402
100
AcDbEntity
  8
03__ASM_ALL_CURVES
100
AcDbLine
 62
4
  6
CONTINUOUS
 10
14.3731872635
 20
10.7077018112
 11
14.3629054298
 21
10.6922790612
  0
LINE
  5
403
100
AcDbEntity
  8
03__ASM_ALL_CURVES
100
AcDbLine
 62
4
  6
CONTINUOUS
 10
14.7488052635
 20
11.0932705612
 11
14.7590870944
 21
11.1086933112
  0
LINE
  5
404
100
AcDbEntity
  8
03__ASM_ALL_CURVES
100
AcDbLine
 62
4
  6
CONTINUOUS
 10
14.2498052635
 20
10.2295965612
 11
14.2600870944
 21
10.2450193112
  0
LINE
  5
405
100
AcDbEntity
  8
03__ASM_ALL_CURVES
100
AcDbLine
 62
4
  6
CONTINUOUS
 10
14.3012144326
 20
10.2295965612
 11
14.3114962635
 21
10.2450193112
  0
LINE
  5
406
100
AcDbEntity
  8
03__ASM_ALL_CURVES
100
AcDbLine
 62
4
  6
CONTINUOUS
 10
14.3012144326
 20
10.2141738112
 11
14.2909325944
 21
10.1987510612
  0
LINE
  5
407
100
AcDbEntity
  8
03__ASM_ALL_CURVES
100
AcDbLine
 62
4
  6
CONTINUOUS
 10
14.3731872635
 20
10.2141738112
 11
14.3629054298
 21
10.1987510612
  0
LINE
  5
408
100
AcDbEntity
  8
03__ASM_ALL_CURVES
100
AcDbLine
 62
4
  6
CONTINUOUS
 10
9.7703689326
 20
11.8335625612
 11
9.8012144326
 21
11.8412739362
  0
LINE
  5
409
100
AcDbEntity
  8
03__ASM_ALL_CURVES
100
AcDbLine
 62
4
  6
CONTINUOUS
 10
13.6132144326
 20
11.7178919362
 11
13.633778098
 21
11.7178919362
  0
LINE
  5
40A
100
AcDbEntity
  8
03__ASM_ALL_CURVES
100
AcDbLine
 62
4
  6
CONTINUOUS
 10
9.8320599289
 20
11.7333146862
 11
9.8526235962
 21
11.7333146862
  0
LINE
  5
40B
100
AcDbEntity
  8
03__ASM_ALL_CURVES
100
AcDbLine
 62
4
  6
CONTINUOUS
 10
9.8012144326
 20
11.8412739362
 11
9.821778098
 21
11.8412739362
  0
LINE
  5
40C
100
AcDbEntity
  8
03__ASM_ALL_CURVES
100
AcDbLine
 62
4
  6
CONTINUOUS
 10
14.3731872635
 20
11.2089411862
 11
14.321778098
 21
11.2166525612
  0
LINE
  5
40D
100
AcDbEntity
  8
03__ASM_ALL_CURVES
100
AcDbLine
 62
4
  6
CONTINUOUS
 10
14.8721872635
 20
11.2089411862
 11
14.820778098
 21
11.2166525612
  0
LINE
  5
40E
100
AcDbEntity
  8
03__ASM_ALL_CURVES
100
AcDbLine
 62
4
  6
CONTINUOUS
 10
13.633778098
 20
11.1009819362
 11
13.6646235962
 21
11.0932705612
  0
LINE
  5
40F
100
AcDbEntity
  8
03__ASM_ALL_CURVES
100
AcDbLine
 62
4
  6
CONTINUOUS
 10
13.5823689326
 20
11.3246118112
 11
13.6132144326
 21
11.3169004362
  0
LINE
  5
410
100
AcDbEntity
  8
03__ASM_ALL_CURVES
100
AcDbLine
 62
4
  6
CONTINUOUS
 10
13.6646235962
 20
10.1293486862
 11
13.6749054298
 21
10.1216373112
  0
LINE
  5
411
100
AcDbEntity
  8
0
100
AcDbLine
 62
7
  6
CONTINUOUS
 10
14.3114964657
 20
9.0027562044
 11
14.2804964657
 21
9.0337562044
  0
LINE
  5
412
100
AcDbEntity
  8
03__ASM_ALL_CURVES
100
AcDbLine
 62
4
  6
CONTINUOUS
 10
14.2909325944
 20
9.8594505612
 11
14.3012144326
 21
9.8748733112
  0
LINE
  5
413
100
AcDbEntity
  8
03__ASM_ALL_CURVES
100
AcDbLine
 62
4
  6
CONTINUOUS
 10
14.3731872635
 20
9.8440278112
 11
14.3629054298
 21
9.8286050612
  0
LINE
  5
414
100
AcDbEntity
  8
03__ASM_ALL_CURVES
100
AcDbLine
 62
4
  6
CONTINUOUS
 10
14.7488052635
 20
10.2295965612
 11
14.7590870944
 21
10.2450193112
  0
LINE
  5
415
100
AcDbEntity
  8
03__ASM_ALL_CURVES
100
AcDbLine
 62
4
  6
CONTINUOUS
 10
14.8002144326
 20
10.2295965612
 11
14.8104962635
 21
10.2450193112
  0
LINE
  5
416
100
AcDbEntity
  8
03__ASM_ALL_CURVES
100
AcDbLine
 62
4
  6
CONTINUOUS
 10
14.8002144326
 20
10.2141738112
 11
14.7899325944
 21
10.1987510612
  0
LINE
  5
417
100
AcDbEntity
  8
03__ASM_ALL_CURVES
100
AcDbLine
 62
4
  6
CONTINUOUS
 10
14.7488052635
 20
10.0985031862
 11
14.7590870944
 21
10.1139259362
  0
LINE
  5
418
100
AcDbEntity
  8
0
100
AcDbLine
 62
7
  6
CONTINUOUS
 10
14.3424964657
 20
8.6972561862
 11
14.3515396804
 21
8.706299401
  0
LINE
  5
419
100
AcDbEntity
  8
03__ASM_ALL_CURVES
100
AcDbLine
 62
4
  6
CONTINUOUS
 10
14.8413417635
 20
11.0624250612
 11
14.8721872635
 21
11.0547136862
  0
LINE
  5
41A
100
AcDbEntity
  8
03__ASM_ALL_CURVES
100
AcDbLine
 62
4
  6
CONTINUOUS
 10
14.321778098
 20
11.2166525612
 11
14.2909325944
 21
11.2243639362
  0
LINE
  5
41B
100
AcDbEntity
  8
03__ASM_ALL_CURVES
100
AcDbLine
 62
4
  6
CONTINUOUS
 10
14.820778098
 20
11.2166525612
 11
14.7899325944
 21
11.2243639362
  0
LINE
  5
41C
100
AcDbEntity
  8
03__ASM_ALL_CURVES
100
AcDbLine
 62
4
  6
CONTINUOUS
 10
14.321778098
 20
11.3477459362
 11
14.3526235962
 21
11.3400345612
  0
LINE
  5
41D
100
AcDbEntity
  8
03__ASM_ALL_CURVES
100
AcDbLine
 62
4
  6
CONTINUOUS
 10
14.820778098
 20
11.3477459362
 11
14.8516235962
 21
11.3400345612
  0
LINE
  5
41E
100
AcDbEntity
  8
03__ASM_ALL_CURVES
100
AcDbLine
 62
4
  6
CONTINUOUS
 10
13.5618052635
 20
10.7385473112
 11
13.6543417635
 21
10.6845676862
  0
LINE
  5
41F
100
AcDbEntity
  8
03__ASM_ALL_CURVES
100
AcDbLine
 62
4
  6
CONTINUOUS
 10
13.5618052635
 20
10.3529785612
 11
13.5823689326
 21
10.3375558112
  0
LINE
  5
420
100
AcDbEntity
  8
03__ASM_ALL_CURVES
100
AcDbLine
 62
4
  6
CONTINUOUS
 10
14.3526235962
 20
9.8825846862
 11
14.3629054298
 21
9.8748733112
  0
LINE
  5
421
100
AcDbEntity
  8
03__ASM_ALL_CURVES
100
AcDbLine
 62
4
  6
CONTINUOUS
 10
14.2703689326
 20
10.1910396862
 11
14.2600870944
 21
10.1987510612
  0
LINE
  5
422
100
AcDbEntity
  8
03__ASM_ALL_CURVES
100
AcDbLine
 62
4
  6
CONTINUOUS
 10
14.3320599289
 20
10.1833283112
 11
14.3114962635
 21
10.1987510612
  0
LINE
  5
423
100
AcDbEntity
  8
03__ASM_ALL_CURVES
100
AcDbLine
 62
4
  6
CONTINUOUS
 10
13.5618052635
 20
11.5867985612
 11
13.5618052635
 21
11.5713758112
  0
LINE
  5
424
100
AcDbEntity
  8
03__ASM_ALL_CURVES
100
AcDbLine
 62
4
  6
CONTINUOUS
 10
13.5618052635
 20
10.1293486862
 11
13.5618052635
 21
10.0830804362
  0
LINE
  5
425
100
AcDbEntity
  8
03__ASM_ALL_CURVES
100
AcDbLine
 62
4
  6
CONTINUOUS
 10
13.5618052635
 20
10.9544658112
 11
13.5618052635
 21
10.9698885612
  0
LINE
  5
426
100
AcDbEntity
  8
03__ASM_ALL_CURVES
100
AcDbLine
 62
4
  6
CONTINUOUS
 10
13.6029325944
 20
10.0907918112
 11
13.6029325944
 21
10.1062145612
  0
LINE
  5
427
100
AcDbEntity
  8
03__ASM_ALL_CURVES
100
AcDbLine
 62
4
  6
CONTINUOUS
 10
13.6132144326
 20
10.9544658112
 11
13.6132144326
 21
10.9698885612
  0
LINE
  5
428
100
AcDbEntity
  8
03__ASM_ALL_CURVES
100
AcDbLine
 62
4
  6
CONTINUOUS
 10
13.6234962635
 20
9.1731381862
 11
13.6234962635
 21
9.5432841862
  0
LINE
  5
429
100
AcDbEntity
  8
03__ASM_ALL_CURVES
100
AcDbLine
 62
4
  6
CONTINUOUS
 10
13.6543417635
 20
9.8208936862
 11
13.6543417635
 21
9.8902960612
  0
LINE
  5
42A
100
AcDbEntity
  8
03__ASM_ALL_CURVES
100
AcDbLine
 62
4
  6
CONTINUOUS
 10
13.6543417635
 20
10.6845676862
 11
13.6543417635
 21
10.7539700612
  0
LINE
  5
42B
100
AcDbEntity
  8
03__ASM_ALL_CURVES
100
AcDbLine
 62
4
  6
CONTINUOUS
 10
13.6851872635
 20
11.5867985612
 11
13.6851872635
 21
11.5713758112
  0
LINE
  5
42C
100
AcDbEntity
  8
03__ASM_ALL_CURVES
100
AcDbLine
 62
4
  6
CONTINUOUS
 10
13.6851872635
 20
10.9698885612
 11
13.6851872635
 21
10.9544658112
  0
LINE
  5
42D
100
AcDbEntity
  8
03__ASM_ALL_CURVES
100
AcDbLine
 62
4
  6
CONTINUOUS
 10
13.6851872635
 20
10.8696406862
 11
13.6851872635
 21
10.8580736237
  0
LINE
  5
42E
100
AcDbEntity
  8
03__ASM_ALL_CURVES
100
AcDbLine
 62
4
  6
CONTINUOUS
 10
13.6851872635
 20
10.1062145612
 11
13.6851872635
 21
10.0907918112
  0
LINE
  5
42F
100
AcDbEntity
  8
03__ASM_ALL_CURVES
100
AcDbLine
 62
4
  6
CONTINUOUS
 10
13.6851872635
 20
10.0059666862
 11
13.6851872635
 21
9.9943996237
  0
LINE
  5
430
100
AcDbEntity
  8
03__ASM_ALL_CURVES
100
AcDbLine
 62
4
  6
CONTINUOUS
 10
13.6851872635
 20
11.4248596862
 11
13.6851872635
 21
11.4865506862
  0
LINE
  5
431
100
AcDbEntity
  8
03__ASM_ALL_CURVES
100
AcDbLine
 62
4
  6
CONTINUOUS
 10
14.8721872635
 20
10.2141738112
 11
14.8619054298
 21
10.1987510612
  0
LINE
  5
432
100
AcDbEntity
  8
03__ASM_ALL_CURVES
100
AcDbLine
 62
4
  6
CONTINUOUS
 10
14.8721872635
 20
10.0985031862
 11
14.8619054298
 21
10.0830804362
  0
LINE
  5
433
100
AcDbEntity
  8
03__ASM_ALL_CURVES
100
AcDbLine
 62
4
  6
CONTINUOUS
 10
14.7899325944
 20
9.8594505612
 11
14.8002144326
 21
9.8748733112
  0
LINE
  5
434
100
AcDbEntity
  8
03__ASM_ALL_CURVES
100
AcDbLine
 62
4
  6
CONTINUOUS
 10
14.8721872635
 20
9.8440278112
 11
14.8619054298
 21
9.8286050612
  0
LINE
  5
435
100
AcDbEntity
  8
03__ASM_ALL_CURVES
100
AcDbLine
 62
4
  6
CONTINUOUS
 10
13.633778098
 20
11.7178919362
 11
13.6646235962
 21
11.7101805612
  0
LINE
  5
436
100
AcDbEntity
  8
03__ASM_ALL_CURVES
100
AcDbLine
 62
4
  6
CONTINUOUS
 10
14.3320599289
 20
11.1241160612
 11
14.3526235962
 21
11.1164046862
  0
LINE
  5
437
100
AcDbEntity
  8
03__ASM_ALL_CURVES
100
AcDbLine
 62
4
  6
CONTINUOUS
 10
14.2909325944
 20
11.2243639362
 11
14.2498052635
 21
11.2397866862
  0
LINE
  5
438
100
AcDbEntity
  8
03__ASM_ALL_CURVES
100
AcDbLine
 62
4
  6
CONTINUOUS
 10
14.7899325944
 20
11.2243639362
 11
14.7488052635
 21
11.2397866862
  0
LINE
  5
439
100
AcDbEntity
  8
03__ASM_ALL_CURVES
100
AcDbLine
 62
4
  6
CONTINUOUS
 10
14.2806507635
 20
10.2527306862
 11
14.2909325944
 21
10.2450193112
  0
LINE
  5
43A
100
AcDbEntity
  8
03__ASM_ALL_CURVES
100
AcDbLine
 62
4
  6
CONTINUOUS
 10
14.3423417635
 20
10.2604420612
 11
14.3629054298
 21
10.2450193112
  0
LINE
  5
43B
100
AcDbEntity
  8
03__ASM_ALL_CURVES
100
AcDbLine
 62
4
  6
CONTINUOUS
 10
14.8516235962
 20
9.8825846862
 11
14.8619054298
 21
9.8748733112
  0
LINE
  5
43C
100
AcDbEntity
  8
03__ASM_ALL_CURVES
100
AcDbLine
 62
4
  6
CONTINUOUS
 10
14.7693689326
 20
10.0753690612
 11
14.7590870944
 21
10.0830804362
  0
LINE
  5
43D
100
AcDbEntity
  8
03__ASM_ALL_CURVES
100
AcDbLine
 62
4
  6
CONTINUOUS
 10
14.2498052635
 20
10.4763605612
 11
14.2703689326
 21
10.4609378112
  0
LINE
  5
43E
100
AcDbEntity
  8
03__ASM_ALL_CURVES
100
AcDbLine
 62
4
  6
CONTINUOUS
 10
13.5926507635
 20
10.9930226862
 11
13.6029325944
 21
10.9853113112
  0
LINE
  5
43F
100
AcDbEntity
  8
03__ASM_ALL_CURVES
100
AcDbLine
 62
4
  6
CONTINUOUS
 10
13.6543417635
 20
11.0007340612
 11
13.6749054298
 21
10.9853113112
  0
LINE
  5
440
100
AcDbEntity
  8
03__ASM_ALL_CURVES
100
AcDbLine
 62
4
  6
CONTINUOUS
 10
14.8516235962
 20
10.1216373112
 11
14.8619054298
 21
10.1139259362
  0
LINE
  5
441
100
AcDbEntity
  8
03__ASM_ALL_CURVES
100
AcDbLine
 62
4
  6
CONTINUOUS
 10
14.7693689326
 20
10.1910396862
 11
14.7590870944
 21
10.1987510612
  0
LINE
  5
442
100
AcDbEntity
  8
03__ASM_ALL_CURVES
100
AcDbLine
 62
4
  6
CONTINUOUS
 10
14.8310599289
 20
10.1833283112
 11
14.8104962635
 21
10.1987510612
  0
LINE
  5
443
100
AcDbEntity
  8
03__ASM_ALL_CURVES
100
AcDbLine
 62
4
  6
CONTINUOUS
 10
14.7796507635
 20
10.2527306862
 11
14.7899325944
 21
10.2450193112
  0
LINE
  5
444
100
AcDbEntity
  8
03__ASM_ALL_CURVES
100
AcDbLine
 62
4
  6
CONTINUOUS
 10
13.6646235962
 20
11.0932705612
 11
13.6851872635
 21
11.0778478112
  0
LINE
  5
445
100
AcDbEntity
  8
03__ASM_ALL_CURVES
100
AcDbLine
 62
4
  6
CONTINUOUS
 10
13.6132144326
 20
10.0753690612
 11
13.6029325944
 21
10.0907918112
  0
LINE
  5
446
100
AcDbEntity
  8
03__ASM_ALL_CURVES
100
AcDbLine
 62
4
  6
CONTINUOUS
 10
13.6749054298
 20
10.1216373112
 11
13.6851872635
 21
10.1062145612
  0
LINE
  5
447
100
AcDbEntity
  8
03__ASM_ALL_CURVES
100
AcDbLine
 62
4
  6
CONTINUOUS
 10
14.8002144326
 20
10.0985031862
 11
14.8104962635
 21
10.1216373112
  0
LINE
  5
448
100
AcDbEntity
  8
03__ASM_ALL_CURVES
100
AcDbLine
 62
4
  6
CONTINUOUS
 10
14.7488052635
 20
10.7385473112
 11
14.8413417635
 21
10.6845676862
  0
LINE
  5
449
100
AcDbEntity
  8
03__ASM_ALL_CURVES
100
AcDbLine
 62
4
  6
CONTINUOUS
 10
14.7488052635
 20
10.8619293112
 11
14.8413417635
 21
10.8079496862
  0
LINE
  5
44A
100
AcDbEntity
  8
03__ASM_ALL_CURVES
100
AcDbLine
 62
4
  6
CONTINUOUS
 10
14.8413417635
 20
10.2604420612
 11
14.8619054298
 21
10.2450193112
  0
LINE
  5
44B
100
AcDbEntity
  8
03__ASM_ALL_CURVES
100
AcDbLine
 62
4
  6
CONTINUOUS
 10
14.2806507635
 20
10.7462586862
 11
14.2909325944
 21
10.7385473112
  0
LINE
  5
44C
100
AcDbEntity
  8
03__ASM_ALL_CURVES
100
AcDbLine
 62
4
  6
CONTINUOUS
 10
14.3423417635
 20
10.7539700612
 11
14.3629054298
 21
10.7385473112
  0
LINE
  5
44D
100
AcDbEntity
  8
03__ASM_ALL_CURVES
100
AcDbLine
 62
4
  6
CONTINUOUS
 10
13.5618052635
 20
11.3400345612
 11
13.5823689326
 21
11.3246118112
  0
LINE
  5
44E
100
AcDbEntity
  8
03__ASM_ALL_CURVES
100
AcDbLine
 62
4
  6
CONTINUOUS
 10
14.7488052635
 20
10.4763605612
 11
14.7693689326
 21
10.4609378112
  0
LINE
  5
44F
100
AcDbEntity
  8
03__ASM_ALL_CURVES
100
AcDbLine
 62
4
  6
CONTINUOUS
 10
13.5720870944
 20
11.5559530612
 11
13.5823689326
 21
11.5482416862
  0
LINE
  5
450
100
AcDbEntity
  8
03__ASM_ALL_CURVES
100
AcDbLine
 62
4
  6
CONTINUOUS
 10
14.3012144326
 20
9.8286050612
 11
14.2909325944
 21
9.8440278112
  0
LINE
  5
451
100
AcDbEntity
  8
03__ASM_ALL_CURVES
100
AcDbLine
 62
4
  6
CONTINUOUS
 10
13.5720870944
 20
10.9390430612
 11
13.5618052635
 21
10.9544658112
  0
LINE
  5
452
100
AcDbEntity
  8
03__ASM_ALL_CURVES
100
AcDbLine
 62
4
  6
CONTINUOUS
 10
13.6029325944
 20
10.9853113112
 11
13.6132144326
 21
10.9698885612
  0
LINE
  5
453
100
AcDbEntity
  8
03__ASM_ALL_CURVES
100
AcDbLine
 62
4
  6
CONTINUOUS
 10
14.3629054298
 20
9.8748733112
 11
14.3731872635
 21
9.8594505612
  0
LINE
  5
454
100
AcDbEntity
  8
03__ASM_ALL_CURVES
100
AcDbLine
 62
4
  6
CONTINUOUS
 10
13.6749054298
 20
10.9853113112
 11
13.6851872635
 21
10.9698885612
  0
LINE
  5
455
100
AcDbEntity
  8
03__ASM_ALL_CURVES
100
AcDbLine
 62
4
  6
CONTINUOUS
 10
14.2600870944
 20
10.1987510612
 11
14.2498052635
 21
10.2141738112
  0
LINE
  5
456
100
AcDbEntity
  8
03__ASM_ALL_CURVES
100
AcDbLine
 62
4
  6
CONTINUOUS
 10
14.3114962635
 20
10.1987510612
 11
14.3012144326
 21
10.2141738112
  0
LINE
  5
457
100
AcDbEntity
  8
03__ASM_ALL_CURVES
100
AcDbLine
 62
4
  6
CONTINUOUS
 10
14.2909325944
 20
10.2450193112
 11
14.3012144326
 21
10.2295965612
  0
LINE
  5
458
100
AcDbEntity
  8
0
100
AcDbLine
 62
7
  6
CONTINUOUS
 10
14.8061431286
 20
8.7062963872
 11
14.8104964657
 21
8.6987561862
  0
LINE
  5
459
100
AcDbEntity
  8
03__ASM_ALL_CURVES
100
AcDbLine
 62
4
  6
CONTINUOUS
 10
14.2498052635
 20
11.2397866862
 11
14.2498052635
 21
11.1780956862
  0
LINE
  5
45A
100
AcDbEntity
  8
03__ASM_ALL_CURVES
100
AcDbLine
 62
4
  6
CONTINUOUS
 10
14.2498052635
 20
11.1164046862
 11
14.2498052635
 21
11.0701364362
  0
LINE
  5
45B
100
AcDbEntity
  8
03__ASM_ALL_CURVES
100
AcDbLine
 62
4
  6
CONTINUOUS
 10
14.2498052635
 20
9.8825846862
 11
14.2498052635
 21
9.8363164362
  0
LINE
  5
45C
100
AcDbEntity
  8
03__ASM_ALL_CURVES
100
AcDbLine
 62
4
  6
CONTINUOUS
 10
14.2498052635
 20
10.2141738112
 11
14.2498052635
 21
10.2295965612
  0
LINE
  5
45D
100
AcDbEntity
  8
03__ASM_ALL_CURVES
100
AcDbLine
 62
4
  6
CONTINUOUS
 10
14.2498052635
 20
10.7077018112
 11
14.2498052635
 21
10.7231245612
  0
LINE
  5
45E
100
AcDbEntity
  8
0
100
AcDbLine
 62
7
  6
CONTINUOUS
 10
14.2804964657
 20
6.6277562044
 11
14.2804964657
 21
9.0337562044
  0
LINE
  5
45F
100
AcDbEntity
  8
03__ASM_ALL_CURVES
100
AcDbLine
 62
4
  6
CONTINUOUS
 10
14.2909325944
 20
9.8440278112
 11
14.2909325944
 21
9.8594505612
  0
LINE
  5
460
100
AcDbEntity
  8
03__ASM_ALL_CURVES
100
AcDbLine
 62
4
  6
CONTINUOUS
 10
14.2909325944
 20
11.0778478112
 11
14.2909325944
 21
11.0932705612
  0
LINE
  5
461
100
AcDbEntity
  8
03__ASM_ALL_CURVES
100
AcDbLine
 62
4
  6
CONTINUOUS
 10
14.3012144326
 20
10.2141738112
 11
14.3012144326
 21
10.2295965612
  0
LINE
  5
462
100
AcDbEntity
  8
03__ASM_ALL_CURVES
100
AcDbLine
 62
4
  6
CONTINUOUS
 10
14.3012144326
 20
10.7077018112
 11
14.3012144326
 21
10.7231245612
  0
LINE
  5
463
100
AcDbEntity
  8
03__ASM_ALL_CURVES
100
AcDbLine
 62
4
  6
CONTINUOUS
 10
14.3114962635
 20
9.1731381862
 11
14.3114962635
 21
9.5432841862
  0
LINE
  5
464
100
AcDbEntity
  8
0
100
AcDbLine
 62
7
  6
CONTINUOUS
 10
14.3114964657
 20
6.6587562044
 11
14.3114964657
 21
9.0027562044
  0
LINE
  5
465
100
AcDbEntity
  8
0
100
AcDbLine
 62
7
  6
CONTINUOUS
 10
14.3424964657
 20
7.8402561862
 11
14.3424964657
 21
8.6972561862
  0
LINE
  5
466
100
AcDbEntity
  8
03__ASM_ALL_CURVES
100
AcDbLine
 62
4
  6
CONTINUOUS
 10
14.3731872635
 20
11.0932705612
 11
14.3731872635
 21
11.0778478112
  0
LINE
  5
467
100
AcDbEntity
  8
03__ASM_ALL_CURVES
100
AcDbLine
 62
4
  6
CONTINUOUS
 10
14.3731872635
 20
10.9930226862
 11
14.3731872635
 21
10.9814556237
  0
LINE
  5
468
100
AcDbEntity
  8
03__ASM_ALL_CURVES
100
AcDbLine
 62
4
  6
CONTINUOUS
 10
14.3731872635
 20
10.7231245612
 11
14.3731872635
 21
10.7077018112
  0
LINE
  5
469
100
AcDbEntity
  8
03__ASM_ALL_CURVES
100
AcDbLine
 62
4
  6
CONTINUOUS
 10
14.3731872635
 20
10.2295965612
 11
14.3731872635
 21
10.2141738112
  0
LINE
  5
46A
100
AcDbEntity
  8
03__ASM_ALL_CURVES
100
AcDbLine
 62
4
  6
CONTINUOUS
 10
14.3731872635
 20
10.0059666862
 11
14.3731872635
 21
9.9943996237
  0
LINE
  5
46B
100
AcDbEntity
  8
03__ASM_ALL_CURVES
100
AcDbLine
 62
4
  6
CONTINUOUS
 10
14.3731872635
 20
9.8594505612
 11
14.3731872635
 21
9.8440278112
  0
LINE
  5
46C
100
AcDbEntity
  8
0
100
AcDbLine
 62
7
  6
CONTINUOUS
 10
14.4029964657
 20
8.7062722202
 11
14.4029964657
 21
8.6766584339
  0
LINE
  5
46D
100
AcDbEntity
  8
0
100
AcDbLine
 62
7
  6
CONTINUOUS
 10
14.4029964657
 20
7.8312401523
 11
14.4029964657
 21
7.8608539386
  0
LINE
  5
46E
100
AcDbEntity
  8
0
100
AcDbLine
 62
7
  6
CONTINUOUS
 10
14.4029964657
 20
8.2391423999
 11
14.4029964657
 21
8.2983699726
  0
LINE
  5
46F
100
AcDbEntity
  8
03__ASM_ALL_CURVES
100
AcDbLine
 62
4
  6
CONTINUOUS
 10
13.6646235962
 20
11.6099326862
 11
13.6749054298
 21
11.6022213112
  0
LINE
  5
470
100
AcDbEntity
  8
03__ASM_ALL_CURVES
100
AcDbLine
 62
4
  6
CONTINUOUS
 10
14.3526235962
 20
11.1164046862
 11
14.3629054298
 21
11.1086933112
  0
LINE
  5
471
100
AcDbEntity
  8
03__ASM_ALL_CURVES
100
AcDbLine
 62
4
  6
CONTINUOUS
 10
13.6646235962
 20
11.7101805612
 11
13.6851872635
 21
11.6947578112
  0
LINE
  5
472
100
AcDbEntity
  8
03__ASM_ALL_CURVES
100
AcDbLine
 62
4
  6
CONTINUOUS
 10
14.3526235962
 20
11.3400345612
 11
14.3731872635
 21
11.3246118112
  0
LINE
  5
473
100
AcDbEntity
  8
03__ASM_ALL_CURVES
100
AcDbLine
 62
4
  6
CONTINUOUS
 10
14.7693689326
 20
11.0547136862
 11
14.7590870944
 21
11.0624250612
  0
LINE
  5
474
100
AcDbEntity
  8
03__ASM_ALL_CURVES
100
AcDbLine
 62
4
  6
CONTINUOUS
 10
14.820778098
 20
11.0778478112
 11
14.8413417635
 21
11.0624250612
  0
LINE
  5
475
100
AcDbEntity
  8
03__ASM_ALL_CURVES
100
AcDbLine
 62
4
  6
CONTINUOUS
 10
14.7899325944
 20
11.1164046862
 11
14.8002144326
 21
11.1086933112
  0
LINE
  5
476
100
AcDbEntity
  8
03__ASM_ALL_CURVES
100
AcDbLine
 62
4
  6
CONTINUOUS
 10
14.3629054298
 20
10.2450193112
 11
14.3731872635
 21
10.2295965612
  0
LINE
  5
477
100
AcDbEntity
  8
03__ASM_ALL_CURVES
100
AcDbLine
 62
4
  6
CONTINUOUS
 10
13.5618052635
 20
11.5713758112
 11
13.5720870944
 21
11.5559530612
  0
LINE
  5
478
100
AcDbEntity
  8
03__ASM_ALL_CURVES
100
AcDbLine
 62
4
  6
CONTINUOUS
 10
14.8002144326
 20
9.8286050612
 11
14.7899325944
 21
9.8440278112
  0
LINE
  5
479
100
AcDbEntity
  8
03__ASM_ALL_CURVES
100
AcDbLine
 62
4
  6
CONTINUOUS
 10
14.2600870944
 20
10.6922790612
 11
14.2498052635
 21
10.7077018112
  0
LINE
  5
47A
100
AcDbEntity
  8
03__ASM_ALL_CURVES
100
AcDbLine
 62
4
  6
CONTINUOUS
 10
13.6749054298
 20
11.6022213112
 11
13.6851872635
 21
11.5867985612
  0
LINE
  5
47B
100
AcDbEntity
  8
03__ASM_ALL_CURVES
100
AcDbLine
 62
4
  6
CONTINUOUS
 10
14.8619054298
 20
9.8748733112
 11
14.8721872635
 21
9.8594505612
  0
LINE
  5
47C
100
AcDbEntity
  8
03__ASM_ALL_CURVES
100
AcDbLine
 62
4
  6
CONTINUOUS
 10
14.2909325944
 20
10.7385473112
 11
14.3012144326
 21
10.7231245612
  0
LINE
  5
47D
100
AcDbEntity
  8
03__ASM_ALL_CURVES
100
AcDbLine
 62
4
  6
CONTINUOUS
 10
14.7590870944
 20
10.0830804362
 11
14.7488052635
 21
10.0985031862
  0
LINE
  5
47E
100
AcDbEntity
  8
03__ASM_ALL_CURVES
100
AcDbLine
 62
4
  6
CONTINUOUS
 10
14.3629054298
 20
10.7385473112
 11
14.3731872635
 21
10.7231245612
  0
LINE
  5
47F
100
AcDbEntity
  8
03__ASM_ALL_CURVES
100
AcDbLine
 62
4
  6
CONTINUOUS
 10
14.7590870944
 20
10.1987510612
 11
14.7488052635
 21
10.2141738112
  0
LINE
  5
480
100
AcDbEntity
  8
03__ASM_ALL_CURVES
100
AcDbLine
 62
4
  6
CONTINUOUS
 10
14.7488052635
 20
11.2397866862
 11
14.7488052635
 21
11.1780956862
  0
LINE
  5
481
100
AcDbEntity
  8
03__ASM_ALL_CURVES
100
AcDbLine
 62
4
  6
CONTINUOUS
 10
14.7488052635
 20
9.8825846862
 11
14.7488052635
 21
9.8363164362
  0
LINE
  5
482
100
AcDbEntity
  8
03__ASM_ALL_CURVES
100
AcDbLine
 62
4
  6
CONTINUOUS
 10
14.7488052635
 20
10.2141738112
 11
14.7488052635
 21
10.2295965612
  0
LINE
  5
483
100
AcDbEntity
  8
03__ASM_ALL_CURVES
100
AcDbLine
 62
4
  6
CONTINUOUS
 10
14.7488052635
 20
11.0778478112
 11
14.7488052635
 21
11.0932705612
  0
LINE
  5
484
100
AcDbEntity
  8
0
100
AcDbLine
 62
7
  6
CONTINUOUS
 10
14.7764327998
 20
8.7062722202
 11
14.7764327998
 21
8.6766584339
  0
LINE
  5
485
100
AcDbEntity
  8
0
100
AcDbLine
 62
7
  6
CONTINUOUS
 10
14.7764327998
 20
8.2983699726
 11
14.7764327998
 21
8.2391423999
  0
LINE
  5
486
100
AcDbEntity
  8
0
100
AcDbLine
 62
7
  6
CONTINUOUS
 10
14.7764327998
 20
7.8608539386
 11
14.7764327998
 21
7.8312401523
  0
LINE
  5
487
100
AcDbEntity
  8
03__ASM_ALL_CURVES
100
AcDbLine
 62
4
  6
CONTINUOUS
 10
14.7899325944
 20
9.8440278112
 11
14.7899325944
 21
9.8594505612
  0
LINE
  5
488
100
AcDbEntity
  8
03__ASM_ALL_CURVES
100
AcDbLine
 62
4
  6
CONTINUOUS
 10
14.8002144326
 20
10.2141738112
 11
14.8002144326
 21
10.2295965612
  0
LINE
  5
489
100
AcDbEntity
  8
03__ASM_ALL_CURVES
100
AcDbLine
 62
4
  6
CONTINUOUS
 10
14.8104962635
 20
9.1731381862
 11
14.8104962635
 21
9.5432841862
  0
LINE
  5
48A
100
AcDbEntity
  8
0
100
AcDbLine
 62
7
  6
CONTINUOUS
 10
14.8104964657
 20
8.6987561862
 11
14.8104964657
 21
7.8387561862
  0
LINE
  5
48B
100
AcDbEntity
  8
03__ASM_ALL_CURVES
100
AcDbLine
 62
4
  6
CONTINUOUS
 10
14.8413417635
 20
10.6845676862
 11
14.8413417635
 21
10.7539700612
  0
LINE
  5
48C
100
AcDbEntity
  8
03__ASM_ALL_CURVES
100
AcDbLine
 62
4
  6
CONTINUOUS
 10
14.8413417635
 20
10.8079496862
 11
14.8413417635
 21
10.8773520612
  0
LINE
  5
48D
100
AcDbEntity
  8
03__ASM_ALL_CURVES
100
AcDbLine
 62
4
  6
CONTINUOUS
 10
14.8721872635
 20
10.9930226862
 11
14.8721872635
 21
10.9814556237
  0
LINE
  5
48E
100
AcDbEntity
  8
03__ASM_ALL_CURVES
100
AcDbLine
 62
4
  6
CONTINUOUS
 10
14.8721872635
 20
10.2295965612
 11
14.8721872635
 21
10.2141738112
  0
LINE
  5
48F
100
AcDbEntity
  8
03__ASM_ALL_CURVES
100
AcDbLine
 62
4
  6
CONTINUOUS
 10
14.8721872635
 20
10.0059666862
 11
14.8721872635
 21
9.9943996237
  0
LINE
  5
490
100
AcDbEntity
  8
03__ASM_ALL_CURVES
100
AcDbLine
 62
4
  6
CONTINUOUS
 10
14.8721872635
 20
9.8594505612
 11
14.8721872635
 21
9.8440278112
  0
LINE
  5
491
100
AcDbEntity
  8
03__ASM_ALL_CURVES
100
AcDbLine
 62
4
  6
CONTINUOUS
 10
14.8721872635
 20
11.0547136862
 11
14.8721872635
 21
11.1164046862
  0
LINE
  5
492
100
AcDbEntity
  8
0
100
AcDbLine
 62
7
  6
CONTINUOUS
 10
14.8061431286
 20
7.8312159853
 11
14.8104964657
 21
7.8387561862
  0
LINE
  5
493
100
AcDbEntity
  8
03__ASM_ALL_CURVES
100
AcDbLine
 62
4
  6
CONTINUOUS
 10
14.8516235962
 20
11.3400345612
 11
14.8721872635
 21
11.3246118112
  0
LINE
  5
494
100
AcDbEntity
  8
03__ASM_ALL_CURVES
100
AcDbLine
 62
4
  6
CONTINUOUS
 10
14.8619054298
 20
10.1139259362
 11
14.8721872635
 21
10.0985031862
  0
LINE
  5
495
100
AcDbEntity
  8
03__ASM_ALL_CURVES
100
AcDbLine
 62
4
  6
CONTINUOUS
 10
14.8104962635
 20
10.1987510612
 11
14.8002144326
 21
10.2141738112
  0
LINE
  5
496
100
AcDbEntity
  8
03__ASM_ALL_CURVES
100
AcDbLine
 62
4
  6
CONTINUOUS
 10
14.7899325944
 20
10.2450193112
 11
14.8002144326
 21
10.2295965612
  0
LINE
  5
497
100
AcDbEntity
  8
03__ASM_ALL_CURVES
100
AcDbLine
 62
4
  6
CONTINUOUS
 10
14.3012144326
 20
11.0624250612
 11
14.2909325944
 21
11.0778478112
  0
LINE
  5
498
100
AcDbEntity
  8
03__ASM_ALL_CURVES
100
AcDbLine
 62
4
  6
CONTINUOUS
 10
14.8619054298
 20
10.2450193112
 11
14.8721872635
 21
10.2295965612
  0
LINE
  5
499
100
AcDbEntity
  8
03__ASM_ALL_CURVES
100
AcDbLine
 62
4
  6
CONTINUOUS
 10
14.3629054298
 20
11.1086933112
 11
14.3731872635
 21
11.0932705612
  0
LINE
  5
49A
100
AcDbEntity
  8
03__ASM_ALL_CURVES
100
AcDbLine
 62
4
  6
CONTINUOUS
 10
14.8104962635
 20
10.0753690612
 11
14.8002144326
 21
10.0985031862
  0
LINE
  5
49B
100
AcDbEntity
  8
0
100
AcDbLine
 62
7
  6
CONTINUOUS
 10
14.3114964657
 20
6.6587562044
 11
14.2804964657
 21
6.6277562044
  0
LINE
  5
49C
100
AcDbEntity
  8
03__ASM_ALL_CURVES
100
AcDbLine
 62
4
  6
CONTINUOUS
 10
14.7590870944
 20
11.0624250612
 11
14.7488052635
 21
11.0778478112
  0
LINE
  5
49D
100
AcDbEntity
  8
03__ASM_ALL_CURVES
100
AcDbLine
 62
4
  6
CONTINUOUS
 10
14.8002144326
 20
11.1086933112
 11
14.820778098
 21
11.0778478112
  0
SPLINE
  5
49E
100
AcDbEntity
  8
0
100
AcDbSpline
 62
7
  6
CONTINUOUS
 70
0
 71
3
 72
45
 73
41
 74
39
 42
0.0000001
 43
0.0000001
 44
0.0000000001
 12
-0.1096690883
 22
0.3683171013
 32
0.0
 13
0.1096690883
 23
0.3683171013
 33
0.0
 40
0.0
 40
0.0
 40
0.0
 40
0.0
 40
0.02800783
 40
0.0556703133
 40
0.0830197224
 40
0.1100915548
 40
0.1369178206
 40
0.1635313203
 40
0.1899627546
 40
0.2162351954
 40
0.2423738248
 40
0.2683997735
 40
0.2943295547
 40
0.320182853
 40
0.3459729212
 40
0.3717114219
 40
0.3974125929
 40
0.4230836531
 40
0.4487329298
 40
0.4743703682
 40
0.5000000521
 40
0.5256297269
 40
0.5512671662
 40
0.5769164481
 40
0.6025875007
 40
0.6282886741
 40
0.654027177
 40
0.6798172399
 40
0.7056705424
 40
0.7316003163
 40
0.7576262528
 40
0.7837648777
 40
0.8100373056
 40
0.8364687289
 40
0.8630822228
 40
0.8899084785
 40
0.9169803009
 40
0.9443297004
 40
0.9719921749
 40
1.0
 40
1.0
 40
1.0
 40
1.0
 10
8.6585599294
 20
7.8608539386
 30
0.0
 10
8.657536065
 20
7.8642925262
 30
0.0
 10
8.6555417434
 20
7.8711395305
 30
0.0
 10
8.6526943695
 20
7.8813863049
 30
0.0
 10
8.6500085334
 20
7.8915526663
 30
0.0
 10
8.6474823685
 20
7.9016494998
 30
0.0
 10
8.6451143858
 20
7.9116877816
 30
0.0
 10
8.642903645
 20
7.9216778732
 30
0.0
 10
8.6408498376
 20
7.9316289915
 30
0.0
 10
8.6389531756
 20
7.9415493441
 30
0.0
 10
8.6372143652
 20
7.9514458607
 30
0.0
 10
8.6356344646
 20
7.9613245525
 30
0.0
 10
8.6342147792
 20
7.9711906283
 30
0.0
 10
8.6329568364
 20
7.9810481827
 30
0.0
 10
8.6318622516
 20
7.9909005715
 30
0.0
 10
8.6309326472
 20
8.0007503323
 30
0.0
 10
8.6301695922
 20
8.0105991141
 30
0.0
 10
8.6295744913
 20
8.0204480286
 30
0.0
 10
8.6291485194
 20
8.0302975418
 30
0.0
 10
8.6288925692
 20
8.0401476418
 30
0.0
 10
8.6288071911
 20
8.0499981881
 30
0.0
 10
8.6288925698
 20
8.0598487345
 30
0.0
 10
8.6291485207
 20
8.0696988341
 30
0.0
 10
8.6295744932
 20
8.0795483471
 30
0.0
 10
8.6301695947
 20
8.0893972615
 30
0.0
 10
8.6309326504
 20
8.0992460429
 30
0.0
 10
8.6318622554
 20
8.1090958036
 30
0.0
 10
8.6329568408
 20
8.1189481925
 30
0.0
 10
8.634214784
 20
8.1288057457
 30
0.0
 10
8.6356344697
 20
8.1386718195
 30
0.0
 10
8.6372143703
 20
8.1485505081
 30
0.0
 10
8.6389531804
 20
8.158447021
 30
0.0
 10
8.6408498422
 20
8.1683673699
 30
0.0
 10
8.6429036491
 20
8.1783184844
 30
0.0
 10
8.6451143894
 20
8.1883085726
 30
0.0
 10
8.6474823715
 20
8.1983468511
 30
0.0
 10
8.6500085357
 20
8.2084436809
 30
0.0
 10
8.652694371
 20
8.2186100388
 30
0.0
 10
8.6555417441
 20
8.2288568103
 30
0.0
 10
8.6575360651
 20
8.2357038129
 30
0.0
 10
8.6585599294
 20
8.2391423999
 30
0.0
 11
8.6585599294
 21
7.8608539386
 31
0.0
 11
8.6555508775
 21
7.8711881175
 31
0.0
 11
8.652705566
 21
7.8814308967
 31
0.0
 11
8.6500218334
 21
7.8915928038
 31
0.0
 11
8.6474975843
 21
7.9016855737
 31
0.0
 11
8.6451314638
 21
7.9117196468
 31
0.0
 11
8.6429224435
 21
7.9217057459
 31
0.0
 11
8.6408700738
 21
7.9316537827
 31
0.0
 11
8.6389748224
 21
7.9415707452
 31
0.0
 11
8.6372372447
 21
7.9514643393
 31
0.0
 11
8.6356583963
 21
7.9613406511
 31
0.0
 11
8.6342397355
 21
7.9712039061
 31
0.0
 11
8.6329826146
 21
7.9810594191
 31
0.0
 11
8.6318887368
 21
7.9909099352
 31
0.0
 11
8.6309597747
 21
8.0007574647
 31
0.0
 11
8.6301971854
 21
8.0106048846
 31
0.0
 11
8.6296024612
 21
8.0204522739
 31
0.0
 11
8.6291767708
 21
8.030300038
 31
0.0
 11
8.6289209712
 21
8.0401491278
 31
0.0
 11
8.6288356477
 21
8.0499981893
 31
0.0
 11
8.6289209719
 21
8.0598472472
 31
0.0
 11
8.629176772
 21
8.0696963374
 31
0.0
 11
8.6296024633
 21
8.0795441035
 31
0.0
 11
8.6301971879
 21
8.0893914898
 31
0.0
 11
8.6309597779
 21
8.0992389105
 31
0.0
 11
8.6318887407
 21
8.1090864409
 31
0.0
 11
8.6329826189
 21
8.1189369549
 31
0.0
 11
8.6342397405
 21
8.1287924694
 31
0.0
 11
8.6356584014
 21
8.1386557215
 31
0.0
 11
8.6372372496
 21
8.1485320286
 31
0.0
 11
8.6389748275
 21
8.1584256209
 31
0.0
 11
8.6408700783
 21
8.1683425785
 31
0.0
 11
8.6429224475
 21
8.1782906111
 31
0.0
 11
8.6451314675
 21
8.188276708
 31
0.0
 11
8.6474975873
 21
8.1983107772
 31
0.0
 11
8.6500218357
 21
8.2084035434
 31
0.0
 11
8.6527055674
 21
8.2185654469
 31
0.0
 11
8.6555508781
 21
8.2288082229
 31
0.0
 11
8.6585599294
 21
8.2391423999
 31
0.0
  0
SPLINE
  5
49F
100
AcDbEntity
  8
0
100
AcDbSpline
 62
7
  6
CONTINUOUS
 70
0
 71
3
 72
50
 73
46
 74
44
 42
0.0000001
 43
0.0000001
 44
0.0000000001
 12
0.181453252
 22
0.3518372194
 32
0.0
 13
-0.181453252
 23
0.3518372194
 33
0.0
 40
0.0
 40
0.0
 40
0.0
 40
0.0
 40
0.0272150247
 40
0.0537972684
 40
0.079788796
 40
0.1052375766
 40
0.1301850434
 40
0.1546742238
 40
0.1787478229
 40
0.2024383797
 40
0.2257833687
 40
0.2488149224
 40
0.2715598965
 40
0.29405229
 40
0.3163179465
 40
0.3383825675
 40
0.3602765412
 40
0.3820200319
 40
0.4036380604
 40
0.4251568894
 40
0.4465948962
 40
0.4679791798
 40
0.4893310372
 40
0.510669116
 40
0.5320209584
 40
0.5534052589
 40
0.5748432497
 40
0.5963620718
 40
0.6179801151
 40
0.6397235792
 40
0.6616175492
 40
0.6836821749
 40
0.7059478148
 40
0.7284402095
 40
0.7511851678
 40
0.7742166984
 40
0.7975616811
 40
0.8212522178
 40
0.8453258017
 40
0.8698149759
 40
0.8947624351
 40
0.9202112112
 40
0.9462027358
 40
0.9727849765
 40
1.0
 40
1.0
 40
1.0
 40
1.0
 10
9.0319962635
 20
7.8608539386
 30
0.0
 10
9.0336423484
 20
7.8640456914
 30
0.0
 10
9.0368442476
 20
7.8703819818
 30
0.0
 10
9.0414302834
 20
7.8798600109
 30
0.0
 10
9.0457492411
 20
7.8892065968
 30
0.0
 10
9.0498091981
 20
7.8984333744
 30
0.0
 10
9.0536177211
 20
7.9075522993
 30
0.0
 10
9.0571814956
 20
7.9165748239
 30
0.0
 10
9.0605061636
 20
7.9255114383
 30
0.0
 10
9.0635965504
 20
7.9343720251
 30
0.0
 10
9.0664565049
 20
7.9431651941
 30
0.0
 10
9.0690891725
 20
7.9518988506
 30
0.0
 10
9.071497161
 20
7.9605804336
 30
0.0
 10
9.0736824719
 20
7.9692165383
 30
0.0
 10
9.0756467209
 20
7.9778135481
 30
0.0
 10
9.0773911247
 20
7.9863772986
 30
0.0
 10
9.0789164815
 20
7.9949128012
 30
0.0
 10
9.0802233743
 20
8.0034248757
 30
0.0
 10
9.081312161
 20
8.0119176994
 30
0.0
 10
9.0821830428
 20
8.0203951194
 30
0.0
 10
9.0828361722
 20
8.028861166
 30
0.0
 10
9.0832715865
 20
8.0373191444
 30
0.0
 10
9.083489287
 20
8.0457723394
 30
0.0
 10
9.0834892862
 20
8.0542240578
 30
0.0
 10
9.0832715842
 20
8.0626772529
 30
0.0
 10
9.0828361686
 20
8.0711352295
 30
0.0
 10
9.0821830378
 20
8.0796012752
 30
0.0
 10
9.0813121547
 20
8.088078694
 30
0.0
 10
9.0802233669
 20
8.096571515
 30
0.0
 10
9.0789164731
 20
8.1050835873
 30
0.0
 10
9.0773911158
 20
8.1136190864
 30
0.0
 10
9.0756467113
 20
8.1221828346
 30
0.0
 10
9.0736824616
 20
8.1307798428
 30
0.0
 10
9.0714971508
 20
8.1394159433
 30
0.0
 10
9.0690891627
 20
8.1480975212
 30
0.0
 10
9.0664564962
 20
8.1568311718
 30
0.0
 10
9.0635965433
 20
8.1656243344
 30
0.0
 10
9.0605061579
 20
8.174484916
 30
0.0
 10
9.0571814915
 20
8.1834215251
 30
0.0
 10
9.0536177183
 20
8.1924440461
 30
0.0
 10
9.0498091961
 20
8.2015629687
 30
0.0
 10
9.0457492398
 20
8.2107897445
 30
0.0
 10
9.0414302826
 20
8.2201363291
 30
0.0
 10
9.0368442473
 20
8.2296143574
 30
0.0
 10
9.0336423483
 20
8.2359506472
 30
0.0
 10
9.0319962635
 20
8.2391423999
 30
0.0
 11
9.0319962635
 21
7.8608539386
 31
0.0
 11
9.0368538141
 21
7.8704703901
 31
0.0
 11
9.0414357162
 21
7.8799436812
 31
0.0
 11
9.0457503146
 21
7.8892846852
 31
0.0
 11
9.0498063971
 21
7.8985065602
 31
0.0
 11
9.0536110907
 21
7.9076202749
 31
0.0
 11
9.0571711903
 21
7.9166375157
 31
0.0
 11
9.0604927971
 21
7.9255699894
 31
0.0
 11
9.0635800388
 21
7.9344257159
 31
0.0
 11
9.0664372191
 21
7.943214586
 31
0.0
 11
9.0690674628
 21
7.9519445072
 31
0.0
 11
9.071472922
 21
7.9606213494
 31
0.0
 11
9.0736561448
 21
7.9692536566
 31
0.0
 11
9.0756184755
 21
7.9778467969
 31
0.0
 11
9.0773610143
 21
7.9864059863
 31
0.0
 11
9.0788849455
 21
7.9949381734
 31
0.0
 11
9.0801904966
 21
8.0034462297
 31
0.0
 11
9.0812781274
 21
8.0119348091
 31
0.0
 11
9.0821481789
 21
8.0204089654
 31
0.0
 11
9.0828005905
 21
8.0288705599
 31
0.0
 11
9.083235562
 21
8.0373248187
 31
0.0
 11
9.0834530491
 21
8.0457746246
 31
0.0
 11
9.0834530483
 21
8.0542217745
 31
0.0
 11
9.0832355599
 21
8.0626715745
 31
0.0
 11
9.0828005865
 21
8.0711258399
 31
0.0
 11
9.082148174
 21
8.079587428
 31
0.0
 11
9.0812781214
 21
8.0880615814
 31
0.0
 11
9.0801904885
 21
8.0965501664
 31
0.0
 11
9.0788849377
 21
8.1050582121
 31
0.0
 11
9.0773610056
 21
8.1135903976
 31
0.0
 11
9.0756184653
 21
8.1221495886
 31
0.0
 11
9.0736561351
 21
8.1307427222
 31
0.0
 11
9.0714729112
 21
8.1393750296
 31
0.0
 11
9.0690674529
 21
8.1480518656
 31
0.0
 11
9.0664372111
 21
8.1567817778
 31
0.0
 11
9.0635800311
 21
8.1655706454
 31
0.0
 11
9.0604927916
 21
8.1744263643
 31
0.0
 11
9.0571711867
 21
8.1833588322
 31
0.0
 11
9.0536110879
 21
8.1923760706
 31
0.0
 11
9.0498063953
 21
8.2014897826
 31
0.0
 11
9.0457503134
 21
8.210711656
 31
0.0
 11
9.0414357155
 21
8.2200526588
 31
0.0
 11
9.0368538139
 21
8.2295259488
 31
0.0
 11
9.0319962635
 21
8.2391423999
 31
0.0
  0
SPLINE
  5
4A0
100
AcDbEntity
  8
0
100
AcDbSpline
 62
7
  6
CONTINUOUS
 70
0
 71
3
 72
45
 73
41
 74
39
 42
0.0000001
 43
0.0000001
 44
0.0000000001
 12
-0.1096690883
 22
0.3683171013
 32
0.0
 13
0.1096690883
 23
0.3683171013
 33
0.0
 40
0.0
 40
0.0
 40
0.0
 40
0.0
 40
0.02800783
 40
0.0556703133
 40
0.0830197224
 40
0.1100915548
 40
0.1369178206
 40
0.1635313203
 40
0.1899627546
 40
0.2162351954
 40
0.2423738248
 40
0.2683997735
 40
0.2943295547
 40
0.320182853
 40
0.3459729212
 40
0.3717114219
 40
0.3974125929
 40
0.4230836531
 40
0.4487329298
 40
0.4743703682
 40
0.5000000521
 40
0.5256297269
 40
0.5512671662
 40
0.5769164481
 40
0.6025875007
 40
0.6282886741
 40
0.654027177
 40
0.6798172399
 40
0.7056705424
 40
0.7316003163
 40
0.7576262528
 40
0.7837648777
 40
0.8100373056
 40
0.8364687289
 40
0.8630822228
 40
0.8899084785
 40
0.9169803009
 40
0.9443297004
 40
0.9719921749
 40
1.0
 40
1.0
 40
1.0
 40
1.0
 10
8.6585599294
 20
8.2983699726
 30
0.0
 10
8.657536065
 20
8.3018085601
 30
0.0
 10
8.6555417434
 20
8.3086555645
 30
0.0
 10
8.6526943695
 20
8.3189023389
 30
0.0
 10
8.6500085334
 20
8.3290687003
 30
0.0
 10
8.6474823685
 20
8.3391655338
 30
0.0
 10
8.6451143858
 20
8.3492038156
 30
0.0
 10
8.642903645
 20
8.3591939072
 30
0.0
 10
8.6408498376
 20
8.3691450255
 30
0.0
 10
8.6389531756
 20
8.3790653781
 30
0.0
 10
8.6372143652
 20
8.3889618947
 30
0.0
 10
8.6356344646
 20
8.3988405865
 30
0.0
 10
8.6342147792
 20
8.4087066623
 30
0.0
 10
8.6329568364
 20
8.4185642167
 30
0.0
 10
8.6318622516
 20
8.4284166054
 30
0.0
 10
8.6309326472
 20
8.4382663663
 30
0.0
 10
8.6301695922
 20
8.4481151481
 30
0.0
 10
8.6295744913
 20
8.4579640626
 30
0.0
 10
8.6291485194
 20
8.4678135758
 30
0.0
 10
8.6288925692
 20
8.4776636758
 30
0.0
 10
8.6288071911
 20
8.4875142221
 30
0.0
 10
8.6288925698
 20
8.4973647685
 30
0.0
 10
8.6291485207
 20
8.5072148681
 30
0.0
 10
8.6295744932
 20
8.5170643811
 30
0.0
 10
8.6301695947
 20
8.5269132955
 30
0.0
 10
8.6309326504
 20
8.5367620769
 30
0.0
 10
8.6318622554
 20
8.5466118376
 30
0.0
 10
8.6329568408
 20
8.5564642265
 30
0.0
 10
8.634214784
 20
8.5663217797
 30
0.0
 10
8.6356344697
 20
8.5761878535
 30
0.0
 10
8.6372143703
 20
8.5860665421
 30
0.0
 10
8.6389531804
 20
8.595963055
 30
0.0
 10
8.6408498422
 20
8.6058834039
 30
0.0
 10
8.6429036491
 20
8.6158345184
 30
0.0
 10
8.6451143894
 20
8.6258246066
 30
0.0
 10
8.6474823715
 20
8.6358628851
 30
0.0
 10
8.6500085357
 20
8.6459597149
 30
0.0
 10
8.652694371
 20
8.6561260728
 30
0.0
 10
8.6555417441
 20
8.6663728443
 30
0.0
 10
8.6575360651
 20
8.6732198469
 30
0.0
 10
8.6585599294
 20
8.6766584339
 30
0.0
 11
8.6585599294
 21
8.2983699726
 31
0.0
 11
8.6555508775
 21
8.3087041515
 31
0.0
 11
8.652705566
 21
8.3189469306
 31
0.0
 11
8.6500218334
 21
8.3291088378
 31
0.0
 11
8.6474975843
 21
8.3392016077
 31
0.0
 11
8.6451314638
 21
8.3492356808
 31
0.0
 11
8.6429224435
 21
8.3592217799
 31
0.0
 11
8.6408700738
 21
8.3691698167
 31
0.0
 11
8.6389748224
 21
8.3790867792
 31
0.0
 11
8.6372372447
 21
8.3889803733
 31
0.0
 11
8.6356583963
 21
8.3988566851
 31
0.0
 11
8.6342397355
 21
8.4087199401
 31
0.0
 11
8.6329826146
 21
8.418575453
 31
0.0
 11
8.6318887368
 21
8.4284259692
 31
0.0
 11
8.6309597747
 21
8.4382734987
 31
0.0
 11
8.6301971854
 21
8.4481209186
 31
0.0
 11
8.6296024612
 21
8.4579683079
 31
0.0
 11
8.6291767708
 21
8.4678160719
 31
0.0
 11
8.6289209712
 21
8.4776651618
 31
0.0
 11
8.6288356477
 21
8.4875142233
 31
0.0
 11
8.6289209719
 21
8.4973632812
 31
0.0
 11
8.629176772
 21
8.5072123714
 31
0.0
 11
8.6296024633
 21
8.5170601375
 31
0.0
 11
8.6301971879
 21
8.5269075238
 31
0.0
 11
8.6309597779
 21
8.5367549445
 31
0.0
 11
8.6318887407
 21
8.5466024749
 31
0.0
 11
8.6329826189
 21
8.5564529889
 31
0.0
 11
8.6342397405
 21
8.5663085034
 31
0.0
 11
8.6356584014
 21
8.5761717555
 31
0.0
 11
8.6372372496
 21
8.5860480626
 31
0.0
 11
8.6389748275
 21
8.5959416549
 31
0.0
 11
8.6408700783
 21
8.6058586125
 31
0.0
 11
8.6429224475
 21
8.6158066451
 31
0.0
 11
8.6451314675
 21
8.625792742
 31
0.0
 11
8.6474975873
 21
8.6358268112
 31
0.0
 11
8.6500218357
 21
8.6459195774
 31
0.0
 11
8.6527055674
 21
8.6560814809
 31
0.0
 11
8.6555508781
 21
8.6663242568
 31
0.0
 11
8.6585599294
 21
8.6766584339
 31
0.0
  0
SPLINE
  5
4A1
100
AcDbEntity
  8
0
100
AcDbSpline
 62
7
  6
CONTINUOUS
 70
0
 71
3
 72
50
 73
46
 74
44
 42
0.0000001
 43
0.0000001
 44
0.0000000001
 12
0.181453252
 22
0.3518372194
 32
0.0
 13
-0.181453252
 23
0.3518372194
 33
0.0
 40
0.0
 40
0.0
 40
0.0
 40
0.0
 40
0.0272150247
 40
0.0537972684
 40
0.079788796
 40
0.1052375766
 40
0.1301850434
 40
0.1546742238
 40
0.1787478229
 40
0.2024383797
 40
0.2257833687
 40
0.2488149224
 40
0.2715598965
 40
0.29405229
 40
0.3163179465
 40
0.3383825675
 40
0.3602765412
 40
0.3820200319
 40
0.4036380604
 40
0.4251568894
 40
0.4465948962
 40
0.4679791798
 40
0.4893310372
 40
0.510669116
 40
0.5320209584
 40
0.5534052589
 40
0.5748432497
 40
0.5963620718
 40
0.6179801151
 40
0.6397235792
 40
0.6616175492
 40
0.6836821749
 40
0.7059478148
 40
0.7284402095
 40
0.7511851678
 40
0.7742166984
 40
0.7975616811
 40
0.8212522178
 40
0.8453258017
 40
0.8698149759
 40
0.8947624351
 40
0.9202112112
 40
0.9462027358
 40
0.9727849765
 40
1.0
 40
1.0
 40
1.0
 40
1.0
 10
9.0319962635
 20
8.2983699726
 30
0.0
 10
9.0336423484
 20
8.3015617254
 30
0.0
 10
9.0368442476
 20
8.3078980158
 30
0.0
 10
9.0414302834
 20
8.3173760449
 30
0.0
 10
9.0457492411
 20
8.3267226308
 30
0.0
 10
9.0498091981
 20
8.3359494084
 30
0.0
 10
9.0536177211
 20
8.3450683332
 30
0.0
 10
9.0571814956
 20
8.3540908579
 30
0.0
 10
9.0605061636
 20
8.3630274723
 30
0.0
 10
9.0635965504
 20
8.3718880591
 30
0.0
 10
9.0664565049
 20
8.3806812281
 30
0.0
 10
9.0690891725
 20
8.3894148846
 30
0.0
 10
9.071497161
 20
8.3980964675
 30
0.0
 10
9.0736824719
 20
8.4067325723
 30
0.0
 10
9.0756467209
 20
8.4153295821
 30
0.0
 10
9.0773911247
 20
8.4238933326
 30
0.0
 10
9.0789164815
 20
8.4324288352
 30
0.0
 10
9.0802233743
 20
8.4409409097
 30
0.0
 10
9.081312161
 20
8.4494337334
 30
0.0
 10
9.0821830428
 20
8.4579111534
 30
0.0
 10
9.0828361722
 20
8.4663772
 30
0.0
 10
9.0832715865
 20
8.4748351784
 30
0.0
 10
9.083489287
 20
8.4832883734
 30
0.0
 10
9.0834892862
 20
8.4917400918
 30
0.0
 10
9.0832715842
 20
8.5001932869
 30
0.0
 10
9.0828361686
 20
8.5086512635
 30
0.0
 10
9.0821830378
 20
8.5171173091
 30
0.0
 10
9.0813121547
 20
8.525594728
 30
0.0
 10
9.0802233669
 20
8.534087549
 30
0.0
 10
9.0789164731
 20
8.5425996213
 30
0.0
 10
9.0773911158
 20
8.5511351204
 30
0.0
 10
9.0756467113
 20
8.5596988686
 30
0.0
 10
9.0736824616
 20
8.5682958768
 30
0.0
 10
9.0714971508
 20
8.5769319773
 30
0.0
 10
9.0690891627
 20
8.5856135552
 30
0.0
 10
9.0664564962
 20
8.5943472058
 30
0.0
 10
9.0635965433
 20
8.6031403684
 30
0.0
 10
9.0605061579
 20
8.6120009499
 30
0.0
 10
9.0571814915
 20
8.6209375591
 30
0.0
 10
9.0536177183
 20
8.6299600801
 30
0.0
 10
9.0498091961
 20
8.6390790027
 30
0.0
 10
9.0457492398
 20
8.6483057785
 30
0.0
 10
9.0414302826
 20
8.6576523631
 30
0.0
 10
9.0368442473
 20
8.6671303914
 30
0.0
 10
9.0336423483
 20
8.6734666812
 30
0.0
 10
9.0319962635
 20
8.6766584339
 30
0.0
 11
9.0319962635
 21
8.2983699726
 31
0.0
 11
9.0368538141
 21
8.3079864241
 31
0.0
 11
9.0414357162
 21
8.3174597152
 31
0.0
 11
9.0457503146
 21
8.3268007192
 31
0.0
 11
9.0498063971
 21
8.3360225942
 31
0.0
 11
9.0536110907
 21
8.3451363089
 31
0.0
 11
9.0571711903
 21
8.3541535497
 31
0.0
 11
9.0604927971
 21
8.3630860234
 31
0.0
 11
9.0635800388
 21
8.3719417499
 31
0.0
 11
9.0664372191
 21
8.38073062
 31
0.0
 11
9.0690674628
 21
8.3894605412
 31
0.0
 11
9.071472922
 21
8.3981373834
 31
0.0
 11
9.0736561448
 21
8.4067696906
 31
0.0
 11
9.0756184755
 21
8.4153628308
 31
0.0
 11
9.0773610143
 21
8.4239220203
 31
0.0
 11
9.0788849455
 21
8.4324542074
 31
0.0
 11
9.0801904966
 21
8.4409622637
 31
0.0
 11
9.0812781274
 21
8.4494508431
 31
0.0
 11
9.0821481789
 21
8.4579249994
 31
0.0
 11
9.0828005905
 21
8.4663865939
 31
0.0
 11
9.083235562
 21
8.4748408527
 31
0.0
 11
9.0834530491
 21
8.4832906586
 31
0.0
 11
9.0834530483
 21
8.4917378085
 31
0.0
 11
9.0832355599
 21
8.5001876085
 31
0.0
 11
9.0828005865
 21
8.5086418739
 31
0.0
 11
9.082148174
 21
8.5171034619
 31
0.0
 11
9.0812781214
 21
8.5255776154
 31
0.0
 11
9.0801904885
 21
8.5340662004
 31
0.0
 11
9.0788849377
 21
8.5425742461
 31
0.0
 11
9.0773610056
 21
8.5511064316
 31
0.0
 11
9.0756184653
 21
8.5596656226
 31
0.0
 11
9.0736561351
 21
8.5682587562
 31
0.0
 11
9.0714729112
 21
8.5768910636
 31
0.0
 11
9.0690674529
 21
8.5855678996
 31
0.0
 11
9.0664372111
 21
8.5942978118
 31
0.0
 11
9.0635800311
 21
8.6030866794
 31
0.0
 11
9.0604927916
 21
8.6119423982
 31
0.0
 11
9.0571711867
 21
8.6208748662
 31
0.0
 11
9.0536110879
 21
8.6298921046
 31
0.0
 11
9.0498063953
 21
8.6390058166
 31
0.0
 11
9.0457503134
 21
8.6482276899
 31
0.0
 11
9.0414357155
 21
8.6575686928
 31
0.0
 11
9.0368538139
 21
8.6670419828
 31
0.0
 11
9.0319962635
 21
8.6766584339
 31
0.0
  0
SPLINE
  5
4A2
100
AcDbEntity
  8
0
100
AcDbSpline
 62
7
  6
CONTINUOUS
 70
0
 71
3
 72
45
 73
41
 74
39
 42
0.0000001
 43
0.0000001
 44
0.0000000001
 12
0.1096690883
 22
-0.3683171013
 32
0.0
 13
-0.1096690883
 23
-0.3683171013
 33
0.0
 40
0.0
 40
0.0
 40
0.0
 40
0.0
 40
0.02800783
 40
0.0556703133
 40
0.0830197224
 40
0.1100915548
 40
0.1369178206
 40
0.1635313203
 40
0.1899627546
 40
0.2162351954
 40
0.2423738248
 40
0.2683997735
 40
0.2943295547
 40
0.320182853
 40
0.3459729212
 40
0.3717114219
 40
0.3974125929
 40
0.4230836531
 40
0.4487329298
 40
0.4743703682
 40
0.5000000521
 40
0.5256297269
 40
0.5512671662
 40
0.5769164481
 40
0.6025875007
 40
0.6282886741
 40
0.654027177
 40
0.6798172399
 40
0.7056705424
 40
0.7316003163
 40
0.7576262528
 40
0.7837648777
 40
0.8100373056
 40
0.8364687289
 40
0.8630822228
 40
0.8899084785
 40
0.9169803009
 40
0.9443297004
 40
0.9719921749
 40
1.0
 40
1.0
 40
1.0
 40
1.0
 10
14.7764327998
 20
8.6766584339
 30
0.0
 10
14.7774566642
 20
8.6732198463
 30
0.0
 10
14.7794509857
 20
8.666372842
 30
0.0
 10
14.7822983596
 20
8.6561260676
 30
0.0
 10
14.7849841957
 20
8.6459597062
 30
0.0
 10
14.7875103607
 20
8.6358628727
 30
0.0
 10
14.7898783433
 20
8.6258245908
 30
0.0
 10
14.7920890841
 20
8.6158344993
 30
0.0
 10
14.7941428916
 20
8.605883381
 30
0.0
 10
14.7960395536
 20
8.5959630284
 30
0.0
 10
14.797778364
 20
8.5860665117
 30
0.0
 10
14.7993582645
 20
8.57618782
 30
0.0
 10
14.80077795
 20
8.5663217442
 30
0.0
 10
14.8020358927
 20
8.5564641898
 30
0.0
 10
14.8031304776
 20
8.546611801
 30
0.0
 10
14.8040600819
 20
8.5367620402
 30
0.0
 10
14.804823137
 20
8.5269132583
 30
0.0
 10
14.8054182379
 20
8.5170643438
 30
0.0
 10
14.8058442097
 20
8.5072148307
 30
0.0
 10
14.80610016
 20
8.4973647307
 30
0.0
 10
14.806185538
 20
8.4875141844
 30
0.0
 10
14.8061001593
 20
8.477663638
 30
0.0
 10
14.8058442084
 20
8.4678135384
 30
0.0
 10
14.8054182359
 20
8.4579640254
 30
0.0
 10
14.8048231344
 20
8.448115111
 30
0.0
 10
14.8040600788
 20
8.4382663296
 30
0.0
 10
14.8031304738
 20
8.4284165688
 30
0.0
 10
14.8020358884
 20
8.41856418
 30
0.0
 10
14.8007779452
 20
8.4087066268
 30
0.0
 10
14.7993582594
 20
8.398840553
 30
0.0
 10
14.7977783589
 20
8.3889618643
 30
0.0
 10
14.7960395487
 20
8.3790653515
 30
0.0
 10
14.794142887
 20
8.3691450026
 30
0.0
 10
14.79208908
 20
8.3591938881
 30
0.0
 10
14.7898783397
 20
8.3492037999
 30
0.0
 10
14.7875103576
 20
8.3391655214
 30
0.0
 10
14.7849841935
 20
8.3290686916
 30
0.0
 10
14.7822983582
 20
8.3189023337
 30
0.0
 10
14.7794509851
 20
8.3086555622
 30
0.0
 10
14.777456664
 20
8.3018085595
 30
0.0
 10
14.7764327998
 20
8.2983699726
 30
0.0
 11
14.7764327998
 21
8.6766584339
 31
0.0
 11
14.7794418516
 21
8.666324255
 31
0.0
 11
14.7822871631
 21
8.6560814758
 31
0.0
 11
14.7849708957
 21
8.6459195687
 31
0.0
 11
14.7874951449
 21
8.6358267987
 31
0.0
 11
14.7898612653
 21
8.6257927257
 31
0.0
 11
14.7920702856
 21
8.6158066266
 31
0.0
 11
14.7941226553
 21
8.6058585898
 31
0.0
 11
14.7960179067
 21
8.5959416273
 31
0.0
 11
14.7977554844
 21
8.5860480332
 31
0.0
 11
14.7993343329
 21
8.5761717214
 31
0.0
 11
14.8007529937
 21
8.5663084664
 31
0.0
 11
14.8020101145
 21
8.5564529534
 31
0.0
 11
14.8031039923
 21
8.5466024373
 31
0.0
 11
14.8040329544
 21
8.5367549078
 31
0.0
 11
14.8047955438
 21
8.5269074879
 31
0.0
 11
14.8053902679
 21
8.5170600986
 31
0.0
 11
14.8058159584
 21
8.5072123345
 31
0.0
 11
14.8060717579
 21
8.4973632447
 31
0.0
 11
14.8061570814
 21
8.4875141832
 31
0.0
 11
14.8060717573
 21
8.4776651253
 31
0.0
 11
14.8058159571
 21
8.4678160351
 31
0.0
 11
14.8053902659
 21
8.457968269
 31
0.0
 11
14.8047955413
 21
8.4481208827
 31
0.0
 11
14.8040329512
 21
8.438273462
 31
0.0
 11
14.8031039885
 21
8.4284259316
 31
0.0
 11
14.8020101103
 21
8.4185754176
 31
0.0
 11
14.8007529887
 21
8.4087199031
 31
0.0
 11
14.7993343277
 21
8.398856651
 31
0.0
 11
14.7977554795
 21
8.3889803439
 31
0.0
 11
14.7960179017
 21
8.3790867516
 31
0.0
 11
14.7941226508
 21
8.369169794
 31
0.0
 11
14.7920702816
 21
8.3592217614
 31
0.0
 11
14.7898612616
 21
8.3492356645
 31
0.0
 11
14.7874951419
 21
8.3392015953
 31
0.0
 11
14.7849708935
 21
8.3291088291
 31
0.0
 11
14.7822871617
 21
8.3189469256
 31
0.0
 11
14.7794418511
 21
8.3087041496
 31
0.0
 11
14.7764327998
 21
8.2983699726
 31
0.0
  0
SPLINE
  5
4A3
100
AcDbEntity
  8
0
100
AcDbSpline
 62
7
  6
CONTINUOUS
 70
0
 71
3
 72
50
 73
46
 74
44
 42
0.0000001
 43
0.0000001
 44
0.0000000001
 12
-0.181453252
 22
-0.3518372194
 32
0.0
 13
0.181453252
 23
-0.3518372194
 33
0.0
 40
0.0
 40
0.0
 40
0.0
 40
0.0
 40
0.0272150247
 40
0.0537972684
 40
0.079788796
 40
0.1052375766
 40
0.1301850434
 40
0.1546742238
 40
0.1787478229
 40
0.2024383797
 40
0.2257833687
 40
0.2488149224
 40
0.2715598965
 40
0.29405229
 40
0.3163179465
 40
0.3383825675
 40
0.3602765412
 40
0.3820200319
 40
0.4036380604
 40
0.4251568894
 40
0.4465948962
 40
0.4679791798
 40
0.4893310372
 40
0.510669116
 40
0.5320209584
 40
0.5534052589
 40
0.5748432497
 40
0.5963620718
 40
0.6179801151
 40
0.6397235792
 40
0.6616175492
 40
0.6836821749
 40
0.7059478148
 40
0.7284402095
 40
0.7511851678
 40
0.7742166984
 40
0.7975616811
 40
0.8212522178
 40
0.8453258017
 40
0.8698149759
 40
0.8947624351
 40
0.9202112112
 40
0.9462027358
 40
0.9727849765
 40
1.0
 40
1.0
 40
1.0
 40
1.0
 10
14.4029964657
 20
8.6766584339
 30
0.0
 10
14.4013503808
 20
8.6734666811
 30
0.0
 10
14.3981484816
 20
8.6671303907
 30
0.0
 10
14.3935624458
 20
8.6576523616
 30
0.0
 10
14.389243488
 20
8.6483057757
 30
0.0
 10
14.385183531
 20
8.6390789981
 30
0.0
 10
14.3813750081
 20
8.6299600732
 30
0.0
 10
14.3778112336
 20
8.6209375486
 30
0.0
 10
14.3744865655
 20
8.6120009342
 30
0.0
 10
14.3713961787
 20
8.6031403473
 30
0.0
 10
14.3685362243
 20
8.5943471784
 30
0.0
 10
14.3659035567
 20
8.5856135218
 30
0.0
 10
14.3634955681
 20
8.5769319389
 30
0.0
 10
14.3613102572
 20
8.5682958342
 30
0.0
 10
14.3593460083
 20
8.5596988243
 30
0.0
 10
14.3576016045
 20
8.5511350739
 30
0.0
 10
14.3560762477
 20
8.5425995713
 30
0.0
 10
14.3547693549
 20
8.5340874968
 30
0.0
 10
14.3536805681
 20
8.5255946731
 30
0.0
 10
14.3528096863
 20
8.5171172531
 30
0.0
 10
14.3521565569
 20
8.5086512065
 30
0.0
 10
14.3517211426
 20
8.5001932281
 30
0.0
 10
14.3515034421
 20
8.4917400331
 30
0.0
 10
14.3515034429
 20
8.4832883147
 30
0.0
 10
14.3517211449
 20
8.4748351196
 30
0.0
 10
14.3521565606
 20
8.466377143
 30
0.0
 10
14.3528096914
 20
8.4579110973
 30
0.0
 10
14.3536805744
 20
8.4494336785
 30
0.0
 10
14.3547693622
 20
8.4409408575
 30
0.0
 10
14.356076256
 20
8.4324287852
 30
0.0
 10
14.3576016133
 20
8.4238932861
 30
0.0
 10
14.3593460179
 20
8.4153295379
 30
0.0
 10
14.3613102675
 20
8.4067325297
 30
0.0
 10
14.3634955783
 20
8.3980964292
 30
0.0
 10
14.3659035664
 20
8.3894148513
 30
0.0
 10
14.3685362329
 20
8.3806812007
 30
0.0
 10
14.3713961859
 20
8.3718880381
 30
0.0
 10
14.3744865713
 20
8.3630274565
 30
0.0
 10
14.3778112377
 20
8.3540908474
 30
0.0
 10
14.3813750109
 20
8.3450683263
 30
0.0
 10
14.385183533
 20
8.3359494037
 30
0.0
 10
14.3892434893
 20
8.326722628
 30
0.0
 10
14.3935624465
 20
8.3173760434
 30
0.0
 10
14.3981484819
 20
8.3078980151
 30
0.0
 10
14.4013503808
 20
8.3015617253
 30
0.0
 10
14.4029964657
 20
8.2983699726
 30
0.0
 11
14.4029964657
 21
8.6766584339
 31
0.0
 11
14.3981389151
 21
8.6670419824
 31
0.0
 11
14.393557013
 21
8.6575686912
 31
0.0
 11
14.3892424146
 21
8.6482276873
 31
0.0
 11
14.385186332
 21
8.6390058123
 31
0.0
 11
14.3813816384
 21
8.6298920976
 31
0.0
 11
14.3778215389
 21
8.6208748567
 31
0.0
 11
14.3744999321
 21
8.6119423831
 31
0.0
 11
14.3714126904
 21
8.6030866566
 31
0.0
 11
14.3685555101
 21
8.5942977864
 31
0.0
 11
14.3659252663
 21
8.5855678653
 31
0.0
 11
14.3635198072
 21
8.5768910231
 31
0.0
 11
14.3613365843
 21
8.5682587159
 31
0.0
 11
14.3593742537
 21
8.5596655756
 31
0.0
 11
14.3576317148
 21
8.5511063862
 31
0.0
 11
14.3561077837
 21
8.5425741991
 31
0.0
 11
14.3548022325
 21
8.5340661428
 31
0.0
 11
14.3537146017
 21
8.5255775634
 31
0.0
 11
14.3528445502
 21
8.5171034071
 31
0.0
 11
14.3521921387
 21
8.5086418126
 31
0.0
 11
14.3517571671
 21
8.5001875538
 31
0.0
 11
14.35153968
 21
8.4917377479
 31
0.0
 11
14.3515396808
 21
8.483290598
 31
0.0
 11
14.3517571692
 21
8.474840798
 31
0.0
 11
14.3521921426
 21
8.4663865326
 31
0.0
 11
14.3528445551
 21
8.4579249445
 31
0.0
 11
14.3537146077
 21
8.4494507911
 31
0.0
 11
14.3548022406
 21
8.440962206
 31
0.0
 11
14.3561077915
 21
8.4324541604
 31
0.0
 11
14.3576317235
 21
8.4239219749
 31
0.0
 11
14.3593742638
 21
8.4153627839
 31
0.0
 11
14.361336594
 21
8.4067696503
 31
0.0
 11
14.3635198179
 21
8.3981373429
 31
0.0
 11
14.3659252762
 21
8.3894605069
 31
0.0
 11
14.368555518
 21
8.3807305947
 31
0.0
 11
14.3714126981
 21
8.3719417271
 31
0.0
 11
14.3744999375
 21
8.3630860082
 31
0.0
 11
14.3778215425
 21
8.3541535403
 31
0.0
 11
14.3813816413
 21
8.3451363019
 31
0.0
 11
14.3851863339
 21
8.3360225899
 31
0.0
 11
14.3892424158
 21
8.3268007165
 31
0.0
 11
14.3935570137
 21
8.3174597137
 31
0.0
 11
14.3981389153
 21
8.3079864237
 31
0.0
 11
14.4029964657
 21
8.2983699726
 31
0.0
  0
SPLINE
  5
4A4
100
AcDbEntity
  8
0
100
AcDbSpline
 62
7
  6
CONTINUOUS
 70
0
 71
3
 72
45
 73
41
 74
39
 42
0.0000001
 43
0.0000001
 44
0.0000000001
 12
0.1096690883
 22
-0.3683171013
 32
0.0
 13
-0.1096690883
 23
-0.3683171013
 33
0.0
 40
0.0
 40
0.0
 40
0.0
 40
0.0
 40
0.02800783
 40
0.0556703133
 40
0.0830197224
 40
0.1100915548
 40
0.1369178206
 40
0.1635313203
 40
0.1899627546
 40
0.2162351954
 40
0.2423738248
 40
0.2683997735
 40
0.2943295547
 40
0.320182853
 40
0.3459729212
 40
0.3717114219
 40
0.3974125929
 40
0.4230836531
 40
0.4487329298
 40
0.4743703682
 40
0.5000000521
 40
0.5256297269
 40
0.5512671662
 40
0.5769164481
 40
0.6025875007
 40
0.6282886741
 40
0.654027177
 40
0.6798172399
 40
0.7056705424
 40
0.7316003163
 40
0.7576262528
 40
0.7837648777
 40
0.8100373056
 40
0.8364687289
 40
0.8630822228
 40
0.8899084785
 40
0.9169803009
 40
0.9443297004
 40
0.9719921749
 40
1.0
 40
1.0
 40
1.0
 40
1.0
 10
14.7764327998
 20
8.2391423999
 30
0.0
 10
14.7774566642
 20
8.2357038123
 30
0.0
 10
14.7794509857
 20
8.228856808
 30
0.0
 10
14.7822983596
 20
8.2186100336
 30
0.0
 10
14.7849841957
 20
8.2084436722
 30
0.0
 10
14.7875103607
 20
8.1983468387
 30
0.0
 10
14.7898783433
 20
8.1883085568
 30
0.0
 10
14.7920890841
 20
8.1783184653
 30
0.0
 10
14.7941428916
 20
8.168367347
 30
0.0
 10
14.7960395536
 20
8.1584469944
 30
0.0
 10
14.797778364
 20
8.1485504778
 30
0.0
 10
14.7993582645
 20
8.138671786
 30
0.0
 10
14.80077795
 20
8.1288057102
 30
0.0
 10
14.8020358927
 20
8.1189481558
 30
0.0
 10
14.8031304776
 20
8.109095767
 30
0.0
 10
14.8040600819
 20
8.0992460062
 30
0.0
 10
14.804823137
 20
8.0893972243
 30
0.0
 10
14.8054182379
 20
8.0795483099
 30
0.0
 10
14.8058442097
 20
8.0696987967
 30
0.0
 10
14.80610016
 20
8.0598486967
 30
0.0
 10
14.806185538
 20
8.0499981504
 30
0.0
 10
14.8061001593
 20
8.040147604
 30
0.0
 10
14.8058442084
 20
8.0302975044
 30
0.0
 10
14.8054182359
 20
8.0204479914
 30
0.0
 10
14.8048231344
 20
8.010599077
 30
0.0
 10
14.8040600788
 20
8.0007502956
 30
0.0
 10
14.8031304738
 20
7.9909005349
 30
0.0
 10
14.8020358884
 20
7.981048146
 30
0.0
 10
14.8007779452
 20
7.9711905928
 30
0.0
 10
14.7993582594
 20
7.961324519
 30
0.0
 10
14.7977783589
 20
7.9514458304
 30
0.0
 10
14.7960395487
 20
7.9415493175
 30
0.0
 10
14.794142887
 20
7.9316289686
 30
0.0
 10
14.79208908
 20
7.9216778541
 30
0.0
 10
14.7898783397
 20
7.9116877659
 30
0.0
 10
14.7875103576
 20
7.9016494874
 30
0.0
 10
14.7849841935
 20
7.8915526576
 30
0.0
 10
14.7822983582
 20
7.8813862997
 30
0.0
 10
14.7794509851
 20
7.8711395282
 30
0.0
 10
14.777456664
 20
7.8642925256
 30
0.0
 10
14.7764327998
 20
7.8608539386
 30
0.0
 11
14.7764327998
 21
8.2391423999
 31
0.0
 11
14.7794418516
 21
8.228808221
 31
0.0
 11
14.7822871631
 21
8.2185654418
 31
0.0
 11
14.7849708957
 21
8.2084035347
 31
0.0
 11
14.7874951449
 21
8.1983107647
 31
0.0
 11
14.7898612653
 21
8.1882766917
 31
0.0
 11
14.7920702856
 21
8.1782905926
 31
0.0
 11
14.7941226553
 21
8.1683425558
 31
0.0
 11
14.7960179067
 21
8.1584255933
 31
0.0
 11
14.7977554844
 21
8.1485319992
 31
0.0
 11
14.7993343329
 21
8.1386556874
 31
0.0
 11
14.8007529937
 21
8.1287924324
 31
0.0
 11
14.8020101145
 21
8.1189369194
 31
0.0
 11
14.8031039923
 21
8.1090864033
 31
0.0
 11
14.8040329544
 21
8.0992388738
 31
0.0
 11
14.8047955438
 21
8.0893914539
 31
0.0
 11
14.8053902679
 21
8.0795440646
 31
0.0
 11
14.8058159584
 21
8.0696963005
 31
0.0
 11
14.8060717579
 21
8.0598472107
 31
0.0
 11
14.8061570814
 21
8.0499981492
 31
0.0
 11
14.8060717573
 21
8.0401490913
 31
0.0
 11
14.8058159571
 21
8.0303000011
 31
0.0
 11
14.8053902659
 21
8.020452235
 31
0.0
 11
14.8047955413
 21
8.0106048487
 31
0.0
 11
14.8040329512
 21
8.000757428
 31
0.0
 11
14.8031039885
 21
7.9909098976
 31
0.0
 11
14.8020101103
 21
7.9810593836
 31
0.0
 11
14.8007529887
 21
7.9712038691
 31
0.0
 11
14.7993343277
 21
7.961340617
 31
0.0
 11
14.7977554795
 21
7.9514643099
 31
0.0
 11
14.7960179017
 21
7.9415707176
 31
0.0
 11
14.7941226508
 21
7.93165376
 31
0.0
 11
14.7920702816
 21
7.9217057274
 31
0.0
 11
14.7898612616
 21
7.9117196305
 31
0.0
 11
14.7874951419
 21
7.9016855613
 31
0.0
 11
14.7849708935
 21
7.8915927951
 31
0.0
 11
14.7822871617
 21
7.8814308916
 31
0.0
 11
14.7794418511
 21
7.8711881156
 31
0.0
 11
14.7764327998
 21
7.8608539386
 31
0.0
  0
SPLINE
  5
4A5
100
AcDbEntity
  8
0
100
AcDbSpline
 62
7
  6
CONTINUOUS
 70
0
 71
3
 72
50
 73
46
 74
44
 42
0.0000001
 43
0.0000001
 44
0.0000000001
 12
-0.181453252
 22
-0.3518372194
 32
0.0
 13
0.181453252
 23
-0.3518372194
 33
0.0
 40
0.0
 40
0.0
 40
0.0
 40
0.0
 40
0.0272150247
 40
0.0537972684
 40
0.079788796
 40
0.1052375766
 40
0.1301850434
 40
0.1546742238
 40
0.1787478229
 40
0.2024383797
 40
0.2257833687
 40
0.2488149224
 40
0.2715598965
 40
0.29405229
 40
0.3163179465
 40
0.3383825675
 40
0.3602765412
 40
0.3820200319
 40
0.4036380604
 40
0.4251568894
 40
0.4465948962
 40
0.4679791798
 40
0.4893310372
 40
0.510669116
 40
0.5320209584
 40
0.5534052589
 40
0.5748432497
 40
0.5963620718
 40
0.6179801151
 40
0.6397235792
 40
0.6616175492
 40
0.6836821749
 40
0.7059478148
 40
0.7284402095
 40
0.7511851678
 40
0.7742166984
 40
0.7975616811
 40
0.8212522178
 40
0.8453258017
 40
0.8698149759
 40
0.8947624351
 40
0.9202112112
 40
0.9462027358
 40
0.9727849765
 40
1.0
 40
1.0
 40
1.0
 40
1.0
 10
14.4029964657
 20
8.2391423999
 30
0.0
 10
14.4013503808
 20
8.2359506471
 30
0.0
 10
14.3981484816
 20
8.2296143567
 30
0.0
 10
14.3935624458
 20
8.2201363276
 30
0.0
 10
14.389243488
 20
8.2107897417
 30
0.0
 10
14.385183531
 20
8.2015629641
 30
0.0
 10
14.3813750081
 20
8.1924440392
 30
0.0
 10
14.3778112336
 20
8.1834215146
 30
0.0
 10
14.3744865655
 20
8.1744849002
 30
0.0
 10
14.3713961787
 20
8.1656243134
 30
0.0
 10
14.3685362243
 20
8.1568311444
 30
0.0
 10
14.3659035567
 20
8.1480974879
 30
0.0
 10
14.3634955681
 20
8.1394159049
 30
0.0
 10
14.3613102572
 20
8.1307798002
 30
0.0
 10
14.3593460083
 20
8.1221827904
 30
0.0
 10
14.3576016045
 20
8.1136190399
 30
0.0
 10
14.3560762477
 20
8.1050835373
 30
0.0
 10
14.3547693549
 20
8.0965714628
 30
0.0
 10
14.3536805681
 20
8.0880786391
 30
0.0
 10
14.3528096863
 20
8.0796012191
 30
0.0
 10
14.3521565569
 20
8.0711351725
 30
0.0
 10
14.3517211426
 20
8.0626771941
 30
0.0
 10
14.3515034421
 20
8.0542239991
 30
0.0
 10
14.3515034429
 20
8.0457722807
 30
0.0
 10
14.3517211449
 20
8.0373190856
 30
0.0
 10
14.3521565606
 20
8.028861109
 30
0.0
 10
14.3528096914
 20
8.0203950633
 30
0.0
 10
14.3536805744
 20
8.0119176445
 30
0.0
 10
14.3547693622
 20
8.0034248235
 30
0.0
 10
14.356076256
 20
7.9949127512
 30
0.0
 10
14.3576016133
 20
7.9863772521
 30
0.0
 10
14.3593460179
 20
7.9778135039
 30
0.0
 10
14.3613102675
 20
7.9692164957
 30
0.0
 10
14.3634955783
 20
7.9605803952
 30
0.0
 10
14.3659035664
 20
7.9518988173
 30
0.0
 10
14.3685362329
 20
7.9431651667
 30
0.0
 10
14.3713961859
 20
7.9343720041
 30
0.0
 10
14.3744865713
 20
7.9255114225
 30
0.0
 10
14.3778112377
 20
7.9165748134
 30
0.0
 10
14.3813750109
 20
7.9075522924
 30
0.0
 10
14.385183533
 20
7.8984333698
 30
0.0
 10
14.3892434893
 20
7.889206594
 30
0.0
 10
14.3935624465
 20
7.8798600094
 30
0.0
 10
14.3981484819
 20
7.8703819811
 30
0.0
 10
14.4013503808
 20
7.8640456913
 30
0.0
 10
14.4029964657
 20
7.8608539386
 30
0.0
 11
14.4029964657
 21
8.2391423999
 31
0.0
 11
14.3981389151
 21
8.2295259484
 31
0.0
 11
14.393557013
 21
8.2200526572
 31
0.0
 11
14.3892424146
 21
8.2107116533
 31
0.0
 11
14.385186332
 21
8.2014897783
 31
0.0
 11
14.3813816384
 21
8.1923760636
 31
0.0
 11
14.3778215389
 21
8.1833588228
 31
0.0
 11
14.3744999321
 21
8.1744263491
 31
0.0
 11
14.3714126904
 21
8.1655706226
 31
0.0
 11
14.3685555101
 21
8.1567817524
 31
0.0
 11
14.3659252663
 21
8.1480518313
 31
0.0
 11
14.3635198072
 21
8.1393749891
 31
0.0
 11
14.3613365843
 21
8.1307426819
 31
0.0
 11
14.3593742537
 21
8.1221495416
 31
0.0
 11
14.3576317148
 21
8.1135903522
 31
0.0
 11
14.3561077837
 21
8.1050581651
 31
0.0
 11
14.3548022325
 21
8.0965501088
 31
0.0
 11
14.3537146017
 21
8.0880615294
 31
0.0
 11
14.3528445502
 21
8.0795873731
 31
0.0
 11
14.3521921387
 21
8.0711257786
 31
0.0
 11
14.3517571671
 21
8.0626715198
 31
0.0
 11
14.35153968
 21
8.0542217139
 31
0.0
 11
14.3515396808
 21
8.045774564
 31
0.0
 11
14.3517571692
 21
8.037324764
 31
0.0
 11
14.3521921426
 21
8.0288704986
 31
0.0
 11
14.3528445551
 21
8.0204089105
 31
0.0
 11
14.3537146077
 21
8.0119347571
 31
0.0
 11
14.3548022406
 21
8.0034461721
 31
0.0
 11
14.3561077915
 21
7.9949381264
 31
0.0
 11
14.3576317235
 21
7.9864059409
 31
0.0
 11
14.3593742638
 21
7.9778467499
 31
0.0
 11
14.361336594
 21
7.9692536163
 31
0.0
 11
14.3635198179
 21
7.9606213089
 31
0.0
 11
14.3659252762
 21
7.9519444729
 31
0.0
 11
14.368555518
 21
7.9432145607
 31
0.0
 11
14.3714126981
 21
7.9344256931
 31
0.0
 11
14.3744999375
 21
7.9255699742
 31
0.0
 11
14.3778215425
 21
7.9166375063
 31
0.0
 11
14.3813816413
 21
7.9076202679
 31
0.0
 11
14.3851863339
 21
7.8985065559
 31
0.0
 11
14.3892424158
 21
7.8892846825
 31
0.0
 11
14.3935570137
 21
7.8799436797
 31
0.0
 11
14.3981389153
 21
7.8704703897
 31
0.0
 11
14.4029964657
 21
7.8608539386
 31
0.0
  0
SPLINE
  5
4A6
100
AcDbEntity
  8
0
100
AcDbSpline
 62
7
  6
CONTINUOUS
 70
0
 71
3
 72
53
 73
49
 74
47
 42
0.0000001
 43
0.0000001
 44
0.0000000001
 12
-0.1096694271
 22
0.3683182391
 32
0.0
 13
0.1096694271
 23
0.3683182391
 33
0.0
 40
0.0
 40
0.0
 40
0.0
 40
0.0
 40
0.0231631758
 40
0.0460807742
 40
0.068775472
 40
0.09126879
 40
0.113580739
 40
0.1357300791
 40
0.1577342481
 40
0.1796094747
 40
0.20137082
 40
0.2230321965
 40
0.2446064002
 40
0.2661051323
 40
0.2875389863
 40
0.3089175795
 40
0.3302495763
 40
0.3515427331
 40
0.372803961
 40
0.3940393723
 40
0.4152543452
 40
0.4364537166
 40
0.4576418396
 40
0.4788226932
 40
0.5
 40
0.5211773068
 40
0.5423581604
 40
0.5635462834
 40
0.5847456548
 40
0.6059606278
 40
0.627196039
 40
0.6484572669
 40
0.6697504238
 40
0.6910824205
 40
0.7124610137
 40
0.7338948677
 40
0.7553935999
 40
0.7769678035
 40
0.79862918
 40
0.8203905253
 40
0.8422657519
 40
0.864269921
 40
0.886419261
 40
0.90873121
 40
0.931224528
 40
0.9539192258
 40
0.9768368242
 40
1.0
 40
1.0
 40
1.0
 40
1.0
 10
8.6585599294
 20
7.8608539386
 30
0.0
 10
8.6577131653
 20
7.8636977453
 30
0.0
 10
8.6560565365
 20
7.8693635697
 30
0.0
 10
8.6536702201
 20
7.8778445032
 30
0.0
 10
8.6513948349
 20
7.8862670323
 30
0.0
 10
8.6492289536
 20
7.894638273
 30
0.0
 10
8.6471714857
 20
7.9029648808
 30
0.0
 10
8.6452216692
 20
7.9112530022
 30
0.0
 10
8.6433790399
 20
7.9195083067
 30
0.0
 10
8.6416434083
 20
7.927735986
 30
0.0
 10
8.6400148309
 20
7.9359407668
 30
0.0
 10
8.6384935837
 20
7.9441269134
 30
0.0
 10
8.637080134
 20
7.9522982293
 30
0.0
 10
8.6357751104
 20
7.960458054
 30
0.0
 10
8.63457927
 20
7.9686092754
 30
0.0
 10
8.6334934644
 20
7.9767543424
 30
0.0
 10
8.6325186043
 20
7.9848952868
 30
0.0
 10
8.6316556255
 20
7.9930337378
 30
0.0
 10
8.6309054552
 20
8.0011709422
 30
0.0
 10
8.6302689784
 20
8.0093077872
 30
0.0
 10
8.6297470053
 20
8.0174448436
 30
0.0
 10
8.6293402422
 20
8.0255824107
 30
0.0
 10
8.629049266
 20
8.0337205695
 30
0.0
 10
8.6288745045
 20
8.041859228
 30
0.0
 10
8.628816221
 20
8.0499981693
 30
0.0
 10
8.6288745045
 20
8.0581371105
 30
0.0
 10
8.629049266
 20
8.066275769
 30
0.0
 10
8.6293402422
 20
8.0744139278
 30
0.0
 10
8.6297470053
 20
8.0825514949
 30
0.0
 10
8.6302689784
 20
8.0906885513
 30
0.0
 10
8.6309054552
 20
8.0988253963
 30
0.0
 10
8.6316556255
 20
8.1069626007
 30
0.0
 10
8.6325186043
 20
8.1151010517
 30
0.0
 10
8.6334934644
 20
8.1232419961
 30
0.0
 10
8.63457927
 20
8.1313870631
 30
0.0
 10
8.6357751104
 20
8.1395382845
 30
0.0
 10
8.637080134
 20
8.1476981092
 30
0.0
 10
8.6384935837
 20
8.1558694251
 30
0.0
 10
8.6400148309
 20
8.1640555717
 30
0.0
 10
8.6416434083
 20
8.1722603525
 30
0.0
 10
8.6433790399
 20
8.1804880318
 30
0.0
 10
8.6452216692
 20
8.1887433363
 30
0.0
 10
8.6471714857
 20
8.1970314577
 30
0.0
 10
8.6492289536
 20
8.2053580655
 30
0.0
 10
8.6513948349
 20
8.2137293062
 30
0.0
 10
8.6536702201
 20
8.2221518353
 30
0.0
 10
8.6560565365
 20
8.2306327688
 30
0.0
 10
8.6577131653
 20
8.2362985932
 30
0.0
 10
8.6585599294
 20
8.2391423999
 30
0.0
 11
8.6585599294
 21
7.8608539386
 31
0.0
 11
8.6560623009
 21
7.8693979462
 31
0.0
 11
8.6536773119
 21
7.877876081
 31
0.0
 11
8.6514031807
 21
7.8862959237
 31
0.0
 11
8.6492384671
 21
7.8946646454
 31
0.0
 11
8.6471820917
 21
7.9029888675
 31
0.0
 11
8.6452332917
 21
7.9112747466
 31
0.0
 11
8.6433916081
 21
7.9195279386
 31
0.0
 11
8.6416568536
 21
7.9277536307
 31
0.0
 11
8.6400290866
 21
7.9359565478
 31
0.0
 11
8.638508585
 21
7.9441409512
 31
0.0
 11
8.6370958171
 21
7.952310642
 31
0.0
 11
8.6357914125
 21
7.9604689627
 31
0.0
 11
8.6345961316
 21
7.9686187853
 31
0.0
 11
8.6335108267
 21
7.976762557
 31
0.0
 11
8.6325364099
 21
7.984902305
 31
0.0
 11
8.6316738183
 21
7.9930396521
 31
0.0
 11
8.63092398
 21
8.0011758406
 31
0.0
 11
8.6302877812
 21
8.0093117512
 31
0.0
 11
8.6297660342
 21
8.0174479319
 31
0.0
 11
8.6293594458
 21
8.0255846766
 31
0.0
 11
8.6290685938
 21
8.0337220545
 31
0.0
 11
8.6288939066
 21
8.0418599603
 31
0.0
 11
8.6288356477
 21
8.0499981693
 31
0.0
 11
8.6288939066
 21
8.0581363782
 31
0.0
 11
8.6290685938
 21
8.066274284
 31
0.0
 11
8.6293594458
 21
8.0744116619
 31
0.0
 11
8.6297660342
 21
8.0825484066
 31
0.0
 11
8.6302877812
 21
8.0906845873
 31
0.0
 11
8.63092398
 21
8.0988204979
 31
0.0
 11
8.6316738183
 21
8.1069566864
 31
0.0
 11
8.6325364099
 21
8.1150940335
 31
0.0
 11
8.6335108267
 21
8.1232337815
 31
0.0
 11
8.6345961316
 21
8.1313775532
 31
0.0
 11
8.6357914125
 21
8.1395273758
 31
0.0
 11
8.6370958172
 21
8.1476856965
 31
0.0
 11
8.638508585
 21
8.1558553873
 31
0.0
 11
8.6400290866
 21
8.1640397907
 31
0.0
 11
8.6416568536
 21
8.1722427078
 31
0.0
 11
8.6433916081
 21
8.1804683999
 31
0.0
 11
8.6452332917
 21
8.1887215919
 31
0.0
 11
8.6471820917
 21
8.197007471
 31
0.0
 11
8.6492384671
 21
8.2053316931
 31
0.0
 11
8.6514031807
 21
8.2137004148
 31
0.0
 11
8.6536773119
 21
8.2221202575
 31
0.0
 11
8.6560623009
 21
8.2305983923
 31
0.0
 11
8.6585599294
 21
8.2391423999
 31
0.0
  0
SPLINE
  5
4A7
100
AcDbEntity
  8
0
100
AcDbSpline
 62
7
  6
CONTINUOUS
 70
0
 71
3
 72
59
 73
55
 74
53
 42
0.0000001
 43
0.0000001
 44
0.0000000001
 12
0.1814544218
 22
0.3518394876
 32
0.0
 13
-0.1814544218
 23
0.3518394876
 33
0.0
 40
0.0
 40
0.0
 40
0.0
 40
0.0
 40
0.0225618519
 40
0.0446778882
 40
0.0663775263
 40
0.0876887716
 40
0.1086378568
 40
0.1292496227
 40
0.1495474724
 40
0.1695536073
 40
0.1892891401
 40
0.2087741572
 40
0.2280278063
 40
0.2470683628
 40
0.2659132201
 40
0.2845791236
 40
0.3030821948
 40
0.3214379738
 40
0.3396614786
 40
0.3577672267
 40
0.3757692349
 40
0.3936812516
 40
0.411516725
 40
0.4292888397
 40
0.4470105616
 40
0.4646946198
 40
0.4823535757
 40
0.5
 40
0.5176464243
 40
0.5353053803
 40
0.5529894384
 40
0.5707111603
 40
0.588483275
 40
0.6063187484
 40
0.6242307652
 40
0.6422327733
 40
0.6603385215
 40
0.6785620262
 40
0.6969178052
 40
0.7154208764
 40
0.7340867799
 40
0.7529316372
 40
0.7719721937
 40
0.7912258428
 40
0.8107108599
 40
0.8304463927
 40
0.8504525276
 40
0.8707503773
 40
0.8913621432
 40
0.9123112284
 40
0.9336224737
 40
0.9553221118
 40
0.9774381481
 40
1.0
 40
1.0
 40
1.0
 40
1.0
 10
9.0319962635
 20
7.8608539386
 30
0.0
 10
9.0333609127
 20
7.8634999887
 30
0.0
 10
9.0360274344
 20
7.8687583735
 30
0.0
 10
9.039877788
 20
7.8766260891
 30
0.0
 10
9.0435428466
 20
7.8843997717
 30
0.0
 10
9.04702787
 20
7.8920870566
 30
0.0
 10
9.0503375715
 20
7.8996951527
 30
0.0
 10
9.0534761201
 20
7.9072307894
 30
0.0
 10
9.0564471963
 20
7.9147002745
 30
0.0
 10
9.0592540261
 20
7.9221095116
 30
0.0
 10
9.0618994217
 20
7.9294640343
 30
0.0
 10
9.0643858134
 20
7.9367690225
 30
0.0
 10
9.0667152797
 20
7.9440293148
 30
0.0
 10
9.0688895751
 20
7.9512494124
 30
0.0
 10
9.0709101641
 20
7.9584335027
 30
0.0
 10
9.0727782527
 20
7.9655854797
 30
0.0
 10
9.0744948204
 20
7.972708972
 30
0.0
 10
9.0760606452
 20
7.9798073516
 30
0.0
 10
9.0774763296
 20
7.9868837427
 30
0.0
 10
9.0787423245
 20
7.9939410277
 30
0.0
 10
9.0798589582
 20
8.0009818764
 30
0.0
 10
9.0808264602
 20
8.0080087715
 30
0.0
 10
9.0816449839
 20
8.0150240405
 30
0.0
 10
9.0823146236
 20
8.0220298648
 30
0.0
 10
9.0828354305
 20
8.0290282926
 30
0.0
 10
9.0832074278
 20
8.0360212567
 30
0.0
 10
9.0834306245
 20
8.0430106119
 30
0.0
 10
9.0835050232
 20
8.0499981693
 30
0.0
 10
9.0834306245
 20
8.0569857266
 30
0.0
 10
9.0832074278
 20
8.0639750818
 30
0.0
 10
9.0828354305
 20
8.0709680459
 30
0.0
 10
9.0823146236
 20
8.0779664737
 30
0.0
 10
9.0816449839
 20
8.084972298
 30
0.0
 10
9.0808264602
 20
8.091987567
 30
0.0
 10
9.0798589582
 20
8.0990144621
 30
0.0
 10
9.0787423245
 20
8.1060553108
 30
0.0
 10
9.0774763296
 20
8.1131125958
 30
0.0
 10
9.0760606452
 20
8.1201889869
 30
0.0
 10
9.0744948204
 20
8.1272873665
 30
0.0
 10
9.0727782527
 20
8.1344108588
 30
0.0
 10
9.0709101641
 20
8.1415628358
 30
0.0
 10
9.0688895751
 20
8.1487469261
 30
0.0
 10
9.0667152797
 20
8.1559670237
 30
0.0
 10
9.0643858134
 20
8.163227316
 30
0.0
 10
9.0618994217
 20
8.1705323042
 30
0.0
 10
9.0592540261
 20
8.1778868269
 30
0.0
 10
9.0564471963
 20
8.185296064
 30
0.0
 10
9.0534761201
 20
8.1927655491
 30
0.0
 10
9.0503375715
 20
8.2003011858
 30
0.0
 10
9.04702787
 20
8.2079092819
 30
0.0
 10
9.0435428466
 20
8.2155965668
 30
0.0
 10
9.039877788
 20
8.2233702494
 30
0.0
 10
9.0360274344
 20
8.231237965
 30
0.0
 10
9.0333609127
 20
8.2364963498
 30
0.0
 10
9.0319962635
 20
8.2391423999
 30
0.0
 11
9.0319962635
 21
7.8608539386
 31
0.0
 11
9.0360349425
 21
7.8688203501
 31
0.0
 11
9.0398826158
 21
7.876684735
 31
0.0
 11
9.0435451283
 21
7.8844551844
 31
0.0
 11
9.0470277671
 21
7.8921393979
 31
0.0
 11
9.0503352186
 21
7.8997445358
 31
0.0
 11
9.0534716529
 21
7.9072773363
 31
0.0
 11
9.0564407359
 21
7.9147440801
 31
0.0
 11
9.0592456873
 21
7.9221506586
 31
0.0
 11
9.0618893152
 21
7.929502599
 31
0.0
 11
9.0643740458
 21
7.936805072
 31
0.0
 11
9.0667019546
 21
7.9440629094
 31
0.0
 11
9.0688747968
 21
7.9512806153
 31
0.0
 11
9.0708940287
 21
7.9584623493
 31
0.0
 11
9.0727608568
 21
7.965612004
 31
0.0
 11
9.0744762606
 21
7.9727332048
 31
0.0
 11
9.0760410183
 21
7.9798293183
 31
0.0
 11
9.0774557336
 21
7.9869034685
 31
0.0
 11
9.0787208591
 21
7.9939585405
 31
0.0
 11
9.0798367198
 21
8.0009971772
 31
0.0
 11
9.0808035484
 21
8.0080218688
 31
0.0
 11
9.0816214997
 21
8.0150349418
 31
0.0
 11
9.0822906692
 21
8.0220385757
 31
0.0
 11
9.0828111096
 21
8.0290348254
 31
0.0
 11
9.0831828448
 21
8.036025619
 31
0.0
 11
9.0834058835
 21
8.043012793
 31
0.0
 11
9.0834802295
 21
8.0499981693
 31
0.0
 11
9.0834058835
 21
8.0569835455
 31
0.0
 11
9.0831828448
 21
8.0639707195
 31
0.0
 11
9.0828111096
 21
8.0709615131
 31
0.0
 11
9.0822906692
 21
8.0779577628
 31
0.0
 11
9.0816214997
 21
8.0849613967
 31
0.0
 11
9.0808035484
 21
8.0919744697
 31
0.0
 11
9.0798367198
 21
8.0989991613
 31
0.0
 11
9.0787208591
 21
8.106037798
 31
0.0
 11
9.0774557336
 21
8.11309287
 31
0.0
 11
9.0760410183
 21
8.1201670202
 31
0.0
 11
9.0744762606
 21
8.1272631337
 31
0.0
 11
9.0727608568
 21
8.1343843345
 31
0.0
 11
9.0708940287
 21
8.1415339892
 31
0.0
 11
9.0688747968
 21
8.1487157232
 31
0.0
 11
9.0667019546
 21
8.1559334291
 31
0.0
 11
9.0643740458
 21
8.1631912665
 31
0.0
 11
9.0618893152
 21
8.1704937395
 31
0.0
 11
9.0592456873
 21
8.1778456799
 31
0.0
 11
9.0564407359
 21
8.1852522584
 31
0.0
 11
9.0534716529
 21
8.1927190022
 31
0.0
 11
9.0503352186
 21
8.2002518027
 31
0.0
 11
9.0470277671
 21
8.2078569406
 31
0.0
 11
9.0435451283
 21
8.2155411541
 31
0.0
 11
9.0398826158
 21
8.2233116034
 31
0.0
 11
9.0360349425
 21
8.2311759884
 31
0.0
 11
9.0319962635
 21
8.2391423999
 31
0.0
  0
SPLINE
  5
4A8
100
AcDbEntity
  8
0
100
AcDbSpline
 62
7
  6
CONTINUOUS
 70
0
 71
3
 72
53
 73
49
 74
47
 42
0.0000001
 43
0.0000001
 44
0.0000000001
 12
-0.1096694271
 22
0.3683182391
 32
0.0
 13
0.1096694271
 23
0.3683182391
 33
0.0
 40
0.0
 40
0.0
 40
0.0
 40
0.0
 40
0.0231631758
 40
0.0460807742
 40
0.068775472
 40
0.09126879
 40
0.113580739
 40
0.1357300791
 40
0.1577342481
 40
0.1796094747
 40
0.20137082
 40
0.2230321965
 40
0.2446064002
 40
0.2661051323
 40
0.2875389863
 40
0.3089175795
 40
0.3302495763
 40
0.3515427331
 40
0.372803961
 40
0.3940393723
 40
0.4152543452
 40
0.4364537166
 40
0.4576418396
 40
0.4788226932
 40
0.5
 40
0.5211773068
 40
0.5423581604
 40
0.5635462834
 40
0.5847456548
 40
0.6059606278
 40
0.627196039
 40
0.6484572669
 40
0.6697504238
 40
0.6910824205
 40
0.7124610137
 40
0.7338948677
 40
0.7553935999
 40
0.7769678035
 40
0.79862918
 40
0.8203905253
 40
0.8422657519
 40
0.864269921
 40
0.886419261
 40
0.90873121
 40
0.931224528
 40
0.9539192258
 40
0.9768368242
 40
1.0
 40
1.0
 40
1.0
 40
1.0
 10
8.6585599294
 20
8.2983699726
 30
0.0
 10
8.6577131653
 20
8.3012137793
 30
0.0
 10
8.6560565365
 20
8.3068796037
 30
0.0
 10
8.6536702201
 20
8.3153605372
 30
0.0
 10
8.6513948349
 20
8.3237830663
 30
0.0
 10
8.6492289536
 20
8.332154307
 30
0.0
 10
8.6471714857
 20
8.3404809148
 30
0.0
 10
8.6452216692
 20
8.3487690362
 30
0.0
 10
8.6433790399
 20
8.3570243407
 30
0.0
 10
8.6416434083
 20
8.36525202
 30
0.0
 10
8.6400148309
 20
8.3734568007
 30
0.0
 10
8.6384935837
 20
8.3816429474
 30
0.0
 10
8.637080134
 20
8.3898142632
 30
0.0
 10
8.6357751104
 20
8.397974088
 30
0.0
 10
8.63457927
 20
8.4061253094
 30
0.0
 10
8.6334934644
 20
8.4142703764
 30
0.0
 10
8.6325186043
 20
8.4224113208
 30
0.0
 10
8.6316556255
 20
8.4305497718
 30
0.0
 10
8.6309054552
 20
8.4386869762
 30
0.0
 10
8.6302689784
 20
8.4468238212
 30
0.0
 10
8.6297470053
 20
8.4549608776
 30
0.0
 10
8.6293402422
 20
8.4630984446
 30
0.0
 10
8.629049266
 20
8.4712366035
 30
0.0
 10
8.6288745045
 20
8.479375262
 30
0.0
 10
8.628816221
 20
8.4875142032
 30
0.0
 10
8.6288745045
 20
8.4956531445
 30
0.0
 10
8.629049266
 20
8.503791803
 30
0.0
 10
8.6293402422
 20
8.5119299618
 30
0.0
 10
8.6297470053
 20
8.5200675289
 30
0.0
 10
8.6302689784
 20
8.5282045853
 30
0.0
 10
8.6309054552
 20
8.5363414303
 30
0.0
 10
8.6316556255
 20
8.5444786346
 30
0.0
 10
8.6325186043
 20
8.5526170857
 30
0.0
 10
8.6334934644
 20
8.56075803
 30
0.0
 10
8.63457927
 20
8.5689030971
 30
0.0
 10
8.6357751104
 20
8.5770543185
 30
0.0
 10
8.637080134
 20
8.5852141432
 30
0.0
 10
8.6384935837
 20
8.593385459
 30
0.0
 10
8.6400148309
 20
8.6015716057
 30
0.0
 10
8.6416434083
 20
8.6097763865
 30
0.0
 10
8.6433790399
 20
8.6180040658
 30
0.0
 10
8.6452216692
 20
8.6262593702
 30
0.0
 10
8.6471714857
 20
8.6345474917
 30
0.0
 10
8.6492289536
 20
8.6428740995
 30
0.0
 10
8.6513948349
 20
8.6512453402
 30
0.0
 10
8.6536702201
 20
8.6596678693
 30
0.0
 10
8.6560565365
 20
8.6681488028
 30
0.0
 10
8.6577131653
 20
8.6738146272
 30
0.0
 10
8.6585599294
 20
8.6766584339
 30
0.0
 11
8.6585599294
 21
8.2983699726
 31
0.0
 11
8.6560623009
 21
8.3069139802
 31
0.0
 11
8.6536773119
 21
8.315392115
 31
0.0
 11
8.6514031807
 21
8.3238119576
 31
0.0
 11
8.6492384671
 21
8.3321806794
 31
0.0
 11
8.6471820917
 21
8.3405049014
 31
0.0
 11
8.6452332917
 21
8.3487907806
 31
0.0
 11
8.6433916081
 21
8.3570439726
 31
0.0
 11
8.6416568536
 21
8.3652696646
 31
0.0
 11
8.6400290866
 21
8.3734725818
 31
0.0
 11
8.638508585
 21
8.3816569852
 31
0.0
 11
8.6370958171
 21
8.389826676
 31
0.0
 11
8.6357914125
 21
8.3979849967
 31
0.0
 11
8.6345961316
 21
8.4061348193
 31
0.0
 11
8.6335108267
 21
8.414278591
 31
0.0
 11
8.6325364099
 21
8.422418339
 31
0.0
 11
8.6316738183
 21
8.4305556861
 31
0.0
 11
8.63092398
 21
8.4386918745
 31
0.0
 11
8.6302877812
 21
8.4468277852
 31
0.0
 11
8.6297660342
 21
8.4549639659
 31
0.0
 11
8.6293594458
 21
8.4631007106
 31
0.0
 11
8.6290685938
 21
8.4712380885
 31
0.0
 11
8.6288939066
 21
8.4793759943
 31
0.0
 11
8.6288356477
 21
8.4875142032
 31
0.0
 11
8.6288939066
 21
8.4956524122
 31
0.0
 11
8.6290685938
 21
8.503790318
 31
0.0
 11
8.6293594458
 21
8.5119276959
 31
0.0
 11
8.6297660342
 21
8.5200644406
 31
0.0
 11
8.6302877812
 21
8.5282006213
 31
0.0
 11
8.63092398
 21
8.5363365319
 31
0.0
 11
8.6316738183
 21
8.5444727204
 31
0.0
 11
8.6325364099
 21
8.5526100675
 31
0.0
 11
8.6335108267
 21
8.5607498155
 31
0.0
 11
8.6345961316
 21
8.5688935872
 31
0.0
 11
8.6357914125
 21
8.5770434098
 31
0.0
 11
8.6370958172
 21
8.5852017305
 31
0.0
 11
8.638508585
 21
8.5933714213
 31
0.0
 11
8.6400290866
 21
8.6015558247
 31
0.0
 11
8.6416568536
 21
8.6097587418
 31
0.0
 11
8.6433916081
 21
8.6179844339
 31
0.0
 11
8.6452332917
 21
8.6262376259
 31
0.0
 11
8.6471820917
 21
8.634523505
 31
0.0
 11
8.6492384671
 21
8.6428477271
 31
0.0
 11
8.6514031807
 21
8.6512164488
 31
0.0
 11
8.6536773119
 21
8.6596362914
 31
0.0
 11
8.6560623009
 21
8.6681144263
 31
0.0
 11
8.6585599294
 21
8.6766584339
 31
0.0
  0
SPLINE
  5
4A9
100
AcDbEntity
  8
0
100
AcDbSpline
 62
7
  6
CONTINUOUS
 70
0
 71
3
 72
59
 73
55
 74
53
 42
0.0000001
 43
0.0000001
 44
0.0000000001
 12
0.1814544218
 22
0.3518394876
 32
0.0
 13
-0.1814544218
 23
0.3518394876
 33
0.0
 40
0.0
 40
0.0
 40
0.0
 40
0.0
 40
0.0225618519
 40
0.0446778882
 40
0.0663775263
 40
0.0876887716
 40
0.1086378568
 40
0.1292496227
 40
0.1495474724
 40
0.1695536073
 40
0.1892891401
 40
0.2087741572
 40
0.2280278063
 40
0.2470683628
 40
0.2659132201
 40
0.2845791236
 40
0.3030821948
 40
0.3214379738
 40
0.3396614786
 40
0.3577672267
 40
0.3757692349
 40
0.3936812516
 40
0.411516725
 40
0.4292888397
 40
0.4470105616
 40
0.4646946198
 40
0.4823535757
 40
0.5
 40
0.5176464243
 40
0.5353053803
 40
0.5529894384
 40
0.5707111603
 40
0.588483275
 40
0.6063187484
 40
0.6242307652
 40
0.6422327733
 40
0.6603385215
 40
0.6785620262
 40
0.6969178052
 40
0.7154208764
 40
0.7340867799
 40
0.7529316372
 40
0.7719721937
 40
0.7912258428
 40
0.8107108599
 40
0.8304463927
 40
0.8504525276
 40
0.8707503773
 40
0.8913621432
 40
0.9123112284
 40
0.9336224737
 40
0.9553221118
 40
0.9774381481
 40
1.0
 40
1.0
 40
1.0
 40
1.0
 10
9.0319962635
 20
8.2983699726
 30
0.0
 10
9.0333609127
 20
8.3010160227
 30
0.0
 10
9.0360274344
 20
8.3062744075
 30
0.0
 10
9.039877788
 20
8.3141421231
 30
0.0
 10
9.0435428466
 20
8.3219158057
 30
0.0
 10
9.04702787
 20
8.3296030906
 30
0.0
 10
9.0503375715
 20
8.3372111867
 30
0.0
 10
9.0534761201
 20
8.3447468233
 30
0.0
 10
9.0564471963
 20
8.3522163085
 30
0.0
 10
9.0592540261
 20
8.3596255456
 30
0.0
 10
9.0618994217
 20
8.3669800683
 30
0.0
 10
9.0643858134
 20
8.3742850565
 30
0.0
 10
9.0667152797
 20
8.3815453488
 30
0.0
 10
9.0688895751
 20
8.3887654464
 30
0.0
 10
9.0709101641
 20
8.3959495367
 30
0.0
 10
9.0727782527
 20
8.4031015136
 30
0.0
 10
9.0744948204
 20
8.410225006
 30
0.0
 10
9.0760606452
 20
8.4173233856
 30
0.0
 10
9.0774763296
 20
8.4243997767
 30
0.0
 10
9.0787423245
 20
8.4314570617
 30
0.0
 10
9.0798589582
 20
8.4384979104
 30
0.0
 10
9.0808264602
 20
8.4455248055
 30
0.0
 10
9.0816449839
 20
8.4525400745
 30
0.0
 10
9.0823146236
 20
8.4595458988
 30
0.0
 10
9.0828354305
 20
8.4665443266
 30
0.0
 10
9.0832074278
 20
8.4735372907
 30
0.0
 10
9.0834306245
 20
8.4805266459
 30
0.0
 10
9.0835050232
 20
8.4875142032
 30
0.0
 10
9.0834306245
 20
8.4945017606
 30
0.0
 10
9.0832074278
 20
8.5014911158
 30
0.0
 10
9.0828354305
 20
8.5084840799
 30
0.0
 10
9.0823146236
 20
8.5154825076
 30
0.0
 10
9.0816449839
 20
8.522488332
 30
0.0
 10
9.0808264602
 20
8.529503601
 30
0.0
 10
9.0798589582
 20
8.5365304961
 30
0.0
 10
9.0787423245
 20
8.5435713448
 30
0.0
 10
9.0774763296
 20
8.5506286298
 30
0.0
 10
9.0760606452
 20
8.5577050209
 30
0.0
 10
9.0744948204
 20
8.5648034005
 30
0.0
 10
9.0727782527
 20
8.5719268928
 30
0.0
 10
9.0709101641
 20
8.5790788698
 30
0.0
 10
9.0688895751
 20
8.5862629601
 30
0.0
 10
9.0667152797
 20
8.5934830577
 30
0.0
 10
9.0643858134
 20
8.60074335
 30
0.0
 10
9.0618994217
 20
8.6080483382
 30
0.0
 10
9.0592540261
 20
8.6154028609
 30
0.0
 10
9.0564471963
 20
8.622812098
 30
0.0
 10
9.0534761201
 20
8.6302815831
 30
0.0
 10
9.0503375715
 20
8.6378172198
 30
0.0
 10
9.04702787
 20
8.6454253159
 30
0.0
 10
9.0435428466
 20
8.6531126008
 30
0.0
 10
9.039877788
 20
8.6608862834
 30
0.0
 10
9.0360274344
 20
8.668753999
 30
0.0
 10
9.0333609127
 20
8.6740123838
 30
0.0
 10
9.0319962635
 20
8.6766584339
 30
0.0
 11
9.0319962635
 21
8.2983699726
 31
0.0
 11
9.0360349425
 21
8.3063363841
 31
0.0
 11
9.0398826158
 21
8.314200769
 31
0.0
 11
9.0435451283
 21
8.3219712184
 31
0.0
 11
9.0470277671
 21
8.3296554318
 31
0.0
 11
9.0503352186
 21
8.3372605698
 31
0.0
 11
9.0534716529
 21
8.3447933703
 31
0.0
 11
9.0564407359
 21
8.3522601141
 31
0.0
 11
9.0592456873
 21
8.3596666926
 31
0.0
 11
9.0618893152
 21
8.367018633
 31
0.0
 11
9.0643740458
 21
8.374321106
 31
0.0
 11
9.0667019546
 21
8.3815789434
 31
0.0
 11
9.0688747968
 21
8.3887966493
 31
0.0
 11
9.0708940287
 21
8.3959783833
 31
0.0
 11
9.0727608568
 21
8.403128038
 31
0.0
 11
9.0744762606
 21
8.4102492388
 31
0.0
 11
9.0760410183
 21
8.4173453523
 31
0.0
 11
9.0774557336
 21
8.4244195025
 31
0.0
 11
9.0787208591
 21
8.4314745745
 31
0.0
 11
9.0798367198
 21
8.4385132112
 31
0.0
 11
9.0808035484
 21
8.4455379028
 31
0.0
 11
9.0816214997
 21
8.4525509758
 31
0.0
 11
9.0822906692
 21
8.4595546097
 31
0.0
 11
9.0828111096
 21
8.4665508594
 31
0.0
 11
9.0831828448
 21
8.473541653
 31
0.0
 11
9.0834058835
 21
8.480528827
 31
0.0
 11
9.0834802295
 21
8.4875142032
 31
0.0
 11
9.0834058835
 21
8.4944995795
 31
0.0
 11
9.0831828448
 21
8.5014867535
 31
0.0
 11
9.0828111096
 21
8.5084775471
 31
0.0
 11
9.0822906692
 21
8.5154737968
 31
0.0
 11
9.0816214997
 21
8.5224774307
 31
0.0
 11
9.0808035484
 21
8.5294905037
 31
0.0
 11
9.0798367198
 21
8.5365151953
 31
0.0
 11
9.0787208591
 21
8.543553832
 31
0.0
 11
9.0774557336
 21
8.550608904
 31
0.0
 11
9.0760410183
 21
8.5576830542
 31
0.0
 11
9.0744762606
 21
8.5647791676
 31
0.0
 11
9.0727608568
 21
8.5719003685
 31
0.0
 11
9.0708940287
 21
8.5790500232
 31
0.0
 11
9.0688747968
 21
8.5862317572
 31
0.0
 11
9.0667019546
 21
8.5934494631
 31
0.0
 11
9.0643740458
 21
8.6007073005
 31
0.0
 11
9.0618893152
 21
8.6080097735
 31
0.0
 11
9.0592456873
 21
8.6153617139
 31
0.0
 11
9.0564407359
 21
8.6227682924
 31
0.0
 11
9.0534716529
 21
8.6302350362
 31
0.0
 11
9.0503352186
 21
8.6377678367
 31
0.0
 11
9.0470277671
 21
8.6453729746
 31
0.0
 11
9.0435451283
 21
8.6530571881
 31
0.0
 11
9.0398826158
 21
8.6608276374
 31
0.0
 11
9.0360349425
 21
8.6686920224
 31
0.0
 11
9.0319962635
 21
8.6766584339
 31
0.0
  0
SPLINE
  5
4AA
100
AcDbEntity
  8
0
100
AcDbSpline
 62
7
  6
CONTINUOUS
 70
0
 71
3
 72
54
 73
50
 74
48
 42
0.0000001
 43
0.0000001
 44
0.0000000001
 12
0.1096694577
 22
-0.3683183421
 32
0.0
 13
-0.1096694577
 23
-0.3683183421
 33
0.0
 40
0.0
 40
0.0
 40
0.0
 40
0.0
 40
0.0226729782
 40
0.0451102513
 40
0.0673330985
 40
0.0893617861
 40
0.1112151707
 40
0.132910943
 40
0.1544655736
 40
0.1758944496
 40
0.1972118742
 40
0.218431094
 40
0.2395643136
 40
0.2606226691
 40
0.2816163677
 40
0.3025546924
 40
0.3234460341
 40
0.3442979295
 40
0.3651170446
 40
0.3859093489
 40
0.406680176
 40
0.4274342838
 40
0.4481759407
 40
0.4689089582
 40
0.4896368795
 40
0.5103631205
 40
0.5310910418
 40
0.5518240593
 40
0.5725657163
 40
0.593319824
 40
0.6140906511
 40
0.6348829554
 40
0.6557020705
 40
0.6765539659
 40
0.6974453076
 40
0.7183836324
 40
0.7393773309
 40
0.7604356865
 40
0.781568906
 40
0.8027881258
 40
0.8241055504
 40
0.8455344264
 40
0.867089057
 40
0.8887848293
 40
0.9106382139
 40
0.9326669015
 40
0.9548897487
 40
0.9773270218
 40
1.0
 40
1.0
 40
1.0
 40
1.0
 10
14.7764327998
 20
8.6766584339
 30
0.0
 10
14.7772616442
 20
8.6738748093
 30
0.0
 10
14.7788839607
 20
8.6683284874
 30
0.0
 10
14.7812229383
 20
8.6600261841
 30
0.0
 10
14.7834555936
 20
8.65178012
 30
0.0
 10
14.7855832823
 20
8.6435835987
 30
0.0
 10
14.7876070503
 20
8.6354303451
 30
0.0
 10
14.789527639
 20
8.6273145567
 30
0.0
 10
14.7913455146
 20
8.6192308673
 30
0.0
 10
14.7930608891
 20
8.6111743473
 30
0.0
 10
14.7946737455
 20
8.6031404913
 30
0.0
 10
14.7961838603
 20
8.5951252205
 30
0.0
 10
14.7975908279
 20
8.5871248888
 30
0.0
 10
14.7988940894
 20
8.5791362732
 30
0.0
 10
14.8000929614
 20
8.5711565647
 30
0.0
 10
14.801186667
 20
8.5631833509
 30
0.0
 10
14.8021743656
 20
8.5552146098
 30
0.0
 10
14.8030551824
 20
8.5472487054
 30
0.0
 10
14.8038282406
 20
8.5392843631
 30
0.0
 10
14.804492693
 20
8.5313206414
 30
0.0
 10
14.8050477512
 20
8.5233568914
 30
0.0
 10
14.8054927121
 20
8.5153927262
 30
0.0
 10
14.8058269815
 20
8.5074279924
 30
0.0
 10
14.8060500942
 20
8.4994627238
 30
0.0
 10
14.8061617315
 20
8.4914970867
 30
0.0
 10
14.8061617315
 20
8.4835313198
 30
0.0
 10
14.8060500942
 20
8.4755656827
 30
0.0
 10
14.8058269815
 20
8.4676004141
 30
0.0
 10
14.8054927121
 20
8.4596356803
 30
0.0
 10
14.8050477512
 20
8.4516715151
 30
0.0
 10
14.804492693
 20
8.443707765
 30
0.0
 10
14.8038282406
 20
8.4357440434
 30
0.0
 10
14.8030551824
 20
8.4277797011
 30
0.0
 10
14.8021743656
 20
8.4198137967
 30
0.0
 10
14.801186667
 20
8.4118450556
 30
0.0
 10
14.8000929614
 20
8.4038718418
 30
0.0
 10
14.7988940894
 20
8.3958921333
 30
0.0
 10
14.7975908279
 20
8.3879035176
 30
0.0
 10
14.7961838603
 20
8.3799031859
 30
0.0
 10
14.7946737455
 20
8.3718879152
 30
0.0
 10
14.7930608891
 20
8.3638540591
 30
0.0
 10
14.7913455146
 20
8.3557975392
 30
0.0
 10
14.789527639
 20
8.3477138498
 30
0.0
 10
14.7876070503
 20
8.3395980613
 30
0.0
 10
14.7855832823
 20
8.3314448078
 30
0.0
 10
14.7834555936
 20
8.3232482865
 30
0.0
 10
14.7812229383
 20
8.3150022223
 30
0.0
 10
14.7788839607
 20
8.3066999191
 30
0.0
 10
14.7772616442
 20
8.3011535971
 30
0.0
 10
14.7764327998
 20
8.2983699726
 30
0.0
 11
14.7764327998
 21
8.6766584339
 31
0.0
 11
14.7788784668
 21
8.6682955007
 31
0.0
 11
14.7812161982
 21
8.659995823
 31
0.0
 11
14.783447673
 21
8.6517522874
 31
0.0
 11
14.7855742614
 21
8.6435581381
 31
0.0
 11
14.7875969988
 21
8.6354071321
 31
0.0
 11
14.7895166269
 21
8.6272934588
 31
0.0
 11
14.7913336064
 21
8.6192117687
 31
0.0
 11
14.7930481481
 21
8.6111571317
 31
0.0
 11
14.7946602333
 21
8.6031250449
 31
0.0
 11
14.796169637
 21
8.5951114309
 31
0.0
 11
14.7975759535
 21
8.5871126395
 31
0.0
 11
14.7988786199
 21
8.5791254645
 31
0.0
 11
14.8000769522
 21
8.5711470967
 31
0.0
 11
14.8011701724
 21
8.5631751267
 31
0.0
 11
14.8021574388
 21
8.5552075363
 31
0.0
 11
14.8030378763
 21
8.5472426861
 31
0.0
 11
14.8038106055
 21
8.5392793223
 31
0.0
 11
14.8044747781
 21
8.5313165097
 31
0.0
 11
14.8050296049
 21
8.5233536055
 31
0.0
 11
14.8054743821
 21
8.5153902322
 31
0.0
 11
14.8058085147
 21
8.5074262385
 31
0.0
 11
14.8060315366
 21
8.4994616806
 31
0.0
 11
14.8061431286
 21
8.491496741
 31
0.0
 11
14.8061431286
 21
8.4835316654
 31
0.0
 11
14.8060315366
 21
8.4755667258
 31
0.0
 11
14.8058085147
 21
8.467602168
 31
0.0
 11
14.8054743821
 21
8.4596381743
 31
0.0
 11
14.8050296049
 21
8.4516748009
 31
0.0
 11
14.8044747781
 21
8.4437118967
 31
0.0
 11
14.8038106055
 21
8.4357490842
 31
0.0
 11
14.8030378763
 21
8.4277857204
 31
0.0
 11
14.8021574388
 21
8.4198208702
 31
0.0
 11
14.8011701724
 21
8.4118532798
 31
0.0
 11
14.8000769522
 21
8.4038813098
 31
0.0
 11
14.7988786199
 21
8.395902942
 31
0.0
 11
14.7975759535
 21
8.387915767
 31
0.0
 11
14.796169637
 21
8.3799169756
 31
0.0
 11
14.7946602333
 21
8.3719033616
 31
0.0
 11
14.7930481481
 21
8.3638712748
 31
0.0
 11
14.7913336064
 21
8.3558166378
 31
0.0
 11
14.7895166269
 21
8.3477349477
 31
0.0
 11
14.7875969988
 21
8.3396212744
 31
0.0
 11
14.7855742614
 21
8.3314702684
 31
0.0
 11
14.783447673
 21
8.323276119
 31
0.0
 11
14.7812161982
 21
8.3150325835
 31
0.0
 11
14.7788784668
 21
8.3067329058
 31
0.0
 11
14.7764327998
 21
8.2983699726
 31
0.0
  0
SPLINE
  5
4AB
100
AcDbEntity
  8
0
100
AcDbSpline
 62
7
  6
CONTINUOUS
 70
0
 71
3
 72
60
 73
56
 74
54
 42
0.0000001
 43
0.0000001
 44
0.0000000001
 12
-0.1814545164
 22
-0.351839671
 32
0.0
 13
0.1814545164
 23
-0.351839671
 33
0.0
 40
0.0
 40
0.0
 40
0.0
 40
0.0
 40
0.0221403721
 40
0.0438510519
 40
0.065159847
 40
0.0860933059
 40
0.1066763049
 40
0.1269323979
 40
0.1468837886
 40
0.166551613
 40
0.1859559666
 40
0.2051159828
 40
0.2240499022
 40
0.2427750412
 40
0.2613080424
 40
0.2796649061
 40
0.2978610234
 40
0.3159112318
 40
0.333829764
 40
0.3516304188
 40
0.3693266659
 40
0.386931628
 40
0.4044581249
 40
0.4219186545
 40
0.4393254218
 40
0.4566905726
 40
0.4740261225
 40
0.4913439902
 40
0.5086560099
 40
0.5259738775
 40
0.5433094274
 40
0.5606745782
 40
0.5780813455
 40
0.5955418751
 40
0.613068372
 40
0.6306733341
 40
0.6483695812
 40
0.666170236
 40
0.6840887683
 40
0.7021389766
 40
0.7203350939
 40
0.7386919576
 40
0.7572249588
 40
0.7759500978
 40
0.7948840172
 40
0.8140440334
 40
0.833448387
 40
0.8531162114
 40
0.8730676021
 40
0.8933236951
 40
0.9139066941
 40
0.934840153
 40
0.9561489481
 40
0.9778596279
 40
1.0
 40
1.0
 40
1.0
 40
1.0
 10
14.4029964657
 20
8.6766584339
 30
0.0
 10
14.4016573088
 20
8.6740618135
 30
0.0
 10
14.3990394785
 20
8.6689010829
 30
0.0
 10
14.3952566548
 20
8.6611792256
 30
0.0
 10
14.391652395
 20
8.6535481669
 30
0.0
 10
14.3882217052
 20
8.6460006736
 30
0.0
 10
14.3849600996
 20
8.6385299075
 30
0.0
 10
14.3818636022
 20
8.6311294832
 30
0.0
 10
14.3789286916
 20
8.6237934051
 30
0.0
 10
14.3761522698
 20
8.6165160507
 30
0.0
 10
14.3735316248
 20
8.609292138
 30
0.0
 10
14.3710644045
 20
8.6021167186
 30
0.0
 10
14.3687485929
 20
8.5949851767
 30
0.0
 10
14.3665824768
 20
8.5878932066
 30
0.0
 10
14.3645646162
 20
8.5808367927
 30
0.0
 10
14.3626938132
 20
8.5738121802
 30
0.0
 10
14.3609690885
 20
8.566815869
 30
0.0
 10
14.3593896603
 20
8.5598446161
 30
0.0
 10
14.3579549176
 20
8.5528954207
 30
0.0
 10
14.3566643933
 20
8.5459654993
 30
0.0
 10
14.3555177392
 20
8.5390522562
 30
0.0
 10
14.3545147052
 20
8.5321532669
 30
0.0
 10
14.3536551229
 20
8.5252662775
 30
0.0
 10
14.3529388866
 20
8.5183891959
 30
0.0
 10
14.3523659347
 20
8.5115200565
 30
0.0
 10
14.351936234
 20
8.5046569902
 30
0.0
 10
14.3516497695
 20
8.4977981928
 30
0.0
 10
14.351506537
 20
8.4909419208
 30
0.0
 10
14.351506537
 20
8.4840864856
 30
0.0
 10
14.3516497695
 20
8.4772302137
 30
0.0
 10
14.351936234
 20
8.4703714162
 30
0.0
 10
14.3523659347
 20
8.46350835
 30
0.0
 10
14.3529388866
 20
8.4566392106
 30
0.0
 10
14.3536551229
 20
8.449762129
 30
0.0
 10
14.3545147052
 20
8.4428751396
 30
0.0
 10
14.3555177392
 20
8.4359761503
 30
0.0
 10
14.3566643933
 20
8.4290629072
 30
0.0
 10
14.3579549176
 20
8.4221329858
 30
0.0
 10
14.3593896603
 20
8.4151837904
 30
0.0
 10
14.3609690885
 20
8.4082125375
 30
0.0
 10
14.3626938132
 20
8.4012162262
 30
0.0
 10
14.3645646162
 20
8.3941916138
 30
0.0
 10
14.3665824768
 20
8.3871351999
 30
0.0
 10
14.3687485929
 20
8.3800432298
 30
0.0
 10
14.3710644045
 20
8.3729116879
 30
0.0
 10
14.3735316248
 20
8.3657362685
 30
0.0
 10
14.3761522698
 20
8.3585123558
 30
0.0
 10
14.3789286916
 20
8.3512350014
 30
0.0
 10
14.3818636022
 20
8.3438989232
 30
0.0
 10
14.3849600996
 20
8.336498499
 30
0.0
 10
14.3882217052
 20
8.3290277328
 30
0.0
 10
14.391652395
 20
8.3214802395
 30
0.0
 10
14.3952566548
 20
8.3138491809
 30
0.0
 10
14.3990394785
 20
8.3061273236
 30
0.0
 10
14.4016573088
 20
8.300966593
 30
0.0
 10
14.4029964657
 20
8.2983699726
 30
0.0
 11
14.4029964657
 21
8.6766584339
 31
0.0
 11
14.3990322011
 21
8.668841362
 31
0.0
 11
14.3952519118
 21
8.6611226517
 31
0.0
 11
14.391650065
 21
8.6534946561
 31
0.0
 11
14.3882216367
 21
8.6459500723
 31
0.0
 11
14.3849621657
 21
8.6384821071
 31
0.0
 11
14.3818676764
 21
8.6310843685
 31
0.0
 11
14.3789346636
 21
8.623750894
 31
0.0
 11
14.3761600316
 21
8.6164760629
 31
0.0
 11
14.373541073
 21
8.6092546017
 31
0.0
 11
14.3710754396
 21
8.6020815689
 31
0.0
 11
14.3687611139
 21
8.5949523436
 31
0.0
 11
14.3665963931
 21
8.5878626497
 31
0.0
 11
14.3645798372
 21
8.5808084744
 31
0.0
 11
14.3627102486
 21
8.5737860655
 31
0.0
 11
14.3609866484
 21
8.5667919279
 31
0.0
 11
14.3594082521
 21
8.5598228103
 31
0.0
 11
14.3579744521
 21
8.5528757313
 31
0.0
 11
14.3566847821
 21
8.5459479188
 31
0.0
 11
14.3555388911
 21
8.5390367719
 31
0.0
 11
14.3545365282
 21
8.5321398689
 31
0.0
 11
14.3536775228
 21
8.5252549501
 31
0.0
 11
14.3529617683
 21
8.5183799235
 31
0.0
 11
14.3523892045
 21
8.5115128505
 31
0.0
 11
14.3519597958
 21
8.5046518486
 31
0.0
 11
14.3516735264
 21
8.4977951137
 31
0.0
 11
14.3515303916
 21
8.4909408998
 31
0.0
 11
14.3515303916
 21
8.4840875066
 31
0.0
 11
14.3516735264
 21
8.4772332928
 31
0.0
 11
14.3519597958
 21
8.4703765579
 31
0.0
 11
14.3523892045
 21
8.463515556
 31
0.0
 11
14.3529617683
 21
8.4566484829
 31
0.0
 11
14.3536775228
 21
8.4497734564
 31
0.0
 11
14.3545365282
 21
8.4428885376
 31
0.0
 11
14.3555388911
 21
8.4359916345
 31
0.0
 11
14.3566847821
 21
8.4290804876
 31
0.0
 11
14.3579744521
 21
8.4221526751
 31
0.0
 11
14.3594082522
 21
8.4152055962
 31
0.0
 11
14.3609866484
 21
8.4082364786
 31
0.0
 11
14.3627102486
 21
8.401242341
 31
0.0
 11
14.3645798372
 21
8.394219932
 31
0.0
 11
14.3665963931
 21
8.3871657568
 31
0.0
 11
14.3687611139
 21
8.3800760629
 31
0.0
 11
14.3710754396
 21
8.3729468375
 31
0.0
 11
14.373541073
 21
8.3657738048
 31
0.0
 11
14.3761600316
 21
8.3585523435
 31
0.0
 11
14.3789346636
 21
8.3512775125
 31
0.0
 11
14.3818676764
 21
8.343944038
 31
0.0
 11
14.3849621657
 21
8.3365462994
 31
0.0
 11
14.3882216367
 21
8.3290783341
 31
0.0
 11
14.391650065
 21
8.3215337504
 31
0.0
 11
14.3952519118
 21
8.3139057548
 31
0.0
 11
14.3990322011
 21
8.3061870445
 31
0.0
 11
14.4029964657
 21
8.2983699726
 31
0.0
  0
SPLINE
  5
4AC
100
AcDbEntity
  8
0
100
AcDbSpline
 62
7
  6
CONTINUOUS
 70
0
 71
3
 72
54
 73
50
 74
48
 42
0.0000001
 43
0.0000001
 44
0.0000000001
 12
0.1096694577
 22
-0.3683183421
 32
0.0
 13
-0.1096694577
 23
-0.3683183421
 33
0.0
 40
0.0
 40
0.0
 40
0.0
 40
0.0
 40
0.0226729782
 40
0.0451102513
 40
0.0673330985
 40
0.0893617861
 40
0.1112151707
 40
0.132910943
 40
0.1544655736
 40
0.1758944496
 40
0.1972118742
 40
0.218431094
 40
0.2395643136
 40
0.2606226691
 40
0.2816163677
 40
0.3025546924
 40
0.3234460341
 40
0.3442979295
 40
0.3651170446
 40
0.3859093489
 40
0.406680176
 40
0.4274342838
 40
0.4481759407
 40
0.4689089582
 40
0.4896368795
 40
0.5103631205
 40
0.5310910418
 40
0.5518240593
 40
0.5725657163
 40
0.593319824
 40
0.6140906511
 40
0.6348829554
 40
0.6557020705
 40
0.6765539659
 40
0.6974453076
 40
0.7183836324
 40
0.7393773309
 40
0.7604356865
 40
0.781568906
 40
0.8027881258
 40
0.8241055504
 40
0.8455344264
 40
0.867089057
 40
0.8887848293
 40
0.9106382139
 40
0.9326669015
 40
0.9548897487
 40
0.9773270218
 40
1.0
 40
1.0
 40
1.0
 40
1.0
 10
14.7764327998
 20
8.2391423999
 30
0.0
 10
14.7772616442
 20
8.2363587753
 30
0.0
 10
14.7788839607
 20
8.2308124534
 30
0.0
 10
14.7812229383
 20
8.2225101502
 30
0.0
 10
14.7834555936
 20
8.214264086
 30
0.0
 10
14.7855832823
 20
8.2060675647
 30
0.0
 10
14.7876070503
 20
8.1979143111
 30
0.0
 10
14.789527639
 20
8.1897985227
 30
0.0
 10
14.7913455146
 20
8.1817148333
 30
0.0
 10
14.7930608891
 20
8.1736583134
 30
0.0
 10
14.7946737455
 20
8.1656244573
 30
0.0
 10
14.7961838603
 20
8.1576091865
 30
0.0
 10
14.7975908279
 20
8.1496088548
 30
0.0
 10
14.7988940894
 20
8.1416202392
 30
0.0
 10
14.8000929614
 20
8.1336405307
 30
0.0
 10
14.801186667
 20
8.1256673169
 30
0.0
 10
14.8021743656
 20
8.1176985758
 30
0.0
 10
14.8030551824
 20
8.1097326714
 30
0.0
 10
14.8038282406
 20
8.1017683291
 30
0.0
 10
14.804492693
 20
8.0938046074
 30
0.0
 10
14.8050477512
 20
8.0858408574
 30
0.0
 10
14.8054927121
 20
8.0778766922
 30
0.0
 10
14.8058269815
 20
8.0699119584
 30
0.0
 10
14.8060500942
 20
8.0619466898
 30
0.0
 10
14.8061617315
 20
8.0539810527
 30
0.0
 10
14.8061617315
 20
8.0460152858
 30
0.0
 10
14.8060500942
 20
8.0380496487
 30
0.0
 10
14.8058269815
 20
8.0300843801
 30
0.0
 10
14.8054927121
 20
8.0221196463
 30
0.0
 10
14.8050477512
 20
8.0141554811
 30
0.0
 10
14.804492693
 20
8.0061917311
 30
0.0
 10
14.8038282406
 20
7.9982280094
 30
0.0
 10
14.8030551824
 20
7.9902636671
 30
0.0
 10
14.8021743656
 20
7.9822977627
 30
0.0
 10
14.801186667
 20
7.9743290216
 30
0.0
 10
14.8000929614
 20
7.9663558078
 30
0.0
 10
14.7988940894
 20
7.9583760993
 30
0.0
 10
14.7975908279
 20
7.9503874836
 30
0.0
 10
14.7961838603
 20
7.942387152
 30
0.0
 10
14.7946737455
 20
7.9343718812
 30
0.0
 10
14.7930608891
 20
7.9263380251
 30
0.0
 10
14.7913455146
 20
7.9182815052
 30
0.0
 10
14.789527639
 20
7.9101978158
 30
0.0
 10
14.7876070503
 20
7.9020820274
 30
0.0
 10
14.7855832823
 20
7.8939287738
 30
0.0
 10
14.7834555936
 20
7.8857322525
 30
0.0
 10
14.7812229383
 20
7.8774861883
 30
0.0
 10
14.7788839607
 20
7.8691838851
 30
0.0
 10
14.7772616442
 20
7.8636375631
 30
0.0
 10
14.7764327998
 20
7.8608539386
 30
0.0
 11
14.7764327998
 21
8.2391423999
 31
0.0
 11
14.7788784668
 21
8.2307794667
 31
0.0
 11
14.7812161982
 21
8.222479789
 31
0.0
 11
14.783447673
 21
8.2142362535
 31
0.0
 11
14.7855742614
 21
8.2060421041
 31
0.0
 11
14.7875969988
 21
8.1978910981
 31
0.0
 11
14.7895166269
 21
8.1897774248
 31
0.0
 11
14.7913336064
 21
8.1816957347
 31
0.0
 11
14.7930481481
 21
8.1736410977
 31
0.0
 11
14.7946602333
 21
8.1656090109
 31
0.0
 11
14.796169637
 21
8.1575953969
 31
0.0
 11
14.7975759535
 21
8.1495966055
 31
0.0
 11
14.7988786199
 21
8.1416094305
 31
0.0
 11
14.8000769522
 21
8.1336310627
 31
0.0
 11
14.8011701724
 21
8.1256590927
 31
0.0
 11
14.8021574388
 21
8.1176915023
 31
0.0
 11
14.8030378763
 21
8.1097266521
 31
0.0
 11
14.8038106055
 21
8.1017632883
 31
0.0
 11
14.8044747781
 21
8.0938004757
 31
0.0
 11
14.8050296049
 21
8.0858375716
 31
0.0
 11
14.8054743821
 21
8.0778741982
 31
0.0
 11
14.8058085147
 21
8.0699102045
 31
0.0
 11
14.8060315366
 21
8.0619456466
 31
0.0
 11
14.8061431286
 21
8.053980707
 31
0.0
 11
14.8061431286
 21
8.0460156314
 31
0.0
 11
14.8060315366
 21
8.0380506918
 31
0.0
 11
14.8058085147
 21
8.030086134
 31
0.0
 11
14.8054743821
 21
8.0221221403
 31
0.0
 11
14.8050296049
 21
8.0141587669
 31
0.0
 11
14.8044747781
 21
8.0061958627
 31
0.0
 11
14.8038106055
 21
7.9982330502
 31
0.0
 11
14.8030378763
 21
7.9902696864
 31
0.0
 11
14.8021574388
 21
7.9823048362
 31
0.0
 11
14.8011701724
 21
7.9743372458
 31
0.0
 11
14.8000769522
 21
7.9663652758
 31
0.0
 11
14.7988786199
 21
7.958386908
 31
0.0
 11
14.7975759535
 21
7.950399733
 31
0.0
 11
14.796169637
 21
7.9424009416
 31
0.0
 11
14.7946602333
 21
7.9343873276
 31
0.0
 11
14.7930481481
 21
7.9263552408
 31
0.0
 11
14.7913336064
 21
7.9183006038
 31
0.0
 11
14.7895166269
 21
7.9102189137
 31
0.0
 11
14.7875969988
 21
7.9021052404
 31
0.0
 11
14.7855742614
 21
7.8939542344
 31
0.0
 11
14.783447673
 21
7.885760085
 31
0.0
 11
14.7812161982
 21
7.8775165495
 31
0.0
 11
14.7788784668
 21
7.8692168718
 31
0.0
 11
14.7764327998
 21
7.8608539386
 31
0.0
  0
SPLINE
  5
4AD
100
AcDbEntity
  8
0
100
AcDbSpline
 62
7
  6
CONTINUOUS
 70
0
 71
3
 72
60
 73
56
 74
54
 42
0.0000001
 43
0.0000001
 44
0.0000000001
 12
-0.1814545164
 22
-0.351839671
 32
0.0
 13
0.1814545164
 23
-0.351839671
 33
0.0
 40
0.0
 40
0.0
 40
0.0
 40
0.0
 40
0.0221403721
 40
0.0438510519
 40
0.065159847
 40
0.0860933059
 40
0.1066763049
 40
0.1269323979
 40
0.1468837886
 40
0.166551613
 40
0.1859559666
 40
0.2051159828
 40
0.2240499022
 40
0.2427750412
 40
0.2613080424
 40
0.2796649061
 40
0.2978610234
 40
0.3159112318
 40
0.333829764
 40
0.3516304188
 40
0.3693266659
 40
0.386931628
 40
0.4044581249
 40
0.4219186545
 40
0.4393254218
 40
0.4566905726
 40
0.4740261225
 40
0.4913439902
 40
0.5086560099
 40
0.5259738775
 40
0.5433094274
 40
0.5606745782
 40
0.5780813455
 40
0.5955418751
 40
0.613068372
 40
0.6306733341
 40
0.6483695812
 40
0.666170236
 40
0.6840887683
 40
0.7021389766
 40
0.7203350939
 40
0.7386919576
 40
0.7572249588
 40
0.7759500978
 40
0.7948840172
 40
0.8140440334
 40
0.833448387
 40
0.8531162114
 40
0.8730676021
 40
0.8933236951
 40
0.9139066941
 40
0.934840153
 40
0.9561489481
 40
0.9778596279
 40
1.0
 40
1.0
 40
1.0
 40
1.0
 10
14.4029964657
 20
8.2391423999
 30
0.0
 10
14.4016573088
 20
8.2365457795
 30
0.0
 10
14.3990394785
 20
8.2313850489
 30
0.0
 10
14.3952566548
 20
8.2236631916
 30
0.0
 10
14.391652395
 20
8.2160321329
 30
0.0
 10
14.3882217052
 20
8.2084846396
 30
0.0
 10
14.3849600996
 20
8.2010138735
 30
0.0
 10
14.3818636022
 20
8.1936134493
 30
0.0
 10
14.3789286916
 20
8.1862773711
 30
0.0
 10
14.3761522698
 20
8.1790000167
 30
0.0
 10
14.3735316248
 20
8.171776104
 30
0.0
 10
14.3710644045
 20
8.1646006846
 30
0.0
 10
14.3687485929
 20
8.1574691427
 30
0.0
 10
14.3665824768
 20
8.1503771726
 30
0.0
 10
14.3645646162
 20
8.1433207587
 30
0.0
 10
14.3626938132
 20
8.1362961463
 30
0.0
 10
14.3609690885
 20
8.129299835
 30
0.0
 10
14.3593896603
 20
8.1223285821
 30
0.0
 10
14.3579549176
 20
8.1153793867
 30
0.0
 10
14.3566643933
 20
8.1084494653
 30
0.0
 10
14.3555177392
 20
8.1015362222
 30
0.0
 10
14.3545147052
 20
8.0946372329
 30
0.0
 10
14.3536551229
 20
8.0877502435
 30
0.0
 10
14.3529388866
 20
8.0808731619
 30
0.0
 10
14.3523659347
 20
8.0740040225
 30
0.0
 10
14.351936234
 20
8.0671409562
 30
0.0
 10
14.3516497695
 20
8.0602821588
 30
0.0
 10
14.351506537
 20
8.0534258868
 30
0.0
 10
14.351506537
 20
8.0465704516
 30
0.0
 10
14.3516497695
 20
8.0397141797
 30
0.0
 10
14.351936234
 20
8.0328553822
 30
0.0
 10
14.3523659347
 20
8.025992316
 30
0.0
 10
14.3529388866
 20
8.0191231766
 30
0.0
 10
14.3536551229
 20
8.012246095
 30
0.0
 10
14.3545147052
 20
8.0053591056
 30
0.0
 10
14.3555177392
 20
7.9984601163
 30
0.0
 10
14.3566643933
 20
7.9915468732
 30
0.0
 10
14.3579549176
 20
7.9846169518
 30
0.0
 10
14.3593896603
 20
7.9776677564
 30
0.0
 10
14.3609690885
 20
7.9706965035
 30
0.0
 10
14.3626938132
 20
7.9637001922
 30
0.0
 10
14.3645646162
 20
7.9566755798
 30
0.0
 10
14.3665824768
 20
7.9496191659
 30
0.0
 10
14.3687485929
 20
7.9425271958
 30
0.0
 10
14.3710644045
 20
7.9353956539
 30
0.0
 10
14.3735316248
 20
7.9282202345
 30
0.0
 10
14.3761522698
 20
7.9209963218
 30
0.0
 10
14.3789286916
 20
7.9137189674
 30
0.0
 10
14.3818636022
 20
7.9063828892
 30
0.0
 10
14.3849600996
 20
7.898982465
 30
0.0
 10
14.3882217052
 20
7.8915116989
 30
0.0
 10
14.391652395
 20
7.8839642056
 30
0.0
 10
14.3952566548
 20
7.8763331469
 30
0.0
 10
14.3990394785
 20
7.8686112896
 30
0.0
 10
14.4016573088
 20
7.863450559
 30
0.0
 10
14.4029964657
 20
7.8608539386
 30
0.0
 11
14.4029964657
 21
8.2391423999
 31
0.0
 11
14.3990322011
 21
8.231325328
 31
0.0
 11
14.3952519118
 21
8.2236066177
 31
0.0
 11
14.391650065
 21
8.2159786221
 31
0.0
 11
14.3882216367
 21
8.2084340383
 31
0.0
 11
14.3849621657
 21
8.2009660731
 31
0.0
 11
14.3818676764
 21
8.1935683345
 31
0.0
 11
14.3789346636
 21
8.18623486
 31
0.0
 11
14.3761600316
 21
8.1789600289
 31
0.0
 11
14.373541073
 21
8.1717385677
 31
0.0
 11
14.3710754396
 21
8.164565535
 31
0.0
 11
14.3687611139
 21
8.1574363096
 31
0.0
 11
14.3665963931
 21
8.1503466157
 31
0.0
 11
14.3645798372
 21
8.1432924404
 31
0.0
 11
14.3627102486
 21
8.1362700315
 31
0.0
 11
14.3609866484
 21
8.1292758939
 31
0.0
 11
14.3594082521
 21
8.1223067763
 31
0.0
 11
14.3579744521
 21
8.1153596973
 31
0.0
 11
14.3566847821
 21
8.1084318849
 31
0.0
 11
14.3555388911
 21
8.1015207379
 31
0.0
 11
14.3545365282
 21
8.0946238349
 31
0.0
 11
14.3536775228
 21
8.0877389161
 31
0.0
 11
14.3529617683
 21
8.0808638895
 31
0.0
 11
14.3523892045
 21
8.0739968165
 31
0.0
 11
14.3519597958
 21
8.0671358146
 31
0.0
 11
14.3516735264
 21
8.0602790797
 31
0.0
 11
14.3515303916
 21
8.0534248658
 31
0.0
 11
14.3515303916
 21
8.0465714727
 31
0.0
 11
14.3516735264
 21
8.0397172588
 31
0.0
 11
14.3519597958
 21
8.0328605239
 31
0.0
 11
14.3523892045
 21
8.025999522
 31
0.0
 11
14.3529617683
 21
8.0191324489
 31
0.0
 11
14.3536775228
 21
8.0122574224
 31
0.0
 11
14.3545365282
 21
8.0053725036
 31
0.0
 11
14.3555388911
 21
7.9984756005
 31
0.0
 11
14.3566847821
 21
7.9915644536
 31
0.0
 11
14.3579744521
 21
7.9846366412
 31
0.0
 11
14.3594082522
 21
7.9776895622
 31
0.0
 11
14.3609866484
 21
7.9707204446
 31
0.0
 11
14.3627102486
 21
7.963726307
 31
0.0
 11
14.3645798372
 21
7.9567038981
 31
0.0
 11
14.3665963931
 21
7.9496497228
 31
0.0
 11
14.3687611139
 21
7.9425600289
 31
0.0
 11
14.3710754396
 21
7.9354308035
 31
0.0
 11
14.373541073
 21
7.9282577708
 31
0.0
 11
14.3761600316
 21
7.9210363096
 31
0.0
 11
14.3789346636
 21
7.9137614785
 31
0.0
 11
14.3818676764
 21
7.906428004
 31
0.0
 11
14.3849621657
 21
7.8990302654
 31
0.0
 11
14.3882216367
 21
7.8915623002
 31
0.0
 11
14.391650065
 21
7.8840177164
 31
0.0
 11
14.3952519118
 21
7.8763897208
 31
0.0
 11
14.3990322011
 21
7.8686710105
 31
0.0
 11
14.4029964657
 21
7.8608539386
 31
0.0
  0
ENDSEC
  0
SECTION
  2
OBJECTS
  0
DICTIONARY
  5
C
100
AcDbDictionary
280
0
281
1
  3
ACAD_GROUP
350
D
  3
ACAD_MLINESTYLE
350
17
  3
ACAD_LAYOUT
350
1A
  3
ACAD_PLOTSETTINGS
350
19
  3
ACAD_PLOTSTYLENAME
350
E
  0
DICTIONARY
  5
D
102
{ACAD_REACTORS
330
C
102
}
100
AcDbDictionary
280
0
281
1
  0
ACDBDICTIONARYWDFLT
  5
E
102
{ACAD_REACTORS
330
C
102
}
100
AcDbDictionary
281
1
  3
Normal
350
F
100
AcDbDictionaryWithDefault
340
F
  0
DICTIONARY
  5
17
102
{ACAD_REACTORS
330
C
102
}
100
AcDbDictionary
280
0
281
1
  3
Standard
350
18
  0
DICTIONARY
  5
19
102
{ACAD_REACTORS
330
C
102
}
100
AcDbDictionary
281
1
  0
DICTIONARY
  5
1A
102
{ACAD_REACTORS
330
C
102
}
100
AcDbDictionary
281
1
  3
Layout1
350
1E
  3
Model
350
22
  0
ACDBPLACEHOLDER
  5
F
102
{ACAD_REACTORS
330
E
102
}
  0
MLINESTYLE
  5
18
102
{ACAD_REACTORS
330
17
102
}
100
AcDbMlineStyle
  2
STANDARD
 70
0
  3

 62
256
 51
90.0
 52
90.0
 71
2
 49
0.5
 62
256
  6
BYLAYER
 49
-0.5
 62
256
  6
BYLAYER
  0
LAYOUT
  5
1E
102
{ACAD_REACTORS
330
1A
102
}
100
AcDbPlotSettings
  1

  2

  4

  6

 40
0.0
 41
0.0
 42
0.0
 43
0.0
 44
0.0
 45
0.0
 46
0.0
 47
0.0
 48
0.0
 49
0.0
140
0.0
141
0.0
142
1.0
143
1.0
 70
0
 72
0
 73
0
 74
0
  7

 75
0
147
1.0
148
0.0
149
0.0
100
AcDbLayout
  1
Layout1
 70
0
 71
0
 10
0.0
 20
0.0
 11
0.0
 21
0.0
 12
0.0
 22
0.0
 32
0.0
 14
0.0
 24
0.0
 34
0.0
 15
0.0
 25
0.0
 35
0.0
146
0.0
 13
0.0
 23
0.0
 33
0.0
 16
0.0
 26
0.0
 36
0.0
 17
0.0
 27
0.0
 37
0.0
 76
0
330
1B
331
0
345
0
346
0
  0
LAYOUT
  5
22
102
{ACAD_REACTORS
330
1A
102
}
100
AcDbPlotSettings
  1

  2

  4

  6

 40
0.0
 41
0.0
 42
0.0
 43
0.0
 44
0.0
 45
0.0
 46
0.0
 47
0.0
 48
0.0
 49
0.0
140
0.0
141
0.0
142
1.0
143
1.0
 70
0
 72
0
 73
0
 74
0
  7

 75
0
147
1.0
148
0.0
149
0.0
100
AcDbLayout
  1
Model
 70
0
 71
0
 10
0.0
 20
0.0
 11
0.0
 21
0.0
 12
0.0
 22
0.0
 32
0.0
 14
0.0
 24
0.0
 34
0.0
 15
0.0
 25
0.0
 35
0.0
146
0.0
 13
0.0
 23
0.0
 33
0.0
 16
0.0
 26
0.0
 36
0.0
 17
0.0
 27
0.0
 37
0.0
 76
0
330
1F
331
0
345
0
346
0
  0
ENDSEC
  0
EOF
