999
DXF file: EB8_5.dxf
999
Pro/ENGINEER 2006240 by Parametric Technology Corporation
  0
SECTION
  2
HEADER
  9
$ACADVER
  1
AC1015
  9
$DWGCODEPAGE
  3
ANSI_1252
  9
$EXTMAX
 10
22.0
 20
17.0
 30
0.0
  9
$EXTMIN
 10
0.0
 20
0.0
 30
0.0
  9
$LIMMIN
 10
0.0
 20
0.0
  9
$LIMMAX
 10
22.0
 20
17.0
  9
$VIEWCTR
 10
11.0
 20
8.5
  9
$VIEWSIZE
 40
17.0
  9
$CLAYER
  8
0
  9
$LTSCALE
 40
1.21
  9
$CELTYPE
  6
BYLAYER
  9
$DIMSCALE
 40
1.0
  9
$DIMASZ
 40
0.1875
  9
$DIMEXO
 40
0.1375
  9
$DIMDLI
 40
0.836
  9
$DIMEXE
 40
0.396
  9
$DIMCEN
 40
0.198
  9
$DIMLFAC
 40
1.0
  9
$DIMBLK
  1
_CLOSED
  9
$DIMTXT
 40
0.15625
  9
$DIMTOL
 70
0
  9
$DIMLIM
 70
0
  9
$DIMTFAC
 40
1.0
  9
$PDMODE
 70
3
  9
$PDSIZE
 40
0.3125
  9
$HANDSEED
  5
58D
  9
$MEASUREMENT
 70
0
  9
$INSUNITS
 70
1
  0
ENDSEC
  0
SECTION
  2
CLASSES
  0
CLASS
  1
ACDBDICTIONARYWDFLT
  2
AcDbDictionaryWithDefault
  3
AutoCAD 2000
 90
0
280
0
281
0
  0
CLASS
  1
ACDBPLACEHOLDER
  2
AcDbPlaceHolder
  3
AutoCAD 2000
 90
0
280
0
281
0
  0
CLASS
  1
LAYOUT
  2
AcDbLayout
  3
AutoCAD 2000
 90
0
280
0
281
0
  0
ENDSEC
  0
SECTION
  2
TABLES
  0
TABLE
  2
VPORT
  5
8
100
AcDbSymbolTable
 70
2
  0
VPORT
  5
1F4
100
AcDbSymbolTableRecord
100
AcDbViewportTableRecord
  2
*ACTIVE
 70
0
 10
0.0
 20
0.0
 11
1.0
 21
1.0
 12
11.0
 22
8.5
 13
0.0
 23
0.0
 14
1.0
 24
1.0
 15
0.0
 25
0.0
 16
0.0
 26
0.0
 36
1.0
 17
0.0
 27
0.0
 37
0.0
 40
17.0
 41
1.2941176471
 42
50.0
 43
0.0
 44
0.0
 50
0.0
 51
0.0
 71
0
 72
100
 73
1
 74
1
 75
0
 76
0
 77
0
 78
0
  0
ENDTAB
  0
TABLE
  2
LTYPE
  5
5
100
AcDbSymbolTable
 70
6
  0
LTYPE
  5
14
100
AcDbSymbolTableRecord
100
AcDbLinetypeTableRecord
  2
BYBLOCK
 70
0
  3

 72
65
 73
0
 40
0.0
  0
LTYPE
  5
15
100
AcDbSymbolTableRecord
100
AcDbLinetypeTableRecord
  2
BYLAYER
 70
0
  3

 72
65
 73
0
 40
0.0
  0
LTYPE
  5
16
100
AcDbSymbolTableRecord
100
AcDbLinetypeTableRecord
  2
CONTINUOUS
 70
64
  3
Solid line
 72
65
 73
0
 40
0.0
  0
LTYPE
  5
1F5
100
AcDbSymbolTableRecord
100
AcDbLinetypeTableRecord
  2
CENTER
 70
64
  3
____ _ ____ _ ____ _ ____ _ ____ _ ____ _ ____
 72
65
 73
4
 40
0.6
 49
0.375
 74
0
 49
-0.075
 74
0
 49
0.075
 74
0
 49
-0.075
 74
0
  0
LTYPE
  5
1F6
100
AcDbSymbolTableRecord
100
AcDbLinetypeTableRecord
  2
HIDDEN
 70
64
  3
- - - - - - - - - - - - - - - - - - - -
 72
65
 73
2
 40
0.2
 49
0.1
 74
0
 49
-0.1
 74
0
  0
LTYPE
  5
1F7
100
AcDbSymbolTableRecord
100
AcDbLinetypeTableRecord
  2
PHANTOM
 70
64
  3
_____ _ _ _____ _ _ _____ _ _ _____
 72
65
 73
6
 40
0.8
 49
0.45
 74
0
 49
-0.05
 74
0
 49
0.1
 74
0
 49
-0.05
 74
0
 49
0.1
 74
0
 49
-0.05
 74
0
  0
LTYPE
  5
1F8
100
AcDbSymbolTableRecord
100
AcDbLinetypeTableRecord
  2
DOT
 70
64
  3
. . . . . . . . . . . . . . . . . . . .
 72
65
 73
2
 40
0.2
 49
0.1
 74
0
 49
-0.1
 74
0
  0
LTYPE
  5
1F9
100
AcDbSymbolTableRecord
100
AcDbLinetypeTableRecord
  2
DASHED
 70
64
  3
- - - - - - - - - - - - - - - - - - - -
 72
65
 73
2
 40
0.2
 49
0.1
 74
0
 49
-0.1
 74
0
  0
ENDTAB
  0
TABLE
  2
LAYER
  5
2
100
AcDbSymbolTable
 70
36
  0
LAYER
  5
10
100
AcDbSymbolTableRecord
100
AcDbLayerTableRecord
  2
0
 70
0
 62
7
  6
CONTINUOUS
370
-3
390
F
  0
LAYER
  5
1FA
100
AcDbSymbolTableRecord
100
AcDbLayerTableRecord
  2
DEFAULT_1
 70
0
 62
7
  6
CENTER
370
-3
390
F
  0
LAYER
  5
1FB
100
AcDbSymbolTableRecord
100
AcDbLayerTableRecord
  2
DEFAULT_2
 70
0
 62
8
  6
HIDDEN
370
-3
390
F
  0
LAYER
  5
1FC
100
AcDbSymbolTableRecord
100
AcDbLayerTableRecord
  2
DEFAULT_3
 70
0
 62
7
  6
PHANTOM
370
-3
390
F
  0
LAYER
  5
1FD
100
AcDbSymbolTableRecord
100
AcDbLayerTableRecord
  2
01_ALL_DTM_PLN
 70
0
 62
7
  6
CONTINUOUS
370
-3
390
F
  0
LAYER
  5
1FE
100
AcDbSymbolTableRecord
100
AcDbLayerTableRecord
  2
01__ASM_ALL_DTM_PLN
 70
0
 62
7
  6
CONTINUOUS
370
-3
390
F
  0
LAYER
  5
1FF
100
AcDbSymbolTableRecord
100
AcDbLayerTableRecord
  2
01__ASM_DEF_DTM_PLN
 70
0
 62
7
  6
CONTINUOUS
370
-3
390
F
  0
LAYER
  5
200
100
AcDbSymbolTableRecord
100
AcDbLayerTableRecord
  2
01___PRT_ALL_DTM_PLN
 70
0
 62
7
  6
CONTINUOUS
370
-3
390
F
  0
LAYER
  5
201
100
AcDbSymbolTableRecord
100
AcDbLayerTableRecord
  2
01___PRT_DEF_DTM_PLN
 70
0
 62
7
  6
CONTINUOUS
370
-3
390
F
  0
LAYER
  5
202
100
AcDbSymbolTableRecord
100
AcDbLayerTableRecord
  2
02_ALL_AXES
 70
0
 62
7
  6
CONTINUOUS
370
-3
390
F
  0
LAYER
  5
203
100
AcDbSymbolTableRecord
100
AcDbLayerTableRecord
  2
02__ASM_ALL_AXES
 70
0
 62
7
  6
CONTINUOUS
370
-3
390
F
  0
LAYER
  5
204
100
AcDbSymbolTableRecord
100
AcDbLayerTableRecord
  2
02___PRT_ALL_AXES
 70
0
 62
7
  6
CONTINUOUS
370
-3
390
F
  0
LAYER
  5
205
100
AcDbSymbolTableRecord
100
AcDbLayerTableRecord
  2
03_ALL_CURVES
 70
0
 62
7
  6
CONTINUOUS
370
-3
390
F
  0
LAYER
  5
206
100
AcDbSymbolTableRecord
100
AcDbLayerTableRecord
  2
03__ASM_ALL_CURVES
 70
0
 62
7
  6
CONTINUOUS
370
-3
390
F
  0
LAYER
  5
207
100
AcDbSymbolTableRecord
100
AcDbLayerTableRecord
  2
03___PRT_ALL_CURVES
 70
0
 62
7
  6
CONTINUOUS
370
-3
390
F
  0
LAYER
  5
208
100
AcDbSymbolTableRecord
100
AcDbLayerTableRecord
  2
04_ALL_DTM_PNT
 70
0
 62
7
  6
CONTINUOUS
370
-3
390
F
  0
LAYER
  5
209
100
AcDbSymbolTableRecord
100
AcDbLayerTableRecord
  2
04__ASM_ALL_DTM_PNT
 70
0
 62
7
  6
CONTINUOUS
370
-3
390
F
  0
LAYER
  5
20A
100
AcDbSymbolTableRecord
100
AcDbLayerTableRecord
  2
04___PRT_ALL_DTM_PNT
 70
0
 62
7
  6
CONTINUOUS
370
-3
390
F
  0
LAYER
  5
20B
100
AcDbSymbolTableRecord
100
AcDbLayerTableRecord
  2
05_ALL_DTM_CSYS
 70
0
 62
7
  6
CONTINUOUS
370
-3
390
F
  0
LAYER
  5
20C
100
AcDbSymbolTableRecord
100
AcDbLayerTableRecord
  2
05__ASM_ALL_DTM_CSYS
 70
0
 62
7
  6
CONTINUOUS
370
-3
390
F
  0
LAYER
  5
20D
100
AcDbSymbolTableRecord
100
AcDbLayerTableRecord
  2
05__ASM_DEF_DTM_CSYS
 70
0
 62
7
  6
CONTINUOUS
370
-3
390
F
  0
LAYER
  5
20E
100
AcDbSymbolTableRecord
100
AcDbLayerTableRecord
  2
05___PRT_ALL_DTM_CSYS
 70
0
 62
7
  6
CONTINUOUS
370
-3
390
F
  0
LAYER
  5
20F
100
AcDbSymbolTableRecord
100
AcDbLayerTableRecord
  2
05___PRT_DEF_DTM_CSYS
 70
0
 62
7
  6
CONTINUOUS
370
-3
390
F
  0
LAYER
  5
210
100
AcDbSymbolTableRecord
100
AcDbLayerTableRecord
  2
06_ALL_SURFS
 70
0
 62
7
  6
CONTINUOUS
370
-3
390
F
  0
LAYER
  5
211
100
AcDbSymbolTableRecord
100
AcDbLayerTableRecord
  2
06__ASM_ALL_SURFS
 70
0
 62
7
  6
CONTINUOUS
370
-3
390
F
  0
LAYER
  5
212
100
AcDbSymbolTableRecord
100
AcDbLayerTableRecord
  2
06___PRT_ALL_SURFS
 70
0
 62
7
  6
CONTINUOUS
370
-3
390
F
  0
LAYER
  5
213
100
AcDbSymbolTableRecord
100
AcDbLayerTableRecord
  2
07__ASM_ALL_SKELETONS
 70
0
 62
7
  6
CONTINUOUS
370
-3
390
F
  0
LAYER
  5
214
100
AcDbSymbolTableRecord
100
AcDbLayerTableRecord
  2
COPY_GEO_FET
 70
0
 62
7
  6
CONTINUOUS
370
-3
390
F
  0
LAYER
  5
215
100
AcDbSymbolTableRecord
100
AcDbLayerTableRecord
  2
COSMETIC
 70
0
 62
7
  6
CONTINUOUS
370
-3
390
F
  0
LAYER
  5
216
100
AcDbSymbolTableRecord
100
AcDbLayerTableRecord
  2
CUT_REF_SURF
 70
0
 62
7
  6
CONTINUOUS
370
-3
390
F
  0
LAYER
  5
217
100
AcDbSymbolTableRecord
100
AcDbLayerTableRecord
  2
DATESTAMP
 70
0
 62
7
  6
CONTINUOUS
370
-3
390
F
  0
LAYER
  5
218
100
AcDbSymbolTableRecord
100
AcDbLayerTableRecord
  2
DATUM
 70
0
 62
7
  6
CONTINUOUS
370
-3
390
F
  0
LAYER
  5
219
100
AcDbSymbolTableRecord
100
AcDbLayerTableRecord
  2
DATUM_B
 70
0
 62
7
  6
CONTINUOUS
370
-3
390
F
  0
LAYER
  5
21A
100
AcDbSymbolTableRecord
100
AcDbLayerTableRecord
  2
DATUM_PLANES
 70
0
 62
7
  6
CONTINUOUS
370
-3
390
F
  0
LAYER
  5
21B
100
AcDbSymbolTableRecord
100
AcDbLayerTableRecord
  2
DIM
 70
0
 62
7
  6
CONTINUOUS
370
-3
390
F
  0
LAYER
  5
21C
100
AcDbSymbolTableRecord
100
AcDbLayerTableRecord
  2
DIMENSIONS
 70
0
 62
7
  6
CONTINUOUS
370
-3
390
F
  0
LAYER
  5
21D
100
AcDbSymbolTableRecord
100
AcDbLayerTableRecord
  2
DIM_1
 70
0
 62
7
  6
CONTINUOUS
370
-3
390
F
  0
LAYER
  5
21E
100
AcDbSymbolTableRecord
100
AcDbLayerTableRecord
  2
DIM_2
 70
0
 62
7
  6
CONTINUOUS
370
-3
390
F
  0
LAYER
  5
21F
100
AcDbSymbolTableRecord
100
AcDbLayerTableRecord
  2
DIM_3
 70
0
 62
7
  6
CONTINUOUS
370
-3
390
F
  0
LAYER
  5
220
100
AcDbSymbolTableRecord
100
AcDbLayerTableRecord
  2
DIM_4
 70
0
 62
7
  6
CONTINUOUS
370
-3
390
F
  0
LAYER
  5
221
100
AcDbSymbolTableRecord
100
AcDbLayerTableRecord
  2
DIM_5
 70
0
 62
7
  6
CONTINUOUS
370
-3
390
F
  0
LAYER
  5
222
100
AcDbSymbolTableRecord
100
AcDbLayerTableRecord
  2
DIM_6
 70
0
 62
7
  6
CONTINUOUS
370
-3
390
F
  0
LAYER
  5
223
100
AcDbSymbolTableRecord
100
AcDbLayerTableRecord
  2
DIM_7
 70
0
 62
7
  6
CONTINUOUS
370
-3
390
F
  0
LAYER
  5
224
100
AcDbSymbolTableRecord
100
AcDbLayerTableRecord
  2
DTM
 70
0
 62
7
  6
CONTINUOUS
370
-3
390
F
  0
LAYER
  5
225
100
AcDbSymbolTableRecord
100
AcDbLayerTableRecord
  2
EB8_10
 70
0
 62
7
  6
CONTINUOUS
370
-3
390
F
  0
LAYER
  5
226
100
AcDbSymbolTableRecord
100
AcDbLayerTableRecord
  2
EB8_2
 70
0
 62
7
  6
CONTINUOUS
370
-3
390
F
  0
LAYER
  5
227
100
AcDbSymbolTableRecord
100
AcDbLayerTableRecord
  2
EB8_5
 70
0
 62
7
  6
CONTINUOUS
370
-3
390
F
  0
LAYER
  5
228
100
AcDbSymbolTableRecord
100
AcDbLayerTableRecord
  2
EB8_6
 70
0
 62
7
  6
CONTINUOUS
370
-3
390
F
  0
LAYER
  5
229
100
AcDbSymbolTableRecord
100
AcDbLayerTableRecord
  2
EB8_7
 70
0
 62
7
  6
CONTINUOUS
370
-3
390
F
  0
LAYER
  5
22A
100
AcDbSymbolTableRecord
100
AcDbLayerTableRecord
  2
EB8_8
 70
0
 62
7
  6
CONTINUOUS
370
-3
390
F
  0
LAYER
  5
22B
100
AcDbSymbolTableRecord
100
AcDbLayerTableRecord
  2
EXT_COPY_GEO
 70
0
 62
7
  6
CONTINUOUS
370
-3
390
F
  0
LAYER
  5
22C
100
AcDbSymbolTableRecord
100
AcDbLayerTableRecord
  2
LS
 70
0
 62
7
  6
CONTINUOUS
370
-3
390
F
  0
LAYER
  5
22D
100
AcDbSymbolTableRecord
100
AcDbLayerTableRecord
  2
LS_1
 70
0
 62
7
  6
CONTINUOUS
370
-3
390
F
  0
LAYER
  5
22E
100
AcDbSymbolTableRecord
100
AcDbLayerTableRecord
  2
ORIGIN
 70
0
 62
7
  6
CONTINUOUS
370
-3
390
F
  0
LAYER
  5
22F
100
AcDbSymbolTableRecord
100
AcDbLayerTableRecord
  2
PARAMETERDIMENSIONS
 70
0
 62
7
  6
CONTINUOUS
370
-3
390
F
  0
LAYER
  5
230
100
AcDbSymbolTableRecord
100
AcDbLayerTableRecord
  2
PARTNUMBER
 70
0
 62
7
  6
CONTINUOUS
370
-3
390
F
  0
LAYER
  5
231
100
AcDbSymbolTableRecord
100
AcDbLayerTableRecord
  2
PORT_AREAS
 70
0
 62
7
  6
CONTINUOUS
370
-3
390
F
  0
LAYER
  5
232
100
AcDbSymbolTableRecord
100
AcDbLayerTableRecord
  2
TEXT
 70
0
 62
7
  6
CONTINUOUS
370
-3
390
F
  0
LAYER
  5
233
100
AcDbSymbolTableRecord
100
AcDbLayerTableRecord
  2
THREAD
 70
0
 62
7
  6
CONTINUOUS
370
-3
390
F
  0
LAYER
  5
234
100
AcDbSymbolTableRecord
100
AcDbLayerTableRecord
  2
THREADS
 70
0
 62
7
  6
CONTINUOUS
370
-3
390
F
  0
ENDTAB
  0
TABLE
  2
STYLE
  5
3
100
AcDbSymbolTable
 70
1
  0
STYLE
  5
11
100
AcDbSymbolTableRecord
100
AcDbTextStyleTableRecord
  2
STANDARD
 70
0
 40
0.0
 41
0.8
 50
0.0
 71
0
 42
0.2
  3
txt
  4

  0
ENDTAB
  0
TABLE
  2
VIEW
  5
6
100
AcDbSymbolTable
 70
0
  0
ENDTAB
  0
TABLE
  2
UCS
  5
7
100
AcDbSymbolTable
 70
0
  0
ENDTAB
  0
TABLE
  2
APPID
  5
9
100
AcDbSymbolTable
 70
1
  0
APPID
  5
235
100
AcDbSymbolTableRecord
100
AcDbRegAppTableRecord
  2
ACAD
 70
0
  0
ENDTAB
  0
TABLE
  2
BLOCK_RECORD
  5
1
100
AcDbSymbolTable
 70
0
  0
BLOCK_RECORD
  5
1F
100
AcDbSymbolTableRecord
100
AcDbBlockTableRecord
  2
*MODEL_SPACE
  0
BLOCK_RECORD
  5
1B
100
AcDbSymbolTableRecord
100
AcDbBlockTableRecord
  2
*PAPER_SPACE
  0
ENDTAB
  0
TABLE
  2
DIMSTYLE
  5
A
100
AcDbSymbolTable
 70
1
100
AcDbDimStyleTable
 71
0
  0
DIMSTYLE
105
236
100
AcDbSymbolTableRecord
100
AcDbDimStyleTableRecord
  2
STANDARD
 70
0
  3

  4

 40
1.0
 41
0.1875
 42
0.0625
 43
0.38
 44
0.18
 45
0.0
 46
0.0
 47
0.01
 48
0.01
140
0.15625
141
0.09
142
0.0
143
25.4
144
1.0
145
0.0
146
1.0
147
0.09
 71
0.0
 72
0.0
 73
1
 74
1
 75
0
 76
0
 77
0
 78
4
170
0
171
2
172
0
173
0
174
0
175
0
176
0
177
0
178
0
270
2
271
2
272
2
273
2
274
2
275
0
280
0
281
0
282
0
283
1
284
4
285
0
286
0
287
3
288
0
340
11
  0
ENDTAB
  0
ENDSEC
  0
SECTION
  2
BLOCKS
  0
BLOCK
  5
20
100
AcDbEntity
  8
0
100
AcDbBlockBegin
  2
*MODEL_SPACE
 70
0
 10
0.0
 20
0.0
 30
0.0
  3
*MODEL_SPACE
  1

  0
ENDBLK
  5
21
100
AcDbEntity
  8
0
100
AcDbBlockEnd
  0
BLOCK
  5
1C
100
AcDbEntity
  8
0
100
AcDbBlockBegin
  2
*PAPER_SPACE
 70
0
 10
0.0
 20
0.0
 30
0.0
  3
*PAPER_SPACE
  1

  0
ENDBLK
  5
1D
100
AcDbEntity
  8
0
100
AcDbBlockEnd
  0
ENDSEC
  0
SECTION
  2
ENTITIES
  0
LINE
  5
237
100
AcDbEntity
  8
03__ASM_ALL_CURVES
100
AcDbLine
 62
4
  6
CONTINUOUS
 10
10.2482679673
 20
6.6056912868
 11
10.2407679673
 21
6.6056912868
  0
LINE
  5
238
100
AcDbEntity
  8
03__ASM_ALL_CURVES
100
AcDbLine
 62
4
  6
CONTINUOUS
 10
9.8332679673
 20
6.6056912868
 11
9.8232679673
 21
6.6056912868
  0
LINE
  5
239
100
AcDbEntity
  8
03__ASM_ALL_CURVES
100
AcDbLine
 62
4
  6
CONTINUOUS
 10
9.6882679673
 20
6.6056912868
 11
9.6807679673
 21
6.6056912868
  0
LINE
  5
23A
100
AcDbEntity
  8
03__ASM_ALL_CURVES
100
AcDbLine
 62
4
  6
CONTINUOUS
 10
9.5682679673
 20
6.6056912868
 11
9.6082679673
 21
6.6056912868
  0
LINE
  5
23B
100
AcDbEntity
  8
03__ASM_ALL_CURVES
100
AcDbLine
 62
4
  6
CONTINUOUS
 10
10.3682679673
 20
6.6056912868
 11
10.4082679673
 21
6.6056912868
  0
LINE
  5
23C
100
AcDbEntity
  8
03__ASM_ALL_CURVES
100
AcDbLine
 62
4
  6
CONTINUOUS
 10
9.7282679673
 20
6.6256912868
 11
9.7732679673
 21
6.6256912868
  0
LINE
  5
23D
100
AcDbEntity
  8
03__ASM_ALL_CURVES
100
AcDbLine
 62
4
  6
CONTINUOUS
 10
10.8282679673
 20
6.6456912868
 11
10.5882679673
 21
6.6456912868
  0
LINE
  5
23E
100
AcDbEntity
  8
0
100
AcDbLine
 62
7
  6
CONTINUOUS
 10
10.9082679673
 20
6.645691323
 11
12.6582679673
 21
6.645691323
  0
LINE
  5
23F
100
AcDbEntity
  8
03__ASM_ALL_CURVES
100
AcDbLine
 62
4
  6
CONTINUOUS
 10
9.8232679673
 20
6.6523579519
 11
9.8332679673
 21
6.6523579519
  0
LINE
  5
240
100
AcDbEntity
  8
0
100
AcDbLine
 62
7
  6
CONTINUOUS
 10
12.2202679673
 20
6.6616913049
 11
11.3452679673
 21
6.6616913049
  0
LINE
  5
241
100
AcDbEntity
  8
03__ASM_ALL_CURVES
100
AcDbLine
 62
4
  6
CONTINUOUS
 10
10.3282679673
 20
6.6856912868
 11
10.2882679673
 21
6.6856912868
  0
LINE
  5
242
100
AcDbEntity
  8
03__ASM_ALL_CURVES
100
AcDbLine
 62
4
  6
CONTINUOUS
 10
9.5832679673
 20
6.6856912868
 11
9.5932679673
 21
6.6856912868
  0
LINE
  5
243
100
AcDbEntity
  8
03__ASM_ALL_CURVES
100
AcDbLine
 62
4
  6
CONTINUOUS
 10
9.8232679673
 20
6.6856912868
 11
9.8332679673
 21
6.6856912868
  0
LINE
  5
244
100
AcDbEntity
  8
03__ASM_ALL_CURVES
100
AcDbLine
 62
4
  6
CONTINUOUS
 10
10.3832679673
 20
6.6856912868
 11
10.3932679673
 21
6.6856912868
  0
LINE
  5
245
100
AcDbEntity
  8
0
100
AcDbLine
 62
7
  6
CONTINUOUS
 10
12.2202679673
 20
6.6926913049
 11
11.3452679673
 21
6.6926913049
  0
LINE
  5
246
100
AcDbEntity
  8
03__ASM_ALL_CURVES
100
AcDbLine
 62
4
  6
CONTINUOUS
 10
10.0682679673
 20
6.6523579519
 11
10.0832679673
 21
6.6456912868
  0
LINE
  5
247
100
AcDbEntity
  8
03__ASM_ALL_CURVES
100
AcDbLine
 62
4
  6
CONTINUOUS
 10
9.5932679673
 20
6.6856912868
 11
9.6032679673
 21
6.6790246217
  0
LINE
  5
248
100
AcDbEntity
  8
03__ASM_ALL_CURVES
100
AcDbLine
 62
4
  6
CONTINUOUS
 10
9.8232679673
 20
6.6056912868
 11
9.8132679673
 21
6.6123579537
  0
LINE
  5
249
100
AcDbEntity
  8
03__ASM_ALL_CURVES
100
AcDbLine
 62
4
  6
CONTINUOUS
 10
9.8332679673
 20
6.6523579519
 11
9.8432679673
 21
6.6456912868
  0
LINE
  5
24A
100
AcDbEntity
  8
03__ASM_ALL_CURVES
100
AcDbLine
 62
4
  6
CONTINUOUS
 10
9.8332679673
 20
6.6856912868
 11
9.8432679673
 21
6.6790246217
  0
LINE
  5
24B
100
AcDbEntity
  8
03__ASM_ALL_CURVES
100
AcDbLine
 62
4
  6
CONTINUOUS
 10
10.0682679673
 20
6.6056912868
 11
10.0582679673
 21
6.6123579537
  0
LINE
  5
24C
100
AcDbEntity
  8
03__ASM_ALL_CURVES
100
AcDbLine
 62
4
  6
CONTINUOUS
 10
10.0682679673
 20
6.6856912868
 11
10.0782679673
 21
6.6790246217
  0
LINE
  5
24D
100
AcDbEntity
  8
03__ASM_ALL_CURVES
100
AcDbLine
 62
4
  6
CONTINUOUS
 10
9.6032679673
 20
6.6790246217
 11
9.6082679673
 21
6.6723579519
  0
LINE
  5
24E
100
AcDbEntity
  8
0
100
AcDbLine
 62
7
  6
CONTINUOUS
 10
11.0012679673
 20
7.0366913049
 11
10.9702679673
 21
7.0366913049
  0
LINE
  5
24F
100
AcDbEntity
  8
0
100
AcDbLine
 62
7
  6
CONTINUOUS
 10
12.5642679673
 20
7.0366913049
 11
12.5952679673
 21
7.0366913049
  0
LINE
  5
250
100
AcDbEntity
  8
03__ASM_ALL_CURVES
100
AcDbLine
 62
4
  6
CONTINUOUS
 10
10.3932679673
 20
6.6856912868
 11
10.4032679673
 21
6.6790246217
  0
LINE
  5
251
100
AcDbEntity
  8
03__ASM_ALL_CURVES
100
AcDbLine
 62
4
  6
CONTINUOUS
 10
9.7432679673
 20
7.2156912868
 11
9.7332679673
 21
7.2223579537
  0
LINE
  5
252
100
AcDbEntity
  8
03__ASM_ALL_CURVES
100
AcDbLine
 62
4
  6
CONTINUOUS
 10
9.7432679673
 20
7.2623579519
 11
9.7332679673
 21
7.2690246217
  0
LINE
  5
253
100
AcDbEntity
  8
03__ASM_ALL_CURVES
100
AcDbLine
 62
4
  6
CONTINUOUS
 10
9.7532679673
 20
7.2623579519
 11
9.7632679673
 21
7.2556912868
  0
LINE
  5
254
100
AcDbEntity
  8
03__ASM_ALL_CURVES
100
AcDbLine
 62
4
  6
CONTINUOUS
 10
9.7532679673
 20
7.2956912868
 11
9.7632679673
 21
7.2890246217
  0
LINE
  5
255
100
AcDbEntity
  8
03__ASM_ALL_CURVES
100
AcDbLine
 62
4
  6
CONTINUOUS
 10
9.6807679673
 20
6.6156912871
 11
9.6882679673
 21
6.6056912868
  0
LINE
  5
256
100
AcDbEntity
  8
03__ASM_ALL_CURVES
100
AcDbLine
 62
4
  6
CONTINUOUS
 10
9.8132679673
 20
6.6123579537
 11
9.8082679673
 21
6.6190246205
  0
LINE
  5
257
100
AcDbEntity
  8
03__ASM_ALL_CURVES
100
AcDbLine
 62
4
  6
CONTINUOUS
 10
9.8432679673
 20
6.6456912868
 11
9.8532679673
 21
6.6323579543
  0
LINE
  5
258
100
AcDbEntity
  8
03__ASM_ALL_CURVES
100
AcDbLine
 62
4
  6
CONTINUOUS
 10
9.8432679673
 20
6.6790246217
 11
9.8482679673
 21
6.6723579519
  0
LINE
  5
259
100
AcDbEntity
  8
03__ASM_ALL_CURVES
100
AcDbLine
 62
4
  6
CONTINUOUS
 10
10.2482679673
 20
7.2156912868
 11
10.2407679673
 21
7.2156912868
  0
LINE
  5
25A
100
AcDbEntity
  8
03__ASM_ALL_CURVES
100
AcDbLine
 62
4
  6
CONTINUOUS
 10
9.7532679673
 20
7.2156912868
 11
9.7432679673
 21
7.2156912868
  0
LINE
  5
25B
100
AcDbEntity
  8
03__ASM_ALL_CURVES
100
AcDbLine
 62
4
  6
CONTINUOUS
 10
9.6882679673
 20
7.2156912868
 11
9.6807679673
 21
7.2156912868
  0
LINE
  5
25C
100
AcDbEntity
  8
03__ASM_ALL_CURVES
100
AcDbLine
 62
4
  6
CONTINUOUS
 10
9.8082679673
 20
7.2156912868
 11
9.8482679673
 21
7.2156912868
  0
LINE
  5
25D
100
AcDbEntity
  8
03__ASM_ALL_CURVES
100
AcDbLine
 62
4
  6
CONTINUOUS
 10
10.2882679673
 20
7.2156912868
 11
10.3282679673
 21
7.2156912868
  0
LINE
  5
25E
100
AcDbEntity
  8
03__ASM_ALL_CURVES
100
AcDbLine
 62
4
  6
CONTINUOUS
 10
10.3682679673
 20
7.2156912868
 11
10.4082679673
 21
7.2156912868
  0
LINE
  5
25F
100
AcDbEntity
  8
03__ASM_ALL_CURVES
100
AcDbLine
 62
4
  6
CONTINUOUS
 10
10.0482679673
 20
7.2356912868
 11
10.0932679673
 21
7.2356912868
  0
LINE
  5
260
100
AcDbEntity
  8
03__ASM_ALL_CURVES
100
AcDbLine
 62
4
  6
CONTINUOUS
 10
10.8282679673
 20
7.2556912868
 11
10.5882679673
 21
7.2556912868
  0
LINE
  5
261
100
AcDbEntity
  8
03__ASM_ALL_CURVES
100
AcDbLine
 62
4
  6
CONTINUOUS
 10
9.7432679673
 20
7.2623579519
 11
9.7532679673
 21
7.2623579519
  0
LINE
  5
262
100
AcDbEntity
  8
03__ASM_ALL_CURVES
100
AcDbLine
 62
4
  6
CONTINUOUS
 10
9.7432679673
 20
7.2956912868
 11
9.7532679673
 21
7.2956912868
  0
LINE
  5
263
100
AcDbEntity
  8
03__ASM_ALL_CURVES
100
AcDbLine
 62
4
  6
CONTINUOUS
 10
9.8232679673
 20
7.2956912868
 11
9.8332679673
 21
7.2956912868
  0
LINE
  5
264
100
AcDbEntity
  8
03__ASM_ALL_CURVES
100
AcDbLine
 62
4
  6
CONTINUOUS
 10
10.3032679673
 20
7.2956912868
 11
10.3132679673
 21
7.2956912868
  0
LINE
  5
265
100
AcDbEntity
  8
03__ASM_ALL_CURVES
100
AcDbLine
 62
4
  6
CONTINUOUS
 10
10.3832679673
 20
7.2956912868
 11
10.3932679673
 21
7.2956912868
  0
LINE
  5
266
100
AcDbEntity
  8
03__ASM_ALL_CURVES
100
AcDbLine
 62
4
  6
CONTINUOUS
 10
10.1482679673
 20
7.2623579519
 11
10.1632679673
 21
7.2556912868
  0
LINE
  5
267
100
AcDbEntity
  8
03__ASM_ALL_CURVES
100
AcDbLine
 62
4
  6
CONTINUOUS
 10
9.8332679673
 20
7.2956912868
 11
9.8432679673
 21
7.2890246217
  0
LINE
  5
268
100
AcDbEntity
  8
03__ASM_ALL_CURVES
100
AcDbLine
 62
4
  6
CONTINUOUS
 10
10.1482679673
 20
7.2156912868
 11
10.1382679673
 21
7.2223579537
  0
LINE
  5
269
100
AcDbEntity
  8
03__ASM_ALL_CURVES
100
AcDbLine
 62
4
  6
CONTINUOUS
 10
10.1482679673
 20
7.2956912868
 11
10.1582679673
 21
7.2890246217
  0
LINE
  5
26A
100
AcDbEntity
  8
03__ASM_ALL_CURVES
100
AcDbLine
 62
4
  6
CONTINUOUS
 10
9.9832679673
 20
6.6190246205
 11
9.9932679673
 21
6.6056912868
  0
LINE
  5
26B
100
AcDbEntity
  8
03__ASM_ALL_CURVES
100
AcDbLine
 62
4
  6
CONTINUOUS
 10
10.0582679673
 20
6.6123579537
 11
10.0532679673
 21
6.6190246205
  0
LINE
  5
26C
100
AcDbEntity
  8
03__ASM_ALL_CURVES
100
AcDbLine
 62
4
  6
CONTINUOUS
 10
10.0782679673
 20
6.6790246217
 11
10.0832679673
 21
6.6723579519
  0
LINE
  5
26D
100
AcDbEntity
  8
03__ASM_ALL_CURVES
100
AcDbLine
 62
4
  6
CONTINUOUS
 10
9.6807679673
 20
7.2256912871
 11
9.6882679673
 21
7.2156912868
  0
LINE
  5
26E
100
AcDbEntity
  8
03__ASM_ALL_CURVES
100
AcDbLine
 62
4
  6
CONTINUOUS
 10
9.7332679673
 20
7.2223579537
 11
9.7232679673
 21
7.2356912868
  0
LINE
  5
26F
100
AcDbEntity
  8
03__ASM_ALL_CURVES
100
AcDbLine
 62
4
  6
CONTINUOUS
 10
9.7332679673
 20
7.2690246217
 11
9.7282679673
 21
7.2756912868
  0
LINE
  5
270
100
AcDbEntity
  8
03__ASM_ALL_CURVES
100
AcDbLine
 62
4
  6
CONTINUOUS
 10
10.3132679673
 20
7.2956912868
 11
10.3232679673
 21
7.2890246217
  0
LINE
  5
271
100
AcDbEntity
  8
03__ASM_ALL_CURVES
100
AcDbLine
 62
4
  6
CONTINUOUS
 10
10.3932679673
 20
7.2956912868
 11
10.4032679673
 21
7.2890246217
  0
LINE
  5
272
100
AcDbEntity
  8
03__ASM_ALL_CURVES
100
AcDbLine
 62
4
  6
CONTINUOUS
 10
10.2407679673
 20
6.6156912871
 11
10.2482679673
 21
6.6056912868
  0
LINE
  5
273
100
AcDbEntity
  8
03__ASM_ALL_CURVES
100
AcDbLine
 62
4
  6
CONTINUOUS
 10
9.7632679673
 20
7.2556912868
 11
9.7732679673
 21
7.2423579543
  0
LINE
  5
274
100
AcDbEntity
  8
03__ASM_ALL_CURVES
100
AcDbLine
 62
4
  6
CONTINUOUS
 10
9.7632679673
 20
7.2890246217
 11
9.7682679673
 21
7.2823579519
  0
LINE
  5
275
100
AcDbEntity
  8
03__ASM_ALL_CURVES
100
AcDbLine
 62
4
  6
CONTINUOUS
 10
9.8432679673
 20
7.2890246217
 11
9.8482679673
 21
7.2823579519
  0
LINE
  5
276
100
AcDbEntity
  8
03__ASM_ALL_CURVES
100
AcDbLine
 62
4
  6
CONTINUOUS
 10
9.9832679673
 20
7.2290246205
 11
9.9932679673
 21
7.2156912868
  0
LINE
  5
277
100
AcDbEntity
  8
03__ASM_ALL_CURVES
100
AcDbLine
 62
4
  6
CONTINUOUS
 10
10.4032679673
 20
6.6790246217
 11
10.4082679673
 21
6.6723579519
  0
LINE
  5
278
100
AcDbEntity
  8
03__ASM_ALL_CURVES
100
AcDbLine
 62
4
  6
CONTINUOUS
 10
10.4632679673
 20
6.6856912868
 11
10.4732679673
 21
6.6723579519
  0
LINE
  5
279
100
AcDbEntity
  8
0
100
AcDbLine
 62
7
  6
CONTINUOUS
 10
11.5648630223
 20
7.8651752528
 11
12.0016729123
 21
7.8651752528
  0
LINE
  5
27A
100
AcDbEntity
  8
03__ASM_ALL_CURVES
100
AcDbLine
 62
4
  6
CONTINUOUS
 10
10.1382679673
 20
7.2223579537
 11
10.1332679673
 21
7.2290246205
  0
LINE
  5
27B
100
AcDbEntity
  8
03__ASM_ALL_CURVES
100
AcDbLine
 62
4
  6
CONTINUOUS
 10
10.1582679673
 20
7.2890246217
 11
10.1632679673
 21
7.2823579519
  0
LINE
  5
27C
100
AcDbEntity
  8
03__ASM_ALL_CURVES
100
AcDbLine
 62
4
  6
CONTINUOUS
 10
10.2407679673
 20
7.2256912871
 11
10.2482679673
 21
7.2156912868
  0
LINE
  5
27D
100
AcDbEntity
  8
03__ASM_ALL_CURVES
100
AcDbLine
 62
4
  6
CONTINUOUS
 10
10.0532679673
 20
6.6190246205
 11
10.0482679673
 21
6.6323579543
  0
LINE
  5
27E
100
AcDbEntity
  8
03__ASM_ALL_CURVES
100
AcDbLine
 62
4
  6
CONTINUOUS
 10
11.1572679673
 20
8.1391912868
 11
11.1872679673
 21
8.1466912868
  0
LINE
  5
27F
100
AcDbEntity
  8
03__ASM_ALL_CURVES
100
AcDbLine
 62
4
  6
CONTINUOUS
 10
11.2172679673
 20
8.1916912868
 11
11.1872679673
 21
8.1841912868
  0
LINE
  5
280
100
AcDbEntity
  8
03__ASM_ALL_CURVES
100
AcDbLine
 62
4
  6
CONTINUOUS
 10
9.5882679673
 20
8.2626912868
 11
9.5782679673
 21
8.2693579537
  0
LINE
  5
281
100
AcDbEntity
  8
03__ASM_ALL_CURVES
100
AcDbLine
 62
4
  6
CONTINUOUS
 10
9.5882679673
 20
8.3426912868
 11
9.5982679673
 21
8.3360246217
  0
LINE
  5
282
100
AcDbEntity
  8
03__ASM_ALL_CURVES
100
AcDbLine
 62
4
  6
CONTINUOUS
 10
9.8232679673
 20
8.2626912868
 11
9.8132679673
 21
8.2693579537
  0
LINE
  5
283
100
AcDbEntity
  8
03__ASM_ALL_CURVES
100
AcDbLine
 62
4
  6
CONTINUOUS
 10
9.8232679673
 20
8.3093579519
 11
9.8132679673
 21
8.3160246217
  0
LINE
  5
284
100
AcDbEntity
  8
03__ASM_ALL_CURVES
100
AcDbLine
 62
4
  6
CONTINUOUS
 10
9.8332679673
 20
8.3093579519
 11
9.8432679673
 21
8.3026912868
  0
LINE
  5
285
100
AcDbEntity
  8
03__ASM_ALL_CURVES
100
AcDbLine
 62
4
  6
CONTINUOUS
 10
9.8332679673
 20
8.3426912868
 11
9.8432679673
 21
8.3360246217
  0
LINE
  5
286
100
AcDbEntity
  8
03__ASM_ALL_CURVES
100
AcDbLine
 62
4
  6
CONTINUOUS
 10
9.5782679673
 20
8.2693579537
 11
9.5732679673
 21
8.2760246205
  0
LINE
  5
287
100
AcDbEntity
  8
03__ASM_ALL_CURVES
100
AcDbLine
 62
4
  6
CONTINUOUS
 10
10.3232679673
 20
7.2890246217
 11
10.3282679673
 21
7.2823579519
  0
LINE
  5
288
100
AcDbEntity
  8
03__ASM_ALL_CURVES
100
AcDbLine
 62
4
  6
CONTINUOUS
 10
9.5982679673
 20
8.3360246217
 11
9.6032679673
 21
8.3293579519
  0
LINE
  5
289
100
AcDbEntity
  8
03__ASM_ALL_CURVES
100
AcDbLine
 62
4
  6
CONTINUOUS
 10
10.4032679673
 20
7.2890246217
 11
10.4082679673
 21
7.2823579519
  0
LINE
  5
28A
100
AcDbEntity
  8
03__ASM_ALL_CURVES
100
AcDbLine
 62
4
  6
CONTINUOUS
 10
9.6807679673
 20
8.2726912871
 11
9.6882679673
 21
8.2626912868
  0
LINE
  5
28B
100
AcDbEntity
  8
03__ASM_ALL_CURVES
100
AcDbLine
 62
4
  6
CONTINUOUS
 10
10.4632679673
 20
7.2956912868
 11
10.4732679673
 21
7.2823579519
  0
LINE
  5
28C
100
AcDbEntity
  8
03__ASM_ALL_CURVES
100
AcDbLine
 62
4
  6
CONTINUOUS
 10
9.8132679673
 20
8.2693579537
 11
9.8032679673
 21
8.2826912868
  0
LINE
  5
28D
100
AcDbEntity
  8
03__ASM_ALL_CURVES
100
AcDbLine
 62
4
  6
CONTINUOUS
 10
9.8132679673
 20
8.3160246217
 11
9.8082679673
 21
8.3226912868
  0
LINE
  5
28E
100
AcDbEntity
  8
03__ASM_ALL_CURVES
100
AcDbLine
 62
4
  6
CONTINUOUS
 10
10.0832679673
 20
6.6456912868
 11
10.0882679673
 21
6.6323579543
  0
LINE
  5
28F
100
AcDbEntity
  8
03__ASM_ALL_CURVES
100
AcDbLine
 62
4
  6
CONTINUOUS
 10
9.5732679673
 20
8.2760246205
 11
9.5682679673
 21
8.2893579543
  0
LINE
  5
290
100
AcDbEntity
  8
03__ASM_ALL_CURVES
100
AcDbLine
 62
4
  6
CONTINUOUS
 10
9.6032679673
 20
8.3293579519
 11
9.6082679673
 21
8.3160246217
  0
LINE
  5
291
100
AcDbEntity
  8
03__ASM_ALL_CURVES
100
AcDbLine
 62
4
  6
CONTINUOUS
 10
9.9782679673
 20
6.6390246193
 11
9.9832679673
 21
6.6190246205
  0
LINE
  5
292
100
AcDbEntity
  8
03__ASM_ALL_CURVES
100
AcDbLine
 62
4
  6
CONTINUOUS
 10
9.5682679673
 20
8.2893579543
 11
9.5682679673
 21
8.3160246217
  0
LINE
  5
293
100
AcDbEntity
  8
03__ASM_ALL_CURVES
100
AcDbLine
 62
4
  6
CONTINUOUS
 10
9.5882679673
 20
7.2956912868
 11
9.5882679673
 21
7.2156912868
  0
LINE
  5
294
100
AcDbEntity
  8
03__ASM_ALL_CURVES
100
AcDbLine
 62
4
  6
CONTINUOUS
 10
9.6082679673
 20
8.3160246217
 11
9.6082679673
 21
8.2893579543
  0
LINE
  5
295
100
AcDbEntity
  8
03__ASM_ALL_CURVES
100
AcDbLine
 62
4
  6
CONTINUOUS
 10
9.6082679673
 20
6.6723579519
 11
9.6082679673
 21
6.6590246217
  0
LINE
  5
296
100
AcDbEntity
  8
03__ASM_ALL_CURVES
100
AcDbLine
 62
4
  6
CONTINUOUS
 10
11.1272679673
 20
8.2516912868
 11
11.2472679673
 21
8.2516912868
  0
LINE
  5
297
100
AcDbEntity
  8
03__ASM_ALL_CURVES
100
AcDbLine
 62
4
  6
CONTINUOUS
 10
10.3132679673
 20
8.2626912868
 11
10.3032679673
 21
8.2626912868
  0
LINE
  5
298
100
AcDbEntity
  8
03__ASM_ALL_CURVES
100
AcDbLine
 62
4
  6
CONTINUOUS
 10
10.2482679673
 20
8.2626912868
 11
10.2407679673
 21
8.2626912868
  0
LINE
  5
299
100
AcDbEntity
  8
03__ASM_ALL_CURVES
100
AcDbLine
 62
4
  6
CONTINUOUS
 10
9.8332679673
 20
8.2626912868
 11
9.8232679673
 21
8.2626912868
  0
LINE
  5
29A
100
AcDbEntity
  8
03__ASM_ALL_CURVES
100
AcDbLine
 62
4
  6
CONTINUOUS
 10
9.6882679673
 20
8.2626912868
 11
9.6807679673
 21
8.2626912868
  0
LINE
  5
29B
100
AcDbEntity
  8
03__ASM_ALL_CURVES
100
AcDbLine
 62
4
  6
CONTINUOUS
 10
10.8282679673
 20
8.3026912868
 11
10.5882679673
 21
8.3026912868
  0
LINE
  5
29C
100
AcDbEntity
  8
03__ASM_ALL_CURVES
100
AcDbLine
 62
4
  6
CONTINUOUS
 10
9.8232679673
 20
8.3093579519
 11
9.8332679673
 21
8.3093579519
  0
LINE
  5
29D
100
AcDbEntity
  8
03__ASM_ALL_CURVES
100
AcDbLine
 62
4
  6
CONTINUOUS
 10
10.3032679673
 20
8.3093579519
 11
10.3132679673
 21
8.3093579519
  0
LINE
  5
29E
100
AcDbEntity
  8
03__ASM_ALL_CURVES
100
AcDbLine
 62
4
  6
CONTINUOUS
 10
9.7682679673
 20
8.3426912868
 11
9.7282679673
 21
8.3426912868
  0
LINE
  5
29F
100
AcDbEntity
  8
03__ASM_ALL_CURVES
100
AcDbLine
 62
4
  6
CONTINUOUS
 10
9.8232679673
 20
8.3426912868
 11
9.8332679673
 21
8.3426912868
  0
LINE
  5
2A0
100
AcDbEntity
  8
03__ASM_ALL_CURVES
100
AcDbLine
 62
4
  6
CONTINUOUS
 10
10.3032679673
 20
8.3426912868
 11
10.3132679673
 21
8.3426912868
  0
LINE
  5
2A1
100
AcDbEntity
  8
03__ASM_ALL_CURVES
100
AcDbLine
 62
4
  6
CONTINUOUS
 10
11.1872679673
 20
8.1466912868
 11
11.2172679673
 21
8.1391912868
  0
LINE
  5
2A2
100
AcDbEntity
  8
03__ASM_ALL_CURVES
100
AcDbLine
 62
4
  6
CONTINUOUS
 10
10.1482679673
 20
8.2960246193
 11
10.1332679673
 21
8.3026912868
  0
LINE
  5
2A3
100
AcDbEntity
  8
03__ASM_ALL_CURVES
100
AcDbLine
 62
4
  6
CONTINUOUS
 10
10.1482679673
 20
8.2626912868
 11
10.1382679673
 21
8.2693579537
  0
LINE
  5
2A4
100
AcDbEntity
  8
03__ASM_ALL_CURVES
100
AcDbLine
 62
4
  6
CONTINUOUS
 10
10.1482679673
 20
8.3426912868
 11
10.1582679673
 21
8.3360246217
  0
LINE
  5
2A5
100
AcDbEntity
  8
03__ASM_ALL_CURVES
100
AcDbLine
 62
4
  6
CONTINUOUS
 10
10.3032679673
 20
8.2626912868
 11
10.2932679673
 21
8.2693579537
  0
LINE
  5
2A6
100
AcDbEntity
  8
03__ASM_ALL_CURVES
100
AcDbLine
 62
4
  6
CONTINUOUS
 10
10.3032679673
 20
8.3093579519
 11
10.2932679673
 21
8.3160246217
  0
LINE
  5
2A7
100
AcDbEntity
  8
03__ASM_ALL_CURVES
100
AcDbLine
 62
4
  6
CONTINUOUS
 10
9.8432679673
 20
8.3026912868
 11
9.8532679673
 21
8.2893579543
  0
LINE
  5
2A8
100
AcDbEntity
  8
03__ASM_ALL_CURVES
100
AcDbLine
 62
4
  6
CONTINUOUS
 10
9.8432679673
 20
8.3360246217
 11
9.8482679673
 21
8.3293579519
  0
LINE
  5
2A9
100
AcDbEntity
  8
03__ASM_ALL_CURVES
100
AcDbLine
 62
4
  6
CONTINUOUS
 10
9.9832679673
 20
8.2760246205
 11
9.9932679673
 21
8.2626912868
  0
LINE
  5
2AA
100
AcDbEntity
  8
03__ASM_ALL_CURVES
100
AcDbLine
 62
4
  6
CONTINUOUS
 10
10.1382679673
 20
8.2693579537
 11
10.1332679673
 21
8.2760246205
  0
LINE
  5
2AB
100
AcDbEntity
  8
03__ASM_ALL_CURVES
100
AcDbLine
 62
4
  6
CONTINUOUS
 10
10.1332679673
 20
7.2290246205
 11
10.1282679673
 21
7.2423579543
  0
LINE
  5
2AC
100
AcDbEntity
  8
03__ASM_ALL_CURVES
100
AcDbLine
 62
4
  6
CONTINUOUS
 10
10.1632679673
 20
7.2556912868
 11
10.1682679673
 21
7.2423579543
  0
LINE
  5
2AD
100
AcDbEntity
  8
03__ASM_ALL_CURVES
100
AcDbLine
 62
4
  6
CONTINUOUS
 10
9.9782679673
 20
7.2490246193
 11
9.9832679673
 21
7.2290246205
  0
LINE
  5
2AE
100
AcDbEntity
  8
03__ASM_ALL_CURVES
100
AcDbLine
 62
4
  6
CONTINUOUS
 10
9.6807679673
 20
6.6056912868
 11
9.6807679673
 21
6.6156912871
  0
LINE
  5
2AF
100
AcDbEntity
  8
03__ASM_ALL_CURVES
100
AcDbLine
 62
4
  6
CONTINUOUS
 10
9.6807679673
 20
7.2156912868
 11
9.6807679673
 21
7.2256912871
  0
LINE
  5
2B0
100
AcDbEntity
  8
03__ASM_ALL_CURVES
100
AcDbLine
 62
4
  6
CONTINUOUS
 10
9.6807679673
 20
8.2626912868
 11
9.6807679673
 21
8.2726912871
  0
LINE
  5
2B1
100
AcDbEntity
  8
03__ASM_ALL_CURVES
100
AcDbLine
 62
4
  6
CONTINUOUS
 10
9.7232679673
 20
7.2356912868
 11
9.7232679673
 21
7.2423579543
  0
LINE
  5
2B2
100
AcDbEntity
  8
03__ASM_ALL_CURVES
100
AcDbLine
 62
4
  6
CONTINUOUS
 10
9.7282679673
 20
7.2756912868
 11
9.7282679673
 21
7.2823579519
  0
LINE
  5
2B3
100
AcDbEntity
  8
03__ASM_ALL_CURVES
100
AcDbLine
 62
4
  6
CONTINUOUS
 10
9.7282679673
 20
8.8703579543
 11
9.7282679673
 21
8.8970246217
  0
LINE
  5
2B4
100
AcDbEntity
  8
03__ASM_ALL_CURVES
100
AcDbLine
 62
4
  6
CONTINUOUS
 10
9.7632679673
 20
6.6056912868
 11
9.7632679673
 21
6.6856912868
  0
LINE
  5
2B5
100
AcDbEntity
  8
03__ASM_ALL_CURVES
100
AcDbLine
 62
4
  6
CONTINUOUS
 10
9.7682679673
 20
8.8970246217
 11
9.7682679673
 21
8.8703579543
  0
LINE
  5
2B6
100
AcDbEntity
  8
03__ASM_ALL_CURVES
100
AcDbLine
 62
4
  6
CONTINUOUS
 10
9.7682679673
 20
7.2823579519
 11
9.7682679673
 21
7.2756912868
  0
LINE
  5
2B7
100
AcDbEntity
  8
03__ASM_ALL_CURVES
100
AcDbLine
 62
4
  6
CONTINUOUS
 10
9.7732679673
 20
7.2423579543
 11
9.7732679673
 21
7.2356912868
  0
LINE
  5
2B8
100
AcDbEntity
  8
03__ASM_ALL_CURVES
100
AcDbLine
 62
4
  6
CONTINUOUS
 10
9.8032679673
 20
8.2826912868
 11
9.8032679673
 21
8.2893579543
  0
LINE
  5
2B9
100
AcDbEntity
  8
03__ASM_ALL_CURVES
100
AcDbLine
 62
4
  6
CONTINUOUS
 10
9.8082679673
 20
8.3226912868
 11
9.8082679673
 21
8.3293579519
  0
LINE
  5
2BA
100
AcDbEntity
  8
03__ASM_ALL_CURVES
100
AcDbLine
 62
4
  6
CONTINUOUS
 10
9.8407679673
 20
8.8436912868
 11
9.8407679673
 21
8.8536912871
  0
LINE
  5
2BB
100
AcDbEntity
  8
03__ASM_ALL_CURVES
100
AcDbLine
 62
4
  6
CONTINUOUS
 10
9.8482679673
 20
8.3293579519
 11
9.8482679673
 21
8.3226912868
  0
LINE
  5
2BC
100
AcDbEntity
  8
03__ASM_ALL_CURVES
100
AcDbLine
 62
4
  6
CONTINUOUS
 10
9.8482679673
 20
7.2823579519
 11
9.8482679673
 21
7.2690246217
  0
LINE
  5
2BD
100
AcDbEntity
  8
03__ASM_ALL_CURVES
100
AcDbLine
 62
4
  6
CONTINUOUS
 10
9.8482679673
 20
6.6723579519
 11
9.8482679673
 21
6.6656912868
  0
LINE
  5
2BE
100
AcDbEntity
  8
03__ASM_ALL_CURVES
100
AcDbLine
 62
4
  6
CONTINUOUS
 10
9.8532679673
 20
8.2893579543
 11
9.8532679673
 21
8.2826912868
  0
LINE
  5
2BF
100
AcDbEntity
  8
03__ASM_ALL_CURVES
100
AcDbLine
 62
4
  6
CONTINUOUS
 10
9.8532679673
 20
6.6323579543
 11
9.8532679673
 21
6.6256912868
  0
LINE
  5
2C0
100
AcDbEntity
  8
03__ASM_ALL_CURVES
100
AcDbLine
 62
4
  6
CONTINUOUS
 10
11.5376013022
 20
10.4186912868
 11
11.5509346324
 21
10.4236912868
  0
LINE
  5
2C1
100
AcDbEntity
  8
03__ASM_ALL_CURVES
100
AcDbLine
 62
4
  6
CONTINUOUS
 10
11.5909346336
 20
10.3886912868
 11
11.5776012999
 21
10.3836912868
  0
LINE
  5
2C2
100
AcDbEntity
  8
03__ASM_ALL_CURVES
100
AcDbLine
 62
4
  6
CONTINUOUS
 10
11.5642679673
 20
10.3436912868
 11
11.5776012999
 21
10.3486912868
  0
LINE
  5
2C3
100
AcDbEntity
  8
03__ASM_ALL_CURVES
100
AcDbLine
 62
4
  6
CONTINUOUS
 10
11.1572679673
 20
8.4991912868
 11
11.1872679673
 21
8.5066912868
  0
LINE
  5
2C4
100
AcDbEntity
  8
03__ASM_ALL_CURVES
100
AcDbLine
 62
4
  6
CONTINUOUS
 10
11.1872679673
 20
8.1841912868
 11
11.1572679673
 21
8.1916912868
  0
LINE
  5
2C5
100
AcDbEntity
  8
03__ASM_ALL_CURVES
100
AcDbLine
 62
4
  6
CONTINUOUS
 10
10.3132679673
 20
8.3093579519
 11
10.3232679673
 21
8.3026912868
  0
LINE
  5
2C6
100
AcDbEntity
  8
03__ASM_ALL_CURVES
100
AcDbLine
 62
4
  6
CONTINUOUS
 10
10.3132679673
 20
8.3426912868
 11
10.3232679673
 21
8.3360246217
  0
LINE
  5
2C7
100
AcDbEntity
  8
03__ASM_ALL_CURVES
100
AcDbLine
 62
4
  6
CONTINUOUS
 10
9.7482679673
 20
8.8436912868
 11
9.7382679673
 21
8.8503579537
  0
LINE
  5
2C8
100
AcDbEntity
  8
03__ASM_ALL_CURVES
100
AcDbLine
 62
4
  6
CONTINUOUS
 10
9.7482679673
 20
8.9236912868
 11
9.7582679673
 21
8.9170246217
  0
LINE
  5
2C9
100
AcDbEntity
  8
03__ASM_ALL_CURVES
100
AcDbLine
 62
4
  6
CONTINUOUS
 10
9.7382679673
 20
8.8503579537
 11
9.7332679673
 21
8.8570246205
  0
LINE
  5
2CA
100
AcDbEntity
  8
03__ASM_ALL_CURVES
100
AcDbLine
 62
4
  6
CONTINUOUS
 10
10.1582679673
 20
8.3360246217
 11
10.1632679673
 21
8.3293579519
  0
LINE
  5
2CB
100
AcDbEntity
  8
03__ASM_ALL_CURVES
100
AcDbLine
 62
4
  6
CONTINUOUS
 10
10.2407679673
 20
8.2726912871
 11
10.2482679673
 21
8.2626912868
  0
LINE
  5
2CC
100
AcDbEntity
  8
03__ASM_ALL_CURVES
100
AcDbLine
 62
4
  6
CONTINUOUS
 10
9.7582679673
 20
8.9170246217
 11
9.7632679673
 21
8.9103579519
  0
LINE
  5
2CD
100
AcDbEntity
  8
03__ASM_ALL_CURVES
100
AcDbLine
 62
4
  6
CONTINUOUS
 10
9.8407679673
 20
8.8536912871
 11
9.8482679673
 21
8.8436912868
  0
LINE
  5
2CE
100
AcDbEntity
  8
03__ASM_ALL_CURVES
100
AcDbLine
 62
4
  6
CONTINUOUS
 10
10.2932679673
 20
8.2693579537
 11
10.2832679673
 21
8.2826912868
  0
LINE
  5
2CF
100
AcDbEntity
  8
03__ASM_ALL_CURVES
100
AcDbLine
 62
4
  6
CONTINUOUS
 10
10.2932679673
 20
8.3160246217
 11
10.2882679673
 21
8.3226912868
  0
LINE
  5
2D0
100
AcDbEntity
  8
03__ASM_ALL_CURVES
100
AcDbLine
 62
4
  6
CONTINUOUS
 10
10.3232679673
 20
8.3026912868
 11
10.3332679673
 21
8.2893579543
  0
LINE
  5
2D1
100
AcDbEntity
  8
03__ASM_ALL_CURVES
100
AcDbLine
 62
4
  6
CONTINUOUS
 10
10.3232679673
 20
8.3360246217
 11
10.3282679673
 21
8.3293579519
  0
LINE
  5
2D2
100
AcDbEntity
  8
03__ASM_ALL_CURVES
100
AcDbLine
 62
4
  6
CONTINUOUS
 10
9.9232679673
 20
8.9170246217
 11
9.9282679673
 21
8.9103579519
  0
LINE
  5
2D3
100
AcDbEntity
  8
03__ASM_ALL_CURVES
100
AcDbLine
 62
4
  6
CONTINUOUS
 10
9.7332679673
 20
8.8570246205
 11
9.7282679673
 21
8.8703579543
  0
LINE
  5
2D4
100
AcDbEntity
  8
03__ASM_ALL_CURVES
100
AcDbLine
 62
4
  6
CONTINUOUS
 10
9.7632679673
 20
8.9103579519
 11
9.7682679673
 21
8.8970246217
  0
LINE
  5
2D5
100
AcDbEntity
  8
03__ASM_ALL_CURVES
100
AcDbLine
 62
4
  6
CONTINUOUS
 10
10.1332679673
 20
8.3026912868
 11
10.1282679673
 21
8.3160246217
  0
LINE
  5
2D6
100
AcDbEntity
  8
03__ASM_ALL_CURVES
100
AcDbLine
 62
4
  6
CONTINUOUS
 10
9.9782679673
 20
8.2960246193
 11
9.9832679673
 21
8.2760246205
  0
LINE
  5
2D7
100
AcDbEntity
  8
03__ASM_ALL_CURVES
100
AcDbLine
 62
4
  6
CONTINUOUS
 10
10.4732679673
 20
6.6723579519
 11
10.4782679673
 21
6.6523579519
  0
LINE
  5
2D8
100
AcDbEntity
  8
03__ASM_ALL_CURVES
100
AcDbLine
 62
4
  6
CONTINUOUS
 10
9.9282679673
 20
8.9103579519
 11
9.9282679673
 21
8.8970246217
  0
LINE
  5
2D9
100
AcDbEntity
  8
03__ASM_ALL_CURVES
100
AcDbLine
 62
4
  6
CONTINUOUS
 10
9.9782679673
 20
8.3093579519
 11
9.9782679673
 21
8.2960246193
  0
LINE
  5
2DA
100
AcDbEntity
  8
03__ASM_ALL_CURVES
100
AcDbLine
 62
4
  6
CONTINUOUS
 10
9.9782679673
 20
7.2623579519
 11
9.9782679673
 21
7.2490246193
  0
LINE
  5
2DB
100
AcDbEntity
  8
03__ASM_ALL_CURVES
100
AcDbLine
 62
4
  6
CONTINUOUS
 10
9.9782679673
 20
6.6523579519
 11
9.9782679673
 21
6.6390246193
  0
LINE
  5
2DC
100
AcDbEntity
  8
03__ASM_ALL_CURVES
100
AcDbLine
 62
4
  6
CONTINUOUS
 10
10.0482679673
 20
6.6323579543
 11
10.0482679673
 21
6.6590246217
  0
LINE
  5
2DD
100
AcDbEntity
  8
03__ASM_ALL_CURVES
100
AcDbLine
 62
4
  6
CONTINUOUS
 10
10.0582679673
 20
8.8903579519
 11
10.0582679673
 21
8.8770246193
  0
LINE
  5
2DE
100
AcDbEntity
  8
03__ASM_ALL_CURVES
100
AcDbLine
 62
4
  6
CONTINUOUS
 10
10.0682679673
 20
8.3426912868
 11
10.0682679673
 21
8.2626912868
  0
LINE
  5
2DF
100
AcDbEntity
  8
03__ASM_ALL_CURVES
100
AcDbLine
 62
4
  6
CONTINUOUS
 10
10.0832679673
 20
7.2156912868
 11
10.0832679673
 21
7.2956912868
  0
LINE
  5
2E0
100
AcDbEntity
  8
03__ASM_ALL_CURVES
100
AcDbLine
 62
4
  6
CONTINUOUS
 10
9.7482679673
 20
8.2626912868
 11
9.7532679673
 21
8.2960246193
  0
LINE
  5
2E1
100
AcDbEntity
  8
03__ASM_ALL_CURVES
100
AcDbLine
 62
4
  6
CONTINUOUS
 10
9.8932679673
 20
8.8636912868
 11
9.8882679673
 21
8.8436912868
  0
LINE
  5
2E2
100
AcDbEntity
  8
03__ASM_ALL_CURVES
100
AcDbLine
 62
4
  6
CONTINUOUS
 10
9.7532679673
 20
8.2960246193
 11
9.7582679673
 21
8.3160246217
  0
LINE
  5
2E3
100
AcDbEntity
  8
03__ASM_ALL_CURVES
100
AcDbLine
 62
4
  6
CONTINUOUS
 10
9.7282679673
 20
8.8970246217
 11
9.7332679673
 21
8.9103579519
  0
LINE
  5
2E4
100
AcDbEntity
  8
03__ASM_ALL_CURVES
100
AcDbLine
 62
4
  6
CONTINUOUS
 10
9.7682679673
 20
8.8703579543
 11
9.7632679673
 21
8.8570246205
  0
LINE
  5
2E5
100
AcDbEntity
  8
03__ASM_ALL_CURVES
100
AcDbLine
 62
4
  6
CONTINUOUS
 10
9.5682679673
 20
8.3160246217
 11
9.5732679673
 21
8.3293579519
  0
LINE
  5
2E6
100
AcDbEntity
  8
03__ASM_ALL_CURVES
100
AcDbLine
 62
4
  6
CONTINUOUS
 10
9.6082679673
 20
8.2893579543
 11
9.6032679673
 21
8.2760246205
  0
LINE
  5
2E7
100
AcDbEntity
  8
03__ASM_ALL_CURVES
100
AcDbLine
 62
4
  6
CONTINUOUS
 10
9.7332679673
 20
8.9103579519
 11
9.7382679673
 21
8.9170246217
  0
LINE
  5
2E8
100
AcDbEntity
  8
03__ASM_ALL_CURVES
100
AcDbLine
 62
4
  6
CONTINUOUS
 10
11.8776013022
 20
10.4186912868
 11
11.8909346324
 21
10.4236912868
  0
LINE
  5
2E9
100
AcDbEntity
  8
03__ASM_ALL_CURVES
100
AcDbLine
 62
4
  6
CONTINUOUS
 10
11.9042679673
 20
10.3886912868
 11
11.8909346324
 21
10.3836912868
  0
LINE
  5
2EA
100
AcDbEntity
  8
03__ASM_ALL_CURVES
100
AcDbLine
 62
4
  6
CONTINUOUS
 10
11.8082679673
 20
10.3436912868
 11
11.8216012999
 21
10.3486912868
  0
LINE
  5
2EB
100
AcDbEntity
  8
03__ASM_ALL_CURVES
100
AcDbLine
 62
4
  6
CONTINUOUS
 10
11.8776013022
 20
10.3386912868
 11
11.8909346324
 21
10.3436912868
  0
LINE
  5
2EC
100
AcDbEntity
  8
03__ASM_ALL_CURVES
100
AcDbLine
 62
4
  6
CONTINUOUS
 10
11.5642679673
 20
10.1786912868
 11
11.5776012999
 21
10.1836912868
  0
LINE
  5
2ED
100
AcDbEntity
  8
03__ASM_ALL_CURVES
100
AcDbLine
 62
4
  6
CONTINUOUS
 10
11.9309346336
 20
10.3086912868
 11
11.9176012999
 21
10.3036912868
  0
LINE
  5
2EE
100
AcDbEntity
  8
03__ASM_ALL_CURVES
100
AcDbLine
 62
4
  6
CONTINUOUS
 10
11.5909346336
 20
10.1486912868
 11
11.5776012999
 21
10.1436912868
  0
LINE
  5
2EF
100
AcDbEntity
  8
03__ASM_ALL_CURVES
100
AcDbLine
 62
4
  6
CONTINUOUS
 10
11.7816013022
 20
10.1786912868
 11
11.7949346324
 21
10.1836912868
  0
LINE
  5
2F0
100
AcDbEntity
  8
0
100
AcDbLine
 62
7
  6
CONTINUOUS
 10
11.0012679673
 20
8.6926913049
 11
10.9702679673
 21
8.6926913049
  0
LINE
  5
2F1
100
AcDbEntity
  8
0
100
AcDbLine
 62
7
  6
CONTINUOUS
 10
12.5642679673
 20
8.6926913049
 11
12.5952679673
 21
8.6926913049
  0
LINE
  5
2F2
100
AcDbEntity
  8
0
100
AcDbLine
 62
7
  6
CONTINUOUS
 10
12.0016729123
 20
8.7402073208
 11
11.5648630223
 21
8.7402073208
  0
LINE
  5
2F3
100
AcDbEntity
  8
03__ASM_ALL_CURVES
100
AcDbLine
 62
4
  6
CONTINUOUS
 10
11.1872679673
 20
8.5066912868
 11
11.2172679673
 21
8.4991912868
  0
LINE
  5
2F4
100
AcDbEntity
  8
03__ASM_ALL_CURVES
100
AcDbLine
 62
4
  6
CONTINUOUS
 10
11.1272679673
 20
8.3716912868
 11
11.2472679673
 21
8.3116912868
  0
LINE
  5
2F5
100
AcDbEntity
  8
03__ASM_ALL_CURVES
100
AcDbLine
 62
4
  6
CONTINUOUS
 10
9.9132679673
 20
8.9236912868
 11
9.9232679673
 21
8.9170246217
  0
LINE
  5
2F6
100
AcDbEntity
  8
03__ASM_ALL_CURVES
100
AcDbLine
 62
4
  6
CONTINUOUS
 10
10.1432679673
 20
8.8436912868
 11
10.1332679673
 21
8.8503579537
  0
LINE
  5
2F7
100
AcDbEntity
  8
03__ASM_ALL_CURVES
100
AcDbLine
 62
4
  6
CONTINUOUS
 10
10.1532679673
 20
8.8970246217
 11
10.1632679673
 21
8.8903579519
  0
LINE
  5
2F8
100
AcDbEntity
  8
03__ASM_ALL_CURVES
100
AcDbLine
 62
4
  6
CONTINUOUS
 10
10.3082679673
 20
8.8436912868
 11
10.2982679673
 21
8.8503579537
  0
LINE
  5
2F9
100
AcDbEntity
  8
03__ASM_ALL_CURVES
100
AcDbLine
 62
4
  6
CONTINUOUS
 10
11.1472679679
 20
8.0716912868
 11
11.1372679676
 21
8.0791912868
  0
LINE
  5
2FA
100
AcDbEntity
  8
03__ASM_ALL_CURVES
100
AcDbLine
 62
4
  6
CONTINUOUS
 10
11.2172679673
 20
8.1391912868
 11
11.2372679697
 21
8.1241912868
  0
LINE
  5
2FB
100
AcDbEntity
  8
03__ASM_ALL_CURVES
100
AcDbLine
 62
4
  6
CONTINUOUS
 10
11.1572679673
 20
8.1916912868
 11
11.1372679676
 21
8.2066912868
  0
LINE
  5
2FC
100
AcDbEntity
  8
03__ASM_ALL_CURVES
100
AcDbLine
 62
4
  6
CONTINUOUS
 10
10.0632679673
 20
8.8570246205
 11
10.0732679673
 21
8.8436912868
  0
LINE
  5
2FD
100
AcDbEntity
  8
03__ASM_ALL_CURVES
100
AcDbLine
 62
4
  6
CONTINUOUS
 10
10.4632679673
 20
8.3426912868
 11
10.4732679673
 21
8.3293579519
  0
LINE
  5
2FE
100
AcDbEntity
  8
03__ASM_ALL_CURVES
100
AcDbLine
 62
4
  6
CONTINUOUS
 10
10.1332679673
 20
8.8503579537
 11
10.1282679673
 21
8.8570246205
  0
LINE
  5
2FF
100
AcDbEntity
  8
03__ASM_ALL_CURVES
100
AcDbLine
 62
4
  6
CONTINUOUS
 10
10.1632679673
 20
8.8903579519
 11
10.1682679673
 21
8.8836912868
  0
LINE
  5
300
100
AcDbEntity
  8
03__ASM_ALL_CURVES
100
AcDbLine
 62
4
  6
CONTINUOUS
 10
10.2407679673
 20
8.8536912871
 11
10.2482679673
 21
8.8436912868
  0
LINE
  5
301
100
AcDbEntity
  8
03__ASM_ALL_CURVES
100
AcDbLine
 62
4
  6
CONTINUOUS
 10
10.1632679673
 20
8.3293579519
 11
10.1682679673
 21
8.3160246217
  0
LINE
  5
302
100
AcDbEntity
  8
03__ASM_ALL_CURVES
100
AcDbLine
 62
4
  6
CONTINUOUS
 10
10.1682679673
 20
8.8836912868
 11
10.1732679673
 21
8.8703579543
  0
LINE
  5
303
100
AcDbEntity
  8
03__ASM_ALL_CURVES
100
AcDbLine
 62
4
  6
CONTINUOUS
 10
10.0582679673
 20
8.8770246193
 11
10.0632679673
 21
8.8570246205
  0
LINE
  5
304
100
AcDbEntity
  8
03__ASM_ALL_CURVES
100
AcDbLine
 62
4
  6
CONTINUOUS
 10
10.4732679673
 20
7.2823579519
 11
10.4782679673
 21
7.2623579519
  0
LINE
  5
305
100
AcDbEntity
  8
03__ASM_ALL_CURVES
100
AcDbLine
 62
4
  6
CONTINUOUS
 10
10.1282679673
 20
7.2423579543
 11
10.1282679673
 21
7.2690246217
  0
LINE
  5
306
100
AcDbEntity
  8
03__ASM_ALL_CURVES
100
AcDbLine
 62
4
  6
CONTINUOUS
 10
10.1482679673
 20
6.6856912868
 11
10.1482679673
 21
6.6056912868
  0
LINE
  5
307
100
AcDbEntity
  8
03__ASM_ALL_CURVES
100
AcDbLine
 62
4
  6
CONTINUOUS
 10
10.1682679673
 20
8.3160246217
 11
10.1682679673
 21
8.2893579543
  0
LINE
  5
308
100
AcDbEntity
  8
03__ASM_ALL_CURVES
100
AcDbLine
 62
4
  6
CONTINUOUS
 10
10.2407679673
 20
6.6056912868
 11
10.2407679673
 21
6.6156912871
  0
LINE
  5
309
100
AcDbEntity
  8
03__ASM_ALL_CURVES
100
AcDbLine
 62
4
  6
CONTINUOUS
 10
10.2407679673
 20
7.2156912868
 11
10.2407679673
 21
7.2256912871
  0
LINE
  5
30A
100
AcDbEntity
  8
03__ASM_ALL_CURVES
100
AcDbLine
 62
4
  6
CONTINUOUS
 10
10.2407679673
 20
8.2626912868
 11
10.2407679673
 21
8.2726912871
  0
LINE
  5
30B
100
AcDbEntity
  8
03__ASM_ALL_CURVES
100
AcDbLine
 62
4
  6
CONTINUOUS
 10
10.2407679673
 20
8.8436912868
 11
10.2407679673
 21
8.8536912871
  0
LINE
  5
30C
100
AcDbEntity
  8
03__ASM_ALL_CURVES
100
AcDbLine
 62
4
  6
CONTINUOUS
 10
10.2832679673
 20
8.2826912868
 11
10.2832679673
 21
8.2893579543
  0
LINE
  5
30D
100
AcDbEntity
  8
03__ASM_ALL_CURVES
100
AcDbLine
 62
4
  6
CONTINUOUS
 10
10.2882679673
 20
8.3226912868
 11
10.2882679673
 21
8.3293579519
  0
LINE
  5
30E
100
AcDbEntity
  8
03__ASM_ALL_CURVES
100
AcDbLine
 62
4
  6
CONTINUOUS
 10
10.2882679673
 20
8.8703579543
 11
10.2882679673
 21
8.8970246217
  0
LINE
  5
30F
100
AcDbEntity
  8
03__ASM_ALL_CURVES
100
AcDbLine
 62
4
  6
CONTINUOUS
 10
10.1382679673
 20
8.9236912868
 11
10.1332679673
 21
8.8903579519
  0
LINE
  5
310
100
AcDbEntity
  8
03__ASM_ALL_CURVES
100
AcDbLine
 62
4
  6
CONTINUOUS
 10
10.0632679673
 20
8.9103579519
 11
10.0582679673
 21
8.8903579519
  0
LINE
  5
311
100
AcDbEntity
  8
03__ASM_ALL_CURVES
100
AcDbLine
 62
4
  6
CONTINUOUS
 10
9.9832679673
 20
8.3293579519
 11
9.9782679673
 21
8.3093579519
  0
LINE
  5
312
100
AcDbEntity
  8
03__ASM_ALL_CURVES
100
AcDbLine
 62
4
  6
CONTINUOUS
 10
9.5732679673
 20
6.6256912868
 11
9.5682679673
 21
6.6056912868
  0
LINE
  5
313
100
AcDbEntity
  8
03__ASM_ALL_CURVES
100
AcDbLine
 62
4
  6
CONTINUOUS
 10
9.8132679673
 20
7.2356912868
 11
9.8082679673
 21
7.2156912868
  0
LINE
  5
314
100
AcDbEntity
  8
03__ASM_ALL_CURVES
100
AcDbLine
 62
4
  6
CONTINUOUS
 10
9.7582679673
 20
8.3160246217
 11
9.7682679673
 21
8.3426912868
  0
LINE
  5
315
100
AcDbEntity
  8
03__ASM_ALL_CURVES
100
AcDbLine
 62
4
  6
CONTINUOUS
 10
10.1732679673
 20
8.8703579543
 11
10.1682679673
 21
8.8570246205
  0
LINE
  5
316
100
AcDbEntity
  8
03__ASM_ALL_CURVES
100
AcDbLine
 62
4
  6
CONTINUOUS
 10
9.7632679673
 20
8.8570246205
 11
9.7582679673
 21
8.8503579537
  0
LINE
  5
317
100
AcDbEntity
  8
03__ASM_ALL_CURVES
100
AcDbLine
 62
4
  6
CONTINUOUS
 10
9.8882679673
 20
8.9103579519
 11
9.8932679673
 21
8.9170246217
  0
LINE
  5
318
100
AcDbEntity
  8
03__ASM_ALL_CURVES
100
AcDbLine
 62
4
  6
CONTINUOUS
 10
9.9032679673
 20
8.8770246193
 11
9.8932679673
 21
8.8636912868
  0
LINE
  5
319
100
AcDbEntity
  8
03__ASM_ALL_CURVES
100
AcDbLine
 62
4
  6
CONTINUOUS
 10
9.9282679673
 20
8.8970246217
 11
9.9232679673
 21
8.8903579519
  0
LINE
  5
31A
100
AcDbEntity
  8
03__ASM_ALL_CURVES
100
AcDbLine
 62
4
  6
CONTINUOUS
 10
9.5732679673
 20
8.3293579519
 11
9.5782679673
 21
8.3360246217
  0
LINE
  5
31B
100
AcDbEntity
  8
03__ASM_ALL_CURVES
100
AcDbLine
 62
4
  6
CONTINUOUS
 10
11.5242679673
 20
10.4786912868
 11
11.5376013022
 21
10.4886912868
  0
LINE
  5
31C
100
AcDbEntity
  8
03__ASM_ALL_CURVES
100
AcDbLine
 62
4
  6
CONTINUOUS
 10
11.5309346324
 20
10.4136912868
 11
11.5376013022
 21
10.4186912868
  0
LINE
  5
31D
100
AcDbEntity
  8
03__ASM_ALL_CURVES
100
AcDbLine
 62
4
  6
CONTINUOUS
 10
11.5976013005
 20
10.3936912868
 11
11.5909346336
 21
10.3886912868
  0
LINE
  5
31E
100
AcDbEntity
  8
03__ASM_ALL_CURVES
100
AcDbLine
 62
4
  6
CONTINUOUS
 10
11.5576013022
 20
10.3386912868
 11
11.5642679673
 21
10.3436912868
  0
LINE
  5
31F
100
AcDbEntity
  8
03__ASM_ALL_CURVES
100
AcDbLine
 62
4
  6
CONTINUOUS
 10
11.7682679673
 20
10.4786912868
 11
11.7816013022
 21
10.4886912868
  0
LINE
  5
320
100
AcDbEntity
  8
03__ASM_ALL_CURVES
100
AcDbLine
 62
4
  6
CONTINUOUS
 10
11.5976013005
 20
10.3086912868
 11
11.5909346336
 21
10.3036912868
  0
LINE
  5
321
100
AcDbEntity
  8
03__ASM_ALL_CURVES
100
AcDbLine
 62
4
  6
CONTINUOUS
 10
11.8349346336
 20
10.1486912868
 11
11.8216012999
 21
10.1436912868
  0
LINE
  5
322
100
AcDbEntity
  8
03__ASM_ALL_CURVES
100
AcDbLine
 62
4
  6
CONTINUOUS
 10
10.8816013022
 20
9.6186912868
 11
10.8949346324
 21
9.6236912868
  0
LINE
  5
323
100
AcDbEntity
  8
03__ASM_ALL_CURVES
100
AcDbLine
 62
4
  6
CONTINUOUS
 10
11.5642679673
 20
9.8636912868
 11
11.5776012999
 21
9.8686912868
  0
LINE
  5
324
100
AcDbEntity
  8
03__ASM_ALL_CURVES
100
AcDbLine
 62
4
  6
CONTINUOUS
 10
10.3932679673
 20
8.8436912868
 11
10.3832679673
 21
8.8436912868
  0
LINE
  5
325
100
AcDbEntity
  8
03__ASM_ALL_CURVES
100
AcDbLine
 62
4
  6
CONTINUOUS
 10
10.2482679673
 20
8.8436912868
 11
10.2407679673
 21
8.8436912868
  0
LINE
  5
326
100
AcDbEntity
  8
03__ASM_ALL_CURVES
100
AcDbLine
 62
4
  6
CONTINUOUS
 10
10.1532679673
 20
8.8436912868
 11
10.1432679673
 21
8.8436912868
  0
LINE
  5
327
100
AcDbEntity
  8
03__ASM_ALL_CURVES
100
AcDbLine
 62
4
  6
CONTINUOUS
 10
9.8482679673
 20
8.8436912868
 11
9.8407679673
 21
8.8436912868
  0
LINE
  5
328
100
AcDbEntity
  8
03__ASM_ALL_CURVES
100
AcDbLine
 62
4
  6
CONTINUOUS
 10
9.8882679673
 20
8.8436912868
 11
9.9282679673
 21
8.8436912868
  0
LINE
  5
329
100
AcDbEntity
  8
03__ASM_ALL_CURVES
100
AcDbLine
 62
4
  6
CONTINUOUS
 10
10.8282679673
 20
8.8836912868
 11
10.5882679673
 21
8.8836912868
  0
LINE
  5
32A
100
AcDbEntity
  8
03__ASM_ALL_CURVES
100
AcDbLine
 62
4
  6
CONTINUOUS
 10
10.3832679673
 20
8.8903579519
 11
10.3932679673
 21
8.8903579519
  0
LINE
  5
32B
100
AcDbEntity
  8
03__ASM_ALL_CURVES
100
AcDbLine
 62
4
  6
CONTINUOUS
 10
10.1432679673
 20
8.8970246217
 11
10.1532679673
 21
8.8970246217
  0
LINE
  5
32C
100
AcDbEntity
  8
03__ASM_ALL_CURVES
100
AcDbLine
 62
4
  6
CONTINUOUS
 10
10.1682679673
 20
8.9236912868
 11
10.1382679673
 21
8.9236912868
  0
LINE
  5
32D
100
AcDbEntity
  8
03__ASM_ALL_CURVES
100
AcDbLine
 62
4
  6
CONTINUOUS
 10
9.9032679673
 20
8.9236912868
 11
9.9132679673
 21
8.9236912868
  0
LINE
  5
32E
100
AcDbEntity
  8
03__ASM_ALL_CURVES
100
AcDbLine
 62
4
  6
CONTINUOUS
 10
10.3832679673
 20
8.9236912868
 11
10.3932679673
 21
8.9236912868
  0
LINE
  5
32F
100
AcDbEntity
  8
03__ASM_ALL_CURVES
100
AcDbLine
 62
4
  6
CONTINUOUS
 10
10.3832679673
 20
8.8436912868
 11
10.3732679673
 21
8.8503579537
  0
LINE
  5
330
100
AcDbEntity
  8
03__ASM_ALL_CURVES
100
AcDbLine
 62
4
  6
CONTINUOUS
 10
10.3082679673
 20
8.9236912868
 11
10.3182679673
 21
8.9170246217
  0
LINE
  5
331
100
AcDbEntity
  8
03__ASM_ALL_CURVES
100
AcDbLine
 62
4
  6
CONTINUOUS
 10
10.3832679673
 20
8.8903579519
 11
10.3732679673
 21
8.8970246217
  0
LINE
  5
332
100
AcDbEntity
  8
03__ASM_ALL_CURVES
100
AcDbLine
 62
4
  6
CONTINUOUS
 10
10.3932679673
 20
8.8903579519
 11
10.4032679673
 21
8.8836912868
  0
LINE
  5
333
100
AcDbEntity
  8
03__ASM_ALL_CURVES
100
AcDbLine
 62
4
  6
CONTINUOUS
 10
10.3932679673
 20
8.9236912868
 11
10.4032679673
 21
8.9170246217
  0
LINE
  5
334
100
AcDbEntity
  8
03__ASM_ALL_CURVES
100
AcDbLine
 62
4
  6
CONTINUOUS
 10
10.3882679673
 20
9.0436912868
 11
10.3782679673
 21
9.0503579537
  0
LINE
  5
335
100
AcDbEntity
  8
03__ASM_ALL_CURVES
100
AcDbLine
 62
4
  6
CONTINUOUS
 10
11.1472679679
 20
8.4316912868
 11
11.1372679676
 21
8.4391912868
  0
LINE
  5
336
100
AcDbEntity
  8
03__ASM_ALL_CURVES
100
AcDbLine
 62
4
  6
CONTINUOUS
 10
10.2982679673
 20
8.8503579537
 11
10.2932679673
 21
8.8570246205
  0
LINE
  5
337
100
AcDbEntity
  8
03__ASM_ALL_CURVES
100
AcDbLine
 62
4
  6
CONTINUOUS
 10
10.3182679673
 20
8.9170246217
 11
10.3232679673
 21
8.9103579519
  0
LINE
  5
338
100
AcDbEntity
  8
03__ASM_ALL_CURVES
100
AcDbLine
 62
4
  6
CONTINUOUS
 10
10.3732679673
 20
8.8503579537
 11
10.3632679673
 21
8.8636912868
  0
LINE
  5
339
100
AcDbEntity
  8
03__ASM_ALL_CURVES
100
AcDbLine
 62
4
  6
CONTINUOUS
 10
10.3732679673
 20
8.8970246217
 11
10.3682679673
 21
8.9036912868
  0
LINE
  5
33A
100
AcDbEntity
  8
03__ASM_ALL_CURVES
100
AcDbLine
 62
4
  6
CONTINUOUS
 10
10.4032679673
 20
8.8836912868
 11
10.4132679673
 21
8.8703579543
  0
LINE
  5
33B
100
AcDbEntity
  8
03__ASM_ALL_CURVES
100
AcDbLine
 62
4
  6
CONTINUOUS
 10
10.4032679673
 20
8.9170246217
 11
10.4082679673
 21
8.9103579519
  0
LINE
  5
33C
100
AcDbEntity
  8
03__ASM_ALL_CURVES
100
AcDbLine
 62
4
  6
CONTINUOUS
 10
10.4632679673
 20
8.9236912868
 11
10.4732679673
 21
8.9103579519
  0
LINE
  5
33D
100
AcDbEntity
  8
03__ASM_ALL_CURVES
100
AcDbLine
 62
4
  6
CONTINUOUS
 10
10.3782679673
 20
9.0503579537
 11
10.3732679673
 21
9.0570246205
  0
LINE
  5
33E
100
AcDbEntity
  8
03__ASM_ALL_CURVES
100
AcDbLine
 62
4
  6
CONTINUOUS
 10
10.2932679673
 20
8.8570246205
 11
10.2882679673
 21
8.8703579543
  0
LINE
  5
33F
100
AcDbEntity
  8
03__ASM_ALL_CURVES
100
AcDbLine
 62
4
  6
CONTINUOUS
 10
10.3232679673
 20
8.9103579519
 11
10.3282679673
 21
8.8970246217
  0
LINE
  5
340
100
AcDbEntity
  8
03__ASM_ALL_CURVES
100
AcDbLine
 62
4
  6
CONTINUOUS
 10
10.3732679673
 20
9.0570246205
 11
10.3682679673
 21
9.0703579543
  0
LINE
  5
341
100
AcDbEntity
  8
03__ASM_ALL_CURVES
100
AcDbLine
 62
4
  6
CONTINUOUS
 10
10.4732679673
 20
8.3293579519
 11
10.4782679673
 21
8.3093579519
  0
LINE
  5
342
100
AcDbEntity
  8
03__ASM_ALL_CURVES
100
AcDbLine
 62
4
  6
CONTINUOUS
 10
10.3282679673
 20
8.8970246217
 11
10.3282679673
 21
8.8703579543
  0
LINE
  5
343
100
AcDbEntity
  8
03__ASM_ALL_CURVES
100
AcDbLine
 62
4
  6
CONTINUOUS
 10
10.3282679673
 20
8.3293579519
 11
10.3282679673
 21
8.3226912868
  0
LINE
  5
344
100
AcDbEntity
  8
03__ASM_ALL_CURVES
100
AcDbLine
 62
4
  6
CONTINUOUS
 10
10.3282679673
 20
7.2823579519
 11
10.3282679673
 21
7.2690246217
  0
LINE
  5
345
100
AcDbEntity
  8
03__ASM_ALL_CURVES
100
AcDbLine
 62
4
  6
CONTINUOUS
 10
10.3332679673
 20
8.2893579543
 11
10.3332679673
 21
8.2826912868
  0
LINE
  5
346
100
AcDbEntity
  8
03__ASM_ALL_CURVES
100
AcDbLine
 62
4
  6
CONTINUOUS
 10
10.3632679673
 20
8.8636912868
 11
10.3632679673
 21
8.8703579543
  0
LINE
  5
347
100
AcDbEntity
  8
03__ASM_ALL_CURVES
100
AcDbLine
 62
4
  6
CONTINUOUS
 10
10.3682679673
 20
8.9036912868
 11
10.3682679673
 21
8.9103579519
  0
LINE
  5
348
100
AcDbEntity
  8
03__ASM_ALL_CURVES
100
AcDbLine
 62
4
  6
CONTINUOUS
 10
10.3682679673
 20
9.0703579543
 11
10.3682679673
 21
9.0970246217
  0
LINE
  5
349
100
AcDbEntity
  8
03__ASM_ALL_CURVES
100
AcDbLine
 62
4
  6
CONTINUOUS
 10
10.3882679673
 20
8.3426912868
 11
10.3882679673
 21
8.2626912868
  0
LINE
  5
34A
100
AcDbEntity
  8
03__ASM_ALL_CURVES
100
AcDbLine
 62
4
  6
CONTINUOUS
 10
10.4082679673
 20
9.0970246217
 11
10.4082679673
 21
9.0703579543
  0
LINE
  5
34B
100
AcDbEntity
  8
03__ASM_ALL_CURVES
100
AcDbLine
 62
4
  6
CONTINUOUS
 10
10.4082679673
 20
8.9103579519
 11
10.4082679673
 21
8.9036912868
  0
LINE
  5
34C
100
AcDbEntity
  8
03__ASM_ALL_CURVES
100
AcDbLine
 62
4
  6
CONTINUOUS
 10
10.4082679673
 20
7.2823579519
 11
10.4082679673
 21
7.2690246217
  0
LINE
  5
34D
100
AcDbEntity
  8
03__ASM_ALL_CURVES
100
AcDbLine
 62
4
  6
CONTINUOUS
 10
10.4082679673
 20
6.6723579519
 11
10.4082679673
 21
6.6590246217
  0
LINE
  5
34E
100
AcDbEntity
  8
03__ASM_ALL_CURVES
100
AcDbLine
 62
4
  6
CONTINUOUS
 10
10.4132679673
 20
8.8703579543
 11
10.4132679673
 21
8.8636912868
  0
LINE
  5
34F
100
AcDbEntity
  8
03__ASM_ALL_CURVES
100
AcDbLine
 62
4
  6
CONTINUOUS
 10
10.4782679673
 20
8.8903579519
 11
10.4782679673
 21
8.8770246193
  0
LINE
  5
350
100
AcDbEntity
  8
03__ASM_ALL_CURVES
100
AcDbLine
 62
4
  6
CONTINUOUS
 10
10.4782679673
 20
8.3093579519
 11
10.4782679673
 21
8.2960246193
  0
LINE
  5
351
100
AcDbEntity
  8
03__ASM_ALL_CURVES
100
AcDbLine
 62
4
  6
CONTINUOUS
 10
10.4782679673
 20
7.2623579519
 11
10.4782679673
 21
7.2490246193
  0
LINE
  5
352
100
AcDbEntity
  8
03__ASM_ALL_CURVES
100
AcDbLine
 62
4
  6
CONTINUOUS
 10
10.4782679673
 20
6.6523579519
 11
10.4782679673
 21
6.6390246193
  0
LINE
  5
353
100
AcDbEntity
  8
03__ASM_ALL_CURVES
100
AcDbLine
 62
4
  6
CONTINUOUS
 10
9.9832679673
 20
7.2823579519
 11
9.9782679673
 21
7.2623579519
  0
LINE
  5
354
100
AcDbEntity
  8
03__ASM_ALL_CURVES
100
AcDbLine
 62
4
  6
CONTINUOUS
 10
10.2882679673
 20
8.8970246217
 11
10.2932679673
 21
8.9103579519
  0
LINE
  5
355
100
AcDbEntity
  8
03__ASM_ALL_CURVES
100
AcDbLine
 62
4
  6
CONTINUOUS
 10
10.3682679673
 20
9.0970246217
 11
10.3732679673
 21
9.1103579519
  0
LINE
  5
356
100
AcDbEntity
  8
03__ASM_ALL_CURVES
100
AcDbLine
 62
4
  6
CONTINUOUS
 10
10.3282679673
 20
8.8703579543
 11
10.3232679673
 21
8.8570246205
  0
LINE
  5
357
100
AcDbEntity
  8
03__ASM_ALL_CURVES
100
AcDbLine
 62
4
  6
CONTINUOUS
 10
10.4082679673
 20
9.0703579543
 11
10.4032679673
 21
9.0570246205
  0
LINE
  5
358
100
AcDbEntity
  8
03__ASM_ALL_CURVES
100
AcDbLine
 62
4
  6
CONTINUOUS
 10
10.1282679673
 20
8.3160246217
 11
10.1332679673
 21
8.3293579519
  0
LINE
  5
359
100
AcDbEntity
  8
03__ASM_ALL_CURVES
100
AcDbLine
 62
4
  6
CONTINUOUS
 10
10.1682679673
 20
8.3160246217
 11
10.1632679673
 21
8.3026912868
  0
LINE
  5
35A
100
AcDbEntity
  8
03__ASM_ALL_CURVES
100
AcDbLine
 62
4
  6
CONTINUOUS
 10
10.1682679673
 20
8.2893579543
 11
10.1632679673
 21
8.2760246205
  0
LINE
  5
35B
100
AcDbEntity
  8
03__ASM_ALL_CURVES
100
AcDbLine
 62
4
  6
CONTINUOUS
 10
10.0732679673
 20
8.9236912868
 11
10.0632679673
 21
8.9103579519
  0
LINE
  5
35C
100
AcDbEntity
  8
03__ASM_ALL_CURVES
100
AcDbLine
 62
4
  6
CONTINUOUS
 10
9.6032679673
 20
8.2760246205
 11
9.5982679673
 21
8.2693579537
  0
LINE
  5
35D
100
AcDbEntity
  8
03__ASM_ALL_CURVES
100
AcDbLine
 62
4
  6
CONTINUOUS
 10
10.1682679673
 20
8.8570246205
 11
10.1632679673
 21
8.8503579537
  0
LINE
  5
35E
100
AcDbEntity
  8
03__ASM_ALL_CURVES
100
AcDbLine
 62
4
  6
CONTINUOUS
 10
10.3732679673
 20
9.1103579519
 11
10.3782679673
 21
9.1170246217
  0
LINE
  5
35F
100
AcDbEntity
  8
03__ASM_ALL_CURVES
100
AcDbLine
 62
4
  6
CONTINUOUS
 10
9.8082679673
 20
8.3293579519
 11
9.8132679673
 21
8.3360246217
  0
LINE
  5
360
100
AcDbEntity
  8
03__ASM_ALL_CURVES
100
AcDbLine
 62
4
  6
CONTINUOUS
 10
9.8032679673
 20
8.2893579543
 11
9.8132679673
 21
8.3026912868
  0
LINE
  5
361
100
AcDbEntity
  8
03__ASM_ALL_CURVES
100
AcDbLine
 62
4
  6
CONTINUOUS
 10
9.8482679673
 20
8.3226912868
 11
9.8432679673
 21
8.3160246217
  0
LINE
  5
362
100
AcDbEntity
  8
03__ASM_ALL_CURVES
100
AcDbLine
 62
4
  6
CONTINUOUS
 10
10.2932679673
 20
8.9103579519
 11
10.2982679673
 21
8.9170246217
  0
LINE
  5
363
100
AcDbEntity
  8
03__ASM_ALL_CURVES
100
AcDbLine
 62
4
  6
CONTINUOUS
 10
10.4032679673
 20
9.0570246205
 11
10.3982679673
 21
9.0503579537
  0
LINE
  5
364
100
AcDbEntity
  8
03__ASM_ALL_CURVES
100
AcDbLine
 62
4
  6
CONTINUOUS
 10
11.8642679673
 20
10.4786912868
 11
11.8776013022
 21
10.4886912868
  0
LINE
  5
365
100
AcDbEntity
  8
03__ASM_ALL_CURVES
100
AcDbLine
 62
4
  6
CONTINUOUS
 10
11.594267967
 20
10.2561912868
 11
11.6042679673
 21
10.2636912868
  0
LINE
  5
366
100
AcDbEntity
  8
03__ASM_ALL_CURVES
100
AcDbLine
 62
4
  6
CONTINUOUS
 10
11.5309346324
 20
10.1736912868
 11
11.5376013022
 21
10.1786912868
  0
LINE
  5
367
100
AcDbEntity
  8
03__ASM_ALL_CURVES
100
AcDbLine
 62
4
  6
CONTINUOUS
 10
11.8709346324
 20
10.4136912868
 11
11.8776013022
 21
10.4186912868
  0
LINE
  5
368
100
AcDbEntity
  8
03__ASM_ALL_CURVES
100
AcDbLine
 62
4
  6
CONTINUOUS
 10
11.8016013022
 20
10.3386912868
 11
11.8082679673
 21
10.3436912868
  0
LINE
  5
369
100
AcDbEntity
  8
03__ASM_ALL_CURVES
100
AcDbLine
 62
4
  6
CONTINUOUS
 10
10.8749346324
 20
9.6136912868
 11
10.8816013022
 21
9.6186912868
  0
LINE
  5
36A
100
AcDbEntity
  8
03__ASM_ALL_CURVES
100
AcDbLine
 62
4
  6
CONTINUOUS
 10
11.5976013005
 20
10.1536912868
 11
11.5909346336
 21
10.1486912868
  0
LINE
  5
36B
100
AcDbEntity
  8
03__ASM_ALL_CURVES
100
AcDbLine
 62
4
  6
CONTINUOUS
 10
11.9376013005
 20
10.3936912868
 11
11.9309346336
 21
10.3886912868
  0
LINE
  5
36C
100
AcDbEntity
  8
03__ASM_ALL_CURVES
100
AcDbLine
 62
4
  6
CONTINUOUS
 10
11.8709346324
 20
10.3336912868
 11
11.8776013022
 21
10.3386912868
  0
LINE
  5
36D
100
AcDbEntity
  8
03__ASM_ALL_CURVES
100
AcDbLine
 62
4
  6
CONTINUOUS
 10
11.8416013005
 20
10.3086912868
 11
11.8349346336
 21
10.3036912868
  0
LINE
  5
36E
100
AcDbEntity
  8
03__ASM_ALL_CURVES
100
AcDbLine
 62
4
  6
CONTINUOUS
 10
10.9416013005
 20
9.5936912868
 11
10.9349346336
 21
9.5886912868
  0
LINE
  5
36F
100
AcDbEntity
  8
03__ASM_ALL_CURVES
100
AcDbLine
 62
4
  6
CONTINUOUS
 10
11.838267967
 20
10.2561912868
 11
11.8482679673
 21
10.2636912868
  0
LINE
  5
370
100
AcDbEntity
  8
03__ASM_ALL_CURVES
100
AcDbLine
 62
4
  6
CONTINUOUS
 10
11.9376013005
 20
10.3136912868
 11
11.9309346336
 21
10.3086912868
  0
LINE
  5
371
100
AcDbEntity
  8
03__ASM_ALL_CURVES
100
AcDbLine
 62
4
  6
CONTINUOUS
 10
11.7749346324
 20
10.1736912868
 11
11.7816013022
 21
10.1786912868
  0
LINE
  5
372
100
AcDbEntity
  8
03__ASM_ALL_CURVES
100
AcDbLine
 62
4
  6
CONTINUOUS
 10
11.934267967
 20
10.2561912868
 11
11.9442679673
 21
10.2636912868
  0
LINE
  5
373
100
AcDbEntity
  8
03__ASM_ALL_CURVES
100
AcDbLine
 62
4
  6
CONTINUOUS
 10
11.5909346336
 20
9.9986912868
 11
11.6042679673
 21
10.0086912868
  0
LINE
  5
374
100
AcDbEntity
  8
03__ASM_ALL_CURVES
100
AcDbLine
 62
4
  6
CONTINUOUS
 10
9.7382679673
 20
8.9170246217
 11
9.7482679673
 21
8.9236912868
  0
LINE
  5
375
100
AcDbEntity
  8
03__ASM_ALL_CURVES
100
AcDbLine
 62
4
  6
CONTINUOUS
 10
9.7582679673
 20
8.8503579537
 11
9.7482679673
 21
8.8436912868
  0
LINE
  5
376
100
AcDbEntity
  8
03__ASM_ALL_CURVES
100
AcDbLine
 62
4
  6
CONTINUOUS
 10
9.8932679673
 20
8.9170246217
 11
9.9032679673
 21
8.9236912868
  0
LINE
  5
377
100
AcDbEntity
  8
03__ASM_ALL_CURVES
100
AcDbLine
 62
4
  6
CONTINUOUS
 10
9.9232679673
 20
8.8903579519
 11
9.9032679673
 21
8.8770246193
  0
LINE
  5
378
100
AcDbEntity
  8
03__ASM_ALL_CURVES
100
AcDbLine
 62
4
  6
CONTINUOUS
 10
10.3782679673
 20
9.1170246217
 11
10.3882679673
 21
9.1236912868
  0
LINE
  5
379
100
AcDbEntity
  8
03__ASM_ALL_CURVES
100
AcDbLine
 62
4
  6
CONTINUOUS
 10
10.9349346336
 20
9.5886912868
 11
10.9216012999
 21
9.5836912868
  0
LINE
  5
37A
100
AcDbEntity
  8
03__ASM_ALL_CURVES
100
AcDbLine
 62
4
  6
CONTINUOUS
 10
11.5642679673
 20
9.7786912868
 11
11.5776012999
 21
9.7836912868
  0
LINE
  5
37B
100
AcDbEntity
  8
03__ASM_ALL_CURVES
100
AcDbLine
 62
4
  6
CONTINUOUS
 10
11.5909346336
 20
9.7486912868
 11
11.5776012999
 21
9.7436912868
  0
LINE
  5
37C
100
AcDbEntity
  8
03__ASM_ALL_CURVES
100
AcDbLine
 62
4
  6
CONTINUOUS
 10
11.5376013022
 20
9.6186912868
 11
11.5509346324
 21
9.6236912868
  0
LINE
  5
37D
100
AcDbEntity
  8
0
100
AcDbLine
 62
7
  6
CONTINUOUS
 10
11.3452679673
 20
9.0366913049
 11
12.2202679673
 21
9.0366913049
  0
LINE
  5
37E
100
AcDbEntity
  8
0
100
AcDbLine
 62
7
  6
CONTINUOUS
 10
11.3452679673
 20
9.0676913049
 11
12.2202679673
 21
9.0676913049
  0
LINE
  5
37F
100
AcDbEntity
  8
03__ASM_ALL_CURVES
100
AcDbLine
 62
4
  6
CONTINUOUS
 10
10.8282679673
 20
9.0836912868
 11
10.5882679673
 21
9.0836912868
  0
LINE
  5
380
100
AcDbEntity
  8
0
100
AcDbLine
 62
7
  6
CONTINUOUS
 10
10.9082679673
 20
9.0836912868
 11
12.6582679673
 21
9.0836912868
  0
LINE
  5
381
100
AcDbEntity
  8
03__ASM_ALL_CURVES
100
AcDbLine
 62
4
  6
CONTINUOUS
 10
10.3882679673
 20
9.1236912868
 11
10.3982679673
 21
9.1170246217
  0
LINE
  5
382
100
AcDbEntity
  8
03__ASM_ALL_CURVES
100
AcDbLine
 62
4
  6
CONTINUOUS
 10
11.2172679673
 20
8.4991912868
 11
11.2372679697
 21
8.4841912868
  0
LINE
  5
383
100
AcDbEntity
  8
03__ASM_ALL_CURVES
100
AcDbLine
 62
4
  6
CONTINUOUS
 10
10.3982679673
 20
9.1170246217
 11
10.4032679673
 21
9.1103579519
  0
LINE
  5
384
100
AcDbEntity
  8
03__ASM_ALL_CURVES
100
AcDbLine
 62
4
  6
CONTINUOUS
 10
11.1372679676
 20
8.0791912868
 11
11.1272679673
 21
8.0941912868
  0
LINE
  5
385
100
AcDbEntity
  8
03__ASM_ALL_CURVES
100
AcDbLine
 62
4
  6
CONTINUOUS
 10
11.1372679676
 20
8.2066912868
 11
11.1272679673
 21
8.2216912868
  0
LINE
  5
386
100
AcDbEntity
  8
03__ASM_ALL_CURVES
100
AcDbLine
 62
4
  6
CONTINUOUS
 10
11.2372679697
 20
8.1241912868
 11
11.2472679673
 21
8.1091912868
  0
LINE
  5
387
100
AcDbEntity
  8
03__ASM_ALL_CURVES
100
AcDbLine
 62
4
  6
CONTINUOUS
 10
10.4032679673
 20
9.1103579519
 11
10.4082679673
 21
9.0970246217
  0
LINE
  5
388
100
AcDbEntity
  8
03__ASM_ALL_CURVES
100
AcDbLine
 62
4
  6
CONTINUOUS
 10
10.4732679673
 20
8.9103579519
 11
10.4782679673
 21
8.8903579519
  0
LINE
  5
389
100
AcDbEntity
  8
03__ASM_ALL_CURVES
100
AcDbLine
 62
4
  6
CONTINUOUS
 10
10.3082679673
 20
6.6056912868
 11
10.3132679673
 21
6.6390246193
  0
LINE
  5
38A
100
AcDbEntity
  8
03__ASM_ALL_CURVES
100
AcDbLine
 62
4
  6
CONTINUOUS
 10
10.4782679673
 20
8.8770246193
 11
10.4732679673
 21
8.8570246205
  0
LINE
  5
38B
100
AcDbEntity
  8
03__ASM_ALL_CURVES
100
AcDbLine
 62
4
  6
CONTINUOUS
 10
9.9832679673
 20
6.6723579519
 11
9.9782679673
 21
6.6523579519
  0
LINE
  5
38C
100
AcDbEntity
  8
03__ASM_ALL_CURVES
100
AcDbLine
 62
4
  6
CONTINUOUS
 10
10.4782679673
 20
8.2960246193
 11
10.4732679673
 21
8.2760246205
  0
LINE
  5
38D
100
AcDbEntity
  8
03__ASM_ALL_CURVES
100
AcDbLine
 62
4
  6
CONTINUOUS
 10
10.2932679673
 20
7.2356912868
 11
10.2882679673
 21
7.2156912868
  0
LINE
  5
38E
100
AcDbEntity
  8
03__ASM_ALL_CURVES
100
AcDbLine
 62
4
  6
CONTINUOUS
 10
10.8682679673
 20
9.6036912868
 11
10.8749346324
 21
9.6136912868
  0
LINE
  5
38F
100
AcDbEntity
  8
03__ASM_ALL_CURVES
100
AcDbLine
 62
4
  6
CONTINUOUS
 10
10.9482679673
 20
9.6036912868
 11
10.9416013005
 21
9.5936912868
  0
LINE
  5
390
100
AcDbEntity
  8
03__ASM_ALL_CURVES
100
AcDbLine
 62
4
  6
CONTINUOUS
 10
11.5242679673
 20
10.4036912868
 11
11.5309346324
 21
10.4136912868
  0
LINE
  5
391
100
AcDbEntity
  8
03__ASM_ALL_CURVES
100
AcDbLine
 62
4
  6
CONTINUOUS
 10
11.5509346324
 20
10.3286912868
 11
11.5576013022
 21
10.3386912868
  0
LINE
  5
392
100
AcDbEntity
  8
03__ASM_ALL_CURVES
100
AcDbLine
 62
4
  6
CONTINUOUS
 10
11.6042679673
 20
10.4036912868
 11
11.5976013005
 21
10.3936912868
  0
LINE
  5
393
100
AcDbEntity
  8
03__ASM_ALL_CURVES
100
AcDbLine
 62
4
  6
CONTINUOUS
 10
9.8532679673
 20
8.2826912868
 11
9.8432679673
 21
8.2693579537
  0
LINE
  5
394
100
AcDbEntity
  8
03__ASM_ALL_CURVES
100
AcDbLine
 62
4
  6
CONTINUOUS
 10
10.3232679673
 20
8.8570246205
 11
10.3182679673
 21
8.8503579537
  0
LINE
  5
395
100
AcDbEntity
  8
03__ASM_ALL_CURVES
100
AcDbLine
 62
4
  6
CONTINUOUS
 10
10.3682679673
 20
8.9103579519
 11
10.3732679673
 21
8.9170246217
  0
LINE
  5
396
100
AcDbEntity
  8
03__ASM_ALL_CURVES
100
AcDbLine
 62
4
  6
CONTINUOUS
 10
10.3632679673
 20
8.8703579543
 11
10.3732679673
 21
8.8836912868
  0
LINE
  5
397
100
AcDbEntity
  8
03__ASM_ALL_CURVES
100
AcDbLine
 62
4
  6
CONTINUOUS
 10
10.4082679673
 20
8.9036912868
 11
10.4032679673
 21
8.8970246217
  0
LINE
  5
398
100
AcDbEntity
  8
03__ASM_ALL_CURVES
100
AcDbLine
 62
4
  6
CONTINUOUS
 10
9.9932679673
 20
8.3426912868
 11
9.9832679673
 21
8.3293579519
  0
LINE
  5
399
100
AcDbEntity
  8
03__ASM_ALL_CURVES
100
AcDbLine
 62
4
  6
CONTINUOUS
 10
10.4132679673
 20
8.8636912868
 11
10.4032679673
 21
8.8503579537
  0
LINE
  5
39A
100
AcDbEntity
  8
03__ASM_ALL_CURVES
100
AcDbLine
 62
4
  6
CONTINUOUS
 10
10.4732679673
 20
8.8570246205
 11
10.4632679673
 21
8.8436912868
  0
LINE
  5
39B
100
AcDbEntity
  8
03__ASM_ALL_CURVES
100
AcDbLine
 62
4
  6
CONTINUOUS
 10
10.1332679673
 20
8.3293579519
 11
10.1382679673
 21
8.3360246217
  0
LINE
  5
39C
100
AcDbEntity
  8
03__ASM_ALL_CURVES
100
AcDbLine
 62
4
  6
CONTINUOUS
 10
11.8709346324
 20
10.1786912868
 11
11.8776013022
 21
10.1836912868
  0
LINE
  5
39D
100
AcDbEntity
  8
03__ASM_ALL_CURVES
100
AcDbLine
 62
4
  6
CONTINUOUS
 10
11.8416013005
 20
10.1536912868
 11
11.8349346336
 21
10.1486912868
  0
LINE
  5
39E
100
AcDbEntity
  8
03__ASM_ALL_CURVES
100
AcDbLine
 62
4
  6
CONTINUOUS
 10
11.7749346324
 20
10.0986912868
 11
11.7816013022
 21
10.1036912868
  0
LINE
  5
39F
100
AcDbEntity
  8
03__ASM_ALL_CURVES
100
AcDbLine
 62
4
  6
CONTINUOUS
 10
11.8709346324
 20
10.0986912868
 11
11.8776013022
 21
10.1036912868
  0
LINE
  5
3A0
100
AcDbEntity
  8
03__ASM_ALL_CURVES
100
AcDbLine
 62
4
  6
CONTINUOUS
 10
11.5576013022
 20
9.8586912868
 11
11.5642679673
 21
9.8636912868
  0
LINE
  5
3A1
100
AcDbEntity
  8
03__ASM_ALL_CURVES
100
AcDbLine
 62
4
  6
CONTINUOUS
 10
11.5976013005
 20
9.8286912868
 11
11.5909346336
 21
9.8236912868
  0
LINE
  5
3A2
100
AcDbEntity
  8
03__ASM_ALL_CURVES
100
AcDbLine
 62
4
  6
CONTINUOUS
 10
11.5309346324
 20
9.7736912868
 11
11.5376013022
 21
9.7786912868
  0
LINE
  5
3A3
100
AcDbEntity
  8
03__ASM_ALL_CURVES
100
AcDbLine
 62
4
  6
CONTINUOUS
 10
11.8349346336
 20
9.9986912868
 11
11.8482679673
 21
10.0086912868
  0
LINE
  5
3A4
100
AcDbEntity
  8
03__ASM_ALL_CURVES
100
AcDbLine
 62
4
  6
CONTINUOUS
 10
11.5976013005
 20
9.7536912868
 11
11.5909346336
 21
9.7486912868
  0
LINE
  5
3A5
100
AcDbEntity
  8
03__ASM_ALL_CURVES
100
AcDbLine
 62
4
  6
CONTINUOUS
 10
11.9309346336
 20
9.9986912868
 11
11.9442679673
 21
10.0086912868
  0
LINE
  5
3A6
100
AcDbEntity
  8
03__ASM_ALL_CURVES
100
AcDbLine
 62
4
  6
CONTINUOUS
 10
12.6182679673
 20
10.4786912868
 11
12.6316013022
 21
10.4886912868
  0
LINE
  5
3A7
100
AcDbEntity
  8
03__ASM_ALL_CURVES
100
AcDbLine
 62
4
  6
CONTINUOUS
 10
10.1332679673
 20
8.8903579519
 11
10.1432679673
 21
8.8970246217
  0
LINE
  5
3A8
100
AcDbEntity
  8
03__ASM_ALL_CURVES
100
AcDbLine
 62
4
  6
CONTINUOUS
 10
10.3982679673
 20
9.0503579537
 11
10.3882679673
 21
9.0436912868
  0
LINE
  5
3A9
100
AcDbEntity
  8
03__ASM_ALL_CURVES
100
AcDbLine
 62
4
  6
CONTINUOUS
 10
10.1632679673
 20
8.8503579537
 11
10.1532679673
 21
8.8436912868
  0
LINE
  5
3AA
100
AcDbEntity
  8
03__ASM_ALL_CURVES
100
AcDbLine
 62
4
  6
CONTINUOUS
 10
10.2982679673
 20
8.9170246217
 11
10.3082679673
 21
8.9236912868
  0
LINE
  5
3AB
100
AcDbEntity
  8
03__ASM_ALL_CURVES
100
AcDbLine
 62
4
  6
CONTINUOUS
 10
10.3732679673
 20
8.9170246217
 11
10.3832679673
 21
8.9236912868
  0
LINE
  5
3AC
100
AcDbEntity
  8
03__ASM_ALL_CURVES
100
AcDbLine
 62
4
  6
CONTINUOUS
 10
10.3182679673
 20
8.8503579537
 11
10.3082679673
 21
8.8436912868
  0
LINE
  5
3AD
100
AcDbEntity
  8
03__ASM_ALL_CURVES
100
AcDbLine
 62
4
  6
CONTINUOUS
 10
10.3732679673
 20
8.8836912868
 11
10.3832679673
 21
8.8903579519
  0
LINE
  5
3AE
100
AcDbEntity
  8
03__ASM_ALL_CURVES
100
AcDbLine
 62
4
  6
CONTINUOUS
 10
10.4032679673
 20
8.8970246217
 11
10.3932679673
 21
8.8903579519
  0
LINE
  5
3AF
100
AcDbEntity
  8
03__ASM_ALL_CURVES
100
AcDbLine
 62
4
  6
CONTINUOUS
 10
9.5782679673
 20
8.3360246217
 11
9.5882679673
 21
8.3426912868
  0
LINE
  5
3B0
100
AcDbEntity
  8
03__ASM_ALL_CURVES
100
AcDbLine
 62
4
  6
CONTINUOUS
 10
10.4032679673
 20
8.8503579537
 11
10.3932679673
 21
8.8436912868
  0
LINE
  5
3B1
100
AcDbEntity
  8
03__ASM_ALL_CURVES
100
AcDbLine
 62
4
  6
CONTINUOUS
 10
11.5909346336
 20
9.5886912868
 11
11.5776012999
 21
9.5836912868
  0
LINE
  5
3B2
100
AcDbEntity
  8
03__ASM_ALL_CURVES
100
AcDbLine
 62
4
  6
CONTINUOUS
 10
11.7816013022
 20
9.6186912868
 11
11.7949346324
 21
9.6236912868
  0
LINE
  5
3B3
100
AcDbEntity
  8
03__ASM_ALL_CURVES
100
AcDbLine
 62
4
  6
CONTINUOUS
 10
11.8776013022
 20
9.6186912868
 11
11.8909346324
 21
9.6236912868
  0
LINE
  5
3B4
100
AcDbEntity
  8
03__ASM_ALL_CURVES
100
AcDbLine
 62
4
  6
CONTINUOUS
 10
11.8349346336
 20
9.5886912868
 11
11.8216012999
 21
9.5836912868
  0
LINE
  5
3B5
100
AcDbEntity
  8
03__ASM_ALL_CURVES
100
AcDbLine
 62
4
  6
CONTINUOUS
 10
12.6582679673
 20
9.8636912868
 11
12.6716012999
 21
9.8686912868
  0
LINE
  5
3B6
100
AcDbEntity
  8
03__ASM_ALL_CURVES
100
AcDbLine
 62
4
  6
CONTINUOUS
 10
11.9309346336
 20
9.5886912868
 11
11.9176012999
 21
9.5836912868
  0
LINE
  5
3B7
100
AcDbEntity
  8
03__ASM_ALL_CURVES
100
AcDbLine
 62
4
  6
CONTINUOUS
 10
12.6649346348
 20
9.9936912868
 11
12.6849346336
 21
9.9986912868
  0
LINE
  5
3B8
100
AcDbEntity
  8
03__ASM_ALL_CURVES
100
AcDbLine
 62
4
  6
CONTINUOUS
 10
11.1372679676
 20
8.4391912868
 11
11.1272679673
 21
8.4541912868
  0
LINE
  5
3B9
100
AcDbEntity
  8
03__ASM_ALL_CURVES
100
AcDbLine
 62
4
  6
CONTINUOUS
 10
11.2372679697
 20
8.4841912868
 11
11.2472679673
 21
8.4691912868
  0
LINE
  5
3BA
100
AcDbEntity
  8
0
100
AcDbLine
 62
7
  6
CONTINUOUS
 10
11.2951654948
 20
8.2730775005
 11
11.5135704398
 21
7.8947890391
  0
LINE
  5
3BB
100
AcDbEntity
  8
0
100
AcDbLine
 62
7
  6
CONTINUOUS
 10
10.9082679673
 20
6.645691323
 11
10.9082679673
 21
9.0836912868
  0
LINE
  5
3BC
100
AcDbEntity
  8
03__ASM_ALL_CURVES
100
AcDbLine
 62
4
  6
CONTINUOUS
 10
10.9082679673
 20
9.1636912868
 11
10.9082679673
 21
9.4036912868
  0
LINE
  5
3BD
100
AcDbEntity
  8
0
100
AcDbLine
 62
7
  6
CONTINUOUS
 10
10.9702679673
 20
7.0366913049
 11
10.9702679673
 21
8.6926913049
  0
LINE
  5
3BE
100
AcDbEntity
  8
0
100
AcDbLine
 62
7
  6
CONTINUOUS
 10
11.0012679673
 20
7.0366913049
 11
11.0012679673
 21
8.6926913049
  0
LINE
  5
3BF
100
AcDbEntity
  8
03__ASM_ALL_CURVES
100
AcDbLine
 62
4
  6
CONTINUOUS
 10
10.3732679673
 20
7.2356912868
 11
10.3682679673
 21
7.2156912868
  0
LINE
  5
3C0
100
AcDbEntity
  8
03__ASM_ALL_CURVES
100
AcDbLine
 62
4
  6
CONTINUOUS
 10
10.3132679673
 20
6.6390246193
 11
10.3182679673
 21
6.6590246217
  0
LINE
  5
3C1
100
AcDbEntity
  8
03__ASM_ALL_CURVES
100
AcDbLine
 62
4
  6
CONTINUOUS
 10
10.4782679673
 20
7.2490246193
 11
10.4732679673
 21
7.2290246205
  0
LINE
  5
3C2
100
AcDbEntity
  8
03__ASM_ALL_CURVES
100
AcDbLine
 62
4
  6
CONTINUOUS
 10
10.3732679673
 20
6.6256912868
 11
10.3682679673
 21
6.6056912868
  0
LINE
  5
3C3
100
AcDbEntity
  8
03__ASM_ALL_CURVES
100
AcDbLine
 62
4
  6
CONTINUOUS
 10
10.1282679673
 20
7.2690246217
 11
10.1332679673
 21
7.2823579519
  0
LINE
  5
3C4
100
AcDbEntity
  8
03__ASM_ALL_CURVES
100
AcDbLine
 62
4
  6
CONTINUOUS
 10
10.1282679673
 20
7.2423579543
 11
10.1332679673
 21
7.2556912868
  0
LINE
  5
3C5
100
AcDbEntity
  8
03__ASM_ALL_CURVES
100
AcDbLine
 62
4
  6
CONTINUOUS
 10
10.1682679673
 20
7.2423579543
 11
10.1632679673
 21
7.2290246205
  0
LINE
  5
3C6
100
AcDbEntity
  8
03__ASM_ALL_CURVES
100
AcDbLine
 62
4
  6
CONTINUOUS
 10
10.0482679673
 20
6.6590246217
 11
10.0532679673
 21
6.6723579519
  0
LINE
  5
3C7
100
AcDbEntity
  8
03__ASM_ALL_CURVES
100
AcDbLine
 62
4
  6
CONTINUOUS
 10
10.0482679673
 20
6.6323579543
 11
10.0532679673
 21
6.6456912868
  0
LINE
  5
3C8
100
AcDbEntity
  8
03__ASM_ALL_CURVES
100
AcDbLine
 62
4
  6
CONTINUOUS
 10
11.6042679673
 20
10.3186912868
 11
11.5976013005
 21
10.3086912868
  0
LINE
  5
3C9
100
AcDbEntity
  8
03__ASM_ALL_CURVES
100
AcDbLine
 62
4
  6
CONTINUOUS
 10
11.5242679673
 20
10.1636912868
 11
11.5309346324
 21
10.1736912868
  0
LINE
  5
3CA
100
AcDbEntity
  8
03__ASM_ALL_CURVES
100
AcDbLine
 62
4
  6
CONTINUOUS
 10
11.6042679673
 20
10.1636912868
 11
11.5976013005
 21
10.1536912868
  0
LINE
  5
3CB
100
AcDbEntity
  8
03__ASM_ALL_CURVES
100
AcDbLine
 62
4
  6
CONTINUOUS
 10
11.7949346324
 20
10.3286912868
 11
11.8016013022
 21
10.3386912868
  0
LINE
  5
3CC
100
AcDbEntity
  8
03__ASM_ALL_CURVES
100
AcDbLine
 62
4
  6
CONTINUOUS
 10
11.8642679673
 20
10.4036912868
 11
11.8709346324
 21
10.4136912868
  0
LINE
  5
3CD
100
AcDbEntity
  8
03__ASM_ALL_CURVES
100
AcDbLine
 62
4
  6
CONTINUOUS
 10
10.1632679673
 20
8.2760246205
 11
10.1582679673
 21
8.2693579537
  0
LINE
  5
3CE
100
AcDbEntity
  8
03__ASM_ALL_CURVES
100
AcDbLine
 62
4
  6
CONTINUOUS
 10
10.2882679673
 20
8.3293579519
 11
10.2932679673
 21
8.3360246217
  0
LINE
  5
3CF
100
AcDbEntity
  8
03__ASM_ALL_CURVES
100
AcDbLine
 62
4
  6
CONTINUOUS
 10
10.2832679673
 20
8.2893579543
 11
10.2932679673
 21
8.3026912868
  0
LINE
  5
3D0
100
AcDbEntity
  8
03__ASM_ALL_CURVES
100
AcDbLine
 62
4
  6
CONTINUOUS
 10
10.3282679673
 20
8.3226912868
 11
10.3232679673
 21
8.3160246217
  0
LINE
  5
3D1
100
AcDbEntity
  8
03__ASM_ALL_CURVES
100
AcDbLine
 62
4
  6
CONTINUOUS
 10
10.3332679673
 20
8.2826912868
 11
10.3232679673
 21
8.2693579537
  0
LINE
  5
3D2
100
AcDbEntity
  8
03__ASM_ALL_CURVES
100
AcDbLine
 62
4
  6
CONTINUOUS
 10
11.594267967
 20
9.6961912868
 11
11.6042679673
 21
9.7036912868
  0
LINE
  5
3D3
100
AcDbEntity
  8
03__ASM_ALL_CURVES
100
AcDbLine
 62
4
  6
CONTINUOUS
 10
11.5309346324
 20
9.6136912868
 11
11.5376013022
 21
9.6186912868
  0
LINE
  5
3D4
100
AcDbEntity
  8
03__ASM_ALL_CURVES
100
AcDbLine
 62
4
  6
CONTINUOUS
 10
11.7749346324
 20
9.7786912868
 11
11.7816013022
 21
9.7836912868
  0
LINE
  5
3D5
100
AcDbEntity
  8
03__ASM_ALL_CURVES
100
AcDbLine
 62
4
  6
CONTINUOUS
 10
11.8082679673
 20
9.7786912868
 11
11.8216012999
 21
9.7886912868
  0
LINE
  5
3D6
100
AcDbEntity
  8
03__ASM_ALL_CURVES
100
AcDbLine
 62
4
  6
CONTINUOUS
 10
11.7949346324
 20
9.7486912868
 11
11.7882679673
 21
9.7436912868
  0
LINE
  5
3D7
100
AcDbEntity
  8
03__ASM_ALL_CURVES
100
AcDbLine
 62
4
  6
CONTINUOUS
 10
11.5976013005
 20
9.5936912868
 11
11.5909346336
 21
9.5886912868
  0
LINE
  5
3D8
100
AcDbEntity
  8
03__ASM_ALL_CURVES
100
AcDbLine
 62
4
  6
CONTINUOUS
 10
11.8709346324
 20
9.7786912868
 11
11.8776013022
 21
9.7836912868
  0
LINE
  5
3D9
100
AcDbEntity
  8
03__ASM_ALL_CURVES
100
AcDbLine
 62
4
  6
CONTINUOUS
 10
11.8416013005
 20
9.7486912868
 11
11.8282679673
 21
9.7386912868
  0
LINE
  5
3DA
100
AcDbEntity
  8
03__ASM_ALL_CURVES
100
AcDbLine
 62
4
  6
CONTINUOUS
 10
11.9042679673
 20
9.7786912868
 11
11.9176012999
 21
9.7886912868
  0
LINE
  5
3DB
100
AcDbEntity
  8
03__ASM_ALL_CURVES
100
AcDbLine
 62
4
  6
CONTINUOUS
 10
11.8909346324
 20
9.7486912868
 11
11.8842679673
 21
9.7436912868
  0
LINE
  5
3DC
100
AcDbEntity
  8
03__ASM_ALL_CURVES
100
AcDbLine
 62
4
  6
CONTINUOUS
 10
11.838267967
 20
9.6961912868
 11
11.8482679673
 21
9.7036912868
  0
LINE
  5
3DD
100
AcDbEntity
  8
03__ASM_ALL_CURVES
100
AcDbLine
 62
4
  6
CONTINUOUS
 10
11.9376013005
 20
9.7486912868
 11
11.9242679673
 21
9.7386912868
  0
LINE
  5
3DE
100
AcDbEntity
  8
03__ASM_ALL_CURVES
100
AcDbLine
 62
4
  6
CONTINUOUS
 10
11.7749346324
 20
9.6136912868
 11
11.7816013022
 21
9.6186912868
  0
LINE
  5
3DF
100
AcDbEntity
  8
03__ASM_ALL_CURVES
100
AcDbLine
 62
4
  6
CONTINUOUS
 10
11.934267967
 20
9.6961912868
 11
11.9442679673
 21
9.7036912868
  0
LINE
  5
3E0
100
AcDbEntity
  8
03__ASM_ALL_CURVES
100
AcDbLine
 62
4
  6
CONTINUOUS
 10
12.688267967
 20
10.2561912868
 11
12.6982679673
 21
10.2636912868
  0
LINE
  5
3E1
100
AcDbEntity
  8
03__ASM_ALL_CURVES
100
AcDbLine
 62
4
  6
CONTINUOUS
 10
9.5982679673
 20
8.2693579537
 11
9.5882679673
 21
8.2626912868
  0
LINE
  5
3E2
100
AcDbEntity
  8
03__ASM_ALL_CURVES
100
AcDbLine
 62
4
  6
CONTINUOUS
 10
9.8132679673
 20
8.3360246217
 11
9.8232679673
 21
8.3426912868
  0
LINE
  5
3E3
100
AcDbEntity
  8
03__ASM_ALL_CURVES
100
AcDbLine
 62
4
  6
CONTINUOUS
 10
9.8132679673
 20
8.3026912868
 11
9.8232679673
 21
8.3093579519
  0
LINE
  5
3E4
100
AcDbEntity
  8
03__ASM_ALL_CURVES
100
AcDbLine
 62
4
  6
CONTINUOUS
 10
9.8432679673
 20
8.3160246217
 11
9.8332679673
 21
8.3093579519
  0
LINE
  5
3E5
100
AcDbEntity
  8
03__ASM_ALL_CURVES
100
AcDbLine
 62
4
  6
CONTINUOUS
 10
9.8432679673
 20
8.2693579537
 11
9.8332679673
 21
8.2626912868
  0
LINE
  5
3E6
100
AcDbEntity
  8
03__ASM_ALL_CURVES
100
AcDbLine
 62
4
  6
CONTINUOUS
 10
11.9109346348
 20
9.9936912868
 11
11.9309346336
 21
9.9986912868
  0
LINE
  5
3E7
100
AcDbEntity
  8
03__ASM_ALL_CURVES
100
AcDbLine
 62
4
  6
CONTINUOUS
 10
11.8149346348
 20
9.9936912868
 11
11.8349346336
 21
9.9986912868
  0
LINE
  5
3E8
100
AcDbEntity
  8
03__ASM_ALL_CURVES
100
AcDbLine
 62
4
  6
CONTINUOUS
 10
11.5709346348
 20
9.9936912868
 11
11.5909346336
 21
9.9986912868
  0
LINE
  5
3E9
100
AcDbEntity
  8
03__ASM_ALL_CURVES
100
AcDbLine
 62
4
  6
CONTINUOUS
 10
11.9176012999
 20
9.5836912868
 11
11.8909346324
 21
9.5836912868
  0
LINE
  5
3EA
100
AcDbEntity
  8
03__ASM_ALL_CURVES
100
AcDbLine
 62
4
  6
CONTINUOUS
 10
11.8216012999
 20
9.5836912868
 11
11.7949346324
 21
9.5836912868
  0
LINE
  5
3EB
100
AcDbEntity
  8
03__ASM_ALL_CURVES
100
AcDbLine
 62
4
  6
CONTINUOUS
 10
11.5776012999
 20
9.5836912868
 11
11.5509346324
 21
9.5836912868
  0
LINE
  5
3EC
100
AcDbEntity
  8
03__ASM_ALL_CURVES
100
AcDbLine
 62
4
  6
CONTINUOUS
 10
10.9216012999
 20
9.5836912868
 11
10.8949346324
 21
9.5836912868
  0
LINE
  5
3ED
100
AcDbEntity
  8
03__ASM_ALL_CURVES
100
AcDbLine
 62
4
  6
CONTINUOUS
 10
12.6182679673
 20
9.6036912868
 11
12.6982679673
 21
9.6036912868
  0
LINE
  5
3EE
100
AcDbEntity
  8
03__ASM_ALL_CURVES
100
AcDbLine
 62
4
  6
CONTINUOUS
 10
10.8949346324
 20
9.6236912868
 11
10.9216012999
 21
9.6236912868
  0
LINE
  5
3EF
100
AcDbEntity
  8
03__ASM_ALL_CURVES
100
AcDbLine
 62
4
  6
CONTINUOUS
 10
11.5509346324
 20
9.6236912868
 11
11.5776012999
 21
9.6236912868
  0
LINE
  5
3F0
100
AcDbEntity
  8
03__ASM_ALL_CURVES
100
AcDbLine
 62
4
  6
CONTINUOUS
 10
11.7949346324
 20
9.6236912868
 11
11.8216012999
 21
9.6236912868
  0
LINE
  5
3F1
100
AcDbEntity
  8
03__ASM_ALL_CURVES
100
AcDbLine
 62
4
  6
CONTINUOUS
 10
11.8909346324
 20
9.6236912868
 11
11.9176012999
 21
9.6236912868
  0
LINE
  5
3F2
100
AcDbEntity
  8
03__ASM_ALL_CURVES
100
AcDbLine
 62
4
  6
CONTINUOUS
 10
12.6982679673
 20
9.6961912868
 11
12.688267967
 21
9.6961912868
  0
LINE
  5
3F3
100
AcDbEntity
  8
03__ASM_ALL_CURVES
100
AcDbLine
 62
4
  6
CONTINUOUS
 10
11.9442679673
 20
9.6961912868
 11
11.934267967
 21
9.6961912868
  0
LINE
  5
3F4
100
AcDbEntity
  8
03__ASM_ALL_CURVES
100
AcDbLine
 62
4
  6
CONTINUOUS
 10
11.8482679673
 20
9.6961912868
 11
11.838267967
 21
9.6961912868
  0
LINE
  5
3F5
100
AcDbEntity
  8
03__ASM_ALL_CURVES
100
AcDbLine
 62
4
  6
CONTINUOUS
 10
11.6042679673
 20
9.6961912868
 11
11.594267967
 21
9.6961912868
  0
LINE
  5
3F6
100
AcDbEntity
  8
03__ASM_ALL_CURVES
100
AcDbLine
 62
4
  6
CONTINUOUS
 10
10.8949346324
 20
9.5836912868
 11
10.8816013022
 21
9.5886912868
  0
LINE
  5
3F7
100
AcDbEntity
  8
03__ASM_ALL_CURVES
100
AcDbLine
 62
4
  6
CONTINUOUS
 10
11.1272679673
 20
8.0941912868
 11
11.1272679673
 21
8.1091912868
  0
LINE
  5
3F8
100
AcDbEntity
  8
03__ASM_ALL_CURVES
100
AcDbLine
 62
4
  6
CONTINUOUS
 10
11.1272679673
 20
8.2216912868
 11
11.1272679673
 21
8.2516912868
  0
LINE
  5
3F9
100
AcDbEntity
  8
03__ASM_ALL_CURVES
100
AcDbLine
 62
4
  6
CONTINUOUS
 10
11.1272679673
 20
8.4541912868
 11
11.1272679673
 21
8.4691912868
  0
LINE
  5
3FA
100
AcDbEntity
  8
03__ASM_ALL_CURVES
100
AcDbLine
 62
4
  6
CONTINUOUS
 10
10.4782679673
 20
6.6390246193
 11
10.4732679673
 21
6.6190246205
  0
LINE
  5
3FB
100
AcDbEntity
  8
03__ASM_ALL_CURVES
100
AcDbLine
 62
4
  6
CONTINUOUS
 10
10.0882679673
 20
6.6323579543
 11
10.0832679673
 21
6.6190246205
  0
LINE
  5
3FC
100
AcDbEntity
  8
03__ASM_ALL_CURVES
100
AcDbLine
 62
4
  6
CONTINUOUS
 10
10.3182679673
 20
6.6590246217
 11
10.3282679673
 21
6.6856912868
  0
LINE
  5
3FD
100
AcDbEntity
  8
03__ASM_ALL_CURVES
100
AcDbLine
 62
4
  6
CONTINUOUS
 10
11.5576013022
 20
10.1636912868
 11
11.5642679673
 21
10.1786912868
  0
LINE
  5
3FE
100
AcDbEntity
  8
03__ASM_ALL_CURVES
100
AcDbLine
 62
4
  6
CONTINUOUS
 10
10.0832679673
 20
7.2956912868
 11
10.0482679673
 21
7.2356912868
  0
LINE
  5
3FF
100
AcDbEntity
  8
03__ASM_ALL_CURVES
100
AcDbLine
 62
4
  6
CONTINUOUS
 10
9.7632679673
 20
6.6856912868
 11
9.7282679673
 21
6.6256912868
  0
LINE
  5
400
100
AcDbEntity
  8
03__ASM_ALL_CURVES
100
AcDbLine
 62
4
  6
CONTINUOUS
 10
11.8482679673
 20
10.3186912868
 11
11.8416013005
 21
10.3086912868
  0
LINE
  5
401
100
AcDbEntity
  8
03__ASM_ALL_CURVES
100
AcDbLine
 62
4
  6
CONTINUOUS
 10
11.8642679673
 20
10.3236912868
 11
11.8709346324
 21
10.3336912868
  0
LINE
  5
402
100
AcDbEntity
  8
03__ASM_ALL_CURVES
100
AcDbLine
 62
4
  6
CONTINUOUS
 10
11.5509346324
 20
9.8486912868
 11
11.5576013022
 21
9.8586912868
  0
LINE
  5
403
100
AcDbEntity
  8
03__ASM_ALL_CURVES
100
AcDbLine
 62
4
  6
CONTINUOUS
 10
11.7682679673
 20
10.1636912868
 11
11.7749346324
 21
10.1736912868
  0
LINE
  5
404
100
AcDbEntity
  8
03__ASM_ALL_CURVES
100
AcDbLine
 62
4
  6
CONTINUOUS
 10
11.9442679673
 20
10.4036912868
 11
11.9376013005
 21
10.3936912868
  0
LINE
  5
405
100
AcDbEntity
  8
03__ASM_ALL_CURVES
100
AcDbLine
 62
4
  6
CONTINUOUS
 10
11.5242679673
 20
9.7636912868
 11
11.5309346324
 21
9.7736912868
  0
LINE
  5
406
100
AcDbEntity
  8
03__ASM_ALL_CURVES
100
AcDbLine
 62
4
  6
CONTINUOUS
 10
11.7682679673
 20
10.0886912868
 11
11.7749346324
 21
10.0986912868
  0
LINE
  5
407
100
AcDbEntity
  8
03__ASM_ALL_CURVES
100
AcDbLine
 62
4
  6
CONTINUOUS
 10
11.6042679673
 20
9.8386912868
 11
11.5976013005
 21
9.8286912868
  0
LINE
  5
408
100
AcDbEntity
  8
03__ASM_ALL_CURVES
100
AcDbLine
 62
4
  6
CONTINUOUS
 10
11.9442679673
 20
10.3236912868
 11
11.9376013005
 21
10.3136912868
  0
LINE
  5
409
100
AcDbEntity
  8
03__ASM_ALL_CURVES
100
AcDbLine
 62
4
  6
CONTINUOUS
 10
11.8482679673
 20
10.1636912868
 11
11.8416013005
 21
10.1536912868
  0
LINE
  5
40A
100
AcDbEntity
  8
03__ASM_ALL_CURVES
100
AcDbLine
 62
4
  6
CONTINUOUS
 10
11.8642679673
 20
10.1686912868
 11
11.8709346324
 21
10.1786912868
  0
LINE
  5
40B
100
AcDbEntity
  8
03__ASM_ALL_CURVES
100
AcDbLine
 62
4
  6
CONTINUOUS
 10
11.6042679673
 20
9.7636912868
 11
11.5976013005
 21
9.7536912868
  0
LINE
  5
40C
100
AcDbEntity
  8
03__ASM_ALL_CURVES
100
AcDbLine
 62
4
  6
CONTINUOUS
 10
11.5242679673
 20
9.6036912868
 11
11.5309346324
 21
9.6136912868
  0
LINE
  5
40D
100
AcDbEntity
  8
03__ASM_ALL_CURVES
100
AcDbLine
 62
4
  6
CONTINUOUS
 10
11.8642679673
 20
10.0886912868
 11
11.8709346324
 21
10.0986912868
  0
LINE
  5
40E
100
AcDbEntity
  8
03__ASM_ALL_CURVES
100
AcDbLine
 62
4
  6
CONTINUOUS
 10
11.6042679673
 20
9.6036912868
 11
11.5976013005
 21
9.5936912868
  0
LINE
  5
40F
100
AcDbEntity
  8
03__ASM_ALL_CURVES
100
AcDbLine
 62
4
  6
CONTINUOUS
 10
10.4732679673
 20
8.2760246205
 11
10.4632679673
 21
8.2626912868
  0
LINE
  5
410
100
AcDbEntity
  8
03__ASM_ALL_CURVES
100
AcDbLine
 62
4
  6
CONTINUOUS
 10
9.7282679673
 20
7.2823579519
 11
9.7332679673
 21
7.2890246217
  0
LINE
  5
411
100
AcDbEntity
  8
03__ASM_ALL_CURVES
100
AcDbLine
 62
4
  6
CONTINUOUS
 10
9.7232679673
 20
7.2423579543
 11
9.7332679673
 21
7.2556912868
  0
LINE
  5
412
100
AcDbEntity
  8
03__ASM_ALL_CURVES
100
AcDbLine
 62
4
  6
CONTINUOUS
 10
9.7682679673
 20
7.2756912868
 11
9.7632679673
 21
7.2690246217
  0
LINE
  5
413
100
AcDbEntity
  8
03__ASM_ALL_CURVES
100
AcDbLine
 62
4
  6
CONTINUOUS
 10
9.8082679673
 20
7.2823579519
 11
9.8132679673
 21
7.2890246217
  0
LINE
  5
414
100
AcDbEntity
  8
03__ASM_ALL_CURVES
100
AcDbLine
 62
4
  6
CONTINUOUS
 10
9.7732679673
 20
7.2356912868
 11
9.7632679673
 21
7.2223579537
  0
LINE
  5
415
100
AcDbEntity
  8
03__ASM_ALL_CURVES
100
AcDbLine
 62
4
  6
CONTINUOUS
 10
9.8232679673
 20
7.2490246193
 11
9.8132679673
 21
7.2356912868
  0
LINE
  5
416
100
AcDbEntity
  8
03__ASM_ALL_CURVES
100
AcDbLine
 62
4
  6
CONTINUOUS
 10
9.8482679673
 20
7.2690246217
 11
9.8432679673
 21
7.2623579519
  0
LINE
  5
417
100
AcDbEntity
  8
03__ASM_ALL_CURVES
100
AcDbLine
 62
4
  6
CONTINUOUS
 10
11.8416013005
 20
9.5936912868
 11
11.8349346336
 21
9.5886912868
  0
LINE
  5
418
100
AcDbEntity
  8
03__ASM_ALL_CURVES
100
AcDbLine
 62
4
  6
CONTINUOUS
 10
11.8709346324
 20
9.6136912868
 11
11.8776013022
 21
9.6186912868
  0
LINE
  5
419
100
AcDbEntity
  8
03__ASM_ALL_CURVES
100
AcDbLine
 62
4
  6
CONTINUOUS
 10
11.9376013005
 20
9.5936912868
 11
11.9309346336
 21
9.5886912868
  0
LINE
  5
41A
100
AcDbEntity
  8
03__ASM_ALL_CURVES
100
AcDbLine
 62
4
  6
CONTINUOUS
 10
12.6849346336
 20
9.9986912868
 11
12.6982679673
 21
10.0086912868
  0
LINE
  5
41B
100
AcDbEntity
  8
03__ASM_ALL_CURVES
100
AcDbLine
 62
4
  6
CONTINUOUS
 10
10.1382679673
 20
8.3360246217
 11
10.1482679673
 21
8.3426912868
  0
LINE
  5
41C
100
AcDbEntity
  8
03__ASM_ALL_CURVES
100
AcDbLine
 62
4
  6
CONTINUOUS
 10
10.1582679673
 20
8.2693579537
 11
10.1482679673
 21
8.2626912868
  0
LINE
  5
41D
100
AcDbEntity
  8
03__ASM_ALL_CURVES
100
AcDbLine
 62
4
  6
CONTINUOUS
 10
10.2932679673
 20
8.3360246217
 11
10.3032679673
 21
8.3426912868
  0
LINE
  5
41E
100
AcDbEntity
  8
03__ASM_ALL_CURVES
100
AcDbLine
 62
4
  6
CONTINUOUS
 10
10.2932679673
 20
8.3026912868
 11
10.3032679673
 21
8.3093579519
  0
LINE
  5
41F
100
AcDbEntity
  8
03__ASM_ALL_CURVES
100
AcDbLine
 62
4
  6
CONTINUOUS
 10
10.3232679673
 20
8.3160246217
 11
10.3132679673
 21
8.3093579519
  0
LINE
  5
420
100
AcDbEntity
  8
03__ASM_ALL_CURVES
100
AcDbLine
 62
4
  6
CONTINUOUS
 10
10.3232679673
 20
8.2693579537
 11
10.3132679673
 21
8.2626912868
  0
LINE
  5
421
100
AcDbEntity
  8
03__ASM_ALL_CURVES
100
AcDbLine
 62
4
  6
CONTINUOUS
 10
11.7832679673
 20
9.2436912868
 11
11.9042679673
 21
9.3236912868
  0
LINE
  5
422
100
AcDbEntity
  8
03__ASM_ALL_CURVES
100
AcDbLine
 62
4
  6
CONTINUOUS
 10
10.1632679673
 20
8.3026912868
 11
10.1482679673
 21
8.2960246193
  0
LINE
  5
423
100
AcDbEntity
  8
03__ASM_ALL_CURVES
100
AcDbLine
 62
4
  6
CONTINUOUS
 10
12.6316013022
 20
10.4886912868
 11
12.6516013022
 21
10.4936912868
  0
LINE
  5
424
100
AcDbEntity
  8
03__ASM_ALL_CURVES
100
AcDbLine
 62
4
  6
CONTINUOUS
 10
11.9242679673
 20
9.7386912868
 11
11.9176012999
 21
9.7386912868
  0
LINE
  5
425
100
AcDbEntity
  8
03__ASM_ALL_CURVES
100
AcDbLine
 62
4
  6
CONTINUOUS
 10
11.8282679673
 20
9.7386912868
 11
11.8216012999
 21
9.7386912868
  0
LINE
  5
426
100
AcDbEntity
  8
03__ASM_ALL_CURVES
100
AcDbLine
 62
4
  6
CONTINUOUS
 10
11.8842679673
 20
9.7436912868
 11
11.8776013022
 21
9.7436912868
  0
LINE
  5
427
100
AcDbEntity
  8
03__ASM_ALL_CURVES
100
AcDbLine
 62
4
  6
CONTINUOUS
 10
11.7882679673
 20
9.7436912868
 11
11.7816013022
 21
9.7436912868
  0
LINE
  5
428
100
AcDbEntity
  8
03__ASM_ALL_CURVES
100
AcDbLine
 62
4
  6
CONTINUOUS
 10
11.5776012999
 20
9.7436912868
 11
11.5509346324
 21
9.7436912868
  0
LINE
  5
429
100
AcDbEntity
  8
03__ASM_ALL_CURVES
100
AcDbLine
 62
4
  6
CONTINUOUS
 10
11.7816013022
 20
9.7836912868
 11
11.7882679673
 21
9.7836912868
  0
LINE
  5
42A
100
AcDbEntity
  8
03__ASM_ALL_CURVES
100
AcDbLine
 62
4
  6
CONTINUOUS
 10
11.8776013022
 20
9.7836912868
 11
11.8842679673
 21
9.7836912868
  0
LINE
  5
42B
100
AcDbEntity
  8
03__ASM_ALL_CURVES
100
AcDbLine
 62
4
  6
CONTINUOUS
 10
11.8216012999
 20
9.7886912868
 11
11.8282679673
 21
9.7886912868
  0
LINE
  5
42C
100
AcDbEntity
  8
03__ASM_ALL_CURVES
100
AcDbLine
 62
4
  6
CONTINUOUS
 10
11.9176012999
 20
9.7886912868
 11
11.9242679673
 21
9.7886912868
  0
LINE
  5
42D
100
AcDbEntity
  8
03__ASM_ALL_CURVES
100
AcDbLine
 62
4
  6
CONTINUOUS
 10
11.7682679673
 20
9.8436912868
 11
11.8482679673
 21
9.8436912868
  0
LINE
  5
42E
100
AcDbEntity
  8
03__ASM_ALL_CURVES
100
AcDbLine
 62
4
  6
CONTINUOUS
 10
10.9216012999
 20
9.6236912868
 11
10.9349346336
 21
9.6186912868
  0
LINE
  5
42F
100
AcDbEntity
  8
03__ASM_ALL_CURVES
100
AcDbLine
 62
4
  6
CONTINUOUS
 10
11.5509346324
 20
9.5836912868
 11
11.5376013022
 21
9.5886912868
  0
LINE
  5
430
100
AcDbEntity
  8
03__ASM_ALL_CURVES
100
AcDbLine
 62
4
  6
CONTINUOUS
 10
10.8816013022
 20
9.5886912868
 11
10.8749346324
 21
9.5936912868
  0
LINE
  5
431
100
AcDbEntity
  8
03__ASM_ALL_CURVES
100
AcDbLine
 62
4
  6
CONTINUOUS
 10
10.9349346336
 20
9.6186912868
 11
10.9416013005
 21
9.6136912868
  0
LINE
  5
432
100
AcDbEntity
  8
03__ASM_ALL_CURVES
100
AcDbLine
 62
4
  6
CONTINUOUS
 10
10.8749346324
 20
9.5936912868
 11
10.8682679673
 21
9.6036912868
  0
LINE
  5
433
100
AcDbEntity
  8
03__ASM_ALL_CURVES
100
AcDbLine
 62
4
  6
CONTINUOUS
 10
10.9416013005
 20
9.6136912868
 11
10.9482679673
 21
9.6036912868
  0
LINE
  5
434
100
AcDbEntity
  8
03__ASM_ALL_CURVES
100
AcDbLine
 62
4
  6
CONTINUOUS
 10
11.2472679673
 20
8.4691912868
 11
11.2472679673
 21
8.4541912868
  0
LINE
  5
435
100
AcDbEntity
  8
03__ASM_ALL_CURVES
100
AcDbLine
 62
4
  6
CONTINUOUS
 10
11.2472679673
 20
8.2516912868
 11
11.2472679673
 21
8.2216912868
  0
LINE
  5
436
100
AcDbEntity
  8
03__ASM_ALL_CURVES
100
AcDbLine
 62
4
  6
CONTINUOUS
 10
11.2472679673
 20
8.1091912868
 11
11.2472679673
 21
8.0941912868
  0
LINE
  5
437
100
AcDbEntity
  8
0
100
AcDbLine
 62
7
  6
CONTINUOUS
 10
11.3452679673
 20
6.6926913049
 11
11.3452679673
 21
6.6616913049
  0
LINE
  5
438
100
AcDbEntity
  8
0
100
AcDbLine
 62
7
  6
CONTINUOUS
 10
11.3452679673
 20
9.0366913049
 11
11.3452679673
 21
9.0676913049
  0
LINE
  5
439
100
AcDbEntity
  8
03__ASM_ALL_CURVES
100
AcDbLine
 62
4
  6
CONTINUOUS
 10
11.5576013022
 20
9.7636912868
 11
11.5642679673
 21
9.7786912868
  0
LINE
  5
43A
100
AcDbEntity
  8
03__ASM_ALL_CURVES
100
AcDbLine
 62
4
  6
CONTINUOUS
 10
11.9109346348
 20
10.4036912868
 11
11.9042679673
 21
10.3886912868
  0
LINE
  5
43B
100
AcDbEntity
  8
03__ASM_ALL_CURVES
100
AcDbLine
 62
4
  6
CONTINUOUS
 10
11.7682679673
 20
9.7686912868
 11
11.7749346324
 21
9.7786912868
  0
LINE
  5
43C
100
AcDbEntity
  8
03__ASM_ALL_CURVES
100
AcDbLine
 62
4
  6
CONTINUOUS
 10
11.8016013022
 20
9.7686912868
 11
11.8082679673
 21
9.7786912868
  0
LINE
  5
43D
100
AcDbEntity
  8
03__ASM_ALL_CURVES
100
AcDbLine
 62
4
  6
CONTINUOUS
 10
11.8016013022
 20
9.7586912868
 11
11.7949346324
 21
9.7486912868
  0
LINE
  5
43E
100
AcDbEntity
  8
03__ASM_ALL_CURVES
100
AcDbLine
 62
4
  6
CONTINUOUS
 10
11.8482679673
 20
9.7586912868
 11
11.8416013005
 21
9.7486912868
  0
LINE
  5
43F
100
AcDbEntity
  8
03__ASM_ALL_CURVES
100
AcDbLine
 62
4
  6
CONTINUOUS
 10
11.8642679673
 20
9.7686912868
 11
11.8709346324
 21
9.7786912868
  0
LINE
  5
440
100
AcDbEntity
  8
03__ASM_ALL_CURVES
100
AcDbLine
 62
4
  6
CONTINUOUS
 10
11.7682679673
 20
9.6036912868
 11
11.7749346324
 21
9.6136912868
  0
LINE
  5
441
100
AcDbEntity
  8
03__ASM_ALL_CURVES
100
AcDbLine
 62
4
  6
CONTINUOUS
 10
11.8976013022
 20
9.7686912868
 11
11.9042679673
 21
9.7786912868
  0
LINE
  5
442
100
AcDbEntity
  8
03__ASM_ALL_CURVES
100
AcDbLine
 62
4
  6
CONTINUOUS
 10
11.8976013022
 20
9.7586912868
 11
11.8909346324
 21
9.7486912868
  0
LINE
  5
443
100
AcDbEntity
  8
03__ASM_ALL_CURVES
100
AcDbLine
 62
4
  6
CONTINUOUS
 10
11.9442679673
 20
9.7586912868
 11
11.9376013005
 21
9.7486912868
  0
LINE
  5
444
100
AcDbEntity
  8
03__ASM_ALL_CURVES
100
AcDbLine
 62
4
  6
CONTINUOUS
 10
11.8482679673
 20
9.6036912868
 11
11.8416013005
 21
9.5936912868
  0
LINE
  5
445
100
AcDbEntity
  8
03__ASM_ALL_CURVES
100
AcDbLine
 62
4
  6
CONTINUOUS
 10
11.8642679673
 20
9.6036912868
 11
11.8709346324
 21
9.6136912868
  0
LINE
  5
446
100
AcDbEntity
  8
03__ASM_ALL_CURVES
100
AcDbLine
 62
4
  6
CONTINUOUS
 10
11.1272679673
 20
8.4691912868
 11
11.1372679676
 21
8.4841912868
  0
LINE
  5
447
100
AcDbEntity
  8
03__ASM_ALL_CURVES
100
AcDbLine
 62
4
  6
CONTINUOUS
 10
9.9932679673
 20
7.2956912868
 11
9.9832679673
 21
7.2823579519
  0
LINE
  5
448
100
AcDbEntity
  8
03__ASM_ALL_CURVES
100
AcDbLine
 62
4
  6
CONTINUOUS
 10
9.5682679673
 20
6.6723579519
 11
9.5732679673
 21
6.6790246217
  0
LINE
  5
449
100
AcDbEntity
  8
03__ASM_ALL_CURVES
100
AcDbLine
 62
4
  6
CONTINUOUS
 10
9.5832679673
 20
6.6390246193
 11
9.5732679673
 21
6.6256912868
  0
LINE
  5
44A
100
AcDbEntity
  8
03__ASM_ALL_CURVES
100
AcDbLine
 62
4
  6
CONTINUOUS
 10
9.6082679673
 20
6.6590246217
 11
9.6032679673
 21
6.6523579519
  0
LINE
  5
44B
100
AcDbEntity
  8
03__ASM_ALL_CURVES
100
AcDbLine
 62
4
  6
CONTINUOUS
 10
10.1332679673
 20
7.2823579519
 11
10.1382679673
 21
7.2890246217
  0
LINE
  5
44C
100
AcDbEntity
  8
03__ASM_ALL_CURVES
100
AcDbLine
 62
4
  6
CONTINUOUS
 10
10.1632679673
 20
7.2290246205
 11
10.1582679673
 21
7.2223579537
  0
LINE
  5
44D
100
AcDbEntity
  8
03__ASM_ALL_CURVES
100
AcDbLine
 62
4
  6
CONTINUOUS
 10
11.7202679673
 20
9.2436912868
 11
11.8082679673
 21
9.3236912868
  0
LINE
  5
44E
100
AcDbEntity
  8
03__ASM_ALL_CURVES
100
AcDbLine
 62
4
  6
CONTINUOUS
 10
12.6516013022
 20
9.8586912868
 11
12.6582679673
 21
9.8636912868
  0
LINE
  5
44F
100
AcDbEntity
  8
03__ASM_ALL_CURVES
100
AcDbLine
 62
4
  6
CONTINUOUS
 10
12.6916013005
 20
9.8286912868
 11
12.6849346336
 21
9.8236912868
  0
LINE
  5
450
100
AcDbEntity
  8
03__ASM_ALL_CURVES
100
AcDbLine
 62
4
  6
CONTINUOUS
 10
12.688267967
 20
9.6961912868
 11
12.6982679673
 21
9.7036912868
  0
LINE
  5
451
100
AcDbEntity
  8
03__ASM_ALL_CURVES
100
AcDbLine
 62
4
  6
CONTINUOUS
 10
11.8776013022
 20
10.4886912868
 11
11.8976013022
 21
10.4936912868
  0
LINE
  5
452
100
AcDbEntity
  8
03__ASM_ALL_CURVES
100
AcDbLine
 62
4
  6
CONTINUOUS
 10
11.7816013022
 20
10.4886912868
 11
11.8016013022
 21
10.4936912868
  0
LINE
  5
453
100
AcDbEntity
  8
03__ASM_ALL_CURVES
100
AcDbLine
 62
4
  6
CONTINUOUS
 10
11.5576013022
 20
9.9936912868
 11
11.5709346348
 21
9.9936912868
  0
LINE
  5
454
100
AcDbEntity
  8
03__ASM_ALL_CURVES
100
AcDbLine
 62
4
  6
CONTINUOUS
 10
11.8016013022
 20
9.9936912868
 11
11.8149346348
 21
9.9936912868
  0
LINE
  5
455
100
AcDbEntity
  8
03__ASM_ALL_CURVES
100
AcDbLine
 62
4
  6
CONTINUOUS
 10
11.8976013022
 20
9.9936912868
 11
11.9109346348
 21
9.9936912868
  0
LINE
  5
456
100
AcDbEntity
  8
03__ASM_ALL_CURVES
100
AcDbLine
 62
4
  6
CONTINUOUS
 10
12.6516013022
 20
9.9936912868
 11
12.6649346348
 21
9.9936912868
  0
LINE
  5
457
100
AcDbEntity
  8
03__ASM_ALL_CURVES
100
AcDbLine
 62
4
  6
CONTINUOUS
 10
11.5242679673
 20
10.0836912868
 11
11.6042679673
 21
10.0836912868
  0
LINE
  5
458
100
AcDbEntity
  8
03__ASM_ALL_CURVES
100
AcDbLine
 62
4
  6
CONTINUOUS
 10
12.6982679673
 20
10.0986912868
 11
12.6182679673
 21
10.0986912868
  0
LINE
  5
459
100
AcDbEntity
  8
03__ASM_ALL_CURVES
100
AcDbLine
 62
4
  6
CONTINUOUS
 10
11.7816013022
 20
10.1036912868
 11
11.7949346324
 21
10.1036912868
  0
LINE
  5
45A
100
AcDbEntity
  8
03__ASM_ALL_CURVES
100
AcDbLine
 62
4
  6
CONTINUOUS
 10
11.8776013022
 20
10.1036912868
 11
11.8909346324
 21
10.1036912868
  0
LINE
  5
45B
100
AcDbEntity
  8
03__ASM_ALL_CURVES
100
AcDbLine
 62
4
  6
CONTINUOUS
 10
11.8216012999
 20
10.1436912868
 11
11.7949346324
 21
10.1436912868
  0
LINE
  5
45C
100
AcDbEntity
  8
03__ASM_ALL_CURVES
100
AcDbLine
 62
4
  6
CONTINUOUS
 10
11.5776012999
 20
10.1436912868
 11
11.5509346324
 21
10.1436912868
  0
LINE
  5
45D
100
AcDbEntity
  8
03__ASM_ALL_CURVES
100
AcDbLine
 62
4
  6
CONTINUOUS
 10
11.5242679673
 20
9.8336912868
 11
11.5576013022
 21
9.8286912868
  0
LINE
  5
45E
100
AcDbEntity
  8
03__ASM_ALL_CURVES
100
AcDbLine
 62
4
  6
CONTINUOUS
 10
11.9442679673
 20
9.8436912868
 11
11.9109346348
 21
9.8486912868
  0
LINE
  5
45F
100
AcDbEntity
  8
03__ASM_ALL_CURVES
100
AcDbLine
 62
4
  6
CONTINUOUS
 10
12.6982679673
 20
9.7636912868
 11
12.6649346348
 21
9.7686912868
  0
LINE
  5
460
100
AcDbEntity
  8
03__ASM_ALL_CURVES
100
AcDbLine
 62
4
  6
CONTINUOUS
 10
12.6182679673
 20
9.8336912868
 11
12.6516013022
 21
9.8286912868
  0
LINE
  5
461
100
AcDbEntity
  8
03__ASM_ALL_CURVES
100
AcDbLine
 62
4
  6
CONTINUOUS
 10
11.9109346348
 20
9.8486912868
 11
11.8909346324
 21
9.8536912868
  0
LINE
  5
462
100
AcDbEntity
  8
03__ASM_ALL_CURVES
100
AcDbLine
 62
4
  6
CONTINUOUS
 10
11.5776012999
 20
9.6236912868
 11
11.5909346336
 21
9.6186912868
  0
LINE
  5
463
100
AcDbEntity
  8
03__ASM_ALL_CURVES
100
AcDbLine
 62
4
  6
CONTINUOUS
 10
11.7949346324
 20
9.5836912868
 11
11.7816013022
 21
9.5886912868
  0
LINE
  5
464
100
AcDbEntity
  8
03__ASM_ALL_CURVES
100
AcDbLine
 62
4
  6
CONTINUOUS
 10
11.8909346324
 20
9.5836912868
 11
11.8776013022
 21
9.5886912868
  0
LINE
  5
465
100
AcDbEntity
  8
03__ASM_ALL_CURVES
100
AcDbLine
 62
4
  6
CONTINUOUS
 10
11.8216012999
 20
9.6236912868
 11
11.8349346336
 21
9.6186912868
  0
LINE
  5
466
100
AcDbEntity
  8
03__ASM_ALL_CURVES
100
AcDbLine
 62
4
  6
CONTINUOUS
 10
11.5509346324
 20
9.7436912868
 11
11.5376013022
 21
9.7486912868
  0
LINE
  5
467
100
AcDbEntity
  8
03__ASM_ALL_CURVES
100
AcDbLine
 62
4
  6
CONTINUOUS
 10
11.5776012999
 20
9.7436912868
 11
11.5642679673
 21
9.7486912868
  0
LINE
  5
468
100
AcDbEntity
  8
03__ASM_ALL_CURVES
100
AcDbLine
 62
4
  6
CONTINUOUS
 10
11.9176012999
 20
9.6236912868
 11
11.9309346336
 21
9.6186912868
  0
LINE
  5
469
100
AcDbEntity
  8
03__ASM_ALL_CURVES
100
AcDbLine
 62
4
  6
CONTINUOUS
 10
11.5776012999
 20
9.7836912868
 11
11.5909346336
 21
9.7786912868
  0
LINE
  5
46A
100
AcDbEntity
  8
03__ASM_ALL_CURVES
100
AcDbLine
 62
4
  6
CONTINUOUS
 10
11.5376013022
 20
9.5886912868
 11
11.5309346324
 21
9.5936912868
  0
LINE
  5
46B
100
AcDbEntity
  8
03__ASM_ALL_CURVES
100
AcDbLine
 62
4
  6
CONTINUOUS
 10
11.5242679673
 20
10.3436912868
 11
11.5242679673
 21
10.3136912868
  0
LINE
  5
46C
100
AcDbEntity
  8
03__ASM_ALL_CURVES
100
AcDbLine
 62
4
  6
CONTINUOUS
 10
11.5242679673
 20
9.8636912868
 11
11.5242679673
 21
9.8336912868
  0
LINE
  5
46D
100
AcDbEntity
  8
03__ASM_ALL_CURVES
100
AcDbLine
 62
4
  6
CONTINUOUS
 10
11.5509346324
 20
9.8386912868
 11
11.5509346324
 21
9.8486912868
  0
LINE
  5
46E
100
AcDbEntity
  8
03__ASM_ALL_CURVES
100
AcDbLine
 62
4
  6
CONTINUOUS
 10
11.5509346324
 20
10.3186912868
 11
11.5509346324
 21
10.3286912868
  0
LINE
  5
46F
100
AcDbEntity
  8
03__ASM_ALL_CURVES
100
AcDbLine
 62
4
  6
CONTINUOUS
 10
11.5642679673
 20
9.1636912868
 11
11.5642679673
 21
9.4036912868
  0
LINE
  5
470
100
AcDbEntity
  8
03__ASM_ALL_CURVES
100
AcDbLine
 62
4
  6
CONTINUOUS
 10
11.6042679673
 20
10.3286912868
 11
11.6042679673
 21
10.3186912868
  0
LINE
  5
471
100
AcDbEntity
  8
03__ASM_ALL_CURVES
100
AcDbLine
 62
4
  6
CONTINUOUS
 10
11.6042679673
 20
10.2636912868
 11
11.6042679673
 21
10.2561912868
  0
LINE
  5
472
100
AcDbEntity
  8
03__ASM_ALL_CURVES
100
AcDbLine
 62
4
  6
CONTINUOUS
 10
11.6042679673
 20
9.8486912868
 11
11.6042679673
 21
9.8386912868
  0
LINE
  5
473
100
AcDbEntity
  8
03__ASM_ALL_CURVES
100
AcDbLine
 62
4
  6
CONTINUOUS
 10
11.6042679673
 20
9.7036912868
 11
11.6042679673
 21
9.6961912868
  0
LINE
  5
474
100
AcDbEntity
  8
0
100
AcDbLine
 62
7
  6
CONTINUOUS
 10
11.5135704398
 20
8.7105935345
 11
11.2951654948
 21
8.3323050731
  0
LINE
  5
475
100
AcDbEntity
  8
03__ASM_ALL_CURVES
100
AcDbLine
 62
4
  6
CONTINUOUS
 10
11.9442679673
 20
9.6036912868
 11
11.9376013005
 21
9.5936912868
  0
LINE
  5
476
100
AcDbEntity
  8
03__ASM_ALL_CURVES
100
AcDbLine
 62
4
  6
CONTINUOUS
 10
11.2472679673
 20
8.4541912868
 11
11.2372679697
 21
8.4391912868
  0
LINE
  5
477
100
AcDbEntity
  8
03__ASM_ALL_CURVES
100
AcDbLine
 62
4
  6
CONTINUOUS
 10
11.1272679673
 20
8.1091912868
 11
11.1372679676
 21
8.1241912868
  0
LINE
  5
478
100
AcDbEntity
  8
03__ASM_ALL_CURVES
100
AcDbLine
 62
4
  6
CONTINUOUS
 10
11.2472679673
 20
8.2216912868
 11
11.2372679697
 21
8.2066912868
  0
LINE
  5
479
100
AcDbEntity
  8
03__ASM_ALL_CURVES
100
AcDbLine
 62
4
  6
CONTINUOUS
 10
10.2882679673
 20
7.2823579519
 11
10.2932679673
 21
7.2890246217
  0
LINE
  5
47A
100
AcDbEntity
  8
03__ASM_ALL_CURVES
100
AcDbLine
 62
4
  6
CONTINUOUS
 10
9.8482679673
 20
6.6656912868
 11
9.8432679673
 21
6.6590246217
  0
LINE
  5
47B
100
AcDbEntity
  8
03__ASM_ALL_CURVES
100
AcDbLine
 62
4
  6
CONTINUOUS
 10
10.3032679673
 20
7.2490246193
 11
10.2932679673
 21
7.2356912868
  0
LINE
  5
47C
100
AcDbEntity
  8
03__ASM_ALL_CURVES
100
AcDbLine
 62
4
  6
CONTINUOUS
 10
10.3282679673
 20
7.2690246217
 11
10.3232679673
 21
7.2623579519
  0
LINE
  5
47D
100
AcDbEntity
  8
03__ASM_ALL_CURVES
100
AcDbLine
 62
4
  6
CONTINUOUS
 10
9.8532679673
 20
6.6256912868
 11
9.8432679673
 21
6.6123579537
  0
LINE
  5
47E
100
AcDbEntity
  8
03__ASM_ALL_CURVES
100
AcDbLine
 62
4
  6
CONTINUOUS
 10
10.3682679673
 20
7.2823579519
 11
10.3732679673
 21
7.2890246217
  0
LINE
  5
47F
100
AcDbEntity
  8
03__ASM_ALL_CURVES
100
AcDbLine
 62
4
  6
CONTINUOUS
 10
10.3832679673
 20
7.2490246193
 11
10.3732679673
 21
7.2356912868
  0
LINE
  5
480
100
AcDbEntity
  8
03__ASM_ALL_CURVES
100
AcDbLine
 62
4
  6
CONTINUOUS
 10
10.4082679673
 20
7.2690246217
 11
10.4032679673
 21
7.2623579519
  0
LINE
  5
481
100
AcDbEntity
  8
03__ASM_ALL_CURVES
100
AcDbLine
 62
4
  6
CONTINUOUS
 10
9.9932679673
 20
6.6856912868
 11
9.9832679673
 21
6.6723579519
  0
LINE
  5
482
100
AcDbEntity
  8
03__ASM_ALL_CURVES
100
AcDbLine
 62
4
  6
CONTINUOUS
 10
10.0532679673
 20
6.6723579519
 11
10.0582679673
 21
6.6790246217
  0
LINE
  5
483
100
AcDbEntity
  8
03__ASM_ALL_CURVES
100
AcDbLine
 62
4
  6
CONTINUOUS
 10
10.4732679673
 20
7.2290246205
 11
10.4632679673
 21
7.2156912868
  0
LINE
  5
484
100
AcDbEntity
  8
03__ASM_ALL_CURVES
100
AcDbLine
 62
4
  6
CONTINUOUS
 10
11.1372679676
 20
8.4841912868
 11
11.1572679673
 21
8.4991912868
  0
LINE
  5
485
100
AcDbEntity
  8
03__ASM_ALL_CURVES
100
AcDbLine
 62
4
  6
CONTINUOUS
 10
11.2372679697
 20
8.4391912868
 11
11.2272679649
 21
8.4316912868
  0
LINE
  5
486
100
AcDbEntity
  8
03__ASM_ALL_CURVES
100
AcDbLine
 62
4
  6
CONTINUOUS
 10
9.7332679673
 20
7.2890246217
 11
9.7432679673
 21
7.2956912868
  0
LINE
  5
487
100
AcDbEntity
  8
03__ASM_ALL_CURVES
100
AcDbLine
 62
4
  6
CONTINUOUS
 10
11.2472679673
 20
8.3716912868
 11
11.1272679673
 21
8.3116912868
  0
LINE
  5
488
100
AcDbEntity
  8
03__ASM_ALL_CURVES
100
AcDbLine
 62
4
  6
CONTINUOUS
 10
11.5376013022
 20
10.4886912868
 11
11.5576013022
 21
10.4936912868
  0
LINE
  5
489
100
AcDbEntity
  8
03__ASM_ALL_CURVES
100
AcDbLine
 62
4
  6
CONTINUOUS
 10
12.6982679673
 20
10.1786912868
 11
12.6182679673
 21
10.1786912868
  0
LINE
  5
48A
100
AcDbEntity
  8
03__ASM_ALL_CURVES
100
AcDbLine
 62
4
  6
CONTINUOUS
 10
11.7949346324
 20
10.1836912868
 11
11.8216012999
 21
10.1836912868
  0
LINE
  5
48B
100
AcDbEntity
  8
03__ASM_ALL_CURVES
100
AcDbLine
 62
4
  6
CONTINUOUS
 10
11.8776013022
 20
10.1836912868
 11
11.8909346324
 21
10.1836912868
  0
LINE
  5
48C
100
AcDbEntity
  8
03__ASM_ALL_CURVES
100
AcDbLine
 62
4
  6
CONTINUOUS
 10
12.6982679673
 20
10.2561912868
 11
12.688267967
 21
10.2561912868
  0
LINE
  5
48D
100
AcDbEntity
  8
03__ASM_ALL_CURVES
100
AcDbLine
 62
4
  6
CONTINUOUS
 10
11.9442679673
 20
10.2561912868
 11
11.934267967
 21
10.2561912868
  0
LINE
  5
48E
100
AcDbEntity
  8
03__ASM_ALL_CURVES
100
AcDbLine
 62
4
  6
CONTINUOUS
 10
11.8482679673
 20
10.2561912868
 11
11.838267967
 21
10.2561912868
  0
LINE
  5
48F
100
AcDbEntity
  8
03__ASM_ALL_CURVES
100
AcDbLine
 62
4
  6
CONTINUOUS
 10
11.6042679673
 20
10.2561912868
 11
11.594267967
 21
10.2561912868
  0
LINE
  5
490
100
AcDbEntity
  8
03__ASM_ALL_CURVES
100
AcDbLine
 62
4
  6
CONTINUOUS
 10
11.9176012999
 20
10.3036912868
 11
11.8909346324
 21
10.3036912868
  0
LINE
  5
491
100
AcDbEntity
  8
03__ASM_ALL_CURVES
100
AcDbLine
 62
4
  6
CONTINUOUS
 10
12.6982679673
 20
10.3386912868
 11
12.6182679673
 21
10.3386912868
  0
LINE
  5
492
100
AcDbEntity
  8
03__ASM_ALL_CURVES
100
AcDbLine
 62
4
  6
CONTINUOUS
 10
11.8909346324
 20
10.3436912868
 11
11.9176012999
 21
10.3436912868
  0
LINE
  5
493
100
AcDbEntity
  8
03__ASM_ALL_CURVES
100
AcDbLine
 62
4
  6
CONTINUOUS
 10
11.5776012999
 20
10.3836912868
 11
11.5509346324
 21
10.3836912868
  0
LINE
  5
494
100
AcDbEntity
  8
03__ASM_ALL_CURVES
100
AcDbLine
 62
4
  6
CONTINUOUS
 10
11.5376013022
 20
9.9986912868
 11
11.5576013022
 21
9.9936912868
  0
LINE
  5
495
100
AcDbEntity
  8
03__ASM_ALL_CURVES
100
AcDbLine
 62
4
  6
CONTINUOUS
 10
12.6649346348
 20
9.7686912868
 11
12.6449346324
 21
9.7736912868
  0
LINE
  5
496
100
AcDbEntity
  8
03__ASM_ALL_CURVES
100
AcDbLine
 62
4
  6
CONTINUOUS
 10
11.7816013022
 20
9.9986912868
 11
11.8016013022
 21
9.9936912868
  0
LINE
  5
497
100
AcDbEntity
  8
03__ASM_ALL_CURVES
100
AcDbLine
 62
4
  6
CONTINUOUS
 10
11.8776013022
 20
9.9986912868
 11
11.8976013022
 21
9.9936912868
  0
LINE
  5
498
100
AcDbEntity
  8
03__ASM_ALL_CURVES
100
AcDbLine
 62
4
  6
CONTINUOUS
 10
11.8282679673
 20
10.0686912868
 11
11.8482679673
 21
10.0636912868
  0
LINE
  5
499
100
AcDbEntity
  8
03__ASM_ALL_CURVES
100
AcDbLine
 62
4
  6
CONTINUOUS
 10
11.9242679673
 20
10.0686912868
 11
11.9442679673
 21
10.0636912868
  0
LINE
  5
49A
100
AcDbEntity
  8
03__ASM_ALL_CURVES
100
AcDbLine
 62
4
  6
CONTINUOUS
 10
11.5776012999
 20
9.8686912868
 11
11.5909346336
 21
9.8636912868
  0
LINE
  5
49B
100
AcDbEntity
  8
03__ASM_ALL_CURVES
100
AcDbLine
 62
4
  6
CONTINUOUS
 10
11.8909346324
 20
9.8536912868
 11
11.8642679673
 21
9.8636912868
  0
LINE
  5
49C
100
AcDbEntity
  8
03__ASM_ALL_CURVES
100
AcDbLine
 62
4
  6
CONTINUOUS
 10
11.5909346336
 20
9.6186912868
 11
11.5976013005
 21
9.6136912868
  0
LINE
  5
49D
100
AcDbEntity
  8
03__ASM_ALL_CURVES
100
AcDbLine
 62
4
  6
CONTINUOUS
 10
11.5376013022
 20
9.7486912868
 11
11.5309346324
 21
9.7536912868
  0
LINE
  5
49E
100
AcDbEntity
  8
03__ASM_ALL_CURVES
100
AcDbLine
 62
4
  6
CONTINUOUS
 10
11.7816013022
 20
9.5886912868
 11
11.7749346324
 21
9.5936912868
  0
LINE
  5
49F
100
AcDbEntity
  8
03__ASM_ALL_CURVES
100
AcDbLine
 62
4
  6
CONTINUOUS
 10
11.5909346336
 20
9.7786912868
 11
11.5976013005
 21
9.7736912868
  0
LINE
  5
4A0
100
AcDbEntity
  8
03__ASM_ALL_CURVES
100
AcDbLine
 62
4
  6
CONTINUOUS
 10
11.8349346336
 20
9.6186912868
 11
11.8416013005
 21
9.6136912868
  0
LINE
  5
4A1
100
AcDbEntity
  8
03__ASM_ALL_CURVES
100
AcDbLine
 62
4
  6
CONTINUOUS
 10
11.8776013022
 20
9.5886912868
 11
11.8709346324
 21
9.5936912868
  0
LINE
  5
4A2
100
AcDbEntity
  8
03__ASM_ALL_CURVES
100
AcDbLine
 62
4
  6
CONTINUOUS
 10
11.5909346336
 20
9.8636912868
 11
11.5976013005
 21
9.8586912868
  0
LINE
  5
4A3
100
AcDbEntity
  8
03__ASM_ALL_CURVES
100
AcDbLine
 62
4
  6
CONTINUOUS
 10
11.9309346336
 20
9.6186912868
 11
11.9376013005
 21
9.6136912868
  0
LINE
  5
4A4
100
AcDbEntity
  8
03__ASM_ALL_CURVES
100
AcDbLine
 62
4
  6
CONTINUOUS
 10
11.7816013022
 20
9.7436912868
 11
11.7749346324
 21
9.7486912868
  0
LINE
  5
4A5
100
AcDbEntity
  8
03__ASM_ALL_CURVES
100
AcDbLine
 62
4
  6
CONTINUOUS
 10
11.5309346324
 20
9.5936912868
 11
11.5242679673
 21
9.6036912868
  0
LINE
  5
4A6
100
AcDbEntity
  8
03__ASM_ALL_CURVES
100
AcDbLine
 62
4
  6
CONTINUOUS
 10
11.5976013005
 20
9.6136912868
 11
11.6042679673
 21
9.6036912868
  0
LINE
  5
4A7
100
AcDbEntity
  8
03__ASM_ALL_CURVES
100
AcDbLine
 62
4
  6
CONTINUOUS
 10
11.5309346324
 20
9.7536912868
 11
11.5242679673
 21
9.7636912868
  0
LINE
  5
4A8
100
AcDbEntity
  8
0
100
AcDbLine
 62
7
  6
CONTINUOUS
 10
12.2713704398
 20
8.3323050731
 11
12.0529654948
 21
8.7105935345
  0
LINE
  5
4A9
100
AcDbEntity
  8
03__ASM_ALL_CURVES
100
AcDbLine
 62
4
  6
CONTINUOUS
 10
11.5642679673
 20
9.7486912868
 11
11.5576013022
 21
9.7636912868
  0
LINE
  5
4AA
100
AcDbEntity
  8
03__ASM_ALL_CURVES
100
AcDbLine
 62
4
  6
CONTINUOUS
 10
11.7202679673
 20
9.1636912868
 11
11.7202679673
 21
9.2436912868
  0
LINE
  5
4AB
100
AcDbEntity
  8
03__ASM_ALL_CURVES
100
AcDbLine
 62
4
  6
CONTINUOUS
 10
11.7682679673
 20
10.4236912868
 11
11.7682679673
 21
10.3836912868
  0
LINE
  5
4AC
100
AcDbEntity
  8
03__ASM_ALL_CURVES
100
AcDbLine
 62
4
  6
CONTINUOUS
 10
11.7682679673
 20
10.3436912868
 11
11.7682679673
 21
10.3136912868
  0
LINE
  5
4AD
100
AcDbEntity
  8
03__ASM_ALL_CURVES
100
AcDbLine
 62
4
  6
CONTINUOUS
 10
11.7682679673
 20
9.7586912868
 11
11.7682679673
 21
9.7686912868
  0
LINE
  5
4AE
100
AcDbEntity
  8
03__ASM_ALL_CURVES
100
AcDbLine
 62
4
  6
CONTINUOUS
 10
11.7682679673
 20
10.0786912868
 11
11.7682679673
 21
10.0886912868
  0
LINE
  5
4AF
100
AcDbEntity
  8
03__ASM_ALL_CURVES
100
AcDbLine
 62
4
  6
CONTINUOUS
 10
11.7832679673
 20
9.1636912868
 11
11.7832679673
 21
9.2436912868
  0
LINE
  5
4B0
100
AcDbEntity
  8
03__ASM_ALL_CURVES
100
AcDbLine
 62
4
  6
CONTINUOUS
 10
11.7949346324
 20
10.3186912868
 11
11.7949346324
 21
10.3286912868
  0
LINE
  5
4B1
100
AcDbEntity
  8
03__ASM_ALL_CURVES
100
AcDbLine
 62
4
  6
CONTINUOUS
 10
11.8016013022
 20
9.7586912868
 11
11.8016013022
 21
9.7686912868
  0
LINE
  5
4B2
100
AcDbEntity
  8
03__ASM_ALL_CURVES
100
AcDbLine
 62
4
  6
CONTINUOUS
 10
11.8082679673
 20
9.3236912868
 11
11.8082679673
 21
9.4036912868
  0
LINE
  5
4B3
100
AcDbEntity
  8
03__ASM_ALL_CURVES
100
AcDbLine
 62
4
  6
CONTINUOUS
 10
11.8482679673
 20
10.3286912868
 11
11.8482679673
 21
10.3186912868
  0
LINE
  5
4B4
100
AcDbEntity
  8
03__ASM_ALL_CURVES
100
AcDbLine
 62
4
  6
CONTINUOUS
 10
11.8482679673
 20
10.2636912868
 11
11.8482679673
 21
10.2561912868
  0
LINE
  5
4B5
100
AcDbEntity
  8
03__ASM_ALL_CURVES
100
AcDbLine
 62
4
  6
CONTINUOUS
 10
11.8482679673
 20
9.7686912868
 11
11.8482679673
 21
9.7586912868
  0
LINE
  5
4B6
100
AcDbEntity
  8
03__ASM_ALL_CURVES
100
AcDbLine
 62
4
  6
CONTINUOUS
 10
11.8482679673
 20
9.7036912868
 11
11.8482679673
 21
9.6961912868
  0
LINE
  5
4B7
100
AcDbEntity
  8
03__ASM_ALL_CURVES
100
AcDbLine
 62
4
  6
CONTINUOUS
 10
11.8482679673
 20
10.0636912868
 11
11.8482679673
 21
10.1036912868
  0
LINE
  5
4B8
100
AcDbEntity
  8
03__ASM_ALL_CURVES
100
AcDbLine
 62
4
  6
CONTINUOUS
 10
11.8642679673
 20
9.8636912868
 11
11.8642679673
 21
9.8236912868
  0
LINE
  5
4B9
100
AcDbEntity
  8
03__ASM_ALL_CURVES
100
AcDbLine
 62
4
  6
CONTINUOUS
 10
11.8642679673
 20
9.7586912868
 11
11.8642679673
 21
9.7686912868
  0
LINE
  5
4BA
100
AcDbEntity
  8
03__ASM_ALL_CURVES
100
AcDbLine
 62
4
  6
CONTINUOUS
 10
11.8642679673
 20
10.0786912868
 11
11.8642679673
 21
10.0886912868
  0
LINE
  5
4BB
100
AcDbEntity
  8
03__ASM_ALL_CURVES
100
AcDbLine
 62
4
  6
CONTINUOUS
 10
11.8642679673
 20
10.1586912868
 11
11.8642679673
 21
10.1686912868
  0
LINE
  5
4BC
100
AcDbEntity
  8
03__ASM_ALL_CURVES
100
AcDbLine
 62
4
  6
CONTINUOUS
 10
11.8976013022
 20
9.7586912868
 11
11.8976013022
 21
9.7686912868
  0
LINE
  5
4BD
100
AcDbEntity
  8
03__ASM_ALL_CURVES
100
AcDbLine
 62
4
  6
CONTINUOUS
 10
11.9042679673
 20
9.3236912868
 11
11.9042679673
 21
9.4036912868
  0
LINE
  5
4BE
100
AcDbEntity
  8
03__ASM_ALL_CURVES
100
AcDbLine
 62
4
  6
CONTINUOUS
 10
11.2472679673
 20
8.0941912868
 11
11.2372679697
 21
8.0791912868
  0
LINE
  5
4BF
100
AcDbEntity
  8
03__ASM_ALL_CURVES
100
AcDbLine
 62
4
  6
CONTINUOUS
 10
10.0832679673
 20
6.6190246205
 11
10.0782679673
 21
6.6123579537
  0
LINE
  5
4C0
100
AcDbEntity
  8
03__ASM_ALL_CURVES
100
AcDbLine
 62
4
  6
CONTINUOUS
 10
11.2372679697
 20
8.2066912868
 11
11.2172679673
 21
8.1916912868
  0
LINE
  5
4C1
100
AcDbEntity
  8
03__ASM_ALL_CURVES
100
AcDbLine
 62
4
  6
CONTINUOUS
 10
11.1372679676
 20
8.1241912868
 11
11.1572679673
 21
8.1391912868
  0
LINE
  5
4C2
100
AcDbEntity
  8
03__ASM_ALL_CURVES
100
AcDbLine
 62
4
  6
CONTINUOUS
 10
11.2372679697
 20
8.0791912868
 11
11.2272679649
 21
8.0716912868
  0
LINE
  5
4C3
100
AcDbEntity
  8
03__ASM_ALL_CURVES
100
AcDbLine
 62
4
  6
CONTINUOUS
 10
9.7332679673
 20
7.2556912868
 11
9.7432679673
 21
7.2623579519
  0
LINE
  5
4C4
100
AcDbEntity
  8
03__ASM_ALL_CURVES
100
AcDbLine
 62
4
  6
CONTINUOUS
 10
9.7632679673
 20
7.2690246217
 11
9.7532679673
 21
7.2623579519
  0
LINE
  5
4C5
100
AcDbEntity
  8
03__ASM_ALL_CURVES
100
AcDbLine
 62
4
  6
CONTINUOUS
 10
9.8132679673
 20
7.2890246217
 11
9.8232679673
 21
7.2956912868
  0
LINE
  5
4C6
100
AcDbEntity
  8
03__ASM_ALL_CURVES
100
AcDbLine
 62
4
  6
CONTINUOUS
 10
9.7632679673
 20
7.2223579537
 11
9.7532679673
 21
7.2156912868
  0
LINE
  5
4C7
100
AcDbEntity
  8
03__ASM_ALL_CURVES
100
AcDbLine
 62
4
  6
CONTINUOUS
 10
9.8432679673
 20
7.2623579519
 11
9.8232679673
 21
7.2490246193
  0
LINE
  5
4C8
100
AcDbEntity
  8
03__ASM_ALL_CURVES
100
AcDbLine
 62
4
  6
CONTINUOUS
 10
10.1382679673
 20
7.2890246217
 11
10.1482679673
 21
7.2956912868
  0
LINE
  5
4C9
100
AcDbEntity
  8
03__ASM_ALL_CURVES
100
AcDbLine
 62
4
  6
CONTINUOUS
 10
12.6982679673
 20
10.4186912868
 11
12.6182679673
 21
10.4186912868
  0
LINE
  5
4CA
100
AcDbEntity
  8
03__ASM_ALL_CURVES
100
AcDbLine
 62
4
  6
CONTINUOUS
 10
11.5509346324
 20
10.4236912868
 11
11.5776012999
 21
10.4236912868
  0
LINE
  5
4CB
100
AcDbEntity
  8
03__ASM_ALL_CURVES
100
AcDbLine
 62
4
  6
CONTINUOUS
 10
11.8909346324
 20
10.4236912868
 11
11.9176012999
 21
10.4236912868
  0
LINE
  5
4CC
100
AcDbEntity
  8
03__ASM_ALL_CURVES
100
AcDbLine
 62
4
  6
CONTINUOUS
 10
11.5576013022
 20
10.4936912868
 11
11.5709346348
 21
10.4936912868
  0
LINE
  5
4CD
100
AcDbEntity
  8
03__ASM_ALL_CURVES
100
AcDbLine
 62
4
  6
CONTINUOUS
 10
11.8016013022
 20
10.4936912868
 11
11.8149346348
 21
10.4936912868
  0
LINE
  5
4CE
100
AcDbEntity
  8
03__ASM_ALL_CURVES
100
AcDbLine
 62
4
  6
CONTINUOUS
 10
11.8976013022
 20
10.4936912868
 11
11.9109346348
 21
10.4936912868
  0
LINE
  5
4CF
100
AcDbEntity
  8
03__ASM_ALL_CURVES
100
AcDbLine
 62
4
  6
CONTINUOUS
 10
12.6516013022
 20
10.4936912868
 11
12.6649346348
 21
10.4936912868
  0
LINE
  5
4D0
100
AcDbEntity
  8
03__ASM_ALL_CURVES
100
AcDbLine
 62
4
  6
CONTINUOUS
 10
11.5242679673
 20
10.3136912868
 11
11.5576013022
 21
10.3086912868
  0
LINE
  5
4D1
100
AcDbEntity
  8
03__ASM_ALL_CURVES
100
AcDbLine
 62
4
  6
CONTINUOUS
 10
11.7682679673
 20
10.3136912868
 11
11.8016013022
 21
10.3086912868
  0
LINE
  5
4D2
100
AcDbEntity
  8
03__ASM_ALL_CURVES
100
AcDbLine
 62
4
  6
CONTINUOUS
 10
11.8482679673
 20
10.4036912868
 11
11.8149346348
 21
10.4086912868
  0
LINE
  5
4D3
100
AcDbEntity
  8
03__ASM_ALL_CURVES
100
AcDbLine
 62
4
  6
CONTINUOUS
 10
11.9242679673
 20
10.1486912868
 11
11.9442679673
 21
10.1436912868
  0
LINE
  5
4D4
100
AcDbEntity
  8
03__ASM_ALL_CURVES
100
AcDbLine
 62
4
  6
CONTINUOUS
 10
12.6316013022
 20
9.9986912868
 11
12.6516013022
 21
9.9936912868
  0
LINE
  5
4D5
100
AcDbEntity
  8
03__ASM_ALL_CURVES
100
AcDbLine
 62
4
  6
CONTINUOUS
 10
11.5509346324
 20
10.1436912868
 11
11.5376013022
 21
10.1486912868
  0
LINE
  5
4D6
100
AcDbEntity
  8
03__ASM_ALL_CURVES
100
AcDbLine
 62
4
  6
CONTINUOUS
 10
11.5776012999
 20
10.1436912868
 11
11.5642679673
 21
10.1486912868
  0
LINE
  5
4D7
100
AcDbEntity
  8
03__ASM_ALL_CURVES
100
AcDbLine
 62
4
  6
CONTINUOUS
 10
12.6449346324
 20
9.7736912868
 11
12.6182679673
 21
9.7836912868
  0
LINE
  5
4D8
100
AcDbEntity
  8
03__ASM_ALL_CURVES
100
AcDbLine
 62
4
  6
CONTINUOUS
 10
11.5776012999
 20
10.1836912868
 11
11.5909346336
 21
10.1786912868
  0
LINE
  5
4D9
100
AcDbEntity
  8
03__ASM_ALL_CURVES
100
AcDbLine
 62
4
  6
CONTINUOUS
 10
11.7949346324
 20
10.1436912868
 11
11.7816013022
 21
10.1486912868
  0
LINE
  5
4DA
100
AcDbEntity
  8
03__ASM_ALL_CURVES
100
AcDbLine
 62
4
  6
CONTINUOUS
 10
11.8216012999
 20
10.1836912868
 11
11.8349346336
 21
10.1786912868
  0
LINE
  5
4DB
100
AcDbEntity
  8
03__ASM_ALL_CURVES
100
AcDbLine
 62
4
  6
CONTINUOUS
 10
12.6716012999
 20
9.8686912868
 11
12.6849346336
 21
9.8636912868
  0
LINE
  5
4DC
100
AcDbEntity
  8
03__ASM_ALL_CURVES
100
AcDbLine
 62
4
  6
CONTINUOUS
 10
11.8216012999
 20
9.7386912868
 11
11.8082679673
 21
9.7486912868
  0
LINE
  5
4DD
100
AcDbEntity
  8
03__ASM_ALL_CURVES
100
AcDbLine
 62
4
  6
CONTINUOUS
 10
11.7882679673
 20
9.7836912868
 11
11.7949346324
 21
9.7786912868
  0
LINE
  5
4DE
100
AcDbEntity
  8
03__ASM_ALL_CURVES
100
AcDbLine
 62
4
  6
CONTINUOUS
 10
11.8776013022
 20
9.7436912868
 11
11.8709346324
 21
9.7486912868
  0
LINE
  5
4DF
100
AcDbEntity
  8
03__ASM_ALL_CURVES
100
AcDbLine
 62
4
  6
CONTINUOUS
 10
11.5242679673
 20
10.0086912868
 11
11.5376013022
 21
9.9986912868
  0
LINE
  5
4E0
100
AcDbEntity
  8
03__ASM_ALL_CURVES
100
AcDbLine
 62
4
  6
CONTINUOUS
 10
11.8282679673
 20
9.7886912868
 11
11.8416013005
 21
9.7786912868
  0
LINE
  5
4E1
100
AcDbEntity
  8
03__ASM_ALL_CURVES
100
AcDbLine
 62
4
  6
CONTINUOUS
 10
11.9176012999
 20
9.7386912868
 11
11.9042679673
 21
9.7486912868
  0
LINE
  5
4E2
100
AcDbEntity
  8
03__ASM_ALL_CURVES
100
AcDbLine
 62
4
  6
CONTINUOUS
 10
11.8842679673
 20
9.7836912868
 11
11.8909346324
 21
9.7786912868
  0
LINE
  5
4E3
100
AcDbEntity
  8
03__ASM_ALL_CURVES
100
AcDbLine
 62
4
  6
CONTINUOUS
 10
11.9242679673
 20
9.7886912868
 11
11.9376013005
 21
9.7786912868
  0
LINE
  5
4E4
100
AcDbEntity
  8
03__ASM_ALL_CURVES
100
AcDbLine
 62
4
  6
CONTINUOUS
 10
11.5376013022
 20
10.1486912868
 11
11.5309346324
 21
10.1536912868
  0
LINE
  5
4E5
100
AcDbEntity
  8
03__ASM_ALL_CURVES
100
AcDbLine
 62
4
  6
CONTINUOUS
 10
11.7682679673
 20
10.0086912868
 11
11.7816013022
 21
9.9986912868
  0
LINE
  5
4E6
100
AcDbEntity
  8
03__ASM_ALL_CURVES
100
AcDbLine
 62
4
  6
CONTINUOUS
 10
11.5909346336
 20
10.1786912868
 11
11.5976013005
 21
10.1736912868
  0
LINE
  5
4E7
100
AcDbEntity
  8
03__ASM_ALL_CURVES
100
AcDbLine
 62
4
  6
CONTINUOUS
 10
11.5576013022
 20
9.8286912868
 11
11.5509346324
 21
9.8386912868
  0
LINE
  5
4E8
100
AcDbEntity
  8
03__ASM_ALL_CURVES
100
AcDbLine
 62
4
  6
CONTINUOUS
 10
11.5976013005
 20
9.7736912868
 11
11.6042679673
 21
9.7636912868
  0
LINE
  5
4E9
100
AcDbEntity
  8
03__ASM_ALL_CURVES
100
AcDbLine
 62
4
  6
CONTINUOUS
 10
11.5976013005
 20
9.8586912868
 11
11.6042679673
 21
9.8486912868
  0
LINE
  5
4EA
100
AcDbEntity
  8
03__ASM_ALL_CURVES
100
AcDbLine
 62
4
  6
CONTINUOUS
 10
11.7749346324
 20
9.5936912868
 11
11.7682679673
 21
9.6036912868
  0
LINE
  5
4EB
100
AcDbEntity
  8
03__ASM_ALL_CURVES
100
AcDbLine
 62
4
  6
CONTINUOUS
 10
11.8416013005
 20
9.6136912868
 11
11.8482679673
 21
9.6036912868
  0
LINE
  5
4EC
100
AcDbEntity
  8
03__ASM_ALL_CURVES
100
AcDbLine
 62
4
  6
CONTINUOUS
 10
11.8709346324
 20
9.5936912868
 11
11.8642679673
 21
9.6036912868
  0
LINE
  5
4ED
100
AcDbEntity
  8
03__ASM_ALL_CURVES
100
AcDbLine
 62
4
  6
CONTINUOUS
 10
11.7749346324
 20
9.7486912868
 11
11.7682679673
 21
9.7586912868
  0
LINE
  5
4EE
100
AcDbEntity
  8
03__ASM_ALL_CURVES
100
AcDbLine
 62
4
  6
CONTINUOUS
 10
11.5309346324
 20
10.1536912868
 11
11.5242679673
 21
10.1636912868
  0
LINE
  5
4EF
100
AcDbEntity
  8
03__ASM_ALL_CURVES
100
AcDbLine
 62
4
  6
CONTINUOUS
 10
11.8082679673
 20
9.7486912868
 11
11.8016013022
 21
9.7586912868
  0
LINE
  5
4F0
100
AcDbEntity
  8
03__ASM_ALL_CURVES
100
AcDbLine
 62
4
  6
CONTINUOUS
 10
11.7949346324
 20
9.7786912868
 11
11.8016013022
 21
9.7686912868
  0
LINE
  5
4F1
100
AcDbEntity
  8
03__ASM_ALL_CURVES
100
AcDbLine
 62
4
  6
CONTINUOUS
 10
11.9376013005
 20
9.6136912868
 11
11.9442679673
 21
9.6036912868
  0
LINE
  5
4F2
100
AcDbEntity
  8
03__ASM_ALL_CURVES
100
AcDbLine
 62
4
  6
CONTINUOUS
 10
11.8416013005
 20
9.7786912868
 11
11.8482679673
 21
9.7686912868
  0
LINE
  5
4F3
100
AcDbEntity
  8
03__ASM_ALL_CURVES
100
AcDbLine
 62
4
  6
CONTINUOUS
 10
11.5642679673
 20
10.1486912868
 11
11.5576013022
 21
10.1636912868
  0
LINE
  5
4F4
100
AcDbEntity
  8
03__ASM_ALL_CURVES
100
AcDbLine
 62
4
  6
CONTINUOUS
 10
11.9442679673
 20
10.2636912868
 11
11.9442679673
 21
10.2561912868
  0
LINE
  5
4F5
100
AcDbEntity
  8
03__ASM_ALL_CURVES
100
AcDbLine
 62
4
  6
CONTINUOUS
 10
11.9442679673
 20
9.7686912868
 11
11.9442679673
 21
9.7586912868
  0
LINE
  5
4F6
100
AcDbEntity
  8
03__ASM_ALL_CURVES
100
AcDbLine
 62
4
  6
CONTINUOUS
 10
11.9442679673
 20
9.7036912868
 11
11.9442679673
 21
9.6961912868
  0
LINE
  5
4F7
100
AcDbEntity
  8
03__ASM_ALL_CURVES
100
AcDbLine
 62
4
  6
CONTINUOUS
 10
11.9442679673
 20
10.0636912868
 11
11.9442679673
 21
10.1036912868
  0
LINE
  5
4F8
100
AcDbEntity
  8
03__ASM_ALL_CURVES
100
AcDbLine
 62
4
  6
CONTINUOUS
 10
11.9442679673
 20
10.1436912868
 11
11.9442679673
 21
10.1836912868
  0
LINE
  5
4F9
100
AcDbEntity
  8
03__ASM_ALL_CURVES
100
AcDbLine
 62
4
  6
CONTINUOUS
 10
12.6449346324
 20
9.8486912868
 11
12.6516013022
 21
9.8586912868
  0
LINE
  5
4FA
100
AcDbEntity
  8
03__ASM_ALL_CURVES
100
AcDbLine
 62
4
  6
CONTINUOUS
 10
12.6982679673
 20
9.8386912868
 11
12.6916013005
 21
9.8286912868
  0
LINE
  5
4FB
100
AcDbEntity
  8
03__ASM_ALL_CURVES
100
AcDbLine
 62
4
  6
CONTINUOUS
 10
10.3682679673
 20
6.6723579519
 11
10.3732679673
 21
6.6790246217
  0
LINE
  5
4FC
100
AcDbEntity
  8
03__ASM_ALL_CURVES
100
AcDbLine
 62
4
  6
CONTINUOUS
 10
10.3832679673
 20
6.6390246193
 11
10.3732679673
 21
6.6256912868
  0
LINE
  5
4FD
100
AcDbEntity
  8
03__ASM_ALL_CURVES
100
AcDbLine
 62
4
  6
CONTINUOUS
 10
10.4082679673
 20
6.6590246217
 11
10.4032679673
 21
6.6523579519
  0
LINE
  5
4FE
100
AcDbEntity
  8
03__ASM_ALL_CURVES
100
AcDbLine
 62
4
  6
CONTINUOUS
 10
10.4732679673
 20
6.6190246205
 11
10.4632679673
 21
6.6056912868
  0
LINE
  5
4FF
100
AcDbEntity
  8
03__ASM_ALL_CURVES
100
AcDbLine
 62
4
  6
CONTINUOUS
 10
10.1582679673
 20
7.2223579537
 11
10.1482679673
 21
7.2156912868
  0
LINE
  5
500
100
AcDbEntity
  8
03__ASM_ALL_CURVES
100
AcDbLine
 62
4
  6
CONTINUOUS
 10
10.2932679673
 20
7.2890246217
 11
10.3032679673
 21
7.2956912868
  0
LINE
  5
501
100
AcDbEntity
  8
03__ASM_ALL_CURVES
100
AcDbLine
 62
4
  6
CONTINUOUS
 10
10.3232679673
 20
7.2623579519
 11
10.3032679673
 21
7.2490246193
  0
LINE
  5
502
100
AcDbEntity
  8
03__ASM_ALL_CURVES
100
AcDbLine
 62
4
  6
CONTINUOUS
 10
10.3732679673
 20
7.2890246217
 11
10.3832679673
 21
7.2956912868
  0
LINE
  5
503
100
AcDbEntity
  8
03__ASM_ALL_CURVES
100
AcDbLine
 62
4
  6
CONTINUOUS
 10
10.4032679673
 20
7.2623579519
 11
10.3832679673
 21
7.2490246193
  0
LINE
  5
504
100
AcDbEntity
  8
03__ASM_ALL_CURVES
100
AcDbLine
 62
4
  6
CONTINUOUS
 10
9.5732679673
 20
6.6790246217
 11
9.5832679673
 21
6.6856912868
  0
LINE
  5
505
100
AcDbEntity
  8
03__ASM_ALL_CURVES
100
AcDbLine
 62
4
  6
CONTINUOUS
 10
9.6032679673
 20
6.6523579519
 11
9.5832679673
 21
6.6390246193
  0
LINE
  5
506
100
AcDbEntity
  8
03__ASM_ALL_CURVES
100
AcDbLine
 62
4
  6
CONTINUOUS
 10
11.8149346348
 20
10.4086912868
 11
11.7949346324
 21
10.4136912868
  0
LINE
  5
507
100
AcDbEntity
  8
03__ASM_ALL_CURVES
100
AcDbLine
 62
4
  6
CONTINUOUS
 10
11.5709346348
 20
10.4936912868
 11
11.5909346336
 21
10.4886912868
  0
LINE
  5
508
100
AcDbEntity
  8
03__ASM_ALL_CURVES
100
AcDbLine
 62
4
  6
CONTINUOUS
 10
11.8149346348
 20
10.4936912868
 11
11.8349346336
 21
10.4886912868
  0
LINE
  5
509
100
AcDbEntity
  8
03__ASM_ALL_CURVES
100
AcDbLine
 62
4
  6
CONTINUOUS
 10
11.9109346348
 20
10.4936912868
 11
11.9309346336
 21
10.4886912868
  0
LINE
  5
50A
100
AcDbEntity
  8
03__ASM_ALL_CURVES
100
AcDbLine
 62
4
  6
CONTINUOUS
 10
11.5776012999
 20
10.3486912868
 11
11.5909346336
 21
10.3436912868
  0
LINE
  5
50B
100
AcDbEntity
  8
03__ASM_ALL_CURVES
100
AcDbLine
 62
4
  6
CONTINUOUS
 10
11.5509346324
 20
10.3836912868
 11
11.5376013022
 21
10.3886912868
  0
LINE
  5
50C
100
AcDbEntity
  8
03__ASM_ALL_CURVES
100
AcDbLine
 62
4
  6
CONTINUOUS
 10
11.8909346324
 20
10.3036912868
 11
11.8776013022
 21
10.3086912868
  0
LINE
  5
50D
100
AcDbEntity
  8
03__ASM_ALL_CURVES
100
AcDbLine
 62
4
  6
CONTINUOUS
 10
11.5776012999
 20
10.4236912868
 11
11.5909346336
 21
10.4186912868
  0
LINE
  5
50E
100
AcDbEntity
  8
03__ASM_ALL_CURVES
100
AcDbLine
 62
4
  6
CONTINUOUS
 10
11.8216012999
 20
10.3486912868
 11
11.8349346336
 21
10.3436912868
  0
LINE
  5
50F
100
AcDbEntity
  8
03__ASM_ALL_CURVES
100
AcDbLine
 62
4
  6
CONTINUOUS
 10
11.9176012999
 20
10.3436912868
 11
11.9309346336
 21
10.3386912868
  0
LINE
  5
510
100
AcDbEntity
  8
03__ASM_ALL_CURVES
100
AcDbLine
 62
4
  6
CONTINUOUS
 10
11.7949346324
 20
10.4136912868
 11
11.7682679673
 21
10.4236912868
  0
LINE
  5
511
100
AcDbEntity
  8
03__ASM_ALL_CURVES
100
AcDbLine
 62
4
  6
CONTINUOUS
 10
11.8909346324
 20
10.3836912868
 11
11.8776013022
 21
10.3886912868
  0
LINE
  5
512
100
AcDbEntity
  8
03__ASM_ALL_CURVES
100
AcDbLine
 62
4
  6
CONTINUOUS
 10
11.8909346324
 20
10.4236912868
 11
11.9042679673
 21
10.4186912868
  0
LINE
  5
513
100
AcDbEntity
  8
03__ASM_ALL_CURVES
100
AcDbLine
 62
4
  6
CONTINUOUS
 10
11.9176012999
 20
10.4236912868
 11
11.9309346336
 21
10.4186912868
  0
LINE
  5
514
100
AcDbEntity
  8
03__ASM_ALL_CURVES
100
AcDbLine
 62
4
  6
CONTINUOUS
 10
11.7816013022
 20
10.0636912868
 11
11.7749346324
 21
10.0686912868
  0
LINE
  5
515
100
AcDbEntity
  8
03__ASM_ALL_CURVES
100
AcDbLine
 62
4
  6
CONTINUOUS
 10
11.8642679673
 20
10.0086912868
 11
11.8776013022
 21
9.9986912868
  0
LINE
  5
516
100
AcDbEntity
  8
03__ASM_ALL_CURVES
100
AcDbLine
 62
4
  6
CONTINUOUS
 10
11.8149346348
 20
10.0786912868
 11
11.8282679673
 21
10.0686912868
  0
LINE
  5
517
100
AcDbEntity
  8
03__ASM_ALL_CURVES
100
AcDbLine
 62
4
  6
CONTINUOUS
 10
11.7949346324
 20
10.1036912868
 11
11.8016013022
 21
10.0986912868
  0
LINE
  5
518
100
AcDbEntity
  8
03__ASM_ALL_CURVES
100
AcDbLine
 62
4
  6
CONTINUOUS
 10
11.8776013022
 20
10.0636912868
 11
11.8709346324
 21
10.0686912868
  0
LINE
  5
519
100
AcDbEntity
  8
03__ASM_ALL_CURVES
100
AcDbLine
 62
4
  6
CONTINUOUS
 10
11.7816013022
 20
10.1486912868
 11
11.7749346324
 21
10.1536912868
  0
LINE
  5
51A
100
AcDbEntity
  8
03__ASM_ALL_CURVES
100
AcDbLine
 62
4
  6
CONTINUOUS
 10
11.9109346348
 20
10.0786912868
 11
11.9242679673
 21
10.0686912868
  0
LINE
  5
51B
100
AcDbEntity
  8
03__ASM_ALL_CURVES
100
AcDbLine
 62
4
  6
CONTINUOUS
 10
11.8909346324
 20
10.1036912868
 11
11.8976013022
 21
10.0986912868
  0
LINE
  5
51C
100
AcDbEntity
  8
03__ASM_ALL_CURVES
100
AcDbLine
 62
4
  6
CONTINUOUS
 10
11.5909346336
 20
10.3436912868
 11
11.5976013005
 21
10.3386912868
  0
LINE
  5
51D
100
AcDbEntity
  8
03__ASM_ALL_CURVES
100
AcDbLine
 62
4
  6
CONTINUOUS
 10
11.5376013022
 20
10.3886912868
 11
11.5309346324
 21
10.3936912868
  0
LINE
  5
51E
100
AcDbEntity
  8
03__ASM_ALL_CURVES
100
AcDbLine
 62
4
  6
CONTINUOUS
 10
11.8776013022
 20
10.1436912868
 11
11.8709346324
 21
10.1486912868
  0
LINE
  5
51F
100
AcDbEntity
  8
03__ASM_ALL_CURVES
100
AcDbLine
 62
4
  6
CONTINUOUS
 10
11.8349346336
 20
10.1786912868
 11
11.8416013005
 21
10.1736912868
  0
LINE
  5
520
100
AcDbEntity
  8
03__ASM_ALL_CURVES
100
AcDbLine
 62
4
  6
CONTINUOUS
 10
11.9109346348
 20
10.1586912868
 11
11.9242679673
 21
10.1486912868
  0
LINE
  5
521
100
AcDbEntity
  8
03__ASM_ALL_CURVES
100
AcDbLine
 62
4
  6
CONTINUOUS
 10
11.8909346324
 20
10.1836912868
 11
11.8976013022
 21
10.1786912868
  0
LINE
  5
522
100
AcDbEntity
  8
03__ASM_ALL_CURVES
100
AcDbLine
 62
4
  6
CONTINUOUS
 10
11.5909346336
 20
10.4186912868
 11
11.5976013005
 21
10.4136912868
  0
LINE
  5
523
100
AcDbEntity
  8
03__ASM_ALL_CURVES
100
AcDbLine
 62
4
  6
CONTINUOUS
 10
11.8709346324
 20
9.7486912868
 11
11.8642679673
 21
9.7586912868
  0
LINE
  5
524
100
AcDbEntity
  8
03__ASM_ALL_CURVES
100
AcDbLine
 62
4
  6
CONTINUOUS
 10
11.5976013005
 20
10.1736912868
 11
11.6042679673
 21
10.1636912868
  0
LINE
  5
525
100
AcDbEntity
  8
03__ASM_ALL_CURVES
100
AcDbLine
 62
4
  6
CONTINUOUS
 10
11.9042679673
 20
9.7486912868
 11
11.8976013022
 21
9.7586912868
  0
LINE
  5
526
100
AcDbEntity
  8
03__ASM_ALL_CURVES
100
AcDbLine
 62
4
  6
CONTINUOUS
 10
11.8909346324
 20
9.7786912868
 11
11.8976013022
 21
9.7686912868
  0
LINE
  5
527
100
AcDbEntity
  8
03__ASM_ALL_CURVES
100
AcDbLine
 62
4
  6
CONTINUOUS
 10
11.5576013022
 20
10.3086912868
 11
11.5509346324
 21
10.3186912868
  0
LINE
  5
528
100
AcDbEntity
  8
03__ASM_ALL_CURVES
100
AcDbLine
 62
4
  6
CONTINUOUS
 10
11.9376013005
 20
9.7786912868
 11
11.9442679673
 21
9.7686912868
  0
LINE
  5
529
100
AcDbEntity
  8
03__ASM_ALL_CURVES
100
AcDbLine
 62
4
  6
CONTINUOUS
 10
11.5309346324
 20
10.3936912868
 11
11.5242679673
 21
10.4036912868
  0
LINE
  5
52A
100
AcDbEntity
  8
03__ASM_ALL_CURVES
100
AcDbLine
 62
4
  6
CONTINUOUS
 10
11.7749346324
 20
10.0686912868
 11
11.7682679673
 21
10.0786912868
  0
LINE
  5
52B
100
AcDbEntity
  8
03__ASM_ALL_CURVES
100
AcDbLine
 62
4
  6
CONTINUOUS
 10
11.5976013005
 20
10.3386912868
 11
11.6042679673
 21
10.3286912868
  0
LINE
  5
52C
100
AcDbEntity
  8
03__ASM_ALL_CURVES
100
AcDbLine
 62
4
  6
CONTINUOUS
 10
11.8016013022
 20
10.0986912868
 11
11.8149346348
 21
10.0786912868
  0
LINE
  5
52D
100
AcDbEntity
  8
03__ASM_ALL_CURVES
100
AcDbLine
 62
4
  6
CONTINUOUS
 10
11.5976013005
 20
10.4136912868
 11
11.6042679673
 21
10.4036912868
  0
LINE
  5
52E
100
AcDbEntity
  8
03__ASM_ALL_CURVES
100
AcDbLine
 62
4
  6
CONTINUOUS
 10
11.7749346324
 20
10.1536912868
 11
11.7682679673
 21
10.1636912868
  0
LINE
  5
52F
100
AcDbEntity
  8
03__ASM_ALL_CURVES
100
AcDbLine
 62
4
  6
CONTINUOUS
 10
11.8709346324
 20
10.0686912868
 11
11.8642679673
 21
10.0786912868
  0
LINE
  5
530
100
AcDbEntity
  8
03__ASM_ALL_CURVES
100
AcDbLine
 62
4
  6
CONTINUOUS
 10
11.8416013005
 20
10.1736912868
 11
11.8482679673
 21
10.1636912868
  0
LINE
  5
531
100
AcDbEntity
  8
03__ASM_ALL_CURVES
100
AcDbLine
 62
4
  6
CONTINUOUS
 10
11.8976013022
 20
10.0986912868
 11
11.9109346348
 21
10.0786912868
  0
LINE
  5
532
100
AcDbEntity
  8
03__ASM_ALL_CURVES
100
AcDbLine
 62
4
  6
CONTINUOUS
 10
11.8709346324
 20
10.1486912868
 11
11.8642679673
 21
10.1586912868
  0
LINE
  5
533
100
AcDbEntity
  8
0
100
AcDbLine
 62
7
  6
CONTINUOUS
 10
12.2202679673
 20
6.6926913049
 11
12.2202679673
 21
6.6616913049
  0
LINE
  5
534
100
AcDbEntity
  8
0
100
AcDbLine
 62
7
  6
CONTINUOUS
 10
12.2202679673
 20
9.0366913049
 11
12.2202679673
 21
9.0676913049
  0
LINE
  5
535
100
AcDbEntity
  8
03__ASM_ALL_CURVES
100
AcDbLine
 62
4
  6
CONTINUOUS
 10
9.8132679673
 20
6.6790246217
 11
9.8232679673
 21
6.6856912868
  0
LINE
  5
536
100
AcDbEntity
  8
03__ASM_ALL_CURVES
100
AcDbLine
 62
4
  6
CONTINUOUS
 10
9.8432679673
 20
6.6590246217
 11
9.8332679673
 21
6.6523579519
  0
LINE
  5
537
100
AcDbEntity
  8
03__ASM_ALL_CURVES
100
AcDbLine
 62
4
  6
CONTINUOUS
 10
9.8432679673
 20
6.6123579537
 11
9.8332679673
 21
6.6056912868
  0
LINE
  5
538
100
AcDbEntity
  8
03__ASM_ALL_CURVES
100
AcDbLine
 62
4
  6
CONTINUOUS
 10
10.1332679673
 20
7.2556912868
 11
10.1482679673
 21
7.2623579519
  0
LINE
  5
539
100
AcDbEntity
  8
03__ASM_ALL_CURVES
100
AcDbLine
 62
4
  6
CONTINUOUS
 10
12.6649346348
 20
10.4936912868
 11
12.6849346336
 21
10.4886912868
  0
LINE
  5
53A
100
AcDbEntity
  8
03__ASM_ALL_CURVES
100
AcDbLine
 62
4
  6
CONTINUOUS
 10
12.6182679673
 20
10.0986912868
 11
12.6782679673
 21
10.0636912868
  0
LINE
  5
53B
100
AcDbEntity
  8
03__ASM_ALL_CURVES
100
AcDbLine
 62
4
  6
CONTINUOUS
 10
11.5909346336
 20
10.4886912868
 11
11.6042679673
 21
10.4786912868
  0
LINE
  5
53C
100
AcDbEntity
  8
03__ASM_ALL_CURVES
100
AcDbLine
 62
4
  6
CONTINUOUS
 10
11.8776013022
 20
10.3086912868
 11
11.8709346324
 21
10.3136912868
  0
LINE
  5
53D
100
AcDbEntity
  8
03__ASM_ALL_CURVES
100
AcDbLine
 62
4
  6
CONTINUOUS
 10
11.8349346336
 20
10.3436912868
 11
11.8416013005
 21
10.3386912868
  0
LINE
  5
53E
100
AcDbEntity
  8
03__ASM_ALL_CURVES
100
AcDbLine
 62
4
  6
CONTINUOUS
 10
11.9309346336
 20
10.3386912868
 11
11.9376013005
 21
10.3336912868
  0
LINE
  5
53F
100
AcDbEntity
  8
03__ASM_ALL_CURVES
100
AcDbLine
 62
4
  6
CONTINUOUS
 10
11.8776013022
 20
10.3886912868
 11
11.8709346324
 21
10.3936912868
  0
LINE
  5
540
100
AcDbEntity
  8
03__ASM_ALL_CURVES
100
AcDbLine
 62
4
  6
CONTINUOUS
 10
11.8349346336
 20
10.4886912868
 11
11.8482679673
 21
10.4786912868
  0
LINE
  5
541
100
AcDbEntity
  8
03__ASM_ALL_CURVES
100
AcDbLine
 62
4
  6
CONTINUOUS
 10
11.9309346336
 20
10.4186912868
 11
11.9376013005
 21
10.4136912868
  0
LINE
  5
542
100
AcDbEntity
  8
03__ASM_ALL_CURVES
100
AcDbLine
 62
4
  6
CONTINUOUS
 10
12.6849346336
 20
9.8636912868
 11
12.6916013005
 21
9.8586912868
  0
LINE
  5
543
100
AcDbEntity
  8
03__ASM_ALL_CURVES
100
AcDbLine
 62
4
  6
CONTINUOUS
 10
11.9309346336
 20
10.4886912868
 11
11.9442679673
 21
10.4786912868
  0
LINE
  5
544
100
AcDbEntity
  8
03__ASM_ALL_CURVES
100
AcDbLine
 62
4
  6
CONTINUOUS
 10
11.8016013022
 20
10.3086912868
 11
11.7949346324
 21
10.3186912868
  0
LINE
  5
545
100
AcDbEntity
  8
03__ASM_ALL_CURVES
100
AcDbLine
 62
4
  6
CONTINUOUS
 10
11.8976013022
 20
10.1786912868
 11
11.9109346348
 21
10.1586912868
  0
LINE
  5
546
100
AcDbEntity
  8
03__ASM_ALL_CURVES
100
AcDbLine
 62
4
  6
CONTINUOUS
 10
11.8416013005
 20
10.3386912868
 11
11.8482679673
 21
10.3286912868
  0
LINE
  5
547
100
AcDbEntity
  8
03__ASM_ALL_CURVES
100
AcDbLine
 62
4
  6
CONTINUOUS
 10
11.8709346324
 20
10.3136912868
 11
11.8642679673
 21
10.3236912868
  0
LINE
  5
548
100
AcDbEntity
  8
03__ASM_ALL_CURVES
100
AcDbLine
 62
4
  6
CONTINUOUS
 10
11.8709346324
 20
10.3936912868
 11
11.8642679673
 21
10.4036912868
  0
LINE
  5
549
100
AcDbEntity
  8
03__ASM_ALL_CURVES
100
AcDbLine
 62
4
  6
CONTINUOUS
 10
11.9376013005
 20
10.3336912868
 11
11.9442679673
 21
10.3236912868
  0
LINE
  5
54A
100
AcDbEntity
  8
03__ASM_ALL_CURVES
100
AcDbLine
 62
4
  6
CONTINUOUS
 10
11.9376013005
 20
10.4136912868
 11
11.9442679673
 21
10.4036912868
  0
LINE
  5
54B
100
AcDbEntity
  8
03__ASM_ALL_CURVES
100
AcDbLine
 62
4
  6
CONTINUOUS
 10
11.9042679673
 20
10.4186912868
 11
11.9109346348
 21
10.4036912868
  0
LINE
  5
54C
100
AcDbEntity
  8
0
100
AcDbLine
 62
7
  6
CONTINUOUS
 10
12.5642679673
 20
8.6926913049
 11
12.5642679673
 21
7.0366913049
  0
LINE
  5
54D
100
AcDbEntity
  8
0
100
AcDbLine
 62
7
  6
CONTINUOUS
 10
12.5952679673
 20
8.6926913049
 11
12.5952679673
 21
7.0366913049
  0
LINE
  5
54E
100
AcDbEntity
  8
0
100
AcDbLine
 62
7
  6
CONTINUOUS
 10
12.0529654948
 20
7.8947890391
 11
12.2713704398
 21
8.2730775005
  0
LINE
  5
54F
100
AcDbEntity
  8
03__ASM_ALL_CURVES
100
AcDbLine
 62
4
  6
CONTINUOUS
 10
10.0582679673
 20
6.6790246217
 11
10.0682679673
 21
6.6856912868
  0
LINE
  5
550
100
AcDbEntity
  8
03__ASM_ALL_CURVES
100
AcDbLine
 62
4
  6
CONTINUOUS
 10
10.0782679673
 20
6.6123579537
 11
10.0682679673
 21
6.6056912868
  0
LINE
  5
551
100
AcDbEntity
  8
03__ASM_ALL_CURVES
100
AcDbLine
 62
4
  6
CONTINUOUS
 10
10.3732679673
 20
6.6790246217
 11
10.3832679673
 21
6.6856912868
  0
LINE
  5
552
100
AcDbEntity
  8
03__ASM_ALL_CURVES
100
AcDbLine
 62
4
  6
CONTINUOUS
 10
10.4032679673
 20
6.6523579519
 11
10.3832679673
 21
6.6390246193
  0
LINE
  5
553
100
AcDbEntity
  8
03__ASM_ALL_CURVES
100
AcDbLine
 62
4
  6
CONTINUOUS
 10
12.6182679673
 20
10.1786912868
 11
12.6782679673
 21
10.1436912868
  0
LINE
  5
554
100
AcDbEntity
  8
03__ASM_ALL_CURVES
100
AcDbLine
 62
4
  6
CONTINUOUS
 10
12.6182679673
 20
10.3386912868
 11
12.6782679673
 21
10.3036912868
  0
LINE
  5
555
100
AcDbEntity
  8
03__ASM_ALL_CURVES
100
AcDbLine
 62
4
  6
CONTINUOUS
 10
12.6182679673
 20
10.4186912868
 11
12.6782679673
 21
10.3836912868
  0
LINE
  5
556
100
AcDbEntity
  8
03__ASM_ALL_CURVES
100
AcDbLine
 62
4
  6
CONTINUOUS
 10
12.6182679673
 20
10.0086912868
 11
12.6316013022
 21
9.9986912868
  0
LINE
  5
557
100
AcDbEntity
  8
03__ASM_ALL_CURVES
100
AcDbLine
 62
4
  6
CONTINUOUS
 10
12.6182679673
 20
9.8636912868
 11
12.6182679673
 21
9.8336912868
  0
LINE
  5
558
100
AcDbEntity
  8
03__ASM_ALL_CURVES
100
AcDbLine
 62
4
  6
CONTINUOUS
 10
12.6182679673
 20
9.7836912868
 11
12.6182679673
 21
9.7436912868
  0
LINE
  5
559
100
AcDbEntity
  8
03__ASM_ALL_CURVES
100
AcDbLine
 62
4
  6
CONTINUOUS
 10
12.6449346324
 20
9.8386912868
 11
12.6449346324
 21
9.8486912868
  0
LINE
  5
55A
100
AcDbEntity
  8
0
100
AcDbLine
 62
7
  6
CONTINUOUS
 10
12.6582679673
 20
6.645691323
 11
12.6582679673
 21
9.0836912868
  0
LINE
  5
55B
100
AcDbEntity
  8
03__ASM_ALL_CURVES
100
AcDbLine
 62
4
  6
CONTINUOUS
 10
12.6582679673
 20
9.1636912868
 11
12.6582679673
 21
9.4036912868
  0
LINE
  5
55C
100
AcDbEntity
  8
03__ASM_ALL_CURVES
100
AcDbLine
 62
4
  6
CONTINUOUS
 10
12.6782679673
 20
10.0636912868
 11
12.6782679673
 21
10.1086912868
  0
LINE
  5
55D
100
AcDbEntity
  8
03__ASM_ALL_CURVES
100
AcDbLine
 62
4
  6
CONTINUOUS
 10
12.6782679673
 20
10.1436912868
 11
12.6782679673
 21
10.1886912868
  0
LINE
  5
55E
100
AcDbEntity
  8
03__ASM_ALL_CURVES
100
AcDbLine
 62
4
  6
CONTINUOUS
 10
12.6782679673
 20
10.3036912868
 11
12.6782679673
 21
10.3486912868
  0
LINE
  5
55F
100
AcDbEntity
  8
03__ASM_ALL_CURVES
100
AcDbLine
 62
4
  6
CONTINUOUS
 10
12.6782679673
 20
10.3836912868
 11
12.6782679673
 21
10.4286912868
  0
LINE
  5
560
100
AcDbEntity
  8
03__ASM_ALL_CURVES
100
AcDbLine
 62
4
  6
CONTINUOUS
 10
12.6982679673
 20
10.2636912868
 11
12.6982679673
 21
10.2561912868
  0
LINE
  5
561
100
AcDbEntity
  8
03__ASM_ALL_CURVES
100
AcDbLine
 62
4
  6
CONTINUOUS
 10
12.6982679673
 20
9.8486912868
 11
12.6982679673
 21
9.8386912868
  0
LINE
  5
562
100
AcDbEntity
  8
03__ASM_ALL_CURVES
100
AcDbLine
 62
4
  6
CONTINUOUS
 10
12.6982679673
 20
9.7036912868
 11
12.6982679673
 21
9.6961912868
  0
LINE
  5
563
100
AcDbEntity
  8
03__ASM_ALL_CURVES
100
AcDbLine
 62
4
  6
CONTINUOUS
 10
10.0532679673
 20
6.6456912868
 11
10.0682679673
 21
6.6523579519
  0
LINE
  5
564
100
AcDbEntity
  8
03__ASM_ALL_CURVES
100
AcDbLine
 62
4
  6
CONTINUOUS
 10
12.6849346336
 20
10.4886912868
 11
12.6982679673
 21
10.4786912868
  0
LINE
  5
565
100
AcDbEntity
  8
03__ASM_ALL_CURVES
100
AcDbLine
 62
4
  6
CONTINUOUS
 10
12.6516013022
 20
9.8286912868
 11
12.6449346324
 21
9.8386912868
  0
LINE
  5
566
100
AcDbEntity
  8
03__ASM_ALL_CURVES
100
AcDbLine
 62
4
  6
CONTINUOUS
 10
12.6916013005
 20
9.8586912868
 11
12.6982679673
 21
9.8486912868
  0
ARC
  5
567
100
AcDbEntity
  8
0
100
AcDbCircle
 62
7
  6
CONTINUOUS
 10
11.3452679673
 20
7.0366913049
 40
0.375
100
AcDbArc
 50
180.0
 51
270.0
  0
ARC
  5
568
100
AcDbEntity
  8
0
100
AcDbCircle
 62
7
  6
CONTINUOUS
 10
11.3452679673
 20
7.0366913049
 40
0.344
100
AcDbArc
 50
180.0
 51
270.0
  0
CIRCLE
  5
569
100
AcDbEntity
  8
0
100
AcDbCircle
 62
7
  6
CONTINUOUS
 10
11.720267944
 20
7.2556913373
 40
0.4670000234
  0
CIRCLE
  5
56A
100
AcDbEntity
  8
0
100
AcDbCircle
 62
7
  6
CONTINUOUS
 10
11.720267944
 20
7.2556913373
 40
0.4305
  0
CIRCLE
  5
56B
100
AcDbEntity
  8
0
100
AcDbCircle
 62
7
  6
CONTINUOUS
 10
11.720267944
 20
7.2556913373
 40
0.4175
  0
CIRCLE
  5
56C
100
AcDbEntity
  8
0
100
AcDbCircle
 62
7
  6
CONTINUOUS
 10
11.720267944
 20
7.2556913373
 40
0.407
  0
CIRCLE
  5
56D
100
AcDbEntity
  8
0
100
AcDbCircle
 62
7
  6
CONTINUOUS
 10
11.720267944
 20
7.2556913373
 40
0.367
  0
CIRCLE
  5
56E
100
AcDbEntity
  8
0
100
AcDbCircle
 62
7
  6
CONTINUOUS
 10
11.720267944
 20
7.2556913373
 40
0.3445
  0
CIRCLE
  5
56F
100
AcDbEntity
  8
0
100
AcDbCircle
 62
7
  6
CONTINUOUS
 10
11.720267944
 20
7.2556913373
 40
0.2655
  0
ARC
  5
570
100
AcDbEntity
  8
0
100
AcDbCircle
 62
7
  6
CONTINUOUS
 10
11.3452679673
 20
8.6926913049
 40
0.375
100
AcDbArc
 50
90.0
 51
180.0
  0
ARC
  5
571
100
AcDbEntity
  8
0
100
AcDbCircle
 62
7
  6
CONTINUOUS
 10
11.3452679673
 20
8.6926913049
 40
0.344
100
AcDbArc
 50
90.0
 51
180.0
  0
CIRCLE
  5
572
100
AcDbEntity
  8
0
100
AcDbCircle
 62
7
  6
CONTINUOUS
 10
11.5642679854
 20
8.8836912838
 40
0.078
  0
CIRCLE
  5
573
100
AcDbEntity
  8
0
100
AcDbCircle
 62
7
  6
CONTINUOUS
 10
11.5642679854
 20
8.8836912838
 40
0.0625
  0
ARC
  5
574
100
AcDbEntity
  8
0
100
AcDbCircle
 62
7
  6
CONTINUOUS
 10
12.2202679673
 20
7.0366913049
 40
0.375
100
AcDbArc
 50
270.0
 51
360.0
  0
ARC
  5
575
100
AcDbEntity
  8
0
100
AcDbCircle
 62
7
  6
CONTINUOUS
 10
12.2202679673
 20
7.0366913049
 40
0.344
100
AcDbArc
 50
270.0
 51
360.0
  0
ARC
  5
576
100
AcDbEntity
  8
0
100
AcDbCircle
 62
7
  6
CONTINUOUS
 10
11.7832679673
 20
8.3026912868
 40
0.489
100
AcDbArc
 50
116.5280494436
 51
123.4719505564
  0
ARC
  5
577
100
AcDbEntity
  8
0
100
AcDbCircle
 62
7
  6
CONTINUOUS
 10
11.7832679673
 20
8.3026912868
 40
0.489
100
AcDbArc
 50
56.5280494436
 51
63.4719505564
  0
ARC
  5
578
100
AcDbEntity
  8
0
100
AcDbCircle
 62
7
  6
CONTINUOUS
 10
11.7832679673
 20
8.3026912868
 40
0.489
100
AcDbArc
 50
236.5280494436
 51
243.4719505564
  0
ARC
  5
579
100
AcDbEntity
  8
0
100
AcDbCircle
 62
7
  6
CONTINUOUS
 10
11.7832679673
 20
8.3026912868
 40
0.489
100
AcDbArc
 50
296.5280494436
 51
303.4719505564
  0
ARC
  5
57A
100
AcDbEntity
  8
0
100
AcDbCircle
 62
7
  6
CONTINUOUS
 10
11.7832679673
 20
8.3026912868
 40
0.489
100
AcDbArc
 50
356.5280494436
 51
3.4719505564
  0
ARC
  5
57B
100
AcDbEntity
  8
0
100
AcDbCircle
 62
7
  6
CONTINUOUS
 10
11.7832679673
 20
8.3026912868
 40
0.489
100
AcDbArc
 50
176.5280494436
 51
183.4719505564
  0
ARC
  5
57C
100
AcDbEntity
  8
0
100
AcDbCircle
 62
7
  6
CONTINUOUS
 10
11.7832679673
 20
8.3026912687
 40
0.4670000234
100
AcDbArc
 50
129.5404291939
 51
170.465867242
  0
ARC
  5
57D
100
AcDbEntity
  8
0
100
AcDbCircle
 62
7
  6
CONTINUOUS
 10
11.7832679673
 20
8.3026912687
 40
0.4670000234
100
AcDbArc
 50
69.5420942574
 51
110.4579057426
  0
ARC
  5
57E
100
AcDbEntity
  8
0
100
AcDbCircle
 62
7
  6
CONTINUOUS
 10
11.7832679673
 20
8.3026912687
 40
0.4670000234
100
AcDbArc
 50
9.534132758
 51
50.4595708061
  0
ARC
  5
57F
100
AcDbEntity
  8
0
100
AcDbCircle
 62
7
  6
CONTINUOUS
 10
11.7832679673
 20
8.3026912687
 40
0.4670000234
100
AcDbArc
 50
309.5404227408
 51
350.4658734258
  0
ARC
  5
580
100
AcDbEntity
  8
0
100
AcDbCircle
 62
7
  6
CONTINUOUS
 10
11.7832679673
 20
8.3026912687
 40
0.4670000234
100
AcDbArc
 50
249.5420816256
 51
290.4579183744
  0
ARC
  5
581
100
AcDbEntity
  8
0
100
AcDbCircle
 62
7
  6
CONTINUOUS
 10
11.7832679673
 20
8.3026912687
 40
0.4670000234
100
AcDbArc
 50
189.5341265742
 51
230.4595772592
  0
CIRCLE
  5
582
100
AcDbEntity
  8
0
100
AcDbCircle
 62
7
  6
CONTINUOUS
 10
11.7832679673
 20
8.3026912868
 40
0.43
  0
ARC
  5
583
100
AcDbEntity
  8
0
100
AcDbCircle
 62
7
  6
CONTINUOUS
 10
12.2202679673
 20
8.6926913049
 40
0.375
100
AcDbArc
 50
0.0
 51
90.0
  0
ARC
  5
584
100
AcDbEntity
  8
0
100
AcDbCircle
 62
7
  6
CONTINUOUS
 10
12.2202679673
 20
8.6926913049
 40
0.344
100
AcDbArc
 50
0.0
 51
90.0
  0
SPLINE
  5
585
100
AcDbEntity
  8
0
100
AcDbSpline
 62
7
  6
CONTINUOUS
 70
0
 71
3
 72
8
 73
4
 74
2
 42
0.0000001
 43
0.0000001
 44
0.0000000001
 12
-0.000204979
 22
-0.0019926763
 32
0.0
 13
-0.0002181249
 23
-0.0019914759
 33
0.0
 40
0.0
 40
0.0
 40
0.0
 40
0.0
 40
1.0
 40
1.0
 40
1.0
 40
1.0
 10
11.6086506538
 20
7.4965893044
 30
0.0
 10
11.6085823274
 20
7.495925079
 30
0.0
 10
11.6085118072
 20
7.4952610453
 30
0.0
 10
11.6084390989
 20
7.49459722
 30
0.0
 11
11.6086506538
 21
7.4965893044
 31
0.0
 11
11.6084390989
 21
7.49459722
 31
0.0
  0
SPLINE
  5
586
100
AcDbEntity
  8
0
100
AcDbSpline
 62
7
  6
CONTINUOUS
 70
0
 71
3
 72
23
 73
19
 74
17
 42
0.0000001
 43
0.0000001
 44
0.0000000001
 12
-0.0317054362
 22
-0.2894699353
 32
0.0
 13
-0.189119808
 23
0.2213940089
 33
0.0
 40
0.0
 40
0.0
 40
0.0
 40
0.0
 40
0.1018599924
 40
0.2023163422
 40
0.2947868667
 40
0.3794578471
 40
0.4564901125
 40
0.5262131847
 40
0.5889116674
 40
0.6456113263
 40
0.6973808088
 40
0.7435316689
 40
0.785469121
 40
0.8235263423
 40
0.8616783081
 40
0.9033975005
 40
0.9494482254
 40
1.0
 40
1.0
 40
1.0
 40
1.0
 10
11.6084390989
 20
7.49459722
 30
0.0
 10
11.6073625937
 20
7.4847687516
 30
0.0
 10
11.6042717361
 20
7.4653379692
 30
0.0
 10
11.5971209721
 20
7.4375978178
 30
0.0
 10
11.5883296385
 20
7.412106262
 30
0.0
 10
11.5789206622
 20
7.3892911233
 30
0.0
 10
11.5695025635
 20
7.3688942573
 30
0.0
 10
11.5604093217
 20
7.3507093268
 30
0.0
 10
11.5517065445
 20
7.3345433943
 30
0.0
 10
11.5432456271
 20
7.3202410559
 30
0.0
 10
11.5347317797
 20
7.3078512236
 30
0.0
 10
11.5256861398
 20
7.2976802733
 30
0.0
 10
11.5152820309
 20
7.2906595261
 30
0.0
 10
11.5034295734
 20
7.2892741171
 30
0.0
 10
11.492381111
 20
7.293061284
 30
0.0
 10
11.4820969313
 20
7.2997674695
 30
0.0
 10
11.4720505379
 20
7.3087253377
 30
0.0
 10
11.4657055032
 20
7.3156442229
 30
0.0
 10
11.4625187226
 20
7.319374843
 30
0.0
 11
11.6084390989
 21
7.49459722
 31
0.0
 11
11.603789765
 21
7.4653026091
 31
0.0
 11
11.5965395599
 21
7.4369652435
 31
0.0
 11
11.5878244512
 21
7.4114898185
 31
0.0
 11
11.5784748278
 21
7.388677569
 31
0.0
 11
11.5690952013
 21
7.3683032193
 31
0.0
 11
11.5600088024
 21
7.3501486946
 31
0.0
 11
11.5513181045
 21
7.3340938907
 31
0.0
 11
11.5428349889
 21
7.3199306631
 31
0.0
 11
11.534159256
 21
7.3076037374
 31
0.0
 11
11.5249832475
 21
7.2977865394
 31
0.0
 11
11.5145697108
 21
7.2914094006
 31
0.0
 11
11.5035651187
 21
7.2901084111
 31
0.0
 11
11.4929343111
 21
7.2933320283
 31
0.0
 11
11.4826299661
 21
7.2997649206
 31
0.0
 11
11.4725299947
 21
7.3085844631
 31
0.0
 11
11.4625187226
 21
7.319374843
 31
0.0
  0
SPLINE
  5
587
100
AcDbEntity
  8
0
100
AcDbSpline
 62
7
  6
CONTINUOUS
 70
0
 71
3
 72
8
 73
4
 74
2
 42
0.0000001
 43
0.0000001
 44
0.0000000001
 12
0.0001767008
 22
0.0022428412
 32
0.0
 13
0.000201731
 23
0.0022411408
 33
0.0
 40
0.0
 40
0.0
 40
0.0
 40
0.0
 40
1.0
 40
1.0
 40
1.0
 40
1.0
 10
11.549176669
 20
7.0526691079
 30
0.0
 10
11.5492355693
 20
7.0534167216
 30
0.0
 10
11.5492984902
 20
7.0541641052
 30
0.0
 10
11.5493657339
 20
7.0549111521
 30
0.0
 11
11.549176669
 21
7.0526691079
 31
0.0
 11
11.5493657339
 21
7.0549111521
 31
0.0
  0
SPLINE
  5
588
100
AcDbEntity
  8
0
100
AcDbSpline
 62
7
  6
CONTINUOUS
 70
0
 71
3
 72
24
 73
20
 74
18
 42
0.0000001
 43
0.0000001
 44
0.0000000001
 12
0.0259187219
 22
0.2879453287
 32
0.0
 13
0.194302184
 23
-0.2140439767
 33
0.0
 40
0.0
 40
0.0
 40
0.0
 40
0.0
 40
0.046051447
 40
0.0926522974
 40
0.132965149
 40
0.1697014726
 40
0.2058425471
 40
0.2437873117
 40
0.2845133025
 40
0.3297717008
 40
0.3807405337
 40
0.4372343506
 40
0.49746249
 40
0.5632439808
 40
0.6365330367
 40
0.7178904794
 40
0.8071317916
 40
0.904011935
 40
1.0
 40
1.0
 40
1.0
 40
1.0
 10
11.5493657339
 20
7.0549111521
 30
0.0
 10
11.5497635987
 20
7.0593312518
 30
0.0
 10
11.5508685449
 20
7.0682004736
 30
0.0
 10
11.5536969343
 20
7.0807321126
 30
0.0
 10
11.5580921545
 20
7.0918677933
 30
0.0
 10
11.564545535
 20
7.100909241
 30
0.0
 10
11.5740845896
 20
7.1065138188
 30
0.0
 10
11.5853608928
 20
7.1074487442
 30
0.0
 10
11.597171344
 20
7.1053932013
 30
0.0
 10
11.6097723904
 20
7.1013945971
 30
0.0
 10
11.6234172094
 20
7.0958667439
 30
0.0
 10
11.638097739
 20
7.0891088031
 30
0.0
 10
11.6538354756
 20
7.0812592808
 30
0.0
 10
11.6707867845
 20
7.0722317943
 30
0.0
 10
11.689222824
 20
7.0616782041
 30
0.0
 10
11.7091189639
 20
7.0491564804
 30
0.0
 10
11.7301023647
 20
7.0341579866
 30
0.0
 10
11.7509438255
 20
7.0166586472
 30
0.0
 10
11.7640695577
 20
7.0034585072
 30
0.0
 10
11.7702864545
 20
6.9966099515
 30
0.0
 11
11.5493657339
 21
7.0549111521
 31
0.0
 11
11.5510759136
 21
7.0681140438
 31
0.0
 11
11.5541873425
 21
7.0812200617
 31
0.0
 11
11.5586720873
 21
7.091975177
 31
0.0
 11
11.5651176435
 21
7.1004141017
 31
0.0
 11
11.574143375
 21
7.1056745422
 31
0.0
 11
11.5850343749
 21
7.1069735047
 31
0.0
 11
11.5966759394
 21
7.1052251275
 31
0.0
 11
11.6091902432
 21
7.1014123433
 31
0.0
 11
11.6228800802
 21
7.0959675077
 31
0.0
 11
11.6377349237
 21
7.0891851893
 31
0.0
 11
11.6533226922
 21
7.0814323251
 31
0.0
 11
11.6701041298
 21
7.0724915365
 31
0.0
 11
11.6884765107
 21
7.0619441714
 31
0.0
 11
11.7083543548
 21
7.0493776819
 31
0.0
 11
11.7293074913
 21
7.0343314379
 31
0.0
 11
11.7507264194
 21
7.0162913286
 31
0.0
 11
11.7702864545
 21
6.9966099515
 31
0.0
  0
SPLINE
  5
589
100
AcDbEntity
  8
0
100
AcDbSpline
 62
7
  6
CONTINUOUS
 70
0
 71
3
 72
8
 73
4
 74
2
 42
0.0000001
 43
0.0000001
 44
0.0000000001
 12
0.0012819627
 22
-0.0014122147
 32
0.0
 13
0.0012729794
 23
-0.0014200974
 33
0.0
 40
0.0
 40
0.0
 40
0.0
 40
0.0
 40
1.0
 40
1.0
 40
1.0
 40
1.0
 10
11.7702864545
 20
6.9966099515
 30
0.0
 10
11.7707137754
 20
6.9961392132
 30
0.0
 10
11.7711396052
 20
6.9956671568
 30
0.0
 10
11.7715639317
 20
6.995193791
 30
0.0
 11
11.7702864545
 21
6.9966099515
 31
0.0
 11
11.7715639317
 21
6.995193791
 31
0.0
  0
SPLINE
  5
58A
100
AcDbEntity
  8
0
100
AcDbSpline
 62
7
  6
CONTINUOUS
 70
0
 71
3
 72
8
 73
4
 74
2
 42
0.0000001
 43
0.0000001
 44
0.0000000001
 12
0.0001810234
 22
0.0022977074
 32
0.0
 13
0.000207699
 23
0.0022955042
 33
0.0
 40
0.0
 40
0.0
 40
0.0
 40
0.0
 40
1.0
 40
1.0
 40
1.0
 40
1.0
 10
11.549176669
 20
7.0526691079
 30
0.0
 10
11.5492370102
 20
7.0534350104
 30
0.0
 10
11.5493016731
 20
7.054200588
 30
0.0
 10
11.5493709061
 20
7.054965756
 30
0.0
 11
11.549176669
 21
7.0526691079
 31
0.0
 11
11.5493709061
 21
7.054965756
 31
0.0
  0
SPLINE
  5
58B
100
AcDbEntity
  8
0
100
AcDbSpline
 62
7
  6
CONTINUOUS
 70
0
 71
3
 72
100
 73
96
 74
94
 42
0.0000001
 43
0.0000001
 44
0.0000000001
 12
0.0260715404
 22
0.288144536
 32
0.0
 13
0.1944253439
 23
-0.2142524583
 33
0.0
 40
0.0
 40
0.0
 40
0.0
 40
0.0
 40
0.0066060075
 40
0.0217571688
 40
0.0367420001
 40
0.0508265494
 40
0.0636659828
 40
0.0754330248
 40
0.0863431131
 40
0.0966109923
 40
0.1062821592
 40
0.1151787659
 40
0.1232399099
 40
0.1306017504
 40
0.1374186905
 40
0.143785429
 40
0.1497479662
 40
0.1553592469
 40
0.1606753243
 40
0.1657401859
 40
0.1706007365
 40
0.175309069
 40
0.179893197
 40
0.1843745534
 40
0.1887765985
 40
0.1931342705
 40
0.1974813435
 40
0.2018479795
 40
0.2062436773
 40
0.2106781145
 40
0.2151655598
 40
0.219723547
 40
0.2243836668
 40
0.2291789906
 40
0.2341387196
 40
0.2392828762
 40
0.2446294159
 40
0.2502062594
 40
0.2560485077
 40
0.2621854157
 40
0.2686465328
 40
0.2754683083
 40
0.2826787392
 40
0.2903050321
 40
0.2983796458
 40
0.306927819
 40
0.3159737043
 40
0.3255326794
 40
0.3356113437
 40
0.3462148231
 40
0.3573385254
 40
0.3689726677
 40
0.3810891331
 40
0.3936550506
 40
0.4066324977
 40
0.4199788631
 40
0.4336449409
 40
0.4475753507
 40
0.4617202402
 40
0.4760289939
 40
0.4904558833
 40
0.5049546615
 40
0.5194890446
 40
0.5340272528
 40
0.5485437597
 40
0.5630183697
 40
0.5774345581
 40
0.5917852617
 40
0.60606375
 40
0.6202710507
 40
0.634411212
 40
0.6484899379
 40
0.6625190113
 40
0.676508866
 40
0.6904727985
 40
0.7044306108
 40
0.7184007202
 40
0.7324044744
 40
0.7464657756
 40
0.7606063198
 40
0.7748500259
 40
0.7892283693
 40
0.8037714255
 40
0.8185106858
 40
0.8334847904
 40
0.8487306734
 40
0.8642853856
 40
0.88019642
 40
0.8965130236
 40
0.9132845905
 40
0.930578084
 40
0.9484672727
 40
0.9670255167
 40
0.9863303513
 40
1.0
 40
1.0
 40
1.0
 40
1.0
 10
11.5493709061
 20
7.054965756
 30
0.0
 10
11.5494283157
 20
7.055600251
 30
0.0
 10
11.5496277463
 20
7.0576890601
 30
0.0
 10
11.5500246877
 20
7.0612104547
 30
0.0
 10
11.5506148261
 20
7.0654345507
 30
0.0
 10
11.5512904385
 20
7.0694199174
 30
0.0
 10
11.5520271928
 20
7.0730783782
 30
0.0
 10
11.5528110821
 20
7.0764132588
 30
0.0
 10
11.5536423595
 20
7.0794804035
 30
0.0
 10
11.5545236977
 20
7.0823226196
 30
0.0
 10
11.555449788
 20
7.0849455399
 30
0.0
 10
11.5564040358
 20
7.0873305325
 30
0.0
 10
11.5573678749
 20
7.0894694723
 30
0.0
 10
11.5583342841
 20
7.0913849763
 30
0.0
 10
11.5593060849
 20
7.0931124596
 30
0.0
 10
11.5602858496
 20
7.0946783183
 30
0.0
 10
11.5612734823
 20
7.0960997247
 30
0.0
 10
11.5622682672
 20
7.0973903471
 30
0.0
 10
11.5632707708
 20
7.0985632186
 30
0.0
 10
11.5642826003
 20
7.099630292
 30
0.0
 10
11.5653064749
 20
7.1006024884
 30
0.0
 10
11.5663453585
 20
7.1014887355
 30
0.0
 10
11.5674013964
 20
7.102295548
 30
0.0
 10
11.5684751747
 20
7.1030273245
 30
0.0
 10
11.5695683101
 20
7.1036885612
 30
0.0
 10
11.570684059
 20
7.1042838147
 30
0.0
 10
11.5718269418
 20
7.1048170916
 30
0.0
 10
11.5729998245
 20
7.1052905282
 30
0.0
 10
11.5742036953
 20
7.1057050445
 30
0.0
 10
11.5754382226
 20
7.1060611446
 30
0.0
 10
11.5767039747
 20
7.1063596791
 30
0.0
 10
11.5780038234
 20
7.10660185
 30
0.0
 10
11.5793427362
 20
7.1067886407
 30
0.0
 10
11.5807270842
 20
7.1069203487
 30
0.0
 10
11.5821623303
 20
7.1069963494
 30
0.0
 10
11.5836526011
 20
7.1070154241
 30
0.0
 10
11.5852019845
 20
7.1069760694
 30
0.0
 10
11.586816095
 20
7.1068764085
 30
0.0
 10
11.5885016739
 20
7.106713988
 30
0.0
 10
11.5902656246
 20
7.1064858313
 30
0.0
 10
11.5921149709
 20
7.1061885352
 30
0.0
 10
11.5940565982
 20
7.105818352
 30
0.0
 10
11.5960971558
 20
7.1053713166
 30
0.0
 10
11.5982429256
 20
7.1048434083
 30
0.0
 10
11.6004999568
 20
7.1042305905
 30
0.0
 10
11.6028740617
 20
7.1035288924
 30
0.0
 10
11.6053695556
 20
7.1027348932
 30
0.0
 10
11.6079891738
 20
7.1018459254
 30
0.0
 10
11.610734096
 20
7.1008602258
 30
0.0
 10
11.6136039035
 20
7.0997770419
 30
0.0
 10
11.6165969301
 20
7.098596554
 30
0.0
 10
11.619708768
 20
7.0973204958
 30
0.0
 10
11.6229327412
 20
7.0959520365
 30
0.0
 10
11.6262599234
 20
7.0944957805
 30
0.0
 10
11.6296803226
 20
7.0929571945
 30
0.0
 10
11.6331826782
 20
7.0913425995
 30
0.0
 10
11.6367543281
 20
7.0896591558
 30
0.0
 10
11.6403820674
 20
7.0879143937
 30
0.0
 10
11.6440526151
 20
7.0861159043
 30
0.0
 10
11.6477535336
 20
7.0842708113
 30
0.0
 10
11.6514726752
 20
7.0823859864
 30
0.0
 10
11.6551990885
 20
7.0804675663
 30
0.0
 10
11.6589229684
 20
7.0785209516
 30
0.0
 10
11.6626362239
 20
7.076550496
 30
0.0
 10
11.6663320738
 20
7.0745597101
 30
0.0
 10
11.6700049736
 20
7.0725513051
 30
0.0
 10
11.6736508856
 20
7.070527051
 30
0.0
 10
11.6772668515
 20
7.0684880086
 30
0.0
 10
11.6808513322
 20
7.0664343356
 30
0.0
 10
11.6844036598
 20
7.0643655884
 30
0.0
 10
11.6879241401
 20
7.0622806494
 30
0.0
 10
11.6914139031
 20
7.0601778003
 30
0.0
 10
11.6948745301
 20
7.058054925
 30
0.0
 10
11.6983081427
 20
7.0559094403
 30
0.0
 10
11.7017174252
 20
7.0537382605
 30
0.0
 10
11.7051055995
 20
7.0515377724
 30
0.0
 10
11.7084764072
 20
7.0493038049
 30
0.0
 10
11.7118337691
 20
7.0470318157
 30
0.0
 10
11.7151816968
 20
7.0447169137
 30
0.0
 10
11.7185242169
 20
7.0423538833
 30
0.0
 10
11.7218657424
 20
7.039936888
 30
0.0
 10
11.7252110902
 20
7.0374593804
 30
0.0
 10
11.7285653713
 20
7.0349141029
 30
0.0
 10
11.7319339137
 20
7.0322930763
 30
0.0
 10
11.7353221819
 20
7.0295875704
 30
0.0
 10
11.7387356195
 20
7.0267881394
 30
0.0
 10
11.7421798388
 20
7.0238843886
 30
0.0
 10
11.7456607895
 20
7.0208646962
 30
0.0
 10
11.7491846506
 20
7.0177161322
 30
0.0
 10
11.7527582294
 20
7.0144239302
 30
0.0
 10
11.7563891447
 20
7.0109710291
 30
0.0
 10
11.7600855594
 20
7.0073379545
 30
0.0
 10
11.7638550613
 20
7.0035036033
 30
0.0
 10
11.7672753026
 20
6.9998976731
 30
0.0
 10
11.7694275598
 20
6.9975564958
 30
0.0
 10
11.7703134685
 20
6.9965802438
 30
0.0
 11
11.5493709061
 21
7.054965756
 31
0.0
 11
11.5495527037
 21
7.056868348
 31
0.0
 11
11.5500458471
 21
7.0612239756
 31
0.0
 11
11.5506482812
 21
7.0655172484
 31
0.0
 11
11.5513320327
 21
7.0695343419
 31
0.0
 11
11.5520679067
 21
7.073175362
 31
0.0
 11
11.5528492977
 21
7.0764888539
 31
0.0
 11
11.5536773195
 21
7.0795347622
 31
0.0
 11
11.5545594996
 21
7.0823714006
 31
0.0
 11
11.5554933969
 21
7.0850089575
 31
0.0
 11
11.5564516979
 21
7.0873978326
 31
0.0
 11
11.5574116914
 21
7.0895232993
 31
0.0
 11
11.5583726633
 21
7.0914240787
 31
0.0
 11
11.5593410307
 21
7.0931422179
 31
0.0
 11
11.5603192819
 21
7.0947029736
 31
0.0
 11
11.561304639
 21
7.096118908
 31
0.0
 11
11.5622965711
 21
7.0974040479
 31
0.0
 11
11.5632965903
 21
7.0985725799
 31
0.0
 11
11.5643054169
 21
7.099635354
 31
0.0
 11
11.5653256109
 21
7.100603179
 31
0.0
 11
11.5663622676
 21
7.1014868675
 31
0.0
 11
11.5674163713
 21
7.1022917407
 31
0.0
 11
11.5684878858
 21
7.1030216914
 31
0.0
 11
11.5695776612
 21
7.1036807723
 31
0.0
 11
11.5706899928
 21
7.1042742212
 31
0.0
 11
11.5718296442
 21
7.1048061376
 31
0.0
 11
11.5730010453
 21
7.1052792428
 31
0.0
 11
11.5742033876
 21
7.1056936058
 31
0.0
 11
11.5754359544
 21
7.1060496053
 31
0.0
 11
11.5766994471
 21
7.1063481497
 31
0.0
 11
11.5779957235
 21
7.1065902638
 31
0.0
 11
11.5793309415
 21
7.1067772091
 31
0.0
 11
11.5807119941
 21
7.1069093332
 31
0.0
 11
11.5821448678
 21
7.1069859955
 31
0.0
 11
11.5836330157
 21
7.1070058818
 31
0.0
 11
11.5851793723
 21
7.1069674873
 31
0.0
 11
11.5867898257
 21
7.1068689786
 31
0.0
 11
11.5884723744
 21
7.106707821
 31
0.0
 11
11.5902333333
 21
7.106481065
 31
0.0
 11
11.5920790994
 21
7.106185399
 31
0.0
 11
11.59401802
 21
7.1058168275
 31
0.0
 11
11.5960560139
 21
7.105371486
 31
0.0
 11
11.5981987954
 21
7.1048454761
 31
0.0
 11
11.6004535784
 21
7.1042344588
 31
0.0
 11
11.6028255961
 21
7.1035345869
 31
0.0
 11
11.6053198648
 21
7.1027421971
 31
0.0
 11
11.6079391037
 21
7.1018545758
 31
0.0
 11
11.6106838127
 21
7.1008701542
 31
0.0
 11
11.6135543073
 21
7.0997878824
 31
0.0
 11
11.6165484968
 21
7.0986080627
 31
0.0
 11
11.6196631326
 21
7.0973319252
 31
0.0
 11
11.6228903078
 21
7.0959631005
 31
0.0
 11
11.6262211108
 21
7.0945061667
 31
0.0
 11
11.6296455074
 21
7.092966593
 31
0.0
 11
11.6331523957
 21
7.0913506161
 31
0.0
 11
11.636729069
 21
7.0896654059
 31
0.0
 11
11.6403612994
 21
7.0879189779
 31
0.0
 11
11.6440363538
 21
7.08611867
 31
0.0
 11
11.6477413072
 21
7.0842718562
 31
0.0
 11
11.6514644816
 21
7.0823851868
 31
0.0
 11
11.6551940285
 21
7.0804652693
 31
0.0
 11
11.6589206178
 21
7.0785172803
 31
0.0
 11
11.6626360147
 21
7.0765456659
 31
0.0
 11
11.6663335228
 21
7.0745539091
 31
0.0
 11
11.6700077437
 21
7.0725446574
 31
0.0
 11
11.6736541563
 21
7.0705199626
 31
0.0
 11
11.6772705773
 21
7.0684804693
 31
0.0
 11
11.6808548486
 21
7.0664266969
 31
0.0
 11
11.6844067041
 21
7.0643579853
 31
0.0
 11
11.6879265666
 21
7.0622731576
 31
0.0
 11
11.6914152037
 21
7.0601707211
 31
0.0
 11
11.694874813
 21
7.0580481959
 31
0.0
 11
11.698307172
 21
7.0559032148
 31
0.0
 11
11.701714672
 21
7.0537328871
 31
0.0
 11
11.70510118
 21
7.0515331966
 31
0.0
 11
11.7084700902
 21
7.049300202
 31
0.0
 11
11.7118253572
 21
7.0470293467
 31
0.0
 11
11.7151713738
 21
7.0447154843
 31
0.0
 11
11.7185118163
 21
7.0423536442
 31
0.0
 11
11.7218506843
 21
7.0399382968
 31
0.0
 11
11.7251934994
 21
7.0374623955
 31
0.0
 11
11.7285451554
 21
7.0349188466
 31
0.0
 11
11.7319105471
 21
7.0323000154
 31
0.0
 11
11.7352958182
 21
7.0295966547
 31
0.0
 11
11.7387062755
 21
7.02679943
 31
0.0
 11
11.7421467722
 21
7.0238985921
 31
0.0
 11
11.7456239112
 21
7.0208819952
 31
0.0
 11
11.7491439932
 21
7.0177366145
 31
0.0
 11
11.7527125937
 21
7.0144488273
 31
0.0
 11
11.7563381234
 21
7.0110009027
 31
0.0
 11
11.7600292631
 21
7.0073729005
 31
0.0
 11
11.7637932915
 21
7.0035440455
 31
0.0
 11
11.7676368805
 21
6.9994917623
 31
0.0
 11
11.7703134685
 21
6.9965802438
 31
0.0
  0
SPLINE
  5
58C
100
AcDbEntity
  8
0
100
AcDbSpline
 62
7
  6
CONTINUOUS
 70
0
 71
3
 72
100
 73
96
 74
94
 42
0.0000001
 43
0.0000001
 44
0.0000000001
 12
-0.0316752317
 22
-0.2898186816
 32
0.0
 13
-0.1893585806
 23
0.2216735292
 33
0.0
 40
0.0
 40
0.0
 40
0.0
 40
0.0
 40
0.013236675
 40
0.0323531392
 40
0.0507409867
 40
0.0684739557
 40
0.0856228537
 40
0.1022571981
 40
0.1184467677
 40
0.1342433703
 40
0.1496921393
 40
0.1648402433
 40
0.1797280614
 40
0.1943895273
 40
0.2088599508
 40
0.2231747022
 40
0.2373614592
 40
0.2514477512
 40
0.2654622422
 40
0.2794256005
 40
0.2933567385
 40
0.3072767447
 40
0.321205023
 40
0.3351574954
 40
0.34915148
 40
0.3631991281
 40
0.3773075484
 40
0.3914850302
 40
0.4057346758
 40
0.4200542836
 40
0.4344417127
 40
0.4488850115
 40
0.4633696961
 40
0.4778765035
 40
0.4923746913
 40
0.5068333985
 40
0.5212135601
 40
0.5354734109
 40
0.5495651318
 40
0.563432879
 40
0.577026304
 40
0.5902944159
 40
0.6031902005
 40
0.6156661323
 40
0.6276795462
 40
0.639204204
 40
0.6502179723
 40
0.6607103312
 40
0.6706742143
 40
0.6801111145
 40
0.6890370625
 40
0.6974697134
 40
0.7054349437
 40
0.7129590433
 40
0.7200670205
 40
0.7267918979
 40
0.7331654808
 40
0.7392151531
 40
0.7449713646
 40
0.7504689694
 40
0.7557329213
 40
0.7607901753
 40
0.7656724329
 40
0.7704042812
 40
0.7750145149
 40
0.7795312811
 40
0.7839729012
 40
0.7883615787
 40
0.7927201562
 40
0.7970600966
 40
0.8013975847
 40
0.8057584362
 40
0.8101611069
 40
0.8146296389
 40
0.8192014315
 40
0.8239080677
 40
0.8287909756
 40
0.8338984307
 40
0.8392725112
 40
0.8449535795
 40
0.8509981672
 40
0.8574582772
 40
0.8643810542
 40
0.8718740891
 40
0.8801084844
 40
0.8892302792
 40
0.8991369168
 40
0.9095838544
 40
0.9205482678
 40
0.9321782478
 40
0.9446227722
 40
0.9580005784
 40
0.9720552993
 40
0.9862400861
 40
1.0
 40
1.0
 40
1.0
 40
1.0
 10
11.6084453449
 20
7.4946538597
 30
0.0
 10
11.6083055866
 20
7.4933751144
 30
0.0
 10
11.6079442878
 20
7.4902517216
 30
0.0
 10
11.6073021713
 20
7.4853624319
 30
0.0
 10
11.6065082077
 20
7.4800532253
 30
0.0
 10
11.6056548499
 20
7.474947041
 30
0.0
 10
11.604748378
 20
7.4700232157
 30
0.0
 10
11.6037935889
 20
7.4652614356
 30
0.0
 10
11.6027942207
 20
7.4606432039
 30
0.0
 10
11.6017533038
 20
7.456152368
 30
0.0
 10
11.6006733738
 20
7.4517749437
 30
0.0
 10
11.5995563803
 20
7.4474980605
 30
0.0
 10
11.5984037971
 20
7.4433099455
 30
0.0
 10
11.5972167614
 20
7.4391999809
 30
0.0
 10
11.5959959811
 20
7.4351580634
 30
0.0
 10
11.5947418244
 20
7.4311747244
 30
0.0
 10
11.5934544359
 20
7.4272412687
 30
0.0
 10
11.5921337728
 20
7.4233496682
 30
0.0
 10
11.5907796628
 20
7.4194925869
 30
0.0
 10
11.5893919133
 20
7.4156635203
 30
0.0
 10
11.5879703365
 20
7.4118566884
 30
0.0
 10
11.5865145661
 20
7.4080664576
 30
0.0
 10
11.5850241323
 20
7.4042874988
 30
0.0
 10
11.583498513
 20
7.4005148556
 30
0.0
 10
11.5819372813
 20
7.3967442553
 30
0.0
 10
11.5803401909
 20
7.3929722434
 30
0.0
 10
11.5787072155
 20
7.3891961946
 30
0.0
 10
11.5770385677
 20
7.3854143103
 30
0.0
 10
11.5753347213
 20
7.3816256409
 30
0.0
 10
11.5735964686
 20
7.3778301835
 30
0.0
 10
11.5718251127
 20
7.3740292911
 30
0.0
 10
11.5700223625
 20
7.3702254292
 30
0.0
 10
11.5681905361
 20
7.3664226038
 30
0.0
 10
11.5663326318
 20
7.3626265115
 30
0.0
 10
11.5644522326
 20
7.3588443306
 30
0.0
 10
11.5625536554
 20
7.355085024
 30
0.0
 10
11.5606415709
 20
7.3513585817
 30
0.0
 10
11.5587212731
 20
7.3476765389
 30
0.0
 10
11.5567987017
 20
7.3440519523
 30
0.0
 10
11.5548801224
 20
7.3404986785
 30
0.0
 10
11.5529719327
 20
7.3370308913
 30
0.0
 10
11.5510801572
 20
7.3336620391
 30
0.0
 10
11.5492108001
 20
7.330405328
 30
0.0
 10
11.5473696806
 20
7.3272732113
 30
0.0
 10
11.5455619193
 20
7.3242762962
 30
0.0
 10
11.5437917542
 20
7.3214229361
 30
0.0
 10
11.5420622092
 20
7.3187186661
 30
0.0
 10
11.5403757658
 20
7.3161672672
 30
0.0
 10
11.5387341286
 20
7.3137703945
 30
0.0
 10
11.5371380258
 20
7.311527356
 30
0.0
 10
11.5355871988
 20
7.3094353171
 30
0.0
 10
11.5340802827
 20
7.3074894099
 30
0.0
 10
11.5326155064
 20
7.3056839058
 30
0.0
 10
11.5311907767
 20
7.3040124935
 30
0.0
 10
11.5298036192
 20
7.3024683394
 30
0.0
 10
11.5284511823
 20
7.3010442811
 30
0.0
 10
11.5271303451
 20
7.2997331377
 30
0.0
 10
11.5258380183
 20
7.2985280922
 30
0.0
 10
11.5245707129
 20
7.2974223567
 30
0.0
 10
11.5233248582
 20
7.2964096326
 30
0.0
 10
11.5220968836
 20
7.2954842103
 30
0.0
 10
11.5208832189
 20
7.2946409523
 30
0.0
 10
11.5196800499
 20
7.2938752175
 30
0.0
 10
11.5184831356
 20
7.2931828268
 30
0.0
 10
11.5172882719
 20
7.2925604006
 30
0.0
 10
11.5160915694
 20
7.2920055226
 30
0.0
 10
11.5148895986
 20
7.2915166601
 30
0.0
 10
11.513679371
 20
7.2910930066
 30
0.0
 10
11.512458545
 20
7.2907344764
 30
0.0
 10
11.5112254465
 20
7.2904414755
 30
0.0
 10
11.5099782555
 20
7.2902145396
 30
0.0
 10
11.508714579
 20
7.2900544187
 30
0.0
 10
11.5074313623
 20
7.2899622059
 30
0.0
 10
11.5061245286
 20
7.2899394489
 30
0.0
 10
11.50478885
 20
7.2899885112
 30
0.0
 10
11.5034176235
 20
7.2901128852
 30
0.0
 10
11.5020034159
 20
7.2903174057
 30
0.0
 10
11.5005382533
 20
7.2906084668
 30
0.0
 10
11.4990148604
 20
7.2909937878
 30
0.0
 10
11.4974258435
 20
7.2914824093
 30
0.0
 10
11.495763641
 20
7.2920848074
 30
0.0
 10
11.4940209141
 20
7.2928127961
 30
0.0
 10
11.4921866639
 20
7.2936811887
 30
0.0
 10
11.4902408973
 20
7.2947118217
 30
0.0
 10
11.4881576811
 20
7.2959346575
 30
0.0
 10
11.4859314009
 20
7.2973724234
 30
0.0
 10
11.4835902374
 20
7.2990241581
 30
0.0
 10
11.4811718692
 20
7.3008730702
 30
0.0
 10
11.478690881
 20
7.3029124069
 30
0.0
 10
11.4761319811
 20
7.3051597354
 30
0.0
 10
11.4734716554
 20
7.3076443679
 30
0.0
 10
11.4707168024
 20
7.3103706054
 30
0.0
 10
11.4679199678
 20
7.3132926695
 30
0.0
 10
11.4651714338
 20
7.3163104917
 30
0.0
 10
11.4633872419
 20
7.3183581067
 30
0.0
 10
11.4625187226
 20
7.319374843
 30
0.0
 11
11.6084453449
 21
7.4946538597
 31
0.0
 11
11.6080018942
 21
7.4908203504
 31
0.0
 11
11.6072762019
 21
7.4852945765
 31
0.0
 11
11.6064833882
 21
7.4799927245
 31
0.0
 11
11.6056312832
 21
7.474893553
 31
0.0
 11
11.6047261767
 21
7.4699765667
 31
0.0
 11
11.6037728821
 21
7.4652216014
 31
0.0
 11
11.6027747564
 21
7.4606084317
 31
0.0
 11
11.6017350211
 21
7.4561219872
 31
0.0
 11
11.6006563911
 21
7.4517491116
 31
0.0
 11
11.5995406007
 21
7.4474761052
 31
0.0
 11
11.5983891119
 21
7.4432912332
 31
0.0
 11
11.5972032542
 21
7.4391846137
 31
0.0
 11
11.595983699
 21
7.4351460212
 31
0.0
 11
11.5947305861
 21
7.4311652698
 31
0.0
 11
11.5934442696
 21
7.4272343671
 31
0.0
 11
11.5921247446
 21
7.423345404
 31
0.0
 11
11.5907715452
 21
7.4194902078
 31
0.0
 11
11.5893846688
 21
7.4156628502
 31
0.0
 11
11.587964056
 21
7.4118579112
 31
0.0
 11
11.5865092082
 21
7.4080694065
 31
0.0
 11
11.5850195867
 21
7.4042918468
 31
0.0
 11
11.5834948395
 21
7.4005207183
 31
0.0
 11
11.5819342957
 21
7.3967511597
 31
0.0
 11
11.5803377036
 21
7.3929797322
 31
0.0
 11
11.578705267
 21
7.3892043701
 31
0.0
 11
11.5770369469
 21
7.38542271
 31
0.0
 11
11.5753332018
 21
7.3816337974
 31
0.0
 11
11.5735950304
 21
7.3778381086
 31
0.0
 11
11.5718233256
 21
7.3740361304
 31
0.0
 11
11.5700200824
 21
7.3702309763
 31
0.0
 11
11.5681875149
 21
7.3664264608
 31
0.0
 11
11.5663283231
 21
7.3626277029
 31
0.0
 11
11.5644465619
 21
7.3588428805
 31
0.0
 11
11.5625461863
 21
7.3550802607
 31
0.0
 11
11.5606320945
 21
7.3513503199
 31
0.0
 11
11.5587094195
 21
7.3476643117
 31
0.0
 11
11.5567839977
 21
7.3440351337
 31
0.0
 11
11.5548627042
 21
7.3404778098
 31
0.0
 11
11.5529516526
 21
7.3370059929
 31
0.0
 11
11.5510570852
 21
7.3336335284
 31
0.0
 11
11.5491847963
 21
7.330373245
 31
0.0
 11
11.5473408731
 21
7.3272380494
 31
0.0
 11
11.545531033
 21
7.3242395071
 31
0.0
 11
11.5437589244
 21
7.3213849346
 31
0.0
 11
11.5420279849
 21
7.3186804744
 31
0.0
 11
11.5403402987
 21
7.3161292254
 31
0.0
 11
11.5386978741
 21
7.3137332414
 31
0.0
 11
11.5371018143
 21
7.311492281
 31
0.0
 11
11.5355511697
 21
7.309402464
 31
0.0
 11
11.5340449856
 21
7.3074594177
 31
0.0
 11
11.5325810518
 21
7.3056567949
 31
0.0
 11
11.5311571801
 21
7.3039881489
 31
0.0
 11
11.529771505
 21
7.3024473123
 31
0.0
 11
11.5284205955
 21
7.3010264348
 31
0.0
 11
11.5271011115
 21
7.2997181116
 31
0.0
 11
11.5258104836
 21
7.2985160291
 31
0.0
 11
11.5245453387
 21
7.2974134604
 31
0.0
 11
11.5233010496
 21
7.2964031984
 31
0.0
 11
11.52207493
 21
7.2954802703
 31
0.0
 11
11.5208636402
 21
7.2946396665
 31
0.0
 11
11.5196624156
 21
7.2938760846
 31
0.0
 11
11.5184679383
 21
7.2931859299
 31
0.0
 11
11.5172756034
 21
7.2925655587
 31
0.0
 11
11.5160807088
 21
7.2920121675
 31
0.0
 11
11.5148810191
 21
7.2915247856
 31
0.0
 11
11.5136732561
 21
7.291102447
 31
0.0
 11
11.5124539504
 21
7.2907447092
 31
0.0
 11
11.5112229043
 21
7.2904524273
 31
0.0
 11
11.5099787594
 21
7.2902261574
 31
0.0
 11
11.5087174811
 21
7.2900663292
 31
0.0
 11
11.5074372357
 21
7.289974193
 31
0.0
 11
11.5061346801
 21
7.2899512457
 31
0.0
 11
11.5048027014
 21
7.2899997747
 31
0.0
 11
11.5034360884
 21
7.2901231949
 31
0.0
 11
11.5020270839
 21
7.2903262807
 31
0.0
 11
11.5005664325
 21
7.2906156021
 31
0.0
 11
11.499047264
 21
7.2909988377
 31
0.0
 11
11.4974638219
 21
7.2914845453
 31
0.0
 11
11.4958065788
 21
7.2920837459
 31
0.0
 11
11.4940681547
 21
7.2928083245
 31
0.0
 11
11.4922432831
 21
7.293670447
 31
0.0
 11
11.4903119763
 21
7.2946913257
 31
0.0
 11
11.48824057
 21
7.2959047673
 31
0.0
 11
11.4860052517
 21
7.2973454656
 31
0.0
 11
11.4836437989
 21
7.2990083413
 31
0.0
 11
11.4812226977
 21
7.3008562013
 31
0.0
 11
11.4787518024
 21
7.3028841893
 31
0.0
 11
11.476202692
 21
7.30511987
 31
0.0
 11
11.4735496356
 21
7.3075945966
 31
0.0
 11
11.4707758312
 21
7.3103363745
 31
0.0
 11
11.4679410299
 21
7.3132950174
 31
0.0
 11
11.4651551132
 21
7.3163512443
 31
0.0
 11
11.4625187226
 21
7.319374843
 31
0.0
  0
ENDSEC
  0
SECTION
  2
OBJECTS
  0
DICTIONARY
  5
C
100
AcDbDictionary
280
0
281
1
  3
ACAD_GROUP
350
D
  3
ACAD_MLINESTYLE
350
17
  3
ACAD_LAYOUT
350
1A
  3
ACAD_PLOTSETTINGS
350
19
  3
ACAD_PLOTSTYLENAME
350
E
  0
DICTIONARY
  5
D
102
{ACAD_REACTORS
330
C
102
}
100
AcDbDictionary
280
0
281
1
  0
ACDBDICTIONARYWDFLT
  5
E
102
{ACAD_REACTORS
330
C
102
}
100
AcDbDictionary
281
1
  3
Normal
350
F
100
AcDbDictionaryWithDefault
340
F
  0
DICTIONARY
  5
17
102
{ACAD_REACTORS
330
C
102
}
100
AcDbDictionary
280
0
281
1
  3
Standard
350
18
  0
DICTIONARY
  5
19
102
{ACAD_REACTORS
330
C
102
}
100
AcDbDictionary
281
1
  0
DICTIONARY
  5
1A
102
{ACAD_REACTORS
330
C
102
}
100
AcDbDictionary
281
1
  3
Layout1
350
1E
  3
Model
350
22
  0
ACDBPLACEHOLDER
  5
F
102
{ACAD_REACTORS
330
E
102
}
  0
MLINESTYLE
  5
18
102
{ACAD_REACTORS
330
17
102
}
100
AcDbMlineStyle
  2
STANDARD
 70
0
  3

 62
256
 51
90.0
 52
90.0
 71
2
 49
0.5
 62
256
  6
BYLAYER
 49
-0.5
 62
256
  6
BYLAYER
  0
LAYOUT
  5
1E
102
{ACAD_REACTORS
330
1A
102
}
100
AcDbPlotSettings
  1

  2

  4

  6

 40
0.0
 41
0.0
 42
0.0
 43
0.0
 44
0.0
 45
0.0
 46
0.0
 47
0.0
 48
0.0
 49
0.0
140
0.0
141
0.0
142
1.0
143
1.0
 70
0
 72
0
 73
0
 74
0
  7

 75
0
147
1.0
148
0.0
149
0.0
100
AcDbLayout
  1
Layout1
 70
0
 71
0
 10
0.0
 20
0.0
 11
0.0
 21
0.0
 12
0.0
 22
0.0
 32
0.0
 14
0.0
 24
0.0
 34
0.0
 15
0.0
 25
0.0
 35
0.0
146
0.0
 13
0.0
 23
0.0
 33
0.0
 16
0.0
 26
0.0
 36
0.0
 17
0.0
 27
0.0
 37
0.0
 76
0
330
1B
331
0
345
0
346
0
  0
LAYOUT
  5
22
102
{ACAD_REACTORS
330
1A
102
}
100
AcDbPlotSettings
  1

  2

  4

  6

 40
0.0
 41
0.0
 42
0.0
 43
0.0
 44
0.0
 45
0.0
 46
0.0
 47
0.0
 48
0.0
 49
0.0
140
0.0
141
0.0
142
1.0
143
1.0
 70
0
 72
0
 73
0
 74
0
  7

 75
0
147
1.0
148
0.0
149
0.0
100
AcDbLayout
  1
Model
 70
0
 71
0
 10
0.0
 20
0.0
 11
0.0
 21
0.0
 12
0.0
 22
0.0
 32
0.0
 14
0.0
 24
0.0
 34
0.0
 15
0.0
 25
0.0
 35
0.0
146
0.0
 13
0.0
 23
0.0
 33
0.0
 16
0.0
 26
0.0
 36
0.0
 17
0.0
 27
0.0
 37
0.0
 76
0
330
1F
331
0
345
0
346
0
  0
ENDSEC
  0
EOF
