999
DXF file: EB5_assy_2.dxf
999
Pro/ENGINEER 2014200 by Parametric Technology Corporation
  0
SECTION
  2
HEADER
  9
$ACADVER
  1
AC1021
  9
$DWGCODEPAGE
  3
ANSI_1252
  9
$EXTMAX
 10
22.0
 20
17.0
 30
0.0
  9
$EXTMIN
 10
0.0
 20
0.0
 30
0.0
  9
$LIMMIN
 10
0.0
 20
0.0
  9
$LIMMAX
 10
22.0
 20
17.0
  9
$VIEWCTR
 10
11.0
 20
8.5
  9
$VIEWSIZE
 40
17.0
  9
$CLAYER
  8
0
  9
$LTSCALE
 40
1.21
  9
$CELTYPE
  6
BYLAYER
  9
$DIMSCALE
 40
1.0
  9
$DIMASZ
 40
0.1875
  9
$DIMEXO
 40
0.0625
  9
$DIMDLI
 40
0.836
  9
$DIMEXE
 40
0.125
  9
$DIMCEN
 40
0.198
  9
$DIMLFAC
 40
1.0
  9
$DIMBLK
  1
_FILLED
  9
$DIMTXT
 40
0.1
  9
$DIMTOL
 70
0
  9
$DIMLIM
 70
0
  9
$DIMTFAC
 40
1.0
  9
$DIMGAP
 40
0.09
  9
$DIMDSEP
 70
46
  9
$AUNITS
 70
0
  9
$PDMODE
 70
3
  9
$PDSIZE
 40
0.3125
  9
$HANDSEED
  5
4A1
  9
$TILEMODE
 70
1
  9
$MEASUREMENT
 70
0
  9
$INSUNITS
 70
1
  0
ENDSEC
  0
SECTION
  2
CLASSES
  0
CLASS
  1
ACDBDICTIONARYWDFLT
  2
AcDbDictionaryWithDefault
  3
AutoCAD 2000
 90
0
 91
1
280
0
281
0
  0
CLASS
  1
ACDBPLACEHOLDER
  2
AcDbPlaceHolder
  3
AutoCAD 2000
 90
0
 91
1
280
0
281
0
  0
CLASS
  1
LAYOUT
  2
AcDbLayout
  3
AutoCAD 2000
 90
0
 91
0
280
0
281
0
  0
CLASS
  1
RASTERVARIABLES
  2
AcDbRasterVariables
  3
ISM
 90
0
 91
1
280
0
281
0
  0
CLASS
  1
IMAGEDEF
  2
AcDbRasterImageDef
  3
ISM
 90
0
 91
1
280
0
281
0
  0
CLASS
  1
IMAGEDEF_REACTOR
  2
AcDbRasterImageDefReactor
  3
ISM
 90
0
 91
1
280
0
281
0
  0
CLASS
  1
IMAGE
  2
AcDbRasterImage
  3
ISM
 90
127
 91
1
280
0
281
1
  0
CLASS
  1
TABLESTYLE
  2
AcDbTableStyle
  3
ObjectDBX Classes
 90
2047
 91
1
280
0
281
0
  0
CLASS
  1
ACAD_TABLE
  2
AcDbTable
  3
ObjectDBX Classes
 90
1025
 91
2
280
0
281
1
  0
ENDSEC
  0
SECTION
  2
TABLES
  0
TABLE
  2
VPORT
  5
8
100
AcDbSymbolTable
 70
2
  0
VPORT
  5
1F4
100
AcDbSymbolTableRecord
100
AcDbViewportTableRecord
  2
*ACTIVE
 70
0
 10
0.0
 20
0.0
 11
1.0
 21
1.0
 12
11.0
 22
8.5
 13
0.0
 23
0.0
 14
1.0
 24
1.0
 15
0.0
 25
0.0
 16
0.0
 26
0.0
 36
1.0
 17
0.0
 27
0.0
 37
0.0
 40
17.0
 41
1.2941176471
 42
50.0
 43
0.0
 44
0.0
 50
0.0
 51
0.0
 71
0
 72
100
 73
1
 74
1
 75
0
 76
0
 77
0
 78
0
  0
ENDTAB
  0
TABLE
  2
LTYPE
  5
5
100
AcDbSymbolTable
 70
6
  0
LTYPE
  5
14
100
AcDbSymbolTableRecord
100
AcDbLinetypeTableRecord
  2
BYBLOCK
 70
0
  3

 72
65
 73
0
 40
0.0
  0
LTYPE
  5
15
100
AcDbSymbolTableRecord
100
AcDbLinetypeTableRecord
  2
BYLAYER
 70
0
  3

 72
65
 73
0
 40
0.0
  0
LTYPE
  5
16
100
AcDbSymbolTableRecord
100
AcDbLinetypeTableRecord
  2
CONTINUOUS
 70
64
  3
Solid line
 72
65
 73
0
 40
0.0
  0
LTYPE
  5
1F5
100
AcDbSymbolTableRecord
100
AcDbLinetypeTableRecord
  2
CENTER
 70
64
  3
____ _ ____ _ ____ _ ____ _ ____ _ ____ _ ____
 72
65
 73
4
 40
0.6
 49
0.375
 74
0
 49
-0.075
 74
0
 49
0.075
 74
0
 49
-0.075
 74
0
  0
LTYPE
  5
1F6
100
AcDbSymbolTableRecord
100
AcDbLinetypeTableRecord
  2
HIDDEN
 70
64
  3
- - - - - - - - - - - - - - - - - - - -
 72
65
 73
2
 40
0.2
 49
0.1
 74
0
 49
-0.1
 74
0
  0
LTYPE
  5
1F7
100
AcDbSymbolTableRecord
100
AcDbLinetypeTableRecord
  2
PHANTOM
 70
64
  3
_____ _ _ _____ _ _ _____ _ _ _____
 72
65
 73
6
 40
0.8
 49
0.45
 74
0
 49
-0.05
 74
0
 49
0.1
 74
0
 49
-0.05
 74
0
 49
0.1
 74
0
 49
-0.05
 74
0
  0
LTYPE
  5
1F8
100
AcDbSymbolTableRecord
100
AcDbLinetypeTableRecord
  2
DOT
 70
64
  3
. . . . . . . . . . . . . . . . . . . .
 72
65
 73
2
 40
0.2
 49
0.1
 74
0
 49
-0.1
 74
0
  0
LTYPE
  5
1F9
100
AcDbSymbolTableRecord
100
AcDbLinetypeTableRecord
  2
DASHED
 70
64
  3
- - - - - - - - - - - - - - - - - - - -
 72
65
 73
2
 40
0.2
 49
0.1
 74
0
 49
-0.1
 74
0
  0
ENDTAB
  0
TABLE
  2
LAYER
  5
2
100
AcDbSymbolTable
 70
36
  0
LAYER
  5
10
100
AcDbSymbolTableRecord
100
AcDbLayerTableRecord
  2
0
 70
0
 62
7
  6
CONTINUOUS
370
-3
390
F
  0
LAYER
  5
1FA
100
AcDbSymbolTableRecord
100
AcDbLayerTableRecord
  2
DEFAULT_1
 70
0
 62
7
  6
CENTER
370
-3
390
F
  0
LAYER
  5
1FB
100
AcDbSymbolTableRecord
100
AcDbLayerTableRecord
  2
DEFAULT_2
 70
0
 62
8
  6
HIDDEN
370
-3
390
F
  0
LAYER
  5
1FC
100
AcDbSymbolTableRecord
100
AcDbLayerTableRecord
  2
DEFAULT_3
 70
0
 62
7
  6
PHANTOM
370
-3
390
F
  0
LAYER
  5
1FD
100
AcDbSymbolTableRecord
100
AcDbLayerTableRecord
  2
DATUM_PLANES
 70
0
 62
7
  6
CONTINUOUS
370
-3
390
F
  0
LAYER
  5
1FE
100
AcDbSymbolTableRecord
100
AcDbLayerTableRecord
  2
PORT_AREAS
 70
0
 62
7
  6
CONTINUOUS
370
-3
390
F
  0
LAYER
  5
1FF
100
AcDbSymbolTableRecord
100
AcDbLayerTableRecord
  2
SUNNBOMCOSMETIC
 70
0
 62
7
  6
CONTINUOUS
370
-3
390
F
  0
LAYER
  5
200
100
AcDbSymbolTableRecord
100
AcDbLayerTableRecord
  2
SUNNBOMSTAMPING
 70
0
 62
7
  6
CONTINUOUS
370
-3
390
F
  0
LAYER
  5
201
100
AcDbSymbolTableRecord
100
AcDbLayerTableRecord
  2
THREADS
 70
0
 62
7
  6
CONTINUOUS
370
-3
390
F
  0
ENDTAB
  0
TABLE
  2
STYLE
  5
3
100
AcDbSymbolTable
 70
1
  0
STYLE
  5
11
100
AcDbSymbolTableRecord
100
AcDbTextStyleTableRecord
  2
STANDARD
 70
0
 40
0.0
 41
0.8
 50
0.0
 71
0
 42
0.2
  3
txt
  4

  0
STYLE
  5
202
100
AcDbSymbolTableRecord
100
AcDbTextStyleTableRecord
  2
TEXTSTYLE_1
 70
0
 40
0.0
 41
0.8
 50
0.0
 71
0
 42
0.2
  3
gdt
  4

  0
ENDTAB
  0
TABLE
  2
VIEW
  5
6
100
AcDbSymbolTable
 70
0
  0
ENDTAB
  0
TABLE
  2
UCS
  5
7
100
AcDbSymbolTable
 70
0
  0
ENDTAB
  0
TABLE
  2
APPID
  5
9
100
AcDbSymbolTable
 70
1
  0
APPID
  5
203
100
AcDbSymbolTableRecord
100
AcDbRegAppTableRecord
  2
ACAD
 70
0
  0
ENDTAB
  0
TABLE
  2
BLOCK_RECORD
  5
1
100
AcDbSymbolTable
 70
0
  0
BLOCK_RECORD
  5
204
100
AcDbSymbolTableRecord
100
AcDbBlockTableRecord
  2
*Model_Space
  0
BLOCK_RECORD
  5
205
100
AcDbSymbolTableRecord
100
AcDbBlockTableRecord
  2
*Paper_Space
  0
BLOCK_RECORD
  5
206
100
AcDbSymbolTableRecord
100
AcDbBlockTableRecord
  2
SUN_FIRST_THIRD_ANGLE_BL0
  0
BLOCK_RECORD
  5
207
100
AcDbSymbolTableRecord
100
AcDbBlockTableRecord
  2
*T1
  0
BLOCK_RECORD
  5
208
100
AcDbSymbolTableRecord
100
AcDbBlockTableRecord
  2
*T2
  0
ENDTAB
  0
TABLE
  2
DIMSTYLE
  5
A
100
AcDbSymbolTable
 70
1
100
AcDbDimStyleTable
 71
0
  0
DIMSTYLE
105
209
100
AcDbSymbolTableRecord
100
AcDbDimStyleTableRecord
  2
STANDARD
 70
0
  3

  4

 40
1.0
 41
0.1875
 42
0.0625
 43
0.38
 44
0.125
 45
0.0
 46
0.0
 47
0.001
 48
0.001
140
0.1
141
0.09
142
0.0
143
25.4
144
1.0
145
0.0
146
1.0
147
0.09
 71
0.0
 72
0.0
 73
1
 74
1
 75
0
 76
0
 77
0
 78
4
170
0
171
2
172
0
173
0
174
0
175
0
176
0
177
0
178
0
270
2
271
3
272
3
273
2
274
2
275
0
280
0
281
0
282
0
283
1
284
4
285
0
286
0
287
3
288
0
340
11
278
46
  0
ENDTAB
  0
ENDSEC
  0
SECTION
  2
BLOCKS
  0
BLOCK
  5
20
100
AcDbEntity
  8
0
100
AcDbBlockBegin
  2
*Model_Space
 70
0
 10
0.0
 20
0.0
 30
0.0
  3
*Model_Space
  1

  0
ENDBLK
  5
21
100
AcDbEntity
  8
0
100
AcDbBlockEnd
  0
BLOCK
  5
1C
100
AcDbEntity
  8
0
100
AcDbBlockBegin
  2
*Paper_Space
 70
0
 10
0.0
 20
0.0
 30
0.0
  3
*Paper_Space
  1

  0
ENDBLK
  5
1D
100
AcDbEntity
  8
0
100
AcDbBlockEnd
  0
BLOCK
  5
20A
100
AcDbEntity
  8
0
100
AcDbBlockBegin
 62
2
  6
CONTINUOUS
  2
SUN_FIRST_THIRD_ANGLE_BL0
 70
64
 10
20.4816717061
 20
1.2289683772
  3
SUN_FIRST_THIRD_ANGLE_BL0
  1

  0
TEXT
  5
20B
100
AcDbEntity
  8
0
100
AcDbText
 62
2
  6
CONTINUOUS
 10
19.4750896608
 20
1.4136269581
  7
STANDARD
 40
0.08
  1
FIRST ANGLE
 41
0.8
 72
0
100
AcDbText
  0
TEXT
  5
20C
100
AcDbEntity
  8
0
100
AcDbText
 62
2
  6
CONTINUOUS
 10
20.7842537513
 20
1.4047600029
  7
STANDARD
 40
0.08
  1
THIRD ANGLE
 41
0.8
 72
0
100
AcDbText
  0
LINE
  5
20D
100
AcDbEntity
  8
0
100
AcDbLine
 62
7
  6
CONTINUOUS
 10
19.4767170086
 20
1.1727031207
 11
19.6334271527
 21
1.1717972817
  0
LINE
  5
20E
100
AcDbEntity
  8
0
100
AcDbLine
 62
7
  6
CONTINUOUS
 10
19.6596964832
 20
1.1717972817
 11
19.6950230232
 21
1.171593082
  0
LINE
  5
20F
100
AcDbEntity
  8
0
100
AcDbLine
 62
7
  6
CONTINUOUS
 10
19.7194818561
 20
1.1708914427
 11
19.8852396156
 21
1.1699333054
  0
LINE
  5
210
100
AcDbEntity
  8
0
100
AcDbLine
 62
7
  6
CONTINUOUS
 10
19.4758111696
 20
1.2723454088
 11
19.88525039
 21
1.3511534004
  0
LINE
  5
211
100
AcDbEntity
  8
0
100
AcDbLine
 62
7
  6
CONTINUOUS
 10
19.88525039
 20
1.3511534004
 11
19.8831348489
 21
0.9851647912
  0
LINE
  5
212
100
AcDbEntity
  8
0
100
AcDbLine
 62
7
  6
CONTINUOUS
 10
19.8831348489
 20
0.9851647912
 11
19.4767170086
 21
1.0658141206
  0
LINE
  5
213
100
AcDbEntity
  8
0
100
AcDbLine
 62
7
  6
CONTINUOUS
 10
19.4767170086
 20
1.0658141206
 11
19.4779056764
 21
1.2714536432
  0
CIRCLE
  5
214
100
AcDbEntity
  8
0
100
AcDbCircle
 62
7
  6
CONTINUOUS
 10
20.2068232291
 20
1.1717972817
 40
0.175742101
  0
CIRCLE
  5
215
100
AcDbEntity
  8
0
100
AcDbCircle
 62
7
  6
CONTINUOUS
 10
20.2068232291
 20
1.1717972817
 40
0.1005522074
  0
LINE
  5
216
100
AcDbEntity
  8
0
100
AcDbLine
 62
7
  6
CONTINUOUS
 10
20.2077290681
 20
1.3756110529
 11
20.2071171714
 21
1.2379342989
  0
LINE
  5
217
100
AcDbEntity
  8
0
100
AcDbLine
 62
7
  6
CONTINUOUS
 10
20.2077290681
 20
1.2016899681
 11
20.2074674401
 21
1.1428236749
  0
LINE
  5
218
100
AcDbEntity
  8
0
100
AcDbLine
 62
7
  6
CONTINUOUS
 10
20.208634907
 20
1.101141841
 11
20.2080230104
 21
0.963465087
  0
LINE
  5
219
100
AcDbEntity
  8
0
100
AcDbLine
 62
7
  6
CONTINUOUS
 10
20.0066328138
 20
1.1745147986
 11
20.1443095678
 21
1.1739029019
  0
LINE
  5
21A
100
AcDbEntity
  8
0
100
AcDbLine
 62
7
  6
CONTINUOUS
 10
20.1832714155
 20
1.1727031207
 11
20.238153505
 21
1.172335442
  0
LINE
  5
21B
100
AcDbEntity
  8
0
100
AcDbLine
 62
7
  6
CONTINUOUS
 10
20.2756669918
 20
1.1717972817
 11
20.407916871
 21
1.1712095044
  0
CIRCLE
  5
21C
100
AcDbEntity
  8
0
100
AcDbCircle
 62
7
  6
CONTINUOUS
 10
20.7509457401
 20
1.1693297793
 40
0.1722024983
  0
CIRCLE
  5
21D
100
AcDbEntity
  8
0
100
AcDbCircle
 62
7
  6
CONTINUOUS
 10
20.7509457401
 20
1.1693297793
 40
0.0985164967
  0
LINE
  5
21E
100
AcDbEntity
  8
0
100
AcDbLine
 62
7
  6
CONTINUOUS
 10
20.7169767782
 20
1.170462078
 11
20.7825395137
 21
1.1682766535
  0
LINE
  5
21F
100
AcDbEntity
  8
0
100
AcDbLine
 62
7
  6
CONTINUOUS
 10
20.8177513651
 20
1.1693297793
 11
20.947965719
 21
1.1693297793
  0
LINE
  5
220
100
AcDbEntity
  8
0
100
AcDbLine
 62
7
  6
CONTINUOUS
 10
20.6875370113
 20
1.170462078
 11
20.5573226574
 21
1.170462078
  0
LINE
  5
221
100
AcDbEntity
  8
0
100
AcDbLine
 62
7
  6
CONTINUOUS
 10
20.7486811426
 20
1.1987695462
 11
20.7486811426
 21
1.1432869085
  0
LINE
  5
222
100
AcDbEntity
  8
0
100
AcDbLine
 62
7
  6
CONTINUOUS
 10
20.7498134414
 20
1.1059210505
 11
20.7498134414
 21
0.9757066966
  0
LINE
  5
223
100
AcDbEntity
  8
0
100
AcDbLine
 62
7
  6
CONTINUOUS
 10
20.7486811426
 20
1.2338708068
 11
20.7486811426
 21
1.3640851607
  0
LINE
  5
224
100
AcDbEntity
  8
0
100
AcDbLine
 62
7
  6
CONTINUOUS
 10
21.0702539817
 20
1.2701043662
 11
21.4790138229
 21
1.3448360823
  0
LINE
  5
225
100
AcDbEntity
  8
0
100
AcDbLine
 62
7
  6
CONTINUOUS
 10
21.4790138229
 20
1.3448360823
 11
21.4790138229
 21
0.9779712941
  0
LINE
  5
226
100
AcDbEntity
  8
0
100
AcDbLine
 62
7
  6
CONTINUOUS
 10
21.4790138229
 20
0.9779712941
 11
21.069121683
 21
1.0617614
  0
LINE
  5
227
100
AcDbEntity
  8
0
100
AcDbLine
 62
7
  6
CONTINUOUS
 10
21.0702539817
 20
1.2701043662
 11
21.069121683
 21
1.0617614
  0
LINE
  5
228
100
AcDbEntity
  8
0
100
AcDbLine
 62
7
  6
CONTINUOUS
 10
21.4790138229
 20
1.1693297793
 11
21.3159628059
 21
1.1693297793
  0
LINE
  5
229
100
AcDbEntity
  8
0
100
AcDbLine
 62
7
  6
CONTINUOUS
 10
21.2876553377
 20
1.1693297793
 11
21.2502894796
 21
1.1693297793
  0
LINE
  5
22A
100
AcDbEntity
  8
0
100
AcDbLine
 62
7
  6
CONTINUOUS
 10
21.2208497126
 20
1.1659328831
 11
21.0713862804
 21
1.1659328831
  0
LINE
  5
22B
100
AcDbEntity
  8
0
100
AcDbLine
 62
7
  6
CONTINUOUS
 10
20.4796138713
 20
1.5284908897
 11
20.4766766948
 21
0.9294458646
  0
ENDBLK
  5
22C
100
AcDbEntity
  8
0
  6
BYBLOCK
 62
0
100
AcDbBlockEnd
  0
BLOCK
  5
22D
100
AcDbEntity
  8
0
100
AcDbBlockBegin
  2
*T1
 70
1
 10
0.0
 20
0.0
  3
*T1
  1

  0
LINE
  5
22E
100
AcDbEntity
  8
0
100
AcDbLine
 62
2
  6
CONTINUOUS
 10
9.275
 20
0.0
 11
-0.0
 21
0.0
  0
LINE
  5
22F
100
AcDbEntity
  8
0
100
AcDbLine
 62
2
  6
CONTINUOUS
 10
9.275
 20
0.0
 11
9.275
 21
1.25
  0
LINE
  5
230
100
AcDbEntity
  8
0
100
AcDbLine
 62
2
  6
CONTINUOUS
 10
9.275
 20
0.625
 11
-0.0
 21
0.625
  0
LINE
  5
231
100
AcDbEntity
  8
0
100
AcDbLine
 62
2
  6
CONTINUOUS
 10
9.275
 20
1.25
 11
-0.0
 21
1.25
  0
LINE
  5
232
100
AcDbEntity
  8
0
100
AcDbLine
 62
2
  6
CONTINUOUS
 10
6.8
 20
0.0
 11
6.8
 21
1.25
  0
LINE
  5
233
100
AcDbEntity
  8
0
100
AcDbLine
 62
2
  6
CONTINUOUS
 10
6.4
 20
0.0
 11
6.4
 21
0.625
  0
LINE
  5
234
100
AcDbEntity
  8
0
100
AcDbLine
 62
2
  6
CONTINUOUS
 10
5.9
 20
0.0
 11
5.9
 21
0.625
  0
LINE
  5
235
100
AcDbEntity
  8
0
100
AcDbLine
 62
2
  6
CONTINUOUS
 10
5.2
 20
0.0
 11
5.2
 21
0.625
  0
LINE
  5
236
100
AcDbEntity
  8
0
100
AcDbLine
 62
2
  6
CONTINUOUS
 10
4.1
 20
0.0
 11
4.1
 21
1.25
  0
LINE
  5
237
100
AcDbEntity
  8
0
100
AcDbLine
 62
2
  6
CONTINUOUS
 10
-0.0
 20
0.0
 11
-0.0
 21
1.25
  0
MTEXT
  5
238
100
AcDbEntity
  8
0
100
AcDbMText
 62
2
  6
CONTINUOUS
  7
STANDARD
 71
2
 72
1
 10
6.6
 20
0.325
 30
0.0
 11
1.0
 21
0.0
 31
0.0
 44
0.9
  1
2
 40
0.125
 41
0.2
  0
MTEXT
  5
239
100
AcDbEntity
  8
0
100
AcDbMText
 62
2
  6
CONTINUOUS
  7
STANDARD
 71
2
 72
1
 10
6.15
 20
0.325
 30
0.0
 11
1.0
 21
0.0
 31
0.0
 44
0.9
  1
C
 40
0.125
 41
0.2
  0
MTEXT
  5
23A
100
AcDbEntity
  8
0
100
AcDbMText
 62
2
  6
CONTINUOUS
  7
STANDARD
 71
2
 72
1
 10
5.55
 20
0.325
 30
0.0
 11
1.0
 21
0.0
 31
0.0
 44
0.9
  1
1.000
 40
0.125
 41
1.0
  0
MTEXT
  5
23B
100
AcDbEntity
  8
0
100
AcDbMText
 62
2
  6
CONTINUOUS
  7
STANDARD
 71
2
 72
1
 10
4.65
 20
0.325
 30
0.0
 11
1.0
 21
0.0
 31
0.0
 44
0.9
  1
Jul-25-19
 40
0.125
 41
1.8
  0
MTEXT
  5
23C
100
AcDbEntity
  8
0
100
AcDbMText
 62
2
  6
CONTINUOUS
  7
STANDARD
 71
2
 72
1
 10
2.05
 20
0.4625
 30
0.0
 11
1.0
 21
0.0
 31
0.0
 44
0.9
  1
T-11A Sandwich ISO 03\P(See Technical Data for Body Features)
 40
0.125
 41
7.6
  0
MTEXT
  5
23D
100
AcDbEntity
  8
0
100
AcDbMText
 62
2
  6
CONTINUOUS
  7
STANDARD
 71
1
 72
1
 10
6.45
 20
0.5625
 30
0.0
 11
1.0
 21
0.0
 31
0.0
 44
0.9
  1
SHEET
 40
0.06
 41
0.48
  0
MTEXT
  5
23E
100
AcDbEntity
  8
0
100
AcDbMText
 62
2
  6
CONTINUOUS
  7
STANDARD
 71
1
 72
1
 10
5.95
 20
0.5625
 30
0.0
 11
1.0
 21
0.0
 31
0.0
 44
0.9
  1
DWG SIZE
 40
0.06
 41
0.768
  0
MTEXT
  5
23F
100
AcDbEntity
  8
0
100
AcDbMText
 62
2
  6
CONTINUOUS
  7
STANDARD
 71
1
 72
1
 10
5.25
 20
0.5625
 30
0.0
 11
1.0
 21
0.0
 31
0.0
 44
0.9
  1
SCALE
 40
0.06
 41
0.48
  0
MTEXT
  5
240
100
AcDbEntity
  8
0
100
AcDbMText
 62
2
  6
CONTINUOUS
  7
STANDARD
 71
1
 72
1
 10
4.15
 20
0.5625
 30
0.0
 11
1.0
 21
0.0
 31
0.0
 44
0.9
  1
DATE
 40
0.06
 41
0.384
  0
MTEXT
  5
241
100
AcDbEntity
  8
0
100
AcDbMText
 62
2
  6
CONTINUOUS
  7
STANDARD
 71
1
 72
1
 10
0.05
 20
0.5625
 30
0.0
 11
1.0
 21
0.0
 31
0.0
 44
0.9
  1
DESCRIPTION
 40
0.06
 41
1.056
  0
MTEXT
  5
242
100
AcDbEntity
  8
0
100
AcDbMText
 62
2
  6
CONTINUOUS
  7
STANDARD
 71
2
 72
1
 10
5.45
 20
1.0375
 30
0.0
 11
1.0
 21
0.0
 31
0.0
 44
0.9
  1
ALL DIMENSIONS IN INCH\PVIEWS ARE THIRD ANGLE
 40
0.12
 41
4.224
  0
MTEXT
  5
243
100
AcDbEntity
  8
0
100
AcDbMText
 62
2
  6
CONTINUOUS
  7
STANDARD
 71
2
 72
1
 10
2.05
 20
0.95
 30
0.0
 11
1.0
 21
0.0
 31
0.0
 44
0.9
  1
EB5
 40
0.125
 41
0.6
  0
MTEXT
  5
244
100
AcDbEntity
  8
0
100
AcDbMText
 62
2
  6
CONTINUOUS
  7
STANDARD
 71
1
 72
1
 10
0.05
 20
1.1875
 30
0.0
 11
1.0
 21
0.0
 31
0.0
 44
0.9
  1
MODEL
 40
0.06
 41
0.48
  0
ENDBLK
  5
245
100
AcDbEntity
  8
0
  6
BYBLOCK
 62
0
100
AcDbBlockEnd
  0
BLOCK
  5
246
100
AcDbEntity
  8
0
100
AcDbBlockBegin
  2
*T2
 70
1
 10
0.0
 20
0.0
  3
*T2
  1

  0
LINE
  5
247
100
AcDbEntity
  8
0
100
AcDbLine
 62
2
  6
CONTINUOUS
 10
0.0
 20
0.0
 11
9.055
 21
0.0
  0
LINE
  5
248
100
AcDbEntity
  8
0
100
AcDbLine
 62
2
  6
CONTINUOUS
 10
0.0
 20
0.0
 11
0.0
 21
-2.094
  0
LINE
  5
249
100
AcDbEntity
  8
0
100
AcDbLine
 62
2
  6
CONTINUOUS
 10
0.0
 20
-0.344
 11
9.055
 21
-0.344
  0
LINE
  5
24A
100
AcDbEntity
  8
0
100
AcDbLine
 62
2
  6
CONTINUOUS
 10
0.0
 20
-0.594
 11
9.055
 21
-0.594
  0
LINE
  5
24B
100
AcDbEntity
  8
0
100
AcDbLine
 62
2
  6
CONTINUOUS
 10
0.0
 20
-0.844
 11
9.055
 21
-0.844
  0
LINE
  5
24C
100
AcDbEntity
  8
0
100
AcDbLine
 62
2
  6
CONTINUOUS
 10
0.0
 20
-1.094
 11
9.055
 21
-1.094
  0
LINE
  5
24D
100
AcDbEntity
  8
0
100
AcDbLine
 62
2
  6
CONTINUOUS
 10
0.0
 20
-1.344
 11
9.055
 21
-1.344
  0
LINE
  5
24E
100
AcDbEntity
  8
0
100
AcDbLine
 62
2
  6
CONTINUOUS
 10
0.0
 20
-1.594
 11
9.055
 21
-1.594
  0
LINE
  5
24F
100
AcDbEntity
  8
0
100
AcDbLine
 62
2
  6
CONTINUOUS
 10
0.0
 20
-1.844
 11
9.055
 21
-1.844
  0
LINE
  5
250
100
AcDbEntity
  8
0
100
AcDbLine
 62
2
  6
CONTINUOUS
 10
0.0
 20
-2.094
 11
9.055
 21
-2.094
  0
LINE
  5
251
100
AcDbEntity
  8
0
100
AcDbLine
 62
2
  6
CONTINUOUS
 10
3.055
 20
0.0
 11
3.055
 21
-2.094
  0
LINE
  5
252
100
AcDbEntity
  8
0
100
AcDbLine
 62
2
  6
CONTINUOUS
 10
9.055
 20
0.0
 11
9.055
 21
-2.094
  0
MTEXT
  5
253
100
AcDbEntity
  8
0
100
AcDbMText
 62
2
  6
CONTINUOUS
  7
STANDARD
 71
2
 72
1
 10
1.5275
 20
-0.0995
 30
0.0
 11
1.0
 21
0.0
 31
0.0
 44
0.9
  1
Technical Data
 40
0.145
 41
3.248
  0
MTEXT
  5
254
100
AcDbEntity
  8
0
100
AcDbMText
 62
2
  6
CONTINUOUS
  7
STANDARD
 71
2
 72
1
 10
4.555
 20
-0.0995
 30
0.0
 11
1.0
 21
0.0
 31
0.0
 44
0.9
  1
U.S. Units
 40
0.145
 41
2.32
  0
MTEXT
  5
255
100
AcDbEntity
  8
0
100
AcDbMText
 62
2
  6
CONTINUOUS
  7
STANDARD
 71
2
 72
1
 10
7.555
 20
-0.0995
 30
0.0
 11
1.0
 21
0.0
 31
0.0
 44
0.9
  1
Metric Units
 40
0.145
 41
2.784
  0
MTEXT
  5
256
100
AcDbEntity
  8
0
100
AcDbMText
 62
2
  6
CONTINUOUS
  7
STANDARD
 71
2
 72
1
 10
1.5275
 20
-0.4065
 30
0.0
 11
1.0
 21
0.0
 31
0.0
 44
0.9
  1
Cavity
 40
0.125
 41
1.2
  0
MTEXT
  5
257
100
AcDbEntity
  8
0
100
AcDbMText
 62
2
  6
CONTINUOUS
  7
STANDARD
 71
2
 72
1
 10
6.055
 20
-0.4065
 30
0.0
 11
1.0
 21
0.0
 31
0.0
 44
0.9
  1
T-11A
 40
0.125
 41
1.0
  0
MTEXT
  5
258
100
AcDbEntity
  8
0
100
AcDbMText
 62
2
  6
CONTINUOUS
  7
STANDARD
 71
2
 72
1
 10
1.5275
 20
-0.6565
 30
0.0
 11
1.0
 21
0.0
 31
0.0
 44
0.9
  1
Body Features
 40
0.125
 41
2.6
  0
MTEXT
  5
259
100
AcDbEntity
  8
0
100
AcDbMText
 62
2
  6
CONTINUOUS
  7
STANDARD
 71
2
 72
1
 10
6.055
 20
-0.6565
 30
0.0
 11
1.0
 21
0.0
 31
0.0
 44
0.9
  1
Sequence into B or out of A with reverse flow check
 40
0.125
 41
10.2
  0
MTEXT
  5
25A
100
AcDbEntity
  8
0
100
AcDbMText
 62
2
  6
CONTINUOUS
  7
STANDARD
 71
2
 72
1
 10
1.5275
 20
-0.9065
 30
0.0
 11
1.0
 21
0.0
 31
0.0
 44
0.9
  1
Body Type
 40
0.125
 41
1.8
  0
MTEXT
  5
25B
100
AcDbEntity
  8
0
100
AcDbMText
 62
2
  6
CONTINUOUS
  7
STANDARD
 71
2
 72
1
 10
6.055
 20
-0.9065
 30
0.0
 11
1.0
 21
0.0
 31
0.0
 44
0.9
  1
Sandwich
 40
0.125
 41
1.6
  0
MTEXT
  5
25C
100
AcDbEntity
  8
0
100
AcDbMText
 62
2
  6
CONTINUOUS
  7
STANDARD
 71
2
 72
1
 10
1.5275
 20
-1.1565
 30
0.0
 11
1.0
 21
0.0
 31
0.0
 44
0.9
  1
Interface
 40
0.125
 41
1.8
  0
MTEXT
  5
25D
100
AcDbEntity
  8
0
100
AcDbMText
 62
2
  6
CONTINUOUS
  7
STANDARD
 71
2
 72
1
 10
6.055
 20
-1.1565
 30
0.0
 11
1.0
 21
0.0
 31
0.0
 44
0.9
  1
ISO 03
 40
0.125
 41
1.2
  0
MTEXT
  5
25E
100
AcDbEntity
  8
0
100
AcDbMText
 62
2
  6
CONTINUOUS
  7
STANDARD
 71
2
 72
1
 10
1.5275
 20
-1.4065
 30
0.0
 11
1.0
 21
0.0
 31
0.0
 44
0.9
  1
Open Cavity Quantity
 40
0.125
 41
4.0
  0
MTEXT
  5
25F
100
AcDbEntity
  8
0
100
AcDbMText
 62
2
  6
CONTINUOUS
  7
STANDARD
 71
2
 72
1
 10
6.055
 20
-1.4065
 30
0.0
 11
1.0
 21
0.0
 31
0.0
 44
0.9
  1
1
 40
0.125
 41
0.2
  0
MTEXT
  5
260
100
AcDbEntity
  8
0
100
AcDbMText
 62
2
  6
CONTINUOUS
  7
STANDARD
 71
2
 72
1
 10
1.5275
 20
-1.6565
 30
0.0
 11
1.0
 21
0.0
 31
0.0
 44
0.9
  1
Stack Height
 40
0.125
 41
2.4
  0
MTEXT
  5
261
100
AcDbEntity
  8
0
100
AcDbMText
 62
2
  6
CONTINUOUS
  7
STANDARD
 71
2
 72
1
 10
4.555
 20
-1.6565
 30
0.0
 11
1.0
 21
0.0
 31
0.0
 44
0.9
  1
1.75 in.
 40
0.125
 41
1.6
  0
MTEXT
  5
262
100
AcDbEntity
  8
0
100
AcDbMText
 62
2
  6
CONTINUOUS
  7
STANDARD
 71
2
 72
1
 10
7.555
 20
-1.6565
 30
0.0
 11
1.0
 21
0.0
 31
0.0
 44
0.9
  1
44,5 mm
 40
0.125
 41
1.4
  0
MTEXT
  5
263
100
AcDbEntity
  8
0
100
AcDbMText
 62
2
  6
CONTINUOUS
  7
STANDARD
 71
2
 72
1
 10
1.5275
 20
-1.9065
 30
0.0
 11
1.0
 21
0.0
 31
0.0
 44
0.9
  1
Weight
 40
0.125
 41
1.2
  0
MTEXT
  5
264
100
AcDbEntity
  8
0
100
AcDbMText
 62
2
  6
CONTINUOUS
  7
STANDARD
 71
2
 72
1
 10
4.555
 20
-1.9065
 30
0.0
 11
1.0
 21
0.0
 31
0.0
 44
0.9
  1
1.200 lb.
 40
0.125
 41
1.8
  0
MTEXT
  5
265
100
AcDbEntity
  8
0
100
AcDbMText
 62
2
  6
CONTINUOUS
  7
STANDARD
 71
2
 72
1
 10
7.555
 20
-1.9065
 30
0.0
 11
1.0
 21
0.0
 31
0.0
 44
0.9
  1
0,544 kg.
 40
0.125
 41
1.8
  0
ENDBLK
  5
266
100
AcDbEntity
  8
0
  6
BYBLOCK
 62
0
100
AcDbBlockEnd
  0
ENDSEC
  0
SECTION
  2
ENTITIES
  0
IMAGE
  5
267
100
AcDbEntity
  8
0
100
AcDbRasterImage
 62
7
  6
CONTINUOUS
 10
19.2297077316
 20
0.3094318264
 30
0.0
 11
0.0066666667
 21
0.0
 31
0.0
 12
0.0
 22
0.0066666667
 32
0.0
 13
369.0
 23
92.0
340
       49E
 70
9
280
0
281
50
282
50
283
0
360
       498
 71
1
 91
2
 14
-0.5
 24
-0.5
 14
368.5
 24
91.5
  0
INSERT
  5
268
100
AcDbEntity
  8
0
100
AcDbBlockReference
 62
2
  6
CONTINUOUS
  2
SUN_FIRST_THIRD_ANGLE_BL0
 10
20.4816717061
 20
1.2289683772
  0
ACAD_TABLE
  5
269
100
AcDbEntity
  8
0
 62
2
  6
CONTINUOUS
100
AcDbBlockReference
  2
*T1
 10
12.42375
 20
0.30125
 30
0.0
100
AcDbTable
342
       4A0
343
207
 11
1.0
 21
0.0
 31
0.0
 90
6
 91
4
 92
6
 93
20
 94
0
 95
0
 96
0
 70
1
 41
0.0
141
0.525
141
0.1
141
0.525
141
0.1
142
4.1
142
1.1
142
0.7
142
0.5
142
0.4
142
2.475
171
1
172
0
173
0
174
0
175
1
176
1
 91
33
178
0
145
0.0
301
CELL_VALUE
 90
4
  1
T-11A Sandwich ISO 03\P(See Technical Data for Body Features)
304
ACVALUE_END
170
2
140
0.125
171
1
172
0
173
0
174
0
175
1
176
1
 91
33
178
0
145
0.0
301
CELL_VALUE
 90
4
  1
Jul-25-19
304
ACVALUE_END
170
5
140
0.125
171
1
172
0
173
0
174
0
175
1
176
1
 91
33
178
0
145
0.0
301
CELL_VALUE
 90
4
  1
1.000
304
ACVALUE_END
170
5
140
0.125
171
1
172
0
173
0
174
0
175
1
176
1
 91
33
178
0
145
0.0
301
CELL_VALUE
 90
4
  1
C
304
ACVALUE_END
170
5
140
0.125
171
1
172
0
173
0
174
0
175
1
176
1
 91
33
178
0
145
0.0
301
CELL_VALUE
 90
4
  1
2
304
ACVALUE_END
170
5
140
0.125
171
1
172
0
173
0
174
0
175
1
176
1
 91
33
178
0
145
0.0
301
CELL_VALUE
 90
4
  1
 
304
ACVALUE_END
170
1
140
0.125
171
1
172
0
173
0
174
0
175
1
176
1
 91
33
178
0
145
0.0
301
CELL_VALUE
 90
4
  1
DESCRIPTION
304
ACVALUE_END
170
1
140
0.06
171
1
172
0
173
0
174
0
175
1
176
1
 91
33
178
0
145
0.0
301
CELL_VALUE
 90
4
  1
DATE
304
ACVALUE_END
170
1
140
0.06
171
1
172
0
173
0
174
0
175
1
176
1
 91
33
178
0
145
0.0
301
CELL_VALUE
 90
4
  1
SCALE
304
ACVALUE_END
170
1
140
0.06
171
1
172
0
173
0
174
0
175
1
176
1
 91
33
178
0
145
0.0
301
CELL_VALUE
 90
4
  1
DWG SIZE
304
ACVALUE_END
170
1
140
0.06
171
1
172
0
173
0
174
0
175
1
176
1
 91
33
178
0
145
0.0
301
CELL_VALUE
 90
4
  1
SHEET
304
ACVALUE_END
170
1
140
0.06
171
1
172
0
173
0
174
0
175
1
176
1
 91
33
178
0
145
0.0
301
CELL_VALUE
 90
4
  1
 
304
ACVALUE_END
170
1
140
0.125
171
1
172
0
173
0
174
0
175
1
176
1
 91
33
178
0
145
0.0
301
CELL_VALUE
 90
4
  1
EB5
304
ACVALUE_END
170
5
140
0.125
171
1
172
0
173
0
174
0
175
4
176
1
 91
33
178
0
145
0.0
301
CELL_VALUE
 90
4
  1
ALL DIMENSIONS IN INCH\PVIEWS ARE THIRD ANGLE
304
ACVALUE_END
170
5
140
0.12
171
1
172
0
173
1
174
0
175
1
176
1
 91
1
178
0
145
0.0
170
1
171
1
172
0
173
1
174
0
175
1
176
1
 91
1
178
0
145
0.0
170
1
171
1
172
0
173
1
174
0
175
1
176
1
 91
1
178
0
145
0.0
170
5
171
1
172
0
173
0
174
0
175
1
176
1
 91
33
178
0
145
0.0
301
CELL_VALUE
 90
4
  1
 
304
ACVALUE_END
170
1
140
0.125
171
1
172
0
173
0
174
0
175
1
176
1
 91
33
178
0
145
0.0
301
CELL_VALUE
 90
4
  1
MODEL
304
ACVALUE_END
170
1
140
0.06
171
1
172
0
173
0
174
0
175
1
176
1
 91
33
178
0
145
0.0
301
CELL_VALUE
 90
4
  1
 
304
ACVALUE_END
170
1
140
0.125
171
1
172
0
173
0
174
0
175
1
176
1
 91
33
178
0
145
0.0
301
CELL_VALUE
 90
4
  1
 
304
ACVALUE_END
170
1
140
0.125
171
1
172
0
173
0
174
0
175
1
176
1
 91
33
178
0
145
0.0
301
CELL_VALUE
 90
4
  1
 
304
ACVALUE_END
170
1
140
0.125
171
1
172
0
173
0
174
0
175
1
176
1
 91
33
178
0
145
0.0
301
CELL_VALUE
 90
4
  1
 
304
ACVALUE_END
170
1
140
0.125
171
1
172
0
173
0
174
0
175
1
176
1
 91
33
178
0
145
0.0
301
CELL_VALUE
 90
4
  1
 
304
ACVALUE_END
170
1
140
0.125
  0
ACAD_TABLE
  5
26A
100
AcDbEntity
  8
0
 62
2
  6
CONTINUOUS
100
AcDbBlockReference
  2
*T2
 10
12.4237499994
 20
16.47875
 30
0.0
100
AcDbTable
342
       49F
343
208
 11
1.0
 21
0.0
 31
0.0
 90
22
 91
8
 92
3
 93
16
 94
0
 95
0
 96
0
 41
0.028
141
0.344
141
0.25
141
0.25
141
0.25
141
0.25
141
0.25
141
0.25
141
0.25
142
3.055
142
3.0
142
3.0
171
1
172
0
173
0
174
0
175
1
176
1
 91
33
178
0
145
0.0
301
CELL_VALUE
 90
4
  1
Technical Data
304
ACVALUE_END
170
5
140
0.145
171
1
172
0
173
0
174
0
175
1
176
1
 91
33
178
0
145
0.0
301
CELL_VALUE
 90
4
  1
U.S. Units
304
ACVALUE_END
170
5
140
0.145
171
1
172
0
173
0
174
0
175
1
176
1
 91
33
178
0
145
0.0
301
CELL_VALUE
 90
4
  1
Metric Units
304
ACVALUE_END
170
5
140
0.145
171
1
172
0
173
0
174
0
175
1
176
1
 91
33
178
0
145
0.0
301
CELL_VALUE
 90
4
  1
Cavity
304
ACVALUE_END
170
5
140
0.125
171
1
172
0
173
0
174
0
175
2
176
1
 91
33
178
0
145
0.0
301
CELL_VALUE
 90
4
  1
T-11A
304
ACVALUE_END
170
5
140
0.125
171
1
172
0
173
1
174
0
175
1
176
1
 91
1
178
0
145
0.0
170
1
171
1
172
0
173
0
174
0
175
1
176
1
 91
33
178
0
145
0.0
301
CELL_VALUE
 90
4
  1
Body Features
304
ACVALUE_END
170
5
140
0.125
171
1
172
0
173
0
174
0
175
2
176
1
 91
33
178
0
145
0.0
301
CELL_VALUE
 90
4
  1
Sequence into B or out of A with reverse flow check
304
ACVALUE_END
170
5
140
0.125
171
1
172
0
173
1
174
0
175
1
176
1
 91
1
178
0
145
0.0
170
1
171
1
172
0
173
0
174
0
175
1
176
1
 91
33
178
0
145
0.0
301
CELL_VALUE
 90
4
  1
Body Type
304
ACVALUE_END
170
5
140
0.125
171
1
172
0
173
0
174
0
175
2
176
1
 91
33
178
0
145
0.0
301
CELL_VALUE
 90
4
  1
Sandwich
304
ACVALUE_END
170
5
140
0.125
171
1
172
0
173
1
174
0
175
1
176
1
 91
1
178
0
145
0.0
170
1
171
1
172
0
173
0
174
0
175
1
176
1
 91
33
178
0
145
0.0
301
CELL_VALUE
 90
4
  1
Interface
304
ACVALUE_END
170
5
140
0.125
171
1
172
0
173
0
174
0
175
2
176
1
 91
33
178
0
145
0.0
301
CELL_VALUE
 90
4
  1
ISO 03
304
ACVALUE_END
170
5
140
0.125
171
1
172
0
173
1
174
0
175
1
176
1
 91
1
178
0
145
0.0
170
1
171
1
172
0
173
0
174
0
175
1
176
1
 91
33
178
0
145
0.0
301
CELL_VALUE
 90
4
  1
Open Cavity Quantity
304
ACVALUE_END
170
5
140
0.125
171
1
172
0
173
0
174
0
175
2
176
1
 91
33
178
0
145
0.0
301
CELL_VALUE
 90
4
  1
1
304
ACVALUE_END
170
5
140
0.125
171
1
172
0
173
1
174
0
175
1
176
1
 91
1
178
0
145
0.0
170
1
171
1
172
0
173
0
174
0
175
1
176
1
 91
33
178
0
145
0.0
301
CELL_VALUE
 90
4
  1
Stack Height
304
ACVALUE_END
170
5
140
0.125
171
1
172
0
173
0
174
0
175
1
176
1
 91
33
178
0
145
0.0
301
CELL_VALUE
 90
4
  1
1.75 in.
304
ACVALUE_END
170
5
140
0.125
171
1
172
0
173
0
174
0
175
1
176
1
 91
33
178
0
145
0.0
301
CELL_VALUE
 90
4
  1
44,5 mm
304
ACVALUE_END
170
5
140
0.125
171
1
172
0
173
0
174
0
175
1
176
1
 91
33
178
0
145
0.0
301
CELL_VALUE
 90
4
  1
Weight
304
ACVALUE_END
170
5
140
0.125
171
1
172
0
173
0
174
0
175
1
176
1
 91
33
178
0
145
0.0
301
CELL_VALUE
 90
4
  1
1.200 lb.
304
ACVALUE_END
170
5
140
0.125
171
1
172
0
173
0
174
0
175
1
176
1
 91
33
178
0
145
0.0
301
CELL_VALUE
 90
4
  1
0,544 kg.
304
ACVALUE_END
170
5
140
0.125
  0
MTEXT
  5
26B
100
AcDbEntity
  8
0
100
AcDbMText
 62
2
  6
CONTINUOUS
  7
STANDARD
 71
1
 72
1
 10
0.52125
 20
5.75995
 30
0.0
 11
1.0
 21
0.0
 31
0.0
 44
0.6
  3
Notes\P \P1. Important: Carefully consider\P   the maximum system pressure. The\P   pressure rating of the manifold is\P   dependent on the manifold material,\P   with the port type/size a secondary\P   consideration. Manifolds\P   constructed of alu
  1
minum are not\P   rated for pressures higher than\P   3000 psi (210 bar), regardless of\P   the port type/size specified.\P2. Items without balloons are\P   shipped loose.
 40
0.1
 41
3.04
  0
LINE
  5
26C
100
AcDbEntity
  8
0
100
AcDbLine
 62
7
  6
CONTINUOUS
 10
0.30125
 20
0.30125
 11
0.30125
 21
16.69875
  0
LINE
  5
26D
100
AcDbEntity
  8
0
100
AcDbLine
 62
7
  6
CONTINUOUS
 10
0.30125
 20
0.30125
 11
21.69875
 21
0.30125
  0
LINE
  5
26E
100
AcDbEntity
  8
0
100
AcDbLine
 62
7
  6
CONTINUOUS
 10
0.30125
 20
16.69875
 11
21.69875
 21
16.69875
  0
LINE
  5
26F
100
AcDbEntity
  8
0
100
AcDbLine
 62
7
  6
CONTINUOUS
 10
21.69875
 20
0.30125
 11
21.69875
 21
16.69875
  0
LINE
  5
270
100
AcDbEntity
  8
0
100
AcDbLine
 62
7
  6
CONTINUOUS
 10
10.6574159089
 20
11.1210104652
 11
10.6739832577
 21
11.1291944183
  0
LINE
  5
271
100
AcDbEntity
  8
0
100
AcDbLine
 62
7
  6
CONTINUOUS
 10
10.3690929413
 20
5.8728201504
 11
11.2142780894
 21
5.8142063613
  0
LINE
  5
272
100
AcDbEntity
  8
0
100
AcDbLine
 62
7
  6
CONTINUOUS
 10
10.3610695575
 20
5.8950138588
 11
11.2062547056
 21
5.8364000697
  0
LINE
  5
273
100
AcDbEntity
  8
0
100
AcDbLine
 62
7
  6
CONTINUOUS
 10
10.0968392031
 20
5.9627574486
 11
10.1267056295
 21
5.9349636035
  0
LINE
  5
274
100
AcDbEntity
  8
0
100
AcDbLine
 62
7
  6
CONTINUOUS
 10
10.0968703389
 20
10.2407088567
 11
10.3344660262
 21
10.4702086809
  0
LINE
  5
275
100
AcDbEntity
  8
0
100
AcDbLine
 62
7
  6
CONTINUOUS
 10
10.1268140413
 20
10.2685759562
 11
10.3644097286
 21
10.4980757804
  0
LINE
  5
276
100
AcDbEntity
  8
0
100
AcDbLine
 62
4
  6
CONTINUOUS
 10
10.3750831228
 20
10.3823854595
 11
10.3828476876
 21
10.3898854536
  0
LINE
  5
277
100
AcDbEntity
  8
0
100
AcDbLine
 62
4
  6
CONTINUOUS
 10
10.4042002407
 20
10.4105104373
 11
10.4080825231
 21
10.4142604344
  0
LINE
  5
278
100
AcDbEntity
  8
0
100
AcDbLine
 62
4
  6
CONTINUOUS
 10
10.4663167589
 20
10.47051039
 11
10.4701990412
 21
10.4742603871
  0
LINE
  5
279
100
AcDbEntity
  8
0
100
AcDbLine
 62
7
  6
CONTINUOUS
 10
10.3344660262
 20
10.4702086809
 11
10.3354008163
 21
10.4710948239
  0
LINE
  5
27A
100
AcDbEntity
  8
0
100
AcDbLine
 62
7
  6
CONTINUOUS
 10
10.3644097286
 20
10.4980757804
 11
10.3652682731
 21
10.4988894978
  0
LINE
  5
27B
100
AcDbEntity
  8
0
100
AcDbLine
 62
7
  6
CONTINUOUS
 10
10.364402307
 20
10.4980837555
 11
10.3344660262
 21
10.4702086809
  0
LINE
  5
27C
100
AcDbEntity
  8
0
100
AcDbLine
 62
7
  6
CONTINUOUS
 10
10.1268140413
 20
10.2685759562
 11
10.0968703389
 21
10.2407088567
  0
LINE
  5
27D
100
AcDbEntity
  8
0
100
AcDbLine
 62
4
  6
CONTINUOUS
 10
10.5861101447
 20
10.4662219248
 11
10.5822278623
 21
10.4624719277
  0
LINE
  5
27E
100
AcDbEntity
  8
0
100
AcDbLine
 62
4
  6
CONTINUOUS
 10
10.5239936265
 20
10.4062219721
 11
10.5201113441
 21
10.402471975
  0
LINE
  5
27F
100
AcDbEntity
  8
0
100
AcDbLine
 62
4
  6
CONTINUOUS
 10
10.498758791
 20
10.3818469913
 11
10.4909942262
 21
10.3743469972
  0
LINE
  5
280
100
AcDbEntity
  8
0
100
AcDbLine
 62
7
  6
CONTINUOUS
 10
9.934818839
 20
9.3319376727
 11
10.0840925452
 21
9.4761250093
  0
LINE
  5
281
100
AcDbEntity
  8
0
100
AcDbLine
 62
7
  6
CONTINUOUS
 10
11.6251891351
 20
7.0413766263
 11
9.934818839
 21
7.1586042045
  0
LINE
  5
282
100
AcDbEntity
  8
0
100
AcDbLine
 62
7
  6
CONTINUOUS
 10
10.3690929413
 20
5.8728201504
 11
10.3610695575
 21
5.8950138588
  0
LINE
  5
283
100
AcDbEntity
  8
0
100
AcDbLine
 62
7
  6
CONTINUOUS
 10
11.46673725
 20
10.5349897519
 11
11.4765237929
 21
10.5440971575
  0
LINE
  5
284
100
AcDbEntity
  8
0
100
AcDbLine
 62
7
  6
CONTINUOUS
 10
11.454469944
 20
10.383501147
 11
11.4634893563
 21
10.3910930472
  0
LINE
  5
285
100
AcDbEntity
  8
0
100
AcDbLine
 62
7
  6
CONTINUOUS
 10
9.934818839
 20
7.1586042045
 11
9.934818839
 21
9.3319376727
  0
LINE
  5
286
100
AcDbEntity
  8
0
100
AcDbLine
 62
7
  6
CONTINUOUS
 10
10.3700588672
 20
10.1595324296
 11
10.3620354834
 21
10.1218387332
  0
LINE
  5
287
100
AcDbEntity
  8
0
100
AcDbLine
 62
7
  6
CONTINUOUS
 10
11.463488956
 20
10.3910927102
 11
11.4678029107
 21
10.3949747759
  0
LINE
  5
288
100
AcDbEntity
  8
0
100
AcDbLine
 62
4
  6
CONTINUOUS
 10
12.0315347069
 20
7.5377135022
 11
12.0392992717
 21
7.5379690524
  0
LINE
  5
289
100
AcDbEntity
  8
0
100
AcDbLine
 62
7
  6
CONTINUOUS
 10
10.0831266194
 20
7.148319025
 11
10.0831266194
 21
5.9887637869
  0
LINE
  5
28A
100
AcDbEntity
  8
0
100
AcDbLine
 62
7
  6
CONTINUOUS
 10
10.0840925452
 20
9.4003472156
 11
10.0840925452
 21
10.2155886613
  0
LINE
  5
28B
100
AcDbEntity
  8
0
100
AcDbLine
 62
7
  6
CONTINUOUS
 10
11.8741518846
 20
10.3933748063
 11
11.6365561973
 21
10.1638749821
  0
LINE
  5
28C
100
AcDbEntity
  8
0
100
AcDbLine
 62
7
  6
CONTINUOUS
 10
10.3610695575
 20
5.8950138588
 11
10.3610695575
 21
7.1290436168
  0
LINE
  5
28D
100
AcDbEntity
  8
0
100
AcDbLine
 62
7
  6
CONTINUOUS
 10
10.3620354834
 20
10.1218387332
 11
10.3620354834
 21
9.3065972875
  0
LINE
  5
28E
100
AcDbEntity
  8
0
100
AcDbLine
 62
7
  6
CONTINUOUS
 10
11.904095587
 20
10.3613545011
 11
11.6664998996
 21
10.1318546769
  0
LINE
  5
28F
100
AcDbEntity
  8
0
100
AcDbLine
 62
7
  6
CONTINUOUS
 10
11.2142780894
 20
5.8142063613
 11
11.2062547056
 21
5.8364000697
  0
LINE
  5
290
100
AcDbEntity
  8
0
100
AcDbLine
 62
7
  6
CONTINUOUS
 10
10.5757342211
 20
10.5987481936
 11
10.5757342211
 21
11.0193474194
  0
LINE
  5
291
100
AcDbEntity
  8
0
100
AcDbLine
 62
7
  6
CONTINUOUS
 10
10.5910634576
 20
10.5839413136
 11
10.5910634576
 21
11.0045405393
  0
LINE
  5
292
100
AcDbEntity
  8
0
100
AcDbLine
 62
7
  6
CONTINUOUS
 10
10.6273695955
 20
10.3712555299
 11
10.6273695955
 21
10.4042932809
  0
LINE
  5
293
100
AcDbEntity
  8
0
100
AcDbLine
 62
7
  6
CONTINUOUS
 10
10.6273695955
 20
10.4236117986
 11
10.6273695955
 21
10.5495372904
  0
LINE
  5
294
100
AcDbEntity
  8
0
100
AcDbLine
 62
4
  6
CONTINUOUS
 10
12.0224760324
 20
7.9322377348
 11
11.9965941488
 21
7.9348356376
  0
LINE
  5
295
100
AcDbEntity
  8
0
100
AcDbLine
 62
4
  6
CONTINUOUS
 10
11.9060075589
 20
7.8738294699
 11
11.9041588522
 21
7.8743435711
  0
LINE
  5
296
100
AcDbEntity
  8
0
100
AcDbLine
 62
7
  6
CONTINUOUS
 10
10.8999347612
 20
10.503999639
 11
10.8999347612
 21
10.9245988648
  0
LINE
  5
297
100
AcDbEntity
  8
0
100
AcDbLine
 62
7
  6
CONTINUOUS
 10
10.9571442066
 20
10.5000321505
 11
10.9571442066
 21
10.9206313763
  0
LINE
  5
298
100
AcDbEntity
  8
0
100
AcDbLine
 62
7
  6
CONTINUOUS
 10
11.2152440153
 20
10.1009186405
 11
11.2072206315
 21
10.0632249441
  0
LINE
  5
299
100
AcDbEntity
  8
0
100
AcDbLine
 62
7
  6
CONTINUOUS
 10
11.904095587
 20
9.5461130554
 11
11.6664998996
 21
9.3166132312
  0
LINE
  5
29A
100
AcDbEntity
  8
0
100
AcDbLine
 62
7
  6
CONTINUOUS
 10
11.6251891351
 20
9.2147100945
 11
12.065181161
 21
9.6397097809
  0
LINE
  5
29B
100
AcDbEntity
  8
0
100
AcDbLine
 62
4
  6
CONTINUOUS
 10
11.7481280693
 20
8.2939856681
 11
11.7740099528
 21
8.2913877681
  0
LINE
  5
29C
100
AcDbEntity
  8
0
100
AcDbLine
 62
4
  6
CONTINUOUS
 10
11.8739633221
 20
8.2223479809
 11
11.8986127354
 21
8.2185596176
  0
LINE
  5
29D
100
AcDbEntity
  8
0
100
AcDbLine
 62
7
  6
CONTINUOUS
 10
11.2062547056
 20
5.8364000697
 11
11.2062547056
 21
7.0704298277
  0
LINE
  5
29E
100
AcDbEntity
  8
0
100
AcDbLine
 62
7
  6
CONTINUOUS
 10
11.2072206315
 20
10.0632249441
 11
11.2072206315
 21
9.2479834984
  0
LINE
  5
29F
100
AcDbEntity
  8
0
100
AcDbLine
 62
4
  6
CONTINUOUS
 10
11.6821292778
 20
9.115161889
 11
11.6510710187
 21
9.0851619126
  0
LINE
  5
2A0
100
AcDbEntity
  8
0
100
AcDbLine
 62
7
  6
CONTINUOUS
 10
11.3790701355
 20
10.5292928648
 11
11.3790701355
 21
10.9498920906
  0
LINE
  5
2A1
100
AcDbEntity
  8
0
100
AcDbLine
 62
4
  6
CONTINUOUS
 10
11.6355418882
 20
8.7175990208
 11
11.6646590071
 21
8.7457239997
  0
LINE
  5
2A2
100
AcDbEntity
  8
0
100
AcDbLine
 62
4
  6
CONTINUOUS
 10
11.6678942426
 20
8.7488489973
 11
11.6937761261
 21
8.7738489786
  0
LINE
  5
2A3
100
AcDbEntity
  8
0
100
AcDbLine
 62
4
  6
CONTINUOUS
 10
11.6900787144
 20
8.7288807283
 11
11.6845325961
 21
8.723523589
  0
LINE
  5
2A4
100
AcDbEntity
  8
0
100
AcDbLine
 62
4
  6
CONTINUOUS
 10
11.6771377726
 20
8.7094812674
 11
11.6715916547
 21
8.7041241285
  0
LINE
  5
2A5
100
AcDbEntity
  8
0
100
AcDbLine
 62
4
  6
CONTINUOUS
 10
11.6355418882
 20
8.6417048463
 11
11.6614237717
 21
8.6667048275
  0
LINE
  5
2A6
100
AcDbEntity
  8
0
100
AcDbLine
 62
4
  6
CONTINUOUS
 10
11.6355418882
 20
8.5934085514
 11
11.6614237717
 21
8.6184085326
  0
LINE
  5
2A7
100
AcDbEntity
  8
0
100
AcDbLine
 62
4
  6
CONTINUOUS
 10
11.9965941488
 20
8.9191601316
 11
12.0224760324
 21
8.9441601128
  0
LINE
  5
2A8
100
AcDbEntity
  8
0
100
AcDbLine
 62
4
  6
CONTINUOUS
 10
11.6392393003
 20
8.5693820963
 11
11.65772636
 21
8.5872392258
  0
LINE
  5
2A9
100
AcDbEntity
  8
0
100
AcDbLine
 62
4
  6
CONTINUOUS
 10
11.6678942426
 20
8.5970606452
 11
11.6937761261
 21
8.6220606265
  0
LINE
  5
2AA
100
AcDbEntity
  8
0
100
AcDbLine
 62
4
  6
CONTINUOUS
 10
12.0002915605
 20
8.8951336876
 11
12.0187786203
 21
8.9129908171
  0
LINE
  5
2AB
100
AcDbEntity
  8
0
100
AcDbLine
 62
4
  6
CONTINUOUS
 10
12.0548283868
 20
7.9634877113
 11
12.0391122286
 21
7.9756576682
  0
LINE
  5
2AC
100
AcDbEntity
  8
0
100
AcDbLine
 62
4
  6
CONTINUOUS
 10
11.6715916547
 20
7.7749954515
 11
11.6678942426
 21
7.7852229142
  0
LINE
  5
2AD
100
AcDbEntity
  8
0
100
AcDbLine
 62
7
  6
CONTINUOUS
 10
11.4209503445
 20
10.5401322564
 11
11.4209503445
 21
10.9607314821
  0
LINE
  5
2AE
100
AcDbEntity
  8
0
100
AcDbLine
 62
7
  6
CONTINUOUS
 10
11.4823695955
 20
10.371260148
 11
11.4823695955
 21
10.4042932809
  0
LINE
  5
2AF
100
AcDbEntity
  8
0
100
AcDbLine
 62
7
  6
CONTINUOUS
 10
11.4823695955
 20
10.4236117986
 11
11.4823695955
 21
10.5503538966
  0
LINE
  5
2B0
100
AcDbEntity
  8
0
100
AcDbLine
 62
7
  6
CONTINUOUS
 10
11.5340049698
 20
10.6493346452
 11
11.5340049698
 21
11.069933871
  0
LINE
  5
2B1
100
AcDbEntity
  8
0
100
AcDbLine
 62
4
  6
CONTINUOUS
 10
11.6614237717
 20
8.6667048275
 11
11.6355418882
 21
8.5934085514
  0
LINE
  5
2B2
100
AcDbEntity
  8
0
100
AcDbLine
 62
4
  6
CONTINUOUS
 10
11.6355418882
 20
8.7175990208
 11
11.6512580464
 21
8.7601302657
  0
LINE
  5
2B3
100
AcDbEntity
  8
0
100
AcDbLine
 62
4
  6
CONTINUOUS
 10
11.6900787144
 20
8.5701929059
 11
11.682683891
 21
8.5630500545
  0
LINE
  5
2B4
100
AcDbEntity
  8
0
100
AcDbLine
 62
4
  6
CONTINUOUS
 10
11.65772636
 20
8.5389429309
 11
11.6392393003
 21
8.5210858014
  0
LINE
  5
2B5
100
AcDbEntity
  8
0
100
AcDbLine
 62
4
  6
CONTINUOUS
 10
12.0187786203
 20
8.8646945222
 11
12.0002915605
 21
8.8468373927
  0
LINE
  5
2B6
100
AcDbEntity
  8
0
100
AcDbLine
 62
4
  6
CONTINUOUS
 10
11.6715916547
 20
8.5247378837
 11
11.6900787144
 21
8.5425950132
  0
LINE
  5
2B7
100
AcDbEntity
  8
0
100
AcDbLine
 62
4
  6
CONTINUOUS
 10
12.0002915605
 20
8.8192395231
 11
12.007686384
 21
8.8263823744
  0
LINE
  5
2B8
100
AcDbEntity
  8
0
100
AcDbLine
 62
4
  6
CONTINUOUS
 10
11.6355418882
 20
8.4623186131
 11
11.6614237717
 21
8.4873185943
  0
LINE
  5
2B9
100
AcDbEntity
  8
0
100
AcDbLine
 62
4
  6
CONTINUOUS
 10
11.6900787144
 20
8.4942987183
 11
11.6715916547
 21
8.4764415888
  0
LINE
  5
2BA
100
AcDbEntity
  8
0
100
AcDbLine
 62
4
  6
CONTINUOUS
 10
12.0224760324
 20
8.7923717837
 11
11.9965941488
 21
8.7673718025
  0
LINE
  5
2BB
100
AcDbEntity
  8
0
100
AcDbLine
 62
4
  6
CONTINUOUS
 10
11.6678942426
 20
8.4452722931
 11
11.6937761261
 21
8.4702722744
  0
LINE
  5
2BC
100
AcDbEntity
  8
0
100
AcDbLine
 62
4
  6
CONTINUOUS
 10
11.6392393003
 20
8.4106942768
 11
11.65772636
 21
8.4285514063
  0
LINE
  5
2BD
100
AcDbEntity
  8
0
100
AcDbLine
 62
4
  6
CONTINUOUS
 10
11.8986127354
 20
8.6325278465
 11
11.9023101472
 21
8.6360992721
  0
LINE
  5
2BE
100
AcDbEntity
  8
0
100
AcDbLine
 62
4
  6
CONTINUOUS
 10
11.6900787144
 20
8.4184045538
 11
11.682683891
 21
8.4112617024
  0
LINE
  5
2BF
100
AcDbEntity
  8
0
100
AcDbLine
 62
4
  6
CONTINUOUS
 10
12.0224760324
 20
8.7371759523
 11
11.9965941488
 21
8.7121759711
  0
LINE
  5
2C0
100
AcDbEntity
  8
0
100
AcDbLine
 62
4
  6
CONTINUOUS
 10
11.8838230874
 20
8.5699458477
 11
11.8875204995
 21
8.5735172738
  0
LINE
  5
2C1
100
AcDbEntity
  8
0
100
AcDbLine
 62
4
  6
CONTINUOUS
 10
11.6355418882
 20
8.3266290336
 11
11.6614237717
 21
8.3516290148
  0
LINE
  5
2C2
100
AcDbEntity
  8
0
100
AcDbLine
 62
4
  6
CONTINUOUS
 10
11.6678942426
 20
8.3417802129
 11
11.6937761261
 21
8.3667801941
  0
LINE
  5
2C3
100
AcDbEntity
  8
0
100
AcDbLine
 62
4
  6
CONTINUOUS
 10
12.0224760324
 20
8.6819802131
 11
11.9965941488
 21
8.6569802318
  0
LINE
  5
2C4
100
AcDbEntity
  8
0
100
AcDbLine
 62
4
  6
CONTINUOUS
 10
11.9060075589
 20
8.5637765218
 11
11.8838230874
 21
8.5423479666
  0
LINE
  5
2C5
100
AcDbEntity
  8
0
100
AcDbLine
 62
4
  6
CONTINUOUS
 10
11.6614237717
 20
8.3033327199
 11
11.6355418882
 21
8.2783327387
  0
LINE
  5
2C6
100
AcDbEntity
  8
0
100
AcDbLine
 62
4
  6
CONTINUOUS
 10
11.6355418882
 20
8.7175990208
 11
11.6512580464
 21
8.7054290639
  0
LINE
  5
2C7
100
AcDbEntity
  8
0
100
AcDbLine
 62
4
  6
CONTINUOUS
 10
12.0134173898
 20
7.5129690727
 11
12.0108292003
 21
7.5177135174
  0
LINE
  5
2C8
100
AcDbEntity
  8
0
100
AcDbLine
 62
4
  6
CONTINUOUS
 10
12.0263583307
 20
7.5472023944
 11
12.0315347069
 21
7.5377135022
  0
LINE
  5
2C9
100
AcDbEntity
  8
0
100
AcDbLine
 62
4
  6
CONTINUOUS
 10
12.018593765
 20
7.5759246193
 11
12.0211819545
 21
7.5711801745
  0
LINE
  5
2CA
100
AcDbEntity
  8
0
100
AcDbLine
 62
4
  6
CONTINUOUS
 10
11.682683891
 20
7.8616038942
 11
11.6789864785
 21
7.8718313565
  0
LINE
  5
2CB
100
AcDbEntity
  8
0
100
AcDbLine
 62
4
  6
CONTINUOUS
 10
11.6900787144
 20
7.8411488759
 11
11.6937761261
 21
7.8309213207
  0
LINE
  5
2CC
100
AcDbEntity
  8
0
100
AcDbLine
 62
4
  6
CONTINUOUS
 10
11.7518254814
 20
7.7823966344
 11
11.7481280693
 21
7.7926241432
  0
LINE
  5
2CD
100
AcDbEntity
  8
0
100
AcDbLine
 62
4
  6
CONTINUOUS
 10
11.7518254814
 20
7.858290799
 11
11.7481280693
 21
7.8685183077
  0
LINE
  5
2CE
100
AcDbEntity
  8
0
100
AcDbLine
 62
4
  6
CONTINUOUS
 10
11.6715916547
 20
8.0854716001
 11
11.6678942426
 21
8.0956991088
  0
LINE
  5
2CF
100
AcDbEntity
  8
0
100
AcDbLine
 62
4
  6
CONTINUOUS
 10
11.7703125411
 20
7.9244442233
 11
11.7740099528
 21
7.9142167142
  0
LINE
  5
2D0
100
AcDbEntity
  8
0
100
AcDbLine
 62
4
  6
CONTINUOUS
 10
11.6900787144
 20
8.1516250245
 11
11.6937761261
 21
8.1413975153
  0
LINE
  5
2D1
100
AcDbEntity
  8
0
100
AcDbLine
 62
4
  6
CONTINUOUS
 10
11.7703125411
 20
8.0049380175
 11
11.7740099528
 21
7.9947105083
  0
LINE
  5
2D2
100
AcDbEntity
  8
0
100
AcDbLine
 62
4
  6
CONTINUOUS
 10
11.6900787144
 20
8.2321188186
 11
11.6937761261
 21
8.2218913094
  0
LINE
  5
2D3
100
AcDbEntity
  8
0
100
AcDbLine
 62
4
  6
CONTINUOUS
 10
11.8801256753
 20
7.7177395388
 11
11.8819743814
 21
7.7126258075
  0
LINE
  5
2D4
100
AcDbEntity
  8
0
100
AcDbLine
 62
4
  6
CONTINUOUS
 10
11.8050682131
 20
8.010911498
 11
11.8087656252
 21
8.0006839777
  0
LINE
  5
2D5
100
AcDbEntity
  8
0
100
AcDbLine
 62
4
  6
CONTINUOUS
 10
11.65772636
 20
8.4285514063
 11
11.6614237717
 21
8.4183238741
  0
LINE
  5
2D6
100
AcDbEntity
  8
0
100
AcDbLine
 62
4
  6
CONTINUOUS
 10
11.8967640288
 20
7.7683082691
 11
11.8986127354
 21
7.7631945383
  0
LINE
  5
2D7
100
AcDbEntity
  8
0
100
AcDbLine
 62
7
  6
CONTINUOUS
 10
11.6251891351
 20
9.2147100945
 11
11.6251891351
 21
7.0413766263
  0
LINE
  5
2D8
100
AcDbEntity
  8
0
100
AcDbLine
 62
4
  6
CONTINUOUS
 10
11.6355418882
 20
8.3657260233
 11
11.6355418882
 21
8.3933238929
  0
LINE
  5
2D9
100
AcDbEntity
  8
0
100
AcDbLine
 62
4
  6
CONTINUOUS
 10
11.6355418882
 20
8.5313133102
 11
11.6355418882
 21
8.5520117239
  0
LINE
  5
2DA
100
AcDbEntity
  8
0
100
AcDbLine
 62
4
  6
CONTINUOUS
 10
11.6503315366
 20
8.3409147378
 11
11.6503315366
 21
8.2926184429
  0
LINE
  5
2DB
100
AcDbEntity
  8
0
100
AcDbLine
 62
4
  6
CONTINUOUS
 10
11.6614237717
 20
8.5770117051
 11
11.6614237717
 21
8.5563132914
  0
LINE
  5
2DC
100
AcDbEntity
  8
0
100
AcDbLine
 62
4
  6
CONTINUOUS
 10
11.6614237717
 20
8.5149164639
 11
11.6614237717
 21
8.4597207016
  0
LINE
  5
2DD
100
AcDbEntity
  8
0
100
AcDbLine
 62
4
  6
CONTINUOUS
 10
11.6614237717
 20
8.4183238741
 11
11.6614237717
 21
8.3907260045
  0
LINE
  5
2DE
100
AcDbEntity
  8
0
100
AcDbLine
 62
4
  6
CONTINUOUS
 10
11.6646590071
 20
8.7457239997
 11
11.6646590071
 21
8.3110573456
  0
LINE
  5
2DF
100
AcDbEntity
  8
0
100
AcDbLine
 62
7
  6
CONTINUOUS
 10
11.6655339738
 20
5.9050298025
 11
11.6655339738
 21
7.0803467502
  0
LINE
  5
2E0
100
AcDbEntity
  8
0
100
AcDbLine
 62
7
  6
CONTINUOUS
 10
11.6664998996
 20
10.1318546769
 11
11.6664998996
 21
9.3166132312
  0
LINE
  5
2E1
100
AcDbEntity
  8
0
100
AcDbLine
 62
4
  6
CONTINUOUS
 10
11.6678942426
 20
7.7438260637
 11
11.6678942426
 21
7.7093287497
  0
LINE
  5
2E2
100
AcDbEntity
  8
0
100
AcDbLine
 62
4
  6
CONTINUOUS
 10
11.6678942426
 20
7.7852229142
 11
11.6678942426
 21
7.8059213395
  0
LINE
  5
2E3
100
AcDbEntity
  8
0
100
AcDbLine
 62
4
  6
CONTINUOUS
 10
11.6678942426
 20
8.0956991088
 11
11.6678942426
 21
8.1163975341
  0
LINE
  5
2E4
100
AcDbEntity
  8
0
100
AcDbLine
 62
4
  6
CONTINUOUS
 10
11.6678942426
 20
8.1692934586
 11
11.6678942426
 21
8.1968913282
  0
LINE
  5
2E5
100
AcDbEntity
  8
0
100
AcDbLine
 62
4
  6
CONTINUOUS
 10
11.6678942426
 20
8.4866691206
 11
11.6678942426
 21
8.5073675229
  0
LINE
  5
2E6
100
AcDbEntity
  8
0
100
AcDbLine
 62
4
  6
CONTINUOUS
 10
11.6678942426
 20
8.714351643
 11
11.6678942426
 21
8.7488489973
  0
LINE
  5
2E7
100
AcDbEntity
  8
0
100
AcDbLine
 62
4
  6
CONTINUOUS
 10
11.6789864785
 20
7.8718313565
 11
11.6789864785
 21
7.9063287627
  0
LINE
  5
2E8
100
AcDbEntity
  8
0
100
AcDbLine
 62
4
  6
CONTINUOUS
 10
11.6789864785
 20
8.4214892108
 11
11.6789864785
 21
8.4559865709
  0
LINE
  5
2E9
100
AcDbEntity
  8
0
100
AcDbLine
 62
4
  6
CONTINUOUS
 10
11.6789864785
 20
8.5732775629
 11
11.6789864785
 21
8.607774923
  0
LINE
  5
2EA
100
AcDbEntity
  8
0
100
AcDbLine
 62
4
  6
CONTINUOUS
 10
11.6808351843
 20
8.7268516336
 11
11.6808351843
 21
8.7613489879
  0
LINE
  5
2EB
100
AcDbEntity
  8
0
100
AcDbLine
 62
4
  6
CONTINUOUS
 10
11.6937761261
 20
8.7738489786
 11
11.6937761261
 21
8.7531505663
  0
LINE
  5
2EC
100
AcDbEntity
  8
0
100
AcDbLine
 62
4
  6
CONTINUOUS
 10
11.6937761261
 20
8.6220606265
 11
11.6937761261
 21
8.5875632664
  0
LINE
  5
2ED
100
AcDbEntity
  8
0
100
AcDbLine
 62
4
  6
CONTINUOUS
 10
11.6937761261
 20
8.5323675041
 11
11.6937761261
 21
8.5116691018
  0
LINE
  5
2EE
100
AcDbEntity
  8
0
100
AcDbLine
 62
4
  6
CONTINUOUS
 10
11.6937761261
 20
8.4702722744
 11
11.6937761261
 21
8.4357749143
  0
LINE
  5
2EF
100
AcDbEntity
  8
0
100
AcDbLine
 62
4
  6
CONTINUOUS
 10
11.6937761261
 20
8.3943780868
 11
11.6937761261
 21
8.3391823245
  0
LINE
  5
2F0
100
AcDbEntity
  8
0
100
AcDbLine
 62
4
  6
CONTINUOUS
 10
11.6937761261
 20
8.2218913094
 11
11.6937761261
 21
8.1942934398
  0
LINE
  5
2F1
100
AcDbEntity
  8
0
100
AcDbLine
 62
4
  6
CONTINUOUS
 10
11.6937761261
 20
8.1413975153
 11
11.6937761261
 21
8.1206990901
  0
LINE
  5
2F2
100
AcDbEntity
  8
0
100
AcDbLine
 62
4
  6
CONTINUOUS
 10
11.6937761261
 20
8.003408075
 11
11.6937761261
 21
7.9482123357
  0
LINE
  5
2F3
100
AcDbEntity
  8
0
100
AcDbLine
 62
4
  6
CONTINUOUS
 10
11.6937761261
 20
7.9206144661
 11
11.6937761261
 21
7.88611706
  0
LINE
  5
2F4
100
AcDbEntity
  8
0
100
AcDbLine
 62
4
  6
CONTINUOUS
 10
11.6937761261
 20
7.8309213207
 11
11.6937761261
 21
7.8102228954
  0
LINE
  5
2F5
100
AcDbEntity
  8
0
100
AcDbLine
 62
4
  6
CONTINUOUS
 10
11.7481280693
 20
8.1283983696
 11
11.7481280693
 21
8.0870015421
  0
LINE
  5
2F6
100
AcDbEntity
  8
0
100
AcDbLine
 62
4
  6
CONTINUOUS
 10
11.7481280693
 20
7.7397281726
 11
11.7481280693
 21
7.6983313682
  0
LINE
  5
2F7
100
AcDbEntity
  8
0
100
AcDbLine
 62
4
  6
CONTINUOUS
 10
11.7481280693
 20
7.7926241432
 11
11.7481280693
 21
7.8271215033
  0
LINE
  5
2F8
100
AcDbEntity
  8
0
100
AcDbLine
 62
4
  6
CONTINUOUS
 10
11.7481280693
 20
7.8685183077
 11
11.7481280693
 21
7.889216733
  0
LINE
  5
2F9
100
AcDbEntity
  8
0
100
AcDbLine
 62
4
  6
CONTINUOUS
 10
11.7481280693
 20
7.9421126575
 11
11.7481280693
 21
7.9697105271
  0
LINE
  5
2FA
100
AcDbEntity
  8
0
100
AcDbLine
 62
4
  6
CONTINUOUS
 10
11.7481280693
 20
8.3468816098
 11
11.7481280693
 21
8.3813789584
  0
LINE
  5
2FB
100
AcDbEntity
  8
0
100
AcDbLine
 62
4
  6
CONTINUOUS
 10
11.7555228935
 20
8.2919292264
 11
11.7555228935
 21
8.2551320516
  0
LINE
  5
2FC
100
AcDbEntity
  8
0
100
AcDbLine
 62
4
  6
CONTINUOUS
 10
11.7629177177
 20
7.7264160072
 11
11.7629177177
 21
7.7540138768
  0
LINE
  5
2FD
100
AcDbEntity
  8
0
100
AcDbLine
 62
4
  6
CONTINUOUS
 10
11.7629177177
 20
8.1150861812
 11
11.7629177177
 21
8.1426840738
  0
LINE
  5
2FE
100
AcDbEntity
  8
0
100
AcDbLine
 62
4
  6
CONTINUOUS
 10
11.7740099528
 20
8.4063789396
 11
11.7740099528
 21
8.371881591
  0
LINE
  5
2FF
100
AcDbEntity
  8
0
100
AcDbLine
 62
4
  6
CONTINUOUS
 10
11.7740099528
 20
8.2361920058
 11
11.7740099528
 21
8.1809962435
  0
LINE
  5
300
100
AcDbEntity
  8
0
100
AcDbLine
 62
4
  6
CONTINUOUS
 10
11.7740099528
 20
8.1533983509
 11
11.7740099528
 21
8.1120015234
  0
LINE
  5
301
100
AcDbEntity
  8
0
100
AcDbLine
 62
4
  6
CONTINUOUS
 10
11.7740099528
 20
7.9947105083
 11
11.7740099528
 21
7.9671126387
  0
LINE
  5
302
100
AcDbEntity
  8
0
100
AcDbLine
 62
4
  6
CONTINUOUS
 10
11.7740099528
 20
7.9142167142
 11
11.7740099528
 21
7.8935182889
  0
LINE
  5
303
100
AcDbEntity
  8
0
100
AcDbLine
 62
4
  6
CONTINUOUS
 10
11.7740099528
 20
7.8521214845
 11
11.7740099528
 21
7.8176241244
  0
LINE
  5
304
100
AcDbEntity
  8
0
100
AcDbLine
 62
4
  6
CONTINUOUS
 10
11.7740099528
 20
7.7647281539
 11
11.7740099528
 21
7.7233313494
  0
LINE
  5
305
100
AcDbEntity
  8
0
100
AcDbLine
 62
4
  6
CONTINUOUS
 10
11.6937761261
 20
8.7531505663
 11
11.6931598901
 21
8.7456558562
  0
LINE
  5
306
100
AcDbEntity
  8
0
100
AcDbLine
 62
4
  6
CONTINUOUS
 10
11.7592203052
 20
8.4472890042
 11
11.7542904225
 21
8.4057299252
  0
LINE
  5
307
100
AcDbEntity
  8
0
100
AcDbLine
 62
4
  6
CONTINUOUS
 10
11.6931598901
 20
8.7456558562
 11
11.6900787144
 21
8.7288807283
  0
LINE
  5
308
100
AcDbEntity
  8
0
100
AcDbLine
 62
4
  6
CONTINUOUS
 10
11.6355418882
 20
8.5520117239
 11
11.6392393003
 21
8.5693820963
  0
LINE
  5
309
100
AcDbEntity
  8
0
100
AcDbLine
 62
4
  6
CONTINUOUS
 10
11.6808351843
 20
8.7268516336
 11
11.6771377726
 21
8.7094812674
  0
LINE
  5
30A
100
AcDbEntity
  8
0
100
AcDbLine
 62
4
  6
CONTINUOUS
 10
11.6614237717
 20
8.5563132914
 11
11.65772636
 21
8.5389429309
  0
LINE
  5
30B
100
AcDbEntity
  8
0
100
AcDbLine
 62
4
  6
CONTINUOUS
 10
11.6355418882
 20
8.3933238929
 11
11.6392393003
 21
8.4106942768
  0
LINE
  5
30C
100
AcDbEntity
  8
0
100
AcDbLine
 62
4
  6
CONTINUOUS
 10
11.6678942426
 20
8.5073675229
 11
11.6715916547
 21
8.5247378837
  0
LINE
  5
30D
100
AcDbEntity
  8
0
100
AcDbLine
 62
4
  6
CONTINUOUS
 10
11.6937761261
 20
8.5875632664
 11
11.6900787144
 21
8.5701929059
  0
LINE
  5
30E
100
AcDbEntity
  8
0
100
AcDbLine
 62
4
  6
CONTINUOUS
 10
11.6937761261
 20
8.5116691018
 11
11.6900787144
 21
8.4942987183
  0
LINE
  5
30F
100
AcDbEntity
  8
0
100
AcDbLine
 62
4
  6
CONTINUOUS
 10
11.6937761261
 20
8.4357749143
 11
11.6900787144
 21
8.4184045538
  0
LINE
  5
310
100
AcDbEntity
  8
0
100
AcDbLine
 62
4
  6
CONTINUOUS
 10
11.6678942426
 20
8.1968913282
 11
11.6715916547
 21
8.2142616891
  0
LINE
  5
311
100
AcDbEntity
  8
0
100
AcDbLine
 62
4
  6
CONTINUOUS
 10
11.6678942426
 20
8.1163975341
 11
11.6715916547
 21
8.133767895
  0
LINE
  5
312
100
AcDbEntity
  8
0
100
AcDbLine
 62
4
  6
CONTINUOUS
 10
11.6937761261
 20
8.1206990901
 11
11.6900787144
 21
8.1033287296
  0
LINE
  5
313
100
AcDbEntity
  8
0
100
AcDbLine
 62
4
  6
CONTINUOUS
 10
11.7740099528
 20
8.371881591
 11
11.7703125411
 21
8.3545112248
  0
LINE
  5
314
100
AcDbEntity
  8
0
100
AcDbLine
 62
4
  6
CONTINUOUS
 10
11.6789864785
 20
8.4352881457
 11
11.6678942426
 21
8.3969759982
  0
LINE
  5
315
100
AcDbEntity
  8
0
100
AcDbLine
 62
4
  6
CONTINUOUS
 10
11.6937761261
 20
8.0793022396
 11
11.6678942426
 21
8.0060059634
  0
LINE
  5
316
100
AcDbEntity
  8
0
100
AcDbLine
 62
4
  6
CONTINUOUS
 10
11.7740099528
 20
8.2913877681
 11
11.7481280693
 21
8.2387898942
  0
LINE
  5
317
100
AcDbEntity
  8
0
100
AcDbLine
 62
4
  6
CONTINUOUS
 10
11.7481280693
 20
8.3813789584
 11
11.7740099528
 21
8.4063789396
  0
LINE
  5
318
100
AcDbEntity
  8
0
100
AcDbLine
 62
4
  6
CONTINUOUS
 10
12.0224760324
 20
8.6336839182
 11
11.9965941488
 21
8.6086839369
  0
LINE
  5
319
100
AcDbEntity
  8
0
100
AcDbLine
 62
4
  6
CONTINUOUS
 10
11.8838230874
 20
8.4940516717
 11
11.9060075589
 21
8.5154802269
  0
LINE
  5
31A
100
AcDbEntity
  8
0
100
AcDbLine
 62
4
  6
CONTINUOUS
 10
12.0002915605
 20
8.584657493
 11
12.0187786203
 21
8.6025146225
  0
LINE
  5
31B
100
AcDbEntity
  8
0
100
AcDbLine
 62
4
  6
CONTINUOUS
 10
11.8801256753
 20
8.4628823645
 11
11.9060075589
 21
8.4878823457
  0
LINE
  5
31C
100
AcDbEntity
  8
0
100
AcDbLine
 62
4
  6
CONTINUOUS
 10
11.7703125411
 20
8.3545112248
 11
11.7518254814
 21
8.3366540953
  0
LINE
  5
31D
100
AcDbEntity
  8
0
100
AcDbLine
 62
4
  6
CONTINUOUS
 10
12.0187786203
 20
8.5542183276
 11
12.0002915605
 21
8.5363611981
  0
LINE
  5
31E
100
AcDbEntity
  8
0
100
AcDbLine
 62
4
  6
CONTINUOUS
 10
11.6715916547
 20
8.2142616891
 11
11.6900787144
 21
8.2321188186
  0
LINE
  5
31F
100
AcDbEntity
  8
0
100
AcDbLine
 62
4
  6
CONTINUOUS
 10
11.8801256753
 20
8.4145860696
 11
11.9060075589
 21
8.4395860508
  0
LINE
  5
320
100
AcDbEntity
  8
0
100
AcDbLine
 62
4
  6
CONTINUOUS
 10
12.0187786203
 20
8.4737244874
 11
12.0002915605
 21
8.4558673579
  0
LINE
  5
321
100
AcDbEntity
  8
0
100
AcDbLine
 62
4
  6
CONTINUOUS
 10
11.6715916547
 20
8.133767895
 11
11.6900787144
 21
8.1516250245
  0
LINE
  5
322
100
AcDbEntity
  8
0
100
AcDbLine
 62
4
  6
CONTINUOUS
 10
11.7481280693
 20
8.1835941319
 11
11.7740099528
 21
8.2085941132
  0
LINE
  5
323
100
AcDbEntity
  8
0
100
AcDbLine
 62
4
  6
CONTINUOUS
 10
11.8801256753
 20
8.3110940124
 11
11.9060075589
 21
8.3360939936
  0
LINE
  5
324
100
AcDbEntity
  8
0
100
AcDbLine
 62
4
  6
CONTINUOUS
 10
11.6900787144
 20
8.1033287296
 11
11.6715916547
 21
8.0854716001
  0
LINE
  5
325
100
AcDbEntity
  8
0
100
AcDbLine
 62
4
  6
CONTINUOUS
 10
11.8967640288
 20
8.2857686012
 11
11.8801256753
 21
8.2696971849
  0
LINE
  5
326
100
AcDbEntity
  8
0
100
AcDbLine
 62
4
  6
CONTINUOUS
 10
11.6678942426
 20
8.0543022583
 11
11.6937761261
 21
8.0793022396
  0
LINE
  5
327
100
AcDbEntity
  8
0
100
AcDbLine
 62
4
  6
CONTINUOUS
 10
11.7481280693
 20
8.1283983696
 11
11.7740099528
 21
8.1533983509
  0
LINE
  5
328
100
AcDbEntity
  8
0
100
AcDbLine
 62
4
  6
CONTINUOUS
 10
11.8050682131
 20
8.1833982638
 11
11.8309500966
 21
8.2083982451
  0
LINE
  5
329
100
AcDbEntity
  8
0
100
AcDbLine
 62
7
  6
CONTINUOUS
 10
11.6251891351
 20
9.2147100945
 11
9.934818839
 21
9.3319376727
  0
LINE
  5
32A
100
AcDbEntity
  8
0
100
AcDbLine
 62
7
  6
CONTINUOUS
 10
11.2072206315
 20
9.2479834984
 11
10.3620354834
 21
9.3065972875
  0
LINE
  5
32B
100
AcDbEntity
  8
0
100
AcDbLine
 62
4
  6
CONTINUOUS
 10
11.6392393003
 20
8.5210858014
 11
11.6355418882
 21
8.5313133102
  0
LINE
  5
32C
100
AcDbEntity
  8
0
100
AcDbLine
 62
4
  6
CONTINUOUS
 10
11.682683891
 20
8.4112617024
 11
11.6789864785
 21
8.4214892108
  0
LINE
  5
32D
100
AcDbEntity
  8
0
100
AcDbLine
 62
4
  6
CONTINUOUS
 10
11.8087656252
 20
8.0696786863
 11
11.8050682131
 21
8.0799062066
  0
LINE
  5
32E
100
AcDbEntity
  8
0
100
AcDbLine
 62
4
  6
CONTINUOUS
 10
11.8967640288
 20
7.8304035449
 11
11.8986127354
 21
7.8252898141
  0
LINE
  5
32F
100
AcDbEntity
  8
0
100
AcDbLine
 62
4
  6
CONTINUOUS
 10
11.6715916547
 20
8.4764415888
 11
11.6678942426
 21
8.4866691206
  0
LINE
  5
330
100
AcDbEntity
  8
0
100
AcDbLine
 62
4
  6
CONTINUOUS
 10
11.8217065666
 20
8.089078144
 11
11.8180091548
 21
8.0993056646
  0
LINE
  5
331
100
AcDbEntity
  8
0
100
AcDbLine
 62
4
  6
CONTINUOUS
 10
11.65772636
 20
8.5872392258
 11
11.6614237717
 21
8.5770117051
  0
LINE
  5
332
100
AcDbEntity
  8
0
100
AcDbLine
 62
4
  6
CONTINUOUS
 10
11.7518254814
 20
8.3366540953
 11
11.7481280693
 21
8.3468816098
  0
LINE
  5
333
100
AcDbEntity
  8
0
100
AcDbLine
 62
4
  6
CONTINUOUS
 10
11.6900787144
 20
8.5425950132
 11
11.6937761261
 21
8.5323675041
  0
LINE
  5
334
100
AcDbEntity
  8
0
100
AcDbLine
 62
4
  6
CONTINUOUS
 10
11.682683891
 20
8.5630500545
 11
11.6789864785
 21
8.5732775629
  0
LINE
  5
335
100
AcDbEntity
  8
0
100
AcDbLine
 62
4
  6
CONTINUOUS
 10
11.6715916547
 20
8.7041241285
 11
11.6678942426
 21
8.714351643
  0
LINE
  5
336
100
AcDbEntity
  8
0
100
AcDbLine
 62
4
  6
CONTINUOUS
 10
11.6845325961
 20
8.723523589
 11
11.6808351843
 21
8.7337511039
  0
LINE
  5
337
100
AcDbEntity
  8
0
100
AcDbLine
 62
4
  6
CONTINUOUS
 10
12.0108292003
 20
7.5177135174
 11
12.0082410126
 21
7.5297024079
  0
LINE
  5
338
100
AcDbEntity
  8
0
100
AcDbLine
 62
4
  6
CONTINUOUS
 10
11.7592203052
 20
7.6446506015
 11
11.7542904225
 21
7.6766858751
  0
LINE
  5
339
100
AcDbEntity
  8
0
100
AcDbLine
 62
4
  6
CONTINUOUS
 10
11.7641501883
 20
8.4152537281
 11
11.7592203052
 21
8.4472890042
  0
LINE
  5
33A
100
AcDbEntity
  8
0
100
AcDbLine
 62
4
  6
CONTINUOUS
 10
11.8050682131
 20
8.1833982638
 11
11.8050682131
 21
8.1420014392
  0
LINE
  5
33B
100
AcDbEntity
  8
0
100
AcDbLine
 62
4
  6
CONTINUOUS
 10
11.8050682131
 20
8.0385093791
 11
11.8050682131
 21
8.010911498
  0
LINE
  5
33C
100
AcDbEntity
  8
0
100
AcDbLine
 62
4
  6
CONTINUOUS
 10
11.8050682131
 20
8.0799062066
 11
11.8050682131
 21
8.1144035552
  0
LINE
  5
33D
100
AcDbEntity
  8
0
100
AcDbLine
 62
4
  6
CONTINUOUS
 10
11.8180091548
 20
8.0924061972
 11
11.8180091548
 21
8.1269035458
  0
LINE
  5
33E
100
AcDbEntity
  8
0
100
AcDbLine
 62
4
  6
CONTINUOUS
 10
11.8198578615
 20
8.0251972022
 11
11.8198578615
 21
8.0527950833
  0
LINE
  5
33F
100
AcDbEntity
  8
0
100
AcDbLine
 62
4
  6
CONTINUOUS
 10
11.8198578615
 20
8.170086084
 11
11.8198578615
 21
8.197683968
  0
LINE
  5
340
100
AcDbEntity
  8
0
100
AcDbLine
 62
4
  6
CONTINUOUS
 10
11.8309500966
 20
8.2083982451
 11
11.8309500966
 21
8.1670014204
  0
LINE
  5
341
100
AcDbEntity
  8
0
100
AcDbLine
 62
4
  6
CONTINUOUS
 10
11.8309500966
 20
8.1394035364
 11
11.8309500966
 21
8.1187051284
  0
LINE
  5
342
100
AcDbEntity
  8
0
100
AcDbLine
 62
4
  6
CONTINUOUS
 10
11.8309500966
 20
8.0635093604
 11
11.8309500966
 21
8.0221125329
  0
LINE
  5
343
100
AcDbEntity
  8
0
100
AcDbLine
 62
4
  6
CONTINUOUS
 10
11.8739633221
 20
8.2361469157
 11
11.8739633221
 21
8.2223479809
  0
LINE
  5
344
100
AcDbEntity
  8
0
100
AcDbLine
 62
4
  6
CONTINUOUS
 10
11.8801256753
 20
8.6077712456
 11
11.8801256753
 21
8.5801733623
  0
LINE
  5
345
100
AcDbEntity
  8
0
100
AcDbLine
 62
4
  6
CONTINUOUS
 10
11.8801256753
 20
8.5249776
 11
11.8801256753
 21
8.5042791805
  0
LINE
  5
346
100
AcDbEntity
  8
0
100
AcDbLine
 62
4
  6
CONTINUOUS
 10
11.8801256753
 20
7.9753197629
 11
11.8801256753
 21
7.9408224028
  0
LINE
  5
347
100
AcDbEntity
  8
0
100
AcDbLine
 62
4
  6
CONTINUOUS
 10
11.8801256753
 20
7.7453374085
 11
11.8801256753
 21
7.7177395388
  0
LINE
  5
348
100
AcDbEntity
  8
0
100
AcDbLine
 62
4
  6
CONTINUOUS
 10
11.8801256753
 20
7.7798347225
 11
11.8801256753
 21
7.8074326842
  0
LINE
  5
349
100
AcDbEntity
  8
0
100
AcDbLine
 62
4
  6
CONTINUOUS
 10
11.8801256753
 20
7.8925261079
 11
11.8801256753
 21
7.9063250428
  0
LINE
  5
34A
100
AcDbEntity
  8
0
100
AcDbLine
 62
4
  6
CONTINUOUS
 10
11.8801256753
 20
8.009817123
 11
11.8801256753
 21
8.0374149926
  0
LINE
  5
34B
100
AcDbEntity
  8
0
100
AcDbLine
 62
4
  6
CONTINUOUS
 10
11.8801256753
 20
8.1409070729
 11
11.8801256753
 21
8.1685049425
  0
LINE
  5
34C
100
AcDbEntity
  8
0
100
AcDbLine
 62
4
  6
CONTINUOUS
 10
11.8893692054
 20
8.0463435576
 11
11.8893692054
 21
8.0187456879
  0
LINE
  5
34D
100
AcDbEntity
  8
0
100
AcDbLine
 62
4
  6
CONTINUOUS
 10
11.8986127354
 20
8.3289511423
 11
11.8986127354
 21
8.2944537822
  0
LINE
  5
34E
100
AcDbEntity
  8
0
100
AcDbLine
 62
4
  6
CONTINUOUS
 10
11.8986127354
 20
8.1863620724
 11
11.8986127354
 21
8.1587642027
  0
LINE
  5
34F
100
AcDbEntity
  8
0
100
AcDbLine
 62
4
  6
CONTINUOUS
 10
11.8986127354
 20
8.131166287
 11
11.8986127354
 21
8.1035684174
  0
LINE
  5
350
100
AcDbEntity
  8
0
100
AcDbLine
 62
4
  6
CONTINUOUS
 10
11.8986127354
 20
7.8252898141
 11
11.8986127354
 21
7.7976918523
  0
LINE
  5
351
100
AcDbEntity
  8
0
100
AcDbLine
 62
4
  6
CONTINUOUS
 10
11.8986127354
 20
7.7631945383
 11
11.8986127354
 21
7.7355966687
  0
LINE
  5
352
100
AcDbEntity
  8
0
100
AcDbLine
 62
4
  6
CONTINUOUS
 10
11.8986127354
 20
8.0345736972
 11
11.8986127354
 21
8.0690710573
  0
LINE
  5
353
100
AcDbEntity
  8
0
100
AcDbLine
 62
7
  6
CONTINUOUS
 10
11.9031296611
 20
6.1345296267
 11
11.9031296611
 21
7.3098465744
  0
LINE
  5
354
100
AcDbEntity
  8
0
100
AcDbLine
 62
7
  6
CONTINUOUS
 10
11.904095587
 20
10.3613545011
 11
11.904095587
 21
9.5461130554
  0
LINE
  5
355
100
AcDbEntity
  8
0
100
AcDbLine
 62
4
  6
CONTINUOUS
 10
11.9060075589
 20
8.6258717558
 11
11.9060075589
 21
8.5982738732
  0
LINE
  5
356
100
AcDbEntity
  8
0
100
AcDbLine
 62
4
  6
CONTINUOUS
 10
11.9060075589
 20
7.8761292847
 11
11.9060075589
 21
7.8738294699
  0
LINE
  5
357
100
AcDbEntity
  8
0
100
AcDbLine
 62
7
  6
CONTINUOUS
 10
11.9159074548
 20
7.322188976
 11
11.9159074548
 21
6.159649822
  0
LINE
  5
358
100
AcDbEntity
  8
0
100
AcDbLine
 62
7
  6
CONTINUOUS
 10
11.9168733806
 20
9.5712332507
 11
11.9168733806
 21
10.3864746964
  0
LINE
  5
359
100
AcDbEntity
  8
0
100
AcDbLine
 62
4
  6
CONTINUOUS
 10
11.8887529701
 20
7.7260728661
 11
11.8899854407
 21
7.754861211
  0
LINE
  5
35A
100
AcDbEntity
  8
0
100
AcDbLine
 62
4
  6
CONTINUOUS
 10
11.8309500966
 20
8.1187051284
 11
11.8303338606
 21
8.1112104169
  0
LINE
  5
35B
100
AcDbEntity
  8
0
100
AcDbLine
 62
4
  6
CONTINUOUS
 10
11.7641501883
 20
7.686209678
 11
11.7592203052
 21
7.6446506015
  0
LINE
  5
35C
100
AcDbEntity
  8
0
100
AcDbLine
 62
4
  6
CONTINUOUS
 10
11.8801256753
 20
8.1685049425
 11
11.8819743814
 21
8.1840895903
  0
LINE
  5
35D
100
AcDbEntity
  8
0
100
AcDbLine
 62
4
  6
CONTINUOUS
 10
11.8801256753
 20
8.0374149926
 11
11.8819743814
 21
8.0529996405
  0
LINE
  5
35E
100
AcDbEntity
  8
0
100
AcDbLine
 62
4
  6
CONTINUOUS
 10
11.8303338606
 20
8.1112104169
 11
11.8272526849
 21
8.0944352832
  0
LINE
  5
35F
100
AcDbEntity
  8
0
100
AcDbLine
 62
4
  6
CONTINUOUS
 10
11.8875204995
 20
8.5735172738
 11
11.8986127354
 21
8.6325278465
  0
LINE
  5
360
100
AcDbEntity
  8
0
100
AcDbLine
 62
4
  6
CONTINUOUS
 10
11.6678942426
 20
7.8059213395
 11
11.6715916547
 21
7.8232917464
  0
LINE
  5
361
100
AcDbEntity
  8
0
100
AcDbLine
 62
4
  6
CONTINUOUS
 10
11.6937761261
 20
7.88611706
 11
11.6900787144
 21
7.8687467455
  0
LINE
  5
362
100
AcDbEntity
  8
0
100
AcDbLine
 62
4
  6
CONTINUOUS
 10
11.6937761261
 20
7.8102228954
 11
11.6900787144
 21
7.792852581
  0
LINE
  5
363
100
AcDbEntity
  8
0
100
AcDbLine
 62
4
  6
CONTINUOUS
 10
11.8819743814
 20
8.6164564296
 11
11.8801256753
 21
8.6077712456
  0
LINE
  5
364
100
AcDbEntity
  8
0
100
AcDbLine
 62
4
  6
CONTINUOUS
 10
11.7481280693
 20
7.9697105271
 11
11.7518254814
 21
7.987080888
  0
LINE
  5
365
100
AcDbEntity
  8
0
100
AcDbLine
 62
4
  6
CONTINUOUS
 10
11.8838230874
 20
8.5423479666
 11
11.8801256753
 21
8.5249776
  0
LINE
  5
366
100
AcDbEntity
  8
0
100
AcDbLine
 62
4
  6
CONTINUOUS
 10
11.7481280693
 20
7.889216733
 11
11.7518254814
 21
7.9065870938
  0
LINE
  5
367
100
AcDbEntity
  8
0
100
AcDbLine
 62
4
  6
CONTINUOUS
 10
11.9060075589
 20
8.5982738732
 11
11.9041588522
 21
8.5895886893
  0
LINE
  5
368
100
AcDbEntity
  8
0
100
AcDbLine
 62
4
  6
CONTINUOUS
 10
11.7740099528
 20
7.8935182889
 11
11.7703125411
 21
7.8761479284
  0
LINE
  5
369
100
AcDbEntity
  8
0
100
AcDbLine
 62
4
  6
CONTINUOUS
 10
11.8180091548
 20
8.0924061972
 11
11.8143117431
 21
8.0750358252
  0
LINE
  5
36A
100
AcDbEntity
  8
0
100
AcDbLine
 62
4
  6
CONTINUOUS
 10
11.9965941488
 20
8.8777632811
 11
12.0002915605
 21
8.8951336876
  0
LINE
  5
36B
100
AcDbEntity
  8
0
100
AcDbLine
 62
4
  6
CONTINUOUS
 10
11.7740099528
 20
7.8176241244
 11
11.7703125411
 21
7.8002537639
  0
LINE
  5
36C
100
AcDbEntity
  8
0
100
AcDbLine
 62
4
  6
CONTINUOUS
 10
11.816160449
 20
8.0078268294
 11
11.8198578615
 21
8.0251972022
  0
LINE
  5
36D
100
AcDbEntity
  8
0
100
AcDbLine
 62
4
  6
CONTINUOUS
 10
11.9965941488
 20
8.8018691165
 11
12.0002915605
 21
8.8192395231
  0
LINE
  5
36E
100
AcDbEntity
  8
0
100
AcDbLine
 62
4
  6
CONTINUOUS
 10
12.0224760324
 20
8.882064837
 11
12.0187786203
 21
8.8646945222
  0
LINE
  5
36F
100
AcDbEntity
  8
0
100
AcDbLine
 62
4
  6
CONTINUOUS
 10
11.8986127354
 20
8.2944537822
 11
11.8967640288
 21
8.2857686012
  0
LINE
  5
370
100
AcDbEntity
  8
0
100
AcDbLine
 62
4
  6
CONTINUOUS
 10
11.9965941488
 20
8.5672871325
 11
12.0002915605
 21
8.584657493
  0
LINE
  5
371
100
AcDbEntity
  8
0
100
AcDbLine
 62
4
  6
CONTINUOUS
 10
11.8819743814
 20
7.9840049664
 11
11.8801256753
 21
7.9753197629
  0
LINE
  5
372
100
AcDbEntity
  8
0
100
AcDbLine
 62
4
  6
CONTINUOUS
 10
11.8801256753
 20
7.9063250428
 11
11.8819743814
 21
7.9150102462
  0
LINE
  5
373
100
AcDbEntity
  8
0
100
AcDbLine
 62
4
  6
CONTINUOUS
 10
12.0224760324
 20
8.5715886885
 11
12.0187786203
 21
8.5542183276
  0
LINE
  5
374
100
AcDbEntity
  8
0
100
AcDbLine
 62
4
  6
CONTINUOUS
 10
11.6789864785
 20
7.8856303374
 11
11.6678942426
 21
7.84731819
  0
LINE
  5
375
100
AcDbEntity
  8
0
100
AcDbLine
 62
4
  6
CONTINUOUS
 10
12.0113837965
 20
8.8023558391
 11
12.0224760324
 21
8.8406680786
  0
LINE
  5
376
100
AcDbEntity
  8
0
100
AcDbLine
 62
4
  6
CONTINUOUS
 10
11.8986127354
 20
8.1035684174
 11
11.8967640288
 21
8.0971830742
  0
LINE
  5
377
100
AcDbEntity
  8
0
100
AcDbLine
 62
4
  6
CONTINUOUS
 10
11.9060075589
 20
8.4878823457
 11
11.8801256753
 21
8.4145860696
  0
LINE
  5
378
100
AcDbEntity
  8
0
100
AcDbLine
 62
4
  6
CONTINUOUS
 10
11.9965941488
 20
8.6086839369
 11
12.0224760324
 21
8.6819802131
  0
LINE
  5
379
100
AcDbEntity
  8
0
100
AcDbLine
 62
4
  6
CONTINUOUS
 10
11.8986127354
 20
8.2599564221
 11
11.8801256753
 21
8.221400867
  0
LINE
  5
37A
100
AcDbEntity
  8
0
100
AcDbLine
 62
4
  6
CONTINUOUS
 10
12.0289465033
 20
8.3777540122
 11
12.0548283868
 21
8.4027539934
  0
LINE
  5
37B
100
AcDbEntity
  8
0
100
AcDbLine
 62
4
  6
CONTINUOUS
 10
11.6678942426
 20
8.0060059634
 11
11.6937761261
 21
8.0310059447
  0
LINE
  5
37C
100
AcDbEntity
  8
0
100
AcDbLine
 62
4
  6
CONTINUOUS
 10
12.0224760324
 20
8.3462059636
 11
11.9965941488
 21
8.3212059824
  0
LINE
  5
37D
100
AcDbEntity
  8
0
100
AcDbLine
 62
4
  6
CONTINUOUS
 10
11.8050682131
 20
8.1144035552
 11
11.8309500966
 21
8.1394035364
  0
LINE
  5
37E
100
AcDbEntity
  8
0
100
AcDbLine
 62
4
  6
CONTINUOUS
 10
12.0548283868
 20
8.3544576985
 11
12.0289465033
 21
8.3294577173
  0
LINE
  5
37F
100
AcDbEntity
  8
0
100
AcDbLine
 62
4
  6
CONTINUOUS
 10
11.8819743814
 20
8.1840895903
 11
11.8967640288
 21
8.1983752936
  0
LINE
  5
380
100
AcDbEntity
  8
0
100
AcDbLine
 62
4
  6
CONTINUOUS
 10
11.6678942426
 20
7.9508102242
 11
11.6937761261
 21
7.9758102054
  0
LINE
  5
381
100
AcDbEntity
  8
0
100
AcDbLine
 62
4
  6
CONTINUOUS
 10
12.0002915605
 20
8.2695816457
 11
12.007686384
 21
8.2767244971
  0
LINE
  5
382
100
AcDbEntity
  8
0
100
AcDbLine
 62
4
  6
CONTINUOUS
 10
11.8272526849
 20
8.0944352832
 11
11.8217065666
 21
8.089078144
  0
LINE
  5
383
100
AcDbEntity
  8
0
100
AcDbLine
 62
4
  6
CONTINUOUS
 10
11.9060075589
 20
8.1659070541
 11
11.8801256753
 21
8.1409070729
  0
LINE
  5
384
100
AcDbEntity
  8
0
100
AcDbLine
 62
4
  6
CONTINUOUS
 10
11.8143117431
 20
8.0750358252
 11
11.8087656252
 21
8.0696786863
  0
LINE
  5
385
100
AcDbEntity
  8
0
100
AcDbLine
 62
4
  6
CONTINUOUS
 10
11.8801256753
 20
8.1133091572
 11
11.8986127354
 21
8.131166287
  0
LINE
  5
386
100
AcDbEntity
  8
0
100
AcDbLine
 62
4
  6
CONTINUOUS
 10
11.7518254814
 20
7.987080888
 11
11.7703125411
 21
8.0049380175
  0
LINE
  5
387
100
AcDbEntity
  8
0
100
AcDbLine
 62
4
  6
CONTINUOUS
 10
11.8198578615
 20
8.0527950833
 11
11.8309500966
 21
8.0635093604
  0
LINE
  5
388
100
AcDbEntity
  8
0
100
AcDbLine
 62
4
  6
CONTINUOUS
 10
12.0511309747
 20
8.2703924553
 11
12.032643915
 21
8.2525353258
  0
LINE
  5
389
100
AcDbEntity
  8
0
100
AcDbLine
 62
4
  6
CONTINUOUS
 10
12.0224760324
 20
8.2427139064
 11
11.9965941488
 21
8.2177139252
  0
LINE
  5
38A
100
AcDbEntity
  8
0
100
AcDbLine
 62
4
  6
CONTINUOUS
 10
11.6678942426
 20
7.8956144849
 11
11.6937761261
 21
7.9206144661
  0
LINE
  5
38B
100
AcDbEntity
  8
0
100
AcDbLine
 62
4
  6
CONTINUOUS
 10
11.8967640288
 20
8.0971830742
 11
11.8930666171
 21
8.0936116485
  0
LINE
  5
38C
100
AcDbEntity
  8
0
100
AcDbLine
 62
4
  6
CONTINUOUS
 10
12.0002915605
 20
8.1936874812
 11
12.0187786203
 21
8.2115446107
  0
LINE
  5
38D
100
AcDbEntity
  8
0
100
AcDbLine
 62
4
  6
CONTINUOUS
 10
11.8087656252
 20
8.0006839777
 11
11.816160449
 21
8.0078268294
  0
LINE
  5
38E
100
AcDbEntity
  8
0
100
AcDbLine
 62
4
  6
CONTINUOUS
 10
11.6900787144
 20
7.8687467455
 11
11.682683891
 21
7.8616038942
  0
LINE
  5
38F
100
AcDbEntity
  8
0
100
AcDbLine
 62
4
  6
CONTINUOUS
 10
11.8819743814
 20
8.0529996405
 11
11.8875204995
 21
8.0583567795
  0
LINE
  5
390
100
AcDbEntity
  8
0
100
AcDbLine
 62
4
  6
CONTINUOUS
 10
12.0548283868
 20
8.2187681191
 11
12.0289465033
 21
8.1937681378
  0
LINE
  5
391
100
AcDbEntity
  8
0
100
AcDbLine
 62
4
  6
CONTINUOUS
 10
11.7518254814
 20
7.9065870938
 11
11.7703125411
 21
7.9244442233
  0
LINE
  5
392
100
AcDbEntity
  8
0
100
AcDbLine
 62
4
  6
CONTINUOUS
 10
12.0187786203
 20
8.1632483158
 11
12.0002915605
 21
8.1453911863
  0
LINE
  5
393
100
AcDbEntity
  8
0
100
AcDbLine
 62
4
  6
CONTINUOUS
 10
11.6715916547
 20
7.8232917464
 11
11.6900787144
 21
7.8411488759
  0
LINE
  5
394
100
AcDbEntity
  8
0
100
AcDbLine
 62
4
  6
CONTINUOUS
 10
11.8801256753
 20
8.009817123
 11
11.8949153237
 21
8.0241028272
  0
LINE
  5
395
100
AcDbEntity
  8
0
100
AcDbLine
 62
4
  6
CONTINUOUS
 10
12.0002915605
 20
8.1177932936
 11
12.007686384
 21
8.124936145
  0
LINE
  5
396
100
AcDbEntity
  8
0
100
AcDbLine
 62
4
  6
CONTINUOUS
 10
12.032643915
 20
8.1421438012
 11
12.0511309747
 21
8.1600009307
  0
LINE
  5
397
100
AcDbEntity
  8
0
100
AcDbLine
 62
4
  6
CONTINUOUS
 10
11.8986127354
 20
8.0000763832
 11
11.8819743814
 21
7.9840049664
  0
LINE
  5
398
100
AcDbEntity
  8
0
100
AcDbLine
 62
4
  6
CONTINUOUS
 10
11.7703125411
 20
7.8761479284
 11
11.7518254814
 21
7.858290799
  0
LINE
  5
399
100
AcDbEntity
  8
0
100
AcDbLine
 62
4
  6
CONTINUOUS
 10
11.6900787144
 20
7.792852581
 11
11.6715916547
 21
7.7749954515
  0
LINE
  5
39A
100
AcDbEntity
  8
0
100
AcDbLine
 62
4
  6
CONTINUOUS
 10
12.007686384
 20
8.124936145
 11
12.0113837965
 21
8.1147086366
  0
LINE
  5
39B
100
AcDbEntity
  8
0
100
AcDbLine
 62
4
  6
CONTINUOUS
 10
12.0002915605
 20
8.1453911863
 11
11.9965941488
 21
8.1556186954
  0
LINE
  5
39C
100
AcDbEntity
  8
0
100
AcDbLine
 62
4
  6
CONTINUOUS
 10
11.8801256753
 20
8.5042791805
 11
11.8838230874
 21
8.4940516717
  0
LINE
  5
39D
100
AcDbEntity
  8
0
100
AcDbLine
 62
4
  6
CONTINUOUS
 10
12.032643915
 20
8.0938475063
 11
12.0289465033
 21
8.104075027
  0
LINE
  5
39E
100
AcDbEntity
  8
0
100
AcDbLine
 62
4
  6
CONTINUOUS
 10
11.8801256753
 20
8.5801733623
 11
11.8838230874
 21
8.5699458477
  0
LINE
  5
39F
100
AcDbEntity
  8
0
100
AcDbLine
 62
4
  6
CONTINUOUS
 10
12.0187786203
 20
8.2115446107
 11
12.0224760324
 21
8.2013171019
  0
LINE
  5
3A0
100
AcDbEntity
  8
0
100
AcDbLine
 62
4
  6
CONTINUOUS
 10
12.007686384
 20
8.2767244971
 11
12.0113837965
 21
8.2664969887
  0
LINE
  5
3A1
100
AcDbEntity
  8
0
100
AcDbLine
 62
4
  6
CONTINUOUS
 10
12.0511309747
 20
8.1600009307
 11
12.0548283868
 21
8.1497734219
  0
LINE
  5
3A2
100
AcDbEntity
  8
0
100
AcDbLine
 62
4
  6
CONTINUOUS
 10
12.032643915
 20
8.2525353258
 11
12.0289465033
 21
8.262762858
  0
LINE
  5
3A3
100
AcDbEntity
  8
0
100
AcDbLine
 62
4
  6
CONTINUOUS
 10
11.9023101472
 20
8.6360992721
 11
11.9060075589
 21
8.6258717558
  0
LINE
  5
3A4
100
AcDbEntity
  8
0
100
AcDbLine
 62
4
  6
CONTINUOUS
 10
12.0002915605
 20
8.4558673579
 11
11.9965941488
 21
8.466094867
  0
LINE
  5
3A5
100
AcDbEntity
  8
0
100
AcDbLine
 62
4
  6
CONTINUOUS
 10
12.0002915605
 20
8.5363611981
 11
11.9965941488
 21
8.5465887072
  0
LINE
  5
3A6
100
AcDbEntity
  8
0
100
AcDbLine
 62
4
  6
CONTINUOUS
 10
12.0211819545
 20
7.5711801745
 11
12.0263583307
 21
7.5472023944
  0
LINE
  5
3A7
100
AcDbEntity
  8
0
100
AcDbLine
 62
4
  6
CONTINUOUS
 10
11.8875204995
 20
8.0583567795
 11
11.8893692054
 21
8.0463435576
  0
LINE
  5
3A8
100
AcDbEntity
  8
0
100
AcDbLine
 62
4
  6
CONTINUOUS
 10
11.8967640288
 20
8.1983752936
 11
11.8986127354
 21
8.1863620724
  0
LINE
  5
3A9
100
AcDbEntity
  8
0
100
AcDbLine
 62
4
  6
CONTINUOUS
 10
11.9965941488
 20
8.0659255846
 11
11.9965941488
 21
8.1004229331
  0
LINE
  5
3AA
100
AcDbEntity
  8
0
100
AcDbLine
 62
4
  6
CONTINUOUS
 10
11.9965941488
 20
8.1556186954
 11
11.9965941488
 21
8.1763171207
  0
LINE
  5
3AB
100
AcDbEntity
  8
0
100
AcDbLine
 62
4
  6
CONTINUOUS
 10
11.9965941488
 20
8.2177139252
 11
11.9965941488
 21
8.2522112852
  0
LINE
  5
3AC
100
AcDbEntity
  8
0
100
AcDbLine
 62
4
  6
CONTINUOUS
 10
11.9965941488
 20
8.2936081127
 11
11.9965941488
 21
8.3488038981
  0
LINE
  5
3AD
100
AcDbEntity
  8
0
100
AcDbLine
 62
4
  6
CONTINUOUS
 10
11.9965941488
 20
8.466094867
 11
11.9965941488
 21
8.4936927827
  0
LINE
  5
3AE
100
AcDbEntity
  8
0
100
AcDbLine
 62
4
  6
CONTINUOUS
 10
11.9965941488
 20
8.5465887072
 11
11.9965941488
 21
8.5672871325
  0
LINE
  5
3AF
100
AcDbEntity
  8
0
100
AcDbLine
 62
4
  6
CONTINUOUS
 10
11.9965941488
 20
8.6845781015
 11
11.9965941488
 21
8.7397738408
  0
LINE
  5
3B0
100
AcDbEntity
  8
0
100
AcDbLine
 62
4
  6
CONTINUOUS
 10
11.9965941488
 20
8.7673718025
 11
11.9965941488
 21
8.8018691165
  0
LINE
  5
3B1
100
AcDbEntity
  8
0
100
AcDbLine
 62
4
  6
CONTINUOUS
 10
11.9965941488
 20
8.8570648558
 11
11.9965941488
 21
8.8777632811
  0
LINE
  5
3B2
100
AcDbEntity
  8
0
100
AcDbLine
 62
4
  6
CONTINUOUS
 10
12.0082410126
 20
7.5297024079
 11
12.0082410126
 21
7.5441912958
  0
LINE
  5
3B3
100
AcDbEntity
  8
0
100
AcDbLine
 62
4
  6
CONTINUOUS
 10
12.0113837965
 20
8.81615482
 11
12.0113837965
 21
8.781657506
  0
LINE
  5
3B4
100
AcDbEntity
  8
0
100
AcDbLine
 62
4
  6
CONTINUOUS
 10
12.0113837965
 20
8.2664969887
 11
12.0113837965
 21
8.2319996286
  0
LINE
  5
3B5
100
AcDbEntity
  8
0
100
AcDbLine
 62
4
  6
CONTINUOUS
 10
12.0113837965
 20
8.1147086366
 11
12.0113837965
 21
8.080211288
  0
LINE
  5
3B6
100
AcDbEntity
  8
0
100
AcDbLine
 62
4
  6
CONTINUOUS
 10
12.0150812082
 20
7.9342941771
 11
12.0150812082
 21
7.9710913541
  0
LINE
  5
3B7
100
AcDbEntity
  8
0
100
AcDbLine
 62
4
  6
CONTINUOUS
 10
12.0224760324
 20
8.9027632623
 11
12.0224760324
 21
8.882064837
  0
LINE
  5
3B8
100
AcDbEntity
  8
0
100
AcDbLine
 62
4
  6
CONTINUOUS
 10
12.0224760324
 20
8.5922871137
 11
12.0224760324
 21
8.5715886885
  0
LINE
  5
3B9
100
AcDbEntity
  8
0
100
AcDbLine
 62
4
  6
CONTINUOUS
 10
12.0224760324
 20
8.518692764
 11
12.0224760324
 21
8.4910948483
  0
LINE
  5
3BA
100
AcDbEntity
  8
0
100
AcDbLine
 62
4
  6
CONTINUOUS
 10
12.0224760324
 20
8.2013171019
 11
12.0224760324
 21
8.1806186767
  0
LINE
  5
3BB
100
AcDbEntity
  8
0
100
AcDbLine
 62
4
  6
CONTINUOUS
 10
12.0224760324
 20
8.9441601128
 11
12.0224760324
 21
8.9786574268
  0
LINE
  5
3BC
100
AcDbEntity
  8
0
100
AcDbLine
 62
4
  6
CONTINUOUS
 10
12.0257112678
 20
7.9353627324
 11
12.0257112678
 21
8.3700293865
  0
LINE
  5
3BD
100
AcDbEntity
  8
0
100
AcDbLine
 62
4
  6
CONTINUOUS
 10
12.0289465033
 20
8.104075027
 11
12.0289465033
 21
8.1247734407
  0
LINE
  5
3BE
100
AcDbEntity
  8
0
100
AcDbLine
 62
4
  6
CONTINUOUS
 10
12.0289465033
 20
8.1661702682
 11
12.0289465033
 21
8.2213660305
  0
LINE
  5
3BF
100
AcDbEntity
  8
0
100
AcDbLine
 62
4
  6
CONTINUOUS
 10
12.0289465033
 20
8.262762858
 11
12.0289465033
 21
8.2903607276
  0
LINE
  5
3C0
100
AcDbEntity
  8
0
100
AcDbLine
 62
4
  6
CONTINUOUS
 10
12.0392992717
 20
7.5379690524
 11
12.0392992717
 21
7.5959246041
  0
LINE
  5
3C1
100
AcDbEntity
  8
0
100
AcDbLine
 62
4
  6
CONTINUOUS
 10
12.0400387384
 20
8.3401719943
 11
12.0400387384
 21
8.3884682892
  0
LINE
  5
3C2
100
AcDbEntity
  8
0
100
AcDbLine
 62
4
  6
CONTINUOUS
 10
12.0548283868
 20
8.3153607089
 11
12.0548283868
 21
8.2877628392
  0
LINE
  5
3C3
100
AcDbEntity
  8
0
100
AcDbLine
 62
4
  6
CONTINUOUS
 10
12.0548283868
 20
8.1497734219
 11
12.0548283868
 21
8.1290750082
  0
LINE
  5
3C4
100
AcDbEntity
  8
0
100
AcDbLine
 62
7
  6
CONTINUOUS
 10
12.065181161
 20
9.6397097809
 11
12.065181161
 21
7.4663763127
  0
LINE
  5
3C5
100
AcDbEntity
  8
0
100
AcDbLine
 62
4
  6
CONTINUOUS
 10
11.8899854407
 20
7.754861211
 11
11.8912179112
 21
7.7629511306
  0
LINE
  5
3C6
100
AcDbEntity
  8
0
100
AcDbLine
 62
4
  6
CONTINUOUS
 10
11.8875204995
 20
7.7179829465
 11
11.8887529701
 21
7.7260728661
  0
LINE
  5
3C7
100
AcDbEntity
  8
0
100
AcDbLine
 62
4
  6
CONTINUOUS
 10
12.0082410126
 20
7.5441912958
 11
12.0108292003
 21
7.5611801812
  0
LINE
  5
3C8
100
AcDbEntity
  8
0
100
AcDbLine
 62
4
  6
CONTINUOUS
 10
12.0224760324
 20
8.4910948483
 11
12.0187786203
 21
8.4737244874
  0
LINE
  5
3C9
100
AcDbEntity
  8
0
100
AcDbLine
 62
4
  6
CONTINUOUS
 10
11.8801256753
 20
7.8074326842
 11
11.8819743814
 21
7.8161178416
  0
LINE
  5
3CA
100
AcDbEntity
  8
0
100
AcDbLine
 62
4
  6
CONTINUOUS
 10
11.8819743814
 20
7.7540225659
 11
11.8801256753
 21
7.7453374085
  0
LINE
  5
3CB
100
AcDbEntity
  8
0
100
AcDbLine
 62
4
  6
CONTINUOUS
 10
11.9965941488
 20
8.2522112852
 11
12.0002915605
 21
8.2695816457
  0
LINE
  5
3CC
100
AcDbEntity
  8
0
100
AcDbLine
 62
4
  6
CONTINUOUS
 10
11.8986127354
 20
7.7355966687
 11
11.8967640288
 21
7.7269115107
  0
LINE
  5
3CD
100
AcDbEntity
  8
0
100
AcDbLine
 62
4
  6
CONTINUOUS
 10
11.9965941488
 20
8.1763171207
 11
12.0002915605
 21
8.1936874812
  0
LINE
  5
3CE
100
AcDbEntity
  8
0
100
AcDbLine
 62
4
  6
CONTINUOUS
 10
11.9965941488
 20
8.1004229331
 11
12.0002915605
 21
8.1177932936
  0
LINE
  5
3CF
100
AcDbEntity
  8
0
100
AcDbLine
 62
4
  6
CONTINUOUS
 10
12.0224760324
 20
8.1806186767
 11
12.0187786203
 21
8.1632483158
  0
LINE
  5
3D0
100
AcDbEntity
  8
0
100
AcDbLine
 62
4
  6
CONTINUOUS
 10
12.0548283868
 20
8.2877628392
 11
12.0511309747
 21
8.2703924553
  0
LINE
  5
3D1
100
AcDbEntity
  8
0
100
AcDbLine
 62
4
  6
CONTINUOUS
 10
12.0289465033
 20
8.1247734407
 11
12.032643915
 21
8.1421438012
  0
LINE
  5
3D2
100
AcDbEntity
  8
0
100
AcDbLine
 62
4
  6
CONTINUOUS
 10
12.0548283868
 20
8.1290750082
 11
12.0511309747
 21
8.1117046358
  0
LINE
  5
3D3
100
AcDbEntity
  8
0
100
AcDbLine
 62
4
  6
CONTINUOUS
 10
12.0113837965
 20
8.2526980539
 11
12.0224760324
 21
8.2910102013
  0
LINE
  5
3D4
100
AcDbEntity
  8
0
100
AcDbLine
 62
4
  6
CONTINUOUS
 10
11.8949153237
 20
8.0241028272
 11
11.8986127354
 21
8.0345736972
  0
LINE
  5
3D5
100
AcDbEntity
  8
0
100
AcDbLine
 62
4
  6
CONTINUOUS
 10
12.0289465033
 20
8.0143819046
 11
12.0548283868
 21
8.0876781807
  0
LINE
  5
3D6
100
AcDbEntity
  8
0
100
AcDbLine
 62
4
  6
CONTINUOUS
 10
12.0548283868
 20
7.9634877113
 11
12.0391122286
 21
7.9209564664
  0
LINE
  5
3D7
100
AcDbEntity
  8
0
100
AcDbLine
 62
4
  6
CONTINUOUS
 10
11.9965941488
 20
7.9348356376
 11
12.0224760324
 21
7.9874335028
  0
LINE
  5
3D8
100
AcDbEntity
  8
0
100
AcDbLine
 62
4
  6
CONTINUOUS
 10
11.7481280693
 20
7.8271215033
 11
11.7740099528
 21
7.8521214845
  0
LINE
  5
3D9
100
AcDbEntity
  8
0
100
AcDbLine
 62
4
  6
CONTINUOUS
 10
12.0224760324
 20
8.0909255658
 11
11.9965941488
 21
8.0659255846
  0
LINE
  5
3DA
100
AcDbEntity
  8
0
100
AcDbLine
 62
4
  6
CONTINUOUS
 10
11.6937761261
 20
7.7688260449
 11
11.6678942426
 21
7.7438260637
  0
LINE
  5
3DB
100
AcDbEntity
  8
0
100
AcDbLine
 62
4
  6
CONTINUOUS
 10
12.0511309747
 20
8.1117046358
 11
12.032643915
 21
8.0938475063
  0
LINE
  5
3DC
100
AcDbEntity
  8
0
100
AcDbLine
 62
4
  6
CONTINUOUS
 10
11.8801256753
 20
7.9408224028
 11
11.8986127354
 21
7.9586795327
  0
LINE
  5
3DD
100
AcDbEntity
  8
0
100
AcDbLine
 62
4
  6
CONTINUOUS
 10
12.0548283868
 20
8.0876781807
 11
12.0289465033
 21
8.0626781995
  0
LINE
  5
3DE
100
AcDbEntity
  8
0
100
AcDbLine
 62
4
  6
CONTINUOUS
 10
11.8819743814
 20
7.9150102462
 11
11.9060075589
 21
7.9382245144
  0
LINE
  5
3DF
100
AcDbEntity
  8
0
100
AcDbLine
 62
4
  6
CONTINUOUS
 10
11.7703125411
 20
7.8002537639
 11
11.7518254814
 21
7.7823966344
  0
LINE
  5
3E0
100
AcDbEntity
  8
0
100
AcDbLine
 62
4
  6
CONTINUOUS
 10
12.0548283868
 20
8.0393818858
 11
12.0289465033
 21
8.0143819046
  0
LINE
  5
3E1
100
AcDbEntity
  8
0
100
AcDbLine
 62
4
  6
CONTINUOUS
 10
11.7481280693
 20
7.7397281726
 11
11.7740099528
 21
7.7647281539
  0
LINE
  5
3E2
100
AcDbEntity
  8
0
100
AcDbLine
 62
4
  6
CONTINUOUS
 10
11.9041588522
 20
7.8743435711
 11
11.9060075589
 21
7.8761292847
  0
LINE
  5
3E3
100
AcDbEntity
  8
0
100
AcDbLine
 62
4
  6
CONTINUOUS
 10
11.8801256753
 20
7.8511293035
 11
11.8986127354
 21
7.8689864334
  0
LINE
  5
3E4
100
AcDbEntity
  8
0
100
AcDbLine
 62
4
  6
CONTINUOUS
 10
11.8819743814
 20
7.8161178416
 11
11.8967640288
 21
7.8304035449
  0
LINE
  5
3E5
100
AcDbEntity
  8
0
100
AcDbLine
 62
4
  6
CONTINUOUS
 10
12.0548283868
 20
7.9634877113
 11
12.0257112678
 21
7.9353627324
  0
LINE
  5
3E6
100
AcDbEntity
  8
0
100
AcDbLine
 62
4
  6
CONTINUOUS
 10
11.8912179112
 20
7.7629511306
 11
11.8967640288
 21
7.7683082691
  0
LINE
  5
3E7
100
AcDbEntity
  8
0
100
AcDbLine
 62
4
  6
CONTINUOUS
 10
11.8819743814
 20
7.7126258075
 11
11.8875204995
 21
7.7179829465
  0
LINE
  5
3E8
100
AcDbEntity
  8
0
100
AcDbLine
 62
4
  6
CONTINUOUS
 10
10.3808600993
 20
10.3779655906
 11
10.3750831228
 21
10.3823854595
  0
LINE
  5
3E9
100
AcDbEntity
  8
0
100
AcDbLine
 62
4
  6
CONTINUOUS
 10
10.4099772172
 20
10.4060905684
 11
10.4042002407
 21
10.4105104373
  0
LINE
  5
3EA
100
AcDbEntity
  8
0
100
AcDbLine
 62
4
  6
CONTINUOUS
 10
12.0187786203
 20
8.6025146225
 11
12.0224760324
 21
8.5922871137
  0
LINE
  5
3EB
100
AcDbEntity
  8
0
100
AcDbLine
 62
4
  6
CONTINUOUS
 10
12.0002915605
 20
8.8468373927
 11
11.9965941488
 21
8.8570648558
  0
LINE
  5
3EC
100
AcDbEntity
  8
0
100
AcDbLine
 62
4
  6
CONTINUOUS
 10
12.007686384
 20
8.8263823744
 11
12.0113837965
 21
8.81615482
  0
LINE
  5
3ED
100
AcDbEntity
  8
0
100
AcDbLine
 62
4
  6
CONTINUOUS
 10
12.0187786203
 20
8.9129908171
 11
12.0224760324
 21
8.9027632623
  0
LINE
  5
3EE
100
AcDbEntity
  8
0
100
AcDbLine
 62
4
  6
CONTINUOUS
 10
12.0108292003
 20
7.5611801812
 11
12.0134173898
 21
7.5709246244
  0
LINE
  5
3EF
100
AcDbEntity
  8
0
100
AcDbLine
 62
4
  6
CONTINUOUS
 10
12.0134173898
 20
7.5709246244
 11
12.018593765
 21
7.5759246193
  0
LINE
  5
3F0
100
AcDbEntity
  8
0
100
AcDbLine
 62
7
  6
CONTINUOUS
 10
12.065181161
 20
9.6397097809
 11
11.9168733806
 21
9.6499949604
  0
LINE
  5
3F1
100
AcDbEntity
  8
0
100
AcDbLine
 62
4
  6
CONTINUOUS
 10
10.5182166526
 20
10.4106418408
 11
10.5239936265
 21
10.4062219721
  0
LINE
  5
3F2
100
AcDbEntity
  8
0
100
AcDbLine
 62
4
  6
CONTINUOUS
 10
10.4720937354
 20
10.4660905211
 11
10.4663167589
 21
10.47051039
  0
LINE
  5
3F3
100
AcDbEntity
  8
0
100
AcDbLine
 62
4
  6
CONTINUOUS
 10
10.5803331707
 20
10.4706417935
 11
10.5861101447
 21
10.4662219248
  0
LINE
  5
3F4
100
AcDbEntity
  8
0
100
AcDbLine
 62
7
  6
CONTINUOUS
 10
10.6551844634
 20
10.3835724252
 11
10.6462498346
 21
10.3910930472
  0
LINE
  5
3F5
100
AcDbEntity
  8
0
100
AcDbLine
 62
7
  6
CONTINUOUS
 10
10.6551844634
 20
10.3835724252
 11
10.6551920194
 21
10.3835660657
  0
LINE
  5
3F6
100
AcDbEntity
  8
0
100
AcDbLine
 62
7
  6
CONTINUOUS
 10
10.643001941
 20
10.5349897519
 11
10.5837508047
 21
10.5901291542
  0
LINE
  5
3F7
100
AcDbEntity
  8
0
100
AcDbLine
 62
7
  6
CONTINUOUS
 10
11.6251891351
 20
7.0413766263
 11
12.065181161
 21
7.4663763127
  0
LINE
  5
3F8
100
AcDbEntity
  8
0
100
AcDbLine
 62
7
  6
CONTINUOUS
 10
11.2072206315
 20
10.0632249441
 11
10.3620354834
 21
10.1218387332
  0
LINE
  5
3F9
100
AcDbEntity
  8
0
100
AcDbLine
 62
7
  6
CONTINUOUS
 10
11.2152440153
 20
10.1009186405
 11
10.3700588672
 21
10.1595324296
  0
LINE
  5
3FA
100
AcDbEntity
  8
0
100
AcDbLine
 62
4
  6
CONTINUOUS
 10
10.3962963339
 20
10.3728758498
 11
10.3808600993
 21
10.3779655906
  0
LINE
  5
3FB
100
AcDbEntity
  8
0
100
AcDbLine
 62
4
  6
CONTINUOUS
 10
10.4176953349
 20
10.403545698
 11
10.4099772172
 21
10.4060905684
  0
LINE
  5
3FC
100
AcDbEntity
  8
0
100
AcDbLine
 62
4
  6
CONTINUOUS
 10
10.5027804154
 20
10.4157315817
 11
10.5182166526
 21
10.4106418408
  0
LINE
  5
3FD
100
AcDbEntity
  8
0
100
AcDbLine
 62
4
  6
CONTINUOUS
 10
10.4798118531
 20
10.4635456507
 11
10.4720937354
 21
10.4660905211
  0
LINE
  5
3FE
100
AcDbEntity
  8
0
100
AcDbLine
 62
4
  6
CONTINUOUS
 10
10.5648969336
 20
10.4757315344
 11
10.5803331707
 21
10.4706417935
  0
LINE
  5
3FF
100
AcDbEntity
  8
0
100
AcDbLine
 62
7
  6
CONTINUOUS
 10
11.6365561973
 20
10.1638749821
 11
11.6664998996
 21
10.1318546769
  0
LINE
  5
400
100
AcDbEntity
  8
0
100
AcDbLine
 62
4
  6
CONTINUOUS
 10
10.4909942262
 20
10.3743469972
 11
10.4774526875
 21
10.3712668718
  0
LINE
  5
401
100
AcDbEntity
  8
0
100
AcDbLine
 62
4
  6
CONTINUOUS
 10
10.4774526875
 20
10.3712668718
 11
10.4542518856
 21
10.3688566187
  0
LINE
  5
402
100
AcDbEntity
  8
0
100
AcDbLine
 62
4
  6
CONTINUOUS
 10
10.5065698054
 20
10.3993918497
 11
10.494969401
 21
10.3981867233
  0
LINE
  5
403
100
AcDbEntity
  8
0
100
AcDbLine
 62
4
  6
CONTINUOUS
 10
10.4542518856
 20
10.3688566187
 11
10.4233329685
 21
10.3689912357
  0
LINE
  5
404
100
AcDbEntity
  8
0
100
AcDbLine
 62
4
  6
CONTINUOUS
 10
10.4448248637
 20
10.4197508129
 11
10.4757437808
 21
10.4196161958
  0
LINE
  5
405
100
AcDbEntity
  8
0
100
AcDbLine
 62
4
  6
CONTINUOUS
 10
10.3828476876
 20
10.3898854536
 11
10.498758791
 21
10.3818469913
  0
LINE
  5
406
100
AcDbEntity
  8
0
100
AcDbLine
 62
4
  6
CONTINUOUS
 10
10.4233329685
 20
10.3689912357
 11
10.3962963339
 21
10.3728758498
  0
LINE
  5
407
100
AcDbEntity
  8
0
100
AcDbLine
 62
4
  6
CONTINUOUS
 10
10.4757437808
 20
10.4196161958
 11
10.5027804154
 21
10.4157315817
  0
LINE
  5
408
100
AcDbEntity
  8
0
100
AcDbLine
 62
4
  6
CONTINUOUS
 10
10.5378602989
 20
10.4796161485
 11
10.5648969336
 21
10.4757315344
  0
LINE
  5
409
100
AcDbEntity
  8
0
100
AcDbLine
 62
4
  6
CONTINUOUS
 10
10.4449642057
 20
10.4498854063
 11
10.5453461796
 21
10.4268469558
  0
LINE
  5
40A
100
AcDbEntity
  8
0
100
AcDbLine
 62
7
  6
CONTINUOUS
 10
11.8741518846
 20
10.3933748063
 11
11.904095587
 21
10.3613545011
  0
LINE
  5
40B
100
AcDbEntity
  8
0
100
AcDbLine
 62
4
  6
CONTINUOUS
 10
10.5201113441
 20
10.402471975
 11
10.5065698054
 21
10.3993918497
  0
LINE
  5
40C
100
AcDbEntity
  8
0
100
AcDbLine
 62
4
  6
CONTINUOUS
 10
10.4080825231
 20
10.4142604344
 11
10.4216240644
 21
10.4173405595
  0
LINE
  5
40D
100
AcDbEntity
  8
0
100
AcDbLine
 62
4
  6
CONTINUOUS
 10
10.5822278623
 20
10.4624719277
 11
10.5686863236
 21
10.4593918024
  0
LINE
  5
40E
100
AcDbEntity
  8
0
100
AcDbLine
 62
4
  6
CONTINUOUS
 10
10.4701990412
 20
10.4742603871
 11
10.4837405825
 21
10.4773405122
  0
LINE
  5
40F
100
AcDbEntity
  8
0
100
AcDbLine
 62
4
  6
CONTINUOUS
 10
10.4216240644
 20
10.4173405595
 11
10.4448248637
 21
10.4197508129
  0
LINE
  5
410
100
AcDbEntity
  8
0
100
AcDbLine
 62
4
  6
CONTINUOUS
 10
10.5686863236
 20
10.4593918024
 11
10.5570859192
 21
10.458186676
  0
LINE
  5
411
100
AcDbEntity
  8
0
100
AcDbLine
 62
4
  6
CONTINUOUS
 10
10.4837405825
 20
10.4773405122
 11
10.5069413819
 21
10.4797507656
  0
LINE
  5
412
100
AcDbEntity
  8
0
100
AcDbLine
 62
4
  6
CONTINUOUS
 10
10.5608753092
 20
10.441846944
 11
10.4294350762
 21
10.4348854181
  0
LINE
  5
413
100
AcDbEntity
  8
0
100
AcDbLine
 62
4
  6
CONTINUOUS
 10
10.5069413819
 20
10.4797507656
 11
10.5378602989
 21
10.4796161485
  0
LINE
  5
414
100
AcDbEntity
  8
0
100
AcDbLine
 62
7
  6
CONTINUOUS
 10
11.4823695955
 20
10.512719441
 11
11.6309070587
 21
10.5024183329
  0
LINE
  5
415
100
AcDbEntity
  8
0
100
AcDbLine
 62
7
  6
CONTINUOUS
 10
11.9031607969
 20
10.4124810348
 11
11.8732943705
 21
10.4402748799
  0
LINE
  5
416
100
AcDbEntity
  8
0
100
AcDbLine
 62
7
  6
CONTINUOUS
 10
11.6655339738
 20
5.9050298025
 11
11.9031296611
 21
6.1345296267
  0
LINE
  5
417
100
AcDbEntity
  8
0
100
AcDbLine
 62
7
  6
CONTINUOUS
 10
11.6645991837
 20
5.9041436595
 11
11.6655339738
 21
5.9050298025
  0
LINE
  5
418
100
AcDbEntity
  8
0
100
AcDbLine
 62
7
  6
CONTINUOUS
 10
11.6645991837
 20
5.9041436595
 11
11.6347327573
 21
5.8763498144
  0
LINE
  5
419
100
AcDbEntity
  8
0
100
AcDbLine
 62
7
  6
CONTINUOUS
 10
11.461109408
 20
11.1166702872
 11
11.4357559332
 21
11.1291944183
  0
ARC
  5
41A
100
AcDbEntity
  8
0
100
AcDbCircle
 62
7
  6
CONTINUOUS
 10
11.0490238223
 20
12.2432026048
 40
1.7455901857
100
AcDbArc
 50
266.0345339438
 51
266.9828267507
  0
ARC
  5
41B
100
AcDbEntity
  8
0
100
AcDbCircle
 62
7
  6
CONTINUOUS
 10
11.0490238223
 20
12.6638018305
 40
1.7455901857
100
AcDbArc
 50
266.0345339438
 51
266.9828267507
  0
ARC
  5
41C
100
AcDbEntity
  8
0
100
AcDbCircle
 62
7
  6
CONTINUOUS
 10
11.0445482797
 20
12.1787687388
 40
1.681001073
100
AcDbArc
 50
265.064846266
 51
266.0348369886
  0
ARC
  5
41D
100
AcDbEntity
  8
0
100
AcDbCircle
 62
7
  6
CONTINUOUS
 10
11.0434506042
 20
12.5852638249
 40
1.6668547948
100
AcDbArc
 50
265.0607301035
 51
266.0389531511
  0
ARC
  5
41E
100
AcDbEntity
  8
0
100
AcDbCircle
 62
7
  6
CONTINUOUS
 10
10.3575431274
 20
8.2386738777
 40
0.0976488709
100
AcDbArc
 50
111.3280819483
 51
113.3655766067
  0
ARC
  5
41F
100
AcDbEntity
  8
0
100
AcDbCircle
 62
7
  6
CONTINUOUS
 10
10.3572728049
 20
8.2392830817
 40
0.0969825187
100
AcDbArc
 50
113.3617093184
 51
134.042220457
  0
ARC
  5
420
100
AcDbEntity
  8
0
100
AcDbCircle
 62
7
  6
CONTINUOUS
 10
11.4024943257
 20
10.4428650091
 40
0.0810692868
100
AcDbArc
 50
311.3943434912
 51
313.9648173769
  0
ARC
  5
421
100
AcDbEntity
  8
0
100
AcDbCircle
 62
7
  6
CONTINUOUS
 10
11.4909460897
 20
7.794810143
 40
0.0685739135
100
AcDbArc
 50
218.8312951683
 51
229.2574545737
  0
ARC
  5
422
100
AcDbEntity
  8
0
100
AcDbCircle
 62
7
  6
CONTINUOUS
 10
10.6880998996
 20
10.4247406018
 40
0.0546801803
100
AcDbArc
 50
218.0978110296
 51
218.8322636751
  0
SPLINE
  5
423
100
AcDbEntity
  8
0
100
AcDbSpline
 62
7
  6
CONTINUOUS
 70
0
 71
3
 72
16
 73
12
 74
0
 42
0.0000001
 43
0.0000001
 44
0.0000000001
 40
0.0
 40
0.0
 40
0.0
 40
0.0
 40
0.0531837654
 40
0.1066239374
 40
0.2152108082
 40
0.3277397908
 40
0.4459126475
 40
0.5711675197
 40
0.7046831903
 40
0.8473890532
 40
1.0
 40
1.0
 40
1.0
 40
1.0
 10
10.6273696348
 20
10.4236117341
 30
0.0
 10
10.6273696141
 20
10.4229236961
 30
0.0
 10
10.6274194301
 20
10.4215437352
 30
0.0
 10
10.6277194533
 20
10.4187738459
 30
0.0
 10
10.6284796645
 20
10.4152913689
 30
0.0
 10
10.6299865511
 20
10.4111561935
 30
0.0
 10
10.6320873834
 20
10.4070464831
 30
0.0
 10
10.6347756204
 20
10.4029674769
 30
0.0
 10
10.6380460672
 20
10.3989232552
 30
0.0
 10
10.6418928246
 20
10.3949178639
 30
0.0
 10
10.6447394724
 20
10.3923643624
 30
0.0
 10
10.6462499391
 20
10.3910929632
 30
0.0
  0
SPLINE
  5
424
100
AcDbEntity
  8
0
100
AcDbSpline
 62
7
  6
CONTINUOUS
 70
0
 71
3
 72
30
 73
26
 74
0
 42
0.0000001
 43
0.0000001
 44
0.0000000001
 40
0.0
 40
0.0
 40
0.0
 40
0.0
 40
0.070985847
 40
0.1429809653
 40
0.2155051645
 40
0.2880797533
 40
0.3602219666
 40
0.4314543428
 40
0.5013066473
 40
0.5693209049
 40
0.635055448
 40
0.666936118
 40
0.6980910027
 40
0.7284713767
 40
0.7580308182
 40
0.7867244591
 40
0.8145103774
 40
0.8413484158
 40
0.8672019358
 40
0.8920366252
 40
0.9158221153
 40
0.938531353
 40
0.9601417249
 40
0.9806354388
 40
1.0
 40
1.0
 40
1.0
 40
1.0
 10
11.166161693
 20
11.1850435394
 30
0.0
 10
11.1543708408
 20
11.1858612378
 30
0.0
 10
11.1306013533
 20
11.1872296607
 30
0.0
 10
11.0947389679
 20
11.1884884262
 30
0.0
 10
11.0585929448
 20
11.1889630637
 30
0.0
 10
11.0224207292
 20
11.188650292
 30
0.0
 10
10.9864789491
 20
11.1875522626
 30
0.0
 10
10.9510231264
 20
11.1856769619
 30
0.0
 10
10.9163049796
 20
11.1830379246
 30
0.0
 10
10.8825712548
 20
11.1796541636
 30
0.0
 10
10.8552074077
 20
11.1762000957
 30
0.0
 10
10.8339962175
 20
11.1730700295
 30
0.0
 10
10.8186429523
 20
11.1705768601
 30
0.0
 10
10.8037098042
 20
11.1679185437
 30
0.0
 10
10.7892232724
 20
11.1651000222
 30
0.0
 10
10.7752090936
 20
11.1621260747
 30
0.0
 10
10.761692132
 20
11.1590023246
 30
0.0
 10
10.7486963778
 20
11.15573405
 30
0.0
 10
10.7362448444
 20
11.1523273937
 30
0.0
 10
10.7243595875
 20
11.1487881939
 30
0.0
 10
10.7130615913
 20
11.145122966
 30
0.0
 10
10.7023708067
 20
11.1413381477
 30
0.0
 10
10.6923059782
 20
11.1374404643
 30
0.0
 10
10.6828849286
 20
11.1334370201
 30
0.0
 10
10.6768730283
 20
11.1306218746
 30
0.0
 10
10.6739822858
 20
11.1291938971
 30
0.0
  0
SPLINE
  5
425
100
AcDbEntity
  8
0
100
AcDbSpline
 62
7
  6
CONTINUOUS
 70
0
 71
3
 72
11
 73
7
 74
0
 42
0.0000001
 43
0.0000001
 44
0.0000000001
 40
0.0
 40
0.0
 40
0.0
 40
0.0
 40
0.2557805063
 40
0.5066417422
 40
0.7541650386
 40
1.0
 40
1.0
 40
1.0
 40
1.0
 10
10.6290657698
 20
10.4141398344
 30
0.0
 10
10.6287865717
 20
10.4133310571
 30
0.0
 10
10.6282947733
 20
10.4117070315
 30
0.0
 10
10.6277613676
 20
10.4092384497
 30
0.0
 10
10.6274410103
 20
10.4067667559
 30
0.0
 10
10.6273696596
 20
10.4051155598
 30
0.0
 10
10.6273696348
 20
10.4042932164
 30
0.0
  0
SPLINE
  5
426
100
AcDbEntity
  8
0
100
AcDbSpline
 62
7
  6
CONTINUOUS
 70
0
 71
3
 72
11
 73
7
 74
0
 42
0.0000001
 43
0.0000001
 44
0.0000000001
 40
0.0
 40
0.0
 40
0.0
 40
0.0
 40
0.2300040706
 40
0.472852583
 40
0.7293161897
 40
1.0
 40
1.0
 40
1.0
 40
1.0
 10
11.5340049698
 20
11.069933871
 30
0.0
 10
11.5329912669
 20
11.071220213
 30
0.0
 10
11.5308046868
 20
11.0737850635
 30
0.0
 10
11.5271747543
 20
11.07750349
 30
0.0
 10
11.5231127537
 20
11.0811904673
 30
0.0
 10
11.5201993574
 20
11.0835602659
 30
0.0
 10
11.5186757334
 20
11.084740751
 30
0.0
  0
SPLINE
  5
427
100
AcDbEntity
  8
0
100
AcDbSpline
 62
7
  6
CONTINUOUS
 70
0
 71
3
 72
9
 73
5
 74
0
 42
0.0000001
 43
0.0000001
 44
0.0000000001
 40
0.0
 40
0.0
 40
0.0
 40
0.0
 40
0.5039880796
 40
1.0
 40
1.0
 40
1.0
 40
1.0
 10
11.5186757334
 20
11.084740751
 30
0.0
 10
11.5092121187
 20
11.0905236752
 30
0.0
 10
11.4902163269
 20
11.101645848
 30
0.0
 10
11.4707403142
 20
11.1119112614
 30
0.0
 10
11.4609546889
 20
11.1167466801
 30
0.0
  0
SPLINE
  5
428
100
AcDbEntity
  8
0
100
AcDbSpline
 62
7
  6
CONTINUOUS
 70
0
 71
3
 72
23
 73
19
 74
0
 42
0.0000001
 43
0.0000001
 44
0.0000000001
 40
0.0
 40
0.0
 40
0.0
 40
0.0
 40
0.0439887216
 40
0.0899183772
 40
0.1380238505
 40
0.1885108721
 40
0.2415419432
 40
0.2972415068
 40
0.3556845526
 40
0.4169072505
 40
0.4809020858
 40
0.547628433
 40
0.6170145305
 40
0.6889652056
 40
0.7633671121
 40
0.8400961283
 40
0.9190197611
 40
1.0
 40
1.0
 40
1.0
 40
1.0
 10
10.65770824
 20
11.121154807
 30
0.0
 10
10.6559638653
 20
11.1202939104
 30
0.0
 10
10.6524624641
 20
11.1184009477
 30
0.0
 10
10.6473046785
 20
11.1151291186
 30
0.0
 10
10.6421392173
 20
11.1113584833
 30
0.0
 10
10.63697029
 20
11.1070818338
 30
0.0
 10
10.6318002748
 20
11.1022973966
 30
0.0
 10
10.6266331729
 20
11.0970064082
 30
0.0
 10
10.6214713728
 20
11.0912157408
 30
0.0
 10
10.6163184687
 20
11.0849353578
 30
0.0
 10
10.6111768056
 20
11.078179712
 30
0.0
 10
10.6060491453
 20
11.0709660226
 30
0.0
 10
10.6009375629
 20
11.0633143147
 30
0.0
 10
10.5958438897
 20
11.0552465104
 30
0.0
 10
10.5907696007
 20
11.0467857217
 30
0.0
 10
10.5857157059
 20
11.0379557649
 30
0.0
 10
10.5806829902
 20
11.0287806459
 30
0.0
 10
10.5773828352
 20
11.0225264309
 30
0.0
 10
10.5757342211
 20
11.0193474194
 30
0.0
  0
SPLINE
  5
429
100
AcDbEntity
  8
0
100
AcDbSpline
 62
7
  6
CONTINUOUS
 70
0
 71
3
 72
23
 73
19
 74
0
 42
0.0000001
 43
0.0000001
 44
0.0000000001
 40
0.0
 40
0.0
 40
0.0
 40
0.0
 40
0.0430695236
 40
0.0891866224
 40
0.1383046768
 40
0.1903551586
 40
0.2452519439
 40
0.3028938136
 40
0.3631653521
 40
0.4259403386
 40
0.4910805521
 40
0.5584397483
 40
0.6278627062
 40
0.6991860818
 40
0.7722377887
 40
0.8468464281
 40
0.9228371305
 40
1.0
 40
1.0
 40
1.0
 40
1.0
 10
11.4357572492
 20
11.1291937661
 30
0.0
 10
11.4321950373
 20
11.1309534455
 30
0.0
 10
11.4247241309
 20
11.1344080366
 30
0.0
 10
11.4129213521
 20
11.1392613613
 30
0.0
 10
11.4001664576
 20
11.1439516782
 30
0.0
 10
11.3864932377
 20
11.1484664252
 30
0.0
 10
11.3719375151
 20
11.152793582
 30
0.0
 10
11.3565377342
 20
11.1569213932
 30
0.0
 10
11.3403346629
 20
11.1608389878
 30
0.0
 10
11.323371272
 20
11.1645355478
 30
0.0
 10
11.3056926363
 20
11.1680014325
 30
0.0
 10
11.2873457027
 20
11.1712270668
 30
0.0
 10
11.2683792748
 20
11.1742039594
 30
0.0
 10
11.2488440486
 20
11.1769239777
 30
0.0
 10
11.2287919017
 20
11.1793799349
 30
0.0
 10
11.2082754545
 20
11.181565271
 30
0.0
 10
11.1873506417
 20
11.183473797
 30
0.0
 10
11.173262866
 20
11.1845510714
 30
0.0
 10
11.166161693
 20
11.1850435394
 30
0.0
  0
SPLINE
  5
42A
100
AcDbEntity
  8
0
100
AcDbSpline
 62
7
  6
CONTINUOUS
 70
0
 71
3
 72
9
 73
5
 74
0
 42
0.0000001
 43
0.0000001
 44
0.0000000001
 40
0.0
 40
0.0
 40
0.0
 40
0.0
 40
0.5157229031
 40
1.0
 40
1.0
 40
1.0
 40
1.0
 10
10.5837507895
 20
10.5901291655
 30
0.0
 10
10.5822683924
 20
10.591508691
 30
0.0
 10
10.5794802326
 20
10.594278552
 30
0.0
 10
10.5769111773
 20
10.5972546908
 30
0.0
 10
10.5757342211
 20
10.5987481936
 30
0.0
  0
SPLINE
  5
42B
100
AcDbEntity
  8
0
100
AcDbSpline
 62
7
  6
CONTINUOUS
 70
0
 71
3
 72
11
 73
7
 74
0
 42
0.0000001
 43
0.0000001
 44
0.0000000001
 40
0.0
 40
0.0
 40
0.0
 40
0.0
 40
0.2461240816
 40
0.493817723
 40
0.7446180825
 40
1.0
 40
1.0
 40
1.0
 40
1.0
 10
11.4823695562
 20
10.4042933454
 30
0.0
 10
11.48236958
 20
10.4050852742
 30
0.0
 10
11.4823035197
 20
10.4066749585
 30
0.0
 10
11.4820064352
 20
10.4090549488
 30
0.0
 10
11.4815117512
 20
10.411432198
 30
0.0
 10
11.4810553653
 20
10.4129975987
 30
0.0
 10
11.4807961813
 20
10.4137773692
 30
0.0
  0
SPLINE
  5
42C
100
AcDbEntity
  8
0
100
AcDbSpline
 62
7
  6
CONTINUOUS
 70
0
 71
3
 72
22
 73
18
 74
0
 42
0.0000001
 43
0.0000001
 44
0.0000000001
 40
0.0
 40
0.0
 40
0.0
 40
0.0
 40
0.0433798544
 40
0.0894596356
 40
0.1383073915
 40
0.1899449953
 40
0.2443562717
 40
0.3014933853
 40
0.3612803901
 40
0.4236234435
 40
0.4884118131
 40
0.5555260091
 40
0.6248406421
 40
0.696226334
 40
0.7695587338
 40
0.844712903
 40
1.0
 40
1.0
 40
1.0
 40
1.0
 10
11.4764044972
 20
10.5439861793
 30
0.0
 10
11.4776846258
 20
10.5451773356
 30
0.0
 10
11.4802417603
 20
10.5477237775
 30
0.0
 10
11.4839597681
 20
10.5518813557
 30
0.0
 10
11.4876695363
 20
10.5564822221
 30
0.0
 10
11.4913678726
 20
10.5615150097
 30
0.0
 10
11.4950516402
 20
10.5669664086
 30
0.0
 10
11.4987178973
 20
10.5728207201
 30
0.0
 10
11.5023643138
 20
10.579060436
 30
0.0
 10
11.5059884088
 20
10.5856669897
 30
0.0
 10
11.5095886905
 20
10.5926207375
 30
0.0
 10
11.5131634437
 20
10.5999019336
 30
0.0
 10
11.5167117853
 20
10.6074905552
 30
0.0
 10
11.5202329302
 20
10.6153671243
 30
0.0
 10
11.5237264776
 20
10.6235126871
 30
0.0
 10
11.5283985738
 20
10.6348313902
 30
0.0
 10
11.5317823986
 20
10.6434830705
 30
0.0
 10
11.5340049698
 20
10.6493346452
 30
0.0
  0
SPLINE
  5
42D
100
AcDbEntity
  8
0
100
AcDbSpline
 62
7
  6
CONTINUOUS
 70
0
 71
3
 72
16
 73
12
 74
0
 42
0.0000001
 43
0.0000001
 44
0.0000000001
 40
0.0
 40
0.0
 40
0.0
 40
0.0
 40
0.1480363695
 40
0.2876825852
 40
0.4196096155
 40
0.4829520632
 40
0.5447009723
 40
0.6639404597
 40
0.7786069904
 40
0.8901123295
 40
1.0
 40
1.0
 40
1.0
 40
1.0
 10
11.4678029107
 20
10.3949747759
 30
0.0
 10
11.4689745257
 20
10.3961064692
 30
0.0
 10
11.4711826326
 20
10.3983788743
 30
0.0
 10
11.4741517128
 20
10.4019204555
 30
0.0
 10
11.4762817061
 20
10.4049342573
 30
0.0
 10
11.4777484894
 20
10.4073534575
 30
0.0
 10
11.4790293673
 20
10.409718219
 30
0.0
 10
11.4803604973
 20
10.4126939282
 30
0.0
 10
11.4815180796
 20
10.4163230782
 30
0.0
 10
11.4822141533
 20
10.4199638737
 30
0.0
 10
11.4823695197
 20
10.4224027057
 30
0.0
 10
11.4823695562
 20
10.4236118631
 30
0.0
  0
LINE
  5
42E
100
AcDbEntity
  8
0
100
AcDbLine
 62
7
  6
CONTINUOUS
 10
11.4670367923
 20
10.3942791193
 11
11.4643921723
 21
10.3906510401
  0
SPLINE
  5
42F
100
AcDbEntity
  8
0
100
AcDbSpline
 62
7
  6
CONTINUOUS
 70
0
 71
3
 72
9
 73
5
 74
0
 42
0.0000001
 43
0.0000001
 44
0.0000000001
 40
0.0
 40
0.0
 40
0.0
 40
0.0
 40
0.4869935149
 40
1.0
 40
1.0
 40
1.0
 40
1.0
 10
11.4643921723
 20
10.3906510401
 30
0.0
 10
11.4635496778
 20
10.3895944744
 30
0.0
 10
11.4617396102
 20
10.3874879746
 30
0.0
 10
11.4597978417
 20
10.3855030645
 30
0.0
 10
11.4587739644
 20
10.3845140749
 30
0.0
  0
LINE
  5
430
100
AcDbEntity
  8
0
100
AcDbLine
 62
7
  6
CONTINUOUS
 10
10.6426920541
 20
10.394294882
 11
10.6450688617
 21
10.3910026129
  0
SPLINE
  5
431
100
AcDbEntity
  8
0
100
AcDbSpline
 62
7
  6
CONTINUOUS
 70
0
 71
3
 72
9
 73
5
 74
0
 42
0.0000001
 43
0.0000001
 44
0.0000000001
 40
0.0
 40
0.0
 40
0.0
 40
0.0
 40
0.4821453772
 40
1.0
 40
1.0
 40
1.0
 40
1.0
 10
10.6455048596
 20
10.3904538014
 30
0.0
 10
10.6466744203
 20
10.3890007067
 30
0.0
 10
10.6492522314
 20
10.386107624
 30
0.0
 10
10.652062199
 20
10.3834423285
 30
0.0
 10
10.6535632187
 20
10.3821153897
 30
0.0
  0
SPLINE
  5
432
100
AcDbEntity
  8
0
100
AcDbSpline
 62
7
  6
CONTINUOUS
 70
0
 71
3
 72
57
 73
53
 74
0
 42
0.0000001
 43
0.0000001
 44
0.0000000001
 40
0.0
 40
0.0
 40
0.0
 40
0.0
 40
0.0078819584
 40
0.0163347894
 40
0.0253753433
 40
0.0350138773
 40
0.0452552234
 40
0.0561001269
 40
0.0675452157
 40
0.0795845084
 40
0.0922088515
 40
0.1054071299
 40
0.1191659521
 40
0.1334701056
 40
0.1483028886
 40
0.1636457848
 40
0.1794793174
 40
0.1957823383
 40
0.2125329157
 40
0.2297078198
 40
0.2652325717
 40
0.3021544299
 40
0.3402584157
 40
0.3793198167
 40
0.4191062162
 40
0.4593794544
 40
0.4998975521
 40
0.5404166258
 40
0.5806927936
 40
0.6204840673
 40
0.6595522539
 40
0.6976648776
 40
0.7345971416
 40
0.7701339593
 40
0.7873154646
 40
0.8040730597
 40
0.820383497
 40
0.8362246893
 40
0.851575738
 40
0.8664167827
 40
0.8807296803
 40
0.894497342
 40
0.9077047825
 40
0.9203384622
 40
0.9323871809
 40
0.9438420258
 40
0.9546965636
 40
0.9649476807
 40
0.9745955762
 40
0.9836458195
 40
0.9921087647
 40
1.0
 40
1.0
 40
1.0
 40
1.0
 10
10.6535632187
 20
10.3821153897
 30
0.0
 10
10.6551938695
 20
10.3806738538
 30
0.0
 10
10.6586880314
 20
10.377814682
 30
0.0
 10
10.6643858567
 20
10.3737298522
 30
0.0
 10
10.6707110718
 20
10.3697081153
 30
0.0
 10
10.6776535203
 20
10.3657557507
 30
0.0
 10
10.6852025491
 20
10.3618785601
 30
0.0
 10
10.6933464144
 20
10.3580829076
 30
0.0
 10
10.7020722078
 20
10.3543744475
 30
0.0
 10
10.711366204
 20
10.3507594853
 30
0.0
 10
10.721213542
 20
10.3472435087
 30
0.0
 10
10.731598551
 20
10.3438324244
 30
0.0
 10
10.7425045863
 20
10.3405316438
 30
0.0
 10
10.7539141664
 20
10.337346491
 30
0.0
 10
10.7658089784
 20
10.3342822705
 30
0.0
 10
10.7781698883
 20
10.3313437236
 30
0.0
 10
10.7909770268
 20
10.3285358906
 30
0.0
 10
10.8042097579
 20
10.3258630607
 30
0.0
 10
10.8178467978
 20
10.3233297618
 30
0.0
 10
10.8367522603
 20
10.3201072057
 30
0.0
 10
10.8612346729
 20
10.3164715076
 30
0.0
 10
10.8915393445
 20
10.312770598
 30
0.0
 10
10.92289647
 20
10.3097084784
 30
0.0
 10
10.9551039566
 20
10.3073051431
 30
0.0
 10
10.9879544036
 20
10.3055763476
 30
0.0
 10
11.0212361218
 20
10.3045334039
 30
0.0
 10
11.0547346196
 20
10.3041831373
 30
0.0
 10
11.0882339839
 20
10.3045278288
 30
0.0
 10
11.1215183006
 20
10.3055652211
 30
0.0
 10
11.1543730692
 20
10.3072885262
 30
0.0
 10
11.1865865763
 20
10.3096864756
 30
0.0
 10
11.2179513773
 20
10.3127433542
 30
0.0
 10
11.2482653173
 20
10.3164392092
 30
0.0
 10
11.272756455
 20
10.3200707788
 30
0.0
 10
11.2916696554
 20
10.3232901423
 30
0.0
 10
11.305313022
 20
10.3258211782
 30
0.0
 10
11.3185524352
 20
10.3284917373
 30
0.0
 10
11.3313665854
 20
10.3312975303
 30
0.0
 10
11.3437348481
 20
10.3342338851
 30
0.0
 10
11.35563731
 20
10.3372962498
 30
0.0
 10
11.3670548614
 20
10.3404793811
 30
0.0
 10
11.3779691372
 20
10.3437784236
 30
0.0
 10
11.3883626646
 20
10.3471877499
 30
0.0
 10
11.3982187903
 20
10.35070204
 30
0.0
 10
11.4075217957
 20
10.3543155467
 30
0.0
 10
11.4162569046
 20
10.3580224226
 30
0.0
 10
11.4244101871
 20
10.3618169124
 30
0.0
 10
11.4319688965
 20
10.3656926214
 30
0.0
 10
11.4389211245
 20
10.3696438758
 30
0.0
 10
11.4452565359
 20
10.3736645589
 30
0.0
 10
11.4509647165
 20
10.3777487107
 30
0.0
 10
11.4544660855
 20
10.3806074939
 30
0.0
 10
11.4561004031
 20
10.3820487471
 30
0.0
  0
SPLINE
  5
433
100
AcDbEntity
  8
0
100
AcDbSpline
 62
7
  6
CONTINUOUS
 70
0
 71
3
 72
56
 73
52
 74
0
 42
0.0000001
 43
0.0000001
 44
0.0000000001
 40
0.0
 40
0.0
 40
0.0
 40
0.0
 40
0.0080258856
 40
0.0166197237
 40
0.0257958903
 40
0.035562456
 40
0.0459229581
 40
0.0568768425
 40
0.0684200501
 40
0.0805459687
 40
0.0932450381
 40
0.1065060085
 40
0.1203152615
 40
0.1346577435
 40
0.1495167364
 40
0.1648740173
 40
0.1807103278
 40
0.197004861
 40
0.2137361174
 40
0.2308812506
 40
0.2663173067
 40
0.3031152793
 40
0.3410652122
 40
0.3799478791
 40
0.4195367129
 40
0.4595996724
 40
0.4999010726
 40
0.5402034125
 40
0.5802691944
 40
0.6198627272
 40
0.6587519371
 40
0.6967101978
 40
0.7335181973
 40
0.7689658776
 40
0.8028545047
 40
0.8191562355
 40
0.8349999213
 40
0.8503650861
 40
0.8652320785
 40
0.8795829715
 40
0.8934008355
 40
0.9066706075
 40
0.9193787958
 40
0.9315138029
 40
0.9430664917
 40
0.9540297615
 40
0.9643997699
 40
0.9741755611
 40
0.9833609599
 40
0.9919646285
 40
1.0
 40
1.0
 40
1.0
 40
1.0
 10
10.6551920237
 20
10.3835660661
 30
0.0
 10
10.6568788994
 20
10.3821464857
 30
0.0
 10
10.660478368
 20
10.3793318257
 30
0.0
 10
10.6663163016
 20
10.3753093051
 30
0.0
 10
10.6727656885
 20
10.3713505253
 30
0.0
 10
10.6798162666
 20
10.3674612926
 30
0.0
 10
10.6874575177
 20
10.3636475711
 30
0.0
 10
10.6956776648
 20
10.3599152389
 30
0.0
 10
10.7044639937
 20
10.3562699573
 30
0.0
 10
10.7138029133
 20
10.3527177126
 30
0.0
 10
10.723679795
 20
10.3492637761
 30
0.0
 10
10.7340792473
 20
10.3459139375
 30
0.0
 10
10.7449849206
 20
10.3426732394
 30
0.0
 10
10.756379711
 20
10.33954698
 30
0.0
 10
10.7682456886
 20
10.3365400907
 30
0.0
 10
10.7805641733
 20
10.3336572531
 30
0.0
 10
10.7933157673
 20
10.3309032359
 30
0.0
 10
10.8064803562
 20
10.3282821697
 30
0.0
 10
10.8200372067
 20
10.3257984425
 30
0.0
 10
10.8388141724
 20
10.3226402848
 30
0.0
 10
10.8631100682
 20
10.319077731
 30
0.0
 10
10.8931625737
 20
10.3154514307
 30
0.0
 10
10.9242352888
 20
10.3124517636
 30
0.0
 10
10.9561321361
 20
10.3100978932
 30
0.0
 10
10.9886520075
 20
10.3084049245
 30
0.0
 10
11.0215897269
 20
10.3073837002
 30
0.0
 10
11.0547374597
 20
10.3070407645
 30
0.0
 10
11.0878860228
 20
10.3073783011
 30
0.0
 10
11.1208262342
 20
10.3083941451
 30
0.0
 10
11.1533502465
 20
10.3100817918
 30
0.0
 10
11.1852528809
 20
10.3124304342
 30
0.0
 10
11.2163329092
 20
10.3154250324
 30
0.0
 10
11.246394464
 20
10.3190463738
 30
0.0
 10
11.2752479242
 20
10.323271283
 30
0.0
 10
11.2984249475
 20
10.3273228703
 30
0.0
 10
11.3162169109
 20
10.3308603573
 30
0.0
 10
11.3289752502
 20
10.3336124344
 30
0.0
 10
11.3413007924
 20
10.3364931278
 30
0.0
 10
11.3531741211
 20
10.3394981761
 30
0.0
 10
11.3645765612
 20
10.3426225196
 30
0.0
 10
11.3754901638
 20
10.3458614336
 30
0.0
 10
11.3858977938
 20
10.3492096418
 30
0.0
 10
11.3957831414
 20
10.352661839
 30
0.0
 10
11.4051307177
 20
10.3562127054
 30
0.0
 10
11.413926013
 20
10.3598564023
 30
0.0
 10
11.4221552504
 20
10.3635875544
 30
0.0
 10
11.4298057952
 20
10.3673999276
 30
0.0
 10
11.4368658244
 20
10.3712879176
 30
0.0
 10
11.4433249102
 20
10.3752457235
 30
0.0
 10
11.4491729378
 20
10.3792674009
 30
0.0
 10
11.4527793485
 20
10.3820817723
 30
0.0
 10
11.4544697908
 20
10.3835011592
 30
0.0
  0
SPLINE
  5
434
100
AcDbEntity
  8
0
100
AcDbSpline
 62
7
  6
CONTINUOUS
 70
0
 71
3
 72
30
 73
26
 74
0
 42
0.0000001
 43
0.0000001
 44
0.0000000001
 40
0.0
 40
0.0
 40
0.0
 40
0.0
 40
0.0171721572
 40
0.0353105497
 40
0.0544373565
 40
0.0745679772
 40
0.0957111415
 40
0.1178713261
 40
0.1410486158
 40
0.1652385929
 40
0.1904343362
 40
0.2166257867
 40
0.2437996648
 40
0.2719411412
 40
0.3010329098
 40
0.3310552546
 40
0.393804729
 40
0.4600032786
 40
0.5294398223
 40
0.6018830583
 40
0.6770846952
 40
0.7547797308
 40
0.8346895133
 40
0.9165358608
 40
1.0
 40
1.0
 40
1.0
 40
1.0
 10
10.6462499391
 20
10.3910929632
 30
0.0
 10
10.6476101035
 20
10.3899480774
 30
0.0
 10
10.6504742429
 20
10.3876729939
 30
0.0
 10
10.6550566592
 20
10.3843885641
 30
0.0
 10
10.6600367569
 20
10.3811434299
 30
0.0
 10
10.6654095977
 20
10.3779409134
 30
0.0
 10
10.6711699045
 20
10.3747838215
 30
0.0
 10
10.6773121262
 20
10.371675361
 30
0.0
 10
10.6838302801
 20
10.3686186374
 30
0.0
 10
10.6907178828
 20
10.3656164796
 30
0.0
 10
10.6979682098
 20
10.3626719997
 30
0.0
 10
10.7055741076
 20
10.3597881533
 30
0.0
 10
10.713527999
 20
10.356967653
 30
0.0
 10
10.7218220479
 20
10.354213463
 30
0.0
 10
10.7304480334
 20
10.3515282977
 30
0.0
 10
10.7425594795
 20
10.3479913967
 30
0.0
 10
10.7584723374
 20
10.3437768187
 30
0.0
 10
10.7784760386
 20
10.3391062964
 30
0.0
 10
10.7995803176
 20
10.3347701868
 30
0.0
 10
10.8217012879
 20
10.3307859446
 30
0.0
 10
10.8447510527
 20
10.3271696196
 30
0.0
 10
10.8686377224
 20
10.3239358196
 30
0.0
 10
10.8932671151
 20
10.3210974766
 30
0.0
 10
10.918539953
 20
10.3186663276
 30
0.0
 10
10.9356040452
 20
10.3173347142
 30
0.0
 10
10.944224545
 20
10.3167368805
 30
0.0
  0
SPLINE
  5
435
100
AcDbEntity
  8
0
100
AcDbSpline
 62
7
  6
CONTINUOUS
 70
0
 71
3
 72
58
 73
54
 74
0
 42
0.0000001
 43
0.0000001
 44
0.0000000001
 40
0.0
 40
0.0
 40
0.0
 40
0.0
 40
0.0467990902
 40
0.0942104453
 40
0.1419961402
 40
0.1899279113
 40
0.2377700741
 40
0.2852895515
 40
0.3322550224
 40
0.3784385876
 40
0.4236174361
 40
0.4675752432
 40
0.5101038281
 40
0.5510048307
 40
0.5900913979
 40
0.6088999594
 40
0.6271911967
 40
0.6449456537
 40
0.6621455079
 40
0.67877386
 40
0.6948151663
 40
0.7102556929
 40
0.7250828228
 40
0.739286258
 40
0.7528575087
 40
0.7657902448
 40
0.7780812482
 40
0.7897297885
 40
0.8007391349
 40
0.8111166887
 40
0.8208746153
 40
0.8300316932
 40
0.8386135418
 40
0.8466549308
 40
0.8542012423
 40
0.8613098698
 40
0.868052318
 40
0.8745139901
 40
0.8807934334
 40
0.8869988738
 40
0.893242746
 40
0.8996352386
 40
0.9062784414
 40
0.9132622959
 40
0.9206624784
 40
0.9285410327
 40
0.936946819
 40
0.9459177195
 40
0.9554823874
 40
0.9656612152
 40
0.9764686782
 40
0.9879134997
 40
1.0
 40
1.0
 40
1.0
 40
1.0
 10
10.9435774979
 20
10.9700437041
 30
0.0
 10
10.953675897
 20
10.9693433777
 30
0.0
 10
10.9740195107
 20
10.9681379597
 30
0.0
 10
11.0047106698
 20
10.9669137773
 30
0.0
 10
11.0356645354
 20
10.9662657152
 30
0.0
 10
11.0667182398
 20
10.9661969162
 30
0.0
 10
11.0977102452
 20
10.9667079436
 30
0.0
 10
11.1284782524
 20
10.9677960342
 30
0.0
 10
11.1588615254
 20
10.9694554118
 30
0.0
 10
11.1887012893
 20
10.9716772967
 30
0.0
 10
11.2178416345
 20
10.9744499274
 30
0.0
 10
11.2461303407
 20
10.9777586639
 30
0.0
 10
11.2734198015
 20
10.9815859258
 30
0.0
 10
11.2995674816
 20
10.9859114588
 30
0.0
 10
11.3205528832
 20
10.9899621376
 30
0.0
 10
11.3366597846
 20
10.9934474991
 30
0.0
 10
11.3482163134
 20
10.9961376702
 30
0.0
 10
11.3593892438
 20
10.9989341351
 30
0.0
 10
11.3701640363
 20
11.0018330648
 30
0.0
 10
11.3805266399
 20
11.0048307034
 30
0.0
 10
11.3904635378
 20
11.0079232195
 30
0.0
 10
11.3999618428
 20
11.0111063295
 30
0.0
 10
11.4090091668
 20
11.0143761175
 30
0.0
 10
11.417593813
 20
11.0177281358
 30
0.0
 10
11.4257046921
 20
11.0211580037
 30
0.0
 10
11.4333312836
 20
11.0246614558
 30
0.0
 10
11.4404639005
 20
11.0282336715
 30
0.0
 10
11.447093345
 20
11.0318703542
 30
0.0
 10
11.4532112458
 20
11.0355667896
 30
0.0
 10
11.4588099678
 20
11.0393183073
 30
0.0
 10
11.4638823253
 20
11.0431206922
 30
0.0
 10
11.4684222088
 20
11.0469692049
 30
0.0
 10
11.4724237233
 20
11.0508599152
 30
0.0
 10
11.4758816036
 20
11.0547888061
 30
0.0
 10
11.478791084
 20
11.0587519682
 30
0.0
 10
11.4811467267
 20
11.0627460279
 30
0.0
 10
11.4829437498
 20
11.066766632
 30
0.0
 10
11.484176501
 20
11.070808905
 30
0.0
 10
11.4848399442
 20
11.0748660337
 30
0.0
 10
11.4849312638
 20
11.078929424
 30
0.0
 10
11.4844493084
 20
11.0829895298
 30
0.0
 10
11.4833971386
 20
11.0870373471
 30
0.0
 10
11.4817790526
 20
11.0910655223
 30
0.0
 10
11.4796002749
 20
11.0950683774
 30
0.0
 10
11.4768665123
 20
11.0990418949
 30
0.0
 10
11.4735823788
 20
11.1029820062
 30
0.0
 10
11.4697531676
 20
11.1068852587
 30
0.0
 10
11.465383939
 20
11.1107477341
 30
0.0
 10
11.4604801435
 20
11.1145651146
 30
0.0
 10
11.4550481334
 20
11.1183334047
 30
0.0
 10
11.4490944718
 20
11.1220478139
 30
0.0
 10
11.4426268556
 20
11.1257039136
 30
0.0
 10
11.4381011739
 20
11.1280359024
 30
0.0
 10
11.4357572492
 20
11.1291937661
 30
0.0
  0
SPLINE
  5
436
100
AcDbEntity
  8
0
100
AcDbSpline
 62
7
  6
CONTINUOUS
 70
0
 71
3
 72
9
 73
5
 74
0
 42
0.0000001
 43
0.0000001
 44
0.0000000001
 40
0.0
 40
0.0
 40
0.0
 40
0.0
 40
0.5168517247
 40
1.0
 40
1.0
 40
1.0
 40
1.0
 10
10.6739822858
 20
11.1291938971
 30
0.0
 10
10.6711349151
 20
11.1277873445
 30
0.0
 10
10.6656809549
 20
11.1249522675
 30
0.0
 10
10.6603697676
 20
11.1218560043
 30
0.0
 10
10.6578491092
 20
11.1202876637
 30
0.0
  0
SPLINE
  5
437
100
AcDbEntity
  8
0
100
AcDbSpline
 62
7
  6
CONTINUOUS
 70
0
 71
3
 72
55
 73
51
 74
0
 42
0.0000001
 43
0.0000001
 44
0.0000000001
 40
0.0
 40
0.0
 40
0.0
 40
0.0
 40
0.0124228448
 40
0.0243059604
 40
0.0356585127
 40
0.0464928592
 40
0.0568244079
 40
0.0666723661
 40
0.0760608617
 40
0.0850189133
 40
0.0935809627
 40
0.1017879143
 40
0.109687348
 40
0.1173332629
 40
0.1247859441
 40
0.1321111866
 40
0.1393784928
 40
0.1466591989
 40
0.1540242518
 40
0.1615418894
 40
0.1692759796
 40
0.1772847216
 40
0.1856195842
 40
0.1943254664
 40
0.2034410492
 40
0.2129987243
 40
0.2230253014
 40
0.2335430626
 40
0.2445700762
 40
0.2561202569
 40
0.2682045317
 40
0.280831333
 40
0.2940062431
 40
0.3077326219
 40
0.3368431412
 40
0.3681600275
 40
0.4016566074
 40
0.4372878069
 40
0.47499498
 40
0.5147061994
 40
0.5563393348
 40
0.5998026791
 40
0.6449958117
 40
0.6918114801
 40
0.7401355007
 40
0.7898478487
 40
0.8408211955
 40
0.8929280335
 40
0.9460391088
 40
1.0
 40
1.0
 40
1.0
 40
1.0
 10
10.6578491092
 20
11.1202876637
 30
0.0
 10
10.6564155536
 20
11.1193957128
 30
0.0
 10
10.6536390968
 20
11.1176043072
 30
0.0
 10
10.649664953
 20
11.1148286367
 30
0.0
 10
10.6459770718
 20
11.1120262544
 30
0.0
 10
10.6425779525
 20
11.1091991566
 30
0.0
 10
10.6394699589
 20
11.1063491368
 30
0.0
 10
10.636655418
 20
11.1034778706
 30
0.0
 10
10.6341362215
 20
11.1005872549
 30
0.0
 10
10.63191419
 20
11.0976790588
 30
0.0
 10
10.6299912831
 20
11.0947549036
 30
0.0
 10
10.6283692278
 20
11.09181658
 30
0.0
 10
10.6270495043
 20
11.0888660329
 30
0.0
 10
10.6260337623
 20
11.0859052511
 30
0.0
 10
10.6253236782
 20
11.082936489
 30
0.0
 10
10.6249201628
 20
11.0799624339
 30
0.0
 10
10.6248238898
 20
11.0769859241
 30
0.0
 10
10.6250353111
 20
11.0740099727
 30
0.0
 10
10.6255539485
 20
11.0710375987
 30
0.0
 10
10.6263786893
 20
11.0680715397
 30
0.0
 10
10.6275083818
 20
11.0651142888
 30
0.0
 10
10.6289416827
 20
11.0621681337
 30
0.0
 10
10.6306767173
 20
11.0592349409
 30
0.0
 10
10.6327118104
 20
11.0563165017
 30
0.0
 10
10.6350454031
 20
11.0534146854
 30
0.0
 10
10.6376755763
 20
11.0505311778
 30
0.0
 10
10.6406002915
 20
11.0476676459
 30
0.0
 10
10.6438175682
 20
11.0448259349
 30
0.0
 10
10.6473252318
 20
11.0420079439
 30
0.0
 10
10.6511207187
 20
11.039215375
 30
0.0
 10
10.6552014213
 20
11.0364500872
 30
0.0
 10
10.659564621
 20
11.0337140861
 30
0.0
 10
10.6642072425
 20
11.0310091242
 30
0.0
 10
10.6708974045
 20
11.0273749294
 30
0.0
 10
10.6799524509
 20
11.0229390822
 30
0.0
 10
10.6916715947
 20
11.0178684751
 30
0.0
 10
10.7044157855
 20
11.0129653434
 30
0.0
 10
10.7181493327
 20
11.0082431841
 30
0.0
 10
10.7328341819
 20
11.0037157139
 30
0.0
 10
10.7484291786
 20
10.9993955978
 30
0.0
 10
10.7648905692
 20
10.9952952729
 30
0.0
 10
10.7821720226
 20
10.9914264896
 30
0.0
 10
10.8002248041
 20
10.9878001476
 30
0.0
 10
10.8189980153
 20
10.9844268226
 30
0.0
 10
10.8384386559
 20
10.9813159202
 30
0.0
 10
10.8584915881
 20
10.9784765606
 30
0.0
 10
10.8791001981
 20
10.9759166175
 30
0.0
 10
10.9002070113
 20
10.9736434341
 30
0.0
 10
10.9217510571
 20
10.9716637813
 30
0.0
 10
10.9362612442
 20
10.970551088
 30
0.0
 10
10.9435774979
 20
10.9700437041
 30
0.0
  0
SPLINE
  5
438
100
AcDbEntity
  8
0
100
AcDbSpline
 62
7
  6
CONTINUOUS
 70
0
 71
3
 72
36
 73
32
 74
0
 42
0.0000001
 43
0.0000001
 44
0.0000000001
 40
0.0
 40
0.0
 40
0.0
 40
0.0
 40
0.0064814858
 40
0.0130005504
 40
0.0195940696
 40
0.0262975482
 40
0.0401585389
 40
0.0548333561
 40
0.0705197407
 40
0.0873744403
 40
0.1055160863
 40
0.1250331074
 40
0.1459873573
 40
0.1684208512
 40
0.1923584609
 40
0.2178114998
 40
0.2447804807
 40
0.2732557447
 40
0.3032207922
 40
0.3346510561
 40
0.3675172238
 40
0.401783712
 40
0.4374109499
 40
0.4743548568
 40
0.5125674543
 40
0.551997723
 40
0.6342869014
 40
0.7207567211
 40
0.8108963433
 40
0.9041691907
 40
1.0
 40
1.0
 40
1.0
 40
1.0
 10
10.6273696348
 20
10.4042932164
 30
0.0
 10
10.6273696121
 20
10.4035383317
 30
0.0
 10
10.6274296046
 20
10.4020235034
 30
0.0
 10
10.6276994175
 20
10.3997552199
 30
0.0
 10
10.6281488439
 20
10.3974890845
 30
0.0
 10
10.6289960379
 20
10.3944389965
 30
0.0
 10
10.6305273873
 20
10.39061545
 30
0.0
 10
10.6330575178
 20
10.3861149365
 30
0.0
 10
10.636291797
 20
10.3816542704
 30
0.0
 10
10.6402228466
 20
10.3772394381
 30
0.0
 10
10.6448428455
 20
10.3728745597
 30
0.0
 10
10.6501445084
 20
10.3685655092
 30
0.0
 10
10.6561191294
 20
10.3643176828
 30
0.0
 10
10.6627574814
 20
10.360137557
 30
0.0
 10
10.6700489467
 20
10.3560314121
 30
0.0
 10
10.6779818459
 20
10.3520057351
 30
0.0
 10
10.6865433801
 20
10.3480672275
 30
0.0
 10
10.6957195055
 20
10.3442220815
 30
0.0
 10
10.7054952392
 20
10.3404770339
 30
0.0
 10
10.7158543804
 20
10.3368379593
 30
0.0
 10
10.7267798466
 20
10.3333112923
 30
0.0
 10
10.7382534652
 20
10.3299026808
 30
0.0
 10
10.75025619
 20
10.3266180172
 30
0.0
 10
10.7627680233
 20
10.3234627776
 30
0.0
 10
10.775768139
 20
10.3204421702
 30
0.0
 10
10.7939838098
 20
10.3165457664
 30
0.0
 10
10.8178188327
 20
10.3120691692
 30
0.0
 10
10.8476093947
 20
10.3073811156
 30
0.0
 10
10.8787841798
 20
10.303335214
 30
0.0
 10
10.9111344111
 20
10.2999592135
 30
0.0
 10
10.9330900797
 20
10.2981905406
 30
0.0
 10
10.944224545
 20
10.2974183628
 30
0.0
  0
SPLINE
  5
439
100
AcDbEntity
  8
0
100
AcDbSpline
 62
7
  6
CONTINUOUS
 70
0
 71
3
 72
9
 73
5
 74
0
 42
0.0000001
 43
0.0000001
 44
0.0000000001
 40
0.0
 40
0.0
 40
0.0
 40
0.0
 40
0.5132482981
 40
1.0
 40
1.0
 40
1.0
 40
1.0
 10
11.3790701355
 20
10.5292928648
 30
0.0
 10
11.3862849139
 20
10.5309465616
 30
0.0
 10
11.4003011522
 20
10.5343504226
 30
0.0
 10
11.4142124477
 20
10.5381630846
 30
0.0
 10
11.4209503445
 20
10.5401322564
 30
0.0
  0
SPLINE
  5
43A
100
AcDbEntity
  8
0
100
AcDbSpline
 62
7
  6
CONTINUOUS
 70
0
 71
3
 72
32
 73
28
 74
0
 42
0.0000001
 43
0.0000001
 44
0.0000000001
 40
0.0
 40
0.0
 40
0.0
 40
0.0
 40
0.0763626259
 40
0.153886525
 40
0.2318782393
 40
0.3096359552
 40
0.3864621875
 40
0.461669728
 40
0.5345906
 40
0.5699932003
 40
0.6045865424
 40
0.6382965847
 40
0.6710515989
 40
0.702783615
 40
0.7334276417
 40
0.7629231132
 40
0.7912133677
 40
0.8182469492
 40
0.8439776072
 40
0.8683653606
 40
0.891377426
 40
0.9129891043
 40
0.933185533
 40
0.9519630938
 40
0.9693346418
 40
0.9853304553
 40
1.0
 40
1.0
 40
1.0
 40
1.0
 10
10.944224545
 20
10.2974183628
 30
0.0
 10
10.957882259
 20
10.2964711971
 30
0.0
 10
10.9854327148
 20
10.2949383294
 30
0.0
 10
11.0269905775
 20
10.2937065882
 30
0.0
 10
11.0688166842
 20
10.293530216
 30
0.0
 10
11.1105087138
 20
10.2944110457
 30
0.0
 10
11.151665948
 20
10.2963403449
 30
0.0
 10
11.1918926002
 20
10.29929927
 30
0.0
 10
11.2246326648
 20
10.3026305339
 30
0.0
 10
11.2500587417
 20
10.3058045881
 30
0.0
 10
11.2684704775
 20
10.3083984325
 30
0.0
 10
11.2863679825
 20
10.3112223147
 30
0.0
 10
11.303708254
 20
10.3142697152
 30
0.0
 10
11.3204496027
 20
10.3175329492
 30
0.0
 10
11.3365518117
 20
10.3210043646
 30
0.0
 10
11.3519762404
 20
10.3246752991
 30
0.0
 10
11.3666858972
 20
10.3285370406
 30
0.0
 10
11.380645579
 20
10.3325800729
 30
0.0
 10
11.3938219283
 20
10.3367946839
 30
0.0
 10
11.4061835784
 20
10.3411706427
 30
0.0
 10
11.4177012531
 20
10.3456973684
 30
0.0
 10
11.4283477533
 20
10.3503641725
 30
0.0
 10
11.4380982601
 20
10.3551597431
 30
0.0
 10
11.446930235
 20
10.3600731385
 30
0.0
 10
11.4548242102
 20
10.3650935647
 30
0.0
 10
11.4617610141
 20
10.3702098421
 30
0.0
 10
11.4659112716
 20
10.3738290751
 30
0.0
 10
11.4678029107
 20
10.3756562583
 30
0.0
  0
SPLINE
  5
43B
100
AcDbEntity
  8
0
100
AcDbSpline
 62
7
  6
CONTINUOUS
 70
0
 71
3
 72
16
 73
12
 74
0
 42
0.0000001
 43
0.0000001
 44
0.0000000001
 40
0.0
 40
0.0
 40
0.0
 40
0.0
 40
0.1480363695
 40
0.2876825852
 40
0.4196096155
 40
0.4829520632
 40
0.5447009723
 40
0.6639404597
 40
0.7786069904
 40
0.8901123295
 40
1.0
 40
1.0
 40
1.0
 40
1.0
 10
11.4678029107
 20
10.3756562583
 30
0.0
 10
11.4689745257
 20
10.3767879515
 30
0.0
 10
11.4711826326
 20
10.3790603567
 30
0.0
 10
11.4741517128
 20
10.3826019378
 30
0.0
 10
11.4762817061
 20
10.3856157396
 30
0.0
 10
11.4777484894
 20
10.3880349399
 30
0.0
 10
11.4790293673
 20
10.3903997013
 30
0.0
 10
11.4803604973
 20
10.3933754106
 30
0.0
 10
11.4815180796
 20
10.3970045606
 30
0.0
 10
11.4822141533
 20
10.4006453561
 30
0.0
 10
11.4823695197
 20
10.403084188
 30
0.0
 10
11.4823695562
 20
10.4042933454
 30
0.0
  0
SPLINE
  5
43C
100
AcDbEntity
  8
0
100
AcDbSpline
 62
7
  6
CONTINUOUS
 70
0
 71
3
 72
9
 73
5
 74
0
 42
0.0000001
 43
0.0000001
 44
0.0000000001
 40
0.0
 40
0.0
 40
0.0
 40
0.0
 40
0.5113492334
 40
1.0
 40
1.0
 40
1.0
 40
1.0
 10
10.5910634576
 20
10.5839413136
 30
0.0
 10
10.5897724043
 20
10.5849416058
 30
0.0
 10
10.5872865867
 20
10.5869487935
 30
0.0
 10
10.5848933168
 20
10.5890659244
 30
0.0
 10
10.5837507895
 20
10.5901291655
 30
0.0
  0
SPLINE
  5
43D
100
AcDbEntity
  8
0
100
AcDbSpline
 62
7
  6
CONTINUOUS
 70
0
 71
3
 72
9
 73
5
 74
0
 42
0.0000001
 43
0.0000001
 44
0.0000000001
 40
0.0
 40
0.0
 40
0.0
 40
0.0
 40
0.5132482981
 40
1.0
 40
1.0
 40
1.0
 40
1.0
 10
11.3790701355
 20
10.9498920906
 30
0.0
 10
11.3862849139
 20
10.9515457874
 30
0.0
 10
11.4003011522
 20
10.9549496483
 30
0.0
 10
11.4142124477
 20
10.9587623103
 30
0.0
 10
11.4209503445
 20
10.9607314821
 30
0.0
  0
SPLINE
  5
43E
100
AcDbEntity
  8
0
100
AcDbSpline
 62
7
  6
CONTINUOUS
 70
0
 71
3
 72
11
 73
7
 74
0
 42
0.0000001
 43
0.0000001
 44
0.0000000001
 40
0.0
 40
0.0
 40
0.0
 40
0.0
 40
0.2300040706
 40
0.472852583
 40
0.7293161897
 40
1.0
 40
1.0
 40
1.0
 40
1.0
 10
10.5757342211
 20
11.0193474194
 30
0.0
 10
10.5767479241
 20
11.0180610773
 30
0.0
 10
10.5789345042
 20
11.0154962268
 30
0.0
 10
10.5825644367
 20
11.0117778003
 30
0.0
 10
10.5866264373
 20
11.008090823
 30
0.0
 10
10.5895398336
 20
11.0057210245
 30
0.0
 10
10.5910634576
 20
11.0045405393
 30
0.0
  0
SPLINE
  5
43F
100
AcDbEntity
  8
0
100
AcDbSpline
 62
7
  6
CONTINUOUS
 70
0
 71
3
 72
23
 73
19
 74
0
 42
0.0000001
 43
0.0000001
 44
0.0000000001
 40
0.0
 40
0.0
 40
0.0
 40
0.0
 40
0.0584993464
 40
0.1172266114
 40
0.1762458536
 40
0.2356326705
 40
0.2954679014
 40
0.3558351282
 40
0.4168159727
 40
0.4784844262
 40
0.5409011739
 40
0.6041091016
 40
0.6681313653
 40
0.7329711698
 40
0.7986132338
 40
0.8650270668
 40
0.9321727295
 40
1.0
 40
1.0
 40
1.0
 40
1.0
 10
10.5910634576
 20
11.0045405393
 30
0.0
 10
10.5973786103
 20
11.0051305756
 30
0.0
 10
10.6100550793
 20
11.0060960288
 30
0.0
 10
10.6291542984
 20
11.0068378118
 30
0.0
 10
10.6483650845
 20
11.0068144705
 30
0.0
 10
10.66767807
 20
11.0059669908
 30
0.0
 10
10.6870798448
 20
11.0042414851
 30
0.0
 10
10.7065522145
 20
11.0015932264
 30
0.0
 10
10.7260730207
 20
10.9979896889
 30
0.0
 10
10.7456171534
 20
10.993413087
 30
0.0
 10
10.7651580302
 20
10.987862083
 30
0.0
 10
10.7846695924
 20
10.981352724
 30
0.0
 10
10.8041278159
 20
10.9739163468
 30
0.0
 10
10.8235119689
 20
10.9655970546
 30
0.0
 10
10.842805411
 20
10.9564486797
 30
0.0
 10
10.8619962113
 20
10.9465314225
 30
0.0
 10
10.8810762121
 20
10.9359083623
 30
0.0
 10
10.8936595964
 20
10.9284334251
 30
0.0
 10
10.8999347612
 20
10.9245988648
 30
0.0
  0
SPLINE
  5
440
100
AcDbEntity
  8
0
100
AcDbSpline
 62
7
  6
CONTINUOUS
 70
0
 71
3
 72
23
 73
19
 74
0
 42
0.0000001
 43
0.0000001
 44
0.0000000001
 40
0.0
 40
0.0
 40
0.0
 40
0.0
 40
0.0711843479
 40
0.1413250586
 40
0.2102906356
 40
0.2779589413
 40
0.344223781
 40
0.409015672
 40
0.4723196215
 40
0.534189984
 40
0.5947544605
 40
0.6542039076
 40
0.7127693899
 40
0.7706932737
 40
0.828203293
 40
0.8854941121
 40
0.9427221166
 40
1.0
 40
1.0
 40
1.0
 40
1.0
 10
10.5910634576
 20
10.5839413136
 30
0.0
 10
10.5971042409
 20
10.5786922681
 30
0.0
 10
10.6092682619
 20
10.5684653552
 30
0.0
 10
10.6279317882
 20
10.5539434654
 30
0.0
 10
10.6468911071
 20
10.5404778597
 30
0.0
 10
10.6661367954
 20
10.5282134824
 30
0.0
 10
10.6856465133
 20
10.5172994146
 30
0.0
 10
10.7053813299
 20
10.507879976
 30
0.0
 10
10.7252849345
 20
10.5000820935
 30
0.0
 10
10.7452849374
 20
10.4940012455
 30
0.0
 10
10.7652978092
 20
10.4896887961
 30
0.0
 10
10.7852369948
 20
10.4871443899
 30
0.0
 10
10.8050224531
 20
10.486316271
 30
0.0
 10
10.8245888039
 20
10.4871095632
 30
0.0
 10
10.843889542
 20
10.4893997811
 30
0.0
 10
10.8628977157
 20
10.4930472533
 30
0.0
 10
10.8816016012
 20
10.4979091387
 30
0.0
 10
10.8938594149
 20
10.5018653873
 30
0.0
 10
10.8999347612
 20
10.503999639
 30
0.0
  0
SPLINE
  5
441
100
AcDbEntity
  8
0
100
AcDbSpline
 62
7
  6
CONTINUOUS
 70
0
 71
3
 72
21
 73
17
 74
0
 42
0.0000001
 43
0.0000001
 44
0.0000000001
 40
0.0
 40
0.0
 40
0.0
 40
0.0
 40
0.1268695485
 40
0.1901517721
 40
0.2533142979
 40
0.3163458547
 40
0.3792363631
 40
0.4419778287
 40
0.5045647949
 40
0.5669946943
 40
0.6292682989
 40
0.6913897044
 40
0.7533657309
 40
0.8152051389
 40
0.8769181082
 40
1.0
 40
1.0
 40
1.0
 40
1.0
 10
10.9571442066
 20
10.9206313763
 30
0.0
 10
10.9743437
 20
10.9262593211
 30
0.0
 10
11.0003222248
 20
10.934109424
 30
0.0
 10
11.0353130065
 20
10.9431384466
 30
0.0
 10
11.0616748709
 20
10.9491183111
 30
0.0
 10
11.0881576854
 20
10.9542530124
 30
0.0
 10
11.1147383372
 20
10.9584917412
 30
0.0
 10
11.1413879442
 20
10.9617941335
 30
0.0
 10
11.1680735954
 20
10.9641332826
 30
0.0
 10
11.19476001
 20
10.9654979384
 30
0.0
 10
11.2214117884
 20
10.9658942579
 30
0.0
 10
11.2479957988
 20
10.9653444125
 30
0.0
 10
11.2744828491
 20
10.9638846556
 30
0.0
 10
11.3008495467
 20
10.9615624954
 30
0.0
 10
11.335786226
 20
10.9573952683
 30
0.0
 10
11.3618174387
 20
10.953144483
 30
0.0
 10
11.3790701355
 20
10.9498920906
 30
0.0
  0
SPLINE
  5
442
100
AcDbEntity
  8
0
100
AcDbSpline
 62
7
  6
CONTINUOUS
 70
0
 71
3
 72
23
 73
19
 74
0
 42
0.0000001
 43
0.0000001
 44
0.0000000001
 40
0.0
 40
0.0
 40
0.0
 40
0.0
 40
0.060922569
 40
0.1219769918
 40
0.1831859852
 40
0.2445787229
 40
0.3061832333
 40
0.3680265498
 40
0.4301306451
 40
0.4925094081
 40
0.5551661398
 40
0.6180928636
 40
0.6812716524
 40
0.7446774017
 40
0.80828155
 40
0.8720542819
 40
0.9359695497
 40
1.0
 40
1.0
 40
1.0
 40
1.0
 10
10.9571442066
 20
10.5000321505
 30
0.0
 10
10.9654595308
 20
10.4968948987
 30
0.0
 10
10.9822264296
 20
10.4909207201
 30
0.0
 10
11.0077567625
 20
10.4829973865
 30
0.0
 10
11.0336931859
 20
10.4762389416
 30
0.0
 10
11.0600196801
 20
10.4707882916
 30
0.0
 10
11.0867009678
 20
10.4667873282
 30
0.0
 10
11.1136778911
 20
10.4643660501
 30
0.0
 10
11.140867702
 20
10.4636291162
 30
0.0
 10
11.1681680439
 20
10.4646424052
 30
0.0
 10
11.1954656492
 20
10.4674232715
 30
0.0
 10
11.2226477842
 20
10.4719375576
 30
0.0
 10
11.2496134727
 20
10.4781045236
 30
0.0
 10
11.2762816871
 20
10.4858079265
 30
0.0
 10
11.3025948288
 20
10.4949099001
 30
0.0
 10
11.3285187147
 20
10.5052642007
 30
0.0
 10
11.3540380139
 20
10.5167262956
 30
0.0
 10
11.3707691869
 20
10.5250096891
 30
0.0
 10
11.3790701355
 20
10.5292928648
 30
0.0
  0
SPLINE
  5
443
100
AcDbEntity
  8
0
100
AcDbSpline
 62
7
  6
CONTINUOUS
 70
0
 71
3
 72
23
 73
19
 74
0
 42
0.0000001
 43
0.0000001
 44
0.0000000001
 40
0.0
 40
0.0
 40
0.0
 40
0.0
 40
0.0896878601
 40
0.1761282257
 40
0.2590339709
 40
0.3381404559
 40
0.4132190754
 40
0.4841040267
 40
0.5507161622
 40
0.6130840135
 40
0.6713600283
 40
0.7258277018
 40
0.7768914774
 40
0.8250532073
 40
0.8708770119
 40
0.9149463658
 40
0.9578211389
 40
1.0
 40
1.0
 40
1.0
 40
1.0
 10
11.4209503445
 20
10.9607314821
 30
0.0
 10
11.4232195522
 20
10.9651071801
 30
0.0
 10
11.4277600998
 20
10.9736568744
 30
0.0
 10
11.434729328
 20
10.9860720927
 30
0.0
 10
11.4417374808
 20
10.9977933309
 30
0.0
 10
11.4487819727
 20
11.0087581861
 30
0.0
 10
11.4558592737
 20
11.0189071633
 30
0.0
 10
11.4629645199
 20
11.0281866614
 30
0.0
 10
11.4700918541
 20
11.0365522019
 30
0.0
 10
11.4772347132
 20
11.0439711517
 30
0.0
 10
11.4843860872
 20
11.0504248185
 30
0.0
 10
11.4915382186
 20
11.0559100127
 30
0.0
 10
11.4986829346
 20
11.0604386658
 30
0.0
 10
11.5058115345
 20
11.0640367702
 30
0.0
 10
11.5129147158
 20
11.0667430166
 30
0.0
 10
11.5199836364
 20
11.0686071415
 30
0.0
 10
11.5270098227
 20
11.0696865819
 30
0.0
 10
11.531686902
 20
11.0699256222
 30
0.0
 10
11.5340049698
 20
11.069933871
 30
0.0
  0
SPLINE
  5
444
100
AcDbEntity
  8
0
100
AcDbSpline
 62
7
  6
CONTINUOUS
 70
0
 71
3
 72
22
 73
18
 74
0
 42
0.0000001
 43
0.0000001
 44
0.0000000001
 40
0.0
 40
0.0
 40
0.0
 40
0.0
 40
0.1269574188
 40
0.1878807134
 40
0.2472958083
 40
0.3054478886
 40
0.3626644883
 40
0.4193537969
 40
0.4760085848
 40
0.5331940018
 40
0.5915285038
 40
0.6516589371
 40
0.7142233838
 40
0.7798329836
 40
0.8490302157
 40
0.9222928936
 40
1.0
 40
1.0
 40
1.0
 40
1.0
 10
11.4209503445
 20
10.5401322564
 30
0.0
 10
11.4230733708
 20
10.5386441352
 30
0.0
 10
11.4263312065
 20
10.5365953478
 30
0.0
 10
11.4308532401
 20
10.5343397288
 30
0.0
 10
11.4342276652
 20
10.5329519062
 30
0.0
 10
11.4376309427
 20
10.5318621844
 30
0.0
 10
11.4410632149
 20
10.5310877539
 30
0.0
 10
11.4445237703
 20
10.5306459521
 30
0.0
 10
11.448011143
 20
10.5305544396
 30
0.0
 10
11.4515229177
 20
10.5308294351
 30
0.0
 10
11.4550560565
 20
10.5314860317
 30
0.0
 10
11.4586069037
 20
10.5325376687
 30
0.0
 10
11.462172233
 20
10.5339945182
 30
0.0
 10
11.4657481122
 20
10.5358661409
 30
0.0
 10
11.4693321495
 20
10.5381575684
 30
0.0
 10
11.4729203261
 20
10.5408735081
 30
0.0
 10
11.4752427592
 20
10.5429051852
 30
0.0
 10
11.4764044972
 20
10.5439861793
 30
0.0
  0
SPLINE
  5
445
100
AcDbEntity
  8
0
100
AcDbSpline
 62
7
  6
CONTINUOUS
 70
0
 71
3
 72
32
 73
28
 74
0
 42
0.0000001
 43
0.0000001
 44
0.0000000001
 40
0.0
 40
0.0
 40
0.0
 40
0.0
 40
0.0753847077
 40
0.1519052122
 40
0.2289080297
 40
0.3057323849
 40
0.3817205787
 40
0.4562238039
 40
0.5286100124
 40
0.5638191284
 40
0.5982734088
 40
0.6319020572
 40
0.6646365626
 40
0.6964115357
 40
0.7271643244
 40
0.7568361743
 40
0.7853715993
 40
0.812719962
 40
0.8388346528
 40
0.863675113
 40
0.8872060141
 40
0.9093998945
 40
0.930236452
 40
0.9497055561
 40
0.9678081959
 40
0.9845619106
 40
1.0
 40
1.0
 40
1.0
 40
1.0
 10
10.944224545
 20
10.3167368805
 30
0.0
 10
10.9575619202
 20
10.3158119304
 30
0.0
 10
10.9844636611
 20
10.3143065598
 30
0.0
 10
11.0250453816
 20
10.3130672045
 30
0.0
 10
11.0659009107
 20
10.3128347983
 30
0.0
 10
11.1066552249
 20
10.3136115887
 30
0.0
 10
11.1469346065
 20
10.3153902405
 30
0.0
 10
11.1863694396
 20
10.3181542008
 30
0.0
 10
11.2185170595
 20
10.3212849239
 30
0.0
 10
11.2435319102
 20
10.324277051
 30
0.0
 10
11.2616866906
 20
10.3267282328
 30
0.0
 10
11.2793664188
 20
10.3294012934
 30
0.0
 10
11.2965305614
 20
10.3322902036
 30
0.0
 10
11.3131397298
 20
10.3353881243
 30
0.0
 10
11.3291558493
 20
10.3386880687
 30
0.0
 10
11.3445422248
 20
10.3421821828
 30
0.0
 10
11.3592636281
 20
10.345862629
 30
0.0
 10
11.3732864147
 20
10.3497206034
 30
0.0
 10
11.3865785497
 20
10.3537475037
 30
0.0
 10
11.3991098033
 20
10.3579336651
 30
0.0
 10
11.4108516973
 20
10.3622698207
 30
0.0
 10
11.4217777911
 20
10.3667456316
 30
0.0
 10
11.4318634474
 20
10.3713513567
 30
0.0
 10
11.441086307
 20
10.376076043
 30
0.0
 10
11.4494263698
 20
10.380910022
 30
0.0
 10
11.4568651146
 20
10.385842341
 30
0.0
 10
11.4613941128
 20
10.3893296157
 30
0.0
 10
11.4634888016
 20
10.3910927225
 30
0.0
  0
SPLINE
  5
446
100
AcDbEntity
  8
0
100
AcDbSpline
 62
7
  6
CONTINUOUS
 70
0
 71
3
 72
32
 73
28
 74
0
 42
0.0000001
 43
0.0000001
 44
0.0000000001
 40
0.0
 40
0.0
 40
0.0
 40
0.0
 40
0.0761060068
 40
0.1533666782
 40
0.2310991075
 40
0.3086122697
 40
0.3852192048
 40
0.4602427322
 40
0.5330243989
 40
0.5683768554
 40
0.6029343718
 40
0.6366237913
 40
0.6693741853
 40
0.7011182934
 40
0.7317916466
 40
0.7613342225
 40
0.789689569
 40
0.8168064852
 40
0.8426385035
 40
0.867145557
 40
0.8902940316
 40
0.9120583768
 40
0.9324222937
 40
0.951380619
 40
0.9689421526
 40
0.9851325663
 40
1.0
 40
1.0
 40
1.0
 40
1.0
 10
10.944224545
 20
10.4577620595
 30
0.0
 10
10.9577992222
 20
10.4568206524
 30
0.0
 10
10.9851815216
 20
10.4552948728
 30
0.0
 10
11.0264864014
 20
10.4540609929
 30
0.0
 10
11.0680611025
 20
10.4538698257
 30
0.0
 10
11.1095105061
 20
10.4547233212
 30
0.0
 10
11.1504409989
 20
10.4566131195
 30
0.0
 10
11.1904636947
 20
10.4595209938
 30
0.0
 10
11.2230516214
 20
10.462799784
 30
0.0
 10
11.2483725685
 20
10.4659262507
 30
0.0
 10
11.2667190356
 20
10.4684828294
 30
0.0
 10
11.2845616075
 20
10.4712673192
 30
0.0
 10
11.3018579286
 20
10.4742733735
 30
0.0
 10
11.3185669068
 20
10.4774934783
 30
0.0
 10
11.3346488798
 20
10.4809202213
 30
0.0
 10
11.3500657149
 20
10.4845450856
 30
0.0
 10
11.3647808726
 20
10.4883596676
 30
0.0
 10
11.3787595562
 20
10.4923545566
 30
0.0
 10
11.3919687397
 20
10.4965204172
 30
0.0
 10
11.4043773529
 20
10.5008471006
 30
0.0
 10
11.4159562878
 20
10.5053244325
 30
0.0
 10
11.426678562
 20
10.5099417243
 30
0.0
 10
11.4365194178
 20
10.514688179
 30
0.0
 10
11.4454562734
 20
10.5195528736
 30
0.0
 10
11.4534693505
 20
10.524525046
 30
0.0
 10
11.4605399953
 20
10.5295936278
 30
0.0
 10
11.4647912978
 20
10.5331788824
 30
0.0
 10
11.466737255
 20
10.5349897671
 30
0.0
  0
SPLINE
  5
447
100
AcDbEntity
  8
0
100
AcDbSpline
 62
7
  6
CONTINUOUS
 70
0
 71
3
 72
30
 73
26
 74
0
 42
0.0000001
 43
0.0000001
 44
0.0000000001
 40
0.0
 40
0.0
 40
0.0
 40
0.0
 40
0.0844974258
 40
0.1673032379
 40
0.2480799033
 40
0.3265305842
 40
0.4023583873
 40
0.4752828492
 40
0.5450415892
 40
0.6113907877
 40
0.6741099097
 40
0.7040473577
 40
0.7330066933
 40
0.7609679313
 40
0.7879142885
 40
0.8138308206
 40
0.8387051747
 40
0.8625289377
 40
0.8852963528
 40
0.907005776
 40
0.9276607694
 40
0.9472692787
 40
0.965845885
 40
0.983412799
 40
1.0
 40
1.0
 40
1.0
 40
1.0
 10
10.944224545
 20
10.4577620595
 30
0.0
 10
10.9353755414
 20
10.4583757399
 30
0.0
 10
10.9178650138
 20
10.4597462073
 30
0.0
 10
10.8919424226
 20
10.4622589171
 30
0.0
 10
10.8667037065
 20
10.4652002022
 30
0.0
 10
10.8422559886
 20
10.4685572175
 30
0.0
 10
10.8187009548
 20
10.4723158671
 30
0.0
 10
10.7961375743
 20
10.4764600972
 30
0.0
 10
10.7746602828
 20
10.4809722439
 30
0.0
 10
10.7543590756
 20
10.4858332317
 30
0.0
 10
10.7382511475
 20
10.4902226831
 30
0.0
 10
10.7260267428
 20
10.4939066747
 30
0.0
 10
10.7173467336
 20
10.4967008109
 30
0.0
 10
10.7090213443
 20
10.4995662272
 30
0.0
 10
10.7010592105
 20
10.5024997636
 30
0.0
 10
10.6934686471
 20
10.5054983672
 30
0.0
 10
10.6862576098
 20
10.5085590351
 30
0.0
 10
10.6794335132
 20
10.5116783595
 30
0.0
 10
10.6730034572
 20
10.5148531986
 30
0.0
 10
10.6669741273
 20
10.5180803552
 30
0.0
 10
10.6613516039
 20
10.5213563092
 30
0.0
 10
10.6561417339
 20
10.5246779004
 30
0.0
 10
10.6513497733
 20
10.5280419002
 30
0.0
 10
10.6469806642
 20
10.5314446401
 30
0.0
 10
10.6442769641
 20
10.5338032319
 30
0.0
 10
10.6430022754
 20
10.5349894808
 30
0.0
  0
SPLINE
  5
448
100
AcDbEntity
  8
0
100
AcDbSpline
 62
7
  6
CONTINUOUS
 70
0
 71
3
 72
41
 73
37
 74
0
 42
0.0000001
 43
0.0000001
 44
0.0000000001
 40
0.0
 40
0.0
 40
0.0
 40
0.0
 40
0.0311445478
 40
0.0624424446
 40
0.0938872679
 40
0.125469566
 40
0.1571770992
 40
0.1889951145
 40
0.2209066667
 40
0.2528929719
 40
0.2849337877
 40
0.3170078142
 40
0.3490931102
 40
0.381167517
 40
0.4132090858
 40
0.4451965025
 40
0.4771095029
 40
0.5089292747
 40
0.5406388381
 40
0.5722233999
 40
0.6036706736
 40
0.63497116
 40
0.6661183793
 40
0.6971090497
 40
0.7279432042
 40
0.7586242401
 40
0.7891588962
 40
0.8195571523
 40
0.8498320512
 40
0.8649308901
 40
0.8800050513
 40
0.9100832572
 40
0.940092674
 40
0.9550812744
 40
0.9700610349
 40
1.0
 40
1.0
 40
1.0
 40
1.0
 10
11.3837076643
 20
9.0575902812
 30
0.0
 10
11.3871985266
 20
9.0573481891
 30
0.0
 10
11.3941823162
 20
9.0566072913
 30
0.0
 10
11.4045733277
 20
9.0547409705
 30
0.0
 10
11.4148530526
 20
9.0521267887
 30
0.0
 10
11.4249659471
 20
9.0487788369
 30
0.0
 10
11.4348583034
 20
9.0447150414
 30
0.0
 10
11.4444773483
 20
9.0399571464
 30
0.0
 10
11.4537718406
 20
9.0345305764
 30
0.0
 10
11.4626922536
 20
9.0284643059
 30
0.0
 10
11.4711910593
 20
9.0217907043
 30
0.0
 10
11.4792229728
 20
9.0145453646
 30
0.0
 10
11.4867451917
 20
9.0067669152
 30
0.0
 10
11.4937176223
 20
8.9984968159
 30
0.0
 10
11.5001030905
 20
8.989779139
 30
0.0
 10
11.5058675389
 20
8.9806603368
 30
0.0
 10
11.5109802065
 20
8.9711889969
 30
0.0
 10
11.5154137917
 20
8.9614155863
 30
0.0
 10
11.5191445977
 20
8.9513921859
 30
0.0
 10
11.5221526586
 20
8.9411722164
 30
0.0
 10
11.5244218467
 20
8.9308101573
 30
0.0
 10
11.5259399606
 20
8.9203612609
 30
0.0
 10
11.5266987921
 20
8.9098812604
 30
0.0
 10
11.5266941753
 20
8.8994260798
 30
0.0
 10
11.5259260081
 20
8.8890515269
 30
0.0
 10
11.5243982779
 20
8.8788130395
 30
0.0
 10
11.5221189752
 20
8.8687652379
 30
0.0
 10
11.5191003228
 20
8.8589621954
 30
0.0
 10
11.5159785529
 20
8.8510320979
 30
0.0
 10
11.5131297256
 20
8.8448652427
 30
0.0
 10
11.5100553647
 20
8.8388324409
 30
0.0
 10
11.505786718
 20
8.8315354848
 30
0.0
 10
11.5009690949
 20
8.824600359
 30
0.0
 10
11.4968059179
 20
8.8192993523
 30
0.0
 10
11.4924441966
 20
8.8141713283
 30
0.0
 10
11.4889496651
 20
8.8105206351
 30
0.0
 10
11.4865302422
 20
8.8081836499
 30
0.0
  0
SPLINE
  5
449
100
AcDbEntity
  8
0
100
AcDbSpline
 62
7
  6
CONTINUOUS
 70
0
 71
3
 72
41
 73
37
 74
0
 42
0.0000001
 43
0.0000001
 44
0.0000000001
 40
0.0
 40
0.0
 40
0.0
 40
0.0
 40
0.0311445478
 40
0.0624424446
 40
0.0938872679
 40
0.125469566
 40
0.1571770992
 40
0.1889951145
 40
0.2209066667
 40
0.2528929719
 40
0.2849337877
 40
0.3170078142
 40
0.3490931102
 40
0.381167517
 40
0.4132090858
 40
0.4451965025
 40
0.4771095029
 40
0.5089292747
 40
0.5406388381
 40
0.5722233999
 40
0.6036706736
 40
0.63497116
 40
0.6661183793
 40
0.6971090497
 40
0.7279432042
 40
0.7586242401
 40
0.7891588962
 40
0.8195571523
 40
0.8498320512
 40
0.8649308901
 40
0.8800050513
 40
0.9100832572
 40
0.940092674
 40
0.9550812744
 40
0.9700610349
 40
1.0
 40
1.0
 40
1.0
 40
1.0
 10
10.1763003098
 20
9.1413242656
 30
0.0
 10
10.1797911722
 20
9.1410821735
 30
0.0
 10
10.1867749618
 20
9.1403412757
 30
0.0
 10
10.1971659733
 20
9.1384749549
 30
0.0
 10
10.2074456982
 20
9.1358607732
 30
0.0
 10
10.2175585927
 20
9.1325128213
 30
0.0
 10
10.227450949
 20
9.1284490258
 30
0.0
 10
10.2370699939
 20
9.1236911308
 30
0.0
 10
10.2463644862
 20
9.1182645608
 30
0.0
 10
10.2552848991
 20
9.1121982904
 30
0.0
 10
10.2637837049
 20
9.1055246887
 30
0.0
 10
10.2718156184
 20
9.098279349
 30
0.0
 10
10.2793378373
 20
9.0905008996
 30
0.0
 10
10.2863102679
 20
9.0822308004
 30
0.0
 10
10.2926957361
 20
9.0735131234
 30
0.0
 10
10.2984601845
 20
9.0643943212
 30
0.0
 10
10.3035728521
 20
9.0549229813
 30
0.0
 10
10.3080064373
 20
9.0451495708
 30
0.0
 10
10.3117372433
 20
9.0351261704
 30
0.0
 10
10.3147453042
 20
9.0249062008
 30
0.0
 10
10.3170144923
 20
9.0145441417
 30
0.0
 10
10.3185326062
 20
9.0040952453
 30
0.0
 10
10.3192914377
 20
8.9936152448
 30
0.0
 10
10.3192868209
 20
8.9831600642
 30
0.0
 10
10.3185186537
 20
8.9727855114
 30
0.0
 10
10.3169909235
 20
8.9625470239
 30
0.0
 10
10.3147116208
 20
8.9524992223
 30
0.0
 10
10.3116929684
 20
8.9426961799
 30
0.0
 10
10.3085711985
 20
8.9347660823
 30
0.0
 10
10.3057223712
 20
8.9285992272
 30
0.0
 10
10.3026480102
 20
8.9225664254
 30
0.0
 10
10.2983793636
 20
8.9152694693
 30
0.0
 10
10.2935617405
 20
8.9083343435
 30
0.0
 10
10.2893985635
 20
8.9030333368
 30
0.0
 10
10.2850368422
 20
8.8979053127
 30
0.0
 10
10.2815423107
 20
8.8942546195
 30
0.0
 10
10.2791228878
 20
8.8919176343
 30
0.0
  0
SPLINE
  5
44A
100
AcDbEntity
  8
0
100
AcDbSpline
 62
7
  6
CONTINUOUS
 70
0
 71
3
 72
41
 73
37
 74
0
 42
0.0000001
 43
0.0000001
 44
0.0000000001
 40
0.0
 40
0.0
 40
0.0
 40
0.0
 40
0.0311445478
 40
0.0624424446
 40
0.0938872679
 40
0.125469566
 40
0.1571770992
 40
0.1889951145
 40
0.2209066667
 40
0.2528929719
 40
0.2849337877
 40
0.3170078142
 40
0.3490931102
 40
0.381167517
 40
0.4132090858
 40
0.4451965025
 40
0.4771095029
 40
0.5089292747
 40
0.5406388381
 40
0.5722233999
 40
0.6036706736
 40
0.63497116
 40
0.6661183793
 40
0.6971090497
 40
0.7279432042
 40
0.7586242401
 40
0.7891588962
 40
0.8195571523
 40
0.8498320512
 40
0.8649308901
 40
0.8800050513
 40
0.9100832572
 40
0.940092674
 40
0.9550812744
 40
0.9700610349
 40
1.0
 40
1.0
 40
1.0
 40
1.0
 10
10.1763003098
 20
7.6016384248
 30
0.0
 10
10.1797911722
 20
7.6013963327
 30
0.0
 10
10.1867749618
 20
7.6006554349
 30
0.0
 10
10.1971659733
 20
7.5987891141
 30
0.0
 10
10.2074456982
 20
7.5961749323
 30
0.0
 10
10.2175585927
 20
7.5928269805
 30
0.0
 10
10.227450949
 20
7.588763185
 30
0.0
 10
10.2370699939
 20
7.58400529
 30
0.0
 10
10.2463644862
 20
7.57857872
 30
0.0
 10
10.2552848991
 20
7.5725124495
 30
0.0
 10
10.2637837049
 20
7.5658388479
 30
0.0
 10
10.2718156184
 20
7.5585935082
 30
0.0
 10
10.2793378373
 20
7.5508150588
 30
0.0
 10
10.2863102679
 20
7.5425449595
 30
0.0
 10
10.2926957361
 20
7.5338272826
 30
0.0
 10
10.2984601845
 20
7.5247084804
 30
0.0
 10
10.3035728521
 20
7.5152371405
 30
0.0
 10
10.3080064373
 20
7.5054637299
 30
0.0
 10
10.3117372433
 20
7.4954403295
 30
0.0
 10
10.3147453042
 20
7.48522036
 30
0.0
 10
10.3170144923
 20
7.4748583009
 30
0.0
 10
10.3185326062
 20
7.4644094045
 30
0.0
 10
10.3192914377
 20
7.453929404
 30
0.0
 10
10.3192868209
 20
7.4434742233
 30
0.0
 10
10.3185186537
 20
7.4330996705
 30
0.0
 10
10.3169909235
 20
7.4228611831
 30
0.0
 10
10.3147116208
 20
7.4128133815
 30
0.0
 10
10.3116929684
 20
7.403010339
 30
0.0
 10
10.3085711985
 20
7.3950802415
 30
0.0
 10
10.3057223712
 20
7.3889133863
 30
0.0
 10
10.3026480102
 20
7.3828805845
 30
0.0
 10
10.2983793636
 20
7.3755836284
 30
0.0
 10
10.2935617405
 20
7.3686485026
 30
0.0
 10
10.2893985635
 20
7.3633474959
 30
0.0
 10
10.2850368422
 20
7.3582194719
 30
0.0
 10
10.2815423107
 20
7.3545687787
 30
0.0
 10
10.2791228878
 20
7.3522317935
 30
0.0
  0
SPLINE
  5
44B
100
AcDbEntity
  8
0
100
AcDbSpline
 62
7
  6
CONTINUOUS
 70
0
 71
3
 72
41
 73
37
 74
0
 42
0.0000001
 43
0.0000001
 44
0.0000000001
 40
0.0
 40
0.0
 40
0.0
 40
0.0
 40
0.0311445478
 40
0.0624424446
 40
0.0938872679
 40
0.125469566
 40
0.1571770992
 40
0.1889951145
 40
0.2209066667
 40
0.2528929719
 40
0.2849337877
 40
0.3170078142
 40
0.3490931102
 40
0.381167517
 40
0.4132090858
 40
0.4451965025
 40
0.4771095029
 40
0.5089292747
 40
0.5406388381
 40
0.5722233999
 40
0.6036706736
 40
0.63497116
 40
0.6661183793
 40
0.6971090497
 40
0.7279432042
 40
0.7586242401
 40
0.7891588962
 40
0.8195571523
 40
0.8498320512
 40
0.8649308901
 40
0.8800050513
 40
0.9100832572
 40
0.940092674
 40
0.9550812744
 40
0.9700610349
 40
1.0
 40
1.0
 40
1.0
 40
1.0
 10
11.3837076643
 20
7.5179044404
 30
0.0
 10
11.3871985266
 20
7.5176623482
 30
0.0
 10
11.3941823162
 20
7.5169214504
 30
0.0
 10
11.4045733277
 20
7.5150551297
 30
0.0
 10
11.4148530526
 20
7.5124409479
 30
0.0
 10
11.4249659471
 20
7.5090929961
 30
0.0
 10
11.4348583034
 20
7.5050292005
 30
0.0
 10
11.4444773483
 20
7.5002713056
 30
0.0
 10
11.4537718406
 20
7.4948447356
 30
0.0
 10
11.4626922536
 20
7.4887784651
 30
0.0
 10
11.4711910593
 20
7.4821048635
 30
0.0
 10
11.4792229728
 20
7.4748595238
 30
0.0
 10
11.4867451917
 20
7.4670810744
 30
0.0
 10
11.4937176223
 20
7.4588109751
 30
0.0
 10
11.5001030905
 20
7.4500932982
 30
0.0
 10
11.5058675389
 20
7.4409744959
 30
0.0
 10
11.5109802065
 20
7.431503156
 30
0.0
 10
11.5154137917
 20
7.4217297455
 30
0.0
 10
11.5191445977
 20
7.4117063451
 30
0.0
 10
11.5221526586
 20
7.4014863756
 30
0.0
 10
11.5244218467
 20
7.3911243165
 30
0.0
 10
11.5259399606
 20
7.38067542
 30
0.0
 10
11.5266987921
 20
7.3701954196
 30
0.0
 10
11.5266941753
 20
7.3597402389
 30
0.0
 10
11.5259260081
 20
7.3493656861
 30
0.0
 10
11.5243982779
 20
7.3391271987
 30
0.0
 10
11.5221189752
 20
7.3290793971
 30
0.0
 10
11.5191003228
 20
7.3192763546
 30
0.0
 10
11.5159785529
 20
7.3113462571
 30
0.0
 10
11.5131297256
 20
7.3051794019
 30
0.0
 10
11.5100553647
 20
7.2991466001
 30
0.0
 10
11.505786718
 20
7.291849644
 30
0.0
 10
11.5009690949
 20
7.2849145182
 30
0.0
 10
11.4968059179
 20
7.2796135115
 30
0.0
 10
11.4924441966
 20
7.2744854874
 30
0.0
 10
11.4889496651
 20
7.2708347942
 30
0.0
 10
11.4865302422
 20
7.268497809
 30
0.0
  0
SPLINE
  5
44C
100
AcDbEntity
  8
0
100
AcDbSpline
 62
7
  6
CONTINUOUS
 70
0
 71
3
 72
37
 73
33
 74
0
 42
0.0000001
 43
0.0000001
 44
0.0000000001
 40
0.0
 40
0.0
 40
0.0
 40
0.0
 40
0.0311464763
 40
0.0624483004
 40
0.0938952738
 40
0.1254804953
 40
0.1571907415
 40
0.1890115257
 40
0.2209258547
 40
0.252914932
 40
0.2849585264
 40
0.317035338
 40
0.3491234252
 40
0.381200621
 40
0.4451976236
 40
0.5088978732
 40
0.5406101981
 40
0.5721975056
 40
0.6036475114
 40
0.634950721
 40
0.6661006564
 40
0.6970940303
 40
0.7279308694
 40
0.7586145731
 40
0.7891518852
 40
0.8195527902
 40
0.8498303302
 40
0.8800003491
 40
0.9100811696
 40
0.9400931924
 40
0.9700584311
 40
1.0
 40
1.0
 40
1.0
 40
1.0
 10
10.7800039871
 20
8.2484765212
 30
0.0
 10
10.7815135082
 20
8.2483718355
 30
0.0
 10
10.7845335365
 20
8.2480514249
 30
0.0
 10
10.7890269374
 20
8.2472444089
 30
0.0
 10
10.7934722431
 20
8.2461139084
 30
0.0
 10
10.7978453648
 20
8.2446661825
 30
0.0
 10
10.8021231388
 20
8.2429088679
 30
0.0
 10
10.8062827171
 20
8.2408514093
 30
0.0
 10
10.8103019475
 20
8.2385047863
 30
0.0
 10
10.8141594136
 20
8.2358815441
 30
0.0
 10
10.8178345759
 20
8.2329956657
 30
0.0
 10
10.8213078129
 20
8.2298625998
 30
0.0
 10
10.8245607542
 20
8.2264988209
 30
0.0
 10
10.8285767696
 20
8.2217355355
 30
0.0
 10
10.8329627194
 20
8.2153001002
 30
0.0
 10
10.8364175901
 20
8.2083395918
 30
0.0
 10
10.8385711942
 20
8.2025532869
 30
0.0
 10
10.8398720564
 20
8.198133712
 30
0.0
 10
10.8408533147
 20
8.1936528706
 30
0.0
 10
10.8415098175
 20
8.1891344307
 30
0.0
 10
10.8418379804
 20
8.1846025516
 30
0.0
 10
10.8418359996
 20
8.1800813995
 30
0.0
 10
10.8415038289
 20
8.1755951166
 30
0.0
 10
10.8408431991
 20
8.1711676631
 30
0.0
 10
10.8398575872
 20
8.1668226979
 30
0.0
 10
10.8385522059
 20
8.1625834516
 30
0.0
 10
10.8369339796
 20
8.158472606
 30
0.0
 10
10.8350115052
 20
8.154512164
 30
0.0
 10
10.8327950596
 20
8.1507233459
 30
0.0
 10
10.8302964117
 20
8.1471263748
 30
0.0
 10
10.8275291646
 20
8.1437407655
 30
0.0
 10
10.8255142482
 20
8.1416357988
 30
0.0
 10
10.8244680161
 20
8.14062521
 30
0.0
  0
SPLINE
  5
44D
100
AcDbEntity
  8
0
100
AcDbSpline
 62
7
  6
CONTINUOUS
 70
0
 71
3
 72
37
 73
33
 74
0
 42
0.0000001
 43
0.0000001
 44
0.0000000001
 40
0.0
 40
0.0
 40
0.0
 40
0.0
 40
0.0311464763
 40
0.0624483004
 40
0.0938952738
 40
0.1254804953
 40
0.1571907415
 40
0.1890115257
 40
0.2209258547
 40
0.252914932
 40
0.2849585264
 40
0.317035338
 40
0.3491234252
 40
0.381200621
 40
0.4451976236
 40
0.5088978732
 40
0.5406101981
 40
0.5721975056
 40
0.6036475114
 40
0.634950721
 40
0.6661006564
 40
0.6970940303
 40
0.7279308694
 40
0.7586145731
 40
0.7891518852
 40
0.8195527902
 40
0.8498303302
 40
0.8800003491
 40
0.9100811696
 40
0.9400931924
 40
0.9700584311
 40
1.0
 40
1.0
 40
1.0
 40
1.0
 10
11.3991624809
 20
7.7679732422
 30
0.0
 10
11.4006720021
 20
7.7678685566
 30
0.0
 10
11.4036920304
 20
7.7675481459
 30
0.0
 10
11.4081854313
 20
7.7667411299
 30
0.0
 10
11.412630737
 20
7.7656106294
 30
0.0
 10
11.4170038586
 20
7.7641629036
 30
0.0
 10
11.4212816326
 20
7.7624055889
 30
0.0
 10
11.4254412109
 20
7.7603481303
 30
0.0
 10
11.4294604414
 20
7.7580015073
 30
0.0
 10
11.4333179075
 20
7.7553782651
 30
0.0
 10
11.4369930697
 20
7.7524923868
 30
0.0
 10
11.4404663068
 20
7.7493593208
 30
0.0
 10
11.4437192481
 20
7.745995542
 30
0.0
 10
11.4477352635
 20
7.7412322566
 30
0.0
 10
11.4521212133
 20
7.7347968213
 30
0.0
 10
11.455576084
 20
7.7278363128
 30
0.0
 10
11.4577296881
 20
7.722050008
 30
0.0
 10
11.4590305502
 20
7.717630433
 30
0.0
 10
11.4600118086
 20
7.7131495916
 30
0.0
 10
11.4606683114
 20
7.7086311518
 30
0.0
 10
11.4609964742
 20
7.7040992726
 30
0.0
 10
11.4609944934
 20
7.6995781205
 30
0.0
 10
11.4606623228
 20
7.6950918376
 30
0.0
 10
11.460001693
 20
7.6906643842
 30
0.0
 10
11.459016081
 20
7.686319419
 30
0.0
 10
11.4577106998
 20
7.6820801727
 30
0.0
 10
11.4560924734
 20
7.677969327
 30
0.0
 10
11.4541699991
 20
7.674008885
 30
0.0
 10
11.4519535534
 20
7.670220067
 30
0.0
 10
11.4494549056
 20
7.6666230959
 30
0.0
 10
11.4466876585
 20
7.6632374866
 30
0.0
 10
11.444672742
 20
7.6611325199
 30
0.0
 10
11.44362651
 20
7.660121931
 30
0.0
  0
SPLINE
  5
44E
100
AcDbEntity
  8
0
100
AcDbSpline
 62
7
  6
CONTINUOUS
 70
0
 71
3
 72
37
 73
33
 74
0
 42
0.0000001
 43
0.0000001
 44
0.0000000001
 40
0.0
 40
0.0
 40
0.0
 40
0.0
 40
0.0311467573
 40
0.0624481077
 40
0.0938952645
 40
0.125480423
 40
0.1571906467
 40
0.189011416
 40
0.2209257215
 40
0.2529147894
 40
0.2849583708
 40
0.3170351623
 40
0.381163081
 40
0.4451600481
 40
0.4770758024
 40
0.508898317
 40
0.5406106103
 40
0.5721978896
 40
0.6036478697
 40
0.6349510521
 40
0.6661009568
 40
0.6970942988
 40
0.7279311085
 40
0.7586147837
 40
0.7891520652
 40
0.819552936
 40
0.8498304416
 40
0.8800004329
 40
0.9100812331
 40
0.9400932378
 40
0.9700584557
 40
1.0
 40
1.0
 40
1.0
 40
1.0
 10
11.3991624809
 20
8.6566250726
 30
0.0
 10
11.4010022339
 20
8.6564974853
 30
0.0
 10
11.4046828985
 20
8.6561069944
 30
0.0
 10
11.410159249
 20
8.6551234208
 30
0.0
 10
11.4155769697
 20
8.653745633
 30
0.0
 10
11.4209067336
 20
8.6519811912
 30
0.0
 10
11.4261202826
 20
8.6498394472
 30
0.0
 10
11.4311897836
 20
8.6473319134
 30
0.0
 10
11.4360882481
 20
8.6444719487
 30
0.0
 10
11.4407895159
 20
8.6412748914
 30
0.0
 10
11.4452687443
 20
8.637757561
 30
0.0
 10
11.4509108509
 20
8.6326681498
 30
0.0
 10
11.4572902443
 20
8.6256061882
 30
0.0
 10
11.4626436649
 20
8.617749125
 30
0.0
 10
11.4662385101
 20
8.6110892822
 30
0.0
 10
11.4685752354
 20
8.6059382629
 30
0.0
 10
11.4705414307
 20
8.6006556913
 30
0.0
 10
11.4721267596
 20
8.5952694713
 30
0.0
 10
11.4733226744
 20
8.5898083814
 30
0.0
 10
11.4741227568
 20
8.5843015225
 30
0.0
 10
11.4745226756
 20
8.5787782722
 30
0.0
 10
11.474520231
 20
8.573268102
 30
0.0
 10
11.4741153701
 20
8.5678004295
 30
0.0
 10
11.4733101932
 20
8.5624044584
 30
0.0
 10
11.4721089372
 20
8.5571090243
 30
0.0
 10
11.470517958
 20
8.55194244
 30
0.0
 10
11.4685457018
 20
8.5469323466
 30
0.0
 10
11.4662026548
 20
8.5421055545
 30
0.0
 10
11.4635013255
 20
8.5374879325
 30
0.0
 10
11.4604560494
 20
8.5331041357
 30
0.0
 10
11.4570834167
 20
8.5289779413
 30
0.0
 10
11.4546276926
 20
8.5264125404
 30
0.0
 10
11.4533525878
 20
8.5251808868
 30
0.0
  0
SPLINE
  5
44F
100
AcDbEntity
  8
0
100
AcDbSpline
 62
7
  6
CONTINUOUS
 70
0
 71
3
 72
32
 73
28
 74
0
 42
0.0000001
 43
0.0000001
 44
0.0000000001
 40
0.0
 40
0.0
 40
0.0
 40
0.0
 40
0.031426847
 40
0.0626422507
 40
0.0936630089
 40
0.1245125435
 40
0.1552207235
 40
0.1858201894
 40
0.2163440512
 40
0.2468239043
 40
0.2772885447
 40
0.3077632995
 40
0.3382698255
 40
0.3688262272
 40
0.3994473804
 40
0.4301453135
 40
0.4917803772
 40
0.5227579648
 40
0.5538393324
 40
0.6163031879
 40
0.679208541
 40
0.7425558746
 40
0.806335032
 40
0.8705247838
 40
0.9027743863
 40
0.9351127947
 40
1.0
 40
1.0
 40
1.0
 40
1.0
 10
10.6288202068
 20
8.5439092563
 30
0.0
 10
10.6288202068
 20
8.5470854853
 30
0.0
 10
10.6291338021
 20
8.5534212431
 30
0.0
 10
10.6305470844
 20
8.5627966949
 30
0.0
 10
10.6328737276
 20
8.5719285821
 30
0.0
 10
10.6360700811
 20
8.5807381131
 30
0.0
 10
10.6400802409
 20
8.5891602241
 30
0.0
 10
10.6448405521
 20
8.5971427606
 30
0.0
 10
10.6502835468
 20
8.6046465755
 30
0.0
 10
10.6563413076
 20
8.6116440702
 30
0.0
 10
10.6629478976
 20
8.6181173964
 30
0.0
 10
10.6700409176
 20
8.624056474
 30
0.0
 10
10.6775624189
 20
8.6294571554
 30
0.0
 10
10.6854590138
 20
8.6343195346
 30
0.0
 10
10.6936826297
 20
8.6386468792
 30
0.0
 10
10.7050359505
 20
8.643715287
 30
0.0
 10
10.7168714983
 20
8.6477300376
 30
0.0
 10
10.7290158793
 20
8.6507165874
 30
0.0
 10
10.7413907099
 20
8.653039813
 30
0.0
 10
10.757148531
 20
8.6546911843
 30
0.0
 10
10.7762535991
 20
8.6547103922
 30
0.0
 10
10.7953965352
 20
8.6527952431
 30
0.0
 10
10.8143793854
 20
8.6489557441
 30
0.0
 10
10.8298764317
 20
8.6441557022
 30
0.0
 10
10.8419781066
 20
8.6393505448
 30
0.0
 10
10.8538715463
 20
8.6338833947
 30
0.0
 10
10.8624598121
 20
8.6290533291
 30
0.0
 10
10.8679813547
 20
8.6255150154
 30
0.0
  0
SPLINE
  5
450
100
AcDbEntity
  8
0
100
AcDbSpline
 62
7
  6
CONTINUOUS
 70
0
 71
3
 72
23
 73
19
 74
0
 42
0.0000001
 43
0.0000001
 44
0.0000000001
 40
0.0
 40
0.0
 40
0.0
 40
0.0
 40
0.0639337984
 40
0.1275587905
 40
0.1908823807
 40
0.2539224576
 40
0.3167003495
 40
0.3792438028
 40
0.4415848353
 40
0.5037593984
 40
0.565806308
 40
0.6277663347
 40
0.6896812406
 40
0.7515928695
 40
0.8135422751
 40
0.8755689339
 40
0.9377100562
 40
1.0
 40
1.0
 40
1.0
 40
1.0
 10
11.3126247086
 20
8.1497198922
 30
0.0
 10
11.3126247086
 20
8.1469838324
 30
0.0
 10
11.3124324247
 20
8.1415229072
 30
0.0
 10
11.3115639207
 20
8.133393679
 30
0.0
 10
11.3101210352
 20
8.1253848852
 30
0.0
 10
11.3081123217
 20
8.1175364348
 30
0.0
 10
11.3055494008
 20
8.1098862219
 30
0.0
 10
11.3024470658
 20
8.1024708238
 30
0.0
 10
11.2988228938
 20
8.0953249493
 30
0.0
 10
11.2946970876
 20
8.0884813118
 30
0.0
 10
11.2900921733
 20
8.081970447
 30
0.0
 10
11.2850327396
 20
8.0758206011
 30
0.0
 10
11.2795451629
 20
8.0700576605
 30
0.0
 10
11.2736573333
 20
8.0647051089
 30
0.0
 10
11.2673984482
 20
8.0597840619
 30
0.0
 10
11.260798591
 20
8.0553132112
 30
0.0
 10
11.2538892415
 20
8.0513092209
 30
0.0
 10
11.2491032104
 20
8.048963291
 30
0.0
 10
11.2466707588
 20
8.0478727899
 30
0.0
  0
SPLINE
  5
451
100
AcDbEntity
  8
0
100
AcDbSpline
 62
7
  6
CONTINUOUS
 70
0
 71
3
 72
23
 73
19
 74
0
 42
0.0000001
 43
0.0000001
 44
0.0000000001
 40
0.0
 40
0.0
 40
0.0
 40
0.0
 40
0.0604700924
 40
0.0908212474
 40
0.1212476749
 40
0.1823281186
 40
0.243734941
 40
0.2745664317
 40
0.3054785948
 40
0.3675276433
 40
0.4298756954
 40
0.4924999106
 40
0.5553737343
 40
0.6184685397
 40
0.745154371
 40
0.8087373962
 40
0.8724283692
 40
1.0
 40
1.0
 40
1.0
 40
1.0
 10
10.8374020306
 20
7.6938441928
 30
0.0
 10
10.8350236952
 20
7.693048221
 30
0.0
 10
10.8313986166
 20
7.6920034168
 30
0.0
 10
10.826488039
 20
7.6909150333
 30
0.0
 10
10.8215115157
 20
7.6900255626
 30
0.0
 10
10.8152044247
 20
7.6892936006
 30
0.0
 10
10.8088428759
 20
7.6890635838
 30
0.0
 10
10.8037353207
 20
7.689172318
 30
0.0
 10
10.7986088568
 20
7.6894744009
 30
0.0
 10
10.7922032839
 20
7.6902090888
 30
0.0
 10
10.7845726771
 20
7.6916350459
 30
0.0
 10
10.7770225756
 20
7.6935797011
 30
0.0
 10
10.7695836471
 20
7.6960144135
 30
0.0
 10
10.7598377978
 20
7.6998784796
 30
0.0
 10
10.7504220623
 20
7.7046022241
 30
0.0
 10
10.7414098002
 20
7.7100607822
 30
0.0
 10
10.7326561905
 20
7.7159911142
 30
0.0
 10
10.726419946
 20
7.7209185822
 30
0.0
 10
10.7224210188
 20
7.7243832065
 30
0.0
  0
SPLINE
  5
452
100
AcDbEntity
  8
0
100
AcDbSpline
 62
7
  6
CONTINUOUS
 70
0
 71
3
 72
82
 73
78
 74
0
 42
0.0000001
 43
0.0000001
 44
0.0000000001
 40
0.0
 40
0.0
 40
0.0
 40
0.0
 40
0.0039801404
 40
0.0081240874
 40
0.0124359927
 40
0.0169193805
 40
0.0215772461
 40
0.0264119816
 40
0.0314252584
 40
0.0366182448
 40
0.0419916571
 40
0.0475457751
 40
0.0591949801
 40
0.0715620045
 40
0.084637695
 40
0.0984090251
 40
0.112859624
 40
0.1279701855
 40
0.1437188109
 40
0.1600813006
 40
0.1770313843
 40
0.1945409149
 40
0.2125800273
 40
0.2311173068
 40
0.2501199349
 40
0.2695538173
 40
0.2893836992
 40
0.3095732754
 40
0.3300853151
 40
0.3508817688
 40
0.371923872
 40
0.4145862166
 40
0.4577525765
 40
0.5010974346
 40
0.5442935277
 40
0.5870150451
 40
0.6080976014
 40
0.6289416312
 40
0.6495082481
 40
0.6697592592
 40
0.6896572746
 40
0.7091658223
 40
0.7282494504
 40
0.7468738389
 40
0.7650059189
 40
0.7826140145
 40
0.7996679805
 40
0.8161393432
 40
0.8320014675
 40
0.8472297521
 40
0.8618018735
 40
0.8756980414
 40
0.8889013164
 40
0.9013980141
 40
0.9131782286
 40
0.9187980915
 40
0.9242372041
 40
0.9294957522
 40
0.9345742644
 40
0.9394737733
 40
0.9441957786
 40
0.9487423263
 40
0.9531161313
 40
0.957320552
 40
0.961359786
 40
0.9652389017
 40
0.9689639469
 40
0.9725421294
 40
0.9759818433
 40
0.9792928702
 40
0.9824864412
 40
0.9855752996
 40
0.9885737811
 40
0.9914977096
 40
0.9943643176
 40
0.9971920024
 40
1.0
 40
1.0
 40
1.0
 40
1.0
 10
11.4707006883
 20
10.3551708531
 30
0.0
 10
11.4698480663
 20
10.3543472834
 30
0.0
 10
11.4680690092
 20
10.3527059594
 30
0.0
 10
11.4652444004
 20
10.3503086662
 30
0.0
 10
11.4622123614
 20
10.3479285411
 30
0.0
 10
11.4589745563
 20
10.3455668988
 30
0.0
 10
11.4555325961
 20
10.3432248158
 30
0.0
 10
11.4518881397
 20
10.3409034545
 30
0.0
 10
11.4480430109
 20
10.3386039019
 30
0.0
 10
11.4439991249
 20
10.3363273377
 30
0.0
 10
11.4397584999
 20
10.334074889
 30
0.0
 10
11.4337489868
 20
10.3310572078
 30
0.0
 10
11.4257513878
 20
10.3273626097
 30
0.0
 10
11.4155527605
 20
10.3231106497
 30
0.0
 10
11.4046257424
 20
10.3189810738
 30
0.0
 10
11.3929922778
 20
10.3149822369
 30
0.0
 10
11.3806755689
 20
10.3111222489
 30
0.0
 10
11.3677003392
 20
10.307408955
 30
0.0
 10
11.3540926745
 20
10.3038499076
 30
0.0
 10
11.3398799792
 20
10.3004523554
 30
0.0
 10
11.3250909038
 20
10.2972232207
 30
0.0
 10
11.3097552887
 20
10.2941690871
 30
0.0
 10
11.2939041033
 20
10.2912961713
 30
0.0
 10
11.277569375
 20
10.2886103213
 30
0.0
 10
11.2607841171
 20
10.286117006
 30
0.0
 10
11.2435822606
 20
10.2838213032
 30
0.0
 10
11.2259985898
 20
10.2817278891
 30
0.0
 10
11.2080686676
 20
10.2798410163
 30
0.0
 10
11.189828772
 20
10.2781645282
 30
0.0
 10
11.1713157704
 20
10.2767018116
 30
0.0
 10
11.1462033042
 20
10.2750330391
 30
0.0
 10
11.114406693
 20
10.2735068594
 30
0.0
 10
11.0759422816
 20
10.2725709675
 30
0.0
 10
11.037307414
 20
10.2725302171
 30
0.0
 10
10.9988146333
 20
10.2733849185
 30
0.0
 10
10.9669763076
 20
10.2748437329
 30
0.0
 10
10.9418164169
 20
10.276459038
 30
0.0
 10
10.923257764
 20
10.2778825409
 30
0.0
 10
10.9049654446
 20
10.2795203891
 30
0.0
 10
10.8869764358
 20
10.2813692777
 30
0.0
 10
10.8693271354
 20
10.2834254419
 30
0.0
 10
10.8520532357
 20
10.2856846947
 30
0.0
 10
10.8351896667
 20
10.2881424371
 30
0.0
 10
10.8187705237
 20
10.290793667
 30
0.0
 10
10.8028289963
 20
10.2936329914
 30
0.0
 10
10.7873972937
 20
10.2966546275
 30
0.0
 10
10.7725065763
 20
10.2998524164
 30
0.0
 10
10.7581868949
 20
10.3032198436
 30
0.0
 10
10.7444671279
 20
10.3067500502
 30
0.0
 10
10.731374915
 20
10.3104358523
 30
0.0
 10
10.7189365794
 20
10.3142697433
 30
0.0
 10
10.7071770927
 20
10.3182439236
 30
0.0
 10
10.6961199328
 20
10.3223503365
 30
0.0
 10
10.6857873196
 20
10.3265806636
 30
0.0
 10
10.6776748328
 20
10.3302576257
 30
0.0
 10
10.6715713649
 20
10.3332618737
 30
0.0
 10
10.6672597205
 20
10.3355052903
 30
0.0
 10
10.6631440415
 20
10.3377731914
 30
0.0
 10
10.6592263999
 20
10.3400645184
 30
0.0
 10
10.6555087382
 20
10.3423780915
 30
0.0
 10
10.6519929094
 20
10.3447127742
 30
0.0
 10
10.6486806802
 20
10.3470674478
 30
0.0
 10
10.645573668
 20
10.3494409178
 30
0.0
 10
10.6426734491
 20
10.3518320912
 30
0.0
 10
10.6399814504
 20
10.3542398002
 30
0.0
 10
10.6374990146
 20
10.3566629111
 30
0.0
 10
10.6352274357
 20
10.3591003396
 30
0.0
 10
10.6331678384
 20
10.3615509222
 30
0.0
 10
10.6313213701
 20
10.3640136005
 30
0.0
 10
10.6296890475
 20
10.366487247
 30
0.0
 10
10.6282718281
 20
10.3689707329
 30
0.0
 10
10.6270707037
 20
10.3714629384
 30
0.0
 10
10.6260864687
 20
10.3739626161
 30
0.0
 10
10.6253199866
 20
10.3764684817
 30
0.0
 10
10.6247719398
 20
10.3789791888
 30
0.0
 10
10.6244428377
 20
10.3814929698
 30
0.0
 10
10.6243696093
 20
10.3831723776
 30
0.0
 10
10.6243696074
 20
10.3840086971
 30
0.0
  0
SPLINE
  5
453
100
AcDbEntity
  8
0
100
AcDbSpline
 62
7
  6
CONTINUOUS
 70
0
 71
3
 72
48
 73
44
 74
0
 42
0.0000001
 43
0.0000001
 44
0.0000000001
 40
0.0
 40
0.0
 40
0.0
 40
0.0
 40
0.0350612114
 40
0.0714617096
 40
0.1090494842
 40
0.1476680227
 40
0.1871530599
 40
0.227335977
 40
0.2680439218
 40
0.3091011429
 40
0.3503299047
 40
0.3915515144
 40
0.4325873181
 40
0.4732597038
 40
0.5133931044
 40
0.5528150067
 40
0.591356975
 40
0.6288556954
 40
0.6651540561
 40
0.7001022807
 40
0.7335591458
 40
0.7653933354
 40
0.7954849749
 40
0.8237274673
 40
0.8500298007
 40
0.8624309121
 40
0.8743215645
 40
0.8856964523
 40
0.89655188
 40
0.9068862992
 40
0.9167005264
 40
0.9259980288
 40
0.934785698
 40
0.9430740094
 40
0.9508782984
 40
0.9582190986
 40
0.9651237006
 40
0.9716269273
 40
0.9777725617
 40
0.9836142198
 40
0.989215719
 40
0.9946505992
 40
1.0
 40
1.0
 40
1.0
 40
1.0
 10
11.0694988615
 20
10.1773840687
 30
0.0
 10
11.067123378
 20
10.176953567
 30
0.0
 10
11.0622701336
 20
10.1761388263
 30
0.0
 10
11.0548373765
 20
10.1750692653
 30
0.0
 10
11.0471398801
 20
10.174132771
 30
0.0
 10
11.039213468
 20
10.1733337319
 30
0.0
 10
11.0310948282
 20
10.1726759139
 30
0.0
 10
11.022821662
 20
10.1721623972
 30
0.0
 10
11.0144323521
 20
10.1717955966
 30
0.0
 10
11.0059658417
 20
10.1715772313
 30
0.0
 10
10.9974614314
 20
10.171508327
 30
0.0
 10
10.9889586011
 20
10.1715892073
 30
0.0
 10
10.9804968231
 20
10.1718194922
 30
0.0
 10
10.9721153769
 20
10.1721981011
 30
0.0
 10
10.9638531651
 20
10.1727232571
 30
0.0
 10
10.9557485306
 20
10.1733924952
 30
0.0
 10
10.9478390765
 20
10.1742026731
 30
0.0
 10
10.9401614879
 20
10.1751499845
 30
0.0
 10
10.9327513574
 20
10.1762299764
 30
0.0
 10
10.9256430146
 20
10.1774375681
 30
0.0
 10
10.918869352
 20
10.1787670744
 30
0.0
 10
10.9124616772
 20
10.1802122321
 30
0.0
 10
10.9064494839
 20
10.1817662252
 30
0.0
 10
10.9008605102
 20
10.1834217506
 30
0.0
 10
10.8964950579
 20
10.1849071839
 30
0.0
 10
10.8932388295
 20
10.1861462947
 30
0.0
 10
10.8909661972
 20
10.1870778831
 30
0.0
 10
10.8888174846
 20
10.1880288896
 30
0.0
 10
10.8867951524
 20
10.1889982615
 30
0.0
 10
10.8849015059
 20
10.1899848791
 30
0.0
 10
10.8831386852
 20
10.1909876108
 30
0.0
 10
10.8815086939
 20
10.1920053688
 30
0.0
 10
10.8800133332
 20
10.1930369851
 30
0.0
 10
10.8786543062
 20
10.1940814204
 30
0.0
 10
10.8774330875
 20
10.1951375328
 30
0.0
 10
10.8763510998
 20
10.1962043479
 30
0.0
 10
10.8754095741
 20
10.1972808275
 30
0.0
 10
10.8746097368
 20
10.1983660547
 30
0.0
 10
10.8739527674
 20
10.1994590881
 30
0.0
 10
10.8734398535
 20
10.2005588958
 30
0.0
 10
10.8730722827
 20
10.2016643749
 30
0.0
 10
10.8728511209
 20
10.2027737215
 30
0.0
 10
10.8728017962
 20
10.2035171891
 30
0.0
 10
10.8728017955
 20
10.2038855278
 30
0.0
  0
SPLINE
  5
454
100
AcDbEntity
  8
0
100
AcDbSpline
 62
7
  6
CONTINUOUS
 70
0
 71
3
 72
11
 73
7
 74
0
 42
0.0000001
 43
0.0000001
 44
0.0000000001
 40
0.0
 40
0.0
 40
0.0
 40
0.0
 40
0.2487917793
 40
0.4977917282
 40
0.7478062245
 40
1.0
 40
1.0
 40
1.0
 40
1.0
 10
10.8935481438
 20
7.8377857765
 30
0.0
 10
10.8940049409
 20
7.8387553658
 30
0.0
 10
10.8949873511
 20
7.8406641188
 30
0.0
 10
10.8966779046
 20
7.8434104052
 30
0.0
 10
10.8985990861
 20
7.8460194371
 30
0.0
 10
10.9000363728
 20
7.847641627
 30
0.0
 10
10.9007953355
 20
7.8484190419
 30
0.0
  0
SPLINE
  5
455
100
AcDbEntity
  8
0
100
AcDbSpline
 62
7
  6
CONTINUOUS
 70
0
 71
3
 72
32
 73
28
 74
0
 42
0.0000001
 43
0.0000001
 44
0.0000000001
 40
0.0
 40
0.0
 40
0.0
 40
0.0
 40
0.0845017374
 40
0.167300855
 40
0.2480795303
 40
0.3265298693
 40
0.4023572177
 40
0.4752815404
 40
0.545039923
 40
0.5786558619
 40
0.6113908052
 40
0.6432178835
 40
0.6741118203
 40
0.704049142
 40
0.7330081882
 40
0.760969474
 40
0.7879156344
 40
0.8138319636
 40
0.8387063238
 40
0.8625298908
 40
0.8852970833
 40
0.9070065571
 40
0.9276612459
 40
0.94726967
 40
0.9658462264
 40
0.9834129037
 40
1.0
 40
1.0
 40
1.0
 40
1.0
 10
11.6309070587
 20
10.5024183329
 30
0.0
 10
11.6380280628
 20
10.5019244896
 30
0.0
 10
11.652118287
 20
10.5008217702
 30
0.0
 10
11.6729777087
 20
10.4987997449
 30
0.0
 10
11.6932864524
 20
10.4964330296
 30
0.0
 10
11.7129592047
 20
10.4937316715
 30
0.0
 10
11.7319134765
 20
10.4907071719
 30
0.0
 10
11.7500696908
 20
10.4873723673
 30
0.0
 10
11.7646459268
 20
10.484310118
 30
0.0
 10
11.775845444
 20
10.4817077415
 30
0.0
 10
11.7838953335
 20
10.4797115408
 30
0.0
 10
11.7916908735
 20
10.4776489718
 30
0.0
 10
11.7992238995
 20
10.4755221824
 30
0.0
 10
11.8064865155
 20
10.4733334337
 30
0.0
 10
11.8134711151
 20
10.4710850124
 30
0.0
 10
11.8201703943
 20
10.4687793136
 30
0.0
 10
11.8265773483
 20
10.4664187311
 30
0.0
 10
11.8326852997
 20
10.4640057857
 30
0.0
 10
11.8384878787
 20
10.461542961
 30
0.0
 10
11.8439790709
 20
10.4590328864
 30
0.0
 10
11.8491531729
 20
10.4564781131
 30
0.0
 10
11.8540048671
 20
10.4538813531
 30
0.0
 10
11.8585291475
 20
10.4512451893
 30
0.0
 10
11.862721409
 20
10.448572385
 30
0.0
 10
11.8665774012
 20
10.4458654626
 30
0.0
 10
11.8700930842
 20
10.4431273068
 30
0.0
 10
11.8722686674
 20
10.4412293914
 30
0.0
 10
11.8732943876
 20
10.4402748505
 30
0.0
  0
SPLINE
  5
456
100
AcDbEntity
  8
0
100
AcDbSpline
 62
7
  6
CONTINUOUS
 70
0
 71
3
 72
39
 73
35
 74
0
 42
0.0000001
 43
0.0000001
 44
0.0000000001
 40
0.0
 40
0.0
 40
0.0
 40
0.0
 40
0.0761045193
 40
0.1533639203
 40
0.2310946074
 40
0.3086064043
 40
0.385211887
 40
0.4229634241
 40
0.4602358098
 40
0.4969473753
 40
0.533018102
 40
0.5683699075
 40
0.6029269209
 40
0.6366157387
 40
0.6693657101
 40
0.7011092592
 40
0.7317822604
 40
0.7613243728
 40
0.7896794417
 40
0.8167959766
 40
0.8426277652
 40
0.8671345517
 40
0.8902828581
 40
0.9120470578
 40
0.9224052234
 40
0.9324121753
 40
0.9420676392
 40
0.9513721659
 40
0.9603273168
 40
0.9689355961
 40
0.9772009945
 40
0.9851289013
 40
0.9927259391
 40
1.0
 40
1.0
 40
1.0
 40
1.0
 10
11.2142780894
 20
5.8142063613
 30
0.0
 10
11.2252012563
 20
5.8134488371
 30
0.0
 10
11.2472350707
 20
5.812221089
 30
0.0
 10
11.2804719584
 20
5.8112281916
 30
0.0
 10
11.3139260192
 20
5.8110743616
 30
0.0
 10
11.3472791071
 20
5.8117611361
 30
0.0
 10
11.3748579345
 20
5.8130343561
 30
0.0
 10
11.3966263229
 20
5.8144742605
 30
0.0
 10
11.4126516897
 20
5.8157525752
 30
0.0
 10
11.4284169315
 20
5.8172313504
 30
0.0
 10
11.4438845837
 20
5.8189070779
 30
0.0
 10
11.4590178585
 20
5.8207757387
 30
0.0
 10
11.4737807837
 20
5.8228328542
 30
0.0
 10
11.4881382714
 20
5.8250734963
 30
0.0
 10
11.5020562047
 20
5.8274922997
 30
0.0
 10
11.5155015256
 20
5.8300834735
 30
0.0
 10
11.5284423232
 20
5.8328407989
 30
0.0
 10
11.5408479095
 20
5.8357576629
 30
0.0
 10
11.5526888895
 20
5.8388270718
 30
0.0
 10
11.5639372489
 20
5.8420416757
 30
0.0
 10
11.574566417
 20
5.8453937732
 30
0.0
 10
11.5845514307
 20
5.8488753449
 30
0.0
 10
11.593868706
 20
5.852478087
 30
0.0
 10
11.601174552
 20
5.855623991
 30
0.0
 10
11.6066607756
 20
5.8582019527
 30
0.0
 10
11.610526972
 20
5.8601284138
 30
0.0
 10
11.6142105653
 20
5.8620786744
 30
0.0
 10
11.6177093793
 20
5.8640516339
 30
0.0
 10
11.6210213747
 20
5.8660460704
 30
0.0
 10
11.6241445987
 20
5.8680608811
 30
0.0
 10
11.6270772641
 20
5.8700949019
 30
0.0
 10
11.6298177096
 20
5.8721470222
 30
0.0
 10
11.6323641783
 20
5.874216005
 30
0.0
 10
11.6339657083
 20
5.8756360397
 30
0.0
 10
11.6347318493
 20
5.8763489768
 30
0.0
  0
SPLINE
  5
457
100
AcDbEntity
  8
0
100
AcDbSpline
 62
7
  6
CONTINUOUS
 70
0
 71
3
 72
18
 73
14
 74
0
 42
0.0000001
 43
0.0000001
 44
0.0000000001
 40
0.0
 40
0.0
 40
0.0
 40
0.0
 40
0.1480408984
 40
0.2876685637
 40
0.4195638307
 40
0.4828953995
 40
0.5446366358
 40
0.6638663733
 40
0.7785245104
 40
0.8345987316
 40
0.8900708004
 40
0.9451373779
 40
1.0
 40
1.0
 40
1.0
 40
1.0
 10
11.9031296611
 20
6.1345296267
 30
0.0
 10
11.9041575335
 20
6.1355224753
 30
0.0
 10
11.9060946263
 20
6.137515878
 30
0.0
 10
11.9086991086
 20
6.1406224975
 30
0.0
 10
11.910567212
 20
6.1432660991
 30
0.0
 10
11.911853765
 20
6.1453879942
 30
0.0
 10
11.9129773491
 20
6.1474623406
 30
0.0
 10
11.9141450064
 20
6.1500724925
 30
0.0
 10
11.9149976106
 20
6.1527457376
 30
0.0
 10
11.9154708429
 20
6.1548786414
 30
0.0
 10
11.9157227004
 20
6.1564682456
 30
0.0
 10
11.915873844
 20
6.1580587341
 30
0.0
 10
11.9159074465
 20
6.1591202178
 30
0.0
 10
11.9159074437
 20
6.159649822
 30
0.0
  0
SPLINE
  5
458
100
AcDbEntity
  8
0
100
AcDbSpline
 62
7
  6
CONTINUOUS
 70
0
 71
3
 72
21
 73
17
 74
0
 42
0.0000001
 43
0.0000001
 44
0.0000000001
 40
0.0
 40
0.0
 40
0.0
 40
0.0
 40
0.0616532317
 40
0.1233294843
 40
0.1850515407
 40
0.2468416642
 40
0.3087213449
 40
0.3707111025
 40
0.432830246
 40
0.4950966374
 40
0.5575265756
 40
0.6201345674
 40
0.6829331401
 40
0.7459332076
 40
0.8725262003
 40
1.0
 40
1.0
 40
1.0
 40
1.0
 10
11.2808850863
 20
9.021082851
 30
0.0
 10
11.2825459522
 20
9.0226871257
 30
0.0
 10
11.2859553281
 20
9.0258075669
 30
0.0
 10
11.2913145903
 20
9.0302075133
 30
0.0
 10
11.2969065621
 20
9.0343166462
 30
0.0
 10
11.3027169889
 20
9.038124395
 30
0.0
 10
11.3087312598
 20
9.0416212442
 30
0.0
 10
11.3149341943
 20
9.0447984015
 30
0.0
 10
11.321310185
 20
9.0476478406
 30
0.0
 10
11.3278431555
 20
9.0501624038
 30
0.0
 10
11.3345166491
 20
9.052335805
 30
0.0
 10
11.3413138125
 20
9.0541625547
 30
0.0
 10
11.3482177254
 20
9.0556380737
 30
0.0
 10
11.357555204
 20
9.0571344541
 30
0.0
 10
11.3694123174
 20
9.0581066271
 30
0.0
 10
11.3789447216
 20
9.0579205924
 30
0.0
 10
11.3837076643
 20
9.0575902812
 30
0.0
  0
SPLINE
  5
459
100
AcDbEntity
  8
0
100
AcDbSpline
 62
7
  6
CONTINUOUS
 70
0
 71
3
 72
21
 73
17
 74
0
 42
0.0000001
 43
0.0000001
 44
0.0000000001
 40
0.0
 40
0.0
 40
0.0
 40
0.0
 40
0.0616532317
 40
0.1233294843
 40
0.1850515407
 40
0.2468416642
 40
0.3087213449
 40
0.3707111025
 40
0.432830246
 40
0.4950966374
 40
0.5575265756
 40
0.6201345674
 40
0.6829331401
 40
0.7459332076
 40
0.8725262003
 40
1.0
 40
1.0
 40
1.0
 40
1.0
 10
10.0734777319
 20
9.1048168354
 30
0.0
 10
10.0751385978
 20
9.1064211102
 30
0.0
 10
10.0785479737
 20
9.1095415513
 30
0.0
 10
10.0839072359
 20
9.1139414977
 30
0.0
 10
10.0894992077
 20
9.1180506306
 30
0.0
 10
10.0953096345
 20
9.1218583794
 30
0.0
 10
10.1013239054
 20
9.1253552286
 30
0.0
 10
10.1075268399
 20
9.1285323859
 30
0.0
 10
10.1139028306
 20
9.131381825
 30
0.0
 10
10.1204358011
 20
9.1338963882
 30
0.0
 10
10.1271092947
 20
9.1360697895
 30
0.0
 10
10.1339064581
 20
9.1378965391
 30
0.0
 10
10.140810371
 20
9.1393720581
 30
0.0
 10
10.1501478496
 20
9.1408684385
 30
0.0
 10
10.162004963
 20
9.1418406115
 30
0.0
 10
10.1715373672
 20
9.1416545768
 30
0.0
 10
10.1763003098
 20
9.1413242656
 30
0.0
  0
SPLINE
  5
45A
100
AcDbEntity
  8
0
100
AcDbSpline
 62
7
  6
CONTINUOUS
 70
0
 71
3
 72
21
 73
17
 74
0
 42
0.0000001
 43
0.0000001
 44
0.0000000001
 40
0.0
 40
0.0
 40
0.0
 40
0.0
 40
0.0616532317
 40
0.1233294843
 40
0.1850515407
 40
0.2468416642
 40
0.3087213449
 40
0.3707111025
 40
0.432830246
 40
0.4950966374
 40
0.5575265756
 40
0.6201345674
 40
0.6829331401
 40
0.7459332076
 40
0.8725262003
 40
1.0
 40
1.0
 40
1.0
 40
1.0
 10
10.0734777319
 20
7.5651309946
 30
0.0
 10
10.0751385978
 20
7.5667352693
 30
0.0
 10
10.0785479737
 20
7.5698557105
 30
0.0
 10
10.0839072359
 20
7.5742556569
 30
0.0
 10
10.0894992077
 20
7.5783647898
 30
0.0
 10
10.0953096345
 20
7.5821725386
 30
0.0
 10
10.1013239054
 20
7.5856693878
 30
0.0
 10
10.1075268399
 20
7.5888465451
 30
0.0
 10
10.1139028306
 20
7.5916959842
 30
0.0
 10
10.1204358011
 20
7.5942105474
 30
0.0
 10
10.1271092947
 20
7.5963839486
 30
0.0
 10
10.1339064581
 20
7.5982106983
 30
0.0
 10
10.140810371
 20
7.5996862173
 30
0.0
 10
10.1501478496
 20
7.6011825977
 30
0.0
 10
10.162004963
 20
7.6021547707
 30
0.0
 10
10.1715373672
 20
7.601968736
 30
0.0
 10
10.1763003098
 20
7.6016384248
 30
0.0
  0
SPLINE
  5
45B
100
AcDbEntity
  8
0
100
AcDbSpline
 62
7
  6
CONTINUOUS
 70
0
 71
3
 72
21
 73
17
 74
0
 42
0.0000001
 43
0.0000001
 44
0.0000000001
 40
0.0
 40
0.0
 40
0.0
 40
0.0
 40
0.0616532317
 40
0.1233294843
 40
0.1850515407
 40
0.2468416642
 40
0.3087213449
 40
0.3707111025
 40
0.432830246
 40
0.4950966374
 40
0.5575265756
 40
0.6201345674
 40
0.6829331401
 40
0.7459332076
 40
0.8725262003
 40
1.0
 40
1.0
 40
1.0
 40
1.0
 10
11.2808850863
 20
7.4813970101
 30
0.0
 10
11.2825459522
 20
7.4830012849
 30
0.0
 10
11.2859553281
 20
7.4861217261
 30
0.0
 10
11.2913145903
 20
7.4905216725
 30
0.0
 10
11.2969065621
 20
7.4946308054
 30
0.0
 10
11.3027169889
 20
7.4984385542
 30
0.0
 10
11.3087312598
 20
7.5019354034
 30
0.0
 10
11.3149341943
 20
7.5051125607
 30
0.0
 10
11.321310185
 20
7.5079619997
 30
0.0
 10
11.3278431555
 20
7.5104765629
 30
0.0
 10
11.3345166491
 20
7.5126499642
 30
0.0
 10
11.3413138125
 20
7.5144767139
 30
0.0
 10
11.3482177254
 20
7.5159522328
 30
0.0
 10
11.357555204
 20
7.5174486133
 30
0.0
 10
11.3694123174
 20
7.5184207863
 30
0.0
 10
11.3789447216
 20
7.5182347515
 30
0.0
 10
11.3837076643
 20
7.5179044404
 30
0.0
  0
SPLINE
  5
45C
100
AcDbEntity
  8
0
100
AcDbSpline
 62
7
  6
CONTINUOUS
 70
0
 71
3
 72
15
 73
11
 74
0
 42
0.0000001
 43
0.0000001
 44
0.0000000001
 40
0.0
 40
0.0
 40
0.0
 40
0.0
 40
0.1233171388
 40
0.2468172051
 40
0.3706750009
 40
0.4950496043
 40
0.6200772562
 40
0.7458671573
 40
0.8724928759
 40
1.0
 40
1.0
 40
1.0
 40
1.0
 10
10.735539958
 20
8.2326893193
 30
0.0
 10
10.7369761371
 20
8.2340765704
 30
0.0
 10
10.7400026177
 20
8.2367005624
 30
0.0
 10
10.7449421401
 20
8.2401294073
 30
0.0
 10
10.7502350122
 20
8.2430198763
 30
0.0
 10
10.7558270495
 20
8.2453422689
 30
0.0
 10
10.7616618476
 20
8.2470735329
 30
0.0
 10
10.7676806342
 20
8.2481963377
 30
0.0
 10
10.773821965
 20
8.2486997672
 30
0.0
 10
10.777944323
 20
8.2486193594
 30
0.0
 10
10.7800039871
 20
8.2484765212
 30
0.0
  0
SPLINE
  5
45D
100
AcDbEntity
  8
0
100
AcDbSpline
 62
7
  6
CONTINUOUS
 70
0
 71
3
 72
15
 73
11
 74
0
 42
0.0000001
 43
0.0000001
 44
0.0000000001
 40
0.0
 40
0.0
 40
0.0
 40
0.0
 40
0.1233171388
 40
0.2468172051
 40
0.3706750009
 40
0.4950496043
 40
0.6200772562
 40
0.7458671573
 40
0.8724928759
 40
1.0
 40
1.0
 40
1.0
 40
1.0
 10
11.3546984519
 20
7.7521860404
 30
0.0
 10
11.3561346309
 20
7.7535732914
 30
0.0
 10
11.3591611116
 20
7.7561972834
 30
0.0
 10
11.3641006339
 20
7.7596261284
 30
0.0
 10
11.369393506
 20
7.7625165973
 30
0.0
 10
11.3749855434
 20
7.7648389899
 30
0.0
 10
11.3808203414
 20
7.7665702539
 30
0.0
 10
11.3868391281
 20
7.7676930587
 30
0.0
 10
11.3929804589
 20
7.7681964883
 30
0.0
 10
11.3971028168
 20
7.7681160804
 30
0.0
 10
11.3991624809
 20
7.7679732422
 30
0.0
  0
SPLINE
  5
45E
100
AcDbEntity
  8
0
100
AcDbSpline
 62
7
  6
CONTINUOUS
 70
0
 71
3
 72
15
 73
11
 74
0
 42
0.0000001
 43
0.0000001
 44
0.0000000001
 40
0.0
 40
0.0
 40
0.0
 40
0.0
 40
0.1233171217
 40
0.2468171833
 40
0.3706749954
 40
0.4950495965
 40
0.6200773092
 40
0.7458671694
 40
0.8724927499
 40
1.0
 40
1.0
 40
1.0
 40
1.0
 10
11.344972374
 20
8.6373848206
 30
0.0
 10
11.346722707
 20
8.6390755083
 30
0.0
 10
11.3504112249
 20
8.6422734311
 30
0.0
 10
11.3564312265
 20
8.6464522666
 30
0.0
 10
11.3628818715
 20
8.6499749543
 30
0.0
 10
11.3696971161
 20
8.6528053064
 30
0.0
 10
11.3768082164
 20
8.6549152292
 30
0.0
 10
11.3841435413
 20
8.6562836131
 30
0.0
 10
11.3916282137
 20
8.6568971532
 30
0.0
 10
11.3966522876
 20
8.6567991551
 30
0.0
 10
11.3991624809
 20
8.6566250726
 30
0.0
  0
SPLINE
  5
45F
100
AcDbEntity
  8
0
100
AcDbSpline
 62
7
  6
CONTINUOUS
 70
0
 71
3
 72
22
 73
18
 74
0
 42
0.0000001
 43
0.0000001
 44
0.0000000001
 40
0.0
 40
0.0
 40
0.0
 40
0.0
 40
0.1257305054
 40
0.2517012321
 40
0.3777301301
 40
0.4407231268
 40
0.5036423625
 40
0.5664518487
 40
0.62911372
 40
0.691589327
 40
0.7227502352
 40
0.7538504969
 40
0.8158422505
 40
0.877543506
 40
0.9082825712
 40
0.9389423402
 40
1.0
 40
1.0
 40
1.0
 40
1.0
 10
10.6920266194
 20
8.4413342356
 30
0.0
 10
10.6875942954
 20
8.4441745565
 30
0.0
 10
10.6789781169
 20
8.4502756213
 30
0.0
 10
10.667011009
 20
8.4606542597
 30
0.0
 10
10.657993417
 20
8.4703189303
 30
0.0
 10
10.6514805555
 20
8.4786234765
 30
0.0
 10
10.6469800406
 20
8.4851244246
 30
0.0
 10
10.6428984349
 20
8.4918803208
 30
0.0
 10
10.6392701808
 20
8.4988695396
 30
0.0
 10
10.6366500867
 20
8.5048724423
 30
0.0
 10
10.6348143638
 20
8.509762913
 30
0.0
 10
10.6331600572
 20
8.5146963287
 30
0.0
 10
10.6314338629
 20
8.5209497742
 30
0.0
 10
10.6301817627
 20
8.5273001326
 30
0.0
 10
10.6294770766
 20
8.5324071047
 30
0.0
 10
10.6289732103
 20
8.5375104094
 30
0.0
 10
10.6288202068
 20
8.5413527867
 30
0.0
 10
10.6288202068
 20
8.5439092563
 30
0.0
  0
SPLINE
  5
460
100
AcDbEntity
  8
0
100
AcDbSpline
 62
7
  6
CONTINUOUS
 70
0
 71
3
 72
37
 73
33
 74
0
 42
0.0000001
 43
0.0000001
 44
0.0000000001
 40
0.0
 40
0.0
 40
0.0
 40
0.0
 40
0.0300305583
 40
0.0601569015
 40
0.0903895911
 40
0.1207373766
 40
0.1512071355
 40
0.1818038432
 40
0.212530567
 40
0.2433884751
 40
0.274376855
 40
0.30549315
 40
0.3367330081
 40
0.3680903414
 40
0.3995573893
 40
0.4311247844
 40
0.4944879266
 40
0.5581042674
 40
0.5899842865
 40
0.6218811459
 40
0.6537778009
 40
0.6856568705
 40
0.7175008999
 40
0.7492926485
 40
0.7810153972
 40
0.8126532705
 40
0.844191599
 40
0.8756171742
 40
0.906918867
 40
0.9380870012
 40
0.9691159876
 40
1.0
 40
1.0
 40
1.0
 40
1.0
 10
11.1285786435
 20
8.2689045543
 30
0.0
 10
11.1309346284
 20
8.2699607744
 30
0.0
 10
11.135725866
 20
8.2719204229
 30
0.0
 10
11.1431012037
 20
8.2743861128
 30
0.0
 10
11.1506474406
 20
8.2763756663
 30
0.0
 10
11.1583344476
 20
8.2778831832
 30
0.0
 10
11.1661324999
 20
8.278904591
 30
0.0
 10
11.1740116603
 20
8.2794372823
 30
0.0
 10
11.1819419857
 20
8.2794801546
 30
0.0
 10
11.1898934995
 20
8.2790335719
 30
0.0
 10
11.1978362265
 20
8.2780993558
 30
0.0
 10
11.2057401951
 20
8.2766807664
 30
0.0
 10
11.2135754866
 20
8.2747824962
 30
0.0
 10
11.2213121305
 20
8.2724107595
 30
0.0
 10
11.2289205925
 20
8.2695730559
 30
0.0
 10
11.2388644496
 20
8.2651763476
 30
0.0
 10
11.2508224126
 20
8.2585623314
 30
0.0
 10
11.2619362694
 20
8.250564538
 30
0.0
 10
11.2702242897
 20
8.24339574
 30
0.0
 10
11.2761158822
 20
8.2376481029
 30
0.0
 10
11.2816501586
 20
8.2315560328
 30
0.0
 10
11.2868016724
 20
8.2251426783
 30
0.0
 10
11.2915457832
 20
8.2184333266
 30
0.0
 10
11.2958593259
 20
8.2114550576
 30
0.0
 10
11.2997207054
 20
8.2042367666
 30
0.0
 10
11.3031101718
 20
8.1968090512
 30
0.0
 10
11.3060100157
 20
8.1892040856
 30
0.0
 10
11.3084048281
 20
8.181455427
 30
0.0
 10
11.3102816009
 20
8.1735979071
 30
0.0
 10
11.3116301193
 20
8.1656670794
 30
0.0
 10
11.3124427561
 20
8.1576999479
 30
0.0
 10
11.3126247086
 20
8.1523751801
 30
0.0
 10
11.3126247086
 20
8.1497198922
 30
0.0
  0
SPLINE
  5
461
100
AcDbEntity
  8
0
100
AcDbSpline
 62
7
  6
CONTINUOUS
 70
0
 71
3
 72
35
 73
31
 74
0
 42
0.0000001
 43
0.0000001
 44
0.0000000001
 40
0.0
 40
0.0
 40
0.0
 40
0.0
 40
0.0645598531
 40
0.0968513639
 40
0.1291252154
 40
0.1935564509
 40
0.257794327
 40
0.3217703041
 40
0.3854239415
 40
0.4487005586
 40
0.5115503274
 40
0.5428129975
 40
0.5739541627
 40
0.6358298294
 40
0.6665904308
 40
0.6972244539
 40
0.727736343
 40
0.7581343206
 40
0.7884312829
 40
0.8186456686
 40
0.8488021141
 40
0.8789316259
 40
0.8940023665
 40
0.9090806293
 40
0.9241716781
 40
0.9392809012
 40
0.9544131342
 40
0.9695737934
 40
0.9847690332
 40
1.0
 40
1.0
 40
1.0
 40
1.0
 10
10.8375869552
 20
7.9553966011
 30
0.0
 10
10.8426202362
 20
7.9510358246
 30
0.0
 10
10.8498056927
 20
7.944056777
 30
0.0
 10
10.8585998993
 20
7.9340477753
 30
0.0
 10
10.8668636481
 20
7.9236115424
 30
0.0
 10
10.8761862747
 20
7.9098396784
 30
0.0
 10
10.8857119169
 20
7.8923663064
 30
0.0
 10
10.8935171869
 20
7.874146453
 30
0.0
 10
10.899534408
 20
7.8553638849
 30
0.0
 10
10.9036814929
 20
7.836200032
 30
0.0
 10
10.9054985943
 20
7.8200343554
 30
0.0
 10
10.9058991019
 20
7.8071140409
 30
0.0
 10
10.9055783585
 20
7.7942932715
 30
0.0
 10
10.9041413881
 20
7.7815676305
 30
0.0
 10
10.9014986857
 20
7.7691217046
 30
0.0
 10
10.8989014174
 20
7.7599955056
 30
0.0
 10
10.8956666233
 20
7.7511146145
 30
0.0
 10
10.8917774135
 20
7.7425370743
 30
0.0
 10
10.8872208321
 20
7.7343284416
 30
0.0
 10
10.8819896406
 20
7.7265606721
 30
0.0
 10
10.8760857269
 20
7.7193121941
 30
0.0
 10
10.8706140251
 20
7.7137716867
 30
0.0
 10
10.8659244687
 20
7.709685296
 30
0.0
 10
10.8622533031
 20
7.7068007906
 30
0.0
 10
10.8584349838
 20
7.7041072918
 30
0.0
 10
10.8544762621
 20
7.7016141344
 30
0.0
 10
10.8503852338
 20
7.6993297901
 30
0.0
 10
10.8461705728
 20
7.6972621256
 30
0.0
 10
10.8418424314
 20
7.6954181332
 30
0.0
 10
10.8388919378
 20
7.694342829
 30
0.0
 10
10.8374020306
 20
7.6938441928
 30
0.0
  0
SPLINE
  5
462
100
AcDbEntity
  8
0
100
AcDbSpline
 62
7
  6
CONTINUOUS
 70
0
 71
3
 72
18
 73
14
 74
0
 42
0.0000001
 43
0.0000001
 44
0.0000000001
 40
0.0
 40
0.0
 40
0.0
 40
0.0
 40
0.0548626755
 40
0.1099292576
 40
0.1654013202
 40
0.2214755501
 40
0.3361333804
 40
0.4553634196
 40
0.5171048815
 40
0.5804365284
 40
0.7123311193
 40
0.8519577055
 40
1.0
 40
1.0
 40
1.0
 40
1.0
 10
11.4853695836
 20
10.3840089776
 30
0.0
 10
11.485369585
 20
10.3834009888
 30
0.0
 10
11.4853310044
 20
10.3821824003
 30
0.0
 10
11.4851575225
 20
10.3803565084
 30
0.0
 10
11.4848683949
 20
10.3785316331
 30
0.0
 10
11.484325111
 20
10.3760830557
 30
0.0
 10
11.4833463614
 20
10.3730141431
 30
0.0
 10
11.4820058617
 20
10.3700176823
 30
0.0
 10
11.4807159889
 20
10.3676363117
 30
0.0
 10
11.479239027
 20
10.3652003658
 30
0.0
 10
11.4770944451
 20
10.3621655144
 30
0.0
 10
11.474104503
 20
10.3585990915
 30
0.0
 10
11.471880702
 20
10.3563106589
 30
0.0
 10
11.4707006883
 20
10.3551708531
 30
0.0
  0
SPLINE
  5
463
100
AcDbEntity
  8
0
100
AcDbSpline
 62
7
  6
CONTINUOUS
 70
0
 71
3
 72
11
 73
7
 74
0
 42
0.0000001
 43
0.0000001
 44
0.0000000001
 40
0.0
 40
0.0
 40
0.0
 40
0.0
 40
0.2534435453
 40
0.5046259518
 40
0.7533554255
 40
1.0
 40
1.0
 40
1.0
 40
1.0
 10
10.8883017455
 20
7.8122576271
 30
0.0
 10
10.8883016999
 20
7.8144757025
 30
0.0
 10
10.8885044933
 20
7.8188949988
 30
0.0
 10
10.8894436226
 20
7.8254320287
 30
0.0
 10
10.891056154
 20
7.8317768357
 30
0.0
 10
10.8926281731
 20
7.8358330633
 30
0.0
 10
10.8935481438
 20
7.8377857765
 30
0.0
  0
SPLINE
  5
464
100
AcDbEntity
  8
0
100
AcDbSpline
 62
7
  6
CONTINUOUS
 70
0
 71
3
 72
31
 73
27
 74
0
 42
0.0000001
 43
0.0000001
 44
0.0000000001
 40
0.0
 40
0.0
 40
0.0
 40
0.0
 40
0.015547552
 40
0.0312880285
 40
0.0474067379
 40
0.0640750164
 40
0.081446335
 40
0.0996536174
 40
0.1188100048
 40
0.1390093636
 40
0.1603281383
 40
0.1828281955
 40
0.2065575545
 40
0.2315535635
 40
0.2578438746
 40
0.285447534
 40
0.3143773053
 40
0.3446390841
 40
0.4091525822
 40
0.4789504828
 40
0.5539291875
 40
0.6339380243
 40
0.7187873757
 40
0.8082512776
 40
0.9020847387
 40
1.0
 40
1.0
 40
1.0
 40
1.0
 10
11.1228017731
 20
10.203885595
 30
0.0
 10
11.1228017738
 20
10.2035616004
 30
0.0
 10
11.122763743
 20
10.2029089719
 30
0.0
 10
11.1225930334
 20
10.2019338889
 30
0.0
 10
11.1223090228
 20
10.2009612589
 30
0.0
 10
11.1219123614
 20
10.1999923017
 30
0.0
 10
11.1214037105
 20
10.1990278925
 30
0.0
 10
11.1207838928
 20
10.1980687753
 30
0.0
 10
11.1200536153
 20
10.1971156809
 30
0.0
 10
11.1192136645
 20
10.1961692919
 30
0.0
 10
11.1182648661
 20
10.195230275
 30
0.0
 10
11.1172080413
 20
10.1942993897
 30
0.0
 10
11.1160441616
 20
10.1933773207
 30
0.0
 10
11.1147742219
 20
10.1924648449
 30
0.0
 10
11.113399329
 20
10.1915627286
 30
0.0
 10
11.1119206992
 20
10.1906717131
 30
0.0
 10
11.1103396061
 20
10.1897925966
 30
0.0
 10
11.1080475258
 20
10.1886120377
 30
0.0
 10
11.1049302018
 20
10.1871779258
 30
0.0
 10
11.1008820403
 20
10.1855511612
 30
0.0
 10
11.0964643993
 20
10.1839895478
 30
0.0
 10
11.091692941
 20
10.1824987131
 30
0.0
 10
11.0865845509
 20
10.1810840795
 30
0.0
 10
11.0811573217
 20
10.1797507245
 30
0.0
 10
11.0754307756
 20
10.1785035895
 30
0.0
 10
11.0715066084
 20
10.1777479266
 30
0.0
 10
11.0694988615
 20
10.1773840687
 30
0.0
  0
SPLINE
  5
465
100
AcDbEntity
  8
0
100
AcDbSpline
 62
7
  6
CONTINUOUS
 70
0
 71
3
 72
18
 73
14
 74
0
 42
0.0000001
 43
0.0000001
 44
0.0000000001
 40
0.0
 40
0.0
 40
0.0
 40
0.0
 40
0.0548626221
 40
0.1099291996
 40
0.1654012684
 40
0.2214754896
 40
0.3361336267
 40
0.4553633642
 40
0.5171046005
 40
0.5804361693
 40
0.7123314363
 40
0.8519591016
 40
1.0
 40
1.0
 40
1.0
 40
1.0
 10
10.0840925563
 20
10.2155886613
 30
0.0
 10
10.0840925535
 20
10.2161182656
 30
0.0
 10
10.084126156
 20
10.2171797492
 30
0.0
 10
10.0842772996
 20
10.2187702378
 30
0.0
 10
10.0845291571
 20
10.220359842
 30
0.0
 10
10.0850023894
 20
10.2224927458
 30
0.0
 10
10.0858549936
 20
10.2251659909
 30
0.0
 10
10.0870226509
 20
10.2277761428
 30
0.0
 10
10.088146235
 20
10.2298504891
 30
0.0
 10
10.089432788
 20
10.2319723843
 30
0.0
 10
10.0913008914
 20
10.2346159859
 30
0.0
 10
10.0939053737
 20
10.2377226053
 30
0.0
 10
10.0958424665
 20
10.2397160081
 30
0.0
 10
10.0968703389
 20
10.2407088567
 30
0.0
  0
SPLINE
  5
466
100
AcDbEntity
  8
0
100
AcDbSpline
 62
7
  6
CONTINUOUS
 70
0
 71
3
 72
32
 73
28
 74
0
 42
0.0000001
 43
0.0000001
 44
0.0000000001
 40
0.0
 40
0.0
 40
0.0
 40
0.0
 40
0.016478973
 40
0.0339511735
 40
0.0524463384
 40
0.0719872471
 40
0.092588773
 40
0.1142588623
 40
0.1370000477
 40
0.1608103511
 40
0.185683502
 40
0.2116097912
 40
0.238576108
 40
0.2665667484
 40
0.2955631658
 40
0.325544769
 40
0.3564885543
 40
0.3883698474
 40
0.421161909
 40
0.454836576
 40
0.524711205
 40
0.5977402045
 40
0.67364817
 40
0.7521422693
 40
0.8329146021
 40
0.9156443815
 40
1.0
 40
1.0
 40
1.0
 40
1.0
 10
10.3652681507
 20
10.4988895066
 30
0.0
 10
10.3663148991
 20
10.4998635645
 30
0.0
 10
10.3685377181
 20
10.50180002
 30
0.0
 10
10.3721340666
 20
10.5045916266
 30
0.0
 10
10.3760842182
 20
10.5073505171
 30
0.0
 10
10.3803837522
 20
10.5100737555
 30
0.0
 10
10.3850282315
 20
10.5127586341
 30
0.0
 10
10.3900127244
 20
10.5154022888
 30
0.0
 10
10.3953318927
 20
10.5180019136
 30
0.0
 10
10.4009800347
 20
10.5205546833
 30
0.0
 10
10.4069510602
 20
10.5230578776
 30
0.0
 10
10.4132385302
 20
10.5255087209
 30
0.0
 10
10.4198356225
 20
10.5279045948
 30
0.0
 10
10.4267351884
 20
10.5302428191
 30
0.0
 10
10.4339297199
 20
10.5325208968
 30
0.0
 10
10.4414113955
 20
10.5347362664
 30
0.0
 10
10.4491720602
 20
10.5368865624
 30
0.0
 10
10.4572032564
 20
10.5389693607
 30
0.0
 10
10.4654962317
 20
10.5409824513
 30
0.0
 10
10.4770328248
 20
10.5436028487
 30
0.0
 10
10.4920444492
 20
10.5466782235
 30
0.0
 10
10.5107368542
 20
10.550013829
 30
0.0
 10
10.5302414616
 20
10.553023706
 30
0.0
 10
10.5504730891
 20
10.5556945565
 30
0.0
 10
10.5713435158
 20
10.5580145591
 30
0.0
 10
10.5927615234
 20
10.5599734555
 30
0.0
 10
10.6072220567
 20
10.5610240924
 30
0.0
 10
10.6145266518
 20
10.5614890969
 30
0.0
  0
SPLINE
  5
467
100
AcDbEntity
  8
0
100
AcDbSpline
 62
7
  6
CONTINUOUS
 70
0
 71
3
 72
18
 73
14
 74
0
 42
0.0000001
 43
0.0000001
 44
0.0000000001
 40
0.0
 40
0.0
 40
0.0
 40
0.0
 40
0.1492375281
 40
0.289655037
 40
0.421961834
 40
0.4853619434
 40
0.5470838486
 40
0.6660306073
 40
0.780131264
 40
0.8358489547
 40
0.8909261061
 40
0.94557164
 40
1.0
 40
1.0
 40
1.0
 40
1.0
 10
11.9031607926
 20
10.4124810345
 30
0.0
 10
11.9042622863
 20
10.4114559721
 30
0.0
 10
11.9063381396
 20
10.4093978427
 30
0.0
 10
11.9091328574
 20
10.4061848068
 30
0.0
 10
11.9111392761
 20
10.4034475095
 30
0.0
 10
11.9125211876
 20
10.4012493479
 30
0.0
 10
11.9137264884
 20
10.3991029731
 30
0.0
 10
11.9149796979
 20
10.3964013522
 30
0.0
 10
11.9158960779
 20
10.3936299348
 30
0.0
 10
11.916404525
 20
10.3914188696
 30
0.0
 10
11.9166749787
 20
10.3897716982
 30
0.0
 10
11.9168372653
 20
10.388123532
 30
0.0
 10
11.9168733666
 20
10.3870234652
 30
0.0
 10
11.9168733696
 20
10.3864746964
 30
0.0
  0
SPLINE
  5
468
100
AcDbEntity
  8
0
100
AcDbSpline
 62
7
  6
CONTINUOUS
 70
0
 71
3
 72
18
 73
14
 74
0
 42
0.0000001
 43
0.0000001
 44
0.0000000001
 40
0.0
 40
0.0
 40
0.0
 40
0.0
 40
0.05442836
 40
0.1090738939
 40
0.1641510453
 40
0.219868736
 40
0.3339693927
 40
0.4529161514
 40
0.5146380566
 40
0.578038166
 40
0.710344963
 40
0.8507624719
 40
1.0
 40
1.0
 40
1.0
 40
1.0
 10
10.0831266304
 20
5.9887637869
 30
0.0
 10
10.0831266334
 20
5.9882150182
 30
0.0
 10
10.0831627347
 20
5.9871149514
 30
0.0
 10
10.0833250213
 20
5.9854667852
 30
0.0
 10
10.083595475
 20
5.9838196138
 30
0.0
 10
10.0841039221
 20
5.9816085486
 30
0.0
 10
10.0850203021
 20
5.9788371312
 30
0.0
 10
10.0862735116
 20
5.9761355103
 30
0.0
 10
10.0874788124
 20
5.9739891354
 30
0.0
 10
10.0888607239
 20
5.9717909739
 30
0.0
 10
10.0908671426
 20
5.9690536766
 30
0.0
 10
10.0936618604
 20
5.9658406407
 30
0.0
 10
10.0957377137
 20
5.9637825113
 30
0.0
 10
10.0968392074
 20
5.9627574489
 30
0.0
  0
SPLINE
  5
469
100
AcDbEntity
  8
0
100
AcDbSpline
 62
7
  6
CONTINUOUS
 70
0
 71
3
 72
32
 73
28
 74
0
 42
0.0000001
 43
0.0000001
 44
0.0000000001
 40
0.0
 40
0.0
 40
0.0
 40
0.0
 40
0.0165870963
 40
0.0341537736
 40
0.05273033
 40
0.0723387541
 40
0.0929934429
 40
0.1147029167
 40
0.1374701092
 40
0.1612936762
 40
0.1861680364
 40
0.2120843656
 40
0.239030526
 40
0.2669918118
 40
0.295950858
 40
0.3258881797
 40
0.3567821165
 40
0.3886091948
 40
0.4213441381
 40
0.454960077
 40
0.5247184596
 40
0.5976427823
 40
0.6734701307
 40
0.7519204697
 40
0.832699145
 40
0.9154982626
 40
1.0
 40
1.0
 40
1.0
 40
1.0
 10
10.1267056124
 20
5.9349636329
 30
0.0
 10
10.1277313326
 20
5.934009092
 30
0.0
 10
10.1299069158
 20
5.9321111766
 30
0.0
 10
10.1334225988
 20
5.9293730208
 30
0.0
 10
10.137278591
 20
5.9266660984
 30
0.0
 10
10.1414708525
 20
5.9239932941
 30
0.0
 10
10.1459951329
 20
5.9213571303
 30
0.0
 10
10.1508468271
 20
5.9187603703
 30
0.0
 10
10.1560209291
 20
5.9162055969
 30
0.0
 10
10.1615121213
 20
5.9136955224
 30
0.0
 10
10.1673147003
 20
5.9112326977
 30
0.0
 10
10.1734226517
 20
5.9088197523
 30
0.0
 10
10.1798296057
 20
5.9064591698
 30
0.0
 10
10.1865288849
 20
5.904153471
 30
0.0
 10
10.1935134845
 20
5.9019050497
 30
0.0
 10
10.2007761005
 20
5.899716301
 30
0.0
 10
10.2083091265
 20
5.8975895116
 30
0.0
 10
10.2161046665
 20
5.8955269425
 30
0.0
 10
10.224154556
 20
5.8935307419
 30
0.0
 10
10.2353540732
 20
5.8909283654
 30
0.0
 10
10.2499303092
 20
5.8878661161
 30
0.0
 10
10.2680865235
 20
5.8845313115
 30
0.0
 10
10.2870407953
 20
5.8815068119
 30
0.0
 10
10.3067135476
 20
5.8788054537
 30
0.0
 10
10.3270222913
 20
5.8764387384
 30
0.0
 10
10.347881713
 20
5.8744167131
 30
0.0
 10
10.3619719372
 20
5.8733139937
 30
0.0
 10
10.3690929413
 20
5.8728201504
 30
0.0
  0
SPLINE
  5
46A
100
AcDbEntity
  8
0
100
AcDbSpline
 62
7
  6
CONTINUOUS
 70
0
 71
3
 72
37
 73
33
 74
0
 42
0.0000001
 43
0.0000001
 44
0.0000000001
 40
0.0
 40
0.0
 40
0.0
 40
0.0
 40
0.0311464763
 40
0.0624483004
 40
0.0938952738
 40
0.1254804953
 40
0.1571907415
 40
0.1890115257
 40
0.2209258547
 40
0.252914932
 40
0.2849585264
 40
0.317035338
 40
0.3491234252
 40
0.381200621
 40
0.4451976236
 40
0.5088978732
 40
0.5406101981
 40
0.5721975056
 40
0.6036475114
 40
0.634950721
 40
0.6661006564
 40
0.6970940303
 40
0.7279308694
 40
0.7586145731
 40
0.7891518852
 40
0.8195527902
 40
0.8498303302
 40
0.8800003491
 40
0.9100811696
 40
0.9400931924
 40
0.9700584311
 40
1.0
 40
1.0
 40
1.0
 40
1.0
 10
11.3991624809
 20
7.6443347292
 30
0.0
 10
11.3976529598
 20
7.6444394148
 30
0.0
 10
11.3946329314
 20
7.6447598255
 30
0.0
 10
11.3901395306
 20
7.6455668414
 30
0.0
 10
11.3856942249
 20
7.646697342
 30
0.0
 10
11.3813211032
 20
7.6481450678
 30
0.0
 10
11.3770433292
 20
7.6499023825
 30
0.0
 10
11.3728837509
 20
7.6519598411
 30
0.0
 10
11.3688645205
 20
7.6543064641
 30
0.0
 10
11.3650070543
 20
7.6569297063
 30
0.0
 10
11.3613318921
 20
7.6598155846
 30
0.0
 10
11.3578586551
 20
7.6629486506
 30
0.0
 10
11.3546057137
 20
7.6663124294
 30
0.0
 10
11.3505896984
 20
7.6710757148
 30
0.0
 10
11.3462037485
 20
7.6775111501
 30
0.0
 10
11.3427488779
 20
7.6844716586
 30
0.0
 10
11.3405952737
 20
7.6902579634
 30
0.0
 10
11.3392944116
 20
7.6946775384
 30
0.0
 10
11.3383131532
 20
7.6991583798
 30
0.0
 10
11.3376566504
 20
7.7036768196
 30
0.0
 10
11.3373284876
 20
7.7082086988
 30
0.0
 10
11.3373304684
 20
7.7127298509
 30
0.0
 10
11.3376626391
 20
7.7172161338
 30
0.0
 10
11.3383232689
 20
7.7216435872
 30
0.0
 10
11.3393088808
 20
7.7259885524
 30
0.0
 10
11.340614262
 20
7.7302277987
 30
0.0
 10
11.3422324884
 20
7.7343386444
 30
0.0
 10
11.3441549628
 20
7.7382990864
 30
0.0
 10
11.3463714084
 20
7.7420879044
 30
0.0
 10
11.3488700563
 20
7.7456848755
 30
0.0
 10
11.3516373034
 20
7.7490704848
 30
0.0
 10
11.3536522198
 20
7.7511754515
 30
0.0
 10
11.3546984519
 20
7.7521860404
 30
0.0
  0
SPLINE
  5
46B
100
AcDbEntity
  8
0
100
AcDbSpline
 62
7
  6
CONTINUOUS
 70
0
 71
3
 72
11
 73
7
 74
0
 42
0.0000001
 43
0.0000001
 44
0.0000000001
 40
0.0
 40
0.0
 40
0.0
 40
0.0
 40
0.2432430349
 40
0.4892469432
 40
0.7406730755
 40
1.0
 40
1.0
 40
1.0
 40
1.0
 10
10.6243696074
 20
10.3840086971
 30
0.0
 10
10.624369605
 20
10.3850753442
 30
0.0
 10
10.6244891852
 20
10.3872225974
 30
0.0
 10
10.6250260616
 20
10.3904320478
 30
0.0
 10
10.6259193054
 20
10.3936340539
 30
0.0
 10
10.6267366333
 20
10.3957237311
 30
0.0
 10
10.6271991273
 20
10.3967626104
 30
0.0
  0
SPLINE
  5
46C
100
AcDbEntity
  8
0
100
AcDbSpline
 62
7
  6
CONTINUOUS
 70
0
 71
3
 72
32
 73
28
 74
0
 42
0.0000001
 43
0.0000001
 44
0.0000000001
 40
0.0
 40
0.0
 40
0.0
 40
0.0
 40
0.0314268461
 40
0.0626422491
 40
0.0936630067
 40
0.1245125408
 40
0.1552207205
 40
0.1858201862
 40
0.2163440479
 40
0.246823901
 40
0.2772885413
 40
0.3077632963
 40
0.3382698224
 40
0.3688262243
 40
0.3994473776
 40
0.430145311
 40
0.4917803751
 40
0.5227579629
 40
0.5538393307
 40
0.6163031866
 40
0.6792085401
 40
0.742555874
 40
0.8063350316
 40
0.8705247835
 40
0.9027743862
 40
0.9351127946
 40
1.0
 40
1.0
 40
1.0
 40
1.0
 10
10.9311877686
 20
8.5229399612
 30
0.0
 10
10.9311877686
 20
8.5197637327
 30
0.0
 10
10.9308741671
 20
8.513427976
 30
0.0
 10
10.9294608841
 20
8.5040525257
 30
0.0
 10
10.9271342375
 20
8.4949206406
 30
0.0
 10
10.923937882
 20
8.4861111116
 30
0.0
 10
10.9199277202
 20
8.4776890027
 30
0.0
 10
10.9151674075
 20
8.4697064685
 30
0.0
 10
10.9097244116
 20
8.4622026557
 30
0.0
 10
10.9036666499
 20
8.4552051632
 30
0.0
 10
10.8970600593
 20
8.4487318391
 30
0.0
 10
10.889967039
 20
8.4427927634
 30
0.0
 10
10.8824455375
 20
8.4373920839
 30
0.0
 10
10.8745489427
 20
8.4325297064
 30
0.0
 10
10.866325327
 20
8.4282023634
 30
0.0
 10
10.8549720068
 20
8.4231339576
 30
0.0
 10
10.8431364598
 20
8.4191192088
 30
0.0
 10
10.8309920798
 20
8.4161326604
 30
0.0
 10
10.8186172502
 20
8.4138094361
 30
0.0
 10
10.8028594307
 20
8.4121580662
 30
0.0
 10
10.7837543647
 20
8.4121388594
 30
0.0
 10
10.7646114306
 20
8.4140540092
 30
0.0
 10
10.7456285826
 20
8.4178935086
 30
0.0
 10
10.7301315381
 20
8.4226935503
 30
0.0
 10
10.7180298646
 20
8.4274987075
 30
0.0
 10
10.7061364262
 20
8.4329658571
 30
0.0
 10
10.6975481615
 20
8.4377959223
 30
0.0
 10
10.6920266194
 20
8.4413342356
 30
0.0
  0
SPLINE
  5
46D
100
AcDbEntity
  8
0
100
AcDbSpline
 62
7
  6
CONTINUOUS
 70
0
 71
3
 72
11
 73
7
 74
0
 42
0.0000001
 43
0.0000001
 44
0.0000000001
 40
0.0
 40
0.0
 40
0.0
 40
0.0
 40
0.2593323467
 40
0.51075963
 40
0.7567613553
 40
1.0
 40
1.0
 40
1.0
 40
1.0
 10
11.4825380387
 20
10.3967671699
 30
0.0
 10
11.4830008422
 20
10.3957279574
 30
0.0
 10
11.4838187344
 20
10.3936376069
 30
0.0
 10
11.4847126163
 20
10.3904345212
 30
0.0
 10
11.4852498908
 20
10.3872239789
 30
0.0
 10
11.4853695812
 20
10.3850759868
 30
0.0
 10
11.4853695836
 20
10.3840089776
 30
0.0
  0
SPLINE
  5
46E
100
AcDbEntity
  8
0
100
AcDbSpline
 62
7
  6
CONTINUOUS
 70
0
 71
3
 72
41
 73
37
 74
0
 42
0.0000001
 43
0.0000001
 44
0.0000000001
 40
0.0
 40
0.0
 40
0.0
 40
0.0
 40
0.0761045125
 40
0.1533640536
 40
0.2310947966
 40
0.3086066342
 40
0.3470661279
 40
0.3852137617
 40
0.422965303
 40
0.4602376738
 40
0.4969492092
 40
0.5330199063
 40
0.5683716834
 40
0.602928646
 40
0.6366173801
 40
0.6693672547
 40
0.7011107167
 40
0.7317836229
 40
0.7613256076
 40
0.7896805113
 40
0.8167968801
 40
0.8426285084
 40
0.8671351182
 40
0.8902832146
 40
0.9013399809
 40
0.9120482875
 40
0.9224063604
 40
0.9324131777
 40
0.9420685251
 40
0.9513729307
 40
0.9603279659
 40
0.9689361507
 40
0.9772014048
 40
0.9851291396
 40
0.9927260306
 40
1.0
 40
1.0
 40
1.0
 40
1.0
 10
11.2062547056
 20
5.8364000697
 30
0.0
 10
11.218162293
 20
5.8355742757
 30
0.0
 10
11.2421818596
 20
5.834235882
 30
0.0
 10
11.278414201
 20
5.8331535035
 30
0.0
 10
11.3148831218
 20
5.8329858541
 30
0.0
 10
11.3452603607
 20
5.8336112512
 30
0.0
 10
11.3694136823
 20
5.8345736218
 30
0.0
 10
11.3873251507
 20
5.835520578
 30
0.0
 10
11.4050367244
 20
5.8366922081
 30
0.0
 10
11.4225063074
 20
5.838085732
 30
0.0
 10
11.4396923412
 20
5.8396978051
 30
0.0
 10
11.4565539574
 20
5.8415245701
 30
0.0
 10
11.4730510601
 20
5.8435616537
 30
0.0
 10
11.4891444262
 20
5.8458041816
 30
0.0
 10
11.5047958037
 20
5.8482467833
 30
0.0
 10
11.5199680066
 20
5.8508836023
 30
0.0
 10
11.5346250032
 20
5.8537083183
 30
0.0
 10
11.5487320024
 20
5.8567141599
 30
0.0
 10
11.5622555405
 20
5.8598939225
 30
0.0
 10
11.5751635782
 20
5.863239985
 30
0.0
 10
11.5874255682
 20
5.8667443221
 30
0.0
 10
11.5990126099
 20
5.8703985385
 30
0.0
 10
11.6098972712
 20
5.8741938991
 30
0.0
 10
11.6184878934
 20
5.8775155781
 30
0.0
 10
11.6249827051
 20
5.8802437912
 30
0.0
 10
11.6295878294
 20
5.8822882443
 30
0.0
 10
11.6339989654
 20
5.8843611125
 30
0.0
 10
11.6382135183
 20
5.8864611961
 30
0.0
 10
11.6422290197
 20
5.8885872243
 30
0.0
 10
11.6460430852
 20
5.8907380016
 30
0.0
 10
11.6496534925
 20
5.8929122021
 30
0.0
 10
11.6530581193
 20
5.8951085974
 30
0.0
 10
11.6562549981
 20
5.897325939
 30
0.0
 10
11.6592423312
 20
5.8995629973
 30
0.0
 10
11.6620182088
 20
5.9018184444
 30
0.0
 10
11.6637640147
 20
5.9033664648
 30
0.0
 10
11.6645991765
 20
5.90414366
 30
0.0
  0
SPLINE
  5
46F
100
AcDbEntity
  8
0
100
AcDbSpline
 62
7
  6
CONTINUOUS
 70
0
 71
3
 72
48
 73
44
 74
0
 42
0.0000001
 43
0.0000001
 44
0.0000000001
 40
0.0
 40
0.0
 40
0.0
 40
0.0
 40
0.0350612114
 40
0.0714617096
 40
0.1090494842
 40
0.1476680227
 40
0.1871530599
 40
0.227335977
 40
0.2680439218
 40
0.3091011429
 40
0.3503299047
 40
0.3915515144
 40
0.4325873181
 40
0.4732597038
 40
0.5133931044
 40
0.5528150067
 40
0.591356975
 40
0.6288556954
 40
0.6651540561
 40
0.7001022807
 40
0.7335591458
 40
0.7653933354
 40
0.7954849749
 40
0.8237274673
 40
0.8500298007
 40
0.8624309121
 40
0.8743215645
 40
0.8856964523
 40
0.89655188
 40
0.9068862992
 40
0.9167005264
 40
0.9259980288
 40
0.934785698
 40
0.9430740094
 40
0.9508782984
 40
0.9582190986
 40
0.9651237006
 40
0.9716269273
 40
0.9777725617
 40
0.9836142198
 40
0.989215719
 40
0.9946505992
 40
1.0
 40
1.0
 40
1.0
 40
1.0
 10
10.9261047071
 20
10.2303870542
 30
0.0
 10
10.9284801906
 20
10.2308175559
 30
0.0
 10
10.933333435
 20
10.2316322966
 30
0.0
 10
10.9407661921
 20
10.2327018575
 30
0.0
 10
10.9484636885
 20
10.2336383519
 30
0.0
 10
10.9563901006
 20
10.234437391
 30
0.0
 10
10.9645087404
 20
10.235095209
 30
0.0
 10
10.9727819067
 20
10.2356087257
 30
0.0
 10
10.9811712165
 20
10.2359755263
 30
0.0
 10
10.9896377269
 20
10.2361938915
 30
0.0
 10
10.9981421372
 20
10.2362627958
 30
0.0
 10
11.0066449675
 20
10.2361819156
 30
0.0
 10
11.0151067455
 20
10.2359516306
 30
0.0
 10
11.0234881917
 20
10.2355730218
 30
0.0
 10
11.0317504035
 20
10.2350478658
 30
0.0
 10
11.039855038
 20
10.2343786277
 30
0.0
 10
11.0477644922
 20
10.2335684498
 30
0.0
 10
11.0554420807
 20
10.2326211383
 30
0.0
 10
11.0628522112
 20
10.2315411464
 30
0.0
 10
11.069960554
 20
10.2303335547
 30
0.0
 10
11.0767342166
 20
10.2290040485
 30
0.0
 10
11.0831418914
 20
10.2275588907
 30
0.0
 10
11.0891540847
 20
10.2260048977
 30
0.0
 10
11.0947430584
 20
10.2243493722
 30
0.0
 10
11.0991085107
 20
10.222863939
 30
0.0
 10
11.1023647391
 20
10.2216248282
 30
0.0
 10
11.1046373714
 20
10.2206932397
 30
0.0
 10
11.106786084
 20
10.2197422332
 30
0.0
 10
11.1088084162
 20
10.2187728614
 30
0.0
 10
11.1107020627
 20
10.2177862437
 30
0.0
 10
11.1124648834
 20
10.216783512
 30
0.0
 10
11.1140948747
 20
10.2157657541
 30
0.0
 10
11.1155902354
 20
10.2147341378
 30
0.0
 10
11.1169492624
 20
10.2136897025
 30
0.0
 10
11.1181704811
 20
10.2126335901
 30
0.0
 10
11.1192524688
 20
10.211566775
 30
0.0
 10
11.1201939945
 20
10.2104902953
 30
0.0
 10
11.1209938318
 20
10.2094050681
 30
0.0
 10
11.1216508012
 20
10.2083120348
 30
0.0
 10
11.1221637151
 20
10.2072122271
 30
0.0
 10
11.122531286
 20
10.206106748
 30
0.0
 10
11.1227524477
 20
10.2049974013
 30
0.0
 10
11.1228017724
 20
10.2042539338
 30
0.0
 10
11.1228017731
 20
10.203885595
 30
0.0
  0
SPLINE
  5
470
100
AcDbEntity
  8
0
100
AcDbSpline
 62
7
  6
CONTINUOUS
 70
0
 71
3
 72
37
 73
33
 74
0
 42
0.0000001
 43
0.0000001
 44
0.0000000001
 40
0.0
 40
0.0
 40
0.0
 40
0.0
 40
0.0311464763
 40
0.0624483004
 40
0.0938952738
 40
0.1254804953
 40
0.1571907415
 40
0.1890115257
 40
0.2209258547
 40
0.252914932
 40
0.2849585264
 40
0.317035338
 40
0.3491234252
 40
0.381200621
 40
0.4451976236
 40
0.5088978732
 40
0.5406101981
 40
0.5721975056
 40
0.6036475114
 40
0.634950721
 40
0.6661006564
 40
0.6970940303
 40
0.7279308694
 40
0.7586145731
 40
0.7891518852
 40
0.8195527902
 40
0.8498303302
 40
0.8800003491
 40
0.9100811696
 40
0.9400931924
 40
0.9700584311
 40
1.0
 40
1.0
 40
1.0
 40
1.0
 10
10.7800039871
 20
8.1248380081
 30
0.0
 10
10.7784944659
 20
8.1249426937
 30
0.0
 10
10.7754744376
 20
8.1252631044
 30
0.0
 10
10.7709810367
 20
8.1260701204
 30
0.0
 10
10.766535731
 20
8.1272006209
 30
0.0
 10
10.7621626093
 20
8.1286483468
 30
0.0
 10
10.7578848353
 20
8.1304056614
 30
0.0
 10
10.753725257
 20
8.13246312
 30
0.0
 10
10.7497060266
 20
8.134809743
 30
0.0
 10
10.7458485605
 20
8.1374329852
 30
0.0
 10
10.7421733982
 20
8.1403188636
 30
0.0
 10
10.7387001612
 20
8.1434519295
 30
0.0
 10
10.7354472199
 20
8.1468157084
 30
0.0
 10
10.7314312045
 20
8.1515789938
 30
0.0
 10
10.7270452547
 20
8.1580144291
 30
0.0
 10
10.723590384
 20
8.1649749375
 30
0.0
 10
10.7214367799
 20
8.1707612424
 30
0.0
 10
10.7201359177
 20
8.1751808173
 30
0.0
 10
10.7191546594
 20
8.1796616587
 30
0.0
 10
10.7184981566
 20
8.1841800986
 30
0.0
 10
10.7181699937
 20
8.1887119777
 30
0.0
 10
10.7181719745
 20
8.1932331298
 30
0.0
 10
10.7185041452
 20
8.1977194127
 30
0.0
 10
10.719164775
 20
8.2021468662
 30
0.0
 10
10.7201503869
 20
8.2064918314
 30
0.0
 10
10.7214557682
 20
8.2107310777
 30
0.0
 10
10.7230739945
 20
8.2148419233
 30
0.0
 10
10.7249964689
 20
8.2188023653
 30
0.0
 10
10.7272129145
 20
8.2225911834
 30
0.0
 10
10.7297115624
 20
8.2261881545
 30
0.0
 10
10.7324788095
 20
8.2295737638
 30
0.0
 10
10.7344937259
 20
8.2316787305
 30
0.0
 10
10.735539958
 20
8.2326893193
 30
0.0
  0
SPLINE
  5
471
100
AcDbEntity
  8
0
100
AcDbSpline
 62
7
  6
CONTINUOUS
 70
0
 71
3
 72
40
 73
36
 74
0
 42
0.0000001
 43
0.0000001
 44
0.0000000001
 40
0.0
 40
0.0
 40
0.0
 40
0.0
 40
0.0958313936
 40
0.1891002636
 40
0.2345968559
 40
0.2792418231
 40
0.3229685191
 40
0.3657121987
 40
0.4074103657
 40
0.4480029213
 40
0.4874324913
 40
0.5256446262
 40
0.5625879545
 40
0.5982146421
 40
0.632480706
 40
0.6653462654
 40
0.6967761768
 40
0.726740613
 40
0.7552155871
 40
0.7821839784
 40
0.8076366943
 40
0.8315738914
 40
0.8540069425
 40
0.8749609194
 40
0.8944774765
 40
0.9126189061
 40
0.9294731629
 40
0.9451593854
 40
0.9598338584
 40
0.9668558876
 40
0.9737029112
 40
0.9804063068
 40
0.9869997133
 40
0.9935186461
 40
1.0
 40
1.0
 40
1.0
 40
1.0
 10
10.3620354834
 20
9.3065972875
 30
0.0
 10
10.3522681926
 20
9.3072746514
 30
0.0
 10
10.3330089457
 20
9.3088261114
 30
0.0
 10
10.3091679733
 20
9.3113140492
 30
0.0
 10
10.2905706285
 20
9.3136124952
 30
0.0
 10
10.2770196759
 20
9.3154669409
 30
0.0
 10
10.2637732187
 20
9.3174630529
 30
0.0
 10
10.2508533629
 20
9.3195974919
 30
0.0
 10
10.2382817013
 20
9.3218666558
 30
0.0
 10
10.2260792363
 20
9.3242667478
 30
0.0
 10
10.2142663403
 20
9.3267937244
 30
0.0
 10
10.2028627252
 20
9.3294433241
 30
0.0
 10
10.1918874161
 20
9.3322111087
 30
0.0
 10
10.1813587028
 20
9.3350924201
 30
0.0
 10
10.1712941082
 20
9.338082399
 30
0.0
 10
10.1617103696
 20
9.3411760401
 30
0.0
 10
10.1526233898
 20
9.3443681536
 30
0.0
 10
10.1440482001
 20
9.3476533752
 30
0.0
 10
10.1359989511
 20
9.3510262394
 30
0.0
 10
10.1284888621
 20
9.3544811567
 30
0.0
 10
10.1215301756
 20
9.3580124209
 30
0.0
 10
10.1151341636
 20
9.3616143183
 30
0.0
 10
10.1093110894
 20
9.3652811489
 30
0.0
 10
10.1040701749
 20
9.3690072547
 30
0.0
 10
10.0994196753
 20
9.3727872359
 30
0.0
 10
10.0953670101
 20
9.3766159469
 30
0.0
 10
10.0919188128
 20
9.3804888808
 30
0.0
 10
10.0890817895
 20
9.3844011297
 30
0.0
 10
10.0872052889
 20
9.3877400117
 30
0.0
 10
10.0860355176
 20
9.390413453
 30
0.0
 10
10.085327301
 20
9.3923942659
 30
0.0
 10
10.0847759371
 20
9.3943789786
 30
0.0
 10
10.0843817724
 20
9.3963667779
 30
0.0
 10
10.0841451875
 20
9.3983565179
 30
0.0
 10
10.0840925529
 20
9.3996853032
 30
0.0
 10
10.0840925563
 20
9.40034748
 30
0.0
  0
SPLINE
  5
472
100
AcDbEntity
  8
0
100
AcDbSpline
 62
7
  6
CONTINUOUS
 70
0
 71
3
 72
41
 73
37
 74
0
 42
0.0000001
 43
0.0000001
 44
0.0000000001
 40
0.0
 40
0.0
 40
0.0
 40
0.0
 40
0.0071758425
 40
0.0146741453
 40
0.0225035656
 40
0.0306713257
 40
0.0391834036
 40
0.0480443729
 40
0.0572572157
 40
0.0668238661
 40
0.0767452117
 40
0.087021259
 40
0.0976512753
 40
0.1086336553
 40
0.1316452786
 40
0.1560326285
 40
0.1817628121
 40
0.2087958578
 40
0.2370856249
 40
0.2665805114
 40
0.2972240455
 40
0.3289554128
 40
0.3617098907
 40
0.3954192316
 40
0.4300120033
 40
0.4654138991
 40
0.5015480605
 40
0.5383353682
 40
0.5756947176
 40
0.6135432851
 40
0.6517967846
 40
0.6903697386
 40
0.7681261117
 40
0.8461161118
 40
0.923638923
 40
1.0
 40
1.0
 40
1.0
 40
1.0
 10
11.6664998996
 20
9.3166132312
 30
0.0
 10
11.6656881956
 20
9.3158291852
 30
0.0
 10
11.6639879456
 20
9.3142672346
 30
0.0
 10
11.6612762291
 20
9.3119914865
 30
0.0
 10
11.6583498277
 20
9.3097337981
 30
0.0
 10
11.6552106459
 20
9.3074956235
 30
0.0
 10
11.6518605226
 20
9.3052781762
 30
0.0
 10
11.6483013839
 20
9.3030827609
 30
0.0
 10
11.6445353492
 20
9.3009105983
 30
0.0
 10
11.6405646386
 20
9.2987630311
 30
0.0
 10
11.6363916264
 20
9.2966413184
 30
0.0
 10
11.6320188016
 20
9.2945467135
 30
0.0
 10
11.6274487511
 20
9.2924804819
 30
0.0
 10
11.6209952213
 20
9.2897219357
 30
0.0
 10
11.6124478093
 20
9.286362684
 30
0.0
 10
11.6016043475
 20
9.2825241257
 30
0.0
 10
11.5900461143
 20
9.2788271048
 30
0.0
 10
11.5778007933
 20
9.2752805637
 30
0.0
 10
11.5648975815
 20
9.2718931033
 30
0.0
 10
11.55136738
 20
9.2686729437
 30
0.0
 10
11.5372426281
 20
9.2656278962
 30
0.0
 10
11.5225572327
 20
9.2627653508
 30
0.0
 10
11.5073464703
 20
9.260092254
 30
0.0
 10
11.4916469
 20
9.2576150929
 30
0.0
 10
11.4754962749
 20
9.255339879
 30
0.0
 10
11.4589334493
 20
9.2532721251
 30
0.0
 10
11.4419982796
 20
9.2514168416
 30
0.0
 10
11.4247315245
 20
9.2497785247
 30
0.0
 10
11.4071747422
 20
9.2483611431
 30
0.0
 10
11.3893702065
 20
9.2471681404
 30
0.0
 10
11.3713607487
 20
9.2462023798
 30
0.0
 10
11.347069069
 20
9.2452183407
 30
0.0
 10
11.3165119224
 20
9.2445728677
 30
0.0
 10
11.2798224387
 20
9.2447275368
 30
0.0
 10
11.243368154
 20
9.2458080412
 30
0.0
 10
11.2192010609
 20
9.2471526528
 30
0.0
 10
11.2072206315
 20
9.2479834984
 30
0.0
  0
SPLINE
  5
473
100
AcDbEntity
  8
0
100
AcDbSpline
 62
7
  6
CONTINUOUS
 70
0
 71
3
 72
41
 73
37
 74
0
 42
0.0000001
 43
0.0000001
 44
0.0000000001
 40
0.0
 40
0.0
 40
0.0
 40
0.0
 40
0.0311445478
 40
0.0624424446
 40
0.0938872679
 40
0.125469566
 40
0.1571770992
 40
0.1889951145
 40
0.2209066667
 40
0.2528929719
 40
0.2849337877
 40
0.3170078142
 40
0.3490931102
 40
0.381167517
 40
0.4132090858
 40
0.4451965025
 40
0.4771095029
 40
0.5089292747
 40
0.5406388381
 40
0.5722233999
 40
0.6036706736
 40
0.63497116
 40
0.6661183793
 40
0.6971090497
 40
0.7279432042
 40
0.7586242401
 40
0.7891588962
 40
0.8195571523
 40
0.8498320512
 40
0.8649308901
 40
0.8800050513
 40
0.9100832572
 40
0.940092674
 40
0.9550812744
 40
0.9700610349
 40
1.0
 40
1.0
 40
1.0
 40
1.0
 10
11.3837076643
 20
7.2319903788
 30
0.0
 10
11.3802168019
 20
7.232232471
 30
0.0
 10
11.3732330123
 20
7.2329733688
 30
0.0
 10
11.3628420008
 20
7.2348396895
 30
0.0
 10
11.3525622759
 20
7.2374538713
 30
0.0
 10
11.3424493814
 20
7.2408018231
 30
0.0
 10
11.3325570251
 20
7.2448656187
 30
0.0
 10
11.3229379802
 20
7.2496235136
 30
0.0
 10
11.3136434879
 20
7.2550500836
 30
0.0
 10
11.304723075
 20
7.2611163541
 30
0.0
 10
11.2962242692
 20
7.2677899557
 30
0.0
 10
11.2881923557
 20
7.2750352954
 30
0.0
 10
11.2806701368
 20
7.2828137448
 30
0.0
 10
11.2736977062
 20
7.2910838441
 30
0.0
 10
11.267312238
 20
7.299801521
 30
0.0
 10
11.2615477896
 20
7.3089203232
 30
0.0
 10
11.256435122
 20
7.3183916631
 30
0.0
 10
11.2520015368
 20
7.3281650737
 30
0.0
 10
11.2482707308
 20
7.3381884741
 30
0.0
 10
11.2452626699
 20
7.3484084436
 30
0.0
 10
11.2429934818
 20
7.3587705027
 30
0.0
 10
11.2414753679
 20
7.3692193991
 30
0.0
 10
11.2407165364
 20
7.3796993996
 30
0.0
 10
11.2407211532
 20
7.3901545803
 30
0.0
 10
11.2414893204
 20
7.4005291331
 30
0.0
 10
11.2430170506
 20
7.4107676205
 30
0.0
 10
11.2452963533
 20
7.4208154221
 30
0.0
 10
11.2483150057
 20
7.4306184646
 30
0.0
 10
11.2514367756
 20
7.4385485621
 30
0.0
 10
11.2542856029
 20
7.4447154173
 30
0.0
 10
11.2573599639
 20
7.4507482191
 30
0.0
 10
11.2616286105
 20
7.4580451752
 30
0.0
 10
11.2664462336
 20
7.464980301
 30
0.0
 10
11.2706094106
 20
7.4702813077
 30
0.0
 10
11.2749711319
 20
7.4754093317
 30
0.0
 10
11.2784656634
 20
7.4790600249
 30
0.0
 10
11.2808850863
 20
7.4813970101
 30
0.0
  0
SPLINE
  5
474
100
AcDbEntity
  8
0
100
AcDbSpline
 62
7
  6
CONTINUOUS
 70
0
 71
3
 72
21
 73
17
 74
0
 42
0.0000001
 43
0.0000001
 44
0.0000000001
 40
0.0
 40
0.0
 40
0.0
 40
0.0
 40
0.0616532317
 40
0.1233294843
 40
0.1850515407
 40
0.2468416642
 40
0.3087213449
 40
0.3707111025
 40
0.432830246
 40
0.4950966374
 40
0.5575265756
 40
0.6201345674
 40
0.6829331401
 40
0.7459332076
 40
0.8725262003
 40
1.0
 40
1.0
 40
1.0
 40
1.0
 10
11.4865302422
 20
8.8081836499
 30
0.0
 10
11.4848693763
 20
8.8065793751
 30
0.0
 10
11.4814600004
 20
8.803458934
 30
0.0
 10
11.4761007382
 20
8.7990589876
 30
0.0
 10
11.4705087664
 20
8.7949498546
 30
0.0
 10
11.4646983396
 20
8.7911421058
 30
0.0
 10
11.4586840687
 20
8.7876452566
 30
0.0
 10
11.4524811342
 20
8.7844680993
 30
0.0
 10
11.4461051435
 20
8.7816186603
 30
0.0
 10
11.439572173
 20
8.7791040971
 30
0.0
 10
11.4328986794
 20
8.7769306958
 30
0.0
 10
11.426101516
 20
8.7751039461
 30
0.0
 10
11.4191976031
 20
8.7736284272
 30
0.0
 10
11.4098601245
 20
8.7721320467
 30
0.0
 10
11.3980030111
 20
8.7711598737
 30
0.0
 10
11.3884706069
 20
8.7713459085
 30
0.0
 10
11.3837076643
 20
8.7716762197
 30
0.0
  0
SPLINE
  5
475
100
AcDbEntity
  8
0
100
AcDbSpline
 62
7
  6
CONTINUOUS
 70
0
 71
3
 72
54
 73
50
 74
0
 42
0.0000001
 43
0.0000001
 44
0.0000000001
 40
0.0
 40
0.0
 40
0.0
 40
0.0
 40
0.052784991
 40
0.1048060923
 40
0.1559445044
 40
0.2060905216
 40
0.2551340321
 40
0.3029694639
 40
0.3494949945
 40
0.3946130603
 40
0.438230921
 40
0.4802611185
 40
0.5206221511
 40
0.559239105
 40
0.5960444107
 40
0.6309787921
 40
0.663992489
 40
0.6950468015
 40
0.709831479
 40
0.7241178387
 40
0.7379051855
 40
0.751193962
 40
0.7639858374
 40
0.7762841535
 40
0.7880937245
 40
0.7994213683
 40
0.8102760565
 40
0.8206690605
 40
0.830614617
 40
0.8401299511
 40
0.8492359035
 40
0.8579573592
 40
0.8663234793
 40
0.8743683592
 40
0.8821310443
 40
0.8896557027
 40
0.8969914552
 40
0.9041916844
 40
0.9113132101
 40
0.9184149027
 40
0.9255561887
 40
0.9327954181
 40
0.9401884307
 40
0.9477872381
 40
0.9637758035
 40
0.972256837
 40
0.9811038595
 40
0.9903441354
 40
1.0
 40
1.0
 40
1.0
 40
1.0
 10
10.3700588672
 20
10.1595324296
 30
0.0
 10
10.3646573087
 20
10.159907029
 30
0.0
 10
10.3539372119
 20
10.1607229732
 30
0.0
 10
10.3380049221
 20
10.1621586567
 30
0.0
 10
10.3223640484
 20
10.1637946829
 30
0.0
 10
10.3070524974
 20
10.1656270049
 30
0.0
 10
10.292106926
 20
10.167651241
 30
0.0
 10
10.2775633648
 20
10.1698624638
 30
0.0
 10
10.2634567724
 20
10.1722553085
 30
0.0
 10
10.2498210602
 20
10.1748239714
 30
0.0
 10
10.236688997
 20
10.177562219
 30
0.0
 10
10.2240921159
 20
10.1804634139
 30
0.0
 10
10.2120606306
 20
10.1835205091
 30
0.0
 10
10.2006233492
 20
10.1867260828
 30
0.0
 10
10.189807627
 20
10.1900723603
 30
0.0
 10
10.1796392042
 20
10.1935512471
 30
0.0
 10
10.1701424007
 20
10.1971543381
 30
0.0
 10
10.1626892261
 20
10.2003026779
 30
0.0
 10
10.1570874432
 20
10.2028840175
 30
0.0
 10
10.1531369361
 20
10.2048139045
 30
0.0
 10
10.1493705073
 20
10.2067682579
 30
0.0
 10
10.1457903855
 20
10.2087459272
 30
0.0
 10
10.1423987182
 20
10.2107457786
 30
0.0
 10
10.1391974878
 20
10.2127665794
 30
0.0
 10
10.1361886071
 20
10.2148071926
 30
0.0
 10
10.1333738481
 20
10.2168664255
 30
0.0
 10
10.13075485
 20
10.2189430724
 30
0.0
 10
10.1283331997
 20
10.2210360197
 30
0.0
 10
10.1261102908
 20
10.2231440481
 30
0.0
 10
10.1240874825
 20
10.2252660469
 30
0.0
 10
10.1222660285
 20
10.2274008889
 30
0.0
 10
10.1206470436
 20
10.2295474132
 30
0.0
 10
10.119231698
 20
10.2317045592
 30
0.0
 10
10.1180209743
 20
10.2338711403
 30
0.0
 10
10.1170158921
 20
10.2360459939
 30
0.0
 10
10.1162174372
 20
10.2382278623
 30
0.0
 10
10.1156263862
 20
10.2404153256
 30
0.0
 10
10.1152435693
 20
10.2426068756
 30
0.0
 10
10.115069438
 20
10.2448008082
 30
0.0
 10
10.1151042461
 20
10.2469953473
 30
0.0
 10
10.1153480155
 20
10.2491886806
 30
0.0
 10
10.115800275
 20
10.2513790356
 30
0.0
 10
10.1164606068
 20
10.2535648789
 30
0.0
 10
10.1176367602
 20
10.2565204928
 30
0.0
 10
10.1192246228
 20
10.2594182113
 30
0.0
 10
10.1211640115
 20
10.2622338536
 30
0.0
 10
10.1228507965
 20
10.2643768932
 30
0.0
 10
10.1247394567
 20
10.2665074651
 30
0.0
 10
10.1261016407
 20
10.26788783
 30
0.0
 10
10.1268140413
 20
10.2685759562
 30
0.0
  0
SPLINE
  5
476
100
AcDbEntity
  8
0
100
AcDbSpline
 62
7
  6
CONTINUOUS
 70
0
 71
3
 72
40
 73
36
 74
0
 42
0.0000001
 43
0.0000001
 44
0.0000000001
 40
0.0
 40
0.0
 40
0.0
 40
0.0
 40
0.0958312793
 40
0.1891000446
 40
0.2345965891
 40
0.279241512
 40
0.3229681675
 40
0.3657118109
 40
0.4074099461
 40
0.4480024746
 40
0.4874320226
 40
0.5256441407
 40
0.5625874576
 40
0.5982141394
 40
0.6324802032
 40
0.6653457683
 40
0.6967756912
 40
0.7267401448
 40
0.7552151418
 40
0.7821835616
 40
0.8076363113
 40
0.8315735468
 40
0.8540066404
 40
0.8749606632
 40
0.8944772684
 40
0.9126187468
 40
0.9294730511
 40
0.9451593172
 40
0.9598338268
 40
0.9668558706
 40
0.9737029056
 40
0.980406309
 40
0.9869997194
 40
0.9935186515
 40
1.0
 40
1.0
 40
1.0
 40
1.0
 10
10.3620354834
 20
10.1218387332
 30
0.0
 10
10.3522682127
 20
10.1225160957
 30
0.0
 10
10.3330090046
 20
10.1240675521
 30
0.0
 10
10.3091680797
 20
10.1265554832
 30
0.0
 10
10.2905707706
 20
10.1288539225
 30
0.0
 10
10.2770198428
 20
10.1307083627
 30
0.0
 10
10.2637734089
 20
10.1327044688
 30
0.0
 10
10.2508535747
 20
10.1348389012
 30
0.0
 10
10.2382819329
 20
10.1371080579
 30
0.0
 10
10.2260794857
 20
10.1395081425
 30
0.0
 10
10.2142666055
 20
10.1420351111
 30
0.0
 10
10.2028630041
 20
10.1446847024
 30
0.0
 10
10.1918877065
 20
10.1474524783
 30
0.0
 10
10.1813590023
 20
10.1503337806
 30
0.0
 10
10.1712944143
 20
10.1533237501
 30
0.0
 10
10.1617106799
 20
10.1564173815
 30
0.0
 10
10.1526237016
 20
10.1596094851
 30
0.0
 10
10.144048511
 20
10.1628946966
 30
0.0
 10
10.1359992582
 20
10.1662675506
 30
0.0
 10
10.1284891627
 20
10.1697224575
 30
0.0
 10
10.1215304669
 20
10.1732537112
 30
0.0
 10
10.1151344429
 20
10.1768555981
 30
0.0
 10
10.1093113538
 20
10.1805224182
 30
0.0
 10
10.1040704216
 20
10.1842485135
 30
0.0
 10
10.0994199015
 20
10.1880284843
 30
0.0
 10
10.0953672128
 20
10.1918571848
 30
0.0
 10
10.0919189894
 20
10.1957301084
 30
0.0
 10
10.0890819369
 20
10.199642347
 30
0.0
 10
10.087205409
 20
10.2029812207
 30
0.0
 10
10.0860356142
 20
10.205654656
 30
0.0
 10
10.0853273797
 20
10.2076354642
 30
0.0
 10
10.0847759972
 20
10.2096201723
 30
0.0
 10
10.0843818132
 20
10.2116079671
 30
0.0
 10
10.0841452083
 20
10.2135977027
 30
0.0
 10
10.0840925599
 20
10.2149264857
 30
0.0
 10
10.0840925563
 20
10.2155886613
 30
0.0
  0
SPLINE
  5
477
100
AcDbEntity
  8
0
100
AcDbSpline
 62
7
  6
CONTINUOUS
 70
0
 71
3
 72
21
 73
17
 74
0
 42
0.0000001
 43
0.0000001
 44
0.0000000001
 40
0.0
 40
0.0
 40
0.0
 40
0.0
 40
0.0616532317
 40
0.1233294843
 40
0.1850515407
 40
0.2468416642
 40
0.3087213449
 40
0.3707111025
 40
0.432830246
 40
0.4950966374
 40
0.5575265756
 40
0.6201345674
 40
0.6829331401
 40
0.7459332076
 40
0.8725262003
 40
1.0
 40
1.0
 40
1.0
 40
1.0
 10
10.2791228878
 20
8.8919176343
 30
0.0
 10
10.2774620219
 20
8.8903133595
 30
0.0
 10
10.274052646
 20
8.8871929184
 30
0.0
 10
10.2686933838
 20
8.882792972
 30
0.0
 10
10.263101412
 20
8.8786838391
 30
0.0
 10
10.2572909852
 20
8.8748760903
 30
0.0
 10
10.2512767143
 20
8.8713792411
 30
0.0
 10
10.2450737798
 20
8.8682020838
 30
0.0
 10
10.2386977891
 20
8.8653526447
 30
0.0
 10
10.2321648186
 20
8.8628380815
 30
0.0
 10
10.225491325
 20
8.8606646802
 30
0.0
 10
10.2186941616
 20
8.8588379306
 30
0.0
 10
10.2117902487
 20
8.8573624116
 30
0.0
 10
10.2024527701
 20
8.8558660312
 30
0.0
 10
10.1905956567
 20
8.8548938582
 30
0.0
 10
10.1810632525
 20
8.8550798929
 30
0.0
 10
10.1763003098
 20
8.8554102041
 30
0.0
  0
SPLINE
  5
478
100
AcDbEntity
  8
0
100
AcDbSpline
 62
7
  6
CONTINUOUS
 70
0
 71
3
 72
41
 73
37
 74
0
 42
0.0000001
 43
0.0000001
 44
0.0000000001
 40
0.0
 40
0.0
 40
0.0
 40
0.0
 40
0.0311445478
 40
0.0624424446
 40
0.0938872679
 40
0.125469566
 40
0.1571770992
 40
0.1889951145
 40
0.2209066667
 40
0.2528929719
 40
0.2849337877
 40
0.3170078142
 40
0.3490931102
 40
0.381167517
 40
0.4132090858
 40
0.4451965025
 40
0.4771095029
 40
0.5089292747
 40
0.5406388381
 40
0.5722233999
 40
0.6036706736
 40
0.63497116
 40
0.6661183793
 40
0.6971090497
 40
0.7279432042
 40
0.7586242401
 40
0.7891588962
 40
0.8195571523
 40
0.8498320512
 40
0.8649308901
 40
0.8800050513
 40
0.9100832572
 40
0.940092674
 40
0.9550812744
 40
0.9700610349
 40
1.0
 40
1.0
 40
1.0
 40
1.0
 10
10.1763003098
 20
8.8554102041
 30
0.0
 10
10.1728094475
 20
8.8556522962
 30
0.0
 10
10.1658256579
 20
8.856393194
 30
0.0
 10
10.1554346464
 20
8.8582595148
 30
0.0
 10
10.1451549215
 20
8.8608736965
 30
0.0
 10
10.135042027
 20
8.8642216484
 30
0.0
 10
10.1251496707
 20
8.8682854439
 30
0.0
 10
10.1155306258
 20
8.8730433389
 30
0.0
 10
10.1062361335
 20
8.8784699089
 30
0.0
 10
10.0973157205
 20
8.8845361793
 30
0.0
 10
10.0888169148
 20
8.891209781
 30
0.0
 10
10.0807850013
 20
8.8984551207
 30
0.0
 10
10.0732627824
 20
8.9062335701
 30
0.0
 10
10.0662903518
 20
8.9145036693
 30
0.0
 10
10.0599048836
 20
8.9232213463
 30
0.0
 10
10.0541404352
 20
8.9323401485
 30
0.0
 10
10.0490277676
 20
8.9418114884
 30
0.0
 10
10.0445941824
 20
8.9515848989
 30
0.0
 10
10.0408633764
 20
8.9616082993
 30
0.0
 10
10.0378553155
 20
8.9718282689
 30
0.0
 10
10.0355861274
 20
8.9821903279
 30
0.0
 10
10.0340680135
 20
8.9926392244
 30
0.0
 10
10.033309182
 20
9.0031192249
 30
0.0
 10
10.0333137988
 20
9.0135744055
 30
0.0
 10
10.034081966
 20
9.0239489583
 30
0.0
 10
10.0356096962
 20
9.0341874458
 30
0.0
 10
10.0378889989
 20
9.0442352474
 30
0.0
 10
10.0409076513
 20
9.0540382898
 30
0.0
 10
10.0440294212
 20
9.0619683874
 30
0.0
 10
10.0468782485
 20
9.0681352425
 30
0.0
 10
10.0499526094
 20
9.0741680443
 30
0.0
 10
10.0542212561
 20
9.0814650004
 30
0.0
 10
10.0590388792
 20
9.0884001262
 30
0.0
 10
10.0632020562
 20
9.0937011329
 30
0.0
 10
10.0675637775
 20
9.098829157
 30
0.0
 10
10.071058309
 20
9.1024798502
 30
0.0
 10
10.0734777319
 20
9.1048168354
 30
0.0
  0
SPLINE
  5
479
100
AcDbEntity
  8
0
100
AcDbSpline
 62
7
  6
CONTINUOUS
 70
0
 71
3
 72
31
 73
27
 74
0
 42
0.0000001
 43
0.0000001
 44
0.0000000001
 40
0.0
 40
0.0
 40
0.0
 40
0.0
 40
0.015547552
 40
0.0312880285
 40
0.0474067379
 40
0.0640750164
 40
0.081446335
 40
0.0996536174
 40
0.1188100048
 40
0.1390093636
 40
0.1603281383
 40
0.1828281955
 40
0.2065575545
 40
0.2315535635
 40
0.2578438746
 40
0.285447534
 40
0.3143773053
 40
0.3446390841
 40
0.4091525822
 40
0.4789504828
 40
0.5539291875
 40
0.6339380243
 40
0.7187873757
 40
0.8082512776
 40
0.9020847387
 40
1.0
 40
1.0
 40
1.0
 40
1.0
 10
10.8728017955
 20
10.2038855278
 30
0.0
 10
10.8728017948
 20
10.2042095224
 30
0.0
 10
10.8728398256
 20
10.2048621509
 30
0.0
 10
10.8730105352
 20
10.205837234
 30
0.0
 10
10.8732945458
 20
10.206809864
 30
0.0
 10
10.8736912072
 20
10.2077788212
 30
0.0
 10
10.8741998581
 20
10.2087432303
 30
0.0
 10
10.8748196758
 20
10.2097023476
 30
0.0
 10
10.8755499533
 20
10.210655442
 30
0.0
 10
10.8763899041
 20
10.2116018309
 30
0.0
 10
10.8773387025
 20
10.2125408479
 30
0.0
 10
10.8783955273
 20
10.2134717332
 30
0.0
 10
10.879559407
 20
10.2143938022
 30
0.0
 10
10.8808293468
 20
10.215306278
 30
0.0
 10
10.8822042396
 20
10.2162083943
 30
0.0
 10
10.8836828694
 20
10.2170994098
 30
0.0
 10
10.8852639625
 20
10.2179785262
 30
0.0
 10
10.8875560428
 20
10.2191590852
 30
0.0
 10
10.8906733668
 20
10.2205931971
 30
0.0
 10
10.8947215284
 20
10.2222199617
 30
0.0
 10
10.8991391693
 20
10.223781575
 30
0.0
 10
10.9039106277
 20
10.2252724097
 30
0.0
 10
10.9090190177
 20
10.2266870434
 30
0.0
 10
10.9144462469
 20
10.2280203984
 30
0.0
 10
10.920172793
 20
10.2292675333
 30
0.0
 10
10.9240969602
 20
10.2300231963
 30
0.0
 10
10.9261047071
 20
10.2303870542
 30
0.0
  0
SPLINE
  5
47A
100
AcDbEntity
  8
0
100
AcDbSpline
 62
7
  6
CONTINUOUS
 70
0
 71
3
 72
21
 73
17
 74
0
 42
0.0000001
 43
0.0000001
 44
0.0000000001
 40
0.0
 40
0.0
 40
0.0
 40
0.0
 40
0.0616532317
 40
0.1233294843
 40
0.1850515407
 40
0.2468416642
 40
0.3087213449
 40
0.3707111025
 40
0.432830246
 40
0.4950966374
 40
0.5575265756
 40
0.6201345674
 40
0.6829331401
 40
0.7459332076
 40
0.8725262003
 40
1.0
 40
1.0
 40
1.0
 40
1.0
 10
10.2791228878
 20
7.3522317935
 30
0.0
 10
10.2774620219
 20
7.3506275187
 30
0.0
 10
10.274052646
 20
7.3475070775
 30
0.0
 10
10.2686933838
 20
7.3431071312
 30
0.0
 10
10.263101412
 20
7.3389979982
 30
0.0
 10
10.2572909852
 20
7.3351902494
 30
0.0
 10
10.2512767143
 20
7.3316934002
 30
0.0
 10
10.2450737798
 20
7.3285162429
 30
0.0
 10
10.2386977891
 20
7.3256668039
 30
0.0
 10
10.2321648186
 20
7.3231522407
 30
0.0
 10
10.225491325
 20
7.3209788394
 30
0.0
 10
10.2186941616
 20
7.3191520897
 30
0.0
 10
10.2117902487
 20
7.3176765708
 30
0.0
 10
10.2024527701
 20
7.3161801903
 30
0.0
 10
10.1905956567
 20
7.3152080173
 30
0.0
 10
10.1810632525
 20
7.3153940521
 30
0.0
 10
10.1763003098
 20
7.3157243633
 30
0.0
  0
SPLINE
  5
47B
100
AcDbEntity
  8
0
100
AcDbSpline
 62
7
  6
CONTINUOUS
 70
0
 71
3
 72
18
 73
14
 74
0
 42
0.0000001
 43
0.0000001
 44
0.0000000001
 40
0.0
 40
0.0
 40
0.0
 40
0.0
 40
0.054862568
 40
0.1099291209
 40
0.1654011893
 40
0.2214754292
 40
0.336133642
 40
0.4553634706
 40
0.5171047465
 40
0.5804363458
 40
0.712331634
 40
0.8519592464
 40
1.0
 40
1.0
 40
1.0
 40
1.0
 10
11.9168733696
 20
9.5712329864
 30
0.0
 10
11.9168733669
 20
9.5707033876
 30
0.0
 10
11.9168397538
 20
9.5696419147
 30
0.0
 10
11.9166885966
 20
9.5680514429
 30
0.0
 10
11.9164367276
 20
9.5664618554
 30
0.0
 10
11.9159634827
 20
9.5643289739
 30
0.0
 10
11.9151108681
 20
9.5616557573
 30
0.0
 10
11.9139432077
 20
9.5590456333
 30
0.0
 10
11.9128196251
 20
9.5569713089
 30
0.0
 10
11.9115330766
 20
9.5548494365
 30
0.0
 10
11.9096649844
 20
9.5522058633
 30
0.0
 10
11.9070605234
 20
9.5490992765
 30
0.0
 10
11.905123449
 20
9.547105894
 30
0.0
 10
11.904095587
 20
9.5461130554
 30
0.0
  0
SPLINE
  5
47C
100
AcDbEntity
  8
0
100
AcDbSpline
 62
7
  6
CONTINUOUS
 70
0
 71
3
 72
18
 73
14
 74
0
 42
0.0000001
 43
0.0000001
 44
0.0000000001
 40
0.0
 40
0.0
 40
0.0
 40
0.0
 40
0.0548626221
 40
0.1099291996
 40
0.1654012684
 40
0.2214754896
 40
0.3361336267
 40
0.4553633642
 40
0.5171046005
 40
0.5804361693
 40
0.7123314363
 40
0.8519591016
 40
1.0
 40
1.0
 40
1.0
 40
1.0
 10
11.9168733696
 20
10.3864746964
 30
0.0
 10
11.9168733724
 20
10.3859450922
 30
0.0
 10
11.9168397699
 20
10.3848836085
 30
0.0
 10
11.9166886263
 20
10.38329312
 30
0.0
 10
11.9164367688
 20
10.3817035157
 30
0.0
 10
11.9159635365
 20
10.379570612
 30
0.0
 10
11.9151109323
 20
10.3768973669
 30
0.0
 10
11.9139432749
 20
10.3742872149
 30
0.0
 10
11.9128196909
 20
10.3722128686
 30
0.0
 10
11.9115331379
 20
10.3700909735
 30
0.0
 10
11.9096650345
 20
10.3674473719
 30
0.0
 10
11.9070605521
 20
10.3643407524
 30
0.0
 10
11.9051234594
 20
10.3623473497
 30
0.0
 10
11.904095587
 20
10.3613545011
 30
0.0
  0
SPLINE
  5
47D
100
AcDbEntity
  8
0
100
AcDbSpline
 62
7
  6
CONTINUOUS
 70
0
 71
3
 72
15
 73
11
 74
0
 42
0.0000001
 43
0.0000001
 44
0.0000000001
 40
0.0
 40
0.0
 40
0.0
 40
0.0
 40
0.1305884201
 40
0.2595612259
 40
0.386850039
 40
0.512445014
 40
0.6364046039
 40
0.7588519491
 40
0.8799711977
 40
1.0
 40
1.0
 40
1.0
 40
1.0
 10
10.2576386343
 20
8.2290911003
 30
0.0
 10
10.2576386534
 20
8.2329426722
 30
0.0
 10
10.2579870969
 20
8.2406031358
 30
0.0
 10
10.2595715149
 20
8.2519188196
 30
0.0
 10
10.2621985612
 20
8.2628890426
 30
0.0
 10
10.2658418528
 20
8.2734089697
 30
0.0
 10
10.2704644737
 20
8.2833803169
 30
0.0
 10
10.2760203582
 20
8.2927111021
 30
0.0
 10
10.2824531123
 20
8.3013151559
 30
0.0
 10
10.2873051069
 20
8.3065376629
 30
0.0
 10
10.28985132
 20
8.3089971947
 30
0.0
  0
SPLINE
  5
47E
100
AcDbEntity
  8
0
100
AcDbSpline
 62
7
  6
CONTINUOUS
 70
0
 71
3
 72
23
 73
19
 74
0
 42
0.0000001
 43
0.0000001
 44
0.0000000001
 40
0.0
 40
0.0
 40
0.0
 40
0.0
 40
0.0587707224
 40
0.1183125536
 40
0.1786427711
 40
0.239749305
 40
0.3015933442
 40
0.3641104533
 40
0.4272130991
 40
0.4907933136
 40
0.5547260233
 40
0.6188728902
 40
0.6830865816
 40
0.7472155484
 40
0.8111091175
 40
0.8746231384
 40
0.9376244926
 40
1.0
 40
1.0
 40
1.0
 40
1.0
 10
10.3723832154
 20
8.0941851257
 30
0.0
 10
10.3686373341
 20
8.0946471511
 30
0.0
 10
10.3611388446
 20
8.0959626901
 30
0.0
 10
10.3500716374
 20
8.0990492132
 30
0.0
 10
10.3392105838
 20
8.1032362208
 30
0.0
 10
10.3286572666
 20
8.1084862819
 30
0.0
 10
10.3185095729
 20
8.1147537454
 30
0.0
 10
10.3088632858
 20
8.1219835463
 30
0.0
 10
10.2998107698
 20
8.1301116632
 30
0.0
 10
10.2914402767
 20
8.1390651223
 30
0.0
 10
10.283834903
 20
8.1487622182
 30
0.0
 10
10.2770716563
 20
8.1591129754
 30
0.0
 10
10.2712203784
 20
8.170019683
 30
0.0
 10
10.2663425707
 20
8.1813776545
 30
0.0
 10
10.2624904279
 20
8.1930761141
 30
0.0
 10
10.2597059534
 20
8.2049999391
 30
0.0
 10
10.2580197976
 20
8.217028838
 30
0.0
 10
10.2576386551
 20
8.225085333
 30
0.0
 10
10.2576386343
 20
8.2290911003
 30
0.0
  0
SPLINE
  5
47F
100
AcDbEntity
  8
0
100
AcDbSpline
 62
7
  6
CONTINUOUS
 70
0
 71
3
 72
23
 73
19
 74
0
 42
0.0000001
 43
0.0000001
 44
0.0000000001
 40
0.0
 40
0.0
 40
0.0
 40
0.0
 40
0.0639337999
 40
0.1275587927
 40
0.1908823835
 40
0.2539224607
 40
0.3167003529
 40
0.3792438063
 40
0.4415848388
 40
0.5037594018
 40
0.5658063112
 40
0.6277663375
 40
0.689681243
 40
0.7515928714
 40
0.8135422765
 40
0.8755689349
 40
0.9377100567
 40
1.0
 40
1.0
 40
1.0
 40
1.0
 10
11.062624695
 20
8.1670574192
 30
0.0
 10
11.062624695
 20
8.1697934797
 30
0.0
 10
11.0628169748
 20
8.1752544065
 30
0.0
 10
11.0636854775
 20
8.1833836372
 30
0.0
 10
11.0651283615
 20
8.1913924333
 30
0.0
 10
11.0671370736
 20
8.1992408863
 30
0.0
 10
11.0696999937
 20
8.2068911018
 30
0.0
 10
11.072802328
 20
8.2143065023
 30
0.0
 10
11.0764264998
 20
8.2214523793
 30
0.0
 10
11.0805523059
 20
8.2282960192
 30
0.0
 10
11.0851572206
 20
8.2348068863
 30
0.0
 10
11.0902166548
 20
8.2409567342
 30
0.0
 10
11.0957042323
 20
8.2467196769
 30
0.0
 10
11.1015920629
 20
8.2520722303
 30
0.0
 10
11.1078509493
 20
8.2569932789
 30
0.0
 10
11.114450808
 20
8.2614641309
 30
0.0
 10
11.121360159
 20
8.2654681224
 30
0.0
 10
11.1261461913
 20
8.2678140529
 30
0.0
 10
11.1285786435
 20
8.2689045543
 30
0.0
  0
SPLINE
  5
480
100
AcDbEntity
  8
0
100
AcDbSpline
 62
7
  6
CONTINUOUS
 70
0
 71
3
 72
23
 73
19
 74
0
 42
0.0000001
 43
0.0000001
 44
0.0000000001
 40
0.0
 40
0.0
 40
0.0
 40
0.0
 40
0.0749625009
 40
0.1455684839
 40
0.2121600745
 40
0.2751631548
 40
0.3350982506
 40
0.3925832742
 40
0.4483295117
 40
0.5031237972
 40
0.5577983643
 40
0.613191491
 40
0.670106811
 40
0.729278715
 40
0.7913522906
 40
0.8568775564
 40
0.9263090861
 40
1.0
 40
1.0
 40
1.0
 40
1.0
 10
11.8732943876
 20
10.4402748505
 30
0.0
 10
11.8742877326
 20
10.439350438
 30
0.0
 10
11.8761616263
 20
10.4374945459
 30
0.0
 10
11.8786900741
 20
10.4345990808
 30
0.0
 10
11.8808461852
 20
10.4316806946
 30
0.0
 10
11.8826267161
 20
10.4287418973
 30
0.0
 10
11.8840287265
 20
10.4257853075
 30
0.0
 10
11.8850490428
 20
10.4228139363
 30
0.0
 10
11.8856848113
 20
10.4198316148
 30
0.0
 10
11.8859337668
 20
10.4168430645
 30
0.0
 10
11.8857949298
 20
10.4138537208
 30
0.0
 10
11.8852688762
 20
10.4108691019
 30
0.0
 10
11.8843574835
 20
10.4078942027
 30
0.0
 10
11.8830636201
 20
10.4049330749
 30
0.0
 10
11.8813902968
 20
10.4019889655
 30
0.0
 10
11.8793405471
 20
10.3990644471
 30
0.0
 10
11.8769175265
 20
10.3961623061
 30
0.0
 10
11.8751113108
 20
10.3943015409
 30
0.0
 10
11.8741518846
 20
10.3933748063
 30
0.0
  0
SPLINE
  5
481
100
AcDbEntity
  8
0
100
AcDbSpline
 62
7
  6
CONTINUOUS
 70
0
 71
3
 72
41
 73
37
 74
0
 42
0.0000001
 43
0.0000001
 44
0.0000000001
 40
0.0
 40
0.0
 40
0.0
 40
0.0
 40
0.0071757878
 40
0.0146740945
 40
0.0225035609
 40
0.0306713549
 40
0.0391834197
 40
0.0480443679
 40
0.0572572149
 40
0.0668238567
 40
0.076745221
 40
0.0870212626
 40
0.0976512706
 40
0.1086336674
 40
0.131645286
 40
0.1560326206
 40
0.1817627982
 40
0.2087958624
 40
0.2370856423
 40
0.2665805176
 40
0.2972240341
 40
0.3289554007
 40
0.3617098966
 40
0.3954192459
 40
0.4300120062
 40
0.4654138894
 40
0.5015480547
 40
0.5383353725
 40
0.5756947244
 40
0.6135432851
 40
0.6517967806
 40
0.6903697378
 40
0.7681261148
 40
0.8461161177
 40
0.9236388544
 40
1.0
 40
1.0
 40
1.0
 40
1.0
 10
11.6365561973
 20
10.1638749821
 30
0.0
 10
11.6358115997
 20
10.1631557561
 30
0.0
 10
11.6342519078
 20
10.1617229331
 30
0.0
 10
11.6317643593
 20
10.1596353154
 30
0.0
 10
11.6290798691
 20
10.1575642488
 30
0.0
 10
11.6262001828
 20
10.1555110941
 30
0.0
 10
11.6231270047
 20
10.1534769535
 30
0.0
 10
11.619862091
 20
10.1514630292
 30
0.0
 10
11.6164073812
 20
10.1494704409
 30
0.0
 10
11.6127649204
 20
10.1475003935
 30
0.0
 10
11.6089368721
 20
10.1455540841
 30
0.0
 10
11.6049255355
 20
10.143632629
 30
0.0
 10
11.6007332763
 20
10.1417372036
 30
0.0
 10
11.5948132337
 20
10.1392067067
 30
0.0
 10
11.5869724108
 20
10.1361251471
 30
0.0
 10
11.5770253462
 20
10.1326039084
 30
0.0
 10
11.5664225951
 20
10.1292125047
 30
0.0
 10
11.5551895486
 20
10.1259591495
 30
0.0
 10
11.5433529985
 20
10.1228517224
 30
0.0
 10
11.5309412968
 20
10.11989776
 30
0.0
 10
11.5179841963
 20
10.117104432
 30
0.0
 10
11.5045127938
 20
10.1144785227
 30
0.0
 10
11.4905594497
 20
10.1120264074
 30
0.0
 10
11.476157708
 20
10.1097540279
 30
0.0
 10
11.461342204
 20
10.1076668951
 30
0.0
 10
11.4461485755
 20
10.1057700704
 30
0.0
 10
11.4306133795
 20
10.1040681582
 30
0.0
 10
11.4147740067
 20
10.1025652798
 30
0.0
 10
11.3986685841
 20
10.1012650707
 30
0.0
 10
11.3823358915
 20
10.1001706863
 30
0.0
 10
11.3658152168
 20
10.0992847578
 30
0.0
 10
11.3435316487
 20
10.0983820688
 30
0.0
 10
11.3155005582
 20
10.0977899595
 30
0.0
 10
11.2818440815
 20
10.0979318358
 30
0.0
 10
11.2484033516
 20
10.0989230216
 30
0.0
 10
11.2262340723
 20
10.1001564775
 30
0.0
 10
11.2152440153
 20
10.1009186405
 30
0.0
  0
SPLINE
  5
482
100
AcDbEntity
  8
0
100
AcDbSpline
 62
7
  6
CONTINUOUS
 70
0
 71
3
 72
21
 73
17
 74
0
 42
0.0000001
 43
0.0000001
 44
0.0000000001
 40
0.0
 40
0.0
 40
0.0
 40
0.0
 40
0.0616532317
 40
0.1233294843
 40
0.1850515407
 40
0.2468416642
 40
0.3087213449
 40
0.3707111025
 40
0.432830246
 40
0.4950966374
 40
0.5575265756
 40
0.6201345674
 40
0.6829331401
 40
0.7459332076
 40
0.8725262003
 40
1.0
 40
1.0
 40
1.0
 40
1.0
 10
11.4865302422
 20
7.268497809
 30
0.0
 10
11.4848693763
 20
7.2668935343
 30
0.0
 10
11.4814600004
 20
7.2637730931
 30
0.0
 10
11.4761007382
 20
7.2593731467
 30
0.0
 10
11.4705087664
 20
7.2552640138
 30
0.0
 10
11.4646983396
 20
7.251456265
 30
0.0
 10
11.4586840687
 20
7.2479594158
 30
0.0
 10
11.4524811342
 20
7.2447822585
 30
0.0
 10
11.4461051435
 20
7.2419328194
 30
0.0
 10
11.439572173
 20
7.2394182562
 30
0.0
 10
11.4328986794
 20
7.237244855
 30
0.0
 10
11.426101516
 20
7.2354181053
 30
0.0
 10
11.4191976031
 20
7.2339425864
 30
0.0
 10
11.4098601245
 20
7.2324462059
 30
0.0
 10
11.3980030111
 20
7.2314740329
 30
0.0
 10
11.3884706069
 20
7.2316600676
 30
0.0
 10
11.3837076643
 20
7.2319903788
 30
0.0
  0
SPLINE
  5
483
100
AcDbEntity
  8
0
100
AcDbSpline
 62
7
  6
CONTINUOUS
 70
0
 71
3
 72
17
 73
13
 74
0
 42
0.0000001
 43
0.0000001
 44
0.0000000001
 40
0.0
 40
0.0
 40
0.0
 40
0.0
 40
0.1296950483
 40
0.2578797189
 40
0.3846617195
 40
0.4475487503
 40
0.5101101436
 40
0.6342866982
 40
0.6959186483
 40
0.7572569819
 40
0.8791130533
 40
1.0
 40
1.0
 40
1.0
 40
1.0
 10
10.4966258712
 20
8.1728200254
 30
0.0
 10
10.4914931039
 20
8.1690621816
 30
0.0
 10
10.4812209838
 20
8.1616803585
 30
0.0
 10
10.4657027631
 20
8.1509478697
 30
0.0
 10
10.4527270689
 20
8.1423042354
 30
0.0
 10
10.4423461458
 20
8.1355741743
 30
0.0
 10
10.4320187655
 20
8.1289972007
 30
0.0
 10
10.4216638806
 20
8.122578702
 30
0.0
 10
10.411282843
 20
8.1163190098
 30
0.0
 10
10.400949083
 20
8.1102020717
 30
0.0
 10
10.3880205715
 20
8.1027640447
 30
0.0
 10
10.3775986747
 20
8.0970057312
 30
0.0
 10
10.3723832154
 20
8.0941851257
 30
0.0
  0
SPLINE
  5
484
100
AcDbEntity
  8
0
100
AcDbSpline
 62
7
  6
CONTINUOUS
 70
0
 71
3
 72
41
 73
37
 74
0
 42
0.0000001
 43
0.0000001
 44
0.0000000001
 40
0.0
 40
0.0
 40
0.0
 40
0.0
 40
0.0071758425
 40
0.0146741453
 40
0.0225035656
 40
0.0306713257
 40
0.0391834036
 40
0.0480443729
 40
0.0572572157
 40
0.0668238661
 40
0.0767452117
 40
0.087021259
 40
0.0976512753
 40
0.1086336553
 40
0.1316452786
 40
0.1560326285
 40
0.1817628121
 40
0.2087958578
 40
0.2370856249
 40
0.2665805114
 40
0.2972240455
 40
0.3289554128
 40
0.3617098907
 40
0.3954192316
 40
0.4300120033
 40
0.4654138991
 40
0.5015480605
 40
0.5383353682
 40
0.5756947176
 40
0.6135432851
 40
0.6517967846
 40
0.6903697386
 40
0.7681261117
 40
0.8461161118
 40
0.923638923
 40
1.0
 40
1.0
 40
1.0
 40
1.0
 10
11.6664998996
 20
10.1318546769
 30
0.0
 10
11.6656881956
 20
10.1310706309
 30
0.0
 10
11.6639879456
 20
10.1295086803
 30
0.0
 10
11.6612762291
 20
10.1272329322
 30
0.0
 10
11.6583498277
 20
10.1249752438
 30
0.0
 10
11.6552106459
 20
10.1227370691
 30
0.0
 10
11.6518605226
 20
10.1205196219
 30
0.0
 10
11.6483013839
 20
10.1183242066
 30
0.0
 10
11.6445353492
 20
10.116152044
 30
0.0
 10
11.6405646386
 20
10.1140044768
 30
0.0
 10
11.6363916264
 20
10.1118827641
 30
0.0
 10
11.6320188016
 20
10.1097881592
 30
0.0
 10
11.6274487511
 20
10.1077219276
 30
0.0
 10
11.6209952213
 20
10.1049633814
 30
0.0
 10
11.6124478093
 20
10.1016041297
 30
0.0
 10
11.6016043475
 20
10.0977655714
 30
0.0
 10
11.5900461143
 20
10.0940685505
 30
0.0
 10
11.5778007933
 20
10.0905220094
 30
0.0
 10
11.5648975815
 20
10.087134549
 30
0.0
 10
11.55136738
 20
10.0839143894
 30
0.0
 10
11.5372426281
 20
10.0808693419
 30
0.0
 10
11.5225572327
 20
10.0780067965
 30
0.0
 10
11.5073464703
 20
10.0753336997
 30
0.0
 10
11.4916469
 20
10.0728565386
 30
0.0
 10
11.4754962749
 20
10.0705813246
 30
0.0
 10
11.4589334493
 20
10.0685135708
 30
0.0
 10
11.4419982796
 20
10.0666582873
 30
0.0
 10
11.4247315245
 20
10.0650199704
 30
0.0
 10
11.4071747422
 20
10.0636025888
 30
0.0
 10
11.3893702065
 20
10.0624095861
 30
0.0
 10
11.3713607487
 20
10.0614438255
 30
0.0
 10
11.347069069
 20
10.0604597864
 30
0.0
 10
11.3165119224
 20
10.0598143134
 30
0.0
 10
11.2798224387
 20
10.0599689825
 30
0.0
 10
11.243368154
 20
10.0610494869
 30
0.0
 10
11.2192010609
 20
10.0623940985
 30
0.0
 10
11.2072206315
 20
10.0632249441
 30
0.0
  0
SPLINE
  5
485
100
AcDbEntity
  8
0
100
AcDbSpline
 62
7
  6
CONTINUOUS
 70
0
 71
3
 72
41
 73
37
 74
0
 42
0.0000001
 43
0.0000001
 44
0.0000000001
 40
0.0
 40
0.0
 40
0.0
 40
0.0
 40
0.0311445478
 40
0.0624424446
 40
0.0938872679
 40
0.125469566
 40
0.1571770992
 40
0.1889951145
 40
0.2209066667
 40
0.2528929719
 40
0.2849337877
 40
0.3170078142
 40
0.3490931102
 40
0.381167517
 40
0.4132090858
 40
0.4451965025
 40
0.4771095029
 40
0.5089292747
 40
0.5406388381
 40
0.5722233999
 40
0.6036706736
 40
0.63497116
 40
0.6661183793
 40
0.6971090497
 40
0.7279432042
 40
0.7586242401
 40
0.7891588962
 40
0.8195571523
 40
0.8498320512
 40
0.8649308901
 40
0.8800050513
 40
0.9100832572
 40
0.940092674
 40
0.9550812744
 40
0.9700610349
 40
1.0
 40
1.0
 40
1.0
 40
1.0
 10
10.1763003098
 20
7.3157243633
 30
0.0
 10
10.1728094475
 20
7.3159664554
 30
0.0
 10
10.1658256579
 20
7.3167073532
 30
0.0
 10
10.1554346464
 20
7.3185736739
 30
0.0
 10
10.1451549215
 20
7.3211878557
 30
0.0
 10
10.135042027
 20
7.3245358075
 30
0.0
 10
10.1251496707
 20
7.3285996031
 30
0.0
 10
10.1155306258
 20
7.333357498
 30
0.0
 10
10.1062361335
 20
7.338784068
 30
0.0
 10
10.0973157205
 20
7.3448503385
 30
0.0
 10
10.0888169148
 20
7.3515239401
 30
0.0
 10
10.0807850013
 20
7.3587692798
 30
0.0
 10
10.0732627824
 20
7.3665477292
 30
0.0
 10
10.0662903518
 20
7.3748178285
 30
0.0
 10
10.0599048836
 20
7.3835355054
 30
0.0
 10
10.0541404352
 20
7.3926543077
 30
0.0
 10
10.0490277676
 20
7.4021256476
 30
0.0
 10
10.0445941824
 20
7.4118990581
 30
0.0
 10
10.0408633764
 20
7.4219224585
 30
0.0
 10
10.0378553155
 20
7.432142428
 30
0.0
 10
10.0355861274
 20
7.4425044871
 30
0.0
 10
10.0340680135
 20
7.4529533836
 30
0.0
 10
10.033309182
 20
7.463433384
 30
0.0
 10
10.0333137988
 20
7.4738885647
 30
0.0
 10
10.034081966
 20
7.4842631175
 30
0.0
 10
10.0356096962
 20
7.4945016049
 30
0.0
 10
10.0378889989
 20
7.5045494066
 30
0.0
 10
10.0409076513
 20
7.514352449
 30
0.0
 10
10.0440294212
 20
7.5222825465
 30
0.0
 10
10.0468782485
 20
7.5284494017
 30
0.0
 10
10.0499526094
 20
7.5344822035
 30
0.0
 10
10.0542212561
 20
7.5417791596
 30
0.0
 10
10.0590388792
 20
7.5487142854
 30
0.0
 10
10.0632020562
 20
7.5540152921
 30
0.0
 10
10.0675637775
 20
7.5591433162
 30
0.0
 10
10.071058309
 20
7.5627940094
 30
0.0
 10
10.0734777319
 20
7.5651309946
 30
0.0
  0
SPLINE
  5
486
100
AcDbEntity
  8
0
100
AcDbSpline
 62
7
  6
CONTINUOUS
 70
0
 71
3
 72
15
 73
11
 74
0
 42
0.0000001
 43
0.0000001
 44
0.0000000001
 40
0.0
 40
0.0
 40
0.0
 40
0.0
 40
0.1233171388
 40
0.2468172051
 40
0.3706750009
 40
0.4950496043
 40
0.6200772562
 40
0.7458671573
 40
0.8724928759
 40
1.0
 40
1.0
 40
1.0
 40
1.0
 10
10.8244680161
 20
8.14062521
 30
0.0
 10
10.823031837
 20
8.1392379589
 30
0.0
 10
10.8200053564
 20
8.1366139669
 30
0.0
 10
10.815065834
 20
8.133185122
 30
0.0
 10
10.8097729619
 20
8.130294653
 30
0.0
 10
10.8041809246
 20
8.1279722604
 30
0.0
 10
10.7983461265
 20
8.1262409964
 30
0.0
 10
10.7923273399
 20
8.1251181916
 30
0.0
 10
10.7861860091
 20
8.1246147621
 30
0.0
 10
10.7820636511
 20
8.1246951699
 30
0.0
 10
10.7800039871
 20
8.1248380081
 30
0.0
  0
SPLINE
  5
487
100
AcDbEntity
  8
0
100
AcDbSpline
 62
7
  6
CONTINUOUS
 70
0
 71
3
 72
15
 73
11
 74
0
 42
0.0000001
 43
0.0000001
 44
0.0000000001
 40
0.0
 40
0.0
 40
0.0
 40
0.0
 40
0.1232680506
 40
0.2468877099
 40
0.3709463021
 40
0.495519592
 40
0.6206717406
 40
0.7464473204
 40
0.8728891406
 40
1.0
 40
1.0
 40
1.0
 40
1.0
 10
10.8317978522
 20
8.1492424381
 30
0.0
 10
10.8305009488
 20
8.1484131886
 30
0.0
 10
10.8278338124
 20
8.1468584741
 30
0.0
 10
10.8236500784
 20
8.1448584447
 30
0.0
 10
10.8193023113
 20
8.1431987607
 30
0.0
 10
10.8148167269
 20
8.1418894395
 30
0.0
 10
10.8102199766
 20
8.1409381912
 30
0.0
 10
10.8055392517
 20
8.1403505086
 30
0.0
 10
10.8008028103
 20
8.1401299492
 30
0.0
 10
10.7976342942
 20
8.1402281771
 30
0.0
 10
10.7960507543
 20
8.140337996
 30
0.0
  0
SPLINE
  5
488
100
AcDbEntity
  8
0
100
AcDbSpline
 62
7
  6
CONTINUOUS
 70
0
 71
3
 72
41
 73
37
 74
0
 42
0.0000001
 43
0.0000001
 44
0.0000000001
 40
0.0
 40
0.0
 40
0.0
 40
0.0
 40
0.0311445478
 40
0.0624424446
 40
0.0938872679
 40
0.125469566
 40
0.1571770992
 40
0.1889951145
 40
0.2209066667
 40
0.2528929719
 40
0.2849337877
 40
0.3170078142
 40
0.3490931102
 40
0.381167517
 40
0.4132090858
 40
0.4451965025
 40
0.4771095029
 40
0.5089292747
 40
0.5406388381
 40
0.5722233999
 40
0.6036706736
 40
0.63497116
 40
0.6661183793
 40
0.6971090497
 40
0.7279432042
 40
0.7586242401
 40
0.7891588962
 40
0.8195571523
 40
0.8498320512
 40
0.8649308901
 40
0.8800050513
 40
0.9100832572
 40
0.940092674
 40
0.9550812744
 40
0.9700610349
 40
1.0
 40
1.0
 40
1.0
 40
1.0
 10
11.3837076643
 20
8.7716762197
 30
0.0
 10
11.3802168019
 20
8.7719183118
 30
0.0
 10
11.3732330123
 20
8.7726592096
 30
0.0
 10
11.3628420008
 20
8.7745255304
 30
0.0
 10
11.3525622759
 20
8.7771397121
 30
0.0
 10
11.3424493814
 20
8.7804876639
 30
0.0
 10
11.3325570251
 20
8.7845514595
 30
0.0
 10
11.3229379802
 20
8.7893093545
 30
0.0
 10
11.3136434879
 20
8.7947359244
 30
0.0
 10
11.304723075
 20
8.8008021949
 30
0.0
 10
11.2962242692
 20
8.8074757965
 30
0.0
 10
11.2881923557
 20
8.8147211362
 30
0.0
 10
11.2806701368
 20
8.8224995856
 30
0.0
 10
11.2736977062
 20
8.8307696849
 30
0.0
 10
11.267312238
 20
8.8394873618
 30
0.0
 10
11.2615477896
 20
8.8486061641
 30
0.0
 10
11.256435122
 20
8.858077504
 30
0.0
 10
11.2520015368
 20
8.8678509145
 30
0.0
 10
11.2482707308
 20
8.8778743149
 30
0.0
 10
11.2452626699
 20
8.8880942844
 30
0.0
 10
11.2429934818
 20
8.8984563435
 30
0.0
 10
11.2414753679
 20
8.90890524
 30
0.0
 10
11.2407165364
 20
8.9193852404
 30
0.0
 10
11.2407211532
 20
8.9298404211
 30
0.0
 10
11.2414893204
 20
8.9402149739
 30
0.0
 10
11.2430170506
 20
8.9504534613
 30
0.0
 10
11.2452963533
 20
8.960501263
 30
0.0
 10
11.2483150057
 20
8.9703043054
 30
0.0
 10
11.2514367756
 20
8.9782344029
 30
0.0
 10
11.2542856029
 20
8.9844012581
 30
0.0
 10
11.2573599639
 20
8.9904340599
 30
0.0
 10
11.2616286105
 20
8.997731016
 30
0.0
 10
11.2664462336
 20
9.0046661418
 30
0.0
 10
11.2706094106
 20
9.0099671485
 30
0.0
 10
11.2749711319
 20
9.0150951726
 30
0.0
 10
11.2784656634
 20
9.0187458658
 30
0.0
 10
11.2808850863
 20
9.021082851
 30
0.0
  0
SPLINE
  5
489
100
AcDbEntity
  8
0
100
AcDbSpline
 62
7
  6
CONTINUOUS
 70
0
 71
3
 72
30
 73
26
 74
0
 42
0.0000001
 43
0.0000001
 44
0.0000000001
 40
0.0
 40
0.0
 40
0.0
 40
0.0
 40
0.0299442852
 40
0.0599608666
 40
0.0900662374
 40
0.120275131
 40
0.1506002724
 40
0.1810521749
 40
0.2116389426
 40
0.2423661304
 40
0.2732367141
 40
0.3042510735
 40
0.3354069893
 40
0.3666997166
 40
0.3981221427
 40
0.4296649193
 40
0.4930316772
 40
0.5567208306
 40
0.6205988802
 40
0.6845199813
 40
0.7483354542
 40
0.8119035534
 40
0.8750987526
 40
0.9378196997
 40
1.0
 40
1.0
 40
1.0
 40
1.0
 10
10.7443709263
 20
8.2396649234
 30
0.0
 10
10.7436099737
 20
8.2385584632
 30
0.0
 10
10.7421652739
 20
8.2362873177
 30
0.0
 10
10.7402445434
 20
8.2327304653
 30
0.0
 10
10.7385761051
 20
8.2290352935
 30
0.0
 10
10.737167641
 20
8.2252187698
 30
0.0
 10
10.7360254237
 20
8.2212981259
 30
0.0
 10
10.7351545982
 20
8.2172911203
 30
0.0
 10
10.7345590994
 20
8.2132158709
 30
0.0
 10
10.734241568
 20
8.2090908152
 30
0.0
 10
10.7342033815
 20
8.2049345999
 30
0.0
 10
10.7344446872
 20
8.2007660069
 30
0.0
 10
10.734964399
 20
8.1966038568
 30
0.0
 10
10.7357600777
 20
8.192466995
 30
0.0
 10
10.7368281933
 20
8.1883738976
 30
0.0
 10
10.7386111485
 20
8.1829929026
 30
0.0
 10
10.7414968162
 20
8.1764689982
 30
0.0
 10
10.7459353383
 20
8.1691206718
 30
0.0
 10
10.7512766208
 20
8.1623674866
 30
0.0
 10
10.7574243477
 20
8.1563314532
 30
0.0
 10
10.7642683264
 20
8.1511206836
 30
0.0
 10
10.7716857131
 20
8.1468290358
 30
0.0
 10
10.7795440263
 20
8.1435339089
 30
0.0
 10
10.7877003843
 20
8.141295308
 30
0.0
 10
10.7932689195
 20
8.1405309169
 30
0.0
 10
10.7960507543
 20
8.140337996
 30
0.0
  0
SPLINE
  5
48A
100
AcDbEntity
  8
0
100
AcDbSpline
 62
7
  6
CONTINUOUS
 70
0
 71
3
 72
15
 73
11
 74
0
 42
0.0000001
 43
0.0000001
 44
0.0000000001
 40
0.0
 40
0.0
 40
0.0
 40
0.0
 40
0.1233171388
 40
0.2468172051
 40
0.3706750009
 40
0.4950496043
 40
0.6200772562
 40
0.7458671573
 40
0.8724928759
 40
1.0
 40
1.0
 40
1.0
 40
1.0
 10
11.44362651
 20
7.660121931
 30
0.0
 10
11.4421903309
 20
7.65873468
 30
0.0
 10
11.4391638503
 20
7.656110688
 30
0.0
 10
11.4342243279
 20
7.652681843
 30
0.0
 10
11.4289314558
 20
7.6497913741
 30
0.0
 10
11.4233394185
 20
7.6474689815
 30
0.0
 10
11.4175046204
 20
7.6457377175
 30
0.0
 10
11.4114858338
 20
7.6446149127
 30
0.0
 10
11.405344503
 20
7.6441114831
 30
0.0
 10
11.401222145
 20
7.644191891
 30
0.0
 10
11.3991624809
 20
7.6443347292
 30
0.0
  0
SPLINE
  5
48B
100
AcDbEntity
  8
0
100
AcDbSpline
 62
7
  6
CONTINUOUS
 70
0
 71
3
 72
15
 73
11
 74
0
 42
0.0000001
 43
0.0000001
 44
0.0000000001
 40
0.0
 40
0.0
 40
0.0
 40
0.0
 40
0.1233171217
 40
0.2468171833
 40
0.3706749954
 40
0.4950495965
 40
0.6200773092
 40
0.7458671694
 40
0.8724927499
 40
1.0
 40
1.0
 40
1.0
 40
1.0
 10
11.4533525878
 20
8.5251808868
 30
0.0
 10
11.4516022548
 20
8.523490199
 30
0.0
 10
11.4479137369
 20
8.5202922763
 30
0.0
 10
11.4418937353
 20
8.5161134408
 30
0.0
 10
11.4354430903
 20
8.512590753
 30
0.0
 10
11.4286278457
 20
8.509760401
 30
0.0
 10
11.4215167454
 20
8.5076504781
 30
0.0
 10
11.4141814206
 20
8.5062820942
 30
0.0
 10
11.4066967481
 20
8.5056685541
 30
0.0
 10
11.4016726742
 20
8.5057665523
 30
0.0
 10
11.3991624809
 20
8.5059406348
 30
0.0
  0
SPLINE
  5
48C
100
AcDbEntity
  8
0
100
AcDbSpline
 62
7
  6
CONTINUOUS
 70
0
 71
3
 72
11
 73
7
 74
0
 42
0.0000001
 43
0.0000001
 44
0.0000000001
 40
0.0
 40
0.0
 40
0.0
 40
0.0
 40
0.2476290643
 40
0.4967545117
 40
0.7475158752
 40
1.0
 40
1.0
 40
1.0
 40
1.0
 10
11.4696355227
 20
8.5497558782
 30
0.0
 10
11.4673363079
 20
8.5489540546
 30
0.0
 10
11.4626368212
 20
8.5475845015
 30
0.0
 10
11.4553942461
 20
8.5462592914
 30
0.0
 10
11.4480074229
 20
8.5456688493
 30
0.0
 10
11.4430503029
 20
8.5457688359
 30
0.0
 10
11.440573493
 20
8.5459406032
 30
0.0
  0
SPLINE
  5
48D
100
AcDbEntity
  8
0
100
AcDbSpline
 62
7
  6
CONTINUOUS
 70
0
 71
3
 72
26
 73
22
 74
0
 42
0.0000001
 43
0.0000001
 44
0.0000000001
 40
0.0
 40
0.0
 40
0.0
 40
0.0
 40
0.0301009649
 40
0.060307604
 40
0.0906281321
 40
0.1210690058
 40
0.1516348538
 40
0.1823284679
 40
0.2440730498
 40
0.3063159946
 40
0.3690139906
 40
0.432098536
 40
0.4954801135
 40
0.5590533439
 40
0.6227027077
 40
0.6863086761
 40
0.7497540061
 40
0.8129299511
 40
0.8757421303
 40
0.9381149683
 40
1.0
 40
1.0
 40
1.0
 40
1.0
 10
11.3700793926
 20
8.6527616664
 30
0.0
 10
11.3695436065
 20
8.651378397
 30
0.0
 10
11.3685576811
 20
8.6485722006
 30
0.0
 10
11.3673438278
 20
8.6442711882
 30
0.0
 10
11.3663967168
 20
8.6398863737
 30
0.0
 10
11.3657198749
 20
8.6354340135
 30
0.0
 10
11.3653157019
 20
8.630930079
 30
0.0
 10
11.3651418464
 20
8.6248677174
 30
0.0
 10
11.3656156077
 20
8.6172396152
 30
0.0
 10
11.3672732218
 20
8.6081690346
 30
0.0
 10
11.3699962562
 20
8.5992901522
 30
0.0
 10
11.3737447438
 20
8.59073252
 30
0.0
 10
11.3784638782
 20
8.5826197382
 30
0.0
 10
11.3840851008
 20
8.5750693144
 30
0.0
 10
11.3905268076
 20
8.5681904751
 30
0.0
 10
11.3976956832
 20
8.5620828418
 30
0.0
 10
11.405488031
 20
8.5568350159
 30
0.0
 10
11.4137909301
 20
8.5525231792
 30
0.0
 10
11.4224847009
 20
8.5492102376
 30
0.0
 10
11.4314417259
 20
8.5469447413
 30
0.0
 10
11.4375310383
 20
8.5461515982
 30
0.0
 10
11.440573493
 20
8.5459406032
 30
0.0
  0
SPLINE
  5
48E
100
AcDbEntity
  8
0
100
AcDbSpline
 62
7
  6
CONTINUOUS
 70
0
 71
3
 72
23
 73
19
 74
0
 42
0.0000001
 43
0.0000001
 44
0.0000000001
 40
0.0
 40
0.0
 40
0.0
 40
0.0
 40
0.0604700925
 40
0.0908212473
 40
0.1212476745
 40
0.1823281176
 40
0.2437349395
 40
0.2745664301
 40
0.305478593
 40
0.3675276412
 40
0.4298756932
 40
0.4924999083
 40
0.5553737321
 40
0.6184685376
 40
0.7451543695
 40
0.808737395
 40
0.8724283684
 40
1.0
 40
1.0
 40
1.0
 40
1.0
 10
10.7226059186
 20
7.9859356076
 30
0.0
 10
10.7249842546
 20
7.9867315795
 30
0.0
 10
10.7286093337
 20
7.9877763846
 30
0.0
 10
10.733519912
 20
7.9888647695
 30
0.0
 10
10.738496436
 20
7.9897542418
 30
0.0
 10
10.7448035281
 20
7.9904862054
 30
0.0
 10
10.7511650782
 20
7.9907162236
 30
0.0
 10
10.7562726344
 20
7.9906074904
 30
0.0
 10
10.7613990994
 20
7.9903054083
 30
0.0
 10
10.7678046737
 20
7.9895707213
 30
0.0
 10
10.7754352823
 20
7.9881447649
 30
0.0
 10
10.7829853856
 20
7.9862001103
 30
0.0
 10
10.7904243159
 20
7.9837653981
 30
0.0
 10
10.8001701676
 20
7.979901332
 30
0.0
 10
10.8095859053
 20
7.975177587
 30
0.0
 10
10.8185981696
 20
7.9697190282
 30
0.0
 10
10.8273517813
 20
7.9637886951
 30
0.0
 10
10.8335880272
 20
7.9588612261
 30
0.0
 10
10.8375869552
 20
7.9553966011
 30
0.0
  0
SPLINE
  5
48F
100
AcDbEntity
  8
0
100
AcDbSpline
 62
7
  6
CONTINUOUS
 70
0
 71
3
 72
22
 73
18
 74
0
 42
0.0000001
 43
0.0000001
 44
0.0000000001
 40
0.0
 40
0.0
 40
0.0
 40
0.0
 40
0.1257305062
 40
0.2517012337
 40
0.3777301324
 40
0.4407231295
 40
0.5036423654
 40
0.5664518517
 40
0.6291137229
 40
0.6915893297
 40
0.7227502378
 40
0.7538504992
 40
0.8158422523
 40
0.8775435071
 40
0.9082825718
 40
0.9389423403
 40
1.0
 40
1.0
 40
1.0
 40
1.0
 10
10.8679813547
 20
8.6255150154
 30
0.0
 10
10.87241368
 20
8.6226746938
 30
0.0
 10
10.8810298607
 20
8.6165736271
 30
0.0
 10
10.8929969715
 20
8.6061949854
 30
0.0
 10
10.9020145653
 20
8.5965303114
 30
0.0
 10
10.9085274276
 20
8.5882257624
 30
0.0
 10
10.913027943
 20
8.581724812
 30
0.0
 10
10.9171095488
 20
8.5749689133
 30
0.0
 10
10.9207378026
 20
8.567979692
 30
0.0
 10
10.9233578962
 20
8.5619767873
 30
0.0
 10
10.9251936186
 20
8.5570863148
 30
0.0
 10
10.9268479244
 20
8.5521528975
 30
0.0
 10
10.9285741176
 20
8.5458994499
 30
0.0
 10
10.9298262164
 20
8.5395490895
 30
0.0
 10
10.930530901
 20
8.5344421159
 30
0.0
 10
10.9310347659
 20
8.5293388098
 30
0.0
 10
10.9311877686
 20
8.5254964315
 30
0.0
 10
10.9311877686
 20
8.5229399612
 30
0.0
  0
SPLINE
  5
490
100
AcDbEntity
  8
0
100
AcDbSpline
 62
7
  6
CONTINUOUS
 70
0
 71
3
 72
37
 73
33
 74
0
 42
0.0000001
 43
0.0000001
 44
0.0000000001
 40
0.0
 40
0.0
 40
0.0
 40
0.0
 40
0.0311467573
 40
0.0624481077
 40
0.0938952645
 40
0.125480423
 40
0.1571906467
 40
0.189011416
 40
0.2209257215
 40
0.2529147894
 40
0.2849583708
 40
0.3170351623
 40
0.381163081
 40
0.4451600481
 40
0.4770758024
 40
0.508898317
 40
0.5406106103
 40
0.5721978896
 40
0.6036478697
 40
0.6349510521
 40
0.6661009568
 40
0.6970942988
 40
0.7279311085
 40
0.7586147837
 40
0.7891520652
 40
0.819552936
 40
0.8498304416
 40
0.8800004329
 40
0.9100812331
 40
0.9400932378
 40
0.9700584557
 40
1.0
 40
1.0
 40
1.0
 40
1.0
 10
11.3991624809
 20
8.5059406348
 30
0.0
 10
11.397322728
 20
8.5060682221
 30
0.0
 10
11.3936420633
 20
8.506458713
 30
0.0
 10
11.3881657128
 20
8.5074422865
 30
0.0
 10
11.3827479921
 20
8.5088200744
 30
0.0
 10
11.3774182282
 20
8.5105845161
 30
0.0
 10
11.3722046792
 20
8.5127262601
 30
0.0
 10
11.3671351782
 20
8.5152337939
 30
0.0
 10
11.3622367137
 20
8.5180937586
 30
0.0
 10
11.357535446
 20
8.521290816
 30
0.0
 10
11.3530562175
 20
8.5248081463
 30
0.0
 10
11.3474141109
 20
8.5298975575
 30
0.0
 10
11.3410347175
 20
8.5369595191
 30
0.0
 10
11.335681297
 20
8.5448165823
 30
0.0
 10
11.3320864518
 20
8.5514764251
 30
0.0
 10
11.3297497265
 20
8.5566274444
 30
0.0
 10
11.3277835311
 20
8.561910016
 30
0.0
 10
11.3261982022
 20
8.5672962361
 30
0.0
 10
11.3250022875
 20
8.572757326
 30
0.0
 10
11.3242022051
 20
8.5782641849
 30
0.0
 10
11.3238022862
 20
8.5837874352
 30
0.0
 10
11.3238047308
 20
8.5892976053
 30
0.0
 10
11.3242095918
 20
8.5947652779
 30
0.0
 10
11.3250147687
 20
8.6001612489
 30
0.0
 10
11.3262160246
 20
8.605456683
 30
0.0
 10
11.3278070039
 20
8.6106232673
 30
0.0
 10
11.3297792601
 20
8.6156333607
 30
0.0
 10
11.3321223071
 20
8.6204601528
 30
0.0
 10
11.3348236364
 20
8.6250777749
 30
0.0
 10
11.3378689125
 20
8.6294615716
 30
0.0
 10
11.3412415451
 20
8.6335877661
 30
0.0
 10
11.3436972692
 20
8.6361531669
 30
0.0
 10
11.344972374
 20
8.6373848206
 30
0.0
  0
SPLINE
  5
491
100
AcDbEntity
  8
0
100
AcDbSpline
 62
7
  6
CONTINUOUS
 70
0
 71
3
 72
37
 73
33
 74
0
 42
0.0000001
 43
0.0000001
 44
0.0000000001
 40
0.0
 40
0.0
 40
0.0
 40
0.0
 40
0.0300305583
 40
0.0601569014
 40
0.0903895909
 40
0.1207373763
 40
0.1512071351
 40
0.1818038427
 40
0.2125305663
 40
0.2433884742
 40
0.274376854
 40
0.3054931488
 40
0.3367330067
 40
0.3680903397
 40
0.3995573874
 40
0.4311247823
 40
0.4944879241
 40
0.5581042646
 40
0.5899842837
 40
0.6218811429
 40
0.6537777979
 40
0.6856568675
 40
0.7175008971
 40
0.7492926458
 40
0.7810153947
 40
0.8126532682
 40
0.8441915971
 40
0.8756171726
 40
0.9069188659
 40
0.9380870005
 40
0.9691159874
 40
1.0
 40
1.0
 40
1.0
 40
1.0
 10
11.2466707588
 20
8.0478727899
 30
0.0
 10
11.2443147742
 20
8.0468165699
 30
0.0
 10
11.2395235372
 20
8.0448569217
 30
0.0
 10
11.2321482005
 20
8.042391232
 30
0.0
 10
11.2246019646
 20
8.0404016787
 30
0.0
 10
11.2169149586
 20
8.0388941617
 30
0.0
 10
11.2091169074
 20
8.0378727537
 30
0.0
 10
11.2012377481
 20
8.0373400621
 30
0.0
 10
11.1933074237
 20
8.0372971895
 30
0.0
 10
11.185355911
 20
8.0377437716
 30
0.0
 10
11.177413185
 20
8.0386779871
 30
0.0
 10
11.1695092174
 20
8.0400965757
 30
0.0
 10
11.1616739267
 20
8.041994845
 30
0.0
 10
11.1539372836
 20
8.0443665807
 30
0.0
 10
11.1463288224
 20
8.0472042832
 30
0.0
 10
11.1363849662
 20
8.0516009899
 30
0.0
 10
11.1244270041
 20
8.0582150038
 30
0.0
 10
11.1133131477
 20
8.0662127947
 30
0.0
 10
11.1050251274
 20
8.0733815906
 30
0.0
 10
11.0991335348
 20
8.079129226
 30
0.0
 10
11.0935992582
 20
8.0852212945
 30
0.0
 10
11.088447744
 20
8.0916346473
 30
0.0
 10
11.0837036326
 20
8.0983439973
 30
0.0
 10
11.0793900891
 20
8.1053222647
 30
0.0
 10
11.0755287086
 20
8.112540554
 30
0.0
 10
11.072139241
 20
8.1199682678
 30
0.0
 10
11.0692393958
 20
8.1275732318
 30
0.0
 10
11.066844582
 20
8.135321889
 30
0.0
 10
11.0649678075
 20
8.1431794075
 30
0.0
 10
11.0636192872
 20
8.1511102341
 30
0.0
 10
11.0628066483
 20
8.1590773644
 30
0.0
 10
11.062624695
 20
8.1644021316
 30
0.0
 10
11.062624695
 20
8.1670574192
 30
0.0
  0
SPLINE
  5
492
100
AcDbEntity
  8
0
100
AcDbSpline
 62
7
  6
CONTINUOUS
 70
0
 71
3
 72
20
 73
16
 74
0
 42
0.0000001
 43
0.0000001
 44
0.0000000001
 40
0.0
 40
0.0
 40
0.0
 40
0.0
 40
0.0631909822
 40
0.1259542203
 40
0.1884719746
 40
0.2508738838
 40
0.3132458276
 40
0.3756380227
 40
0.4380782058
 40
0.5005680658
 40
0.6256375961
 40
0.7507152692
 40
0.8131991311
 40
0.8755969064
 40
1.0
 40
1.0
 40
1.0
 40
1.0
 10
10.9020501509
 20
7.7725650024
 30
0.0
 10
10.9014191379
 20
7.7732146014
 30
0.0
 10
10.9002096735
 20
7.7745572249
 30
0.0
 10
10.8985477377
 20
7.7766890445
 30
0.0
 10
10.8970366599
 20
7.7789164981
 30
0.0
 10
10.8956680877
 20
7.7812273773
 30
0.0
 10
10.8944340305
 20
7.7836105387
 30
0.0
 10
10.8933272097
 20
7.7860557903
 30
0.0
 10
10.8923419685
 20
7.7885542077
 30
0.0
 10
10.8911820406
 20
7.791945242
 30
0.0
 10
10.8900110443
 20
7.796275904
 30
0.0
 10
10.8891868404
 20
7.8006845632
 30
0.0
 10
10.8887275438
 20
7.8042380512
 30
0.0
 10
10.8884003767
 20
7.8077962485
 30
0.0
 10
10.8883017821
 20
7.8104747378
 30
0.0
 10
10.8883017455
 20
7.8122576271
 30
0.0
  0
SPLINE
  5
493
100
AcDbEntity
  8
0
100
AcDbSpline
 62
7
  6
CONTINUOUS
 70
0
 71
3
 72
32
 73
28
 74
0
 42
0.0000001
 43
0.0000001
 44
0.0000000001
 40
0.0
 40
0.0
 40
0.0
 40
0.0
 40
0.0165871556
 40
0.0341537781
 40
0.0527304073
 40
0.0723387658
 40
0.0929935323
 40
0.1147029403
 40
0.1374702042
 40
0.1612937152
 40
0.1861681311
 40
0.2120844207
 40
0.2390306154
 40
0.2669918814
 40
0.2959509389
 40
0.3258882603
 40
0.3567821873
 40
0.3886092818
 40
0.4213441995
 40
0.4549601652
 40
0.5247185438
 40
0.5976428572
 40
0.6734701968
 40
0.7519205058
 40
0.8326992182
 40
0.9154981809
 40
1.0
 40
1.0
 40
1.0
 40
1.0
 10
10.0968392074
 20
5.9627574489
 30
0.0
 10
10.0979573623
 20
5.9617168814
 30
0.0
 10
10.1003290271
 20
5.9596479632
 30
0.0
 10
10.1041615059
 20
5.9566630138
 30
0.0
 10
10.108365011
 20
5.9537121975
 30
0.0
 10
10.112935045
 20
5.9507984885
 30
0.0
 10
10.1178670555
 20
5.9479248064
 30
0.0
 10
10.1231559534
 20
5.9450939981
 30
0.0
 10
10.1287963386
 20
5.942309035
 30
0.0
 10
10.1347823688
 20
5.9395727319
 30
0.0
 10
10.1411078615
 20
5.936887994
 30
0.0
 10
10.1477662347
 20
5.9342575835
 30
0.0
 10
10.1547505622
 20
5.9316842904
 30
0.0
 10
10.1620535539
 20
5.9291708021
 30
0.0
 10
10.1696675795
 20
5.926719767
 30
0.0
 10
10.1775846747
 20
5.924333778
 30
0.0
 10
10.1857965473
 20
5.9220153265
 30
0.0
 10
10.1942945917
 20
5.9197668959
 30
0.0
 10
10.2030699053
 20
5.9175907954
 30
0.0
 10
10.2152786826
 20
5.9147539163
 30
0.0
 10
10.2311684725
 20
5.9114157036
 30
0.0
 10
10.2509608531
 20
5.9077803825
 30
0.0
 10
10.2716232061
 20
5.9044833275
 30
0.0
 10
10.2930687905
 20
5.9015385328
 30
0.0
 10
10.3152076662
 20
5.8989585413
 30
0.0
 10
10.3379468546
 20
5.8967542966
 30
0.0
 10
10.3533068286
 20
5.8955522058
 30
0.0
 10
10.3610695575
 20
5.8950138588
 30
0.0
  0
SPLINE
  5
494
100
AcDbEntity
  8
0
100
AcDbSpline
 62
7
  6
CONTINUOUS
 70
0
 71
3
 72
35
 73
31
 74
0
 42
0.0000001
 43
0.0000001
 44
0.0000000001
 40
0.0
 40
0.0
 40
0.0
 40
0.0
 40
0.064559853
 40
0.0968513637
 40
0.1291252152
 40
0.1935564505
 40
0.2577943266
 40
0.3217703037
 40
0.3854239411
 40
0.4487005583
 40
0.5115503273
 40
0.5428129975
 40
0.5739541629
 40
0.6358298298
 40
0.6665904313
 40
0.6972244547
 40
0.7277363439
 40
0.7581343216
 40
0.7884312841
 40
0.8186456699
 40
0.8488021154
 40
0.8789316272
 40
0.8940023678
 40
0.9090806305
 40
0.9241716792
 40
0.9392809021
 40
0.954413135
 40
0.9695737939
 40
0.9847690335
 40
1.0
 40
1.0
 40
1.0
 40
1.0
 10
10.7224210188
 20
7.7243832065
 30
0.0
 10
10.7173877383
 20
7.7287439826
 30
0.0
 10
10.7102022824
 20
7.7357230296
 30
0.0
 10
10.7014080764
 20
7.7457320304
 30
0.0
 10
10.6931443281
 20
7.7561682623
 30
0.0
 10
10.683821702
 20
7.7699401249
 30
0.0
 10
10.6742960602
 20
7.7874134951
 30
0.0
 10
10.6664907902
 20
7.8056333468
 30
0.0
 10
10.6604735687
 20
7.8244159131
 30
0.0
 10
10.6563264831
 20
7.8435797642
 30
0.0
 10
10.6545093808
 20
7.8597454393
 30
0.0
 10
10.6541088723
 20
7.8726657528
 30
0.0
 10
10.6544296145
 20
7.8854865211
 30
0.0
 10
10.6558665835
 20
7.8982121613
 30
0.0
 10
10.6585092844
 20
7.9106580865
 30
0.0
 10
10.6611065513
 20
7.9197842851
 30
0.0
 10
10.6643413439
 20
7.928665176
 30
0.0
 10
10.668230552
 20
7.9372427161
 30
0.0
 10
10.6727871316
 20
7.9454513489
 30
0.0
 10
10.6780183212
 20
7.9532191188
 30
0.0
 10
10.6839222329
 20
7.9604675974
 30
0.0
 10
10.689393933
 20
7.9660081057
 30
0.0
 10
10.6940834879
 20
7.9700944971
 30
0.0
 10
10.6977546525
 20
7.9729790032
 30
0.0
 10
10.7015729708
 20
7.9756725027
 30
0.0
 10
10.7055316914
 20
7.9781656611
 30
0.0
 10
10.7096227187
 20
7.9804500061
 30
0.0
 10
10.713837379
 20
7.9825176712
 30
0.0
 10
10.7181655189
 20
7.9843616658
 30
0.0
 10
10.7211160117
 20
7.9854369715
 30
0.0
 10
10.7226059186
 20
7.9859356076
 30
0.0
  0
SPLINE
  5
495
100
AcDbEntity
  8
0
100
AcDbSpline
 62
4
  6
CONTINUOUS
 70
0
 71
3
 72
293
 73
289
 74
0
 42
0.0000001
 43
0.0000001
 44
0.0000000001
 40
0.0
 40
0.0
 40
0.0
 40
0.0
 40
0.015625
 40
0.0234375
 40
0.03125
 40
0.0390625
 40
0.046875
 40
0.05078125
 40
0.0546875
 40
0.056640625
 40
0.05859375
 40
0.060546875
 40
0.0615234375
 40
0.0620117188
 40
0.0625
 40
0.0629882812
 40
0.0634765625
 40
0.064453125
 40
0.06640625
 40
0.068359375
 40
0.0703125
 40
0.07421875
 40
0.078125
 40
0.0859375
 40
0.09375
 40
0.1015625
 40
0.109375
 40
0.11328125
 40
0.1171875
 40
0.119140625
 40
0.12109375
 40
0.123046875
 40
0.1240234375
 40
0.1245117188
 40
0.125
 40
0.1254882812
 40
0.1259765625
 40
0.126953125
 40
0.12890625
 40
0.130859375
 40
0.1328125
 40
0.13671875
 40
0.140625
 40
0.1484375
 40
0.15625
 40
0.1640625
 40
0.171875
 40
0.17578125
 40
0.1796875
 40
0.181640625
 40
0.18359375
 40
0.185546875
 40
0.1865234375
 40
0.1870117188
 40
0.1875
 40
0.1879882812
 40
0.1884765625
 40
0.189453125
 40
0.19140625
 40
0.193359375
 40
0.1953125
 40
0.19921875
 40
0.203125
 40
0.2109375
 40
0.21875
 40
0.2265625
 40
0.234375
 40
0.23828125
 40
0.2421875
 40
0.24609375
 40
0.248046875
 40
0.2490234375
 40
0.25
 40
0.2509765625
 40
0.251953125
 40
0.25390625
 40
0.2578125
 40
0.26171875
 40
0.265625
 40
0.2734375
 40
0.28125
 40
0.2890625
 40
0.296875
 40
0.30078125
 40
0.3046875
 40
0.30859375
 40
0.310546875
 40
0.3115234375
 40
0.3125
 40
0.3134765625
 40
0.314453125
 40
0.31640625
 40
0.3203125
 40
0.32421875
 40
0.328125
 40
0.3359375
 40
0.34375
 40
0.3515625
 40
0.359375
 40
0.36328125
 40
0.3671875
 40
0.37109375
 40
0.373046875
 40
0.3740234375
 40
0.375
 40
0.3759765625
 40
0.376953125
 40
0.37890625
 40
0.3828125
 40
0.38671875
 40
0.390625
 40
0.3984375
 40
0.40625
 40
0.4140625
 40
0.421875
 40
0.42578125
 40
0.4296875
 40
0.43359375
 40
0.435546875
 40
0.4375
 40
0.439453125
 40
0.44140625
 40
0.4453125
 40
0.44921875
 40
0.453125
 40
0.4609375
 40
0.46875
 40
0.4765625
 40
0.484375
 40
0.48828125
 40
0.4921875
 40
0.49609375
 40
0.498046875
 40
0.4990234375
 40
0.5
 40
0.5009765625
 40
0.501953125
 40
0.50390625
 40
0.5078125
 40
0.51171875
 40
0.515625
 40
0.5234375
 40
0.53125
 40
0.5390625
 40
0.546875
 40
0.55078125
 40
0.5546875
 40
0.55859375
 40
0.560546875
 40
0.5615234375
 40
0.5625
 40
0.5634765625
 40
0.564453125
 40
0.56640625
 40
0.5703125
 40
0.57421875
 40
0.578125
 40
0.5859375
 40
0.59375
 40
0.6015625
 40
0.609375
 40
0.61328125
 40
0.6171875
 40
0.619140625
 40
0.62109375
 40
0.623046875
 40
0.6240234375
 40
0.6245117188
 40
0.625
 40
0.6254882812
 40
0.6259765625
 40
0.626953125
 40
0.62890625
 40
0.630859375
 40
0.6328125
 40
0.63671875
 40
0.640625
 40
0.6484375
 40
0.65625
 40
0.6640625
 40
0.671875
 40
0.67578125
 40
0.6796875
 40
0.681640625
 40
0.68359375
 40
0.685546875
 40
0.6865234375
 40
0.6870117188
 40
0.6875
 40
0.6879882812
 40
0.6884765625
 40
0.689453125
 40
0.69140625
 40
0.693359375
 40
0.6953125
 40
0.69921875
 40
0.703125
 40
0.7109375
 40
0.71875
 40
0.7265625
 40
0.734375
 40
0.73828125
 40
0.7421875
 40
0.744140625
 40
0.74609375
 40
0.748046875
 40
0.7490234375
 40
0.7495117188
 40
0.75
 40
0.7504882812
 40
0.7509765625
 40
0.751953125
 40
0.75390625
 40
0.755859375
 40
0.7578125
 40
0.76171875
 40
0.765625
 40
0.7734375
 40
0.78125
 40
0.7890625
 40
0.796875
 40
0.80078125
 40
0.8046875
 40
0.806640625
 40
0.80859375
 40
0.810546875
 40
0.8115234375
 40
0.8120117188
 40
0.8125
 40
0.8129882812
 40
0.8134765625
 40
0.814453125
 40
0.81640625
 40
0.818359375
 40
0.8203125
 40
0.82421875
 40
0.828125
 40
0.8359375
 40
0.84375
 40
0.8515625
 40
0.85546875
 40
0.859375
 40
0.86328125
 40
0.8671875
 40
0.869140625
 40
0.87109375
 40
0.873046875
 40
0.8740234375
 40
0.8745117188
 40
0.875
 40
0.8754882812
 40
0.8759765625
 40
0.876953125
 40
0.87890625
 40
0.880859375
 40
0.8828125
 40
0.88671875
 40
0.890625
 40
0.89453125
 40
0.8984375
 40
0.90625
 40
0.9140625
 40
0.91796875
 40
0.921875
 40
0.92578125
 40
0.9296875
 40
0.931640625
 40
0.93359375
 40
0.9345703125
 40
0.935546875
 40
0.9365234375
 40
0.9370117188
 40
0.9375
 40
0.9379882812
 40
0.9384765625
 40
0.939453125
 40
0.9404296875
 40
0.94140625
 40
0.943359375
 40
0.9453125
 40
0.94921875
 40
0.953125
 40
0.95703125
 40
0.9609375
 40
0.96875
 40
0.9765625
 40
0.984375
 40
1.0
 40
1.0
 40
1.0
 40
1.0
 10
11.8930666171
 20
8.3684405824
 30
0.0
 10
11.8937662289
 20
8.3693723653
 30
0.0
 10
11.8948156467
 20
8.3707700395
 30
0.0
 10
11.8962148703
 20
8.3726336058
 30
0.0
 10
11.8972642881
 20
8.3740312786
 30
0.0
 10
11.8983137056
 20
8.3754289588
 30
0.0
 10
11.8991882213
 20
8.3765936693
 30
0.0
 10
11.8998878311
 20
8.3775254892
 30
0.0
 10
11.9003250938
 20
8.3781077594
 30
0.0
 10
11.9006748889
 20
8.3785738439
 30
0.0
 10
11.9009372763
 20
8.3789226728
 30
0.0
 10
11.9011558018
 20
8.3792157
 30
0.0
 10
11.9013090261
 20
8.3794162337
 30
0.0
 10
11.9013961824
 20
8.3795379841
 30
0.0
 10
11.9014626776
 20
8.3796091279
 30
0.0
 10
11.9015248614
 20
8.3797573679
 30
0.0
 10
11.901609277
 20
8.3799281293
 30
0.0
 10
11.9017563037
 20
8.3802394911
 30
0.0
 10
11.901966708
 20
8.3806777432
 30
0.0
 10
11.9022190365
 20
8.3812064496
 30
0.0
 10
11.9025555292
 20
8.3819104121
 30
0.0
 10
11.9029761263
 20
8.3827907005
 30
0.0
 10
11.9036490922
 20
8.3841989746
 30
0.0
 10
11.904490296
 20
8.3859593818
 30
0.0
 10
11.9054997422
 20
8.3880718412
 30
0.0
 10
11.9065091872
 20
8.3901843145
 30
0.0
 10
11.907350394
 20
8.3919446868
 30
0.0
 10
11.9080233538
 20
8.3933530307
 30
0.0
 10
11.9084439665
 20
8.3942331416
 30
0.0
 10
11.9087804273
 20
8.3949374684
 30
0.0
 10
11.9090328534
 20
8.3954650617
 30
0.0
 10
11.9092429522
 20
8.3959067963
 30
0.0
 10
11.9093905244
 20
8.3962119413
 30
0.0
 10
11.9094740658
 20
8.3963926637
 30
0.0
 10
11.9095389347
 20
8.3965103068
 30
0.0
 10
11.9095953452
 20
8.3966963676
 30
0.0
 10
11.9096735096
 20
8.3969205837
 30
0.0
 10
11.9098089226
 20
8.3973240811
 30
0.0
 10
11.9100030884
 20
8.3978946928
 30
0.0
 10
11.9102357798
 20
8.398581915
 30
0.0
 10
11.9105461424
 20
8.3994973423
 30
0.0
 10
11.9109340588
 20
8.4006419239
 30
0.0
 10
11.9115547457
 20
8.4024730881
 30
0.0
 10
11.9123305973
 20
8.4047621008
 30
0.0
 10
11.9132616224
 20
8.4075088899
 30
0.0
 10
11.9141926457
 20
8.4102556917
 30
0.0
 10
11.9149685018
 20
8.4125446726
 30
0.0
 10
11.9155891795
 20
8.4143759003
 30
0.0
 10
11.9159771195
 20
8.4155203206
 30
0.0
 10
11.9162874338
 20
8.416436079
 30
0.0
 10
11.9165202728
 20
8.4171222893
 30
0.0
 10
11.9167139767
 20
8.4176960672
 30
0.0
 10
11.9168502143
 20
8.4180939123
 30
0.0
 10
11.9169270574
 20
8.418327185
 30
0.0
 10
11.9169875263
 20
8.418485427
 30
0.0
 10
11.9170371527
 20
8.4187075526
 30
0.0
 10
11.9171071031
 20
8.4189814367
 30
0.0
 10
11.9172277544
 20
8.4194711161
 30
0.0
 10
11.9174010346
 20
8.4201652301
 30
0.0
 10
11.9176085765
 20
8.4210004903
 30
0.0
 10
11.9178854367
 20
8.4221133591
 30
0.0
 10
11.9182314648
 20
8.423504723
 30
0.0
 10
11.9187851363
 20
8.4257307496
 30
0.0
 10
11.9194772156
 20
8.4285133383
 30
0.0
 10
11.9203077195
 20
8.4318524117
 30
0.0
 10
11.9211382048
 20
8.4351915288
 30
0.0
 10
11.9218303303
 20
8.437974008
 30
0.0
 10
11.9223839094
 20
8.4402002537
 30
0.0
 10
11.922799425
 20
8.441869222
 30
0.0
 10
11.9231446342
 20
8.4432623062
 30
0.0
 10
11.9233883488
 20
8.4442329962
 30
0.0
 10
11.9235243849
 20
8.4447946539
 30
0.0
 10
11.9236355094
 20
8.4451962409
 30
0.0
 10
11.9237118588
 20
8.4456729644
 30
0.0
 10
11.9238257879
 20
8.4462823874
 30
0.0
 10
11.9240195122
 20
8.4473610885
 30
0.0
 10
11.9242992161
 20
8.448895706
 30
0.0
 10
11.9246335959
 20
8.4507399797
 30
0.0
 10
11.9250798776
 20
8.4531980564
 30
0.0
 10
11.925637577
 20
8.4562709817
 30
0.0
 10
11.9263068864
 20
8.4599583437
 30
0.0
 10
11.9269761599
 20
8.4636457718
 30
0.0
 10
11.9275339492
 20
8.4667185319
 30
0.0
 10
11.9279800512
 20
8.469176939
 30
0.0
 10
11.9283149792
 20
8.4710202054
 30
0.0
 10
11.9285929679
 20
8.4725579741
 30
0.0
 10
11.928789754
 20
8.4736310498
 30
0.0
 10
11.9288987774
 20
8.474249486
 30
0.0
 10
11.9289901956
 20
8.4746985238
 30
0.0
 10
11.929044724
 20
8.4752040939
 30
0.0
 10
11.9291302962
 20
8.4758584683
 30
0.0
 10
11.9292740521
 20
8.4770128111
 30
0.0
 10
11.9294825522
 20
8.4786570688
 30
0.0
 10
11.9297314106
 20
8.480632234
 30
0.0
 10
11.9300636907
 20
8.4832650694
 30
0.0
 10
11.9304788787
 20
8.4865563608
 30
0.0
 10
11.9309771789
 20
8.4905058015
 30
0.0
 10
11.93147544
 20
8.4944552826
 30
0.0
 10
11.9318907257
 20
8.4977464729
 30
0.0
 10
11.9322228104
 20
8.5003795105
 30
0.0
 10
11.9324722645
 20
8.5023540591
 30
0.0
 10
11.9326789009
 20
8.5040002461
 30
0.0
 10
11.9328259839
 20
8.5051511447
 30
0.0
 10
11.9329062252
 20
8.5058110374
 30
0.0
 10
11.932977128
 20
8.5062996571
 30
0.0
 10
11.9330070468
 20
8.5068123581
 30
0.0
 10
11.9330612342
 20
8.5074875595
 30
0.0
 10
11.9331494016
 20
8.5086730757
 30
0.0
 10
11.9332788372
 20
8.5103646242
 30
0.0
 10
11.9334326695
 20
8.5123953581
 30
0.0
 10
11.9336382993
 20
8.5151026976
 30
0.0
 10
11.9338951616
 20
8.5184869763
 30
0.0
 10
11.9342034561
 20
8.5225480681
 30
0.0
 10
11.9345117917
 20
8.5266091636
 30
0.0
 10
11.9347685515
 20
8.529993433
 30
0.0
 10
11.9349743864
 20
8.532700791
 30
0.0
 10
11.935127593
 20
8.5347314682
 30
0.0
 10
11.935258986
 20
8.5364231944
 30
0.0
 10
11.9353557553
 20
8.5377777075
 30
0.0
 10
11.9354511351
 20
8.5387904987
 30
0.0
 10
11.9354594761
 20
8.5398150983
 30
0.0
 10
11.9355010012
 20
8.5411771062
 30
0.0
 10
11.9355424762
 20
8.5428810314
 30
0.0
 10
11.9355967112
 20
8.5449251358
 30
0.0
 10
11.935667465
 20
8.5476508201
 30
0.0
 10
11.9357564411
 20
8.5510578512
 30
0.0
 10
11.9358629891
 20
8.5551463277
 30
0.0
 10
11.9359695761
 20
8.5592347664
 30
0.0
 10
11.9360584549
 20
8.5626418918
 30
0.0
 10
11.9361294033
 20
8.5653673876
 30
0.0
 10
11.9361830448
 20
8.5674120672
 30
0.0
 10
11.9362263765
 20
8.5691141927
 30
0.0
 10
11.9362593964
 20
8.5703091623
 30
0.0
 10
11.9362740683
 20
8.5709865657
 30
0.0
 10
11.9362968943
 20
8.5715099325
 30
0.0
 10
11.9362745302
 20
8.5719747603
 30
0.0
 10
11.9362604743
 20
8.5726149498
 30
0.0
 10
11.9362285322
 20
8.5737257678
 30
0.0
 10
11.9361867402
 20
8.5753176245
 30
0.0
 10
11.9361349464
 20
8.5772257234
 30
0.0
 10
11.9360664622
 20
8.5797705993
 30
0.0
 10
11.9359806586
 20
8.5829514369
 30
0.0
 10
11.9358777848
 20
8.5867685615
 30
0.0
 10
11.9357748665
 20
8.5905856195
 30
0.0
 10
11.9356891742
 20
8.5937666235
 30
0.0
 10
11.9356204674
 20
8.5963111664
 30
0.0
 10
11.9355693524
 20
8.5982202812
 30
0.0
 10
11.9355254367
 20
8.59980896
 30
0.0
 10
11.9354972858
 20
8.6009254509
 30
0.0
 10
11.9354771554
 20
8.6015565509
 30
0.0
 10
11.93547345
 20
8.6020492987
 30
0.0
 10
11.9354261972
 20
8.6024678027
 30
0.0
 10
11.9353783832
 20
8.6030517052
 30
0.0
 10
11.9352876316
 20
8.6040614686
 30
0.0
 10
11.9351616865
 20
8.605510296
 30
0.0
 10
11.9350089685
 20
8.6072461887
 30
0.0
 10
11.9348058979
 20
8.6095616555
 30
0.0
 10
11.9345518696
 20
8.6124556651
 30
0.0
 10
11.9342471175
 20
8.6159286168
 30
0.0
 10
11.9339423417
 20
8.6194015262
 30
0.0
 10
11.933688373
 20
8.6222956413
 30
0.0
 10
11.9334851832
 20
8.6246108972
 30
0.0
 10
11.9333582209
 20
8.6260580105
 30
0.0
 10
11.9332565797
 20
8.6272155222
 30
0.0
 10
11.9331805442
 20
8.6280841457
 30
0.0
 10
11.9331165594
 20
8.628806441
 30
0.0
 10
11.9330729906
 20
8.6293151043
 30
0.0
 10
11.9330461883
 20
8.6296009966
 30
0.0
 10
11.9330314553
 20
8.6298288597
 30
0.0
 10
11.9329962006
 20
8.6300053333
 30
0.0
 10
11.9329563525
 20
8.6302585566
 30
0.0
 10
11.9328832832
 20
8.6306933458
 30
0.0
 10
11.9327806422
 20
8.6313188395
 30
0.0
 10
11.9326567266
 20
8.632067563
 30
0.0
 10
11.9324917666
 20
8.6330665138
 30
0.0
 10
11.9322854772
 20
8.6343149788
 30
0.0
 10
11.9319554641
 20
8.6363126478
 30
0.0
 10
11.9315429305
 20
8.6388096908
 30
0.0
 10
11.9310478981
 20
8.6418061623
 30
0.0
 10
11.9305528618
 20
8.6448026232
 30
0.0
 10
11.9301403379
 20
8.6472996929
 30
0.0
 10
11.9298103054
 20
8.6492973085
 30
0.0
 10
11.9296040654
 20
8.650545909
 30
0.0
 10
11.9294390041
 20
8.6515445817
 30
0.0
 10
11.9293153979
 20
8.652294155
 30
0.0
 10
11.9292117889
 20
8.6529169899
 30
0.0
 10
11.9291404476
 20
8.6533565256
 30
0.0
 10
11.9290978309
 20
8.6536021438
 30
0.0
 10
11.9290710805
 20
8.6538019779
 30
0.0
 10
11.9290244065
 20
8.6539421026
 30
0.0
 10
11.928969124
 20
8.6541497628
 30
0.0
 10
11.9288691417
 20
8.6545034643
 30
0.0
 10
11.9287280028
 20
8.6550138255
 30
0.0
 10
11.9285579114
 20
8.6556240875
 30
0.0
 10
11.9283313761
 20
8.6564385285
 30
0.0
 10
11.9280481202
 20
8.6574563201
 30
0.0
 10
11.9275949592
 20
8.6590849318
 30
0.0
 10
11.9270284913
 20
8.6611206462
 30
0.0
 10
11.9263487373
 20
8.6635635269
 30
0.0
 10
11.92566898
 20
8.6660063943
 30
0.0
 10
11.9251025203
 20
8.668042142
 30
0.0
 10
11.9246493428
 20
8.6696706871
 30
0.0
 10
11.924366129
 20
8.6706886479
 30
0.0
 10
11.9241395073
 20
8.6715027417
 30
0.0
 10
11.9239696797
 20
8.6721140643
 30
0.0
 10
11.9238277153
 20
8.6726211068
 30
0.0
 10
11.9237292066
 20
8.6729807328
 30
0.0
 10
11.9236715632
 20
8.6731789005
 30
0.0
 10
11.9236321413
 20
8.6733481833
 30
0.0
 10
11.9235781529
 20
8.6734385044
 30
0.0
 10
11.9235112492
 20
8.6735864753
 30
0.0
 10
11.9233918006
 20
8.6738325916
 30
0.0
 10
11.9232223973
 20
8.6741908955
 30
0.0
 10
11.9230185836
 20
8.6746179884
 30
0.0
 10
11.9227470171
 20
8.6751884487
 30
0.0
 10
11.9224074955
 20
8.6759011806
 30
0.0
 10
11.9218642964
 20
8.6770417437
 30
0.0
 10
11.9211852854
 20
8.6784673812
 30
0.0
 10
11.9203704777
 20
8.6801781765
 30
0.0
 10
11.9195556674
 20
8.6818889566
 30
0.0
 10
11.9188766628
 20
8.6833146324
 30
0.0
 10
11.9183334508
 20
8.6844551188
 30
0.0
 10
11.9179939621
 20
8.6851680456
 30
0.0
 10
11.9177223281
 20
8.6857381059
 30
0.0
 10
11.9175187203
 20
8.6861664206
 30
0.0
 10
11.9173486729
 20
8.6865209019
 30
0.0
 10
11.9172303741
 20
8.6867738423
 30
0.0
 10
11.9171616281
 20
8.6869108793
 30
0.0
 10
11.9171132989
 20
8.6870347857
 30
0.0
 10
11.9170526219
 20
8.6870779277
 30
0.0
 10
11.9169760262
 20
8.6871636219
 30
0.0
 10
11.9168399772
 20
8.6873004611
 30
0.0
 10
11.9166466705
 20
8.6875028079
 30
0.0
 10
11.9164142534
 20
8.6877426868
 30
0.0
 10
11.9161045207
 20
8.6880635513
 30
0.0
 10
11.9157173012
 20
8.6884642806
 30
0.0
 10
11.9150977801
 20
8.6891056437
 30
0.0
 10
11.9143233684
 20
8.6899072805
 30
0.0
 10
11.9133940786
 20
8.6908692729
 30
0.0
 10
11.9126196697
 20
8.6916709285
 30
0.0
 10
11.9120001424
 20
8.6923122503
 30
0.0
 10
11.911535498
 20
8.6927932525
 30
0.0
 10
11.9110708493
 20
8.6932742124
 30
0.0
 10
11.9106836553
 20
8.6936751443
 30
0.0
 10
11.9103738704
 20
8.6939955943
 30
0.0
 10
11.910141613
 20
8.6942367391
 30
0.0
 10
11.9099478067
 20
8.6944351255
 30
0.0
 10
11.9098126496
 20
8.6945790346
 30
0.0
 10
11.9097346248
 20
8.694653401
 30
0.0
 10
11.9096783377
 20
8.6947313384
 30
0.0
 10
11.9096135206
 20
8.6947245592
 30
0.0
 10
11.9095300732
 20
8.6947450703
 30
0.0
 10
11.909382654
 20
8.6947671969
 30
0.0
 10
11.9091727799
 20
8.6948060044
 30
0.0
 10
11.9089206207
 20
8.6948494924
 30
0.0
 10
11.9085845168
 20
8.6949085526
 30
0.0
 10
11.9081643497
 20
8.6949820085
 30
0.0
 10
11.9076601652
 20
8.6950703139
 30
0.0
 10
11.9071559765
 20
8.695158577
 30
0.0
 10
11.9064837263
 20
8.6952762759
 30
0.0
 10
11.905643413
 20
8.6954233945
 30
0.0
 10
11.9048030999
 20
8.6955705145
 30
0.0
 10
11.9041308494
 20
8.6956882113
 30
0.0
 10
11.9036266614
 20
8.6957764808
 30
0.0
 10
11.9031224742
 20
8.6958647621
 30
0.0
 10
11.9027023155
 20
8.6959382931
 30
0.0
 10
11.9023661946
 20
8.6959972002
 30
0.0
 10
11.9021561053
 20
8.6960338298
 30
0.0
 10
11.9019880653
 20
8.6960635625
 30
0.0
 10
11.901861949
 20
8.6960846873
 30
0.0
 10
11.9017571267
 20
8.6961060282
 30
0.0
 10
11.9016726531
 20
8.6961147199
 30
0.0
 10
11.9016109805
 20
8.6961441394
 30
0.0
 10
11.9015428851
 20
8.6960861465
 30
0.0
 10
11.9014543347
 20
8.696039357
 30
0.0
 10
11.9013428771
 20
8.6959703939
 30
0.0
 10
11.9012094574
 20
8.6958921223
 30
0.0
 10
11.9010314493
 20
8.695786194
 30
0.0
 10
11.9008089787
 20
8.6956543198
 30
0.0
 10
11.9004530037
 20
8.6954430215
 30
0.0
 10
11.9000080424
 20
8.6951790014
 30
0.0
 10
11.8994740857
 20
8.6948621332
 30
0.0
 10
11.8989401298
 20
8.6945452768
 30
0.0
 10
11.8982281884
 20
8.6941227975
 30
0.0
 10
11.8973382617
 20
8.6935946998
 30
0.0
 10
11.8962703496
 20
8.6929609819
 30
0.0
 10
11.8948464668
 20
8.692116025
 30
0.0
 10
11.8937785547
 20
8.6914823072
 30
0.0
 10
11.8930666133
 20
8.6910598287
 30
0.0
  0
SPLINE
  5
496
100
AcDbEntity
  8
0
100
AcDbSpline
 62
4
  6
CONTINUOUS
 70
0
 71
3
 72
293
 73
289
 74
0
 42
0.0000001
 43
0.0000001
 44
0.0000000001
 40
0.0
 40
0.0
 40
0.0
 40
0.0
 40
0.015625
 40
0.0234375
 40
0.03125
 40
0.0390625
 40
0.046875
 40
0.05078125
 40
0.0546875
 40
0.056640625
 40
0.05859375
 40
0.060546875
 40
0.0615234375
 40
0.0620117188
 40
0.0625
 40
0.0629882812
 40
0.0634765625
 40
0.064453125
 40
0.06640625
 40
0.068359375
 40
0.0703125
 40
0.07421875
 40
0.078125
 40
0.0859375
 40
0.09375
 40
0.1015625
 40
0.109375
 40
0.11328125
 40
0.1171875
 40
0.119140625
 40
0.12109375
 40
0.123046875
 40
0.1240234375
 40
0.1245117188
 40
0.125
 40
0.1254882812
 40
0.1259765625
 40
0.126953125
 40
0.12890625
 40
0.130859375
 40
0.1328125
 40
0.13671875
 40
0.140625
 40
0.1484375
 40
0.15625
 40
0.1640625
 40
0.171875
 40
0.17578125
 40
0.1796875
 40
0.181640625
 40
0.18359375
 40
0.185546875
 40
0.1865234375
 40
0.1870117188
 40
0.1875
 40
0.1879882812
 40
0.1884765625
 40
0.189453125
 40
0.19140625
 40
0.193359375
 40
0.1953125
 40
0.19921875
 40
0.203125
 40
0.2109375
 40
0.21875
 40
0.2265625
 40
0.234375
 40
0.23828125
 40
0.2421875
 40
0.24609375
 40
0.248046875
 40
0.2490234375
 40
0.25
 40
0.2509765625
 40
0.251953125
 40
0.25390625
 40
0.2578125
 40
0.26171875
 40
0.265625
 40
0.2734375
 40
0.28125
 40
0.2890625
 40
0.296875
 40
0.30078125
 40
0.3046875
 40
0.30859375
 40
0.310546875
 40
0.3115234375
 40
0.3125
 40
0.3134765625
 40
0.314453125
 40
0.31640625
 40
0.3203125
 40
0.32421875
 40
0.328125
 40
0.3359375
 40
0.34375
 40
0.3515625
 40
0.359375
 40
0.36328125
 40
0.3671875
 40
0.37109375
 40
0.373046875
 40
0.3740234375
 40
0.375
 40
0.3759765625
 40
0.376953125
 40
0.37890625
 40
0.3828125
 40
0.38671875
 40
0.390625
 40
0.3984375
 40
0.40625
 40
0.4140625
 40
0.421875
 40
0.42578125
 40
0.4296875
 40
0.43359375
 40
0.435546875
 40
0.4375
 40
0.439453125
 40
0.44140625
 40
0.4453125
 40
0.44921875
 40
0.453125
 40
0.4609375
 40
0.46875
 40
0.4765625
 40
0.484375
 40
0.48828125
 40
0.4921875
 40
0.49609375
 40
0.498046875
 40
0.4990234375
 40
0.5
 40
0.5009765625
 40
0.501953125
 40
0.50390625
 40
0.5078125
 40
0.51171875
 40
0.515625
 40
0.5234375
 40
0.53125
 40
0.5390625
 40
0.546875
 40
0.55078125
 40
0.5546875
 40
0.55859375
 40
0.560546875
 40
0.5615234375
 40
0.5625
 40
0.5634765625
 40
0.564453125
 40
0.56640625
 40
0.5703125
 40
0.57421875
 40
0.578125
 40
0.5859375
 40
0.59375
 40
0.6015625
 40
0.609375
 40
0.61328125
 40
0.6171875
 40
0.619140625
 40
0.62109375
 40
0.623046875
 40
0.6240234375
 40
0.6245117188
 40
0.625
 40
0.6254882812
 40
0.6259765625
 40
0.626953125
 40
0.62890625
 40
0.630859375
 40
0.6328125
 40
0.63671875
 40
0.640625
 40
0.6484375
 40
0.65625
 40
0.6640625
 40
0.671875
 40
0.67578125
 40
0.6796875
 40
0.681640625
 40
0.68359375
 40
0.685546875
 40
0.6865234375
 40
0.6870117188
 40
0.6875
 40
0.6879882812
 40
0.6884765625
 40
0.689453125
 40
0.69140625
 40
0.693359375
 40
0.6953125
 40
0.69921875
 40
0.703125
 40
0.7109375
 40
0.71875
 40
0.7265625
 40
0.734375
 40
0.73828125
 40
0.7421875
 40
0.744140625
 40
0.74609375
 40
0.748046875
 40
0.7490234375
 40
0.7495117188
 40
0.75
 40
0.7504882812
 40
0.7509765625
 40
0.751953125
 40
0.75390625
 40
0.755859375
 40
0.7578125
 40
0.76171875
 40
0.765625
 40
0.7734375
 40
0.78125
 40
0.7890625
 40
0.796875
 40
0.80078125
 40
0.8046875
 40
0.806640625
 40
0.80859375
 40
0.810546875
 40
0.8115234375
 40
0.8120117188
 40
0.8125
 40
0.8129882812
 40
0.8134765625
 40
0.814453125
 40
0.81640625
 40
0.818359375
 40
0.8203125
 40
0.82421875
 40
0.828125
 40
0.8359375
 40
0.84375
 40
0.8515625
 40
0.85546875
 40
0.859375
 40
0.86328125
 40
0.8671875
 40
0.869140625
 40
0.87109375
 40
0.873046875
 40
0.8740234375
 40
0.8745117188
 40
0.875
 40
0.8754882812
 40
0.8759765625
 40
0.876953125
 40
0.87890625
 40
0.880859375
 40
0.8828125
 40
0.88671875
 40
0.890625
 40
0.89453125
 40
0.8984375
 40
0.90625
 40
0.9140625
 40
0.91796875
 40
0.921875
 40
0.92578125
 40
0.9296875
 40
0.931640625
 40
0.93359375
 40
0.9345703125
 40
0.935546875
 40
0.9365234375
 40
0.9370117188
 40
0.9375
 40
0.9379882812
 40
0.9384765625
 40
0.939453125
 40
0.9404296875
 40
0.94140625
 40
0.943359375
 40
0.9453125
 40
0.94921875
 40
0.953125
 40
0.95703125
 40
0.9609375
 40
0.96875
 40
0.9765625
 40
0.984375
 40
1.0
 40
1.0
 40
1.0
 40
1.0
 10
11.8930666171
 20
8.6910598323
 30
0.0
 10
11.8923670053
 20
8.6901280494
 30
0.0
 10
11.8913175875
 20
8.6887303753
 30
0.0
 10
11.8899183639
 20
8.686866809
 30
0.0
 10
11.8888689461
 20
8.6854691362
 30
0.0
 10
11.8878195287
 20
8.684071456
 30
0.0
 10
11.8869450129
 20
8.6829067455
 30
0.0
 10
11.8862454031
 20
8.6819749256
 30
0.0
 10
11.8858081404
 20
8.6813926554
 30
0.0
 10
11.8854583453
 20
8.6809265709
 30
0.0
 10
11.8851959579
 20
8.680577742
 30
0.0
 10
11.8849774324
 20
8.6802847147
 30
0.0
 10
11.8848242081
 20
8.6800841811
 30
0.0
 10
11.8847370518
 20
8.6799624307
 30
0.0
 10
11.8846705566
 20
8.6798912869
 30
0.0
 10
11.8846083728
 20
8.6797430469
 30
0.0
 10
11.8845239572
 20
8.6795722855
 30
0.0
 10
11.8843769305
 20
8.6792609236
 30
0.0
 10
11.8841665262
 20
8.6788226716
 30
0.0
 10
11.8839141977
 20
8.6782939652
 30
0.0
 10
11.883577705
 20
8.6775900027
 30
0.0
 10
11.8831571079
 20
8.6767097143
 30
0.0
 10
11.882484142
 20
8.6753014402
 30
0.0
 10
11.8816429382
 20
8.673541033
 30
0.0
 10
11.880633492
 20
8.6714285736
 30
0.0
 10
11.879624047
 20
8.6693161003
 30
0.0
 10
11.8787828402
 20
8.667555728
 30
0.0
 10
11.8781098804
 20
8.6661473841
 30
0.0
 10
11.8776892677
 20
8.6652672732
 30
0.0
 10
11.8773528069
 20
8.6645629463
 30
0.0
 10
11.8771003808
 20
8.664035353
 30
0.0
 10
11.876890282
 20
8.6635936184
 30
0.0
 10
11.8767427098
 20
8.6632884734
 30
0.0
 10
11.8766591684
 20
8.6631077511
 30
0.0
 10
11.8765942995
 20
8.662990108
 30
0.0
 10
11.876537889
 20
8.6628040472
 30
0.0
 10
11.8764597246
 20
8.6625798311
 30
0.0
 10
11.8763243116
 20
8.6621763337
 30
0.0
 10
11.8761301458
 20
8.661605722
 30
0.0
 10
11.8758974544
 20
8.6609184998
 30
0.0
 10
11.8755870918
 20
8.6600030725
 30
0.0
 10
11.8751991754
 20
8.6588584909
 30
0.0
 10
11.8745784885
 20
8.6570273267
 30
0.0
 10
11.8738026369
 20
8.654738314
 30
0.0
 10
11.8728716118
 20
8.6519915249
 30
0.0
 10
11.8719405885
 20
8.6492447231
 30
0.0
 10
11.8711647324
 20
8.6469557422
 30
0.0
 10
11.8705440547
 20
8.6451245145
 30
0.0
 10
11.8701561147
 20
8.6439800942
 30
0.0
 10
11.8698458004
 20
8.6430643358
 30
0.0
 10
11.8696129614
 20
8.6423781255
 30
0.0
 10
11.8694192575
 20
8.6418043476
 30
0.0
 10
11.8692830199
 20
8.6414065025
 30
0.0
 10
11.8692061768
 20
8.6411732298
 30
0.0
 10
11.8691457079
 20
8.6410149878
 30
0.0
 10
11.8690960815
 20
8.6407928622
 30
0.0
 10
11.8690261311
 20
8.6405189781
 30
0.0
 10
11.8689054798
 20
8.6400292987
 30
0.0
 10
11.8687321996
 20
8.6393351847
 30
0.0
 10
11.8685246577
 20
8.6384999245
 30
0.0
 10
11.8682477975
 20
8.6373870557
 30
0.0
 10
11.8679017694
 20
8.6359956918
 30
0.0
 10
11.8673480979
 20
8.6337696652
 30
0.0
 10
11.8666560186
 20
8.6309870765
 30
0.0
 10
11.8658255147
 20
8.6276480031
 30
0.0
 10
11.8649950294
 20
8.624308886
 30
0.0
 10
11.8643029039
 20
8.6215264068
 30
0.0
 10
11.8637493248
 20
8.6193001611
 30
0.0
 10
11.8633338092
 20
8.6176311927
 30
0.0
 10
11.8629886
 20
8.6162381086
 30
0.0
 10
11.8627448854
 20
8.6152674186
 30
0.0
 10
11.8626088493
 20
8.6147057608
 30
0.0
 10
11.8624977248
 20
8.6143041739
 30
0.0
 10
11.8624213754
 20
8.6138274503
 30
0.0
 10
11.8623074463
 20
8.6132180274
 30
0.0
 10
11.862113722
 20
8.6121393263
 30
0.0
 10
11.8618340181
 20
8.6106047088
 30
0.0
 10
11.8614996383
 20
8.6087604351
 30
0.0
 10
11.8610533566
 20
8.6063023583
 30
0.0
 10
11.8604956572
 20
8.6032294331
 30
0.0
 10
11.8598263478
 20
8.5995420711
 30
0.0
 10
11.8591570743
 20
8.5958546429
 30
0.0
 10
11.858599285
 20
8.5927818828
 30
0.0
 10
11.8581531831
 20
8.5903234758
 30
0.0
 10
11.857818255
 20
8.5884802094
 30
0.0
 10
11.8575402663
 20
8.5869424407
 30
0.0
 10
11.8573434802
 20
8.5858693649
 30
0.0
 10
11.8572344568
 20
8.5852509288
 30
0.0
 10
11.8571430386
 20
8.584801891
 30
0.0
 10
11.8570885102
 20
8.5842963209
 30
0.0
 10
11.857002938
 20
8.5836419465
 30
0.0
 10
11.8568591821
 20
8.5824876037
 30
0.0
 10
11.856650682
 20
8.580843346
 30
0.0
 10
11.8564018236
 20
8.5788681808
 30
0.0
 10
11.8560695435
 20
8.5762353454
 30
0.0
 10
11.8556543555
 20
8.572944054
 30
0.0
 10
11.8551560553
 20
8.5689946133
 30
0.0
 10
11.8546577942
 20
8.5650451322
 30
0.0
 10
11.8542425085
 20
8.5617539419
 30
0.0
 10
11.8539104238
 20
8.5591209043
 30
0.0
 10
11.8536609697
 20
8.5571463557
 30
0.0
 10
11.8534543333
 20
8.5555001687
 30
0.0
 10
11.8533072503
 20
8.5543492701
 30
0.0
 10
11.853227009
 20
8.5536893774
 30
0.0
 10
11.8531561062
 20
8.5532007577
 30
0.0
 10
11.8531261874
 20
8.5526880567
 30
0.0
 10
11.853072
 20
8.5520128553
 30
0.0
 10
11.8529838326
 20
8.5508273391
 30
0.0
 10
11.852854397
 20
8.5491357906
 30
0.0
 10
11.8527005647
 20
8.5471050566
 30
0.0
 10
11.8524949349
 20
8.5443977172
 30
0.0
 10
11.8522380726
 20
8.5410134385
 30
0.0
 10
11.8519297781
 20
8.5369523467
 30
0.0
 10
11.8516214425
 20
8.5328912512
 30
0.0
 10
11.8513646828
 20
8.5295069818
 30
0.0
 10
11.8511588478
 20
8.5267996237
 30
0.0
 10
11.8510056412
 20
8.5247689466
 30
0.0
 10
11.8508742482
 20
8.5230772204
 30
0.0
 10
11.8507774789
 20
8.5217227073
 30
0.0
 10
11.8506820991
 20
8.5207099161
 30
0.0
 10
11.8506737581
 20
8.5196853165
 30
0.0
 10
11.850632233
 20
8.5183233086
 30
0.0
 10
11.850590758
 20
8.5166193834
 30
0.0
 10
11.850536523
 20
8.514575279
 30
0.0
 10
11.8504657692
 20
8.5118495947
 30
0.0
 10
11.8503767931
 20
8.5084425636
 30
0.0
 10
11.8502702451
 20
8.5043540871
 30
0.0
 10
11.8501636581
 20
8.5002656484
 30
0.0
 10
11.8500747793
 20
8.496858523
 30
0.0
 10
11.8500038309
 20
8.4941330272
 30
0.0
 10
11.8499501894
 20
8.4920883476
 30
0.0
 10
11.8499068577
 20
8.490386222
 30
0.0
 10
11.8498738378
 20
8.4891912525
 30
0.0
 10
11.8498591659
 20
8.4885138491
 30
0.0
 10
11.8498363399
 20
8.4879904822
 30
0.0
 10
11.849858704
 20
8.4875256544
 30
0.0
 10
11.8498727599
 20
8.486885465
 30
0.0
 10
11.849904702
 20
8.485774647
 30
0.0
 10
11.849946494
 20
8.4841827903
 30
0.0
 10
11.8499982878
 20
8.4822746914
 30
0.0
 10
11.850066772
 20
8.4797298154
 30
0.0
 10
11.8501525756
 20
8.4765489779
 30
0.0
 10
11.8502554494
 20
8.4727318533
 30
0.0
 10
11.8503583677
 20
8.4689147953
 30
0.0
 10
11.85044406
 20
8.4657337913
 30
0.0
 10
11.8505127668
 20
8.4631892484
 30
0.0
 10
11.8505638818
 20
8.4612801336
 30
0.0
 10
11.8506077975
 20
8.4596914548
 30
0.0
 10
11.8506359484
 20
8.4585749639
 30
0.0
 10
11.8506560788
 20
8.4579438639
 30
0.0
 10
11.8506597842
 20
8.4574511161
 30
0.0
 10
11.850707037
 20
8.457032612
 30
0.0
 10
11.850754851
 20
8.4564487096
 30
0.0
 10
11.8508456026
 20
8.4554389462
 30
0.0
 10
11.8509715477
 20
8.4539901188
 30
0.0
 10
11.8511242657
 20
8.4522542261
 30
0.0
 10
11.8513273363
 20
8.4499387592
 30
0.0
 10
11.8515813646
 20
8.4470447496
 30
0.0
 10
11.8518861167
 20
8.443571798
 30
0.0
 10
11.8521908925
 20
8.4400988885
 30
0.0
 10
11.8524448612
 20
8.4372047735
 30
0.0
 10
11.852648051
 20
8.4348895175
 30
0.0
 10
11.8527750133
 20
8.4334424043
 30
0.0
 10
11.8528766545
 20
8.4322848925
 30
0.0
 10
11.85295269
 20
8.4314162691
 30
0.0
 10
11.8530166748
 20
8.4306939738
 30
0.0
 10
11.8530602436
 20
8.4301853105
 30
0.0
 10
11.8530870459
 20
8.4298994182
 30
0.0
 10
11.8531017789
 20
8.4296715551
 30
0.0
 10
11.8531370336
 20
8.4294950815
 30
0.0
 10
11.8531768817
 20
8.4292418581
 30
0.0
 10
11.853249951
 20
8.428807069
 30
0.0
 10
11.853352592
 20
8.4281815753
 30
0.0
 10
11.8534765076
 20
8.4274328518
 30
0.0
 10
11.8536414676
 20
8.4264339009
 30
0.0
 10
11.853847757
 20
8.425185436
 30
0.0
 10
11.8541777701
 20
8.423187767
 30
0.0
 10
11.8545903037
 20
8.420690724
 30
0.0
 10
11.8550853361
 20
8.4176942524
 30
0.0
 10
11.8555803724
 20
8.4146977916
 30
0.0
 10
11.8559928963
 20
8.4122007219
 30
0.0
 10
11.8563229288
 20
8.4102031063
 30
0.0
 10
11.8565291688
 20
8.4089545057
 30
0.0
 10
11.8566942301
 20
8.4079558331
 30
0.0
 10
11.8568178363
 20
8.4072062598
 30
0.0
 10
11.8569214453
 20
8.4065834249
 30
0.0
 10
11.8569927866
 20
8.4061438892
 30
0.0
 10
11.8570354033
 20
8.405898271
 30
0.0
 10
11.8570621537
 20
8.4056984369
 30
0.0
 10
11.8571088277
 20
8.4055583122
 30
0.0
 10
11.8571641102
 20
8.405350652
 30
0.0
 10
11.8572640925
 20
8.4049969504
 30
0.0
 10
11.8574052314
 20
8.4044865892
 30
0.0
 10
11.8575753228
 20
8.4038763273
 30
0.0
 10
11.8578018582
 20
8.4030618863
 30
0.0
 10
11.858085114
 20
8.4020440947
 30
0.0
 10
11.858538275
 20
8.400415483
 30
0.0
 10
11.8591047429
 20
8.3983797686
 30
0.0
 10
11.8597844969
 20
8.3959368879
 30
0.0
 10
11.8604642542
 20
8.3934940205
 30
0.0
 10
11.8610307139
 20
8.3914582728
 30
0.0
 10
11.8614838914
 20
8.3898297277
 30
0.0
 10
11.8617671052
 20
8.3888117669
 30
0.0
 10
11.8619937269
 20
8.3879976731
 30
0.0
 10
11.8621635545
 20
8.3873863505
 30
0.0
 10
11.8623055189
 20
8.386879308
 30
0.0
 10
11.8624040276
 20
8.3865196819
 30
0.0
 10
11.862461671
 20
8.3863215143
 30
0.0
 10
11.8625010929
 20
8.3861522315
 30
0.0
 10
11.8625550813
 20
8.3860619104
 30
0.0
 10
11.862621985
 20
8.3859139395
 30
0.0
 10
11.8627414336
 20
8.3856678232
 30
0.0
 10
11.8629108369
 20
8.3853095193
 30
0.0
 10
11.8631146506
 20
8.3848824263
 30
0.0
 10
11.8633862171
 20
8.3843119661
 30
0.0
 10
11.8637257387
 20
8.3835992342
 30
0.0
 10
11.8642689378
 20
8.3824586711
 30
0.0
 10
11.8649479488
 20
8.3810330336
 30
0.0
 10
11.8657627565
 20
8.3793222382
 30
0.0
 10
11.8665775668
 20
8.3776114582
 30
0.0
 10
11.8672565714
 20
8.3761857824
 30
0.0
 10
11.8677997834
 20
8.375045296
 30
0.0
 10
11.8681392721
 20
8.3743323692
 30
0.0
 10
11.8684109061
 20
8.3737623089
 30
0.0
 10
11.8686145139
 20
8.3733339941
 30
0.0
 10
11.8687845613
 20
8.3729795129
 30
0.0
 10
11.8689028601
 20
8.3727265725
 30
0.0
 10
11.8689716061
 20
8.3725895355
 30
0.0
 10
11.8690199353
 20
8.3724656291
 30
0.0
 10
11.8690806123
 20
8.3724224871
 30
0.0
 10
11.869157208
 20
8.3723367929
 30
0.0
 10
11.869293257
 20
8.3721999537
 30
0.0
 10
11.8694865637
 20
8.3719976069
 30
0.0
 10
11.8697189809
 20
8.371757728
 30
0.0
 10
11.8700287135
 20
8.3714368635
 30
0.0
 10
11.870415933
 20
8.3710361342
 30
0.0
 10
11.8710354541
 20
8.370394771
 30
0.0
 10
11.8718098658
 20
8.3695931343
 30
0.0
 10
11.8727391556
 20
8.3686311419
 30
0.0
 10
11.8735135645
 20
8.3678294863
 30
0.0
 10
11.8741330918
 20
8.3671881645
 30
0.0
 10
11.8745977362
 20
8.3667071623
 30
0.0
 10
11.8750623849
 20
8.3662262023
 30
0.0
 10
11.8754495789
 20
8.3658252705
 30
0.0
 10
11.8757593638
 20
8.3655048204
 30
0.0
 10
11.8759916212
 20
8.3652636757
 30
0.0
 10
11.8761854275
 20
8.3650652893
 30
0.0
 10
11.8763205846
 20
8.3649213802
 30
0.0
 10
11.8763986094
 20
8.3648470138
 30
0.0
 10
11.8764548965
 20
8.3647690764
 30
0.0
 10
11.8765197136
 20
8.3647758556
 30
0.0
 10
11.876603161
 20
8.3647553444
 30
0.0
 10
11.8767505802
 20
8.3647332178
 30
0.0
 10
11.8769604543
 20
8.3646944104
 30
0.0
 10
11.8772126135
 20
8.3646509224
 30
0.0
 10
11.8775487174
 20
8.3645918622
 30
0.0
 10
11.8779688845
 20
8.3645184063
 30
0.0
 10
11.878473069
 20
8.3644301009
 30
0.0
 10
11.8789772577
 20
8.3643418378
 30
0.0
 10
11.8796495079
 20
8.3642241389
 30
0.0
 10
11.8804898212
 20
8.3640770202
 30
0.0
 10
11.8813301343
 20
8.3639299003
 30
0.0
 10
11.8820023848
 20
8.3638122035
 30
0.0
 10
11.8825065728
 20
8.363723934
 30
0.0
 10
11.88301076
 20
8.3636356527
 30
0.0
 10
11.8834309187
 20
8.3635621217
 30
0.0
 10
11.8837670396
 20
8.3635032146
 30
0.0
 10
11.8839771289
 20
8.363466585
 30
0.0
 10
11.8841451689
 20
8.3634368523
 30
0.0
 10
11.8842712852
 20
8.3634157274
 30
0.0
 10
11.8843761075
 20
8.3633943866
 30
0.0
 10
11.8844605811
 20
8.3633856949
 30
0.0
 10
11.8845222537
 20
8.3633562754
 30
0.0
 10
11.8845903491
 20
8.3634142682
 30
0.0
 10
11.8846788995
 20
8.3634610578
 30
0.0
 10
11.8847903571
 20
8.3635300209
 30
0.0
 10
11.8849237768
 20
8.3636082925
 30
0.0
 10
11.8851017849
 20
8.3637142208
 30
0.0
 10
11.8853242555
 20
8.3638460949
 30
0.0
 10
11.8856802305
 20
8.3640573933
 30
0.0
 10
11.8861251918
 20
8.3643214134
 30
0.0
 10
11.8866591485
 20
8.3646382816
 30
0.0
 10
11.8871931044
 20
8.364955138
 30
0.0
 10
11.8879050458
 20
8.3653776173
 30
0.0
 10
11.8887949725
 20
8.365905715
 30
0.0
 10
11.8898628846
 20
8.3665394329
 30
0.0
 10
11.8912867674
 20
8.3673843898
 30
0.0
 10
11.8923546795
 20
8.3680181076
 30
0.0
 10
11.8930666209
 20
8.3684405861
 30
0.0
  0
ELLIPSE
  5
497
100
AcDbEntity
  8
0
100
AcDbEllipse
 62
7
  6
CONTINUOUS
 10
10.3723832154
 20
8.2149258612
 30
0.0
 11
0.1198361654
 21
-0.0537191407
 31
0.0
 40
0.9054325776
 41
0.0
 42
6.2831853072
  0
ENDSEC
  0
SECTION
  2
OBJECTS
  0
DICTIONARY
  5
C
100
AcDbDictionary
280
0
281
1
  3
ACAD_GROUP
350
D
  3
ACAD_MLINESTYLE
350
17
  3
ACAD_LAYOUT
350
1A
  3
ACAD_PLOTSETTINGS
350
19
  3
ACAD_PLOTSTYLENAME
350
E
  3
ACAD_IMAGE_DICT
350
       499
  3
ACAD_IMAGE_VARS
350
       49A
  3
ACAD_TABLESTYLE
350
       49B
  0
IMAGEDEF_REACTOR
  5
498
100
AcDbRasterImageDefReactor
 90
2
330
267
  0
DICTIONARY
  5
D
102
{ACAD_REACTORS
330
C
102
}
100
AcDbDictionary
280
0
281
1
  0
ACDBDICTIONARYWDFLT
  5
E
102
{ACAD_REACTORS
330
C
102
}
100
AcDbDictionary
281
1
  3
Normal
350
F
100
AcDbDictionaryWithDefault
340
F
  0
DICTIONARY
  5
499
330
C
100
AcDbDictionary
281
1
  3
EB5_assy_2_img_1
350
       49E
  0
RASTERVARIABLES
  5
49A
330
C
100
AcDbRasterVariables
 90
0
 70
0
 71
1
 72
5
  0
DICTIONARY
  5
17
102
{ACAD_REACTORS
330
C
102
}
100
AcDbDictionary
280
0
281
1
  3
Standard
350
18
  0
DICTIONARY
  5
49B
330
C
100
AcDbDictionary
281
1
  3
Standard
350
       49F
  3
Standard1
350
       4A0
  0
DICTIONARY
  5
19
102
{ACAD_REACTORS
330
C
102
}
100
AcDbDictionary
281
1
  0
DICTIONARY
  5
1A
102
{ACAD_REACTORS
330
C
102
}
100
AcDbDictionary
281
1
  3
Model
350
49C
  3
Layout1
350
49D
  0
ACDBPLACEHOLDER
  5
F
102
{ACAD_REACTORS
330
E
102
}
  0
MLINESTYLE
  5
18
102
{ACAD_REACTORS
330
17
102
}
100
AcDbMlineStyle
  2
STANDARD
 70
0
  3

 62
256
 51
90.0
 52
90.0
 71
2
 49
0.5
 62
256
  6
BYLAYER
 49
-0.5
 62
256
  6
BYLAYER
  0
LAYOUT
  5
49C
102
{ACAD_REACTORS
330
1A
102
}
100
AcDbPlotSettings
  1

  2
none_device
  4
ANSI_C_(22.00_x_17.00_Inches)
  6

 40
0.0
 41
0.0
 42
0.0
 43
0.0
 44
558.8
 45
431.8
 46
0.0
 47
0.0
 48
0.0
 49
0.0
140
0.0
141
0.0
142
1.0
143
1.0
 70
1024
 72
0
 73
0
 74
0
  7

 75
0
147
1.0
148
0.0
149
0.0
100
AcDbLayout
  1
Model
 70
0
 71
0
 10
0.0
 20
0.0
 11
22.0
 21
17.0
 12
0.0
 22
0.0
 32
0.0
 14
0.0
 24
0.0
 34
0.0
 15
0.0
 25
0.0
 35
0.0
146
0.0
 13
0.0
 23
0.0
 33
0.0
 16
1.0
 26
0.0
 36
0.0
 17
0.0
 27
1.0
 37
0.0
 76
0
330
204
345
0
346
0
  0
LAYOUT
  5
49D
102
{ACAD_REACTORS
330
1A
102
}
100
AcDbPlotSettings
  1

  2
none_device
  4
ANSI_C_(22.00_x_17.00_Inches)
  6

 40
0.0
 41
0.0
 42
0.0
 43
0.0
 44
558.8
 45
431.8
 46
0.0
 47
0.0
 48
0.0
 49
0.0
140
0.0
141
0.0
142
1.0
143
1.0
 70
0
 72
0
 73
0
 74
0
  7

 75
0
147
1.0
148
0.0
149
0.0
100
AcDbLayout
  1
Layout1
 70
0
 71
1
 10
0.0
 20
0.0
 11
22.0
 21
17.0
 12
0.0
 22
0.0
 32
0.0
 14
0.0
 24
0.0
 34
0.0
 15
0.0
 25
0.0
 35
0.0
146
0.0
 13
0.0
 23
0.0
 33
0.0
 16
1.0
 26
0.0
 36
0.0
 17
0.0
 27
1.0
 37
0.0
 76
0
330
205
345
0
346
0
  0
IMAGEDEF
  5
49E
102
{ACAD_REACTORS
330
499
330
498
102
}
100
AcDbRasterImageDef
 90
0
  1
EB5_assy_2_img_1.png
 10
369.0
 20
92.0
 11
0.0066666667
 21
0.0066666667
280
1
281
0
  0
TABLESTYLE
  5
49F
102
{ACAD_REACTORS
330
49B
330
26A
102
}
330
49B
100
AcDbTableStyle
  3
Standard
 70
0
 71
0
 40
0.06
 41
0.06
280
1
281
1
  7
Standard
140
0.18
170
1
 62
0
 63
7
283
0
  7
Standard
140
0.18
170
1
 62
0
 63
7
283
0
  7
Standard
140
0.18
170
1
 62
0
 63
7
283
0
  0
TABLESTYLE
  5
4A0
102
{ACAD_REACTORS
330
49B
330
269
102
}
330
49B
100
AcDbTableStyle
  3
Standard1
 70
1
 71
0
 40
0.06
 41
0.06
280
1
281
1
  7
Standard
140
0.18
170
1
 62
0
 63
7
283
0
  7
Standard
140
0.18
170
1
 62
0
 63
7
283
0
  7
Standard
140
0.18
170
1
 62
0
 63
7
283
0
  0
ENDSEC
  0
EOF
