999
DXF file: EB4_assy_2.dxf
999
Pro/ENGINEER 2014200 by Parametric Technology Corporation
  0
SECTION
  2
HEADER
  9
$ACADVER
  1
AC1021
  9
$DWGCODEPAGE
  3
ANSI_1252
  9
$EXTMAX
 10
22.0
 20
17.0
 30
0.0
  9
$EXTMIN
 10
0.0
 20
0.0
 30
0.0
  9
$LIMMIN
 10
0.0
 20
0.0
  9
$LIMMAX
 10
22.0
 20
17.0
  9
$VIEWCTR
 10
11.0
 20
8.5
  9
$VIEWSIZE
 40
17.0
  9
$CLAYER
  8
0
  9
$LTSCALE
 40
1.21
  9
$CELTYPE
  6
BYLAYER
  9
$DIMSCALE
 40
1.0
  9
$DIMASZ
 40
0.1875
  9
$DIMEXO
 40
0.0625
  9
$DIMDLI
 40
0.836
  9
$DIMEXE
 40
0.125
  9
$DIMCEN
 40
0.198
  9
$DIMLFAC
 40
1.0
  9
$DIMBLK
  1
_FILLED
  9
$DIMTXT
 40
0.1
  9
$DIMTOL
 70
0
  9
$DIMLIM
 70
0
  9
$DIMTFAC
 40
1.0
  9
$DIMGAP
 40
0.09
  9
$DIMDSEP
 70
46
  9
$AUNITS
 70
0
  9
$PDMODE
 70
3
  9
$PDSIZE
 40
0.3125
  9
$HANDSEED
  5
359
  9
$TILEMODE
 70
1
  9
$MEASUREMENT
 70
0
  9
$INSUNITS
 70
1
  0
ENDSEC
  0
SECTION
  2
CLASSES
  0
CLASS
  1
ACDBDICTIONARYWDFLT
  2
AcDbDictionaryWithDefault
  3
AutoCAD 2000
 90
0
 91
1
280
0
281
0
  0
CLASS
  1
ACDBPLACEHOLDER
  2
AcDbPlaceHolder
  3
AutoCAD 2000
 90
0
 91
1
280
0
281
0
  0
CLASS
  1
LAYOUT
  2
AcDbLayout
  3
AutoCAD 2000
 90
0
 91
0
280
0
281
0
  0
CLASS
  1
RASTERVARIABLES
  2
AcDbRasterVariables
  3
ISM
 90
0
 91
1
280
0
281
0
  0
CLASS
  1
IMAGEDEF
  2
AcDbRasterImageDef
  3
ISM
 90
0
 91
1
280
0
281
0
  0
CLASS
  1
IMAGEDEF_REACTOR
  2
AcDbRasterImageDefReactor
  3
ISM
 90
0
 91
1
280
0
281
0
  0
CLASS
  1
IMAGE
  2
AcDbRasterImage
  3
ISM
 90
127
 91
1
280
0
281
1
  0
CLASS
  1
TABLESTYLE
  2
AcDbTableStyle
  3
ObjectDBX Classes
 90
2047
 91
1
280
0
281
0
  0
CLASS
  1
ACAD_TABLE
  2
AcDbTable
  3
ObjectDBX Classes
 90
1025
 91
2
280
0
281
1
  0
ENDSEC
  0
SECTION
  2
TABLES
  0
TABLE
  2
VPORT
  5
8
100
AcDbSymbolTable
 70
2
  0
VPORT
  5
1F4
100
AcDbSymbolTableRecord
100
AcDbViewportTableRecord
  2
*ACTIVE
 70
0
 10
0.0
 20
0.0
 11
1.0
 21
1.0
 12
11.0
 22
8.5
 13
0.0
 23
0.0
 14
1.0
 24
1.0
 15
0.0
 25
0.0
 16
0.0
 26
0.0
 36
1.0
 17
0.0
 27
0.0
 37
0.0
 40
17.0
 41
1.2941176471
 42
50.0
 43
0.0
 44
0.0
 50
0.0
 51
0.0
 71
0
 72
100
 73
1
 74
1
 75
0
 76
0
 77
0
 78
0
  0
ENDTAB
  0
TABLE
  2
LTYPE
  5
5
100
AcDbSymbolTable
 70
6
  0
LTYPE
  5
14
100
AcDbSymbolTableRecord
100
AcDbLinetypeTableRecord
  2
BYBLOCK
 70
0
  3

 72
65
 73
0
 40
0.0
  0
LTYPE
  5
15
100
AcDbSymbolTableRecord
100
AcDbLinetypeTableRecord
  2
BYLAYER
 70
0
  3

 72
65
 73
0
 40
0.0
  0
LTYPE
  5
16
100
AcDbSymbolTableRecord
100
AcDbLinetypeTableRecord
  2
CONTINUOUS
 70
64
  3
Solid line
 72
65
 73
0
 40
0.0
  0
LTYPE
  5
1F5
100
AcDbSymbolTableRecord
100
AcDbLinetypeTableRecord
  2
CENTER
 70
64
  3
____ _ ____ _ ____ _ ____ _ ____ _ ____ _ ____
 72
65
 73
4
 40
0.6
 49
0.375
 74
0
 49
-0.075
 74
0
 49
0.075
 74
0
 49
-0.075
 74
0
  0
LTYPE
  5
1F6
100
AcDbSymbolTableRecord
100
AcDbLinetypeTableRecord
  2
HIDDEN
 70
64
  3
- - - - - - - - - - - - - - - - - - - -
 72
65
 73
2
 40
0.2
 49
0.1
 74
0
 49
-0.1
 74
0
  0
LTYPE
  5
1F7
100
AcDbSymbolTableRecord
100
AcDbLinetypeTableRecord
  2
PHANTOM
 70
64
  3
_____ _ _ _____ _ _ _____ _ _ _____
 72
65
 73
6
 40
0.8
 49
0.45
 74
0
 49
-0.05
 74
0
 49
0.1
 74
0
 49
-0.05
 74
0
 49
0.1
 74
0
 49
-0.05
 74
0
  0
LTYPE
  5
1F8
100
AcDbSymbolTableRecord
100
AcDbLinetypeTableRecord
  2
DOT
 70
64
  3
. . . . . . . . . . . . . . . . . . . .
 72
65
 73
2
 40
0.2
 49
0.1
 74
0
 49
-0.1
 74
0
  0
LTYPE
  5
1F9
100
AcDbSymbolTableRecord
100
AcDbLinetypeTableRecord
  2
DASHED
 70
64
  3
- - - - - - - - - - - - - - - - - - - -
 72
65
 73
2
 40
0.2
 49
0.1
 74
0
 49
-0.1
 74
0
  0
ENDTAB
  0
TABLE
  2
LAYER
  5
2
100
AcDbSymbolTable
 70
36
  0
LAYER
  5
10
100
AcDbSymbolTableRecord
100
AcDbLayerTableRecord
  2
0
 70
0
 62
7
  6
CONTINUOUS
370
-3
390
F
  0
LAYER
  5
1FA
100
AcDbSymbolTableRecord
100
AcDbLayerTableRecord
  2
DEFAULT_1
 70
0
 62
7
  6
CENTER
370
-3
390
F
  0
LAYER
  5
1FB
100
AcDbSymbolTableRecord
100
AcDbLayerTableRecord
  2
DEFAULT_2
 70
0
 62
8
  6
HIDDEN
370
-3
390
F
  0
LAYER
  5
1FC
100
AcDbSymbolTableRecord
100
AcDbLayerTableRecord
  2
DEFAULT_3
 70
0
 62
7
  6
PHANTOM
370
-3
390
F
  0
LAYER
  5
1FD
100
AcDbSymbolTableRecord
100
AcDbLayerTableRecord
  2
01___PRT_ALL_DTM_PLN
 70
0
 62
7
  6
CONTINUOUS
370
-3
390
F
  0
LAYER
  5
1FE
100
AcDbSymbolTableRecord
100
AcDbLayerTableRecord
  2
01___PRT_DEF_DTM_PLN
 70
0
 62
7
  6
CONTINUOUS
370
-3
390
F
  0
LAYER
  5
1FF
100
AcDbSymbolTableRecord
100
AcDbLayerTableRecord
  2
02___PRT_ALL_AXES
 70
0
 62
7
  6
CONTINUOUS
370
-3
390
F
  0
LAYER
  5
200
100
AcDbSymbolTableRecord
100
AcDbLayerTableRecord
  2
03___PRT_ALL_CURVES
 70
0
 62
7
  6
CONTINUOUS
370
-3
390
F
  0
LAYER
  5
201
100
AcDbSymbolTableRecord
100
AcDbLayerTableRecord
  2
04___PRT_ALL_DTM_PNT
 70
0
 62
7
  6
CONTINUOUS
370
-3
390
F
  0
LAYER
  5
202
100
AcDbSymbolTableRecord
100
AcDbLayerTableRecord
  2
05___PRT_ALL_DTM_CSYS
 70
0
 62
7
  6
CONTINUOUS
370
-3
390
F
  0
LAYER
  5
203
100
AcDbSymbolTableRecord
100
AcDbLayerTableRecord
  2
05___PRT_DEF_DTM_CSYS
 70
0
 62
7
  6
CONTINUOUS
370
-3
390
F
  0
LAYER
  5
204
100
AcDbSymbolTableRecord
100
AcDbLayerTableRecord
  2
06___PRT_ALL_SURFS
 70
0
 62
7
  6
CONTINUOUS
370
-3
390
F
  0
LAYER
  5
205
100
AcDbSymbolTableRecord
100
AcDbLayerTableRecord
  2
DATUM_PLANES
 70
0
 62
7
  6
CONTINUOUS
370
-3
390
F
  0
LAYER
  5
206
100
AcDbSymbolTableRecord
100
AcDbLayerTableRecord
  2
PORT_AREAS
 70
0
 62
7
  6
CONTINUOUS
370
-3
390
F
  0
LAYER
  5
207
100
AcDbSymbolTableRecord
100
AcDbLayerTableRecord
  2
SUNNBOMCOSMETIC
 70
0
 62
7
  6
CONTINUOUS
370
-3
390
F
  0
LAYER
  5
208
100
AcDbSymbolTableRecord
100
AcDbLayerTableRecord
  2
SUNNBOMSTAMPING
 70
0
 62
7
  6
CONTINUOUS
370
-3
390
F
  0
LAYER
  5
209
100
AcDbSymbolTableRecord
100
AcDbLayerTableRecord
  2
THREADS
 70
0
 62
7
  6
CONTINUOUS
370
-3
390
F
  0
ENDTAB
  0
TABLE
  2
STYLE
  5
3
100
AcDbSymbolTable
 70
1
  0
STYLE
  5
11
100
AcDbSymbolTableRecord
100
AcDbTextStyleTableRecord
  2
STANDARD
 70
0
 40
0.0
 41
0.8
 50
0.0
 71
0
 42
0.2
  3
txt
  4

  0
STYLE
  5
20A
100
AcDbSymbolTableRecord
100
AcDbTextStyleTableRecord
  2
TEXTSTYLE_1
 70
0
 40
0.0
 41
0.8
 50
0.0
 71
0
 42
0.2
  3
gdt
  4

  0
ENDTAB
  0
TABLE
  2
VIEW
  5
6
100
AcDbSymbolTable
 70
0
  0
ENDTAB
  0
TABLE
  2
UCS
  5
7
100
AcDbSymbolTable
 70
0
  0
ENDTAB
  0
TABLE
  2
APPID
  5
9
100
AcDbSymbolTable
 70
1
  0
APPID
  5
20B
100
AcDbSymbolTableRecord
100
AcDbRegAppTableRecord
  2
ACAD
 70
0
  0
ENDTAB
  0
TABLE
  2
BLOCK_RECORD
  5
1
100
AcDbSymbolTable
 70
0
  0
BLOCK_RECORD
  5
20C
100
AcDbSymbolTableRecord
100
AcDbBlockTableRecord
  2
*Model_Space
  0
BLOCK_RECORD
  5
20D
100
AcDbSymbolTableRecord
100
AcDbBlockTableRecord
  2
*Paper_Space
  0
BLOCK_RECORD
  5
20E
100
AcDbSymbolTableRecord
100
AcDbBlockTableRecord
  2
SUN_FIRST_THIRD_ANGLE_BL0
  0
BLOCK_RECORD
  5
20F
100
AcDbSymbolTableRecord
100
AcDbBlockTableRecord
  2
*T1
  0
BLOCK_RECORD
  5
210
100
AcDbSymbolTableRecord
100
AcDbBlockTableRecord
  2
*T2
  0
ENDTAB
  0
TABLE
  2
DIMSTYLE
  5
A
100
AcDbSymbolTable
 70
1
100
AcDbDimStyleTable
 71
0
  0
DIMSTYLE
105
211
100
AcDbSymbolTableRecord
100
AcDbDimStyleTableRecord
  2
STANDARD
 70
0
  3

  4

 40
1.0
 41
0.1875
 42
0.0625
 43
0.38
 44
0.125
 45
0.0
 46
0.0
 47
0.001
 48
0.001
140
0.1
141
0.09
142
0.0
143
25.4
144
1.0
145
0.0
146
1.0
147
0.09
 71
0.0
 72
0.0
 73
1
 74
1
 75
0
 76
0
 77
0
 78
4
170
0
171
2
172
0
173
0
174
0
175
0
176
0
177
0
178
0
270
2
271
3
272
3
273
2
274
2
275
0
280
0
281
0
282
0
283
1
284
4
285
0
286
0
287
3
288
0
340
11
278
46
  0
ENDTAB
  0
ENDSEC
  0
SECTION
  2
BLOCKS
  0
BLOCK
  5
20
100
AcDbEntity
  8
0
100
AcDbBlockBegin
  2
*Model_Space
 70
0
 10
0.0
 20
0.0
 30
0.0
  3
*Model_Space
  1

  0
ENDBLK
  5
21
100
AcDbEntity
  8
0
100
AcDbBlockEnd
  0
BLOCK
  5
1C
100
AcDbEntity
  8
0
100
AcDbBlockBegin
  2
*Paper_Space
 70
0
 10
0.0
 20
0.0
 30
0.0
  3
*Paper_Space
  1

  0
ENDBLK
  5
1D
100
AcDbEntity
  8
0
100
AcDbBlockEnd
  0
BLOCK
  5
212
100
AcDbEntity
  8
0
100
AcDbBlockBegin
 62
2
  6
CONTINUOUS
  2
SUN_FIRST_THIRD_ANGLE_BL0
 70
64
 10
20.4816717061
 20
1.2289683772
  3
SUN_FIRST_THIRD_ANGLE_BL0
  1

  0
TEXT
  5
213
100
AcDbEntity
  8
0
100
AcDbText
 62
2
  6
CONTINUOUS
 10
19.4750896608
 20
1.4136269581
  7
STANDARD
 40
0.08
  1
FIRST ANGLE
 41
0.8
 72
0
100
AcDbText
  0
TEXT
  5
214
100
AcDbEntity
  8
0
100
AcDbText
 62
2
  6
CONTINUOUS
 10
20.7842537513
 20
1.4047600029
  7
STANDARD
 40
0.08
  1
THIRD ANGLE
 41
0.8
 72
0
100
AcDbText
  0
LINE
  5
215
100
AcDbEntity
  8
0
100
AcDbLine
 62
7
  6
CONTINUOUS
 10
19.4767170086
 20
1.1727031207
 11
19.6334271527
 21
1.1717972817
  0
LINE
  5
216
100
AcDbEntity
  8
0
100
AcDbLine
 62
7
  6
CONTINUOUS
 10
19.6596964832
 20
1.1717972817
 11
19.6950230232
 21
1.171593082
  0
LINE
  5
217
100
AcDbEntity
  8
0
100
AcDbLine
 62
7
  6
CONTINUOUS
 10
19.7194818561
 20
1.1708914427
 11
19.8852396156
 21
1.1699333054
  0
LINE
  5
218
100
AcDbEntity
  8
0
100
AcDbLine
 62
7
  6
CONTINUOUS
 10
19.4758111696
 20
1.2723454088
 11
19.88525039
 21
1.3511534004
  0
LINE
  5
219
100
AcDbEntity
  8
0
100
AcDbLine
 62
7
  6
CONTINUOUS
 10
19.88525039
 20
1.3511534004
 11
19.8831348489
 21
0.9851647912
  0
LINE
  5
21A
100
AcDbEntity
  8
0
100
AcDbLine
 62
7
  6
CONTINUOUS
 10
19.8831348489
 20
0.9851647912
 11
19.4767170086
 21
1.0658141206
  0
LINE
  5
21B
100
AcDbEntity
  8
0
100
AcDbLine
 62
7
  6
CONTINUOUS
 10
19.4767170086
 20
1.0658141206
 11
19.4779056764
 21
1.2714536432
  0
CIRCLE
  5
21C
100
AcDbEntity
  8
0
100
AcDbCircle
 62
7
  6
CONTINUOUS
 10
20.2068232291
 20
1.1717972817
 40
0.175742101
  0
CIRCLE
  5
21D
100
AcDbEntity
  8
0
100
AcDbCircle
 62
7
  6
CONTINUOUS
 10
20.2068232291
 20
1.1717972817
 40
0.1005522074
  0
LINE
  5
21E
100
AcDbEntity
  8
0
100
AcDbLine
 62
7
  6
CONTINUOUS
 10
20.2077290681
 20
1.3756110529
 11
20.2071171714
 21
1.2379342989
  0
LINE
  5
21F
100
AcDbEntity
  8
0
100
AcDbLine
 62
7
  6
CONTINUOUS
 10
20.2077290681
 20
1.2016899681
 11
20.2074674401
 21
1.1428236749
  0
LINE
  5
220
100
AcDbEntity
  8
0
100
AcDbLine
 62
7
  6
CONTINUOUS
 10
20.208634907
 20
1.101141841
 11
20.2080230104
 21
0.963465087
  0
LINE
  5
221
100
AcDbEntity
  8
0
100
AcDbLine
 62
7
  6
CONTINUOUS
 10
20.0066328138
 20
1.1745147986
 11
20.1443095678
 21
1.1739029019
  0
LINE
  5
222
100
AcDbEntity
  8
0
100
AcDbLine
 62
7
  6
CONTINUOUS
 10
20.1832714155
 20
1.1727031207
 11
20.238153505
 21
1.172335442
  0
LINE
  5
223
100
AcDbEntity
  8
0
100
AcDbLine
 62
7
  6
CONTINUOUS
 10
20.2756669918
 20
1.1717972817
 11
20.407916871
 21
1.1712095044
  0
CIRCLE
  5
224
100
AcDbEntity
  8
0
100
AcDbCircle
 62
7
  6
CONTINUOUS
 10
20.7509457401
 20
1.1693297793
 40
0.1722024983
  0
CIRCLE
  5
225
100
AcDbEntity
  8
0
100
AcDbCircle
 62
7
  6
CONTINUOUS
 10
20.7509457401
 20
1.1693297793
 40
0.0985164967
  0
LINE
  5
226
100
AcDbEntity
  8
0
100
AcDbLine
 62
7
  6
CONTINUOUS
 10
20.7169767782
 20
1.170462078
 11
20.7825395137
 21
1.1682766535
  0
LINE
  5
227
100
AcDbEntity
  8
0
100
AcDbLine
 62
7
  6
CONTINUOUS
 10
20.8177513651
 20
1.1693297793
 11
20.947965719
 21
1.1693297793
  0
LINE
  5
228
100
AcDbEntity
  8
0
100
AcDbLine
 62
7
  6
CONTINUOUS
 10
20.6875370113
 20
1.170462078
 11
20.5573226574
 21
1.170462078
  0
LINE
  5
229
100
AcDbEntity
  8
0
100
AcDbLine
 62
7
  6
CONTINUOUS
 10
20.7486811426
 20
1.1987695462
 11
20.7486811426
 21
1.1432869085
  0
LINE
  5
22A
100
AcDbEntity
  8
0
100
AcDbLine
 62
7
  6
CONTINUOUS
 10
20.7498134414
 20
1.1059210505
 11
20.7498134414
 21
0.9757066966
  0
LINE
  5
22B
100
AcDbEntity
  8
0
100
AcDbLine
 62
7
  6
CONTINUOUS
 10
20.7486811426
 20
1.2338708068
 11
20.7486811426
 21
1.3640851607
  0
LINE
  5
22C
100
AcDbEntity
  8
0
100
AcDbLine
 62
7
  6
CONTINUOUS
 10
21.0702539817
 20
1.2701043662
 11
21.4790138229
 21
1.3448360823
  0
LINE
  5
22D
100
AcDbEntity
  8
0
100
AcDbLine
 62
7
  6
CONTINUOUS
 10
21.4790138229
 20
1.3448360823
 11
21.4790138229
 21
0.9779712941
  0
LINE
  5
22E
100
AcDbEntity
  8
0
100
AcDbLine
 62
7
  6
CONTINUOUS
 10
21.4790138229
 20
0.9779712941
 11
21.069121683
 21
1.0617614
  0
LINE
  5
22F
100
AcDbEntity
  8
0
100
AcDbLine
 62
7
  6
CONTINUOUS
 10
21.0702539817
 20
1.2701043662
 11
21.069121683
 21
1.0617614
  0
LINE
  5
230
100
AcDbEntity
  8
0
100
AcDbLine
 62
7
  6
CONTINUOUS
 10
21.4790138229
 20
1.1693297793
 11
21.3159628059
 21
1.1693297793
  0
LINE
  5
231
100
AcDbEntity
  8
0
100
AcDbLine
 62
7
  6
CONTINUOUS
 10
21.2876553377
 20
1.1693297793
 11
21.2502894796
 21
1.1693297793
  0
LINE
  5
232
100
AcDbEntity
  8
0
100
AcDbLine
 62
7
  6
CONTINUOUS
 10
21.2208497126
 20
1.1659328831
 11
21.0713862804
 21
1.1659328831
  0
LINE
  5
233
100
AcDbEntity
  8
0
100
AcDbLine
 62
7
  6
CONTINUOUS
 10
20.4796138713
 20
1.5284908897
 11
20.4766766948
 21
0.9294458646
  0
ENDBLK
  5
234
100
AcDbEntity
  8
0
  6
BYBLOCK
 62
0
100
AcDbBlockEnd
  0
BLOCK
  5
235
100
AcDbEntity
  8
0
100
AcDbBlockBegin
  2
*T1
 70
1
 10
0.0
 20
0.0
  3
*T1
  1

  0
LINE
  5
236
100
AcDbEntity
  8
0
100
AcDbLine
 62
2
  6
CONTINUOUS
 10
9.275
 20
0.0
 11
-0.0
 21
0.0
  0
LINE
  5
237
100
AcDbEntity
  8
0
100
AcDbLine
 62
2
  6
CONTINUOUS
 10
9.275
 20
0.0
 11
9.275
 21
1.25
  0
LINE
  5
238
100
AcDbEntity
  8
0
100
AcDbLine
 62
2
  6
CONTINUOUS
 10
9.275
 20
0.625
 11
-0.0
 21
0.625
  0
LINE
  5
239
100
AcDbEntity
  8
0
100
AcDbLine
 62
2
  6
CONTINUOUS
 10
9.275
 20
1.25
 11
-0.0
 21
1.25
  0
LINE
  5
23A
100
AcDbEntity
  8
0
100
AcDbLine
 62
2
  6
CONTINUOUS
 10
6.8
 20
0.0
 11
6.8
 21
1.25
  0
LINE
  5
23B
100
AcDbEntity
  8
0
100
AcDbLine
 62
2
  6
CONTINUOUS
 10
6.4
 20
0.0
 11
6.4
 21
0.625
  0
LINE
  5
23C
100
AcDbEntity
  8
0
100
AcDbLine
 62
2
  6
CONTINUOUS
 10
5.9
 20
0.0
 11
5.9
 21
0.625
  0
LINE
  5
23D
100
AcDbEntity
  8
0
100
AcDbLine
 62
2
  6
CONTINUOUS
 10
5.2
 20
0.0
 11
5.2
 21
0.625
  0
LINE
  5
23E
100
AcDbEntity
  8
0
100
AcDbLine
 62
2
  6
CONTINUOUS
 10
4.1
 20
0.0
 11
4.1
 21
1.25
  0
LINE
  5
23F
100
AcDbEntity
  8
0
100
AcDbLine
 62
2
  6
CONTINUOUS
 10
-0.0
 20
0.0
 11
-0.0
 21
1.25
  0
MTEXT
  5
240
100
AcDbEntity
  8
0
100
AcDbMText
 62
2
  6
CONTINUOUS
  7
STANDARD
 71
2
 72
1
 10
6.6
 20
0.325
 30
0.0
 11
1.0
 21
0.0
 31
0.0
 44
0.9
  1
2
 40
0.125
 41
0.2
  0
MTEXT
  5
241
100
AcDbEntity
  8
0
100
AcDbMText
 62
2
  6
CONTINUOUS
  7
STANDARD
 71
2
 72
1
 10
6.15
 20
0.325
 30
0.0
 11
1.0
 21
0.0
 31
0.0
 44
0.9
  1
C
 40
0.125
 41
0.2
  0
MTEXT
  5
242
100
AcDbEntity
  8
0
100
AcDbMText
 62
2
  6
CONTINUOUS
  7
STANDARD
 71
2
 72
1
 10
5.55
 20
0.325
 30
0.0
 11
1.0
 21
0.0
 31
0.0
 44
0.9
  1
1.000
 40
0.125
 41
1.0
  0
MTEXT
  5
243
100
AcDbEntity
  8
0
100
AcDbMText
 62
2
  6
CONTINUOUS
  7
STANDARD
 71
2
 72
1
 10
4.65
 20
0.325
 30
0.0
 11
1.0
 21
0.0
 31
0.0
 44
0.9
  1
Jul-03-19
 40
0.125
 41
1.8
  0
MTEXT
  5
244
100
AcDbEntity
  8
0
100
AcDbMText
 62
2
  6
CONTINUOUS
  7
STANDARD
 71
2
 72
1
 10
2.05
 20
0.4625
 30
0.0
 11
1.0
 21
0.0
 31
0.0
 44
0.9
  1
T-11A Sandwich ISO 03\P(See Technical Data for Body Features)
 40
0.125
 41
7.6
  0
MTEXT
  5
245
100
AcDbEntity
  8
0
100
AcDbMText
 62
2
  6
CONTINUOUS
  7
STANDARD
 71
1
 72
1
 10
6.45
 20
0.5625
 30
0.0
 11
1.0
 21
0.0
 31
0.0
 44
0.9
  1
SHEET
 40
0.06
 41
0.48
  0
MTEXT
  5
246
100
AcDbEntity
  8
0
100
AcDbMText
 62
2
  6
CONTINUOUS
  7
STANDARD
 71
1
 72
1
 10
5.95
 20
0.5625
 30
0.0
 11
1.0
 21
0.0
 31
0.0
 44
0.9
  1
DWG SIZE
 40
0.06
 41
0.768
  0
MTEXT
  5
247
100
AcDbEntity
  8
0
100
AcDbMText
 62
2
  6
CONTINUOUS
  7
STANDARD
 71
1
 72
1
 10
5.25
 20
0.5625
 30
0.0
 11
1.0
 21
0.0
 31
0.0
 44
0.9
  1
SCALE
 40
0.06
 41
0.48
  0
MTEXT
  5
248
100
AcDbEntity
  8
0
100
AcDbMText
 62
2
  6
CONTINUOUS
  7
STANDARD
 71
1
 72
1
 10
4.15
 20
0.5625
 30
0.0
 11
1.0
 21
0.0
 31
0.0
 44
0.9
  1
DATE
 40
0.06
 41
0.384
  0
MTEXT
  5
249
100
AcDbEntity
  8
0
100
AcDbMText
 62
2
  6
CONTINUOUS
  7
STANDARD
 71
1
 72
1
 10
0.05
 20
0.5625
 30
0.0
 11
1.0
 21
0.0
 31
0.0
 44
0.9
  1
DESCRIPTION
 40
0.06
 41
1.056
  0
MTEXT
  5
24A
100
AcDbEntity
  8
0
100
AcDbMText
 62
2
  6
CONTINUOUS
  7
STANDARD
 71
2
 72
1
 10
5.45
 20
1.0375
 30
0.0
 11
1.0
 21
0.0
 31
0.0
 44
0.9
  1
ALL DIMENSIONS IN INCH\PVIEWS ARE THIRD ANGLE
 40
0.12
 41
4.224
  0
MTEXT
  5
24B
100
AcDbEntity
  8
0
100
AcDbMText
 62
2
  6
CONTINUOUS
  7
STANDARD
 71
2
 72
1
 10
2.05
 20
0.95
 30
0.0
 11
1.0
 21
0.0
 31
0.0
 44
0.9
  1
EB4
 40
0.125
 41
0.6
  0
MTEXT
  5
24C
100
AcDbEntity
  8
0
100
AcDbMText
 62
2
  6
CONTINUOUS
  7
STANDARD
 71
1
 72
1
 10
0.05
 20
1.1875
 30
0.0
 11
1.0
 21
0.0
 31
0.0
 44
0.9
  1
MODEL
 40
0.06
 41
0.48
  0
ENDBLK
  5
24D
100
AcDbEntity
  8
0
  6
BYBLOCK
 62
0
100
AcDbBlockEnd
  0
BLOCK
  5
24E
100
AcDbEntity
  8
0
100
AcDbBlockBegin
  2
*T2
 70
1
 10
0.0
 20
0.0
  3
*T2
  1

  0
LINE
  5
24F
100
AcDbEntity
  8
0
100
AcDbLine
 62
2
  6
CONTINUOUS
 10
0.0
 20
0.0
 11
9.055
 21
0.0
  0
LINE
  5
250
100
AcDbEntity
  8
0
100
AcDbLine
 62
2
  6
CONTINUOUS
 10
0.0
 20
0.0
 11
0.0
 21
-2.344
  0
LINE
  5
251
100
AcDbEntity
  8
0
100
AcDbLine
 62
2
  6
CONTINUOUS
 10
0.0
 20
-0.344
 11
9.055
 21
-0.344
  0
LINE
  5
252
100
AcDbEntity
  8
0
100
AcDbLine
 62
2
  6
CONTINUOUS
 10
0.0
 20
-0.594
 11
9.055
 21
-0.594
  0
LINE
  5
253
100
AcDbEntity
  8
0
100
AcDbLine
 62
2
  6
CONTINUOUS
 10
0.0
 20
-0.844
 11
9.055
 21
-0.844
  0
LINE
  5
254
100
AcDbEntity
  8
0
100
AcDbLine
 62
2
  6
CONTINUOUS
 10
0.0
 20
-1.094
 11
9.055
 21
-1.094
  0
LINE
  5
255
100
AcDbEntity
  8
0
100
AcDbLine
 62
2
  6
CONTINUOUS
 10
0.0
 20
-1.344
 11
9.055
 21
-1.344
  0
LINE
  5
256
100
AcDbEntity
  8
0
100
AcDbLine
 62
2
  6
CONTINUOUS
 10
0.0
 20
-1.594
 11
9.055
 21
-1.594
  0
LINE
  5
257
100
AcDbEntity
  8
0
100
AcDbLine
 62
2
  6
CONTINUOUS
 10
0.0
 20
-1.844
 11
9.055
 21
-1.844
  0
LINE
  5
258
100
AcDbEntity
  8
0
100
AcDbLine
 62
2
  6
CONTINUOUS
 10
0.0
 20
-2.094
 11
9.055
 21
-2.094
  0
LINE
  5
259
100
AcDbEntity
  8
0
100
AcDbLine
 62
2
  6
CONTINUOUS
 10
0.0
 20
-2.344
 11
9.055
 21
-2.344
  0
LINE
  5
25A
100
AcDbEntity
  8
0
100
AcDbLine
 62
2
  6
CONTINUOUS
 10
3.055
 20
0.0
 11
3.055
 21
-2.344
  0
LINE
  5
25B
100
AcDbEntity
  8
0
100
AcDbLine
 62
2
  6
CONTINUOUS
 10
9.055
 20
0.0
 11
9.055
 21
-2.344
  0
MTEXT
  5
25C
100
AcDbEntity
  8
0
100
AcDbMText
 62
2
  6
CONTINUOUS
  7
STANDARD
 71
2
 72
1
 10
1.5275
 20
-0.0995
 30
0.0
 11
1.0
 21
0.0
 31
0.0
 44
0.9
  1
Technical Data
 40
0.145
 41
3.248
  0
MTEXT
  5
25D
100
AcDbEntity
  8
0
100
AcDbMText
 62
2
  6
CONTINUOUS
  7
STANDARD
 71
2
 72
1
 10
4.555
 20
-0.0995
 30
0.0
 11
1.0
 21
0.0
 31
0.0
 44
0.9
  1
U.S. Units
 40
0.145
 41
2.32
  0
MTEXT
  5
25E
100
AcDbEntity
  8
0
100
AcDbMText
 62
2
  6
CONTINUOUS
  7
STANDARD
 71
2
 72
1
 10
7.555
 20
-0.0995
 30
0.0
 11
1.0
 21
0.0
 31
0.0
 44
0.9
  1
Metric Units
 40
0.145
 41
2.784
  0
MTEXT
  5
25F
100
AcDbEntity
  8
0
100
AcDbMText
 62
2
  6
CONTINUOUS
  7
STANDARD
 71
2
 72
1
 10
1.5275
 20
-0.4065
 30
0.0
 11
1.0
 21
0.0
 31
0.0
 44
0.9
  1
Cavity
 40
0.125
 41
1.2
  0
MTEXT
  5
260
100
AcDbEntity
  8
0
100
AcDbMText
 62
2
  6
CONTINUOUS
  7
STANDARD
 71
2
 72
1
 10
6.055
 20
-0.4065
 30
0.0
 11
1.0
 21
0.0
 31
0.0
 44
0.9
  1
T-11A
 40
0.125
 41
1.0
  0
MTEXT
  5
261
100
AcDbEntity
  8
0
100
AcDbMText
 62
2
  6
CONTINUOUS
  7
STANDARD
 71
2
 72
1
 10
1.5275
 20
-0.6565
 30
0.0
 11
1.0
 21
0.0
 31
0.0
 44
0.9
  1
Body Features
 40
0.125
 41
2.6
  0
MTEXT
  5
262
100
AcDbEntity
  8
0
100
AcDbMText
 62
2
  6
CONTINUOUS
  7
STANDARD
 71
2
 72
1
 10
6.055
 20
-0.6565
 30
0.0
 11
1.0
 21
0.0
 31
0.0
 44
0.9
  1
Sequence into A or out of B with reverse flow check
 40
0.125
 41
10.2
  0
MTEXT
  5
263
100
AcDbEntity
  8
0
100
AcDbMText
 62
2
  6
CONTINUOUS
  7
STANDARD
 71
2
 72
1
 10
1.5275
 20
-0.9065
 30
0.0
 11
1.0
 21
0.0
 31
0.0
 44
0.9
  1
Body Type
 40
0.125
 41
1.8
  0
MTEXT
  5
264
100
AcDbEntity
  8
0
100
AcDbMText
 62
2
  6
CONTINUOUS
  7
STANDARD
 71
2
 72
1
 10
6.055
 20
-0.9065
 30
0.0
 11
1.0
 21
0.0
 31
0.0
 44
0.9
  1
Sandwich
 40
0.125
 41
1.6
  0
MTEXT
  5
265
100
AcDbEntity
  8
0
100
AcDbMText
 62
2
  6
CONTINUOUS
  7
STANDARD
 71
2
 72
1
 10
1.5275
 20
-1.1565
 30
0.0
 11
1.0
 21
0.0
 31
0.0
 44
0.9
  1
Interface
 40
0.125
 41
1.8
  0
MTEXT
  5
266
100
AcDbEntity
  8
0
100
AcDbMText
 62
2
  6
CONTINUOUS
  7
STANDARD
 71
2
 72
1
 10
6.055
 20
-1.1565
 30
0.0
 11
1.0
 21
0.0
 31
0.0
 44
0.9
  1
ISO 03
 40
0.125
 41
1.2
  0
MTEXT
  5
267
100
AcDbEntity
  8
0
100
AcDbMText
 62
2
  6
CONTINUOUS
  7
STANDARD
 71
2
 72
1
 10
1.5275
 20
-1.4065
 30
0.0
 11
1.0
 21
0.0
 31
0.0
 44
0.9
  1
Open Cavity Quantity
 40
0.125
 41
4.0
  0
MTEXT
  5
268
100
AcDbEntity
  8
0
100
AcDbMText
 62
2
  6
CONTINUOUS
  7
STANDARD
 71
2
 72
1
 10
6.055
 20
-1.4065
 30
0.0
 11
1.0
 21
0.0
 31
0.0
 44
0.9
  1
1
 40
0.125
 41
0.2
  0
MTEXT
  5
269
100
AcDbEntity
  8
0
100
AcDbMText
 62
2
  6
CONTINUOUS
  7
STANDARD
 71
2
 72
1
 10
1.5275
 20
-1.6565
 30
0.0
 11
1.0
 21
0.0
 31
0.0
 44
0.9
  1
Stack Height
 40
0.125
 41
2.4
  0
MTEXT
  5
26A
100
AcDbEntity
  8
0
100
AcDbMText
 62
2
  6
CONTINUOUS
  7
STANDARD
 71
2
 72
1
 10
4.555
 20
-1.6565
 30
0.0
 11
1.0
 21
0.0
 31
0.0
 44
0.9
  1
1.75 in.
 40
0.125
 41
1.6
  0
MTEXT
  5
26B
100
AcDbEntity
  8
0
100
AcDbMText
 62
2
  6
CONTINUOUS
  7
STANDARD
 71
2
 72
1
 10
7.555
 20
-1.6565
 30
0.0
 11
1.0
 21
0.0
 31
0.0
 44
0.9
  1
44,5 mm
 40
0.125
 41
1.4
  0
MTEXT
  5
26C
100
AcDbEntity
  8
0
100
AcDbMText
 62
2
  6
CONTINUOUS
  7
STANDARD
 71
2
 72
1
 10
1.5275
 20
-1.9065
 30
0.0
 11
1.0
 21
0.0
 31
0.0
 44
0.9
  1
Weight
 40
0.125
 41
1.2
  0
MTEXT
  5
26D
100
AcDbEntity
  8
0
100
AcDbMText
 62
2
  6
CONTINUOUS
  7
STANDARD
 71
2
 72
1
 10
4.555
 20
-1.9065
 30
0.0
 11
1.0
 21
0.0
 31
0.0
 44
0.9
  1
1.199 lb.
 40
0.125
 41
1.8
  0
MTEXT
  5
26E
100
AcDbEntity
  8
0
100
AcDbMText
 62
2
  6
CONTINUOUS
  7
STANDARD
 71
2
 72
1
 10
7.555
 20
-1.9065
 30
0.0
 11
1.0
 21
0.0
 31
0.0
 44
0.9
  1
0,544 kg.
 40
0.125
 41
1.8
  0
MTEXT
  5
26F
100
AcDbEntity
  8
0
100
AcDbMText
 62
2
  6
CONTINUOUS
  7
STANDARD
 71
2
 72
1
 10
1.5275
 20
-2.1565
 30
0.0
 11
1.0
 21
0.0
 31
0.0
 44
0.9
  1
Seal Plate Included (see notes)
 40
0.125
 41
6.2
  0
MTEXT
  5
270
100
AcDbEntity
  8
0
100
AcDbMText
 62
2
  6
CONTINUOUS
  7
STANDARD
 71
2
 72
1
 10
6.055
 20
-2.1565
 30
0.0
 11
1.0
 21
0.0
 31
0.0
 44
0.9
  1
Yes
 40
0.125
 41
0.6
  0
ENDBLK
  5
271
100
AcDbEntity
  8
0
  6
BYBLOCK
 62
0
100
AcDbBlockEnd
  0
ENDSEC
  0
SECTION
  2
ENTITIES
  0
IMAGE
  5
272
100
AcDbEntity
  8
0
100
AcDbRasterImage
 62
7
  6
CONTINUOUS
 10
19.2297077316
 20
0.3094318264
 30
0.0
 11
0.0066666667
 21
0.0
 31
0.0
 12
0.0
 22
0.0066666667
 32
0.0
 13
369.0
 23
92.0
340
       356
 70
9
280
0
281
50
282
50
283
0
360
       350
 71
1
 91
2
 14
-0.5
 24
-0.5
 14
368.5
 24
91.5
  0
INSERT
  5
273
100
AcDbEntity
  8
0
100
AcDbBlockReference
 62
2
  6
CONTINUOUS
  2
SUN_FIRST_THIRD_ANGLE_BL0
 10
20.4816717061
 20
1.2289683772
  0
ACAD_TABLE
  5
274
100
AcDbEntity
  8
0
 62
2
  6
CONTINUOUS
100
AcDbBlockReference
  2
*T1
 10
12.42375
 20
0.30125
 30
0.0
100
AcDbTable
342
       358
343
20F
 11
1.0
 21
0.0
 31
0.0
 90
6
 91
4
 92
6
 93
20
 94
0
 95
0
 96
0
 70
1
 41
0.0
141
0.525
141
0.1
141
0.525
141
0.1
142
4.1
142
1.1
142
0.7
142
0.5
142
0.4
142
2.475
171
1
172
0
173
0
174
0
175
1
176
1
 91
33
178
0
145
0.0
301
CELL_VALUE
 90
4
  1
T-11A Sandwich ISO 03\P(See Technical Data for Body Features)
304
ACVALUE_END
170
2
140
0.125
171
1
172
0
173
0
174
0
175
1
176
1
 91
33
178
0
145
0.0
301
CELL_VALUE
 90
4
  1
Jul-03-19
304
ACVALUE_END
170
5
140
0.125
171
1
172
0
173
0
174
0
175
1
176
1
 91
33
178
0
145
0.0
301
CELL_VALUE
 90
4
  1
1.000
304
ACVALUE_END
170
5
140
0.125
171
1
172
0
173
0
174
0
175
1
176
1
 91
33
178
0
145
0.0
301
CELL_VALUE
 90
4
  1
C
304
ACVALUE_END
170
5
140
0.125
171
1
172
0
173
0
174
0
175
1
176
1
 91
33
178
0
145
0.0
301
CELL_VALUE
 90
4
  1
2
304
ACVALUE_END
170
5
140
0.125
171
1
172
0
173
0
174
0
175
1
176
1
 91
33
178
0
145
0.0
301
CELL_VALUE
 90
4
  1
 
304
ACVALUE_END
170
1
140
0.125
171
1
172
0
173
0
174
0
175
1
176
1
 91
33
178
0
145
0.0
301
CELL_VALUE
 90
4
  1
DESCRIPTION
304
ACVALUE_END
170
1
140
0.06
171
1
172
0
173
0
174
0
175
1
176
1
 91
33
178
0
145
0.0
301
CELL_VALUE
 90
4
  1
DATE
304
ACVALUE_END
170
1
140
0.06
171
1
172
0
173
0
174
0
175
1
176
1
 91
33
178
0
145
0.0
301
CELL_VALUE
 90
4
  1
SCALE
304
ACVALUE_END
170
1
140
0.06
171
1
172
0
173
0
174
0
175
1
176
1
 91
33
178
0
145
0.0
301
CELL_VALUE
 90
4
  1
DWG SIZE
304
ACVALUE_END
170
1
140
0.06
171
1
172
0
173
0
174
0
175
1
176
1
 91
33
178
0
145
0.0
301
CELL_VALUE
 90
4
  1
SHEET
304
ACVALUE_END
170
1
140
0.06
171
1
172
0
173
0
174
0
175
1
176
1
 91
33
178
0
145
0.0
301
CELL_VALUE
 90
4
  1
 
304
ACVALUE_END
170
1
140
0.125
171
1
172
0
173
0
174
0
175
1
176
1
 91
33
178
0
145
0.0
301
CELL_VALUE
 90
4
  1
EB4
304
ACVALUE_END
170
5
140
0.125
171
1
172
0
173
0
174
0
175
4
176
1
 91
33
178
0
145
0.0
301
CELL_VALUE
 90
4
  1
ALL DIMENSIONS IN INCH\PVIEWS ARE THIRD ANGLE
304
ACVALUE_END
170
5
140
0.12
171
1
172
0
173
1
174
0
175
1
176
1
 91
1
178
0
145
0.0
170
1
171
1
172
0
173
1
174
0
175
1
176
1
 91
1
178
0
145
0.0
170
1
171
1
172
0
173
1
174
0
175
1
176
1
 91
1
178
0
145
0.0
170
5
171
1
172
0
173
0
174
0
175
1
176
1
 91
33
178
0
145
0.0
301
CELL_VALUE
 90
4
  1
 
304
ACVALUE_END
170
1
140
0.125
171
1
172
0
173
0
174
0
175
1
176
1
 91
33
178
0
145
0.0
301
CELL_VALUE
 90
4
  1
MODEL
304
ACVALUE_END
170
1
140
0.06
171
1
172
0
173
0
174
0
175
1
176
1
 91
33
178
0
145
0.0
301
CELL_VALUE
 90
4
  1
 
304
ACVALUE_END
170
1
140
0.125
171
1
172
0
173
0
174
0
175
1
176
1
 91
33
178
0
145
0.0
301
CELL_VALUE
 90
4
  1
 
304
ACVALUE_END
170
1
140
0.125
171
1
172
0
173
0
174
0
175
1
176
1
 91
33
178
0
145
0.0
301
CELL_VALUE
 90
4
  1
 
304
ACVALUE_END
170
1
140
0.125
171
1
172
0
173
0
174
0
175
1
176
1
 91
33
178
0
145
0.0
301
CELL_VALUE
 90
4
  1
 
304
ACVALUE_END
170
1
140
0.125
171
1
172
0
173
0
174
0
175
1
176
1
 91
33
178
0
145
0.0
301
CELL_VALUE
 90
4
  1
 
304
ACVALUE_END
170
1
140
0.125
  0
ACAD_TABLE
  5
275
100
AcDbEntity
  8
0
 62
2
  6
CONTINUOUS
100
AcDbBlockReference
  2
*T2
 10
12.4237499994
 20
16.47875
 30
0.0
100
AcDbTable
342
       357
343
210
 11
1.0
 21
0.0
 31
0.0
 90
22
 91
9
 92
3
 93
16
 94
0
 95
0
 96
0
 41
0.028
141
0.344
141
0.25
141
0.25
141
0.25
141
0.25
141
0.25
141
0.25
141
0.25
141
0.25
142
3.055
142
3.0
142
3.0
171
1
172
0
173
0
174
0
175
1
176
1
 91
33
178
0
145
0.0
301
CELL_VALUE
 90
4
  1
Technical Data
304
ACVALUE_END
170
5
140
0.145
171
1
172
0
173
0
174
0
175
1
176
1
 91
33
178
0
145
0.0
301
CELL_VALUE
 90
4
  1
U.S. Units
304
ACVALUE_END
170
5
140
0.145
171
1
172
0
173
0
174
0
175
1
176
1
 91
33
178
0
145
0.0
301
CELL_VALUE
 90
4
  1
Metric Units
304
ACVALUE_END
170
5
140
0.145
171
1
172
0
173
0
174
0
175
1
176
1
 91
33
178
0
145
0.0
301
CELL_VALUE
 90
4
  1
Cavity
304
ACVALUE_END
170
5
140
0.125
171
1
172
0
173
0
174
0
175
2
176
1
 91
33
178
0
145
0.0
301
CELL_VALUE
 90
4
  1
T-11A
304
ACVALUE_END
170
5
140
0.125
171
1
172
0
173
1
174
0
175
1
176
1
 91
1
178
0
145
0.0
170
1
171
1
172
0
173
0
174
0
175
1
176
1
 91
33
178
0
145
0.0
301
CELL_VALUE
 90
4
  1
Body Features
304
ACVALUE_END
170
5
140
0.125
171
1
172
0
173
0
174
0
175
2
176
1
 91
33
178
0
145
0.0
301
CELL_VALUE
 90
4
  1
Sequence into A or out of B with reverse flow check
304
ACVALUE_END
170
5
140
0.125
171
1
172
0
173
1
174
0
175
1
176
1
 91
1
178
0
145
0.0
170
1
171
1
172
0
173
0
174
0
175
1
176
1
 91
33
178
0
145
0.0
301
CELL_VALUE
 90
4
  1
Body Type
304
ACVALUE_END
170
5
140
0.125
171
1
172
0
173
0
174
0
175
2
176
1
 91
33
178
0
145
0.0
301
CELL_VALUE
 90
4
  1
Sandwich
304
ACVALUE_END
170
5
140
0.125
171
1
172
0
173
1
174
0
175
1
176
1
 91
1
178
0
145
0.0
170
1
171
1
172
0
173
0
174
0
175
1
176
1
 91
33
178
0
145
0.0
301
CELL_VALUE
 90
4
  1
Interface
304
ACVALUE_END
170
5
140
0.125
171
1
172
0
173
0
174
0
175
2
176
1
 91
33
178
0
145
0.0
301
CELL_VALUE
 90
4
  1
ISO 03
304
ACVALUE_END
170
5
140
0.125
171
1
172
0
173
1
174
0
175
1
176
1
 91
1
178
0
145
0.0
170
1
171
1
172
0
173
0
174
0
175
1
176
1
 91
33
178
0
145
0.0
301
CELL_VALUE
 90
4
  1
Open Cavity Quantity
304
ACVALUE_END
170
5
140
0.125
171
1
172
0
173
0
174
0
175
2
176
1
 91
33
178
0
145
0.0
301
CELL_VALUE
 90
4
  1
1
304
ACVALUE_END
170
5
140
0.125
171
1
172
0
173
1
174
0
175
1
176
1
 91
1
178
0
145
0.0
170
1
171
1
172
0
173
0
174
0
175
1
176
1
 91
33
178
0
145
0.0
301
CELL_VALUE
 90
4
  1
Stack Height
304
ACVALUE_END
170
5
140
0.125
171
1
172
0
173
0
174
0
175
1
176
1
 91
33
178
0
145
0.0
301
CELL_VALUE
 90
4
  1
1.75 in.
304
ACVALUE_END
170
5
140
0.125
171
1
172
0
173
0
174
0
175
1
176
1
 91
33
178
0
145
0.0
301
CELL_VALUE
 90
4
  1
44,5 mm
304
ACVALUE_END
170
5
140
0.125
171
1
172
0
173
0
174
0
175
1
176
1
 91
33
178
0
145
0.0
301
CELL_VALUE
 90
4
  1
Weight
304
ACVALUE_END
170
5
140
0.125
171
1
172
0
173
0
174
0
175
1
176
1
 91
33
178
0
145
0.0
301
CELL_VALUE
 90
4
  1
1.199 lb.
304
ACVALUE_END
170
5
140
0.125
171
1
172
0
173
0
174
0
175
1
176
1
 91
33
178
0
145
0.0
301
CELL_VALUE
 90
4
  1
0,544 kg.
304
ACVALUE_END
170
5
140
0.125
171
1
172
0
173
0
174
0
175
1
176
1
 91
33
178
0
145
0.0
301
CELL_VALUE
 90
4
  1
Seal Plate Included (see notes)
304
ACVALUE_END
170
5
140
0.125
171
1
172
0
173
0
174
0
175
2
176
1
 91
33
178
0
145
0.0
301
CELL_VALUE
 90
4
  1
Yes
304
ACVALUE_END
170
5
140
0.125
171
1
172
0
173
1
174
0
175
1
176
1
 91
1
178
0
145
0.0
170
1
  0
MTEXT
  5
276
100
AcDbEntity
  8
0
100
AcDbMText
 62
2
  6
CONTINUOUS
  7
STANDARD
 71
1
 72
1
 10
0.52125
 20
5.75995
 30
0.0
 11
1.0
 21
0.0
 31
0.0
 44
0.6
  3
Notes\P \P1. Important: Carefully consider\P   the maximum system pressure. The\P   pressure rating of the manifold is\P   dependent on the manifold material,\P   with the port type/size a secondary\P   consideration. Manifolds\P   constructed of alu
  1
minum are not\P   rated for pressures higher than\P   3000 psi (210 bar), regardless of\P   the port type/size specified.\P2. Items without balloons are\P   shipped loose.
 40
0.1
 41
3.04
  0
LINE
  5
277
100
AcDbEntity
  8
0
100
AcDbLine
 62
7
  6
CONTINUOUS
 10
0.30125
 20
0.30125
 11
0.30125
 21
16.69875
  0
LINE
  5
278
100
AcDbEntity
  8
0
100
AcDbLine
 62
7
  6
CONTINUOUS
 10
0.30125
 20
0.30125
 11
21.69875
 21
0.30125
  0
LINE
  5
279
100
AcDbEntity
  8
0
100
AcDbLine
 62
7
  6
CONTINUOUS
 10
0.30125
 20
16.69875
 11
21.69875
 21
16.69875
  0
LINE
  5
27A
100
AcDbEntity
  8
0
100
AcDbLine
 62
7
  6
CONTINUOUS
 10
21.69875
 20
0.30125
 11
21.69875
 21
16.69875
  0
LINE
  5
27B
100
AcDbEntity
  8
0
100
AcDbLine
 62
7
  6
CONTINUOUS
 10
10.6576803817
 20
11.1211840929
 11
10.6739832577
 21
11.1292374015
  0
LINE
  5
27C
100
AcDbEntity
  8
0
100
AcDbLine
 62
7
  6
CONTINUOUS
 10
10.3690929413
 20
5.8728631336
 11
11.2142780894
 21
5.8142493445
  0
LINE
  5
27D
100
AcDbEntity
  8
0
100
AcDbLine
 62
7
  6
CONTINUOUS
 10
10.3610695575
 20
5.8950568419
 11
11.2062547056
 21
5.8364430528
  0
LINE
  5
27E
100
AcDbEntity
  8
0
100
AcDbLine
 62
7
  6
CONTINUOUS
 10
10.0968392031
 20
5.9628004318
 11
10.1267056295
 21
5.9350065867
  0
LINE
  5
27F
100
AcDbEntity
  8
0
100
AcDbLine
 62
7
  6
CONTINUOUS
 10
10.0968703389
 20
10.2407518399
 11
10.3344660262
 21
10.470251664
  0
LINE
  5
280
100
AcDbEntity
  8
0
100
AcDbLine
 62
7
  6
CONTINUOUS
 10
10.1268140413
 20
10.2686189394
 11
10.3644097286
 21
10.4981187636
  0
LINE
  5
281
100
AcDbEntity
  8
0
100
AcDbLine
 62
7
  6
CONTINUOUS
 10
10.3344660262
 20
10.470251664
 11
10.3354008163
 21
10.4711378071
  0
LINE
  5
282
100
AcDbEntity
  8
0
100
AcDbLine
 62
7
  6
CONTINUOUS
 10
10.3644097286
 20
10.4981187636
 11
10.3652682731
 21
10.498932481
  0
LINE
  5
283
100
AcDbEntity
  8
0
100
AcDbLine
 62
7
  6
CONTINUOUS
 10
10.364402307
 20
10.4981267387
 11
10.3344660262
 21
10.470251664
  0
LINE
  5
284
100
AcDbEntity
  8
0
100
AcDbLine
 62
7
  6
CONTINUOUS
 10
10.1268140413
 20
10.2686189394
 11
10.0968703389
 21
10.2407518399
  0
LINE
  5
285
100
AcDbEntity
  8
0
100
AcDbLine
 62
7
  6
CONTINUOUS
 10
9.934818839
 20
9.3319806559
 11
10.0840925452
 21
9.4761679925
  0
LINE
  5
286
100
AcDbEntity
  8
0
100
AcDbLine
 62
7
  6
CONTINUOUS
 10
11.6251891351
 20
7.0414196095
 11
9.934818839
 21
7.1586471877
  0
LINE
  5
287
100
AcDbEntity
  8
0
100
AcDbLine
 62
7
  6
CONTINUOUS
 10
10.3690929413
 20
5.8728631336
 11
10.3610695575
 21
5.8950568419
  0
LINE
  5
288
100
AcDbEntity
  8
0
100
AcDbLine
 62
7
  6
CONTINUOUS
 10
11.46673725
 20
10.5350327351
 11
11.4766735883
 21
10.544279541
  0
LINE
  5
289
100
AcDbEntity
  8
0
100
AcDbLine
 62
7
  6
CONTINUOUS
 10
9.934818839
 20
7.1586471877
 11
9.934818839
 21
9.3319806559
  0
LINE
  5
28A
100
AcDbEntity
  8
0
100
AcDbLine
 62
7
  6
CONTINUOUS
 10
10.3700588672
 20
10.1595754128
 11
10.3620354834
 21
10.1218817163
  0
LINE
  5
28B
100
AcDbEntity
  8
0
100
AcDbLine
 62
7
  6
CONTINUOUS
 10
10.0831266194
 20
7.1483620082
 11
10.0831266194
 21
5.9888067701
  0
LINE
  5
28C
100
AcDbEntity
  8
0
100
AcDbLine
 62
7
  6
CONTINUOUS
 10
10.0840925452
 20
9.4003901988
 11
10.0840925452
 21
10.2156316445
  0
LINE
  5
28D
100
AcDbEntity
  8
0
100
AcDbLine
 62
4
  6
CONTINUOUS
 10
11.5385429891
 20
10.2952444689
 11
11.5417782246
 21
10.2983694666
  0
LINE
  5
28E
100
AcDbEntity
  8
0
100
AcDbLine
 62
4
  6
CONTINUOUS
 10
11.5903067562
 20
10.3452444314
 11
11.5935419917
 21
10.348369429
  0
LINE
  5
28F
100
AcDbEntity
  8
0
100
AcDbLine
 62
4
  6
CONTINUOUS
 10
11.6113357866
 20
10.3655569161
 11
11.6178062575
 21
10.3718069114
  0
LINE
  5
290
100
AcDbEntity
  8
0
100
AcDbLine
 62
4
  6
CONTINUOUS
 10
11.7143988473
 20
10.3651081926
 11
11.7079283764
 21
10.3588581973
  0
LINE
  5
291
100
AcDbEntity
  8
0
100
AcDbLine
 62
4
  6
CONTINUOUS
 10
11.6901345814
 20
10.3416707102
 11
11.686899346
 21
10.3385457125
  0
LINE
  5
292
100
AcDbEntity
  8
0
100
AcDbLine
 62
4
  6
CONTINUOUS
 10
11.6383708144
 20
10.2916707477
 11
11.6351355789
 21
10.2885457501
  0
LINE
  5
293
100
AcDbEntity
  8
0
100
AcDbLine
 62
7
  6
CONTINUOUS
 10
11.8741518846
 20
10.3934177895
 11
11.6365561973
 21
10.1639179653
  0
LINE
  5
294
100
AcDbEntity
  8
0
100
AcDbLine
 62
7
  6
CONTINUOUS
 10
10.3610695575
 20
5.8950568419
 11
10.3610695575
 21
7.1290865999
  0
LINE
  5
295
100
AcDbEntity
  8
0
100
AcDbLine
 62
7
  6
CONTINUOUS
 10
10.3620354834
 20
10.1218817163
 11
10.3620354834
 21
9.3066402706
  0
LINE
  5
296
100
AcDbEntity
  8
0
100
AcDbLine
 62
7
  6
CONTINUOUS
 10
11.904095587
 20
10.3613974843
 11
11.6664998996
 21
10.1318976601
  0
LINE
  5
297
100
AcDbEntity
  8
0
100
AcDbLine
 62
7
  6
CONTINUOUS
 10
11.2142780894
 20
5.8142493445
 11
11.2062547056
 21
5.8364430528
  0
LINE
  5
298
100
AcDbEntity
  8
0
100
AcDbLine
 62
7
  6
CONTINUOUS
 10
10.5757342211
 20
10.5987911768
 11
10.5757342211
 21
11.0193904026
  0
LINE
  5
299
100
AcDbEntity
  8
0
100
AcDbLine
 62
7
  6
CONTINUOUS
 10
10.5910634576
 20
10.5839842967
 11
10.5910634576
 21
11.0045835225
  0
LINE
  5
29A
100
AcDbEntity
  8
0
100
AcDbLine
 62
7
  6
CONTINUOUS
 10
10.6273695955
 20
10.3712985131
 11
10.6273695955
 21
10.5495802736
  0
LINE
  5
29B
100
AcDbEntity
  8
0
100
AcDbLine
 62
7
  6
CONTINUOUS
 10
10.8999347612
 20
10.5040426222
 11
10.8999347612
 21
10.924641848
  0
LINE
  5
29C
100
AcDbEntity
  8
0
100
AcDbLine
 62
7
  6
CONTINUOUS
 10
10.9571442066
 20
10.5000751337
 11
10.9571442066
 21
10.9206743595
  0
LINE
  5
29D
100
AcDbEntity
  8
0
100
AcDbLine
 62
7
  6
CONTINUOUS
 10
11.2152440153
 20
10.1009616237
 11
11.2072206315
 21
10.0632679272
  0
LINE
  5
29E
100
AcDbEntity
  8
0
100
AcDbLine
 62
7
  6
CONTINUOUS
 10
11.904095587
 20
9.5461560386
 11
11.6664998996
 21
9.3166562144
  0
LINE
  5
29F
100
AcDbEntity
  8
0
100
AcDbLine
 62
7
  6
CONTINUOUS
 10
11.6251891351
 20
9.2147530777
 11
12.065181161
 21
9.6397527641
  0
LINE
  5
2A0
100
AcDbEntity
  8
0
100
AcDbLine
 62
7
  6
CONTINUOUS
 10
11.2062547056
 20
5.8364430528
 11
11.2062547056
 21
7.0704728108
  0
LINE
  5
2A1
100
AcDbEntity
  8
0
100
AcDbLine
 62
7
  6
CONTINUOUS
 10
11.2072206315
 20
10.0632679272
 11
11.2072206315
 21
9.2480264815
  0
LINE
  5
2A2
100
AcDbEntity
  8
0
100
AcDbLine
 62
7
  6
CONTINUOUS
 10
11.3790701355
 20
10.529335848
 11
11.3790701355
 21
10.9499350738
  0
LINE
  5
2A3
100
AcDbEntity
  8
0
100
AcDbLine
 62
7
  6
CONTINUOUS
 10
11.4209503445
 20
10.5401752396
 11
11.4209503445
 21
10.9607744653
  0
LINE
  5
2A4
100
AcDbEntity
  8
0
100
AcDbLine
 62
7
  6
CONTINUOUS
 10
11.4823695955
 20
10.3713031311
 11
11.4823695955
 21
10.5502558957
  0
LINE
  5
2A5
100
AcDbEntity
  8
0
100
AcDbLine
 62
7
  6
CONTINUOUS
 10
11.5340049698
 20
10.6493776284
 11
11.5340049698
 21
11.0699768542
  0
LINE
  5
2A6
100
AcDbEntity
  8
0
100
AcDbLine
 62
7
  6
CONTINUOUS
 10
11.6251891351
 20
9.2147530777
 11
11.6251891351
 21
7.0414196095
  0
LINE
  5
2A7
100
AcDbEntity
  8
0
100
AcDbLine
 62
7
  6
CONTINUOUS
 10
11.6655339738
 20
5.9050727857
 11
11.6655339738
 21
7.0803897334
  0
LINE
  5
2A8
100
AcDbEntity
  8
0
100
AcDbLine
 62
7
  6
CONTINUOUS
 10
11.6664998996
 20
10.1318976601
 11
11.6664998996
 21
9.3166562144
  0
LINE
  5
2A9
100
AcDbEntity
  8
0
100
AcDbLine
 62
7
  6
CONTINUOUS
 10
11.6251891351
 20
9.2147530777
 11
9.934818839
 21
9.3319806559
  0
LINE
  5
2AA
100
AcDbEntity
  8
0
100
AcDbLine
 62
7
  6
CONTINUOUS
 10
11.2072206315
 20
9.2480264815
 11
10.3620354834
 21
9.3066402706
  0
LINE
  5
2AB
100
AcDbEntity
  8
0
100
AcDbLine
 62
7
  6
CONTINUOUS
 10
11.9031296611
 20
6.1345726099
 11
11.9031296611
 21
7.3098895576
  0
LINE
  5
2AC
100
AcDbEntity
  8
0
100
AcDbLine
 62
7
  6
CONTINUOUS
 10
11.904095587
 20
10.3613974843
 11
11.904095587
 21
9.5461560386
  0
LINE
  5
2AD
100
AcDbEntity
  8
0
100
AcDbLine
 62
7
  6
CONTINUOUS
 10
11.9159074548
 20
7.3222319592
 11
11.9159074548
 21
6.1596928052
  0
LINE
  5
2AE
100
AcDbEntity
  8
0
100
AcDbLine
 62
7
  6
CONTINUOUS
 10
11.9168733806
 20
9.5712762339
 11
11.9168733806
 21
10.3865176796
  0
LINE
  5
2AF
100
AcDbEntity
  8
0
100
AcDbLine
 62
7
  6
CONTINUOUS
 10
12.065181161
 20
9.6397527641
 11
12.065181161
 21
7.4664192958
  0
LINE
  5
2B0
100
AcDbEntity
  8
0
100
AcDbLine
 62
7
  6
CONTINUOUS
 10
12.065181161
 20
9.6397527641
 11
11.9168733806
 21
9.6500379436
  0
LINE
  5
2B1
100
AcDbEntity
  8
0
100
AcDbLine
 62
7
  6
CONTINUOUS
 10
10.643001941
 20
10.5350327351
 11
10.5837508047
 21
10.5901721374
  0
LINE
  5
2B2
100
AcDbEntity
  8
0
100
AcDbLine
 62
7
  6
CONTINUOUS
 10
11.6251891351
 20
7.0414196095
 11
12.065181161
 21
7.4664192958
  0
LINE
  5
2B3
100
AcDbEntity
  8
0
100
AcDbLine
 62
4
  6
CONTINUOUS
 10
11.6351355789
 20
10.2885457501
 11
11.6238509608
 21
10.285978979
  0
LINE
  5
2B4
100
AcDbEntity
  8
0
100
AcDbLine
 62
4
  6
CONTINUOUS
 10
11.5417782246
 20
10.2983694666
 11
11.5530628406
 21
10.3009362378
  0
LINE
  5
2B5
100
AcDbEntity
  8
0
100
AcDbLine
 62
4
  6
CONTINUOUS
 10
11.686899346
 20
10.3385457125
 11
11.6756147278
 21
10.3359789415
  0
LINE
  5
2B6
100
AcDbEntity
  8
0
100
AcDbLine
 62
4
  6
CONTINUOUS
 10
11.5935419917
 20
10.348369429
 11
11.6048266077
 21
10.3509362002
  0
LINE
  5
2B7
100
AcDbEntity
  8
0
100
AcDbLine
 62
4
  6
CONTINUOUS
 10
11.6178062575
 20
10.3718069114
 11
11.6290908735
 21
10.3743736826
  0
LINE
  5
2B8
100
AcDbEntity
  8
0
100
AcDbLine
 62
4
  6
CONTINUOUS
 10
11.6238509608
 20
10.285978979
 11
11.6045169606
 21
10.2839704345
  0
LINE
  5
2B9
100
AcDbEntity
  8
0
100
AcDbLine
 62
4
  6
CONTINUOUS
 10
11.5530628406
 20
10.3009362378
 11
11.5627298446
 21
10.3019405098
  0
LINE
  5
2BA
100
AcDbEntity
  8
0
100
AcDbLine
 62
4
  6
CONTINUOUS
 10
11.6756147278
 20
10.3359789415
 11
11.6562807277
 21
10.3339703969
  0
LINE
  5
2BB
100
AcDbEntity
  8
0
100
AcDbLine
 62
7
  6
CONTINUOUS
 10
11.2072206315
 20
10.0632679272
 11
10.3620354834
 21
10.1218817163
  0
LINE
  5
2BC
100
AcDbEntity
  8
0
100
AcDbLine
 62
7
  6
CONTINUOUS
 10
11.2152440153
 20
10.1009616237
 11
10.3700588672
 21
10.1595754128
  0
LINE
  5
2BD
100
AcDbEntity
  8
0
100
AcDbLine
 62
4
  6
CONTINUOUS
 10
11.5433571343
 20
10.2915612448
 11
11.5385429891
 21
10.2952444689
  0
LINE
  5
2BE
100
AcDbEntity
  8
0
100
AcDbLine
 62
7
  6
CONTINUOUS
 10
11.6365561973
 20
10.1639179653
 11
11.6664998996
 21
10.1318976601
  0
LINE
  5
2BF
100
AcDbEntity
  8
0
100
AcDbLine
 62
4
  6
CONTINUOUS
 10
11.6048266077
 20
10.3509362002
 11
11.6144936117
 21
10.3519404722
  0
LINE
  5
2C0
100
AcDbEntity
  8
0
100
AcDbLine
 62
4
  6
CONTINUOUS
 10
11.6290908735
 20
10.3743736826
 11
11.6484248758
 21
10.376382227
  0
LINE
  5
2C1
100
AcDbEntity
  8
0
100
AcDbLine
 62
4
  6
CONTINUOUS
 10
11.5595720195
 20
10.3155569537
 11
11.6691055511
 21
10.3213582254
  0
LINE
  5
2C2
100
AcDbEntity
  8
0
100
AcDbLine
 62
4
  6
CONTINUOUS
 10
11.6045169606
 20
10.2839704345
 11
11.5787511954
 21
10.2840826154
  0
LINE
  5
2C3
100
AcDbEntity
  8
0
100
AcDbLine
 62
4
  6
CONTINUOUS
 10
11.6562807277
 20
10.3339703969
 11
11.6305149625
 21
10.3340825778
  0
LINE
  5
2C4
100
AcDbEntity
  8
0
100
AcDbLine
 62
4
  6
CONTINUOUS
 10
11.6484248758
 20
10.376382227
 11
11.674190641
 21
10.3762700461
  0
LINE
  5
2C5
100
AcDbEntity
  8
0
100
AcDbLine
 62
4
  6
CONTINUOUS
 10
11.7079283764
 20
10.3588581973
 11
11.6113357866
 21
10.3655569161
  0
LINE
  5
2C6
100
AcDbEntity
  8
0
100
AcDbLine
 62
4
  6
CONTINUOUS
 10
11.5787511954
 20
10.2840826154
 11
11.5562206657
 21
10.2873197939
  0
LINE
  5
2C7
100
AcDbEntity
  8
0
100
AcDbLine
 62
4
  6
CONTINUOUS
 10
11.6305149625
 20
10.3340825778
 11
11.6079844328
 21
10.3373197564
  0
LINE
  5
2C8
100
AcDbEntity
  8
0
100
AcDbLine
 62
4
  6
CONTINUOUS
 10
11.674190641
 20
10.3762700461
 11
11.6967211707
 21
10.3730328676
  0
LINE
  5
2C9
100
AcDbEntity
  8
0
100
AcDbLine
 62
4
  6
CONTINUOUS
 10
11.6561646093
 20
10.3088582348
 11
11.5725129613
 21
10.3280569443
  0
LINE
  5
2CA
100
AcDbEntity
  8
0
100
AcDbLine
 62
4
  6
CONTINUOUS
 10
11.5562206657
 20
10.2873197939
 11
11.5433571343
 21
10.2915612448
  0
LINE
  5
2CB
100
AcDbEntity
  8
0
100
AcDbLine
 62
4
  6
CONTINUOUS
 10
11.6271249021
 20
10.2974746974
 11
11.6335566671
 21
10.295353972
  0
LINE
  5
2CC
100
AcDbEntity
  8
0
100
AcDbLine
 62
4
  6
CONTINUOUS
 10
11.6079844328
 20
10.3373197564
 11
11.5951209013
 21
10.3415612073
  0
LINE
  5
2CD
100
AcDbEntity
  8
0
100
AcDbLine
 62
4
  6
CONTINUOUS
 10
11.6335566671
 20
10.295353972
 11
11.6383708144
 21
10.2916707477
  0
LINE
  5
2CE
100
AcDbEntity
  8
0
100
AcDbLine
 62
4
  6
CONTINUOUS
 10
11.5951209013
 20
10.3415612073
 11
11.5903067562
 21
10.3452444314
  0
LINE
  5
2CF
100
AcDbEntity
  8
0
100
AcDbLine
 62
4
  6
CONTINUOUS
 10
11.6853204342
 20
10.3453539344
 11
11.6901345814
 21
10.3416707102
  0
LINE
  5
2D0
100
AcDbEntity
  8
0
100
AcDbLine
 62
4
  6
CONTINUOUS
 10
11.7095847
 20
10.3687914168
 11
11.7143988473
 21
10.3651081926
  0
LINE
  5
2D1
100
AcDbEntity
  8
0
100
AcDbLine
 62
7
  6
CONTINUOUS
 10
11.8741518846
 20
10.3934177895
 11
11.904095587
 21
10.3613974843
  0
LINE
  5
2D2
100
AcDbEntity
  8
0
100
AcDbLine
 62
7
  6
CONTINUOUS
 10
11.4823695955
 20
10.5127624242
 11
11.6309070587
 21
10.5024613161
  0
LINE
  5
2D3
100
AcDbEntity
  8
0
100
AcDbLine
 62
4
  6
CONTINUOUS
 10
11.6788886692
 20
10.3474746598
 11
11.6853204342
 21
10.3453539344
  0
LINE
  5
2D4
100
AcDbEntity
  8
0
100
AcDbLine
 62
4
  6
CONTINUOUS
 10
11.6967211707
 20
10.3730328676
 11
11.7095847
 21
10.3687914168
  0
LINE
  5
2D5
100
AcDbEntity
  8
0
100
AcDbLine
 62
7
  6
CONTINUOUS
 10
11.9031607969
 20
10.412524018
 11
11.8732943705
 21
10.440317863
  0
LINE
  5
2D6
100
AcDbEntity
  8
0
100
AcDbLine
 62
7
  6
CONTINUOUS
 10
11.6655339738
 20
5.9050727857
 11
11.9031296611
 21
6.1345726099
  0
LINE
  5
2D7
100
AcDbEntity
  8
0
100
AcDbLine
 62
7
  6
CONTINUOUS
 10
11.6645991837
 20
5.9041866427
 11
11.6655339738
 21
5.9050727857
  0
LINE
  5
2D8
100
AcDbEntity
  8
0
100
AcDbLine
 62
7
  6
CONTINUOUS
 10
11.6645991837
 20
5.9041866427
 11
11.6347327573
 21
5.8763927976
  0
LINE
  5
2D9
100
AcDbEntity
  8
0
100
AcDbLine
 62
7
  6
CONTINUOUS
 10
11.4609215906
 20
11.1168060485
 11
11.4357559332
 21
11.1292374015
  0
ARC
  5
2DA
100
AcDbEntity
  8
0
100
AcDbCircle
 62
7
  6
CONTINUOUS
 10
11.0490238223
 20
12.243245588
 40
1.7455901857
100
AcDbArc
 50
266.0345339438
 51
266.9828267507
  0
ARC
  5
2DB
100
AcDbEntity
  8
0
100
AcDbCircle
 62
7
  6
CONTINUOUS
 10
11.0490238223
 20
12.6638448136
 40
1.7455901856
100
AcDbArc
 50
266.0345339438
 51
266.9828267508
  0
ARC
  5
2DC
100
AcDbEntity
  8
0
100
AcDbCircle
 62
7
  6
CONTINUOUS
 10
11.0445482797
 20
12.178811722
 40
1.681001073
100
AcDbArc
 50
265.064846266
 51
266.0348369886
  0
ARC
  5
2DD
100
AcDbEntity
  8
0
100
AcDbCircle
 62
7
  6
CONTINUOUS
 10
11.0434506042
 20
12.5853068081
 40
1.6668547948
100
AcDbArc
 50
265.0607301035
 51
266.0389531511
  0
ARC
  5
2DE
100
AcDbEntity
  8
0
100
AcDbCircle
 62
7
  6
CONTINUOUS
 10
10.749340278
 20
7.3851105032
 40
0.3280568611
100
AcDbArc
 50
96.4424787403
 51
96.844540797
  0
ARC
  5
2DF
100
AcDbEntity
  8
0
100
AcDbCircle
 62
7
  6
CONTINUOUS
 10
10.7905221401
 20
7.6096311015
 40
0.1279756533
100
AcDbArc
 50
127.5480180236
 51
128.3087170576
  0
ARC
  5
2E0
100
AcDbEntity
  8
0
100
AcDbCircle
 62
7
  6
CONTINUOUS
 10
11.1951058561
 20
8.1549904772
 40
0.1193632688
100
AcDbArc
 50
19.0195626702
 51
21.1065240676
  0
ARC
  5
2E1
100
AcDbEntity
  8
0
100
AcDbCircle
 62
7
  6
CONTINUOUS
 10
11.1976666433
 20
8.1557409775
 40
0.1166963228
100
AcDbArc
 50
0.053576593
 51
19.0809390174
  0
ARC
  5
2E2
100
AcDbEntity
  8
0
100
AcDbCircle
 62
7
  6
CONTINUOUS
 10
10.2526290731
 20
8.7558595709
 40
0.0685739135
100
AcDbArc
 50
218.8312951683
 51
229.2574545736
  0
SPLINE
  5
2E3
100
AcDbEntity
  8
0
100
AcDbSpline
 62
7
  6
CONTINUOUS
 70
0
 71
3
 72
29
 73
25
 74
0
 42
0.0000001
 43
0.0000001
 44
0.0000000001
 40
0.0
 40
0.0
 40
0.0
 40
0.0
 40
0.0709843954
 40
0.1429812201
 40
0.2155042298
 40
0.2880788987
 40
0.3602209089
 40
0.4314531522
 40
0.5013053717
 40
0.5693195729
 40
0.6350541086
 40
0.6980881247
 40
0.7284686944
 40
0.7580282142
 40
0.786722009
 40
0.814508136
 40
0.8413463269
 40
0.8672000856
 40
0.8920350492
 40
0.9158207284
 40
0.9385303952
 40
0.9601409482
 40
0.9806351163
 40
1.0
 40
1.0
 40
1.0
 40
1.0
 10
11.166161693
 20
11.1850865226
 30
0.0
 10
11.1543711855
 20
11.1859041971
 30
0.0
 10
11.1306018631
 20
11.1872725759
 30
0.0
 10
11.0947399508
 20
11.1885314033
 30
0.0
 10
11.0585941457
 20
11.1890059956
 30
0.0
 10
11.0224224653
 20
11.188693309
 30
0.0
 10
10.9864810458
 20
11.1875953386
 30
0.0
 10
10.9510255872
 20
11.1857201313
 30
0.0
 10
10.9163078376
 20
11.183081151
 30
0.0
 10
10.882574249
 20
11.179697533
 30
0.0
 10
10.8500644445
 20
11.1755936837
 30
0.0
 10
10.8238723924
 20
11.1715505419
 30
0.0
 10
10.8037134776
 20
11.1679622461
 30
0.0
 10
10.7892269836
 20
11.1651437379
 30
0.0
 10
10.7752128459
 20
11.1621698747
 30
0.0
 10
10.7616958973
 20
11.1590462231
 30
0.0
 10
10.7487001477
 20
11.1557780041
 30
0.0
 10
10.7362485947
 20
11.1523714316
 30
0.0
 10
10.7243632946
 20
11.1488323465
 30
0.0
 10
10.713065249
 20
11.1451671311
 30
0.0
 10
10.7023743627
 20
11.1413824985
 30
0.0
 10
10.6923094529
 20
11.1374847962
 30
0.0
 10
10.6828882666
 20
11.1334815007
 30
0.0
 10
10.6768762546
 20
11.1306664227
 30
0.0
 10
10.6739854815
 20
11.1292384499
 30
0.0
  0
SPLINE
  5
2E4
100
AcDbEntity
  8
0
100
AcDbSpline
 62
7
  6
CONTINUOUS
 70
0
 71
3
 72
11
 73
7
 74
0
 42
0.0000001
 43
0.0000001
 44
0.0000000001
 40
0.0
 40
0.0
 40
0.0
 40
0.0
 40
0.2300040706
 40
0.472852583
 40
0.7293161897
 40
1.0
 40
1.0
 40
1.0
 40
1.0
 10
11.5340049698
 20
11.0699768542
 30
0.0
 10
11.5329912669
 20
11.0712631962
 30
0.0
 10
11.5308046868
 20
11.0738280467
 30
0.0
 10
11.5271747543
 20
11.0775464732
 30
0.0
 10
11.5231127537
 20
11.0812334505
 30
0.0
 10
11.5201993574
 20
11.0836032491
 30
0.0
 10
11.5186757334
 20
11.0847837342
 30
0.0
  0
SPLINE
  5
2E5
100
AcDbEntity
  8
0
100
AcDbSpline
 62
7
  6
CONTINUOUS
 70
0
 71
3
 72
9
 73
5
 74
0
 42
0.0000001
 43
0.0000001
 44
0.0000000001
 40
0.0
 40
0.0
 40
0.0
 40
0.0
 40
0.5039916898
 40
1.0
 40
1.0
 40
1.0
 40
1.0
 10
11.5186757334
 20
11.0847837342
 30
0.0
 10
11.5092024054
 20
11.0905725938
 30
0.0
 10
11.4901870277
 20
11.1017057452
 30
0.0
 10
11.4706904048
 20
11.1119802342
 30
0.0
 10
11.460894359
 20
11.1168194968
 30
0.0
  0
SPLINE
  5
2E6
100
AcDbEntity
  8
0
100
AcDbSpline
 62
7
  6
CONTINUOUS
 70
0
 71
3
 72
23
 73
19
 74
0
 42
0.0000001
 43
0.0000001
 44
0.0000000001
 40
0.0
 40
0.0
 40
0.0
 40
0.0
 40
0.0439942694
 40
0.0899281105
 40
0.1380402319
 40
0.1885308717
 40
0.2415681956
 40
0.2972700095
 40
0.355717314
 40
0.4169404831
 40
0.4809365726
 40
0.5476613324
 40
0.6170454927
 40
0.6889920342
 40
0.7633890097
 40
0.8401120353
 40
0.9190284619
 40
1.0
 40
1.0
 40
1.0
 40
1.0
 10
10.6576812849
 20
11.1211845391
 30
0.0
 10
10.6559374053
 20
11.1203230804
 30
0.0
 10
10.6524372781
 20
11.1184287754
 30
0.0
 10
10.647280811
 20
11.1151561026
 30
0.0
 10
10.6421174232
 20
11.1113840065
 30
0.0
 10
10.6369497091
 20
11.107107141
 30
0.0
 10
10.6317818741
 20
11.1023219047
 30
0.0
 10
10.6266159885
 20
11.0970312948
 30
0.0
 10
10.6214563252
 20
11.0912406565
 30
0.0
 10
10.6163047658
 20
11.0849612183
 30
0.0
 10
10.6111650975
 20
11.0782064581
 30
0.0
 10
10.6060389382
 20
11.0709942897
 30
0.0
 10
10.6009292136
 20
11.0633442514
 30
0.0
 10
10.5958371515
 20
11.0552785628
 30
0.0
 10
10.5907646201
 20
11.0468201
 30
0.0
 10
10.5857123728
 20
11.0379927788
 30
0.0
 10
10.5806813502
 20
11.0288205374
 30
0.0
 10
10.5773822849
 20
11.0225683529
 30
0.0
 10
10.5757342211
 20
11.0193904026
 30
0.0
  0
SPLINE
  5
2E7
100
AcDbEntity
  8
0
100
AcDbSpline
 62
7
  6
CONTINUOUS
 70
0
 71
3
 72
23
 73
19
 74
0
 42
0.0000001
 43
0.0000001
 44
0.0000000001
 40
0.0
 40
0.0
 40
0.0
 40
0.0
 40
0.0430704277
 40
0.0891882672
 40
0.1383071101
 40
0.1903579305
 40
0.2452553885
 40
0.3028971933
 40
0.3631692454
 40
0.4259437723
 40
0.491084088
 40
0.5584430006
 40
0.6278662295
 40
0.6991881365
 40
0.7722386102
 40
0.846848697
 40
0.9228408912
 40
1.0
 40
1.0
 40
1.0
 40
1.0
 10
11.4357525712
 20
11.1292390442
 30
0.0
 10
11.4321903306
 20
11.1309986849
 30
0.0
 10
11.4247193287
 20
11.134453063
 30
0.0
 10
11.4129165108
 20
11.1393062467
 30
0.0
 10
11.4001616054
 20
11.1439962909
 30
0.0
 10
11.3864884687
 20
11.1485109539
 30
0.0
 10
11.3719328591
 20
11.1528377925
 30
0.0
 10
11.3565332778
 20
11.1569655869
 30
0.0
 10
11.3403304464
 20
11.1608828341
 30
0.0
 10
11.3233673805
 20
11.1645794144
 30
0.0
 10
11.3056890899
 20
11.1680449906
 30
0.0
 10
11.287342508
 20
11.1712706436
 30
0.0
 10
11.2683765412
 20
11.1742472629
 30
0.0
 10
11.2488419179
 20
11.1769672865
 30
0.0
 10
11.2287902513
 20
11.1794230888
 30
0.0
 10
11.2082740346
 20
11.1816084028
 30
0.0
 10
11.1873496849
 20
11.1835168155
 30
0.0
 10
11.1732623862
 20
11.1845940878
 30
0.0
 10
11.166161693
 20
11.1850865226
 30
0.0
  0
SPLINE
  5
2E8
100
AcDbEntity
  8
0
100
AcDbSpline
 62
7
  6
CONTINUOUS
 70
0
 71
3
 72
9
 73
5
 74
0
 42
0.0000001
 43
0.0000001
 44
0.0000000001
 40
0.0
 40
0.0
 40
0.0
 40
0.0
 40
0.5157229031
 40
1.0
 40
1.0
 40
1.0
 40
1.0
 10
10.5837507895
 20
10.5901721487
 30
0.0
 10
10.5822683924
 20
10.5915516742
 30
0.0
 10
10.5794802326
 20
10.5943215352
 30
0.0
 10
10.5769111773
 20
10.597297674
 30
0.0
 10
10.5757342211
 20
10.5987911768
 30
0.0
  0
SPLINE
  5
2E9
100
AcDbEntity
  8
0
100
AcDbSpline
 62
7
  6
CONTINUOUS
 70
0
 71
3
 72
21
 73
17
 74
0
 42
0.0000001
 43
0.0000001
 44
0.0000000001
 40
0.0
 40
0.0
 40
0.0
 40
0.0
 40
0.0433799504
 40
0.0894614002
 40
0.1383104872
 40
0.1899483872
 40
0.2443615898
 40
0.3014984577
 40
0.3612867592
 40
0.4236300862
 40
0.4884185859
 40
0.555533157
 40
0.6248470679
 40
0.6962323607
 40
0.844715157
 40
1.0
 40
1.0
 40
1.0
 40
1.0
 10
11.4764060834
 20
10.5440308087
 30
0.0
 10
11.4776860793
 20
10.5452220555
 30
0.0
 10
11.4802434358
 20
10.5477682538
 30
0.0
 10
11.4839611394
 20
10.5519261214
 30
0.0
 10
11.4876708632
 20
10.55652701
 30
0.0
 10
11.4913692381
 20
10.5615597807
 30
0.0
 10
11.4950526971
 20
10.5670113033
 30
0.0
 10
11.4987191256
 20
10.5728654657
 30
0.0
 10
11.5023652075
 20
10.5791052535
 30
0.0
 10
11.505989374
 20
10.5857116504
 30
0.0
 10
11.5095894666
 20
10.5926653366
 30
0.0
 10
11.5131641206
 20
10.5999463656
 30
0.0
 10
11.5167123972
 20
10.6075347845
 30
0.0
 10
11.5214695438
 20
10.6181767249
 30
0.0
 10
11.5273218955
 20
10.6321222611
 30
0.0
 10
11.5317824807
 20
10.6435262698
 30
0.0
 10
11.5340049698
 20
10.6493776284
 30
0.0
  0
SPLINE
  5
2EA
100
AcDbEntity
  8
0
100
AcDbSpline
 62
7
  6
CONTINUOUS
 70
0
 71
3
 72
9
 73
5
 74
0
 42
0.0000001
 43
0.0000001
 44
0.0000000001
 40
0.0
 40
0.0
 40
0.0
 40
0.0
 40
0.5132482981
 40
1.0
 40
1.0
 40
1.0
 40
1.0
 10
11.3790701355
 20
10.529335848
 30
0.0
 10
11.3862849139
 20
10.5309895448
 30
0.0
 10
11.4003011522
 20
10.5343934057
 30
0.0
 10
11.4142124477
 20
10.5382060678
 30
0.0
 10
11.4209503445
 20
10.5401752396
 30
0.0
  0
SPLINE
  5
2EB
100
AcDbEntity
  8
0
100
AcDbSpline
 62
7
  6
CONTINUOUS
 70
0
 71
3
 72
32
 73
28
 74
0
 42
0.0000001
 43
0.0000001
 44
0.0000000001
 40
0.0
 40
0.0
 40
0.0
 40
0.0
 40
0.0761052867
 40
0.1533669809
 40
0.2310988855
 40
0.3086122185
 40
0.3852190421
 40
0.4602426017
 40
0.5330242209
 40
0.5683766215
 40
0.6029342026
 40
0.6366235788
 40
0.6693740062
 40
0.7011180844
 40
0.7317914569
 40
0.7613340589
 40
0.7896893882
 40
0.816806382
 40
0.8426383382
 40
0.8671455213
 40
0.8902938776
 40
0.9120584133
 40
0.9324221857
 40
0.9513807378
 40
0.9689420863
 40
0.9851327367
 40
1.0
 40
1.0
 40
1.0
 40
1.0
 10
10.944224545
 20
10.4578050426
 30
0.0
 10
10.9577990859
 20
10.456863645
 30
0.0
 10
10.9851814243
 20
10.4553378836
 30
0.0
 10
11.0264862394
 20
10.4541039508
 30
0.0
 10
11.0680610365
 20
10.4539128256
 30
0.0
 10
11.1095103334
 20
10.4547662865
 30
0.0
 10
11.1504408191
 20
10.4566560931
 30
0.0
 10
11.1904634691
 20
10.4595639589
 30
0.0
 10
11.2230513675
 20
10.4628427224
 30
0.0
 10
11.2483722883
 20
10.465969223
 30
0.0
 10
11.2667187445
 20
10.4685257588
 30
0.0
 10
11.2845613115
 20
10.4713102765
 30
0.0
 10
11.3018576209
 20
10.4743162973
 30
0.0
 10
11.3185665919
 20
10.4775364098
 30
0.0
 10
11.3346485598
 20
10.4809631437
 30
0.0
 10
11.3500653965
 20
10.4845879851
 30
0.0
 10
11.3647805536
 20
10.4884025938
 30
0.0
 10
11.3787592473
 20
10.4923974191
 30
0.0
 10
11.3919684258
 20
10.4965633512
 30
0.0
 10
11.404377063
 20
10.5008899202
 30
0.0
 10
11.4159559788
 20
10.505367376
 30
0.0
 10
11.4266783066
 20
10.5099845004
 30
0.0
 10
11.4365191189
 20
10.5147311353
 30
0.0
 10
11.4454560709
 20
10.5195956099
 30
0.0
 10
11.4534690599
 20
10.5245680028
 30
0.0
 10
11.4605398415
 20
10.5296363471
 30
0.0
 10
11.4647910766
 20
10.5332217052
 30
0.0
 10
11.4667369851
 20
10.5350325952
 30
0.0
  0
SPLINE
  5
2EC
100
AcDbEntity
  8
0
100
AcDbSpline
 62
7
  6
CONTINUOUS
 70
0
 71
3
 72
9
 73
5
 74
0
 42
0.0000001
 43
0.0000001
 44
0.0000000001
 40
0.0
 40
0.0
 40
0.0
 40
0.0
 40
0.2585815618
 40
1.0
 40
1.0
 40
1.0
 40
1.0
 10
10.5910634576
 20
10.5839842967
 30
0.0
 10
10.5904106357
 20
10.5844900951
 30
0.0
 10
10.5879060822
 20
10.5864717743
 30
0.0
 10
10.5854842021
 20
10.588559027
 30
0.0
 10
10.5837507895
 20
10.5901721487
 30
0.0
  0
SPLINE
  5
2ED
100
AcDbEntity
  8
0
100
AcDbSpline
 62
7
  6
CONTINUOUS
 70
0
 71
3
 72
29
 73
25
 74
0
 42
0.0000001
 43
0.0000001
 44
0.0000000001
 40
0.0
 40
0.0
 40
0.0
 40
0.0
 40
0.0844950517
 40
0.1673041968
 40
0.2480812508
 40
0.3265309817
 40
0.4023596087
 40
0.4752843088
 40
0.5450428429
 40
0.6113925841
 40
0.6741118201
 40
0.7330058786
 40
0.7609674181
 40
0.7879139561
 40
0.813830232
 40
0.8387048565
 40
0.8625287927
 40
0.8852959941
 40
0.907005594
 40
0.9276607207
 40
0.9472691011
 40
0.9658457985
 40
0.9834128207
 40
1.0
 40
1.0
 40
1.0
 40
1.0
 10
10.944224545
 20
10.4578050426
 30
0.0
 10
10.9353758114
 20
10.4584187044
 30
0.0
 10
10.9178652296
 20
10.4597892204
 30
0.0
 10
10.8919425545
 20
10.4623018713
 30
0.0
 10
10.8667036078
 20
10.465243166
 30
0.0
 10
10.8422559348
 20
10.468600276
 30
0.0
 10
10.8187009373
 20
10.4723588272
 30
0.0
 10
10.7961375058
 20
10.4765030681
 30
0.0
 10
10.7746602878
 20
10.4810153221
 30
0.0
 10
10.7543588505
 20
10.4858761526
 30
0.0
 10
10.7353181981
 20
10.491065165
 30
0.0
 10
10.7203182868
 20
10.4957212682
 30
0.0
 10
10.7090212912
 20
10.4996092093
 30
0.0
 10
10.701059129
 20
10.5025427275
 30
0.0
 10
10.693468614
 20
10.5055414439
 30
0.0
 10
10.6862575496
 20
10.5086020484
 30
0.0
 10
10.679433426
 20
10.5117213317
 30
0.0
 10
10.6730034237
 20
10.5148962723
 30
0.0
 10
10.6669740756
 20
10.5181233776
 30
0.0
 10
10.6613515269
 20
10.5213992981
 30
0.0
 10
10.6561417066
 20
10.5247209581
 30
0.0
 10
10.6513497385
 20
10.5280849328
 30
0.0
 10
10.6469806062
 20
10.5314876531
 30
0.0
 10
10.6442769218
 20
10.5338462642
 30
0.0
 10
10.6430022434
 20
10.5350325146
 30
0.0
  0
SPLINE
  5
2EE
100
AcDbEntity
  8
0
100
AcDbSpline
 62
7
  6
CONTINUOUS
 70
0
 71
3
 72
9
 73
5
 74
0
 42
0.0000001
 43
0.0000001
 44
0.0000000001
 40
0.0
 40
0.0
 40
0.0
 40
0.0
 40
0.5132482981
 40
1.0
 40
1.0
 40
1.0
 40
1.0
 10
11.3790701355
 20
10.9499350738
 30
0.0
 10
11.3862849139
 20
10.9515887705
 30
0.0
 10
11.4003011522
 20
10.9549926315
 30
0.0
 10
11.4142124477
 20
10.9588052935
 30
0.0
 10
11.4209503445
 20
10.9607744653
 30
0.0
  0
SPLINE
  5
2EF
100
AcDbEntity
  8
0
100
AcDbSpline
 62
7
  6
CONTINUOUS
 70
0
 71
3
 72
11
 73
7
 74
0
 42
0.0000001
 43
0.0000001
 44
0.0000000001
 40
0.0
 40
0.0
 40
0.0
 40
0.0
 40
0.2300040706
 40
0.472852583
 40
0.7293161897
 40
1.0
 40
1.0
 40
1.0
 40
1.0
 10
10.5757342211
 20
11.0193904026
 30
0.0
 10
10.5767479241
 20
11.0181040605
 30
0.0
 10
10.5789345042
 20
11.01553921
 30
0.0
 10
10.5825644367
 20
11.0118207835
 30
0.0
 10
10.5866264373
 20
11.0081338062
 30
0.0
 10
10.5895398336
 20
11.0057640076
 30
0.0
 10
10.5910634576
 20
11.0045835225
 30
0.0
  0
SPLINE
  5
2F0
100
AcDbEntity
  8
0
100
AcDbSpline
 62
7
  6
CONTINUOUS
 70
0
 71
3
 72
23
 73
19
 74
0
 42
0.0000001
 43
0.0000001
 44
0.0000000001
 40
0.0
 40
0.0
 40
0.0
 40
0.0
 40
0.0584989171
 40
0.1172262215
 40
0.1762452737
 40
0.2356321639
 40
0.2954674301
 40
0.3558345992
 40
0.4168157974
 40
0.4784845687
 40
0.5409013518
 40
0.6041095196
 40
0.6681319775
 40
0.7329718032
 40
0.7986138436
 40
0.865027526
 40
0.9321732164
 40
1.0
 40
1.0
 40
1.0
 40
1.0
 10
10.5910634576
 20
11.0045835225
 30
0.0
 10
10.5973785638
 20
11.0051735545
 30
0.0
 10
10.6100549892
 20
11.0061390272
 30
0.0
 10
10.6291541459
 20
11.0068807519
 30
0.0
 10
10.6483649234
 20
11.0068575218
 30
0.0
 10
10.6676778973
 20
11.0060099212
 30
0.0
 10
10.6870796665
 20
11.0042843584
 30
0.0
 10
10.7065521103
 20
11.0016363821
 30
0.0
 10
10.7260729688
 20
10.9980327167
 30
0.0
 10
10.7456170969
 20
10.9934557878
 30
0.0
 10
10.7651581182
 20
10.9879050792
 30
0.0
 10
10.7846697676
 20
10.9813957971
 30
0.0
 10
10.8041279389
 20
10.9739591477
 30
0.0
 10
10.8235121299
 20
10.9656399038
 30
0.0
 10
10.8428056041
 20
10.9564916313
 30
0.0
 10
10.8619963444
 20
10.9465742936
 30
0.0
 10
10.8810763105
 20
10.9359513099
 30
0.0
 10
10.8936596417
 20
10.9284763807
 30
0.0
 10
10.8999347612
 20
10.924641848
 30
0.0
  0
SPLINE
  5
2F1
100
AcDbEntity
  8
0
100
AcDbSpline
 62
7
  6
CONTINUOUS
 70
0
 71
3
 72
27
 73
23
 74
0
 42
0.0000001
 43
0.0000001
 44
0.0000000001
 40
0.0
 40
0.0
 40
0.0
 40
0.0
 40
0.0711799262
 40
0.141317139
 40
0.2102786971
 40
0.2779435126
 40
0.3442052986
 40
0.4089942282
 40
0.4408343798
 40
0.4723064288
 40
0.5034192897
 40
0.5341865041
 40
0.5646267925
 40
0.5947616635
 40
0.6246175538
 40
0.6542220196
 40
0.7127849313
 40
0.7707060979
 40
0.8282130623
 40
0.8855005337
 40
0.9427256953
 40
1.0
 40
1.0
 40
1.0
 40
1.0
 10
10.5910634576
 20
10.5839842967
 30
0.0
 10
10.597104171
 20
10.578735312
 30
0.0
 10
10.6092680973
 20
10.5685084256
 30
0.0
 10
10.6279315388
 20
10.5539866469
 30
0.0
 10
10.6468907681
 20
10.5405210933
 30
0.0
 10
10.6661365196
 20
10.5282566124
 30
0.0
 10
10.6856457421
 20
10.5173426139
 30
0.0
 10
10.7021876624
 20
10.5094475419
 30
0.0
 10
10.7155050698
 20
10.5039565348
 30
0.0
 10
10.7254673357
 20
10.5002808942
 30
0.0
 10
10.7354507112
 20
10.4970338169
 30
0.0
 10
10.7454457034
 20
10.4942244816
 30
0.0
 10
10.7554411926
 20
10.4918552028
 30
0.0
 10
10.765427193
 20
10.4899293561
 30
0.0
 10
10.7753932075
 20
10.4884431963
 30
0.0
 10
10.788592058
 20
10.4870473107
 30
0.0
 10
10.8050232163
 20
10.486359034
 30
0.0
 10
10.8245890721
 20
10.4871525562
 30
0.0
 10
10.843889897
 20
10.489442839
 30
0.0
 10
10.8628979691
 20
10.4930903079
 30
0.0
 10
10.8816017588
 20
10.4979521215
 30
0.0
 10
10.8938594874
 20
10.5019083959
 30
0.0
 10
10.8999347612
 20
10.5040426222
 30
0.0
  0
SPLINE
  5
2F2
100
AcDbEntity
  8
0
100
AcDbSpline
 62
7
  6
CONTINUOUS
 70
0
 71
3
 72
21
 73
17
 74
0
 42
0.0000001
 43
0.0000001
 44
0.0000000001
 40
0.0
 40
0.0
 40
0.0
 40
0.0
 40
0.1268691204
 40
0.1901511659
 40
0.2533137219
 40
0.3163453068
 40
0.3792358874
 40
0.441977646
 40
0.5045647649
 40
0.5669948764
 40
0.6292687979
 40
0.6913902222
 40
0.75336628
 40
0.8152057389
 40
0.8769185215
 40
1.0
 40
1.0
 40
1.0
 40
1.0
 10
10.9571442066
 20
10.9206743595
 30
0.0
 10
10.9743436416
 20
10.9263022852
 30
0.0
 10
11.0003220971
 20
10.9341523094
 30
0.0
 10
11.0353127674
 20
10.9431814331
 30
0.0
 10
11.0616746417
 20
10.949161184
 30
0.0
 10
11.0881574818
 20
10.9542958283
 30
0.0
 10
11.1147381429
 20
10.958534851
 30
0.0
 10
11.1413878428
 20
10.9618371434
 30
0.0
 10
11.1680736114
 20
10.9641759699
 30
0.0
 10
11.1947601012
 20
10.9655409607
 30
0.0
 10
11.2214119623
 20
10.9659373953
 30
0.0
 10
11.2479960183
 20
10.9653872565
 30
0.0
 10
11.2744830819
 20
10.9639275595
 30
0.0
 10
11.3008497764
 20
10.9616055161
 30
0.0
 10
11.3357863624
 20
10.9574381707
 30
0.0
 10
11.361817497
 20
10.9531874552
 30
0.0
 10
11.3790701355
 20
10.9499350738
 30
0.0
  0
SPLINE
  5
2F3
100
AcDbEntity
  8
0
100
AcDbSpline
 62
7
  6
CONTINUOUS
 70
0
 71
3
 72
28
 73
24
 74
0
 42
0.0000001
 43
0.0000001
 44
0.0000000001
 40
0.0
 40
0.0
 40
0.0
 40
0.0
 40
0.0609197095
 40
0.0914299703
 40
0.1219756936
 40
0.1831820682
 40
0.2445725138
 40
0.3061751074
 40
0.3680166495
 40
0.3990378383
 40
0.4301267558
 40
0.4612843247
 40
0.4925117301
 40
0.523808708
 40
0.5551745409
 40
0.5866080772
 40
0.6181069141
 40
0.6812838652
 40
0.7446876535
 40
0.8082894507
 40
0.8720594567
 40
0.9359725482
 40
1.0
 40
1.0
 40
1.0
 40
1.0
 10
10.9571442066
 20
10.5000751337
 30
0.0
 10
10.9654594307
 20
10.4969379196
 30
0.0
 10
10.9780282737
 20
10.4924594464
 30
0.0
 10
10.9949687929
 20
10.4870092203
 30
0.0
 10
11.0120643858
 20
10.4819178641
 30
0.0
 10
11.0336928558
 20
10.4762820417
 30
0.0
 10
11.0600192145
 20
10.4708313305
 30
0.0
 10
11.0867001681
 20
10.466830227
 30
0.0
 10
11.1091596549
 20
10.4648148258
 30
0.0
 10
11.1272284772
 20
10.4640415522
 30
0.0
 10
11.140836525
 20
10.4638910803
 30
0.0
 10
11.1544724308
 20
10.4641766142
 30
0.0
 10
11.1681223625
 20
10.4649037656
 30
0.0
 10
11.1817722121
 20
10.4660708441
 30
0.0
 10
11.1954075381
 20
10.4676775229
 30
0.0
 10
11.2090147918
 20
10.4697162511
 30
0.0
 10
11.2271188618
 20
10.4730033086
 30
0.0
 10
11.2496142913
 20
10.4781475431
 30
0.0
 10
11.2762821178
 20
10.4858510206
 30
0.0
 10
11.3025952898
 20
10.4949530795
 30
0.0
 10
11.3285190649
 20
10.505307345
 30
0.0
 10
11.3540382282
 20
10.5167693342
 30
0.0
 10
11.3707692859
 20
10.5250527234
 30
0.0
 10
11.3790701355
 20
10.529335848
 30
0.0
  0
SPLINE
  5
2F4
100
AcDbEntity
  8
0
100
AcDbSpline
 62
7
  6
CONTINUOUS
 70
0
 71
3
 72
23
 73
19
 74
0
 42
0.0000001
 43
0.0000001
 44
0.0000000001
 40
0.0
 40
0.0
 40
0.0
 40
0.0
 40
0.0896872477
 40
0.1761276095
 40
0.2590333244
 40
0.3381395336
 40
0.4132181409
 40
0.4841039081
 40
0.5507160067
 40
0.6130832454
 40
0.6713601897
 40
0.7258284413
 40
0.7768916908
 40
0.8250534795
 40
0.8708774888
 40
0.9149466339
 40
0.9578214506
 40
1.0
 40
1.0
 40
1.0
 40
1.0
 10
11.4209503445
 20
10.9607744653
 30
0.0
 10
11.4232195365
 20
10.965150133
 30
0.0
 10
11.4277600576
 20
10.9736998025
 30
0.0
 10
11.4347292933
 20
10.9861149743
 30
0.0
 10
11.4417373875
 20
10.9978362265
 30
0.0
 10
11.4487819202
 20
11.0088010354
 30
0.0
 10
11.4558592726
 20
11.0189500077
 30
0.0
 10
11.4629644033
 20
11.028229645
 30
0.0
 10
11.4700917862
 20
11.036595165
 30
0.0
 10
11.4772348295
 20
11.0440139507
 30
0.0
 10
11.4843860803
 20
11.0504678144
 30
0.0
 10
11.4915381925
 20
11.0559531411
 30
0.0
 10
11.4986830466
 20
11.0604815881
 30
0.0
 10
11.5058116064
 20
11.064079715
 30
0.0
 10
11.5129147531
 20
11.0667860772
 30
0.0
 10
11.519983703
 20
11.0686500992
 30
0.0
 10
11.5270098522
 20
11.0697295878
 30
0.0
 10
11.5316869193
 20
11.0699686055
 30
0.0
 10
11.5340049698
 20
11.0699768542
 30
0.0
  0
SPLINE
  5
2F5
100
AcDbEntity
  8
0
100
AcDbSpline
 62
7
  6
CONTINUOUS
 70
0
 71
3
 72
21
 73
17
 74
0
 42
0.0000001
 43
0.0000001
 44
0.0000000001
 40
0.0
 40
0.0
 40
0.0
 40
0.0
 40
0.1269648858
 40
0.2472322804
 40
0.305388186
 40
0.3626079468
 40
0.419301412
 40
0.4759596668
 40
0.5331499396
 40
0.5914887031
 40
0.6516237869
 40
0.71419509
 40
0.7798080402
 40
0.8490155305
 40
0.9222815349
 40
1.0
 40
1.0
 40
1.0
 40
1.0
 10
11.4209503445
 20
10.5401752396
 30
0.0
 10
11.4230734061
 20
10.5386870936
 30
0.0
 10
11.4273571052
 20
10.5359926542
 30
0.0
 10
11.4330434859
 20
10.5333740672
 30
0.0
 10
11.4376312587
 20
10.5319050487
 30
0.0
 10
11.4410636897
 20
10.5311306413
 30
0.0
 10
11.4445243123
 20
10.5306889843
 30
0.0
 10
11.4480117995
 20
10.5305973059
 30
0.0
 10
11.4515236587
 20
10.5308726537
 30
0.0
 10
11.4550569278
 20
10.5315291893
 30
0.0
 10
11.4586079346
 20
10.5325809472
 30
0.0
 10
11.4621732085
 20
10.534038254
 30
0.0
 10
11.4657495455
 20
10.5359095615
 30
0.0
 10
11.4693332375
 20
10.5382018428
 30
0.0
 10
11.4729220533
 20
10.5409174407
 30
0.0
 10
11.4752443214
 20
10.542949598
 30
0.0
 10
11.4764060834
 20
10.5440308087
 30
0.0
  0
SPLINE
  5
2F6
100
AcDbEntity
  8
0
100
AcDbSpline
 62
7
  6
CONTINUOUS
 70
0
 71
3
 72
9
 73
5
 74
0
 42
0.0000001
 43
0.0000001
 44
0.0000000001
 40
0.0
 40
0.0
 40
0.0
 40
0.0
 40
0.5167447349
 40
1.0
 40
1.0
 40
1.0
 40
1.0
 10
10.6739854815
 20
11.1292384499
 30
0.0
 10
10.6711541275
 20
11.1278398287
 30
0.0
 10
10.6657294107
 20
11.12502082
 30
0.0
 10
10.6604456041
 20
11.1219438619
 30
0.0
 10
10.6579370291
 20
11.1203853331
 30
0.0
  0
SPLINE
  5
2F7
100
AcDbEntity
  8
0
100
AcDbSpline
 62
7
  6
CONTINUOUS
 70
0
 71
3
 72
54
 73
50
 74
0
 42
0.0000001
 43
0.0000001
 44
0.0000000001
 40
0.0
 40
0.0
 40
0.0
 40
0.0
 40
0.0124342372
 40
0.0243286923
 40
0.0356923426
 40
0.0465369465
 40
0.0568782168
 40
0.0667356679
 40
0.0850891867
 40
0.0936583244
 40
0.1018716427
 40
0.1097763257
 40
0.1174263493
 40
0.1248821675
 40
0.1322094188
 40
0.1394775696
 40
0.1467580509
 40
0.1541218238
 40
0.1616372542
 40
0.1693684296
 40
0.1773735437
 40
0.1857041745
 40
0.1944054313
 40
0.2035161531
 40
0.2130687198
 40
0.2230900256
 40
0.2336024364
 40
0.2446241678
 40
0.2561691611
 40
0.268248275
 40
0.2808699361
 40
0.294040054
 40
0.3077618706
 40
0.3368634312
 40
0.3681727526
 40
0.4016622427
 40
0.4372878636
 40
0.4749901098
 40
0.5146976652
 40
0.5563280871
 40
0.5997895498
 40
0.6449818653
 40
0.6917974993
 40
0.7401227848
 40
0.7898360617
 40
0.8408109512
 40
0.8929217563
 40
0.9460376323
 40
1.0
 40
1.0
 40
1.0
 40
1.0
 10
10.6579370291
 20
11.1203853331
 30
0.0
 10
10.6565012199
 20
11.1194932928
 30
0.0
 10
10.6537202826
 20
11.1177016439
 30
0.0
 10
10.6497393182
 20
11.1149256638
 30
0.0
 10
10.6460446268
 20
11.1121229918
 30
0.0
 10
10.6426390843
 20
11.1092954594
 30
0.0
 10
10.6395245571
 20
11.1064446763
 30
0.0
 10
10.6358510168
 20
11.1027048479
 30
0.0
 10
10.6326536256
 20
11.0988390544
 30
0.0
 10
10.6300219201
 20
11.0948483319
 30
0.0
 10
10.6283940257
 20
11.0919092996
 30
0.0
 10
10.6270687959
 20
11.0889580326
 30
0.0
 10
10.6260479389
 20
11.0859964043
 30
0.0
 10
10.6253326272
 20
11.0830268501
 30
0.0
 10
10.6249239821
 20
11.0800519273
 30
0.0
 10
10.6248230223
 20
11.0770744781
 30
0.0
 10
10.6250299528
 20
11.0740975709
 30
0.0
 10
10.6255440973
 20
11.071124178
 30
0.0
 10
10.6263645853
 20
11.0681570474
 30
0.0
 10
10.6274904287
 20
11.0651987632
 30
0.0
 10
10.6289199693
 20
11.0622515151
 30
0.0
 10
10.6306514114
 20
11.0593171941
 30
0.0
 10
10.6326831543
 20
11.0563976237
 30
0.0
 10
10.6350136639
 20
11.0534946998
 30
0.0
 10
10.6376409238
 20
11.050610044
 30
0.0
 10
10.6405629212
 20
11.0477453583
 30
0.0
 10
10.6437776765
 20
11.0449024696
 30
0.0
 10
10.647283064
 20
11.0420833192
 30
0.0
 10
10.6510764948
 20
11.0392895952
 30
0.0
 10
10.6551553174
 20
11.0365231383
 30
0.0
 10
10.6595168103
 20
11.0337859063
 30
0.0
 10
10.6641580031
 20
11.0310797945
 30
0.0
 10
10.6708465834
 20
11.0274440078
 30
0.0
 10
10.6799001224
 20
11.0230059797
 30
0.0
 10
10.6916182601
 20
11.0179332597
 30
0.0
 10
10.7043621452
 20
11.0130276974
 30
0.0
 10
10.7180962135
 20
11.0083034839
 30
0.0
 10
10.732782288
 20
11.0037737844
 30
0.0
 10
10.7483792412
 20
10.9994516674
 30
0.0
 10
10.7648432654
 20
10.995349416
 30
0.0
 10
10.782127976
 20
10.9914787415
 30
0.0
 10
10.8001846418
 20
10.9878507833
 30
0.0
 10
10.8189623399
 20
10.9844757632
 30
0.0
 10
10.838407943
 20
10.9813635758
 30
0.0
 10
10.8584661882
 20
10.9785228318
 30
0.0
 10
10.879080663
 20
10.9759618459
 30
0.0
 10
10.9001939937
 20
10.9736876636
 30
0.0
 10
10.9217446807
 20
10.9717073117
 30
0.0
 10
10.9362592571
 20
10.970594209
 30
0.0
 10
10.9435774979
 20
10.9700866873
 30
0.0
  0
SPLINE
  5
2F8
100
AcDbEntity
  8
0
100
AcDbSpline
 62
7
  6
CONTINUOUS
 70
0
 71
3
 72
54
 73
50
 74
0
 42
0.0000001
 43
0.0000001
 44
0.0000000001
 40
0.0
 40
0.0
 40
0.0
 40
0.0
 40
0.0459269903
 40
0.092435681
 40
0.1393128311
 40
0.1863638893
 40
0.2333856162
 40
0.2801747029
 40
0.3265304434
 40
0.3722541242
 40
0.4171506171
 40
0.4610293678
 40
0.5037059183
 40
0.5450029404
 40
0.5847512001
 40
0.6227916094
 40
0.658976349
 40
0.6931702381
 40
0.7252537572
 40
0.7404724057
 40
0.755126937
 40
0.7692077764
 40
0.7827075407
 40
0.7956201556
 40
0.8079415511
 40
0.8196705836
 40
0.8308082904
 40
0.8413588397
 40
0.8513306694
 40
0.8607360932
 40
0.8695926857
 40
0.8779248006
 40
0.8857637773
 40
0.8931498057
 40
0.9001335896
 40
0.9067766172
 40
0.9131520317
 40
0.9193439644
 40
0.9254447947
 40
0.9315515666
 40
0.9377609566
 40
0.9441645939
 40
0.950845346
 40
0.9578748326
 40
0.9653134014
 40
0.9732103212
 40
0.9816044839
 40
0.9905266015
 40
1.0
 40
1.0
 40
1.0
 40
1.0
 10
10.9435774979
 20
10.9700866873
 30
0.0
 10
10.953057171
 20
10.9694292697
 30
0.0
 10
10.9721495165
 20
10.9682862857
 30
0.0
 10
11.0009502896
 20
10.9670867808
 30
0.0
 10
11.0300004451
 20
10.9663952233
 30
0.0
 10
11.059164374
 20
10.9662146673
 30
0.0
 10
11.0883087701
 20
10.9665458692
 30
0.0
 10
11.1172989956
 20
10.9673873417
 30
0.0
 10
11.1460012717
 20
10.9687352488
 30
0.0
 10
11.1742833525
 20
10.9705832014
 30
0.0
 10
11.2020148403
 20
10.9729225587
 30
0.0
 10
11.2290679037
 20
10.9757425613
 30
0.0
 10
11.2553179214
 20
10.9790299282
 30
0.0
 10
11.2806440108
 20
10.9827692619
 30
0.0
 10
11.3049296186
 20
10.9869432576
 30
0.0
 10
11.328063109
 20
10.9915322835
 30
0.0
 10
11.349938432
 20
10.9965147703
 30
0.0
 10
11.3704550452
 20
11.0018676642
 30
0.0
 10
11.3866150997
 20
11.0066972184
 30
0.0
 10
11.398779314
 20
11.0107446063
 30
0.0
 10
11.4073445492
 20
11.0138033917
 30
0.0
 10
11.4155034292
 20
11.0169356008
 30
0.0
 10
11.4232467336
 20
11.0201374259
 30
0.0
 10
11.4305656066
 20
11.0234052582
 30
0.0
 10
11.4374516464
 20
11.026735542
 30
0.0
 10
11.4438971885
 20
11.0301242216
 30
0.0
 10
11.4498949406
 20
11.0335675822
 30
0.0
 10
11.4554380671
 20
11.0370619896
 30
0.0
 10
11.4605205818
 20
11.0406033429
 30
0.0
 10
11.4651367993
 20
11.044188012
 30
0.0
 10
11.469281425
 20
11.0478125294
 30
0.0
 10
11.472950069
 20
11.0514730553
 30
0.0
 10
11.4761383462
 20
11.0551663749
 30
0.0
 10
11.4788419304
 20
11.0588894247
 30
0.0
 10
11.4810571987
 20
11.0626387005
 30
0.0
 10
11.4827798681
 20
11.0664109188
 30
0.0
 10
11.4840054434
 20
11.0702020036
 30
0.0
 10
11.4847306266
 20
11.0740065032
 30
0.0
 10
11.4849523274
 20
11.0778180073
 30
0.0
 10
11.484669309
 20
11.0816290229
 30
0.0
 10
11.48388339
 20
11.0854322535
 30
0.0
 10
11.482597164
 20
11.0892212941
 30
0.0
 10
11.480814406
 20
11.0929908828
 30
0.0
 10
11.4785397867
 20
11.0967372342
 30
0.0
 10
11.4757770725
 20
11.1004568011
 30
0.0
 10
11.4725302333
 20
11.1041462628
 30
0.0
 10
11.4688036489
 20
11.1078027132
 30
0.0
 10
11.4646015619
 20
11.1114224592
 30
0.0
 10
11.4615783103
 20
11.1137382213
 30
0.0
 10
11.4599932724
 20
11.1148912845
 30
0.0
  0
SPLINE
  5
2F9
100
AcDbEntity
  8
0
100
AcDbSpline
 62
7
  6
CONTINUOUS
 70
0
 71
3
 72
11
 73
7
 74
0
 42
0.0000001
 43
0.0000001
 44
0.0000000001
 40
0.0
 40
0.0
 40
0.0
 40
0.0
 40
0.2292638122
 40
0.47224684
 40
0.7291315488
 40
1.0
 40
1.0
 40
1.0
 40
1.0
 10
11.4599932724
 20
11.1148912845
 30
0.0
 10
11.458250548
 20
11.1161590594
 30
0.0
 10
11.454589312
 20
11.1186731464
 30
0.0
 10
11.4487617096
 20
11.1222845873
 30
0.0
 10
11.4424473892
 20
11.1258405743
 30
0.0
 10
11.4380354017
 20
11.128111394
 30
0.0
 10
11.4357525712
 20
11.1292390442
 30
0.0
  0
SPLINE
  5
2FA
100
AcDbEntity
  8
0
100
AcDbSpline
 62
7
  6
CONTINUOUS
 70
0
 71
3
 72
41
 73
37
 74
0
 42
0.0000001
 43
0.0000001
 44
0.0000000001
 40
0.0
 40
0.0
 40
0.0
 40
0.0
 40
0.0311445478
 40
0.0624424446
 40
0.0938872679
 40
0.125469566
 40
0.1571770992
 40
0.1889951145
 40
0.2209066667
 40
0.2528929719
 40
0.2849337877
 40
0.3170078142
 40
0.3490931102
 40
0.381167517
 40
0.4132090858
 40
0.4451965025
 40
0.4771095029
 40
0.5089292747
 40
0.5406388381
 40
0.5722233999
 40
0.6036706736
 40
0.63497116
 40
0.6661183793
 40
0.6971090497
 40
0.7279432042
 40
0.7586242401
 40
0.7891588962
 40
0.8195571523
 40
0.8498320512
 40
0.8649308901
 40
0.8800050513
 40
0.9100832572
 40
0.940092674
 40
0.9550812744
 40
0.9700610349
 40
1.0
 40
1.0
 40
1.0
 40
1.0
 10
11.3837076643
 20
9.0576332644
 30
0.0
 10
11.3871985266
 20
9.0573911722
 30
0.0
 10
11.3941823162
 20
9.0566502744
 30
0.0
 10
11.4045733277
 20
9.0547839537
 30
0.0
 10
11.4148530526
 20
9.0521697719
 30
0.0
 10
11.4249659471
 20
9.0488218201
 30
0.0
 10
11.4348583034
 20
9.0447580245
 30
0.0
 10
11.4444773483
 20
9.0400001296
 30
0.0
 10
11.4537718406
 20
9.0345735596
 30
0.0
 10
11.4626922536
 20
9.0285072891
 30
0.0
 10
11.4711910593
 20
9.0218336875
 30
0.0
 10
11.4792229728
 20
9.0145883478
 30
0.0
 10
11.4867451917
 20
9.0068098984
 30
0.0
 10
11.4937176223
 20
8.9985397991
 30
0.0
 10
11.5001030905
 20
8.9898221222
 30
0.0
 10
11.5058675389
 20
8.98070332
 30
0.0
 10
11.5109802065
 20
8.9712319801
 30
0.0
 10
11.5154137917
 20
8.9614585695
 30
0.0
 10
11.5191445977
 20
8.9514351691
 30
0.0
 10
11.5221526586
 20
8.9412151996
 30
0.0
 10
11.5244218467
 20
8.9308531405
 30
0.0
 10
11.5259399606
 20
8.9204042441
 30
0.0
 10
11.5266987921
 20
8.9099242436
 30
0.0
 10
11.5266941753
 20
8.8994690629
 30
0.0
 10
11.5259260081
 20
8.8890945101
 30
0.0
 10
11.5243982779
 20
8.8788560227
 30
0.0
 10
11.5221189752
 20
8.8688082211
 30
0.0
 10
11.5191003228
 20
8.8590051786
 30
0.0
 10
11.5159785529
 20
8.8510750811
 30
0.0
 10
11.5131297256
 20
8.8449082259
 30
0.0
 10
11.5100553647
 20
8.8388754241
 30
0.0
 10
11.505786718
 20
8.831578468
 30
0.0
 10
11.5009690949
 20
8.8246433422
 30
0.0
 10
11.4968059179
 20
8.8193423355
 30
0.0
 10
11.4924441966
 20
8.8142143115
 30
0.0
 10
11.4889496651
 20
8.8105636183
 30
0.0
 10
11.4865302422
 20
8.8082266331
 30
0.0
  0
SPLINE
  5
2FB
100
AcDbEntity
  8
0
100
AcDbSpline
 62
7
  6
CONTINUOUS
 70
0
 71
3
 72
41
 73
37
 74
0
 42
0.0000001
 43
0.0000001
 44
0.0000000001
 40
0.0
 40
0.0
 40
0.0
 40
0.0
 40
0.0311445478
 40
0.0624424446
 40
0.0938872679
 40
0.125469566
 40
0.1571770992
 40
0.1889951145
 40
0.2209066667
 40
0.2528929719
 40
0.2849337877
 40
0.3170078142
 40
0.3490931102
 40
0.381167517
 40
0.4132090858
 40
0.4451965025
 40
0.4771095029
 40
0.5089292747
 40
0.5406388381
 40
0.5722233999
 40
0.6036706736
 40
0.63497116
 40
0.6661183793
 40
0.6971090497
 40
0.7279432042
 40
0.7586242401
 40
0.7891588962
 40
0.8195571523
 40
0.8498320512
 40
0.8649308901
 40
0.8800050513
 40
0.9100832572
 40
0.940092674
 40
0.9550812744
 40
0.9700610349
 40
1.0
 40
1.0
 40
1.0
 40
1.0
 10
11.3837076643
 20
7.5179474235
 30
0.0
 10
11.3871985266
 20
7.5177053314
 30
0.0
 10
11.3941823162
 20
7.5169644336
 30
0.0
 10
11.4045733277
 20
7.5150981128
 30
0.0
 10
11.4148530526
 20
7.5124839311
 30
0.0
 10
11.4249659471
 20
7.5091359793
 30
0.0
 10
11.4348583034
 20
7.5050721837
 30
0.0
 10
11.4444773483
 20
7.5003142887
 30
0.0
 10
11.4537718406
 20
7.4948877188
 30
0.0
 10
11.4626922536
 20
7.4888214483
 30
0.0
 10
11.4711910593
 20
7.4821478467
 30
0.0
 10
11.4792229728
 20
7.474902507
 30
0.0
 10
11.4867451917
 20
7.4671240576
 30
0.0
 10
11.4937176223
 20
7.4588539583
 30
0.0
 10
11.5001030905
 20
7.4501362814
 30
0.0
 10
11.5058675389
 20
7.4410174791
 30
0.0
 10
11.5109802065
 20
7.4315461392
 30
0.0
 10
11.5154137917
 20
7.4217727287
 30
0.0
 10
11.5191445977
 20
7.4117493283
 30
0.0
 10
11.5221526586
 20
7.4015293588
 30
0.0
 10
11.5244218467
 20
7.3911672997
 30
0.0
 10
11.5259399606
 20
7.3807184032
 30
0.0
 10
11.5266987921
 20
7.3702384028
 30
0.0
 10
11.5266941753
 20
7.3597832221
 30
0.0
 10
11.5259260081
 20
7.3494086693
 30
0.0
 10
11.5243982779
 20
7.3391701819
 30
0.0
 10
11.5221189752
 20
7.3291223802
 30
0.0
 10
11.5191003228
 20
7.3193193378
 30
0.0
 10
11.5159785529
 20
7.3113892403
 30
0.0
 10
11.5131297256
 20
7.3052223851
 30
0.0
 10
11.5100553647
 20
7.2991895833
 30
0.0
 10
11.505786718
 20
7.2918926272
 30
0.0
 10
11.5009690949
 20
7.2849575014
 30
0.0
 10
11.4968059179
 20
7.2796564947
 30
0.0
 10
11.4924441966
 20
7.2745284706
 30
0.0
 10
11.4889496651
 20
7.2708777774
 30
0.0
 10
11.4865302422
 20
7.2685407922
 30
0.0
  0
SPLINE
  5
2FC
100
AcDbEntity
  8
0
100
AcDbSpline
 62
7
  6
CONTINUOUS
 70
0
 71
3
 72
41
 73
37
 74
0
 42
0.0000001
 43
0.0000001
 44
0.0000000001
 40
0.0
 40
0.0
 40
0.0
 40
0.0
 40
0.0311445478
 40
0.0624424446
 40
0.0938872679
 40
0.125469566
 40
0.1571770992
 40
0.1889951145
 40
0.2209066667
 40
0.2528929719
 40
0.2849337877
 40
0.3170078142
 40
0.3490931102
 40
0.381167517
 40
0.4132090858
 40
0.4451965025
 40
0.4771095029
 40
0.5089292747
 40
0.5406388381
 40
0.5722233999
 40
0.6036706736
 40
0.63497116
 40
0.6661183793
 40
0.6971090497
 40
0.7279432042
 40
0.7586242401
 40
0.7891588962
 40
0.8195571523
 40
0.8498320512
 40
0.8649308901
 40
0.8800050513
 40
0.9100832572
 40
0.940092674
 40
0.9550812744
 40
0.9700610349
 40
1.0
 40
1.0
 40
1.0
 40
1.0
 10
10.1763003098
 20
7.601681408
 30
0.0
 10
10.1797911722
 20
7.6014393158
 30
0.0
 10
10.1867749618
 20
7.600698418
 30
0.0
 10
10.1971659733
 20
7.5988320973
 30
0.0
 10
10.2074456982
 20
7.5962179155
 30
0.0
 10
10.2175585927
 20
7.5928699637
 30
0.0
 10
10.227450949
 20
7.5888061681
 30
0.0
 10
10.2370699939
 20
7.5840482732
 30
0.0
 10
10.2463644862
 20
7.5786217032
 30
0.0
 10
10.2552848991
 20
7.5725554327
 30
0.0
 10
10.2637837049
 20
7.5658818311
 30
0.0
 10
10.2718156184
 20
7.5586364914
 30
0.0
 10
10.2793378373
 20
7.550858042
 30
0.0
 10
10.2863102679
 20
7.5425879427
 30
0.0
 10
10.2926957361
 20
7.5338702658
 30
0.0
 10
10.2984601845
 20
7.5247514636
 30
0.0
 10
10.3035728521
 20
7.5152801237
 30
0.0
 10
10.3080064373
 20
7.5055067131
 30
0.0
 10
10.3117372433
 20
7.4954833127
 30
0.0
 10
10.3147453042
 20
7.4852633432
 30
0.0
 10
10.3170144923
 20
7.4749012841
 30
0.0
 10
10.3185326062
 20
7.4644523877
 30
0.0
 10
10.3192914377
 20
7.4539723872
 30
0.0
 10
10.3192868209
 20
7.4435172065
 30
0.0
 10
10.3185186537
 20
7.4331426537
 30
0.0
 10
10.3169909235
 20
7.4229041663
 30
0.0
 10
10.3147116208
 20
7.4128563647
 30
0.0
 10
10.3116929684
 20
7.4030533222
 30
0.0
 10
10.3085711985
 20
7.3951232247
 30
0.0
 10
10.3057223712
 20
7.3889563695
 30
0.0
 10
10.3026480102
 20
7.3829235677
 30
0.0
 10
10.2983793636
 20
7.3756266116
 30
0.0
 10
10.2935617405
 20
7.3686914858
 30
0.0
 10
10.2893985635
 20
7.3633904791
 30
0.0
 10
10.2850368422
 20
7.358262455
 30
0.0
 10
10.2815423107
 20
7.3546117619
 30
0.0
 10
10.2791228878
 20
7.3522747767
 30
0.0
  0
SPLINE
  5
2FD
100
AcDbEntity
  8
0
100
AcDbSpline
 62
7
  6
CONTINUOUS
 70
0
 71
3
 72
41
 73
37
 74
0
 42
0.0000001
 43
0.0000001
 44
0.0000000001
 40
0.0
 40
0.0
 40
0.0
 40
0.0
 40
0.0311445478
 40
0.0624424446
 40
0.0938872679
 40
0.125469566
 40
0.1571770992
 40
0.1889951145
 40
0.2209066667
 40
0.2528929719
 40
0.2849337877
 40
0.3170078142
 40
0.3490931102
 40
0.381167517
 40
0.4132090858
 40
0.4451965025
 40
0.4771095029
 40
0.5089292747
 40
0.5406388381
 40
0.5722233999
 40
0.6036706736
 40
0.63497116
 40
0.6661183793
 40
0.6971090497
 40
0.7279432042
 40
0.7586242401
 40
0.7891588962
 40
0.8195571523
 40
0.8498320512
 40
0.8649308901
 40
0.8800050513
 40
0.9100832572
 40
0.940092674
 40
0.9550812744
 40
0.9700610349
 40
1.0
 40
1.0
 40
1.0
 40
1.0
 10
10.1763003098
 20
9.1413672488
 30
0.0
 10
10.1797911722
 20
9.1411251567
 30
0.0
 10
10.1867749618
 20
9.1403842589
 30
0.0
 10
10.1971659733
 20
9.1385179381
 30
0.0
 10
10.2074456982
 20
9.1359037564
 30
0.0
 10
10.2175585927
 20
9.1325558045
 30
0.0
 10
10.227450949
 20
9.128492009
 30
0.0
 10
10.2370699939
 20
9.123734114
 30
0.0
 10
10.2463644862
 20
9.118307544
 30
0.0
 10
10.2552848991
 20
9.1122412735
 30
0.0
 10
10.2637837049
 20
9.1055676719
 30
0.0
 10
10.2718156184
 20
9.0983223322
 30
0.0
 10
10.2793378373
 20
9.0905438828
 30
0.0
 10
10.2863102679
 20
9.0822737835
 30
0.0
 10
10.2926957361
 20
9.0735561066
 30
0.0
 10
10.2984601845
 20
9.0644373044
 30
0.0
 10
10.3035728521
 20
9.0549659645
 30
0.0
 10
10.3080064373
 20
9.0451925539
 30
0.0
 10
10.3117372433
 20
9.0351691536
 30
0.0
 10
10.3147453042
 20
9.024949184
 30
0.0
 10
10.3170144923
 20
9.0145871249
 30
0.0
 10
10.3185326062
 20
9.0041382285
 30
0.0
 10
10.3192914377
 20
8.993658228
 30
0.0
 10
10.3192868209
 20
8.9832030474
 30
0.0
 10
10.3185186537
 20
8.9728284946
 30
0.0
 10
10.3169909235
 20
8.9625900071
 30
0.0
 10
10.3147116208
 20
8.9525422055
 30
0.0
 10
10.3116929684
 20
8.9427391631
 30
0.0
 10
10.3085711985
 20
8.9348090655
 30
0.0
 10
10.3057223712
 20
8.9286422103
 30
0.0
 10
10.3026480102
 20
8.9226094086
 30
0.0
 10
10.2983793636
 20
8.9153124525
 30
0.0
 10
10.2935617405
 20
8.9083773266
 30
0.0
 10
10.2893985635
 20
8.9030763199
 30
0.0
 10
10.2850368422
 20
8.8979482959
 30
0.0
 10
10.2815423107
 20
8.8942976027
 30
0.0
 10
10.2791228878
 20
8.8919606175
 30
0.0
  0
SPLINE
  5
2FE
100
AcDbEntity
  8
0
100
AcDbSpline
 62
7
  6
CONTINUOUS
 70
0
 71
3
 72
37
 73
33
 74
0
 42
0.0000001
 43
0.0000001
 44
0.0000000001
 40
0.0
 40
0.0
 40
0.0
 40
0.0
 40
0.0311464763
 40
0.0624483004
 40
0.0938952738
 40
0.1254804953
 40
0.1571907415
 40
0.1890115257
 40
0.2209258547
 40
0.252914932
 40
0.2849585264
 40
0.317035338
 40
0.3491234252
 40
0.381200621
 40
0.4451976236
 40
0.5088978732
 40
0.5406101981
 40
0.5721975056
 40
0.6036475114
 40
0.634950721
 40
0.6661006564
 40
0.6970940303
 40
0.7279308694
 40
0.7586145731
 40
0.7891518852
 40
0.8195527902
 40
0.8498303302
 40
0.8800003491
 40
0.9100811696
 40
0.9400931924
 40
0.9700584311
 40
1.0
 40
1.0
 40
1.0
 40
1.0
 10
10.1608454644
 20
8.7290226702
 30
0.0
 10
10.1623549855
 20
8.7289179845
 30
0.0
 10
10.1653750139
 20
8.7285975739
 30
0.0
 10
10.1698684147
 20
8.7277905579
 30
0.0
 10
10.1743137204
 20
8.7266600574
 30
0.0
 10
10.1786868421
 20
8.7252123315
 30
0.0
 10
10.1829646161
 20
8.7234550169
 30
0.0
 10
10.1871241944
 20
8.7213975583
 30
0.0
 10
10.1911434248
 20
8.7190509353
 30
0.0
 10
10.195000891
 20
8.7164276931
 30
0.0
 10
10.1986760532
 20
8.7135418147
 30
0.0
 10
10.2021492902
 20
8.7104087487
 30
0.0
 10
10.2054022316
 20
8.7070449699
 30
0.0
 10
10.2094182469
 20
8.7022816845
 30
0.0
 10
10.2138041968
 20
8.6958462492
 30
0.0
 10
10.2172590674
 20
8.6888857407
 30
0.0
 10
10.2194126716
 20
8.6830994359
 30
0.0
 10
10.2207135337
 20
8.6786798609
 30
0.0
 10
10.2216947921
 20
8.6741990196
 30
0.0
 10
10.2223512949
 20
8.6696805797
 30
0.0
 10
10.2226794577
 20
8.6651487006
 30
0.0
 10
10.2226774769
 20
8.6606275485
 30
0.0
 10
10.2223453062
 20
8.6561412656
 30
0.0
 10
10.2216846764
 20
8.6517138121
 30
0.0
 10
10.2206990645
 20
8.6473688469
 30
0.0
 10
10.2193936833
 20
8.6431296006
 30
0.0
 10
10.2177754569
 20
8.639018755
 30
0.0
 10
10.2158529825
 20
8.635058313
 30
0.0
 10
10.2136365369
 20
8.6312694949
 30
0.0
 10
10.211137889
 20
8.6276725238
 30
0.0
 10
10.2083706419
 20
8.6242869145
 30
0.0
 10
10.2063557255
 20
8.6221819478
 30
0.0
 10
10.2053094934
 20
8.6211713589
 30
0.0
  0
SPLINE
  5
2FF
100
AcDbEntity
  8
0
100
AcDbSpline
 62
7
  6
CONTINUOUS
 70
0
 71
3
 72
37
 73
33
 74
0
 42
0.0000001
 43
0.0000001
 44
0.0000000001
 40
0.0
 40
0.0
 40
0.0
 40
0.0
 40
0.0311464763
 40
0.0624483004
 40
0.0938952738
 40
0.1254804953
 40
0.1571907415
 40
0.1890115257
 40
0.2209258547
 40
0.252914932
 40
0.2849585264
 40
0.317035338
 40
0.3491234252
 40
0.381200621
 40
0.4451976236
 40
0.5088978732
 40
0.5406101981
 40
0.5721975056
 40
0.6036475114
 40
0.634950721
 40
0.6661006564
 40
0.6970940303
 40
0.7279308694
 40
0.7586145731
 40
0.7891518852
 40
0.8195527902
 40
0.8498303302
 40
0.8800003491
 40
0.9100811696
 40
0.9400931924
 40
0.9700584311
 40
1.0
 40
1.0
 40
1.0
 40
1.0
 10
10.7800039871
 20
8.2485195044
 30
0.0
 10
10.7815135082
 20
8.2484148187
 30
0.0
 10
10.7845335365
 20
8.2480944081
 30
0.0
 10
10.7890269374
 20
8.2472873921
 30
0.0
 10
10.7934722431
 20
8.2461568916
 30
0.0
 10
10.7978453648
 20
8.2447091657
 30
0.0
 10
10.8021231388
 20
8.2429518511
 30
0.0
 10
10.8062827171
 20
8.2408943925
 30
0.0
 10
10.8103019475
 20
8.2385477695
 30
0.0
 10
10.8141594136
 20
8.2359245273
 30
0.0
 10
10.8178345759
 20
8.2330386489
 30
0.0
 10
10.8213078129
 20
8.2299055829
 30
0.0
 10
10.8245607542
 20
8.2265418041
 30
0.0
 10
10.8285767696
 20
8.2217785187
 30
0.0
 10
10.8329627194
 20
8.2153430834
 30
0.0
 10
10.8364175901
 20
8.2083825749
 30
0.0
 10
10.8385711942
 20
8.2025962701
 30
0.0
 10
10.8398720564
 20
8.1981766951
 30
0.0
 10
10.8408533147
 20
8.1936958538
 30
0.0
 10
10.8415098175
 20
8.1891774139
 30
0.0
 10
10.8418379804
 20
8.1846455348
 30
0.0
 10
10.8418359996
 20
8.1801243827
 30
0.0
 10
10.8415038289
 20
8.1756380998
 30
0.0
 10
10.8408431991
 20
8.1712106463
 30
0.0
 10
10.8398575872
 20
8.1668656811
 30
0.0
 10
10.8385522059
 20
8.1626264348
 30
0.0
 10
10.8369339796
 20
8.1585155892
 30
0.0
 10
10.8350115052
 20
8.1545551472
 30
0.0
 10
10.8327950596
 20
8.1507663291
 30
0.0
 10
10.8302964117
 20
8.147169358
 30
0.0
 10
10.8275291646
 20
8.1437837487
 30
0.0
 10
10.8255142482
 20
8.141678782
 30
0.0
 10
10.8244680161
 20
8.1406681931
 30
0.0
  0
SPLINE
  5
300
100
AcDbEntity
  8
0
100
AcDbSpline
 62
7
  6
CONTINUOUS
 70
0
 71
3
 72
37
 73
33
 74
0
 42
0.0000001
 43
0.0000001
 44
0.0000000001
 40
0.0
 40
0.0
 40
0.0
 40
0.0
 40
0.0311467573
 40
0.0624481077
 40
0.0938952645
 40
0.125480423
 40
0.1571906467
 40
0.189011416
 40
0.2209257215
 40
0.2529147894
 40
0.2849583708
 40
0.3170351623
 40
0.381163081
 40
0.4451600481
 40
0.4770758024
 40
0.508898317
 40
0.5406106103
 40
0.5721978896
 40
0.6036478697
 40
0.6349510521
 40
0.6661009568
 40
0.6970942988
 40
0.7279311085
 40
0.7586147837
 40
0.7891520652
 40
0.819552936
 40
0.8498304416
 40
0.8800004329
 40
0.9100812331
 40
0.9400932378
 40
0.9700584557
 40
1.0
 40
1.0
 40
1.0
 40
1.0
 10
10.1608454644
 20
7.8674167646
 30
0.0
 10
10.1626852174
 20
7.8672891773
 30
0.0
 10
10.166365882
 20
7.8668986863
 30
0.0
 10
10.1718422325
 20
7.8659151128
 30
0.0
 10
10.1772599532
 20
7.864537325
 30
0.0
 10
10.1825897171
 20
7.8627728832
 30
0.0
 10
10.1878032661
 20
7.8606311392
 30
0.0
 10
10.1928727671
 20
7.8581236054
 30
0.0
 10
10.1977712316
 20
7.8552636407
 30
0.0
 10
10.2024724993
 20
7.8520665833
 30
0.0
 10
10.2069517278
 20
7.848549253
 30
0.0
 10
10.2125938344
 20
7.8434598418
 30
0.0
 10
10.2189732278
 20
7.8363978802
 30
0.0
 10
10.2243266483
 20
7.828540817
 30
0.0
 10
10.2279214936
 20
7.8218809742
 30
0.0
 10
10.2302582188
 20
7.8167299549
 30
0.0
 10
10.2322244142
 20
7.8114473833
 30
0.0
 10
10.2338097431
 20
7.8060611632
 30
0.0
 10
10.2350056578
 20
7.8006000734
 30
0.0
 10
10.2358057402
 20
7.7950932145
 30
0.0
 10
10.2362056591
 20
7.7895699642
 30
0.0
 10
10.2362032145
 20
7.784059794
 30
0.0
 10
10.2357983535
 20
7.7785921215
 30
0.0
 10
10.2349931766
 20
7.7731961504
 30
0.0
 10
10.2337919207
 20
7.7679007163
 30
0.0
 10
10.2322009415
 20
7.762734132
 30
0.0
 10
10.2302286852
 20
7.7577240386
 30
0.0
 10
10.2278856383
 20
7.7528972465
 30
0.0
 10
10.225184309
 20
7.7482796244
 30
0.0
 10
10.2221390328
 20
7.7438958277
 30
0.0
 10
10.2187664002
 20
7.7397696332
 30
0.0
 10
10.2163106761
 20
7.7372042324
 30
0.0
 10
10.2150355713
 20
7.7359725788
 30
0.0
  0
SPLINE
  5
301
100
AcDbEntity
  8
0
100
AcDbSpline
 62
7
  6
CONTINUOUS
 70
0
 71
3
 72
23
 73
19
 74
0
 42
0.0000001
 43
0.0000001
 44
0.0000000001
 40
0.0
 40
0.0
 40
0.0
 40
0.0
 40
0.0638442604
 40
0.1272276065
 40
0.1901918615
 40
0.2527957387
 40
0.3151121018
 40
0.3772191179
 40
0.4391938328
 40
0.5011077025
 40
0.5630239985
 40
0.6249967723
 40
0.6870709095
 40
0.7492828438
 40
0.8116615838
 40
0.8742298163
 40
0.9370049436
 40
1.0
 40
1.0
 40
1.0
 40
1.0
 10
10.9311877673
 20
8.5229829779
 30
0.0
 10
10.9311877673
 20
8.5195598383
 30
0.0
 10
10.9308234503
 20
8.5127324102
 30
0.0
 10
10.9291823308
 20
8.5026486546
 30
0.0
 10
10.9264860175
 20
8.4928627571
 30
0.0
 10
10.9227925641
 20
8.4834707934
 30
0.0
 10
10.9181752904
 20
8.4745498961
 30
0.0
 10
10.9127162715
 20
8.4661596758
 30
0.0
 10
10.9065008023
 20
8.4583427472
 30
0.0
 10
10.8996131112
 20
8.4511272016
 30
0.0
 10
10.892133453
 20
8.4445293858
 30
0.0
 10
10.8841364506
 20
8.4385567274
 30
0.0
 10
10.875690394
 20
8.4332102314
 30
0.0
 10
10.8668571773
 20
8.4284865404
 30
0.0
 10
10.8576927058
 20
8.4243795633
 30
0.0
 10
10.8482472774
 20
8.4208816631
 30
0.0
 10
10.8385670047
 20
8.417984696
 30
0.0
 10
10.8319953205
 20
8.4164510791
 30
0.0
 10
10.8286847609
 20
8.4157814299
 30
0.0
  0
SPLINE
  5
302
100
AcDbEntity
  8
0
100
AcDbSpline
 62
7
  6
CONTINUOUS
 70
0
 71
3
 72
39
 73
35
 74
0
 42
0.0000001
 43
0.0000001
 44
0.0000000001
 40
0.0
 40
0.0
 40
0.0
 40
0.0
 40
0.0311082278
 40
0.0619974526
 40
0.0926835532
 40
0.1231901659
 40
0.1535491881
 40
0.183798478
 40
0.2139798319
 40
0.244136902
 40
0.2743131041
 40
0.3045497482
 40
0.3348845102
 40
0.3653502315
 40
0.395974012
 40
0.4267766373
 40
0.4577722659
 40
0.4889683076
 40
0.5203654513
 40
0.5519578245
 40
0.5837332441
 40
0.6156735331
 40
0.6477549465
 40
0.6799487127
 40
0.7122216947
 40
0.7445371785
 40
0.7768559089
 40
0.8091373383
 40
0.8413410443
 40
0.873428337
 40
0.9053640707
 40
0.9371184563
 40
0.9686682498
 40
1.0
 40
1.0
 40
1.0
 40
1.0
 10
10.247383208
 20
8.2236376243
 30
0.0
 10
10.247383208
 20
8.2276427281
 30
0.0
 10
10.2477951685
 20
8.2356311787
 30
0.0
 10
10.2496571338
 20
8.2474391501
 30
0.0
 10
10.2527376456
 20
8.2589107137
 30
0.0
 10
10.2569986177
 20
8.2699247375
 30
0.0
 10
10.2623878702
 20
8.2803696964
 30
0.0
 10
10.2688410266
 20
8.2901426898
 30
0.0
 10
10.2762832585
 20
8.2991511898
 30
0.0
 10
10.2846310735
 20
8.307313592
 30
0.0
 10
10.2937942229
 20
8.3145594554
 30
0.0
 10
10.3036773815
 20
8.3208293302
 30
0.0
 10
10.3141815566
 20
8.3260744059
 30
0.0
 10
10.3252052461
 20
8.3302560149
 30
0.0
 10
10.3366453743
 20
8.3333449634
 30
0.0
 10
10.3483979273
 20
8.3353209497
 30
0.0
 10
10.3603583908
 20
8.3361720572
 30
0.0
 10
10.3724220326
 20
8.3358943907
 30
0.0
 10
10.384484084
 20
8.3344917736
 30
0.0
 10
10.3964398561
 20
8.3319756539
 30
0.0
 10
10.4081848568
 20
8.3283651534
 30
0.0
 10
10.4196149808
 20
8.3236873096
 30
0.0
 10
10.4306267872
 20
8.3179773593
 30
0.0
 10
10.4411179302
 20
8.3112791364
 30
0.0
 10
10.450987771
 20
8.3036455118
 30
0.0
 10
10.4601382703
 20
8.2951388792
 30
0.0
 10
10.4684750697
 20
8.2858314576
 30
0.0
 10
10.4759088064
 20
8.2758054383
 30
0.0
 10
10.4823566841
 20
8.2651529546
 30
0.0
 10
10.4877442674
 20
8.2539756593
 30
0.0
 10
10.4920071922
 20
8.2423840623
 30
0.0
 10
10.4950928683
 20
8.2304956381
 30
0.0
 10
10.4969624091
 20
8.2184358631
 30
0.0
 10
10.4973832181
 20
8.2103340765
 30
0.0
 10
10.4973832216
 20
8.2063001948
 30
0.0
  0
SPLINE
  5
303
100
AcDbEntity
  8
0
100
AcDbSpline
 62
7
  6
CONTINUOUS
 70
0
 71
3
 72
25
 73
21
 74
0
 42
0.0000001
 43
0.0000001
 44
0.0000000001
 40
0.0
 40
0.0
 40
0.0
 40
0.0
 40
0.0621954377
 40
0.0934090875
 40
0.1246856373
 40
0.1873868411
 40
0.2502513592
 40
0.281731774
 40
0.3132292396
 40
0.3762354279
 40
0.4392276207
 40
0.5021581189
 40
0.564986941
 40
0.6276817206
 40
0.6902171226
 40
0.7525739834
 40
0.8147383556
 40
0.8767007924
 40
0.9384556282
 40
1.0
 40
1.0
 40
1.0
 40
1.0
 10
10.7403471655
 20
7.6946818239
 30
0.0
 10
10.7374873794
 20
7.6956464281
 30
0.0
 10
10.7332544716
 20
7.6972895684
 30
0.0
 10
10.7277700542
 20
7.6998480219
 30
0.0
 10
10.722380435
 20
7.7026550698
 30
0.0
 10
10.7158637268
 20
7.7066057666
 30
0.0
 10
10.7096935574
 20
7.7110940125
 30
0.0
 10
10.7049810591
 20
7.7149798944
 30
0.0
 10
10.7004213957
 20
7.7190543499
 30
0.0
 10
10.6950235554
 20
7.7244762284
 30
0.0
 10
10.6890522798
 20
7.7314432912
 30
0.0
 10
10.6835982544
 20
7.7388110676
 30
0.0
 10
10.6786675136
 20
7.746520852
 30
0.0
 10
10.6742598524
 20
7.7545186457
 30
0.0
 10
10.6703707818
 20
7.7627551532
 30
0.0
 10
10.6669927021
 20
7.7711858829
 30
0.0
 10
10.6641159934
 20
7.7797708406
 30
0.0
 10
10.6617298229
 20
7.7884742933
 30
0.0
 10
10.6598228637
 20
7.7972638195
 30
0.0
 10
10.6588616788
 20
7.8031724847
 30
0.0
 10
10.6584576317
 20
7.806131518
 30
0.0
  0
SPLINE
  5
304
100
AcDbEntity
  8
0
100
AcDbSpline
 62
7
  6
CONTINUOUS
 70
0
 71
3
 72
82
 73
78
 74
0
 42
0.0000001
 43
0.0000001
 44
0.0000000001
 40
0.0
 40
0.0
 40
0.0
 40
0.0
 40
0.0039801404
 40
0.0081240874
 40
0.0124359927
 40
0.0169193805
 40
0.0215772461
 40
0.0264119816
 40
0.0314252584
 40
0.0366182448
 40
0.0419916571
 40
0.0475457751
 40
0.0591949801
 40
0.0715620045
 40
0.084637695
 40
0.0984090251
 40
0.112859624
 40
0.1279701855
 40
0.1437188109
 40
0.1600813006
 40
0.1770313843
 40
0.1945409149
 40
0.2125800273
 40
0.2311173068
 40
0.2501199349
 40
0.2695538173
 40
0.2893836992
 40
0.3095732754
 40
0.3300853151
 40
0.3508817688
 40
0.371923872
 40
0.4145862166
 40
0.4577525765
 40
0.5010974346
 40
0.5442935277
 40
0.5870150451
 40
0.6080976014
 40
0.6289416312
 40
0.6495082481
 40
0.6697592592
 40
0.6896572746
 40
0.7091658223
 40
0.7282494504
 40
0.7468738389
 40
0.7650059189
 40
0.7826140145
 40
0.7996679805
 40
0.8161393432
 40
0.8320014675
 40
0.8472297521
 40
0.8618018735
 40
0.8756980414
 40
0.8889013164
 40
0.9013980141
 40
0.9131782286
 40
0.9187980915
 40
0.9242372041
 40
0.9294957522
 40
0.9345742644
 40
0.9394737733
 40
0.9441957786
 40
0.9487423263
 40
0.9531161313
 40
0.957320552
 40
0.961359786
 40
0.9652389017
 40
0.9689639469
 40
0.9725421294
 40
0.9759818433
 40
0.9792928702
 40
0.9824864412
 40
0.9855752996
 40
0.9885737811
 40
0.9914977096
 40
0.9943643176
 40
0.9971920024
 40
1.0
 40
1.0
 40
1.0
 40
1.0
 10
11.4707006883
 20
10.3552138363
 30
0.0
 10
11.4698480663
 20
10.3543902666
 30
0.0
 10
11.4680690092
 20
10.3527489425
 30
0.0
 10
11.4652444004
 20
10.3503516494
 30
0.0
 10
11.4622123614
 20
10.3479715243
 30
0.0
 10
11.4589745563
 20
10.345609882
 30
0.0
 10
11.4555325961
 20
10.343267799
 30
0.0
 10
11.4518881397
 20
10.3409464377
 30
0.0
 10
11.4480430109
 20
10.3386468851
 30
0.0
 10
11.4439991249
 20
10.3363703209
 30
0.0
 10
11.4397584999
 20
10.3341178722
 30
0.0
 10
11.4337489868
 20
10.331100191
 30
0.0
 10
11.4257513878
 20
10.3274055929
 30
0.0
 10
11.4155527605
 20
10.3231536329
 30
0.0
 10
11.4046257424
 20
10.319024057
 30
0.0
 10
11.3929922778
 20
10.3150252201
 30
0.0
 10
11.3806755689
 20
10.3111652321
 30
0.0
 10
11.3677003392
 20
10.3074519382
 30
0.0
 10
11.3540926745
 20
10.3038928908
 30
0.0
 10
11.3398799792
 20
10.3004953386
 30
0.0
 10
11.3250909038
 20
10.2972662039
 30
0.0
 10
11.3097552887
 20
10.2942120703
 30
0.0
 10
11.2939041033
 20
10.2913391545
 30
0.0
 10
11.277569375
 20
10.2886533045
 30
0.0
 10
11.2607841171
 20
10.2861599891
 30
0.0
 10
11.2435822606
 20
10.2838642864
 30
0.0
 10
11.2259985898
 20
10.2817708723
 30
0.0
 10
11.2080686676
 20
10.2798839995
 30
0.0
 10
11.189828772
 20
10.2782075114
 30
0.0
 10
11.1713157704
 20
10.2767447948
 30
0.0
 10
11.1462033042
 20
10.2750760223
 30
0.0
 10
11.114406693
 20
10.2735498426
 30
0.0
 10
11.0759422816
 20
10.2726139507
 30
0.0
 10
11.037307414
 20
10.2725732003
 30
0.0
 10
10.9988146333
 20
10.2734279017
 30
0.0
 10
10.9669763076
 20
10.2748867161
 30
0.0
 10
10.9418164169
 20
10.2765020212
 30
0.0
 10
10.923257764
 20
10.2779255241
 30
0.0
 10
10.9049654446
 20
10.2795633722
 30
0.0
 10
10.8869764358
 20
10.2814122608
 30
0.0
 10
10.8693271354
 20
10.2834684251
 30
0.0
 10
10.8520532357
 20
10.2857276779
 30
0.0
 10
10.8351896667
 20
10.2881854203
 30
0.0
 10
10.8187705237
 20
10.2908366502
 30
0.0
 10
10.8028289963
 20
10.2936759746
 30
0.0
 10
10.7873972937
 20
10.2966976107
 30
0.0
 10
10.7725065763
 20
10.2998953996
 30
0.0
 10
10.7581868949
 20
10.3032628268
 30
0.0
 10
10.7444671279
 20
10.3067930334
 30
0.0
 10
10.731374915
 20
10.3104788355
 30
0.0
 10
10.7189365794
 20
10.3143127265
 30
0.0
 10
10.7071770927
 20
10.3182869067
 30
0.0
 10
10.6961199328
 20
10.3223933197
 30
0.0
 10
10.6857873196
 20
10.3266236467
 30
0.0
 10
10.6776748328
 20
10.3303006089
 30
0.0
 10
10.6715713649
 20
10.3333048568
 30
0.0
 10
10.6672597205
 20
10.3355482735
 30
0.0
 10
10.6631440415
 20
10.3378161745
 30
0.0
 10
10.6592263999
 20
10.3401075016
 30
0.0
 10
10.6555087382
 20
10.3424210747
 30
0.0
 10
10.6519929094
 20
10.3447557574
 30
0.0
 10
10.6486806802
 20
10.347110431
 30
0.0
 10
10.645573668
 20
10.3494839009
 30
0.0
 10
10.6426734491
 20
10.3518750743
 30
0.0
 10
10.6399814504
 20
10.3542827834
 30
0.0
 10
10.6374990146
 20
10.3567058942
 30
0.0
 10
10.6352274357
 20
10.3591433228
 30
0.0
 10
10.6331678384
 20
10.3615939054
 30
0.0
 10
10.6313213701
 20
10.3640565837
 30
0.0
 10
10.6296890475
 20
10.3665302302
 30
0.0
 10
10.6282718281
 20
10.3690137161
 30
0.0
 10
10.6270707037
 20
10.3715059216
 30
0.0
 10
10.6260864687
 20
10.3740055993
 30
0.0
 10
10.6253199866
 20
10.3765114649
 30
0.0
 10
10.6247719398
 20
10.379022172
 30
0.0
 10
10.6244428377
 20
10.381535953
 30
0.0
 10
10.6243696093
 20
10.3832153607
 30
0.0
 10
10.6243696074
 20
10.3840516803
 30
0.0
  0
SPLINE
  5
305
100
AcDbEntity
  8
0
100
AcDbSpline
 62
7
  6
CONTINUOUS
 70
0
 71
3
 72
48
 73
44
 74
0
 42
0.0000001
 43
0.0000001
 44
0.0000000001
 40
0.0
 40
0.0
 40
0.0
 40
0.0
 40
0.0350612114
 40
0.0714617096
 40
0.1090494842
 40
0.1476680227
 40
0.1871530599
 40
0.227335977
 40
0.2680439218
 40
0.3091011429
 40
0.3503299047
 40
0.3915515144
 40
0.4325873181
 40
0.4732597038
 40
0.5133931044
 40
0.5528150067
 40
0.591356975
 40
0.6288556954
 40
0.6651540561
 40
0.7001022807
 40
0.7335591458
 40
0.7653933354
 40
0.7954849749
 40
0.8237274673
 40
0.8500298007
 40
0.8624309121
 40
0.8743215645
 40
0.8856964523
 40
0.89655188
 40
0.9068862992
 40
0.9167005264
 40
0.9259980288
 40
0.934785698
 40
0.9430740094
 40
0.9508782984
 40
0.9582190986
 40
0.9651237006
 40
0.9716269273
 40
0.9777725617
 40
0.9836142198
 40
0.989215719
 40
0.9946505992
 40
1.0
 40
1.0
 40
1.0
 40
1.0
 10
10.8280173906
 20
10.1941738487
 30
0.0
 10
10.8256419071
 20
10.193743347
 30
0.0
 10
10.8207886627
 20
10.1929286063
 30
0.0
 10
10.8133559057
 20
10.1918590454
 30
0.0
 10
10.8056584092
 20
10.1909225511
 30
0.0
 10
10.7977319971
 20
10.190123512
 30
0.0
 10
10.7896133573
 20
10.1894656939
 30
0.0
 10
10.7813401911
 20
10.1889521773
 30
0.0
 10
10.7729508812
 20
10.1885853766
 30
0.0
 10
10.7644843708
 20
10.1883670114
 30
0.0
 10
10.7559799605
 20
10.1882981071
 30
0.0
 10
10.7474771303
 20
10.1883789874
 30
0.0
 10
10.7390153522
 20
10.1886092723
 30
0.0
 10
10.730633906
 20
10.1889878812
 30
0.0
 10
10.7223716942
 20
10.1895130371
 30
0.0
 10
10.7142670597
 20
10.1901822753
 30
0.0
 10
10.7063576056
 20
10.1909924531
 30
0.0
 10
10.698680017
 20
10.1919397646
 30
0.0
 10
10.6912698865
 20
10.1930197565
 30
0.0
 10
10.6841615437
 20
10.1942273482
 30
0.0
 10
10.6773878811
 20
10.1955568545
 30
0.0
 10
10.6709802064
 20
10.1970020122
 30
0.0
 10
10.664968013
 20
10.1985560052
 30
0.0
 10
10.6593790394
 20
10.2002115307
 30
0.0
 10
10.655013587
 20
10.201696964
 30
0.0
 10
10.6517573587
 20
10.2029360748
 30
0.0
 10
10.6494847263
 20
10.2038676632
 30
0.0
 10
10.6473360137
 20
10.2048186697
 30
0.0
 10
10.6453136815
 20
10.2057880415
 30
0.0
 10
10.643420035
 20
10.2067746592
 30
0.0
 10
10.6416572144
 20
10.2077773909
 30
0.0
 10
10.640027223
 20
10.2087951489
 30
0.0
 10
10.6385318623
 20
10.2098267651
 30
0.0
 10
10.6371728353
 20
10.2108712005
 30
0.0
 10
10.6359516166
 20
10.2119273129
 30
0.0
 10
10.6348696289
 20
10.212994128
 30
0.0
 10
10.6339281032
 20
10.2140706076
 30
0.0
 10
10.6331282659
 20
10.2151558348
 30
0.0
 10
10.6324712965
 20
10.2162488682
 30
0.0
 10
10.6319583826
 20
10.2173486759
 30
0.0
 10
10.6315908118
 20
10.2184541549
 30
0.0
 10
10.63136965
 20
10.2195635016
 30
0.0
 10
10.6313203253
 20
10.2203069691
 30
0.0
 10
10.6313203246
 20
10.2206753079
 30
0.0
  0
SPLINE
  5
306
100
AcDbEntity
  8
0
100
AcDbSpline
 62
7
  6
CONTINUOUS
 70
0
 71
3
 72
11
 73
7
 74
0
 42
0.0000001
 43
0.0000001
 44
0.0000000001
 40
0.0
 40
0.0
 40
0.0
 40
0.0
 40
0.2441543375
 40
0.4922337155
 40
0.7442043303
 40
1.0
 40
1.0
 40
1.0
 40
1.0
 10
11.2124874494
 20
8.1331075236
 30
0.0
 10
11.2107307116
 20
8.1317759288
 30
0.0
 10
11.2071018338
 20
8.1292040735
 30
0.0
 10
11.2013713367
 20
8.1256863865
 30
0.0
 10
11.1953208565
 20
8.1225187999
 30
0.0
 10
11.1911155474
 20
8.1206817634
 30
0.0
 10
11.1889673654
 20
8.1198338152
 30
0.0
  0
SPLINE
  5
307
100
AcDbEntity
  8
0
100
AcDbSpline
 62
7
  6
CONTINUOUS
 70
0
 71
3
 72
23
 73
19
 74
0
 42
0.0000001
 43
0.0000001
 44
0.0000000001
 40
0.0
 40
0.0
 40
0.0
 40
0.0
 40
0.0619025424
 40
0.1248400803
 40
0.1886533398
 40
0.2531241004
 40
0.3179946974
 40
0.3829922184
 40
0.4478562283
 40
0.5123600216
 40
0.5763204556
 40
0.6395979628
 40
0.7020886763
 40
0.7637128173
 40
0.8244010666
 40
0.8840803413
 40
0.9426577795
 40
1.0
 40
1.0
 40
1.0
 40
1.0
 10
11.1889673654
 20
8.1198338152
 30
0.0
 10
11.1861253008
 20
8.1187119719
 30
0.0
 10
11.1802822021
 20
8.1167207587
 30
0.0
 10
11.1712054599
 20
8.1145792647
 30
0.0
 10
11.1618355434
 20
8.1133208603
 30
0.0
 10
11.1522921535
 20
8.1129863445
 30
0.0
 10
11.1427034824
 20
8.1135845631
 30
0.0
 10
11.1331965154
 20
8.115092758
 30
0.0
 10
11.1238861105
 20
8.1174598777
 30
0.0
 10
11.1148678156
 20
8.1206145093
 30
0.0
 10
11.1062148333
 20
8.124473537
 30
0.0
 10
11.0979786924
 20
8.1289496543
 30
0.0
 10
11.0901923461
 20
8.1339568989
 30
0.0
 10
11.0828742483
 20
8.1394136936
 30
0.0
 10
11.0760324397
 20
8.1452437936
 30
0.0
 10
11.06966803
 20
8.1513757598
 30
0.0
 10
11.0637785014
 20
8.1577406765
 30
0.0
 10
11.0601223056
 20
8.162145787
 30
0.0
 10
11.058370906
 20
8.164369207
 30
0.0
  0
SPLINE
  5
308
100
AcDbEntity
  8
0
100
AcDbSpline
 62
7
  6
CONTINUOUS
 70
0
 71
3
 72
15
 73
11
 74
0
 42
0.0000001
 43
0.0000001
 44
0.0000000001
 40
0.0
 40
0.0
 40
0.0
 40
0.0
 40
0.1249838119
 40
0.2497911586
 40
0.3745155245
 40
0.4992479098
 40
0.624080352
 40
0.7490995276
 40
0.8743837847
 40
1.0
 40
1.0
 40
1.0
 40
1.0
 10
11.314361591
 20
8.1558500976
 30
0.0
 10
11.3143615876
 20
8.1519797632
 30
0.0
 10
11.3139704444
 20
8.1442387928
 30
0.0
 10
11.3122122726
 20
8.132756141
 30
0.0
 10
11.3093017536
 20
8.121517031
 30
0.0
 10
11.305269142
 20
8.1106296346
 30
0.0
 10
11.3001563255
 20
8.1001958273
 30
0.0
 10
11.2940153256
 20
8.0903119302
 30
0.0
 10
11.2869090048
 20
8.0810687775
 30
0.0
 10
11.2815800113
 20
8.0753945685
 30
0.0
 10
11.2787822075
 20
8.0726920226
 30
0.0
  0
SPLINE
  5
309
100
AcDbEntity
  8
0
100
AcDbSpline
 62
7
  6
CONTINUOUS
 70
0
 71
3
 72
20
 73
16
 74
0
 42
0.0000001
 43
0.0000001
 44
0.0000000001
 40
0.0
 40
0.0
 40
0.0
 40
0.0
 40
0.1587150207
 40
0.3088471545
 40
0.4501265506
 40
0.5172944372
 40
0.5820200105
 40
0.6442012982
 40
0.7037231206
 40
0.7604725695
 40
0.8143397555
 40
0.8652378778
 40
0.9131175503
 40
0.9579975113
 40
1.0
 40
1.0
 40
1.0
 40
1.0
 10
10.8405666589
 20
7.8319545957
 30
0.0
 10
10.8425359684
 20
7.830046867
 30
0.0
 10
10.8462302963
 20
7.8261892266
 30
0.0
 10
10.8511947949
 20
7.8201966739
 30
0.0
 10
10.8548082681
 20
7.8151583071
 30
0.0
 10
10.8573471349
 20
7.8111793208
 30
0.0
 10
10.8590452307
 20
7.808287541
 30
0.0
 10
10.8605678271
 20
7.8054486439
 30
0.0
 10
10.8619111088
 20
7.8026728298
 30
0.0
 10
10.8630708622
 20
7.7999709402
 30
0.0
 10
10.8640407184
 20
7.7973532971
 30
0.0
 10
10.8648138769
 20
7.7948304999
 30
0.0
 10
10.8653814953
 20
7.7924122889
 30
0.0
 10
10.8657340416
 20
7.7901084795
 30
0.0
 10
10.8658207057
 20
7.7886068311
 30
0.0
 10
10.8658203116
 20
7.787881232
 30
0.0
  0
SPLINE
  5
30A
100
AcDbEntity
  8
0
100
AcDbSpline
 62
7
  6
CONTINUOUS
 70
0
 71
3
 72
11
 73
7
 74
0
 42
0.0000001
 43
0.0000001
 44
0.0000000001
 40
0.0
 40
0.0
 40
0.0
 40
0.0
 40
0.2649892472
 40
0.5195510793
 40
0.7643959806
 40
1.0
 40
1.0
 40
1.0
 40
1.0
 10
10.819126953
 20
7.8479257523
 30
0.0
 10
10.8212026161
 20
7.8467859457
 30
0.0
 10
10.8251858562
 20
7.8443900808
 30
0.0
 10
10.8307730835
 20
7.8404513555
 30
0.0
 10
10.8358837468
 20
7.8363186177
 30
0.0
 10
10.8390544402
 20
7.8334195269
 30
0.0
 10
10.8405666589
 20
7.8319545957
 30
0.0
  0
SPLINE
  5
30B
100
AcDbEntity
  8
0
100
AcDbSpline
 62
7
  6
CONTINUOUS
 70
0
 71
3
 72
32
 73
28
 74
0
 42
0.0000001
 43
0.0000001
 44
0.0000000001
 40
0.0
 40
0.0
 40
0.0
 40
0.0
 40
0.0845017374
 40
0.167300855
 40
0.2480795303
 40
0.3265298693
 40
0.4023572177
 40
0.4752815404
 40
0.545039923
 40
0.5786558619
 40
0.6113908052
 40
0.6432178835
 40
0.6741118203
 40
0.704049142
 40
0.7330081882
 40
0.760969474
 40
0.7879156344
 40
0.8138319636
 40
0.8387063238
 40
0.8625298908
 40
0.8852970833
 40
0.9070065571
 40
0.9276612459
 40
0.94726967
 40
0.9658462264
 40
0.9834129037
 40
1.0
 40
1.0
 40
1.0
 40
1.0
 10
11.6309070587
 20
10.5024613161
 30
0.0
 10
11.6380280628
 20
10.5019674728
 30
0.0
 10
11.652118287
 20
10.5008647534
 30
0.0
 10
11.6729777087
 20
10.4988427281
 30
0.0
 10
11.6932864524
 20
10.4964760128
 30
0.0
 10
11.7129592047
 20
10.4937746547
 30
0.0
 10
11.7319134765
 20
10.4907501551
 30
0.0
 10
11.7500696908
 20
10.4874153504
 30
0.0
 10
11.7646459268
 20
10.4843531012
 30
0.0
 10
11.775845444
 20
10.4817507247
 30
0.0
 10
11.7838953335
 20
10.479754524
 30
0.0
 10
11.7916908735
 20
10.477691955
 30
0.0
 10
11.7992238995
 20
10.4755651656
 30
0.0
 10
11.8064865155
 20
10.4733764169
 30
0.0
 10
11.8134711151
 20
10.4711279956
 30
0.0
 10
11.8201703943
 20
10.4688222968
 30
0.0
 10
11.8265773483
 20
10.4664617142
 30
0.0
 10
11.8326852997
 20
10.4640487689
 30
0.0
 10
11.8384878787
 20
10.4615859442
 30
0.0
 10
11.8439790709
 20
10.4590758696
 30
0.0
 10
11.8491531729
 20
10.4565210963
 30
0.0
 10
11.8540048671
 20
10.4539243362
 30
0.0
 10
11.8585291475
 20
10.4512881725
 30
0.0
 10
11.862721409
 20
10.4486153682
 30
0.0
 10
11.8665774012
 20
10.4459084458
 30
0.0
 10
11.8700930842
 20
10.44317029
 30
0.0
 10
11.8722686674
 20
10.4412723745
 30
0.0
 10
11.8732943876
 20
10.4403178336
 30
0.0
  0
SPLINE
  5
30C
100
AcDbEntity
  8
0
100
AcDbSpline
 62
7
  6
CONTINUOUS
 70
0
 71
3
 72
39
 73
35
 74
0
 42
0.0000001
 43
0.0000001
 44
0.0000000001
 40
0.0
 40
0.0
 40
0.0
 40
0.0
 40
0.0761045193
 40
0.1533639203
 40
0.2310946074
 40
0.3086064043
 40
0.385211887
 40
0.4229634241
 40
0.4602358098
 40
0.4969473753
 40
0.533018102
 40
0.5683699075
 40
0.6029269209
 40
0.6366157387
 40
0.6693657101
 40
0.7011092592
 40
0.7317822604
 40
0.7613243728
 40
0.7896794417
 40
0.8167959766
 40
0.8426277652
 40
0.8671345517
 40
0.8902828581
 40
0.9120470578
 40
0.9224052234
 40
0.9324121753
 40
0.9420676392
 40
0.9513721659
 40
0.9603273168
 40
0.9689355961
 40
0.9772009945
 40
0.9851289013
 40
0.9927259391
 40
1.0
 40
1.0
 40
1.0
 40
1.0
 10
11.2142780894
 20
5.8142493445
 30
0.0
 10
11.2252012563
 20
5.8134918203
 30
0.0
 10
11.2472350707
 20
5.8122640722
 30
0.0
 10
11.2804719584
 20
5.8112711748
 30
0.0
 10
11.3139260192
 20
5.8111173448
 30
0.0
 10
11.3472791071
 20
5.8118041193
 30
0.0
 10
11.3748579345
 20
5.8130773393
 30
0.0
 10
11.3966263229
 20
5.8145172437
 30
0.0
 10
11.4126516897
 20
5.8157955584
 30
0.0
 10
11.4284169315
 20
5.8172743336
 30
0.0
 10
11.4438845837
 20
5.8189500611
 30
0.0
 10
11.4590178585
 20
5.8208187219
 30
0.0
 10
11.4737807837
 20
5.8228758373
 30
0.0
 10
11.4881382714
 20
5.8251164795
 30
0.0
 10
11.5020562047
 20
5.8275352829
 30
0.0
 10
11.5155015256
 20
5.8301264567
 30
0.0
 10
11.5284423232
 20
5.8328837821
 30
0.0
 10
11.5408479095
 20
5.8358006461
 30
0.0
 10
11.5526888895
 20
5.838870055
 30
0.0
 10
11.5639372489
 20
5.8420846589
 30
0.0
 10
11.574566417
 20
5.8454367564
 30
0.0
 10
11.5845514307
 20
5.848918328
 30
0.0
 10
11.593868706
 20
5.8525210702
 30
0.0
 10
11.601174552
 20
5.8556669742
 30
0.0
 10
11.6066607756
 20
5.8582449359
 30
0.0
 10
11.610526972
 20
5.860171397
 30
0.0
 10
11.6142105653
 20
5.8621216576
 30
0.0
 10
11.6177093793
 20
5.8640946171
 30
0.0
 10
11.6210213747
 20
5.8660890536
 30
0.0
 10
11.6241445987
 20
5.8681038643
 30
0.0
 10
11.6270772641
 20
5.870137885
 30
0.0
 10
11.6298177096
 20
5.8721900054
 30
0.0
 10
11.6323641783
 20
5.8742589882
 30
0.0
 10
11.6339657083
 20
5.8756790229
 30
0.0
 10
11.6347318493
 20
5.87639196
 30
0.0
  0
SPLINE
  5
30D
100
AcDbEntity
  8
0
100
AcDbSpline
 62
7
  6
CONTINUOUS
 70
0
 71
3
 72
18
 73
14
 74
0
 42
0.0000001
 43
0.0000001
 44
0.0000000001
 40
0.0
 40
0.0
 40
0.0
 40
0.0
 40
0.1480408984
 40
0.2876685637
 40
0.4195638307
 40
0.4828953995
 40
0.5446366358
 40
0.6638663733
 40
0.7785245104
 40
0.8345987316
 40
0.8900708004
 40
0.9451373779
 40
1.0
 40
1.0
 40
1.0
 40
1.0
 10
11.9031296611
 20
6.1345726099
 30
0.0
 10
11.9041575335
 20
6.1355654585
 30
0.0
 10
11.9060946263
 20
6.1375588612
 30
0.0
 10
11.9086991086
 20
6.1406654807
 30
0.0
 10
11.910567212
 20
6.1433090823
 30
0.0
 10
11.911853765
 20
6.1454309774
 30
0.0
 10
11.9129773491
 20
6.1475053237
 30
0.0
 10
11.9141450064
 20
6.1501154757
 30
0.0
 10
11.9149976106
 20
6.1527887208
 30
0.0
 10
11.9154708429
 20
6.1549216245
 30
0.0
 10
11.9157227004
 20
6.1565112288
 30
0.0
 10
11.915873844
 20
6.1581017173
 30
0.0
 10
11.9159074465
 20
6.159163201
 30
0.0
 10
11.9159074437
 20
6.1596928052
 30
0.0
  0
SPLINE
  5
30E
100
AcDbEntity
  8
0
100
AcDbSpline
 62
7
  6
CONTINUOUS
 70
0
 71
3
 72
21
 73
17
 74
0
 42
0.0000001
 43
0.0000001
 44
0.0000000001
 40
0.0
 40
0.0
 40
0.0
 40
0.0
 40
0.0616532317
 40
0.1233294843
 40
0.1850515407
 40
0.2468416642
 40
0.3087213449
 40
0.3707111025
 40
0.432830246
 40
0.4950966374
 40
0.5575265756
 40
0.6201345674
 40
0.6829331401
 40
0.7459332076
 40
0.8725262003
 40
1.0
 40
1.0
 40
1.0
 40
1.0
 10
11.2808850863
 20
9.0211258341
 30
0.0
 10
11.2825459522
 20
9.0227301089
 30
0.0
 10
11.2859553281
 20
9.0258505501
 30
0.0
 10
11.2913145903
 20
9.0302504965
 30
0.0
 10
11.2969065621
 20
9.0343596294
 30
0.0
 10
11.3027169889
 20
9.0381673782
 30
0.0
 10
11.3087312598
 20
9.0416642274
 30
0.0
 10
11.3149341943
 20
9.0448413847
 30
0.0
 10
11.321310185
 20
9.0476908238
 30
0.0
 10
11.3278431555
 20
9.0502053869
 30
0.0
 10
11.3345166491
 20
9.0523787882
 30
0.0
 10
11.3413138125
 20
9.0542055379
 30
0.0
 10
11.3482177254
 20
9.0556810568
 30
0.0
 10
11.357555204
 20
9.0571774373
 30
0.0
 10
11.3694123174
 20
9.0581496103
 30
0.0
 10
11.3789447216
 20
9.0579635756
 30
0.0
 10
11.3837076643
 20
9.0576332644
 30
0.0
  0
SPLINE
  5
30F
100
AcDbEntity
  8
0
100
AcDbSpline
 62
7
  6
CONTINUOUS
 70
0
 71
3
 72
21
 73
17
 74
0
 42
0.0000001
 43
0.0000001
 44
0.0000000001
 40
0.0
 40
0.0
 40
0.0
 40
0.0
 40
0.0616532317
 40
0.1233294843
 40
0.1850515407
 40
0.2468416642
 40
0.3087213449
 40
0.3707111025
 40
0.432830246
 40
0.4950966374
 40
0.5575265756
 40
0.6201345674
 40
0.6829331401
 40
0.7459332076
 40
0.8725262003
 40
1.0
 40
1.0
 40
1.0
 40
1.0
 10
11.2808850863
 20
7.4814399933
 30
0.0
 10
11.2825459522
 20
7.4830442681
 30
0.0
 10
11.2859553281
 20
7.4861647092
 30
0.0
 10
11.2913145903
 20
7.4905646556
 30
0.0
 10
11.2969065621
 20
7.4946737886
 30
0.0
 10
11.3027169889
 20
7.4984815374
 30
0.0
 10
11.3087312598
 20
7.5019783866
 30
0.0
 10
11.3149341943
 20
7.5051555439
 30
0.0
 10
11.321310185
 20
7.5080049829
 30
0.0
 10
11.3278431555
 20
7.5105195461
 30
0.0
 10
11.3345166491
 20
7.5126929474
 30
0.0
 10
11.3413138125
 20
7.5145196971
 30
0.0
 10
11.3482177254
 20
7.515995216
 30
0.0
 10
11.357555204
 20
7.5174915965
 30
0.0
 10
11.3694123174
 20
7.5184637695
 30
0.0
 10
11.3789447216
 20
7.5182777347
 30
0.0
 10
11.3837076643
 20
7.5179474235
 30
0.0
  0
SPLINE
  5
310
100
AcDbEntity
  8
0
100
AcDbSpline
 62
7
  6
CONTINUOUS
 70
0
 71
3
 72
21
 73
17
 74
0
 42
0.0000001
 43
0.0000001
 44
0.0000000001
 40
0.0
 40
0.0
 40
0.0
 40
0.0
 40
0.0616532317
 40
0.1233294843
 40
0.1850515407
 40
0.2468416642
 40
0.3087213449
 40
0.3707111025
 40
0.432830246
 40
0.4950966374
 40
0.5575265756
 40
0.6201345674
 40
0.6829331401
 40
0.7459332076
 40
0.8725262003
 40
1.0
 40
1.0
 40
1.0
 40
1.0
 10
10.0734777319
 20
7.5651739777
 30
0.0
 10
10.0751385978
 20
7.5667782525
 30
0.0
 10
10.0785479737
 20
7.5698986937
 30
0.0
 10
10.0839072359
 20
7.5742986401
 30
0.0
 10
10.0894992077
 20
7.578407773
 30
0.0
 10
10.0953096345
 20
7.5822155218
 30
0.0
 10
10.1013239054
 20
7.585712371
 30
0.0
 10
10.1075268399
 20
7.5888895283
 30
0.0
 10
10.1139028306
 20
7.5917389673
 30
0.0
 10
10.1204358011
 20
7.5942535305
 30
0.0
 10
10.1271092947
 20
7.5964269318
 30
0.0
 10
10.1339064581
 20
7.5982536815
 30
0.0
 10
10.140810371
 20
7.5997292004
 30
0.0
 10
10.1501478496
 20
7.6012255809
 30
0.0
 10
10.162004963
 20
7.6021977539
 30
0.0
 10
10.1715373672
 20
7.6020117192
 30
0.0
 10
10.1763003098
 20
7.601681408
 30
0.0
  0
SPLINE
  5
311
100
AcDbEntity
  8
0
100
AcDbSpline
 62
7
  6
CONTINUOUS
 70
0
 71
3
 72
21
 73
17
 74
0
 42
0.0000001
 43
0.0000001
 44
0.0000000001
 40
0.0
 40
0.0
 40
0.0
 40
0.0
 40
0.0616532317
 40
0.1233294843
 40
0.1850515407
 40
0.2468416642
 40
0.3087213449
 40
0.3707111025
 40
0.432830246
 40
0.4950966374
 40
0.5575265756
 40
0.6201345674
 40
0.6829331401
 40
0.7459332076
 40
0.8725262003
 40
1.0
 40
1.0
 40
1.0
 40
1.0
 10
10.0734777319
 20
9.1048598186
 30
0.0
 10
10.0751385978
 20
9.1064640934
 30
0.0
 10
10.0785479737
 20
9.1095845345
 30
0.0
 10
10.0839072359
 20
9.1139844809
 30
0.0
 10
10.0894992077
 20
9.1180936138
 30
0.0
 10
10.0953096345
 20
9.1219013626
 30
0.0
 10
10.1013239054
 20
9.1253982118
 30
0.0
 10
10.1075268399
 20
9.1285753691
 30
0.0
 10
10.1139028306
 20
9.1314248082
 30
0.0
 10
10.1204358011
 20
9.1339393714
 30
0.0
 10
10.1271092947
 20
9.1361127727
 30
0.0
 10
10.1339064581
 20
9.1379395223
 30
0.0
 10
10.140810371
 20
9.1394150413
 30
0.0
 10
10.1501478496
 20
9.1409114217
 30
0.0
 10
10.162004963
 20
9.1418835947
 30
0.0
 10
10.1715373672
 20
9.14169756
 30
0.0
 10
10.1763003098
 20
9.1413672488
 30
0.0
  0
SPLINE
  5
312
100
AcDbEntity
  8
0
100
AcDbSpline
 62
7
  6
CONTINUOUS
 70
0
 71
3
 72
15
 73
11
 74
0
 42
0.0000001
 43
0.0000001
 44
0.0000000001
 40
0.0
 40
0.0
 40
0.0
 40
0.0
 40
0.1233171388
 40
0.2468172051
 40
0.3706750009
 40
0.4950496043
 40
0.6200772562
 40
0.7458671573
 40
0.8724928759
 40
1.0
 40
1.0
 40
1.0
 40
1.0
 10
10.1163814354
 20
8.7132354683
 30
0.0
 10
10.1178176144
 20
8.7146227193
 30
0.0
 10
10.1208440951
 20
8.7172467114
 30
0.0
 10
10.1257836174
 20
8.7206755563
 30
0.0
 10
10.1310764895
 20
8.7235660253
 30
0.0
 10
10.1366685268
 20
8.7258884179
 30
0.0
 10
10.1425033249
 20
8.7276196819
 30
0.0
 10
10.1485221116
 20
8.7287424867
 30
0.0
 10
10.1546634423
 20
8.7292459162
 30
0.0
 10
10.1587858003
 20
8.7291655084
 30
0.0
 10
10.1608454644
 20
8.7290226702
 30
0.0
  0
SPLINE
  5
313
100
AcDbEntity
  8
0
100
AcDbSpline
 62
7
  6
CONTINUOUS
 70
0
 71
3
 72
15
 73
11
 74
0
 42
0.0000001
 43
0.0000001
 44
0.0000000001
 40
0.0
 40
0.0
 40
0.0
 40
0.0
 40
0.1233171388
 40
0.2468172051
 40
0.3706750009
 40
0.4950496043
 40
0.6200772562
 40
0.7458671573
 40
0.8724928759
 40
1.0
 40
1.0
 40
1.0
 40
1.0
 10
10.735539958
 20
8.2327323025
 30
0.0
 10
10.7369761371
 20
8.2341195535
 30
0.0
 10
10.7400026177
 20
8.2367435456
 30
0.0
 10
10.7449421401
 20
8.2401723905
 30
0.0
 10
10.7502350122
 20
8.2430628595
 30
0.0
 10
10.7558270495
 20
8.2453852521
 30
0.0
 10
10.7616618476
 20
8.2471165161
 30
0.0
 10
10.7676806342
 20
8.2482393209
 30
0.0
 10
10.773821965
 20
8.2487427504
 30
0.0
 10
10.777944323
 20
8.2486623426
 30
0.0
 10
10.7800039871
 20
8.2485195044
 30
0.0
  0
SPLINE
  5
314
100
AcDbEntity
  8
0
100
AcDbSpline
 62
7
  6
CONTINUOUS
 70
0
 71
3
 72
15
 73
11
 74
0
 42
0.0000001
 43
0.0000001
 44
0.0000000001
 40
0.0
 40
0.0
 40
0.0
 40
0.0
 40
0.1233171217
 40
0.2468171833
 40
0.3706749954
 40
0.4950495965
 40
0.6200773092
 40
0.7458671694
 40
0.8724927499
 40
1.0
 40
1.0
 40
1.0
 40
1.0
 10
10.1066553575
 20
7.8481765126
 30
0.0
 10
10.1084056905
 20
7.8498672003
 30
0.0
 10
10.1120942084
 20
7.853065123
 30
0.0
 10
10.11811421
 20
7.8572439586
 30
0.0
 10
10.124564855
 20
7.8607666463
 30
0.0
 10
10.1313800996
 20
7.8635969983
 30
0.0
 10
10.1384911999
 20
7.8657069212
 30
0.0
 10
10.1458265247
 20
7.8670753051
 30
0.0
 10
10.1533111972
 20
7.8676888452
 30
0.0
 10
10.1583352711
 20
7.8675908471
 30
0.0
 10
10.1608454644
 20
7.8674167646
 30
0.0
  0
SPLINE
  5
315
100
AcDbEntity
  8
0
100
AcDbSpline
 62
7
  6
CONTINUOUS
 70
0
 71
3
 72
30
 73
26
 74
0
 42
0.0000001
 43
0.0000001
 44
0.0000000001
 40
0.0
 40
0.0
 40
0.0
 40
0.0
 40
0.0606623077
 40
0.1216906063
 40
0.1830902028
 40
0.2448594137
 40
0.3069900748
 40
0.3694670782
 40
0.4322671451
 40
0.4953560514
 40
0.558685054
 40
0.622186308
 40
0.6857665464
 40
0.7175638622
 40
0.7493336987
 40
0.7810559915
 40
0.8127091551
 40
0.844270708
 40
0.8600128623
 40
0.8757237998
 40
0.9070358434
 40
0.9381938031
 40
0.9537131009
 40
0.9691893214
 40
1.0
 40
1.0
 40
1.0
 40
1.0
 10
10.7313232134
 20
8.6511537875
 30
0.0
 10
10.7366341364
 20
8.6522280636
 30
0.0
 10
10.7473968457
 20
8.6538766235
 30
0.0
 10
10.7637408066
 20
8.6548765706
 30
0.0
 10
10.7802088192
 20
8.6544326691
 30
0.0
 10
10.7966740358
 20
8.6525571706
 30
0.0
 10
10.8130118979
 20
8.6492551466
 30
0.0
 10
10.8290914971
 20
8.6445247276
 30
0.0
 10
10.8447706453
 20
8.6383588989
 30
0.0
 10
10.8598891888
 20
8.6307484064
 30
0.0
 10
10.8742627142
 20
8.6216859776
 30
0.0
 10
10.8876736852
 20
8.6111761786
 30
0.0
 10
10.8978410517
 20
8.6012265825
 30
0.0
 10
10.9052202313
 20
8.5925855217
 30
0.0
 10
10.9103374377
 20
8.5857766884
 30
0.0
 10
10.9149937569
 20
8.5786597187
 30
0.0
 10
10.9191462715
 20
8.5712583856
 30
0.0
 10
10.9221542148
 20
8.5648719023
 30
0.0
 10
10.9242659191
 20
8.5596531877
 30
0.0
 10
10.926171354
 20
8.5543793751
 30
0.0
 10
10.9281634147
 20
8.5476783608
 30
0.0
 10
10.9296113579
 20
8.5408560102
 30
0.0
 10
10.9304269876
 20
8.5353630783
 30
0.0
 10
10.9310103863
 20
8.5298722161
 30
0.0
 10
10.9311877673
 20
8.5257350522
 30
0.0
 10
10.9311877673
 20
8.5229829779
 30
0.0
  0
SPLINE
  5
316
100
AcDbEntity
  8
0
100
AcDbSpline
 62
7
  6
CONTINUOUS
 70
0
 71
3
 72
30
 73
26
 74
0
 42
0.0000001
 43
0.0000001
 44
0.0000000001
 40
0.0
 40
0.0
 40
0.0
 40
0.0
 40
0.0639219878
 40
0.1274042804
 40
0.1904661211
 40
0.2531351509
 40
0.3154459321
 40
0.3774404908
 40
0.4391700028
 40
0.5006979452
 40
0.5621037502
 40
0.5928060435
 40
0.6235188943
 40
0.6542591886
 40
0.6850456934
 40
0.7158989563
 40
0.7468410288
 40
0.7778949444
 40
0.8090838767
 40
0.8404299124
 40
0.8719524724
 40
0.9036663835
 40
0.9355802715
 40
0.9676939574
 40
1.0
 40
1.0
 40
1.0
 40
1.0
 10
10.9015503425
 20
7.8737342558
 30
0.0
 10
10.9023722995
 20
7.8677146664
 30
0.0
 10
10.903387447
 20
7.855623095
 30
0.0
 10
10.9030929821
 20
7.8374950793
 30
0.0
 10
10.9010530033
 20
7.8195989435
 30
0.0
 10
10.8973285839
 20
7.8020909871
 30
0.0
 10
10.8919676236
 20
7.7851187012
 30
0.0
 10
10.8850058314
 20
7.7688337076
 30
0.0
 10
10.8764689594
 20
7.7533983325
 30
0.0
 10
10.8663789927
 20
7.7389962979
 30
0.0
 10
10.8566874269
 20
7.728025188
 30
0.0
 10
10.8481953542
 20
7.7200063508
 30
0.0
 10
10.8414575946
 20
7.7144001531
 30
0.0
 10
10.8343610816
 20
7.7092415413
 30
0.0
 10
10.8269173699
 20
7.7045715233
 30
0.0
 10
10.8191423923
 20
7.7004343189
 30
0.0
 10
10.8110572194
 20
7.6968765088
 30
0.0
 10
10.8026893907
 20
7.6939463398
 30
0.0
 10
10.7940741251
 20
7.6916923943
 30
0.0
 10
10.7852554192
 20
7.6901617104
 30
0.0
 10
10.7762867187
 20
7.6893973243
 30
0.0
 10
10.7672310253
 20
7.6894352216
 30
0.0
 10
10.7581596459
 20
7.6903013634
 30
0.0
 10
10.7491514875
 20
7.6920080241
 30
0.0
 10
10.7432566354
 20
7.6937004614
 30
0.0
 10
10.7403471655
 20
7.6946818239
 30
0.0
  0
SPLINE
  5
317
100
AcDbEntity
  8
0
100
AcDbSpline
 62
7
  6
CONTINUOUS
 70
0
 71
3
 72
35
 73
31
 74
0
 42
0.0000001
 43
0.0000001
 44
0.0000000001
 40
0.0
 40
0.0
 40
0.0
 40
0.0
 40
0.0307526056
 40
0.061316387
 40
0.091722129
 40
0.1220006685
 40
0.1521822501
 40
0.1822980455
 40
0.2424486311
 40
0.3027166962
 40
0.3633825309
 40
0.3939685937
 40
0.4247778262
 40
0.487234037
 40
0.5190019022
 40
0.5511866562
 40
0.5838258756
 40
0.6169361784
 40
0.6504968512
 40
0.6844298506
 40
0.7185819911
 40
0.7527227853
 40
0.7865713009
 40
0.8198459726
 40
0.8523185716
 40
0.8838438178
 40
0.9143588678
 40
0.9438627354
 40
0.9723924856
 40
1.0
 40
1.0
 40
1.0
 40
1.0
 10
10.6799371162
 20
7.7446502624
 30
0.0
 10
10.6803828624
 20
7.7466834767
 30
0.0
 10
10.6813275084
 20
7.7507254019
 30
0.0
 10
10.6829067597
 20
7.7567302082
 30
0.0
 10
10.6846440675
 20
7.7626578434
 30
0.0
 10
10.6865395076
 20
7.7685096283
 30
0.0
 10
10.688596669
 20
7.7742858328
 30
0.0
 10
10.6915577242
 20
7.7818826585
 30
0.0
 10
10.6956916048
 20
7.7912034765
 30
0.0
 10
10.7013942032
 20
7.8020632794
 30
0.0
 10
10.7068187059
 20
7.8107803349
 30
0.0
 10
10.7116098211
 20
7.8175139999
 30
0.0
 10
10.7167678372
 20
7.8241246197
 30
0.0
 10
10.7224500897
 20
7.8304203887
 30
0.0
 10
10.728692602
 20
7.8362774883
 30
0.0
 10
10.7337262261
 20
7.8404566396
 30
0.0
 10
10.7390991349
 20
7.8443477775
 30
0.0
 10
10.7448184938
 20
7.8478914377
 30
0.0
 10
10.7508766336
 20
7.8510171233
 30
0.0
 10
10.7572435776
 20
7.8536471004
 30
0.0
 10
10.7638601613
 20
7.8557046559
 30
0.0
 10
10.7706365044
 20
7.8571276355
 30
0.0
 10
10.7774597784
 20
7.8578825156
 30
0.0
 10
10.7842106678
 20
7.8579738335
 30
0.0
 10
10.7907825284
 20
7.8574429344
 30
0.0
 10
10.797095037
 20
7.8563569526
 30
0.0
 10
10.803098131
 20
7.8547949016
 30
0.0
 10
10.8087683072
 20
7.8528356652
 30
0.0
 10
10.8141006344
 20
7.8505511704
 30
0.0
 10
10.8174890318
 20
7.8488251822
 30
0.0
 10
10.819126953
 20
7.8479257523
 30
0.0
  0
SPLINE
  5
318
100
AcDbEntity
  8
0
100
AcDbSpline
 62
7
  6
CONTINUOUS
 70
0
 71
3
 72
18
 73
14
 74
0
 42
0.0000001
 43
0.0000001
 44
0.0000000001
 40
0.0
 40
0.0
 40
0.0
 40
0.0
 40
0.0548626755
 40
0.1099292576
 40
0.1654013202
 40
0.2214755501
 40
0.3361333804
 40
0.4553634196
 40
0.5171048815
 40
0.5804365284
 40
0.7123311193
 40
0.8519577055
 40
1.0
 40
1.0
 40
1.0
 40
1.0
 10
11.4853695836
 20
10.3840519608
 30
0.0
 10
11.485369585
 20
10.383443972
 30
0.0
 10
11.4853310044
 20
10.3822253835
 30
0.0
 10
11.4851575225
 20
10.3803994916
 30
0.0
 10
11.4848683949
 20
10.3785746163
 30
0.0
 10
11.484325111
 20
10.3761260389
 30
0.0
 10
11.4833463614
 20
10.3730571263
 30
0.0
 10
11.4820058617
 20
10.3700606655
 30
0.0
 10
11.4807159889
 20
10.3676792949
 30
0.0
 10
11.479239027
 20
10.3652433489
 30
0.0
 10
11.4770944451
 20
10.3622084976
 30
0.0
 10
11.474104503
 20
10.3586420747
 30
0.0
 10
11.471880702
 20
10.3563536421
 30
0.0
 10
11.4707006883
 20
10.3552138363
 30
0.0
  0
SPLINE
  5
319
100
AcDbEntity
  8
0
100
AcDbSpline
 62
7
  6
CONTINUOUS
 70
0
 71
3
 72
31
 73
27
 74
0
 42
0.0000001
 43
0.0000001
 44
0.0000000001
 40
0.0
 40
0.0
 40
0.0
 40
0.0
 40
0.015547552
 40
0.0312880285
 40
0.0474067379
 40
0.0640750164
 40
0.081446335
 40
0.0996536174
 40
0.1188100048
 40
0.1390093636
 40
0.1603281383
 40
0.1828281955
 40
0.2065575545
 40
0.2315535635
 40
0.2578438746
 40
0.285447534
 40
0.3143773053
 40
0.3446390841
 40
0.4091525822
 40
0.4789504828
 40
0.5539291875
 40
0.6339380243
 40
0.7187873757
 40
0.8082512776
 40
0.9020847387
 40
1.0
 40
1.0
 40
1.0
 40
1.0
 10
10.8813203023
 20
10.2206753751
 30
0.0
 10
10.8813203029
 20
10.2203513805
 30
0.0
 10
10.8812822721
 20
10.219698752
 30
0.0
 10
10.8811115625
 20
10.2187236689
 30
0.0
 10
10.8808275519
 20
10.217751039
 30
0.0
 10
10.8804308906
 20
10.2167820817
 30
0.0
 10
10.8799222396
 20
10.2158176726
 30
0.0
 10
10.879302422
 20
10.2148585553
 30
0.0
 10
10.8785721444
 20
10.2139054609
 30
0.0
 10
10.8777321936
 20
10.212959072
 30
0.0
 10
10.8767833952
 20
10.212020055
 30
0.0
 10
10.8757265704
 20
10.2110891698
 30
0.0
 10
10.8745626907
 20
10.2101671008
 30
0.0
 10
10.873292751
 20
10.2092546249
 30
0.0
 10
10.8719178581
 20
10.2083525087
 30
0.0
 10
10.8704392283
 20
10.2074614931
 30
0.0
 10
10.8688581352
 20
10.2065823767
 30
0.0
 10
10.8665660549
 20
10.2054018177
 30
0.0
 10
10.8634487309
 20
10.2039677059
 30
0.0
 10
10.8594005694
 20
10.2023409413
 30
0.0
 10
10.8549829284
 20
10.2007793279
 30
0.0
 10
10.8502114701
 20
10.1992884932
 30
0.0
 10
10.84510308
 20
10.1978738595
 30
0.0
 10
10.8396758508
 20
10.1965405046
 30
0.0
 10
10.8339493047
 20
10.1952933696
 30
0.0
 10
10.8300251375
 20
10.1945377067
 30
0.0
 10
10.8280173906
 20
10.1941738487
 30
0.0
  0
SPLINE
  5
31A
100
AcDbEntity
  8
0
100
AcDbSpline
 62
7
  6
CONTINUOUS
 70
0
 71
3
 72
18
 73
14
 74
0
 42
0.0000001
 43
0.0000001
 44
0.0000000001
 40
0.0
 40
0.0
 40
0.0
 40
0.0
 40
0.0548626221
 40
0.1099291996
 40
0.1654012684
 40
0.2214754896
 40
0.3361336267
 40
0.4553633642
 40
0.5171046005
 40
0.5804361693
 40
0.7123314363
 40
0.8519591016
 40
1.0
 40
1.0
 40
1.0
 40
1.0
 10
10.0840925563
 20
10.2156316445
 30
0.0
 10
10.0840925535
 20
10.2161612487
 30
0.0
 10
10.084126156
 20
10.2172227324
 30
0.0
 10
10.0842772996
 20
10.2188132209
 30
0.0
 10
10.0845291571
 20
10.2204028252
 30
0.0
 10
10.0850023894
 20
10.222535729
 30
0.0
 10
10.0858549936
 20
10.2252089741
 30
0.0
 10
10.0870226509
 20
10.227819126
 30
0.0
 10
10.088146235
 20
10.2298934723
 30
0.0
 10
10.089432788
 20
10.2320153675
 30
0.0
 10
10.0913008914
 20
10.2346589691
 30
0.0
 10
10.0939053737
 20
10.2377655885
 30
0.0
 10
10.0958424665
 20
10.2397589913
 30
0.0
 10
10.0968703389
 20
10.2407518399
 30
0.0
  0
SPLINE
  5
31B
100
AcDbEntity
  8
0
100
AcDbSpline
 62
7
  6
CONTINUOUS
 70
0
 71
3
 72
32
 73
28
 74
0
 42
0.0000001
 43
0.0000001
 44
0.0000000001
 40
0.0
 40
0.0
 40
0.0
 40
0.0
 40
0.016478973
 40
0.0339511735
 40
0.0524463384
 40
0.0719872471
 40
0.092588773
 40
0.1142588623
 40
0.1370000477
 40
0.1608103511
 40
0.185683502
 40
0.2116097912
 40
0.238576108
 40
0.2665667484
 40
0.2955631658
 40
0.325544769
 40
0.3564885543
 40
0.3883698474
 40
0.421161909
 40
0.454836576
 40
0.524711205
 40
0.5977402045
 40
0.67364817
 40
0.7521422693
 40
0.8329146021
 40
0.9156443815
 40
1.0
 40
1.0
 40
1.0
 40
1.0
 10
10.3652681507
 20
10.4989324898
 30
0.0
 10
10.3663148991
 20
10.4999065477
 30
0.0
 10
10.3685377181
 20
10.5018430032
 30
0.0
 10
10.3721340666
 20
10.5046346098
 30
0.0
 10
10.3760842182
 20
10.5073935003
 30
0.0
 10
10.3803837522
 20
10.5101167386
 30
0.0
 10
10.3850282315
 20
10.5128016172
 30
0.0
 10
10.3900127244
 20
10.515445272
 30
0.0
 10
10.3953318927
 20
10.5180448968
 30
0.0
 10
10.4009800347
 20
10.5205976665
 30
0.0
 10
10.4069510602
 20
10.5231008608
 30
0.0
 10
10.4132385302
 20
10.5255517041
 30
0.0
 10
10.4198356225
 20
10.527947578
 30
0.0
 10
10.4267351884
 20
10.5302858023
 30
0.0
 10
10.4339297199
 20
10.53256388
 30
0.0
 10
10.4414113955
 20
10.5347792496
 30
0.0
 10
10.4491720602
 20
10.5369295456
 30
0.0
 10
10.4572032564
 20
10.5390123439
 30
0.0
 10
10.4654962317
 20
10.5410254345
 30
0.0
 10
10.4770328248
 20
10.5436458319
 30
0.0
 10
10.4920444492
 20
10.5467212067
 30
0.0
 10
10.5107368542
 20
10.5500568122
 30
0.0
 10
10.5302414616
 20
10.5530666891
 30
0.0
 10
10.5504730891
 20
10.5557375396
 30
0.0
 10
10.5713435158
 20
10.5580575423
 30
0.0
 10
10.5927615234
 20
10.5600164386
 30
0.0
 10
10.6072220567
 20
10.5610670756
 30
0.0
 10
10.6145266518
 20
10.5615320801
 30
0.0
  0
SPLINE
  5
31C
100
AcDbEntity
  8
0
100
AcDbSpline
 62
7
  6
CONTINUOUS
 70
0
 71
3
 72
18
 73
14
 74
0
 42
0.0000001
 43
0.0000001
 44
0.0000000001
 40
0.0
 40
0.0
 40
0.0
 40
0.0
 40
0.1492375281
 40
0.289655037
 40
0.421961834
 40
0.4853619434
 40
0.5470838486
 40
0.6660306073
 40
0.780131264
 40
0.8358489547
 40
0.8909261061
 40
0.94557164
 40
1.0
 40
1.0
 40
1.0
 40
1.0
 10
11.9031607926
 20
10.4125240176
 30
0.0
 10
11.9042622863
 20
10.4114989553
 30
0.0
 10
11.9063381396
 20
10.4094408259
 30
0.0
 10
11.9091328574
 20
10.40622779
 30
0.0
 10
11.9111392761
 20
10.4034904927
 30
0.0
 10
11.9125211876
 20
10.4012923311
 30
0.0
 10
11.9137264884
 20
10.3991459563
 30
0.0
 10
11.9149796979
 20
10.3964443353
 30
0.0
 10
11.9158960779
 20
10.393672918
 30
0.0
 10
11.916404525
 20
10.3914618528
 30
0.0
 10
11.9166749787
 20
10.3898146814
 30
0.0
 10
11.9168372653
 20
10.3881665151
 30
0.0
 10
11.9168733666
 20
10.3870664483
 30
0.0
 10
11.9168733696
 20
10.3865176796
 30
0.0
  0
SPLINE
  5
31D
100
AcDbEntity
  8
0
100
AcDbSpline
 62
7
  6
CONTINUOUS
 70
0
 71
3
 72
27
 73
23
 74
0
 42
0.0000001
 43
0.0000001
 44
0.0000000001
 40
0.0
 40
0.0
 40
0.0
 40
0.0
 40
0.0218356064
 40
0.0431595166
 40
0.0641415797
 40
0.084956157
 40
0.1057755493
 40
0.1267698132
 40
0.1480981088
 40
0.1699066328
 40
0.2154496015
 40
0.2643036251
 40
0.3170948103
 40
0.3742451819
 40
0.4360152919
 40
0.5025427128
 40
0.5738733916
 40
0.6499839647
 40
0.7307959528
 40
0.8161806582
 40
0.905984953
 40
1.0
 40
1.0
 40
1.0
 40
1.0
 10
11.2521906438
 20
8.1480455253
 30
0.0
 10
11.2521906479
 20
8.147701725
 30
0.0
 10
11.2521638764
 20
8.1470218083
 30
0.0
 10
11.2520389204
 20
8.1460184473
 30
0.0
 10
11.2518295341
 20
8.1450455593
 30
0.0
 10
11.2515357186
 20
8.1441030633
 30
0.0
 10
11.2511577045
 20
8.1431908644
 30
0.0
 10
11.2506958306
 20
8.1423090429
 30
0.0
 10
11.2501505581
 20
8.1414576932
 30
0.0
 10
11.2493011568
 20
8.1403477677
 30
0.0
 10
11.2480170638
 20
8.1390338066
 30
0.0
 10
11.2461779931
 20
8.1376135819
 30
0.0
 10
11.2440259287
 20
8.1363306341
 30
0.0
 10
11.2415688261
 20
8.1351927552
 30
0.0
 10
11.238815384
 20
8.1342103887
 30
0.0
 10
11.235776069
 20
8.133397064
 30
0.0
 10
11.2324633803
 20
8.1327686561
 30
0.0
 10
11.2288921307
 20
8.1323430797
 30
0.0
 10
11.2250798227
 20
8.1321399387
 30
0.0
 10
11.2210466548
 20
8.1321796093
 30
0.0
 10
11.2168163958
 20
8.1324832851
 30
0.0
 10
11.2139455681
 20
8.1328669925
 30
0.0
 10
11.21248486
 20
8.1331067966
 30
0.0
  0
SPLINE
  5
31E
100
AcDbEntity
  8
0
100
AcDbSpline
 62
7
  6
CONTINUOUS
 70
0
 71
3
 72
18
 73
14
 74
0
 42
0.0000001
 43
0.0000001
 44
0.0000000001
 40
0.0
 40
0.0
 40
0.0
 40
0.0
 40
0.05442836
 40
0.1090738939
 40
0.1641510453
 40
0.219868736
 40
0.3339693927
 40
0.4529161514
 40
0.5146380566
 40
0.578038166
 40
0.710344963
 40
0.8507624719
 40
1.0
 40
1.0
 40
1.0
 40
1.0
 10
10.0831266304
 20
5.9888067701
 30
0.0
 10
10.0831266334
 20
5.9882580014
 30
0.0
 10
10.0831627347
 20
5.9871579346
 30
0.0
 10
10.0833250213
 20
5.9855097684
 30
0.0
 10
10.083595475
 20
5.983862597
 30
0.0
 10
10.0841039221
 20
5.9816515318
 30
0.0
 10
10.0850203021
 20
5.9788801144
 30
0.0
 10
10.0862735116
 20
5.9761784934
 30
0.0
 10
10.0874788124
 20
5.9740321186
 30
0.0
 10
10.0888607239
 20
5.971833957
 30
0.0
 10
10.0908671426
 20
5.9690966598
 30
0.0
 10
10.0936618604
 20
5.9658836239
 30
0.0
 10
10.0957377137
 20
5.9638254944
 30
0.0
 10
10.0968392074
 20
5.9628004321
 30
0.0
  0
SPLINE
  5
31F
100
AcDbEntity
  8
0
100
AcDbSpline
 62
7
  6
CONTINUOUS
 70
0
 71
3
 72
32
 73
28
 74
0
 42
0.0000001
 43
0.0000001
 44
0.0000000001
 40
0.0
 40
0.0
 40
0.0
 40
0.0
 40
0.0165870963
 40
0.0341537736
 40
0.05273033
 40
0.0723387541
 40
0.0929934429
 40
0.1147029167
 40
0.1374701092
 40
0.1612936762
 40
0.1861680364
 40
0.2120843656
 40
0.239030526
 40
0.2669918118
 40
0.295950858
 40
0.3258881797
 40
0.3567821165
 40
0.3886091948
 40
0.4213441381
 40
0.454960077
 40
0.5247184596
 40
0.5976427823
 40
0.6734701307
 40
0.7519204697
 40
0.832699145
 40
0.9154982626
 40
1.0
 40
1.0
 40
1.0
 40
1.0
 10
10.1267056124
 20
5.9350066161
 30
0.0
 10
10.1277313326
 20
5.9340520752
 30
0.0
 10
10.1299069158
 20
5.9321541598
 30
0.0
 10
10.1334225988
 20
5.929416004
 30
0.0
 10
10.137278591
 20
5.9267090816
 30
0.0
 10
10.1414708525
 20
5.9240362772
 30
0.0
 10
10.1459951329
 20
5.9214001135
 30
0.0
 10
10.1508468271
 20
5.9188033535
 30
0.0
 10
10.1560209291
 20
5.9162485801
 30
0.0
 10
10.1615121213
 20
5.9137385055
 30
0.0
 10
10.1673147003
 20
5.9112756809
 30
0.0
 10
10.1734226517
 20
5.9088627355
 30
0.0
 10
10.1798296057
 20
5.906502153
 30
0.0
 10
10.1865288849
 20
5.9041964542
 30
0.0
 10
10.1935134845
 20
5.9019480329
 30
0.0
 10
10.2007761005
 20
5.8997592842
 30
0.0
 10
10.2083091265
 20
5.8976324948
 30
0.0
 10
10.2161046665
 20
5.8955699257
 30
0.0
 10
10.224154556
 20
5.8935737251
 30
0.0
 10
10.2353540732
 20
5.8909713486
 30
0.0
 10
10.2499303092
 20
5.8879090993
 30
0.0
 10
10.2680865235
 20
5.8845742947
 30
0.0
 10
10.2870407953
 20
5.881549795
 30
0.0
 10
10.3067135476
 20
5.8788484369
 30
0.0
 10
10.3270222913
 20
5.8764817216
 30
0.0
 10
10.347881713
 20
5.8744596963
 30
0.0
 10
10.3619719372
 20
5.8733569769
 30
0.0
 10
10.3690929413
 20
5.8728631336
 30
0.0
  0
SPLINE
  5
320
100
AcDbEntity
  8
0
100
AcDbSpline
 62
7
  6
CONTINUOUS
 70
0
 71
3
 72
21
 73
17
 74
0
 42
0.0000001
 43
0.0000001
 44
0.0000000001
 40
0.0
 40
0.0
 40
0.0
 40
0.0
 40
0.0616532317
 40
0.1233294843
 40
0.1850515407
 40
0.2468416642
 40
0.3087213449
 40
0.3707111025
 40
0.432830246
 40
0.4950966374
 40
0.5575265756
 40
0.6201345674
 40
0.6829331401
 40
0.7459332076
 40
0.8725262003
 40
1.0
 40
1.0
 40
1.0
 40
1.0
 10
11.4865302422
 20
8.8082266331
 30
0.0
 10
11.4848693763
 20
8.8066223583
 30
0.0
 10
11.4814600004
 20
8.8035019171
 30
0.0
 10
11.4761007382
 20
8.7991019707
 30
0.0
 10
11.4705087664
 20
8.7949928378
 30
0.0
 10
11.4646983396
 20
8.791185089
 30
0.0
 10
11.4586840687
 20
8.7876882398
 30
0.0
 10
11.4524811342
 20
8.7845110825
 30
0.0
 10
11.4461051435
 20
8.7816616435
 30
0.0
 10
11.439572173
 20
8.7791470803
 30
0.0
 10
11.4328986794
 20
8.776973679
 30
0.0
 10
11.426101516
 20
8.7751469293
 30
0.0
 10
11.4191976031
 20
8.7736714104
 30
0.0
 10
11.4098601245
 20
8.7721750299
 30
0.0
 10
11.3980030111
 20
8.7712028569
 30
0.0
 10
11.3884706069
 20
8.7713888916
 30
0.0
 10
11.3837076643
 20
8.7717192028
 30
0.0
  0
SPLINE
  5
321
100
AcDbEntity
  8
0
100
AcDbSpline
 62
7
  6
CONTINUOUS
 70
0
 71
3
 72
31
 73
27
 74
0
 42
0.0000001
 43
0.0000001
 44
0.0000000001
 40
0.0
 40
0.0
 40
0.0
 40
0.0
 40
0.015547552
 40
0.0312880285
 40
0.0474067379
 40
0.0640750164
 40
0.081446335
 40
0.0996536174
 40
0.1188100048
 40
0.1390093636
 40
0.1603281383
 40
0.1828281955
 40
0.2065575545
 40
0.2315535635
 40
0.2578438746
 40
0.285447534
 40
0.3143773053
 40
0.3446390841
 40
0.4091525822
 40
0.4789504828
 40
0.5539291875
 40
0.6339380243
 40
0.7187873757
 40
0.8082512776
 40
0.9020847387
 40
1.0
 40
1.0
 40
1.0
 40
1.0
 10
10.6313203246
 20
10.2206753079
 30
0.0
 10
10.6313203239
 20
10.2209993025
 30
0.0
 10
10.6313583547
 20
10.221651931
 30
0.0
 10
10.6315290643
 20
10.2226270141
 30
0.0
 10
10.6318130749
 20
10.223599644
 30
0.0
 10
10.6322097363
 20
10.2245686013
 30
0.0
 10
10.6327183872
 20
10.2255330104
 30
0.0
 10
10.6333382049
 20
10.2264921277
 30
0.0
 10
10.6340684824
 20
10.2274452221
 30
0.0
 10
10.6349084332
 20
10.228391611
 30
0.0
 10
10.6358572316
 20
10.229330628
 30
0.0
 10
10.6369140565
 20
10.2302615132
 30
0.0
 10
10.6380779361
 20
10.2311835822
 30
0.0
 10
10.6393478759
 20
10.2320960581
 30
0.0
 10
10.6407227687
 20
10.2329981744
 30
0.0
 10
10.6422013985
 20
10.2338891899
 30
0.0
 10
10.6437824916
 20
10.2347683063
 30
0.0
 10
10.6460745719
 20
10.2359488653
 30
0.0
 10
10.6491918959
 20
10.2373829772
 30
0.0
 10
10.6532400575
 20
10.2390097417
 30
0.0
 10
10.6576576984
 20
10.2405713551
 30
0.0
 10
10.6624291568
 20
10.2420621898
 30
0.0
 10
10.6675375468
 20
10.2434768235
 30
0.0
 10
10.6729647761
 20
10.2448101784
 30
0.0
 10
10.6786913221
 20
10.2460573134
 30
0.0
 10
10.6826154893
 20
10.2468129764
 30
0.0
 10
10.6846232362
 20
10.2471768343
 30
0.0
  0
SPLINE
  5
322
100
AcDbEntity
  8
0
100
AcDbSpline
 62
7
  6
CONTINUOUS
 70
0
 71
3
 72
37
 73
33
 74
0
 42
0.0000001
 43
0.0000001
 44
0.0000000001
 40
0.0
 40
0.0
 40
0.0
 40
0.0
 40
0.0311464763
 40
0.0624483004
 40
0.0938952738
 40
0.1254804953
 40
0.1571907415
 40
0.1890115257
 40
0.2209258547
 40
0.252914932
 40
0.2849585264
 40
0.317035338
 40
0.3491234252
 40
0.381200621
 40
0.4451976236
 40
0.5088978732
 40
0.5406101981
 40
0.5721975056
 40
0.6036475114
 40
0.634950721
 40
0.6661006564
 40
0.6970940303
 40
0.7279308694
 40
0.7586145731
 40
0.7891518852
 40
0.8195527902
 40
0.8498303302
 40
0.8800003491
 40
0.9100811696
 40
0.9400931924
 40
0.9700584311
 40
1.0
 40
1.0
 40
1.0
 40
1.0
 10
10.7800039871
 20
8.1248809913
 30
0.0
 10
10.7784944659
 20
8.1249856769
 30
0.0
 10
10.7754744376
 20
8.1253060876
 30
0.0
 10
10.7709810367
 20
8.1261131036
 30
0.0
 10
10.766535731
 20
8.1272436041
 30
0.0
 10
10.7621626093
 20
8.12869133
 30
0.0
 10
10.7578848353
 20
8.1304486446
 30
0.0
 10
10.753725257
 20
8.1325061032
 30
0.0
 10
10.7497060266
 20
8.1348527262
 30
0.0
 10
10.7458485605
 20
8.1374759684
 30
0.0
 10
10.7421733982
 20
8.1403618468
 30
0.0
 10
10.7387001612
 20
8.1434949127
 30
0.0
 10
10.7354472199
 20
8.1468586916
 30
0.0
 10
10.7314312045
 20
8.1516219769
 30
0.0
 10
10.7270452547
 20
8.1580574123
 30
0.0
 10
10.723590384
 20
8.1650179207
 30
0.0
 10
10.7214367799
 20
8.1708042255
 30
0.0
 10
10.7201359177
 20
8.1752238005
 30
0.0
 10
10.7191546594
 20
8.1797046419
 30
0.0
 10
10.7184981566
 20
8.1842230817
 30
0.0
 10
10.7181699937
 20
8.1887549609
 30
0.0
 10
10.7181719745
 20
8.193276113
 30
0.0
 10
10.7185041452
 20
8.1977623959
 30
0.0
 10
10.719164775
 20
8.2021898494
 30
0.0
 10
10.7201503869
 20
8.2065348146
 30
0.0
 10
10.7214557682
 20
8.2107740609
 30
0.0
 10
10.7230739945
 20
8.2148849065
 30
0.0
 10
10.7249964689
 20
8.2188453485
 30
0.0
 10
10.7272129145
 20
8.2226341666
 30
0.0
 10
10.7297115624
 20
8.2262311377
 30
0.0
 10
10.7324788095
 20
8.229616747
 30
0.0
 10
10.7344937259
 20
8.2317217137
 30
0.0
 10
10.735539958
 20
8.2327323025
 30
0.0
  0
SPLINE
  5
323
100
AcDbEntity
  8
0
100
AcDbSpline
 62
7
  6
CONTINUOUS
 70
0
 71
3
 72
17
 73
13
 74
0
 42
0.0000001
 43
0.0000001
 44
0.0000000001
 40
0.0
 40
0.0
 40
0.0
 40
0.0
 40
0.1103452447
 40
0.2247129395
 40
0.283400785
 40
0.3430980418
 40
0.4655706484
 40
0.5922458691
 40
0.7233584925
 40
0.7906710623
 40
0.85919756
 40
1.0
 40
1.0
 40
1.0
 40
1.0
 10
11.1876247011
 20
8.0376909199
 30
0.0
 10
11.1886653858
 20
8.0411660056
 30
0.0
 10
11.1907645247
 20
8.0482489231
 30
0.0
 10
11.1933428113
 20
8.0572019177
 30
0.0
 10
11.1954070774
 20
8.0645699206
 30
0.0
 10
11.1975053059
 20
8.0722050104
 30
0.0
 10
11.2001237162
 20
8.0820149419
 30
0.0
 10
11.2032320646
 20
8.0941234622
 30
0.0
 10
11.2057970502
 20
8.1044988245
 30
0.0
 10
11.2078521851
 20
8.1130307784
 30
0.0
 10
11.2099444776
 20
8.121881355
 30
0.0
 10
11.2114795439
 20
8.1285897504
 30
0.0
 10
11.2124874494
 20
8.1331075236
 30
0.0
  0
SPLINE
  5
324
100
AcDbEntity
  8
0
100
AcDbSpline
 62
7
  6
CONTINUOUS
 70
0
 71
3
 72
41
 73
37
 74
0
 42
0.0000001
 43
0.0000001
 44
0.0000000001
 40
0.0
 40
0.0
 40
0.0
 40
0.0
 40
0.0311445478
 40
0.0624424446
 40
0.0938872679
 40
0.125469566
 40
0.1571770992
 40
0.1889951145
 40
0.2209066667
 40
0.2528929719
 40
0.2849337877
 40
0.3170078142
 40
0.3490931102
 40
0.381167517
 40
0.4132090858
 40
0.4451965025
 40
0.4771095029
 40
0.5089292747
 40
0.5406388381
 40
0.5722233999
 40
0.6036706736
 40
0.63497116
 40
0.6661183793
 40
0.6971090497
 40
0.7279432042
 40
0.7586242401
 40
0.7891588962
 40
0.8195571523
 40
0.8498320512
 40
0.8649308901
 40
0.8800050513
 40
0.9100832572
 40
0.940092674
 40
0.9550812744
 40
0.9700610349
 40
1.0
 40
1.0
 40
1.0
 40
1.0
 10
11.3837076643
 20
8.7717192028
 30
0.0
 10
11.3802168019
 20
8.771961295
 30
0.0
 10
11.3732330123
 20
8.7727021928
 30
0.0
 10
11.3628420008
 20
8.7745685135
 30
0.0
 10
11.3525622759
 20
8.7771826953
 30
0.0
 10
11.3424493814
 20
8.7805306471
 30
0.0
 10
11.3325570251
 20
8.7845944427
 30
0.0
 10
11.3229379802
 20
8.7893523376
 30
0.0
 10
11.3136434879
 20
8.7947789076
 30
0.0
 10
11.304723075
 20
8.8008451781
 30
0.0
 10
11.2962242692
 20
8.8075187797
 30
0.0
 10
11.2881923557
 20
8.8147641194
 30
0.0
 10
11.2806701368
 20
8.8225425688
 30
0.0
 10
11.2736977062
 20
8.8308126681
 30
0.0
 10
11.267312238
 20
8.839530345
 30
0.0
 10
11.2615477896
 20
8.8486491473
 30
0.0
 10
11.256435122
 20
8.8581204872
 30
0.0
 10
11.2520015368
 20
8.8678938977
 30
0.0
 10
11.2482707308
 20
8.8779172981
 30
0.0
 10
11.2452626699
 20
8.8881372676
 30
0.0
 10
11.2429934818
 20
8.8984993267
 30
0.0
 10
11.2414753679
 20
8.9089482232
 30
0.0
 10
11.2407165364
 20
8.9194282236
 30
0.0
 10
11.2407211532
 20
8.9298834043
 30
0.0
 10
11.2414893204
 20
8.9402579571
 30
0.0
 10
11.2430170506
 20
8.9504964445
 30
0.0
 10
11.2452963533
 20
8.9605442461
 30
0.0
 10
11.2483150057
 20
8.9703472886
 30
0.0
 10
11.2514367756
 20
8.9782773861
 30
0.0
 10
11.2542856029
 20
8.9844442413
 30
0.0
 10
11.2573599639
 20
8.9904770431
 30
0.0
 10
11.2616286105
 20
8.9977739992
 30
0.0
 10
11.2664462336
 20
9.004709125
 30
0.0
 10
11.2706094106
 20
9.0100101317
 30
0.0
 10
11.2749711319
 20
9.0151381558
 30
0.0
 10
11.2784656634
 20
9.018788849
 30
0.0
 10
11.2808850863
 20
9.0211258341
 30
0.0
  0
SPLINE
  5
325
100
AcDbEntity
  8
0
100
AcDbSpline
 62
7
  6
CONTINUOUS
 70
0
 71
3
 72
54
 73
50
 74
0
 42
0.0000001
 43
0.0000001
 44
0.0000000001
 40
0.0
 40
0.0
 40
0.0
 40
0.0
 40
0.052784991
 40
0.1048060923
 40
0.1559445044
 40
0.2060905216
 40
0.2551340321
 40
0.3029694639
 40
0.3494949945
 40
0.3946130603
 40
0.438230921
 40
0.4802611185
 40
0.5206221511
 40
0.559239105
 40
0.5960444107
 40
0.6309787921
 40
0.663992489
 40
0.6950468015
 40
0.709831479
 40
0.7241178387
 40
0.7379051855
 40
0.751193962
 40
0.7639858374
 40
0.7762841535
 40
0.7880937245
 40
0.7994213683
 40
0.8102760565
 40
0.8206690605
 40
0.830614617
 40
0.8401299511
 40
0.8492359035
 40
0.8579573592
 40
0.8663234793
 40
0.8743683592
 40
0.8821310443
 40
0.8896557027
 40
0.8969914552
 40
0.9041916844
 40
0.9113132101
 40
0.9184149027
 40
0.9255561887
 40
0.9327954181
 40
0.9401884307
 40
0.9477872381
 40
0.9637758035
 40
0.972256837
 40
0.9811038595
 40
0.9903441354
 40
1.0
 40
1.0
 40
1.0
 40
1.0
 10
10.3700588672
 20
10.1595754128
 30
0.0
 10
10.3646573087
 20
10.1599500121
 30
0.0
 10
10.3539372119
 20
10.1607659563
 30
0.0
 10
10.3380049221
 20
10.1622016399
 30
0.0
 10
10.3223640484
 20
10.1638376661
 30
0.0
 10
10.3070524974
 20
10.1656699881
 30
0.0
 10
10.292106926
 20
10.1676942241
 30
0.0
 10
10.2775633648
 20
10.169905447
 30
0.0
 10
10.2634567724
 20
10.1722982917
 30
0.0
 10
10.2498210602
 20
10.1748669546
 30
0.0
 10
10.236688997
 20
10.1776052022
 30
0.0
 10
10.2240921159
 20
10.1805063971
 30
0.0
 10
10.2120606306
 20
10.1835634923
 30
0.0
 10
10.2006233492
 20
10.186769066
 30
0.0
 10
10.189807627
 20
10.1901153435
 30
0.0
 10
10.1796392042
 20
10.1935942302
 30
0.0
 10
10.1701424007
 20
10.1971973213
 30
0.0
 10
10.1626892261
 20
10.2003456611
 30
0.0
 10
10.1570874432
 20
10.2029270007
 30
0.0
 10
10.1531369361
 20
10.2048568877
 30
0.0
 10
10.1493705073
 20
10.206811241
 30
0.0
 10
10.1457903855
 20
10.2087889104
 30
0.0
 10
10.1423987182
 20
10.2107887618
 30
0.0
 10
10.1391974878
 20
10.2128095625
 30
0.0
 10
10.1361886071
 20
10.2148501758
 30
0.0
 10
10.1333738481
 20
10.2169094087
 30
0.0
 10
10.13075485
 20
10.2189860556
 30
0.0
 10
10.1283331997
 20
10.2210790029
 30
0.0
 10
10.1261102908
 20
10.2231870313
 30
0.0
 10
10.1240874825
 20
10.2253090301
 30
0.0
 10
10.1222660285
 20
10.227443872
 30
0.0
 10
10.1206470436
 20
10.2295903964
 30
0.0
 10
10.119231698
 20
10.2317475424
 30
0.0
 10
10.1180209743
 20
10.2339141235
 30
0.0
 10
10.1170158921
 20
10.2360889771
 30
0.0
 10
10.1162174372
 20
10.2382708454
 30
0.0
 10
10.1156263862
 20
10.2404583088
 30
0.0
 10
10.1152435693
 20
10.2426498588
 30
0.0
 10
10.115069438
 20
10.2448437914
 30
0.0
 10
10.1151042461
 20
10.2470383305
 30
0.0
 10
10.1153480155
 20
10.2492316637
 30
0.0
 10
10.115800275
 20
10.2514220188
 30
0.0
 10
10.1164606068
 20
10.2536078621
 30
0.0
 10
10.1176367602
 20
10.256563476
 30
0.0
 10
10.1192246228
 20
10.2594611944
 30
0.0
 10
10.1211640115
 20
10.2622768368
 30
0.0
 10
10.1228507965
 20
10.2644198764
 30
0.0
 10
10.1247394567
 20
10.2665504483
 30
0.0
 10
10.1261016407
 20
10.2679308132
 30
0.0
 10
10.1268140413
 20
10.2686189394
 30
0.0
  0
SPLINE
  5
326
100
AcDbEntity
  8
0
100
AcDbSpline
 62
7
  6
CONTINUOUS
 70
0
 71
3
 72
21
 73
17
 74
0
 42
0.0000001
 43
0.0000001
 44
0.0000000001
 40
0.0
 40
0.0
 40
0.0
 40
0.0
 40
0.0616532317
 40
0.1233294843
 40
0.1850515407
 40
0.2468416642
 40
0.3087213449
 40
0.3707111025
 40
0.432830246
 40
0.4950966374
 40
0.5575265756
 40
0.6201345674
 40
0.6829331401
 40
0.7459332076
 40
0.8725262003
 40
1.0
 40
1.0
 40
1.0
 40
1.0
 10
11.4865302422
 20
7.2685407922
 30
0.0
 10
11.4848693763
 20
7.2669365175
 30
0.0
 10
11.4814600004
 20
7.2638160763
 30
0.0
 10
11.4761007382
 20
7.2594161299
 30
0.0
 10
11.4705087664
 20
7.255306997
 30
0.0
 10
11.4646983396
 20
7.2514992482
 30
0.0
 10
11.4586840687
 20
7.248002399
 30
0.0
 10
11.4524811342
 20
7.2448252417
 30
0.0
 10
11.4461051435
 20
7.2419758026
 30
0.0
 10
11.439572173
 20
7.2394612394
 30
0.0
 10
11.4328986794
 20
7.2372878382
 30
0.0
 10
11.426101516
 20
7.2354610885
 30
0.0
 10
11.4191976031
 20
7.2339855695
 30
0.0
 10
11.4098601245
 20
7.2324891891
 30
0.0
 10
11.3980030111
 20
7.2315170161
 30
0.0
 10
11.3884706069
 20
7.2317030508
 30
0.0
 10
11.3837076643
 20
7.232033362
 30
0.0
  0
SPLINE
  5
327
100
AcDbEntity
  8
0
100
AcDbSpline
 62
7
  6
CONTINUOUS
 70
0
 71
3
 72
40
 73
36
 74
0
 42
0.0000001
 43
0.0000001
 44
0.0000000001
 40
0.0
 40
0.0
 40
0.0
 40
0.0
 40
0.0958312793
 40
0.1891000446
 40
0.2345965891
 40
0.279241512
 40
0.3229681675
 40
0.3657118109
 40
0.4074099461
 40
0.4480024746
 40
0.4874320226
 40
0.5256441407
 40
0.5625874576
 40
0.5982141394
 40
0.6324802032
 40
0.6653457683
 40
0.6967756912
 40
0.7267401448
 40
0.7552151418
 40
0.7821835616
 40
0.8076363113
 40
0.8315735468
 40
0.8540066404
 40
0.8749606632
 40
0.8944772684
 40
0.9126187468
 40
0.9294730511
 40
0.9451593172
 40
0.9598338268
 40
0.9668558706
 40
0.9737029056
 40
0.980406309
 40
0.9869997194
 40
0.9935186515
 40
1.0
 40
1.0
 40
1.0
 40
1.0
 10
10.3620354834
 20
10.1218817163
 30
0.0
 10
10.3522682127
 20
10.1225590789
 30
0.0
 10
10.3330090046
 20
10.1241105353
 30
0.0
 10
10.3091680797
 20
10.1265984664
 30
0.0
 10
10.2905707706
 20
10.1288969057
 30
0.0
 10
10.2770198428
 20
10.1307513459
 30
0.0
 10
10.2637734089
 20
10.1327474519
 30
0.0
 10
10.2508535747
 20
10.1348818844
 30
0.0
 10
10.2382819329
 20
10.1371510411
 30
0.0
 10
10.2260794857
 20
10.1395511257
 30
0.0
 10
10.2142666055
 20
10.1420780943
 30
0.0
 10
10.2028630041
 20
10.1447276856
 30
0.0
 10
10.1918877065
 20
10.1474954615
 30
0.0
 10
10.1813590023
 20
10.1503767638
 30
0.0
 10
10.1712944143
 20
10.1533667333
 30
0.0
 10
10.1617106799
 20
10.1564603647
 30
0.0
 10
10.1526237016
 20
10.1596524683
 30
0.0
 10
10.144048511
 20
10.1629376797
 30
0.0
 10
10.1359992582
 20
10.1663105338
 30
0.0
 10
10.1284891627
 20
10.1697654407
 30
0.0
 10
10.1215304669
 20
10.1732966944
 30
0.0
 10
10.1151344429
 20
10.1768985813
 30
0.0
 10
10.1093113538
 20
10.1805654014
 30
0.0
 10
10.1040704216
 20
10.1842914967
 30
0.0
 10
10.0994199015
 20
10.1880714675
 30
0.0
 10
10.0953672128
 20
10.191900168
 30
0.0
 10
10.0919189894
 20
10.1957730915
 30
0.0
 10
10.0890819369
 20
10.1996853302
 30
0.0
 10
10.087205409
 20
10.2030242038
 30
0.0
 10
10.0860356142
 20
10.2056976392
 30
0.0
 10
10.0853273797
 20
10.2076784474
 30
0.0
 10
10.0847759972
 20
10.2096631555
 30
0.0
 10
10.0843818132
 20
10.2116509503
 30
0.0
 10
10.0841452083
 20
10.2136406859
 30
0.0
 10
10.0840925599
 20
10.2149694689
 30
0.0
 10
10.0840925563
 20
10.2156316445
 30
0.0
  0
SPLINE
  5
328
100
AcDbEntity
  8
0
100
AcDbSpline
 62
7
  6
CONTINUOUS
 70
0
 71
3
 72
23
 73
19
 74
0
 42
0.0000001
 43
0.0000001
 44
0.0000000001
 40
0.0
 40
0.0
 40
0.0
 40
0.0
 40
0.0577384721
 40
0.1131374617
 40
0.1666316715
 40
0.2187818602
 40
0.2702669966
 40
0.3218673542
 40
0.3744117921
 40
0.4287357266
 40
0.4856210232
 40
0.5457634103
 40
0.6097480873
 40
0.6780405233
 40
0.7509990429
 40
0.8288813199
 40
0.9118582152
 40
1.0
 40
1.0
 40
1.0
 40
1.0
 10
10.8658203116
 20
7.787881232
 30
0.0
 10
10.86582005
 20
7.7873997023
 30
0.0
 10
10.8657829428
 20
7.7864555812
 30
0.0
 10
10.8656040962
 20
7.7850754322
 30
0.0
 10
10.865298731
 20
7.783764977
 30
0.0
 10
10.8648622694
 20
7.782526355
 30
0.0
 10
10.8642904286
 20
7.7813613905
 30
0.0
 10
10.8635799192
 20
7.7802713737
 30
0.0
 10
10.8627279421
 20
7.7792569891
 30
0.0
 10
10.8617331245
 20
7.7783172494
 30
0.0
 10
10.8605940082
 20
7.7774503726
 30
0.0
 10
10.859310123
 20
7.7766525662
 30
0.0
 10
10.857880678
 20
7.7759198744
 30
0.0
 10
10.8563057493
 20
7.7752466374
 30
0.0
 10
10.8545853973
 20
7.7746274513
 30
0.0
 10
10.8527205126
 20
7.7740555462
 30
0.0
 10
10.850712522
 20
7.773524465
 30
0.0
 10
10.8493220297
 20
7.7732023836
 30
0.0
 10
10.8486039977
 20
7.7730449504
 30
0.0
  0
SPLINE
  5
329
100
AcDbEntity
  8
0
100
AcDbSpline
 62
7
  6
CONTINUOUS
 70
0
 71
3
 72
25
 73
21
 74
0
 42
0.0000001
 43
0.0000001
 44
0.0000000001
 40
0.0
 40
0.0
 40
0.0
 40
0.0
 40
0.0621954374
 40
0.0934090868
 40
0.1246856362
 40
0.1873868396
 40
0.2502513574
 40
0.2817317721
 40
0.3132292376
 40
0.376235426
 40
0.4392276189
 40
0.5021581173
 40
0.5649869397
 40
0.6276817196
 40
0.6902171218
 40
0.7525739828
 40
0.8147383552
 40
0.8767007922
 40
0.9384556282
 40
1.0
 40
1.0
 40
1.0
 40
1.0
 10
10.8196607804
 20
7.9851839608
 30
0.0
 10
10.8225205671
 20
7.9842193564
 30
0.0
 10
10.826753476
 20
7.9825762167
 30
0.0
 10
10.8322378953
 20
7.9800177642
 30
0.0
 10
10.8376275162
 20
7.9772107172
 30
0.0
 10
10.8441442267
 20
7.973260021
 30
0.0
 10
10.8503143984
 20
7.9687717756
 30
0.0
 10
10.8550268984
 20
7.9648858938
 30
0.0
 10
10.8595865634
 20
7.9608114383
 30
0.0
 10
10.8649844058
 20
7.9553895596
 30
0.0
 10
10.8709556837
 20
7.9484224961
 30
0.0
 10
10.8764097112
 20
7.9410547189
 30
0.0
 10
10.8813404537
 20
7.9333449333
 30
0.0
 10
10.8857481166
 20
7.9253471384
 30
0.0
 10
10.8896371886
 20
7.9171106294
 30
0.0
 10
10.8930152695
 20
7.9086798981
 30
0.0
 10
10.8958919792
 20
7.9000949386
 30
0.0
 10
10.8982781503
 20
7.8913914842
 30
0.0
 10
10.9001851101
 20
7.8826019562
 30
0.0
 10
10.9011462952
 20
7.8766932897
 30
0.0
 10
10.9015503425
 20
7.8737342558
 30
0.0
  0
SPLINE
  5
32A
100
AcDbEntity
  8
0
100
AcDbSpline
 62
7
  6
CONTINUOUS
 70
0
 71
3
 72
18
 73
14
 74
0
 42
0.0000001
 43
0.0000001
 44
0.0000000001
 40
0.0
 40
0.0
 40
0.0
 40
0.0
 40
0.054862568
 40
0.1099291209
 40
0.1654011893
 40
0.2214754292
 40
0.336133642
 40
0.4553634706
 40
0.5171047465
 40
0.5804363458
 40
0.712331634
 40
0.8519592464
 40
1.0
 40
1.0
 40
1.0
 40
1.0
 10
11.9168733696
 20
9.5712759696
 30
0.0
 10
11.9168733669
 20
9.5707463707
 30
0.0
 10
11.9168397538
 20
9.5696848979
 30
0.0
 10
11.9166885966
 20
9.5680944261
 30
0.0
 10
11.9164367276
 20
9.5665048386
 30
0.0
 10
11.9159634827
 20
9.5643719571
 30
0.0
 10
11.9151108681
 20
9.5616987405
 30
0.0
 10
11.9139432077
 20
9.5590886165
 30
0.0
 10
11.9128196251
 20
9.5570142921
 30
0.0
 10
11.9115330766
 20
9.5548924196
 30
0.0
 10
11.9096649844
 20
9.5522488464
 30
0.0
 10
11.9070605234
 20
9.5491422597
 30
0.0
 10
11.905123449
 20
9.5471488772
 30
0.0
 10
11.904095587
 20
9.5461560386
 30
0.0
  0
SPLINE
  5
32B
100
AcDbEntity
  8
0
100
AcDbSpline
 62
7
  6
CONTINUOUS
 70
0
 71
3
 72
18
 73
14
 74
0
 42
0.0000001
 43
0.0000001
 44
0.0000000001
 40
0.0
 40
0.0
 40
0.0
 40
0.0
 40
0.0548626221
 40
0.1099291996
 40
0.1654012684
 40
0.2214754896
 40
0.3361336267
 40
0.4553633642
 40
0.5171046005
 40
0.5804361693
 40
0.7123314363
 40
0.8519591016
 40
1.0
 40
1.0
 40
1.0
 40
1.0
 10
11.9168733696
 20
10.3865176796
 30
0.0
 10
11.9168733724
 20
10.3859880754
 30
0.0
 10
11.9168397699
 20
10.3849265917
 30
0.0
 10
11.9166886263
 20
10.3833361032
 30
0.0
 10
11.9164367688
 20
10.3817464989
 30
0.0
 10
11.9159635365
 20
10.3796135952
 30
0.0
 10
11.9151109323
 20
10.3769403501
 30
0.0
 10
11.9139432749
 20
10.3743301981
 30
0.0
 10
11.9128196909
 20
10.3722558518
 30
0.0
 10
11.9115331379
 20
10.3701339567
 30
0.0
 10
11.9096650345
 20
10.3674903551
 30
0.0
 10
11.9070605521
 20
10.3643837356
 30
0.0
 10
11.9051234594
 20
10.3623903329
 30
0.0
 10
11.904095587
 20
10.3613974843
 30
0.0
  0
SPLINE
  5
32C
100
AcDbEntity
  8
0
100
AcDbSpline
 62
7
  6
CONTINUOUS
 70
0
 71
3
 72
37
 73
33
 74
0
 42
0.0000001
 43
0.0000001
 44
0.0000000001
 40
0.0
 40
0.0
 40
0.0
 40
0.0
 40
0.0311464763
 40
0.0624483004
 40
0.0938952738
 40
0.1254804953
 40
0.1571907415
 40
0.1890115257
 40
0.2209258547
 40
0.252914932
 40
0.2849585264
 40
0.317035338
 40
0.3491234252
 40
0.381200621
 40
0.4451976236
 40
0.5088978732
 40
0.5406101981
 40
0.5721975056
 40
0.6036475114
 40
0.634950721
 40
0.6661006564
 40
0.6970940303
 40
0.7279308694
 40
0.7586145731
 40
0.7891518852
 40
0.8195527902
 40
0.8498303302
 40
0.8800003491
 40
0.9100811696
 40
0.9400931924
 40
0.9700584311
 40
1.0
 40
1.0
 40
1.0
 40
1.0
 10
10.1608454644
 20
8.6053841571
 30
0.0
 10
10.1593359433
 20
8.6054888427
 30
0.0
 10
10.1563159149
 20
8.6058092534
 30
0.0
 10
10.1518225141
 20
8.6066162694
 30
0.0
 10
10.1473772083
 20
8.6077467699
 30
0.0
 10
10.1430040867
 20
8.6091944958
 30
0.0
 10
10.1387263127
 20
8.6109518104
 30
0.0
 10
10.1345667344
 20
8.613009269
 30
0.0
 10
10.1305475039
 20
8.615355892
 30
0.0
 10
10.1266900378
 20
8.6179791342
 30
0.0
 10
10.1230148756
 20
8.6208650126
 30
0.0
 10
10.1195416385
 20
8.6239980785
 30
0.0
 10
10.1162886972
 20
8.6273618574
 30
0.0
 10
10.1122726819
 20
8.6321251427
 30
0.0
 10
10.107886732
 20
8.6385605781
 30
0.0
 10
10.1044318614
 20
8.6455210865
 30
0.0
 10
10.1022782572
 20
8.6513073913
 30
0.0
 10
10.1009773951
 20
8.6557269663
 30
0.0
 10
10.0999961367
 20
8.6602078077
 30
0.0
 10
10.0993396339
 20
8.6647262475
 30
0.0
 10
10.0990114711
 20
8.6692581267
 30
0.0
 10
10.0990134519
 20
8.6737792788
 30
0.0
 10
10.0993456225
 20
8.6782655617
 30
0.0
 10
10.1000062524
 20
8.6826930152
 30
0.0
 10
10.1009918643
 20
8.6870379804
 30
0.0
 10
10.1022972455
 20
8.6912772267
 30
0.0
 10
10.1039154719
 20
8.6953880723
 30
0.0
 10
10.1058379462
 20
8.6993485143
 30
0.0
 10
10.1080543919
 20
8.7031373324
 30
0.0
 10
10.1105530398
 20
8.7067343035
 30
0.0
 10
10.1133202869
 20
8.7101199128
 30
0.0
 10
10.1153352033
 20
8.7122248795
 30
0.0
 10
10.1163814354
 20
8.7132354683
 30
0.0
  0
SPLINE
  5
32D
100
AcDbEntity
  8
0
100
AcDbSpline
 62
7
  6
CONTINUOUS
 70
0
 71
3
 72
45
 73
41
 74
0
 42
0.0000001
 43
0.0000001
 44
0.0000000001
 40
0.0
 40
0.0
 40
0.0
 40
0.0
 40
0.0008306721
 40
0.0018749229
 40
0.0030912268
 40
0.0044405766
 40
0.0074177842
 40
0.0106416611
 40
0.0140229927
 40
0.0175113003
 40
0.0210761508
 40
0.0246980888
 40
0.0320646978
 40
0.0395456727
 40
0.0471052473
 40
0.054721892
 40
0.0623817047
 40
0.0700752227
 40
0.0855381963
 40
0.1010753003
 40
0.1166655123
 40
0.1322954027
 40
0.1479558848
 40
0.1636405357
 40
0.179344649
 40
0.2107976274
 40
0.242295063
 40
0.2738241475
 40
0.3053761922
 40
0.3369450048
 40
0.3685260123
 40
0.4317099934
 40
0.4949095365
 40
0.5581112484
 40
0.6213055992
 40
0.684485546
 40
0.7476456549
 40
0.8107815392
 40
0.873889567
 40
1.0
 40
1.0
 40
1.0
 40
1.0
 10
10.3721056232
 20
8.3217170927
 30
0.0
 10
10.3720957608
 20
8.3217075876
 30
0.0
 10
10.3720696912
 20
8.3216902788
 30
0.0
 10
10.3720235003
 20
8.3216686981
 30
0.0
 10
10.3719674405
 20
8.3216484485
 30
0.0
 10
10.3718798305
 20
8.3216223445
 30
0.0
 10
10.3717585366
 20
8.32159386
 30
0.0
 10
10.3716033216
 20
8.3215642032
 30
0.0
 10
10.3714390111
 20
8.3215375772
 30
0.0
 10
10.3712686452
 20
8.3215134594
 30
0.0
 10
10.3710939952
 20
8.3214914567
 30
0.0
 10
10.3708555484
 20
8.3214643771
 30
0.0
 10
10.3705524424
 20
8.3214345851
 30
0.0
 10
10.3701842354
 20
8.321403852
 30
0.0
 10
10.3698115822
 20
8.3213771551
 30
0.0
 10
10.3694357439
 20
8.3213539332
 30
0.0
 10
10.3690575175
 20
8.3213337859
 30
0.0
 10
10.3685499045
 20
8.3213105887
 30
0.0
 10
10.3679122561
 20
8.3212879904
 30
0.0
 10
10.367144217
 20
8.32126976
 30
0.0
 10
10.3663732784
 20
8.3212595522
 30
0.0
 10
10.3656002448
 20
8.321256779
 30
0.0
 10
10.3648256617
 20
8.321261012
 30
0.0
 10
10.3640499204
 20
8.3212719248
 30
0.0
 10
10.3630139534
 20
8.3212950574
 30
0.0
 10
10.3617177016
 20
8.3213395318
 30
0.0
 10
10.360161651
 20
8.3214165428
 30
0.0
 10
10.3586052631
 20
8.3215163965
 30
0.0
 10
10.357049284
 20
8.3216384776
 30
0.0
 10
10.355494304
 20
8.3217823135
 30
0.0
 10
10.3534227789
 20
8.3220026273
 30
0.0
 10
10.3508384522
 20
8.3223306749
 30
0.0
 10
10.3477484136
 20
8.3228066244
 30
0.0
 10
10.3446717471
 20
8.323363481
 30
0.0
 10
10.3416109177
 20
8.3240000425
 30
0.0
 10
10.3385682127
 20
8.3247152641
 30
0.0
 10
10.3355458356
 20
8.3255081848
 30
0.0
 10
10.3325458572
 20
8.3263779158
 30
0.0
 10
10.3285798838
 20
8.3276383428
 30
0.0
 10
10.3256429746
 20
8.3286969205
 30
0.0
 10
10.3237052775
 20
8.3294515931
 30
0.0
  0
SPLINE
  5
32E
100
AcDbEntity
  8
0
100
AcDbSpline
 62
7
  6
CONTINUOUS
 70
0
 71
3
 72
23
 73
19
 74
0
 42
0.0000001
 43
0.0000001
 44
0.0000000001
 40
0.0
 40
0.0
 40
0.0
 40
0.0
 40
0.0749625009
 40
0.1455684839
 40
0.2121600745
 40
0.2751631548
 40
0.3350982506
 40
0.3925832742
 40
0.4483295117
 40
0.5031237972
 40
0.5577983643
 40
0.613191491
 40
0.670106811
 40
0.729278715
 40
0.7913522906
 40
0.8568775564
 40
0.9263090861
 40
1.0
 40
1.0
 40
1.0
 40
1.0
 10
11.8732943876
 20
10.4403178336
 30
0.0
 10
11.8742877326
 20
10.4393934212
 30
0.0
 10
11.8761616263
 20
10.4375375291
 30
0.0
 10
11.8786900741
 20
10.434642064
 30
0.0
 10
11.8808461852
 20
10.4317236778
 30
0.0
 10
11.8826267161
 20
10.4287848804
 30
0.0
 10
11.8840287265
 20
10.4258282907
 30
0.0
 10
11.8850490428
 20
10.4228569195
 30
0.0
 10
11.8856848113
 20
10.419874598
 30
0.0
 10
11.8859337668
 20
10.4168860476
 30
0.0
 10
11.8857949298
 20
10.413896704
 30
0.0
 10
11.8852688762
 20
10.4109120851
 30
0.0
 10
11.8843574835
 20
10.4079371858
 30
0.0
 10
11.8830636201
 20
10.4049760581
 30
0.0
 10
11.8813902968
 20
10.4020319487
 30
0.0
 10
11.8793405471
 20
10.3991074303
 30
0.0
 10
11.8769175265
 20
10.3962052892
 30
0.0
 10
11.8751113108
 20
10.3943445241
 30
0.0
 10
11.8741518846
 20
10.3934177895
 30
0.0
  0
LINE
  5
32F
100
AcDbEntity
  8
0
100
AcDbLine
 62
7
  6
CONTINUOUS
 10
10.3723830208
 20
8.3219847409
 11
10.3721056232
 21
8.3217170927
  0
SPLINE
  5
330
100
AcDbEntity
  8
0
100
AcDbSpline
 62
7
  6
CONTINUOUS
 70
0
 71
3
 72
21
 73
17
 74
0
 42
0.0000001
 43
0.0000001
 44
0.0000000001
 40
0.0
 40
0.0
 40
0.0
 40
0.0
 40
0.0616532317
 40
0.1233294843
 40
0.1850515407
 40
0.2468416642
 40
0.3087213449
 40
0.3707111025
 40
0.432830246
 40
0.4950966374
 40
0.5575265756
 40
0.6201345674
 40
0.6829331401
 40
0.7459332076
 40
0.8725262003
 40
1.0
 40
1.0
 40
1.0
 40
1.0
 10
10.2791228878
 20
7.3522747767
 30
0.0
 10
10.2774620219
 20
7.3506705019
 30
0.0
 10
10.274052646
 20
7.3475500607
 30
0.0
 10
10.2686933838
 20
7.3431501143
 30
0.0
 10
10.263101412
 20
7.3390409814
 30
0.0
 10
10.2572909852
 20
7.3352332326
 30
0.0
 10
10.2512767143
 20
7.3317363834
 30
0.0
 10
10.2450737798
 20
7.3285592261
 30
0.0
 10
10.2386977891
 20
7.3257097871
 30
0.0
 10
10.2321648186
 20
7.3231952239
 30
0.0
 10
10.225491325
 20
7.3210218226
 30
0.0
 10
10.2186941616
 20
7.3191950729
 30
0.0
 10
10.2117902487
 20
7.317719554
 30
0.0
 10
10.2024527701
 20
7.3162231735
 30
0.0
 10
10.1905956567
 20
7.3152510005
 30
0.0
 10
10.1810632525
 20
7.3154370352
 30
0.0
 10
10.1763003098
 20
7.3157673464
 30
0.0
  0
SPLINE
  5
331
100
AcDbEntity
  8
0
100
AcDbSpline
 62
7
  6
CONTINUOUS
 70
0
 71
3
 72
23
 73
19
 74
0
 42
0.0000001
 43
0.0000001
 44
0.0000000001
 40
0.0
 40
0.0
 40
0.0
 40
0.0
 40
0.0638442588
 40
0.1272276038
 40
0.1901918582
 40
0.2527957349
 40
0.3151120978
 40
0.3772191139
 40
0.4391938289
 40
0.5011076989
 40
0.5630239954
 40
0.6249967696
 40
0.6870709073
 40
0.749282842
 40
0.8116615826
 40
0.8742298155
 40
0.9370049432
 40
1.0
 40
1.0
 40
1.0
 40
1.0
 10
10.6288202054
 20
8.5439522731
 30
0.0
 10
10.6288202054
 20
8.547375412
 30
0.0
 10
10.629184529
 20
8.5542028382
 30
0.0
 10
10.630825649
 20
8.5642865912
 30
0.0
 10
10.6335219654
 20
8.5740724857
 30
0.0
 10
10.6372154202
 20
8.5834644464
 30
0.0
 10
10.6418326951
 20
8.5923853407
 30
0.0
 10
10.6472917146
 20
8.6007755582
 30
0.0
 10
10.6535071839
 20
8.608592484
 30
0.0
 10
10.6603948748
 20
8.6158080271
 30
0.0
 10
10.6678745323
 20
8.6224058406
 30
0.0
 10
10.6758715337
 20
8.6283784969
 30
0.0
 10
10.6843175891
 20
8.6337249912
 30
0.0
 10
10.6931508044
 20
8.6384486806
 30
0.0
 10
10.7023152742
 20
8.6425556565
 30
0.0
 10
10.7117607008
 20
8.6460535557
 30
0.0
 10
10.7214409717
 20
8.648950522
 30
0.0
 10
10.7280126545
 20
8.6504841385
 30
0.0
 10
10.7313232134
 20
8.6511537875
 30
0.0
  0
SPLINE
  5
332
100
AcDbEntity
  8
0
100
AcDbSpline
 62
7
  6
CONTINUOUS
 70
0
 71
3
 72
21
 73
17
 74
0
 42
0.0000001
 43
0.0000001
 44
0.0000000001
 40
0.0
 40
0.0
 40
0.0
 40
0.0
 40
0.0616532317
 40
0.1233294843
 40
0.1850515407
 40
0.2468416642
 40
0.3087213449
 40
0.3707111025
 40
0.432830246
 40
0.4950966374
 40
0.5575265756
 40
0.6201345674
 40
0.6829331401
 40
0.7459332076
 40
0.8725262003
 40
1.0
 40
1.0
 40
1.0
 40
1.0
 10
10.2791228878
 20
8.8919606175
 30
0.0
 10
10.2774620219
 20
8.8903563427
 30
0.0
 10
10.274052646
 20
8.8872359016
 30
0.0
 10
10.2686933838
 20
8.8828359552
 30
0.0
 10
10.263101412
 20
8.8787268223
 30
0.0
 10
10.2572909852
 20
8.8749190734
 30
0.0
 10
10.2512767143
 20
8.8714222243
 30
0.0
 10
10.2450737798
 20
8.8682450669
 30
0.0
 10
10.2386977891
 20
8.8653956279
 30
0.0
 10
10.2321648186
 20
8.8628810647
 30
0.0
 10
10.225491325
 20
8.8607076634
 30
0.0
 10
10.2186941616
 20
8.8588809137
 30
0.0
 10
10.2117902487
 20
8.8574053948
 30
0.0
 10
10.2024527701
 20
8.8559090143
 30
0.0
 10
10.1905956567
 20
8.8549368413
 30
0.0
 10
10.1810632525
 20
8.8551228761
 30
0.0
 10
10.1763003098
 20
8.8554531873
 30
0.0
  0
SPLINE
  5
333
100
AcDbEntity
  8
0
100
AcDbSpline
 62
7
  6
CONTINUOUS
 70
0
 71
3
 72
41
 73
37
 74
0
 42
0.0000001
 43
0.0000001
 44
0.0000000001
 40
0.0
 40
0.0
 40
0.0
 40
0.0
 40
0.0071757878
 40
0.0146740945
 40
0.0225035609
 40
0.0306713549
 40
0.0391834197
 40
0.0480443679
 40
0.0572572149
 40
0.0668238567
 40
0.076745221
 40
0.0870212626
 40
0.0976512706
 40
0.1086336674
 40
0.131645286
 40
0.1560326206
 40
0.1817627982
 40
0.2087958624
 40
0.2370856423
 40
0.2665805176
 40
0.2972240341
 40
0.3289554007
 40
0.3617098966
 40
0.3954192459
 40
0.4300120062
 40
0.4654138894
 40
0.5015480547
 40
0.5383353725
 40
0.5756947244
 40
0.6135432851
 40
0.6517967806
 40
0.6903697378
 40
0.7681261148
 40
0.8461161177
 40
0.9236388544
 40
1.0
 40
1.0
 40
1.0
 40
1.0
 10
11.6365561973
 20
10.1639179653
 30
0.0
 10
11.6358115997
 20
10.1631987393
 30
0.0
 10
11.6342519078
 20
10.1617659163
 30
0.0
 10
11.6317643593
 20
10.1596782986
 30
0.0
 10
11.6290798691
 20
10.157607232
 30
0.0
 10
11.6262001828
 20
10.1555540773
 30
0.0
 10
11.6231270047
 20
10.1535199367
 30
0.0
 10
11.619862091
 20
10.1515060124
 30
0.0
 10
11.6164073812
 20
10.1495134241
 30
0.0
 10
11.6127649204
 20
10.1475433767
 30
0.0
 10
11.6089368721
 20
10.1455970673
 30
0.0
 10
11.6049255355
 20
10.1436756122
 30
0.0
 10
11.6007332763
 20
10.1417801868
 30
0.0
 10
11.5948132337
 20
10.1392496898
 30
0.0
 10
11.5869724108
 20
10.1361681303
 30
0.0
 10
11.5770253462
 20
10.1326468916
 30
0.0
 10
11.5664225951
 20
10.1292554879
 30
0.0
 10
11.5551895486
 20
10.1260021327
 30
0.0
 10
11.5433529985
 20
10.1228947056
 30
0.0
 10
11.5309412968
 20
10.1199407432
 30
0.0
 10
11.5179841963
 20
10.1171474152
 30
0.0
 10
11.5045127938
 20
10.1145215059
 30
0.0
 10
11.4905594497
 20
10.1120693905
 30
0.0
 10
11.476157708
 20
10.1097970111
 30
0.0
 10
11.461342204
 20
10.1077098783
 30
0.0
 10
11.4461485755
 20
10.1058130536
 30
0.0
 10
11.4306133795
 20
10.1041111414
 30
0.0
 10
11.4147740067
 20
10.102608263
 30
0.0
 10
11.3986685841
 20
10.1013080539
 30
0.0
 10
11.3823358915
 20
10.1002136695
 30
0.0
 10
11.3658152168
 20
10.099327741
 30
0.0
 10
11.3435316487
 20
10.098425052
 30
0.0
 10
11.3155005582
 20
10.0978329427
 30
0.0
 10
11.2818440815
 20
10.097974819
 30
0.0
 10
11.2484033516
 20
10.0989660048
 30
0.0
 10
11.2262340723
 20
10.1001994606
 30
0.0
 10
11.2152440153
 20
10.1009616237
 30
0.0
  0
SPLINE
  5
334
100
AcDbEntity
  8
0
100
AcDbSpline
 62
7
  6
CONTINUOUS
 70
0
 71
3
 72
41
 73
37
 74
0
 42
0.0000001
 43
0.0000001
 44
0.0000000001
 40
0.0
 40
0.0
 40
0.0
 40
0.0
 40
0.0071758425
 40
0.0146741453
 40
0.0225035656
 40
0.0306713257
 40
0.0391834036
 40
0.0480443729
 40
0.0572572157
 40
0.0668238661
 40
0.0767452117
 40
0.087021259
 40
0.0976512753
 40
0.1086336553
 40
0.1316452786
 40
0.1560326285
 40
0.1817628121
 40
0.2087958578
 40
0.2370856249
 40
0.2665805114
 40
0.2972240455
 40
0.3289554128
 40
0.3617098907
 40
0.3954192316
 40
0.4300120033
 40
0.4654138991
 40
0.5015480605
 40
0.5383353682
 40
0.5756947176
 40
0.6135432851
 40
0.6517967846
 40
0.6903697386
 40
0.7681261117
 40
0.8461161118
 40
0.923638923
 40
1.0
 40
1.0
 40
1.0
 40
1.0
 10
11.6664998996
 20
10.1318976601
 30
0.0
 10
11.6656881956
 20
10.1311136141
 30
0.0
 10
11.6639879456
 20
10.1295516635
 30
0.0
 10
11.6612762291
 20
10.1272759154
 30
0.0
 10
11.6583498277
 20
10.125018227
 30
0.0
 10
11.6552106459
 20
10.1227800523
 30
0.0
 10
11.6518605226
 20
10.1205626051
 30
0.0
 10
11.6483013839
 20
10.1183671898
 30
0.0
 10
11.6445353492
 20
10.1161950272
 30
0.0
 10
11.6405646386
 20
10.11404746
 30
0.0
 10
11.6363916264
 20
10.1119257473
 30
0.0
 10
11.6320188016
 20
10.1098311424
 30
0.0
 10
11.6274487511
 20
10.1077649108
 30
0.0
 10
11.6209952213
 20
10.1050063645
 30
0.0
 10
11.6124478093
 20
10.1016471128
 30
0.0
 10
11.6016043475
 20
10.0978085546
 30
0.0
 10
11.5900461143
 20
10.0941115337
 30
0.0
 10
11.5778007933
 20
10.0905649926
 30
0.0
 10
11.5648975815
 20
10.0871775322
 30
0.0
 10
11.55136738
 20
10.0839573726
 30
0.0
 10
11.5372426281
 20
10.0809123251
 30
0.0
 10
11.5225572327
 20
10.0780497796
 30
0.0
 10
11.5073464703
 20
10.0753766829
 30
0.0
 10
11.4916469
 20
10.0728995217
 30
0.0
 10
11.4754962749
 20
10.0706243078
 30
0.0
 10
11.4589334493
 20
10.068556554
 30
0.0
 10
11.4419982796
 20
10.0667012705
 30
0.0
 10
11.4247315245
 20
10.0650629536
 30
0.0
 10
11.4071747422
 20
10.063645572
 30
0.0
 10
11.3893702065
 20
10.0624525692
 30
0.0
 10
11.3713607487
 20
10.0614868087
 30
0.0
 10
11.347069069
 20
10.0605027696
 30
0.0
 10
11.3165119224
 20
10.0598572966
 30
0.0
 10
11.2798224387
 20
10.0600119657
 30
0.0
 10
11.243368154
 20
10.0610924701
 30
0.0
 10
11.2192010609
 20
10.0624370816
 30
0.0
 10
11.2072206315
 20
10.0632679272
 30
0.0
  0
SPLINE
  5
335
100
AcDbEntity
  8
0
100
AcDbSpline
 62
7
  6
CONTINUOUS
 70
0
 71
3
 72
15
 73
11
 74
0
 42
0.0000001
 43
0.0000001
 44
0.0000000001
 40
0.0
 40
0.0
 40
0.0
 40
0.0
 40
0.1233171388
 40
0.2468172051
 40
0.3706750009
 40
0.4950496043
 40
0.6200772562
 40
0.7458671573
 40
0.8724928759
 40
1.0
 40
1.0
 40
1.0
 40
1.0
 10
10.2053094934
 20
8.6211713589
 30
0.0
 10
10.2038733144
 20
8.6197841079
 30
0.0
 10
10.2008468337
 20
8.6171601159
 30
0.0
 10
10.1959073114
 20
8.613731271
 30
0.0
 10
10.1906144393
 20
8.610840802
 30
0.0
 10
10.185022402
 20
8.6085184094
 30
0.0
 10
10.1791876039
 20
8.6067871454
 30
0.0
 10
10.1731688172
 20
8.6056643406
 30
0.0
 10
10.1670274864
 20
8.6051609111
 30
0.0
 10
10.1629051285
 20
8.6052413189
 30
0.0
 10
10.1608454644
 20
8.6053841571
 30
0.0
  0
SPLINE
  5
336
100
AcDbEntity
  8
0
100
AcDbSpline
 62
7
  6
CONTINUOUS
 70
0
 71
3
 72
41
 73
37
 74
0
 42
0.0000001
 43
0.0000001
 44
0.0000000001
 40
0.0
 40
0.0
 40
0.0
 40
0.0
 40
0.0311445478
 40
0.0624424446
 40
0.0938872679
 40
0.125469566
 40
0.1571770992
 40
0.1889951145
 40
0.2209066667
 40
0.2528929719
 40
0.2849337877
 40
0.3170078142
 40
0.3490931102
 40
0.381167517
 40
0.4132090858
 40
0.4451965025
 40
0.4771095029
 40
0.5089292747
 40
0.5406388381
 40
0.5722233999
 40
0.6036706736
 40
0.63497116
 40
0.6661183793
 40
0.6971090497
 40
0.7279432042
 40
0.7586242401
 40
0.7891588962
 40
0.8195571523
 40
0.8498320512
 40
0.8649308901
 40
0.8800050513
 40
0.9100832572
 40
0.940092674
 40
0.9550812744
 40
0.9700610349
 40
1.0
 40
1.0
 40
1.0
 40
1.0
 10
10.1763003098
 20
7.3157673464
 30
0.0
 10
10.1728094475
 20
7.3160094386
 30
0.0
 10
10.1658256579
 20
7.3167503364
 30
0.0
 10
10.1554346464
 20
7.3186166571
 30
0.0
 10
10.1451549215
 20
7.3212308389
 30
0.0
 10
10.135042027
 20
7.3245787907
 30
0.0
 10
10.1251496707
 20
7.3286425863
 30
0.0
 10
10.1155306258
 20
7.3334004812
 30
0.0
 10
10.1062361335
 20
7.3388270512
 30
0.0
 10
10.0973157205
 20
7.3448933217
 30
0.0
 10
10.0888169148
 20
7.3515669233
 30
0.0
 10
10.0807850013
 20
7.358812263
 30
0.0
 10
10.0732627824
 20
7.3665907124
 30
0.0
 10
10.0662903518
 20
7.3748608117
 30
0.0
 10
10.0599048836
 20
7.3835784886
 30
0.0
 10
10.0541404352
 20
7.3926972909
 30
0.0
 10
10.0490277676
 20
7.4021686308
 30
0.0
 10
10.0445941824
 20
7.4119420413
 30
0.0
 10
10.0408633764
 20
7.4219654417
 30
0.0
 10
10.0378553155
 20
7.4321854112
 30
0.0
 10
10.0355861274
 20
7.4425474703
 30
0.0
 10
10.0340680135
 20
7.4529963668
 30
0.0
 10
10.033309182
 20
7.4634763672
 30
0.0
 10
10.0333137988
 20
7.4739315479
 30
0.0
 10
10.034081966
 20
7.4843061007
 30
0.0
 10
10.0356096962
 20
7.4945445881
 30
0.0
 10
10.0378889989
 20
7.5045923897
 30
0.0
 10
10.0409076513
 20
7.5143954322
 30
0.0
 10
10.0440294212
 20
7.5223255297
 30
0.0
 10
10.0468782485
 20
7.5284923849
 30
0.0
 10
10.0499526094
 20
7.5345251867
 30
0.0
 10
10.0542212561
 20
7.5418221428
 30
0.0
 10
10.0590388792
 20
7.5487572686
 30
0.0
 10
10.0632020562
 20
7.5540582753
 30
0.0
 10
10.0675637775
 20
7.5591862994
 30
0.0
 10
10.071058309
 20
7.5628369925
 30
0.0
 10
10.0734777319
 20
7.5651739777
 30
0.0
  0
SPLINE
  5
337
100
AcDbEntity
  8
0
100
AcDbSpline
 62
7
  6
CONTINUOUS
 70
0
 71
3
 72
41
 73
37
 74
0
 42
0.0000001
 43
0.0000001
 44
0.0000000001
 40
0.0
 40
0.0
 40
0.0
 40
0.0
 40
0.0311445478
 40
0.0624424446
 40
0.0938872679
 40
0.125469566
 40
0.1571770992
 40
0.1889951145
 40
0.2209066667
 40
0.2528929719
 40
0.2849337877
 40
0.3170078142
 40
0.3490931102
 40
0.381167517
 40
0.4132090858
 40
0.4451965025
 40
0.4771095029
 40
0.5089292747
 40
0.5406388381
 40
0.5722233999
 40
0.6036706736
 40
0.63497116
 40
0.6661183793
 40
0.6971090497
 40
0.7279432042
 40
0.7586242401
 40
0.7891588962
 40
0.8195571523
 40
0.8498320512
 40
0.8649308901
 40
0.8800050513
 40
0.9100832572
 40
0.940092674
 40
0.9550812744
 40
0.9700610349
 40
1.0
 40
1.0
 40
1.0
 40
1.0
 10
11.3837076643
 20
7.232033362
 30
0.0
 10
11.3802168019
 20
7.2322754541
 30
0.0
 10
11.3732330123
 20
7.2330163519
 30
0.0
 10
11.3628420008
 20
7.2348826727
 30
0.0
 10
11.3525622759
 20
7.2374968544
 30
0.0
 10
11.3424493814
 20
7.2408448063
 30
0.0
 10
11.3325570251
 20
7.2449086018
 30
0.0
 10
11.3229379802
 20
7.2496664968
 30
0.0
 10
11.3136434879
 20
7.2550930668
 30
0.0
 10
11.304723075
 20
7.2611593373
 30
0.0
 10
11.2962242692
 20
7.2678329389
 30
0.0
 10
11.2881923557
 20
7.2750782786
 30
0.0
 10
11.2806701368
 20
7.282856728
 30
0.0
 10
11.2736977062
 20
7.2911268273
 30
0.0
 10
11.267312238
 20
7.2998445042
 30
0.0
 10
11.2615477896
 20
7.3089633064
 30
0.0
 10
11.256435122
 20
7.3184346463
 30
0.0
 10
11.2520015368
 20
7.3282080569
 30
0.0
 10
11.2482707308
 20
7.3382314573
 30
0.0
 10
11.2452626699
 20
7.3484514268
 30
0.0
 10
11.2429934818
 20
7.3588134859
 30
0.0
 10
11.2414753679
 20
7.3692623823
 30
0.0
 10
11.2407165364
 20
7.3797423828
 30
0.0
 10
11.2407211532
 20
7.3901975634
 30
0.0
 10
11.2414893204
 20
7.4005721163
 30
0.0
 10
11.2430170506
 20
7.4108106037
 30
0.0
 10
11.2452963533
 20
7.4208584053
 30
0.0
 10
11.2483150057
 20
7.4306614478
 30
0.0
 10
11.2514367756
 20
7.4385915453
 30
0.0
 10
11.2542856029
 20
7.4447584005
 30
0.0
 10
11.2573599639
 20
7.4507912023
 30
0.0
 10
11.2616286105
 20
7.4580881583
 30
0.0
 10
11.2664462336
 20
7.4650232842
 30
0.0
 10
11.2706094106
 20
7.4703242909
 30
0.0
 10
11.2749711319
 20
7.4754523149
 30
0.0
 10
11.2784656634
 20
7.4791030081
 30
0.0
 10
11.2808850863
 20
7.4814399933
 30
0.0
  0
SPLINE
  5
338
100
AcDbEntity
  8
0
100
AcDbSpline
 62
7
  6
CONTINUOUS
 70
0
 71
3
 72
15
 73
11
 74
0
 42
0.0000001
 43
0.0000001
 44
0.0000000001
 40
0.0
 40
0.0
 40
0.0
 40
0.0
 40
0.1233171388
 40
0.2468172051
 40
0.3706750009
 40
0.4950496043
 40
0.6200772562
 40
0.7458671573
 40
0.8724928759
 40
1.0
 40
1.0
 40
1.0
 40
1.0
 10
10.8244680161
 20
8.1406681931
 30
0.0
 10
10.823031837
 20
8.1392809421
 30
0.0
 10
10.8200053564
 20
8.1366569501
 30
0.0
 10
10.815065834
 20
8.1332281052
 30
0.0
 10
10.8097729619
 20
8.1303376362
 30
0.0
 10
10.8041809246
 20
8.1280152436
 30
0.0
 10
10.7983461265
 20
8.1262839796
 30
0.0
 10
10.7923273399
 20
8.1251611748
 30
0.0
 10
10.7861860091
 20
8.1246577453
 30
0.0
 10
10.7820636511
 20
8.1247381531
 30
0.0
 10
10.7800039871
 20
8.1248809913
 30
0.0
  0
SPLINE
  5
339
100
AcDbEntity
  8
0
100
AcDbSpline
 62
7
  6
CONTINUOUS
 70
0
 71
3
 72
15
 73
11
 74
0
 42
0.0000001
 43
0.0000001
 44
0.0000000001
 40
0.0
 40
0.0
 40
0.0
 40
0.0
 40
0.1232680506
 40
0.2468877099
 40
0.3709463021
 40
0.495519592
 40
0.6206717406
 40
0.7464473204
 40
0.8728891406
 40
1.0
 40
1.0
 40
1.0
 40
1.0
 10
10.8317978522
 20
8.1492854213
 30
0.0
 10
10.8305009488
 20
8.1484561718
 30
0.0
 10
10.8278338124
 20
8.1469014572
 30
0.0
 10
10.8236500784
 20
8.1449014278
 30
0.0
 10
10.8193023113
 20
8.1432417439
 30
0.0
 10
10.8148167269
 20
8.1419324227
 30
0.0
 10
10.8102199766
 20
8.1409811744
 30
0.0
 10
10.8055392517
 20
8.1403934918
 30
0.0
 10
10.8008028103
 20
8.1401729323
 30
0.0
 10
10.7976342942
 20
8.1402711603
 30
0.0
 10
10.7960507543
 20
8.1403809792
 30
0.0
  0
SPLINE
  5
33A
100
AcDbEntity
  8
0
100
AcDbSpline
 62
7
  6
CONTINUOUS
 70
0
 71
3
 72
30
 73
26
 74
0
 42
0.0000001
 43
0.0000001
 44
0.0000000001
 40
0.0
 40
0.0
 40
0.0
 40
0.0
 40
0.0299442852
 40
0.0599608666
 40
0.0900662374
 40
0.120275131
 40
0.1506002724
 40
0.1810521749
 40
0.2116389426
 40
0.2423661304
 40
0.2732367141
 40
0.3042510735
 40
0.3354069893
 40
0.3666997166
 40
0.3981221427
 40
0.4296649193
 40
0.4930316772
 40
0.5567208306
 40
0.6205988802
 40
0.6845199813
 40
0.7483354542
 40
0.8119035534
 40
0.8750987526
 40
0.9378196997
 40
1.0
 40
1.0
 40
1.0
 40
1.0
 10
10.7443709263
 20
8.2397079065
 30
0.0
 10
10.7436099737
 20
8.2386014464
 30
0.0
 10
10.7421652739
 20
8.2363303008
 30
0.0
 10
10.7402445434
 20
8.2327734485
 30
0.0
 10
10.7385761051
 20
8.2290782766
 30
0.0
 10
10.737167641
 20
8.225261753
 30
0.0
 10
10.7360254237
 20
8.2213411091
 30
0.0
 10
10.7351545982
 20
8.2173341035
 30
0.0
 10
10.7345590994
 20
8.2132588541
 30
0.0
 10
10.734241568
 20
8.2091337983
 30
0.0
 10
10.7342033815
 20
8.2049775831
 30
0.0
 10
10.7344446872
 20
8.2008089901
 30
0.0
 10
10.734964399
 20
8.19664684
 30
0.0
 10
10.7357600777
 20
8.1925099781
 30
0.0
 10
10.7368281933
 20
8.1884168808
 30
0.0
 10
10.7386111485
 20
8.1830358858
 30
0.0
 10
10.7414968162
 20
8.1765119813
 30
0.0
 10
10.7459353383
 20
8.169163655
 30
0.0
 10
10.7512766208
 20
8.1624104698
 30
0.0
 10
10.7574243477
 20
8.1563744364
 30
0.0
 10
10.7642683264
 20
8.1511636668
 30
0.0
 10
10.7716857131
 20
8.146872019
 30
0.0
 10
10.7795440263
 20
8.1435768921
 30
0.0
 10
10.7877003843
 20
8.1413382911
 30
0.0
 10
10.7932689195
 20
8.1405739001
 30
0.0
 10
10.7960507543
 20
8.1403809792
 30
0.0
  0
SPLINE
  5
33B
100
AcDbEntity
  8
0
100
AcDbSpline
 62
7
  6
CONTINUOUS
 70
0
 71
3
 72
15
 73
11
 74
0
 42
0.0000001
 43
0.0000001
 44
0.0000000001
 40
0.0
 40
0.0
 40
0.0
 40
0.0
 40
0.1233171217
 40
0.2468171833
 40
0.3706749954
 40
0.4950495965
 40
0.6200773092
 40
0.7458671694
 40
0.8724927499
 40
1.0
 40
1.0
 40
1.0
 40
1.0
 10
10.2150355713
 20
7.7359725788
 30
0.0
 10
10.2132852383
 20
7.734281891
 30
0.0
 10
10.2095967204
 20
7.7310839683
 30
0.0
 10
10.2035767188
 20
7.7269051327
 30
0.0
 10
10.1971260738
 20
7.723382445
 30
0.0
 10
10.1903108292
 20
7.720552093
 30
0.0
 10
10.1831997289
 20
7.7184421701
 30
0.0
 10
10.175864404
 20
7.7170737862
 30
0.0
 10
10.1683797316
 20
7.7164602461
 30
0.0
 10
10.1633556577
 20
7.7165582442
 30
0.0
 10
10.1608454644
 20
7.7167323267
 30
0.0
  0
SPLINE
  5
33C
100
AcDbEntity
  8
0
100
AcDbSpline
 62
7
  6
CONTINUOUS
 70
0
 71
3
 72
11
 73
7
 74
0
 42
0.0000001
 43
0.0000001
 44
0.0000000001
 40
0.0
 40
0.0
 40
0.0
 40
0.0
 40
0.2476290643
 40
0.4967545117
 40
0.7475158752
 40
1.0
 40
1.0
 40
1.0
 40
1.0
 10
10.2313185061
 20
7.7605475702
 30
0.0
 10
10.2290192914
 20
7.7597457466
 30
0.0
 10
10.2243198046
 20
7.7583761935
 30
0.0
 10
10.2170772296
 20
7.7570509834
 30
0.0
 10
10.2096904063
 20
7.7564605412
 30
0.0
 10
10.2047332864
 20
7.7565605279
 30
0.0
 10
10.2022564765
 20
7.7567322952
 30
0.0
  0
SPLINE
  5
33D
100
AcDbEntity
  8
0
100
AcDbSpline
 62
7
  6
CONTINUOUS
 70
0
 71
3
 72
26
 73
22
 74
0
 42
0.0000001
 43
0.0000001
 44
0.0000000001
 40
0.0
 40
0.0
 40
0.0
 40
0.0
 40
0.0301009649
 40
0.060307604
 40
0.0906281321
 40
0.1210690058
 40
0.1516348538
 40
0.1823284679
 40
0.2440730498
 40
0.3063159946
 40
0.3690139906
 40
0.432098536
 40
0.4954801135
 40
0.5590533439
 40
0.6227027077
 40
0.6863086761
 40
0.7497540061
 40
0.8129299511
 40
0.8757421303
 40
0.9381149683
 40
1.0
 40
1.0
 40
1.0
 40
1.0
 10
10.1317623761
 20
7.8635533584
 30
0.0
 10
10.1312265899
 20
7.862170089
 30
0.0
 10
10.1302406646
 20
7.8593638926
 30
0.0
 10
10.1290268113
 20
7.8550628802
 30
0.0
 10
10.1280797003
 20
7.8506780656
 30
0.0
 10
10.1274028584
 20
7.8462257055
 30
0.0
 10
10.1269986854
 20
7.8417217709
 30
0.0
 10
10.1268248299
 20
7.8356594094
 30
0.0
 10
10.1272985912
 20
7.8280313072
 30
0.0
 10
10.1289562053
 20
7.8189607265
 30
0.0
 10
10.1316792397
 20
7.8100818442
 30
0.0
 10
10.1354277273
 20
7.801524212
 30
0.0
 10
10.1401468616
 20
7.7934114302
 30
0.0
 10
10.1457680843
 20
7.7858610064
 30
0.0
 10
10.152209791
 20
7.7789821671
 30
0.0
 10
10.1593786666
 20
7.7728745338
 30
0.0
 10
10.1671710144
 20
7.7676267079
 30
0.0
 10
10.1754739135
 20
7.7633148712
 30
0.0
 10
10.1841676844
 20
7.7600019296
 30
0.0
 10
10.1931247094
 20
7.7577364333
 30
0.0
 10
10.1992140218
 20
7.7569432902
 30
0.0
 10
10.2022564765
 20
7.7567322952
 30
0.0
  0
SPLINE
  5
33E
100
AcDbEntity
  8
0
100
AcDbSpline
 62
7
  6
CONTINUOUS
 70
0
 71
3
 72
30
 73
26
 74
0
 42
0.0000001
 43
0.0000001
 44
0.0000000001
 40
0.0
 40
0.0
 40
0.0
 40
0.0
 40
0.0606623079
 40
0.1216906066
 40
0.1830902033
 40
0.2448594145
 40
0.3069900759
 40
0.3694670797
 40
0.4322671469
 40
0.4953560536
 40
0.5586850566
 40
0.6221863108
 40
0.6857665493
 40
0.7175638652
 40
0.7493337016
 40
0.7810559942
 40
0.8127091577
 40
0.8442707103
 40
0.8600128644
 40
0.8757238017
 40
0.9070358448
 40
0.938193804
 40
0.9537131015
 40
0.9691893216
 40
1.0
 40
1.0
 40
1.0
 40
1.0
 10
10.8286847609
 20
8.4157814299
 30
0.0
 10
10.8233738373
 20
8.4147071537
 30
0.0
 10
10.8126111266
 20
8.4130585936
 30
0.0
 10
10.7962671636
 20
8.4120586466
 30
0.0
 10
10.7797991488
 20
8.4125025487
 30
0.0
 10
10.7633339301
 20
8.4143780481
 30
0.0
 10
10.746996066
 20
8.4176800732
 30
0.0
 10
10.730916465
 20
8.4224104938
 30
0.0
 10
10.7152373151
 20
8.4285763246
 30
0.0
 10
10.7001187703
 20
8.4361868194
 30
0.0
 10
10.6857452439
 20
8.4452492509
 30
0.0
 10
10.6723342725
 20
8.455759053
 30
0.0
 10
10.6621669062
 20
8.4657086519
 30
0.0
 10
10.6547877272
 20
8.4743497151
 30
0.0
 10
10.6496705215
 20
8.4811585502
 30
0.0
 10
10.6450142031
 20
8.4882755218
 30
0.0
 10
10.6408616897
 20
8.4956768568
 30
0.0
 10
10.6378537476
 20
8.5020633415
 30
0.0
 10
10.6357420444
 20
8.5072820573
 30
0.0
 10
10.6338366107
 20
8.5125558709
 30
0.0
 10
10.6318445517
 20
8.5192568866
 30
0.0
 10
10.6303966104
 20
8.5260792383
 30
0.0
 10
10.6295809825
 20
8.5315721712
 30
0.0
 10
10.6289975855
 20
8.5370630342
 30
0.0
 10
10.6288202054
 20
8.5412001985
 30
0.0
 10
10.6288202054
 20
8.5439522731
 30
0.0
  0
SPLINE
  5
33F
100
AcDbEntity
  8
0
100
AcDbSpline
 62
7
  6
CONTINUOUS
 70
0
 71
3
 72
28
 73
24
 74
0
 42
0.0000001
 43
0.0000001
 44
0.0000000001
 40
0.0
 40
0.0
 40
0.0
 40
0.0
 40
0.019147164
 40
0.0396123104
 40
0.0613677627
 40
0.0843785715
 40
0.1085994513
 40
0.1339781928
 40
0.1604571822
 40
0.1879755955
 40
0.2164695936
 40
0.245873151
 40
0.3071377227
 40
0.3712274943
 40
0.4376026831
 40
0.5057434258
 40
0.5751666583
 40
0.6454433538
 40
0.7162137196
 40
0.7871995171
 40
0.8582118819
 40
0.9291504844
 40
1.0
 40
1.0
 40
1.0
 40
1.0
 10
10.8486039977
 20
7.7730449504
 30
0.0
 10
10.8476480168
 20
7.7728353454
 30
0.0
 10
10.8456634582
 20
7.7724325585
 30
0.0
 10
10.8425768012
 20
7.7718734898
 30
0.0
 10
10.8392880604
 20
7.7713241324
 30
0.0
 10
10.8358058169
 20
7.7707689531
 30
0.0
 10
10.8321394046
 20
7.7701927421
 30
0.0
 10
10.8282992018
 20
7.7695805212
 30
0.0
 10
10.8242963919
 20
7.7689179354
 30
0.0
 10
10.8201429429
 20
7.7681912042
 30
0.0
 10
10.8158515024
 20
7.7673872378
 30
0.0
 10
10.8098813658
 20
7.7661796846
 30
0.0
 10
10.802168263
 20
7.7644158392
 30
0.0
 10
10.7927080045
 20
7.7618457707
 30
0.0
 10
10.7830416474
 20
7.7587315212
 30
0.0
 10
10.7732930179
 20
7.7550257007
 30
0.0
 10
10.7635852553
 20
7.750695692
 30
0.0
 10
10.7540379692
 20
7.7457221201
 30
0.0
 10
10.7447647533
 20
7.7400968396
 30
0.0
 10
10.7358716555
 20
7.7338207708
 30
0.0
 10
10.7274563384
 20
7.7269015479
 30
0.0
 10
10.7196091379
 20
7.7193536396
 30
0.0
 10
10.7148078846
 20
7.7139113262
 30
0.0
 10
10.7125304365
 20
7.7110956864
 30
0.0
  0
SPLINE
  5
340
100
AcDbEntity
  8
0
100
AcDbSpline
 62
7
  6
CONTINUOUS
 70
0
 71
3
 72
41
 73
37
 74
0
 42
0.0000001
 43
0.0000001
 44
0.0000000001
 40
0.0
 40
0.0
 40
0.0
 40
0.0
 40
0.0311445478
 40
0.0624424446
 40
0.0938872679
 40
0.125469566
 40
0.1571770992
 40
0.1889951145
 40
0.2209066667
 40
0.2528929719
 40
0.2849337877
 40
0.3170078142
 40
0.3490931102
 40
0.381167517
 40
0.4132090858
 40
0.4451965025
 40
0.4771095029
 40
0.5089292747
 40
0.5406388381
 40
0.5722233999
 40
0.6036706736
 40
0.63497116
 40
0.6661183793
 40
0.6971090497
 40
0.7279432042
 40
0.7586242401
 40
0.7891588962
 40
0.8195571523
 40
0.8498320512
 40
0.8649308901
 40
0.8800050513
 40
0.9100832572
 40
0.940092674
 40
0.9550812744
 40
0.9700610349
 40
1.0
 40
1.0
 40
1.0
 40
1.0
 10
10.1763003098
 20
8.8554531873
 30
0.0
 10
10.1728094475
 20
8.8556952794
 30
0.0
 10
10.1658256579
 20
8.8564361772
 30
0.0
 10
10.1554346464
 20
8.858302498
 30
0.0
 10
10.1451549215
 20
8.8609166797
 30
0.0
 10
10.135042027
 20
8.8642646316
 30
0.0
 10
10.1251496707
 20
8.8683284271
 30
0.0
 10
10.1155306258
 20
8.8730863221
 30
0.0
 10
10.1062361335
 20
8.8785128921
 30
0.0
 10
10.0973157205
 20
8.8845791625
 30
0.0
 10
10.0888169148
 20
8.8912527641
 30
0.0
 10
10.0807850013
 20
8.8984981039
 30
0.0
 10
10.0732627824
 20
8.9062765532
 30
0.0
 10
10.0662903518
 20
8.9145466525
 30
0.0
 10
10.0599048836
 20
8.9232643295
 30
0.0
 10
10.0541404352
 20
8.9323831317
 30
0.0
 10
10.0490277676
 20
8.9418544716
 30
0.0
 10
10.0445941824
 20
8.9516278821
 30
0.0
 10
10.0408633764
 20
8.9616512825
 30
0.0
 10
10.0378553155
 20
8.971871252
 30
0.0
 10
10.0355861274
 20
8.9822333111
 30
0.0
 10
10.0340680135
 20
8.9926822076
 30
0.0
 10
10.033309182
 20
9.0031622081
 30
0.0
 10
10.0333137988
 20
9.0136173887
 30
0.0
 10
10.034081966
 20
9.0239919415
 30
0.0
 10
10.0356096962
 20
9.034230429
 30
0.0
 10
10.0378889989
 20
9.0442782306
 30
0.0
 10
10.0409076513
 20
9.054081273
 30
0.0
 10
10.0440294212
 20
9.0620113706
 30
0.0
 10
10.0468782485
 20
9.0681782257
 30
0.0
 10
10.0499526094
 20
9.0742110275
 30
0.0
 10
10.0542212561
 20
9.0815079836
 30
0.0
 10
10.0590388792
 20
9.0884431094
 30
0.0
 10
10.0632020562
 20
9.0937441161
 30
0.0
 10
10.0675637775
 20
9.0988721402
 30
0.0
 10
10.071058309
 20
9.1025228334
 30
0.0
 10
10.0734777319
 20
9.1048598186
 30
0.0
  0
SPLINE
  5
341
100
AcDbEntity
  8
0
100
AcDbSpline
 62
7
  6
CONTINUOUS
 70
0
 71
3
 72
11
 73
7
 74
0
 42
0.0000001
 43
0.0000001
 44
0.0000000001
 40
0.0
 40
0.0
 40
0.0
 40
0.0
 40
0.2593323467
 40
0.51075963
 40
0.7567613553
 40
1.0
 40
1.0
 40
1.0
 40
1.0
 10
11.4825380387
 20
10.3968101531
 30
0.0
 10
11.4830008422
 20
10.3957709406
 30
0.0
 10
11.4838187344
 20
10.39368059
 30
0.0
 10
11.4847126163
 20
10.3904775044
 30
0.0
 10
11.4852498908
 20
10.387266962
 30
0.0
 10
11.4853695812
 20
10.3851189699
 30
0.0
 10
11.4853695836
 20
10.3840519608
 30
0.0
  0
SPLINE
  5
342
100
AcDbEntity
  8
0
100
AcDbSpline
 62
7
  6
CONTINUOUS
 70
0
 71
3
 72
32
 73
28
 74
0
 42
0.0000001
 43
0.0000001
 44
0.0000000001
 40
0.0
 40
0.0
 40
0.0
 40
0.0
 40
0.0165871556
 40
0.0341537781
 40
0.0527304073
 40
0.0723387658
 40
0.0929935323
 40
0.1147029403
 40
0.1374702042
 40
0.1612937152
 40
0.1861681311
 40
0.2120844207
 40
0.2390306154
 40
0.2669918814
 40
0.2959509389
 40
0.3258882603
 40
0.3567821873
 40
0.3886092818
 40
0.4213441995
 40
0.4549601652
 40
0.5247185438
 40
0.5976428572
 40
0.6734701968
 40
0.7519205058
 40
0.8326992182
 40
0.9154981809
 40
1.0
 40
1.0
 40
1.0
 40
1.0
 10
10.0968392074
 20
5.9628004321
 30
0.0
 10
10.0979573623
 20
5.9617598646
 30
0.0
 10
10.1003290271
 20
5.9596909464
 30
0.0
 10
10.1041615059
 20
5.9567059969
 30
0.0
 10
10.108365011
 20
5.9537551807
 30
0.0
 10
10.112935045
 20
5.9508414717
 30
0.0
 10
10.1178670555
 20
5.9479677896
 30
0.0
 10
10.1231559534
 20
5.9451369812
 30
0.0
 10
10.1287963386
 20
5.9423520181
 30
0.0
 10
10.1347823688
 20
5.9396157151
 30
0.0
 10
10.1411078615
 20
5.9369309772
 30
0.0
 10
10.1477662347
 20
5.9343005667
 30
0.0
 10
10.1547505622
 20
5.9317272736
 30
0.0
 10
10.1620535539
 20
5.9292137853
 30
0.0
 10
10.1696675795
 20
5.9267627502
 30
0.0
 10
10.1775846747
 20
5.9243767612
 30
0.0
 10
10.1857965473
 20
5.9220583097
 30
0.0
 10
10.1942945917
 20
5.919809879
 30
0.0
 10
10.2030699053
 20
5.9176337786
 30
0.0
 10
10.2152786826
 20
5.9147968995
 30
0.0
 10
10.2311684725
 20
5.9114586868
 30
0.0
 10
10.2509608531
 20
5.9078233657
 30
0.0
 10
10.2716232061
 20
5.9045263107
 30
0.0
 10
10.2930687905
 20
5.9015815159
 30
0.0
 10
10.3152076662
 20
5.8990015245
 30
0.0
 10
10.3379468546
 20
5.8967972798
 30
0.0
 10
10.3533068286
 20
5.895595189
 30
0.0
 10
10.3610695575
 20
5.8950568419
 30
0.0
  0
SPLINE
  5
343
100
AcDbEntity
  8
0
100
AcDbSpline
 62
7
  6
CONTINUOUS
 70
0
 71
3
 72
30
 73
26
 74
0
 42
0.0000001
 43
0.0000001
 44
0.0000000001
 40
0.0
 40
0.0
 40
0.0
 40
0.0
 40
0.063921988
 40
0.127404281
 40
0.190466122
 40
0.2531351522
 40
0.3154459339
 40
0.3774404929
 40
0.4391700053
 40
0.5006979481
 40
0.5621037534
 40
0.5928060468
 40
0.6235188978
 40
0.654259192
 40
0.6850456968
 40
0.7158989597
 40
0.7468410321
 40
0.7778949475
 40
0.8090838795
 40
0.8404299149
 40
0.8719524745
 40
0.9036663851
 40
0.9355802727
 40
0.9676939581
 40
1.0
 40
1.0
 40
1.0
 40
1.0
 10
10.6584576317
 20
7.806131518
 30
0.0
 10
10.6576356747
 20
7.8121511068
 30
0.0
 10
10.6566205272
 20
7.8242426769
 30
0.0
 10
10.6569149918
 20
7.8423706909
 30
0.0
 10
10.65895497
 20
7.8602668249
 30
0.0
 10
10.6626793884
 20
7.8777747797
 30
0.0
 10
10.6680403474
 20
7.8947470642
 30
0.0
 10
10.675002138
 20
7.9110320566
 30
0.0
 10
10.6835390081
 20
7.9264674307
 30
0.0
 10
10.6936289726
 20
7.9408694647
 30
0.0
 10
10.7033205363
 20
7.9518405744
 30
0.0
 10
10.7118126072
 20
7.9598594118
 30
0.0
 10
10.7185503654
 20
7.9654656099
 30
0.0
 10
10.725646877
 20
7.9706242221
 30
0.0
 10
10.7330905871
 20
7.9752942407
 30
0.0
 10
10.7408655632
 20
7.9794314459
 30
0.0
 10
10.7489507346
 20
7.9829892572
 30
0.0
 10
10.7573185618
 20
7.9859194274
 30
0.0
 10
10.7659338259
 20
7.9881733745
 30
0.0
 10
10.7747525304
 20
7.9897040603
 30
0.0
 10
10.7837212297
 20
7.9904684486
 30
0.0
 10
10.792776922
 20
7.9904305535
 30
0.0
 10
10.8018483007
 20
7.9895644149
 30
0.0
 10
10.8108564579
 20
7.9878577552
 30
0.0
 10
10.8167513109
 20
7.9861653232
 30
0.0
 10
10.8196607804
 20
7.9851839608
 30
0.0
  0
SPLINE
  5
344
100
AcDbEntity
  8
0
100
AcDbSpline
 62
7
  6
CONTINUOUS
 70
0
 71
3
 72
48
 73
44
 74
0
 42
0.0000001
 43
0.0000001
 44
0.0000000001
 40
0.0
 40
0.0
 40
0.0
 40
0.0
 40
0.0350612114
 40
0.0714617096
 40
0.1090494842
 40
0.1476680227
 40
0.1871530599
 40
0.227335977
 40
0.2680439218
 40
0.3091011429
 40
0.3503299047
 40
0.3915515144
 40
0.4325873181
 40
0.4732597038
 40
0.5133931044
 40
0.5528150067
 40
0.591356975
 40
0.6288556954
 40
0.6651540561
 40
0.7001022807
 40
0.7335591458
 40
0.7653933354
 40
0.7954849749
 40
0.8237274673
 40
0.8500298007
 40
0.8624309121
 40
0.8743215645
 40
0.8856964523
 40
0.89655188
 40
0.9068862992
 40
0.9167005264
 40
0.9259980288
 40
0.934785698
 40
0.9430740094
 40
0.9508782984
 40
0.9582190986
 40
0.9651237006
 40
0.9716269273
 40
0.9777725617
 40
0.9836142198
 40
0.989215719
 40
0.9946505992
 40
1.0
 40
1.0
 40
1.0
 40
1.0
 10
10.6846232362
 20
10.2471768343
 30
0.0
 10
10.6869987197
 20
10.247607336
 30
0.0
 10
10.6918519641
 20
10.2484220767
 30
0.0
 10
10.6992847212
 20
10.2494916376
 30
0.0
 10
10.7069822176
 20
10.2504281319
 30
0.0
 10
10.7149086298
 20
10.2512271711
 30
0.0
 10
10.7230272695
 20
10.2518849891
 30
0.0
 10
10.7313004358
 20
10.2523985057
 30
0.0
 10
10.7396897456
 20
10.2527653064
 30
0.0
 10
10.748156256
 20
10.2529836716
 30
0.0
 10
10.7566606663
 20
10.2530525759
 30
0.0
 10
10.7651634966
 20
10.2529716956
 30
0.0
 10
10.7736252746
 20
10.2527414107
 30
0.0
 10
10.7820067208
 20
10.2523628019
 30
0.0
 10
10.7902689326
 20
10.2518376459
 30
0.0
 10
10.7983735671
 20
10.2511684078
 30
0.0
 10
10.8062830213
 20
10.2503582299
 30
0.0
 10
10.8139606098
 20
10.2494109184
 30
0.0
 10
10.8213707403
 20
10.2483309265
 30
0.0
 10
10.8284790831
 20
10.2471233348
 30
0.0
 10
10.8352527457
 20
10.2457938285
 30
0.0
 10
10.8416604205
 20
10.2443486708
 30
0.0
 10
10.8476726139
 20
10.2427946778
 30
0.0
 10
10.8532615875
 20
10.2411391523
 30
0.0
 10
10.8576270398
 20
10.239653719
 30
0.0
 10
10.8608832682
 20
10.2384146082
 30
0.0
 10
10.8631559005
 20
10.2374830198
 30
0.0
 10
10.8653046132
 20
10.2365320133
 30
0.0
 10
10.8673269453
 20
10.2355626415
 30
0.0
 10
10.8692205918
 20
10.2345760238
 30
0.0
 10
10.8709834125
 20
10.2335732921
 30
0.0
 10
10.8726134038
 20
10.2325555341
 30
0.0
 10
10.8741087645
 20
10.2315239179
 30
0.0
 10
10.8754677915
 20
10.2304794825
 30
0.0
 10
10.8766890102
 20
10.2294233701
 30
0.0
 10
10.8777709979
 20
10.228356555
 30
0.0
 10
10.8787125236
 20
10.2272800754
 30
0.0
 10
10.8795123609
 20
10.2261948482
 30
0.0
 10
10.8801693304
 20
10.2251018148
 30
0.0
 10
10.8806822442
 20
10.2240020071
 30
0.0
 10
10.8810498151
 20
10.2228965281
 30
0.0
 10
10.8812709768
 20
10.2217871814
 30
0.0
 10
10.8813203015
 20
10.2210437139
 30
0.0
 10
10.8813203023
 20
10.2206753751
 30
0.0
  0
SPLINE
  5
345
100
AcDbEntity
  8
0
100
AcDbSpline
 62
7
  6
CONTINUOUS
 70
0
 71
3
 72
11
 73
7
 74
0
 42
0.0000001
 43
0.0000001
 44
0.0000000001
 40
0.0
 40
0.0
 40
0.0
 40
0.0
 40
0.2479788994
 40
0.4972633546
 40
0.7479217035
 40
1.0
 40
1.0
 40
1.0
 40
1.0
 10
10.413730994
 20
8.3259141669
 30
0.0
 10
10.410401499
 20
8.3250177907
 30
0.0
 10
10.4036445981
 20
8.3235056443
 30
0.0
 10
10.3933294849
 20
8.3220943562
 30
0.0
 10
10.382876191
 20
8.3215401943
 30
0.0
 10
10.3758796373
 20
8.3217417799
 30
0.0
 10
10.3723830208
 20
8.3219847409
 30
0.0
  0
SPLINE
  5
346
100
AcDbEntity
  8
0
100
AcDbSpline
 62
7
  6
CONTINUOUS
 70
0
 71
3
 72
20
 73
16
 74
0
 42
0.0000001
 43
0.0000001
 44
0.0000000001
 40
0.0
 40
0.0
 40
0.0
 40
0.0
 40
0.0616843585
 40
0.1234741663
 40
0.1853740802
 40
0.247387568
 40
0.3717241835
 40
0.4965278812
 40
0.5591199911
 40
0.6218220845
 40
0.6846297902
 40
0.7475381741
 40
0.8105400739
 40
0.8736280462
 40
1.0
 40
1.0
 40
1.0
 40
1.0
 10
11.2787822075
 20
8.0726920226
 30
0.0
 10
11.2773004821
 20
8.071260746
 30
0.0
 10
11.2742600771
 20
8.0684716623
 30
0.0
 10
11.2694875976
 20
8.0645240129
 30
0.0
 10
11.2645113985
 20
8.0608175704
 30
0.0
 10
11.2576178288
 20
8.0562058832
 30
0.0
 10
11.2485532827
 20
8.0510864078
 30
0.0
 10
11.2390082158
 20
8.0468842474
 30
0.0
 10
11.2311341852
 20
8.0440890397
 30
0.0
 10
11.2251159373
 20
8.0422782673
 30
0.0
 10
11.219006669
 20
8.0407596854
 30
0.0
 10
11.2128213217
 20
8.0395364786
 30
0.0
 10
11.2065747204
 20
8.0386112909
 30
0.0
 10
11.1981822413
 20
8.0377775688
 30
0.0
 10
11.1918443439
 20
8.0376045949
 30
0.0
 10
11.1876247011
 20
8.0376909199
 30
0.0
  0
SPLINE
  5
347
100
AcDbEntity
  8
0
100
AcDbSpline
 62
7
  6
CONTINUOUS
 70
0
 71
3
 72
37
 73
33
 74
0
 42
0.0000001
 43
0.0000001
 44
0.0000000001
 40
0.0
 40
0.0
 40
0.0
 40
0.0
 40
0.0311467573
 40
0.0624481077
 40
0.0938952645
 40
0.125480423
 40
0.1571906467
 40
0.189011416
 40
0.2209257215
 40
0.2529147894
 40
0.2849583708
 40
0.3170351623
 40
0.381163081
 40
0.4451600481
 40
0.4770758024
 40
0.508898317
 40
0.5406106103
 40
0.5721978896
 40
0.6036478697
 40
0.6349510521
 40
0.6661009568
 40
0.6970942988
 40
0.7279311085
 40
0.7586147837
 40
0.7891520652
 40
0.819552936
 40
0.8498304416
 40
0.8800004329
 40
0.9100812331
 40
0.9400932378
 40
0.9700584557
 40
1.0
 40
1.0
 40
1.0
 40
1.0
 10
10.1608454644
 20
7.7167323267
 30
0.0
 10
10.1590057114
 20
7.716859914
 30
0.0
 10
10.1553250468
 20
7.717250405
 30
0.0
 10
10.1498486963
 20
7.7182339785
 30
0.0
 10
10.1444309756
 20
7.7196117664
 30
0.0
 10
10.1391012117
 20
7.7213762081
 30
0.0
 10
10.1338876627
 20
7.7235179521
 30
0.0
 10
10.1288181617
 20
7.7260254859
 30
0.0
 10
10.1239196972
 20
7.7288854506
 30
0.0
 10
10.1192184295
 20
7.732082508
 30
0.0
 10
10.114739201
 20
7.7355998383
 30
0.0
 10
10.1090970944
 20
7.7406892495
 30
0.0
 10
10.102717701
 20
7.7477512111
 30
0.0
 10
10.0973642804
 20
7.7556082743
 30
0.0
 10
10.0937694352
 20
7.7622681171
 30
0.0
 10
10.0914327099
 20
7.7674191364
 30
0.0
 10
10.0894665146
 20
7.772701708
 30
0.0
 10
10.0878811857
 20
7.7780879281
 30
0.0
 10
10.086685271
 20
7.783549018
 30
0.0
 10
10.0858851885
 20
7.7890558769
 30
0.0
 10
10.0854852697
 20
7.7945791271
 30
0.0
 10
10.0854877143
 20
7.8000892973
 30
0.0
 10
10.0858925752
 20
7.8055569698
 30
0.0
 10
10.0866977521
 20
7.8109529409
 30
0.0
 10
10.0878990081
 20
7.816248375
 30
0.0
 10
10.0894899873
 20
7.8214149593
 30
0.0
 10
10.0914622436
 20
7.8264250527
 30
0.0
 10
10.0938052905
 20
7.8312518448
 30
0.0
 10
10.0965066198
 20
7.8358694669
 30
0.0
 10
10.0995518959
 20
7.8402532636
 30
0.0
 10
10.1029245286
 20
7.8443794581
 30
0.0
 10
10.1053802527
 20
7.8469448589
 30
0.0
 10
10.1066553575
 20
7.8481765126
 30
0.0
  0
SPLINE
  5
348
100
AcDbEntity
  8
0
100
AcDbSpline
 62
7
  6
CONTINUOUS
 70
0
 71
3
 72
12
 73
8
 74
0
 42
0.0000001
 43
0.0000001
 44
0.0000000001
 40
0.0
 40
0.0
 40
0.0
 40
0.0
 40
0.2446296673
 40
0.3682667787
 40
0.492795602
 40
0.7445485637
 40
1.0
 40
1.0
 40
1.0
 40
1.0
 10
10.3721056232
 20
8.3217170927
 30
0.0
 10
10.3691414636
 20
8.3221526874
 30
0.0
 10
10.364705596
 20
8.3230093283
 30
0.0
 10
10.3588651285
 20
8.3245353849
 30
0.0
 10
10.3530112674
 20
8.3263351995
 30
0.0
 10
10.3457662485
 20
8.3290760651
 30
0.0
 10
10.3401483937
 20
8.3317447158
 30
0.0
 10
10.3373776017
 20
8.3331974405
 30
0.0
  0
SPLINE
  5
349
100
AcDbEntity
  8
0
100
AcDbSpline
 62
7
  6
CONTINUOUS
 70
0
 71
3
 72
11
 73
7
 74
0
 42
0.0000001
 43
0.0000001
 44
0.0000000001
 40
0.0
 40
0.0
 40
0.0
 40
0.0
 40
0.2432430349
 40
0.4892469432
 40
0.7406730755
 40
1.0
 40
1.0
 40
1.0
 40
1.0
 10
10.6243696074
 20
10.3840516803
 30
0.0
 10
10.624369605
 20
10.3851183274
 30
0.0
 10
10.6244891852
 20
10.3872655806
 30
0.0
 10
10.6250260616
 20
10.390475031
 30
0.0
 10
10.6259193054
 20
10.3936770371
 30
0.0
 10
10.6267366333
 20
10.3957667143
 30
0.0
 10
10.6271991273
 20
10.3968055936
 30
0.0
  0
SPLINE
  5
34A
100
AcDbEntity
  8
0
100
AcDbSpline
 62
7
  6
CONTINUOUS
 70
0
 71
3
 72
39
 73
35
 74
0
 42
0.0000001
 43
0.0000001
 44
0.0000000001
 40
0.0
 40
0.0
 40
0.0
 40
0.0
 40
0.0311082285
 40
0.0619974539
 40
0.0926835549
 40
0.1231901679
 40
0.1535491903
 40
0.1837984803
 40
0.2139798343
 40
0.2441369044
 40
0.2743131064
 40
0.3045497504
 40
0.3348845123
 40
0.3653502335
 40
0.3959740139
 40
0.4267766392
 40
0.4577722677
 40
0.4889683093
 40
0.5203654531
 40
0.5519578263
 40
0.5837332459
 40
0.615673535
 40
0.6477549485
 40
0.6799487147
 40
0.7122216968
 40
0.7445371807
 40
0.776855911
 40
0.8091373402
 40
0.8413410461
 40
0.8734283386
 40
0.9053640719
 40
0.9371184571
 40
0.9686682501
 40
1.0
 40
1.0
 40
1.0
 40
1.0
 10
10.4973832216
 20
8.206300095
 30
0.0
 10
10.4973832216
 20
8.2022949905
 30
0.0
 10
10.4969712668
 20
8.1943065382
 30
0.0
 10
10.495109302
 20
8.1824985644
 30
0.0
 10
10.4920287929
 20
8.1710269981
 30
0.0
 10
10.4877678223
 20
8.1600129716
 30
0.0
 10
10.4823785709
 20
8.1495680099
 30
0.0
 10
10.4759254151
 20
8.1397950137
 30
0.0
 10
10.4684831836
 20
8.1307865111
 30
0.0
 10
10.4601353683
 20
8.1226241064
 30
0.0
 10
10.4509722184
 20
8.1153782407
 30
0.0
 10
10.4410890589
 20
8.1091083639
 30
0.0
 10
10.4305848826
 20
8.1038632865
 30
0.0
 10
10.4195611917
 20
8.0996816761
 30
0.0
 10
10.4081210619
 20
8.0965927264
 30
0.0
 10
10.3963685072
 20
8.0946167394
 30
0.0
 10
10.3844080418
 20
8.0937656316
 30
0.0
 10
10.3723443981
 20
8.0940432979
 30
0.0
 10
10.3602823448
 20
8.0954459154
 30
0.0
 10
10.3483265709
 20
8.0979620357
 30
0.0
 10
10.3365815684
 20
8.1015725372
 30
0.0
 10
10.3251514428
 20
8.1062503824
 30
0.0
 10
10.314139635
 20
8.1119603343
 30
0.0
 10
10.3036484908
 20
8.1186585591
 30
0.0
 10
10.2937786491
 20
8.1262921859
 30
0.0
 10
10.2846281494
 20
8.1347988207
 30
0.0
 10
10.2762913497
 20
8.1441062449
 30
0.0
 10
10.2688576133
 20
8.1541322668
 30
0.0
 10
10.2624097362
 20
8.1647847531
 30
0.0
 10
10.2570221541
 20
8.175962051
 30
0.0
 10
10.252759231
 20
8.1875536506
 30
0.0
 10
10.2496735568
 20
8.1994420771
 30
0.0
 10
10.2478040188
 20
8.2115018544
 30
0.0
 10
10.2473832114
 20
8.2196036422
 30
0.0
 10
10.247383208
 20
8.2236375245
 30
0.0
  0
SPLINE
  5
34B
100
AcDbEntity
  8
0
100
AcDbSpline
 62
7
  6
CONTINUOUS
 70
0
 71
3
 72
41
 73
37
 74
0
 42
0.0000001
 43
0.0000001
 44
0.0000000001
 40
0.0
 40
0.0
 40
0.0
 40
0.0
 40
0.0761045125
 40
0.1533640536
 40
0.2310947966
 40
0.3086066342
 40
0.3470661279
 40
0.3852137617
 40
0.422965303
 40
0.4602376738
 40
0.4969492092
 40
0.5330199063
 40
0.5683716834
 40
0.602928646
 40
0.6366173801
 40
0.6693672547
 40
0.7011107167
 40
0.7317836229
 40
0.7613256076
 40
0.7896805113
 40
0.8167968801
 40
0.8426285084
 40
0.8671351182
 40
0.8902832146
 40
0.9013399809
 40
0.9120482875
 40
0.9224063604
 40
0.9324131777
 40
0.9420685251
 40
0.9513729307
 40
0.9603279659
 40
0.9689361507
 40
0.9772014048
 40
0.9851291396
 40
0.9927260306
 40
1.0
 40
1.0
 40
1.0
 40
1.0
 10
11.2062547056
 20
5.8364430528
 30
0.0
 10
11.218162293
 20
5.8356172589
 30
0.0
 10
11.2421818596
 20
5.8342788652
 30
0.0
 10
11.278414201
 20
5.8331964866
 30
0.0
 10
11.3148831218
 20
5.8330288372
 30
0.0
 10
11.3452603607
 20
5.8336542343
 30
0.0
 10
11.3694136823
 20
5.834616605
 30
0.0
 10
11.3873251507
 20
5.8355635612
 30
0.0
 10
11.4050367244
 20
5.8367351913
 30
0.0
 10
11.4225063074
 20
5.8381287152
 30
0.0
 10
11.4396923412
 20
5.8397407883
 30
0.0
 10
11.4565539574
 20
5.8415675532
 30
0.0
 10
11.4730510601
 20
5.8436046369
 30
0.0
 10
11.4891444262
 20
5.8458471648
 30
0.0
 10
11.5047958037
 20
5.8482897665
 30
0.0
 10
11.5199680066
 20
5.8509265855
 30
0.0
 10
11.5346250032
 20
5.8537513015
 30
0.0
 10
11.5487320024
 20
5.8567571431
 30
0.0
 10
11.5622555405
 20
5.8599369057
 30
0.0
 10
11.5751635782
 20
5.8632829682
 30
0.0
 10
11.5874255682
 20
5.8667873052
 30
0.0
 10
11.5990126099
 20
5.8704415217
 30
0.0
 10
11.6098972712
 20
5.8742368823
 30
0.0
 10
11.6184878934
 20
5.8775585613
 30
0.0
 10
11.6249827051
 20
5.8802867744
 30
0.0
 10
11.6295878294
 20
5.8823312274
 30
0.0
 10
11.6339989654
 20
5.8844040957
 30
0.0
 10
11.6382135183
 20
5.8865041793
 30
0.0
 10
11.6422290197
 20
5.8886302074
 30
0.0
 10
11.6460430852
 20
5.8907809847
 30
0.0
 10
11.6496534925
 20
5.8929551852
 30
0.0
 10
11.6530581193
 20
5.8951515806
 30
0.0
 10
11.6562549981
 20
5.8973689222
 30
0.0
 10
11.6592423312
 20
5.8996059805
 30
0.0
 10
11.6620182088
 20
5.9018614276
 30
0.0
 10
11.6637640147
 20
5.903409448
 30
0.0
 10
11.6645991765
 20
5.9041866432
 30
0.0
  0
SPLINE
  5
34C
100
AcDbEntity
  8
0
100
AcDbSpline
 62
7
  6
CONTINUOUS
 70
0
 71
3
 72
32
 73
28
 74
0
 42
0.0000001
 43
0.0000001
 44
0.0000000001
 40
0.0
 40
0.0
 40
0.0
 40
0.0
 40
0.0750270944
 40
0.1507174727
 40
0.2269511485
 40
0.303532786
 40
0.3801435459
 40
0.418318674
 40
0.4563006214
 40
0.5312844402
 40
0.6041759266
 40
0.6394952754
 40
0.67386391
 40
0.7071307782
 40
0.739149806
 40
0.7697850795
 40
0.7989160542
 40
0.8264429983
 40
0.8522908042
 40
0.8764116941
 40
0.8987879544
 40
0.9194350912
 40
0.9384040816
 40
0.9557850848
 40
0.9717127915
 40
0.9863716421
 40
1.0
 40
1.0
 40
1.0
 40
1.0
 10
11.1919954037
 20
8.2787054087
 30
0.0
 10
11.1922397446
 20
8.2750612143
 30
0.0
 10
11.1930365885
 20
8.2677577861
 30
0.0
 10
11.1951149203
 20
8.2568958643
 30
0.0
 10
11.1980422428
 20
8.2461530804
 30
0.0
 10
11.201757517
 20
8.2356109083
 30
0.0
 10
11.2054447019
 20
8.2270480837
 30
0.0
 10
11.2087000983
 20
8.2203606046
 30
0.0
 10
11.2121126746
 20
8.2138411611
 30
0.0
 10
11.2166347739
 20
8.2059996848
 30
0.0
 10
11.2214444193
 20
8.1984867405
 30
0.0
 10
11.2253450132
 20
8.1927452945
 30
0.0
 10
11.2282232897
 20
8.1886420594
 30
0.0
 10
11.2310551117
 20
8.1847030004
 30
0.0
 10
11.2338102838
 20
8.1809329027
 30
0.0
 10
11.236459242
 20
8.1773346237
 30
0.0
 10
11.2389737178
 20
8.1739088786
 30
0.0
 10
11.2413273957
 20
8.1706542626
 30
0.0
 10
11.243496436
 20
8.167567397
 30
0.0
 10
11.2454597479
 20
8.1646431579
 30
0.0
 10
11.2471990807
 20
8.1618749301
 30
0.0
 10
11.2486991271
 20
8.1592550429
 30
0.0
 10
11.2499472859
 20
8.1567750575
 30
0.0
 10
11.2509332228
 20
8.1544261895
 30
0.0
 10
11.2516483946
 20
8.1521994296
 30
0.0
 10
11.2520856927
 20
8.1500872758
 30
0.0
 10
11.252190636
 20
8.1487089643
 30
0.0
 10
11.2521906438
 20
8.1480455253
 30
0.0
  0
SPLINE
  5
34D
100
AcDbEntity
  8
0
100
AcDbSpline
 62
7
  6
CONTINUOUS
 70
0
 71
3
 72
40
 73
36
 74
0
 42
0.0000001
 43
0.0000001
 44
0.0000000001
 40
0.0
 40
0.0
 40
0.0
 40
0.0
 40
0.0958313936
 40
0.1891002636
 40
0.2345968559
 40
0.2792418231
 40
0.3229685191
 40
0.3657121987
 40
0.4074103657
 40
0.4480029213
 40
0.4874324913
 40
0.5256446262
 40
0.5625879545
 40
0.5982146421
 40
0.632480706
 40
0.6653462654
 40
0.6967761768
 40
0.726740613
 40
0.7552155871
 40
0.7821839784
 40
0.8076366943
 40
0.8315738914
 40
0.8540069425
 40
0.8749609194
 40
0.8944774765
 40
0.9126189061
 40
0.9294731629
 40
0.9451593854
 40
0.9598338584
 40
0.9668558876
 40
0.9737029112
 40
0.9804063068
 40
0.9869997133
 40
0.9935186461
 40
1.0
 40
1.0
 40
1.0
 40
1.0
 10
10.3620354834
 20
9.3066402706
 30
0.0
 10
10.3522681926
 20
9.3073176346
 30
0.0
 10
10.3330089457
 20
9.3088690945
 30
0.0
 10
10.3091679733
 20
9.3113570324
 30
0.0
 10
10.2905706285
 20
9.3136554784
 30
0.0
 10
10.2770196759
 20
9.315509924
 30
0.0
 10
10.2637732187
 20
9.3175060361
 30
0.0
 10
10.2508533629
 20
9.3196404751
 30
0.0
 10
10.2382817013
 20
9.3219096389
 30
0.0
 10
10.2260792363
 20
9.324309731
 30
0.0
 10
10.2142663403
 20
9.3268367076
 30
0.0
 10
10.2028627252
 20
9.3294863073
 30
0.0
 10
10.1918874161
 20
9.3322540919
 30
0.0
 10
10.1813587028
 20
9.3351354033
 30
0.0
 10
10.1712941082
 20
9.3381253822
 30
0.0
 10
10.1617103696
 20
9.3412190233
 30
0.0
 10
10.1526233898
 20
9.3444111368
 30
0.0
 10
10.1440482001
 20
9.3476963583
 30
0.0
 10
10.1359989511
 20
9.3510692226
 30
0.0
 10
10.1284888621
 20
9.3545241399
 30
0.0
 10
10.1215301756
 20
9.3580554041
 30
0.0
 10
10.1151341636
 20
9.3616573014
 30
0.0
 10
10.1093110894
 20
9.3653241321
 30
0.0
 10
10.1040701749
 20
9.3690502378
 30
0.0
 10
10.0994196753
 20
9.3728302191
 30
0.0
 10
10.0953670101
 20
9.37665893
 30
0.0
 10
10.0919188128
 20
9.380531864
 30
0.0
 10
10.0890817895
 20
9.3844441129
 30
0.0
 10
10.0872052889
 20
9.3877829948
 30
0.0
 10
10.0860355176
 20
9.3904564362
 30
0.0
 10
10.085327301
 20
9.3924372491
 30
0.0
 10
10.0847759371
 20
9.3944219618
 30
0.0
 10
10.0843817724
 20
9.3964097611
 30
0.0
 10
10.0841451875
 20
9.3983995011
 30
0.0
 10
10.0840925529
 20
9.3997282864
 30
0.0
 10
10.0840925563
 20
9.4003904631
 30
0.0
  0
SPLINE
  5
34E
100
AcDbEntity
  8
0
100
AcDbSpline
 62
7
  6
CONTINUOUS
 70
0
 71
3
 72
41
 73
37
 74
0
 42
0.0000001
 43
0.0000001
 44
0.0000000001
 40
0.0
 40
0.0
 40
0.0
 40
0.0
 40
0.0071758425
 40
0.0146741453
 40
0.0225035656
 40
0.0306713257
 40
0.0391834036
 40
0.0480443729
 40
0.0572572157
 40
0.0668238661
 40
0.0767452117
 40
0.087021259
 40
0.0976512753
 40
0.1086336553
 40
0.1316452786
 40
0.1560326285
 40
0.1817628121
 40
0.2087958578
 40
0.2370856249
 40
0.2665805114
 40
0.2972240455
 40
0.3289554128
 40
0.3617098907
 40
0.3954192316
 40
0.4300120033
 40
0.4654138991
 40
0.5015480605
 40
0.5383353682
 40
0.5756947176
 40
0.6135432851
 40
0.6517967846
 40
0.6903697386
 40
0.7681261117
 40
0.8461161118
 40
0.923638923
 40
1.0
 40
1.0
 40
1.0
 40
1.0
 10
11.6664998996
 20
9.3166562144
 30
0.0
 10
11.6656881956
 20
9.3158721684
 30
0.0
 10
11.6639879456
 20
9.3143102178
 30
0.0
 10
11.6612762291
 20
9.3120344697
 30
0.0
 10
11.6583498277
 20
9.3097767813
 30
0.0
 10
11.6552106459
 20
9.3075386066
 30
0.0
 10
11.6518605226
 20
9.3053211594
 30
0.0
 10
11.6483013839
 20
9.3031257441
 30
0.0
 10
11.6445353492
 20
9.3009535815
 30
0.0
 10
11.6405646386
 20
9.2988060143
 30
0.0
 10
11.6363916264
 20
9.2966843016
 30
0.0
 10
11.6320188016
 20
9.2945896967
 30
0.0
 10
11.6274487511
 20
9.2925234651
 30
0.0
 10
11.6209952213
 20
9.2897649189
 30
0.0
 10
11.6124478093
 20
9.2864056672
 30
0.0
 10
11.6016043475
 20
9.2825671089
 30
0.0
 10
11.5900461143
 20
9.278870088
 30
0.0
 10
11.5778007933
 20
9.2753235469
 30
0.0
 10
11.5648975815
 20
9.2719360865
 30
0.0
 10
11.55136738
 20
9.2687159269
 30
0.0
 10
11.5372426281
 20
9.2656708794
 30
0.0
 10
11.5225572327
 20
9.262808334
 30
0.0
 10
11.5073464703
 20
9.2601352372
 30
0.0
 10
11.4916469
 20
9.257658076
 30
0.0
 10
11.4754962749
 20
9.2553828621
 30
0.0
 10
11.4589334493
 20
9.2533151083
 30
0.0
 10
11.4419982796
 20
9.2514598248
 30
0.0
 10
11.4247315245
 20
9.2498215079
 30
0.0
 10
11.4071747422
 20
9.2484041263
 30
0.0
 10
11.3893702065
 20
9.2472111235
 30
0.0
 10
11.3713607487
 20
9.246245363
 30
0.0
 10
11.347069069
 20
9.2452613239
 30
0.0
 10
11.3165119224
 20
9.2446158509
 30
0.0
 10
11.2798224387
 20
9.24477052
 30
0.0
 10
11.243368154
 20
9.2458510244
 30
0.0
 10
11.2192010609
 20
9.2471956359
 30
0.0
 10
11.2072206315
 20
9.2480264815
 30
0.0
  0
ELLIPSE
  5
34F
100
AcDbEntity
  8
0
100
AcDbEllipse
 62
7
  6
CONTINUOUS
 10
11.1876247011
 20
8.1584316553
 30
0.0
 11
0.1198361654
 21
-0.0537191407
 31
0.0
 40
0.9054325776
 41
0.0
 42
6.2831853072
  0
ENDSEC
  0
SECTION
  2
OBJECTS
  0
DICTIONARY
  5
C
100
AcDbDictionary
280
0
281
1
  3
ACAD_GROUP
350
D
  3
ACAD_MLINESTYLE
350
17
  3
ACAD_LAYOUT
350
1A
  3
ACAD_PLOTSETTINGS
350
19
  3
ACAD_PLOTSTYLENAME
350
E
  3
ACAD_IMAGE_DICT
350
       351
  3
ACAD_IMAGE_VARS
350
       352
  3
ACAD_TABLESTYLE
350
       353
  0
IMAGEDEF_REACTOR
  5
350
100
AcDbRasterImageDefReactor
 90
2
330
272
  0
DICTIONARY
  5
D
102
{ACAD_REACTORS
330
C
102
}
100
AcDbDictionary
280
0
281
1
  0
ACDBDICTIONARYWDFLT
  5
E
102
{ACAD_REACTORS
330
C
102
}
100
AcDbDictionary
281
1
  3
Normal
350
F
100
AcDbDictionaryWithDefault
340
F
  0
DICTIONARY
  5
351
330
C
100
AcDbDictionary
281
1
  3
EB4_assy_2_img_1
350
       356
  0
RASTERVARIABLES
  5
352
330
C
100
AcDbRasterVariables
 90
0
 70
0
 71
1
 72
5
  0
DICTIONARY
  5
17
102
{ACAD_REACTORS
330
C
102
}
100
AcDbDictionary
280
0
281
1
  3
Standard
350
18
  0
DICTIONARY
  5
353
330
C
100
AcDbDictionary
281
1
  3
Standard
350
       357
  3
Standard1
350
       358
  0
DICTIONARY
  5
19
102
{ACAD_REACTORS
330
C
102
}
100
AcDbDictionary
281
1
  0
DICTIONARY
  5
1A
102
{ACAD_REACTORS
330
C
102
}
100
AcDbDictionary
281
1
  3
Model
350
354
  3
Layout1
350
355
  0
ACDBPLACEHOLDER
  5
F
102
{ACAD_REACTORS
330
E
102
}
  0
MLINESTYLE
  5
18
102
{ACAD_REACTORS
330
17
102
}
100
AcDbMlineStyle
  2
STANDARD
 70
0
  3

 62
256
 51
90.0
 52
90.0
 71
2
 49
0.5
 62
256
  6
BYLAYER
 49
-0.5
 62
256
  6
BYLAYER
  0
LAYOUT
  5
354
102
{ACAD_REACTORS
330
1A
102
}
100
AcDbPlotSettings
  1

  2
none_device
  4
ANSI_C_(22.00_x_17.00_Inches)
  6

 40
0.0
 41
0.0
 42
0.0
 43
0.0
 44
558.8
 45
431.8
 46
0.0
 47
0.0
 48
0.0
 49
0.0
140
0.0
141
0.0
142
1.0
143
1.0
 70
1024
 72
0
 73
0
 74
0
  7

 75
0
147
1.0
148
0.0
149
0.0
100
AcDbLayout
  1
Model
 70
0
 71
0
 10
0.0
 20
0.0
 11
22.0
 21
17.0
 12
0.0
 22
0.0
 32
0.0
 14
0.0
 24
0.0
 34
0.0
 15
0.0
 25
0.0
 35
0.0
146
0.0
 13
0.0
 23
0.0
 33
0.0
 16
1.0
 26
0.0
 36
0.0
 17
0.0
 27
1.0
 37
0.0
 76
0
330
20C
345
0
346
0
  0
LAYOUT
  5
355
102
{ACAD_REACTORS
330
1A
102
}
100
AcDbPlotSettings
  1

  2
none_device
  4
ANSI_C_(22.00_x_17.00_Inches)
  6

 40
0.0
 41
0.0
 42
0.0
 43
0.0
 44
558.8
 45
431.8
 46
0.0
 47
0.0
 48
0.0
 49
0.0
140
0.0
141
0.0
142
1.0
143
1.0
 70
0
 72
0
 73
0
 74
0
  7

 75
0
147
1.0
148
0.0
149
0.0
100
AcDbLayout
  1
Layout1
 70
0
 71
1
 10
0.0
 20
0.0
 11
22.0
 21
17.0
 12
0.0
 22
0.0
 32
0.0
 14
0.0
 24
0.0
 34
0.0
 15
0.0
 25
0.0
 35
0.0
146
0.0
 13
0.0
 23
0.0
 33
0.0
 16
1.0
 26
0.0
 36
0.0
 17
0.0
 27
1.0
 37
0.0
 76
0
330
20D
345
0
346
0
  0
IMAGEDEF
  5
356
102
{ACAD_REACTORS
330
351
330
350
102
}
100
AcDbRasterImageDef
 90
0
  1
EB4_assy_2_img_1.png
 10
369.0
 20
92.0
 11
0.0066666667
 21
0.0066666667
280
1
281
0
  0
TABLESTYLE
  5
357
102
{ACAD_REACTORS
330
353
330
275
102
}
330
353
100
AcDbTableStyle
  3
Standard
 70
0
 71
0
 40
0.06
 41
0.06
280
1
281
1
  7
Standard
140
0.18
170
1
 62
0
 63
7
283
0
  7
Standard
140
0.18
170
1
 62
0
 63
7
283
0
  7
Standard
140
0.18
170
1
 62
0
 63
7
283
0
  0
TABLESTYLE
  5
358
102
{ACAD_REACTORS
330
353
330
274
102
}
330
353
100
AcDbTableStyle
  3
Standard1
 70
1
 71
0
 40
0.06
 41
0.06
280
1
281
1
  7
Standard
140
0.18
170
1
 62
0
 63
7
283
0
  7
Standard
140
0.18
170
1
 62
0
 63
7
283
0
  7
Standard
140
0.18
170
1
 62
0
 63
7
283
0
  0
ENDSEC
  0
EOF
