999
DXF file: EB3_assy_2.dxf
999
Pro/ENGINEER 2014200 by Parametric Technology Corporation
  0
SECTION
  2
HEADER
  9
$ACADVER
  1
AC1021
  9
$DWGCODEPAGE
  3
ANSI_1252
  9
$EXTMAX
 10
22.0
 20
17.0
 30
0.0
  9
$EXTMIN
 10
0.0
 20
0.0
 30
0.0
  9
$LIMMIN
 10
0.0
 20
0.0
  9
$LIMMAX
 10
22.0
 20
17.0
  9
$VIEWCTR
 10
11.0
 20
8.5
  9
$VIEWSIZE
 40
17.0
  9
$CLAYER
  8
0
  9
$LTSCALE
 40
1.21
  9
$CELTYPE
  6
BYLAYER
  9
$DIMSCALE
 40
1.0
  9
$DIMASZ
 40
0.1875
  9
$DIMEXO
 40
0.0625
  9
$DIMDLI
 40
0.836
  9
$DIMEXE
 40
0.125
  9
$DIMCEN
 40
0.198
  9
$DIMLFAC
 40
1.0
  9
$DIMBLK
  1
_FILLED
  9
$DIMTXT
 40
0.1
  9
$DIMTOL
 70
0
  9
$DIMLIM
 70
0
  9
$DIMTFAC
 40
1.0
  9
$DIMGAP
 40
0.09
  9
$DIMDSEP
 70
46
  9
$AUNITS
 70
0
  9
$PDMODE
 70
3
  9
$PDSIZE
 40
0.3125
  9
$HANDSEED
  5
356
  9
$TILEMODE
 70
1
  9
$MEASUREMENT
 70
0
  9
$INSUNITS
 70
1
  0
ENDSEC
  0
SECTION
  2
CLASSES
  0
CLASS
  1
ACDBDICTIONARYWDFLT
  2
AcDbDictionaryWithDefault
  3
AutoCAD 2000
 90
0
 91
1
280
0
281
0
  0
CLASS
  1
ACDBPLACEHOLDER
  2
AcDbPlaceHolder
  3
AutoCAD 2000
 90
0
 91
1
280
0
281
0
  0
CLASS
  1
LAYOUT
  2
AcDbLayout
  3
AutoCAD 2000
 90
0
 91
0
280
0
281
0
  0
CLASS
  1
RASTERVARIABLES
  2
AcDbRasterVariables
  3
ISM
 90
0
 91
1
280
0
281
0
  0
CLASS
  1
IMAGEDEF
  2
AcDbRasterImageDef
  3
ISM
 90
0
 91
1
280
0
281
0
  0
CLASS
  1
IMAGEDEF_REACTOR
  2
AcDbRasterImageDefReactor
  3
ISM
 90
0
 91
1
280
0
281
0
  0
CLASS
  1
IMAGE
  2
AcDbRasterImage
  3
ISM
 90
127
 91
1
280
0
281
1
  0
CLASS
  1
TABLESTYLE
  2
AcDbTableStyle
  3
ObjectDBX Classes
 90
2047
 91
1
280
0
281
0
  0
CLASS
  1
ACAD_TABLE
  2
AcDbTable
  3
ObjectDBX Classes
 90
1025
 91
2
280
0
281
1
  0
ENDSEC
  0
SECTION
  2
TABLES
  0
TABLE
  2
VPORT
  5
8
100
AcDbSymbolTable
 70
2
  0
VPORT
  5
1F4
100
AcDbSymbolTableRecord
100
AcDbViewportTableRecord
  2
*ACTIVE
 70
0
 10
0.0
 20
0.0
 11
1.0
 21
1.0
 12
11.0
 22
8.5
 13
0.0
 23
0.0
 14
1.0
 24
1.0
 15
0.0
 25
0.0
 16
0.0
 26
0.0
 36
1.0
 17
0.0
 27
0.0
 37
0.0
 40
17.0
 41
1.2941176471
 42
50.0
 43
0.0
 44
0.0
 50
0.0
 51
0.0
 71
0
 72
100
 73
1
 74
1
 75
0
 76
0
 77
0
 78
0
  0
ENDTAB
  0
TABLE
  2
LTYPE
  5
5
100
AcDbSymbolTable
 70
6
  0
LTYPE
  5
14
100
AcDbSymbolTableRecord
100
AcDbLinetypeTableRecord
  2
BYBLOCK
 70
0
  3

 72
65
 73
0
 40
0.0
  0
LTYPE
  5
15
100
AcDbSymbolTableRecord
100
AcDbLinetypeTableRecord
  2
BYLAYER
 70
0
  3

 72
65
 73
0
 40
0.0
  0
LTYPE
  5
16
100
AcDbSymbolTableRecord
100
AcDbLinetypeTableRecord
  2
CONTINUOUS
 70
64
  3
Solid line
 72
65
 73
0
 40
0.0
  0
LTYPE
  5
1F5
100
AcDbSymbolTableRecord
100
AcDbLinetypeTableRecord
  2
CENTER
 70
64
  3
____ _ ____ _ ____ _ ____ _ ____ _ ____ _ ____
 72
65
 73
4
 40
0.6
 49
0.375
 74
0
 49
-0.075
 74
0
 49
0.075
 74
0
 49
-0.075
 74
0
  0
LTYPE
  5
1F6
100
AcDbSymbolTableRecord
100
AcDbLinetypeTableRecord
  2
HIDDEN
 70
64
  3
- - - - - - - - - - - - - - - - - - - -
 72
65
 73
2
 40
0.2
 49
0.1
 74
0
 49
-0.1
 74
0
  0
LTYPE
  5
1F7
100
AcDbSymbolTableRecord
100
AcDbLinetypeTableRecord
  2
PHANTOM
 70
64
  3
_____ _ _ _____ _ _ _____ _ _ _____
 72
65
 73
6
 40
0.8
 49
0.45
 74
0
 49
-0.05
 74
0
 49
0.1
 74
0
 49
-0.05
 74
0
 49
0.1
 74
0
 49
-0.05
 74
0
  0
LTYPE
  5
1F8
100
AcDbSymbolTableRecord
100
AcDbLinetypeTableRecord
  2
DOT
 70
64
  3
. . . . . . . . . . . . . . . . . . . .
 72
65
 73
2
 40
0.2
 49
0.1
 74
0
 49
-0.1
 74
0
  0
LTYPE
  5
1F9
100
AcDbSymbolTableRecord
100
AcDbLinetypeTableRecord
  2
DASHED
 70
64
  3
- - - - - - - - - - - - - - - - - - - -
 72
65
 73
2
 40
0.2
 49
0.1
 74
0
 49
-0.1
 74
0
  0
ENDTAB
  0
TABLE
  2
LAYER
  5
2
100
AcDbSymbolTable
 70
36
  0
LAYER
  5
10
100
AcDbSymbolTableRecord
100
AcDbLayerTableRecord
  2
0
 70
0
 62
7
  6
CONTINUOUS
370
-3
390
F
  0
LAYER
  5
1FA
100
AcDbSymbolTableRecord
100
AcDbLayerTableRecord
  2
DEFAULT_1
 70
0
 62
7
  6
CENTER
370
-3
390
F
  0
LAYER
  5
1FB
100
AcDbSymbolTableRecord
100
AcDbLayerTableRecord
  2
DEFAULT_2
 70
0
 62
8
  6
HIDDEN
370
-3
390
F
  0
LAYER
  5
1FC
100
AcDbSymbolTableRecord
100
AcDbLayerTableRecord
  2
DEFAULT_3
 70
0
 62
7
  6
PHANTOM
370
-3
390
F
  0
LAYER
  5
1FD
100
AcDbSymbolTableRecord
100
AcDbLayerTableRecord
  2
01___PRT_ALL_DTM_PLN
 70
0
 62
7
  6
CONTINUOUS
370
-3
390
F
  0
LAYER
  5
1FE
100
AcDbSymbolTableRecord
100
AcDbLayerTableRecord
  2
01___PRT_DEF_DTM_PLN
 70
0
 62
7
  6
CONTINUOUS
370
-3
390
F
  0
LAYER
  5
1FF
100
AcDbSymbolTableRecord
100
AcDbLayerTableRecord
  2
02___PRT_ALL_AXES
 70
0
 62
7
  6
CONTINUOUS
370
-3
390
F
  0
LAYER
  5
200
100
AcDbSymbolTableRecord
100
AcDbLayerTableRecord
  2
03___PRT_ALL_CURVES
 70
0
 62
7
  6
CONTINUOUS
370
-3
390
F
  0
LAYER
  5
201
100
AcDbSymbolTableRecord
100
AcDbLayerTableRecord
  2
04___PRT_ALL_DTM_PNT
 70
0
 62
7
  6
CONTINUOUS
370
-3
390
F
  0
LAYER
  5
202
100
AcDbSymbolTableRecord
100
AcDbLayerTableRecord
  2
05___PRT_ALL_DTM_CSYS
 70
0
 62
7
  6
CONTINUOUS
370
-3
390
F
  0
LAYER
  5
203
100
AcDbSymbolTableRecord
100
AcDbLayerTableRecord
  2
05___PRT_DEF_DTM_CSYS
 70
0
 62
7
  6
CONTINUOUS
370
-3
390
F
  0
LAYER
  5
204
100
AcDbSymbolTableRecord
100
AcDbLayerTableRecord
  2
06___PRT_ALL_SURFS
 70
0
 62
7
  6
CONTINUOUS
370
-3
390
F
  0
LAYER
  5
205
100
AcDbSymbolTableRecord
100
AcDbLayerTableRecord
  2
DATUM_PLANES
 70
0
 62
7
  6
CONTINUOUS
370
-3
390
F
  0
LAYER
  5
206
100
AcDbSymbolTableRecord
100
AcDbLayerTableRecord
  2
DIMENSIONS
 70
0
 62
7
  6
CONTINUOUS
370
-3
390
F
  0
LAYER
  5
207
100
AcDbSymbolTableRecord
100
AcDbLayerTableRecord
  2
PARAMETERDIMENSIONS
 70
0
 62
7
  6
CONTINUOUS
370
-3
390
F
  0
LAYER
  5
208
100
AcDbSymbolTableRecord
100
AcDbLayerTableRecord
  2
PLANE
 70
0
 62
7
  6
CONTINUOUS
370
-3
390
F
  0
LAYER
  5
209
100
AcDbSymbolTableRecord
100
AcDbLayerTableRecord
  2
PORT_AREAS
 70
0
 62
7
  6
CONTINUOUS
370
-3
390
F
  0
LAYER
  5
20A
100
AcDbSymbolTableRecord
100
AcDbLayerTableRecord
  2
SUNNBOMCOSMETIC
 70
0
 62
7
  6
CONTINUOUS
370
-3
390
F
  0
LAYER
  5
20B
100
AcDbSymbolTableRecord
100
AcDbLayerTableRecord
  2
SUNNBOMSTAMPING
 70
0
 62
7
  6
CONTINUOUS
370
-3
390
F
  0
LAYER
  5
20C
100
AcDbSymbolTableRecord
100
AcDbLayerTableRecord
  2
THREADS
 70
0
 62
7
  6
CONTINUOUS
370
-3
390
F
  0
ENDTAB
  0
TABLE
  2
STYLE
  5
3
100
AcDbSymbolTable
 70
1
  0
STYLE
  5
11
100
AcDbSymbolTableRecord
100
AcDbTextStyleTableRecord
  2
STANDARD
 70
0
 40
0.0
 41
0.8
 50
0.0
 71
0
 42
0.2
  3
txt
  4

  0
STYLE
  5
20D
100
AcDbSymbolTableRecord
100
AcDbTextStyleTableRecord
  2
TEXTSTYLE_1
 70
0
 40
0.0
 41
0.8
 50
0.0
 71
0
 42
0.2
  3
gdt
  4

  0
ENDTAB
  0
TABLE
  2
VIEW
  5
6
100
AcDbSymbolTable
 70
0
  0
ENDTAB
  0
TABLE
  2
UCS
  5
7
100
AcDbSymbolTable
 70
0
  0
ENDTAB
  0
TABLE
  2
APPID
  5
9
100
AcDbSymbolTable
 70
1
  0
APPID
  5
20E
100
AcDbSymbolTableRecord
100
AcDbRegAppTableRecord
  2
ACAD
 70
0
  0
ENDTAB
  0
TABLE
  2
BLOCK_RECORD
  5
1
100
AcDbSymbolTable
 70
0
  0
BLOCK_RECORD
  5
20F
100
AcDbSymbolTableRecord
100
AcDbBlockTableRecord
  2
*Model_Space
  0
BLOCK_RECORD
  5
210
100
AcDbSymbolTableRecord
100
AcDbBlockTableRecord
  2
*Paper_Space
  0
BLOCK_RECORD
  5
211
100
AcDbSymbolTableRecord
100
AcDbBlockTableRecord
  2
SUN_FIRST_THIRD_ANGLE_BL0
  0
BLOCK_RECORD
  5
212
100
AcDbSymbolTableRecord
100
AcDbBlockTableRecord
  2
*T1
  0
BLOCK_RECORD
  5
213
100
AcDbSymbolTableRecord
100
AcDbBlockTableRecord
  2
*T2
  0
ENDTAB
  0
TABLE
  2
DIMSTYLE
  5
A
100
AcDbSymbolTable
 70
1
100
AcDbDimStyleTable
 71
0
  0
DIMSTYLE
105
214
100
AcDbSymbolTableRecord
100
AcDbDimStyleTableRecord
  2
STANDARD
 70
0
  3

  4

 40
1.0
 41
0.1875
 42
0.0625
 43
0.38
 44
0.125
 45
0.0
 46
0.0
 47
0.001
 48
0.001
140
0.1
141
0.09
142
0.0
143
25.4
144
1.0
145
0.0
146
1.0
147
0.09
 71
0.0
 72
0.0
 73
1
 74
1
 75
0
 76
0
 77
0
 78
4
170
0
171
2
172
0
173
0
174
0
175
0
176
0
177
0
178
0
270
2
271
3
272
3
273
2
274
2
275
0
280
0
281
0
282
0
283
1
284
4
285
0
286
0
287
3
288
0
340
11
278
46
  0
ENDTAB
  0
ENDSEC
  0
SECTION
  2
BLOCKS
  0
BLOCK
  5
20
100
AcDbEntity
  8
0
100
AcDbBlockBegin
  2
*Model_Space
 70
0
 10
0.0
 20
0.0
 30
0.0
  3
*Model_Space
  1

  0
ENDBLK
  5
21
100
AcDbEntity
  8
0
100
AcDbBlockEnd
  0
BLOCK
  5
1C
100
AcDbEntity
  8
0
100
AcDbBlockBegin
  2
*Paper_Space
 70
0
 10
0.0
 20
0.0
 30
0.0
  3
*Paper_Space
  1

  0
ENDBLK
  5
1D
100
AcDbEntity
  8
0
100
AcDbBlockEnd
  0
BLOCK
  5
215
100
AcDbEntity
  8
0
100
AcDbBlockBegin
 62
2
  6
CONTINUOUS
  2
SUN_FIRST_THIRD_ANGLE_BL0
 70
64
 10
20.4816717061
 20
1.2289683772
  3
SUN_FIRST_THIRD_ANGLE_BL0
  1

  0
TEXT
  5
216
100
AcDbEntity
  8
0
100
AcDbText
 62
2
  6
CONTINUOUS
 10
19.4750896608
 20
1.4136269581
  7
STANDARD
 40
0.08
  1
FIRST ANGLE
 41
0.8
 72
0
100
AcDbText
  0
TEXT
  5
217
100
AcDbEntity
  8
0
100
AcDbText
 62
2
  6
CONTINUOUS
 10
20.7842537513
 20
1.4047600029
  7
STANDARD
 40
0.08
  1
THIRD ANGLE
 41
0.8
 72
0
100
AcDbText
  0
LINE
  5
218
100
AcDbEntity
  8
0
100
AcDbLine
 62
7
  6
CONTINUOUS
 10
19.4767170086
 20
1.1727031207
 11
19.6334271527
 21
1.1717972817
  0
LINE
  5
219
100
AcDbEntity
  8
0
100
AcDbLine
 62
7
  6
CONTINUOUS
 10
19.6596964832
 20
1.1717972817
 11
19.6950230232
 21
1.171593082
  0
LINE
  5
21A
100
AcDbEntity
  8
0
100
AcDbLine
 62
7
  6
CONTINUOUS
 10
19.7194818561
 20
1.1708914427
 11
19.8852396156
 21
1.1699333054
  0
LINE
  5
21B
100
AcDbEntity
  8
0
100
AcDbLine
 62
7
  6
CONTINUOUS
 10
19.4758111696
 20
1.2723454088
 11
19.88525039
 21
1.3511534004
  0
LINE
  5
21C
100
AcDbEntity
  8
0
100
AcDbLine
 62
7
  6
CONTINUOUS
 10
19.88525039
 20
1.3511534004
 11
19.8831348489
 21
0.9851647912
  0
LINE
  5
21D
100
AcDbEntity
  8
0
100
AcDbLine
 62
7
  6
CONTINUOUS
 10
19.8831348489
 20
0.9851647912
 11
19.4767170086
 21
1.0658141206
  0
LINE
  5
21E
100
AcDbEntity
  8
0
100
AcDbLine
 62
7
  6
CONTINUOUS
 10
19.4767170086
 20
1.0658141206
 11
19.4779056764
 21
1.2714536432
  0
CIRCLE
  5
21F
100
AcDbEntity
  8
0
100
AcDbCircle
 62
7
  6
CONTINUOUS
 10
20.2068232291
 20
1.1717972817
 40
0.175742101
  0
CIRCLE
  5
220
100
AcDbEntity
  8
0
100
AcDbCircle
 62
7
  6
CONTINUOUS
 10
20.2068232291
 20
1.1717972817
 40
0.1005522074
  0
LINE
  5
221
100
AcDbEntity
  8
0
100
AcDbLine
 62
7
  6
CONTINUOUS
 10
20.2077290681
 20
1.3756110529
 11
20.2071171714
 21
1.2379342989
  0
LINE
  5
222
100
AcDbEntity
  8
0
100
AcDbLine
 62
7
  6
CONTINUOUS
 10
20.2077290681
 20
1.2016899681
 11
20.2074674401
 21
1.1428236749
  0
LINE
  5
223
100
AcDbEntity
  8
0
100
AcDbLine
 62
7
  6
CONTINUOUS
 10
20.208634907
 20
1.101141841
 11
20.2080230104
 21
0.963465087
  0
LINE
  5
224
100
AcDbEntity
  8
0
100
AcDbLine
 62
7
  6
CONTINUOUS
 10
20.0066328138
 20
1.1745147986
 11
20.1443095678
 21
1.1739029019
  0
LINE
  5
225
100
AcDbEntity
  8
0
100
AcDbLine
 62
7
  6
CONTINUOUS
 10
20.1832714155
 20
1.1727031207
 11
20.238153505
 21
1.172335442
  0
LINE
  5
226
100
AcDbEntity
  8
0
100
AcDbLine
 62
7
  6
CONTINUOUS
 10
20.2756669918
 20
1.1717972817
 11
20.407916871
 21
1.1712095044
  0
CIRCLE
  5
227
100
AcDbEntity
  8
0
100
AcDbCircle
 62
7
  6
CONTINUOUS
 10
20.7509457401
 20
1.1693297793
 40
0.1722024983
  0
CIRCLE
  5
228
100
AcDbEntity
  8
0
100
AcDbCircle
 62
7
  6
CONTINUOUS
 10
20.7509457401
 20
1.1693297793
 40
0.0985164967
  0
LINE
  5
229
100
AcDbEntity
  8
0
100
AcDbLine
 62
7
  6
CONTINUOUS
 10
20.7169767782
 20
1.170462078
 11
20.7825395137
 21
1.1682766535
  0
LINE
  5
22A
100
AcDbEntity
  8
0
100
AcDbLine
 62
7
  6
CONTINUOUS
 10
20.8177513651
 20
1.1693297793
 11
20.947965719
 21
1.1693297793
  0
LINE
  5
22B
100
AcDbEntity
  8
0
100
AcDbLine
 62
7
  6
CONTINUOUS
 10
20.6875370113
 20
1.170462078
 11
20.5573226574
 21
1.170462078
  0
LINE
  5
22C
100
AcDbEntity
  8
0
100
AcDbLine
 62
7
  6
CONTINUOUS
 10
20.7486811426
 20
1.1987695462
 11
20.7486811426
 21
1.1432869085
  0
LINE
  5
22D
100
AcDbEntity
  8
0
100
AcDbLine
 62
7
  6
CONTINUOUS
 10
20.7498134414
 20
1.1059210505
 11
20.7498134414
 21
0.9757066966
  0
LINE
  5
22E
100
AcDbEntity
  8
0
100
AcDbLine
 62
7
  6
CONTINUOUS
 10
20.7486811426
 20
1.2338708068
 11
20.7486811426
 21
1.3640851607
  0
LINE
  5
22F
100
AcDbEntity
  8
0
100
AcDbLine
 62
7
  6
CONTINUOUS
 10
21.0702539817
 20
1.2701043662
 11
21.4790138229
 21
1.3448360823
  0
LINE
  5
230
100
AcDbEntity
  8
0
100
AcDbLine
 62
7
  6
CONTINUOUS
 10
21.4790138229
 20
1.3448360823
 11
21.4790138229
 21
0.9779712941
  0
LINE
  5
231
100
AcDbEntity
  8
0
100
AcDbLine
 62
7
  6
CONTINUOUS
 10
21.4790138229
 20
0.9779712941
 11
21.069121683
 21
1.0617614
  0
LINE
  5
232
100
AcDbEntity
  8
0
100
AcDbLine
 62
7
  6
CONTINUOUS
 10
21.0702539817
 20
1.2701043662
 11
21.069121683
 21
1.0617614
  0
LINE
  5
233
100
AcDbEntity
  8
0
100
AcDbLine
 62
7
  6
CONTINUOUS
 10
21.4790138229
 20
1.1693297793
 11
21.3159628059
 21
1.1693297793
  0
LINE
  5
234
100
AcDbEntity
  8
0
100
AcDbLine
 62
7
  6
CONTINUOUS
 10
21.2876553377
 20
1.1693297793
 11
21.2502894796
 21
1.1693297793
  0
LINE
  5
235
100
AcDbEntity
  8
0
100
AcDbLine
 62
7
  6
CONTINUOUS
 10
21.2208497126
 20
1.1659328831
 11
21.0713862804
 21
1.1659328831
  0
LINE
  5
236
100
AcDbEntity
  8
0
100
AcDbLine
 62
7
  6
CONTINUOUS
 10
20.4796138713
 20
1.5284908897
 11
20.4766766948
 21
0.9294458646
  0
ENDBLK
  5
237
100
AcDbEntity
  8
0
  6
BYBLOCK
 62
0
100
AcDbBlockEnd
  0
BLOCK
  5
238
100
AcDbEntity
  8
0
100
AcDbBlockBegin
  2
*T1
 70
1
 10
0.0
 20
0.0
  3
*T1
  1

  0
LINE
  5
239
100
AcDbEntity
  8
0
100
AcDbLine
 62
2
  6
CONTINUOUS
 10
9.275
 20
0.0
 11
-0.0
 21
0.0
  0
LINE
  5
23A
100
AcDbEntity
  8
0
100
AcDbLine
 62
2
  6
CONTINUOUS
 10
9.275
 20
0.0
 11
9.275
 21
1.25
  0
LINE
  5
23B
100
AcDbEntity
  8
0
100
AcDbLine
 62
2
  6
CONTINUOUS
 10
9.275
 20
0.625
 11
-0.0
 21
0.625
  0
LINE
  5
23C
100
AcDbEntity
  8
0
100
AcDbLine
 62
2
  6
CONTINUOUS
 10
9.275
 20
1.25
 11
-0.0
 21
1.25
  0
LINE
  5
23D
100
AcDbEntity
  8
0
100
AcDbLine
 62
2
  6
CONTINUOUS
 10
6.8
 20
0.0
 11
6.8
 21
1.25
  0
LINE
  5
23E
100
AcDbEntity
  8
0
100
AcDbLine
 62
2
  6
CONTINUOUS
 10
6.4
 20
0.0
 11
6.4
 21
0.625
  0
LINE
  5
23F
100
AcDbEntity
  8
0
100
AcDbLine
 62
2
  6
CONTINUOUS
 10
5.9
 20
0.0
 11
5.9
 21
0.625
  0
LINE
  5
240
100
AcDbEntity
  8
0
100
AcDbLine
 62
2
  6
CONTINUOUS
 10
5.2
 20
0.0
 11
5.2
 21
0.625
  0
LINE
  5
241
100
AcDbEntity
  8
0
100
AcDbLine
 62
2
  6
CONTINUOUS
 10
4.1
 20
0.0
 11
4.1
 21
1.25
  0
LINE
  5
242
100
AcDbEntity
  8
0
100
AcDbLine
 62
2
  6
CONTINUOUS
 10
-0.0
 20
0.0
 11
-0.0
 21
1.25
  0
MTEXT
  5
243
100
AcDbEntity
  8
0
100
AcDbMText
 62
2
  6
CONTINUOUS
  7
STANDARD
 71
2
 72
1
 10
6.6
 20
0.325
 30
0.0
 11
1.0
 21
0.0
 31
0.0
 44
0.9
  1
2
 40
0.125
 41
0.2
  0
MTEXT
  5
244
100
AcDbEntity
  8
0
100
AcDbMText
 62
2
  6
CONTINUOUS
  7
STANDARD
 71
2
 72
1
 10
6.15
 20
0.325
 30
0.0
 11
1.0
 21
0.0
 31
0.0
 44
0.9
  1
C
 40
0.125
 41
0.2
  0
MTEXT
  5
245
100
AcDbEntity
  8
0
100
AcDbMText
 62
2
  6
CONTINUOUS
  7
STANDARD
 71
2
 72
1
 10
5.55
 20
0.325
 30
0.0
 11
1.0
 21
0.0
 31
0.0
 44
0.9
  1
1.000
 40
0.125
 41
1.0
  0
MTEXT
  5
246
100
AcDbEntity
  8
0
100
AcDbMText
 62
2
  6
CONTINUOUS
  7
STANDARD
 71
2
 72
1
 10
4.65
 20
0.325
 30
0.0
 11
1.0
 21
0.0
 31
0.0
 44
0.9
  1
Jul-18-19
 40
0.125
 41
1.8
  0
MTEXT
  5
247
100
AcDbEntity
  8
0
100
AcDbMText
 62
2
  6
CONTINUOUS
  7
STANDARD
 71
2
 72
1
 10
2.05
 20
0.4625
 30
0.0
 11
1.0
 21
0.0
 31
0.0
 44
0.9
  1
T-11A Sandwich ISO 03\PReducer on  B with reverse flow check
 40
0.125
 41
7.4
  0
MTEXT
  5
248
100
AcDbEntity
  8
0
100
AcDbMText
 62
2
  6
CONTINUOUS
  7
STANDARD
 71
1
 72
1
 10
6.45
 20
0.5625
 30
0.0
 11
1.0
 21
0.0
 31
0.0
 44
0.9
  1
SHEET
 40
0.06
 41
0.48
  0
MTEXT
  5
249
100
AcDbEntity
  8
0
100
AcDbMText
 62
2
  6
CONTINUOUS
  7
STANDARD
 71
1
 72
1
 10
5.95
 20
0.5625
 30
0.0
 11
1.0
 21
0.0
 31
0.0
 44
0.9
  1
DWG SIZE
 40
0.06
 41
0.768
  0
MTEXT
  5
24A
100
AcDbEntity
  8
0
100
AcDbMText
 62
2
  6
CONTINUOUS
  7
STANDARD
 71
1
 72
1
 10
5.25
 20
0.5625
 30
0.0
 11
1.0
 21
0.0
 31
0.0
 44
0.9
  1
SCALE
 40
0.06
 41
0.48
  0
MTEXT
  5
24B
100
AcDbEntity
  8
0
100
AcDbMText
 62
2
  6
CONTINUOUS
  7
STANDARD
 71
1
 72
1
 10
4.15
 20
0.5625
 30
0.0
 11
1.0
 21
0.0
 31
0.0
 44
0.9
  1
DATE
 40
0.06
 41
0.384
  0
MTEXT
  5
24C
100
AcDbEntity
  8
0
100
AcDbMText
 62
2
  6
CONTINUOUS
  7
STANDARD
 71
1
 72
1
 10
0.05
 20
0.5625
 30
0.0
 11
1.0
 21
0.0
 31
0.0
 44
0.9
  1
DESCRIPTION
 40
0.06
 41
1.056
  0
MTEXT
  5
24D
100
AcDbEntity
  8
0
100
AcDbMText
 62
2
  6
CONTINUOUS
  7
STANDARD
 71
2
 72
1
 10
5.45
 20
1.0375
 30
0.0
 11
1.0
 21
0.0
 31
0.0
 44
0.9
  1
ALL DIMENSIONS IN INCH\PVIEWS ARE THIRD ANGLE
 40
0.12
 41
4.224
  0
MTEXT
  5
24E
100
AcDbEntity
  8
0
100
AcDbMText
 62
2
  6
CONTINUOUS
  7
STANDARD
 71
2
 72
1
 10
2.05
 20
0.95
 30
0.0
 11
1.0
 21
0.0
 31
0.0
 44
0.9
  1
EB3
 40
0.125
 41
0.6
  0
MTEXT
  5
24F
100
AcDbEntity
  8
0
100
AcDbMText
 62
2
  6
CONTINUOUS
  7
STANDARD
 71
1
 72
1
 10
0.05
 20
1.1875
 30
0.0
 11
1.0
 21
0.0
 31
0.0
 44
0.9
  1
MODEL
 40
0.06
 41
0.48
  0
ENDBLK
  5
250
100
AcDbEntity
  8
0
  6
BYBLOCK
 62
0
100
AcDbBlockEnd
  0
BLOCK
  5
251
100
AcDbEntity
  8
0
100
AcDbBlockBegin
  2
*T2
 70
1
 10
0.0
 20
0.0
  3
*T2
  1

  0
LINE
  5
252
100
AcDbEntity
  8
0
100
AcDbLine
 62
2
  6
CONTINUOUS
 10
0.0
 20
0.0
 11
9.055
 21
0.0
  0
LINE
  5
253
100
AcDbEntity
  8
0
100
AcDbLine
 62
2
  6
CONTINUOUS
 10
0.0
 20
0.0
 11
0.0
 21
-2.344
  0
LINE
  5
254
100
AcDbEntity
  8
0
100
AcDbLine
 62
2
  6
CONTINUOUS
 10
0.0
 20
-0.344
 11
9.055
 21
-0.344
  0
LINE
  5
255
100
AcDbEntity
  8
0
100
AcDbLine
 62
2
  6
CONTINUOUS
 10
0.0
 20
-0.594
 11
9.055
 21
-0.594
  0
LINE
  5
256
100
AcDbEntity
  8
0
100
AcDbLine
 62
2
  6
CONTINUOUS
 10
0.0
 20
-0.844
 11
9.055
 21
-0.844
  0
LINE
  5
257
100
AcDbEntity
  8
0
100
AcDbLine
 62
2
  6
CONTINUOUS
 10
0.0
 20
-1.094
 11
9.055
 21
-1.094
  0
LINE
  5
258
100
AcDbEntity
  8
0
100
AcDbLine
 62
2
  6
CONTINUOUS
 10
0.0
 20
-1.344
 11
9.055
 21
-1.344
  0
LINE
  5
259
100
AcDbEntity
  8
0
100
AcDbLine
 62
2
  6
CONTINUOUS
 10
0.0
 20
-1.594
 11
9.055
 21
-1.594
  0
LINE
  5
25A
100
AcDbEntity
  8
0
100
AcDbLine
 62
2
  6
CONTINUOUS
 10
0.0
 20
-1.844
 11
9.055
 21
-1.844
  0
LINE
  5
25B
100
AcDbEntity
  8
0
100
AcDbLine
 62
2
  6
CONTINUOUS
 10
0.0
 20
-2.094
 11
9.055
 21
-2.094
  0
LINE
  5
25C
100
AcDbEntity
  8
0
100
AcDbLine
 62
2
  6
CONTINUOUS
 10
0.0
 20
-2.344
 11
9.055
 21
-2.344
  0
LINE
  5
25D
100
AcDbEntity
  8
0
100
AcDbLine
 62
2
  6
CONTINUOUS
 10
3.055
 20
0.0
 11
3.055
 21
-2.344
  0
LINE
  5
25E
100
AcDbEntity
  8
0
100
AcDbLine
 62
2
  6
CONTINUOUS
 10
9.055
 20
0.0
 11
9.055
 21
-2.344
  0
MTEXT
  5
25F
100
AcDbEntity
  8
0
100
AcDbMText
 62
2
  6
CONTINUOUS
  7
STANDARD
 71
2
 72
1
 10
1.5275
 20
-0.0995
 30
0.0
 11
1.0
 21
0.0
 31
0.0
 44
0.9
  1
Technical Data
 40
0.145
 41
3.248
  0
MTEXT
  5
260
100
AcDbEntity
  8
0
100
AcDbMText
 62
2
  6
CONTINUOUS
  7
STANDARD
 71
2
 72
1
 10
4.555
 20
-0.0995
 30
0.0
 11
1.0
 21
0.0
 31
0.0
 44
0.9
  1
U.S. Units
 40
0.145
 41
2.32
  0
MTEXT
  5
261
100
AcDbEntity
  8
0
100
AcDbMText
 62
2
  6
CONTINUOUS
  7
STANDARD
 71
2
 72
1
 10
7.555
 20
-0.0995
 30
0.0
 11
1.0
 21
0.0
 31
0.0
 44
0.9
  1
Metric Units
 40
0.145
 41
2.784
  0
MTEXT
  5
262
100
AcDbEntity
  8
0
100
AcDbMText
 62
2
  6
CONTINUOUS
  7
STANDARD
 71
2
 72
1
 10
1.5275
 20
-0.4065
 30
0.0
 11
1.0
 21
0.0
 31
0.0
 44
0.9
  1
Cavity
 40
0.125
 41
1.2
  0
MTEXT
  5
263
100
AcDbEntity
  8
0
100
AcDbMText
 62
2
  6
CONTINUOUS
  7
STANDARD
 71
2
 72
1
 10
6.055
 20
-0.4065
 30
0.0
 11
1.0
 21
0.0
 31
0.0
 44
0.9
  1
T-11A
 40
0.125
 41
1.0
  0
MTEXT
  5
264
100
AcDbEntity
  8
0
100
AcDbMText
 62
2
  6
CONTINUOUS
  7
STANDARD
 71
2
 72
1
 10
1.5275
 20
-0.6565
 30
0.0
 11
1.0
 21
0.0
 31
0.0
 44
0.9
  1
Body Features
 40
0.125
 41
2.6
  0
MTEXT
  5
265
100
AcDbEntity
  8
0
100
AcDbMText
 62
2
  6
CONTINUOUS
  7
STANDARD
 71
2
 72
1
 10
6.055
 20
-0.6565
 30
0.0
 11
1.0
 21
0.0
 31
0.0
 44
0.9
  1
Reducer on  B with reverse flow check
 40
0.125
 41
7.4
  0
MTEXT
  5
266
100
AcDbEntity
  8
0
100
AcDbMText
 62
2
  6
CONTINUOUS
  7
STANDARD
 71
2
 72
1
 10
1.5275
 20
-0.9065
 30
0.0
 11
1.0
 21
0.0
 31
0.0
 44
0.9
  1
Body Type
 40
0.125
 41
1.8
  0
MTEXT
  5
267
100
AcDbEntity
  8
0
100
AcDbMText
 62
2
  6
CONTINUOUS
  7
STANDARD
 71
2
 72
1
 10
6.055
 20
-0.9065
 30
0.0
 11
1.0
 21
0.0
 31
0.0
 44
0.9
  1
Sandwich
 40
0.125
 41
1.6
  0
MTEXT
  5
268
100
AcDbEntity
  8
0
100
AcDbMText
 62
2
  6
CONTINUOUS
  7
STANDARD
 71
2
 72
1
 10
1.5275
 20
-1.1565
 30
0.0
 11
1.0
 21
0.0
 31
0.0
 44
0.9
  1
Interface
 40
0.125
 41
1.8
  0
MTEXT
  5
269
100
AcDbEntity
  8
0
100
AcDbMText
 62
2
  6
CONTINUOUS
  7
STANDARD
 71
2
 72
1
 10
6.055
 20
-1.1565
 30
0.0
 11
1.0
 21
0.0
 31
0.0
 44
0.9
  1
ISO 03
 40
0.125
 41
1.2
  0
MTEXT
  5
26A
100
AcDbEntity
  8
0
100
AcDbMText
 62
2
  6
CONTINUOUS
  7
STANDARD
 71
2
 72
1
 10
1.5275
 20
-1.4065
 30
0.0
 11
1.0
 21
0.0
 31
0.0
 44
0.9
  1
Open Cavity Quantity
 40
0.125
 41
4.0
  0
MTEXT
  5
26B
100
AcDbEntity
  8
0
100
AcDbMText
 62
2
  6
CONTINUOUS
  7
STANDARD
 71
2
 72
1
 10
6.055
 20
-1.4065
 30
0.0
 11
1.0
 21
0.0
 31
0.0
 44
0.9
  1
1
 40
0.125
 41
0.2
  0
MTEXT
  5
26C
100
AcDbEntity
  8
0
100
AcDbMText
 62
2
  6
CONTINUOUS
  7
STANDARD
 71
2
 72
1
 10
1.5275
 20
-1.6565
 30
0.0
 11
1.0
 21
0.0
 31
0.0
 44
0.9
  1
Stack Height
 40
0.125
 41
2.4
  0
MTEXT
  5
26D
100
AcDbEntity
  8
0
100
AcDbMText
 62
2
  6
CONTINUOUS
  7
STANDARD
 71
2
 72
1
 10
4.555
 20
-1.6565
 30
0.0
 11
1.0
 21
0.0
 31
0.0
 44
0.9
  1
1.75 in.
 40
0.125
 41
1.6
  0
MTEXT
  5
26E
100
AcDbEntity
  8
0
100
AcDbMText
 62
2
  6
CONTINUOUS
  7
STANDARD
 71
2
 72
1
 10
7.555
 20
-1.6565
 30
0.0
 11
1.0
 21
0.0
 31
0.0
 44
0.9
  1
44,5 mm
 40
0.125
 41
1.4
  0
MTEXT
  5
26F
100
AcDbEntity
  8
0
100
AcDbMText
 62
2
  6
CONTINUOUS
  7
STANDARD
 71
2
 72
1
 10
1.5275
 20
-1.9065
 30
0.0
 11
1.0
 21
0.0
 31
0.0
 44
0.9
  1
Weight
 40
0.125
 41
1.2
  0
MTEXT
  5
270
100
AcDbEntity
  8
0
100
AcDbMText
 62
2
  6
CONTINUOUS
  7
STANDARD
 71
2
 72
1
 10
4.555
 20
-1.9065
 30
0.0
 11
1.0
 21
0.0
 31
0.0
 44
0.9
  1
1.228 lb.
 40
0.125
 41
1.8
  0
MTEXT
  5
271
100
AcDbEntity
  8
0
100
AcDbMText
 62
2
  6
CONTINUOUS
  7
STANDARD
 71
2
 72
1
 10
7.555
 20
-1.9065
 30
0.0
 11
1.0
 21
0.0
 31
0.0
 44
0.9
  1
0,557 kg.
 40
0.125
 41
1.8
  0
MTEXT
  5
272
100
AcDbEntity
  8
0
100
AcDbMText
 62
2
  6
CONTINUOUS
  7
STANDARD
 71
2
 72
1
 10
1.5275
 20
-2.1565
 30
0.0
 11
1.0
 21
0.0
 31
0.0
 44
0.9
  1
Seal Plate Included (see notes)
 40
0.125
 41
6.2
  0
MTEXT
  5
273
100
AcDbEntity
  8
0
100
AcDbMText
 62
2
  6
CONTINUOUS
  7
STANDARD
 71
2
 72
1
 10
6.055
 20
-2.1565
 30
0.0
 11
1.0
 21
0.0
 31
0.0
 44
0.9
  1
Yes
 40
0.125
 41
0.6
  0
ENDBLK
  5
274
100
AcDbEntity
  8
0
  6
BYBLOCK
 62
0
100
AcDbBlockEnd
  0
ENDSEC
  0
SECTION
  2
ENTITIES
  0
IMAGE
  5
275
100
AcDbEntity
  8
0
100
AcDbRasterImage
 62
7
  6
CONTINUOUS
 10
19.2297077316
 20
0.3094318264
 30
0.0
 11
0.0066666667
 21
0.0
 31
0.0
 12
0.0
 22
0.0066666667
 32
0.0
 13
369.0
 23
92.0
340
       353
 70
9
280
0
281
50
282
50
283
0
360
       34D
 71
1
 91
2
 14
-0.5
 24
-0.5
 14
368.5
 24
91.5
  0
INSERT
  5
276
100
AcDbEntity
  8
0
100
AcDbBlockReference
 62
2
  6
CONTINUOUS
  2
SUN_FIRST_THIRD_ANGLE_BL0
 10
20.4816717061
 20
1.2289683772
  0
ACAD_TABLE
  5
277
100
AcDbEntity
  8
0
 62
2
  6
CONTINUOUS
100
AcDbBlockReference
  2
*T1
 10
12.42375
 20
0.30125
 30
0.0
100
AcDbTable
342
       355
343
212
 11
1.0
 21
0.0
 31
0.0
 90
6
 91
4
 92
6
 93
20
 94
0
 95
0
 96
0
 70
1
 41
0.0
141
0.525
141
0.1
141
0.525
141
0.1
142
4.1
142
1.1
142
0.7
142
0.5
142
0.4
142
2.475
171
1
172
0
173
0
174
0
175
1
176
1
 91
33
178
0
145
0.0
301
CELL_VALUE
 90
4
  1
T-11A Sandwich ISO 03\PReducer on  B with reverse flow check
304
ACVALUE_END
170
2
140
0.125
171
1
172
0
173
0
174
0
175
1
176
1
 91
33
178
0
145
0.0
301
CELL_VALUE
 90
4
  1
Jul-18-19
304
ACVALUE_END
170
5
140
0.125
171
1
172
0
173
0
174
0
175
1
176
1
 91
33
178
0
145
0.0
301
CELL_VALUE
 90
4
  1
1.000
304
ACVALUE_END
170
5
140
0.125
171
1
172
0
173
0
174
0
175
1
176
1
 91
33
178
0
145
0.0
301
CELL_VALUE
 90
4
  1
C
304
ACVALUE_END
170
5
140
0.125
171
1
172
0
173
0
174
0
175
1
176
1
 91
33
178
0
145
0.0
301
CELL_VALUE
 90
4
  1
2
304
ACVALUE_END
170
5
140
0.125
171
1
172
0
173
0
174
0
175
1
176
1
 91
33
178
0
145
0.0
301
CELL_VALUE
 90
4
  1
 
304
ACVALUE_END
170
1
140
0.125
171
1
172
0
173
0
174
0
175
1
176
1
 91
33
178
0
145
0.0
301
CELL_VALUE
 90
4
  1
DESCRIPTION
304
ACVALUE_END
170
1
140
0.06
171
1
172
0
173
0
174
0
175
1
176
1
 91
33
178
0
145
0.0
301
CELL_VALUE
 90
4
  1
DATE
304
ACVALUE_END
170
1
140
0.06
171
1
172
0
173
0
174
0
175
1
176
1
 91
33
178
0
145
0.0
301
CELL_VALUE
 90
4
  1
SCALE
304
ACVALUE_END
170
1
140
0.06
171
1
172
0
173
0
174
0
175
1
176
1
 91
33
178
0
145
0.0
301
CELL_VALUE
 90
4
  1
DWG SIZE
304
ACVALUE_END
170
1
140
0.06
171
1
172
0
173
0
174
0
175
1
176
1
 91
33
178
0
145
0.0
301
CELL_VALUE
 90
4
  1
SHEET
304
ACVALUE_END
170
1
140
0.06
171
1
172
0
173
0
174
0
175
1
176
1
 91
33
178
0
145
0.0
301
CELL_VALUE
 90
4
  1
 
304
ACVALUE_END
170
1
140
0.125
171
1
172
0
173
0
174
0
175
1
176
1
 91
33
178
0
145
0.0
301
CELL_VALUE
 90
4
  1
EB3
304
ACVALUE_END
170
5
140
0.125
171
1
172
0
173
0
174
0
175
4
176
1
 91
33
178
0
145
0.0
301
CELL_VALUE
 90
4
  1
ALL DIMENSIONS IN INCH\PVIEWS ARE THIRD ANGLE
304
ACVALUE_END
170
5
140
0.12
171
1
172
0
173
1
174
0
175
1
176
1
 91
1
178
0
145
0.0
170
1
171
1
172
0
173
1
174
0
175
1
176
1
 91
1
178
0
145
0.0
170
1
171
1
172
0
173
1
174
0
175
1
176
1
 91
1
178
0
145
0.0
170
5
171
1
172
0
173
0
174
0
175
1
176
1
 91
33
178
0
145
0.0
301
CELL_VALUE
 90
4
  1
 
304
ACVALUE_END
170
1
140
0.125
171
1
172
0
173
0
174
0
175
1
176
1
 91
33
178
0
145
0.0
301
CELL_VALUE
 90
4
  1
MODEL
304
ACVALUE_END
170
1
140
0.06
171
1
172
0
173
0
174
0
175
1
176
1
 91
33
178
0
145
0.0
301
CELL_VALUE
 90
4
  1
 
304
ACVALUE_END
170
1
140
0.125
171
1
172
0
173
0
174
0
175
1
176
1
 91
33
178
0
145
0.0
301
CELL_VALUE
 90
4
  1
 
304
ACVALUE_END
170
1
140
0.125
171
1
172
0
173
0
174
0
175
1
176
1
 91
33
178
0
145
0.0
301
CELL_VALUE
 90
4
  1
 
304
ACVALUE_END
170
1
140
0.125
171
1
172
0
173
0
174
0
175
1
176
1
 91
33
178
0
145
0.0
301
CELL_VALUE
 90
4
  1
 
304
ACVALUE_END
170
1
140
0.125
171
1
172
0
173
0
174
0
175
1
176
1
 91
33
178
0
145
0.0
301
CELL_VALUE
 90
4
  1
 
304
ACVALUE_END
170
1
140
0.125
  0
ACAD_TABLE
  5
278
100
AcDbEntity
  8
0
 62
2
  6
CONTINUOUS
100
AcDbBlockReference
  2
*T2
 10
12.4237499994
 20
16.47875
 30
0.0
100
AcDbTable
342
       354
343
213
 11
1.0
 21
0.0
 31
0.0
 90
22
 91
9
 92
3
 93
16
 94
0
 95
0
 96
0
 41
0.028
141
0.344
141
0.25
141
0.25
141
0.25
141
0.25
141
0.25
141
0.25
141
0.25
141
0.25
142
3.055
142
3.0
142
3.0
171
1
172
0
173
0
174
0
175
1
176
1
 91
33
178
0
145
0.0
301
CELL_VALUE
 90
4
  1
Technical Data
304
ACVALUE_END
170
5
140
0.145
171
1
172
0
173
0
174
0
175
1
176
1
 91
33
178
0
145
0.0
301
CELL_VALUE
 90
4
  1
U.S. Units
304
ACVALUE_END
170
5
140
0.145
171
1
172
0
173
0
174
0
175
1
176
1
 91
33
178
0
145
0.0
301
CELL_VALUE
 90
4
  1
Metric Units
304
ACVALUE_END
170
5
140
0.145
171
1
172
0
173
0
174
0
175
1
176
1
 91
33
178
0
145
0.0
301
CELL_VALUE
 90
4
  1
Cavity
304
ACVALUE_END
170
5
140
0.125
171
1
172
0
173
0
174
0
175
2
176
1
 91
33
178
0
145
0.0
301
CELL_VALUE
 90
4
  1
T-11A
304
ACVALUE_END
170
5
140
0.125
171
1
172
0
173
1
174
0
175
1
176
1
 91
1
178
0
145
0.0
170
1
171
1
172
0
173
0
174
0
175
1
176
1
 91
33
178
0
145
0.0
301
CELL_VALUE
 90
4
  1
Body Features
304
ACVALUE_END
170
5
140
0.125
171
1
172
0
173
0
174
0
175
2
176
1
 91
33
178
0
145
0.0
301
CELL_VALUE
 90
4
  1
Reducer on  B with reverse flow check
304
ACVALUE_END
170
5
140
0.125
171
1
172
0
173
1
174
0
175
1
176
1
 91
1
178
0
145
0.0
170
1
171
1
172
0
173
0
174
0
175
1
176
1
 91
33
178
0
145
0.0
301
CELL_VALUE
 90
4
  1
Body Type
304
ACVALUE_END
170
5
140
0.125
171
1
172
0
173
0
174
0
175
2
176
1
 91
33
178
0
145
0.0
301
CELL_VALUE
 90
4
  1
Sandwich
304
ACVALUE_END
170
5
140
0.125
171
1
172
0
173
1
174
0
175
1
176
1
 91
1
178
0
145
0.0
170
1
171
1
172
0
173
0
174
0
175
1
176
1
 91
33
178
0
145
0.0
301
CELL_VALUE
 90
4
  1
Interface
304
ACVALUE_END
170
5
140
0.125
171
1
172
0
173
0
174
0
175
2
176
1
 91
33
178
0
145
0.0
301
CELL_VALUE
 90
4
  1
ISO 03
304
ACVALUE_END
170
5
140
0.125
171
1
172
0
173
1
174
0
175
1
176
1
 91
1
178
0
145
0.0
170
1
171
1
172
0
173
0
174
0
175
1
176
1
 91
33
178
0
145
0.0
301
CELL_VALUE
 90
4
  1
Open Cavity Quantity
304
ACVALUE_END
170
5
140
0.125
171
1
172
0
173
0
174
0
175
2
176
1
 91
33
178
0
145
0.0
301
CELL_VALUE
 90
4
  1
1
304
ACVALUE_END
170
5
140
0.125
171
1
172
0
173
1
174
0
175
1
176
1
 91
1
178
0
145
0.0
170
1
171
1
172
0
173
0
174
0
175
1
176
1
 91
33
178
0
145
0.0
301
CELL_VALUE
 90
4
  1
Stack Height
304
ACVALUE_END
170
5
140
0.125
171
1
172
0
173
0
174
0
175
1
176
1
 91
33
178
0
145
0.0
301
CELL_VALUE
 90
4
  1
1.75 in.
304
ACVALUE_END
170
5
140
0.125
171
1
172
0
173
0
174
0
175
1
176
1
 91
33
178
0
145
0.0
301
CELL_VALUE
 90
4
  1
44,5 mm
304
ACVALUE_END
170
5
140
0.125
171
1
172
0
173
0
174
0
175
1
176
1
 91
33
178
0
145
0.0
301
CELL_VALUE
 90
4
  1
Weight
304
ACVALUE_END
170
5
140
0.125
171
1
172
0
173
0
174
0
175
1
176
1
 91
33
178
0
145
0.0
301
CELL_VALUE
 90
4
  1
1.228 lb.
304
ACVALUE_END
170
5
140
0.125
171
1
172
0
173
0
174
0
175
1
176
1
 91
33
178
0
145
0.0
301
CELL_VALUE
 90
4
  1
0,557 kg.
304
ACVALUE_END
170
5
140
0.125
171
1
172
0
173
0
174
0
175
1
176
1
 91
33
178
0
145
0.0
301
CELL_VALUE
 90
4
  1
Seal Plate Included (see notes)
304
ACVALUE_END
170
5
140
0.125
171
1
172
0
173
0
174
0
175
2
176
1
 91
33
178
0
145
0.0
301
CELL_VALUE
 90
4
  1
Yes
304
ACVALUE_END
170
5
140
0.125
171
1
172
0
173
1
174
0
175
1
176
1
 91
1
178
0
145
0.0
170
1
  0
MTEXT
  5
279
100
AcDbEntity
  8
0
100
AcDbMText
 62
2
  6
CONTINUOUS
  7
STANDARD
 71
1
 72
1
 10
0.52125
 20
5.75995
 30
0.0
 11
1.0
 21
0.0
 31
0.0
 44
0.6
  3
Notes\P \P1. Stack height value in technical\P   data table includes seal retainer\P   plate.\P2. Important: Carefully consider\P   the maximum system pressure. The\P   pressure rating of the manifold is\P   dependent on the manifold material,\P   wi
  3
th the port type/size a secondary\P   consideration. Manifolds\P   constructed of aluminum are not\P   rated for pressures higher than\P   3000 psi (210 bar), regardless of\P   the port type/size specified.\P3. Items without balloons are\P   shipped 
  1
loose.
 40
0.1
 41
3.04
  0
LINE
  5
27A
100
AcDbEntity
  8
0
100
AcDbLine
 62
7
  6
CONTINUOUS
 10
0.30125
 20
0.30125
 11
0.30125
 21
16.69875
  0
LINE
  5
27B
100
AcDbEntity
  8
0
100
AcDbLine
 62
7
  6
CONTINUOUS
 10
0.30125
 20
0.30125
 11
21.69875
 21
0.30125
  0
LINE
  5
27C
100
AcDbEntity
  8
0
100
AcDbLine
 62
7
  6
CONTINUOUS
 10
0.30125
 20
16.69875
 11
21.69875
 21
16.69875
  0
LINE
  5
27D
100
AcDbEntity
  8
0
100
AcDbLine
 62
7
  6
CONTINUOUS
 10
21.69875
 20
0.30125
 11
21.69875
 21
16.69875
  0
LINE
  5
27E
100
AcDbEntity
  8
0
100
AcDbLine
 62
7
  6
CONTINUOUS
 10
10.6576590255
 20
11.1211284457
 11
10.6739832577
 21
11.1291923039
  0
LINE
  5
27F
100
AcDbEntity
  8
0
100
AcDbLine
 62
7
  6
CONTINUOUS
 10
10.3690929413
 20
5.8728180361
 11
11.2142780894
 21
5.814204247
  0
LINE
  5
280
100
AcDbEntity
  8
0
100
AcDbLine
 62
7
  6
CONTINUOUS
 10
10.3610695575
 20
5.8950117444
 11
11.2062547056
 21
5.8363979553
  0
LINE
  5
281
100
AcDbEntity
  8
0
100
AcDbLine
 62
7
  6
CONTINUOUS
 10
10.0968392031
 20
5.9627553342
 11
10.1267056295
 21
5.9349614891
  0
LINE
  5
282
100
AcDbEntity
  8
0
100
AcDbLine
 62
7
  6
CONTINUOUS
 10
10.0968703389
 20
10.2407067423
 11
10.3344660262
 21
10.4702065665
  0
LINE
  5
283
100
AcDbEntity
  8
0
100
AcDbLine
 62
7
  6
CONTINUOUS
 10
10.1268140413
 20
10.2685738419
 11
10.3644097286
 21
10.4980736661
  0
LINE
  5
284
100
AcDbEntity
  8
0
100
AcDbLine
 62
7
  6
CONTINUOUS
 10
10.3344660262
 20
10.4702065665
 11
10.3354008163
 21
10.4710927095
  0
LINE
  5
285
100
AcDbEntity
  8
0
100
AcDbLine
 62
7
  6
CONTINUOUS
 10
10.3644097286
 20
10.4980736661
 11
10.3652682731
 21
10.4988873834
  0
LINE
  5
286
100
AcDbEntity
  8
0
100
AcDbLine
 62
7
  6
CONTINUOUS
 10
10.3354008163
 20
10.4710927095
 11
10.364402307
 21
10.4980816411
  0
LINE
  5
287
100
AcDbEntity
  8
0
100
AcDbLine
 62
7
  6
CONTINUOUS
 10
10.3644097286
 20
10.4980736661
 11
10.3344660262
 21
10.4702065665
  0
LINE
  5
288
100
AcDbEntity
  8
0
100
AcDbLine
 62
7
  6
CONTINUOUS
 10
10.1268140413
 20
10.2685738419
 11
10.0968703389
 21
10.2407067423
  0
LINE
  5
289
100
AcDbEntity
  8
0
100
AcDbLine
 62
7
  6
CONTINUOUS
 10
9.934818839
 20
9.3319355583
 11
10.0840925452
 21
9.4761228949
  0
LINE
  5
28A
100
AcDbEntity
  8
0
100
AcDbLine
 62
7
  6
CONTINUOUS
 10
11.6251891351
 20
7.0413745119
 11
9.934818839
 21
7.1586020901
  0
LINE
  5
28B
100
AcDbEntity
  8
0
100
AcDbLine
 62
7
  6
CONTINUOUS
 10
10.3690929413
 20
5.8728180361
 11
10.3610695575
 21
5.8950117444
  0
LINE
  5
28C
100
AcDbEntity
  8
0
100
AcDbLine
 62
7
  6
CONTINUOUS
 10
11.46673725
 20
10.5349876375
 11
11.4764158326
 21
10.5439945747
  0
LINE
  5
28D
100
AcDbEntity
  8
0
100
AcDbLine
 62
7
  6
CONTINUOUS
 10
9.934818839
 20
7.1586020901
 11
9.934818839
 21
9.3319355583
  0
LINE
  5
28E
100
AcDbEntity
  8
0
100
AcDbLine
 62
7
  6
CONTINUOUS
 10
10.3700588672
 20
10.1595303152
 11
10.3620354834
 21
10.1218366188
  0
LINE
  5
28F
100
AcDbEntity
  8
0
100
AcDbLine
 62
7
  6
CONTINUOUS
 10
10.0831266194
 20
7.1483169106
 11
10.0831266194
 21
5.9887616726
  0
LINE
  5
290
100
AcDbEntity
  8
0
100
AcDbLine
 62
7
  6
CONTINUOUS
 10
10.0840925452
 20
9.4003451013
 11
10.0840925452
 21
10.215586547
  0
LINE
  5
291
100
AcDbEntity
  8
0
100
AcDbLine
 62
4
  6
CONTINUOUS
 10
11.5214891398
 20
10.2987266127
 11
11.5253714222
 21
10.3024766097
  0
LINE
  5
292
100
AcDbEntity
  8
0
100
AcDbLine
 62
4
  6
CONTINUOUS
 10
11.5777822344
 20
10.3531015698
 11
11.5855467992
 21
10.3606015639
  0
LINE
  5
293
100
AcDbEntity
  8
0
100
AcDbLine
 62
4
  6
CONTINUOUS
 10
11.6880557025
 20
10.3796175699
 11
11.6997025496
 21
10.390867561
  0
LINE
  5
294
100
AcDbEntity
  8
0
100
AcDbLine
 62
4
  6
CONTINUOUS
 10
11.7014579026
 20
10.3525631016
 11
11.6936933378
 21
10.3450631075
  0
LINE
  5
295
100
AcDbEntity
  8
0
100
AcDbLine
 62
4
  6
CONTINUOUS
 10
11.6412825256
 20
10.2944381474
 11
11.6374002432
 21
10.2906881504
  0
LINE
  5
296
100
AcDbEntity
  8
0
100
AcDbLine
 62
7
  6
CONTINUOUS
 10
11.8741518846
 20
10.3933726919
 11
11.6365561973
 21
10.1638728677
  0
LINE
  5
297
100
AcDbEntity
  8
0
100
AcDbLine
 62
7
  6
CONTINUOUS
 10
10.3610695575
 20
5.8950117444
 11
10.3610695575
 21
7.1290415024
  0
LINE
  5
298
100
AcDbEntity
  8
0
100
AcDbLine
 62
7
  6
CONTINUOUS
 10
10.3620354834
 20
10.1218366188
 11
10.3620354834
 21
9.3065951731
  0
LINE
  5
299
100
AcDbEntity
  8
0
100
AcDbLine
 62
7
  6
CONTINUOUS
 10
11.904095587
 20
10.3613523867
 11
11.6664998996
 21
10.1318525625
  0
LINE
  5
29A
100
AcDbEntity
  8
0
100
AcDbLine
 62
7
  6
CONTINUOUS
 10
11.2142780894
 20
5.814204247
 11
11.2062547056
 21
5.8363979553
  0
LINE
  5
29B
100
AcDbEntity
  8
0
100
AcDbLine
 62
7
  6
CONTINUOUS
 10
10.5757342211
 20
10.5987460792
 11
10.5757342211
 21
11.019345305
  0
LINE
  5
29C
100
AcDbEntity
  8
0
100
AcDbLine
 62
7
  6
CONTINUOUS
 10
10.5910634576
 20
10.5839391992
 11
10.5910634576
 21
11.0045384249
  0
LINE
  5
29D
100
AcDbEntity
  8
0
100
AcDbLine
 62
7
  6
CONTINUOUS
 10
10.6273695955
 20
10.3712534155
 11
10.6273695955
 21
10.5495351761
  0
LINE
  5
29E
100
AcDbEntity
  8
0
100
AcDbLine
 62
7
  6
CONTINUOUS
 10
10.8999347612
 20
10.5039975247
 11
10.8999347612
 21
10.9245967504
  0
LINE
  5
29F
100
AcDbEntity
  8
0
100
AcDbLine
 62
7
  6
CONTINUOUS
 10
10.9571442066
 20
10.5000300361
 11
10.9571442066
 21
10.9206292619
  0
LINE
  5
2A0
100
AcDbEntity
  8
0
100
AcDbLine
 62
7
  6
CONTINUOUS
 10
11.2152440153
 20
10.1009165261
 11
11.2072206315
 21
10.0632228297
  0
LINE
  5
2A1
100
AcDbEntity
  8
0
100
AcDbLine
 62
7
  6
CONTINUOUS
 10
11.904095587
 20
9.546110941
 11
11.6664998996
 21
9.3166111168
  0
LINE
  5
2A2
100
AcDbEntity
  8
0
100
AcDbLine
 62
7
  6
CONTINUOUS
 10
11.6251891351
 20
9.2147079801
 11
12.065181161
 21
9.6397076665
  0
LINE
  5
2A3
100
AcDbEntity
  8
0
100
AcDbLine
 62
7
  6
CONTINUOUS
 10
11.2062547056
 20
5.8363979553
 11
11.2062547056
 21
7.0704277133
  0
LINE
  5
2A4
100
AcDbEntity
  8
0
100
AcDbLine
 62
7
  6
CONTINUOUS
 10
11.2072206315
 20
10.0632228297
 11
11.2072206315
 21
9.247981384
  0
LINE
  5
2A5
100
AcDbEntity
  8
0
100
AcDbLine
 62
7
  6
CONTINUOUS
 10
11.3790701355
 20
10.5292907505
 11
11.3790701355
 21
10.9498899762
  0
LINE
  5
2A6
100
AcDbEntity
  8
0
100
AcDbLine
 62
7
  6
CONTINUOUS
 10
11.2520760394
 20
8.2584920805
 11
11.2477048528
 21
8.2544242325
  0
LINE
  5
2A7
100
AcDbEntity
  8
0
100
AcDbLine
 62
7
  6
CONTINUOUS
 10
11.4209503445
 20
10.540130142
 11
11.4209503445
 21
10.9607293678
  0
LINE
  5
2A8
100
AcDbEntity
  8
0
100
AcDbLine
 62
7
  6
CONTINUOUS
 10
11.4823695955
 20
10.3712580336
 11
11.4823695955
 21
10.5501472045
  0
LINE
  5
2A9
100
AcDbEntity
  8
0
100
AcDbLine
 62
7
  6
CONTINUOUS
 10
11.5340049698
 20
10.6493325308
 11
11.5340049698
 21
11.0699317566
  0
LINE
  5
2AA
100
AcDbEntity
  8
0
100
AcDbLine
 62
7
  6
CONTINUOUS
 10
11.6251891351
 20
9.2147079801
 11
11.6251891351
 21
7.0413745119
  0
LINE
  5
2AB
100
AcDbEntity
  8
0
100
AcDbLine
 62
7
  6
CONTINUOUS
 10
11.6655339738
 20
5.9050276881
 11
11.6655339738
 21
7.0803446358
  0
LINE
  5
2AC
100
AcDbEntity
  8
0
100
AcDbLine
 62
7
  6
CONTINUOUS
 10
11.6664998996
 20
10.1318525625
 11
11.6664998996
 21
9.3166111168
  0
LINE
  5
2AD
100
AcDbEntity
  8
0
100
AcDbLine
 62
7
  6
CONTINUOUS
 10
11.6251891351
 20
9.2147079801
 11
9.934818839
 21
9.3319355583
  0
LINE
  5
2AE
100
AcDbEntity
  8
0
100
AcDbLine
 62
7
  6
CONTINUOUS
 10
11.2072206315
 20
9.247981384
 11
10.3620354834
 21
9.3065951731
  0
LINE
  5
2AF
100
AcDbEntity
  8
0
100
AcDbLine
 62
7
  6
CONTINUOUS
 10
11.9031296611
 20
6.1345275123
 11
11.9031296611
 21
7.30984446
  0
LINE
  5
2B0
100
AcDbEntity
  8
0
100
AcDbLine
 62
7
  6
CONTINUOUS
 10
11.904095587
 20
10.3613523867
 11
11.904095587
 21
9.546110941
  0
LINE
  5
2B1
100
AcDbEntity
  8
0
100
AcDbLine
 62
7
  6
CONTINUOUS
 10
11.9159074548
 20
7.3221868617
 11
11.9159074548
 21
6.1596477077
  0
LINE
  5
2B2
100
AcDbEntity
  8
0
100
AcDbLine
 62
7
  6
CONTINUOUS
 10
11.9168733806
 20
9.5712311364
 11
11.9168733806
 21
10.3864725821
  0
LINE
  5
2B3
100
AcDbEntity
  8
0
100
AcDbLine
 62
7
  6
CONTINUOUS
 10
12.065181161
 20
9.6397076665
 11
12.065181161
 21
7.4663741983
  0
LINE
  5
2B4
100
AcDbEntity
  8
0
100
AcDbLine
 62
7
  6
CONTINUOUS
 10
12.065181161
 20
9.6397076665
 11
11.9168733806
 21
9.649992846
  0
LINE
  5
2B5
100
AcDbEntity
  8
0
100
AcDbLine
 62
7
  6
CONTINUOUS
 10
10.643001941
 20
10.5349876375
 11
10.5837508047
 21
10.5901270399
  0
LINE
  5
2B6
100
AcDbEntity
  8
0
100
AcDbLine
 62
7
  6
CONTINUOUS
 10
11.6251891351
 20
7.0413745119
 11
12.065181161
 21
7.4663741983
  0
LINE
  5
2B7
100
AcDbEntity
  8
0
100
AcDbLine
 62
4
  6
CONTINUOUS
 10
11.6374002432
 20
10.2906881504
 11
11.6238587019
 21
10.2876080252
  0
LINE
  5
2B8
100
AcDbEntity
  8
0
100
AcDbLine
 62
4
  6
CONTINUOUS
 10
11.5253714222
 20
10.3024766097
 11
11.5389129609
 21
10.3055567351
  0
LINE
  5
2B9
100
AcDbEntity
  8
0
100
AcDbLine
 62
4
  6
CONTINUOUS
 10
11.5855467992
 20
10.3606015639
 11
11.5990883379
 21
10.3636816893
  0
LINE
  5
2BA
100
AcDbEntity
  8
0
100
AcDbLine
 62
4
  6
CONTINUOUS
 10
11.6238587019
 20
10.2876080252
 11
11.6006579026
 21
10.2851977719
  0
LINE
  5
2BB
100
AcDbEntity
  8
0
100
AcDbLine
 62
4
  6
CONTINUOUS
 10
11.5389129609
 20
10.3055567351
 11
11.5505133653
 21
10.3067618614
  0
LINE
  5
2BC
100
AcDbEntity
  8
0
100
AcDbLine
 62
7
  6
CONTINUOUS
 10
11.2072206315
 20
10.0632228297
 11
10.3620354834
 21
10.1218366188
  0
LINE
  5
2BD
100
AcDbEntity
  8
0
100
AcDbLine
 62
7
  6
CONTINUOUS
 10
11.2152440153
 20
10.1009165261
 11
10.3700588672
 21
10.1595303152
  0
LINE
  5
2BE
100
AcDbEntity
  8
0
100
AcDbLine
 62
4
  6
CONTINUOUS
 10
11.5272661137
 20
10.294306744
 11
11.5214891398
 21
10.2987266127
  0
LINE
  5
2BF
100
AcDbEntity
  8
0
100
AcDbLine
 62
7
  6
CONTINUOUS
 10
11.6365561973
 20
10.1638728677
 11
11.6664998996
 21
10.1318525625
  0
LINE
  5
2C0
100
AcDbEntity
  8
0
100
AcDbLine
 62
4
  6
CONTINUOUS
 10
11.5990883379
 20
10.3636816893
 11
11.6222891398
 21
10.3660919424
  0
LINE
  5
2C1
100
AcDbEntity
  8
0
100
AcDbLine
 62
4
  6
CONTINUOUS
 10
11.5467239753
 20
10.3231015935
 11
11.6781642083
 21
10.3300631193
  0
LINE
  5
2C2
100
AcDbEntity
  8
0
100
AcDbLine
 62
4
  6
CONTINUOUS
 10
11.6166050583
 20
10.3906015403
 11
11.7422218677
 21
10.3919380706
  0
LINE
  5
2C3
100
AcDbEntity
  8
0
100
AcDbLine
 62
4
  6
CONTINUOUS
 10
11.6006579026
 20
10.2851977719
 11
11.5697389856
 21
10.2853323889
  0
LINE
  5
2C4
100
AcDbEntity
  8
0
100
AcDbLine
 62
4
  6
CONTINUOUS
 10
11.6222891398
 20
10.3660919424
 11
11.6532080568
 21
10.3659573254
  0
LINE
  5
2C5
100
AcDbEntity
  8
0
100
AcDbLine
 62
4
  6
CONTINUOUS
 10
11.6936933378
 20
10.3450631075
 11
11.5777822344
 21
10.3531015698
  0
LINE
  5
2C6
100
AcDbEntity
  8
0
100
AcDbLine
 62
4
  6
CONTINUOUS
 10
11.5697389856
 20
10.2853323889
 11
11.5427023509
 21
10.289217003
  0
LINE
  5
2C7
100
AcDbEntity
  8
0
100
AcDbLine
 62
4
  6
CONTINUOUS
 10
11.6532080568
 20
10.3659573254
 11
11.6802446915
 21
10.3620727113
  0
LINE
  5
2C8
100
AcDbEntity
  8
0
100
AcDbLine
 62
4
  6
CONTINUOUS
 10
11.6626350787
 20
10.3150631312
 11
11.5622531049
 21
10.3381015817
  0
LINE
  5
2C9
100
AcDbEntity
  8
0
100
AcDbLine
 62
4
  6
CONTINUOUS
 10
11.5427023509
 20
10.289217003
 11
11.5272661137
 21
10.294306744
  0
LINE
  5
2CA
100
AcDbEntity
  8
0
100
AcDbLine
 62
4
  6
CONTINUOUS
 10
11.6277874314
 20
10.3014028867
 11
11.6355055491
 21
10.2988580163
  0
LINE
  5
2CB
100
AcDbEntity
  8
0
100
AcDbLine
 62
4
  6
CONTINUOUS
 10
11.6355055491
 20
10.2988580163
 11
11.6412825256
 21
10.2944381474
  0
LINE
  5
2CC
100
AcDbEntity
  8
0
100
AcDbLine
 62
4
  6
CONTINUOUS
 10
11.6956809261
 20
10.3569829705
 11
11.7014579026
 21
10.3525631016
  0
LINE
  5
2CD
100
AcDbEntity
  8
0
100
AcDbLine
 62
7
  6
CONTINUOUS
 10
11.8741518846
 20
10.3933726919
 11
11.904095587
 21
10.3613523867
  0
LINE
  5
2CE
100
AcDbEntity
  8
0
100
AcDbLine
 62
7
  6
CONTINUOUS
 10
11.4823695955
 20
10.5127173266
 11
11.6309070587
 21
10.5024162186
  0
LINE
  5
2CF
100
AcDbEntity
  8
0
100
AcDbLine
 62
4
  6
CONTINUOUS
 10
11.7228104557
 20
10.3731880853
 11
11.6166050583
 21
10.3906015403
  0
LINE
  5
2D0
100
AcDbEntity
  8
0
100
AcDbLine
 62
4
  6
CONTINUOUS
 10
11.6802446915
 20
10.3620727113
 11
11.6956809261
 21
10.3569829705
  0
LINE
  5
2D1
100
AcDbEntity
  8
0
100
AcDbLine
 62
7
  6
CONTINUOUS
 10
11.9031607969
 20
10.4124789204
 11
11.8732943705
 21
10.4402727655
  0
LINE
  5
2D2
100
AcDbEntity
  8
0
100
AcDbLine
 62
7
  6
CONTINUOUS
 10
11.6655339738
 20
5.9050276881
 11
11.9031296611
 21
6.1345275123
  0
LINE
  5
2D3
100
AcDbEntity
  8
0
100
AcDbLine
 62
7
  6
CONTINUOUS
 10
11.6645991837
 20
5.9041415451
 11
11.6655339738
 21
5.9050276881
  0
LINE
  5
2D4
100
AcDbEntity
  8
0
100
AcDbLine
 62
7
  6
CONTINUOUS
 10
11.6645991837
 20
5.9041415451
 11
11.6347327573
 21
5.8763477
  0
LINE
  5
2D5
100
AcDbEntity
  8
0
100
AcDbLine
 62
7
  6
CONTINUOUS
 10
11.4609183428
 20
11.1167625553
 11
11.4357559332
 21
11.1291923039
  0
ARC
  5
2D6
100
AcDbEntity
  8
0
100
AcDbCircle
 62
7
  6
CONTINUOUS
 10
11.0490238223
 20
12.2432004904
 40
1.7455901857
100
AcDbArc
 50
266.0345339438
 51
266.9828267507
  0
ARC
  5
2D7
100
AcDbEntity
  8
0
100
AcDbCircle
 62
7
  6
CONTINUOUS
 10
11.0490238223
 20
12.6637997161
 40
1.7455901857
100
AcDbArc
 50
266.0345339438
 51
266.9828267507
  0
ARC
  5
2D8
100
AcDbEntity
  8
0
100
AcDbCircle
 62
7
  6
CONTINUOUS
 10
11.0445482797
 20
12.1787666245
 40
1.681001073
100
AcDbArc
 50
265.064846266
 51
266.0348369886
  0
ARC
  5
2D9
100
AcDbEntity
  8
0
100
AcDbCircle
 62
7
  6
CONTINUOUS
 10
11.0434506042
 20
12.5852617107
 40
1.6668547949
100
AcDbArc
 50
265.0607301035
 51
266.0389531511
  0
ARC
  5
2DA
100
AcDbEntity
  8
0
100
AcDbCircle
 62
7
  6
CONTINUOUS
 10
10.749340278
 20
7.3850654057
 40
0.328056861
100
AcDbArc
 50
96.4424787403
 51
96.8445407971
  0
ARC
  5
2DB
100
AcDbEntity
  8
0
100
AcDbCircle
 62
7
  6
CONTINUOUS
 10
11.1951058561
 20
8.1549453796
 40
0.1193632688
100
AcDbArc
 50
19.0195626704
 51
21.1065240675
  0
ARC
  5
2DC
100
AcDbEntity
  8
0
100
AcDbCircle
 62
7
  6
CONTINUOUS
 10
10.2526290731
 20
8.7558144734
 40
0.0685739135
100
AcDbArc
 50
218.8312951683
 51
229.2574545736
  0
SPLINE
  5
2DD
100
AcDbEntity
  8
0
100
AcDbSpline
 62
7
  6
CONTINUOUS
 70
0
 71
3
 72
23
 73
19
 74
0
 42
0.0000001
 43
0.0000001
 44
0.0000000001
 40
0.0
 40
0.0
 40
0.0
 40
0.0
 40
0.0522567325
 40
0.1072398806
 40
0.1646979768
 40
0.2243625986
 40
0.2859486633
 40
0.349158256
 40
0.4136825614
 40
0.4792037172
 40
0.5453980051
 40
0.6119365621
 40
0.6784891852
 40
0.7447247455
 40
0.8103148496
 40
0.8749347999
 40
0.9382663468
 40
1.0
 40
1.0
 40
1.0
 40
1.0
 10
10.8292618835
 20
7.7060383288
 30
0.0
 10
10.827234979
 20
7.7065107387
 30
0.0
 10
10.8230591338
 20
7.7074112746
 30
0.0
 10
10.8166089739
 20
7.7086077791
 30
0.0
 10
10.8098381611
 20
7.7096801264
 30
0.0
 10
10.8027827063
 20
7.7106222734
 30
0.0
 10
10.795480072
 20
7.7114293125
 30
0.0
 10
10.787969074
 20
7.7120967523
 30
0.0
 10
10.7802896686
 20
7.7126210897
 30
0.0
 10
10.7724826974
 20
7.7129994378
 30
0.0
 10
10.7645897177
 20
7.7132297848
 30
0.0
 10
10.7566527186
 20
7.7133108961
 30
0.0
 10
10.7487139585
 20
7.7132422964
 30
0.0
 10
10.7408156725
 20
7.7130244259
 30
0.0
 10
10.7329999124
 20
7.7126583545
 30
0.0
 10
10.7253082406
 20
7.7121461933
 30
0.0
 10
10.7177816427
 20
7.7114905206
 30
0.0
 10
10.7128293311
 20
7.7109525236
 30
0.0
 10
10.7103882574
 20
7.7106589301
 30
0.0
  0
SPLINE
  5
2DE
100
AcDbEntity
  8
0
100
AcDbSpline
 62
7
  6
CONTINUOUS
 70
0
 71
3
 72
30
 73
26
 74
0
 42
0.0000001
 43
0.0000001
 44
0.0000000001
 40
0.0
 40
0.0
 40
0.0
 40
0.0
 40
0.0146508298
 40
0.0308656063
 40
0.0486950076
 40
0.0681603299
 40
0.0892613709
 40
0.1119808362
 40
0.1362800838
 40
0.1621102098
 40
0.1894111834
 40
0.2181124418
 40
0.2481384425
 40
0.279403448
 40
0.311817019
 40
0.3452836781
 40
0.4149626245
 40
0.4875877993
 40
0.5622526032
 40
0.6380158724
 40
0.7139186383
 40
0.7889999331
 40
0.8623120254
 40
0.9329361937
 40
1.0
 40
1.0
 40
1.0
 40
1.0
 10
11.2477029793
 20
8.2544225051
 30
0.0
 10
11.2471051013
 20
8.2538663174
 30
0.0
 10
11.2457761684
 20
8.2527682686
 30
0.0
 10
11.243534143
 20
8.2512339507
 30
0.0
 10
11.2409522333
 20
8.2497363883
 30
0.0
 10
11.2380392764
 20
8.2482806124
 30
0.0
 10
11.2348044437
 20
8.2468708185
 30
0.0
 10
11.231258031
 20
8.2455119609
 30
0.0
 10
11.2274117972
 20
8.2442081403
 30
0.0
 10
11.2232785129
 20
8.2429641648
 30
0.0
 10
11.2188720769
 20
8.2417843196
 30
0.0
 10
11.2142073435
 20
8.2406723765
 30
0.0
 10
11.2093000023
 20
8.2396325235
 30
0.0
 10
11.2041666776
 20
8.2386680052
 30
0.0
 10
11.1988247219
 20
8.2377822421
 30
0.0
 10
11.1913472685
 20
8.2366958906
 30
0.0
 10
11.1816137132
 20
8.2355643635
 30
0.0
 10
11.1695589872
 20
8.2345772155
 30
0.0
 10
11.1571403156
 20
8.2339571405
 30
0.0
 10
11.1445259788
 20
8.2337127275
 30
0.0
 10
11.1318867744
 20
8.2338473543
 30
0.0
 10
11.1193939091
 20
8.2343591358
 30
0.0
 10
11.1072164538
 20
8.2352409602
 30
0.0
 10
11.0955194566
 20
8.2364805319
 30
0.0
 10
11.0879201263
 20
8.2375661433
 30
0.0
 10
11.0842317996
 20
8.2381727331
 30
0.0
  0
SPLINE
  5
2DF
100
AcDbEntity
  8
0
100
AcDbSpline
 62
7
  6
CONTINUOUS
 70
0
 71
3
 72
27
 73
23
 74
0
 42
0.0000001
 43
0.0000001
 44
0.0000000001
 40
0.0
 40
0.0
 40
0.0
 40
0.0
 40
0.0663773605
 40
0.1345568949
 40
0.2040441493
 40
0.2743313129
 40
0.3449030788
 40
0.4152416275
 40
0.4848309812
 40
0.5531630146
 40
0.6197404263
 40
0.6840846084
 40
0.7457383209
 40
0.8042719717
 40
0.8322456164
 40
0.8592942474
 40
0.8853744954
 40
0.9104478848
 40
0.9344777714
 40
0.9574305782
 40
0.9792791762
 40
1.0
 40
1.0
 40
1.0
 40
1.0
 10
11.0935905507
 20
8.247686234
 30
0.0
 10
11.0970455656
 20
8.2473042843
 30
0.0
 10
11.1040602168
 20
8.2466252121
 30
0.0
 10
11.1147194237
 20
8.2458629203
 30
0.0
 10
11.1255984057
 20
8.2453470708
 30
0.0
 10
11.136611638
 20
8.2450818879
 30
0.0
 10
11.1476726307
 20
8.2450692596
 30
0.0
 10
11.1586944781
 20
8.2453095285
 30
0.0
 10
11.1695906198
 20
8.2458006559
 30
0.0
 10
11.1802754646
 20
8.2465386324
 30
0.0
 10
11.1906651232
 20
8.2475177983
 30
0.0
 10
11.20067812
 20
8.2487300292
 30
0.0
 10
11.210235845
 20
8.2501657713
 30
0.0
 10
11.217870272
 20
8.2515590942
 30
0.0
 10
11.223689914
 20
8.2527833159
 30
0.0
 10
11.2278291849
 20
8.2537359116
 30
0.0
 10
11.2318010593
 20
8.2547350295
 30
0.0
 10
11.2355978351
 20
8.2557785335
 30
0.0
 10
11.2392120708
 20
8.2568643876
 30
0.0
 10
11.2426366471
 20
8.2579906442
 30
0.0
 10
11.245864895
 20
8.2591548329
 30
0.0
 10
11.2479376605
 20
8.2599767518
 30
0.0
 10
11.2489389796
 20
8.2603948773
 30
0.0
  0
SPLINE
  5
2E0
100
AcDbEntity
  8
0
100
AcDbSpline
 62
7
  6
CONTINUOUS
 70
0
 71
3
 72
48
 73
44
 74
0
 42
0.0000001
 43
0.0000001
 44
0.0000000001
 40
0.0
 40
0.0
 40
0.0
 40
0.0
 40
0.035337873
 40
0.0709864858
 40
0.1068871324
 40
0.1429803508
 40
0.1792063286
 40
0.2155049659
 40
0.251816007
 40
0.2880791691
 40
0.3242342718
 40
0.3602213669
 40
0.3959808657
 40
0.4314536714
 40
0.4665813079
 40
0.5013060507
 40
0.535571063
 40
0.5693205267
 40
0.6024997809
 40
0.6350554656
 40
0.6669356594
 40
0.6980900368
 40
0.7284700225
 40
0.7580289541
 40
0.7867222719
 40
0.8007311658
 40
0.8145080031
 40
0.828047892
 40
0.841346113
 40
0.8543981306
 40
0.8671995948
 40
0.8797463525
 40
0.8920344657
 40
0.9040602144
 40
0.915820109
 40
0.9273109127
 40
0.9385296512
 40
0.9494736264
 40
0.960140443
 40
0.9705280291
 40
0.9806346536
 40
0.99045896
 40
1.0
 40
1.0
 40
1.0
 40
1.0
 10
11.166161693
 20
11.185041425
 30
0.0
 10
11.1602919442
 20
11.1854484935
 30
0.0
 10
11.1484959406
 20
11.1861972483
 30
0.0
 10
11.13072263
 20
11.1871218408
 30
0.0
 10
11.1128143721
 20
11.1878517823
 30
0.0
 10
11.094803038
 20
11.1883857656
 30
0.0
 10
11.0767206671
 20
11.1887228391
 30
0.0
 10
11.0585994269
 20
11.1888623989
 30
0.0
 10
11.0404715516
 20
11.188804197
 30
0.0
 10
11.0223692885
 20
11.1885483373
 30
0.0
 10
11.0043248388
 20
11.1880952755
 30
0.0
 10
10.9863703005
 20
11.1874458226
 30
0.0
 10
10.9685376111
 20
11.1866011372
 30
0.0
 10
10.9508584907
 20
11.1855627282
 30
0.0
 10
10.9333643847
 20
11.1843324519
 30
0.0
 10
10.9160864084
 20
11.182912504
 30
0.0
 10
10.8990552907
 20
11.1813054233
 30
0.0
 10
10.8823013192
 20
11.179514081
 30
0.0
 10
10.8658542859
 20
11.1775416777
 30
0.0
 10
10.8497434337
 20
11.1753917408
 30
0.0
 10
10.8339974028
 20
11.173068112
 30
0.0
 10
10.8186441829
 20
11.1705749471
 30
0.0
 10
10.803711046
 20
11.1679167062
 30
0.0
 10
10.7892245579
 20
11.1650981394
 30
0.0
 10
10.7774542985
 20
11.1626004797
 30
0.0
 10
10.7682825667
 20
11.160523237
 30
0.0
 10
10.7615860637
 20
11.1589408241
 30
0.0
 10
10.7550200187
 20
11.1573222362
 30
0.0
 10
10.7485873459
 20
11.1556681886
 30
0.0
 10
10.7422909048
 20
11.1539794208
 30
0.0
 10
10.736133493
 20
11.1522566845
 30
0.0
 10
10.7301178469
 20
11.150500746
 30
0.0
 10
10.724246638
 20
11.1487123889
 30
0.0
 10
10.7185224736
 20
11.1468924096
 30
0.0
 10
10.7129478959
 20
11.1450416171
 30
0.0
 10
10.7075253787
 20
11.1431608366
 30
0.0
 10
10.7022573275
 20
11.1412509056
 30
0.0
 10
10.6971460797
 20
11.1393126724
 30
0.0
 10
10.6921939004
 20
11.1373469993
 30
0.0
 10
10.6874029849
 20
11.1353547616
 30
0.0
 10
10.682775448
 20
11.1333368396
 30
0.0
 10
10.6783133627
 20
11.1312941397
 30
0.0
 10
10.6754076397
 20
11.1298959208
 30
0.0
 10
10.673983333
 20
11.1291923407
 30
0.0
  0
SPLINE
  5
2E1
100
AcDbEntity
  8
0
100
AcDbSpline
 62
7
  6
CONTINUOUS
 70
0
 71
3
 72
15
 73
11
 74
0
 42
0.0000001
 43
0.0000001
 44
0.0000000001
 40
0.0
 40
0.0
 40
0.0
 40
0.0
 40
0.1134581172
 40
0.2300154468
 40
0.3497835267
 40
0.4728652766
 40
0.5993515156
 40
0.7293230661
 40
0.8628525369
 40
1.0
 40
1.0
 40
1.0
 40
1.0
 10
11.5340049698
 20
11.0699317566
 30
0.0
 10
11.5335048647
 20
11.0705663668
 30
0.0
 10
11.5324663974
 20
11.071833716
 30
0.0
 10
11.5308196747
 20
11.07370334
 30
0.0
 10
11.5290637911
 20
11.0755661988
 30
0.0
 10
11.5271991899
 20
11.0774218406
 30
0.0
 10
11.5252262917
 20
11.0792698729
 30
0.0
 10
11.5231455384
 20
11.0811098892
 30
0.0
 10
11.5209574299
 20
11.0829414603
 30
0.0
 10
11.5194477984
 20
11.0841404502
 30
0.0
 10
11.5186757334
 20
11.0847386367
 30
0.0
  0
SPLINE
  5
2E2
100
AcDbEntity
  8
0
100
AcDbSpline
 62
7
  6
CONTINUOUS
 70
0
 71
3
 72
11
 73
7
 74
0
 42
0.0000001
 43
0.0000001
 44
0.0000000001
 40
0.0
 40
0.0
 40
0.0
 40
0.0
 40
0.2529397892
 40
0.5039896353
 40
0.7530425383
 40
1.0
 40
1.0
 40
1.0
 40
1.0
 10
11.5186757334
 20
11.0847386367
 30
0.0
 10
11.5139210724
 20
11.0876440639
 30
0.0
 10
11.5043921215
 20
11.0933436117
 30
0.0
 10
11.489981501
 20
11.1015638252
 30
0.0
 10
11.4755064123
 20
11.1093970411
 30
0.0
 10
11.4657725303
 20
11.1143645425
 30
0.0
 10
11.4608949327
 20
11.1167741189
 30
0.0
  0
SPLINE
  5
2E3
100
AcDbEntity
  8
0
100
AcDbSpline
 62
7
  6
CONTINUOUS
 70
0
 71
3
 72
34
 73
30
 74
0
 42
0.0000001
 43
0.0000001
 44
0.0000000001
 40
0.0
 40
0.0
 40
0.0
 40
0.0
 40
0.0217725916
 40
0.0439986752
 40
0.0899309102
 40
0.138039581
 40
0.1885282607
 40
0.2147206112
 40
0.2415662389
 40
0.2690789867
 40
0.297269905
 40
0.3261472663
 40
0.3557166266
 40
0.3859809115
 40
0.4169405295
 40
0.448593509
 40
0.4809356504
 40
0.5139607
 40
0.5476605393
 40
0.5820253739
 40
0.6170439239
 40
0.6527036129
 40
0.6889907534
 40
0.7258907302
 40
0.763388173
 40
0.8014671134
 40
0.8401111344
 40
0.9190265817
 40
1.0
 40
1.0
 40
1.0
 40
1.0
 10
10.6576836857
 20
11.1211406271
 30
0.0
 10
10.6568205834
 20
11.1207143099
 30
0.0
 10
10.6550920902
 20
11.119820608
 30
0.0
 10
10.651626833
 20
11.1178693693
 30
0.0
 10
10.6472829393
 20
11.1151123465
 30
0.0
 10
10.6421194686
 20
11.1113408246
 30
0.0
 10
10.6378664544
 20
11.1078207581
 30
0.0
 10
10.6344629608
 20
11.1047594308
 30
0.0
 10
10.6318788188
 20
11.1023080636
 30
0.0
 10
10.6292949099
 20
11.0997298475
 30
0.0
 10
10.6267116318
 20
11.0970253699
 30
0.0
 10
10.6241294233
 20
11.0941955425
 30
0.0
 10
10.6215487025
 20
11.0912415314
 30
0.0
 10
10.6189698799
 20
11.0881647624
 30
0.0
 10
10.6163933504
 20
11.0849669014
 30
0.0
 10
10.6138194928
 20
11.0816498397
 30
0.0
 10
10.6112486657
 20
11.0782156756
 30
0.0
 10
10.6086812056
 20
11.0746666944
 30
0.0
 10
10.6061174264
 20
11.071005346
 30
0.0
 10
10.6035576169
 20
11.0672342236
 30
0.0
 10
10.6010020408
 20
11.063356042
 30
0.0
 10
10.5984509355
 20
11.059373616
 30
0.0
 10
10.5959045117
 20
11.05528984
 30
0.0
 10
10.5933629536
 20
11.0511076665
 30
0.0
 10
10.5908264216
 20
11.0468300879
 30
0.0
 10
10.5882950441
 20
11.0424601174
 30
0.0
 10
10.5849032849
 20
11.0364726023
 30
0.0
 10
10.5806816723
 20
11.0287760153
 30
0.0
 10
10.5773824084
 20
11.0225234935
 30
0.0
 10
10.5757342211
 20
11.019345305
 30
0.0
  0
SPLINE
  5
2E4
100
AcDbEntity
  8
0
100
AcDbSpline
 62
7
  6
CONTINUOUS
 70
0
 71
3
 72
35
 73
31
 74
0
 42
0.0000001
 43
0.0000001
 44
0.0000000001
 40
0.0
 40
0.0
 40
0.0
 40
0.0
 40
0.0211529964
 40
0.0430718128
 40
0.0657528391
 40
0.0891908848
 40
0.1133793224
 40
0.1383102111
 40
0.1639744051
 40
0.1903616443
 40
0.2174606373
 40
0.2452591355
 40
0.2737439948
 40
0.3029012327
 40
0.3327160806
 40
0.3631730269
 40
0.3942558596
 40
0.4259477084
 40
0.4582310782
 40
0.4910878829
 40
0.5244994785
 40
0.5584466897
 40
0.5929098378
 40
0.6278687705
 40
0.6633028851
 40
0.6991911552
 40
0.7722434867
 40
0.8468505861
 40
0.9228312928
 40
1.0
 40
1.0
 40
1.0
 40
1.0
 10
11.4357558621
 20
11.129192339
 30
0.0
 10
11.4340063094
 20
11.1300565841
 30
0.0
 10
11.4304214213
 20
11.1317712426
 30
0.0
 10
11.4248898316
 20
11.1342612806
 30
0.0
 10
11.4191117089
 20
11.1367135997
 30
0.0
 10
11.4130909237
 20
11.1391265484
 30
0.0
 10
11.4068314516
 20
11.141498527
 30
0.0
 10
11.4003374475
 20
11.1438279531
 30
0.0
 10
11.3936132212
 20
11.1461132736
 30
0.0
 10
11.3866632397
 20
11.1483529635
 30
0.0
 10
11.3794921229
 20
11.1505455275
 30
0.0
 10
11.3721046397
 20
11.1526895013
 30
0.0
 10
11.3645057047
 20
11.1547834527
 30
0.0
 10
11.3567003751
 20
11.1568259826
 30
0.0
 10
11.3486938465
 20
11.158815726
 30
0.0
 10
11.3404914503
 20
11.1607513534
 30
0.0
 10
11.3320986495
 20
11.1626315713
 30
0.0
 10
11.3235210348
 20
11.1644551235
 30
0.0
 10
11.3147643206
 20
11.1662207912
 30
0.0
 10
11.3058343414
 20
11.1679273947
 30
0.0
 10
11.2967370475
 20
11.1695737935
 30
0.0
 10
11.2874785015
 20
11.1711588873
 30
0.0
 10
11.2780648736
 20
11.1726816174
 30
0.0
 10
11.2685024402
 20
11.1741409653
 30
0.0
 10
11.2587975683
 20
11.1755359613
 30
0.0
 10
11.2455987542
 20
11.1773193864
 30
0.0
 10
11.2287911877
 20
11.179377897
 30
0.0
 10
11.2082755416
 20
11.181563109
 30
0.0
 10
11.187351031
 20
11.1834717447
 30
0.0
 10
11.17326348
 20
11.1845489144
 30
0.0
 10
11.166161693
 20
11.185041425
 30
0.0
  0
SPLINE
  5
2E5
100
AcDbEntity
  8
0
100
AcDbSpline
 62
7
  6
CONTINUOUS
 70
0
 71
3
 72
11
 73
7
 74
0
 42
0.0000001
 43
0.0000001
 44
0.0000000001
 40
0.0
 40
0.0
 40
0.0
 40
0.0
 40
0.2619243624
 40
0.5157102071
 40
0.7616329385
 40
1.0
 40
1.0
 40
1.0
 40
1.0
 10
10.5837507894
 20
10.5901270543
 30
0.0
 10
10.5829977739
 20
10.5908278152
 30
0.0
 10
10.5815379525
 20
10.5922323676
 30
0.0
 10
10.5794581031
 20
10.5943829508
 30
0.0
 10
10.5775239402
 20
10.5965428225
 30
0.0
 10
10.5763136402
 20
10.5980108233
 30
0.0
 10
10.5757342211
 20
10.5987460792
 30
0.0
  0
SPLINE
  5
2E6
100
AcDbEntity
  8
0
100
AcDbSpline
 62
7
  6
CONTINUOUS
 70
0
 71
3
 72
33
 73
29
 74
0
 42
0.0000001
 43
0.0000001
 44
0.0000000001
 40
0.0
 40
0.0
 40
0.0
 40
0.0
 40
0.0213597146
 40
0.0433822441
 40
0.066080427
 40
0.0894640727
 40
0.1135400495
 40
0.1383124221
 40
0.1637826917
 40
0.1899499559
 40
0.216811048
 40
0.2443607939
 40
0.2725922032
 40
0.3014966148
 40
0.3310639264
 40
0.3612827848
 40
0.3921407278
 40
0.423624378
 40
0.4557196006
 40
0.4884116344
 40
0.5216852502
 40
0.5555248549
 40
0.6248378856
 40
0.6962238168
 40
0.7695553961
 40
0.844708023
 40
0.9215612319
 40
1.0
 40
1.0
 40
1.0
 40
1.0
 10
11.4764059219
 20
10.543985352
 30
0.0
 10
11.4770362144
 20
10.5445719068
 30
0.0
 10
11.4782965633
 20
10.5457846505
 30
0.0
 10
11.4801582239
 20
10.5476902478
 30
0.0
 10
11.4820190672
 20
10.5497090717
 30
0.0
 10
11.4838785839
 20
10.551840204
 30
0.0
 10
11.4857363104
 20
10.554082559
 30
0.0
 10
11.4875917871
 20
10.5564348468
 30
0.0
 10
11.4894445649
 20
10.5588956052
 30
0.0
 10
11.4912942071
 20
10.5614632051
 30
0.0
 10
11.4931403016
 20
10.5641358577
 30
0.0
 10
11.4949824527
 20
10.5669116367
 30
0.0
 10
11.496820283
 20
10.5697884928
 30
0.0
 10
11.4986534439
 20
10.5727642635
 30
0.0
 10
11.50048161
 20
10.5758366923
 30
0.0
 10
11.5023044775
 20
10.5790034468
 30
0.0
 10
11.5041217724
 20
10.5822621283
 30
0.0
 10
11.5059332467
 20
10.5856102893
 30
0.0
 10
11.5077386752
 20
10.5890454492
 30
0.0
 10
11.5095378601
 20
10.5925651037
 30
0.0
 10
11.5113306349
 20
10.5961667403
 30
0.0
 10
11.5137313908
 20
10.6011143705
 30
0.0
 10
11.5167115814
 20
10.6074880076
 30
0.0
 10
11.5202327254
 20
10.6153645765
 30
0.0
 10
11.5237262888
 20
10.6235101411
 30
0.0
 10
11.5271921262
 20
10.6319064087
 30
0.0
 10
11.5306303236
 20
10.6405359831
 30
0.0
 10
11.5328822895
 20
10.6463767436
 30
0.0
 10
11.5340049698
 20
10.6493325308
 30
0.0
  0
SPLINE
  5
2E7
100
AcDbEntity
  8
0
100
AcDbSpline
 62
7
  6
CONTINUOUS
 70
0
 71
3
 72
11
 73
7
 74
0
 42
0.0000001
 43
0.0000001
 44
0.0000000001
 40
0.0
 40
0.0
 40
0.0
 40
0.0
 40
0.2598463051
 40
0.5132467979
 40
0.760021328
 40
1.0
 40
1.0
 40
1.0
 40
1.0
 10
11.3790701355
 20
10.5292907505
 30
0.0
 10
11.3827229181
 20
10.5301280034
 30
0.0
 10
11.3899271261
 20
10.5318291018
 30
0.0
 10
11.4005590009
 20
10.5344966138
 30
0.0
 10
11.4108737236
 20
10.537246129
 30
0.0
 10
11.4176283315
 20
10.5391592731
 30
0.0
 10
11.4209503445
 20
10.540130142
 30
0.0
  0
SPLINE
  5
2E8
100
AcDbEntity
  8
0
100
AcDbSpline
 62
7
  6
CONTINUOUS
 70
0
 71
3
 72
54
 73
50
 74
0
 42
0.0000001
 43
0.0000001
 44
0.0000000001
 40
0.0
 40
0.0
 40
0.0
 40
0.0
 40
0.0378658119
 40
0.0761051183
 40
0.1146335181
 40
0.1533656575
 40
0.1922156211
 40
0.2310971581
 40
0.2699239279
 40
0.3086097469
 40
0.3470688339
 40
0.3852160623
 40
0.4229672028
 40
0.4602391819
 40
0.4969503292
 40
0.5330206376
 40
0.5683720287
 40
0.6029286146
 40
0.6366169893
 40
0.6531135641
 40
0.6693668355
 40
0.6853684583
 40
0.7011103011
 40
0.7165844567
 40
0.7317832534
 40
0.7466992682
 40
0.7613253427
 40
0.7756545949
 40
0.789680434
 40
0.8033965782
 40
0.8167970729
 40
0.8298763126
 40
0.8426290622
 40
0.8550504812
 40
0.8671361512
 40
0.8788821083
 40
0.890284882
 40
0.901341533
 40
0.9120496999
 40
0.9224076537
 40
0.9324143619
 40
0.9420695621
 40
0.9513738463
 40
0.9603287595
 40
0.9689369162
 40
0.9772021362
 40
0.9851296068
 40
0.9927260631
 40
1.0
 40
1.0
 40
1.0
 40
1.0
 10
10.944224545
 20
10.4577599451
 30
0.0
 10
10.9509786911
 20
10.4572915435
 30
0.0
 10
10.9645601405
 20
10.4564419941
 30
0.0
 10
10.9850321363
 20
10.4554317662
 30
0.0
 10
11.0056703109
 20
10.454680854
 30
0.0
 10
11.0264255287
 20
10.454191057
 30
0.0
 10
11.0472484205
 20
10.4539635447
 30
0.0
 10
11.068089443
 20
10.4539988637
 30
0.0
 10
11.0888990145
 20
10.4542969272
 30
0.0
 10
11.1096276273
 20
10.4548570238
 30
0.0
 10
11.1302259677
 20
10.4556778136
 30
0.0
 10
11.1506450331
 20
10.456757332
 30
0.0
 10
11.1708362501
 20
10.4580929987
 30
0.0
 10
11.1907515896
 20
10.4596816156
 30
0.0
 10
11.2103436844
 20
10.4615193826
 30
0.0
 10
11.2295659368
 20
10.4636019012
 30
0.0
 10
11.2483726506
 20
10.4659241832
 30
0.0
 10
11.2667190716
 20
10.468480675
 30
0.0
 10
11.281690342
 20
10.470817116
 30
0.0
 10
11.2934025986
 20
10.4728017604
 30
0.0
 10
11.3019836238
 20
10.4743344803
 30
0.0
 10
11.3104176131
 20
10.4759208811
 30
0.0
 10
11.3186995569
 20
10.4775600224
 30
0.0
 10
11.3268245284
 20
10.4792509256
 30
0.0
 10
11.3347876962
 20
10.480992583
 30
0.0
 10
11.3425843254
 20
10.4827839564
 30
0.0
 10
11.3502097812
 20
10.4846239775
 30
0.0
 10
11.3576595313
 20
10.4865115489
 30
0.0
 10
11.3649291485
 20
10.4884455453
 30
0.0
 10
11.3720143131
 20
10.4904248138
 30
0.0
 10
11.3789108162
 20
10.4924481749
 30
0.0
 10
11.3856145626
 20
10.4945144223
 30
0.0
 10
11.3921215733
 20
10.4966223245
 30
0.0
 10
11.3984279872
 20
10.4987706257
 30
0.0
 10
11.4045300639
 20
10.5009580468
 30
0.0
 10
11.4104241863
 20
10.5031832863
 30
0.0
 10
11.4161068638
 20
10.5054450203
 30
0.0
 10
11.4215747341
 20
10.507741905
 30
0.0
 10
11.4268245646
 20
10.5100725772
 30
0.0
 10
11.4318532554
 20
10.5124356565
 30
0.0
 10
11.4366578412
 20
10.5148297465
 30
0.0
 10
11.4412354942
 20
10.5172534357
 30
0.0
 10
11.4455835256
 20
10.5197053011
 30
0.0
 10
11.4496993856
 20
10.5221839095
 30
0.0
 10
11.4535806683
 20
10.5246878238
 30
0.0
 10
11.4572250996
 20
10.5272155952
 30
0.0
 10
11.4606305821
 20
10.5297658062
 30
0.0
 10
11.4637950393
 20
10.5323369354
 30
0.0
 10
11.4657852056
 20
10.5341016586
 30
0.0
 10
11.4667372897
 20
10.5349876748
 30
0.0
  0
SPLINE
  5
2E9
100
AcDbEntity
  8
0
100
AcDbSpline
 62
7
  6
CONTINUOUS
 70
0
 71
3
 72
9
 73
5
 74
0
 42
0.0000001
 43
0.0000001
 44
0.0000000001
 40
0.0
 40
0.0
 40
0.0
 40
0.0
 40
0.5113567822
 40
1.0
 40
1.0
 40
1.0
 40
1.0
 10
10.5910634576
 20
10.5839391992
 30
0.0
 10
10.5897723849
 20
10.5849395064
 30
0.0
 10
10.5872865595
 20
10.5869466861
 30
0.0
 10
10.5848932985
 20
10.5890638284
 30
0.0
 10
10.5837507894
 20
10.5901270543
 30
0.0
  0
SPLINE
  5
2EA
100
AcDbEntity
  8
0
100
AcDbSpline
 62
7
  6
CONTINUOUS
 70
0
 71
3
 72
78
 73
74
 74
0
 42
0.0000001
 43
0.0000001
 44
0.0000000001
 40
0.0
 40
0.0
 40
0.0
 40
0.0
 40
0.0143272391
 40
0.0280688403
 40
0.0412269314
 40
0.0538058922
 40
0.0658126817
 40
0.077257229
 40
0.0881528974
 40
0.0985170273
 40
0.1083715635
 40
0.1177437541
 40
0.1266668966
 40
0.1351810715
 40
0.1433337651
 40
0.1472925702
 40
0.1511823944
 40
0.1550113414
 40
0.1587879591
 40
0.1625211927
 40
0.1662203405
 40
0.1698949835
 40
0.1735549165
 40
0.1772100631
 40
0.1808703899
 40
0.1845458173
 40
0.1882461327
 40
0.1919809079
 40
0.1957594277
 40
0.1995906228
 40
0.2034830246
 40
0.2074447176
 40
0.2114833233
 40
0.219817505
 40
0.2285388048
 40
0.237690794
 40
0.2473099402
 40
0.2574263023
 40
0.2680642811
 40
0.2792433448
 40
0.2909786935
 40
0.3032818427
 40
0.3161611242
 40
0.329622112
 40
0.3436679782
 40
0.3582997917
 40
0.3735167682
 40
0.3893164779
 40
0.4056950214
 40
0.4226471778
 40
0.4401665282
 40
0.4582455638
 40
0.4768757767
 40
0.4960477385
 40
0.5157511708
 40
0.5359750042
 40
0.5567074325
 40
0.5779359611
 40
0.5996474489
 40
0.6218281487
 40
0.6444637425
 40
0.6675393743
 40
0.6910396822
 40
0.7149488261
 40
0.7392505152
 40
0.7639280353
 40
0.7889642719
 40
0.814341736
 40
0.8400425856
 40
0.8660486511
 40
0.8923414481
 40
0.9457114773
 40
1.0
 40
1.0
 40
1.0
 40
1.0
 10
10.673983333
 20
11.1291923407
 30
0.0
 10
10.6721585149
 20
11.1282909159
 30
0.0
 10
10.6686065816
 20
11.1264775247
 30
0.0
 10
10.6634698223
 20
11.1236624582
 30
0.0
 10
10.6586391397
 20
11.1208112426
 30
0.0
 10
10.6541182874
 20
11.1179260692
 30
0.0
 10
10.6499107079
 20
11.1150091011
 30
0.0
 10
10.6460196124
 20
11.1120625
 30
0.0
 10
10.6424479658
 20
11.1090884047
 30
0.0
 10
10.639198504
 20
11.1060889249
 30
0.0
 10
10.6362737481
 20
11.1030661225
 30
0.0
 10
10.6336760448
 20
11.1000220374
 30
0.0
 10
10.6314075663
 20
11.096958593
 30
0.0
 10
10.6294704919
 20
11.0938779888
 30
0.0
 10
10.6281209433
 20
11.0912725906
 30
0.0
 10
10.6272158966
 20
11.089186627
 30
0.0
 10
10.6266275308
 20
11.0876348636
 30
0.0
 10
10.6261231833
 20
11.0860809776
 30
0.0
 10
10.6257029572
 20
11.0845252585
 30
0.0
 10
10.6253669769
 20
11.0829680324
 30
0.0
 10
10.6251153222
 20
11.0814096278
 30
0.0
 10
10.6249480737
 20
11.0798503773
 30
0.0
 10
10.6248652695
 20
11.0782906207
 30
0.0
 10
10.6248669416
 20
11.0767306994
 30
0.0
 10
10.6249530835
 20
11.0751709562
 30
0.0
 10
10.6251236738
 20
11.073611733
 30
0.0
 10
10.6253786631
 20
11.0720533685
 30
0.0
 10
10.6257179788
 20
11.0704961957
 30
0.0
 10
10.6261415327
 20
11.0689405442
 30
0.0
 10
10.6266492085
 20
11.0673867313
 30
0.0
 10
10.6272408815
 20
11.065835081
 30
0.0
 10
10.6279164136
 20
11.0642858723
 30
0.0
 10
10.6289393382
 20
11.0622022998
 30
0.0
 10
10.6304358859
 20
11.0596017037
 30
0.0
 10
10.6325454346
 20
11.0565298481
 30
0.0
 10
10.6349853136
 20
11.053476197
 30
0.0
 10
10.6377532896
 20
11.0504429309
 30
0.0
 10
10.6408471233
 20
11.0474319939
 30
0.0
 10
10.6442643765
 20
11.0444454482
 30
0.0
 10
10.6480024209
 20
11.0414853782
 30
0.0
 10
10.6520584024
 20
11.0385539112
 30
0.0
 10
10.6564292304
 20
11.0356531985
 30
0.0
 10
10.6611115687
 20
11.0327854061
 30
0.0
 10
10.666101833
 20
11.0299527038
 30
0.0
 10
10.6713961904
 20
11.0271572563
 30
0.0
 10
10.6769905617
 20
11.0244012159
 30
0.0
 10
10.6828806244
 20
11.0216867166
 30
0.0
 10
10.6890618163
 20
11.0190158685
 30
0.0
 10
10.6955293403
 20
11.0163907545
 30
0.0
 10
10.7022781685
 20
11.0138134259
 30
0.0
 10
10.709303047
 20
11.0112859002
 30
0.0
 10
10.7165985009
 20
11.008810158
 30
0.0
 10
10.7241588392
 20
11.006388141
 30
0.0
 10
10.7319781597
 20
11.0040217499
 30
0.0
 10
10.7400503544
 20
11.0017128423
 30
0.0
 10
10.7483691146
 20
10.9994632314
 30
0.0
 10
10.7569279361
 20
10.997274684
 30
0.0
 10
10.765720125
 20
10.9951489193
 30
0.0
 10
10.7747388027
 20
10.993087607
 30
0.0
 10
10.7839769118
 20
10.9910923664
 30
0.0
 10
10.793427222
 20
10.9891647649
 30
0.0
 10
10.8030823355
 20
10.9873063166
 30
0.0
 10
10.8129346932
 20
10.9855184812
 30
0.0
 10
10.8229765806
 20
10.9838026631
 30
0.0
 10
10.8332001342
 20
10.9821602099
 30
0.0
 10
10.8435973474
 20
10.9805924113
 30
0.0
 10
10.8541600769
 20
10.9791004987
 30
0.0
 10
10.86488005
 20
10.9776856433
 30
0.0
 10
10.8757488683
 20
10.9763489574
 30
0.0
 10
10.8867580238
 20
10.9750914853
 30
0.0
 10
10.9016863294
 20
10.9735140142
 30
0.0
 10
10.9206343499
 20
10.9717501933
 30
0.0
 10
10.9358837779
 20
10.970575151
 30
0.0
 10
10.9435774979
 20
10.9700415897
 30
0.0
  0
SPLINE
  5
2EB
100
AcDbEntity
  8
0
100
AcDbSpline
 62
7
  6
CONTINUOUS
 70
0
 71
3
 72
48
 73
44
 74
0
 42
0.0000001
 43
0.0000001
 44
0.0000000001
 40
0.0
 40
0.0
 40
0.0
 40
0.0
 40
0.0424430501
 40
0.0845010096
 40
0.1261333147
 40
0.167299784
 40
0.2079609467
 40
0.2480779717
 40
0.2876127748
 40
0.3265280626
 40
0.364787404
 40
0.4023552911
 40
0.4391972096
 40
0.4752797102
 40
0.510570482
 40
0.545038437
 40
0.5786537926
 40
0.6113881679
 40
0.6432146881
 40
0.6741080963
 40
0.7040448861
 40
0.7330034459
 40
0.7609642276
 40
0.7879099449
 40
0.8138258001
 40
0.826393915
 40
0.8387002978
 40
0.8507439403
 40
0.8625240342
 40
0.8740400201
 40
0.8852915707
 40
0.8962786371
 40
0.907001444
 40
0.9174605291
 40
0.9276567558
 40
0.9375913444
 40
0.9472659029
 40
0.9566824513
 40
0.9658434717
 40
0.9747519285
 40
0.9834113368
 40
0.9918257814
 40
1.0
 40
1.0
 40
1.0
 40
1.0
 10
10.944224545
 20
10.4577599451
 30
0.0
 10
10.9397795902
 20
10.4580682037
 30
0.0
 10
10.930932691
 20
10.4587213634
 30
0.0
 10
10.917736522
 20
10.4598164958
 30
0.0
 10
10.9046845141
 20
10.4610217226
 30
0.0
 10
10.8917903947
 20
10.462335774
 30
0.0
 10
10.8790677189
 20
10.4637572638
 30
0.0
 10
10.8665298585
 20
10.4652846939
 30
0.0
 10
10.8541899916
 20
10.4669164534
 30
0.0
 10
10.8420610868
 20
10.4686508219
 30
0.0
 10
10.8301558902
 20
10.4704859704
 30
0.0
 10
10.8184869117
 20
10.4724199635
 30
0.0
 10
10.8070664112
 20
10.4744507613
 30
0.0
 10
10.7959063863
 20
10.4765762217
 30
0.0
 10
10.7850185584
 20
10.4787941026
 30
0.0
 10
10.7744143613
 20
10.4811020641
 30
0.0
 10
10.7641049275
 20
10.4834976714
 30
0.0
 10
10.7541010769
 20
10.4859783971
 30
0.0
 10
10.7444133047
 20
10.488541624
 30
0.0
 10
10.7350517694
 20
10.4911846482
 30
0.0
 10
10.7260262808
 20
10.4939046827
 30
0.0
 10
10.7173462932
 20
10.4966988595
 30
0.0
 10
10.709020875
 20
10.4995642365
 30
0.0
 10
10.7010587691
 20
10.5024977922
 30
0.0
 10
10.6946697571
 20
10.5050217618
 30
0.0
 10
10.6897489153
 20
10.5070750713
 30
0.0
 10
10.6861919802
 20
10.508614441
 30
0.0
 10
10.6827319355
 20
10.510168518
 30
0.0
 10
10.6793696851
 20
10.5117369058
 30
0.0
 10
10.6761061091
 20
10.5133191868
 30
0.0
 10
10.6729420627
 20
10.5149149514
 30
0.0
 10
10.6698783724
 20
10.516523778
 30
0.0
 10
10.6669158403
 20
10.5181452491
 30
0.0
 10
10.6640552398
 20
10.5197789392
 30
0.0
 10
10.6612973182
 20
10.5214244236
 30
0.0
 10
10.6586427954
 20
10.5230812741
 30
0.0
 10
10.6560923629
 20
10.5247490593
 30
0.0
 10
10.6536466869
 20
10.5264273496
 30
0.0
 10
10.6513064023
 20
10.5281157086
 30
0.0
 10
10.6490721231
 20
10.5298137043
 30
0.0
 10
10.646944421
 20
10.5315209027
 30
0.0
 10
10.6449238803
 20
10.53323685
 30
0.0
 10
10.6436301273
 20
10.5344030441
 30
0.0
 10
10.6430019388
 20
10.5349876396
 30
0.0
  0
SPLINE
  5
2EC
100
AcDbEntity
  8
0
100
AcDbSpline
 62
7
  6
CONTINUOUS
 70
0
 71
3
 72
11
 73
7
 74
0
 42
0.0000001
 43
0.0000001
 44
0.0000000001
 40
0.0
 40
0.0
 40
0.0
 40
0.0
 40
0.2598463051
 40
0.5132467979
 40
0.760021328
 40
1.0
 40
1.0
 40
1.0
 40
1.0
 10
11.3790701355
 20
10.9498899762
 30
0.0
 10
11.3827229181
 20
10.9507272292
 30
0.0
 10
11.3899271261
 20
10.9524283276
 30
0.0
 10
11.4005590009
 20
10.9550958395
 30
0.0
 10
11.4108737236
 20
10.9578453547
 30
0.0
 10
11.4176283315
 20
10.9597584989
 30
0.0
 10
11.4209503445
 20
10.9607293678
 30
0.0
  0
SPLINE
  5
2ED
100
AcDbEntity
  8
0
100
AcDbSpline
 62
7
  6
CONTINUOUS
 70
0
 71
3
 72
15
 73
11
 74
0
 42
0.0000001
 43
0.0000001
 44
0.0000000001
 40
0.0
 40
0.0
 40
0.0
 40
0.0
 40
0.1134581172
 40
0.2300154468
 40
0.3497835267
 40
0.4728652766
 40
0.5993515156
 40
0.7293230661
 40
0.8628525369
 40
1.0
 40
1.0
 40
1.0
 40
1.0
 10
10.5757342211
 20
11.019345305
 30
0.0
 10
10.5762343263
 20
11.0187106948
 30
0.0
 10
10.5772727936
 20
11.0174433456
 30
0.0
 10
10.5789195163
 20
11.0155737216
 30
0.0
 10
10.5806753999
 20
11.0137108628
 30
0.0
 10
10.5825400011
 20
11.011855221
 30
0.0
 10
10.5845128993
 20
11.0100071887
 30
0.0
 10
10.5865936526
 20
11.0081671724
 30
0.0
 10
10.5887817611
 20
11.0063356013
 30
0.0
 10
10.5902913926
 20
11.0051366114
 30
0.0
 10
10.5910634576
 20
11.0045384249
 30
0.0
  0
SPLINE
  5
2EE
100
AcDbEntity
  8
0
100
AcDbSpline
 62
7
  6
CONTINUOUS
 70
0
 71
3
 72
34
 73
30
 74
0
 42
0.0000001
 43
0.0000001
 44
0.0000000001
 40
0.0
 40
0.0
 40
0.0
 40
0.0
 40
0.0584985217
 40
0.0878302154
 40
0.1172264578
 40
0.1466957754
 40
0.1762472446
 40
0.2058904391
 40
0.2356353474
 40
0.26549227
 40
0.2954716926
 40
0.3255841373
 40
0.3558399988
 40
0.3862493677
 40
0.4168218488
 40
0.4475663812
 40
0.478491069
 40
0.5096030303
 40
0.5409082717
 40
0.5724115962
 40
0.6041165445
 40
0.6360253728
 40
0.6681390667
 40
0.7004573863
 40
0.7329789408
 40
0.7986184052
 40
0.8650303965
 40
0.9321737117
 40
1.0
 40
1.0
 40
1.0
 40
1.0
 10
10.5910634576
 20
11.0045384249
 30
0.0
 10
10.597378778
 20
11.0051284769
 30
0.0
 10
10.6068771364
 20
11.0058518326
 30
0.0
 10
10.6195734827
 20
11.0064636192
 30
0.0
 10
10.6291331355
 20
11.0067394289
 30
0.0
 10
10.6387202136
 20
11.0068241572
 30
0.0
 10
10.6483338281
 20
11.0067103651
 30
0.0
 10
10.6579727425
 20
11.006390834
 30
0.0
 10
10.6676354708
 20
11.0058586782
 30
0.0
 10
10.6773202434
 20
11.0051074455
 30
0.0
 10
10.6870250166
 20
11.0041312253
 30
0.0
 10
10.6967474801
 20
11.0029247563
 30
0.0
 10
10.7064850753
 20
11.0014835286
 30
0.0
 10
10.7162350219
 20
10.9998038769
 30
0.0
 10
10.7259943522
 20
10.9978830608
 30
0.0
 10
10.7357599523
 20
10.9957193285
 30
0.0
 10
10.74552861
 20
10.9933119607
 30
0.0
 10
10.755297066
 20
10.9906612912
 30
0.0
 10
10.7650620674
 20
10.9877687064
 30
0.0
 10
10.7748204206
 20
10.9846366164
 30
0.0
 10
10.7845690406
 20
10.9812684063
 30
0.0
 10
10.7943050003
 20
10.9776683659
 30
0.0
 10
10.8040255554
 20
10.9738416102
 30
0.0
 10
10.8137282296
 20
10.9697939563
 30
0.0
 10
10.8266774444
 20
10.9640939178
 30
0.0
 10
10.842804726
 20
10.9564469558
 30
0.0
 10
10.8619955324
 20
10.9465296975
 30
0.0
 10
10.8810758408
 20
10.9359064408
 30
0.0
 10
10.8936594322
 20
10.9284314111
 30
0.0
 10
10.8999347612
 20
10.9245967504
 30
0.0
  0
SPLINE
  5
2EF
100
AcDbEntity
  8
0
100
AcDbSpline
 62
7
  6
CONTINUOUS
 70
0
 71
3
 72
39
 73
35
 74
0
 42
0.0000001
 43
0.0000001
 44
0.0000000001
 40
0.0
 40
0.0
 40
0.0
 40
0.0
 40
0.0357131608
 40
0.0711808911
 40
0.1063874509
 40
0.14131673
 40
0.1759525851
 40
0.2102791202
 40
0.2442810841
 40
0.2779443343
 40
0.3112563833
 40
0.3442069847
 40
0.3767887365
 40
0.4089976887
 40
0.440833876
 40
0.4723017367
 40
0.5034103601
 40
0.5341735226
 40
0.5646094897
 40
0.5947405559
 40
0.624592402
 40
0.6541932607
 40
0.6835729872
 40
0.7127621379
 40
0.7417910577
 40
0.7706890977
 40
0.7994839942
 40
0.8282013787
 40
0.8568644725
 40
0.8854939395
 40
0.914107851
 40
0.9427217591
 40
0.9713488093
 40
1.0
 40
1.0
 40
1.0
 40
1.0
 10
10.5910634576
 20
10.5839391992
 30
0.0
 10
10.5940945402
 20
10.5813053867
 30
0.0
 10
10.6001789983
 20
10.5761052083
 30
0.0
 10
10.609408622
 20
10.5684947455
 30
0.0
 10
10.6187119823
 20
10.561115401
 30
0.0
 10
10.6280893989
 20
10.5539837072
 30
0.0
 10
10.6375406368
 20
10.5471169476
 30
0.0
 10
10.6470647579
 20
10.5405330782
 30
0.0
 10
10.6566600265
 20
10.5342505484
 30
0.0
 10
10.6663238067
 20
10.5282880777
 30
0.0
 10
10.676052478
 20
10.5226643744
 30
0.0
 10
10.6858413721
 20
10.5173978038
 30
0.0
 10
10.6956847306
 20
10.5125059878
 30
0.0
 10
10.7055757142
 20
10.5080053865
 30
0.0
 10
10.7155064581
 20
10.5039108604
 30
0.0
 10
10.7254681621
 20
10.5002351963
 30
0.0
 10
10.7354512609
 20
10.4969887274
 30
0.0
 10
10.7454456251
 20
10.494178974
 30
0.0
 10
10.7554407993
 20
10.4918103593
 30
0.0
 10
10.7654262863
 20
10.4898841139
 30
0.0
 10
10.7753918099
 20
10.4883982058
 30
0.0
 10
10.7853275846
 20
10.4873474708
 30
0.0
 10
10.7952245477
 20
10.4867238516
 30
0.0
 10
10.8050745393
 20
10.4865166782
 30
0.0
 10
10.8148704372
 20
10.4867130935
 30
0.0
 10
10.8246062263
 20
10.487298467
 30
0.0
 10
10.8342770184
 20
10.4882568195
 30
0.0
 10
10.8438790232
 20
10.4895712572
 30
0.0
 10
10.8534094822
 20
10.4912243481
 30
0.0
 10
10.8628665817
 20
10.4931984576
 30
0.0
 10
10.8722493384
 20
10.4954760317
 30
0.0
 10
10.8815575186
 20
10.4980398365
 30
0.0
 10
10.8907914046
 20
10.5008730914
 30
0.0
 10
10.8968953637
 20
10.502929793
 30
0.0
 10
10.8999347612
 20
10.5039975247
 30
0.0
  0
SPLINE
  5
2F0
100
AcDbEntity
  8
0
100
AcDbSpline
 62
7
  6
CONTINUOUS
 70
0
 71
3
 72
34
 73
30
 74
0
 42
0.0000001
 43
0.0000001
 44
0.0000000001
 40
0.0
 40
0.0
 40
0.0
 40
0.0
 40
0.0634866499
 40
0.1268757617
 40
0.1901559488
 40
0.2217524835
 40
0.2533175613
 40
0.2848498219
 40
0.3163479752
 40
0.3478108244
 40
0.37923729
 40
0.410626433
 40
0.4419774759
 40
0.4732898202
 40
0.5045630611
 40
0.5357969968
 40
0.5669916332
 40
0.5981471839
 40
0.6292640629
 40
0.6603428743
 40
0.6913843958
 40
0.7223895607
 40
0.7533594367
 40
0.7842952036
 40
0.8151981295
 40
0.8460695479
 40
0.8769108365
 40
0.9385071607
 40
1.0
 40
1.0
 40
1.0
 40
1.0
 10
10.9571442066
 20
10.9206292619
 30
0.0
 10
10.9657513767
 20
10.9234456634
 30
0.0
 10
10.9830175212
 20
10.9288781695
 30
0.0
 10
11.0090907484
 20
10.9363699776
 30
0.0
 10
11.0309542763
 20
10.9420116121
 30
0.0
 10
11.0485148089
 20
10.9461310343
 30
0.0
 10
11.0617117911
 20
10.9490151062
 30
0.0
 10
11.0749388548
 20
10.9516879823
 30
0.0
 10
11.0881932817
 20
10.9541430502
 30
0.0
 10
11.101471954
 20
10.9563742358
 30
0.0
 10
11.1147714272
 20
10.9583761285
 30
0.0
 10
11.1280879506
 20
10.9601440784
 30
0.0
 10
11.1414175157
 20
10.9616742902
 30
0.0
 10
11.1547559096
 20
10.9629639012
 30
0.0
 10
11.168098778
 20
10.9640110417
 30
0.0
 10
11.1814416935
 20
10.9648148754
 30
0.0
 10
11.1947802275
 20
10.9653756183
 30
0.0
 10
11.2081100218
 20
10.9656945301
 30
0.0
 10
11.2214268576
 20
10.9657738834
 30
0.0
 10
11.2347267183
 20
10.9656169128
 30
0.0
 10
11.2480058445
 20
10.9652277435
 30
0.0
 10
11.261260779
 20
10.9646113056
 30
0.0
 10
11.2744884013
 20
10.9637732371
 30
0.0
 10
11.2876859527
 20
10.9627197786
 30
0.0
 10
11.3008510383
 20
10.9614576671
 30
0.0
 10
11.3139816683
 20
10.9599940193
 30
0.0
 10
11.3314327086
 20
10.9577847202
 30
0.0
 10
11.3531550832
 20
10.954557063
 30
0.0
 10
11.3704501391
 20
10.951514975
 30
0.0
 10
11.3790701355
 20
10.9498899762
 30
0.0
  0
SPLINE
  5
2F1
100
AcDbEntity
  8
0
100
AcDbSpline
 62
7
  6
CONTINUOUS
 70
0
 71
3
 72
37
 73
33
 74
0
 42
0.0000001
 43
0.0000001
 44
0.0000000001
 40
0.0
 40
0.0
 40
0.0
 40
0.0
 40
0.0609208324
 40
0.1219714527
 40
0.1525553083
 40
0.1831814815
 40
0.2138534995
 40
0.2445749422
 40
0.2753493825
 40
0.3061803013
 40
0.3370709727
 40
0.3680243738
 40
0.3990430764
 40
0.4301291276
 40
0.4612839763
 40
0.4925083981
 40
0.5238024525
 40
0.5551654819
 40
0.5865961359
 40
0.6180924304
 40
0.6496518265
 40
0.6812713434
 40
0.7129476573
 40
0.7446772128
 40
0.7764563415
 40
0.8082813405
 40
0.8401485512
 40
0.8720544325
 40
0.9039956027
 40
0.9359688761
 40
0.967971251
 40
1.0
 40
1.0
 40
1.0
 40
1.0
 10
10.9571442066
 20
10.5000300361
 30
0.0
 10
10.9654599733
 20
10.4968926173
 30
0.0
 10
10.9822272965
 20
10.4909183325
 30
0.0
 10
11.003491213
 20
10.4843191925
 30
0.0
 10
11.020700262
 20
10.4796224558
 30
0.0
 10
11.0337151995
 20
10.4764065174
 30
0.0
 10
11.0468272138
 20
10.4735174198
 30
0.0
 10
11.0600326262
 20
10.4709729616
 30
0.0
 10
11.0733263132
 20
10.4687905911
 30
0.0
 10
11.0867017162
 20
10.4669870174
 30
0.0
 10
11.1001507743
 20
10.4655777967
 30
0.0
 10
11.1136639522
 20
10.4645769117
 30
0.0
 10
11.1272303255
 20
10.4639963538
 30
0.0
 10
11.1408377396
 20
10.4638456817
 30
0.0
 10
11.1544730436
 20
10.4641317117
 30
0.0
 10
11.1681223849
 20
10.4648582388
 30
0.0
 10
11.1817715541
 20
10.4660258529
 30
0.0
 10
11.195406348
 20
10.4676319567
 30
0.0
 10
11.2090129404
 20
10.4696708016
 30
0.0
 10
11.2225782203
 20
10.4721337226
 30
0.0
 10
11.2360900802
 20
10.4750094584
 30
0.0
 10
11.2495376514
 20
10.4782844951
 30
0.0
 10
11.262911453
 20
10.4819435286
 30
0.0
 10
11.2762034767
 20
10.485969893
 30
0.0
 10
11.2894072065
 20
10.4903459809
 30
0.0
 10
11.3025175734
 20
10.4950536571
 30
0.0
 10
11.3155308704
 20
10.5000746042
 30
0.0
 10
11.3284446393
 20
10.5053906224
 30
0.0
 10
11.3412575298
 20
10.5109838725
 30
0.0
 10
11.3539691706
 20
10.5168370743
 30
0.0
 10
11.3665799596
 20
10.522933609
 30
0.0
 10
11.3749175686
 20
10.5271480828
 30
0.0
 10
11.3790701355
 20
10.5292907505
 30
0.0
  0
SPLINE
  5
2F2
100
AcDbEntity
  8
0
100
AcDbSpline
 62
7
  6
CONTINUOUS
 70
0
 71
3
 72
39
 73
35
 74
0
 42
0.0000001
 43
0.0000001
 44
0.0000000001
 40
0.0
 40
0.0
 40
0.0
 40
0.0
 40
0.0452273239
 40
0.0896786838
 40
0.1333179197
 40
0.1761090046
 40
0.2180165362
 40
0.2590062396
 40
0.2990455681
 40
0.3381043592
 40
0.3761555498
 40
0.4131759322
 40
0.4491469344
 40
0.4840553963
 40
0.5178943103
 40
0.550663499
 40
0.5823701918
 40
0.6130294671
 40
0.6426645278
 40
0.6713067821
 40
0.6989956949
 40
0.7257784073
 40
0.7517091201
 40
0.7768482468
 40
0.8012613599
 40
0.8250179648
 40
0.8481901507
 40
0.8708511754
 40
0.893074057
 40
0.9149302395
 40
0.9364883916
 40
0.9578133959
 40
0.9789655448
 40
1.0
 40
1.0
 40
1.0
 40
1.0
 10
11.4209503445
 20
10.9607293678
 30
0.0
 10
11.4220948116
 20
10.962936236
 30
0.0
 10
11.4243858058
 20
10.9673009068
 30
0.0
 10
11.4278615468
 20
10.9737523191
 30
0.0
 10
11.4313476427
 20
10.9800455199
 30
0.0
 10
11.4348439234
 20
10.9861726152
 30
0.0
 10
11.4383501454
 20
10.9921256464
 30
0.0
 10
11.44186598
 20
10.9978966479
 30
0.0
 10
11.44539101
 20
11.0034777311
 30
0.0
 10
11.4489247262
 20
11.0088611738
 30
0.0
 10
11.4524665266
 20
11.0140395201
 30
0.0
 10
11.4560157166
 20
11.0190056846
 30
0.0
 10
11.4595715131
 20
11.0237530624
 30
0.0
 10
11.4631330496
 20
11.0282756378
 30
0.0
 10
11.4666993851
 20
11.0325680887
 30
0.0
 10
11.4702695152
 20
11.0366258843
 30
0.0
 10
11.4738423841
 20
11.0404453692
 30
0.0
 10
11.4774168992
 20
11.0440238335
 30
0.0
 10
11.4809919461
 20
11.047359562
 30
0.0
 10
11.4845664017
 20
11.0504518656
 30
0.0
 10
11.4881391502
 20
11.053301086
 30
0.0
 10
11.4917090948
 20
11.0559085813
 30
0.0
 10
11.4952751701
 20
11.0582766899
 30
0.0
 10
11.4988363515
 20
11.060408677
 30
0.0
 10
11.502391665
 20
11.0623086663
 30
0.0
 10
11.5059401961
 20
11.0639815591
 30
0.0
 10
11.5094810984
 20
11.0654329449
 30
0.0
 10
11.513013604
 20
11.0666690046
 30
0.0
 10
11.5165370312
 20
11.0676964101
 30
0.0
 10
11.5200507969
 20
11.0685222242
 30
0.0
 10
11.5235544106
 20
11.0691538001
 30
0.0
 10
11.527047523
 20
11.0695986852
 30
0.0
 10
11.5305297611
 20
11.0698645295
 30
0.0
 10
11.5328487926
 20
11.0699276424
 30
0.0
 10
11.5340049698
 20
11.0699317566
 30
0.0
  0
SPLINE
  5
2F3
100
AcDbEntity
  8
0
100
AcDbSpline
 62
7
  6
CONTINUOUS
 70
0
 71
3
 72
34
 73
30
 74
0
 42
0.0000001
 43
0.0000001
 44
0.0000000001
 40
0.0
 40
0.0
 40
0.0
 40
0.0
 40
0.0643937578
 40
0.1269866475
 40
0.1878958803
 40
0.24729752
 40
0.2765130097
 40
0.3054503593
 40
0.3341527409
 40
0.3626686458
 40
0.3910519201
 40
0.4193616268
 40
0.4476618608
 40
0.4760213292
 40
0.5045128009
 40
0.5332124696
 40
0.5621990876
 40
0.591553077
 40
0.6213556119
 40
0.6516875412
 40
0.6826284739
 40
0.7142559103
 40
0.7466442876
 40
0.7798643418
 40
0.8490455974
 40
0.8851396092
 40
0.9223007436
 40
0.9605743197
 40
1.0
 40
1.0
 40
1.0
 40
1.0
 10
11.4209503445
 20
10.540130142
 30
0.0
 10
11.4220274472
 20
10.539375154
 30
0.0
 10
11.4241900862
 20
10.5379401447
 30
0.0
 10
11.4275080596
 20
10.5360061914
 30
0.0
 10
11.4308538989
 20
10.5343372805
 30
0.0
 10
11.4336817627
 20
10.5331743904
 30
0.0
 10
11.4359543003
 20
10.5323969403
 30
0.0
 10
11.4376561469
 20
10.5318935607
 30
0.0
 10
11.4393646083
 20
10.5314688361
 30
0.0
 10
11.4410796443
 20
10.5311248453
 30
0.0
 10
11.442801159
 20
10.5308636817
 30
0.0
 10
11.4445290366
 20
10.5306874152
 30
0.0
 10
11.4462631307
 20
10.5305980936
 30
0.0
 10
11.4480032654
 20
10.5305977286
 30
0.0
 10
11.4497492355
 20
10.5306882729
 30
0.0
 10
11.451500807
 20
10.5308716255
 30
0.0
 10
11.4532577198
 20
10.531149602
 30
0.0
 10
11.4550196912
 20
10.5315239248
 30
0.0
 10
11.4567864151
 20
10.5319962276
 30
0.0
 10
11.4585575689
 20
10.5325680191
 30
0.0
 10
11.4603328186
 20
10.5332406895
 30
0.0
 10
11.4621117989
 20
10.5340155007
 30
0.0
 10
11.4638941874
 20
10.5348935899
 30
0.0
 10
11.4663071437
 20
10.5362211837
 30
0.0
 10
11.46869377
 20
10.5377474076
 30
0.0
 10
11.4710496926
 20
10.5394554785
 30
0.0
 10
11.4728431578
 20
10.5408612213
 30
0.0
 10
11.4746375245
 20
10.5423735147
 30
0.0
 10
11.4758163743
 20
10.5434367146
 30
0.0
 10
11.4764059219
 20
10.543985352
 30
0.0
  0
SPLINE
  5
2F4
100
AcDbEntity
  8
0
100
AcDbSpline
 62
7
  6
CONTINUOUS
 70
0
 71
3
 72
102
 73
98
 74
0
 42
0.0000001
 43
0.0000001
 44
0.0000000001
 40
0.0
 40
0.0
 40
0.0
 40
0.0
 40
0.0233089576
 40
0.0467985085
 40
0.0704402588
 40
0.0942054025
 40
0.1180650156
 40
0.1419900056
 40
0.1659511795
 40
0.1899192883
 40
0.213865071
 40
0.2377593026
 40
0.2615728384
 40
0.2852766616
 40
0.3088419283
 40
0.3322400155
 40
0.3554425657
 40
0.3784215355
 40
0.4011492413
 40
0.4235984101
 40
0.4457422253
 40
0.4675543779
 40
0.4890091156
 40
0.5100812959
 40
0.5307464393
 40
0.550980787
 40
0.5707613571
 40
0.5900660081
 40
0.6088735042
 40
0.6271635887
 40
0.6449170631
 40
0.6621158741
 40
0.6787432114
 40
0.6947836205
 40
0.7025794181
 40
0.7102233788
 40
0.7177140119
 40
0.7250499445
 40
0.7322299235
 40
0.7392528191
 40
0.7461176437
 40
0.7528235467
 40
0.7593698365
 40
0.7657559842
 40
0.7719816359
 40
0.7780466333
 40
0.7839510169
 40
0.789695056
 40
0.7952792583
 40
0.8007043944
 40
0.8059715266
 40
0.8110820248
 40
0.816037611
 40
0.8208403812
 40
0.8254928487
 40
0.8299979877
 40
0.8343592702
 40
0.838580728
 40
0.8426669934
 40
0.8466233618
 40
0.8504558463
 40
0.8541712277
 40
0.8612794508
 40
0.8646926329
 40
0.8680243962
 40
0.8712858715
 40
0.8744890198
 40
0.8776465405
 40
0.880771752
 40
0.88387843
 40
0.8869806218
 40
0.8900924411
 40
0.8932278596
 40
0.8964005062
 40
0.8996234901
 40
0.9029092548
 40
0.9062694647
 40
0.9097149376
 40
0.9132555991
 40
0.9169004804
 40
0.9206577303
 40
0.924534647
 40
0.9285377291
 40
0.9326727177
 40
0.9369446623
 40
0.9413579699
 40
0.9459164595
 40
0.9506234207
 40
0.9554816496
 40
0.9604935064
 40
0.9656609453
 40
0.9709855543
 40
0.9764685921
 40
0.9821110066
 40
0.9879134742
 40
0.993876411
 40
1.0
 40
1.0
 40
1.0
 40
1.0
 10
10.9435774979
 20
10.9700415897
 30
0.0
 10
10.9486074501
 20
10.9696927613
 30
0.0
 10
10.9587099051
 20
10.9690430232
 30
0.0
 10
10.9739247361
 20
10.9682143577
 30
0.0
 10
10.9892454656
 20
10.9675285604
 30
0.0
 10
11.0046520462
 20
10.9669865339
 30
0.0
 10
11.0201243189
 20
10.9665889884
 30
0.0
 10
11.035642045
 20
10.9663364463
 30
0.0
 10
11.0511849242
 20
10.9662292386
 30
0.0
 10
11.0667326236
 20
10.9662675058
 30
0.0
 10
11.0822648041
 20
10.9664511976
 30
0.0
 10
11.0977611466
 20
10.9667800731
 30
0.0
 10
11.1132013793
 20
10.967253701
 30
0.0
 10
11.1285653038
 20
10.96787146
 30
0.0
 10
11.1438328221
 20
10.9686325392
 30
0.0
 10
11.1589839624
 20
10.96953594
 30
0.0
 10
11.1739989058
 20
10.9705804767
 30
0.0
 10
11.1888580118
 20
10.9717647788
 30
0.0
 10
11.2035418447
 20
10.9730872924
 30
0.0
 10
11.2180311988
 20
10.9745462813
 30
0.0
 10
11.232307124
 20
10.9761398303
 30
0.0
 10
11.2463509505
 20
10.9778658475
 30
0.0
 10
11.2601443132
 20
10.979722067
 30
0.0
 10
11.2736691762
 20
10.9817060516
 30
0.0
 10
11.286907857
 20
10.9838151961
 30
0.0
 10
11.29984305
 20
10.9860467303
 30
0.0
 10
11.3124578492
 20
10.9883977229
 30
0.0
 10
11.3247357709
 20
10.9908650856
 30
0.0
 10
11.3366607756
 20
10.9934455772
 30
0.0
 10
11.3482172912
 20
10.9961358073
 30
0.0
 10
11.3593902299
 20
10.9989322412
 30
0.0
 10
11.3701650274
 20
11.0018312051
 30
0.0
 10
11.3805275955
 20
11.0048288904
 30
0.0
 10
11.3888857053
 20
11.0074300035
 30
0.0
 10
11.3953537274
 20
11.0095599361
 30
0.0
 10
11.4000473098
 20
11.0111644416
 30
0.0
 10
11.4046280001
 20
11.0127906352
 30
0.0
 10
11.4090943073
 20
11.0144379898
 30
0.0
 10
11.4134447729
 20
11.016105964
 30
0.0
 10
11.4176779771
 20
11.0177940155
 30
0.0
 10
11.4217925403
 20
11.0195015888
 30
0.0
 10
11.4257871202
 20
11.0212281296
 30
0.0
 10
11.4296604157
 20
11.0229730719
 30
0.0
 10
11.4334111656
 20
11.0247358467
 30
0.0
 10
11.4370381481
 20
11.0265158814
 30
0.0
 10
11.4405401849
 20
11.0283125929
 30
0.0
 10
11.4439161363
 20
11.030125401
 30
0.0
 10
11.4471649068
 20
11.0319537144
 30
0.0
 10
11.4502854422
 20
11.0337969417
 30
0.0
 10
11.4532767297
 20
11.0356544889
 30
0.0
 10
11.4561378024
 20
11.0375257538
 30
0.0
 10
11.4588677317
 20
11.0394101402
 30
0.0
 10
11.4614656369
 20
11.0413070415
 30
0.0
 10
11.4639306766
 20
11.043215856
 30
0.0
 10
11.466262053
 20
11.0451359804
 30
0.0
 10
11.4684590131
 20
11.0470668072
 30
0.0
 10
11.4705208402
 20
11.049007739
 30
0.0
 10
11.4724468631
 20
11.050958166
 30
0.0
 10
11.4742364528
 20
11.0529175027
 30
0.0
 10
11.4758889887
 20
11.0548851083
 30
0.0
 10
11.4774040004
 20
11.0568605298
 30
0.0
 10
11.4792129193
 20
11.0594650434
 30
0.0
 10
11.4807809052
 20
11.0621237121
 30
0.0
 10
11.4820777591
 20
11.0648267336
 30
0.0
 10
11.4828974921
 20
11.0668315125
 30
0.0
 10
11.4835769029
 20
11.0688402112
 30
0.0
 10
11.4841157118
 20
11.0708522073
 30
0.0
 10
11.4845136242
 20
11.0728667658
 30
0.0
 10
11.4847704303
 20
11.074883141
 30
0.0
 10
11.4848859838
 20
11.0769005583
 30
0.0
 10
11.4848602121
 20
11.078918228
 30
0.0
 10
11.4846931385
 20
11.0809353564
 30
0.0
 10
11.4843848514
 20
11.0829511575
 30
0.0
 10
11.4839355299
 20
11.0849648663
 30
0.0
 10
11.4833454121
 20
11.0869757442
 30
0.0
 10
11.4826147917
 20
11.0889830821
 30
0.0
 10
11.481744018
 20
11.0909862045
 30
0.0
 10
11.4807334654
 20
11.0929844563
 30
0.0
 10
11.4795835551
 20
11.0949772096
 30
0.0
 10
11.4782947299
 20
11.096963847
 30
0.0
 10
11.4768674645
 20
11.0989437618
 30
0.0
 10
11.4753022689
 20
11.1009163562
 30
0.0
 10
11.4735996766
 20
11.1028810275
 30
0.0
 10
11.4717602654
 20
11.1048371817
 30
0.0
 10
11.4697846419
 20
11.1067842167
 30
0.0
 10
11.4676734546
 20
11.108721532
 30
0.0
 10
11.4654273927
 20
11.1106485276
 30
0.0
 10
11.4630471818
 20
11.1125645957
 30
0.0
 10
11.4605335957
 20
11.114469137
 30
0.0
 10
11.4578874448
 20
11.1163615439
 30
0.0
 10
11.455109586
 20
11.1182412144
 30
0.0
 10
11.4522009185
 20
11.1201075477
 30
0.0
 10
11.4491623821
 20
11.1219599404
 30
0.0
 10
11.4459949644
 20
11.1237977989
 30
0.0
 10
11.4426996873
 20
11.1256205267
 30
0.0
 10
11.4392776353
 20
11.1274275284
 30
0.0
 10
11.4369434774
 20
11.12860568
 30
0.0
 10
11.4357558621
 20
11.129192339
 30
0.0
  0
SPLINE
  5
2F5
100
AcDbEntity
  8
0
100
AcDbSpline
 62
7
  6
CONTINUOUS
 70
0
 71
3
 72
41
 73
37
 74
0
 42
0.0000001
 43
0.0000001
 44
0.0000000001
 40
0.0
 40
0.0
 40
0.0
 40
0.0
 40
0.0311445478
 40
0.0624424446
 40
0.0938872679
 40
0.125469566
 40
0.1571770992
 40
0.1889951145
 40
0.2209066667
 40
0.2528929719
 40
0.2849337877
 40
0.3170078142
 40
0.3490931102
 40
0.381167517
 40
0.4132090858
 40
0.4451965025
 40
0.4771095029
 40
0.5089292747
 40
0.5406388381
 40
0.5722233999
 40
0.6036706736
 40
0.63497116
 40
0.6661183793
 40
0.6971090497
 40
0.7279432042
 40
0.7586242401
 40
0.7891588962
 40
0.8195571523
 40
0.8498320512
 40
0.8649308901
 40
0.8800050513
 40
0.9100832572
 40
0.940092674
 40
0.9550812744
 40
0.9700610349
 40
1.0
 40
1.0
 40
1.0
 40
1.0
 10
11.3837076643
 20
9.0575881668
 30
0.0
 10
11.3871985266
 20
9.0573460747
 30
0.0
 10
11.3941823162
 20
9.0566051769
 30
0.0
 10
11.4045733277
 20
9.0547388561
 30
0.0
 10
11.4148530526
 20
9.0521246744
 30
0.0
 10
11.4249659471
 20
9.0487767225
 30
0.0
 10
11.4348583034
 20
9.044712927
 30
0.0
 10
11.4444773483
 20
9.039955032
 30
0.0
 10
11.4537718406
 20
9.034528462
 30
0.0
 10
11.4626922536
 20
9.0284621915
 30
0.0
 10
11.4711910593
 20
9.0217885899
 30
0.0
 10
11.4792229728
 20
9.0145432502
 30
0.0
 10
11.4867451917
 20
9.0067648008
 30
0.0
 10
11.4937176223
 20
8.9984947015
 30
0.0
 10
11.5001030905
 20
8.9897770246
 30
0.0
 10
11.5058675389
 20
8.9806582224
 30
0.0
 10
11.5109802065
 20
8.9711868825
 30
0.0
 10
11.5154137917
 20
8.9614134719
 30
0.0
 10
11.5191445977
 20
8.9513900716
 30
0.0
 10
11.5221526586
 20
8.941170102
 30
0.0
 10
11.5244218467
 20
8.9308080429
 30
0.0
 10
11.5259399606
 20
8.9203591465
 30
0.0
 10
11.5266987921
 20
8.909879146
 30
0.0
 10
11.5266941753
 20
8.8994239654
 30
0.0
 10
11.5259260081
 20
8.8890494126
 30
0.0
 10
11.5243982779
 20
8.8788109251
 30
0.0
 10
11.5221189752
 20
8.8687631235
 30
0.0
 10
11.5191003228
 20
8.8589600811
 30
0.0
 10
11.5159785529
 20
8.8510299835
 30
0.0
 10
11.5131297256
 20
8.8448631284
 30
0.0
 10
11.5100553647
 20
8.8388303266
 30
0.0
 10
11.505786718
 20
8.8315333705
 30
0.0
 10
11.5009690949
 20
8.8245982447
 30
0.0
 10
11.4968059179
 20
8.8192972379
 30
0.0
 10
11.4924441966
 20
8.8141692139
 30
0.0
 10
11.4889496651
 20
8.8105185207
 30
0.0
 10
11.4865302422
 20
8.8081815355
 30
0.0
  0
SPLINE
  5
2F6
100
AcDbEntity
  8
0
100
AcDbSpline
 62
7
  6
CONTINUOUS
 70
0
 71
3
 72
41
 73
37
 74
0
 42
0.0000001
 43
0.0000001
 44
0.0000000001
 40
0.0
 40
0.0
 40
0.0
 40
0.0
 40
0.0311445478
 40
0.0624424446
 40
0.0938872679
 40
0.125469566
 40
0.1571770992
 40
0.1889951145
 40
0.2209066667
 40
0.2528929719
 40
0.2849337877
 40
0.3170078142
 40
0.3490931102
 40
0.381167517
 40
0.4132090858
 40
0.4451965025
 40
0.4771095029
 40
0.5089292747
 40
0.5406388381
 40
0.5722233999
 40
0.6036706736
 40
0.63497116
 40
0.6661183793
 40
0.6971090497
 40
0.7279432042
 40
0.7586242401
 40
0.7891588962
 40
0.8195571523
 40
0.8498320512
 40
0.8649308901
 40
0.8800050513
 40
0.9100832572
 40
0.940092674
 40
0.9550812744
 40
0.9700610349
 40
1.0
 40
1.0
 40
1.0
 40
1.0
 10
11.3837076643
 20
7.517902326
 30
0.0
 10
11.3871985266
 20
7.5176602338
 30
0.0
 10
11.3941823162
 20
7.516919336
 30
0.0
 10
11.4045733277
 20
7.5150530153
 30
0.0
 10
11.4148530526
 20
7.5124388335
 30
0.0
 10
11.4249659471
 20
7.5090908817
 30
0.0
 10
11.4348583034
 20
7.5050270861
 30
0.0
 10
11.4444773483
 20
7.5002691912
 30
0.0
 10
11.4537718406
 20
7.4948426212
 30
0.0
 10
11.4626922536
 20
7.4887763507
 30
0.0
 10
11.4711910593
 20
7.4821027491
 30
0.0
 10
11.4792229728
 20
7.4748574094
 30
0.0
 10
11.4867451917
 20
7.46707896
 30
0.0
 10
11.4937176223
 20
7.4588088607
 30
0.0
 10
11.5001030905
 20
7.4500911838
 30
0.0
 10
11.5058675389
 20
7.4409723816
 30
0.0
 10
11.5109802065
 20
7.4315010417
 30
0.0
 10
11.5154137917
 20
7.4217276311
 30
0.0
 10
11.5191445977
 20
7.4117042307
 30
0.0
 10
11.5221526586
 20
7.4014842612
 30
0.0
 10
11.5244218467
 20
7.3911222021
 30
0.0
 10
11.5259399606
 20
7.3806733057
 30
0.0
 10
11.5266987921
 20
7.3701933052
 30
0.0
 10
11.5266941753
 20
7.3597381245
 30
0.0
 10
11.5259260081
 20
7.3493635717
 30
0.0
 10
11.5243982779
 20
7.3391250843
 30
0.0
 10
11.5221189752
 20
7.3290772827
 30
0.0
 10
11.5191003228
 20
7.3192742402
 30
0.0
 10
11.5159785529
 20
7.3113441427
 30
0.0
 10
11.5131297256
 20
7.3051772875
 30
0.0
 10
11.5100553647
 20
7.2991444857
 30
0.0
 10
11.505786718
 20
7.2918475296
 30
0.0
 10
11.5009690949
 20
7.2849124038
 30
0.0
 10
11.4968059179
 20
7.2796113971
 30
0.0
 10
11.4924441966
 20
7.2744833731
 30
0.0
 10
11.4889496651
 20
7.2708326799
 30
0.0
 10
11.4865302422
 20
7.2684956947
 30
0.0
  0
SPLINE
  5
2F7
100
AcDbEntity
  8
0
100
AcDbSpline
 62
7
  6
CONTINUOUS
 70
0
 71
3
 72
41
 73
37
 74
0
 42
0.0000001
 43
0.0000001
 44
0.0000000001
 40
0.0
 40
0.0
 40
0.0
 40
0.0
 40
0.0311445478
 40
0.0624424446
 40
0.0938872679
 40
0.125469566
 40
0.1571770992
 40
0.1889951145
 40
0.2209066667
 40
0.2528929719
 40
0.2849337877
 40
0.3170078142
 40
0.3490931102
 40
0.381167517
 40
0.4132090858
 40
0.4451965025
 40
0.4771095029
 40
0.5089292747
 40
0.5406388381
 40
0.5722233999
 40
0.6036706736
 40
0.63497116
 40
0.6661183793
 40
0.6971090497
 40
0.7279432042
 40
0.7586242401
 40
0.7891588962
 40
0.8195571523
 40
0.8498320512
 40
0.8649308901
 40
0.8800050513
 40
0.9100832572
 40
0.940092674
 40
0.9550812744
 40
0.9700610349
 40
1.0
 40
1.0
 40
1.0
 40
1.0
 10
10.1763003098
 20
7.6016363104
 30
0.0
 10
10.1797911722
 20
7.6013942183
 30
0.0
 10
10.1867749618
 20
7.6006533205
 30
0.0
 10
10.1971659733
 20
7.5987869997
 30
0.0
 10
10.2074456982
 20
7.596172818
 30
0.0
 10
10.2175585927
 20
7.5928248661
 30
0.0
 10
10.227450949
 20
7.5887610706
 30
0.0
 10
10.2370699939
 20
7.5840031756
 30
0.0
 10
10.2463644862
 20
7.5785766056
 30
0.0
 10
10.2552848991
 20
7.5725103351
 30
0.0
 10
10.2637837049
 20
7.5658367335
 30
0.0
 10
10.2718156184
 20
7.5585913938
 30
0.0
 10
10.2793378373
 20
7.5508129444
 30
0.0
 10
10.2863102679
 20
7.5425428451
 30
0.0
 10
10.2926957361
 20
7.5338251682
 30
0.0
 10
10.2984601845
 20
7.524706366
 30
0.0
 10
10.3035728521
 20
7.5152350261
 30
0.0
 10
10.3080064373
 20
7.5054616155
 30
0.0
 10
10.3117372433
 20
7.4954382152
 30
0.0
 10
10.3147453042
 20
7.4852182456
 30
0.0
 10
10.3170144923
 20
7.4748561865
 30
0.0
 10
10.3185326062
 20
7.4644072901
 30
0.0
 10
10.3192914377
 20
7.4539272896
 30
0.0
 10
10.3192868209
 20
7.443472109
 30
0.0
 10
10.3185186537
 20
7.4330975562
 30
0.0
 10
10.3169909235
 20
7.4228590687
 30
0.0
 10
10.3147116208
 20
7.4128112671
 30
0.0
 10
10.3116929684
 20
7.4030082247
 30
0.0
 10
10.3085711985
 20
7.3950781271
 30
0.0
 10
10.3057223712
 20
7.3889112719
 30
0.0
 10
10.3026480102
 20
7.3828784702
 30
0.0
 10
10.2983793636
 20
7.3755815141
 30
0.0
 10
10.2935617405
 20
7.3686463883
 30
0.0
 10
10.2893985635
 20
7.3633453815
 30
0.0
 10
10.2850368422
 20
7.3582173575
 30
0.0
 10
10.2815423107
 20
7.3545666643
 30
0.0
 10
10.2791228878
 20
7.3522296791
 30
0.0
  0
SPLINE
  5
2F8
100
AcDbEntity
  8
0
100
AcDbSpline
 62
7
  6
CONTINUOUS
 70
0
 71
3
 72
41
 73
37
 74
0
 42
0.0000001
 43
0.0000001
 44
0.0000000001
 40
0.0
 40
0.0
 40
0.0
 40
0.0
 40
0.0311445478
 40
0.0624424446
 40
0.0938872679
 40
0.125469566
 40
0.1571770992
 40
0.1889951145
 40
0.2209066667
 40
0.2528929719
 40
0.2849337877
 40
0.3170078142
 40
0.3490931102
 40
0.381167517
 40
0.4132090858
 40
0.4451965025
 40
0.4771095029
 40
0.5089292747
 40
0.5406388381
 40
0.5722233999
 40
0.6036706736
 40
0.63497116
 40
0.6661183793
 40
0.6971090497
 40
0.7279432042
 40
0.7586242401
 40
0.7891588962
 40
0.8195571523
 40
0.8498320512
 40
0.8649308901
 40
0.8800050513
 40
0.9100832572
 40
0.940092674
 40
0.9550812744
 40
0.9700610349
 40
1.0
 40
1.0
 40
1.0
 40
1.0
 10
10.1763003098
 20
9.1413221512
 30
0.0
 10
10.1797911722
 20
9.1410800591
 30
0.0
 10
10.1867749618
 20
9.1403391613
 30
0.0
 10
10.1971659733
 20
9.1384728405
 30
0.0
 10
10.2074456982
 20
9.1358586588
 30
0.0
 10
10.2175585927
 20
9.1325107069
 30
0.0
 10
10.227450949
 20
9.1284469114
 30
0.0
 10
10.2370699939
 20
9.1236890164
 30
0.0
 10
10.2463644862
 20
9.1182624465
 30
0.0
 10
10.2552848991
 20
9.112196176
 30
0.0
 10
10.2637837049
 20
9.1055225744
 30
0.0
 10
10.2718156184
 20
9.0982772346
 30
0.0
 10
10.2793378373
 20
9.0904987853
 30
0.0
 10
10.2863102679
 20
9.082228686
 30
0.0
 10
10.2926957361
 20
9.073511009
 30
0.0
 10
10.2984601845
 20
9.0643922068
 30
0.0
 10
10.3035728521
 20
9.0549208669
 30
0.0
 10
10.3080064373
 20
9.0451474564
 30
0.0
 10
10.3117372433
 20
9.035124056
 30
0.0
 10
10.3147453042
 20
9.0249040865
 30
0.0
 10
10.3170144923
 20
9.0145420274
 30
0.0
 10
10.3185326062
 20
9.0040931309
 30
0.0
 10
10.3192914377
 20
8.9936131304
 30
0.0
 10
10.3192868209
 20
8.9831579498
 30
0.0
 10
10.3185186537
 20
8.972783397
 30
0.0
 10
10.3169909235
 20
8.9625449095
 30
0.0
 10
10.3147116208
 20
8.9524971079
 30
0.0
 10
10.3116929684
 20
8.9426940655
 30
0.0
 10
10.3085711985
 20
8.9347639679
 30
0.0
 10
10.3057223712
 20
8.9285971128
 30
0.0
 10
10.3026480102
 20
8.922564311
 30
0.0
 10
10.2983793636
 20
8.9152673549
 30
0.0
 10
10.2935617405
 20
8.9083322291
 30
0.0
 10
10.2893985635
 20
8.9030312224
 30
0.0
 10
10.2850368422
 20
8.8979031983
 30
0.0
 10
10.2815423107
 20
8.8942525051
 30
0.0
 10
10.2791228878
 20
8.8919155199
 30
0.0
  0
SPLINE
  5
2F9
100
AcDbEntity
  8
0
100
AcDbSpline
 62
7
  6
CONTINUOUS
 70
0
 71
3
 72
37
 73
33
 74
0
 42
0.0000001
 43
0.0000001
 44
0.0000000001
 40
0.0
 40
0.0
 40
0.0
 40
0.0
 40
0.0311464763
 40
0.0624483004
 40
0.0938952738
 40
0.1254804953
 40
0.1571907415
 40
0.1890115257
 40
0.2209258547
 40
0.252914932
 40
0.2849585264
 40
0.317035338
 40
0.3491234252
 40
0.381200621
 40
0.4451976236
 40
0.5088978732
 40
0.5406101981
 40
0.5721975056
 40
0.6036475114
 40
0.634950721
 40
0.6661006564
 40
0.6970940303
 40
0.7279308694
 40
0.7586145731
 40
0.7891518852
 40
0.8195527902
 40
0.8498303302
 40
0.8800003491
 40
0.9100811696
 40
0.9400931924
 40
0.9700584311
 40
1.0
 40
1.0
 40
1.0
 40
1.0
 10
10.1608454644
 20
8.7289775726
 30
0.0
 10
10.1623549855
 20
8.728872887
 30
0.0
 10
10.1653750139
 20
8.7285524763
 30
0.0
 10
10.1698684147
 20
8.7277454603
 30
0.0
 10
10.1743137204
 20
8.7266149598
 30
0.0
 10
10.1786868421
 20
8.7251672339
 30
0.0
 10
10.1829646161
 20
8.7234099193
 30
0.0
 10
10.1871241944
 20
8.7213524607
 30
0.0
 10
10.1911434248
 20
8.7190058377
 30
0.0
 10
10.195000891
 20
8.7163825955
 30
0.0
 10
10.1986760532
 20
8.7134967171
 30
0.0
 10
10.2021492902
 20
8.7103636512
 30
0.0
 10
10.2054022316
 20
8.7069998723
 30
0.0
 10
10.2094182469
 20
8.702236587
 30
0.0
 10
10.2138041968
 20
8.6958011516
 30
0.0
 10
10.2172590674
 20
8.6888406432
 30
0.0
 10
10.2194126716
 20
8.6830543383
 30
0.0
 10
10.2207135337
 20
8.6786347634
 30
0.0
 10
10.2216947921
 20
8.674153922
 30
0.0
 10
10.2223512949
 20
8.6696354822
 30
0.0
 10
10.2226794577
 20
8.665103603
 30
0.0
 10
10.2226774769
 20
8.6605824509
 30
0.0
 10
10.2223453062
 20
8.656096168
 30
0.0
 10
10.2216846764
 20
8.6516687145
 30
0.0
 10
10.2206990645
 20
8.6473237493
 30
0.0
 10
10.2193936833
 20
8.643084503
 30
0.0
 10
10.2177754569
 20
8.6389736574
 30
0.0
 10
10.2158529825
 20
8.6350132154
 30
0.0
 10
10.2136365369
 20
8.6312243973
 30
0.0
 10
10.211137889
 20
8.6276274262
 30
0.0
 10
10.2083706419
 20
8.6242418169
 30
0.0
 10
10.2063557255
 20
8.6221368502
 30
0.0
 10
10.2053094934
 20
8.6211262614
 30
0.0
  0
SPLINE
  5
2FA
100
AcDbEntity
  8
0
100
AcDbSpline
 62
7
  6
CONTINUOUS
 70
0
 71
3
 72
37
 73
33
 74
0
 42
0.0000001
 43
0.0000001
 44
0.0000000001
 40
0.0
 40
0.0
 40
0.0
 40
0.0
 40
0.0311464763
 40
0.0624483004
 40
0.0938952738
 40
0.1254804953
 40
0.1571907415
 40
0.1890115257
 40
0.2209258547
 40
0.252914932
 40
0.2849585264
 40
0.317035338
 40
0.3491234252
 40
0.381200621
 40
0.4451976236
 40
0.5088978732
 40
0.5406101981
 40
0.5721975056
 40
0.6036475114
 40
0.634950721
 40
0.6661006564
 40
0.6970940303
 40
0.7279308694
 40
0.7586145731
 40
0.7891518852
 40
0.8195527902
 40
0.8498303302
 40
0.8800003491
 40
0.9100811696
 40
0.9400931924
 40
0.9700584311
 40
1.0
 40
1.0
 40
1.0
 40
1.0
 10
10.7800039871
 20
8.2484744068
 30
0.0
 10
10.7815135082
 20
8.2483697212
 30
0.0
 10
10.7845335365
 20
8.2480493105
 30
0.0
 10
10.7890269374
 20
8.2472422945
 30
0.0
 10
10.7934722431
 20
8.246111794
 30
0.0
 10
10.7978453648
 20
8.2446640681
 30
0.0
 10
10.8021231388
 20
8.2429067535
 30
0.0
 10
10.8062827171
 20
8.2408492949
 30
0.0
 10
10.8103019475
 20
8.2385026719
 30
0.0
 10
10.8141594136
 20
8.2358794297
 30
0.0
 10
10.8178345759
 20
8.2329935513
 30
0.0
 10
10.8213078129
 20
8.2298604854
 30
0.0
 10
10.8245607542
 20
8.2264967065
 30
0.0
 10
10.8285767696
 20
8.2217334212
 30
0.0
 10
10.8329627194
 20
8.2152979858
 30
0.0
 10
10.8364175901
 20
8.2083374774
 30
0.0
 10
10.8385711942
 20
8.2025511725
 30
0.0
 10
10.8398720564
 20
8.1981315976
 30
0.0
 10
10.8408533147
 20
8.1936507562
 30
0.0
 10
10.8415098175
 20
8.1891323164
 30
0.0
 10
10.8418379804
 20
8.1846004372
 30
0.0
 10
10.8418359996
 20
8.1800792851
 30
0.0
 10
10.8415038289
 20
8.1755930022
 30
0.0
 10
10.8408431991
 20
8.1711655487
 30
0.0
 10
10.8398575872
 20
8.1668205835
 30
0.0
 10
10.8385522059
 20
8.1625813372
 30
0.0
 10
10.8369339796
 20
8.1584704916
 30
0.0
 10
10.8350115052
 20
8.1545100496
 30
0.0
 10
10.8327950596
 20
8.1507212315
 30
0.0
 10
10.8302964117
 20
8.1471242604
 30
0.0
 10
10.8275291646
 20
8.1437386511
 30
0.0
 10
10.8255142482
 20
8.1416336844
 30
0.0
 10
10.8244680161
 20
8.1406230956
 30
0.0
  0
SPLINE
  5
2FB
100
AcDbEntity
  8
0
100
AcDbSpline
 62
7
  6
CONTINUOUS
 70
0
 71
3
 72
37
 73
33
 74
0
 42
0.0000001
 43
0.0000001
 44
0.0000000001
 40
0.0
 40
0.0
 40
0.0
 40
0.0
 40
0.0311467573
 40
0.0624481077
 40
0.0938952645
 40
0.125480423
 40
0.1571906467
 40
0.189011416
 40
0.2209257215
 40
0.2529147894
 40
0.2849583708
 40
0.3170351623
 40
0.381163081
 40
0.4451600481
 40
0.4770758024
 40
0.508898317
 40
0.5406106103
 40
0.5721978896
 40
0.6036478697
 40
0.6349510521
 40
0.6661009568
 40
0.6970942988
 40
0.7279311085
 40
0.7586147837
 40
0.7891520652
 40
0.819552936
 40
0.8498304416
 40
0.8800004329
 40
0.9100812331
 40
0.9400932378
 40
0.9700584557
 40
1.0
 40
1.0
 40
1.0
 40
1.0
 10
10.1608454644
 20
7.867371667
 30
0.0
 10
10.1626852174
 20
7.8672440797
 30
0.0
 10
10.166365882
 20
7.8668535888
 30
0.0
 10
10.1718422325
 20
7.8658700153
 30
0.0
 10
10.1772599532
 20
7.8644922274
 30
0.0
 10
10.1825897171
 20
7.8627277857
 30
0.0
 10
10.1878032661
 20
7.8605860416
 30
0.0
 10
10.1928727671
 20
7.8580785078
 30
0.0
 10
10.1977712316
 20
7.8552185432
 30
0.0
 10
10.2024724993
 20
7.8520214858
 30
0.0
 10
10.2069517278
 20
7.8485041554
 30
0.0
 10
10.2125938344
 20
7.8434147442
 30
0.0
 10
10.2189732278
 20
7.8363527827
 30
0.0
 10
10.2243266483
 20
7.8284957195
 30
0.0
 10
10.2279214936
 20
7.8218358767
 30
0.0
 10
10.2302582188
 20
7.8166848574
 30
0.0
 10
10.2322244142
 20
7.8114022858
 30
0.0
 10
10.2338097431
 20
7.8060160657
 30
0.0
 10
10.2350056578
 20
7.8005549758
 30
0.0
 10
10.2358057402
 20
7.7950481169
 30
0.0
 10
10.2362056591
 20
7.7895248666
 30
0.0
 10
10.2362032145
 20
7.7840146964
 30
0.0
 10
10.2357983535
 20
7.7785470239
 30
0.0
 10
10.2349931766
 20
7.7731510528
 30
0.0
 10
10.2337919207
 20
7.7678556187
 30
0.0
 10
10.2322009415
 20
7.7626890345
 30
0.0
 10
10.2302286852
 20
7.7576789411
 30
0.0
 10
10.2278856383
 20
7.7528521489
 30
0.0
 10
10.225184309
 20
7.7482345269
 30
0.0
 10
10.2221390328
 20
7.7438507301
 30
0.0
 10
10.2187664002
 20
7.7397245357
 30
0.0
 10
10.2163106761
 20
7.7371591349
 30
0.0
 10
10.2150355713
 20
7.7359274812
 30
0.0
  0
SPLINE
  5
2FC
100
AcDbEntity
  8
0
100
AcDbSpline
 62
7
  6
CONTINUOUS
 70
0
 71
3
 72
23
 73
19
 74
0
 42
0.0000001
 43
0.0000001
 44
0.0000000001
 40
0.0
 40
0.0
 40
0.0
 40
0.0
 40
0.0638442604
 40
0.1272276065
 40
0.1901918615
 40
0.2527957387
 40
0.3151121018
 40
0.3772191179
 40
0.4391938328
 40
0.5011077025
 40
0.5630239985
 40
0.6249967723
 40
0.6870709095
 40
0.7492828438
 40
0.8116615838
 40
0.8742298163
 40
0.9370049436
 40
1.0
 40
1.0
 40
1.0
 40
1.0
 10
10.9311877673
 20
8.5229378804
 30
0.0
 10
10.9311877673
 20
8.5195147407
 30
0.0
 10
10.9308234503
 20
8.5126873126
 30
0.0
 10
10.9291823308
 20
8.5026035571
 30
0.0
 10
10.9264860175
 20
8.4928176595
 30
0.0
 10
10.9227925641
 20
8.4834256958
 30
0.0
 10
10.9181752904
 20
8.4745047985
 30
0.0
 10
10.9127162715
 20
8.4661145782
 30
0.0
 10
10.9065008023
 20
8.4582976496
 30
0.0
 10
10.8996131112
 20
8.451082104
 30
0.0
 10
10.892133453
 20
8.4444842882
 30
0.0
 10
10.8841364506
 20
8.4385116299
 30
0.0
 10
10.875690394
 20
8.4331651338
 30
0.0
 10
10.8668571773
 20
8.4284414428
 30
0.0
 10
10.8576927058
 20
8.4243344657
 30
0.0
 10
10.8482472774
 20
8.4208365655
 30
0.0
 10
10.8385670047
 20
8.4179395984
 30
0.0
 10
10.8319953205
 20
8.4164059816
 30
0.0
 10
10.8286847609
 20
8.4157363324
 30
0.0
  0
SPLINE
  5
2FD
100
AcDbEntity
  8
0
100
AcDbSpline
 62
7
  6
CONTINUOUS
 70
0
 71
3
 72
39
 73
35
 74
0
 42
0.0000001
 43
0.0000001
 44
0.0000000001
 40
0.0
 40
0.0
 40
0.0
 40
0.0
 40
0.0311082278
 40
0.0619974526
 40
0.0926835532
 40
0.1231901659
 40
0.1535491881
 40
0.183798478
 40
0.2139798319
 40
0.244136902
 40
0.2743131041
 40
0.3045497482
 40
0.3348845102
 40
0.3653502315
 40
0.395974012
 40
0.4267766373
 40
0.4577722659
 40
0.4889683076
 40
0.5203654513
 40
0.5519578245
 40
0.5837332441
 40
0.6156735331
 40
0.6477549465
 40
0.6799487127
 40
0.7122216947
 40
0.7445371785
 40
0.7768559089
 40
0.8091373383
 40
0.8413410443
 40
0.873428337
 40
0.9053640707
 40
0.9371184563
 40
0.9686682498
 40
1.0
 40
1.0
 40
1.0
 40
1.0
 10
10.247383208
 20
8.2235925268
 30
0.0
 10
10.247383208
 20
8.2275976305
 30
0.0
 10
10.2477951685
 20
8.2355860811
 30
0.0
 10
10.2496571338
 20
8.2473940525
 30
0.0
 10
10.2527376456
 20
8.2588656161
 30
0.0
 10
10.2569986177
 20
8.2698796399
 30
0.0
 10
10.2623878702
 20
8.2803245988
 30
0.0
 10
10.2688410266
 20
8.2900975922
 30
0.0
 10
10.2762832585
 20
8.2991060922
 30
0.0
 10
10.2846310735
 20
8.3072684945
 30
0.0
 10
10.2937942229
 20
8.3145143579
 30
0.0
 10
10.3036773815
 20
8.3207842327
 30
0.0
 10
10.3141815566
 20
8.3260293083
 30
0.0
 10
10.3252052461
 20
8.3302109173
 30
0.0
 10
10.3366453743
 20
8.3332998658
 30
0.0
 10
10.3483979273
 20
8.3352758522
 30
0.0
 10
10.3603583908
 20
8.3361269596
 30
0.0
 10
10.3724220326
 20
8.3358492932
 30
0.0
 10
10.384484084
 20
8.334446676
 30
0.0
 10
10.3964398561
 20
8.3319305564
 30
0.0
 10
10.4081848568
 20
8.3283200558
 30
0.0
 10
10.4196149808
 20
8.323642212
 30
0.0
 10
10.4306267872
 20
8.3179322617
 30
0.0
 10
10.4411179302
 20
8.3112340388
 30
0.0
 10
10.450987771
 20
8.3036004142
 30
0.0
 10
10.4601382703
 20
8.2950937817
 30
0.0
 10
10.4684750697
 20
8.28578636
 30
0.0
 10
10.4759088064
 20
8.2757603407
 30
0.0
 10
10.4823566841
 20
8.265107857
 30
0.0
 10
10.4877442674
 20
8.2539305618
 30
0.0
 10
10.4920071922
 20
8.2423389647
 30
0.0
 10
10.4950928683
 20
8.2304505406
 30
0.0
 10
10.4969624091
 20
8.2183907656
 30
0.0
 10
10.4973832181
 20
8.210288979
 30
0.0
 10
10.4973832216
 20
8.2062550972
 30
0.0
  0
SPLINE
  5
2FE
100
AcDbEntity
  8
0
100
AcDbSpline
 62
7
  6
CONTINUOUS
 70
0
 71
3
 72
25
 73
21
 74
0
 42
0.0000001
 43
0.0000001
 44
0.0000000001
 40
0.0
 40
0.0
 40
0.0
 40
0.0
 40
0.0621954377
 40
0.0934090875
 40
0.1246856373
 40
0.1873868411
 40
0.2502513592
 40
0.281731774
 40
0.3132292396
 40
0.3762354279
 40
0.4392276207
 40
0.5021581189
 40
0.564986941
 40
0.6276817206
 40
0.6902171226
 40
0.7525739834
 40
0.8147383556
 40
0.8767007924
 40
0.9384556282
 40
1.0
 40
1.0
 40
1.0
 40
1.0
 10
10.7403471655
 20
7.6946367263
 30
0.0
 10
10.7374873794
 20
7.6956013306
 30
0.0
 10
10.7332544716
 20
7.6972444708
 30
0.0
 10
10.7277700542
 20
7.6998029243
 30
0.0
 10
10.722380435
 20
7.7026099722
 30
0.0
 10
10.7158637268
 20
7.7065606691
 30
0.0
 10
10.7096935574
 20
7.7110489149
 30
0.0
 10
10.7049810591
 20
7.7149347969
 30
0.0
 10
10.7004213957
 20
7.7190092523
 30
0.0
 10
10.6950235554
 20
7.7244311308
 30
0.0
 10
10.6890522798
 20
7.7313981937
 30
0.0
 10
10.6835982544
 20
7.73876597
 30
0.0
 10
10.6786675136
 20
7.7464757544
 30
0.0
 10
10.6742598524
 20
7.7544735481
 30
0.0
 10
10.6703707818
 20
7.7627100556
 30
0.0
 10
10.6669927021
 20
7.7711407853
 30
0.0
 10
10.6641159934
 20
7.779725743
 30
0.0
 10
10.6617298229
 20
7.7884291957
 30
0.0
 10
10.6598228637
 20
7.7972187219
 30
0.0
 10
10.6588616788
 20
7.8031273872
 30
0.0
 10
10.6584576317
 20
7.8060864205
 30
0.0
  0
SPLINE
  5
2FF
100
AcDbEntity
  8
0
100
AcDbSpline
 62
7
  6
CONTINUOUS
 70
0
 71
3
 72
82
 73
78
 74
0
 42
0.0000001
 43
0.0000001
 44
0.0000000001
 40
0.0
 40
0.0
 40
0.0
 40
0.0
 40
0.0039801404
 40
0.0081240874
 40
0.0124359927
 40
0.0169193805
 40
0.0215772461
 40
0.0264119816
 40
0.0314252584
 40
0.0366182448
 40
0.0419916571
 40
0.0475457751
 40
0.0591949801
 40
0.0715620045
 40
0.084637695
 40
0.0984090251
 40
0.112859624
 40
0.1279701855
 40
0.1437188109
 40
0.1600813006
 40
0.1770313843
 40
0.1945409149
 40
0.2125800273
 40
0.2311173068
 40
0.2501199349
 40
0.2695538173
 40
0.2893836992
 40
0.3095732754
 40
0.3300853151
 40
0.3508817688
 40
0.371923872
 40
0.4145862166
 40
0.4577525765
 40
0.5010974346
 40
0.5442935277
 40
0.5870150451
 40
0.6080976014
 40
0.6289416312
 40
0.6495082481
 40
0.6697592592
 40
0.6896572746
 40
0.7091658223
 40
0.7282494504
 40
0.7468738389
 40
0.7650059189
 40
0.7826140145
 40
0.7996679805
 40
0.8161393432
 40
0.8320014675
 40
0.8472297521
 40
0.8618018735
 40
0.8756980414
 40
0.8889013164
 40
0.9013980141
 40
0.9131782286
 40
0.9187980915
 40
0.9242372041
 40
0.9294957522
 40
0.9345742644
 40
0.9394737733
 40
0.9441957786
 40
0.9487423263
 40
0.9531161313
 40
0.957320552
 40
0.961359786
 40
0.9652389017
 40
0.9689639469
 40
0.9725421294
 40
0.9759818433
 40
0.9792928702
 40
0.9824864412
 40
0.9855752996
 40
0.9885737811
 40
0.9914977096
 40
0.9943643176
 40
0.9971920024
 40
1.0
 40
1.0
 40
1.0
 40
1.0
 10
11.4707006883
 20
10.3551687388
 30
0.0
 10
11.4698480663
 20
10.3543451691
 30
0.0
 10
11.4680690092
 20
10.352703845
 30
0.0
 10
11.4652444004
 20
10.3503065518
 30
0.0
 10
11.4622123614
 20
10.3479264268
 30
0.0
 10
11.4589745563
 20
10.3455647844
 30
0.0
 10
11.4555325961
 20
10.3432227014
 30
0.0
 10
11.4518881397
 20
10.3409013401
 30
0.0
 10
11.4480430109
 20
10.3386017876
 30
0.0
 10
11.4439991249
 20
10.3363252233
 30
0.0
 10
11.4397584999
 20
10.3340727746
 30
0.0
 10
11.4337489868
 20
10.3310550934
 30
0.0
 10
11.4257513878
 20
10.3273604953
 30
0.0
 10
11.4155527605
 20
10.3231085353
 30
0.0
 10
11.4046257424
 20
10.3189789594
 30
0.0
 10
11.3929922778
 20
10.3149801226
 30
0.0
 10
11.3806755689
 20
10.3111201345
 30
0.0
 10
11.3677003392
 20
10.3074068406
 30
0.0
 10
11.3540926745
 20
10.3038477933
 30
0.0
 10
11.3398799792
 20
10.300450241
 30
0.0
 10
11.3250909038
 20
10.2972211063
 30
0.0
 10
11.3097552887
 20
10.2941669728
 30
0.0
 10
11.2939041033
 20
10.2912940569
 30
0.0
 10
11.277569375
 20
10.288608207
 30
0.0
 10
11.2607841171
 20
10.2861148916
 30
0.0
 10
11.2435822606
 20
10.2838191888
 30
0.0
 10
11.2259985898
 20
10.2817257748
 30
0.0
 10
11.2080686676
 20
10.2798389019
 30
0.0
 10
11.189828772
 20
10.2781624138
 30
0.0
 10
11.1713157704
 20
10.2766996972
 30
0.0
 10
11.1462033042
 20
10.2750309247
 30
0.0
 10
11.114406693
 20
10.273504745
 30
0.0
 10
11.0759422816
 20
10.2725688531
 30
0.0
 10
11.037307414
 20
10.2725281027
 30
0.0
 10
10.9988146333
 20
10.2733828041
 30
0.0
 10
10.9669763076
 20
10.2748416185
 30
0.0
 10
10.9418164169
 20
10.2764569236
 30
0.0
 10
10.923257764
 20
10.2778804265
 30
0.0
 10
10.9049654446
 20
10.2795182747
 30
0.0
 10
10.8869764358
 20
10.2813671633
 30
0.0
 10
10.8693271354
 20
10.2834233275
 30
0.0
 10
10.8520532357
 20
10.2856825803
 30
0.0
 10
10.8351896667
 20
10.2881403228
 30
0.0
 10
10.8187705237
 20
10.2907915526
 30
0.0
 10
10.8028289963
 20
10.2936308771
 30
0.0
 10
10.7873972937
 20
10.2966525132
 30
0.0
 10
10.7725065763
 20
10.299850302
 30
0.0
 10
10.7581868949
 20
10.3032177292
 30
0.0
 10
10.7444671279
 20
10.3067479358
 30
0.0
 10
10.731374915
 20
10.3104337379
 30
0.0
 10
10.7189365794
 20
10.3142676289
 30
0.0
 10
10.7071770927
 20
10.3182418092
 30
0.0
 10
10.6961199328
 20
10.3223482221
 30
0.0
 10
10.6857873196
 20
10.3265785492
 30
0.0
 10
10.6776748328
 20
10.3302555113
 30
0.0
 10
10.6715713649
 20
10.3332597593
 30
0.0
 10
10.6672597205
 20
10.3355031759
 30
0.0
 10
10.6631440415
 20
10.337771077
 30
0.0
 10
10.6592263999
 20
10.3400624041
 30
0.0
 10
10.6555087382
 20
10.3423759771
 30
0.0
 10
10.6519929094
 20
10.3447106598
 30
0.0
 10
10.6486806802
 20
10.3470653334
 30
0.0
 10
10.645573668
 20
10.3494388034
 30
0.0
 10
10.6426734491
 20
10.3518299768
 30
0.0
 10
10.6399814504
 20
10.3542376858
 30
0.0
 10
10.6374990146
 20
10.3566607967
 30
0.0
 10
10.6352274357
 20
10.3590982253
 30
0.0
 10
10.6331678384
 20
10.3615488078
 30
0.0
 10
10.6313213701
 20
10.3640114861
 30
0.0
 10
10.6296890475
 20
10.3664851326
 30
0.0
 10
10.6282718281
 20
10.3689686185
 30
0.0
 10
10.6270707037
 20
10.371460824
 30
0.0
 10
10.6260864687
 20
10.3739605017
 30
0.0
 10
10.6253199866
 20
10.3764663673
 30
0.0
 10
10.6247719398
 20
10.3789770744
 30
0.0
 10
10.6244428377
 20
10.3814908555
 30
0.0
 10
10.6243696093
 20
10.3831702632
 30
0.0
 10
10.6243696074
 20
10.3840065828
 30
0.0
  0
SPLINE
  5
300
100
AcDbEntity
  8
0
100
AcDbSpline
 62
7
  6
CONTINUOUS
 70
0
 71
3
 72
48
 73
44
 74
0
 42
0.0000001
 43
0.0000001
 44
0.0000000001
 40
0.0
 40
0.0
 40
0.0
 40
0.0
 40
0.0350612114
 40
0.0714617096
 40
0.1090494842
 40
0.1476680227
 40
0.1871530599
 40
0.227335977
 40
0.2680439218
 40
0.3091011429
 40
0.3503299047
 40
0.3915515144
 40
0.4325873181
 40
0.4732597038
 40
0.5133931044
 40
0.5528150067
 40
0.591356975
 40
0.6288556954
 40
0.6651540561
 40
0.7001022807
 40
0.7335591458
 40
0.7653933354
 40
0.7954849749
 40
0.8237274673
 40
0.8500298007
 40
0.8624309121
 40
0.8743215645
 40
0.8856964523
 40
0.89655188
 40
0.9068862992
 40
0.9167005264
 40
0.9259980288
 40
0.934785698
 40
0.9430740094
 40
0.9508782984
 40
0.9582190986
 40
0.9651237006
 40
0.9716269273
 40
0.9777725617
 40
0.9836142198
 40
0.989215719
 40
0.9946505992
 40
1.0
 40
1.0
 40
1.0
 40
1.0
 10
10.8280173906
 20
10.1941287512
 30
0.0
 10
10.8256419071
 20
10.1936982495
 30
0.0
 10
10.8207886627
 20
10.1928835088
 30
0.0
 10
10.8133559057
 20
10.1918139478
 30
0.0
 10
10.8056584092
 20
10.1908774535
 30
0.0
 10
10.7977319971
 20
10.1900784144
 30
0.0
 10
10.7896133573
 20
10.1894205964
 30
0.0
 10
10.7813401911
 20
10.1889070797
 30
0.0
 10
10.7729508812
 20
10.1885402791
 30
0.0
 10
10.7644843708
 20
10.1883219138
 30
0.0
 10
10.7559799605
 20
10.1882530095
 30
0.0
 10
10.7474771303
 20
10.1883338898
 30
0.0
 10
10.7390153522
 20
10.1885641748
 30
0.0
 10
10.730633906
 20
10.1889427836
 30
0.0
 10
10.7223716942
 20
10.1894679396
 30
0.0
 10
10.7142670597
 20
10.1901371777
 30
0.0
 10
10.7063576056
 20
10.1909473556
 30
0.0
 10
10.698680017
 20
10.191894667
 30
0.0
 10
10.6912698865
 20
10.1929746589
 30
0.0
 10
10.6841615437
 20
10.1941822506
 30
0.0
 10
10.6773878811
 20
10.1955117569
 30
0.0
 10
10.6709802064
 20
10.1969569146
 30
0.0
 10
10.664968013
 20
10.1985109077
 30
0.0
 10
10.6593790394
 20
10.2001664331
 30
0.0
 10
10.655013587
 20
10.2016518664
 30
0.0
 10
10.6517573587
 20
10.2028909772
 30
0.0
 10
10.6494847263
 20
10.2038225656
 30
0.0
 10
10.6473360137
 20
10.2047735722
 30
0.0
 10
10.6453136815
 20
10.205742944
 30
0.0
 10
10.643420035
 20
10.2067295616
 30
0.0
 10
10.6416572144
 20
10.2077322933
 30
0.0
 10
10.640027223
 20
10.2087500513
 30
0.0
 10
10.6385318623
 20
10.2097816676
 30
0.0
 10
10.6371728353
 20
10.2108261029
 30
0.0
 10
10.6359516166
 20
10.2118822153
 30
0.0
 10
10.6348696289
 20
10.2129490304
 30
0.0
 10
10.6339281032
 20
10.2140255101
 30
0.0
 10
10.6331282659
 20
10.2151107372
 30
0.0
 10
10.6324712965
 20
10.2162037706
 30
0.0
 10
10.6319583826
 20
10.2173035783
 30
0.0
 10
10.6315908118
 20
10.2184090574
 30
0.0
 10
10.63136965
 20
10.219518404
 30
0.0
 10
10.6313203253
 20
10.2202618716
 30
0.0
 10
10.6313203246
 20
10.2206302103
 30
0.0
  0
SPLINE
  5
301
100
AcDbEntity
  8
0
100
AcDbSpline
 62
7
  6
CONTINUOUS
 70
0
 71
3
 72
11
 73
7
 74
0
 42
0.0000001
 43
0.0000001
 44
0.0000000001
 40
0.0
 40
0.0
 40
0.0
 40
0.0
 40
0.2441543375
 40
0.4922337155
 40
0.7442043303
 40
1.0
 40
1.0
 40
1.0
 40
1.0
 10
11.2124874494
 20
8.133062426
 30
0.0
 10
11.2107307116
 20
8.1317308312
 30
0.0
 10
11.2071018338
 20
8.1291589759
 30
0.0
 10
11.2013713367
 20
8.125641289
 30
0.0
 10
11.1953208565
 20
8.1224737023
 30
0.0
 10
11.1911155474
 20
8.1206366658
 30
0.0
 10
11.1889673654
 20
8.1197887176
 30
0.0
  0
SPLINE
  5
302
100
AcDbEntity
  8
0
100
AcDbSpline
 62
7
  6
CONTINUOUS
 70
0
 71
3
 72
23
 73
19
 74
0
 42
0.0000001
 43
0.0000001
 44
0.0000000001
 40
0.0
 40
0.0
 40
0.0
 40
0.0
 40
0.0619025424
 40
0.1248400803
 40
0.1886533398
 40
0.2531241004
 40
0.3179946974
 40
0.3829922184
 40
0.4478562283
 40
0.5123600216
 40
0.5763204556
 40
0.6395979628
 40
0.7020886763
 40
0.7637128173
 40
0.8244010666
 40
0.8840803413
 40
0.9426577795
 40
1.0
 40
1.0
 40
1.0
 40
1.0
 10
11.1889673654
 20
8.1197887176
 30
0.0
 10
11.1861253008
 20
8.1186668743
 30
0.0
 10
11.1802822021
 20
8.1166756612
 30
0.0
 10
11.1712054599
 20
8.1145341671
 30
0.0
 10
11.1618355434
 20
8.1132757627
 30
0.0
 10
11.1522921535
 20
8.1129412469
 30
0.0
 10
11.1427034824
 20
8.1135394655
 30
0.0
 10
11.1331965154
 20
8.1150476604
 30
0.0
 10
11.1238861105
 20
8.1174147801
 30
0.0
 10
11.1148678156
 20
8.1205694118
 30
0.0
 10
11.1062148333
 20
8.1244284394
 30
0.0
 10
11.0979786924
 20
8.1289045567
 30
0.0
 10
11.0901923461
 20
8.1339118013
 30
0.0
 10
11.0828742483
 20
8.139368596
 30
0.0
 10
11.0760324397
 20
8.145198696
 30
0.0
 10
11.06966803
 20
8.1513306622
 30
0.0
 10
11.0637785014
 20
8.157695579
 30
0.0
 10
11.0601223056
 20
8.1621006895
 30
0.0
 10
11.058370906
 20
8.1643241094
 30
0.0
  0
SPLINE
  5
303
100
AcDbEntity
  8
0
100
AcDbSpline
 62
7
  6
CONTINUOUS
 70
0
 71
3
 72
15
 73
11
 74
0
 42
0.0000001
 43
0.0000001
 44
0.0000000001
 40
0.0
 40
0.0
 40
0.0
 40
0.0
 40
0.1249838119
 40
0.2497911586
 40
0.3745155245
 40
0.4992479098
 40
0.624080352
 40
0.7490995276
 40
0.8743837847
 40
1.0
 40
1.0
 40
1.0
 40
1.0
 10
11.314361591
 20
8.155805
 30
0.0
 10
11.3143615876
 20
8.1519346656
 30
0.0
 10
11.3139704444
 20
8.1441936953
 30
0.0
 10
11.3122122726
 20
8.1327110434
 30
0.0
 10
11.3093017536
 20
8.1214719335
 30
0.0
 10
11.305269142
 20
8.110584537
 30
0.0
 10
11.3001563255
 20
8.1001507298
 30
0.0
 10
11.2940153256
 20
8.0902668326
 30
0.0
 10
11.2869090048
 20
8.0810236799
 30
0.0
 10
11.2815800113
 20
8.075349471
 30
0.0
 10
11.2787822075
 20
8.072646925
 30
0.0
  0
SPLINE
  5
304
100
AcDbEntity
  8
0
100
AcDbSpline
 62
7
  6
CONTINUOUS
 70
0
 71
3
 72
20
 73
16
 74
0
 42
0.0000001
 43
0.0000001
 44
0.0000000001
 40
0.0
 40
0.0
 40
0.0
 40
0.0
 40
0.1587150207
 40
0.3088471545
 40
0.4501265506
 40
0.5172944372
 40
0.5820200105
 40
0.6442012982
 40
0.7037231206
 40
0.7604725695
 40
0.8143397555
 40
0.8652378778
 40
0.9131175503
 40
0.9579975113
 40
1.0
 40
1.0
 40
1.0
 40
1.0
 10
10.8405666589
 20
7.8319094981
 30
0.0
 10
10.8425359684
 20
7.8300017694
 30
0.0
 10
10.8462302963
 20
7.826144129
 30
0.0
 10
10.8511947949
 20
7.8201515763
 30
0.0
 10
10.8548082681
 20
7.8151132095
 30
0.0
 10
10.8573471349
 20
7.8111342233
 30
0.0
 10
10.8590452307
 20
7.8082424434
 30
0.0
 10
10.8605678271
 20
7.8054035464
 30
0.0
 10
10.8619111088
 20
7.8026277323
 30
0.0
 10
10.8630708622
 20
7.7999258426
 30
0.0
 10
10.8640407184
 20
7.7973081996
 30
0.0
 10
10.8648138769
 20
7.7947854023
 30
0.0
 10
10.8653814953
 20
7.7923671914
 30
0.0
 10
10.8657340416
 20
7.790063382
 30
0.0
 10
10.8658207057
 20
7.7885617336
 30
0.0
 10
10.8658203116
 20
7.7878361344
 30
0.0
  0
SPLINE
  5
305
100
AcDbEntity
  8
0
100
AcDbSpline
 62
7
  6
CONTINUOUS
 70
0
 71
3
 72
11
 73
7
 74
0
 42
0.0000001
 43
0.0000001
 44
0.0000000001
 40
0.0
 40
0.0
 40
0.0
 40
0.0
 40
0.2649892472
 40
0.5195510793
 40
0.7643959806
 40
1.0
 40
1.0
 40
1.0
 40
1.0
 10
10.819126953
 20
7.8478806548
 30
0.0
 10
10.8212026161
 20
7.8467408482
 30
0.0
 10
10.8251858562
 20
7.8443449832
 30
0.0
 10
10.8307730835
 20
7.840406258
 30
0.0
 10
10.8358837468
 20
7.8362735202
 30
0.0
 10
10.8390544402
 20
7.8333744293
 30
0.0
 10
10.8405666589
 20
7.8319094981
 30
0.0
  0
SPLINE
  5
306
100
AcDbEntity
  8
0
100
AcDbSpline
 62
7
  6
CONTINUOUS
 70
0
 71
3
 72
32
 73
28
 74
0
 42
0.0000001
 43
0.0000001
 44
0.0000000001
 40
0.0
 40
0.0
 40
0.0
 40
0.0
 40
0.0845017374
 40
0.167300855
 40
0.2480795303
 40
0.3265298693
 40
0.4023572177
 40
0.4752815404
 40
0.545039923
 40
0.5786558619
 40
0.6113908052
 40
0.6432178835
 40
0.6741118203
 40
0.704049142
 40
0.7330081882
 40
0.760969474
 40
0.7879156344
 40
0.8138319636
 40
0.8387063238
 40
0.8625298908
 40
0.8852970833
 40
0.9070065571
 40
0.9276612459
 40
0.94726967
 40
0.9658462264
 40
0.9834129037
 40
1.0
 40
1.0
 40
1.0
 40
1.0
 10
11.6309070587
 20
10.5024162186
 30
0.0
 10
11.6380280628
 20
10.5019223753
 30
0.0
 10
11.652118287
 20
10.5008196559
 30
0.0
 10
11.6729777087
 20
10.4987976306
 30
0.0
 10
11.6932864524
 20
10.4964309153
 30
0.0
 10
11.7129592047
 20
10.4937295571
 30
0.0
 10
11.7319134765
 20
10.4907050575
 30
0.0
 10
11.7500696908
 20
10.4873702529
 30
0.0
 10
11.7646459268
 20
10.4843080036
 30
0.0
 10
11.775845444
 20
10.4817056271
 30
0.0
 10
11.7838953335
 20
10.4797094265
 30
0.0
 10
11.7916908735
 20
10.4776468574
 30
0.0
 10
11.7992238995
 20
10.475520068
 30
0.0
 10
11.8064865155
 20
10.4733313193
 30
0.0
 10
11.8134711151
 20
10.471082898
 30
0.0
 10
11.8201703943
 20
10.4687771992
 30
0.0
 10
11.8265773483
 20
10.4664166167
 30
0.0
 10
11.8326852997
 20
10.4640036713
 30
0.0
 10
11.8384878787
 20
10.4615408466
 30
0.0
 10
11.8439790709
 20
10.4590307721
 30
0.0
 10
11.8491531729
 20
10.4564759987
 30
0.0
 10
11.8540048671
 20
10.4538792387
 30
0.0
 10
11.8585291475
 20
10.4512430749
 30
0.0
 10
11.862721409
 20
10.4485702706
 30
0.0
 10
11.8665774012
 20
10.4458633482
 30
0.0
 10
11.8700930842
 20
10.4431251924
 30
0.0
 10
11.8722686674
 20
10.441227277
 30
0.0
 10
11.8732943876
 20
10.4402727361
 30
0.0
  0
SPLINE
  5
307
100
AcDbEntity
  8
0
100
AcDbSpline
 62
7
  6
CONTINUOUS
 70
0
 71
3
 72
39
 73
35
 74
0
 42
0.0000001
 43
0.0000001
 44
0.0000000001
 40
0.0
 40
0.0
 40
0.0
 40
0.0
 40
0.0761045193
 40
0.1533639203
 40
0.2310946074
 40
0.3086064043
 40
0.385211887
 40
0.4229634241
 40
0.4602358098
 40
0.4969473753
 40
0.533018102
 40
0.5683699075
 40
0.6029269209
 40
0.6366157387
 40
0.6693657101
 40
0.7011092592
 40
0.7317822604
 40
0.7613243728
 40
0.7896794417
 40
0.8167959766
 40
0.8426277652
 40
0.8671345517
 40
0.8902828581
 40
0.9120470578
 40
0.9224052234
 40
0.9324121753
 40
0.9420676392
 40
0.9513721659
 40
0.9603273168
 40
0.9689355961
 40
0.9772009945
 40
0.9851289013
 40
0.9927259391
 40
1.0
 40
1.0
 40
1.0
 40
1.0
 10
11.2142780894
 20
5.814204247
 30
0.0
 10
11.2252012563
 20
5.8134467228
 30
0.0
 10
11.2472350707
 20
5.8122189746
 30
0.0
 10
11.2804719584
 20
5.8112260772
 30
0.0
 10
11.3139260192
 20
5.8110722472
 30
0.0
 10
11.3472791071
 20
5.8117590217
 30
0.0
 10
11.3748579345
 20
5.8130322417
 30
0.0
 10
11.3966263229
 20
5.8144721461
 30
0.0
 10
11.4126516897
 20
5.8157504609
 30
0.0
 10
11.4284169315
 20
5.817229236
 30
0.0
 10
11.4438845837
 20
5.8189049635
 30
0.0
 10
11.4590178585
 20
5.8207736243
 30
0.0
 10
11.4737807837
 20
5.8228307398
 30
0.0
 10
11.4881382714
 20
5.8250713819
 30
0.0
 10
11.5020562047
 20
5.8274901853
 30
0.0
 10
11.5155015256
 20
5.8300813591
 30
0.0
 10
11.5284423232
 20
5.8328386845
 30
0.0
 10
11.5408479095
 20
5.8357555486
 30
0.0
 10
11.5526888895
 20
5.8388249574
 30
0.0
 10
11.5639372489
 20
5.8420395614
 30
0.0
 10
11.574566417
 20
5.8453916588
 30
0.0
 10
11.5845514307
 20
5.8488732305
 30
0.0
 10
11.593868706
 20
5.8524759727
 30
0.0
 10
11.601174552
 20
5.8556218767
 30
0.0
 10
11.6066607756
 20
5.8581998383
 30
0.0
 10
11.610526972
 20
5.8601262994
 30
0.0
 10
11.6142105653
 20
5.86207656
 30
0.0
 10
11.6177093793
 20
5.8640495195
 30
0.0
 10
11.6210213747
 20
5.866043956
 30
0.0
 10
11.6241445987
 20
5.8680587667
 30
0.0
 10
11.6270772641
 20
5.8700927875
 30
0.0
 10
11.6298177096
 20
5.8721449078
 30
0.0
 10
11.6323641783
 20
5.8742138906
 30
0.0
 10
11.6339657083
 20
5.8756339253
 30
0.0
 10
11.6347318493
 20
5.8763468624
 30
0.0
  0
SPLINE
  5
308
100
AcDbEntity
  8
0
100
AcDbSpline
 62
7
  6
CONTINUOUS
 70
0
 71
3
 72
18
 73
14
 74
0
 42
0.0000001
 43
0.0000001
 44
0.0000000001
 40
0.0
 40
0.0
 40
0.0
 40
0.0
 40
0.1480408984
 40
0.2876685637
 40
0.4195638307
 40
0.4828953995
 40
0.5446366358
 40
0.6638663733
 40
0.7785245104
 40
0.8345987316
 40
0.8900708004
 40
0.9451373779
 40
1.0
 40
1.0
 40
1.0
 40
1.0
 10
11.9031296611
 20
6.1345275123
 30
0.0
 10
11.9041575335
 20
6.1355203609
 30
0.0
 10
11.9060946263
 20
6.1375137637
 30
0.0
 10
11.9086991086
 20
6.1406203831
 30
0.0
 10
11.910567212
 20
6.1432639847
 30
0.0
 10
11.911853765
 20
6.1453858799
 30
0.0
 10
11.9129773491
 20
6.1474602262
 30
0.0
 10
11.9141450064
 20
6.1500703781
 30
0.0
 10
11.9149976106
 20
6.1527436232
 30
0.0
 10
11.9154708429
 20
6.154876527
 30
0.0
 10
11.9157227004
 20
6.1564661312
 30
0.0
 10
11.915873844
 20
6.1580566198
 30
0.0
 10
11.9159074465
 20
6.1591181034
 30
0.0
 10
11.9159074437
 20
6.1596477077
 30
0.0
  0
SPLINE
  5
309
100
AcDbEntity
  8
0
100
AcDbSpline
 62
7
  6
CONTINUOUS
 70
0
 71
3
 72
21
 73
17
 74
0
 42
0.0000001
 43
0.0000001
 44
0.0000000001
 40
0.0
 40
0.0
 40
0.0
 40
0.0
 40
0.0616532317
 40
0.1233294843
 40
0.1850515407
 40
0.2468416642
 40
0.3087213449
 40
0.3707111025
 40
0.432830246
 40
0.4950966374
 40
0.5575265756
 40
0.6201345674
 40
0.6829331401
 40
0.7459332076
 40
0.8725262003
 40
1.0
 40
1.0
 40
1.0
 40
1.0
 10
11.2808850863
 20
9.0210807366
 30
0.0
 10
11.2825459522
 20
9.0226850114
 30
0.0
 10
11.2859553281
 20
9.0258054525
 30
0.0
 10
11.2913145903
 20
9.0302053989
 30
0.0
 10
11.2969065621
 20
9.0343145318
 30
0.0
 10
11.3027169889
 20
9.0381222806
 30
0.0
 10
11.3087312598
 20
9.0416191298
 30
0.0
 10
11.3149341943
 20
9.0447962871
 30
0.0
 10
11.321310185
 20
9.0476457262
 30
0.0
 10
11.3278431555
 20
9.0501602894
 30
0.0
 10
11.3345166491
 20
9.0523336907
 30
0.0
 10
11.3413138125
 20
9.0541604403
 30
0.0
 10
11.3482177254
 20
9.0556359593
 30
0.0
 10
11.357555204
 20
9.0571323397
 30
0.0
 10
11.3694123174
 20
9.0581045127
 30
0.0
 10
11.3789447216
 20
9.057918478
 30
0.0
 10
11.3837076643
 20
9.0575881668
 30
0.0
  0
SPLINE
  5
30A
100
AcDbEntity
  8
0
100
AcDbSpline
 62
7
  6
CONTINUOUS
 70
0
 71
3
 72
21
 73
17
 74
0
 42
0.0000001
 43
0.0000001
 44
0.0000000001
 40
0.0
 40
0.0
 40
0.0
 40
0.0
 40
0.0616532317
 40
0.1233294843
 40
0.1850515407
 40
0.2468416642
 40
0.3087213449
 40
0.3707111025
 40
0.432830246
 40
0.4950966374
 40
0.5575265756
 40
0.6201345674
 40
0.6829331401
 40
0.7459332076
 40
0.8725262003
 40
1.0
 40
1.0
 40
1.0
 40
1.0
 10
11.2808850863
 20
7.4813948958
 30
0.0
 10
11.2825459522
 20
7.4829991705
 30
0.0
 10
11.2859553281
 20
7.4861196117
 30
0.0
 10
11.2913145903
 20
7.4905195581
 30
0.0
 10
11.2969065621
 20
7.494628691
 30
0.0
 10
11.3027169889
 20
7.4984364398
 30
0.0
 10
11.3087312598
 20
7.501933289
 30
0.0
 10
11.3149341943
 20
7.5051104463
 30
0.0
 10
11.321310185
 20
7.5079598854
 30
0.0
 10
11.3278431555
 20
7.5104744486
 30
0.0
 10
11.3345166491
 20
7.5126478498
 30
0.0
 10
11.3413138125
 20
7.5144745995
 30
0.0
 10
11.3482177254
 20
7.5159501184
 30
0.0
 10
11.357555204
 20
7.5174464989
 30
0.0
 10
11.3694123174
 20
7.5184186719
 30
0.0
 10
11.3789447216
 20
7.5182326372
 30
0.0
 10
11.3837076643
 20
7.517902326
 30
0.0
  0
SPLINE
  5
30B
100
AcDbEntity
  8
0
100
AcDbSpline
 62
7
  6
CONTINUOUS
 70
0
 71
3
 72
21
 73
17
 74
0
 42
0.0000001
 43
0.0000001
 44
0.0000000001
 40
0.0
 40
0.0
 40
0.0
 40
0.0
 40
0.0616532317
 40
0.1233294843
 40
0.1850515407
 40
0.2468416642
 40
0.3087213449
 40
0.3707111025
 40
0.432830246
 40
0.4950966374
 40
0.5575265756
 40
0.6201345674
 40
0.6829331401
 40
0.7459332076
 40
0.8725262003
 40
1.0
 40
1.0
 40
1.0
 40
1.0
 10
10.0734777319
 20
7.5651288802
 30
0.0
 10
10.0751385978
 20
7.566733155
 30
0.0
 10
10.0785479737
 20
7.5698535961
 30
0.0
 10
10.0839072359
 20
7.5742535425
 30
0.0
 10
10.0894992077
 20
7.5783626754
 30
0.0
 10
10.0953096345
 20
7.5821704242
 30
0.0
 10
10.1013239054
 20
7.5856672734
 30
0.0
 10
10.1075268399
 20
7.5888444307
 30
0.0
 10
10.1139028306
 20
7.5916938698
 30
0.0
 10
10.1204358011
 20
7.594208433
 30
0.0
 10
10.1271092947
 20
7.5963818343
 30
0.0
 10
10.1339064581
 20
7.5982085839
 30
0.0
 10
10.140810371
 20
7.5996841029
 30
0.0
 10
10.1501478496
 20
7.6011804833
 30
0.0
 10
10.162004963
 20
7.6021526563
 30
0.0
 10
10.1715373672
 20
7.6019666216
 30
0.0
 10
10.1763003098
 20
7.6016363104
 30
0.0
  0
SPLINE
  5
30C
100
AcDbEntity
  8
0
100
AcDbSpline
 62
7
  6
CONTINUOUS
 70
0
 71
3
 72
21
 73
17
 74
0
 42
0.0000001
 43
0.0000001
 44
0.0000000001
 40
0.0
 40
0.0
 40
0.0
 40
0.0
 40
0.0616532317
 40
0.1233294843
 40
0.1850515407
 40
0.2468416642
 40
0.3087213449
 40
0.3707111025
 40
0.432830246
 40
0.4950966374
 40
0.5575265756
 40
0.6201345674
 40
0.6829331401
 40
0.7459332076
 40
0.8725262003
 40
1.0
 40
1.0
 40
1.0
 40
1.0
 10
10.0734777319
 20
9.104814721
 30
0.0
 10
10.0751385978
 20
9.1064189958
 30
0.0
 10
10.0785479737
 20
9.1095394369
 30
0.0
 10
10.0839072359
 20
9.1139393833
 30
0.0
 10
10.0894992077
 20
9.1180485162
 30
0.0
 10
10.0953096345
 20
9.1218562651
 30
0.0
 10
10.1013239054
 20
9.1253531142
 30
0.0
 10
10.1075268399
 20
9.1285302716
 30
0.0
 10
10.1139028306
 20
9.1313797106
 30
0.0
 10
10.1204358011
 20
9.1338942738
 30
0.0
 10
10.1271092947
 20
9.1360676751
 30
0.0
 10
10.1339064581
 20
9.1378944248
 30
0.0
 10
10.140810371
 20
9.1393699437
 30
0.0
 10
10.1501478496
 20
9.1408663242
 30
0.0
 10
10.162004963
 20
9.1418384972
 30
0.0
 10
10.1715373672
 20
9.1416524624
 30
0.0
 10
10.1763003098
 20
9.1413221512
 30
0.0
  0
SPLINE
  5
30D
100
AcDbEntity
  8
0
100
AcDbSpline
 62
7
  6
CONTINUOUS
 70
0
 71
3
 72
15
 73
11
 74
0
 42
0.0000001
 43
0.0000001
 44
0.0000000001
 40
0.0
 40
0.0
 40
0.0
 40
0.0
 40
0.1233171388
 40
0.2468172051
 40
0.3706750009
 40
0.4950496043
 40
0.6200772562
 40
0.7458671573
 40
0.8724928759
 40
1.0
 40
1.0
 40
1.0
 40
1.0
 10
10.1163814354
 20
8.7131903707
 30
0.0
 10
10.1178176144
 20
8.7145776218
 30
0.0
 10
10.1208440951
 20
8.7172016138
 30
0.0
 10
10.1257836174
 20
8.7206304587
 30
0.0
 10
10.1310764895
 20
8.7235209277
 30
0.0
 10
10.1366685268
 20
8.7258433203
 30
0.0
 10
10.1425033249
 20
8.7275745843
 30
0.0
 10
10.1485221116
 20
8.7286973891
 30
0.0
 10
10.1546634423
 20
8.7292008186
 30
0.0
 10
10.1587858003
 20
8.7291204108
 30
0.0
 10
10.1608454644
 20
8.7289775726
 30
0.0
  0
SPLINE
  5
30E
100
AcDbEntity
  8
0
100
AcDbSpline
 62
7
  6
CONTINUOUS
 70
0
 71
3
 72
15
 73
11
 74
0
 42
0.0000001
 43
0.0000001
 44
0.0000000001
 40
0.0
 40
0.0
 40
0.0
 40
0.0
 40
0.1233171388
 40
0.2468172051
 40
0.3706750009
 40
0.4950496043
 40
0.6200772562
 40
0.7458671573
 40
0.8724928759
 40
1.0
 40
1.0
 40
1.0
 40
1.0
 10
10.735539958
 20
8.2326872049
 30
0.0
 10
10.7369761371
 20
8.234074456
 30
0.0
 10
10.7400026177
 20
8.236698448
 30
0.0
 10
10.7449421401
 20
8.2401272929
 30
0.0
 10
10.7502350122
 20
8.2430177619
 30
0.0
 10
10.7558270495
 20
8.2453401545
 30
0.0
 10
10.7616618476
 20
8.2470714185
 30
0.0
 10
10.7676806342
 20
8.2481942233
 30
0.0
 10
10.773821965
 20
8.2486976528
 30
0.0
 10
10.777944323
 20
8.248617245
 30
0.0
 10
10.7800039871
 20
8.2484744068
 30
0.0
  0
SPLINE
  5
30F
100
AcDbEntity
  8
0
100
AcDbSpline
 62
7
  6
CONTINUOUS
 70
0
 71
3
 72
15
 73
11
 74
0
 42
0.0000001
 43
0.0000001
 44
0.0000000001
 40
0.0
 40
0.0
 40
0.0
 40
0.0
 40
0.1233171217
 40
0.2468171833
 40
0.3706749954
 40
0.4950495965
 40
0.6200773092
 40
0.7458671694
 40
0.8724927499
 40
1.0
 40
1.0
 40
1.0
 40
1.0
 10
10.1066553575
 20
7.848131415
 30
0.0
 10
10.1084056905
 20
7.8498221027
 30
0.0
 10
10.1120942084
 20
7.8530200255
 30
0.0
 10
10.11811421
 20
7.857198861
 30
0.0
 10
10.124564855
 20
7.8607215487
 30
0.0
 10
10.1313800996
 20
7.8635519008
 30
0.0
 10
10.1384911999
 20
7.8656618237
 30
0.0
 10
10.1458265247
 20
7.8670302075
 30
0.0
 10
10.1533111972
 20
7.8676437476
 30
0.0
 10
10.1583352711
 20
7.8675457495
 30
0.0
 10
10.1608454644
 20
7.867371667
 30
0.0
  0
SPLINE
  5
310
100
AcDbEntity
  8
0
100
AcDbSpline
 62
7
  6
CONTINUOUS
 70
0
 71
3
 72
30
 73
26
 74
0
 42
0.0000001
 43
0.0000001
 44
0.0000000001
 40
0.0
 40
0.0
 40
0.0
 40
0.0
 40
0.0606623077
 40
0.1216906063
 40
0.1830902028
 40
0.2448594137
 40
0.3069900748
 40
0.3694670782
 40
0.4322671451
 40
0.4953560514
 40
0.558685054
 40
0.622186308
 40
0.6857665464
 40
0.7175638622
 40
0.7493336987
 40
0.7810559915
 40
0.8127091551
 40
0.844270708
 40
0.8600128623
 40
0.8757237998
 40
0.9070358434
 40
0.9381938031
 40
0.9537131009
 40
0.9691893214
 40
1.0
 40
1.0
 40
1.0
 40
1.0
 10
10.7313232134
 20
8.6511086899
 30
0.0
 10
10.7366341364
 20
8.6521829661
 30
0.0
 10
10.7473968457
 20
8.653831526
 30
0.0
 10
10.7637408066
 20
8.6548314731
 30
0.0
 10
10.7802088192
 20
8.6543875715
 30
0.0
 10
10.7966740358
 20
8.652512073
 30
0.0
 10
10.8130118979
 20
8.6492100491
 30
0.0
 10
10.8290914971
 20
8.6444796301
 30
0.0
 10
10.8447706453
 20
8.6383138013
 30
0.0
 10
10.8598891888
 20
8.6307033088
 30
0.0
 10
10.8742627142
 20
8.62164088
 30
0.0
 10
10.8876736852
 20
8.611131081
 30
0.0
 10
10.8978410517
 20
8.601181485
 30
0.0
 10
10.9052202313
 20
8.5925404241
 30
0.0
 10
10.9103374377
 20
8.5857315908
 30
0.0
 10
10.9149937569
 20
8.5786146211
 30
0.0
 10
10.9191462715
 20
8.571213288
 30
0.0
 10
10.9221542148
 20
8.5648268047
 30
0.0
 10
10.9242659191
 20
8.5596080902
 30
0.0
 10
10.926171354
 20
8.5543342776
 30
0.0
 10
10.9281634147
 20
8.5476332632
 30
0.0
 10
10.9296113579
 20
8.5408109127
 30
0.0
 10
10.9304269876
 20
8.5353179807
 30
0.0
 10
10.9310103863
 20
8.5298271185
 30
0.0
 10
10.9311877673
 20
8.5256899547
 30
0.0
 10
10.9311877673
 20
8.5229378804
 30
0.0
  0
SPLINE
  5
311
100
AcDbEntity
  8
0
100
AcDbSpline
 62
7
  6
CONTINUOUS
 70
0
 71
3
 72
11
 73
7
 74
0
 42
0.0000001
 43
0.0000001
 44
0.0000000001
 40
0.0
 40
0.0
 40
0.0
 40
0.0
 40
0.250945883
 40
0.501213344
 40
0.750868071
 40
1.0
 40
1.0
 40
1.0
 40
1.0
 10
11.307952769
 20
8.1938447906
 30
0.0
 10
11.3090088345
 20
8.1907809262
 30
0.0
 10
11.3108688256
 20
8.184572203
 30
0.0
 10
11.3128787052
 20
8.1750749907
 30
0.0
 10
11.3140910019
 20
8.1654669587
 30
0.0
 10
11.3143615878
 20
8.1590223365
 30
0.0
 10
11.314361591
 20
8.155805
 30
0.0
  0
SPLINE
  5
312
100
AcDbEntity
  8
0
100
AcDbSpline
 62
7
  6
CONTINUOUS
 70
0
 71
3
 72
30
 73
26
 74
0
 42
0.0000001
 43
0.0000001
 44
0.0000000001
 40
0.0
 40
0.0
 40
0.0
 40
0.0
 40
0.0639219878
 40
0.1274042804
 40
0.1904661211
 40
0.2531351509
 40
0.3154459321
 40
0.3774404908
 40
0.4391700028
 40
0.5006979452
 40
0.5621037502
 40
0.5928060435
 40
0.6235188943
 40
0.6542591886
 40
0.6850456934
 40
0.7158989563
 40
0.7468410288
 40
0.7778949444
 40
0.8090838767
 40
0.8404299124
 40
0.8719524724
 40
0.9036663835
 40
0.9355802715
 40
0.9676939574
 40
1.0
 40
1.0
 40
1.0
 40
1.0
 10
10.9015503425
 20
7.8736891582
 30
0.0
 10
10.9023722995
 20
7.8676695688
 30
0.0
 10
10.903387447
 20
7.8555779975
 30
0.0
 10
10.9030929821
 20
7.8374499817
 30
0.0
 10
10.9010530033
 20
7.8195538459
 30
0.0
 10
10.8973285839
 20
7.8020458896
 30
0.0
 10
10.8919676236
 20
7.7850736036
 30
0.0
 10
10.8850058314
 20
7.76878861
 30
0.0
 10
10.8764689594
 20
7.753353235
 30
0.0
 10
10.8663789927
 20
7.7389512003
 30
0.0
 10
10.8566874269
 20
7.7279800905
 30
0.0
 10
10.8481953542
 20
7.7199612533
 30
0.0
 10
10.8414575946
 20
7.7143550555
 30
0.0
 10
10.8343610816
 20
7.7091964437
 30
0.0
 10
10.8269173699
 20
7.7045264258
 30
0.0
 10
10.8191423923
 20
7.7003892214
 30
0.0
 10
10.8110572194
 20
7.6968314112
 30
0.0
 10
10.8026893907
 20
7.6939012423
 30
0.0
 10
10.7940741251
 20
7.6916472968
 30
0.0
 10
10.7852554192
 20
7.6901166128
 30
0.0
 10
10.7762867187
 20
7.6893522267
 30
0.0
 10
10.7672310253
 20
7.689390124
 30
0.0
 10
10.7581596459
 20
7.6902562658
 30
0.0
 10
10.7491514875
 20
7.6919629265
 30
0.0
 10
10.7432566354
 20
7.6936553638
 30
0.0
 10
10.7403471655
 20
7.6946367263
 30
0.0
  0
SPLINE
  5
313
100
AcDbEntity
  8
0
100
AcDbSpline
 62
7
  6
CONTINUOUS
 70
0
 71
3
 72
35
 73
31
 74
0
 42
0.0000001
 43
0.0000001
 44
0.0000000001
 40
0.0
 40
0.0
 40
0.0
 40
0.0
 40
0.0307526056
 40
0.061316387
 40
0.091722129
 40
0.1220006685
 40
0.1521822501
 40
0.1822980455
 40
0.2424486311
 40
0.3027166962
 40
0.3633825309
 40
0.3939685937
 40
0.4247778262
 40
0.487234037
 40
0.5190019022
 40
0.5511866562
 40
0.5838258756
 40
0.6169361784
 40
0.6504968512
 40
0.6844298506
 40
0.7185819911
 40
0.7527227853
 40
0.7865713009
 40
0.8198459726
 40
0.8523185716
 40
0.8838438178
 40
0.9143588678
 40
0.9438627354
 40
0.9723924856
 40
1.0
 40
1.0
 40
1.0
 40
1.0
 10
10.6799371162
 20
7.7446051648
 30
0.0
 10
10.6803828624
 20
7.7466383792
 30
0.0
 10
10.6813275084
 20
7.7506803043
 30
0.0
 10
10.6829067597
 20
7.7566851107
 30
0.0
 10
10.6846440675
 20
7.7626127458
 30
0.0
 10
10.6865395076
 20
7.7684645307
 30
0.0
 10
10.688596669
 20
7.7742407352
 30
0.0
 10
10.6915577242
 20
7.781837561
 30
0.0
 10
10.6956916048
 20
7.7911583789
 30
0.0
 10
10.7013942032
 20
7.8020181818
 30
0.0
 10
10.7068187059
 20
7.8107352374
 30
0.0
 10
10.7116098211
 20
7.8174689023
 30
0.0
 10
10.7167678372
 20
7.8240795221
 30
0.0
 10
10.7224500897
 20
7.8303752911
 30
0.0
 10
10.728692602
 20
7.8362323907
 30
0.0
 10
10.7337262261
 20
7.840411542
 30
0.0
 10
10.7390991349
 20
7.8443026799
 30
0.0
 10
10.7448184938
 20
7.8478463401
 30
0.0
 10
10.7508766336
 20
7.8509720258
 30
0.0
 10
10.7572435776
 20
7.8536020028
 30
0.0
 10
10.7638601613
 20
7.8556595583
 30
0.0
 10
10.7706365044
 20
7.8570825379
 30
0.0
 10
10.7774597784
 20
7.857837418
 30
0.0
 10
10.7842106678
 20
7.8579287359
 30
0.0
 10
10.7907825284
 20
7.8573978369
 30
0.0
 10
10.797095037
 20
7.856311855
 30
0.0
 10
10.803098131
 20
7.8547498041
 30
0.0
 10
10.8087683072
 20
7.8527905677
 30
0.0
 10
10.8141006344
 20
7.8505060728
 30
0.0
 10
10.8174890318
 20
7.8487800847
 30
0.0
 10
10.819126953
 20
7.8478806548
 30
0.0
  0
SPLINE
  5
314
100
AcDbEntity
  8
0
100
AcDbSpline
 62
7
  6
CONTINUOUS
 70
0
 71
3
 72
18
 73
14
 74
0
 42
0.0000001
 43
0.0000001
 44
0.0000000001
 40
0.0
 40
0.0
 40
0.0
 40
0.0
 40
0.0548626755
 40
0.1099292576
 40
0.1654013202
 40
0.2214755501
 40
0.3361333804
 40
0.4553634196
 40
0.5171048815
 40
0.5804365284
 40
0.7123311193
 40
0.8519577055
 40
1.0
 40
1.0
 40
1.0
 40
1.0
 10
11.4853695836
 20
10.3840068632
 30
0.0
 10
11.485369585
 20
10.3833988744
 30
0.0
 10
11.4853310044
 20
10.3821802859
 30
0.0
 10
11.4851575225
 20
10.380354394
 30
0.0
 10
11.4848683949
 20
10.3785295187
 30
0.0
 10
11.484325111
 20
10.3760809413
 30
0.0
 10
11.4833463614
 20
10.3730120287
 30
0.0
 10
11.4820058617
 20
10.3700155679
 30
0.0
 10
11.4807159889
 20
10.3676341973
 30
0.0
 10
11.479239027
 20
10.3651982514
 30
0.0
 10
11.4770944451
 20
10.3621634
 30
0.0
 10
11.474104503
 20
10.3585969771
 30
0.0
 10
11.471880702
 20
10.3563085445
 30
0.0
 10
11.4707006883
 20
10.3551687388
 30
0.0
  0
SPLINE
  5
315
100
AcDbEntity
  8
0
100
AcDbSpline
 62
7
  6
CONTINUOUS
 70
0
 71
3
 72
31
 73
27
 74
0
 42
0.0000001
 43
0.0000001
 44
0.0000000001
 40
0.0
 40
0.0
 40
0.0
 40
0.0
 40
0.015547552
 40
0.0312880285
 40
0.0474067379
 40
0.0640750164
 40
0.081446335
 40
0.0996536174
 40
0.1188100048
 40
0.1390093636
 40
0.1603281383
 40
0.1828281955
 40
0.2065575545
 40
0.2315535635
 40
0.2578438746
 40
0.285447534
 40
0.3143773053
 40
0.3446390841
 40
0.4091525822
 40
0.4789504828
 40
0.5539291875
 40
0.6339380243
 40
0.7187873757
 40
0.8082512776
 40
0.9020847387
 40
1.0
 40
1.0
 40
1.0
 40
1.0
 10
10.8813203023
 20
10.2206302775
 30
0.0
 10
10.8813203029
 20
10.2203062829
 30
0.0
 10
10.8812822721
 20
10.2196536544
 30
0.0
 10
10.8811115625
 20
10.2186785714
 30
0.0
 10
10.8808275519
 20
10.2177059414
 30
0.0
 10
10.8804308906
 20
10.2167369842
 30
0.0
 10
10.8799222396
 20
10.215772575
 30
0.0
 10
10.879302422
 20
10.2148134578
 30
0.0
 10
10.8785721444
 20
10.2138603634
 30
0.0
 10
10.8777321936
 20
10.2129139745
 30
0.0
 10
10.8767833952
 20
10.2119749575
 30
0.0
 10
10.8757265704
 20
10.2110440722
 30
0.0
 10
10.8745626907
 20
10.2101220032
 30
0.0
 10
10.873292751
 20
10.2092095274
 30
0.0
 10
10.8719178581
 20
10.2083074111
 30
0.0
 10
10.8704392283
 20
10.2074163956
 30
0.0
 10
10.8688581352
 20
10.2065372791
 30
0.0
 10
10.8665660549
 20
10.2053567202
 30
0.0
 10
10.8634487309
 20
10.2039226083
 30
0.0
 10
10.8594005694
 20
10.2022958437
 30
0.0
 10
10.8549829284
 20
10.2007342303
 30
0.0
 10
10.8502114701
 20
10.1992433956
 30
0.0
 10
10.84510308
 20
10.197828762
 30
0.0
 10
10.8396758508
 20
10.196495407
 30
0.0
 10
10.8339493047
 20
10.195248272
 30
0.0
 10
10.8300251375
 20
10.1944926091
 30
0.0
 10
10.8280173906
 20
10.1941287512
 30
0.0
  0
SPLINE
  5
316
100
AcDbEntity
  8
0
100
AcDbSpline
 62
7
  6
CONTINUOUS
 70
0
 71
3
 72
18
 73
14
 74
0
 42
0.0000001
 43
0.0000001
 44
0.0000000001
 40
0.0
 40
0.0
 40
0.0
 40
0.0
 40
0.0548626221
 40
0.1099291996
 40
0.1654012684
 40
0.2214754896
 40
0.3361336267
 40
0.4553633642
 40
0.5171046005
 40
0.5804361693
 40
0.7123314363
 40
0.8519591016
 40
1.0
 40
1.0
 40
1.0
 40
1.0
 10
10.0840925563
 20
10.215586547
 30
0.0
 10
10.0840925535
 20
10.2161161512
 30
0.0
 10
10.084126156
 20
10.2171776349
 30
0.0
 10
10.0842772996
 20
10.2187681234
 30
0.0
 10
10.0845291571
 20
10.2203577276
 30
0.0
 10
10.0850023894
 20
10.2224906314
 30
0.0
 10
10.0858549936
 20
10.2251638765
 30
0.0
 10
10.0870226509
 20
10.2277740284
 30
0.0
 10
10.088146235
 20
10.2298483748
 30
0.0
 10
10.089432788
 20
10.2319702699
 30
0.0
 10
10.0913008914
 20
10.2346138715
 30
0.0
 10
10.0939053737
 20
10.2377204909
 30
0.0
 10
10.0958424665
 20
10.2397138937
 30
0.0
 10
10.0968703389
 20
10.2407067423
 30
0.0
  0
SPLINE
  5
317
100
AcDbEntity
  8
0
100
AcDbSpline
 62
7
  6
CONTINUOUS
 70
0
 71
3
 72
32
 73
28
 74
0
 42
0.0000001
 43
0.0000001
 44
0.0000000001
 40
0.0
 40
0.0
 40
0.0
 40
0.0
 40
0.016478973
 40
0.0339511735
 40
0.0524463384
 40
0.0719872471
 40
0.092588773
 40
0.1142588623
 40
0.1370000477
 40
0.1608103511
 40
0.185683502
 40
0.2116097912
 40
0.238576108
 40
0.2665667484
 40
0.2955631658
 40
0.325544769
 40
0.3564885543
 40
0.3883698474
 40
0.421161909
 40
0.454836576
 40
0.524711205
 40
0.5977402045
 40
0.67364817
 40
0.7521422693
 40
0.8329146021
 40
0.9156443815
 40
1.0
 40
1.0
 40
1.0
 40
1.0
 10
10.3652681507
 20
10.4988873922
 30
0.0
 10
10.3663148991
 20
10.4998614501
 30
0.0
 10
10.3685377181
 20
10.5017979056
 30
0.0
 10
10.3721340666
 20
10.5045895122
 30
0.0
 10
10.3760842182
 20
10.5073484028
 30
0.0
 10
10.3803837522
 20
10.5100716411
 30
0.0
 10
10.3850282315
 20
10.5127565197
 30
0.0
 10
10.3900127244
 20
10.5154001744
 30
0.0
 10
10.3953318927
 20
10.5179997992
 30
0.0
 10
10.4009800347
 20
10.520552569
 30
0.0
 10
10.4069510602
 20
10.5230557632
 30
0.0
 10
10.4132385302
 20
10.5255066065
 30
0.0
 10
10.4198356225
 20
10.5279024804
 30
0.0
 10
10.4267351884
 20
10.5302407047
 30
0.0
 10
10.4339297199
 20
10.5325187824
 30
0.0
 10
10.4414113955
 20
10.5347341521
 30
0.0
 10
10.4491720602
 20
10.536884448
 30
0.0
 10
10.4572032564
 20
10.5389672463
 30
0.0
 10
10.4654962317
 20
10.540980337
 30
0.0
 10
10.4770328248
 20
10.5436007344
 30
0.0
 10
10.4920444492
 20
10.5466761091
 30
0.0
 10
10.5107368542
 20
10.5500117146
 30
0.0
 10
10.5302414616
 20
10.5530215916
 30
0.0
 10
10.5504730891
 20
10.5556924421
 30
0.0
 10
10.5713435158
 20
10.5580124447
 30
0.0
 10
10.5927615234
 20
10.5599713411
 30
0.0
 10
10.6072220567
 20
10.561021978
 30
0.0
 10
10.6145266518
 20
10.5614869826
 30
0.0
  0
SPLINE
  5
318
100
AcDbEntity
  8
0
100
AcDbSpline
 62
7
  6
CONTINUOUS
 70
0
 71
3
 72
18
 73
14
 74
0
 42
0.0000001
 43
0.0000001
 44
0.0000000001
 40
0.0
 40
0.0
 40
0.0
 40
0.0
 40
0.1492375281
 40
0.289655037
 40
0.421961834
 40
0.4853619434
 40
0.5470838486
 40
0.6660306073
 40
0.780131264
 40
0.8358489547
 40
0.8909261061
 40
0.94557164
 40
1.0
 40
1.0
 40
1.0
 40
1.0
 10
11.9031607926
 20
10.4124789201
 30
0.0
 10
11.9042622863
 20
10.4114538577
 30
0.0
 10
11.9063381396
 20
10.4093957283
 30
0.0
 10
11.9091328574
 20
10.4061826924
 30
0.0
 10
11.9111392761
 20
10.4034453951
 30
0.0
 10
11.9125211876
 20
10.4012472336
 30
0.0
 10
11.9137264884
 20
10.3991008587
 30
0.0
 10
11.9149796979
 20
10.3963992378
 30
0.0
 10
11.9158960779
 20
10.3936278204
 30
0.0
 10
11.916404525
 20
10.3914167552
 30
0.0
 10
11.9166749787
 20
10.3897695838
 30
0.0
 10
11.9168372653
 20
10.3881214176
 30
0.0
 10
11.9168733666
 20
10.3870213508
 30
0.0
 10
11.9168733696
 20
10.3864725821
 30
0.0
  0
SPLINE
  5
319
100
AcDbEntity
  8
0
100
AcDbSpline
 62
7
  6
CONTINUOUS
 70
0
 71
3
 72
32
 73
28
 74
0
 42
0.0000001
 43
0.0000001
 44
0.0000000001
 40
0.0
 40
0.0
 40
0.0
 40
0.0
 40
0.0165870963
 40
0.0341537736
 40
0.05273033
 40
0.0723387541
 40
0.0929934429
 40
0.1147029167
 40
0.1374701092
 40
0.1612936762
 40
0.1861680364
 40
0.2120843656
 40
0.239030526
 40
0.2669918118
 40
0.295950858
 40
0.3258881797
 40
0.3567821165
 40
0.3886091948
 40
0.4213441381
 40
0.454960077
 40
0.5247184596
 40
0.5976427823
 40
0.6734701307
 40
0.7519204697
 40
0.832699145
 40
0.9154982626
 40
1.0
 40
1.0
 40
1.0
 40
1.0
 10
10.1267056124
 20
5.9349615185
 30
0.0
 10
10.1277313326
 20
5.9340069776
 30
0.0
 10
10.1299069158
 20
5.9321090622
 30
0.0
 10
10.1334225988
 20
5.9293709064
 30
0.0
 10
10.137278591
 20
5.926663984
 30
0.0
 10
10.1414708525
 20
5.9239911797
 30
0.0
 10
10.1459951329
 20
5.9213550159
 30
0.0
 10
10.1508468271
 20
5.9187582559
 30
0.0
 10
10.1560209291
 20
5.9162034826
 30
0.0
 10
10.1615121213
 20
5.913693408
 30
0.0
 10
10.1673147003
 20
5.9112305833
 30
0.0
 10
10.1734226517
 20
5.9088176379
 30
0.0
 10
10.1798296057
 20
5.9064570554
 30
0.0
 10
10.1865288849
 20
5.9041513566
 30
0.0
 10
10.1935134845
 20
5.9019029353
 30
0.0
 10
10.2007761005
 20
5.8997141866
 30
0.0
 10
10.2083091265
 20
5.8975873972
 30
0.0
 10
10.2161046665
 20
5.8955248282
 30
0.0
 10
10.224154556
 20
5.8935286275
 30
0.0
 10
10.2353540732
 20
5.890926251
 30
0.0
 10
10.2499303092
 20
5.8878640017
 30
0.0
 10
10.2680865235
 20
5.8845291971
 30
0.0
 10
10.2870407953
 20
5.8815046975
 30
0.0
 10
10.3067135476
 20
5.8788033394
 30
0.0
 10
10.3270222913
 20
5.8764366241
 30
0.0
 10
10.347881713
 20
5.8744145988
 30
0.0
 10
10.3619719372
 20
5.8733118794
 30
0.0
 10
10.3690929413
 20
5.8728180361
 30
0.0
  0
SPLINE
  5
31A
100
AcDbEntity
  8
0
100
AcDbSpline
 62
7
  6
CONTINUOUS
 70
0
 71
3
 72
27
 73
23
 74
0
 42
0.0000001
 43
0.0000001
 44
0.0000000001
 40
0.0
 40
0.0
 40
0.0
 40
0.0
 40
0.0218356064
 40
0.0431595166
 40
0.0641415797
 40
0.084956157
 40
0.1057755493
 40
0.1267698132
 40
0.1480981088
 40
0.1699066328
 40
0.2154496015
 40
0.2643036251
 40
0.3170948103
 40
0.3742451819
 40
0.4360152919
 40
0.5025427128
 40
0.5738733916
 40
0.6499839647
 40
0.7307959528
 40
0.8161806582
 40
0.905984953
 40
1.0
 40
1.0
 40
1.0
 40
1.0
 10
11.2521906438
 20
8.1480004278
 30
0.0
 10
11.2521906479
 20
8.1476566274
 30
0.0
 10
11.2521638764
 20
8.1469767107
 30
0.0
 10
11.2520389204
 20
8.1459733498
 30
0.0
 10
11.2518295341
 20
8.1450004617
 30
0.0
 10
11.2515357186
 20
8.1440579657
 30
0.0
 10
11.2511577045
 20
8.1431457668
 30
0.0
 10
11.2506958306
 20
8.1422639453
 30
0.0
 10
11.2501505581
 20
8.1414125956
 30
0.0
 10
11.2493011568
 20
8.1403026702
 30
0.0
 10
11.2480170638
 20
8.138988709
 30
0.0
 10
11.2461779931
 20
8.1375684843
 30
0.0
 10
11.2440259287
 20
8.1362855365
 30
0.0
 10
11.2415688261
 20
8.1351476576
 30
0.0
 10
11.238815384
 20
8.1341652911
 30
0.0
 10
11.235776069
 20
8.1333519664
 30
0.0
 10
11.2324633803
 20
8.1327235586
 30
0.0
 10
11.2288921307
 20
8.1322979821
 30
0.0
 10
11.2250798227
 20
8.1320948412
 30
0.0
 10
11.2210466548
 20
8.1321345118
 30
0.0
 10
11.2168163958
 20
8.1324381876
 30
0.0
 10
11.2139455681
 20
8.1328218949
 30
0.0
 10
11.21248486
 20
8.133061699
 30
0.0
  0
SPLINE
  5
31B
100
AcDbEntity
  8
0
100
AcDbSpline
 62
7
  6
CONTINUOUS
 70
0
 71
3
 72
18
 73
14
 74
0
 42
0.0000001
 43
0.0000001
 44
0.0000000001
 40
0.0
 40
0.0
 40
0.0
 40
0.0
 40
0.05442836
 40
0.1090738939
 40
0.1641510453
 40
0.219868736
 40
0.3339693927
 40
0.4529161514
 40
0.5146380566
 40
0.578038166
 40
0.710344963
 40
0.8507624719
 40
1.0
 40
1.0
 40
1.0
 40
1.0
 10
10.0831266304
 20
5.9887616726
 30
0.0
 10
10.0831266334
 20
5.9882129038
 30
0.0
 10
10.0831627347
 20
5.987112837
 30
0.0
 10
10.0833250213
 20
5.9854646708
 30
0.0
 10
10.083595475
 20
5.9838174994
 30
0.0
 10
10.0841039221
 20
5.9816064342
 30
0.0
 10
10.0850203021
 20
5.9788350168
 30
0.0
 10
10.0862735116
 20
5.9761333959
 30
0.0
 10
10.0874788124
 20
5.9739870211
 30
0.0
 10
10.0888607239
 20
5.9717888595
 30
0.0
 10
10.0908671426
 20
5.9690515622
 30
0.0
 10
10.0936618604
 20
5.9658385263
 30
0.0
 10
10.0957377137
 20
5.9637803969
 30
0.0
 10
10.0968392074
 20
5.9627553345
 30
0.0
  0
SPLINE
  5
31C
100
AcDbEntity
  8
0
100
AcDbSpline
 62
7
  6
CONTINUOUS
 70
0
 71
3
 72
11
 73
7
 74
0
 42
0.0000001
 43
0.0000001
 44
0.0000000001
 40
0.0
 40
0.0
 40
0.0
 40
0.0
 40
0.2593323467
 40
0.51075963
 40
0.7567613553
 40
1.0
 40
1.0
 40
1.0
 40
1.0
 10
11.4825380387
 20
10.3967650555
 30
0.0
 10
11.4830008422
 20
10.395725843
 30
0.0
 10
11.4838187344
 20
10.3936354925
 30
0.0
 10
11.4847126163
 20
10.3904324068
 30
0.0
 10
11.4852498908
 20
10.3872218645
 30
0.0
 10
11.4853695812
 20
10.3850738724
 30
0.0
 10
11.4853695836
 20
10.3840068632
 30
0.0
  0
SPLINE
  5
31D
100
AcDbEntity
  8
0
100
AcDbSpline
 62
7
  6
CONTINUOUS
 70
0
 71
3
 72
30
 73
26
 74
0
 42
0.0000001
 43
0.0000001
 44
0.0000000001
 40
0.0
 40
0.0
 40
0.0
 40
0.0
 40
0.063921988
 40
0.127404281
 40
0.190466122
 40
0.2531351522
 40
0.3154459339
 40
0.3774404929
 40
0.4391700053
 40
0.5006979481
 40
0.5621037534
 40
0.5928060468
 40
0.6235188978
 40
0.654259192
 40
0.6850456968
 40
0.7158989597
 40
0.7468410321
 40
0.7778949475
 40
0.8090838795
 40
0.8404299149
 40
0.8719524745
 40
0.9036663851
 40
0.9355802727
 40
0.9676939581
 40
1.0
 40
1.0
 40
1.0
 40
1.0
 10
10.6584576317
 20
7.8060864205
 30
0.0
 10
10.6576356747
 20
7.8121060092
 30
0.0
 10
10.6566205272
 20
7.8241975793
 30
0.0
 10
10.6569149918
 20
7.8423255933
 30
0.0
 10
10.65895497
 20
7.8602217274
 30
0.0
 10
10.6626793884
 20
7.8777296821
 30
0.0
 10
10.6680403474
 20
7.8947019666
 30
0.0
 10
10.675002138
 20
7.910986959
 30
0.0
 10
10.6835390081
 20
7.9264223331
 30
0.0
 10
10.6936289726
 20
7.9408243671
 30
0.0
 10
10.7033205363
 20
7.9517954769
 30
0.0
 10
10.7118126072
 20
7.9598143143
 30
0.0
 10
10.7185503654
 20
7.9654205123
 30
0.0
 10
10.725646877
 20
7.9705791246
 30
0.0
 10
10.7330905871
 20
7.9752491431
 30
0.0
 10
10.7408655632
 20
7.9793863484
 30
0.0
 10
10.7489507346
 20
7.9829441596
 30
0.0
 10
10.7573185618
 20
7.9858743299
 30
0.0
 10
10.7659338259
 20
7.988128277
 30
0.0
 10
10.7747525304
 20
7.9896589628
 30
0.0
 10
10.7837212297
 20
7.9904233511
 30
0.0
 10
10.792776922
 20
7.9903854559
 30
0.0
 10
10.8018483007
 20
7.9895193173
 30
0.0
 10
10.8108564579
 20
7.9878126576
 30
0.0
 10
10.8167513109
 20
7.9861202256
 30
0.0
 10
10.8196607804
 20
7.9851388632
 30
0.0
  0
SPLINE
  5
31E
100
AcDbEntity
  8
0
100
AcDbSpline
 62
7
  6
CONTINUOUS
 70
0
 71
3
 72
48
 73
44
 74
0
 42
0.0000001
 43
0.0000001
 44
0.0000000001
 40
0.0
 40
0.0
 40
0.0
 40
0.0
 40
0.0350612114
 40
0.0714617096
 40
0.1090494842
 40
0.1476680227
 40
0.1871530599
 40
0.227335977
 40
0.2680439218
 40
0.3091011429
 40
0.3503299047
 40
0.3915515144
 40
0.4325873181
 40
0.4732597038
 40
0.5133931044
 40
0.5528150067
 40
0.591356975
 40
0.6288556954
 40
0.6651540561
 40
0.7001022807
 40
0.7335591458
 40
0.7653933354
 40
0.7954849749
 40
0.8237274673
 40
0.8500298007
 40
0.8624309121
 40
0.8743215645
 40
0.8856964523
 40
0.89655188
 40
0.9068862992
 40
0.9167005264
 40
0.9259980288
 40
0.934785698
 40
0.9430740094
 40
0.9508782984
 40
0.9582190986
 40
0.9651237006
 40
0.9716269273
 40
0.9777725617
 40
0.9836142198
 40
0.989215719
 40
0.9946505992
 40
1.0
 40
1.0
 40
1.0
 40
1.0
 10
10.6846232362
 20
10.2471317367
 30
0.0
 10
10.6869987197
 20
10.2475622384
 30
0.0
 10
10.6918519641
 20
10.2483769791
 30
0.0
 10
10.6992847212
 20
10.24944654
 30
0.0
 10
10.7069822176
 20
10.2503830344
 30
0.0
 10
10.7149086298
 20
10.2511820735
 30
0.0
 10
10.7230272695
 20
10.2518398915
 30
0.0
 10
10.7313004358
 20
10.2523534082
 30
0.0
 10
10.7396897456
 20
10.2527202088
 30
0.0
 10
10.748156256
 20
10.252938574
 30
0.0
 10
10.7566606663
 20
10.2530074783
 30
0.0
 10
10.7651634966
 20
10.2529265981
 30
0.0
 10
10.7736252746
 20
10.2526963131
 30
0.0
 10
10.7820067208
 20
10.2523177043
 30
0.0
 10
10.7902689326
 20
10.2517925483
 30
0.0
 10
10.7983735671
 20
10.2511233102
 30
0.0
 10
10.8062830213
 20
10.2503131323
 30
0.0
 10
10.8139606098
 20
10.2493658208
 30
0.0
 10
10.8213707403
 20
10.2482858289
 30
0.0
 10
10.8284790831
 20
10.2470782372
 30
0.0
 10
10.8352527457
 20
10.245748731
 30
0.0
 10
10.8416604205
 20
10.2443035732
 30
0.0
 10
10.8476726139
 20
10.2427495802
 30
0.0
 10
10.8532615875
 20
10.2410940547
 30
0.0
 10
10.8576270398
 20
10.2396086215
 30
0.0
 10
10.8608832682
 20
10.2383695107
 30
0.0
 10
10.8631559005
 20
10.2374379222
 30
0.0
 10
10.8653046132
 20
10.2364869157
 30
0.0
 10
10.8673269453
 20
10.2355175439
 30
0.0
 10
10.8692205918
 20
10.2345309262
 30
0.0
 10
10.8709834125
 20
10.2335281945
 30
0.0
 10
10.8726134038
 20
10.2325104366
 30
0.0
 10
10.8741087645
 20
10.2314788203
 30
0.0
 10
10.8754677915
 20
10.230434385
 30
0.0
 10
10.8766890102
 20
10.2293782726
 30
0.0
 10
10.8777709979
 20
10.2283114575
 30
0.0
 10
10.8787125236
 20
10.2272349778
 30
0.0
 10
10.8795123609
 20
10.2261497506
 30
0.0
 10
10.8801693304
 20
10.2250567173
 30
0.0
 10
10.8806822442
 20
10.2239569096
 30
0.0
 10
10.8810498151
 20
10.2228514305
 30
0.0
 10
10.8812709768
 20
10.2217420839
 30
0.0
 10
10.8813203015
 20
10.2209986163
 30
0.0
 10
10.8813203023
 20
10.2206302775
 30
0.0
  0
SPLINE
  5
31F
100
AcDbEntity
  8
0
100
AcDbSpline
 62
7
  6
CONTINUOUS
 70
0
 71
3
 72
11
 73
7
 74
0
 42
0.0000001
 43
0.0000001
 44
0.0000000001
 40
0.0
 40
0.0
 40
0.0
 40
0.0
 40
0.2479788994
 40
0.4972633546
 40
0.7479217035
 40
1.0
 40
1.0
 40
1.0
 40
1.0
 10
10.413730994
 20
8.3258690693
 30
0.0
 10
10.410401499
 20
8.3249726931
 30
0.0
 10
10.4036445981
 20
8.3234605467
 30
0.0
 10
10.3933294849
 20
8.3220492586
 30
0.0
 10
10.382876191
 20
8.3214950968
 30
0.0
 10
10.3758796373
 20
8.3216966823
 30
0.0
 10
10.3723830208
 20
8.3219396433
 30
0.0
  0
SPLINE
  5
320
100
AcDbEntity
  8
0
100
AcDbSpline
 62
7
  6
CONTINUOUS
 70
0
 71
3
 72
20
 73
16
 74
0
 42
0.0000001
 43
0.0000001
 44
0.0000000001
 40
0.0
 40
0.0
 40
0.0
 40
0.0
 40
0.0616843585
 40
0.1234741663
 40
0.1853740802
 40
0.247387568
 40
0.3717241835
 40
0.4965278812
 40
0.5591199911
 40
0.6218220845
 40
0.6846297902
 40
0.7475381741
 40
0.8105400739
 40
0.8736280462
 40
1.0
 40
1.0
 40
1.0
 40
1.0
 10
11.2787822075
 20
8.072646925
 30
0.0
 10
11.2773004821
 20
8.0712156484
 30
0.0
 10
11.2742600771
 20
8.0684265647
 30
0.0
 10
11.2694875976
 20
8.0644789154
 30
0.0
 10
11.2645113985
 20
8.0607724728
 30
0.0
 10
11.2576178288
 20
8.0561607857
 30
0.0
 10
11.2485532827
 20
8.0510413102
 30
0.0
 10
11.2390082158
 20
8.0468391498
 30
0.0
 10
11.2311341852
 20
8.0440439421
 30
0.0
 10
11.2251159373
 20
8.0422331697
 30
0.0
 10
11.219006669
 20
8.0407145879
 30
0.0
 10
11.2128213217
 20
8.0394913811
 30
0.0
 10
11.2065747204
 20
8.0385661933
 30
0.0
 10
11.1981822413
 20
8.0377324713
 30
0.0
 10
11.1918443439
 20
8.0375594974
 30
0.0
 10
11.1876247011
 20
8.0376458223
 30
0.0
  0
SPLINE
  5
321
100
AcDbEntity
  8
0
100
AcDbSpline
 62
7
  6
CONTINUOUS
 70
0
 71
3
 72
37
 73
33
 74
0
 42
0.0000001
 43
0.0000001
 44
0.0000000001
 40
0.0
 40
0.0
 40
0.0
 40
0.0
 40
0.0311467573
 40
0.0624481077
 40
0.0938952645
 40
0.125480423
 40
0.1571906467
 40
0.189011416
 40
0.2209257215
 40
0.2529147894
 40
0.2849583708
 40
0.3170351623
 40
0.381163081
 40
0.4451600481
 40
0.4770758024
 40
0.508898317
 40
0.5406106103
 40
0.5721978896
 40
0.6036478697
 40
0.6349510521
 40
0.6661009568
 40
0.6970942988
 40
0.7279311085
 40
0.7586147837
 40
0.7891520652
 40
0.819552936
 40
0.8498304416
 40
0.8800004329
 40
0.9100812331
 40
0.9400932378
 40
0.9700584557
 40
1.0
 40
1.0
 40
1.0
 40
1.0
 10
10.1608454644
 20
7.7166872292
 30
0.0
 10
10.1590057114
 20
7.7168148165
 30
0.0
 10
10.1553250468
 20
7.7172053074
 30
0.0
 10
10.1498486963
 20
7.7181888809
 30
0.0
 10
10.1444309756
 20
7.7195666688
 30
0.0
 10
10.1391012117
 20
7.7213311105
 30
0.0
 10
10.1338876627
 20
7.7234728546
 30
0.0
 10
10.1288181617
 20
7.7259803883
 30
0.0
 10
10.1239196972
 20
7.728840353
 30
0.0
 10
10.1192184295
 20
7.7320374104
 30
0.0
 10
10.114739201
 20
7.7355547407
 30
0.0
 10
10.1090970944
 20
7.7406441519
 30
0.0
 10
10.102717701
 20
7.7477061135
 30
0.0
 10
10.0973642804
 20
7.7555631767
 30
0.0
 10
10.0937694352
 20
7.7622230195
 30
0.0
 10
10.0914327099
 20
7.7673740388
 30
0.0
 10
10.0894665146
 20
7.7726566104
 30
0.0
 10
10.0878811857
 20
7.7780428305
 30
0.0
 10
10.086685271
 20
7.7835039204
 30
0.0
 10
10.0858851885
 20
7.7890107793
 30
0.0
 10
10.0854852697
 20
7.7945340296
 30
0.0
 10
10.0854877143
 20
7.8000441998
 30
0.0
 10
10.0858925752
 20
7.8055118723
 30
0.0
 10
10.0866977521
 20
7.8109078434
 30
0.0
 10
10.0878990081
 20
7.8162032775
 30
0.0
 10
10.0894899873
 20
7.8213698617
 30
0.0
 10
10.0914622436
 20
7.8263799551
 30
0.0
 10
10.0938052905
 20
7.8312067472
 30
0.0
 10
10.0965066198
 20
7.8358243693
 30
0.0
 10
10.0995518959
 20
7.8402081661
 30
0.0
 10
10.1029245286
 20
7.8443343605
 30
0.0
 10
10.1053802527
 20
7.8468997613
 30
0.0
 10
10.1066553575
 20
7.848131415
 30
0.0
  0
SPLINE
  5
322
100
AcDbEntity
  8
0
100
AcDbSpline
 62
7
  6
CONTINUOUS
 70
0
 71
3
 72
12
 73
8
 74
0
 42
0.0000001
 43
0.0000001
 44
0.0000000001
 40
0.0
 40
0.0
 40
0.0
 40
0.0
 40
0.2446296673
 40
0.3682667787
 40
0.492795602
 40
0.7445485637
 40
1.0
 40
1.0
 40
1.0
 40
1.0
 10
10.3721056232
 20
8.3216719951
 30
0.0
 10
10.3691414636
 20
8.3221075898
 30
0.0
 10
10.364705596
 20
8.3229642307
 30
0.0
 10
10.3588651285
 20
8.3244902873
 30
0.0
 10
10.3530112674
 20
8.3262901019
 30
0.0
 10
10.3457662485
 20
8.3290309676
 30
0.0
 10
10.3401483937
 20
8.3316996182
 30
0.0
 10
10.3373776017
 20
8.3331523429
 30
0.0
  0
SPLINE
  5
323
100
AcDbEntity
  8
0
100
AcDbSpline
 62
7
  6
CONTINUOUS
 70
0
 71
3
 72
11
 73
7
 74
0
 42
0.0000001
 43
0.0000001
 44
0.0000000001
 40
0.0
 40
0.0
 40
0.0
 40
0.0
 40
0.2432430349
 40
0.4892469432
 40
0.7406730755
 40
1.0
 40
1.0
 40
1.0
 40
1.0
 10
10.6243696074
 20
10.3840065828
 30
0.0
 10
10.624369605
 20
10.3850732299
 30
0.0
 10
10.6244891852
 20
10.387220483
 30
0.0
 10
10.6250260616
 20
10.3904299334
 30
0.0
 10
10.6259193054
 20
10.3936319395
 30
0.0
 10
10.6267366333
 20
10.3957216168
 30
0.0
 10
10.6271991273
 20
10.3967604961
 30
0.0
  0
LINE
  5
324
100
AcDbEntity
  8
0
100
AcDbLine
 62
7
  6
CONTINUOUS
 10
10.7125304365
 20
7.7110505888
 11
10.7123051811
 21
7.7108770448
  0
SPLINE
  5
325
100
AcDbEntity
  8
0
100
AcDbSpline
 62
7
  6
CONTINUOUS
 70
0
 71
3
 72
39
 73
35
 74
0
 42
0.0000001
 43
0.0000001
 44
0.0000000001
 40
0.0
 40
0.0
 40
0.0
 40
0.0
 40
0.0311082285
 40
0.0619974539
 40
0.0926835549
 40
0.1231901679
 40
0.1535491903
 40
0.1837984803
 40
0.2139798343
 40
0.2441369044
 40
0.2743131064
 40
0.3045497504
 40
0.3348845123
 40
0.3653502335
 40
0.3959740139
 40
0.4267766392
 40
0.4577722677
 40
0.4889683093
 40
0.5203654531
 40
0.5519578263
 40
0.5837332459
 40
0.615673535
 40
0.6477549485
 40
0.6799487147
 40
0.7122216968
 40
0.7445371807
 40
0.776855911
 40
0.8091373402
 40
0.8413410461
 40
0.8734283386
 40
0.9053640719
 40
0.9371184571
 40
0.9686682501
 40
1.0
 40
1.0
 40
1.0
 40
1.0
 10
10.4973832216
 20
8.2062549974
 30
0.0
 10
10.4973832216
 20
8.2022498929
 30
0.0
 10
10.4969712668
 20
8.1942614407
 30
0.0
 10
10.495109302
 20
8.1824534668
 30
0.0
 10
10.4920287929
 20
8.1709819005
 30
0.0
 10
10.4877678223
 20
8.159967874
 30
0.0
 10
10.4823785709
 20
8.1495229123
 30
0.0
 10
10.4759254151
 20
8.1397499162
 30
0.0
 10
10.4684831836
 20
8.1307414135
 30
0.0
 10
10.4601353683
 20
8.1225790088
 30
0.0
 10
10.4509722184
 20
8.1153331431
 30
0.0
 10
10.4410890589
 20
8.1090632663
 30
0.0
 10
10.4305848826
 20
8.1038181889
 30
0.0
 10
10.4195611917
 20
8.0996365785
 30
0.0
 10
10.4081210619
 20
8.0965476289
 30
0.0
 10
10.3963685072
 20
8.0945716418
 30
0.0
 10
10.3844080418
 20
8.093720534
 30
0.0
 10
10.3723443981
 20
8.0939982004
 30
0.0
 10
10.3602823448
 20
8.0954008178
 30
0.0
 10
10.3483265709
 20
8.0979169381
 30
0.0
 10
10.3365815684
 20
8.1015274397
 30
0.0
 10
10.3251514428
 20
8.1062052848
 30
0.0
 10
10.314139635
 20
8.1119152368
 30
0.0
 10
10.3036484908
 20
8.1186134616
 30
0.0
 10
10.2937786491
 20
8.1262470883
 30
0.0
 10
10.2846281494
 20
8.1347537232
 30
0.0
 10
10.2762913497
 20
8.1440611473
 30
0.0
 10
10.2688576133
 20
8.1540871692
 30
0.0
 10
10.2624097362
 20
8.1647396556
 30
0.0
 10
10.2570221541
 20
8.1759169535
 30
0.0
 10
10.252759231
 20
8.187508553
 30
0.0
 10
10.2496735568
 20
8.1993969796
 30
0.0
 10
10.2478040188
 20
8.2114567568
 30
0.0
 10
10.2473832114
 20
8.2195585446
 30
0.0
 10
10.247383208
 20
8.2235924269
 30
0.0
  0
SPLINE
  5
326
100
AcDbEntity
  8
0
100
AcDbSpline
 62
7
  6
CONTINUOUS
 70
0
 71
3
 72
41
 73
37
 74
0
 42
0.0000001
 43
0.0000001
 44
0.0000000001
 40
0.0
 40
0.0
 40
0.0
 40
0.0
 40
0.0761045125
 40
0.1533640536
 40
0.2310947966
 40
0.3086066342
 40
0.3470661279
 40
0.3852137617
 40
0.422965303
 40
0.4602376738
 40
0.4969492092
 40
0.5330199063
 40
0.5683716834
 40
0.602928646
 40
0.6366173801
 40
0.6693672547
 40
0.7011107167
 40
0.7317836229
 40
0.7613256076
 40
0.7896805113
 40
0.8167968801
 40
0.8426285084
 40
0.8671351182
 40
0.8902832146
 40
0.9013399809
 40
0.9120482875
 40
0.9224063604
 40
0.9324131777
 40
0.9420685251
 40
0.9513729307
 40
0.9603279659
 40
0.9689361507
 40
0.9772014048
 40
0.9851291396
 40
0.9927260306
 40
1.0
 40
1.0
 40
1.0
 40
1.0
 10
11.2062547056
 20
5.8363979553
 30
0.0
 10
11.218162293
 20
5.8355721613
 30
0.0
 10
11.2421818596
 20
5.8342337676
 30
0.0
 10
11.278414201
 20
5.8331513891
 30
0.0
 10
11.3148831218
 20
5.8329837397
 30
0.0
 10
11.3452603607
 20
5.8336091368
 30
0.0
 10
11.3694136823
 20
5.8345715074
 30
0.0
 10
11.3873251507
 20
5.8355184636
 30
0.0
 10
11.4050367244
 20
5.8366900937
 30
0.0
 10
11.4225063074
 20
5.8380836176
 30
0.0
 10
11.4396923412
 20
5.8396956907
 30
0.0
 10
11.4565539574
 20
5.8415224557
 30
0.0
 10
11.4730510601
 20
5.8435595393
 30
0.0
 10
11.4891444262
 20
5.8458020672
 30
0.0
 10
11.5047958037
 20
5.8482446689
 30
0.0
 10
11.5199680066
 20
5.850881488
 30
0.0
 10
11.5346250032
 20
5.853706204
 30
0.0
 10
11.5487320024
 20
5.8567120455
 30
0.0
 10
11.5622555405
 20
5.8598918081
 30
0.0
 10
11.5751635782
 20
5.8632378706
 30
0.0
 10
11.5874255682
 20
5.8667422077
 30
0.0
 10
11.5990126099
 20
5.8703964241
 30
0.0
 10
11.6098972712
 20
5.8741917848
 30
0.0
 10
11.6184878934
 20
5.8775134638
 30
0.0
 10
11.6249827051
 20
5.8802416768
 30
0.0
 10
11.6295878294
 20
5.8822861299
 30
0.0
 10
11.6339989654
 20
5.8843589981
 30
0.0
 10
11.6382135183
 20
5.8864590817
 30
0.0
 10
11.6422290197
 20
5.8885851099
 30
0.0
 10
11.6460430852
 20
5.8907358872
 30
0.0
 10
11.6496534925
 20
5.8929100877
 30
0.0
 10
11.6530581193
 20
5.895106483
 30
0.0
 10
11.6562549981
 20
5.8973238246
 30
0.0
 10
11.6592423312
 20
5.8995608829
 30
0.0
 10
11.6620182088
 20
5.90181633
 30
0.0
 10
11.6637640147
 20
5.9033643504
 30
0.0
 10
11.6645991765
 20
5.9041415457
 30
0.0
  0
SPLINE
  5
327
100
AcDbEntity
  8
0
100
AcDbSpline
 62
7
  6
CONTINUOUS
 70
0
 71
3
 72
31
 73
27
 74
0
 42
0.0000001
 43
0.0000001
 44
0.0000000001
 40
0.0
 40
0.0
 40
0.0
 40
0.0
 40
0.0820322132
 40
0.1639021625
 40
0.2452517721
 40
0.3256165152
 40
0.404423039
 40
0.4810013711
 40
0.5546154466
 40
0.6245127915
 40
0.6578433492
 40
0.6899870702
 40
0.720873388
 40
0.7504417586
 40
0.7786445788
 40
0.8054457368
 40
0.8308248406
 40
0.8547748159
 40
0.8773056326
 40
0.8984433675
 40
0.9182326505
 40
0.9367377026
 40
0.9540444748
 40
0.9702625266
 40
0.9855273273
 40
1.0
 40
1.0
 40
1.0
 40
1.0
 10
11.2009137897
 20
8.2381318382
 30
0.0
 10
11.2019094766
 20
8.2354560301
 30
0.0
 10
11.2040406291
 20
8.2301613957
 30
0.0
 10
11.2076174397
 20
8.2224078317
 30
0.0
 10
11.2115187251
 20
8.2148779839
 30
0.0
 10
11.2156761652
 20
8.2076097786
 30
0.0
 10
11.2200092442
 20
8.2006403355
 30
0.0
 10
11.2244258532
 20
8.1940046496
 30
0.0
 10
11.2288246698
 20
8.1877329217
 30
0.0
 10
11.2324421246
 20
8.1827532109
 30
0.0
 10
11.235231782
 20
8.1789563913
 30
0.0
 10
11.2372194354
 20
8.176255128
 30
0.0
 10
11.2391235136
 20
8.1736549387
 30
0.0
 10
11.2409322876
 20
8.1711549987
 30
0.0
 10
11.2426350218
 20
8.1687539477
 30
0.0
 10
11.2442217508
 20
8.1664496356
 30
0.0
 10
11.2456836894
 20
8.1642395702
 30
0.0
 10
11.2470128674
 20
8.1621206321
 30
0.0
 10
11.248202454
 20
8.1600895054
 30
0.0
 10
11.2492464898
 20
8.1581425444
 30
0.0
 10
11.2501398637
 20
8.1562759806
 30
0.0
 10
11.2508783893
 20
8.1544860417
 30
0.0
 10
11.2514583032
 20
8.1527689674
 30
0.0
 10
11.2518767229
 20
8.1511211897
 30
0.0
 10
11.2521308224
 20
8.1495397742
 30
0.0
 10
11.2521906379
 20
8.1485041358
 30
0.0
 10
11.2521906438
 20
8.1480004278
 30
0.0
  0
SPLINE
  5
328
100
AcDbEntity
  8
0
100
AcDbSpline
 62
7
  6
CONTINUOUS
 70
0
 71
3
 72
40
 73
36
 74
0
 42
0.0000001
 43
0.0000001
 44
0.0000000001
 40
0.0
 40
0.0
 40
0.0
 40
0.0
 40
0.0958313936
 40
0.1891002636
 40
0.2345968559
 40
0.2792418231
 40
0.3229685191
 40
0.3657121987
 40
0.4074103657
 40
0.4480029213
 40
0.4874324913
 40
0.5256446262
 40
0.5625879545
 40
0.5982146421
 40
0.632480706
 40
0.6653462654
 40
0.6967761768
 40
0.726740613
 40
0.7552155871
 40
0.7821839784
 40
0.8076366943
 40
0.8315738914
 40
0.8540069425
 40
0.8749609194
 40
0.8944774765
 40
0.9126189061
 40
0.9294731629
 40
0.9451593854
 40
0.9598338584
 40
0.9668558876
 40
0.9737029112
 40
0.9804063068
 40
0.9869997133
 40
0.9935186461
 40
1.0
 40
1.0
 40
1.0
 40
1.0
 10
10.3620354834
 20
9.3065951731
 30
0.0
 10
10.3522681926
 20
9.307272537
 30
0.0
 10
10.3330089457
 20
9.308823997
 30
0.0
 10
10.3091679733
 20
9.3113119349
 30
0.0
 10
10.2905706285
 20
9.3136103808
 30
0.0
 10
10.2770196759
 20
9.3154648265
 30
0.0
 10
10.2637732187
 20
9.3174609386
 30
0.0
 10
10.2508533629
 20
9.3195953775
 30
0.0
 10
10.2382817013
 20
9.3218645414
 30
0.0
 10
10.2260792363
 20
9.3242646335
 30
0.0
 10
10.2142663403
 20
9.32679161
 30
0.0
 10
10.2028627252
 20
9.3294412097
 30
0.0
 10
10.1918874161
 20
9.3322089943
 30
0.0
 10
10.1813587028
 20
9.3350903057
 30
0.0
 10
10.1712941082
 20
9.3380802847
 30
0.0
 10
10.1617103696
 20
9.3411739257
 30
0.0
 10
10.1526233898
 20
9.3443660392
 30
0.0
 10
10.1440482001
 20
9.3476512608
 30
0.0
 10
10.1359989511
 20
9.351024125
 30
0.0
 10
10.1284888621
 20
9.3544790423
 30
0.0
 10
10.1215301756
 20
9.3580103065
 30
0.0
 10
10.1151341636
 20
9.3616122039
 30
0.0
 10
10.1093110894
 20
9.3652790345
 30
0.0
 10
10.1040701749
 20
9.3690051403
 30
0.0
 10
10.0994196753
 20
9.3727851215
 30
0.0
 10
10.0953670101
 20
9.3766138325
 30
0.0
 10
10.0919188128
 20
9.3804867664
 30
0.0
 10
10.0890817895
 20
9.3843990153
 30
0.0
 10
10.0872052889
 20
9.3877378973
 30
0.0
 10
10.0860355176
 20
9.3904113387
 30
0.0
 10
10.085327301
 20
9.3923921515
 30
0.0
 10
10.0847759371
 20
9.3943768643
 30
0.0
 10
10.0843817724
 20
9.3963646635
 30
0.0
 10
10.0841451875
 20
9.3983544035
 30
0.0
 10
10.0840925529
 20
9.3996831889
 30
0.0
 10
10.0840925563
 20
9.4003453656
 30
0.0
  0
SPLINE
  5
329
100
AcDbEntity
  8
0
100
AcDbSpline
 62
7
  6
CONTINUOUS
 70
0
 71
3
 72
41
 73
37
 74
0
 42
0.0000001
 43
0.0000001
 44
0.0000000001
 40
0.0
 40
0.0
 40
0.0
 40
0.0
 40
0.0071758425
 40
0.0146741453
 40
0.0225035656
 40
0.0306713257
 40
0.0391834036
 40
0.0480443729
 40
0.0572572157
 40
0.0668238661
 40
0.0767452117
 40
0.087021259
 40
0.0976512753
 40
0.1086336553
 40
0.1316452786
 40
0.1560326285
 40
0.1817628121
 40
0.2087958578
 40
0.2370856249
 40
0.2665805114
 40
0.2972240455
 40
0.3289554128
 40
0.3617098907
 40
0.3954192316
 40
0.4300120033
 40
0.4654138991
 40
0.5015480605
 40
0.5383353682
 40
0.5756947176
 40
0.6135432851
 40
0.6517967846
 40
0.6903697386
 40
0.7681261117
 40
0.8461161118
 40
0.923638923
 40
1.0
 40
1.0
 40
1.0
 40
1.0
 10
11.6664998996
 20
9.3166111168
 30
0.0
 10
11.6656881956
 20
9.3158270709
 30
0.0
 10
11.6639879456
 20
9.3142651202
 30
0.0
 10
11.6612762291
 20
9.3119893721
 30
0.0
 10
11.6583498277
 20
9.3097316837
 30
0.0
 10
11.6552106459
 20
9.3074935091
 30
0.0
 10
11.6518605226
 20
9.3052760619
 30
0.0
 10
11.6483013839
 20
9.3030806465
 30
0.0
 10
11.6445353492
 20
9.300908484
 30
0.0
 10
11.6405646386
 20
9.2987609167
 30
0.0
 10
11.6363916264
 20
9.296639204
 30
0.0
 10
11.6320188016
 20
9.2945445991
 30
0.0
 10
11.6274487511
 20
9.2924783675
 30
0.0
 10
11.6209952213
 20
9.2897198213
 30
0.0
 10
11.6124478093
 20
9.2863605696
 30
0.0
 10
11.6016043475
 20
9.2825220114
 30
0.0
 10
11.5900461143
 20
9.2788249904
 30
0.0
 10
11.5778007933
 20
9.2752784493
 30
0.0
 10
11.5648975815
 20
9.2718909889
 30
0.0
 10
11.55136738
 20
9.2686708293
 30
0.0
 10
11.5372426281
 20
9.2656257818
 30
0.0
 10
11.5225572327
 20
9.2627632364
 30
0.0
 10
11.5073464703
 20
9.2600901396
 30
0.0
 10
11.4916469
 20
9.2576129785
 30
0.0
 10
11.4754962749
 20
9.2553377646
 30
0.0
 10
11.4589334493
 20
9.2532700107
 30
0.0
 10
11.4419982796
 20
9.2514147272
 30
0.0
 10
11.4247315245
 20
9.2497764103
 30
0.0
 10
11.4071747422
 20
9.2483590287
 30
0.0
 10
11.3893702065
 20
9.247166026
 30
0.0
 10
11.3713607487
 20
9.2462002655
 30
0.0
 10
11.347069069
 20
9.2452162263
 30
0.0
 10
11.3165119224
 20
9.2445707533
 30
0.0
 10
11.2798224387
 20
9.2447254224
 30
0.0
 10
11.243368154
 20
9.2458059268
 30
0.0
 10
11.2192010609
 20
9.2471505384
 30
0.0
 10
11.2072206315
 20
9.247981384
 30
0.0
  0
SPLINE
  5
32A
100
AcDbEntity
  8
0
100
AcDbSpline
 62
7
  6
CONTINUOUS
 70
0
 71
3
 72
21
 73
17
 74
0
 42
0.0000001
 43
0.0000001
 44
0.0000000001
 40
0.0
 40
0.0
 40
0.0
 40
0.0
 40
0.0616532317
 40
0.1233294843
 40
0.1850515407
 40
0.2468416642
 40
0.3087213449
 40
0.3707111025
 40
0.432830246
 40
0.4950966374
 40
0.5575265756
 40
0.6201345674
 40
0.6829331401
 40
0.7459332076
 40
0.8725262003
 40
1.0
 40
1.0
 40
1.0
 40
1.0
 10
11.4865302422
 20
8.8081815355
 30
0.0
 10
11.4848693763
 20
8.8065772607
 30
0.0
 10
11.4814600004
 20
8.8034568196
 30
0.0
 10
11.4761007382
 20
8.7990568732
 30
0.0
 10
11.4705087664
 20
8.7949477403
 30
0.0
 10
11.4646983396
 20
8.7911399914
 30
0.0
 10
11.4586840687
 20
8.7876431423
 30
0.0
 10
11.4524811342
 20
8.784465985
 30
0.0
 10
11.4461051435
 20
8.7816165459
 30
0.0
 10
11.439572173
 20
8.7791019827
 30
0.0
 10
11.4328986794
 20
8.7769285814
 30
0.0
 10
11.426101516
 20
8.7751018317
 30
0.0
 10
11.4191976031
 20
8.7736263128
 30
0.0
 10
11.4098601245
 20
8.7721299324
 30
0.0
 10
11.3980030111
 20
8.7711577593
 30
0.0
 10
11.3884706069
 20
8.7713437941
 30
0.0
 10
11.3837076643
 20
8.7716741053
 30
0.0
  0
SPLINE
  5
32B
100
AcDbEntity
  8
0
100
AcDbSpline
 62
7
  6
CONTINUOUS
 70
0
 71
3
 72
31
 73
27
 74
0
 42
0.0000001
 43
0.0000001
 44
0.0000000001
 40
0.0
 40
0.0
 40
0.0
 40
0.0
 40
0.015547552
 40
0.0312880285
 40
0.0474067379
 40
0.0640750164
 40
0.081446335
 40
0.0996536174
 40
0.1188100048
 40
0.1390093636
 40
0.1603281383
 40
0.1828281955
 40
0.2065575545
 40
0.2315535635
 40
0.2578438746
 40
0.285447534
 40
0.3143773053
 40
0.3446390841
 40
0.4091525822
 40
0.4789504828
 40
0.5539291875
 40
0.6339380243
 40
0.7187873757
 40
0.8082512776
 40
0.9020847387
 40
1.0
 40
1.0
 40
1.0
 40
1.0
 10
10.6313203246
 20
10.2206302103
 30
0.0
 10
10.6313203239
 20
10.220954205
 30
0.0
 10
10.6313583547
 20
10.2216068334
 30
0.0
 10
10.6315290643
 20
10.2225819165
 30
0.0
 10
10.6318130749
 20
10.2235545465
 30
0.0
 10
10.6322097363
 20
10.2245235037
 30
0.0
 10
10.6327183872
 20
10.2254879129
 30
0.0
 10
10.6333382049
 20
10.2264470301
 30
0.0
 10
10.6340684824
 20
10.2274001245
 30
0.0
 10
10.6349084332
 20
10.2283465134
 30
0.0
 10
10.6358572316
 20
10.2292855304
 30
0.0
 10
10.6369140565
 20
10.2302164157
 30
0.0
 10
10.6380779361
 20
10.2311384847
 30
0.0
 10
10.6393478759
 20
10.2320509605
 30
0.0
 10
10.6407227687
 20
10.2329530768
 30
0.0
 10
10.6422013985
 20
10.2338440923
 30
0.0
 10
10.6437824916
 20
10.2347232087
 30
0.0
 10
10.6460745719
 20
10.2359037677
 30
0.0
 10
10.6491918959
 20
10.2373378796
 30
0.0
 10
10.6532400575
 20
10.2389646442
 30
0.0
 10
10.6576576984
 20
10.2405262575
 30
0.0
 10
10.6624291568
 20
10.2420170922
 30
0.0
 10
10.6675375468
 20
10.2434317259
 30
0.0
 10
10.6729647761
 20
10.2447650809
 30
0.0
 10
10.6786913221
 20
10.2460122158
 30
0.0
 10
10.6826154893
 20
10.2467678788
 30
0.0
 10
10.6846232362
 20
10.2471317367
 30
0.0
  0
SPLINE
  5
32C
100
AcDbEntity
  8
0
100
AcDbSpline
 62
7
  6
CONTINUOUS
 70
0
 71
3
 72
37
 73
33
 74
0
 42
0.0000001
 43
0.0000001
 44
0.0000000001
 40
0.0
 40
0.0
 40
0.0
 40
0.0
 40
0.0311464763
 40
0.0624483004
 40
0.0938952738
 40
0.1254804953
 40
0.1571907415
 40
0.1890115257
 40
0.2209258547
 40
0.252914932
 40
0.2849585264
 40
0.317035338
 40
0.3491234252
 40
0.381200621
 40
0.4451976236
 40
0.5088978732
 40
0.5406101981
 40
0.5721975056
 40
0.6036475114
 40
0.634950721
 40
0.6661006564
 40
0.6970940303
 40
0.7279308694
 40
0.7586145731
 40
0.7891518852
 40
0.8195527902
 40
0.8498303302
 40
0.8800003491
 40
0.9100811696
 40
0.9400931924
 40
0.9700584311
 40
1.0
 40
1.0
 40
1.0
 40
1.0
 10
10.7800039871
 20
8.1248358937
 30
0.0
 10
10.7784944659
 20
8.1249405794
 30
0.0
 10
10.7754744376
 20
8.12526099
 30
0.0
 10
10.7709810367
 20
8.126068006
 30
0.0
 10
10.766535731
 20
8.1271985065
 30
0.0
 10
10.7621626093
 20
8.1286462324
 30
0.0
 10
10.7578848353
 20
8.130403547
 30
0.0
 10
10.753725257
 20
8.1324610056
 30
0.0
 10
10.7497060266
 20
8.1348076286
 30
0.0
 10
10.7458485605
 20
8.1374308708
 30
0.0
 10
10.7421733982
 20
8.1403167492
 30
0.0
 10
10.7387001612
 20
8.1434498152
 30
0.0
 10
10.7354472199
 20
8.146813594
 30
0.0
 10
10.7314312045
 20
8.1515768794
 30
0.0
 10
10.7270452547
 20
8.1580123147
 30
0.0
 10
10.723590384
 20
8.1649728232
 30
0.0
 10
10.7214367799
 20
8.170759128
 30
0.0
 10
10.7201359177
 20
8.175178703
 30
0.0
 10
10.7191546594
 20
8.1796595443
 30
0.0
 10
10.7184981566
 20
8.1841779842
 30
0.0
 10
10.7181699937
 20
8.1887098633
 30
0.0
 10
10.7181719745
 20
8.1932310154
 30
0.0
 10
10.7185041452
 20
8.1977172983
 30
0.0
 10
10.719164775
 20
8.2021447518
 30
0.0
 10
10.7201503869
 20
8.206489717
 30
0.0
 10
10.7214557682
 20
8.2107289633
 30
0.0
 10
10.7230739945
 20
8.2148398089
 30
0.0
 10
10.7249964689
 20
8.2188002509
 30
0.0
 10
10.7272129145
 20
8.222589069
 30
0.0
 10
10.7297115624
 20
8.2261860401
 30
0.0
 10
10.7324788095
 20
8.2295716494
 30
0.0
 10
10.7344937259
 20
8.2316766161
 30
0.0
 10
10.735539958
 20
8.2326872049
 30
0.0
  0
SPLINE
  5
32D
100
AcDbEntity
  8
0
100
AcDbSpline
 62
7
  6
CONTINUOUS
 70
0
 71
3
 72
17
 73
13
 74
0
 42
0.0000001
 43
0.0000001
 44
0.0000000001
 40
0.0
 40
0.0
 40
0.0
 40
0.0
 40
0.1103452447
 40
0.2247129395
 40
0.283400785
 40
0.3430980418
 40
0.4655706484
 40
0.5922458691
 40
0.7233584925
 40
0.7906710623
 40
0.85919756
 40
1.0
 40
1.0
 40
1.0
 40
1.0
 10
11.1876247011
 20
8.0376458223
 30
0.0
 10
11.1886653858
 20
8.0411209081
 30
0.0
 10
11.1907645247
 20
8.0482038255
 30
0.0
 10
11.1933428113
 20
8.0571568201
 30
0.0
 10
11.1954070774
 20
8.0645248231
 30
0.0
 10
11.1975053059
 20
8.0721599128
 30
0.0
 10
11.2001237162
 20
8.0819698443
 30
0.0
 10
11.2032320646
 20
8.0940783646
 30
0.0
 10
11.2057970502
 20
8.1044537269
 30
0.0
 10
11.2078521851
 20
8.1129856808
 30
0.0
 10
11.2099444776
 20
8.1218362574
 30
0.0
 10
11.2114795439
 20
8.1285446528
 30
0.0
 10
11.2124874494
 20
8.133062426
 30
0.0
  0
SPLINE
  5
32E
100
AcDbEntity
  8
0
100
AcDbSpline
 62
7
  6
CONTINUOUS
 70
0
 71
3
 72
41
 73
37
 74
0
 42
0.0000001
 43
0.0000001
 44
0.0000000001
 40
0.0
 40
0.0
 40
0.0
 40
0.0
 40
0.0311445478
 40
0.0624424446
 40
0.0938872679
 40
0.125469566
 40
0.1571770992
 40
0.1889951145
 40
0.2209066667
 40
0.2528929719
 40
0.2849337877
 40
0.3170078142
 40
0.3490931102
 40
0.381167517
 40
0.4132090858
 40
0.4451965025
 40
0.4771095029
 40
0.5089292747
 40
0.5406388381
 40
0.5722233999
 40
0.6036706736
 40
0.63497116
 40
0.6661183793
 40
0.6971090497
 40
0.7279432042
 40
0.7586242401
 40
0.7891588962
 40
0.8195571523
 40
0.8498320512
 40
0.8649308901
 40
0.8800050513
 40
0.9100832572
 40
0.940092674
 40
0.9550812744
 40
0.9700610349
 40
1.0
 40
1.0
 40
1.0
 40
1.0
 10
11.3837076643
 20
8.7716741053
 30
0.0
 10
11.3802168019
 20
8.7719161974
 30
0.0
 10
11.3732330123
 20
8.7726570952
 30
0.0
 10
11.3628420008
 20
8.774523416
 30
0.0
 10
11.3525622759
 20
8.7771375977
 30
0.0
 10
11.3424493814
 20
8.7804855496
 30
0.0
 10
11.3325570251
 20
8.7845493451
 30
0.0
 10
11.3229379802
 20
8.7893072401
 30
0.0
 10
11.3136434879
 20
8.7947338101
 30
0.0
 10
11.304723075
 20
8.8008000805
 30
0.0
 10
11.2962242692
 20
8.8074736822
 30
0.0
 10
11.2881923557
 20
8.8147190219
 30
0.0
 10
11.2806701368
 20
8.8224974712
 30
0.0
 10
11.2736977062
 20
8.8307675705
 30
0.0
 10
11.267312238
 20
8.8394852475
 30
0.0
 10
11.2615477896
 20
8.8486040497
 30
0.0
 10
11.256435122
 20
8.8580753896
 30
0.0
 10
11.2520015368
 20
8.8678488001
 30
0.0
 10
11.2482707308
 20
8.8778722005
 30
0.0
 10
11.2452626699
 20
8.88809217
 30
0.0
 10
11.2429934818
 20
8.8984542291
 30
0.0
 10
11.2414753679
 20
8.9089031256
 30
0.0
 10
11.2407165364
 20
8.9193831261
 30
0.0
 10
11.2407211532
 20
8.9298383067
 30
0.0
 10
11.2414893204
 20
8.9402128595
 30
0.0
 10
11.2430170506
 20
8.950451347
 30
0.0
 10
11.2452963533
 20
8.9604991486
 30
0.0
 10
11.2483150057
 20
8.970302191
 30
0.0
 10
11.2514367756
 20
8.9782322886
 30
0.0
 10
11.2542856029
 20
8.9843991437
 30
0.0
 10
11.2573599639
 20
8.9904319455
 30
0.0
 10
11.2616286105
 20
8.9977289016
 30
0.0
 10
11.2664462336
 20
9.0046640274
 30
0.0
 10
11.2706094106
 20
9.0099650341
 30
0.0
 10
11.2749711319
 20
9.0150930582
 30
0.0
 10
11.2784656634
 20
9.0187437514
 30
0.0
 10
11.2808850863
 20
9.0210807366
 30
0.0
  0
SPLINE
  5
32F
100
AcDbEntity
  8
0
100
AcDbSpline
 62
7
  6
CONTINUOUS
 70
0
 71
3
 72
54
 73
50
 74
0
 42
0.0000001
 43
0.0000001
 44
0.0000000001
 40
0.0
 40
0.0
 40
0.0
 40
0.0
 40
0.052784991
 40
0.1048060923
 40
0.1559445044
 40
0.2060905216
 40
0.2551340321
 40
0.3029694639
 40
0.3494949945
 40
0.3946130603
 40
0.438230921
 40
0.4802611185
 40
0.5206221511
 40
0.559239105
 40
0.5960444107
 40
0.6309787921
 40
0.663992489
 40
0.6950468015
 40
0.709831479
 40
0.7241178387
 40
0.7379051855
 40
0.751193962
 40
0.7639858374
 40
0.7762841535
 40
0.7880937245
 40
0.7994213683
 40
0.8102760565
 40
0.8206690605
 40
0.830614617
 40
0.8401299511
 40
0.8492359035
 40
0.8579573592
 40
0.8663234793
 40
0.8743683592
 40
0.8821310443
 40
0.8896557027
 40
0.8969914552
 40
0.9041916844
 40
0.9113132101
 40
0.9184149027
 40
0.9255561887
 40
0.9327954181
 40
0.9401884307
 40
0.9477872381
 40
0.9637758035
 40
0.972256837
 40
0.9811038595
 40
0.9903441354
 40
1.0
 40
1.0
 40
1.0
 40
1.0
 10
10.3700588672
 20
10.1595303152
 30
0.0
 10
10.3646573087
 20
10.1599049146
 30
0.0
 10
10.3539372119
 20
10.1607208588
 30
0.0
 10
10.3380049221
 20
10.1621565423
 30
0.0
 10
10.3223640484
 20
10.1637925685
 30
0.0
 10
10.3070524974
 20
10.1656248906
 30
0.0
 10
10.292106926
 20
10.1676491266
 30
0.0
 10
10.2775633648
 20
10.1698603494
 30
0.0
 10
10.2634567724
 20
10.1722531942
 30
0.0
 10
10.2498210602
 20
10.174821857
 30
0.0
 10
10.236688997
 20
10.1775601046
 30
0.0
 10
10.2240921159
 20
10.1804612995
 30
0.0
 10
10.2120606306
 20
10.1835183947
 30
0.0
 10
10.2006233492
 20
10.1867239684
 30
0.0
 10
10.189807627
 20
10.190070246
 30
0.0
 10
10.1796392042
 20
10.1935491327
 30
0.0
 10
10.1701424007
 20
10.1971522237
 30
0.0
 10
10.1626892261
 20
10.2003005635
 30
0.0
 10
10.1570874432
 20
10.2028819032
 30
0.0
 10
10.1531369361
 20
10.2048117901
 30
0.0
 10
10.1493705073
 20
10.2067661435
 30
0.0
 10
10.1457903855
 20
10.2087438128
 30
0.0
 10
10.1423987182
 20
10.2107436642
 30
0.0
 10
10.1391974878
 20
10.212764465
 30
0.0
 10
10.1361886071
 20
10.2148050782
 30
0.0
 10
10.1333738481
 20
10.2168643111
 30
0.0
 10
10.13075485
 20
10.218940958
 30
0.0
 10
10.1283331997
 20
10.2210339053
 30
0.0
 10
10.1261102908
 20
10.2231419337
 30
0.0
 10
10.1240874825
 20
10.2252639325
 30
0.0
 10
10.1222660285
 20
10.2273987745
 30
0.0
 10
10.1206470436
 20
10.2295452989
 30
0.0
 10
10.119231698
 20
10.2317024448
 30
0.0
 10
10.1180209743
 20
10.2338690259
 30
0.0
 10
10.1170158921
 20
10.2360438795
 30
0.0
 10
10.1162174372
 20
10.2382257479
 30
0.0
 10
10.1156263862
 20
10.2404132112
 30
0.0
 10
10.1152435693
 20
10.2426047612
 30
0.0
 10
10.115069438
 20
10.2447986938
 30
0.0
 10
10.1151042461
 20
10.2469932329
 30
0.0
 10
10.1153480155
 20
10.2491865662
 30
0.0
 10
10.115800275
 20
10.2513769212
 30
0.0
 10
10.1164606068
 20
10.2535627645
 30
0.0
 10
10.1176367602
 20
10.2565183784
 30
0.0
 10
10.1192246228
 20
10.2594160969
 30
0.0
 10
10.1211640115
 20
10.2622317392
 30
0.0
 10
10.1228507965
 20
10.2643747788
 30
0.0
 10
10.1247394567
 20
10.2665053507
 30
0.0
 10
10.1261016407
 20
10.2678857157
 30
0.0
 10
10.1268140413
 20
10.2685738419
 30
0.0
  0
SPLINE
  5
330
100
AcDbEntity
  8
0
100
AcDbSpline
 62
7
  6
CONTINUOUS
 70
0
 71
3
 72
21
 73
17
 74
0
 42
0.0000001
 43
0.0000001
 44
0.0000000001
 40
0.0
 40
0.0
 40
0.0
 40
0.0
 40
0.0616532317
 40
0.1233294843
 40
0.1850515407
 40
0.2468416642
 40
0.3087213449
 40
0.3707111025
 40
0.432830246
 40
0.4950966374
 40
0.5575265756
 40
0.6201345674
 40
0.6829331401
 40
0.7459332076
 40
0.8725262003
 40
1.0
 40
1.0
 40
1.0
 40
1.0
 10
11.4865302422
 20
7.2684956947
 30
0.0
 10
11.4848693763
 20
7.2668914199
 30
0.0
 10
11.4814600004
 20
7.2637709787
 30
0.0
 10
11.4761007382
 20
7.2593710323
 30
0.0
 10
11.4705087664
 20
7.2552618994
 30
0.0
 10
11.4646983396
 20
7.2514541506
 30
0.0
 10
11.4586840687
 20
7.2479573014
 30
0.0
 10
11.4524811342
 20
7.2447801441
 30
0.0
 10
11.4461051435
 20
7.2419307051
 30
0.0
 10
11.439572173
 20
7.2394161419
 30
0.0
 10
11.4328986794
 20
7.2372427406
 30
0.0
 10
11.426101516
 20
7.2354159909
 30
0.0
 10
11.4191976031
 20
7.233940472
 30
0.0
 10
11.4098601245
 20
7.2324440915
 30
0.0
 10
11.3980030111
 20
7.2314719185
 30
0.0
 10
11.3884706069
 20
7.2316579533
 30
0.0
 10
11.3837076643
 20
7.2319882644
 30
0.0
  0
SPLINE
  5
331
100
AcDbEntity
  8
0
100
AcDbSpline
 62
7
  6
CONTINUOUS
 70
0
 71
3
 72
40
 73
36
 74
0
 42
0.0000001
 43
0.0000001
 44
0.0000000001
 40
0.0
 40
0.0
 40
0.0
 40
0.0
 40
0.0958312793
 40
0.1891000446
 40
0.2345965891
 40
0.279241512
 40
0.3229681675
 40
0.3657118109
 40
0.4074099461
 40
0.4480024746
 40
0.4874320226
 40
0.5256441407
 40
0.5625874576
 40
0.5982141394
 40
0.6324802032
 40
0.6653457683
 40
0.6967756912
 40
0.7267401448
 40
0.7552151418
 40
0.7821835616
 40
0.8076363113
 40
0.8315735468
 40
0.8540066404
 40
0.8749606632
 40
0.8944772684
 40
0.9126187468
 40
0.9294730511
 40
0.9451593172
 40
0.9598338268
 40
0.9668558706
 40
0.9737029056
 40
0.980406309
 40
0.9869997194
 40
0.9935186515
 40
1.0
 40
1.0
 40
1.0
 40
1.0
 10
10.3620354834
 20
10.1218366188
 30
0.0
 10
10.3522682127
 20
10.1225139813
 30
0.0
 10
10.3330090046
 20
10.1240654377
 30
0.0
 10
10.3091680797
 20
10.1265533688
 30
0.0
 10
10.2905707706
 20
10.1288518081
 30
0.0
 10
10.2770198428
 20
10.1307062483
 30
0.0
 10
10.2637734089
 20
10.1327023544
 30
0.0
 10
10.2508535747
 20
10.1348367868
 30
0.0
 10
10.2382819329
 20
10.1371059436
 30
0.0
 10
10.2260794857
 20
10.1395060281
 30
0.0
 10
10.2142666055
 20
10.1420329967
 30
0.0
 10
10.2028630041
 20
10.144682588
 30
0.0
 10
10.1918877065
 20
10.1474503639
 30
0.0
 10
10.1813590023
 20
10.1503316662
 30
0.0
 10
10.1712944143
 20
10.1533216357
 30
0.0
 10
10.1617106799
 20
10.1564152671
 30
0.0
 10
10.1526237016
 20
10.1596073707
 30
0.0
 10
10.144048511
 20
10.1628925822
 30
0.0
 10
10.1359992582
 20
10.1662654362
 30
0.0
 10
10.1284891627
 20
10.1697203431
 30
0.0
 10
10.1215304669
 20
10.1732515969
 30
0.0
 10
10.1151344429
 20
10.1768534837
 30
0.0
 10
10.1093113538
 20
10.1805203039
 30
0.0
 10
10.1040704216
 20
10.1842463991
 30
0.0
 10
10.0994199015
 20
10.1880263699
 30
0.0
 10
10.0953672128
 20
10.1918550705
 30
0.0
 10
10.0919189894
 20
10.195727994
 30
0.0
 10
10.0890819369
 20
10.1996402326
 30
0.0
 10
10.087205409
 20
10.2029791063
 30
0.0
 10
10.0860356142
 20
10.2056525416
 30
0.0
 10
10.0853273797
 20
10.2076333498
 30
0.0
 10
10.0847759972
 20
10.2096180579
 30
0.0
 10
10.0843818132
 20
10.2116058527
 30
0.0
 10
10.0841452083
 20
10.2135955883
 30
0.0
 10
10.0840925599
 20
10.2149243714
 30
0.0
 10
10.0840925563
 20
10.215586547
 30
0.0
  0
SPLINE
  5
332
100
AcDbEntity
  8
0
100
AcDbSpline
 62
7
  6
CONTINUOUS
 70
0
 71
3
 72
23
 73
19
 74
0
 42
0.0000001
 43
0.0000001
 44
0.0000000001
 40
0.0
 40
0.0
 40
0.0
 40
0.0
 40
0.0577384721
 40
0.1131374617
 40
0.1666316715
 40
0.2187818602
 40
0.2702669966
 40
0.3218673542
 40
0.3744117921
 40
0.4287357266
 40
0.4856210232
 40
0.5457634103
 40
0.6097480873
 40
0.6780405233
 40
0.7509990429
 40
0.8288813199
 40
0.9118582152
 40
1.0
 40
1.0
 40
1.0
 40
1.0
 10
10.8658203116
 20
7.7878361344
 30
0.0
 10
10.86582005
 20
7.7873546047
 30
0.0
 10
10.8657829428
 20
7.7864104837
 30
0.0
 10
10.8656040962
 20
7.7850303346
 30
0.0
 10
10.865298731
 20
7.7837198794
 30
0.0
 10
10.8648622694
 20
7.7824812575
 30
0.0
 10
10.8642904286
 20
7.7813162929
 30
0.0
 10
10.8635799192
 20
7.7802262761
 30
0.0
 10
10.8627279421
 20
7.7792118915
 30
0.0
 10
10.8617331245
 20
7.7782721518
 30
0.0
 10
10.8605940082
 20
7.777405275
 30
0.0
 10
10.859310123
 20
7.7766074687
 30
0.0
 10
10.857880678
 20
7.7758747768
 30
0.0
 10
10.8563057493
 20
7.7752015398
 30
0.0
 10
10.8545853973
 20
7.7745823537
 30
0.0
 10
10.8527205126
 20
7.7740104486
 30
0.0
 10
10.850712522
 20
7.7734793675
 30
0.0
 10
10.8493220297
 20
7.773157286
 30
0.0
 10
10.8486039977
 20
7.7729998529
 30
0.0
  0
SPLINE
  5
333
100
AcDbEntity
  8
0
100
AcDbSpline
 62
7
  6
CONTINUOUS
 70
0
 71
3
 72
25
 73
21
 74
0
 42
0.0000001
 43
0.0000001
 44
0.0000000001
 40
0.0
 40
0.0
 40
0.0
 40
0.0
 40
0.0621954374
 40
0.0934090868
 40
0.1246856362
 40
0.1873868396
 40
0.2502513574
 40
0.2817317721
 40
0.3132292376
 40
0.376235426
 40
0.4392276189
 40
0.5021581173
 40
0.5649869397
 40
0.6276817196
 40
0.6902171218
 40
0.7525739828
 40
0.8147383552
 40
0.8767007922
 40
0.9384556282
 40
1.0
 40
1.0
 40
1.0
 40
1.0
 10
10.8196607804
 20
7.9851388632
 30
0.0
 10
10.8225205671
 20
7.9841742588
 30
0.0
 10
10.826753476
 20
7.9825311191
 30
0.0
 10
10.8322378953
 20
7.9799726666
 30
0.0
 10
10.8376275162
 20
7.9771656196
 30
0.0
 10
10.8441442267
 20
7.9732149235
 30
0.0
 10
10.8503143984
 20
7.968726678
 30
0.0
 10
10.8550268984
 20
7.9648407962
 30
0.0
 10
10.8595865634
 20
7.9607663408
 30
0.0
 10
10.8649844058
 20
7.955344462
 30
0.0
 10
10.8709556837
 20
7.9483773986
 30
0.0
 10
10.8764097112
 20
7.9410096213
 30
0.0
 10
10.8813404537
 20
7.9332998358
 30
0.0
 10
10.8857481166
 20
7.9253020408
 30
0.0
 10
10.8896371886
 20
7.9170655318
 30
0.0
 10
10.8930152695
 20
7.9086348005
 30
0.0
 10
10.8958919792
 20
7.9000498411
 30
0.0
 10
10.8982781503
 20
7.8913463866
 30
0.0
 10
10.9001851101
 20
7.8825568586
 30
0.0
 10
10.9011462952
 20
7.8766481921
 30
0.0
 10
10.9015503425
 20
7.8736891582
 30
0.0
  0
SPLINE
  5
334
100
AcDbEntity
  8
0
100
AcDbSpline
 62
7
  6
CONTINUOUS
 70
0
 71
3
 72
18
 73
14
 74
0
 42
0.0000001
 43
0.0000001
 44
0.0000000001
 40
0.0
 40
0.0
 40
0.0
 40
0.0
 40
0.054862568
 40
0.1099291209
 40
0.1654011893
 40
0.2214754292
 40
0.336133642
 40
0.4553634706
 40
0.5171047465
 40
0.5804363458
 40
0.712331634
 40
0.8519592464
 40
1.0
 40
1.0
 40
1.0
 40
1.0
 10
11.9168733696
 20
9.571230872
 30
0.0
 10
11.9168733669
 20
9.5707012732
 30
0.0
 10
11.9168397538
 20
9.5696398003
 30
0.0
 10
11.9166885966
 20
9.5680493285
 30
0.0
 10
11.9164367276
 20
9.566459741
 30
0.0
 10
11.9159634827
 20
9.5643268596
 30
0.0
 10
11.9151108681
 20
9.5616536429
 30
0.0
 10
11.9139432077
 20
9.5590435189
 30
0.0
 10
11.9128196251
 20
9.5569691945
 30
0.0
 10
11.9115330766
 20
9.5548473221
 30
0.0
 10
11.9096649844
 20
9.5522037489
 30
0.0
 10
11.9070605234
 20
9.5490971621
 30
0.0
 10
11.905123449
 20
9.5471037796
 30
0.0
 10
11.904095587
 20
9.546110941
 30
0.0
  0
SPLINE
  5
335
100
AcDbEntity
  8
0
100
AcDbSpline
 62
7
  6
CONTINUOUS
 70
0
 71
3
 72
18
 73
14
 74
0
 42
0.0000001
 43
0.0000001
 44
0.0000000001
 40
0.0
 40
0.0
 40
0.0
 40
0.0
 40
0.0548626221
 40
0.1099291996
 40
0.1654012684
 40
0.2214754896
 40
0.3361336267
 40
0.4553633642
 40
0.5171046005
 40
0.5804361693
 40
0.7123314363
 40
0.8519591016
 40
1.0
 40
1.0
 40
1.0
 40
1.0
 10
11.9168733696
 20
10.3864725821
 30
0.0
 10
11.9168733724
 20
10.3859429778
 30
0.0
 10
11.9168397699
 20
10.3848814942
 30
0.0
 10
11.9166886263
 20
10.3832910056
 30
0.0
 10
11.9164367688
 20
10.3817014014
 30
0.0
 10
11.9159635365
 20
10.3795684976
 30
0.0
 10
11.9151109323
 20
10.3768952525
 30
0.0
 10
11.9139432749
 20
10.3742851006
 30
0.0
 10
11.9128196909
 20
10.3722107543
 30
0.0
 10
11.9115331379
 20
10.3700888591
 30
0.0
 10
11.9096650345
 20
10.3674452575
 30
0.0
 10
11.9070605521
 20
10.3643386381
 30
0.0
 10
11.9051234594
 20
10.3623452353
 30
0.0
 10
11.904095587
 20
10.3613523867
 30
0.0
  0
SPLINE
  5
336
100
AcDbEntity
  8
0
100
AcDbSpline
 62
7
  6
CONTINUOUS
 70
0
 71
3
 72
37
 73
33
 74
0
 42
0.0000001
 43
0.0000001
 44
0.0000000001
 40
0.0
 40
0.0
 40
0.0
 40
0.0
 40
0.0311464763
 40
0.0624483004
 40
0.0938952738
 40
0.1254804953
 40
0.1571907415
 40
0.1890115257
 40
0.2209258547
 40
0.252914932
 40
0.2849585264
 40
0.317035338
 40
0.3491234252
 40
0.381200621
 40
0.4451976236
 40
0.5088978732
 40
0.5406101981
 40
0.5721975056
 40
0.6036475114
 40
0.634950721
 40
0.6661006564
 40
0.6970940303
 40
0.7279308694
 40
0.7586145731
 40
0.7891518852
 40
0.8195527902
 40
0.8498303302
 40
0.8800003491
 40
0.9100811696
 40
0.9400931924
 40
0.9700584311
 40
1.0
 40
1.0
 40
1.0
 40
1.0
 10
10.1608454644
 20
8.6053390595
 30
0.0
 10
10.1593359433
 20
8.6054437452
 30
0.0
 10
10.1563159149
 20
8.6057641558
 30
0.0
 10
10.1518225141
 20
8.6065711718
 30
0.0
 10
10.1473772083
 20
8.6077016723
 30
0.0
 10
10.1430040867
 20
8.6091493982
 30
0.0
 10
10.1387263127
 20
8.6109067128
 30
0.0
 10
10.1345667344
 20
8.6129641714
 30
0.0
 10
10.1305475039
 20
8.6153107944
 30
0.0
 10
10.1266900378
 20
8.6179340366
 30
0.0
 10
10.1230148756
 20
8.620819915
 30
0.0
 10
10.1195416385
 20
8.623952981
 30
0.0
 10
10.1162886972
 20
8.6273167598
 30
0.0
 10
10.1122726819
 20
8.6320800452
 30
0.0
 10
10.107886732
 20
8.6385154805
 30
0.0
 10
10.1044318614
 20
8.645475989
 30
0.0
 10
10.1022782572
 20
8.6512622938
 30
0.0
 10
10.1009773951
 20
8.6556818688
 30
0.0
 10
10.0999961367
 20
8.6601627101
 30
0.0
 10
10.0993396339
 20
8.66468115
 30
0.0
 10
10.0990114711
 20
8.6692130291
 30
0.0
 10
10.0990134519
 20
8.6737341812
 30
0.0
 10
10.0993456225
 20
8.6782204641
 30
0.0
 10
10.1000062524
 20
8.6826479176
 30
0.0
 10
10.1009918643
 20
8.6869928828
 30
0.0
 10
10.1022972455
 20
8.6912321291
 30
0.0
 10
10.1039154719
 20
8.6953429747
 30
0.0
 10
10.1058379462
 20
8.6993034167
 30
0.0
 10
10.1080543919
 20
8.7030922348
 30
0.0
 10
10.1105530398
 20
8.7066892059
 30
0.0
 10
10.1133202869
 20
8.7100748152
 30
0.0
 10
10.1153352033
 20
8.7121797819
 30
0.0
 10
10.1163814354
 20
8.7131903707
 30
0.0
  0
SPLINE
  5
337
100
AcDbEntity
  8
0
100
AcDbSpline
 62
7
  6
CONTINUOUS
 70
0
 71
3
 72
45
 73
41
 74
0
 42
0.0000001
 43
0.0000001
 44
0.0000000001
 40
0.0
 40
0.0
 40
0.0
 40
0.0
 40
0.0008306721
 40
0.0018749229
 40
0.0030912268
 40
0.0044405766
 40
0.0074177842
 40
0.0106416611
 40
0.0140229927
 40
0.0175113003
 40
0.0210761508
 40
0.0246980888
 40
0.0320646978
 40
0.0395456727
 40
0.0471052473
 40
0.054721892
 40
0.0623817047
 40
0.0700752227
 40
0.0855381963
 40
0.1010753003
 40
0.1166655123
 40
0.1322954027
 40
0.1479558848
 40
0.1636405357
 40
0.179344649
 40
0.2107976274
 40
0.242295063
 40
0.2738241475
 40
0.3053761922
 40
0.3369450048
 40
0.3685260123
 40
0.4317099934
 40
0.4949095365
 40
0.5581112484
 40
0.6213055992
 40
0.684485546
 40
0.7476456549
 40
0.8107815392
 40
0.873889567
 40
1.0
 40
1.0
 40
1.0
 40
1.0
 10
10.3721056232
 20
8.3216719951
 30
0.0
 10
10.3720957608
 20
8.32166249
 30
0.0
 10
10.3720696912
 20
8.3216451813
 30
0.0
 10
10.3720235003
 20
8.3216236005
 30
0.0
 10
10.3719674405
 20
8.3216033509
 30
0.0
 10
10.3718798305
 20
8.321577247
 30
0.0
 10
10.3717585366
 20
8.3215487624
 30
0.0
 10
10.3716033216
 20
8.3215191057
 30
0.0
 10
10.3714390111
 20
8.3214924797
 30
0.0
 10
10.3712686452
 20
8.3214683618
 30
0.0
 10
10.3710939952
 20
8.3214463591
 30
0.0
 10
10.3708555484
 20
8.3214192795
 30
0.0
 10
10.3705524424
 20
8.3213894875
 30
0.0
 10
10.3701842354
 20
8.3213587544
 30
0.0
 10
10.3698115822
 20
8.3213320575
 30
0.0
 10
10.3694357439
 20
8.3213088357
 30
0.0
 10
10.3690575175
 20
8.3212886884
 30
0.0
 10
10.3685499045
 20
8.3212654911
 30
0.0
 10
10.3679122561
 20
8.3212428928
 30
0.0
 10
10.367144217
 20
8.3212246625
 30
0.0
 10
10.3663732784
 20
8.3212144546
 30
0.0
 10
10.3656002448
 20
8.3212116815
 30
0.0
 10
10.3648256617
 20
8.3212159144
 30
0.0
 10
10.3640499204
 20
8.3212268273
 30
0.0
 10
10.3630139534
 20
8.3212499598
 30
0.0
 10
10.3617177016
 20
8.3212944342
 30
0.0
 10
10.360161651
 20
8.3213714452
 30
0.0
 10
10.3586052631
 20
8.321471299
 30
0.0
 10
10.357049284
 20
8.32159338
 30
0.0
 10
10.355494304
 20
8.3217372159
 30
0.0
 10
10.3534227789
 20
8.3219575298
 30
0.0
 10
10.3508384522
 20
8.3222855773
 30
0.0
 10
10.3477484136
 20
8.3227615268
 30
0.0
 10
10.3446717471
 20
8.3233183835
 30
0.0
 10
10.3416109177
 20
8.3239549449
 30
0.0
 10
10.3385682127
 20
8.3246701665
 30
0.0
 10
10.3355458356
 20
8.3254630872
 30
0.0
 10
10.3325458572
 20
8.3263328182
 30
0.0
 10
10.3285798838
 20
8.3275932452
 30
0.0
 10
10.3256429746
 20
8.3286518229
 30
0.0
 10
10.3237052775
 20
8.3294064955
 30
0.0
  0
SPLINE
  5
338
100
AcDbEntity
  8
0
100
AcDbSpline
 62
7
  6
CONTINUOUS
 70
0
 71
3
 72
23
 73
19
 74
0
 42
0.0000001
 43
0.0000001
 44
0.0000000001
 40
0.0
 40
0.0
 40
0.0
 40
0.0
 40
0.0749625009
 40
0.1455684839
 40
0.2121600745
 40
0.2751631548
 40
0.3350982506
 40
0.3925832742
 40
0.4483295117
 40
0.5031237972
 40
0.5577983643
 40
0.613191491
 40
0.670106811
 40
0.729278715
 40
0.7913522906
 40
0.8568775564
 40
0.9263090861
 40
1.0
 40
1.0
 40
1.0
 40
1.0
 10
11.8732943876
 20
10.4402727361
 30
0.0
 10
11.8742877326
 20
10.4393483236
 30
0.0
 10
11.8761616263
 20
10.4374924316
 30
0.0
 10
11.8786900741
 20
10.4345969664
 30
0.0
 10
11.8808461852
 20
10.4316785802
 30
0.0
 10
11.8826267161
 20
10.4287397829
 30
0.0
 10
11.8840287265
 20
10.4257831931
 30
0.0
 10
11.8850490428
 20
10.422811822
 30
0.0
 10
11.8856848113
 20
10.4198295004
 30
0.0
 10
11.8859337668
 20
10.4168409501
 30
0.0
 10
11.8857949298
 20
10.4138516064
 30
0.0
 10
11.8852688762
 20
10.4108669875
 30
0.0
 10
11.8843574835
 20
10.4078920883
 30
0.0
 10
11.8830636201
 20
10.4049309605
 30
0.0
 10
11.8813902968
 20
10.4019868511
 30
0.0
 10
11.8793405471
 20
10.3990623327
 30
0.0
 10
11.8769175265
 20
10.3961601917
 30
0.0
 10
11.8751113108
 20
10.3942994265
 30
0.0
 10
11.8741518846
 20
10.3933726919
 30
0.0
  0
LINE
  5
339
100
AcDbEntity
  8
0
100
AcDbLine
 62
7
  6
CONTINUOUS
 10
10.3723830208
 20
8.3219396433
 11
10.3721056232
 21
8.3216719951
  0
SPLINE
  5
33A
100
AcDbEntity
  8
0
100
AcDbSpline
 62
7
  6
CONTINUOUS
 70
0
 71
3
 72
21
 73
17
 74
0
 42
0.0000001
 43
0.0000001
 44
0.0000000001
 40
0.0
 40
0.0
 40
0.0
 40
0.0
 40
0.0616532317
 40
0.1233294843
 40
0.1850515407
 40
0.2468416642
 40
0.3087213449
 40
0.3707111025
 40
0.432830246
 40
0.4950966374
 40
0.5575265756
 40
0.6201345674
 40
0.6829331401
 40
0.7459332076
 40
0.8725262003
 40
1.0
 40
1.0
 40
1.0
 40
1.0
 10
10.2791228878
 20
7.3522296791
 30
0.0
 10
10.2774620219
 20
7.3506254043
 30
0.0
 10
10.274052646
 20
7.3475049632
 30
0.0
 10
10.2686933838
 20
7.3431050168
 30
0.0
 10
10.263101412
 20
7.3389958839
 30
0.0
 10
10.2572909852
 20
7.335188135
 30
0.0
 10
10.2512767143
 20
7.3316912859
 30
0.0
 10
10.2450737798
 20
7.3285141285
 30
0.0
 10
10.2386977891
 20
7.3256646895
 30
0.0
 10
10.2321648186
 20
7.3231501263
 30
0.0
 10
10.225491325
 20
7.320976725
 30
0.0
 10
10.2186941616
 20
7.3191499753
 30
0.0
 10
10.2117902487
 20
7.3176744564
 30
0.0
 10
10.2024527701
 20
7.316178076
 30
0.0
 10
10.1905956567
 20
7.3152059029
 30
0.0
 10
10.1810632525
 20
7.3153919377
 30
0.0
 10
10.1763003098
 20
7.3157222489
 30
0.0
  0
SPLINE
  5
33B
100
AcDbEntity
  8
0
100
AcDbSpline
 62
7
  6
CONTINUOUS
 70
0
 71
3
 72
23
 73
19
 74
0
 42
0.0000001
 43
0.0000001
 44
0.0000000001
 40
0.0
 40
0.0
 40
0.0
 40
0.0
 40
0.0638442588
 40
0.1272276038
 40
0.1901918582
 40
0.2527957349
 40
0.3151120978
 40
0.3772191139
 40
0.4391938289
 40
0.5011076989
 40
0.5630239954
 40
0.6249967696
 40
0.6870709073
 40
0.749282842
 40
0.8116615826
 40
0.8742298155
 40
0.9370049432
 40
1.0
 40
1.0
 40
1.0
 40
1.0
 10
10.6288202054
 20
8.5439071756
 30
0.0
 10
10.6288202054
 20
8.5473303144
 30
0.0
 10
10.629184529
 20
8.5541577407
 30
0.0
 10
10.630825649
 20
8.5642414936
 30
0.0
 10
10.6335219654
 20
8.5740273881
 30
0.0
 10
10.6372154202
 20
8.5834193489
 30
0.0
 10
10.6418326951
 20
8.5923402431
 30
0.0
 10
10.6472917146
 20
8.6007304606
 30
0.0
 10
10.6535071839
 20
8.6085473864
 30
0.0
 10
10.6603948748
 20
8.6157629295
 30
0.0
 10
10.6678745323
 20
8.622360743
 30
0.0
 10
10.6758715337
 20
8.6283333994
 30
0.0
 10
10.6843175891
 20
8.6336798936
 30
0.0
 10
10.6931508044
 20
8.6384035831
 30
0.0
 10
10.7023152742
 20
8.6425105589
 30
0.0
 10
10.7117607008
 20
8.6460084581
 30
0.0
 10
10.7214409717
 20
8.6489054244
 30
0.0
 10
10.7280126545
 20
8.6504390409
 30
0.0
 10
10.7313232134
 20
8.6511086899
 30
0.0
  0
SPLINE
  5
33C
100
AcDbEntity
  8
0
100
AcDbSpline
 62
7
  6
CONTINUOUS
 70
0
 71
3
 72
21
 73
17
 74
0
 42
0.0000001
 43
0.0000001
 44
0.0000000001
 40
0.0
 40
0.0
 40
0.0
 40
0.0
 40
0.0616532317
 40
0.1233294843
 40
0.1850515407
 40
0.2468416642
 40
0.3087213449
 40
0.3707111025
 40
0.432830246
 40
0.4950966374
 40
0.5575265756
 40
0.6201345674
 40
0.6829331401
 40
0.7459332076
 40
0.8725262003
 40
1.0
 40
1.0
 40
1.0
 40
1.0
 10
10.2791228878
 20
8.8919155199
 30
0.0
 10
10.2774620219
 20
8.8903112451
 30
0.0
 10
10.274052646
 20
8.887190804
 30
0.0
 10
10.2686933838
 20
8.8827908576
 30
0.0
 10
10.263101412
 20
8.8786817247
 30
0.0
 10
10.2572909852
 20
8.8748739759
 30
0.0
 10
10.2512767143
 20
8.8713771267
 30
0.0
 10
10.2450737798
 20
8.8681999694
 30
0.0
 10
10.2386977891
 20
8.8653505303
 30
0.0
 10
10.2321648186
 20
8.8628359671
 30
0.0
 10
10.225491325
 20
8.8606625658
 30
0.0
 10
10.2186941616
 20
8.8588358162
 30
0.0
 10
10.2117902487
 20
8.8573602972
 30
0.0
 10
10.2024527701
 20
8.8558639168
 30
0.0
 10
10.1905956567
 20
8.8548917438
 30
0.0
 10
10.1810632525
 20
8.8550777785
 30
0.0
 10
10.1763003098
 20
8.8554080897
 30
0.0
  0
SPLINE
  5
33D
100
AcDbEntity
  8
0
100
AcDbSpline
 62
7
  6
CONTINUOUS
 70
0
 71
3
 72
41
 73
37
 74
0
 42
0.0000001
 43
0.0000001
 44
0.0000000001
 40
0.0
 40
0.0
 40
0.0
 40
0.0
 40
0.0071757878
 40
0.0146740945
 40
0.0225035609
 40
0.0306713549
 40
0.0391834197
 40
0.0480443679
 40
0.0572572149
 40
0.0668238567
 40
0.076745221
 40
0.0870212626
 40
0.0976512706
 40
0.1086336674
 40
0.131645286
 40
0.1560326206
 40
0.1817627982
 40
0.2087958624
 40
0.2370856423
 40
0.2665805176
 40
0.2972240341
 40
0.3289554007
 40
0.3617098966
 40
0.3954192459
 40
0.4300120062
 40
0.4654138894
 40
0.5015480547
 40
0.5383353725
 40
0.5756947244
 40
0.6135432851
 40
0.6517967806
 40
0.6903697378
 40
0.7681261148
 40
0.8461161177
 40
0.9236388544
 40
1.0
 40
1.0
 40
1.0
 40
1.0
 10
11.6365561973
 20
10.1638728677
 30
0.0
 10
11.6358115997
 20
10.1631536417
 30
0.0
 10
11.6342519078
 20
10.1617208188
 30
0.0
 10
11.6317643593
 20
10.159633201
 30
0.0
 10
11.6290798691
 20
10.1575621344
 30
0.0
 10
11.6262001828
 20
10.1555089797
 30
0.0
 10
11.6231270047
 20
10.1534748391
 30
0.0
 10
11.619862091
 20
10.1514609148
 30
0.0
 10
11.6164073812
 20
10.1494683266
 30
0.0
 10
11.6127649204
 20
10.1474982791
 30
0.0
 10
11.6089368721
 20
10.1455519698
 30
0.0
 10
11.6049255355
 20
10.1436305147
 30
0.0
 10
11.6007332763
 20
10.1417350892
 30
0.0
 10
11.5948132337
 20
10.1392045923
 30
0.0
 10
11.5869724108
 20
10.1361230327
 30
0.0
 10
11.5770253462
 20
10.132601794
 30
0.0
 10
11.5664225951
 20
10.1292103904
 30
0.0
 10
11.5551895486
 20
10.1259570351
 30
0.0
 10
11.5433529985
 20
10.1228496081
 30
0.0
 10
11.5309412968
 20
10.1198956456
 30
0.0
 10
11.5179841963
 20
10.1171023177
 30
0.0
 10
11.5045127938
 20
10.1144764084
 30
0.0
 10
11.4905594497
 20
10.112024293
 30
0.0
 10
11.476157708
 20
10.1097519135
 30
0.0
 10
11.461342204
 20
10.1076647807
 30
0.0
 10
11.4461485755
 20
10.105767956
 30
0.0
 10
11.4306133795
 20
10.1040660438
 30
0.0
 10
11.4147740067
 20
10.1025631655
 30
0.0
 10
11.3986685841
 20
10.1012629564
 30
0.0
 10
11.3823358915
 20
10.1001685719
 30
0.0
 10
11.3658152168
 20
10.0992826434
 30
0.0
 10
11.3435316487
 20
10.0983799544
 30
0.0
 10
11.3155005582
 20
10.0977878452
 30
0.0
 10
11.2818440815
 20
10.0979297214
 30
0.0
 10
11.2484033516
 20
10.0989209072
 30
0.0
 10
11.2262340723
 20
10.1001543631
 30
0.0
 10
11.2152440153
 20
10.1009165261
 30
0.0
  0
SPLINE
  5
33E
100
AcDbEntity
  8
0
100
AcDbSpline
 62
7
  6
CONTINUOUS
 70
0
 71
3
 72
41
 73
37
 74
0
 42
0.0000001
 43
0.0000001
 44
0.0000000001
 40
0.0
 40
0.0
 40
0.0
 40
0.0
 40
0.0071758425
 40
0.0146741453
 40
0.0225035656
 40
0.0306713257
 40
0.0391834036
 40
0.0480443729
 40
0.0572572157
 40
0.0668238661
 40
0.0767452117
 40
0.087021259
 40
0.0976512753
 40
0.1086336553
 40
0.1316452786
 40
0.1560326285
 40
0.1817628121
 40
0.2087958578
 40
0.2370856249
 40
0.2665805114
 40
0.2972240455
 40
0.3289554128
 40
0.3617098907
 40
0.3954192316
 40
0.4300120033
 40
0.4654138991
 40
0.5015480605
 40
0.5383353682
 40
0.5756947176
 40
0.6135432851
 40
0.6517967846
 40
0.6903697386
 40
0.7681261117
 40
0.8461161118
 40
0.923638923
 40
1.0
 40
1.0
 40
1.0
 40
1.0
 10
11.6664998996
 20
10.1318525625
 30
0.0
 10
11.6656881956
 20
10.1310685166
 30
0.0
 10
11.6639879456
 20
10.1295065659
 30
0.0
 10
11.6612762291
 20
10.1272308178
 30
0.0
 10
11.6583498277
 20
10.1249731294
 30
0.0
 10
11.6552106459
 20
10.1227349548
 30
0.0
 10
11.6518605226
 20
10.1205175075
 30
0.0
 10
11.6483013839
 20
10.1183220922
 30
0.0
 10
11.6445353492
 20
10.1161499297
 30
0.0
 10
11.6405646386
 20
10.1140023624
 30
0.0
 10
11.6363916264
 20
10.1118806497
 30
0.0
 10
11.6320188016
 20
10.1097860448
 30
0.0
 10
11.6274487511
 20
10.1077198132
 30
0.0
 10
11.6209952213
 20
10.104961267
 30
0.0
 10
11.6124478093
 20
10.1016020153
 30
0.0
 10
11.6016043475
 20
10.097763457
 30
0.0
 10
11.5900461143
 20
10.0940664361
 30
0.0
 10
11.5778007933
 20
10.090519895
 30
0.0
 10
11.5648975815
 20
10.0871324346
 30
0.0
 10
11.55136738
 20
10.083912275
 30
0.0
 10
11.5372426281
 20
10.0808672275
 30
0.0
 10
11.5225572327
 20
10.0780046821
 30
0.0
 10
11.5073464703
 20
10.0753315853
 30
0.0
 10
11.4916469
 20
10.0728544242
 30
0.0
 10
11.4754962749
 20
10.0705792103
 30
0.0
 10
11.4589334493
 20
10.0685114564
 30
0.0
 10
11.4419982796
 20
10.0666561729
 30
0.0
 10
11.4247315245
 20
10.065017856
 30
0.0
 10
11.4071747422
 20
10.0636004744
 30
0.0
 10
11.3893702065
 20
10.0624074717
 30
0.0
 10
11.3713607487
 20
10.0614417112
 30
0.0
 10
11.347069069
 20
10.060457672
 30
0.0
 10
11.3165119224
 20
10.059812199
 30
0.0
 10
11.2798224387
 20
10.0599668681
 30
0.0
 10
11.243368154
 20
10.0610473725
 30
0.0
 10
11.2192010609
 20
10.0623919841
 30
0.0
 10
11.2072206315
 20
10.0632228297
 30
0.0
  0
SPLINE
  5
33F
100
AcDbEntity
  8
0
100
AcDbSpline
 62
7
  6
CONTINUOUS
 70
0
 71
3
 72
15
 73
11
 74
0
 42
0.0000001
 43
0.0000001
 44
0.0000000001
 40
0.0
 40
0.0
 40
0.0
 40
0.0
 40
0.1233171388
 40
0.2468172051
 40
0.3706750009
 40
0.4950496043
 40
0.6200772562
 40
0.7458671573
 40
0.8724928759
 40
1.0
 40
1.0
 40
1.0
 40
1.0
 10
10.2053094934
 20
8.6211262614
 30
0.0
 10
10.2038733144
 20
8.6197390103
 30
0.0
 10
10.2008468337
 20
8.6171150183
 30
0.0
 10
10.1959073114
 20
8.6136861734
 30
0.0
 10
10.1906144393
 20
8.6107957044
 30
0.0
 10
10.185022402
 20
8.6084733118
 30
0.0
 10
10.1791876039
 20
8.6067420478
 30
0.0
 10
10.1731688172
 20
8.605619243
 30
0.0
 10
10.1670274864
 20
8.6051158135
 30
0.0
 10
10.1629051285
 20
8.6051962213
 30
0.0
 10
10.1608454644
 20
8.6053390595
 30
0.0
  0
SPLINE
  5
340
100
AcDbEntity
  8
0
100
AcDbSpline
 62
7
  6
CONTINUOUS
 70
0
 71
3
 72
41
 73
37
 74
0
 42
0.0000001
 43
0.0000001
 44
0.0000000001
 40
0.0
 40
0.0
 40
0.0
 40
0.0
 40
0.0311445478
 40
0.0624424446
 40
0.0938872679
 40
0.125469566
 40
0.1571770992
 40
0.1889951145
 40
0.2209066667
 40
0.2528929719
 40
0.2849337877
 40
0.3170078142
 40
0.3490931102
 40
0.381167517
 40
0.4132090858
 40
0.4451965025
 40
0.4771095029
 40
0.5089292747
 40
0.5406388381
 40
0.5722233999
 40
0.6036706736
 40
0.63497116
 40
0.6661183793
 40
0.6971090497
 40
0.7279432042
 40
0.7586242401
 40
0.7891588962
 40
0.8195571523
 40
0.8498320512
 40
0.8649308901
 40
0.8800050513
 40
0.9100832572
 40
0.940092674
 40
0.9550812744
 40
0.9700610349
 40
1.0
 40
1.0
 40
1.0
 40
1.0
 10
10.1763003098
 20
7.3157222489
 30
0.0
 10
10.1728094475
 20
7.315964341
 30
0.0
 10
10.1658256579
 20
7.3167052388
 30
0.0
 10
10.1554346464
 20
7.3185715596
 30
0.0
 10
10.1451549215
 20
7.3211857413
 30
0.0
 10
10.135042027
 20
7.3245336932
 30
0.0
 10
10.1251496707
 20
7.3285974887
 30
0.0
 10
10.1155306258
 20
7.3333553837
 30
0.0
 10
10.1062361335
 20
7.3387819537
 30
0.0
 10
10.0973157205
 20
7.3448482241
 30
0.0
 10
10.0888169148
 20
7.3515218258
 30
0.0
 10
10.0807850013
 20
7.3587671655
 30
0.0
 10
10.0732627824
 20
7.3665456148
 30
0.0
 10
10.0662903518
 20
7.3748157141
 30
0.0
 10
10.0599048836
 20
7.3835333911
 30
0.0
 10
10.0541404352
 20
7.3926521933
 30
0.0
 10
10.0490277676
 20
7.4021235332
 30
0.0
 10
10.0445941824
 20
7.4118969437
 30
0.0
 10
10.0408633764
 20
7.4219203441
 30
0.0
 10
10.0378553155
 20
7.4321403136
 30
0.0
 10
10.0355861274
 20
7.4425023727
 30
0.0
 10
10.0340680135
 20
7.4529512692
 30
0.0
 10
10.033309182
 20
7.4634312697
 30
0.0
 10
10.0333137988
 20
7.4738864503
 30
0.0
 10
10.034081966
 20
7.4842610031
 30
0.0
 10
10.0356096962
 20
7.4944994906
 30
0.0
 10
10.0378889989
 20
7.5045472922
 30
0.0
 10
10.0409076513
 20
7.5143503346
 30
0.0
 10
10.0440294212
 20
7.5222804322
 30
0.0
 10
10.0468782485
 20
7.5284472873
 30
0.0
 10
10.0499526094
 20
7.5344800891
 30
0.0
 10
10.0542212561
 20
7.5417770452
 30
0.0
 10
10.0590388792
 20
7.548712171
 30
0.0
 10
10.0632020562
 20
7.5540131777
 30
0.0
 10
10.0675637775
 20
7.5591412018
 30
0.0
 10
10.071058309
 20
7.562791895
 30
0.0
 10
10.0734777319
 20
7.5651288802
 30
0.0
  0
SPLINE
  5
341
100
AcDbEntity
  8
0
100
AcDbSpline
 62
7
  6
CONTINUOUS
 70
0
 71
3
 72
41
 73
37
 74
0
 42
0.0000001
 43
0.0000001
 44
0.0000000001
 40
0.0
 40
0.0
 40
0.0
 40
0.0
 40
0.0311445478
 40
0.0624424446
 40
0.0938872679
 40
0.125469566
 40
0.1571770992
 40
0.1889951145
 40
0.2209066667
 40
0.2528929719
 40
0.2849337877
 40
0.3170078142
 40
0.3490931102
 40
0.381167517
 40
0.4132090858
 40
0.4451965025
 40
0.4771095029
 40
0.5089292747
 40
0.5406388381
 40
0.5722233999
 40
0.6036706736
 40
0.63497116
 40
0.6661183793
 40
0.6971090497
 40
0.7279432042
 40
0.7586242401
 40
0.7891588962
 40
0.8195571523
 40
0.8498320512
 40
0.8649308901
 40
0.8800050513
 40
0.9100832572
 40
0.940092674
 40
0.9550812744
 40
0.9700610349
 40
1.0
 40
1.0
 40
1.0
 40
1.0
 10
11.3837076643
 20
7.2319882644
 30
0.0
 10
11.3802168019
 20
7.2322303566
 30
0.0
 10
11.3732330123
 20
7.2329712544
 30
0.0
 10
11.3628420008
 20
7.2348375751
 30
0.0
 10
11.3525622759
 20
7.2374517569
 30
0.0
 10
11.3424493814
 20
7.2407997087
 30
0.0
 10
11.3325570251
 20
7.2448635043
 30
0.0
 10
11.3229379802
 20
7.2496213992
 30
0.0
 10
11.3136434879
 20
7.2550479692
 30
0.0
 10
11.304723075
 20
7.2611142397
 30
0.0
 10
11.2962242692
 20
7.2677878413
 30
0.0
 10
11.2881923557
 20
7.275033181
 30
0.0
 10
11.2806701368
 20
7.2828116304
 30
0.0
 10
11.2736977062
 20
7.2910817297
 30
0.0
 10
11.267312238
 20
7.2997994066
 30
0.0
 10
11.2615477896
 20
7.3089182089
 30
0.0
 10
11.256435122
 20
7.3183895488
 30
0.0
 10
11.2520015368
 20
7.3281629593
 30
0.0
 10
11.2482707308
 20
7.3381863597
 30
0.0
 10
11.2452626699
 20
7.3484063292
 30
0.0
 10
11.2429934818
 20
7.3587683883
 30
0.0
 10
11.2414753679
 20
7.3692172848
 30
0.0
 10
11.2407165364
 20
7.3796972852
 30
0.0
 10
11.2407211532
 20
7.3901524659
 30
0.0
 10
11.2414893204
 20
7.4005270187
 30
0.0
 10
11.2430170506
 20
7.4107655061
 30
0.0
 10
11.2452963533
 20
7.4208133077
 30
0.0
 10
11.2483150057
 20
7.4306163502
 30
0.0
 10
11.2514367756
 20
7.4385464477
 30
0.0
 10
11.2542856029
 20
7.4447133029
 30
0.0
 10
11.2573599639
 20
7.4507461047
 30
0.0
 10
11.2616286105
 20
7.4580430608
 30
0.0
 10
11.2664462336
 20
7.4649781866
 30
0.0
 10
11.2706094106
 20
7.4702791933
 30
0.0
 10
11.2749711319
 20
7.4754072174
 30
0.0
 10
11.2784656634
 20
7.4790579106
 30
0.0
 10
11.2808850863
 20
7.4813948958
 30
0.0
  0
SPLINE
  5
342
100
AcDbEntity
  8
0
100
AcDbSpline
 62
7
  6
CONTINUOUS
 70
0
 71
3
 72
15
 73
11
 74
0
 42
0.0000001
 43
0.0000001
 44
0.0000000001
 40
0.0
 40
0.0
 40
0.0
 40
0.0
 40
0.1233171388
 40
0.2468172051
 40
0.3706750009
 40
0.4950496043
 40
0.6200772562
 40
0.7458671573
 40
0.8724928759
 40
1.0
 40
1.0
 40
1.0
 40
1.0
 10
10.8244680161
 20
8.1406230956
 30
0.0
 10
10.823031837
 20
8.1392358445
 30
0.0
 10
10.8200053564
 20
8.1366118525
 30
0.0
 10
10.815065834
 20
8.1331830076
 30
0.0
 10
10.8097729619
 20
8.1302925386
 30
0.0
 10
10.8041809246
 20
8.127970146
 30
0.0
 10
10.7983461265
 20
8.126238882
 30
0.0
 10
10.7923273399
 20
8.1251160772
 30
0.0
 10
10.7861860091
 20
8.1246126477
 30
0.0
 10
10.7820636511
 20
8.1246930555
 30
0.0
 10
10.7800039871
 20
8.1248358937
 30
0.0
  0
SPLINE
  5
343
100
AcDbEntity
  8
0
100
AcDbSpline
 62
7
  6
CONTINUOUS
 70
0
 71
3
 72
15
 73
11
 74
0
 42
0.0000001
 43
0.0000001
 44
0.0000000001
 40
0.0
 40
0.0
 40
0.0
 40
0.0
 40
0.1232680506
 40
0.2468877099
 40
0.3709463021
 40
0.495519592
 40
0.6206717406
 40
0.7464473204
 40
0.8728891406
 40
1.0
 40
1.0
 40
1.0
 40
1.0
 10
10.8317978522
 20
8.1492403238
 30
0.0
 10
10.8305009488
 20
8.1484110742
 30
0.0
 10
10.8278338124
 20
8.1468563597
 30
0.0
 10
10.8236500784
 20
8.1448563303
 30
0.0
 10
10.8193023113
 20
8.1431966463
 30
0.0
 10
10.8148167269
 20
8.1418873251
 30
0.0
 10
10.8102199766
 20
8.1409360768
 30
0.0
 10
10.8055392517
 20
8.1403483942
 30
0.0
 10
10.8008028103
 20
8.1401278348
 30
0.0
 10
10.7976342942
 20
8.1402260627
 30
0.0
 10
10.7960507543
 20
8.1403358816
 30
0.0
  0
SPLINE
  5
344
100
AcDbEntity
  8
0
100
AcDbSpline
 62
7
  6
CONTINUOUS
 70
0
 71
3
 72
30
 73
26
 74
0
 42
0.0000001
 43
0.0000001
 44
0.0000000001
 40
0.0
 40
0.0
 40
0.0
 40
0.0
 40
0.0299442852
 40
0.0599608666
 40
0.0900662374
 40
0.120275131
 40
0.1506002724
 40
0.1810521749
 40
0.2116389426
 40
0.2423661304
 40
0.2732367141
 40
0.3042510735
 40
0.3354069893
 40
0.3666997166
 40
0.3981221427
 40
0.4296649193
 40
0.4930316772
 40
0.5567208306
 40
0.6205988802
 40
0.6845199813
 40
0.7483354542
 40
0.8119035534
 40
0.8750987526
 40
0.9378196997
 40
1.0
 40
1.0
 40
1.0
 40
1.0
 10
10.7443709263
 20
8.239662809
 30
0.0
 10
10.7436099737
 20
8.2385563489
 30
0.0
 10
10.7421652739
 20
8.2362852033
 30
0.0
 10
10.7402445434
 20
8.2327283509
 30
0.0
 10
10.7385761051
 20
8.2290331791
 30
0.0
 10
10.737167641
 20
8.2252166554
 30
0.0
 10
10.7360254237
 20
8.2212960115
 30
0.0
 10
10.7351545982
 20
8.2172890059
 30
0.0
 10
10.7345590994
 20
8.2132137565
 30
0.0
 10
10.734241568
 20
8.2090887008
 30
0.0
 10
10.7342033815
 20
8.2049324855
 30
0.0
 10
10.7344446872
 20
8.2007638925
 30
0.0
 10
10.734964399
 20
8.1966017424
 30
0.0
 10
10.7357600777
 20
8.1924648806
 30
0.0
 10
10.7368281933
 20
8.1883717833
 30
0.0
 10
10.7386111485
 20
8.1829907882
 30
0.0
 10
10.7414968162
 20
8.1764668838
 30
0.0
 10
10.7459353383
 20
8.1691185575
 30
0.0
 10
10.7512766208
 20
8.1623653722
 30
0.0
 10
10.7574243477
 20
8.1563293389
 30
0.0
 10
10.7642683264
 20
8.1511185692
 30
0.0
 10
10.7716857131
 20
8.1468269215
 30
0.0
 10
10.7795440263
 20
8.1435317945
 30
0.0
 10
10.7877003843
 20
8.1412931936
 30
0.0
 10
10.7932689195
 20
8.1405288025
 30
0.0
 10
10.7960507543
 20
8.1403358816
 30
0.0
  0
SPLINE
  5
345
100
AcDbEntity
  8
0
100
AcDbSpline
 62
7
  6
CONTINUOUS
 70
0
 71
3
 72
15
 73
11
 74
0
 42
0.0000001
 43
0.0000001
 44
0.0000000001
 40
0.0
 40
0.0
 40
0.0
 40
0.0
 40
0.1233171217
 40
0.2468171833
 40
0.3706749954
 40
0.4950495965
 40
0.6200773092
 40
0.7458671694
 40
0.8724927499
 40
1.0
 40
1.0
 40
1.0
 40
1.0
 10
10.2150355713
 20
7.7359274812
 30
0.0
 10
10.2132852383
 20
7.7342367934
 30
0.0
 10
10.2095967204
 20
7.7310388707
 30
0.0
 10
10.2035767188
 20
7.7268600352
 30
0.0
 10
10.1971260738
 20
7.7233373475
 30
0.0
 10
10.1903108292
 20
7.7205069954
 30
0.0
 10
10.1831997289
 20
7.7183970725
 30
0.0
 10
10.175864404
 20
7.7170286886
 30
0.0
 10
10.1683797316
 20
7.7164151486
 30
0.0
 10
10.1633556577
 20
7.7165131467
 30
0.0
 10
10.1608454644
 20
7.7166872292
 30
0.0
  0
SPLINE
  5
346
100
AcDbEntity
  8
0
100
AcDbSpline
 62
7
  6
CONTINUOUS
 70
0
 71
3
 72
11
 73
7
 74
0
 42
0.0000001
 43
0.0000001
 44
0.0000000001
 40
0.0
 40
0.0
 40
0.0
 40
0.0
 40
0.2476290643
 40
0.4967545117
 40
0.7475158752
 40
1.0
 40
1.0
 40
1.0
 40
1.0
 10
10.2313185061
 20
7.7605024726
 30
0.0
 10
10.2290192914
 20
7.7597006491
 30
0.0
 10
10.2243198046
 20
7.758331096
 30
0.0
 10
10.2170772296
 20
7.7570058858
 30
0.0
 10
10.2096904063
 20
7.7564154437
 30
0.0
 10
10.2047332864
 20
7.7565154303
 30
0.0
 10
10.2022564765
 20
7.7566871976
 30
0.0
  0
SPLINE
  5
347
100
AcDbEntity
  8
0
100
AcDbSpline
 62
7
  6
CONTINUOUS
 70
0
 71
3
 72
26
 73
22
 74
0
 42
0.0000001
 43
0.0000001
 44
0.0000000001
 40
0.0
 40
0.0
 40
0.0
 40
0.0
 40
0.0301009649
 40
0.060307604
 40
0.0906281321
 40
0.1210690058
 40
0.1516348538
 40
0.1823284679
 40
0.2440730498
 40
0.3063159946
 40
0.3690139906
 40
0.432098536
 40
0.4954801135
 40
0.5590533439
 40
0.6227027077
 40
0.6863086761
 40
0.7497540061
 40
0.8129299511
 40
0.8757421303
 40
0.9381149683
 40
1.0
 40
1.0
 40
1.0
 40
1.0
 10
10.1317623761
 20
7.8635082608
 30
0.0
 10
10.1312265899
 20
7.8621249914
 30
0.0
 10
10.1302406646
 20
7.859318795
 30
0.0
 10
10.1290268113
 20
7.8550177826
 30
0.0
 10
10.1280797003
 20
7.8506329681
 30
0.0
 10
10.1274028584
 20
7.8461806079
 30
0.0
 10
10.1269986854
 20
7.8416766734
 30
0.0
 10
10.1268248299
 20
7.8356143119
 30
0.0
 10
10.1272985912
 20
7.8279862096
 30
0.0
 10
10.1289562053
 20
7.818915629
 30
0.0
 10
10.1316792397
 20
7.8100367466
 30
0.0
 10
10.1354277273
 20
7.8014791145
 30
0.0
 10
10.1401468616
 20
7.7933663327
 30
0.0
 10
10.1457680843
 20
7.7858159088
 30
0.0
 10
10.152209791
 20
7.7789370695
 30
0.0
 10
10.1593786666
 20
7.7728294362
 30
0.0
 10
10.1671710144
 20
7.7675816103
 30
0.0
 10
10.1754739135
 20
7.7632697736
 30
0.0
 10
10.1841676844
 20
7.7599568321
 30
0.0
 10
10.1931247094
 20
7.7576913357
 30
0.0
 10
10.1992140218
 20
7.7568981926
 30
0.0
 10
10.2022564765
 20
7.7566871976
 30
0.0
  0
SPLINE
  5
348
100
AcDbEntity
  8
0
100
AcDbSpline
 62
7
  6
CONTINUOUS
 70
0
 71
3
 72
30
 73
26
 74
0
 42
0.0000001
 43
0.0000001
 44
0.0000000001
 40
0.0
 40
0.0
 40
0.0
 40
0.0
 40
0.0606623079
 40
0.1216906066
 40
0.1830902033
 40
0.2448594145
 40
0.3069900759
 40
0.3694670797
 40
0.4322671469
 40
0.4953560536
 40
0.5586850566
 40
0.6221863108
 40
0.6857665493
 40
0.7175638652
 40
0.7493337016
 40
0.7810559942
 40
0.8127091577
 40
0.8442707103
 40
0.8600128644
 40
0.8757238017
 40
0.9070358448
 40
0.938193804
 40
0.9537131015
 40
0.9691893216
 40
1.0
 40
1.0
 40
1.0
 40
1.0
 10
10.8286847609
 20
8.4157363324
 30
0.0
 10
10.8233738373
 20
8.4146620561
 30
0.0
 10
10.8126111266
 20
8.413013496
 30
0.0
 10
10.7962671636
 20
8.4120135491
 30
0.0
 10
10.7797991488
 20
8.4124574511
 30
0.0
 10
10.7633339301
 20
8.4143329505
 30
0.0
 10
10.746996066
 20
8.4176349757
 30
0.0
 10
10.730916465
 20
8.4223653962
 30
0.0
 10
10.7152373151
 20
8.428531227
 30
0.0
 10
10.7001187703
 20
8.4361417218
 30
0.0
 10
10.6857452439
 20
8.4452041533
 30
0.0
 10
10.6723342725
 20
8.4557139555
 30
0.0
 10
10.6621669062
 20
8.4656635543
 30
0.0
 10
10.6547877272
 20
8.4743046176
 30
0.0
 10
10.6496705215
 20
8.4811134527
 30
0.0
 10
10.6450142031
 20
8.4882304242
 30
0.0
 10
10.6408616897
 20
8.4956317592
 30
0.0
 10
10.6378537476
 20
8.5020182439
 30
0.0
 10
10.6357420444
 20
8.5072369597
 30
0.0
 10
10.6338366107
 20
8.5125107734
 30
0.0
 10
10.6318445517
 20
8.5192117891
 30
0.0
 10
10.6303966104
 20
8.5260341408
 30
0.0
 10
10.6295809825
 20
8.5315270736
 30
0.0
 10
10.6289975855
 20
8.5370179366
 30
0.0
 10
10.6288202054
 20
8.541155101
 30
0.0
 10
10.6288202054
 20
8.5439071756
 30
0.0
  0
SPLINE
  5
349
100
AcDbEntity
  8
0
100
AcDbSpline
 62
7
  6
CONTINUOUS
 70
0
 71
3
 72
28
 73
24
 74
0
 42
0.0000001
 43
0.0000001
 44
0.0000000001
 40
0.0
 40
0.0
 40
0.0
 40
0.0
 40
0.019147164
 40
0.0396123104
 40
0.0613677627
 40
0.0843785715
 40
0.1085994513
 40
0.1339781928
 40
0.1604571822
 40
0.1879755955
 40
0.2164695936
 40
0.245873151
 40
0.3071377227
 40
0.3712274943
 40
0.4376026831
 40
0.5057434258
 40
0.5751666583
 40
0.6454433538
 40
0.7162137196
 40
0.7871995171
 40
0.8582118819
 40
0.9291504844
 40
1.0
 40
1.0
 40
1.0
 40
1.0
 10
10.8486039977
 20
7.7729998529
 30
0.0
 10
10.8476480168
 20
7.7727902479
 30
0.0
 10
10.8456634582
 20
7.772387461
 30
0.0
 10
10.8425768012
 20
7.7718283922
 30
0.0
 10
10.8392880604
 20
7.7712790348
 30
0.0
 10
10.8358058169
 20
7.7707238556
 30
0.0
 10
10.8321394046
 20
7.7701476446
 30
0.0
 10
10.8282992018
 20
7.7695354236
 30
0.0
 10
10.8242963919
 20
7.7688728379
 30
0.0
 10
10.8201429429
 20
7.7681461066
 30
0.0
 10
10.8158515024
 20
7.7673421402
 30
0.0
 10
10.8098813658
 20
7.766134587
 30
0.0
 10
10.802168263
 20
7.7643707416
 30
0.0
 10
10.7927080045
 20
7.7618006731
 30
0.0
 10
10.7830416474
 20
7.7586864236
 30
0.0
 10
10.7732930179
 20
7.7549806031
 30
0.0
 10
10.7635852553
 20
7.7506505944
 30
0.0
 10
10.7540379692
 20
7.7456770225
 30
0.0
 10
10.7447647533
 20
7.7400517421
 30
0.0
 10
10.7358716555
 20
7.7337756732
 30
0.0
 10
10.7274563384
 20
7.7268564503
 30
0.0
 10
10.7196091379
 20
7.7193085421
 30
0.0
 10
10.7148078846
 20
7.7138662287
 30
0.0
 10
10.7125304365
 20
7.7110505888
 30
0.0
  0
SPLINE
  5
34A
100
AcDbEntity
  8
0
100
AcDbSpline
 62
7
  6
CONTINUOUS
 70
0
 71
3
 72
32
 73
28
 74
0
 42
0.0000001
 43
0.0000001
 44
0.0000000001
 40
0.0
 40
0.0
 40
0.0
 40
0.0
 40
0.0165871556
 40
0.0341537781
 40
0.0527304073
 40
0.0723387658
 40
0.0929935323
 40
0.1147029403
 40
0.1374702042
 40
0.1612937152
 40
0.1861681311
 40
0.2120844207
 40
0.2390306154
 40
0.2669918814
 40
0.2959509389
 40
0.3258882603
 40
0.3567821873
 40
0.3886092818
 40
0.4213441995
 40
0.4549601652
 40
0.5247185438
 40
0.5976428572
 40
0.6734701968
 40
0.7519205058
 40
0.8326992182
 40
0.9154981809
 40
1.0
 40
1.0
 40
1.0
 40
1.0
 10
10.0968392074
 20
5.9627553345
 30
0.0
 10
10.0979573623
 20
5.961714767
 30
0.0
 10
10.1003290271
 20
5.9596458489
 30
0.0
 10
10.1041615059
 20
5.9566608994
 30
0.0
 10
10.108365011
 20
5.9537100831
 30
0.0
 10
10.112935045
 20
5.9507963741
 30
0.0
 10
10.1178670555
 20
5.947922692
 30
0.0
 10
10.1231559534
 20
5.9450918837
 30
0.0
 10
10.1287963386
 20
5.9423069206
 30
0.0
 10
10.1347823688
 20
5.9395706175
 30
0.0
 10
10.1411078615
 20
5.9368858796
 30
0.0
 10
10.1477662347
 20
5.9342554691
 30
0.0
 10
10.1547505622
 20
5.931682176
 30
0.0
 10
10.1620535539
 20
5.9291686878
 30
0.0
 10
10.1696675795
 20
5.9267176526
 30
0.0
 10
10.1775846747
 20
5.9243316636
 30
0.0
 10
10.1857965473
 20
5.9220132121
 30
0.0
 10
10.1942945917
 20
5.9197647815
 30
0.0
 10
10.2030699053
 20
5.917588681
 30
0.0
 10
10.2152786826
 20
5.9147518019
 30
0.0
 10
10.2311684725
 20
5.9114135892
 30
0.0
 10
10.2509608531
 20
5.9077782682
 30
0.0
 10
10.2716232061
 20
5.9044812131
 30
0.0
 10
10.2930687905
 20
5.9015364184
 30
0.0
 10
10.3152076662
 20
5.898956427
 30
0.0
 10
10.3379468546
 20
5.8967521822
 30
0.0
 10
10.3533068286
 20
5.8955500915
 30
0.0
 10
10.3610695575
 20
5.8950117444
 30
0.0
  0
SPLINE
  5
34B
100
AcDbEntity
  8
0
100
AcDbSpline
 62
7
  6
CONTINUOUS
 70
0
 71
3
 72
41
 73
37
 74
0
 42
0.0000001
 43
0.0000001
 44
0.0000000001
 40
0.0
 40
0.0
 40
0.0
 40
0.0
 40
0.0311445478
 40
0.0624424446
 40
0.0938872679
 40
0.125469566
 40
0.1571770992
 40
0.1889951145
 40
0.2209066667
 40
0.2528929719
 40
0.2849337877
 40
0.3170078142
 40
0.3490931102
 40
0.381167517
 40
0.4132090858
 40
0.4451965025
 40
0.4771095029
 40
0.5089292747
 40
0.5406388381
 40
0.5722233999
 40
0.6036706736
 40
0.63497116
 40
0.6661183793
 40
0.6971090497
 40
0.7279432042
 40
0.7586242401
 40
0.7891588962
 40
0.8195571523
 40
0.8498320512
 40
0.8649308901
 40
0.8800050513
 40
0.9100832572
 40
0.940092674
 40
0.9550812744
 40
0.9700610349
 40
1.0
 40
1.0
 40
1.0
 40
1.0
 10
10.1763003098
 20
8.8554080897
 30
0.0
 10
10.1728094475
 20
8.8556501818
 30
0.0
 10
10.1658256579
 20
8.8563910796
 30
0.0
 10
10.1554346464
 20
8.8582574004
 30
0.0
 10
10.1451549215
 20
8.8608715821
 30
0.0
 10
10.135042027
 20
8.864219534
 30
0.0
 10
10.1251496707
 20
8.8682833295
 30
0.0
 10
10.1155306258
 20
8.8730412245
 30
0.0
 10
10.1062361335
 20
8.8784677945
 30
0.0
 10
10.0973157205
 20
8.884534065
 30
0.0
 10
10.0888169148
 20
8.8912076666
 30
0.0
 10
10.0807850013
 20
8.8984530063
 30
0.0
 10
10.0732627824
 20
8.9062314557
 30
0.0
 10
10.0662903518
 20
8.914501555
 30
0.0
 10
10.0599048836
 20
8.9232192319
 30
0.0
 10
10.0541404352
 20
8.9323380341
 30
0.0
 10
10.0490277676
 20
8.941809374
 30
0.0
 10
10.0445941824
 20
8.9515827846
 30
0.0
 10
10.0408633764
 20
8.9616061849
 30
0.0
 10
10.0378553155
 20
8.9718261545
 30
0.0
 10
10.0355861274
 20
8.9821882136
 30
0.0
 10
10.0340680135
 20
8.99263711
 30
0.0
 10
10.033309182
 20
9.0031171105
 30
0.0
 10
10.0333137988
 20
9.0135722911
 30
0.0
 10
10.034081966
 20
9.023946844
 30
0.0
 10
10.0356096962
 20
9.0341853314
 30
0.0
 10
10.0378889989
 20
9.044233133
 30
0.0
 10
10.0409076513
 20
9.0540361754
 30
0.0
 10
10.0440294212
 20
9.061966273
 30
0.0
 10
10.0468782485
 20
9.0681331282
 30
0.0
 10
10.0499526094
 20
9.07416593
 30
0.0
 10
10.0542212561
 20
9.081462886
 30
0.0
 10
10.0590388792
 20
9.0883980119
 30
0.0
 10
10.0632020562
 20
9.0936990186
 30
0.0
 10
10.0675637775
 20
9.0988270426
 30
0.0
 10
10.071058309
 20
9.1024777358
 30
0.0
 10
10.0734777319
 20
9.104814721
 30
0.0
  0
ELLIPSE
  5
34C
100
AcDbEntity
  8
0
100
AcDbEllipse
 62
7
  6
CONTINUOUS
 10
11.1876247011
 20
8.1583865577
 30
0.0
 11
0.1198361654
 21
-0.0537191407
 31
0.0
 40
0.9054325776
 41
0.0
 42
6.2831853072
  0
ENDSEC
  0
SECTION
  2
OBJECTS
  0
DICTIONARY
  5
C
100
AcDbDictionary
280
0
281
1
  3
ACAD_GROUP
350
D
  3
ACAD_MLINESTYLE
350
17
  3
ACAD_LAYOUT
350
1A
  3
ACAD_PLOTSETTINGS
350
19
  3
ACAD_PLOTSTYLENAME
350
E
  3
ACAD_IMAGE_DICT
350
       34E
  3
ACAD_IMAGE_VARS
350
       34F
  3
ACAD_TABLESTYLE
350
       350
  0
IMAGEDEF_REACTOR
  5
34D
100
AcDbRasterImageDefReactor
 90
2
330
275
  0
DICTIONARY
  5
D
102
{ACAD_REACTORS
330
C
102
}
100
AcDbDictionary
280
0
281
1
  0
ACDBDICTIONARYWDFLT
  5
E
102
{ACAD_REACTORS
330
C
102
}
100
AcDbDictionary
281
1
  3
Normal
350
F
100
AcDbDictionaryWithDefault
340
F
  0
DICTIONARY
  5
34E
330
C
100
AcDbDictionary
281
1
  3
EB3_assy_2_img_1
350
       353
  0
RASTERVARIABLES
  5
34F
330
C
100
AcDbRasterVariables
 90
0
 70
0
 71
1
 72
5
  0
DICTIONARY
  5
17
102
{ACAD_REACTORS
330
C
102
}
100
AcDbDictionary
280
0
281
1
  3
Standard
350
18
  0
DICTIONARY
  5
350
330
C
100
AcDbDictionary
281
1
  3
Standard
350
       354
  3
Standard1
350
       355
  0
DICTIONARY
  5
19
102
{ACAD_REACTORS
330
C
102
}
100
AcDbDictionary
281
1
  0
DICTIONARY
  5
1A
102
{ACAD_REACTORS
330
C
102
}
100
AcDbDictionary
281
1
  3
Model
350
351
  3
Layout1
350
352
  0
ACDBPLACEHOLDER
  5
F
102
{ACAD_REACTORS
330
E
102
}
  0
MLINESTYLE
  5
18
102
{ACAD_REACTORS
330
17
102
}
100
AcDbMlineStyle
  2
STANDARD
 70
0
  3

 62
256
 51
90.0
 52
90.0
 71
2
 49
0.5
 62
256
  6
BYLAYER
 49
-0.5
 62
256
  6
BYLAYER
  0
LAYOUT
  5
351
102
{ACAD_REACTORS
330
1A
102
}
100
AcDbPlotSettings
  1

  2
none_device
  4
ANSI_C_(22.00_x_17.00_Inches)
  6

 40
0.0
 41
0.0
 42
0.0
 43
0.0
 44
558.8
 45
431.8
 46
0.0
 47
0.0
 48
0.0
 49
0.0
140
0.0
141
0.0
142
1.0
143
1.0
 70
1024
 72
0
 73
0
 74
0
  7

 75
0
147
1.0
148
0.0
149
0.0
100
AcDbLayout
  1
Model
 70
0
 71
0
 10
0.0
 20
0.0
 11
22.0
 21
17.0
 12
0.0
 22
0.0
 32
0.0
 14
0.0
 24
0.0
 34
0.0
 15
0.0
 25
0.0
 35
0.0
146
0.0
 13
0.0
 23
0.0
 33
0.0
 16
1.0
 26
0.0
 36
0.0
 17
0.0
 27
1.0
 37
0.0
 76
0
330
20F
345
0
346
0
  0
LAYOUT
  5
352
102
{ACAD_REACTORS
330
1A
102
}
100
AcDbPlotSettings
  1

  2
none_device
  4
ANSI_C_(22.00_x_17.00_Inches)
  6

 40
0.0
 41
0.0
 42
0.0
 43
0.0
 44
558.8
 45
431.8
 46
0.0
 47
0.0
 48
0.0
 49
0.0
140
0.0
141
0.0
142
1.0
143
1.0
 70
0
 72
0
 73
0
 74
0
  7

 75
0
147
1.0
148
0.0
149
0.0
100
AcDbLayout
  1
Layout1
 70
0
 71
1
 10
0.0
 20
0.0
 11
22.0
 21
17.0
 12
0.0
 22
0.0
 32
0.0
 14
0.0
 24
0.0
 34
0.0
 15
0.0
 25
0.0
 35
0.0
146
0.0
 13
0.0
 23
0.0
 33
0.0
 16
1.0
 26
0.0
 36
0.0
 17
0.0
 27
1.0
 37
0.0
 76
0
330
210
345
0
346
0
  0
IMAGEDEF
  5
353
102
{ACAD_REACTORS
330
34E
330
34D
102
}
100
AcDbRasterImageDef
 90
0
  1
EB3_assy_2_img_1.png
 10
369.0
 20
92.0
 11
0.0066666667
 21
0.0066666667
280
1
281
0
  0
TABLESTYLE
  5
354
102
{ACAD_REACTORS
330
350
330
278
102
}
330
350
100
AcDbTableStyle
  3
Standard
 70
0
 71
0
 40
0.06
 41
0.06
280
1
281
1
  7
Standard
140
0.18
170
1
 62
0
 63
7
283
0
  7
Standard
140
0.18
170
1
 62
0
 63
7
283
0
  7
Standard
140
0.18
170
1
 62
0
 63
7
283
0
  0
TABLESTYLE
  5
355
102
{ACAD_REACTORS
330
350
330
277
102
}
330
350
100
AcDbTableStyle
  3
Standard1
 70
1
 71
0
 40
0.06
 41
0.06
280
1
281
1
  7
Standard
140
0.18
170
1
 62
0
 63
7
283
0
  7
Standard
140
0.18
170
1
 62
0
 63
7
283
0
  7
Standard
140
0.18
170
1
 62
0
 63
7
283
0
  0
ENDSEC
  0
EOF
