999
DXF file: EB2_assy_2.dxf
999
Pro/ENGINEER 2014200 by Parametric Technology Corporation
  0
SECTION
  2
HEADER
  9
$ACADVER
  1
AC1021
  9
$DWGCODEPAGE
  3
ANSI_1252
  9
$EXTMAX
 10
22.0
 20
17.0
 30
0.0
  9
$EXTMIN
 10
0.0
 20
0.0
 30
0.0
  9
$LIMMIN
 10
0.0
 20
0.0
  9
$LIMMAX
 10
22.0
 20
17.0
  9
$VIEWCTR
 10
11.0
 20
8.5
  9
$VIEWSIZE
 40
17.0
  9
$CLAYER
  8
0
  9
$LTSCALE
 40
1.21
  9
$CELTYPE
  6
BYLAYER
  9
$DIMSCALE
 40
1.0
  9
$DIMASZ
 40
0.1875
  9
$DIMEXO
 40
0.0625
  9
$DIMDLI
 40
0.836
  9
$DIMEXE
 40
0.125
  9
$DIMCEN
 40
0.198
  9
$DIMLFAC
 40
1.0
  9
$DIMBLK
  1
_FILLED
  9
$DIMTXT
 40
0.1
  9
$DIMTOL
 70
0
  9
$DIMLIM
 70
0
  9
$DIMTFAC
 40
1.0
  9
$DIMGAP
 40
0.09
  9
$DIMDSEP
 70
46
  9
$AUNITS
 70
0
  9
$PDMODE
 70
3
  9
$PDSIZE
 40
0.3125
  9
$HANDSEED
  5
430
  9
$TILEMODE
 70
1
  9
$MEASUREMENT
 70
0
  9
$INSUNITS
 70
1
  0
ENDSEC
  0
SECTION
  2
CLASSES
  0
CLASS
  1
ACDBDICTIONARYWDFLT
  2
AcDbDictionaryWithDefault
  3
AutoCAD 2000
 90
0
 91
1
280
0
281
0
  0
CLASS
  1
ACDBPLACEHOLDER
  2
AcDbPlaceHolder
  3
AutoCAD 2000
 90
0
 91
1
280
0
281
0
  0
CLASS
  1
LAYOUT
  2
AcDbLayout
  3
AutoCAD 2000
 90
0
 91
0
280
0
281
0
  0
CLASS
  1
RASTERVARIABLES
  2
AcDbRasterVariables
  3
ISM
 90
0
 91
1
280
0
281
0
  0
CLASS
  1
IMAGEDEF
  2
AcDbRasterImageDef
  3
ISM
 90
0
 91
1
280
0
281
0
  0
CLASS
  1
IMAGEDEF_REACTOR
  2
AcDbRasterImageDefReactor
  3
ISM
 90
0
 91
1
280
0
281
0
  0
CLASS
  1
IMAGE
  2
AcDbRasterImage
  3
ISM
 90
127
 91
1
280
0
281
1
  0
CLASS
  1
TABLESTYLE
  2
AcDbTableStyle
  3
ObjectDBX Classes
 90
2047
 91
1
280
0
281
0
  0
CLASS
  1
ACAD_TABLE
  2
AcDbTable
  3
ObjectDBX Classes
 90
1025
 91
2
280
0
281
1
  0
ENDSEC
  0
SECTION
  2
TABLES
  0
TABLE
  2
VPORT
  5
8
100
AcDbSymbolTable
 70
2
  0
VPORT
  5
1F4
100
AcDbSymbolTableRecord
100
AcDbViewportTableRecord
  2
*ACTIVE
 70
0
 10
0.0
 20
0.0
 11
1.0
 21
1.0
 12
11.0
 22
8.5
 13
0.0
 23
0.0
 14
1.0
 24
1.0
 15
0.0
 25
0.0
 16
0.0
 26
0.0
 36
1.0
 17
0.0
 27
0.0
 37
0.0
 40
17.0
 41
1.2941176471
 42
50.0
 43
0.0
 44
0.0
 50
0.0
 51
0.0
 71
0
 72
100
 73
1
 74
1
 75
0
 76
0
 77
0
 78
0
  0
ENDTAB
  0
TABLE
  2
LTYPE
  5
5
100
AcDbSymbolTable
 70
6
  0
LTYPE
  5
14
100
AcDbSymbolTableRecord
100
AcDbLinetypeTableRecord
  2
BYBLOCK
 70
0
  3

 72
65
 73
0
 40
0.0
  0
LTYPE
  5
15
100
AcDbSymbolTableRecord
100
AcDbLinetypeTableRecord
  2
BYLAYER
 70
0
  3

 72
65
 73
0
 40
0.0
  0
LTYPE
  5
16
100
AcDbSymbolTableRecord
100
AcDbLinetypeTableRecord
  2
CONTINUOUS
 70
64
  3
Solid line
 72
65
 73
0
 40
0.0
  0
LTYPE
  5
1F5
100
AcDbSymbolTableRecord
100
AcDbLinetypeTableRecord
  2
CENTER
 70
64
  3
____ _ ____ _ ____ _ ____ _ ____ _ ____ _ ____
 72
65
 73
4
 40
0.6
 49
0.375
 74
0
 49
-0.075
 74
0
 49
0.075
 74
0
 49
-0.075
 74
0
  0
LTYPE
  5
1F6
100
AcDbSymbolTableRecord
100
AcDbLinetypeTableRecord
  2
HIDDEN
 70
64
  3
- - - - - - - - - - - - - - - - - - - -
 72
65
 73
2
 40
0.2
 49
0.1
 74
0
 49
-0.1
 74
0
  0
LTYPE
  5
1F7
100
AcDbSymbolTableRecord
100
AcDbLinetypeTableRecord
  2
PHANTOM
 70
64
  3
_____ _ _ _____ _ _ _____ _ _ _____
 72
65
 73
6
 40
0.8
 49
0.45
 74
0
 49
-0.05
 74
0
 49
0.1
 74
0
 49
-0.05
 74
0
 49
0.1
 74
0
 49
-0.05
 74
0
  0
LTYPE
  5
1F8
100
AcDbSymbolTableRecord
100
AcDbLinetypeTableRecord
  2
DOT
 70
64
  3
. . . . . . . . . . . . . . . . . . . .
 72
65
 73
2
 40
0.2
 49
0.1
 74
0
 49
-0.1
 74
0
  0
LTYPE
  5
1F9
100
AcDbSymbolTableRecord
100
AcDbLinetypeTableRecord
  2
DASHED
 70
64
  3
- - - - - - - - - - - - - - - - - - - -
 72
65
 73
2
 40
0.2
 49
0.1
 74
0
 49
-0.1
 74
0
  0
ENDTAB
  0
TABLE
  2
LAYER
  5
2
100
AcDbSymbolTable
 70
36
  0
LAYER
  5
10
100
AcDbSymbolTableRecord
100
AcDbLayerTableRecord
  2
0
 70
0
 62
7
  6
CONTINUOUS
370
-3
390
F
  0
LAYER
  5
1FA
100
AcDbSymbolTableRecord
100
AcDbLayerTableRecord
  2
DEFAULT_1
 70
0
 62
7
  6
CENTER
370
-3
390
F
  0
LAYER
  5
1FB
100
AcDbSymbolTableRecord
100
AcDbLayerTableRecord
  2
DEFAULT_2
 70
0
 62
8
  6
HIDDEN
370
-3
390
F
  0
LAYER
  5
1FC
100
AcDbSymbolTableRecord
100
AcDbLayerTableRecord
  2
DEFAULT_3
 70
0
 62
7
  6
PHANTOM
370
-3
390
F
  0
LAYER
  5
1FD
100
AcDbSymbolTableRecord
100
AcDbLayerTableRecord
  2
01___PRT_ALL_DTM_PLN
 70
0
 62
7
  6
CONTINUOUS
370
-3
390
F
  0
LAYER
  5
1FE
100
AcDbSymbolTableRecord
100
AcDbLayerTableRecord
  2
01___PRT_DEF_DTM_PLN
 70
0
 62
7
  6
CONTINUOUS
370
-3
390
F
  0
LAYER
  5
1FF
100
AcDbSymbolTableRecord
100
AcDbLayerTableRecord
  2
02___PRT_ALL_AXES
 70
0
 62
7
  6
CONTINUOUS
370
-3
390
F
  0
LAYER
  5
200
100
AcDbSymbolTableRecord
100
AcDbLayerTableRecord
  2
03___PRT_ALL_CURVES
 70
0
 62
7
  6
CONTINUOUS
370
-3
390
F
  0
LAYER
  5
201
100
AcDbSymbolTableRecord
100
AcDbLayerTableRecord
  2
04___PRT_ALL_DTM_PNT
 70
0
 62
7
  6
CONTINUOUS
370
-3
390
F
  0
LAYER
  5
202
100
AcDbSymbolTableRecord
100
AcDbLayerTableRecord
  2
05___PRT_ALL_DTM_CSYS
 70
0
 62
7
  6
CONTINUOUS
370
-3
390
F
  0
LAYER
  5
203
100
AcDbSymbolTableRecord
100
AcDbLayerTableRecord
  2
05___PRT_DEF_DTM_CSYS
 70
0
 62
7
  6
CONTINUOUS
370
-3
390
F
  0
LAYER
  5
204
100
AcDbSymbolTableRecord
100
AcDbLayerTableRecord
  2
06___PRT_ALL_SURFS
 70
0
 62
7
  6
CONTINUOUS
370
-3
390
F
  0
LAYER
  5
205
100
AcDbSymbolTableRecord
100
AcDbLayerTableRecord
  2
DATUM_PLANES
 70
0
 62
7
  6
CONTINUOUS
370
-3
390
F
  0
LAYER
  5
206
100
AcDbSymbolTableRecord
100
AcDbLayerTableRecord
  2
DIMENSIONS
 70
0
 62
7
  6
CONTINUOUS
370
-3
390
F
  0
LAYER
  5
207
100
AcDbSymbolTableRecord
100
AcDbLayerTableRecord
  2
PARAMETERDIMENSIONS
 70
0
 62
7
  6
CONTINUOUS
370
-3
390
F
  0
LAYER
  5
208
100
AcDbSymbolTableRecord
100
AcDbLayerTableRecord
  2
PORT_AREAS
 70
0
 62
7
  6
CONTINUOUS
370
-3
390
F
  0
LAYER
  5
209
100
AcDbSymbolTableRecord
100
AcDbLayerTableRecord
  2
SUNNBOMCOSMETIC
 70
0
 62
7
  6
CONTINUOUS
370
-3
390
F
  0
LAYER
  5
20A
100
AcDbSymbolTableRecord
100
AcDbLayerTableRecord
  2
SUNNBOMSTAMPING
 70
0
 62
7
  6
CONTINUOUS
370
-3
390
F
  0
LAYER
  5
20B
100
AcDbSymbolTableRecord
100
AcDbLayerTableRecord
  2
THREADS
 70
0
 62
7
  6
CONTINUOUS
370
-3
390
F
  0
ENDTAB
  0
TABLE
  2
STYLE
  5
3
100
AcDbSymbolTable
 70
1
  0
STYLE
  5
11
100
AcDbSymbolTableRecord
100
AcDbTextStyleTableRecord
  2
STANDARD
 70
0
 40
0.0
 41
0.8
 50
0.0
 71
0
 42
0.2
  3
txt
  4

  0
STYLE
  5
20C
100
AcDbSymbolTableRecord
100
AcDbTextStyleTableRecord
  2
TEXTSTYLE_1
 70
0
 40
0.0
 41
0.8
 50
0.0
 71
0
 42
0.2
  3
gdt
  4

  0
ENDTAB
  0
TABLE
  2
VIEW
  5
6
100
AcDbSymbolTable
 70
0
  0
ENDTAB
  0
TABLE
  2
UCS
  5
7
100
AcDbSymbolTable
 70
0
  0
ENDTAB
  0
TABLE
  2
APPID
  5
9
100
AcDbSymbolTable
 70
1
  0
APPID
  5
20D
100
AcDbSymbolTableRecord
100
AcDbRegAppTableRecord
  2
ACAD
 70
0
  0
ENDTAB
  0
TABLE
  2
BLOCK_RECORD
  5
1
100
AcDbSymbolTable
 70
0
  0
BLOCK_RECORD
  5
20E
100
AcDbSymbolTableRecord
100
AcDbBlockTableRecord
  2
*Model_Space
  0
BLOCK_RECORD
  5
20F
100
AcDbSymbolTableRecord
100
AcDbBlockTableRecord
  2
*Paper_Space
  0
BLOCK_RECORD
  5
210
100
AcDbSymbolTableRecord
100
AcDbBlockTableRecord
  2
SUN_FIRST_THIRD_ANGLE_BL0
  0
BLOCK_RECORD
  5
211
100
AcDbSymbolTableRecord
100
AcDbBlockTableRecord
  2
*T1
  0
BLOCK_RECORD
  5
212
100
AcDbSymbolTableRecord
100
AcDbBlockTableRecord
  2
*T2
  0
ENDTAB
  0
TABLE
  2
DIMSTYLE
  5
A
100
AcDbSymbolTable
 70
1
100
AcDbDimStyleTable
 71
0
  0
DIMSTYLE
105
213
100
AcDbSymbolTableRecord
100
AcDbDimStyleTableRecord
  2
STANDARD
 70
0
  3

  4

 40
1.0
 41
0.1875
 42
0.0625
 43
0.38
 44
0.125
 45
0.0
 46
0.0
 47
0.001
 48
0.001
140
0.1
141
0.09
142
0.0
143
25.4
144
1.0
145
0.0
146
1.0
147
0.09
 71
0.0
 72
0.0
 73
1
 74
1
 75
0
 76
0
 77
0
 78
4
170
0
171
2
172
0
173
0
174
0
175
0
176
0
177
0
178
0
270
2
271
3
272
3
273
2
274
2
275
0
280
0
281
0
282
0
283
1
284
4
285
0
286
0
287
3
288
0
340
11
278
46
  0
ENDTAB
  0
ENDSEC
  0
SECTION
  2
BLOCKS
  0
BLOCK
  5
20
100
AcDbEntity
  8
0
100
AcDbBlockBegin
  2
*Model_Space
 70
0
 10
0.0
 20
0.0
 30
0.0
  3
*Model_Space
  1

  0
ENDBLK
  5
21
100
AcDbEntity
  8
0
100
AcDbBlockEnd
  0
BLOCK
  5
1C
100
AcDbEntity
  8
0
100
AcDbBlockBegin
  2
*Paper_Space
 70
0
 10
0.0
 20
0.0
 30
0.0
  3
*Paper_Space
  1

  0
ENDBLK
  5
1D
100
AcDbEntity
  8
0
100
AcDbBlockEnd
  0
BLOCK
  5
214
100
AcDbEntity
  8
0
100
AcDbBlockBegin
 62
2
  6
CONTINUOUS
  2
SUN_FIRST_THIRD_ANGLE_BL0
 70
64
 10
20.4816717061
 20
1.2289683772
  3
SUN_FIRST_THIRD_ANGLE_BL0
  1

  0
TEXT
  5
215
100
AcDbEntity
  8
0
100
AcDbText
 62
2
  6
CONTINUOUS
 10
19.4750896608
 20
1.4136269581
  7
STANDARD
 40
0.08
  1
FIRST ANGLE
 41
0.8
 72
0
100
AcDbText
  0
TEXT
  5
216
100
AcDbEntity
  8
0
100
AcDbText
 62
2
  6
CONTINUOUS
 10
20.7842537513
 20
1.4047600029
  7
STANDARD
 40
0.08
  1
THIRD ANGLE
 41
0.8
 72
0
100
AcDbText
  0
LINE
  5
217
100
AcDbEntity
  8
0
100
AcDbLine
 62
7
  6
CONTINUOUS
 10
19.4767170086
 20
1.1727031207
 11
19.6334271527
 21
1.1717972817
  0
LINE
  5
218
100
AcDbEntity
  8
0
100
AcDbLine
 62
7
  6
CONTINUOUS
 10
19.6596964832
 20
1.1717972817
 11
19.6950230232
 21
1.171593082
  0
LINE
  5
219
100
AcDbEntity
  8
0
100
AcDbLine
 62
7
  6
CONTINUOUS
 10
19.7194818561
 20
1.1708914427
 11
19.8852396156
 21
1.1699333054
  0
LINE
  5
21A
100
AcDbEntity
  8
0
100
AcDbLine
 62
7
  6
CONTINUOUS
 10
19.4758111696
 20
1.2723454088
 11
19.88525039
 21
1.3511534004
  0
LINE
  5
21B
100
AcDbEntity
  8
0
100
AcDbLine
 62
7
  6
CONTINUOUS
 10
19.88525039
 20
1.3511534004
 11
19.8831348489
 21
0.9851647912
  0
LINE
  5
21C
100
AcDbEntity
  8
0
100
AcDbLine
 62
7
  6
CONTINUOUS
 10
19.8831348489
 20
0.9851647912
 11
19.4767170086
 21
1.0658141206
  0
LINE
  5
21D
100
AcDbEntity
  8
0
100
AcDbLine
 62
7
  6
CONTINUOUS
 10
19.4767170086
 20
1.0658141206
 11
19.4779056764
 21
1.2714536432
  0
CIRCLE
  5
21E
100
AcDbEntity
  8
0
100
AcDbCircle
 62
7
  6
CONTINUOUS
 10
20.2068232291
 20
1.1717972817
 40
0.175742101
  0
CIRCLE
  5
21F
100
AcDbEntity
  8
0
100
AcDbCircle
 62
7
  6
CONTINUOUS
 10
20.2068232291
 20
1.1717972817
 40
0.1005522074
  0
LINE
  5
220
100
AcDbEntity
  8
0
100
AcDbLine
 62
7
  6
CONTINUOUS
 10
20.2077290681
 20
1.3756110529
 11
20.2071171714
 21
1.2379342989
  0
LINE
  5
221
100
AcDbEntity
  8
0
100
AcDbLine
 62
7
  6
CONTINUOUS
 10
20.2077290681
 20
1.2016899681
 11
20.2074674401
 21
1.1428236749
  0
LINE
  5
222
100
AcDbEntity
  8
0
100
AcDbLine
 62
7
  6
CONTINUOUS
 10
20.208634907
 20
1.101141841
 11
20.2080230104
 21
0.963465087
  0
LINE
  5
223
100
AcDbEntity
  8
0
100
AcDbLine
 62
7
  6
CONTINUOUS
 10
20.0066328138
 20
1.1745147986
 11
20.1443095678
 21
1.1739029019
  0
LINE
  5
224
100
AcDbEntity
  8
0
100
AcDbLine
 62
7
  6
CONTINUOUS
 10
20.1832714155
 20
1.1727031207
 11
20.238153505
 21
1.172335442
  0
LINE
  5
225
100
AcDbEntity
  8
0
100
AcDbLine
 62
7
  6
CONTINUOUS
 10
20.2756669918
 20
1.1717972817
 11
20.407916871
 21
1.1712095044
  0
CIRCLE
  5
226
100
AcDbEntity
  8
0
100
AcDbCircle
 62
7
  6
CONTINUOUS
 10
20.7509457401
 20
1.1693297793
 40
0.1722024983
  0
CIRCLE
  5
227
100
AcDbEntity
  8
0
100
AcDbCircle
 62
7
  6
CONTINUOUS
 10
20.7509457401
 20
1.1693297793
 40
0.0985164967
  0
LINE
  5
228
100
AcDbEntity
  8
0
100
AcDbLine
 62
7
  6
CONTINUOUS
 10
20.7169767782
 20
1.170462078
 11
20.7825395137
 21
1.1682766535
  0
LINE
  5
229
100
AcDbEntity
  8
0
100
AcDbLine
 62
7
  6
CONTINUOUS
 10
20.8177513651
 20
1.1693297793
 11
20.947965719
 21
1.1693297793
  0
LINE
  5
22A
100
AcDbEntity
  8
0
100
AcDbLine
 62
7
  6
CONTINUOUS
 10
20.6875370113
 20
1.170462078
 11
20.5573226574
 21
1.170462078
  0
LINE
  5
22B
100
AcDbEntity
  8
0
100
AcDbLine
 62
7
  6
CONTINUOUS
 10
20.7486811426
 20
1.1987695462
 11
20.7486811426
 21
1.1432869085
  0
LINE
  5
22C
100
AcDbEntity
  8
0
100
AcDbLine
 62
7
  6
CONTINUOUS
 10
20.7498134414
 20
1.1059210505
 11
20.7498134414
 21
0.9757066966
  0
LINE
  5
22D
100
AcDbEntity
  8
0
100
AcDbLine
 62
7
  6
CONTINUOUS
 10
20.7486811426
 20
1.2338708068
 11
20.7486811426
 21
1.3640851607
  0
LINE
  5
22E
100
AcDbEntity
  8
0
100
AcDbLine
 62
7
  6
CONTINUOUS
 10
21.0702539817
 20
1.2701043662
 11
21.4790138229
 21
1.3448360823
  0
LINE
  5
22F
100
AcDbEntity
  8
0
100
AcDbLine
 62
7
  6
CONTINUOUS
 10
21.4790138229
 20
1.3448360823
 11
21.4790138229
 21
0.9779712941
  0
LINE
  5
230
100
AcDbEntity
  8
0
100
AcDbLine
 62
7
  6
CONTINUOUS
 10
21.4790138229
 20
0.9779712941
 11
21.069121683
 21
1.0617614
  0
LINE
  5
231
100
AcDbEntity
  8
0
100
AcDbLine
 62
7
  6
CONTINUOUS
 10
21.0702539817
 20
1.2701043662
 11
21.069121683
 21
1.0617614
  0
LINE
  5
232
100
AcDbEntity
  8
0
100
AcDbLine
 62
7
  6
CONTINUOUS
 10
21.4790138229
 20
1.1693297793
 11
21.3159628059
 21
1.1693297793
  0
LINE
  5
233
100
AcDbEntity
  8
0
100
AcDbLine
 62
7
  6
CONTINUOUS
 10
21.2876553377
 20
1.1693297793
 11
21.2502894796
 21
1.1693297793
  0
LINE
  5
234
100
AcDbEntity
  8
0
100
AcDbLine
 62
7
  6
CONTINUOUS
 10
21.2208497126
 20
1.1659328831
 11
21.0713862804
 21
1.1659328831
  0
LINE
  5
235
100
AcDbEntity
  8
0
100
AcDbLine
 62
7
  6
CONTINUOUS
 10
20.4796138713
 20
1.5284908897
 11
20.4766766948
 21
0.9294458646
  0
ENDBLK
  5
236
100
AcDbEntity
  8
0
  6
BYBLOCK
 62
0
100
AcDbBlockEnd
  0
BLOCK
  5
237
100
AcDbEntity
  8
0
100
AcDbBlockBegin
  2
*T1
 70
1
 10
0.0
 20
0.0
  3
*T1
  1

  0
LINE
  5
238
100
AcDbEntity
  8
0
100
AcDbLine
 62
2
  6
CONTINUOUS
 10
9.275
 20
0.0
 11
-0.0
 21
0.0
  0
LINE
  5
239
100
AcDbEntity
  8
0
100
AcDbLine
 62
2
  6
CONTINUOUS
 10
9.275
 20
0.0
 11
9.275
 21
1.25
  0
LINE
  5
23A
100
AcDbEntity
  8
0
100
AcDbLine
 62
2
  6
CONTINUOUS
 10
9.275
 20
0.625
 11
-0.0
 21
0.625
  0
LINE
  5
23B
100
AcDbEntity
  8
0
100
AcDbLine
 62
2
  6
CONTINUOUS
 10
9.275
 20
1.25
 11
-0.0
 21
1.25
  0
LINE
  5
23C
100
AcDbEntity
  8
0
100
AcDbLine
 62
2
  6
CONTINUOUS
 10
6.8
 20
0.0
 11
6.8
 21
1.25
  0
LINE
  5
23D
100
AcDbEntity
  8
0
100
AcDbLine
 62
2
  6
CONTINUOUS
 10
6.4
 20
0.0
 11
6.4
 21
0.625
  0
LINE
  5
23E
100
AcDbEntity
  8
0
100
AcDbLine
 62
2
  6
CONTINUOUS
 10
5.9
 20
0.0
 11
5.9
 21
0.625
  0
LINE
  5
23F
100
AcDbEntity
  8
0
100
AcDbLine
 62
2
  6
CONTINUOUS
 10
5.2
 20
0.0
 11
5.2
 21
0.625
  0
LINE
  5
240
100
AcDbEntity
  8
0
100
AcDbLine
 62
2
  6
CONTINUOUS
 10
4.1
 20
0.0
 11
4.1
 21
1.25
  0
LINE
  5
241
100
AcDbEntity
  8
0
100
AcDbLine
 62
2
  6
CONTINUOUS
 10
-0.0
 20
0.0
 11
-0.0
 21
1.25
  0
MTEXT
  5
242
100
AcDbEntity
  8
0
100
AcDbMText
 62
2
  6
CONTINUOUS
  7
STANDARD
 71
2
 72
1
 10
6.6
 20
0.325
 30
0.0
 11
1.0
 21
0.0
 31
0.0
 44
0.9
  1
2
 40
0.125
 41
0.2
  0
MTEXT
  5
243
100
AcDbEntity
  8
0
100
AcDbMText
 62
2
  6
CONTINUOUS
  7
STANDARD
 71
2
 72
1
 10
6.15
 20
0.325
 30
0.0
 11
1.0
 21
0.0
 31
0.0
 44
0.9
  1
C
 40
0.125
 41
0.2
  0
MTEXT
  5
244
100
AcDbEntity
  8
0
100
AcDbMText
 62
2
  6
CONTINUOUS
  7
STANDARD
 71
2
 72
1
 10
5.55
 20
0.325
 30
0.0
 11
1.0
 21
0.0
 31
0.0
 44
0.9
  1
1.000
 40
0.125
 41
1.0
  0
MTEXT
  5
245
100
AcDbEntity
  8
0
100
AcDbMText
 62
2
  6
CONTINUOUS
  7
STANDARD
 71
2
 72
1
 10
4.65
 20
0.325
 30
0.0
 11
1.0
 21
0.0
 31
0.0
 44
0.9
  1
Jul-04-19
 40
0.125
 41
1.8
  0
MTEXT
  5
246
100
AcDbEntity
  8
0
100
AcDbMText
 62
2
  6
CONTINUOUS
  7
STANDARD
 71
2
 72
1
 10
2.05
 20
0.4625
 30
0.0
 11
1.0
 21
0.0
 31
0.0
 44
0.9
  1
T-11A Sandwich ISO 03\PReducer on  A with reverse flow check
 40
0.125
 41
7.4
  0
MTEXT
  5
247
100
AcDbEntity
  8
0
100
AcDbMText
 62
2
  6
CONTINUOUS
  7
STANDARD
 71
1
 72
1
 10
6.45
 20
0.5625
 30
0.0
 11
1.0
 21
0.0
 31
0.0
 44
0.9
  1
SHEET
 40
0.06
 41
0.48
  0
MTEXT
  5
248
100
AcDbEntity
  8
0
100
AcDbMText
 62
2
  6
CONTINUOUS
  7
STANDARD
 71
1
 72
1
 10
5.95
 20
0.5625
 30
0.0
 11
1.0
 21
0.0
 31
0.0
 44
0.9
  1
DWG SIZE
 40
0.06
 41
0.768
  0
MTEXT
  5
249
100
AcDbEntity
  8
0
100
AcDbMText
 62
2
  6
CONTINUOUS
  7
STANDARD
 71
1
 72
1
 10
5.25
 20
0.5625
 30
0.0
 11
1.0
 21
0.0
 31
0.0
 44
0.9
  1
SCALE
 40
0.06
 41
0.48
  0
MTEXT
  5
24A
100
AcDbEntity
  8
0
100
AcDbMText
 62
2
  6
CONTINUOUS
  7
STANDARD
 71
1
 72
1
 10
4.15
 20
0.5625
 30
0.0
 11
1.0
 21
0.0
 31
0.0
 44
0.9
  1
DATE
 40
0.06
 41
0.384
  0
MTEXT
  5
24B
100
AcDbEntity
  8
0
100
AcDbMText
 62
2
  6
CONTINUOUS
  7
STANDARD
 71
1
 72
1
 10
0.05
 20
0.5625
 30
0.0
 11
1.0
 21
0.0
 31
0.0
 44
0.9
  1
DESCRIPTION
 40
0.06
 41
1.056
  0
MTEXT
  5
24C
100
AcDbEntity
  8
0
100
AcDbMText
 62
2
  6
CONTINUOUS
  7
STANDARD
 71
2
 72
1
 10
5.45
 20
1.0375
 30
0.0
 11
1.0
 21
0.0
 31
0.0
 44
0.9
  1
ALL DIMENSIONS IN INCH\PVIEWS ARE THIRD ANGLE
 40
0.12
 41
4.224
  0
MTEXT
  5
24D
100
AcDbEntity
  8
0
100
AcDbMText
 62
2
  6
CONTINUOUS
  7
STANDARD
 71
2
 72
1
 10
2.05
 20
0.95
 30
0.0
 11
1.0
 21
0.0
 31
0.0
 44
0.9
  1
EB2
 40
0.125
 41
0.6
  0
MTEXT
  5
24E
100
AcDbEntity
  8
0
100
AcDbMText
 62
2
  6
CONTINUOUS
  7
STANDARD
 71
1
 72
1
 10
0.05
 20
1.1875
 30
0.0
 11
1.0
 21
0.0
 31
0.0
 44
0.9
  1
MODEL
 40
0.06
 41
0.48
  0
ENDBLK
  5
24F
100
AcDbEntity
  8
0
  6
BYBLOCK
 62
0
100
AcDbBlockEnd
  0
BLOCK
  5
250
100
AcDbEntity
  8
0
100
AcDbBlockBegin
  2
*T2
 70
1
 10
0.0
 20
0.0
  3
*T2
  1

  0
LINE
  5
251
100
AcDbEntity
  8
0
100
AcDbLine
 62
2
  6
CONTINUOUS
 10
0.0
 20
0.0
 11
9.055
 21
0.0
  0
LINE
  5
252
100
AcDbEntity
  8
0
100
AcDbLine
 62
2
  6
CONTINUOUS
 10
0.0
 20
0.0
 11
0.0
 21
-2.094
  0
LINE
  5
253
100
AcDbEntity
  8
0
100
AcDbLine
 62
2
  6
CONTINUOUS
 10
0.0
 20
-0.344
 11
9.055
 21
-0.344
  0
LINE
  5
254
100
AcDbEntity
  8
0
100
AcDbLine
 62
2
  6
CONTINUOUS
 10
0.0
 20
-0.594
 11
9.055
 21
-0.594
  0
LINE
  5
255
100
AcDbEntity
  8
0
100
AcDbLine
 62
2
  6
CONTINUOUS
 10
0.0
 20
-0.844
 11
9.055
 21
-0.844
  0
LINE
  5
256
100
AcDbEntity
  8
0
100
AcDbLine
 62
2
  6
CONTINUOUS
 10
0.0
 20
-1.094
 11
9.055
 21
-1.094
  0
LINE
  5
257
100
AcDbEntity
  8
0
100
AcDbLine
 62
2
  6
CONTINUOUS
 10
0.0
 20
-1.344
 11
9.055
 21
-1.344
  0
LINE
  5
258
100
AcDbEntity
  8
0
100
AcDbLine
 62
2
  6
CONTINUOUS
 10
0.0
 20
-1.594
 11
9.055
 21
-1.594
  0
LINE
  5
259
100
AcDbEntity
  8
0
100
AcDbLine
 62
2
  6
CONTINUOUS
 10
0.0
 20
-1.844
 11
9.055
 21
-1.844
  0
LINE
  5
25A
100
AcDbEntity
  8
0
100
AcDbLine
 62
2
  6
CONTINUOUS
 10
0.0
 20
-2.094
 11
9.055
 21
-2.094
  0
LINE
  5
25B
100
AcDbEntity
  8
0
100
AcDbLine
 62
2
  6
CONTINUOUS
 10
3.055
 20
0.0
 11
3.055
 21
-2.094
  0
LINE
  5
25C
100
AcDbEntity
  8
0
100
AcDbLine
 62
2
  6
CONTINUOUS
 10
9.055
 20
0.0
 11
9.055
 21
-2.094
  0
MTEXT
  5
25D
100
AcDbEntity
  8
0
100
AcDbMText
 62
2
  6
CONTINUOUS
  7
STANDARD
 71
2
 72
1
 10
1.5275
 20
-0.0995
 30
0.0
 11
1.0
 21
0.0
 31
0.0
 44
0.9
  1
Technical Data
 40
0.145
 41
3.248
  0
MTEXT
  5
25E
100
AcDbEntity
  8
0
100
AcDbMText
 62
2
  6
CONTINUOUS
  7
STANDARD
 71
2
 72
1
 10
4.555
 20
-0.0995
 30
0.0
 11
1.0
 21
0.0
 31
0.0
 44
0.9
  1
U.S. Units
 40
0.145
 41
2.32
  0
MTEXT
  5
25F
100
AcDbEntity
  8
0
100
AcDbMText
 62
2
  6
CONTINUOUS
  7
STANDARD
 71
2
 72
1
 10
7.555
 20
-0.0995
 30
0.0
 11
1.0
 21
0.0
 31
0.0
 44
0.9
  1
Metric Units
 40
0.145
 41
2.784
  0
MTEXT
  5
260
100
AcDbEntity
  8
0
100
AcDbMText
 62
2
  6
CONTINUOUS
  7
STANDARD
 71
2
 72
1
 10
1.5275
 20
-0.4065
 30
0.0
 11
1.0
 21
0.0
 31
0.0
 44
0.9
  1
Cavity
 40
0.125
 41
1.2
  0
MTEXT
  5
261
100
AcDbEntity
  8
0
100
AcDbMText
 62
2
  6
CONTINUOUS
  7
STANDARD
 71
2
 72
1
 10
6.055
 20
-0.4065
 30
0.0
 11
1.0
 21
0.0
 31
0.0
 44
0.9
  1
T-11A
 40
0.125
 41
1.0
  0
MTEXT
  5
262
100
AcDbEntity
  8
0
100
AcDbMText
 62
2
  6
CONTINUOUS
  7
STANDARD
 71
2
 72
1
 10
1.5275
 20
-0.6565
 30
0.0
 11
1.0
 21
0.0
 31
0.0
 44
0.9
  1
Body Features
 40
0.125
 41
2.6
  0
MTEXT
  5
263
100
AcDbEntity
  8
0
100
AcDbMText
 62
2
  6
CONTINUOUS
  7
STANDARD
 71
2
 72
1
 10
6.055
 20
-0.6565
 30
0.0
 11
1.0
 21
0.0
 31
0.0
 44
0.9
  1
Reducer on  A with reverse flow check
 40
0.125
 41
7.4
  0
MTEXT
  5
264
100
AcDbEntity
  8
0
100
AcDbMText
 62
2
  6
CONTINUOUS
  7
STANDARD
 71
2
 72
1
 10
1.5275
 20
-0.9065
 30
0.0
 11
1.0
 21
0.0
 31
0.0
 44
0.9
  1
Body Type
 40
0.125
 41
1.8
  0
MTEXT
  5
265
100
AcDbEntity
  8
0
100
AcDbMText
 62
2
  6
CONTINUOUS
  7
STANDARD
 71
2
 72
1
 10
6.055
 20
-0.9065
 30
0.0
 11
1.0
 21
0.0
 31
0.0
 44
0.9
  1
Sandwich
 40
0.125
 41
1.6
  0
MTEXT
  5
266
100
AcDbEntity
  8
0
100
AcDbMText
 62
2
  6
CONTINUOUS
  7
STANDARD
 71
2
 72
1
 10
1.5275
 20
-1.1565
 30
0.0
 11
1.0
 21
0.0
 31
0.0
 44
0.9
  1
Interface
 40
0.125
 41
1.8
  0
MTEXT
  5
267
100
AcDbEntity
  8
0
100
AcDbMText
 62
2
  6
CONTINUOUS
  7
STANDARD
 71
2
 72
1
 10
6.055
 20
-1.1565
 30
0.0
 11
1.0
 21
0.0
 31
0.0
 44
0.9
  1
ISO 03
 40
0.125
 41
1.2
  0
MTEXT
  5
268
100
AcDbEntity
  8
0
100
AcDbMText
 62
2
  6
CONTINUOUS
  7
STANDARD
 71
2
 72
1
 10
1.5275
 20
-1.4065
 30
0.0
 11
1.0
 21
0.0
 31
0.0
 44
0.9
  1
Open Cavity Quantity
 40
0.125
 41
4.0
  0
MTEXT
  5
269
100
AcDbEntity
  8
0
100
AcDbMText
 62
2
  6
CONTINUOUS
  7
STANDARD
 71
2
 72
1
 10
6.055
 20
-1.4065
 30
0.0
 11
1.0
 21
0.0
 31
0.0
 44
0.9
  1
1
 40
0.125
 41
0.2
  0
MTEXT
  5
26A
100
AcDbEntity
  8
0
100
AcDbMText
 62
2
  6
CONTINUOUS
  7
STANDARD
 71
2
 72
1
 10
1.5275
 20
-1.6565
 30
0.0
 11
1.0
 21
0.0
 31
0.0
 44
0.9
  1
Stack Height
 40
0.125
 41
2.4
  0
MTEXT
  5
26B
100
AcDbEntity
  8
0
100
AcDbMText
 62
2
  6
CONTINUOUS
  7
STANDARD
 71
2
 72
1
 10
4.555
 20
-1.6565
 30
0.0
 11
1.0
 21
0.0
 31
0.0
 44
0.9
  1
1.75 in.
 40
0.125
 41
1.6
  0
MTEXT
  5
26C
100
AcDbEntity
  8
0
100
AcDbMText
 62
2
  6
CONTINUOUS
  7
STANDARD
 71
2
 72
1
 10
7.555
 20
-1.6565
 30
0.0
 11
1.0
 21
0.0
 31
0.0
 44
0.9
  1
44,5 mm
 40
0.125
 41
1.4
  0
MTEXT
  5
26D
100
AcDbEntity
  8
0
100
AcDbMText
 62
2
  6
CONTINUOUS
  7
STANDARD
 71
2
 72
1
 10
1.5275
 20
-1.9065
 30
0.0
 11
1.0
 21
0.0
 31
0.0
 44
0.9
  1
Weight
 40
0.125
 41
1.2
  0
MTEXT
  5
26E
100
AcDbEntity
  8
0
100
AcDbMText
 62
2
  6
CONTINUOUS
  7
STANDARD
 71
2
 72
1
 10
4.555
 20
-1.9065
 30
0.0
 11
1.0
 21
0.0
 31
0.0
 44
0.9
  1
1.228 lb.
 40
0.125
 41
1.8
  0
MTEXT
  5
26F
100
AcDbEntity
  8
0
100
AcDbMText
 62
2
  6
CONTINUOUS
  7
STANDARD
 71
2
 72
1
 10
7.555
 20
-1.9065
 30
0.0
 11
1.0
 21
0.0
 31
0.0
 44
0.9
  1
0,557 kg.
 40
0.125
 41
1.8
  0
ENDBLK
  5
270
100
AcDbEntity
  8
0
  6
BYBLOCK
 62
0
100
AcDbBlockEnd
  0
ENDSEC
  0
SECTION
  2
ENTITIES
  0
IMAGE
  5
271
100
AcDbEntity
  8
0
100
AcDbRasterImage
 62
7
  6
CONTINUOUS
 10
19.2297077316
 20
0.3094318264
 30
0.0
 11
0.0066666667
 21
0.0
 31
0.0
 12
0.0
 22
0.0066666667
 32
0.0
 13
369.0
 23
92.0
340
       42D
 70
9
280
0
281
50
282
50
283
0
360
       427
 71
1
 91
2
 14
-0.5
 24
-0.5
 14
368.5
 24
91.5
  0
INSERT
  5
272
100
AcDbEntity
  8
0
100
AcDbBlockReference
 62
2
  6
CONTINUOUS
  2
SUN_FIRST_THIRD_ANGLE_BL0
 10
20.4816717061
 20
1.2289683772
  0
ACAD_TABLE
  5
273
100
AcDbEntity
  8
0
 62
2
  6
CONTINUOUS
100
AcDbBlockReference
  2
*T1
 10
12.42375
 20
0.30125
 30
0.0
100
AcDbTable
342
       42F
343
211
 11
1.0
 21
0.0
 31
0.0
 90
6
 91
4
 92
6
 93
20
 94
0
 95
0
 96
0
 70
1
 41
0.0
141
0.525
141
0.1
141
0.525
141
0.1
142
4.1
142
1.1
142
0.7
142
0.5
142
0.4
142
2.475
171
1
172
0
173
0
174
0
175
1
176
1
 91
33
178
0
145
0.0
301
CELL_VALUE
 90
4
  1
T-11A Sandwich ISO 03\PReducer on  A with reverse flow check
304
ACVALUE_END
170
2
140
0.125
171
1
172
0
173
0
174
0
175
1
176
1
 91
33
178
0
145
0.0
301
CELL_VALUE
 90
4
  1
Jul-04-19
304
ACVALUE_END
170
5
140
0.125
171
1
172
0
173
0
174
0
175
1
176
1
 91
33
178
0
145
0.0
301
CELL_VALUE
 90
4
  1
1.000
304
ACVALUE_END
170
5
140
0.125
171
1
172
0
173
0
174
0
175
1
176
1
 91
33
178
0
145
0.0
301
CELL_VALUE
 90
4
  1
C
304
ACVALUE_END
170
5
140
0.125
171
1
172
0
173
0
174
0
175
1
176
1
 91
33
178
0
145
0.0
301
CELL_VALUE
 90
4
  1
2
304
ACVALUE_END
170
5
140
0.125
171
1
172
0
173
0
174
0
175
1
176
1
 91
33
178
0
145
0.0
301
CELL_VALUE
 90
4
  1
 
304
ACVALUE_END
170
1
140
0.125
171
1
172
0
173
0
174
0
175
1
176
1
 91
33
178
0
145
0.0
301
CELL_VALUE
 90
4
  1
DESCRIPTION
304
ACVALUE_END
170
1
140
0.06
171
1
172
0
173
0
174
0
175
1
176
1
 91
33
178
0
145
0.0
301
CELL_VALUE
 90
4
  1
DATE
304
ACVALUE_END
170
1
140
0.06
171
1
172
0
173
0
174
0
175
1
176
1
 91
33
178
0
145
0.0
301
CELL_VALUE
 90
4
  1
SCALE
304
ACVALUE_END
170
1
140
0.06
171
1
172
0
173
0
174
0
175
1
176
1
 91
33
178
0
145
0.0
301
CELL_VALUE
 90
4
  1
DWG SIZE
304
ACVALUE_END
170
1
140
0.06
171
1
172
0
173
0
174
0
175
1
176
1
 91
33
178
0
145
0.0
301
CELL_VALUE
 90
4
  1
SHEET
304
ACVALUE_END
170
1
140
0.06
171
1
172
0
173
0
174
0
175
1
176
1
 91
33
178
0
145
0.0
301
CELL_VALUE
 90
4
  1
 
304
ACVALUE_END
170
1
140
0.125
171
1
172
0
173
0
174
0
175
1
176
1
 91
33
178
0
145
0.0
301
CELL_VALUE
 90
4
  1
EB2
304
ACVALUE_END
170
5
140
0.125
171
1
172
0
173
0
174
0
175
4
176
1
 91
33
178
0
145
0.0
301
CELL_VALUE
 90
4
  1
ALL DIMENSIONS IN INCH\PVIEWS ARE THIRD ANGLE
304
ACVALUE_END
170
5
140
0.12
171
1
172
0
173
1
174
0
175
1
176
1
 91
1
178
0
145
0.0
170
1
171
1
172
0
173
1
174
0
175
1
176
1
 91
1
178
0
145
0.0
170
1
171
1
172
0
173
1
174
0
175
1
176
1
 91
1
178
0
145
0.0
170
5
171
1
172
0
173
0
174
0
175
1
176
1
 91
33
178
0
145
0.0
301
CELL_VALUE
 90
4
  1
 
304
ACVALUE_END
170
1
140
0.125
171
1
172
0
173
0
174
0
175
1
176
1
 91
33
178
0
145
0.0
301
CELL_VALUE
 90
4
  1
MODEL
304
ACVALUE_END
170
1
140
0.06
171
1
172
0
173
0
174
0
175
1
176
1
 91
33
178
0
145
0.0
301
CELL_VALUE
 90
4
  1
 
304
ACVALUE_END
170
1
140
0.125
171
1
172
0
173
0
174
0
175
1
176
1
 91
33
178
0
145
0.0
301
CELL_VALUE
 90
4
  1
 
304
ACVALUE_END
170
1
140
0.125
171
1
172
0
173
0
174
0
175
1
176
1
 91
33
178
0
145
0.0
301
CELL_VALUE
 90
4
  1
 
304
ACVALUE_END
170
1
140
0.125
171
1
172
0
173
0
174
0
175
1
176
1
 91
33
178
0
145
0.0
301
CELL_VALUE
 90
4
  1
 
304
ACVALUE_END
170
1
140
0.125
171
1
172
0
173
0
174
0
175
1
176
1
 91
33
178
0
145
0.0
301
CELL_VALUE
 90
4
  1
 
304
ACVALUE_END
170
1
140
0.125
  0
ACAD_TABLE
  5
274
100
AcDbEntity
  8
0
 62
2
  6
CONTINUOUS
100
AcDbBlockReference
  2
*T2
 10
12.4237499994
 20
16.47875
 30
0.0
100
AcDbTable
342
       42E
343
212
 11
1.0
 21
0.0
 31
0.0
 90
22
 91
8
 92
3
 93
16
 94
0
 95
0
 96
0
 41
0.028
141
0.344
141
0.25
141
0.25
141
0.25
141
0.25
141
0.25
141
0.25
141
0.25
142
3.055
142
3.0
142
3.0
171
1
172
0
173
0
174
0
175
1
176
1
 91
33
178
0
145
0.0
301
CELL_VALUE
 90
4
  1
Technical Data
304
ACVALUE_END
170
5
140
0.145
171
1
172
0
173
0
174
0
175
1
176
1
 91
33
178
0
145
0.0
301
CELL_VALUE
 90
4
  1
U.S. Units
304
ACVALUE_END
170
5
140
0.145
171
1
172
0
173
0
174
0
175
1
176
1
 91
33
178
0
145
0.0
301
CELL_VALUE
 90
4
  1
Metric Units
304
ACVALUE_END
170
5
140
0.145
171
1
172
0
173
0
174
0
175
1
176
1
 91
33
178
0
145
0.0
301
CELL_VALUE
 90
4
  1
Cavity
304
ACVALUE_END
170
5
140
0.125
171
1
172
0
173
0
174
0
175
2
176
1
 91
33
178
0
145
0.0
301
CELL_VALUE
 90
4
  1
T-11A
304
ACVALUE_END
170
5
140
0.125
171
1
172
0
173
1
174
0
175
1
176
1
 91
1
178
0
145
0.0
170
1
171
1
172
0
173
0
174
0
175
1
176
1
 91
33
178
0
145
0.0
301
CELL_VALUE
 90
4
  1
Body Features
304
ACVALUE_END
170
5
140
0.125
171
1
172
0
173
0
174
0
175
2
176
1
 91
33
178
0
145
0.0
301
CELL_VALUE
 90
4
  1
Reducer on  A with reverse flow check
304
ACVALUE_END
170
5
140
0.125
171
1
172
0
173
1
174
0
175
1
176
1
 91
1
178
0
145
0.0
170
1
171
1
172
0
173
0
174
0
175
1
176
1
 91
33
178
0
145
0.0
301
CELL_VALUE
 90
4
  1
Body Type
304
ACVALUE_END
170
5
140
0.125
171
1
172
0
173
0
174
0
175
2
176
1
 91
33
178
0
145
0.0
301
CELL_VALUE
 90
4
  1
Sandwich
304
ACVALUE_END
170
5
140
0.125
171
1
172
0
173
1
174
0
175
1
176
1
 91
1
178
0
145
0.0
170
1
171
1
172
0
173
0
174
0
175
1
176
1
 91
33
178
0
145
0.0
301
CELL_VALUE
 90
4
  1
Interface
304
ACVALUE_END
170
5
140
0.125
171
1
172
0
173
0
174
0
175
2
176
1
 91
33
178
0
145
0.0
301
CELL_VALUE
 90
4
  1
ISO 03
304
ACVALUE_END
170
5
140
0.125
171
1
172
0
173
1
174
0
175
1
176
1
 91
1
178
0
145
0.0
170
1
171
1
172
0
173
0
174
0
175
1
176
1
 91
33
178
0
145
0.0
301
CELL_VALUE
 90
4
  1
Open Cavity Quantity
304
ACVALUE_END
170
5
140
0.125
171
1
172
0
173
0
174
0
175
2
176
1
 91
33
178
0
145
0.0
301
CELL_VALUE
 90
4
  1
1
304
ACVALUE_END
170
5
140
0.125
171
1
172
0
173
1
174
0
175
1
176
1
 91
1
178
0
145
0.0
170
1
171
1
172
0
173
0
174
0
175
1
176
1
 91
33
178
0
145
0.0
301
CELL_VALUE
 90
4
  1
Stack Height
304
ACVALUE_END
170
5
140
0.125
171
1
172
0
173
0
174
0
175
1
176
1
 91
33
178
0
145
0.0
301
CELL_VALUE
 90
4
  1
1.75 in.
304
ACVALUE_END
170
5
140
0.125
171
1
172
0
173
0
174
0
175
1
176
1
 91
33
178
0
145
0.0
301
CELL_VALUE
 90
4
  1
44,5 mm
304
ACVALUE_END
170
5
140
0.125
171
1
172
0
173
0
174
0
175
1
176
1
 91
33
178
0
145
0.0
301
CELL_VALUE
 90
4
  1
Weight
304
ACVALUE_END
170
5
140
0.125
171
1
172
0
173
0
174
0
175
1
176
1
 91
33
178
0
145
0.0
301
CELL_VALUE
 90
4
  1
1.228 lb.
304
ACVALUE_END
170
5
140
0.125
171
1
172
0
173
0
174
0
175
1
176
1
 91
33
178
0
145
0.0
301
CELL_VALUE
 90
4
  1
0,557 kg.
304
ACVALUE_END
170
5
140
0.125
  0
MTEXT
  5
275
100
AcDbEntity
  8
0
100
AcDbMText
 62
2
  6
CONTINUOUS
  7
STANDARD
 71
1
 72
1
 10
0.52125
 20
5.75995
 30
0.0
 11
1.0
 21
0.0
 31
0.0
 44
0.6
  3
Notes\P \P1. Stack height value in technical\P   data table includes seal retainer\P   plate.\P2. Important: Carefully consider\P   the maximum system pressure. The\P   pressure rating of the manifold is\P   dependent on the manifold material,\P   wi
  3
th the port type/size a secondary\P   consideration. Manifolds\P   constructed of aluminum are not\P   rated for pressures higher than\P   3000 psi (210 bar), regardless of\P   the port type/size specified.\P3. Items without balloons are\P   shipped 
  1
loose.
 40
0.1
 41
3.04
  0
LINE
  5
276
100
AcDbEntity
  8
0
100
AcDbLine
 62
7
  6
CONTINUOUS
 10
0.30125
 20
0.30125
 11
0.30125
 21
16.69875
  0
LINE
  5
277
100
AcDbEntity
  8
0
100
AcDbLine
 62
7
  6
CONTINUOUS
 10
0.30125
 20
0.30125
 11
21.69875
 21
0.30125
  0
LINE
  5
278
100
AcDbEntity
  8
0
100
AcDbLine
 62
7
  6
CONTINUOUS
 10
0.30125
 20
16.69875
 11
21.69875
 21
16.69875
  0
LINE
  5
279
100
AcDbEntity
  8
0
100
AcDbLine
 62
7
  6
CONTINUOUS
 10
21.69875
 20
0.30125
 11
21.69875
 21
16.69875
  0
LINE
  5
27A
100
AcDbEntity
  8
0
100
AcDbLine
 62
7
  6
CONTINUOUS
 10
10.6576590255
 20
11.1211284457
 11
10.6739832577
 21
11.1291923039
  0
LINE
  5
27B
100
AcDbEntity
  8
0
100
AcDbLine
 62
7
  6
CONTINUOUS
 10
10.3690929413
 20
5.8728180361
 11
11.2142780894
 21
5.814204247
  0
LINE
  5
27C
100
AcDbEntity
  8
0
100
AcDbLine
 62
7
  6
CONTINUOUS
 10
10.3610695575
 20
5.8950117444
 11
11.2062547056
 21
5.8363979553
  0
LINE
  5
27D
100
AcDbEntity
  8
0
100
AcDbLine
 62
7
  6
CONTINUOUS
 10
10.0968392031
 20
5.9627553342
 11
10.1267056295
 21
5.9349614891
  0
LINE
  5
27E
100
AcDbEntity
  8
0
100
AcDbLine
 62
7
  6
CONTINUOUS
 10
10.0968703389
 20
10.2407067423
 11
10.3344660262
 21
10.4702065665
  0
LINE
  5
27F
100
AcDbEntity
  8
0
100
AcDbLine
 62
7
  6
CONTINUOUS
 10
10.1268140413
 20
10.2685738419
 11
10.3644097286
 21
10.4980736661
  0
LINE
  5
280
100
AcDbEntity
  8
0
100
AcDbLine
 62
4
  6
CONTINUOUS
 10
10.3957886385
 20
10.4023833387
 11
10.4035532033
 21
10.4098833328
  0
LINE
  5
281
100
AcDbEntity
  8
0
100
AcDbLine
 62
4
  6
CONTINUOUS
 10
10.4559640155
 20
10.4605082929
 11
10.4598462979
 21
10.4642582899
  0
LINE
  5
282
100
AcDbEntity
  8
0
100
AcDbLine
 62
4
  6
CONTINUOUS
 10
10.4091908386
 20
10.3753288704
 11
10.3975439915
 21
10.3640788792
  0
LINE
  5
283
100
AcDbEntity
  8
0
100
AcDbLine
 62
7
  6
CONTINUOUS
 10
10.3344660262
 20
10.4702065665
 11
10.3354008163
 21
10.4710927095
  0
LINE
  5
284
100
AcDbEntity
  8
0
100
AcDbLine
 62
7
  6
CONTINUOUS
 10
10.3644097286
 20
10.4980736661
 11
10.3652682731
 21
10.4988873834
  0
LINE
  5
285
100
AcDbEntity
  8
0
100
AcDbLine
 62
7
  6
CONTINUOUS
 10
10.3354008163
 20
10.4710927095
 11
10.364402307
 21
10.4980816411
  0
LINE
  5
286
100
AcDbEntity
  8
0
100
AcDbLine
 62
7
  6
CONTINUOUS
 10
10.3644097286
 20
10.4980736661
 11
10.3344660262
 21
10.4702065665
  0
LINE
  5
287
100
AcDbEntity
  8
0
100
AcDbLine
 62
7
  6
CONTINUOUS
 10
10.1268140413
 20
10.2685738419
 11
10.0968703389
 21
10.2407067423
  0
LINE
  5
288
100
AcDbEntity
  8
0
100
AcDbLine
 62
4
  6
CONTINUOUS
 10
10.5757574013
 20
10.4562198276
 11
10.5718751189
 21
10.4524698305
  0
LINE
  5
289
100
AcDbEntity
  8
0
100
AcDbLine
 62
4
  6
CONTINUOUS
 10
10.5194643067
 20
10.4018448704
 11
10.5116997419
 21
10.3943448764
  0
LINE
  5
28A
100
AcDbEntity
  8
0
100
AcDbLine
 62
7
  6
CONTINUOUS
 10
9.934818839
 20
9.3319355583
 11
10.0840925452
 21
9.4761228949
  0
LINE
  5
28B
100
AcDbEntity
  8
0
100
AcDbLine
 62
7
  6
CONTINUOUS
 10
11.6251891351
 20
7.0413745119
 11
9.934818839
 21
7.1586020901
  0
LINE
  5
28C
100
AcDbEntity
  8
0
100
AcDbLine
 62
7
  6
CONTINUOUS
 10
10.3690929413
 20
5.8728180361
 11
10.3610695575
 21
5.8950117444
  0
LINE
  5
28D
100
AcDbEntity
  8
0
100
AcDbLine
 62
7
  6
CONTINUOUS
 10
11.46673725
 20
10.5349876375
 11
11.4764158326
 21
10.5439945747
  0
LINE
  5
28E
100
AcDbEntity
  8
0
100
AcDbLine
 62
7
  6
CONTINUOUS
 10
9.934818839
 20
7.1586020901
 11
9.934818839
 21
9.3319355583
  0
LINE
  5
28F
100
AcDbEntity
  8
0
100
AcDbLine
 62
7
  6
CONTINUOUS
 10
10.3700588672
 20
10.1595303152
 11
10.3620354834
 21
10.1218366188
  0
LINE
  5
290
100
AcDbEntity
  8
0
100
AcDbLine
 62
7
  6
CONTINUOUS
 10
10.0831266194
 20
7.1483169106
 11
10.0831266194
 21
5.9887616726
  0
LINE
  5
291
100
AcDbEntity
  8
0
100
AcDbLine
 62
7
  6
CONTINUOUS
 10
10.0840925452
 20
9.4003451013
 11
10.0840925452
 21
10.215586547
  0
LINE
  5
292
100
AcDbEntity
  8
0
100
AcDbLine
 62
7
  6
CONTINUOUS
 10
11.8741518846
 20
10.3933726919
 11
11.6365561973
 21
10.1638728677
  0
LINE
  5
293
100
AcDbEntity
  8
0
100
AcDbLine
 62
7
  6
CONTINUOUS
 10
10.3610695575
 20
5.8950117444
 11
10.3610695575
 21
7.1290415024
  0
LINE
  5
294
100
AcDbEntity
  8
0
100
AcDbLine
 62
7
  6
CONTINUOUS
 10
10.3620354834
 20
10.1218366188
 11
10.3620354834
 21
9.3065951731
  0
LINE
  5
295
100
AcDbEntity
  8
0
100
AcDbLine
 62
7
  6
CONTINUOUS
 10
11.904095587
 20
10.3613523867
 11
11.6664998996
 21
10.1318525625
  0
LINE
  5
296
100
AcDbEntity
  8
0
100
AcDbLine
 62
7
  6
CONTINUOUS
 10
11.2142780894
 20
5.814204247
 11
11.2062547056
 21
5.8363979553
  0
LINE
  5
297
100
AcDbEntity
  8
0
100
AcDbLine
 62
7
  6
CONTINUOUS
 10
10.5757342211
 20
10.5987460792
 11
10.5757342211
 21
11.019345305
  0
LINE
  5
298
100
AcDbEntity
  8
0
100
AcDbLine
 62
7
  6
CONTINUOUS
 10
10.5910634576
 20
10.5839391992
 11
10.5910634576
 21
11.0045384249
  0
LINE
  5
299
100
AcDbEntity
  8
0
100
AcDbLine
 62
7
  6
CONTINUOUS
 10
10.6273695955
 20
10.3712534155
 11
10.6273695955
 21
10.5495351761
  0
LINE
  5
29A
100
AcDbEntity
  8
0
100
AcDbLine
 62
4
  6
CONTINUOUS
 10
11.9875354878
 20
7.8743374048
 11
11.9564772287
 21
7.877454888
  0
LINE
  5
29B
100
AcDbEntity
  8
0
100
AcDbLine
 62
4
  6
CONTINUOUS
 10
11.8961724478
 20
8.0793150045
 11
11.8651141887
 21
8.0824324843
  0
LINE
  5
29C
100
AcDbEntity
  8
0
100
AcDbLine
 62
4
  6
CONTINUOUS
 10
11.7451701501
 20
8.1652801776
 11
11.7155908552
 21
8.1698262133
  0
LINE
  5
29D
100
AcDbEntity
  8
0
100
AcDbLine
 62
7
  6
CONTINUOUS
 10
10.8999347612
 20
10.5039975247
 11
10.8999347612
 21
10.9245967504
  0
LINE
  5
29E
100
AcDbEntity
  8
0
100
AcDbLine
 62
7
  6
CONTINUOUS
 10
10.9571442066
 20
10.5000300361
 11
10.9571442066
 21
10.9206292619
  0
LINE
  5
29F
100
AcDbEntity
  8
0
100
AcDbLine
 62
7
  6
CONTINUOUS
 10
11.2152440153
 20
10.1009165261
 11
11.2072206315
 21
10.0632228297
  0
LINE
  5
2A0
100
AcDbEntity
  8
0
100
AcDbLine
 62
7
  6
CONTINUOUS
 10
11.904095587
 20
9.546110941
 11
11.6664998996
 21
9.3166111168
  0
LINE
  5
2A1
100
AcDbEntity
  8
0
100
AcDbLine
 62
7
  6
CONTINUOUS
 10
11.6251891351
 20
9.2147079801
 11
12.065181161
 21
9.6397076665
  0
LINE
  5
2A2
100
AcDbEntity
  8
0
100
AcDbLine
 62
4
  6
CONTINUOUS
 10
11.6671177844
 20
9.1363990428
 11
11.6619414091
 21
9.1313990479
  0
LINE
  5
2A3
100
AcDbEntity
  8
0
100
AcDbLine
 62
7
  6
CONTINUOUS
 10
11.2062547056
 20
5.8363979553
 11
11.2062547056
 21
7.0704277133
  0
LINE
  5
2A4
100
AcDbEntity
  8
0
100
AcDbLine
 62
7
  6
CONTINUOUS
 10
11.2072206315
 20
10.0632228297
 11
11.2072206315
 21
9.247981384
  0
LINE
  5
2A5
100
AcDbEntity
  8
0
100
AcDbLine
 62
4
  6
CONTINUOUS
 10
12.0263583116
 20
7.9118373752
 11
12.0074989224
 21
7.9264413229
  0
LINE
  5
2A6
100
AcDbEntity
  8
0
100
AcDbLine
 62
7
  6
CONTINUOUS
 10
11.3790701355
 20
10.5292907505
 11
11.3790701355
 21
10.9498899762
  0
LINE
  5
2A7
100
AcDbEntity
  8
0
100
AcDbLine
 62
4
  6
CONTINUOUS
 10
11.9564772287
 20
9.0586442368
 11
11.9875354878
 21
9.0886442132
  0
LINE
  5
2A8
100
AcDbEntity
  8
0
100
AcDbLine
 62
4
  6
CONTINUOUS
 10
11.9609141226
 20
9.0298125051
 11
11.9830985934
 21
9.0512410597
  0
LINE
  5
2A9
100
AcDbEntity
  8
0
100
AcDbLine
 62
4
  6
CONTINUOUS
 10
11.7355568793
 20
8.7769467629
 11
11.7289015378
 21
8.7705181963
  0
LINE
  5
2AA
100
AcDbEntity
  8
0
100
AcDbLine
 62
4
  6
CONTINUOUS
 10
11.9830985934
 20
8.993285508
 11
11.9609141226
 21
8.9718569534
  0
LINE
  5
2AB
100
AcDbEntity
  8
0
100
AcDbLine
 62
4
  6
CONTINUOUS
 10
11.7244646439
 20
8.7165563774
 11
11.7178093031
 21
8.7101278114
  0
LINE
  5
2AC
100
AcDbEntity
  8
0
100
AcDbLine
 62
4
  6
CONTINUOUS
 10
11.9609141226
 20
8.9387395111
 11
11.9697879104
 21
8.9473109324
  0
LINE
  5
2AD
100
AcDbEntity
  8
0
100
AcDbLine
 62
4
  6
CONTINUOUS
 10
11.9875354878
 20
8.9064982251
 11
11.9564772287
 21
8.8764982487
  0
LINE
  5
2AE
100
AcDbEntity
  8
0
100
AcDbLine
 62
4
  6
CONTINUOUS
 10
11.7355568793
 20
8.6527563266
 11
11.7178093031
 21
8.6356134833
  0
LINE
  5
2AF
100
AcDbEntity
  8
0
100
AcDbLine
 62
4
  6
CONTINUOUS
 10
11.7067170674
 20
8.5835023752
 11
11.7089355153
 21
8.5828854538
  0
LINE
  5
2B0
100
AcDbEntity
  8
0
100
AcDbLine
 62
4
  6
CONTINUOUS
 10
11.7111539613
 20
7.6687786466
 11
11.7067170674
 21
7.6810516658
  0
LINE
  5
2B1
100
AcDbEntity
  8
0
100
AcDbLine
 62
7
  6
CONTINUOUS
 10
11.4209503445
 20
10.540130142
 11
11.4209503445
 21
10.9607293678
  0
LINE
  5
2B2
100
AcDbEntity
  8
0
100
AcDbLine
 62
7
  6
CONTINUOUS
 10
11.4823695955
 20
10.3712580336
 11
11.4823695955
 21
10.5501472045
  0
LINE
  5
2B3
100
AcDbEntity
  8
0
100
AcDbLine
 62
7
  6
CONTINUOUS
 10
11.5340049698
 20
10.6493325308
 11
11.5340049698
 21
11.0699317566
  0
LINE
  5
2B4
100
AcDbEntity
  8
0
100
AcDbLine
 62
4
  6
CONTINUOUS
 10
11.6722941615
 20
9.1631323713
 11
11.6697059739
 21
9.1461434859
  0
LINE
  5
2B5
100
AcDbEntity
  8
0
100
AcDbLine
 62
4
  6
CONTINUOUS
 10
11.6697059739
 20
9.1461434859
 11
11.6671177844
 21
9.1363990428
  0
LINE
  5
2B6
100
AcDbEntity
  8
0
100
AcDbLine
 62
4
  6
CONTINUOUS
 10
11.7377753265
 20
8.6107425739
 11
11.7155908552
 21
8.5893140189
  0
LINE
  5
2B7
100
AcDbEntity
  8
0
100
AcDbLine
 62
4
  6
CONTINUOUS
 10
11.7089355153
 20
8.5828854538
 11
11.7067170674
 21
8.5807425976
  0
LINE
  5
2B8
100
AcDbEntity
  8
0
100
AcDbLine
 62
4
  6
CONTINUOUS
 10
11.9875354878
 20
8.8402632299
 11
11.9564772287
 21
8.8102632535
  0
LINE
  5
2B9
100
AcDbEntity
  8
0
100
AcDbLine
 62
4
  6
CONTINUOUS
 10
11.8961724478
 20
8.7444239743
 11
11.8651141887
 21
8.7144239979
  0
LINE
  5
2BA
100
AcDbEntity
  8
0
100
AcDbLine
 62
4
  6
CONTINUOUS
 10
11.8695510826
 20
8.6717932674
 11
11.8917355535
 21
8.693221822
  0
LINE
  5
2BB
100
AcDbEntity
  8
0
100
AcDbLine
 62
4
  6
CONTINUOUS
 10
11.7355568793
 20
8.5340854455
 11
11.7067170674
 21
8.5062283247
  0
LINE
  5
2BC
100
AcDbEntity
  8
0
100
AcDbLine
 62
4
  6
CONTINUOUS
 10
11.9875354878
 20
8.7740283452
 11
11.9564772287
 21
8.7440283688
  0
LINE
  5
2BD
100
AcDbEntity
  8
0
100
AcDbLine
 62
4
  6
CONTINUOUS
 10
11.7377753265
 20
8.5031108587
 11
11.7155908552
 21
8.4816823036
  0
LINE
  5
2BE
100
AcDbEntity
  8
0
100
AcDbLine
 62
4
  6
CONTINUOUS
 10
11.8961724478
 20
8.6395519814
 11
11.8651141887
 21
8.6095520051
  0
LINE
  5
2BF
100
AcDbEntity
  8
0
100
AcDbLine
 62
4
  6
CONTINUOUS
 10
11.9875354878
 20
8.7160727935
 11
11.9564772287
 21
8.6860728171
  0
LINE
  5
2C0
100
AcDbEntity
  8
0
100
AcDbLine
 62
4
  6
CONTINUOUS
 10
11.7155908552
 20
8.4320060849
 11
11.7355568793
 21
8.4512917844
  0
LINE
  5
2C1
100
AcDbEntity
  8
0
100
AcDbLine
 62
4
  6
CONTINUOUS
 10
11.8695510826
 20
8.5807202734
 11
11.8917355535
 21
8.602148828
  0
LINE
  5
2C2
100
AcDbEntity
  8
0
100
AcDbLine
 62
4
  6
CONTINUOUS
 10
11.9609141226
 20
8.6572410855
 11
11.9830985934
 21
8.67866964
  0
LINE
  5
2C3
100
AcDbEntity
  8
0
100
AcDbLine
 62
4
  6
CONTINUOUS
 10
11.7377753265
 20
8.4203171976
 11
11.7200277491
 21
8.4031743532
  0
LINE
  5
2C4
100
AcDbEntity
  8
0
100
AcDbLine
 62
4
  6
CONTINUOUS
 10
11.8917355535
 20
8.5441932763
 11
11.8695510826
 21
8.5227647217
  0
LINE
  5
2C5
100
AcDbEntity
  8
0
100
AcDbLine
 62
4
  6
CONTINUOUS
 10
11.9830985934
 20
8.6207140883
 11
11.9609141226
 21
8.5992855337
  0
LINE
  5
2C6
100
AcDbEntity
  8
0
100
AcDbLine
 62
4
  6
CONTINUOUS
 10
11.7967860188
 20
8.3683055121
 11
11.8034413605
 21
8.358175344
  0
LINE
  5
2C7
100
AcDbEntity
  8
0
100
AcDbLine
 62
4
  6
CONTINUOUS
 10
11.7377753265
 20
7.735889736
 11
11.7333384321
 21
7.7481627529
  0
LINE
  5
2C8
100
AcDbEntity
  8
0
100
AcDbLine
 62
4
  6
CONTINUOUS
 10
11.7377753265
 20
7.8269627507
 11
11.7333384321
 21
7.8392357608
  0
LINE
  5
2C9
100
AcDbEntity
  8
0
100
AcDbLine
 62
7
  6
CONTINUOUS
 10
11.6251891351
 20
9.2147079801
 11
11.6251891351
 21
7.0413745119
  0
LINE
  5
2CA
100
AcDbEntity
  8
0
100
AcDbLine
 62
4
  6
CONTINUOUS
 10
11.6412359024
 20
9.1693546148
 11
11.6412359024
 21
9.1113990631
  0
LINE
  5
2CB
100
AcDbEntity
  8
0
100
AcDbLine
 62
7
  6
CONTINUOUS
 10
11.6655339738
 20
5.9050276881
 11
11.6655339738
 21
7.0803446358
  0
LINE
  5
2CC
100
AcDbEntity
  8
0
100
AcDbLine
 62
7
  6
CONTINUOUS
 10
11.6664998996
 20
10.1318525625
 11
11.6664998996
 21
9.3166111168
  0
LINE
  5
2CD
100
AcDbEntity
  8
0
100
AcDbLine
 62
4
  6
CONTINUOUS
 10
11.6722941615
 20
9.1776212592
 11
11.6722941615
 21
9.1631323713
  0
LINE
  5
2CE
100
AcDbEntity
  8
0
100
AcDbLine
 62
4
  6
CONTINUOUS
 10
11.7067170674
 20
7.6810516658
 11
11.7067170674
 21
7.7141691237
  0
LINE
  5
2CF
100
AcDbEntity
  8
0
100
AcDbLine
 62
4
  6
CONTINUOUS
 10
11.7067170674
 20
8.5807425976
 11
11.7067170674
 21
8.5835023752
  0
LINE
  5
2D0
100
AcDbEntity
  8
0
100
AcDbLine
 62
4
  6
CONTINUOUS
 10
11.7155908552
 20
8.3906093096
 11
11.7155908552
 21
8.3492124791
  0
LINE
  5
2D1
100
AcDbEntity
  8
0
100
AcDbLine
 62
4
  6
CONTINUOUS
 10
11.7155908552
 20
8.0373563887
 11
11.7155908552
 21
8.0787532193
  0
LINE
  5
2D2
100
AcDbEntity
  8
0
100
AcDbLine
 62
4
  6
CONTINUOUS
 10
11.7155908552
 20
8.2084632662
 11
11.7155908552
 21
8.2415807086
  0
LINE
  5
2D3
100
AcDbEntity
  8
0
100
AcDbLine
 62
4
  6
CONTINUOUS
 10
11.7155908552
 20
8.2746982062
 11
11.7155908552
 21
8.3078156485
  0
LINE
  5
2D4
100
AcDbEntity
  8
0
100
AcDbLine
 62
4
  6
CONTINUOUS
 10
11.7155908552
 20
8.64174996
 11
11.7155908552
 21
8.6748675129
  0
LINE
  5
2D5
100
AcDbEntity
  8
0
100
AcDbLine
 62
4
  6
CONTINUOUS
 10
11.7155908552
 20
8.7162642882
 11
11.7155908552
 21
8.7493817305
  0
LINE
  5
2D6
100
AcDbEntity
  8
0
100
AcDbLine
 62
4
  6
CONTINUOUS
 10
11.7266830908
 20
8.3764854777
 11
11.7266830908
 21
8.4096029201
  0
LINE
  5
2D7
100
AcDbEntity
  8
0
100
AcDbLine
 62
4
  6
CONTINUOUS
 10
11.7377753265
 20
8.6962960679
 11
11.7377753265
 21
8.6631785151
  0
LINE
  5
2D8
100
AcDbEntity
  8
0
100
AcDbLine
 62
4
  6
CONTINUOUS
 10
11.7377753265
 20
8.5610664104
 11
11.7377753265
 21
8.5445076892
  0
LINE
  5
2D9
100
AcDbEntity
  8
0
100
AcDbLine
 62
4
  6
CONTINUOUS
 10
11.7377753265
 20
8.4203171976
 11
11.7377753265
 21
8.3871997553
  0
LINE
  5
2DA
100
AcDbEntity
  8
0
100
AcDbLine
 62
4
  6
CONTINUOUS
 10
11.7377753265
 20
8.2630092636
 11
11.7377753265
 21
8.2298918213
  0
LINE
  5
2DB
100
AcDbEntity
  8
0
100
AcDbLine
 62
4
  6
CONTINUOUS
 10
11.7377753265
 20
7.7027722772
 11
11.7377753265
 21
7.735889736
  0
LINE
  5
2DC
100
AcDbEntity
  8
0
100
AcDbLine
 62
4
  6
CONTINUOUS
 10
11.7377753265
 20
7.8021246483
 11
11.7377753265
 21
7.8269627507
  0
LINE
  5
2DD
100
AcDbEntity
  8
0
100
AcDbLine
 62
4
  6
CONTINUOUS
 10
11.7377753265
 20
8.4617140281
 11
11.7377753265
 21
8.5031108587
  0
LINE
  5
2DE
100
AcDbEntity
  8
0
100
AcDbLine
 62
4
  6
CONTINUOUS
 10
11.7377753265
 20
8.7376928432
 11
11.7377753265
 21
8.7708102855
  0
LINE
  5
2DF
100
AcDbEntity
  8
0
100
AcDbLine
 62
4
  6
CONTINUOUS
 10
11.7451701501
 20
8.1487214564
 11
11.7451701501
 21
8.1652801776
  0
LINE
  5
2E0
100
AcDbEntity
  8
0
100
AcDbLine
 62
4
  6
CONTINUOUS
 10
11.7967860188
 20
8.3931435938
 11
11.7967860188
 21
8.3683055121
  0
LINE
  5
2E1
100
AcDbEntity
  8
0
100
AcDbLine
 62
4
  6
CONTINUOUS
 10
11.7967860188
 20
8.177880122
 11
11.7967860188
 21
8.2275563096
  0
LINE
  5
2E2
100
AcDbEntity
  8
0
100
AcDbLine
 62
4
  6
CONTINUOUS
 10
11.7967860188
 20
8.2606737692
 11
11.7967860188
 21
8.2855118579
  0
LINE
  5
2E3
100
AcDbEntity
  8
0
100
AcDbLine
 62
4
  6
CONTINUOUS
 10
11.7274225732
 20
8.7608102931
 11
11.7259436085
 21
8.7262642806
  0
LINE
  5
2E4
100
AcDbEntity
  8
0
100
AcDbLine
 62
4
  6
CONTINUOUS
 10
11.7377753265
 20
8.3871997553
 11
11.7355568793
 21
8.3684981785
  0
LINE
  5
2E5
100
AcDbEntity
  8
0
100
AcDbLine
 62
4
  6
CONTINUOUS
 10
11.7377753265
 20
8.2298918213
 11
11.7355568793
 21
8.2111902446
  0
LINE
  5
2E6
100
AcDbEntity
  8
0
100
AcDbLine
 62
4
  6
CONTINUOUS
 10
11.7289015378
 20
8.7705181963
 11
11.7274225732
 21
8.7608102931
  0
LINE
  5
2E7
100
AcDbEntity
  8
0
100
AcDbLine
 62
4
  6
CONTINUOUS
 10
11.7259436085
 20
8.7262642806
 11
11.7244646439
 21
8.7165563774
  0
LINE
  5
2E8
100
AcDbEntity
  8
0
100
AcDbLine
 62
4
  6
CONTINUOUS
 10
11.7155908552
 20
8.7493817305
 11
11.7178093031
 21
8.7598039197
  0
LINE
  5
2E9
100
AcDbEntity
  8
0
100
AcDbLine
 62
4
  6
CONTINUOUS
 10
11.7355568793
 20
8.7272706547
 11
11.7377753265
 21
8.7376928432
  0
LINE
  5
2EA
100
AcDbEntity
  8
0
100
AcDbLine
 62
4
  6
CONTINUOUS
 10
11.7377753265
 20
8.6631785151
 11
11.7355568793
 21
8.6527563266
  0
LINE
  5
2EB
100
AcDbEntity
  8
0
100
AcDbLine
 62
4
  6
CONTINUOUS
 10
11.7377753265
 20
8.5445076892
 11
11.7355568793
 21
8.5340854455
  0
LINE
  5
2EC
100
AcDbEntity
  8
0
100
AcDbLine
 62
4
  6
CONTINUOUS
 10
11.7355568793
 20
8.4512917844
 11
11.7377753265
 21
8.4617140281
  0
LINE
  5
2ED
100
AcDbEntity
  8
0
100
AcDbLine
 62
4
  6
CONTINUOUS
 10
11.7155908552
 20
8.0787532193
 11
11.7178093031
 21
8.0891754361
  0
LINE
  5
2EE
100
AcDbEntity
  8
0
100
AcDbLine
 62
4
  6
CONTINUOUS
 10
11.7155908552
 20
8.3078156485
 11
11.7178093031
 21
8.31547806
  0
LINE
  5
2EF
100
AcDbEntity
  8
0
100
AcDbLine
 62
4
  6
CONTINUOUS
 10
11.7200277491
 20
8.4031743532
 11
11.7155908552
 21
8.3906093096
  0
LINE
  5
2F0
100
AcDbEntity
  8
0
100
AcDbLine
 62
4
  6
CONTINUOUS
 10
11.7355568793
 20
8.3684981785
 11
11.7289015378
 21
8.3620696119
  0
LINE
  5
2F1
100
AcDbEntity
  8
0
100
AcDbLine
 62
4
  6
CONTINUOUS
 10
11.8056598065
 20
8.4182737501
 11
11.8012229126
 21
8.4139880395
  0
LINE
  5
2F2
100
AcDbEntity
  8
0
100
AcDbLine
 62
4
  6
CONTINUOUS
 10
11.7178093031
 20
8.31547806
 11
11.7222461969
 21
8.3197637707
  0
LINE
  5
2F3
100
AcDbEntity
  8
0
100
AcDbLine
 62
4
  6
CONTINUOUS
 10
11.8917355535
 20
8.4476007269
 11
11.8695510826
 21
8.4261721723
  0
LINE
  5
2F4
100
AcDbEntity
  8
0
100
AcDbLine
 62
4
  6
CONTINUOUS
 10
11.7377753265
 20
8.2961267612
 11
11.7155908552
 21
8.2746982062
  0
LINE
  5
2F5
100
AcDbEntity
  8
0
100
AcDbLine
 62
4
  6
CONTINUOUS
 10
11.9830985934
 20
8.5241214837
 11
11.9609141226
 21
8.5026929291
  0
LINE
  5
2F6
100
AcDbEntity
  8
0
100
AcDbLine
 62
4
  6
CONTINUOUS
 10
11.7067170674
 20
8.2330092873
 11
11.7377753265
 21
8.2630092636
  0
LINE
  5
2F7
100
AcDbEntity
  8
0
100
AcDbLine
 62
4
  6
CONTINUOUS
 10
11.8167520422
 20
8.3379150198
 11
11.8234073835
 21
8.3443435862
  0
LINE
  5
2F8
100
AcDbEntity
  8
0
100
AcDbLine
 62
4
  6
CONTINUOUS
 10
11.8012229126
 20
8.314635671
 11
11.8078782544
 21
8.3210642379
  0
LINE
  5
2F9
100
AcDbEntity
  8
0
100
AcDbLine
 62
4
  6
CONTINUOUS
 10
11.7355568793
 20
8.2111902446
 11
11.7178093031
 21
8.1940474013
  0
LINE
  5
2FA
100
AcDbEntity
  8
0
100
AcDbLine
 62
4
  6
CONTINUOUS
 10
11.8278442778
 20
8.2906737456
 11
11.7967860188
 21
8.2606737692
  0
LINE
  5
2FB
100
AcDbEntity
  8
0
100
AcDbLine
 62
4
  6
CONTINUOUS
 10
11.9953000525
 20
8.4089569201
 11
12.0263583116
 21
8.4389568965
  0
LINE
  5
2FC
100
AcDbEntity
  8
0
100
AcDbLine
 62
4
  6
CONTINUOUS
 10
11.9875354878
 20
8.3710992608
 11
11.9564772287
 21
8.3410992845
  0
LINE
  5
2FD
100
AcDbEntity
  8
0
100
AcDbLine
 62
4
  6
CONTINUOUS
 10
11.8961724478
 20
8.2780197552
 11
11.8651141887
 21
8.2480197789
  0
LINE
  5
2FE
100
AcDbEntity
  8
0
100
AcDbLine
 62
4
  6
CONTINUOUS
 10
11.8278442778
 20
8.2078800983
 11
11.7967860188
 21
8.177880122
  0
LINE
  5
2FF
100
AcDbEntity
  8
0
100
AcDbLine
 62
4
  6
CONTINUOUS
 10
11.7178093031
 20
8.0891754361
 11
11.7377753265
 21
8.1084611349
  0
LINE
  5
300
100
AcDbEntity
  8
0
100
AcDbLine
 62
4
  6
CONTINUOUS
 10
11.6490004672
 20
9.1696101649
 11
11.6412359024
 21
9.1693546148
  0
LINE
  5
301
100
AcDbEntity
  8
0
100
AcDbLine
 62
7
  6
CONTINUOUS
 10
11.6251891351
 20
9.2147079801
 11
9.934818839
 21
9.3319355583
  0
LINE
  5
302
100
AcDbEntity
  8
0
100
AcDbLine
 62
7
  6
CONTINUOUS
 10
11.2072206315
 20
9.247981384
 11
10.3620354834
 21
9.3065951731
  0
LINE
  5
303
100
AcDbEntity
  8
0
100
AcDbLine
 62
4
  6
CONTINUOUS
 10
11.8278442778
 20
8.3817467535
 11
11.8056598065
 21
8.4182737501
  0
LINE
  5
304
100
AcDbEntity
  8
0
100
AcDbLine
 62
4
  6
CONTINUOUS
 10
11.8917355535
 20
8.0281128938
 11
11.8961724478
 21
8.0158398768
  0
LINE
  5
305
100
AcDbEntity
  8
0
100
AcDbLine
 62
4
  6
CONTINUOUS
 10
11.8078782544
 20
8.3210642379
 11
11.8123151483
 21
8.3087912136
  0
LINE
  5
306
100
AcDbEntity
  8
0
100
AcDbLine
 62
4
  6
CONTINUOUS
 10
11.7178093031
 20
8.6356134833
 11
11.7155908552
 21
8.64174996
  0
LINE
  5
307
100
AcDbEntity
  8
0
100
AcDbLine
 62
4
  6
CONTINUOUS
 10
11.8234073835
 20
8.3443435862
 11
11.8278442778
 21
8.3320705623
  0
LINE
  5
308
100
AcDbEntity
  8
0
100
AcDbLine
 62
4
  6
CONTINUOUS
 10
11.7178093031
 20
8.7101278114
 11
11.7155908552
 21
8.7162642882
  0
LINE
  5
309
100
AcDbEntity
  8
0
100
AcDbLine
 62
4
  6
CONTINUOUS
 10
11.9697879104
 20
8.1055754884
 11
11.9742248052
 21
8.0933024788
  0
LINE
  5
30A
100
AcDbEntity
  8
0
100
AcDbLine
 62
4
  6
CONTINUOUS
 10
11.9609141226
 20
8.1301215371
 11
11.9564772287
 21
8.1423945476
  0
LINE
  5
30B
100
AcDbEntity
  8
0
100
AcDbLine
 62
4
  6
CONTINUOUS
 10
11.7377753265
 20
8.7708102855
 11
11.7355568793
 21
8.7769467629
  0
LINE
  5
30C
100
AcDbEntity
  8
0
100
AcDbLine
 62
4
  6
CONTINUOUS
 10
11.8695510826
 20
8.4261721723
 11
11.8651141887
 21
8.4384451828
  0
LINE
  5
30D
100
AcDbEntity
  8
0
100
AcDbLine
 62
4
  6
CONTINUOUS
 10
11.9997369464
 20
8.0682691258
 11
11.9953000525
 21
8.0805421501
  0
LINE
  5
30E
100
AcDbEntity
  8
0
100
AcDbLine
 62
4
  6
CONTINUOUS
 10
11.6593532196
 20
9.1361434926
 11
11.6541768434
 21
9.1601212727
  0
LINE
  5
30F
100
AcDbEntity
  8
0
100
AcDbLine
 62
4
  6
CONTINUOUS
 10
11.7178093031
 20
8.1940474013
 11
11.7155908552
 21
8.2084632662
  0
LINE
  5
310
100
AcDbEntity
  8
0
100
AcDbLine
 62
4
  6
CONTINUOUS
 10
11.7289015378
 20
8.3620696119
 11
11.7266830908
 21
8.3764854777
  0
LINE
  5
311
100
AcDbEntity
  8
0
100
AcDbLine
 62
4
  6
CONTINUOUS
 10
11.8769459058
 20
7.9337933379
 11
11.8828617652
 21
7.895351008
  0
LINE
  5
312
100
AcDbEntity
  8
0
100
AcDbLine
 62
4
  6
CONTINUOUS
 10
11.8100967004
 20
8.2238547135
 11
11.8100967004
 21
8.1907372539
  0
LINE
  5
313
100
AcDbEntity
  8
0
100
AcDbLine
 62
4
  6
CONTINUOUS
 10
11.8123151483
 20
8.2756737574
 11
11.8123151483
 21
8.3170705741
  0
LINE
  5
314
100
AcDbEntity
  8
0
100
AcDbLine
 62
4
  6
CONTINUOUS
 10
11.8278442778
 20
8.4397023052
 11
11.8278442778
 21
8.3817467535
  0
LINE
  5
315
100
AcDbEntity
  8
0
100
AcDbLine
 62
4
  6
CONTINUOUS
 10
11.8278442778
 20
8.3320705623
 11
11.8278442778
 21
8.2906737456
  0
LINE
  5
316
100
AcDbEntity
  8
0
100
AcDbLine
 62
4
  6
CONTINUOUS
 10
11.8278442778
 20
8.2078800983
 11
11.8278442778
 21
8.257556286
  0
LINE
  5
317
100
AcDbEntity
  8
0
100
AcDbLine
 62
4
  6
CONTINUOUS
 10
11.8651141887
 20
7.9444430837
 11
11.8651141887
 21
7.9858399004
  0
LINE
  5
318
100
AcDbEntity
  8
0
100
AcDbLine
 62
4
  6
CONTINUOUS
 10
11.8651141887
 20
8.1486673966
 11
11.8651141887
 21
8.2149023089
  0
LINE
  5
319
100
AcDbEntity
  8
0
100
AcDbLine
 62
4
  6
CONTINUOUS
 10
11.8651141887
 20
8.2480197789
 11
11.8651141887
 21
8.29769597
  0
LINE
  5
31A
100
AcDbEntity
  8
0
100
AcDbLine
 62
4
  6
CONTINUOUS
 10
11.8651141887
 20
8.4384451828
 11
11.8651141887
 21
8.4715626252
  0
LINE
  5
31B
100
AcDbEntity
  8
0
100
AcDbLine
 62
4
  6
CONTINUOUS
 10
11.8651141887
 20
8.5350377322
 11
11.8651141887
 21
8.5598758416
  0
LINE
  5
31C
100
AcDbEntity
  8
0
100
AcDbLine
 62
4
  6
CONTINUOUS
 10
11.8651141887
 20
8.6095520051
 11
11.8651141887
 21
8.6509488356
  0
LINE
  5
31D
100
AcDbEntity
  8
0
100
AcDbLine
 62
4
  6
CONTINUOUS
 10
11.8651141887
 20
8.7144239979
 11
11.8651141887
 21
8.7641001614
  0
LINE
  5
31E
100
AcDbEntity
  8
0
100
AcDbLine
 62
4
  6
CONTINUOUS
 10
11.8784248704
 20
8.7603985722
 11
11.8784248704
 21
8.7272811299
  0
LINE
  5
31F
100
AcDbEntity
  8
0
100
AcDbLine
 62
4
  6
CONTINUOUS
 10
11.8784248704
 20
8.2939943808
 11
11.8784248704
 21
8.2608769108
  0
LINE
  5
320
100
AcDbEntity
  8
0
100
AcDbLine
 62
4
  6
CONTINUOUS
 10
11.8872986591
 20
8.0817827344
 11
11.8872986591
 21
8.1259393426
  0
LINE
  5
321
100
AcDbEntity
  8
0
100
AcDbLine
 62
4
  6
CONTINUOUS
 10
11.8961724478
 20
8.680948812
 11
11.8961724478
 21
8.6395519814
  0
LINE
  5
322
100
AcDbEntity
  8
0
100
AcDbLine
 62
4
  6
CONTINUOUS
 10
11.8961724478
 20
8.5898758179
 11
11.8961724478
 21
8.5650377085
  0
LINE
  5
323
100
AcDbEntity
  8
0
100
AcDbLine
 62
4
  6
CONTINUOUS
 10
11.8961724478
 20
8.5015626015
 11
11.8961724478
 21
8.4684451592
  0
LINE
  5
324
100
AcDbEntity
  8
0
100
AcDbLine
 62
4
  6
CONTINUOUS
 10
11.8961724478
 20
8.0158398768
 11
11.8961724478
 21
7.9744430601
  0
LINE
  5
325
100
AcDbEntity
  8
0
100
AcDbLine
 62
4
  6
CONTINUOUS
 10
11.8961724478
 20
8.2780197552
 11
11.8961724478
 21
8.3276959464
  0
LINE
  5
326
100
AcDbEntity
  8
0
100
AcDbLine
 62
4
  6
CONTINUOUS
 10
11.8961724478
 20
8.7444239743
 11
11.8961724478
 21
8.7941001378
  0
LINE
  5
327
100
AcDbEntity
  8
0
100
AcDbLine
 62
7
  6
CONTINUOUS
 10
11.9031296611
 20
6.1345275123
 11
11.9031296611
 21
7.30984446
  0
LINE
  5
328
100
AcDbEntity
  8
0
100
AcDbLine
 62
7
  6
CONTINUOUS
 10
11.904095587
 20
10.3613523867
 11
11.904095587
 21
9.546110941
  0
LINE
  5
329
100
AcDbEntity
  8
0
100
AcDbLine
 62
7
  6
CONTINUOUS
 10
11.9159074548
 20
7.3221868617
 11
11.9159074548
 21
6.1596477077
  0
LINE
  5
32A
100
AcDbEntity
  8
0
100
AcDbLine
 62
7
  6
CONTINUOUS
 10
11.9168733806
 20
9.5712311364
 11
11.9168733806
 21
10.3864725821
  0
LINE
  5
32B
100
AcDbEntity
  8
0
100
AcDbLine
 62
4
  6
CONTINUOUS
 10
11.9564772287
 20
8.0347628186
 11
11.9564772287
 21
8.0761596353
  0
LINE
  5
32C
100
AcDbEntity
  8
0
100
AcDbLine
 62
4
  6
CONTINUOUS
 10
11.9564772287
 20
8.1423945476
 11
11.9564772287
 21
8.167232657
  0
LINE
  5
32D
100
AcDbEntity
  8
0
100
AcDbLine
 62
4
  6
CONTINUOUS
 10
11.9564772287
 20
8.2169088205
 11
11.9564772287
 21
8.258305651
  0
LINE
  5
32E
100
AcDbEntity
  8
0
100
AcDbLine
 62
4
  6
CONTINUOUS
 10
11.9564772287
 20
8.3079818422
 11
11.9564772287
 21
8.3742167821
  0
LINE
  5
32F
100
AcDbEntity
  8
0
100
AcDbLine
 62
4
  6
CONTINUOUS
 10
11.9564772287
 20
8.5149659396
 11
11.9564772287
 21
8.5480834372
  0
LINE
  5
330
100
AcDbEntity
  8
0
100
AcDbLine
 62
4
  6
CONTINUOUS
 10
11.9564772287
 20
8.6115585442
 11
11.9564772287
 21
8.6363966536
  0
LINE
  5
331
100
AcDbEntity
  8
0
100
AcDbLine
 62
4
  6
CONTINUOUS
 10
11.9564772287
 20
8.7771458112
 11
11.9564772287
 21
8.8433806958
  0
LINE
  5
332
100
AcDbEntity
  8
0
100
AcDbLine
 62
4
  6
CONTINUOUS
 10
11.9564772287
 20
8.8764982487
 11
11.9564772287
 21
8.917895024
  0
LINE
  5
333
100
AcDbEntity
  8
0
100
AcDbLine
 62
4
  6
CONTINUOUS
 10
11.9564772287
 20
8.9841299087
 11
11.9564772287
 21
9.008968018
  0
LINE
  5
334
100
AcDbEntity
  8
0
100
AcDbLine
 62
4
  6
CONTINUOUS
 10
11.9742248052
 20
8.9350378675
 11
11.9742248052
 21
8.8936410922
  0
LINE
  5
335
100
AcDbEntity
  8
0
100
AcDbLine
 62
4
  6
CONTINUOUS
 10
11.9742248052
 20
8.2754484945
 11
11.9742248052
 21
8.234051664
  0
LINE
  5
336
100
AcDbEntity
  8
0
100
AcDbLine
 62
4
  6
CONTINUOUS
 10
11.9742248052
 20
8.0933024788
 11
11.9742248052
 21
8.0519056621
  0
LINE
  5
337
100
AcDbEntity
  8
0
100
AcDbLine
 62
4
  6
CONTINUOUS
 10
11.9786616991
 20
7.8768051355
 11
11.9786616991
 21
7.9209617463
  0
LINE
  5
338
100
AcDbEntity
  8
0
100
AcDbLine
 62
4
  6
CONTINUOUS
 10
11.9875354878
 20
9.0389679944
 11
11.9875354878
 21
9.014129885
  0
LINE
  5
339
100
AcDbEntity
  8
0
100
AcDbLine
 62
4
  6
CONTINUOUS
 10
11.9875354878
 20
8.66639663
 11
11.9875354878
 21
8.6415585206
  0
LINE
  5
33A
100
AcDbEntity
  8
0
100
AcDbLine
 62
4
  6
CONTINUOUS
 10
11.9875354878
 20
8.5780834136
 11
11.9875354878
 21
8.544965916
  0
LINE
  5
33B
100
AcDbEntity
  8
0
100
AcDbLine
 62
4
  6
CONTINUOUS
 10
11.9875354878
 20
8.1972326333
 11
11.9875354878
 21
8.1723945239
  0
LINE
  5
33C
100
AcDbEntity
  8
0
100
AcDbLine
 62
4
  6
CONTINUOUS
 10
11.9875354878
 20
9.0886442132
 11
11.9875354878
 21
9.1300409884
  0
LINE
  5
33D
100
AcDbEntity
  8
0
100
AcDbLine
 62
4
  6
CONTINUOUS
 10
11.7967860188
 20
8.2855118579
 11
11.797525502
 21
8.2945055114
  0
LINE
  5
33E
100
AcDbEntity
  8
0
100
AcDbLine
 62
4
  6
CONTINUOUS
 10
11.8769459058
 20
8.8086461655
 11
11.8828617652
 21
8.8585170554
  0
LINE
  5
33F
100
AcDbEntity
  8
0
100
AcDbLine
 62
4
  6
CONTINUOUS
 10
11.8828617652
 20
7.895351008
 11
11.8887776242
 21
7.945221901
  0
LINE
  5
340
100
AcDbEntity
  8
0
100
AcDbLine
 62
4
  6
CONTINUOUS
 10
11.797525502
 20
8.2945055114
 11
11.8012229126
 21
8.314635671
  0
LINE
  5
341
100
AcDbEntity
  8
0
100
AcDbLine
 62
4
  6
CONTINUOUS
 10
11.7289015378
 20
7.7438770418
 11
11.7155908552
 21
7.6730643573
  0
LINE
  5
342
100
AcDbEntity
  8
0
100
AcDbLine
 62
4
  6
CONTINUOUS
 10
11.8012229126
 20
8.4139880395
 11
11.7967860188
 21
8.3931435938
  0
LINE
  5
343
100
AcDbEntity
  8
0
100
AcDbLine
 62
4
  6
CONTINUOUS
 10
11.8651141887
 20
8.6509488356
 11
11.8695510826
 21
8.6717932674
  0
LINE
  5
344
100
AcDbEntity
  8
0
100
AcDbLine
 62
4
  6
CONTINUOUS
 10
11.9564772287
 20
9.008968018
 11
11.9609141226
 21
9.0298125051
  0
LINE
  5
345
100
AcDbEntity
  8
0
100
AcDbLine
 62
4
  6
CONTINUOUS
 10
11.8123151483
 20
8.3170705741
 11
11.8167520422
 21
8.3379150198
  0
LINE
  5
346
100
AcDbEntity
  8
0
100
AcDbLine
 62
4
  6
CONTINUOUS
 10
11.8651141887
 20
8.5598758416
 11
11.8695510826
 21
8.5807202734
  0
LINE
  5
347
100
AcDbEntity
  8
0
100
AcDbLine
 62
4
  6
CONTINUOUS
 10
11.9564772287
 20
8.917895024
 11
11.9609141226
 21
8.9387395111
  0
LINE
  5
348
100
AcDbEntity
  8
0
100
AcDbLine
 62
4
  6
CONTINUOUS
 10
11.7067170674
 20
7.7141691237
 11
11.7089355153
 21
7.7245913439
  0
LINE
  5
349
100
AcDbEntity
  8
0
100
AcDbLine
 62
4
  6
CONTINUOUS
 10
11.9875354878
 20
9.014129885
 11
11.9830985934
 21
8.993285508
  0
LINE
  5
34A
100
AcDbEntity
  8
0
100
AcDbLine
 62
4
  6
CONTINUOUS
 10
11.8961724478
 20
8.5650377085
 11
11.8917355535
 21
8.5441932763
  0
LINE
  5
34B
100
AcDbEntity
  8
0
100
AcDbLine
 62
4
  6
CONTINUOUS
 10
11.7333384321
 20
7.7812802091
 11
11.7377753265
 21
7.8021246483
  0
LINE
  5
34C
100
AcDbEntity
  8
0
100
AcDbLine
 62
4
  6
CONTINUOUS
 10
11.8961724478
 20
8.4684451592
 11
11.8917355535
 21
8.4476007269
  0
LINE
  5
34D
100
AcDbEntity
  8
0
100
AcDbLine
 62
4
  6
CONTINUOUS
 10
11.7355568793
 20
7.6923500568
 11
11.7377753265
 21
7.7027722772
  0
LINE
  5
34E
100
AcDbEntity
  8
0
100
AcDbLine
 62
4
  6
CONTINUOUS
 10
11.9564772287
 20
8.6363966536
 11
11.9609141226
 21
8.6572410855
  0
LINE
  5
34F
100
AcDbEntity
  8
0
100
AcDbLine
 62
4
  6
CONTINUOUS
 10
11.9875354878
 20
8.6415585206
 11
11.9830985934
 21
8.6207140883
  0
LINE
  5
350
100
AcDbEntity
  8
0
100
AcDbLine
 62
4
  6
CONTINUOUS
 10
11.8651141887
 20
7.9858399004
 11
11.8695510826
 21
8.0066843392
  0
LINE
  5
351
100
AcDbEntity
  8
0
100
AcDbLine
 62
4
  6
CONTINUOUS
 10
11.9875354878
 20
8.544965916
 11
11.9830985934
 21
8.5241214837
  0
LINE
  5
352
100
AcDbEntity
  8
0
100
AcDbLine
 62
4
  6
CONTINUOUS
 10
11.9564772287
 20
8.258305651
 11
11.9609141226
 21
8.2791500828
  0
LINE
  5
353
100
AcDbEntity
  8
0
100
AcDbLine
 62
4
  6
CONTINUOUS
 10
11.9742248052
 20
8.9184790911
 11
11.9875354878
 21
8.9644537768
  0
LINE
  5
354
100
AcDbEntity
  8
0
100
AcDbLine
 62
4
  6
CONTINUOUS
 10
11.9564772287
 20
8.6860728171
 11
11.9875354878
 21
8.7740283452
  0
LINE
  5
355
100
AcDbEntity
  8
0
100
AcDbLine
 62
4
  6
CONTINUOUS
 10
11.7067170674
 20
7.8466389517
 11
11.7377753265
 21
7.9345944798
  0
LINE
  5
356
100
AcDbEntity
  8
0
100
AcDbLine
 62
4
  6
CONTINUOUS
 10
11.7155908552
 20
8.1201500498
 11
11.7377753265
 21
8.1664167143
  0
LINE
  5
357
100
AcDbEntity
  8
0
100
AcDbLine
 62
4
  6
CONTINUOUS
 10
11.8651141887
 20
8.0824324843
 11
11.8961724478
 21
8.1455499306
  0
LINE
  5
358
100
AcDbEntity
  8
0
100
AcDbLine
 62
4
  6
CONTINUOUS
 10
12.0263583116
 20
8.3810013447
 11
11.9953000525
 21
8.3510013684
  0
LINE
  5
359
100
AcDbEntity
  8
0
100
AcDbLine
 62
4
  6
CONTINUOUS
 10
11.9609141226
 20
8.2791500828
 11
11.9697879104
 21
8.2877215041
  0
LINE
  5
35A
100
AcDbEntity
  8
0
100
AcDbLine
 62
4
  6
CONTINUOUS
 10
11.8961724478
 20
8.2117848429
 11
11.8651141887
 21
8.1817848666
  0
LINE
  5
35B
100
AcDbEntity
  8
0
100
AcDbLine
 62
4
  6
CONTINUOUS
 10
11.7377753265
 20
8.0587849438
 11
11.7067170674
 21
8.0287849674
  0
LINE
  5
35C
100
AcDbEntity
  8
0
100
AcDbLine
 62
4
  6
CONTINUOUS
 10
12.0219214173
 20
8.2801230567
 11
11.9997369464
 21
8.2586945021
  0
LINE
  5
35D
100
AcDbEntity
  8
0
100
AcDbLine
 62
4
  6
CONTINUOUS
 10
11.9875354878
 20
8.2469087968
 11
11.9564772287
 21
8.2169088205
  0
LINE
  5
35E
100
AcDbEntity
  8
0
100
AcDbLine
 62
4
  6
CONTINUOUS
 10
11.9609141226
 20
8.1880770888
 11
11.9830985934
 21
8.2095056434
  0
LINE
  5
35F
100
AcDbEntity
  8
0
100
AcDbLine
 62
4
  6
CONTINUOUS
 10
12.0263583116
 20
8.2181738555
 11
11.9953000525
 21
8.1881738791
  0
LINE
  5
360
100
AcDbEntity
  8
0
100
AcDbLine
 62
4
  6
CONTINUOUS
 10
11.7377753265
 20
7.9345944798
 11
11.7067170674
 21
7.9045945034
  0
LINE
  5
361
100
AcDbEntity
  8
0
100
AcDbLine
 62
4
  6
CONTINUOUS
 10
11.9830985934
 20
8.1515500917
 11
11.9609141226
 21
8.1301215371
  0
LINE
  5
362
100
AcDbEntity
  8
0
100
AcDbLine
 62
4
  6
CONTINUOUS
 10
11.9609141226
 20
8.0970040671
 11
11.9697879104
 21
8.1055754884
  0
LINE
  5
363
100
AcDbEntity
  8
0
100
AcDbLine
 62
4
  6
CONTINUOUS
 10
11.8695510826
 20
8.0066843392
 11
11.8917355535
 21
8.0281128938
  0
LINE
  5
364
100
AcDbEntity
  8
0
100
AcDbLine
 62
4
  6
CONTINUOUS
 10
11.7377753265
 20
7.8766389281
 11
11.7067170674
 21
7.8466389517
  0
LINE
  5
365
100
AcDbEntity
  8
0
100
AcDbLine
 62
4
  6
CONTINUOUS
 10
11.9997369464
 20
8.1262246775
 11
12.0219214173
 21
8.1476532321
  0
LINE
  5
366
100
AcDbEntity
  8
0
100
AcDbLine
 62
4
  6
CONTINUOUS
 10
11.7333384321
 20
7.8392357608
 11
11.7067170674
 21
7.8135214956
  0
LINE
  5
367
100
AcDbEntity
  8
0
100
AcDbLine
 62
4
  6
CONTINUOUS
 10
11.6619414091
 20
9.1313990479
 11
11.6593532196
 21
9.1361434926
  0
LINE
  5
368
100
AcDbEntity
  8
0
100
AcDbLine
 62
4
  6
CONTINUOUS
 10
11.6541768434
 20
9.1601212727
 11
11.6490004672
 21
9.1696101649
  0
LINE
  5
369
100
AcDbEntity
  8
0
100
AcDbLine
 62
4
  6
CONTINUOUS
 10
11.6671177844
 20
9.1943545945
 11
11.6697059739
 21
9.1896101497
  0
LINE
  5
36A
100
AcDbEntity
  8
0
100
AcDbLine
 62
4
  6
CONTINUOUS
 10
11.8695510826
 20
8.5227647217
 11
11.8651141887
 21
8.5350377322
  0
LINE
  5
36B
100
AcDbEntity
  8
0
100
AcDbLine
 62
4
  6
CONTINUOUS
 10
11.9830985934
 20
8.2095056434
 11
11.9875354878
 21
8.1972326333
  0
LINE
  5
36C
100
AcDbEntity
  8
0
100
AcDbLine
 62
4
  6
CONTINUOUS
 10
11.9697879104
 20
8.2877215041
 11
11.9742248052
 21
8.2754484945
  0
LINE
  5
36D
100
AcDbEntity
  8
0
100
AcDbLine
 62
4
  6
CONTINUOUS
 10
12.0219214173
 20
8.1476532321
 11
12.0263583116
 21
8.135380222
  0
LINE
  5
36E
100
AcDbEntity
  8
0
100
AcDbLine
 62
4
  6
CONTINUOUS
 10
11.9997369464
 20
8.2586945021
 11
11.9953000525
 21
8.2709675402
  0
LINE
  5
36F
100
AcDbEntity
  8
0
100
AcDbLine
 62
4
  6
CONTINUOUS
 10
11.8917355535
 20
8.602148828
 11
11.8961724478
 21
8.5898758179
  0
LINE
  5
370
100
AcDbEntity
  8
0
100
AcDbLine
 62
4
  6
CONTINUOUS
 10
11.8917355535
 20
8.693221822
 11
11.8961724478
 21
8.680948812
  0
LINE
  5
371
100
AcDbEntity
  8
0
100
AcDbLine
 62
4
  6
CONTINUOUS
 10
11.9609141226
 20
8.5026929291
 11
11.9564772287
 21
8.5149659396
  0
LINE
  5
372
100
AcDbEntity
  8
0
100
AcDbLine
 62
4
  6
CONTINUOUS
 10
11.9609141226
 20
8.5992855337
 11
11.9564772287
 21
8.6115585442
  0
LINE
  5
373
100
AcDbEntity
  8
0
100
AcDbLine
 62
4
  6
CONTINUOUS
 10
11.9830985934
 20
8.67866964
 11
11.9875354878
 21
8.66639663
  0
LINE
  5
374
100
AcDbEntity
  8
0
100
AcDbLine
 62
4
  6
CONTINUOUS
 10
11.6697059739
 20
9.1896101497
 11
11.6722941615
 21
9.1776212592
  0
LINE
  5
375
100
AcDbEntity
  8
0
100
AcDbLine
 62
4
  6
CONTINUOUS
 10
11.8828617652
 20
8.8585170554
 11
11.8887776242
 21
8.8200747285
  0
LINE
  5
376
100
AcDbEntity
  8
0
100
AcDbLine
 62
4
  6
CONTINUOUS
 10
11.9914177702
 20
7.8780874018
 11
11.9914177702
 21
8.3996873673
  0
LINE
  5
377
100
AcDbEntity
  8
0
100
AcDbLine
 62
4
  6
CONTINUOUS
 10
11.9953000525
 20
8.0805421501
 11
11.9953000525
 21
8.1053802457
  0
LINE
  5
378
100
AcDbEntity
  8
0
100
AcDbLine
 62
4
  6
CONTINUOUS
 10
11.9953000525
 20
8.1550564368
 11
11.9953000525
 21
8.2212913491
  0
LINE
  5
379
100
AcDbEntity
  8
0
100
AcDbLine
 62
4
  6
CONTINUOUS
 10
11.9953000525
 20
8.2709675402
 11
11.9953000525
 21
8.3040849826
  0
LINE
  5
37A
100
AcDbEntity
  8
0
100
AcDbLine
 62
4
  6
CONTINUOUS
 10
12.0086107342
 20
8.3638585004
 11
12.0086107342
 21
8.4218140521
  0
LINE
  5
37B
100
AcDbEntity
  8
0
100
AcDbLine
 62
4
  6
CONTINUOUS
 10
12.0263583116
 20
8.3340849589
 11
12.0263583116
 21
8.3009675166
  0
LINE
  5
37C
100
AcDbEntity
  8
0
100
AcDbLine
 62
4
  6
CONTINUOUS
 10
12.0263583116
 20
8.135380222
 11
12.0263583116
 21
8.1105421264
  0
LINE
  5
37D
100
AcDbEntity
  8
0
100
AcDbLine
 62
7
  6
CONTINUOUS
 10
12.065181161
 20
9.6397076665
 11
12.065181161
 21
7.4663741983
  0
LINE
  5
37E
100
AcDbEntity
  8
0
100
AcDbLine
 62
4
  6
CONTINUOUS
 10
11.9564772287
 20
8.167232657
 11
11.9609141226
 21
8.1880770888
  0
LINE
  5
37F
100
AcDbEntity
  8
0
100
AcDbLine
 62
4
  6
CONTINUOUS
 10
11.9564772287
 20
8.0761596353
 11
11.9609141226
 21
8.0970040671
  0
LINE
  5
380
100
AcDbEntity
  8
0
100
AcDbLine
 62
4
  6
CONTINUOUS
 10
11.9875354878
 20
8.1723945239
 11
11.9830985934
 21
8.1515500917
  0
LINE
  5
381
100
AcDbEntity
  8
0
100
AcDbLine
 62
4
  6
CONTINUOUS
 10
12.0263583116
 20
8.3009675166
 11
12.0219214173
 21
8.2801230567
  0
LINE
  5
382
100
AcDbEntity
  8
0
100
AcDbLine
 62
4
  6
CONTINUOUS
 10
11.9953000525
 20
8.1053802457
 11
11.9997369464
 21
8.1262246775
  0
LINE
  5
383
100
AcDbEntity
  8
0
100
AcDbLine
 62
4
  6
CONTINUOUS
 10
12.0263583116
 20
8.1105421264
 11
12.0219214173
 21
8.0896976804
  0
LINE
  5
384
100
AcDbEntity
  8
0
100
AcDbLine
 62
4
  6
CONTINUOUS
 10
11.9742248052
 20
8.2588897734
 11
11.9875354878
 21
8.3048643485
  0
LINE
  5
385
100
AcDbEntity
  8
0
100
AcDbLine
 62
4
  6
CONTINUOUS
 10
11.9953000525
 20
7.9729104072
 11
12.0263583116
 21
8.0608659353
  0
LINE
  5
386
100
AcDbEntity
  8
0
100
AcDbLine
 62
4
  6
CONTINUOUS
 10
12.0263583116
 20
7.9118373752
 11
12.0074989224
 21
7.8607998832
  0
LINE
  5
387
100
AcDbEntity
  8
0
100
AcDbLine
 62
4
  6
CONTINUOUS
 10
11.9564772287
 20
7.877454888
 11
11.9875354878
 21
7.940572324
  0
LINE
  5
388
100
AcDbEntity
  8
0
100
AcDbLine
 62
4
  6
CONTINUOUS
 10
11.9875354878
 20
8.0647627949
 11
11.9564772287
 21
8.0347628186
  0
LINE
  5
389
100
AcDbEntity
  8
0
100
AcDbLine
 62
4
  6
CONTINUOUS
 10
11.8961724478
 20
7.9744430601
 11
11.8651141887
 21
7.9444430837
  0
LINE
  5
38A
100
AcDbEntity
  8
0
100
AcDbLine
 62
4
  6
CONTINUOUS
 10
12.0219214173
 20
8.0896976804
 11
11.9997369464
 21
8.0682691258
  0
LINE
  5
38B
100
AcDbEntity
  8
0
100
AcDbLine
 62
4
  6
CONTINUOUS
 10
11.7067170674
 20
7.7555659438
 11
11.7333384321
 21
7.7812802091
  0
LINE
  5
38C
100
AcDbEntity
  8
0
100
AcDbLine
 62
4
  6
CONTINUOUS
 10
12.0263583116
 20
8.0608659353
 11
11.9953000525
 21
8.030865959
  0
LINE
  5
38D
100
AcDbEntity
  8
0
100
AcDbLine
 62
4
  6
CONTINUOUS
 10
11.7333384321
 20
7.7481627529
 11
11.7289015378
 21
7.7438770418
  0
LINE
  5
38E
100
AcDbEntity
  8
0
100
AcDbLine
 62
4
  6
CONTINUOUS
 10
12.0263583116
 20
8.0029103836
 11
11.9953000525
 21
7.9729104072
  0
LINE
  5
38F
100
AcDbEntity
  8
0
100
AcDbLine
 62
4
  6
CONTINUOUS
 10
11.7155908552
 20
7.6730643573
 11
11.7111539613
 21
7.6687786466
  0
LINE
  5
390
100
AcDbEntity
  8
0
100
AcDbLine
 62
4
  6
CONTINUOUS
 10
12.0263583116
 20
7.9118373752
 11
11.9914177702
 21
7.8780874018
  0
LINE
  5
391
100
AcDbEntity
  8
0
100
AcDbLine
 62
4
  6
CONTINUOUS
 10
10.401565615
 20
10.3979634698
 11
10.3957886385
 21
10.4023833387
  0
LINE
  5
392
100
AcDbEntity
  8
0
100
AcDbLine
 62
4
  6
CONTINUOUS
 10
11.9697879104
 20
8.9473109324
 11
11.9742248052
 21
8.9350378675
  0
LINE
  5
393
100
AcDbEntity
  8
0
100
AcDbLine
 62
4
  6
CONTINUOUS
 10
11.9609141226
 20
8.9718569534
 11
11.9564772287
 21
8.9841299087
  0
LINE
  5
394
100
AcDbEntity
  8
0
100
AcDbLine
 62
4
  6
CONTINUOUS
 10
11.9830985934
 20
9.0512410597
 11
11.9875354878
 21
9.0389679944
  0
LINE
  5
395
100
AcDbEntity
  8
0
100
AcDbLine
 62
4
  6
CONTINUOUS
 10
11.9953000525
 20
7.5881958498
 11
12.0263583116
 21
7.6181958261
  0
LINE
  5
396
100
AcDbEntity
  8
0
100
AcDbLine
 62
7
  6
CONTINUOUS
 10
12.065181161
 20
9.6397076665
 11
11.9168733806
 21
9.649992846
  0
LINE
  5
397
100
AcDbEntity
  8
0
100
AcDbLine
 62
4
  6
CONTINUOUS
 10
10.461740992
 20
10.4560884239
 11
10.4559640155
 21
10.4605082929
  0
LINE
  5
398
100
AcDbEntity
  8
0
100
AcDbLine
 62
4
  6
CONTINUOUS
 10
10.5699804274
 20
10.4606396963
 11
10.5757574013
 21
10.4562198276
  0
LINE
  5
399
100
AcDbEntity
  8
0
100
AcDbLine
 62
7
  6
CONTINUOUS
 10
10.643001941
 20
10.5349876375
 11
10.5837508047
 21
10.5901270399
  0
LINE
  5
39A
100
AcDbEntity
  8
0
100
AcDbLine
 62
7
  6
CONTINUOUS
 10
11.6251891351
 20
7.0413745119
 11
12.065181161
 21
7.4663741983
  0
LINE
  5
39B
100
AcDbEntity
  8
0
100
AcDbLine
 62
7
  6
CONTINUOUS
 10
11.2072206315
 20
10.0632228297
 11
10.3620354834
 21
10.1218366188
  0
LINE
  5
39C
100
AcDbEntity
  8
0
100
AcDbLine
 62
7
  6
CONTINUOUS
 10
11.2152440153
 20
10.1009165261
 11
10.3700588672
 21
10.1595303152
  0
LINE
  5
39D
100
AcDbEntity
  8
0
100
AcDbLine
 62
4
  6
CONTINUOUS
 10
10.3744360854
 20
10.3817583549
 11
10.4806414828
 21
10.3643449
  0
LINE
  5
39E
100
AcDbEntity
  8
0
100
AcDbLine
 62
4
  6
CONTINUOUS
 10
10.4170018496
 20
10.392873729
 11
10.401565615
 21
10.3979634698
  0
LINE
  5
39F
100
AcDbEntity
  8
0
100
AcDbLine
 62
4
  6
CONTINUOUS
 10
10.4694591097
 20
10.4535435535
 11
10.461740992
 21
10.4560884239
  0
LINE
  5
3A0
100
AcDbEntity
  8
0
100
AcDbLine
 62
4
  6
CONTINUOUS
 10
10.5545441902
 20
10.4657294372
 11
10.5699804274
 21
10.4606396963
  0
LINE
  5
3A1
100
AcDbEntity
  8
0
100
AcDbLine
 62
7
  6
CONTINUOUS
 10
11.6365561973
 20
10.1638728677
 11
11.6664998996
 21
10.1318525625
  0
LINE
  5
3A2
100
AcDbEntity
  8
0
100
AcDbLine
 62
4
  6
CONTINUOUS
 10
10.4981582032
 20
10.391264751
 11
10.4749574013
 21
10.3888544978
  0
LINE
  5
3A3
100
AcDbEntity
  8
0
100
AcDbLine
 62
4
  6
CONTINUOUS
 10
10.5505225658
 20
10.4318448468
 11
10.4190823328
 21
10.4248833209
  0
LINE
  5
3A4
100
AcDbEntity
  8
0
100
AcDbLine
 62
4
  6
CONTINUOUS
 10
10.4806414828
 20
10.3643449
 11
10.3550246734
 21
10.3630083697
  0
LINE
  5
3A5
100
AcDbEntity
  8
0
100
AcDbLine
 62
4
  6
CONTINUOUS
 10
10.4749574013
 20
10.3888544978
 11
10.4440384842
 21
10.3889891149
  0
LINE
  5
3A6
100
AcDbEntity
  8
0
100
AcDbLine
 62
4
  6
CONTINUOUS
 10
10.4035532033
 20
10.4098833328
 11
10.5194643067
 21
10.4018448704
  0
LINE
  5
3A7
100
AcDbEntity
  8
0
100
AcDbLine
 62
4
  6
CONTINUOUS
 10
10.4440384842
 20
10.3889891149
 11
10.4170018496
 21
10.392873729
  0
LINE
  5
3A8
100
AcDbEntity
  8
0
100
AcDbLine
 62
4
  6
CONTINUOUS
 10
10.5275075555
 20
10.4696140513
 11
10.5545441902
 21
10.4657294372
  0
LINE
  5
3A9
100
AcDbEntity
  8
0
100
AcDbLine
 62
4
  6
CONTINUOUS
 10
10.4346114623
 20
10.4398833091
 11
10.5349934362
 21
10.4168448586
  0
LINE
  5
3AA
100
AcDbEntity
  8
0
100
AcDbLine
 62
7
  6
CONTINUOUS
 10
11.8741518846
 20
10.3933726919
 11
11.904095587
 21
10.3613523867
  0
LINE
  5
3AB
100
AcDbEntity
  8
0
100
AcDbLine
 62
4
  6
CONTINUOUS
 10
10.5116997419
 20
10.3943448764
 11
10.4981582032
 21
10.391264751
  0
LINE
  5
3AC
100
AcDbEntity
  8
0
100
AcDbLine
 62
4
  6
CONTINUOUS
 10
10.5718751189
 20
10.4524698305
 11
10.5583335802
 21
10.4493897052
  0
LINE
  5
3AD
100
AcDbEntity
  8
0
100
AcDbLine
 62
4
  6
CONTINUOUS
 10
10.4598462979
 20
10.4642582899
 11
10.4733878391
 21
10.4673384151
  0
LINE
  5
3AE
100
AcDbEntity
  8
0
100
AcDbLine
 62
4
  6
CONTINUOUS
 10
10.5583335802
 20
10.4493897052
 11
10.5467331758
 21
10.4481845788
  0
LINE
  5
3AF
100
AcDbEntity
  8
0
100
AcDbLine
 62
4
  6
CONTINUOUS
 10
10.4733878391
 20
10.4673384151
 11
10.4965886385
 21
10.4697486684
  0
LINE
  5
3B0
100
AcDbEntity
  8
0
100
AcDbLine
 62
4
  6
CONTINUOUS
 10
10.4965886385
 20
10.4697486684
 11
10.5275075555
 21
10.4696140513
  0
LINE
  5
3B1
100
AcDbEntity
  8
0
100
AcDbLine
 62
7
  6
CONTINUOUS
 10
11.4823695955
 20
10.5127173266
 11
11.6309070587
 21
10.5024162186
  0
LINE
  5
3B2
100
AcDbEntity
  8
0
100
AcDbLine
 62
7
  6
CONTINUOUS
 10
11.9031607969
 20
10.4124789204
 11
11.8732943705
 21
10.4402727655
  0
LINE
  5
3B3
100
AcDbEntity
  8
0
100
AcDbLine
 62
7
  6
CONTINUOUS
 10
11.6655339738
 20
5.9050276881
 11
11.9031296611
 21
6.1345275123
  0
LINE
  5
3B4
100
AcDbEntity
  8
0
100
AcDbLine
 62
7
  6
CONTINUOUS
 10
11.6645991837
 20
5.9041415451
 11
11.6655339738
 21
5.9050276881
  0
LINE
  5
3B5
100
AcDbEntity
  8
0
100
AcDbLine
 62
7
  6
CONTINUOUS
 10
11.6645991837
 20
5.9041415451
 11
11.6347327573
 21
5.8763477
  0
LINE
  5
3B6
100
AcDbEntity
  8
0
100
AcDbLine
 62
7
  6
CONTINUOUS
 10
11.4609183428
 20
11.1167625553
 11
11.4357559332
 21
11.1291923039
  0
ARC
  5
3B7
100
AcDbEntity
  8
0
100
AcDbCircle
 62
7
  6
CONTINUOUS
 10
11.0490238223
 20
12.2432004904
 40
1.7455901857
100
AcDbArc
 50
266.0345339438
 51
266.9828267507
  0
ARC
  5
3B8
100
AcDbEntity
  8
0
100
AcDbCircle
 62
7
  6
CONTINUOUS
 10
11.0490238223
 20
12.6637997161
 40
1.7455901857
100
AcDbArc
 50
266.0345339438
 51
266.9828267507
  0
ARC
  5
3B9
100
AcDbEntity
  8
0
100
AcDbCircle
 62
7
  6
CONTINUOUS
 10
11.0445482797
 20
12.1787666245
 40
1.681001073
100
AcDbArc
 50
265.064846266
 51
266.0348369886
  0
ARC
  5
3BA
100
AcDbEntity
  8
0
100
AcDbCircle
 62
7
  6
CONTINUOUS
 10
11.0434506042
 20
12.5852617107
 40
1.6668547949
100
AcDbArc
 50
265.0607301035
 51
266.0389531511
  0
ARC
  5
3BB
100
AcDbEntity
  8
0
100
AcDbCircle
 62
7
  6
CONTINUOUS
 10
10.3575431274
 20
8.2386717633
 40
0.0976488709
100
AcDbArc
 50
111.3280819485
 51
113.3655766066
  0
ARC
  5
3BC
100
AcDbEntity
  8
0
100
AcDbCircle
 62
7
  6
CONTINUOUS
 10
11.4909460897
 20
7.7948080286
 40
0.0685739135
100
AcDbArc
 50
218.8312951683
 51
229.2574545736
  0
SPLINE
  5
3BD
100
AcDbEntity
  8
0
100
AcDbSpline
 62
7
  6
CONTINUOUS
 70
0
 71
3
 72
27
 73
23
 74
0
 42
0.0000001
 43
0.0000001
 44
0.0000000001
 40
0.0
 40
0.0
 40
0.0
 40
0.0
 40
0.0159231562
 40
0.0328948264
 40
0.0509479321
 40
0.0701054824
 40
0.0903825868
 40
0.1117870352
 40
0.1343208308
 40
0.1579817063
 40
0.1827637394
 40
0.2086544178
 40
0.2636848834
 40
0.3229102701
 40
0.3861168549
 40
0.4530588843
 40
0.5234578228
 40
0.5970093703
 40
0.6733872243
 40
0.7522445095
 40
0.8332199914
 40
1.0
 40
1.0
 40
1.0
 40
1.0
 10
10.7143025605
 20
8.554424063
 30
0.0
 10
10.7139648855
 20
8.5540978939
 30
0.0
 10
10.7132423998
 20
8.5534495508
 30
0.0
 10
10.7120634317
 20
8.5525174232
 30
0.0
 10
10.7107571394
 20
8.5515965635
 30
0.0
 10
10.7093253379
 20
8.5506883335
 30
0.0
 10
10.7077697637
 20
8.5497940927
 30
0.0
 10
10.7060924726
 20
8.5489148853
 30
0.0
 10
10.704295584
 20
8.548051702
 30
0.0
 10
10.7023812409
 20
8.5472055784
 30
0.0
 10
10.7003516978
 20
8.5463776005
 30
0.0
 10
10.6974357313
 20
8.5452767197
 30
0.0
 10
10.6935174163
 20
8.5439600036
 30
0.0
 10
10.6884920875
 20
8.5424985665
 30
0.0
 10
10.6830771754
 20
8.5411324234
 30
0.0
 10
10.67729991
 20
8.5398688177
 30
0.0
 10
10.6711893256
 20
8.5387140862
 30
0.0
 10
10.6647762287
 20
8.5376742644
 30
0.0
 10
10.6580930425
 20
8.5367547056
 30
0.0
 10
10.6511734938
 20
8.5359600393
 30
0.0
 10
10.6415849085
 20
8.5350639478
 30
0.0
 10
10.6342919909
 20
8.534605673
 30
0.0
 10
10.6293794483
 20
8.5343882695
 30
0.0
  0
SPLINE
  5
3BE
100
AcDbEntity
  8
0
100
AcDbSpline
 62
7
  6
CONTINUOUS
 70
0
 71
3
 72
15
 73
11
 74
0
 42
0.0000001
 43
0.0000001
 44
0.0000000001
 40
0.0
 40
0.0
 40
0.0
 40
0.0
 40
0.1098833289
 40
0.2213901589
 40
0.3360726368
 40
0.4553538416
 40
0.5804606995
 40
0.7124069408
 40
0.852027397
 40
1.0
 40
1.0
 40
1.0
 40
1.0
 10
10.7179314621
 20
8.5615596424
 30
0.0
 10
10.7179315161
 20
8.5612583862
 30
0.0
 10
10.7178929335
 20
8.5606507348
 30
0.0
 10
10.7177196517
 20
8.5597435542
 30
0.0
 10
10.7174313216
 20
8.5588390953
 30
0.0
 10
10.7170285133
 20
8.5579387883
 30
0.0
 10
10.7165122913
 20
8.5570435847
 30
0.0
 10
10.7158838595
 20
8.5561543255
 30
0.0
 10
10.7151442978
 20
8.5552719433
 30
0.0
 10
10.7145943491
 20
8.5547059091
 30
0.0
 10
10.7143025605
 20
8.554424063
 30
0.0
  0
SPLINE
  5
3BF
100
AcDbEntity
  8
0
100
AcDbSpline
 62
7
  6
CONTINUOUS
 70
0
 71
3
 72
32
 73
28
 74
0
 42
0.0000001
 43
0.0000001
 44
0.0000000001
 40
0.0
 40
0.0
 40
0.0
 40
0.0
 40
0.0959379736
 40
0.189268689
 40
0.279431993
 40
0.3658927525
 40
0.4481496814
 40
0.5257408781
 40
0.5982489368
 40
0.6324845772
 40
0.6653205609
 40
0.6967206173
 40
0.7266563082
 40
0.7551060561
 40
0.7820526769
 40
0.8074858882
 40
0.8314083868
 40
0.8538331114
 40
0.8747841286
 40
0.894302897
 40
0.9124541572
 40
0.9293260696
 40
0.9450362473
 40
0.9597412308
 40
0.973639003
 40
0.9869674607
 40
1.0
 40
1.0
 40
1.0
 40
1.0
 10
10.6398050417
 20
8.5881261254
 30
0.0
 10
10.6425555689
 20
8.5879293585
 30
0.0
 10
10.6479777897
 20
8.5874808729
 30
0.0
 10
10.6559651046
 20
8.5866300729
 30
0.0
 10
10.6636586646
 20
8.5856150791
 30
0.0
 10
10.6710077325
 20
8.5844424955
 30
0.0
 10
10.6779640492
 20
8.5831203394
 30
0.0
 10
10.6844818301
 20
8.5816574835
 30
0.0
 10
10.6896062627
 20
8.5803047533
 30
0.0
 10
10.6934496808
 20
8.5791530648
 30
0.0
 10
10.696141379
 20
8.5782770116
 30
0.0
 10
10.6986932349
 20
8.577373414
 30
0.0
 10
10.7011010985
 20
8.5764437839
 30
0.0
 10
10.7033611316
 20
8.575489761
 30
0.0
 10
10.7054696385
 20
8.5745128915
 30
0.0
 10
10.7074231074
 20
8.5735145875
 30
0.0
 10
10.7092185054
 20
8.5724965912
 30
0.0
 10
10.7108530736
 20
8.571460562
 30
0.0
 10
10.7123241578
 20
8.5704079811
 30
0.0
 10
10.7136293533
 20
8.5693402484
 30
0.0
 10
10.714766784
 20
8.5682589647
 30
0.0
 10
10.715734645
 20
8.567165449
 30
0.0
 10
10.7165308754
 20
8.5660606965
 30
0.0
 10
10.7171535961
 20
8.564945978
 30
0.0
 10
10.7176010221
 20
8.5638227177
 30
0.0
 10
10.7178709758
 20
8.5626932223
 30
0.0
 10
10.7179313949
 20
8.5619342382
 30
0.0
 10
10.7179314621
 20
8.5615596424
 30
0.0
  0
SPLINE
  5
3C0
100
AcDbEntity
  8
0
100
AcDbSpline
 62
7
  6
CONTINUOUS
 70
0
 71
3
 72
29
 73
25
 74
0
 42
0.0000001
 43
0.0000001
 44
0.0000000001
 40
0.0
 40
0.0
 40
0.0
 40
0.0
 40
0.0158624588
 40
0.032781983
 40
0.0507919471
 40
0.0699155539
 40
0.0901678943
 40
0.1115565422
 40
0.1340832229
 40
0.1577453273
 40
0.1825363905
 40
0.208442866
 40
0.2354462698
 40
0.2635261183
 40
0.322819463
 40
0.3861047455
 40
0.4531292048
 40
0.5236048776
 40
0.5972197205
 40
0.6736372639
 40
0.7525023726
 40
0.8334434291
 40
0.9160745316
 40
1.0
 40
1.0
 40
1.0
 40
1.0
 10
10.7321721894
 20
8.5483551706
 30
0.0
 10
10.7317709593
 20
8.547967612
 30
0.0
 10
10.7309117995
 20
8.5471973176
 30
0.0
 10
10.7295086545
 20
8.5460904383
 30
0.0
 10
10.727952535
 20
8.5449971434
 30
0.0
 10
10.7262456461
 20
8.5439190905
 30
0.0
 10
10.7243901065
 20
8.5428579268
 30
0.0
 10
10.7223884312
 20
8.5418148988
 30
0.0
 10
10.7202431949
 20
8.5407912206
 30
0.0
 10
10.7179570089
 20
8.5397881469
 30
0.0
 10
10.7155326405
 20
8.5388070307
 30
0.0
 10
10.7129732185
 20
8.5378490564
 30
0.0
 10
10.7102821206
 20
8.536915397
 30
0.0
 10
10.7064532083
 20
8.5356821843
 30
0.0
 10
10.7013598284
 20
8.5342176669
 30
0.0
 10
10.6948885142
 20
8.5326057591
 30
0.0
 10
10.687984824
 20
8.5311179561
 30
0.0
 10
10.6806844598
 20
8.5297616975
 30
0.0
 10
10.6730250747
 20
8.5285444481
 30
0.0
 10
10.6650463199
 20
8.527472405
 30
0.0
 10
10.6567895003
 20
8.5265513536
 30
0.0
 10
10.6482974079
 20
8.5257860611
 30
0.0
 10
10.6396140961
 20
8.5251805551
 30
0.0
 10
10.6337636453
 20
8.5248873952
 30
0.0
 10
10.6308146373
 20
8.524767572
 30
0.0
  0
SPLINE
  5
3C1
100
AcDbEntity
  8
0
100
AcDbSpline
 62
7
  6
CONTINUOUS
 70
0
 71
3
 72
48
 73
44
 74
0
 42
0.0000001
 43
0.0000001
 44
0.0000000001
 40
0.0
 40
0.0
 40
0.0
 40
0.0
 40
0.035337873
 40
0.0709864858
 40
0.1068871324
 40
0.1429803508
 40
0.1792063286
 40
0.2155049659
 40
0.251816007
 40
0.2880791691
 40
0.3242342718
 40
0.3602213669
 40
0.3959808657
 40
0.4314536714
 40
0.4665813079
 40
0.5013060507
 40
0.535571063
 40
0.5693205267
 40
0.6024997809
 40
0.6350554656
 40
0.6669356594
 40
0.6980900368
 40
0.7284700225
 40
0.7580289541
 40
0.7867222719
 40
0.8007311658
 40
0.8145080031
 40
0.828047892
 40
0.841346113
 40
0.8543981306
 40
0.8671995948
 40
0.8797463525
 40
0.8920344657
 40
0.9040602144
 40
0.915820109
 40
0.9273109127
 40
0.9385296512
 40
0.9494736264
 40
0.960140443
 40
0.9705280291
 40
0.9806346536
 40
0.99045896
 40
1.0
 40
1.0
 40
1.0
 40
1.0
 10
11.166161693
 20
11.185041425
 30
0.0
 10
11.1602919442
 20
11.1854484935
 30
0.0
 10
11.1484959406
 20
11.1861972483
 30
0.0
 10
11.13072263
 20
11.1871218408
 30
0.0
 10
11.1128143721
 20
11.1878517823
 30
0.0
 10
11.094803038
 20
11.1883857656
 30
0.0
 10
11.0767206671
 20
11.1887228391
 30
0.0
 10
11.0585994269
 20
11.1888623989
 30
0.0
 10
11.0404715516
 20
11.188804197
 30
0.0
 10
11.0223692885
 20
11.1885483373
 30
0.0
 10
11.0043248388
 20
11.1880952755
 30
0.0
 10
10.9863703005
 20
11.1874458226
 30
0.0
 10
10.9685376111
 20
11.1866011372
 30
0.0
 10
10.9508584907
 20
11.1855627282
 30
0.0
 10
10.9333643847
 20
11.1843324519
 30
0.0
 10
10.9160864084
 20
11.182912504
 30
0.0
 10
10.8990552907
 20
11.1813054233
 30
0.0
 10
10.8823013192
 20
11.179514081
 30
0.0
 10
10.8658542859
 20
11.1775416777
 30
0.0
 10
10.8497434337
 20
11.1753917408
 30
0.0
 10
10.8339974028
 20
11.173068112
 30
0.0
 10
10.8186441829
 20
11.1705749471
 30
0.0
 10
10.803711046
 20
11.1679167062
 30
0.0
 10
10.7892245579
 20
11.1650981394
 30
0.0
 10
10.7774542985
 20
11.1626004797
 30
0.0
 10
10.7682825667
 20
11.160523237
 30
0.0
 10
10.7615860637
 20
11.1589408241
 30
0.0
 10
10.7550200187
 20
11.1573222362
 30
0.0
 10
10.7485873459
 20
11.1556681886
 30
0.0
 10
10.7422909048
 20
11.1539794208
 30
0.0
 10
10.736133493
 20
11.1522566845
 30
0.0
 10
10.7301178469
 20
11.150500746
 30
0.0
 10
10.724246638
 20
11.1487123889
 30
0.0
 10
10.7185224736
 20
11.1468924096
 30
0.0
 10
10.7129478959
 20
11.1450416171
 30
0.0
 10
10.7075253787
 20
11.1431608366
 30
0.0
 10
10.7022573275
 20
11.1412509056
 30
0.0
 10
10.6971460797
 20
11.1393126724
 30
0.0
 10
10.6921939004
 20
11.1373469993
 30
0.0
 10
10.6874029849
 20
11.1353547616
 30
0.0
 10
10.682775448
 20
11.1333368396
 30
0.0
 10
10.6783133627
 20
11.1312941397
 30
0.0
 10
10.6754076397
 20
11.1298959208
 30
0.0
 10
10.673983333
 20
11.1291923407
 30
0.0
  0
SPLINE
  5
3C2
100
AcDbEntity
  8
0
100
AcDbSpline
 62
7
  6
CONTINUOUS
 70
0
 71
3
 72
15
 73
11
 74
0
 42
0.0000001
 43
0.0000001
 44
0.0000000001
 40
0.0
 40
0.0
 40
0.0
 40
0.0
 40
0.1134581172
 40
0.2300154468
 40
0.3497835267
 40
0.4728652766
 40
0.5993515156
 40
0.7293230661
 40
0.8628525369
 40
1.0
 40
1.0
 40
1.0
 40
1.0
 10
11.5340049698
 20
11.0699317566
 30
0.0
 10
11.5335048647
 20
11.0705663668
 30
0.0
 10
11.5324663974
 20
11.071833716
 30
0.0
 10
11.5308196747
 20
11.07370334
 30
0.0
 10
11.5290637911
 20
11.0755661988
 30
0.0
 10
11.5271991899
 20
11.0774218406
 30
0.0
 10
11.5252262917
 20
11.0792698729
 30
0.0
 10
11.5231455384
 20
11.0811098892
 30
0.0
 10
11.5209574299
 20
11.0829414603
 30
0.0
 10
11.5194477984
 20
11.0841404502
 30
0.0
 10
11.5186757334
 20
11.0847386367
 30
0.0
  0
SPLINE
  5
3C3
100
AcDbEntity
  8
0
100
AcDbSpline
 62
7
  6
CONTINUOUS
 70
0
 71
3
 72
11
 73
7
 74
0
 42
0.0000001
 43
0.0000001
 44
0.0000000001
 40
0.0
 40
0.0
 40
0.0
 40
0.0
 40
0.2529397892
 40
0.5039896353
 40
0.7530425383
 40
1.0
 40
1.0
 40
1.0
 40
1.0
 10
11.5186757334
 20
11.0847386367
 30
0.0
 10
11.5139210724
 20
11.0876440639
 30
0.0
 10
11.5043921215
 20
11.0933436117
 30
0.0
 10
11.489981501
 20
11.1015638252
 30
0.0
 10
11.4755064123
 20
11.1093970411
 30
0.0
 10
11.4657725303
 20
11.1143645425
 30
0.0
 10
11.4608949327
 20
11.1167741189
 30
0.0
  0
SPLINE
  5
3C4
100
AcDbEntity
  8
0
100
AcDbSpline
 62
7
  6
CONTINUOUS
 70
0
 71
3
 72
34
 73
30
 74
0
 42
0.0000001
 43
0.0000001
 44
0.0000000001
 40
0.0
 40
0.0
 40
0.0
 40
0.0
 40
0.0217725916
 40
0.0439986752
 40
0.0899309102
 40
0.138039581
 40
0.1885282607
 40
0.2147206112
 40
0.2415662389
 40
0.2690789867
 40
0.297269905
 40
0.3261472663
 40
0.3557166266
 40
0.3859809115
 40
0.4169405295
 40
0.448593509
 40
0.4809356504
 40
0.5139607
 40
0.5476605393
 40
0.5820253739
 40
0.6170439239
 40
0.6527036129
 40
0.6889907534
 40
0.7258907302
 40
0.763388173
 40
0.8014671134
 40
0.8401111344
 40
0.9190265817
 40
1.0
 40
1.0
 40
1.0
 40
1.0
 10
10.6576836857
 20
11.1211406271
 30
0.0
 10
10.6568205834
 20
11.1207143099
 30
0.0
 10
10.6550920902
 20
11.119820608
 30
0.0
 10
10.651626833
 20
11.1178693693
 30
0.0
 10
10.6472829393
 20
11.1151123465
 30
0.0
 10
10.6421194686
 20
11.1113408246
 30
0.0
 10
10.6378664544
 20
11.1078207581
 30
0.0
 10
10.6344629608
 20
11.1047594308
 30
0.0
 10
10.6318788188
 20
11.1023080636
 30
0.0
 10
10.6292949099
 20
11.0997298475
 30
0.0
 10
10.6267116318
 20
11.0970253699
 30
0.0
 10
10.6241294233
 20
11.0941955425
 30
0.0
 10
10.6215487025
 20
11.0912415314
 30
0.0
 10
10.6189698799
 20
11.0881647624
 30
0.0
 10
10.6163933504
 20
11.0849669014
 30
0.0
 10
10.6138194928
 20
11.0816498397
 30
0.0
 10
10.6112486657
 20
11.0782156756
 30
0.0
 10
10.6086812056
 20
11.0746666944
 30
0.0
 10
10.6061174264
 20
11.071005346
 30
0.0
 10
10.6035576169
 20
11.0672342236
 30
0.0
 10
10.6010020408
 20
11.063356042
 30
0.0
 10
10.5984509355
 20
11.059373616
 30
0.0
 10
10.5959045117
 20
11.05528984
 30
0.0
 10
10.5933629536
 20
11.0511076665
 30
0.0
 10
10.5908264216
 20
11.0468300879
 30
0.0
 10
10.5882950441
 20
11.0424601174
 30
0.0
 10
10.5849032849
 20
11.0364726023
 30
0.0
 10
10.5806816723
 20
11.0287760153
 30
0.0
 10
10.5773824084
 20
11.0225234935
 30
0.0
 10
10.5757342211
 20
11.019345305
 30
0.0
  0
SPLINE
  5
3C5
100
AcDbEntity
  8
0
100
AcDbSpline
 62
7
  6
CONTINUOUS
 70
0
 71
3
 72
35
 73
31
 74
0
 42
0.0000001
 43
0.0000001
 44
0.0000000001
 40
0.0
 40
0.0
 40
0.0
 40
0.0
 40
0.0211529964
 40
0.0430718128
 40
0.0657528391
 40
0.0891908848
 40
0.1133793224
 40
0.1383102111
 40
0.1639744051
 40
0.1903616443
 40
0.2174606373
 40
0.2452591355
 40
0.2737439948
 40
0.3029012327
 40
0.3327160806
 40
0.3631730269
 40
0.3942558596
 40
0.4259477084
 40
0.4582310782
 40
0.4910878829
 40
0.5244994785
 40
0.5584466897
 40
0.5929098378
 40
0.6278687705
 40
0.6633028851
 40
0.6991911552
 40
0.7722434867
 40
0.8468505861
 40
0.9228312928
 40
1.0
 40
1.0
 40
1.0
 40
1.0
 10
11.4357558621
 20
11.129192339
 30
0.0
 10
11.4340063094
 20
11.1300565841
 30
0.0
 10
11.4304214213
 20
11.1317712426
 30
0.0
 10
11.4248898316
 20
11.1342612806
 30
0.0
 10
11.4191117089
 20
11.1367135997
 30
0.0
 10
11.4130909237
 20
11.1391265484
 30
0.0
 10
11.4068314516
 20
11.141498527
 30
0.0
 10
11.4003374475
 20
11.1438279531
 30
0.0
 10
11.3936132212
 20
11.1461132736
 30
0.0
 10
11.3866632397
 20
11.1483529635
 30
0.0
 10
11.3794921229
 20
11.1505455275
 30
0.0
 10
11.3721046397
 20
11.1526895013
 30
0.0
 10
11.3645057047
 20
11.1547834527
 30
0.0
 10
11.3567003751
 20
11.1568259826
 30
0.0
 10
11.3486938465
 20
11.158815726
 30
0.0
 10
11.3404914503
 20
11.1607513534
 30
0.0
 10
11.3320986495
 20
11.1626315713
 30
0.0
 10
11.3235210348
 20
11.1644551235
 30
0.0
 10
11.3147643206
 20
11.1662207912
 30
0.0
 10
11.3058343414
 20
11.1679273947
 30
0.0
 10
11.2967370475
 20
11.1695737935
 30
0.0
 10
11.2874785015
 20
11.1711588873
 30
0.0
 10
11.2780648736
 20
11.1726816174
 30
0.0
 10
11.2685024402
 20
11.1741409653
 30
0.0
 10
11.2587975683
 20
11.1755359613
 30
0.0
 10
11.2455987542
 20
11.1773193864
 30
0.0
 10
11.2287911877
 20
11.179377897
 30
0.0
 10
11.2082755416
 20
11.181563109
 30
0.0
 10
11.187351031
 20
11.1834717447
 30
0.0
 10
11.17326348
 20
11.1845489144
 30
0.0
 10
11.166161693
 20
11.185041425
 30
0.0
  0
SPLINE
  5
3C6
100
AcDbEntity
  8
0
100
AcDbSpline
 62
7
  6
CONTINUOUS
 70
0
 71
3
 72
11
 73
7
 74
0
 42
0.0000001
 43
0.0000001
 44
0.0000000001
 40
0.0
 40
0.0
 40
0.0
 40
0.0
 40
0.2619243624
 40
0.5157102071
 40
0.7616329385
 40
1.0
 40
1.0
 40
1.0
 40
1.0
 10
10.5837507894
 20
10.5901270543
 30
0.0
 10
10.5829977739
 20
10.5908278152
 30
0.0
 10
10.5815379525
 20
10.5922323676
 30
0.0
 10
10.5794581031
 20
10.5943829508
 30
0.0
 10
10.5775239402
 20
10.5965428225
 30
0.0
 10
10.5763136402
 20
10.5980108233
 30
0.0
 10
10.5757342211
 20
10.5987460792
 30
0.0
  0
SPLINE
  5
3C7
100
AcDbEntity
  8
0
100
AcDbSpline
 62
7
  6
CONTINUOUS
 70
0
 71
3
 72
33
 73
29
 74
0
 42
0.0000001
 43
0.0000001
 44
0.0000000001
 40
0.0
 40
0.0
 40
0.0
 40
0.0
 40
0.0213597146
 40
0.0433822441
 40
0.066080427
 40
0.0894640727
 40
0.1135400495
 40
0.1383124221
 40
0.1637826917
 40
0.1899499559
 40
0.216811048
 40
0.2443607939
 40
0.2725922032
 40
0.3014966148
 40
0.3310639264
 40
0.3612827848
 40
0.3921407278
 40
0.423624378
 40
0.4557196006
 40
0.4884116344
 40
0.5216852502
 40
0.5555248549
 40
0.6248378856
 40
0.6962238168
 40
0.7695553961
 40
0.844708023
 40
0.9215612319
 40
1.0
 40
1.0
 40
1.0
 40
1.0
 10
11.4764059219
 20
10.543985352
 30
0.0
 10
11.4770362144
 20
10.5445719068
 30
0.0
 10
11.4782965633
 20
10.5457846505
 30
0.0
 10
11.4801582239
 20
10.5476902478
 30
0.0
 10
11.4820190672
 20
10.5497090717
 30
0.0
 10
11.4838785839
 20
10.551840204
 30
0.0
 10
11.4857363104
 20
10.554082559
 30
0.0
 10
11.4875917871
 20
10.5564348468
 30
0.0
 10
11.4894445649
 20
10.5588956052
 30
0.0
 10
11.4912942071
 20
10.5614632051
 30
0.0
 10
11.4931403016
 20
10.5641358577
 30
0.0
 10
11.4949824527
 20
10.5669116367
 30
0.0
 10
11.496820283
 20
10.5697884928
 30
0.0
 10
11.4986534439
 20
10.5727642635
 30
0.0
 10
11.50048161
 20
10.5758366923
 30
0.0
 10
11.5023044775
 20
10.5790034468
 30
0.0
 10
11.5041217724
 20
10.5822621283
 30
0.0
 10
11.5059332467
 20
10.5856102893
 30
0.0
 10
11.5077386752
 20
10.5890454492
 30
0.0
 10
11.5095378601
 20
10.5925651037
 30
0.0
 10
11.5113306349
 20
10.5961667403
 30
0.0
 10
11.5137313908
 20
10.6011143705
 30
0.0
 10
11.5167115814
 20
10.6074880076
 30
0.0
 10
11.5202327254
 20
10.6153645765
 30
0.0
 10
11.5237262888
 20
10.6235101411
 30
0.0
 10
11.5271921262
 20
10.6319064087
 30
0.0
 10
11.5306303236
 20
10.6405359831
 30
0.0
 10
11.5328822895
 20
10.6463767436
 30
0.0
 10
11.5340049698
 20
10.6493325308
 30
0.0
  0
SPLINE
  5
3C8
100
AcDbEntity
  8
0
100
AcDbSpline
 62
7
  6
CONTINUOUS
 70
0
 71
3
 72
11
 73
7
 74
0
 42
0.0000001
 43
0.0000001
 44
0.0000000001
 40
0.0
 40
0.0
 40
0.0
 40
0.0
 40
0.2598463051
 40
0.5132467979
 40
0.760021328
 40
1.0
 40
1.0
 40
1.0
 40
1.0
 10
11.3790701355
 20
10.5292907505
 30
0.0
 10
11.3827229181
 20
10.5301280034
 30
0.0
 10
11.3899271261
 20
10.5318291018
 30
0.0
 10
11.4005590009
 20
10.5344966138
 30
0.0
 10
11.4108737236
 20
10.537246129
 30
0.0
 10
11.4176283315
 20
10.5391592731
 30
0.0
 10
11.4209503445
 20
10.540130142
 30
0.0
  0
SPLINE
  5
3C9
100
AcDbEntity
  8
0
100
AcDbSpline
 62
7
  6
CONTINUOUS
 70
0
 71
3
 72
54
 73
50
 74
0
 42
0.0000001
 43
0.0000001
 44
0.0000000001
 40
0.0
 40
0.0
 40
0.0
 40
0.0
 40
0.0378658119
 40
0.0761051183
 40
0.1146335181
 40
0.1533656575
 40
0.1922156211
 40
0.2310971581
 40
0.2699239279
 40
0.3086097469
 40
0.3470688339
 40
0.3852160623
 40
0.4229672028
 40
0.4602391819
 40
0.4969503292
 40
0.5330206376
 40
0.5683720287
 40
0.6029286146
 40
0.6366169893
 40
0.6531135641
 40
0.6693668355
 40
0.6853684583
 40
0.7011103011
 40
0.7165844567
 40
0.7317832534
 40
0.7466992682
 40
0.7613253427
 40
0.7756545949
 40
0.789680434
 40
0.8033965782
 40
0.8167970729
 40
0.8298763126
 40
0.8426290622
 40
0.8550504812
 40
0.8671361512
 40
0.8788821083
 40
0.890284882
 40
0.901341533
 40
0.9120496999
 40
0.9224076537
 40
0.9324143619
 40
0.9420695621
 40
0.9513738463
 40
0.9603287595
 40
0.9689369162
 40
0.9772021362
 40
0.9851296068
 40
0.9927260631
 40
1.0
 40
1.0
 40
1.0
 40
1.0
 10
10.944224545
 20
10.4577599451
 30
0.0
 10
10.9509786911
 20
10.4572915435
 30
0.0
 10
10.9645601405
 20
10.4564419941
 30
0.0
 10
10.9850321363
 20
10.4554317662
 30
0.0
 10
11.0056703109
 20
10.454680854
 30
0.0
 10
11.0264255287
 20
10.454191057
 30
0.0
 10
11.0472484205
 20
10.4539635447
 30
0.0
 10
11.068089443
 20
10.4539988637
 30
0.0
 10
11.0888990145
 20
10.4542969272
 30
0.0
 10
11.1096276273
 20
10.4548570238
 30
0.0
 10
11.1302259677
 20
10.4556778136
 30
0.0
 10
11.1506450331
 20
10.456757332
 30
0.0
 10
11.1708362501
 20
10.4580929987
 30
0.0
 10
11.1907515896
 20
10.4596816156
 30
0.0
 10
11.2103436844
 20
10.4615193826
 30
0.0
 10
11.2295659368
 20
10.4636019012
 30
0.0
 10
11.2483726506
 20
10.4659241832
 30
0.0
 10
11.2667190716
 20
10.468480675
 30
0.0
 10
11.281690342
 20
10.470817116
 30
0.0
 10
11.2934025986
 20
10.4728017604
 30
0.0
 10
11.3019836238
 20
10.4743344803
 30
0.0
 10
11.3104176131
 20
10.4759208811
 30
0.0
 10
11.3186995569
 20
10.4775600224
 30
0.0
 10
11.3268245284
 20
10.4792509256
 30
0.0
 10
11.3347876962
 20
10.480992583
 30
0.0
 10
11.3425843254
 20
10.4827839564
 30
0.0
 10
11.3502097812
 20
10.4846239775
 30
0.0
 10
11.3576595313
 20
10.4865115489
 30
0.0
 10
11.3649291485
 20
10.4884455453
 30
0.0
 10
11.3720143131
 20
10.4904248138
 30
0.0
 10
11.3789108162
 20
10.4924481749
 30
0.0
 10
11.3856145626
 20
10.4945144223
 30
0.0
 10
11.3921215733
 20
10.4966223245
 30
0.0
 10
11.3984279872
 20
10.4987706257
 30
0.0
 10
11.4045300639
 20
10.5009580468
 30
0.0
 10
11.4104241863
 20
10.5031832863
 30
0.0
 10
11.4161068638
 20
10.5054450203
 30
0.0
 10
11.4215747341
 20
10.507741905
 30
0.0
 10
11.4268245646
 20
10.5100725772
 30
0.0
 10
11.4318532554
 20
10.5124356565
 30
0.0
 10
11.4366578412
 20
10.5148297465
 30
0.0
 10
11.4412354942
 20
10.5172534357
 30
0.0
 10
11.4455835256
 20
10.5197053011
 30
0.0
 10
11.4496993856
 20
10.5221839095
 30
0.0
 10
11.4535806683
 20
10.5246878238
 30
0.0
 10
11.4572250996
 20
10.5272155952
 30
0.0
 10
11.4606305821
 20
10.5297658062
 30
0.0
 10
11.4637950393
 20
10.5323369354
 30
0.0
 10
11.4657852056
 20
10.5341016586
 30
0.0
 10
11.4667372897
 20
10.5349876748
 30
0.0
  0
SPLINE
  5
3CA
100
AcDbEntity
  8
0
100
AcDbSpline
 62
7
  6
CONTINUOUS
 70
0
 71
3
 72
9
 73
5
 74
0
 42
0.0000001
 43
0.0000001
 44
0.0000000001
 40
0.0
 40
0.0
 40
0.0
 40
0.0
 40
0.5113567822
 40
1.0
 40
1.0
 40
1.0
 40
1.0
 10
10.5910634576
 20
10.5839391992
 30
0.0
 10
10.5897723849
 20
10.5849395064
 30
0.0
 10
10.5872865595
 20
10.5869466861
 30
0.0
 10
10.5848932985
 20
10.5890638284
 30
0.0
 10
10.5837507894
 20
10.5901270543
 30
0.0
  0
SPLINE
  5
3CB
100
AcDbEntity
  8
0
100
AcDbSpline
 62
7
  6
CONTINUOUS
 70
0
 71
3
 72
78
 73
74
 74
0
 42
0.0000001
 43
0.0000001
 44
0.0000000001
 40
0.0
 40
0.0
 40
0.0
 40
0.0
 40
0.0143272391
 40
0.0280688403
 40
0.0412269314
 40
0.0538058922
 40
0.0658126817
 40
0.077257229
 40
0.0881528974
 40
0.0985170273
 40
0.1083715635
 40
0.1177437541
 40
0.1266668966
 40
0.1351810715
 40
0.1433337651
 40
0.1472925702
 40
0.1511823944
 40
0.1550113414
 40
0.1587879591
 40
0.1625211927
 40
0.1662203405
 40
0.1698949835
 40
0.1735549165
 40
0.1772100631
 40
0.1808703899
 40
0.1845458173
 40
0.1882461327
 40
0.1919809079
 40
0.1957594277
 40
0.1995906228
 40
0.2034830246
 40
0.2074447176
 40
0.2114833233
 40
0.219817505
 40
0.2285388048
 40
0.237690794
 40
0.2473099402
 40
0.2574263023
 40
0.2680642811
 40
0.2792433448
 40
0.2909786935
 40
0.3032818427
 40
0.3161611242
 40
0.329622112
 40
0.3436679782
 40
0.3582997917
 40
0.3735167682
 40
0.3893164779
 40
0.4056950214
 40
0.4226471778
 40
0.4401665282
 40
0.4582455638
 40
0.4768757767
 40
0.4960477385
 40
0.5157511708
 40
0.5359750042
 40
0.5567074325
 40
0.5779359611
 40
0.5996474489
 40
0.6218281487
 40
0.6444637425
 40
0.6675393743
 40
0.6910396822
 40
0.7149488261
 40
0.7392505152
 40
0.7639280353
 40
0.7889642719
 40
0.814341736
 40
0.8400425856
 40
0.8660486511
 40
0.8923414481
 40
0.9457114773
 40
1.0
 40
1.0
 40
1.0
 40
1.0
 10
10.673983333
 20
11.1291923407
 30
0.0
 10
10.6721585149
 20
11.1282909159
 30
0.0
 10
10.6686065816
 20
11.1264775247
 30
0.0
 10
10.6634698223
 20
11.1236624582
 30
0.0
 10
10.6586391397
 20
11.1208112426
 30
0.0
 10
10.6541182874
 20
11.1179260692
 30
0.0
 10
10.6499107079
 20
11.1150091011
 30
0.0
 10
10.6460196124
 20
11.1120625
 30
0.0
 10
10.6424479658
 20
11.1090884047
 30
0.0
 10
10.639198504
 20
11.1060889249
 30
0.0
 10
10.6362737481
 20
11.1030661225
 30
0.0
 10
10.6336760448
 20
11.1000220374
 30
0.0
 10
10.6314075663
 20
11.096958593
 30
0.0
 10
10.6294704919
 20
11.0938779888
 30
0.0
 10
10.6281209433
 20
11.0912725906
 30
0.0
 10
10.6272158966
 20
11.089186627
 30
0.0
 10
10.6266275308
 20
11.0876348636
 30
0.0
 10
10.6261231833
 20
11.0860809776
 30
0.0
 10
10.6257029572
 20
11.0845252585
 30
0.0
 10
10.6253669769
 20
11.0829680324
 30
0.0
 10
10.6251153222
 20
11.0814096278
 30
0.0
 10
10.6249480737
 20
11.0798503773
 30
0.0
 10
10.6248652695
 20
11.0782906207
 30
0.0
 10
10.6248669416
 20
11.0767306994
 30
0.0
 10
10.6249530835
 20
11.0751709562
 30
0.0
 10
10.6251236738
 20
11.073611733
 30
0.0
 10
10.6253786631
 20
11.0720533685
 30
0.0
 10
10.6257179788
 20
11.0704961957
 30
0.0
 10
10.6261415327
 20
11.0689405442
 30
0.0
 10
10.6266492085
 20
11.0673867313
 30
0.0
 10
10.6272408815
 20
11.065835081
 30
0.0
 10
10.6279164136
 20
11.0642858723
 30
0.0
 10
10.6289393382
 20
11.0622022998
 30
0.0
 10
10.6304358859
 20
11.0596017037
 30
0.0
 10
10.6325454346
 20
11.0565298481
 30
0.0
 10
10.6349853136
 20
11.053476197
 30
0.0
 10
10.6377532896
 20
11.0504429309
 30
0.0
 10
10.6408471233
 20
11.0474319939
 30
0.0
 10
10.6442643765
 20
11.0444454482
 30
0.0
 10
10.6480024209
 20
11.0414853782
 30
0.0
 10
10.6520584024
 20
11.0385539112
 30
0.0
 10
10.6564292304
 20
11.0356531985
 30
0.0
 10
10.6611115687
 20
11.0327854061
 30
0.0
 10
10.666101833
 20
11.0299527038
 30
0.0
 10
10.6713961904
 20
11.0271572563
 30
0.0
 10
10.6769905617
 20
11.0244012159
 30
0.0
 10
10.6828806244
 20
11.0216867166
 30
0.0
 10
10.6890618163
 20
11.0190158685
 30
0.0
 10
10.6955293403
 20
11.0163907545
 30
0.0
 10
10.7022781685
 20
11.0138134259
 30
0.0
 10
10.709303047
 20
11.0112859002
 30
0.0
 10
10.7165985009
 20
11.008810158
 30
0.0
 10
10.7241588392
 20
11.006388141
 30
0.0
 10
10.7319781597
 20
11.0040217499
 30
0.0
 10
10.7400503544
 20
11.0017128423
 30
0.0
 10
10.7483691146
 20
10.9994632314
 30
0.0
 10
10.7569279361
 20
10.997274684
 30
0.0
 10
10.765720125
 20
10.9951489193
 30
0.0
 10
10.7747388027
 20
10.993087607
 30
0.0
 10
10.7839769118
 20
10.9910923664
 30
0.0
 10
10.793427222
 20
10.9891647649
 30
0.0
 10
10.8030823355
 20
10.9873063166
 30
0.0
 10
10.8129346932
 20
10.9855184812
 30
0.0
 10
10.8229765806
 20
10.9838026631
 30
0.0
 10
10.8332001342
 20
10.9821602099
 30
0.0
 10
10.8435973474
 20
10.9805924113
 30
0.0
 10
10.8541600769
 20
10.9791004987
 30
0.0
 10
10.86488005
 20
10.9776856433
 30
0.0
 10
10.8757488683
 20
10.9763489574
 30
0.0
 10
10.8867580238
 20
10.9750914853
 30
0.0
 10
10.9016863294
 20
10.9735140142
 30
0.0
 10
10.9206343499
 20
10.9717501933
 30
0.0
 10
10.9358837779
 20
10.970575151
 30
0.0
 10
10.9435774979
 20
10.9700415897
 30
0.0
  0
SPLINE
  5
3CC
100
AcDbEntity
  8
0
100
AcDbSpline
 62
7
  6
CONTINUOUS
 70
0
 71
3
 72
48
 73
44
 74
0
 42
0.0000001
 43
0.0000001
 44
0.0000000001
 40
0.0
 40
0.0
 40
0.0
 40
0.0
 40
0.0424430501
 40
0.0845010096
 40
0.1261333147
 40
0.167299784
 40
0.2079609467
 40
0.2480779717
 40
0.2876127748
 40
0.3265280626
 40
0.364787404
 40
0.4023552911
 40
0.4391972096
 40
0.4752797102
 40
0.510570482
 40
0.545038437
 40
0.5786537926
 40
0.6113881679
 40
0.6432146881
 40
0.6741080963
 40
0.7040448861
 40
0.7330034459
 40
0.7609642276
 40
0.7879099449
 40
0.8138258001
 40
0.826393915
 40
0.8387002978
 40
0.8507439403
 40
0.8625240342
 40
0.8740400201
 40
0.8852915707
 40
0.8962786371
 40
0.907001444
 40
0.9174605291
 40
0.9276567558
 40
0.9375913444
 40
0.9472659029
 40
0.9566824513
 40
0.9658434717
 40
0.9747519285
 40
0.9834113368
 40
0.9918257814
 40
1.0
 40
1.0
 40
1.0
 40
1.0
 10
10.944224545
 20
10.4577599451
 30
0.0
 10
10.9397795902
 20
10.4580682037
 30
0.0
 10
10.930932691
 20
10.4587213634
 30
0.0
 10
10.917736522
 20
10.4598164958
 30
0.0
 10
10.9046845141
 20
10.4610217226
 30
0.0
 10
10.8917903947
 20
10.462335774
 30
0.0
 10
10.8790677189
 20
10.4637572638
 30
0.0
 10
10.8665298585
 20
10.4652846939
 30
0.0
 10
10.8541899916
 20
10.4669164534
 30
0.0
 10
10.8420610868
 20
10.4686508219
 30
0.0
 10
10.8301558902
 20
10.4704859704
 30
0.0
 10
10.8184869117
 20
10.4724199635
 30
0.0
 10
10.8070664112
 20
10.4744507613
 30
0.0
 10
10.7959063863
 20
10.4765762217
 30
0.0
 10
10.7850185584
 20
10.4787941026
 30
0.0
 10
10.7744143613
 20
10.4811020641
 30
0.0
 10
10.7641049275
 20
10.4834976714
 30
0.0
 10
10.7541010769
 20
10.4859783971
 30
0.0
 10
10.7444133047
 20
10.488541624
 30
0.0
 10
10.7350517694
 20
10.4911846482
 30
0.0
 10
10.7260262808
 20
10.4939046827
 30
0.0
 10
10.7173462932
 20
10.4966988595
 30
0.0
 10
10.709020875
 20
10.4995642365
 30
0.0
 10
10.7010587691
 20
10.5024977922
 30
0.0
 10
10.6946697571
 20
10.5050217618
 30
0.0
 10
10.6897489153
 20
10.5070750713
 30
0.0
 10
10.6861919802
 20
10.508614441
 30
0.0
 10
10.6827319355
 20
10.510168518
 30
0.0
 10
10.6793696851
 20
10.5117369058
 30
0.0
 10
10.6761061091
 20
10.5133191868
 30
0.0
 10
10.6729420627
 20
10.5149149514
 30
0.0
 10
10.6698783724
 20
10.516523778
 30
0.0
 10
10.6669158403
 20
10.5181452491
 30
0.0
 10
10.6640552398
 20
10.5197789392
 30
0.0
 10
10.6612973182
 20
10.5214244236
 30
0.0
 10
10.6586427954
 20
10.5230812741
 30
0.0
 10
10.6560923629
 20
10.5247490593
 30
0.0
 10
10.6536466869
 20
10.5264273496
 30
0.0
 10
10.6513064023
 20
10.5281157086
 30
0.0
 10
10.6490721231
 20
10.5298137043
 30
0.0
 10
10.646944421
 20
10.5315209027
 30
0.0
 10
10.6449238803
 20
10.53323685
 30
0.0
 10
10.6436301273
 20
10.5344030441
 30
0.0
 10
10.6430019388
 20
10.5349876396
 30
0.0
  0
SPLINE
  5
3CD
100
AcDbEntity
  8
0
100
AcDbSpline
 62
7
  6
CONTINUOUS
 70
0
 71
3
 72
11
 73
7
 74
0
 42
0.0000001
 43
0.0000001
 44
0.0000000001
 40
0.0
 40
0.0
 40
0.0
 40
0.0
 40
0.2598463051
 40
0.5132467979
 40
0.760021328
 40
1.0
 40
1.0
 40
1.0
 40
1.0
 10
11.3790701355
 20
10.9498899762
 30
0.0
 10
11.3827229181
 20
10.9507272292
 30
0.0
 10
11.3899271261
 20
10.9524283276
 30
0.0
 10
11.4005590009
 20
10.9550958395
 30
0.0
 10
11.4108737236
 20
10.9578453547
 30
0.0
 10
11.4176283315
 20
10.9597584989
 30
0.0
 10
11.4209503445
 20
10.9607293678
 30
0.0
  0
SPLINE
  5
3CE
100
AcDbEntity
  8
0
100
AcDbSpline
 62
7
  6
CONTINUOUS
 70
0
 71
3
 72
15
 73
11
 74
0
 42
0.0000001
 43
0.0000001
 44
0.0000000001
 40
0.0
 40
0.0
 40
0.0
 40
0.0
 40
0.1134581172
 40
0.2300154468
 40
0.3497835267
 40
0.4728652766
 40
0.5993515156
 40
0.7293230661
 40
0.8628525369
 40
1.0
 40
1.0
 40
1.0
 40
1.0
 10
10.5757342211
 20
11.019345305
 30
0.0
 10
10.5762343263
 20
11.0187106948
 30
0.0
 10
10.5772727936
 20
11.0174433456
 30
0.0
 10
10.5789195163
 20
11.0155737216
 30
0.0
 10
10.5806753999
 20
11.0137108628
 30
0.0
 10
10.5825400011
 20
11.011855221
 30
0.0
 10
10.5845128993
 20
11.0100071887
 30
0.0
 10
10.5865936526
 20
11.0081671724
 30
0.0
 10
10.5887817611
 20
11.0063356013
 30
0.0
 10
10.5902913926
 20
11.0051366114
 30
0.0
 10
10.5910634576
 20
11.0045384249
 30
0.0
  0
SPLINE
  5
3CF
100
AcDbEntity
  8
0
100
AcDbSpline
 62
7
  6
CONTINUOUS
 70
0
 71
3
 72
34
 73
30
 74
0
 42
0.0000001
 43
0.0000001
 44
0.0000000001
 40
0.0
 40
0.0
 40
0.0
 40
0.0
 40
0.0584985217
 40
0.0878302154
 40
0.1172264578
 40
0.1466957754
 40
0.1762472446
 40
0.2058904391
 40
0.2356353474
 40
0.26549227
 40
0.2954716926
 40
0.3255841373
 40
0.3558399988
 40
0.3862493677
 40
0.4168218488
 40
0.4475663812
 40
0.478491069
 40
0.5096030303
 40
0.5409082717
 40
0.5724115962
 40
0.6041165445
 40
0.6360253728
 40
0.6681390667
 40
0.7004573863
 40
0.7329789408
 40
0.7986184052
 40
0.8650303965
 40
0.9321737117
 40
1.0
 40
1.0
 40
1.0
 40
1.0
 10
10.5910634576
 20
11.0045384249
 30
0.0
 10
10.597378778
 20
11.0051284769
 30
0.0
 10
10.6068771364
 20
11.0058518326
 30
0.0
 10
10.6195734827
 20
11.0064636192
 30
0.0
 10
10.6291331355
 20
11.0067394289
 30
0.0
 10
10.6387202136
 20
11.0068241572
 30
0.0
 10
10.6483338281
 20
11.0067103651
 30
0.0
 10
10.6579727425
 20
11.006390834
 30
0.0
 10
10.6676354708
 20
11.0058586782
 30
0.0
 10
10.6773202434
 20
11.0051074455
 30
0.0
 10
10.6870250166
 20
11.0041312253
 30
0.0
 10
10.6967474801
 20
11.0029247563
 30
0.0
 10
10.7064850753
 20
11.0014835286
 30
0.0
 10
10.7162350219
 20
10.9998038769
 30
0.0
 10
10.7259943522
 20
10.9978830608
 30
0.0
 10
10.7357599523
 20
10.9957193285
 30
0.0
 10
10.74552861
 20
10.9933119607
 30
0.0
 10
10.755297066
 20
10.9906612912
 30
0.0
 10
10.7650620674
 20
10.9877687064
 30
0.0
 10
10.7748204206
 20
10.9846366164
 30
0.0
 10
10.7845690406
 20
10.9812684063
 30
0.0
 10
10.7943050003
 20
10.9776683659
 30
0.0
 10
10.8040255554
 20
10.9738416102
 30
0.0
 10
10.8137282296
 20
10.9697939563
 30
0.0
 10
10.8266774444
 20
10.9640939178
 30
0.0
 10
10.842804726
 20
10.9564469558
 30
0.0
 10
10.8619955324
 20
10.9465296975
 30
0.0
 10
10.8810758408
 20
10.9359064408
 30
0.0
 10
10.8936594322
 20
10.9284314111
 30
0.0
 10
10.8999347612
 20
10.9245967504
 30
0.0
  0
SPLINE
  5
3D0
100
AcDbEntity
  8
0
100
AcDbSpline
 62
7
  6
CONTINUOUS
 70
0
 71
3
 72
39
 73
35
 74
0
 42
0.0000001
 43
0.0000001
 44
0.0000000001
 40
0.0
 40
0.0
 40
0.0
 40
0.0
 40
0.0357131608
 40
0.0711808911
 40
0.1063874509
 40
0.14131673
 40
0.1759525851
 40
0.2102791202
 40
0.2442810841
 40
0.2779443343
 40
0.3112563833
 40
0.3442069847
 40
0.3767887365
 40
0.4089976887
 40
0.440833876
 40
0.4723017367
 40
0.5034103601
 40
0.5341735226
 40
0.5646094897
 40
0.5947405559
 40
0.624592402
 40
0.6541932607
 40
0.6835729872
 40
0.7127621379
 40
0.7417910577
 40
0.7706890977
 40
0.7994839942
 40
0.8282013787
 40
0.8568644725
 40
0.8854939395
 40
0.914107851
 40
0.9427217591
 40
0.9713488093
 40
1.0
 40
1.0
 40
1.0
 40
1.0
 10
10.5910634576
 20
10.5839391992
 30
0.0
 10
10.5940945402
 20
10.5813053867
 30
0.0
 10
10.6001789983
 20
10.5761052083
 30
0.0
 10
10.609408622
 20
10.5684947455
 30
0.0
 10
10.6187119823
 20
10.561115401
 30
0.0
 10
10.6280893989
 20
10.5539837072
 30
0.0
 10
10.6375406368
 20
10.5471169476
 30
0.0
 10
10.6470647579
 20
10.5405330782
 30
0.0
 10
10.6566600265
 20
10.5342505484
 30
0.0
 10
10.6663238067
 20
10.5282880777
 30
0.0
 10
10.676052478
 20
10.5226643744
 30
0.0
 10
10.6858413721
 20
10.5173978038
 30
0.0
 10
10.6956847306
 20
10.5125059878
 30
0.0
 10
10.7055757142
 20
10.5080053865
 30
0.0
 10
10.7155064581
 20
10.5039108604
 30
0.0
 10
10.7254681621
 20
10.5002351963
 30
0.0
 10
10.7354512609
 20
10.4969887274
 30
0.0
 10
10.7454456251
 20
10.494178974
 30
0.0
 10
10.7554407993
 20
10.4918103593
 30
0.0
 10
10.7654262863
 20
10.4898841139
 30
0.0
 10
10.7753918099
 20
10.4883982058
 30
0.0
 10
10.7853275846
 20
10.4873474708
 30
0.0
 10
10.7952245477
 20
10.4867238516
 30
0.0
 10
10.8050745393
 20
10.4865166782
 30
0.0
 10
10.8148704372
 20
10.4867130935
 30
0.0
 10
10.8246062263
 20
10.487298467
 30
0.0
 10
10.8342770184
 20
10.4882568195
 30
0.0
 10
10.8438790232
 20
10.4895712572
 30
0.0
 10
10.8534094822
 20
10.4912243481
 30
0.0
 10
10.8628665817
 20
10.4931984576
 30
0.0
 10
10.8722493384
 20
10.4954760317
 30
0.0
 10
10.8815575186
 20
10.4980398365
 30
0.0
 10
10.8907914046
 20
10.5008730914
 30
0.0
 10
10.8968953637
 20
10.502929793
 30
0.0
 10
10.8999347612
 20
10.5039975247
 30
0.0
  0
SPLINE
  5
3D1
100
AcDbEntity
  8
0
100
AcDbSpline
 62
7
  6
CONTINUOUS
 70
0
 71
3
 72
34
 73
30
 74
0
 42
0.0000001
 43
0.0000001
 44
0.0000000001
 40
0.0
 40
0.0
 40
0.0
 40
0.0
 40
0.0634866499
 40
0.1268757617
 40
0.1901559488
 40
0.2217524835
 40
0.2533175613
 40
0.2848498219
 40
0.3163479752
 40
0.3478108244
 40
0.37923729
 40
0.410626433
 40
0.4419774759
 40
0.4732898202
 40
0.5045630611
 40
0.5357969968
 40
0.5669916332
 40
0.5981471839
 40
0.6292640629
 40
0.6603428743
 40
0.6913843958
 40
0.7223895607
 40
0.7533594367
 40
0.7842952036
 40
0.8151981295
 40
0.8460695479
 40
0.8769108365
 40
0.9385071607
 40
1.0
 40
1.0
 40
1.0
 40
1.0
 10
10.9571442066
 20
10.9206292619
 30
0.0
 10
10.9657513767
 20
10.9234456634
 30
0.0
 10
10.9830175212
 20
10.9288781695
 30
0.0
 10
11.0090907484
 20
10.9363699776
 30
0.0
 10
11.0309542763
 20
10.9420116121
 30
0.0
 10
11.0485148089
 20
10.9461310343
 30
0.0
 10
11.0617117911
 20
10.9490151062
 30
0.0
 10
11.0749388548
 20
10.9516879823
 30
0.0
 10
11.0881932817
 20
10.9541430502
 30
0.0
 10
11.101471954
 20
10.9563742358
 30
0.0
 10
11.1147714272
 20
10.9583761285
 30
0.0
 10
11.1280879506
 20
10.9601440784
 30
0.0
 10
11.1414175157
 20
10.9616742902
 30
0.0
 10
11.1547559096
 20
10.9629639012
 30
0.0
 10
11.168098778
 20
10.9640110417
 30
0.0
 10
11.1814416935
 20
10.9648148754
 30
0.0
 10
11.1947802275
 20
10.9653756183
 30
0.0
 10
11.2081100218
 20
10.9656945301
 30
0.0
 10
11.2214268576
 20
10.9657738834
 30
0.0
 10
11.2347267183
 20
10.9656169128
 30
0.0
 10
11.2480058445
 20
10.9652277435
 30
0.0
 10
11.261260779
 20
10.9646113056
 30
0.0
 10
11.2744884013
 20
10.9637732371
 30
0.0
 10
11.2876859527
 20
10.9627197786
 30
0.0
 10
11.3008510383
 20
10.9614576671
 30
0.0
 10
11.3139816683
 20
10.9599940193
 30
0.0
 10
11.3314327086
 20
10.9577847202
 30
0.0
 10
11.3531550832
 20
10.954557063
 30
0.0
 10
11.3704501391
 20
10.951514975
 30
0.0
 10
11.3790701355
 20
10.9498899762
 30
0.0
  0
SPLINE
  5
3D2
100
AcDbEntity
  8
0
100
AcDbSpline
 62
7
  6
CONTINUOUS
 70
0
 71
3
 72
37
 73
33
 74
0
 42
0.0000001
 43
0.0000001
 44
0.0000000001
 40
0.0
 40
0.0
 40
0.0
 40
0.0
 40
0.0609208324
 40
0.1219714527
 40
0.1525553083
 40
0.1831814815
 40
0.2138534995
 40
0.2445749422
 40
0.2753493825
 40
0.3061803013
 40
0.3370709727
 40
0.3680243738
 40
0.3990430764
 40
0.4301291276
 40
0.4612839763
 40
0.4925083981
 40
0.5238024525
 40
0.5551654819
 40
0.5865961359
 40
0.6180924304
 40
0.6496518265
 40
0.6812713434
 40
0.7129476573
 40
0.7446772128
 40
0.7764563415
 40
0.8082813405
 40
0.8401485512
 40
0.8720544325
 40
0.9039956027
 40
0.9359688761
 40
0.967971251
 40
1.0
 40
1.0
 40
1.0
 40
1.0
 10
10.9571442066
 20
10.5000300361
 30
0.0
 10
10.9654599733
 20
10.4968926173
 30
0.0
 10
10.9822272965
 20
10.4909183325
 30
0.0
 10
11.003491213
 20
10.4843191925
 30
0.0
 10
11.020700262
 20
10.4796224558
 30
0.0
 10
11.0337151995
 20
10.4764065174
 30
0.0
 10
11.0468272138
 20
10.4735174198
 30
0.0
 10
11.0600326262
 20
10.4709729616
 30
0.0
 10
11.0733263132
 20
10.4687905911
 30
0.0
 10
11.0867017162
 20
10.4669870174
 30
0.0
 10
11.1001507743
 20
10.4655777967
 30
0.0
 10
11.1136639522
 20
10.4645769117
 30
0.0
 10
11.1272303255
 20
10.4639963538
 30
0.0
 10
11.1408377396
 20
10.4638456817
 30
0.0
 10
11.1544730436
 20
10.4641317117
 30
0.0
 10
11.1681223849
 20
10.4648582388
 30
0.0
 10
11.1817715541
 20
10.4660258529
 30
0.0
 10
11.195406348
 20
10.4676319567
 30
0.0
 10
11.2090129404
 20
10.4696708016
 30
0.0
 10
11.2225782203
 20
10.4721337226
 30
0.0
 10
11.2360900802
 20
10.4750094584
 30
0.0
 10
11.2495376514
 20
10.4782844951
 30
0.0
 10
11.262911453
 20
10.4819435286
 30
0.0
 10
11.2762034767
 20
10.485969893
 30
0.0
 10
11.2894072065
 20
10.4903459809
 30
0.0
 10
11.3025175734
 20
10.4950536571
 30
0.0
 10
11.3155308704
 20
10.5000746042
 30
0.0
 10
11.3284446393
 20
10.5053906224
 30
0.0
 10
11.3412575298
 20
10.5109838725
 30
0.0
 10
11.3539691706
 20
10.5168370743
 30
0.0
 10
11.3665799596
 20
10.522933609
 30
0.0
 10
11.3749175686
 20
10.5271480828
 30
0.0
 10
11.3790701355
 20
10.5292907505
 30
0.0
  0
SPLINE
  5
3D3
100
AcDbEntity
  8
0
100
AcDbSpline
 62
7
  6
CONTINUOUS
 70
0
 71
3
 72
39
 73
35
 74
0
 42
0.0000001
 43
0.0000001
 44
0.0000000001
 40
0.0
 40
0.0
 40
0.0
 40
0.0
 40
0.0452273239
 40
0.0896786838
 40
0.1333179197
 40
0.1761090046
 40
0.2180165362
 40
0.2590062396
 40
0.2990455681
 40
0.3381043592
 40
0.3761555498
 40
0.4131759322
 40
0.4491469344
 40
0.4840553963
 40
0.5178943103
 40
0.550663499
 40
0.5823701918
 40
0.6130294671
 40
0.6426645278
 40
0.6713067821
 40
0.6989956949
 40
0.7257784073
 40
0.7517091201
 40
0.7768482468
 40
0.8012613599
 40
0.8250179648
 40
0.8481901507
 40
0.8708511754
 40
0.893074057
 40
0.9149302395
 40
0.9364883916
 40
0.9578133959
 40
0.9789655448
 40
1.0
 40
1.0
 40
1.0
 40
1.0
 10
11.4209503445
 20
10.9607293678
 30
0.0
 10
11.4220948116
 20
10.962936236
 30
0.0
 10
11.4243858058
 20
10.9673009068
 30
0.0
 10
11.4278615468
 20
10.9737523191
 30
0.0
 10
11.4313476427
 20
10.9800455199
 30
0.0
 10
11.4348439234
 20
10.9861726152
 30
0.0
 10
11.4383501454
 20
10.9921256464
 30
0.0
 10
11.44186598
 20
10.9978966479
 30
0.0
 10
11.44539101
 20
11.0034777311
 30
0.0
 10
11.4489247262
 20
11.0088611738
 30
0.0
 10
11.4524665266
 20
11.0140395201
 30
0.0
 10
11.4560157166
 20
11.0190056846
 30
0.0
 10
11.4595715131
 20
11.0237530624
 30
0.0
 10
11.4631330496
 20
11.0282756378
 30
0.0
 10
11.4666993851
 20
11.0325680887
 30
0.0
 10
11.4702695152
 20
11.0366258843
 30
0.0
 10
11.4738423841
 20
11.0404453692
 30
0.0
 10
11.4774168992
 20
11.0440238335
 30
0.0
 10
11.4809919461
 20
11.047359562
 30
0.0
 10
11.4845664017
 20
11.0504518656
 30
0.0
 10
11.4881391502
 20
11.053301086
 30
0.0
 10
11.4917090948
 20
11.0559085813
 30
0.0
 10
11.4952751701
 20
11.0582766899
 30
0.0
 10
11.4988363515
 20
11.060408677
 30
0.0
 10
11.502391665
 20
11.0623086663
 30
0.0
 10
11.5059401961
 20
11.0639815591
 30
0.0
 10
11.5094810984
 20
11.0654329449
 30
0.0
 10
11.513013604
 20
11.0666690046
 30
0.0
 10
11.5165370312
 20
11.0676964101
 30
0.0
 10
11.5200507969
 20
11.0685222242
 30
0.0
 10
11.5235544106
 20
11.0691538001
 30
0.0
 10
11.527047523
 20
11.0695986852
 30
0.0
 10
11.5305297611
 20
11.0698645295
 30
0.0
 10
11.5328487926
 20
11.0699276424
 30
0.0
 10
11.5340049698
 20
11.0699317566
 30
0.0
  0
SPLINE
  5
3D4
100
AcDbEntity
  8
0
100
AcDbSpline
 62
7
  6
CONTINUOUS
 70
0
 71
3
 72
34
 73
30
 74
0
 42
0.0000001
 43
0.0000001
 44
0.0000000001
 40
0.0
 40
0.0
 40
0.0
 40
0.0
 40
0.0643937578
 40
0.1269866475
 40
0.1878958803
 40
0.24729752
 40
0.2765130097
 40
0.3054503593
 40
0.3341527409
 40
0.3626686458
 40
0.3910519201
 40
0.4193616268
 40
0.4476618608
 40
0.4760213292
 40
0.5045128009
 40
0.5332124696
 40
0.5621990876
 40
0.591553077
 40
0.6213556119
 40
0.6516875412
 40
0.6826284739
 40
0.7142559103
 40
0.7466442876
 40
0.7798643418
 40
0.8490455974
 40
0.8851396092
 40
0.9223007436
 40
0.9605743197
 40
1.0
 40
1.0
 40
1.0
 40
1.0
 10
11.4209503445
 20
10.540130142
 30
0.0
 10
11.4220274472
 20
10.539375154
 30
0.0
 10
11.4241900862
 20
10.5379401447
 30
0.0
 10
11.4275080596
 20
10.5360061914
 30
0.0
 10
11.4308538989
 20
10.5343372805
 30
0.0
 10
11.4336817627
 20
10.5331743904
 30
0.0
 10
11.4359543003
 20
10.5323969403
 30
0.0
 10
11.4376561469
 20
10.5318935607
 30
0.0
 10
11.4393646083
 20
10.5314688361
 30
0.0
 10
11.4410796443
 20
10.5311248453
 30
0.0
 10
11.442801159
 20
10.5308636817
 30
0.0
 10
11.4445290366
 20
10.5306874152
 30
0.0
 10
11.4462631307
 20
10.5305980936
 30
0.0
 10
11.4480032654
 20
10.5305977286
 30
0.0
 10
11.4497492355
 20
10.5306882729
 30
0.0
 10
11.451500807
 20
10.5308716255
 30
0.0
 10
11.4532577198
 20
10.531149602
 30
0.0
 10
11.4550196912
 20
10.5315239248
 30
0.0
 10
11.4567864151
 20
10.5319962276
 30
0.0
 10
11.4585575689
 20
10.5325680191
 30
0.0
 10
11.4603328186
 20
10.5332406895
 30
0.0
 10
11.4621117989
 20
10.5340155007
 30
0.0
 10
11.4638941874
 20
10.5348935899
 30
0.0
 10
11.4663071437
 20
10.5362211837
 30
0.0
 10
11.46869377
 20
10.5377474076
 30
0.0
 10
11.4710496926
 20
10.5394554785
 30
0.0
 10
11.4728431578
 20
10.5408612213
 30
0.0
 10
11.4746375245
 20
10.5423735147
 30
0.0
 10
11.4758163743
 20
10.5434367146
 30
0.0
 10
11.4764059219
 20
10.543985352
 30
0.0
  0
SPLINE
  5
3D5
100
AcDbEntity
  8
0
100
AcDbSpline
 62
7
  6
CONTINUOUS
 70
0
 71
3
 72
102
 73
98
 74
0
 42
0.0000001
 43
0.0000001
 44
0.0000000001
 40
0.0
 40
0.0
 40
0.0
 40
0.0
 40
0.0233089576
 40
0.0467985085
 40
0.0704402588
 40
0.0942054025
 40
0.1180650156
 40
0.1419900056
 40
0.1659511795
 40
0.1899192883
 40
0.213865071
 40
0.2377593026
 40
0.2615728384
 40
0.2852766616
 40
0.3088419283
 40
0.3322400155
 40
0.3554425657
 40
0.3784215355
 40
0.4011492413
 40
0.4235984101
 40
0.4457422253
 40
0.4675543779
 40
0.4890091156
 40
0.5100812959
 40
0.5307464393
 40
0.550980787
 40
0.5707613571
 40
0.5900660081
 40
0.6088735042
 40
0.6271635887
 40
0.6449170631
 40
0.6621158741
 40
0.6787432114
 40
0.6947836205
 40
0.7025794181
 40
0.7102233788
 40
0.7177140119
 40
0.7250499445
 40
0.7322299235
 40
0.7392528191
 40
0.7461176437
 40
0.7528235467
 40
0.7593698365
 40
0.7657559842
 40
0.7719816359
 40
0.7780466333
 40
0.7839510169
 40
0.789695056
 40
0.7952792583
 40
0.8007043944
 40
0.8059715266
 40
0.8110820248
 40
0.816037611
 40
0.8208403812
 40
0.8254928487
 40
0.8299979877
 40
0.8343592702
 40
0.838580728
 40
0.8426669934
 40
0.8466233618
 40
0.8504558463
 40
0.8541712277
 40
0.8612794508
 40
0.8646926329
 40
0.8680243962
 40
0.8712858715
 40
0.8744890198
 40
0.8776465405
 40
0.880771752
 40
0.88387843
 40
0.8869806218
 40
0.8900924411
 40
0.8932278596
 40
0.8964005062
 40
0.8996234901
 40
0.9029092548
 40
0.9062694647
 40
0.9097149376
 40
0.9132555991
 40
0.9169004804
 40
0.9206577303
 40
0.924534647
 40
0.9285377291
 40
0.9326727177
 40
0.9369446623
 40
0.9413579699
 40
0.9459164595
 40
0.9506234207
 40
0.9554816496
 40
0.9604935064
 40
0.9656609453
 40
0.9709855543
 40
0.9764685921
 40
0.9821110066
 40
0.9879134742
 40
0.993876411
 40
1.0
 40
1.0
 40
1.0
 40
1.0
 10
10.9435774979
 20
10.9700415897
 30
0.0
 10
10.9486074501
 20
10.9696927613
 30
0.0
 10
10.9587099051
 20
10.9690430232
 30
0.0
 10
10.9739247361
 20
10.9682143577
 30
0.0
 10
10.9892454656
 20
10.9675285604
 30
0.0
 10
11.0046520462
 20
10.9669865339
 30
0.0
 10
11.0201243189
 20
10.9665889884
 30
0.0
 10
11.035642045
 20
10.9663364463
 30
0.0
 10
11.0511849242
 20
10.9662292386
 30
0.0
 10
11.0667326236
 20
10.9662675058
 30
0.0
 10
11.0822648041
 20
10.9664511976
 30
0.0
 10
11.0977611466
 20
10.9667800731
 30
0.0
 10
11.1132013793
 20
10.967253701
 30
0.0
 10
11.1285653038
 20
10.96787146
 30
0.0
 10
11.1438328221
 20
10.9686325392
 30
0.0
 10
11.1589839624
 20
10.96953594
 30
0.0
 10
11.1739989058
 20
10.9705804767
 30
0.0
 10
11.1888580118
 20
10.9717647788
 30
0.0
 10
11.2035418447
 20
10.9730872924
 30
0.0
 10
11.2180311988
 20
10.9745462813
 30
0.0
 10
11.232307124
 20
10.9761398303
 30
0.0
 10
11.2463509505
 20
10.9778658475
 30
0.0
 10
11.2601443132
 20
10.979722067
 30
0.0
 10
11.2736691762
 20
10.9817060516
 30
0.0
 10
11.286907857
 20
10.9838151961
 30
0.0
 10
11.29984305
 20
10.9860467303
 30
0.0
 10
11.3124578492
 20
10.9883977229
 30
0.0
 10
11.3247357709
 20
10.9908650856
 30
0.0
 10
11.3366607756
 20
10.9934455772
 30
0.0
 10
11.3482172912
 20
10.9961358073
 30
0.0
 10
11.3593902299
 20
10.9989322412
 30
0.0
 10
11.3701650274
 20
11.0018312051
 30
0.0
 10
11.3805275955
 20
11.0048288904
 30
0.0
 10
11.3888857053
 20
11.0074300035
 30
0.0
 10
11.3953537274
 20
11.0095599361
 30
0.0
 10
11.4000473098
 20
11.0111644416
 30
0.0
 10
11.4046280001
 20
11.0127906352
 30
0.0
 10
11.4090943073
 20
11.0144379898
 30
0.0
 10
11.4134447729
 20
11.016105964
 30
0.0
 10
11.4176779771
 20
11.0177940155
 30
0.0
 10
11.4217925403
 20
11.0195015888
 30
0.0
 10
11.4257871202
 20
11.0212281296
 30
0.0
 10
11.4296604157
 20
11.0229730719
 30
0.0
 10
11.4334111656
 20
11.0247358467
 30
0.0
 10
11.4370381481
 20
11.0265158814
 30
0.0
 10
11.4405401849
 20
11.0283125929
 30
0.0
 10
11.4439161363
 20
11.030125401
 30
0.0
 10
11.4471649068
 20
11.0319537144
 30
0.0
 10
11.4502854422
 20
11.0337969417
 30
0.0
 10
11.4532767297
 20
11.0356544889
 30
0.0
 10
11.4561378024
 20
11.0375257538
 30
0.0
 10
11.4588677317
 20
11.0394101402
 30
0.0
 10
11.4614656369
 20
11.0413070415
 30
0.0
 10
11.4639306766
 20
11.043215856
 30
0.0
 10
11.466262053
 20
11.0451359804
 30
0.0
 10
11.4684590131
 20
11.0470668072
 30
0.0
 10
11.4705208402
 20
11.049007739
 30
0.0
 10
11.4724468631
 20
11.050958166
 30
0.0
 10
11.4742364528
 20
11.0529175027
 30
0.0
 10
11.4758889887
 20
11.0548851083
 30
0.0
 10
11.4774040004
 20
11.0568605298
 30
0.0
 10
11.4792129193
 20
11.0594650434
 30
0.0
 10
11.4807809052
 20
11.0621237121
 30
0.0
 10
11.4820777591
 20
11.0648267336
 30
0.0
 10
11.4828974921
 20
11.0668315125
 30
0.0
 10
11.4835769029
 20
11.0688402112
 30
0.0
 10
11.4841157118
 20
11.0708522073
 30
0.0
 10
11.4845136242
 20
11.0728667658
 30
0.0
 10
11.4847704303
 20
11.074883141
 30
0.0
 10
11.4848859838
 20
11.0769005583
 30
0.0
 10
11.4848602121
 20
11.078918228
 30
0.0
 10
11.4846931385
 20
11.0809353564
 30
0.0
 10
11.4843848514
 20
11.0829511575
 30
0.0
 10
11.4839355299
 20
11.0849648663
 30
0.0
 10
11.4833454121
 20
11.0869757442
 30
0.0
 10
11.4826147917
 20
11.0889830821
 30
0.0
 10
11.481744018
 20
11.0909862045
 30
0.0
 10
11.4807334654
 20
11.0929844563
 30
0.0
 10
11.4795835551
 20
11.0949772096
 30
0.0
 10
11.4782947299
 20
11.096963847
 30
0.0
 10
11.4768674645
 20
11.0989437618
 30
0.0
 10
11.4753022689
 20
11.1009163562
 30
0.0
 10
11.4735996766
 20
11.1028810275
 30
0.0
 10
11.4717602654
 20
11.1048371817
 30
0.0
 10
11.4697846419
 20
11.1067842167
 30
0.0
 10
11.4676734546
 20
11.108721532
 30
0.0
 10
11.4654273927
 20
11.1106485276
 30
0.0
 10
11.4630471818
 20
11.1125645957
 30
0.0
 10
11.4605335957
 20
11.114469137
 30
0.0
 10
11.4578874448
 20
11.1163615439
 30
0.0
 10
11.455109586
 20
11.1182412144
 30
0.0
 10
11.4522009185
 20
11.1201075477
 30
0.0
 10
11.4491623821
 20
11.1219599404
 30
0.0
 10
11.4459949644
 20
11.1237977989
 30
0.0
 10
11.4426996873
 20
11.1256205267
 30
0.0
 10
11.4392776353
 20
11.1274275284
 30
0.0
 10
11.4369434774
 20
11.12860568
 30
0.0
 10
11.4357558621
 20
11.129192339
 30
0.0
  0
SPLINE
  5
3D6
100
AcDbEntity
  8
0
100
AcDbSpline
 62
7
  6
CONTINUOUS
 70
0
 71
3
 72
41
 73
37
 74
0
 42
0.0000001
 43
0.0000001
 44
0.0000000001
 40
0.0
 40
0.0
 40
0.0
 40
0.0
 40
0.0311445478
 40
0.0624424446
 40
0.0938872679
 40
0.125469566
 40
0.1571770992
 40
0.1889951145
 40
0.2209066667
 40
0.2528929719
 40
0.2849337877
 40
0.3170078142
 40
0.3490931102
 40
0.381167517
 40
0.4132090858
 40
0.4451965025
 40
0.4771095029
 40
0.5089292747
 40
0.5406388381
 40
0.5722233999
 40
0.6036706736
 40
0.63497116
 40
0.6661183793
 40
0.6971090497
 40
0.7279432042
 40
0.7586242401
 40
0.7891588962
 40
0.8195571523
 40
0.8498320512
 40
0.8649308901
 40
0.8800050513
 40
0.9100832572
 40
0.940092674
 40
0.9550812744
 40
0.9700610349
 40
1.0
 40
1.0
 40
1.0
 40
1.0
 10
11.3837076643
 20
9.0575881668
 30
0.0
 10
11.3871985266
 20
9.0573460747
 30
0.0
 10
11.3941823162
 20
9.0566051769
 30
0.0
 10
11.4045733277
 20
9.0547388561
 30
0.0
 10
11.4148530526
 20
9.0521246744
 30
0.0
 10
11.4249659471
 20
9.0487767225
 30
0.0
 10
11.4348583034
 20
9.044712927
 30
0.0
 10
11.4444773483
 20
9.039955032
 30
0.0
 10
11.4537718406
 20
9.034528462
 30
0.0
 10
11.4626922536
 20
9.0284621915
 30
0.0
 10
11.4711910593
 20
9.0217885899
 30
0.0
 10
11.4792229728
 20
9.0145432502
 30
0.0
 10
11.4867451917
 20
9.0067648008
 30
0.0
 10
11.4937176223
 20
8.9984947015
 30
0.0
 10
11.5001030905
 20
8.9897770246
 30
0.0
 10
11.5058675389
 20
8.9806582224
 30
0.0
 10
11.5109802065
 20
8.9711868825
 30
0.0
 10
11.5154137917
 20
8.9614134719
 30
0.0
 10
11.5191445977
 20
8.9513900716
 30
0.0
 10
11.5221526586
 20
8.941170102
 30
0.0
 10
11.5244218467
 20
8.9308080429
 30
0.0
 10
11.5259399606
 20
8.9203591465
 30
0.0
 10
11.5266987921
 20
8.909879146
 30
0.0
 10
11.5266941753
 20
8.8994239654
 30
0.0
 10
11.5259260081
 20
8.8890494126
 30
0.0
 10
11.5243982779
 20
8.8788109251
 30
0.0
 10
11.5221189752
 20
8.8687631235
 30
0.0
 10
11.5191003228
 20
8.8589600811
 30
0.0
 10
11.5159785529
 20
8.8510299835
 30
0.0
 10
11.5131297256
 20
8.8448631284
 30
0.0
 10
11.5100553647
 20
8.8388303266
 30
0.0
 10
11.505786718
 20
8.8315333705
 30
0.0
 10
11.5009690949
 20
8.8245982447
 30
0.0
 10
11.4968059179
 20
8.8192972379
 30
0.0
 10
11.4924441966
 20
8.8141692139
 30
0.0
 10
11.4889496651
 20
8.8105185207
 30
0.0
 10
11.4865302422
 20
8.8081815355
 30
0.0
  0
SPLINE
  5
3D7
100
AcDbEntity
  8
0
100
AcDbSpline
 62
7
  6
CONTINUOUS
 70
0
 71
3
 72
41
 73
37
 74
0
 42
0.0000001
 43
0.0000001
 44
0.0000000001
 40
0.0
 40
0.0
 40
0.0
 40
0.0
 40
0.0311445478
 40
0.0624424446
 40
0.0938872679
 40
0.125469566
 40
0.1571770992
 40
0.1889951145
 40
0.2209066667
 40
0.2528929719
 40
0.2849337877
 40
0.3170078142
 40
0.3490931102
 40
0.381167517
 40
0.4132090858
 40
0.4451965025
 40
0.4771095029
 40
0.5089292747
 40
0.5406388381
 40
0.5722233999
 40
0.6036706736
 40
0.63497116
 40
0.6661183793
 40
0.6971090497
 40
0.7279432042
 40
0.7586242401
 40
0.7891588962
 40
0.8195571523
 40
0.8498320512
 40
0.8649308901
 40
0.8800050513
 40
0.9100832572
 40
0.940092674
 40
0.9550812744
 40
0.9700610349
 40
1.0
 40
1.0
 40
1.0
 40
1.0
 10
10.1763003098
 20
9.1413221512
 30
0.0
 10
10.1797911722
 20
9.1410800591
 30
0.0
 10
10.1867749618
 20
9.1403391613
 30
0.0
 10
10.1971659733
 20
9.1384728405
 30
0.0
 10
10.2074456982
 20
9.1358586588
 30
0.0
 10
10.2175585927
 20
9.1325107069
 30
0.0
 10
10.227450949
 20
9.1284469114
 30
0.0
 10
10.2370699939
 20
9.1236890164
 30
0.0
 10
10.2463644862
 20
9.1182624465
 30
0.0
 10
10.2552848991
 20
9.112196176
 30
0.0
 10
10.2637837049
 20
9.1055225744
 30
0.0
 10
10.2718156184
 20
9.0982772346
 30
0.0
 10
10.2793378373
 20
9.0904987853
 30
0.0
 10
10.2863102679
 20
9.082228686
 30
0.0
 10
10.2926957361
 20
9.073511009
 30
0.0
 10
10.2984601845
 20
9.0643922068
 30
0.0
 10
10.3035728521
 20
9.0549208669
 30
0.0
 10
10.3080064373
 20
9.0451474564
 30
0.0
 10
10.3117372433
 20
9.035124056
 30
0.0
 10
10.3147453042
 20
9.0249040865
 30
0.0
 10
10.3170144923
 20
9.0145420274
 30
0.0
 10
10.3185326062
 20
9.0040931309
 30
0.0
 10
10.3192914377
 20
8.9936131304
 30
0.0
 10
10.3192868209
 20
8.9831579498
 30
0.0
 10
10.3185186537
 20
8.972783397
 30
0.0
 10
10.3169909235
 20
8.9625449095
 30
0.0
 10
10.3147116208
 20
8.9524971079
 30
0.0
 10
10.3116929684
 20
8.9426940655
 30
0.0
 10
10.3085711985
 20
8.9347639679
 30
0.0
 10
10.3057223712
 20
8.9285971128
 30
0.0
 10
10.3026480102
 20
8.922564311
 30
0.0
 10
10.2983793636
 20
8.9152673549
 30
0.0
 10
10.2935617405
 20
8.9083322291
 30
0.0
 10
10.2893985635
 20
8.9030312224
 30
0.0
 10
10.2850368422
 20
8.8979031983
 30
0.0
 10
10.2815423107
 20
8.8942525051
 30
0.0
 10
10.2791228878
 20
8.8919155199
 30
0.0
  0
SPLINE
  5
3D8
100
AcDbEntity
  8
0
100
AcDbSpline
 62
7
  6
CONTINUOUS
 70
0
 71
3
 72
41
 73
37
 74
0
 42
0.0000001
 43
0.0000001
 44
0.0000000001
 40
0.0
 40
0.0
 40
0.0
 40
0.0
 40
0.0311445478
 40
0.0624424446
 40
0.0938872679
 40
0.125469566
 40
0.1571770992
 40
0.1889951145
 40
0.2209066667
 40
0.2528929719
 40
0.2849337877
 40
0.3170078142
 40
0.3490931102
 40
0.381167517
 40
0.4132090858
 40
0.4451965025
 40
0.4771095029
 40
0.5089292747
 40
0.5406388381
 40
0.5722233999
 40
0.6036706736
 40
0.63497116
 40
0.6661183793
 40
0.6971090497
 40
0.7279432042
 40
0.7586242401
 40
0.7891588962
 40
0.8195571523
 40
0.8498320512
 40
0.8649308901
 40
0.8800050513
 40
0.9100832572
 40
0.940092674
 40
0.9550812744
 40
0.9700610349
 40
1.0
 40
1.0
 40
1.0
 40
1.0
 10
10.1763003098
 20
7.6016363104
 30
0.0
 10
10.1797911722
 20
7.6013942183
 30
0.0
 10
10.1867749618
 20
7.6006533205
 30
0.0
 10
10.1971659733
 20
7.5987869997
 30
0.0
 10
10.2074456982
 20
7.596172818
 30
0.0
 10
10.2175585927
 20
7.5928248661
 30
0.0
 10
10.227450949
 20
7.5887610706
 30
0.0
 10
10.2370699939
 20
7.5840031756
 30
0.0
 10
10.2463644862
 20
7.5785766056
 30
0.0
 10
10.2552848991
 20
7.5725103351
 30
0.0
 10
10.2637837049
 20
7.5658367335
 30
0.0
 10
10.2718156184
 20
7.5585913938
 30
0.0
 10
10.2793378373
 20
7.5508129444
 30
0.0
 10
10.2863102679
 20
7.5425428451
 30
0.0
 10
10.2926957361
 20
7.5338251682
 30
0.0
 10
10.2984601845
 20
7.524706366
 30
0.0
 10
10.3035728521
 20
7.5152350261
 30
0.0
 10
10.3080064373
 20
7.5054616155
 30
0.0
 10
10.3117372433
 20
7.4954382152
 30
0.0
 10
10.3147453042
 20
7.4852182456
 30
0.0
 10
10.3170144923
 20
7.4748561865
 30
0.0
 10
10.3185326062
 20
7.4644072901
 30
0.0
 10
10.3192914377
 20
7.4539272896
 30
0.0
 10
10.3192868209
 20
7.443472109
 30
0.0
 10
10.3185186537
 20
7.4330975562
 30
0.0
 10
10.3169909235
 20
7.4228590687
 30
0.0
 10
10.3147116208
 20
7.4128112671
 30
0.0
 10
10.3116929684
 20
7.4030082247
 30
0.0
 10
10.3085711985
 20
7.3950781271
 30
0.0
 10
10.3057223712
 20
7.3889112719
 30
0.0
 10
10.3026480102
 20
7.3828784702
 30
0.0
 10
10.2983793636
 20
7.3755815141
 30
0.0
 10
10.2935617405
 20
7.3686463883
 30
0.0
 10
10.2893985635
 20
7.3633453815
 30
0.0
 10
10.2850368422
 20
7.3582173575
 30
0.0
 10
10.2815423107
 20
7.3545666643
 30
0.0
 10
10.2791228878
 20
7.3522296791
 30
0.0
  0
SPLINE
  5
3D9
100
AcDbEntity
  8
0
100
AcDbSpline
 62
7
  6
CONTINUOUS
 70
0
 71
3
 72
41
 73
37
 74
0
 42
0.0000001
 43
0.0000001
 44
0.0000000001
 40
0.0
 40
0.0
 40
0.0
 40
0.0
 40
0.0311445478
 40
0.0624424446
 40
0.0938872679
 40
0.125469566
 40
0.1571770992
 40
0.1889951145
 40
0.2209066667
 40
0.2528929719
 40
0.2849337877
 40
0.3170078142
 40
0.3490931102
 40
0.381167517
 40
0.4132090858
 40
0.4451965025
 40
0.4771095029
 40
0.5089292747
 40
0.5406388381
 40
0.5722233999
 40
0.6036706736
 40
0.63497116
 40
0.6661183793
 40
0.6971090497
 40
0.7279432042
 40
0.7586242401
 40
0.7891588962
 40
0.8195571523
 40
0.8498320512
 40
0.8649308901
 40
0.8800050513
 40
0.9100832572
 40
0.940092674
 40
0.9550812744
 40
0.9700610349
 40
1.0
 40
1.0
 40
1.0
 40
1.0
 10
11.3837076643
 20
7.517902326
 30
0.0
 10
11.3871985266
 20
7.5176602338
 30
0.0
 10
11.3941823162
 20
7.516919336
 30
0.0
 10
11.4045733277
 20
7.5150530153
 30
0.0
 10
11.4148530526
 20
7.5124388335
 30
0.0
 10
11.4249659471
 20
7.5090908817
 30
0.0
 10
11.4348583034
 20
7.5050270861
 30
0.0
 10
11.4444773483
 20
7.5002691912
 30
0.0
 10
11.4537718406
 20
7.4948426212
 30
0.0
 10
11.4626922536
 20
7.4887763507
 30
0.0
 10
11.4711910593
 20
7.4821027491
 30
0.0
 10
11.4792229728
 20
7.4748574094
 30
0.0
 10
11.4867451917
 20
7.46707896
 30
0.0
 10
11.4937176223
 20
7.4588088607
 30
0.0
 10
11.5001030905
 20
7.4500911838
 30
0.0
 10
11.5058675389
 20
7.4409723816
 30
0.0
 10
11.5109802065
 20
7.4315010417
 30
0.0
 10
11.5154137917
 20
7.4217276311
 30
0.0
 10
11.5191445977
 20
7.4117042307
 30
0.0
 10
11.5221526586
 20
7.4014842612
 30
0.0
 10
11.5244218467
 20
7.3911222021
 30
0.0
 10
11.5259399606
 20
7.3806733057
 30
0.0
 10
11.5266987921
 20
7.3701933052
 30
0.0
 10
11.5266941753
 20
7.3597381245
 30
0.0
 10
11.5259260081
 20
7.3493635717
 30
0.0
 10
11.5243982779
 20
7.3391250843
 30
0.0
 10
11.5221189752
 20
7.3290772827
 30
0.0
 10
11.5191003228
 20
7.3192742402
 30
0.0
 10
11.5159785529
 20
7.3113441427
 30
0.0
 10
11.5131297256
 20
7.3051772875
 30
0.0
 10
11.5100553647
 20
7.2991444857
 30
0.0
 10
11.505786718
 20
7.2918475296
 30
0.0
 10
11.5009690949
 20
7.2849124038
 30
0.0
 10
11.4968059179
 20
7.2796113971
 30
0.0
 10
11.4924441966
 20
7.2744833731
 30
0.0
 10
11.4889496651
 20
7.2708326799
 30
0.0
 10
11.4865302422
 20
7.2684956947
 30
0.0
  0
SPLINE
  5
3DA
100
AcDbEntity
  8
0
100
AcDbSpline
 62
7
  6
CONTINUOUS
 70
0
 71
3
 72
37
 73
33
 74
0
 42
0.0000001
 43
0.0000001
 44
0.0000000001
 40
0.0
 40
0.0
 40
0.0
 40
0.0
 40
0.0311464763
 40
0.0624483004
 40
0.0938952738
 40
0.1254804953
 40
0.1571907415
 40
0.1890115257
 40
0.2209258547
 40
0.252914932
 40
0.2849585264
 40
0.317035338
 40
0.3491234252
 40
0.381200621
 40
0.4451976236
 40
0.5088978732
 40
0.5406101981
 40
0.5721975056
 40
0.6036475114
 40
0.634950721
 40
0.6661006564
 40
0.6970940303
 40
0.7279308694
 40
0.7586145731
 40
0.7891518852
 40
0.8195527902
 40
0.8498303302
 40
0.8800003491
 40
0.9100811696
 40
0.9400931924
 40
0.9700584311
 40
1.0
 40
1.0
 40
1.0
 40
1.0
 10
10.7800039871
 20
8.2484744068
 30
0.0
 10
10.7815135082
 20
8.2483697212
 30
0.0
 10
10.7845335365
 20
8.2480493105
 30
0.0
 10
10.7890269374
 20
8.2472422945
 30
0.0
 10
10.7934722431
 20
8.246111794
 30
0.0
 10
10.7978453648
 20
8.2446640681
 30
0.0
 10
10.8021231388
 20
8.2429067535
 30
0.0
 10
10.8062827171
 20
8.2408492949
 30
0.0
 10
10.8103019475
 20
8.2385026719
 30
0.0
 10
10.8141594136
 20
8.2358794297
 30
0.0
 10
10.8178345759
 20
8.2329935513
 30
0.0
 10
10.8213078129
 20
8.2298604854
 30
0.0
 10
10.8245607542
 20
8.2264967065
 30
0.0
 10
10.8285767696
 20
8.2217334212
 30
0.0
 10
10.8329627194
 20
8.2152979858
 30
0.0
 10
10.8364175901
 20
8.2083374774
 30
0.0
 10
10.8385711942
 20
8.2025511725
 30
0.0
 10
10.8398720564
 20
8.1981315976
 30
0.0
 10
10.8408533147
 20
8.1936507562
 30
0.0
 10
10.8415098175
 20
8.1891323164
 30
0.0
 10
10.8418379804
 20
8.1846004372
 30
0.0
 10
10.8418359996
 20
8.1800792851
 30
0.0
 10
10.8415038289
 20
8.1755930022
 30
0.0
 10
10.8408431991
 20
8.1711655487
 30
0.0
 10
10.8398575872
 20
8.1668205835
 30
0.0
 10
10.8385522059
 20
8.1625813372
 30
0.0
 10
10.8369339796
 20
8.1584704916
 30
0.0
 10
10.8350115052
 20
8.1545100496
 30
0.0
 10
10.8327950596
 20
8.1507212315
 30
0.0
 10
10.8302964117
 20
8.1471242604
 30
0.0
 10
10.8275291646
 20
8.1437386511
 30
0.0
 10
10.8255142482
 20
8.1416336844
 30
0.0
 10
10.8244680161
 20
8.1406230956
 30
0.0
  0
SPLINE
  5
3DB
100
AcDbEntity
  8
0
100
AcDbSpline
 62
7
  6
CONTINUOUS
 70
0
 71
3
 72
37
 73
33
 74
0
 42
0.0000001
 43
0.0000001
 44
0.0000000001
 40
0.0
 40
0.0
 40
0.0
 40
0.0
 40
0.0311464763
 40
0.0624483004
 40
0.0938952738
 40
0.1254804953
 40
0.1571907415
 40
0.1890115257
 40
0.2209258547
 40
0.252914932
 40
0.2849585264
 40
0.317035338
 40
0.3491234252
 40
0.381200621
 40
0.4451976236
 40
0.5088978732
 40
0.5406101981
 40
0.5721975056
 40
0.6036475114
 40
0.634950721
 40
0.6661006564
 40
0.6970940303
 40
0.7279308694
 40
0.7586145731
 40
0.7891518852
 40
0.8195527902
 40
0.8498303302
 40
0.8800003491
 40
0.9100811696
 40
0.9400931924
 40
0.9700584311
 40
1.0
 40
1.0
 40
1.0
 40
1.0
 10
11.3991624809
 20
7.7679711279
 30
0.0
 10
11.4006720021
 20
7.7678664422
 30
0.0
 10
11.4036920304
 20
7.7675460315
 30
0.0
 10
11.4081854313
 20
7.7667390156
 30
0.0
 10
11.412630737
 20
7.7656085151
 30
0.0
 10
11.4170038586
 20
7.7641607892
 30
0.0
 10
11.4212816326
 20
7.7624034745
 30
0.0
 10
11.4254412109
 20
7.7603460159
 30
0.0
 10
11.4294604414
 20
7.757999393
 30
0.0
 10
11.4333179075
 20
7.7553761507
 30
0.0
 10
11.4369930697
 20
7.7524902724
 30
0.0
 10
11.4404663068
 20
7.7493572064
 30
0.0
 10
11.4437192481
 20
7.7459934276
 30
0.0
 10
11.4477352635
 20
7.7412301422
 30
0.0
 10
11.4521212133
 20
7.7347947069
 30
0.0
 10
11.455576084
 20
7.7278341984
 30
0.0
 10
11.4577296881
 20
7.7220478936
 30
0.0
 10
11.4590305502
 20
7.7176283186
 30
0.0
 10
11.4600118086
 20
7.7131474772
 30
0.0
 10
11.4606683114
 20
7.7086290374
 30
0.0
 10
11.4609964742
 20
7.7040971583
 30
0.0
 10
11.4609944934
 20
7.6995760062
 30
0.0
 10
11.4606623228
 20
7.6950897232
 30
0.0
 10
11.460001693
 20
7.6906622698
 30
0.0
 10
11.459016081
 20
7.6863173046
 30
0.0
 10
11.4577106998
 20
7.6820780583
 30
0.0
 10
11.4560924734
 20
7.6779672126
 30
0.0
 10
11.4541699991
 20
7.6740067706
 30
0.0
 10
11.4519535534
 20
7.6702179526
 30
0.0
 10
11.4494549056
 20
7.6666209815
 30
0.0
 10
11.4466876585
 20
7.6632353722
 30
0.0
 10
11.444672742
 20
7.6611304055
 30
0.0
 10
11.44362651
 20
7.6601198166
 30
0.0
  0
SPLINE
  5
3DC
100
AcDbEntity
  8
0
100
AcDbSpline
 62
7
  6
CONTINUOUS
 70
0
 71
3
 72
37
 73
33
 74
0
 42
0.0000001
 43
0.0000001
 44
0.0000000001
 40
0.0
 40
0.0
 40
0.0
 40
0.0
 40
0.0311467573
 40
0.0624481077
 40
0.0938952645
 40
0.125480423
 40
0.1571906467
 40
0.189011416
 40
0.2209257215
 40
0.2529147894
 40
0.2849583708
 40
0.3170351623
 40
0.381163081
 40
0.4451600481
 40
0.4770758024
 40
0.508898317
 40
0.5406106103
 40
0.5721978896
 40
0.6036478697
 40
0.6349510521
 40
0.6661009568
 40
0.6970942988
 40
0.7279311085
 40
0.7586147837
 40
0.7891520652
 40
0.819552936
 40
0.8498304416
 40
0.8800004329
 40
0.9100812331
 40
0.9400932378
 40
0.9700584557
 40
1.0
 40
1.0
 40
1.0
 40
1.0
 10
11.3991624809
 20
8.6566229582
 30
0.0
 10
11.4010022339
 20
8.6564953709
 30
0.0
 10
11.4046828985
 20
8.65610488
 30
0.0
 10
11.410159249
 20
8.6551213065
 30
0.0
 10
11.4155769697
 20
8.6537435186
 30
0.0
 10
11.4209067336
 20
8.6519790769
 30
0.0
 10
11.4261202826
 20
8.6498373328
 30
0.0
 10
11.4311897836
 20
8.647329799
 30
0.0
 10
11.4360882481
 20
8.6444698344
 30
0.0
 10
11.4407895159
 20
8.641272777
 30
0.0
 10
11.4452687443
 20
8.6377554466
 30
0.0
 10
11.4509108509
 20
8.6326660354
 30
0.0
 10
11.4572902443
 20
8.6256040738
 30
0.0
 10
11.4626436649
 20
8.6177470107
 30
0.0
 10
11.4662385101
 20
8.6110871679
 30
0.0
 10
11.4685752354
 20
8.6059361486
 30
0.0
 10
11.4705414307
 20
8.6006535769
 30
0.0
 10
11.4721267596
 20
8.5952673569
 30
0.0
 10
11.4733226744
 20
8.589806267
 30
0.0
 10
11.4741227568
 20
8.5842994081
 30
0.0
 10
11.4745226756
 20
8.5787761578
 30
0.0
 10
11.474520231
 20
8.5732659876
 30
0.0
 10
11.4741153701
 20
8.5677983151
 30
0.0
 10
11.4733101932
 20
8.562402344
 30
0.0
 10
11.4721089372
 20
8.5571069099
 30
0.0
 10
11.470517958
 20
8.5519403257
 30
0.0
 10
11.4685457018
 20
8.5469302323
 30
0.0
 10
11.4662026548
 20
8.5421034401
 30
0.0
 10
11.4635013255
 20
8.5374858181
 30
0.0
 10
11.4604560494
 20
8.5331020213
 30
0.0
 10
11.4570834167
 20
8.5289758269
 30
0.0
 10
11.4546276926
 20
8.5264104261
 30
0.0
 10
11.4533525878
 20
8.5251787724
 30
0.0
  0
SPLINE
  5
3DD
100
AcDbEntity
  8
0
100
AcDbSpline
 62
7
  6
CONTINUOUS
 70
0
 71
3
 72
32
 73
28
 74
0
 42
0.0000001
 43
0.0000001
 44
0.0000000001
 40
0.0
 40
0.0
 40
0.0
 40
0.0
 40
0.031426847
 40
0.0626422507
 40
0.0936630089
 40
0.1245125435
 40
0.1552207235
 40
0.1858201894
 40
0.2163440512
 40
0.2468239043
 40
0.2772885447
 40
0.3077632995
 40
0.3382698255
 40
0.3688262272
 40
0.3994473804
 40
0.4301453135
 40
0.4917803772
 40
0.5227579648
 40
0.5538393324
 40
0.6163031879
 40
0.679208541
 40
0.7425558746
 40
0.806335032
 40
0.8705247838
 40
0.9027743863
 40
0.9351127947
 40
1.0
 40
1.0
 40
1.0
 40
1.0
 10
10.6288202068
 20
8.5439071419
 30
0.0
 10
10.6288202068
 20
8.5470833709
 30
0.0
 10
10.6291338021
 20
8.5534191287
 30
0.0
 10
10.6305470844
 20
8.5627945806
 30
0.0
 10
10.6328737276
 20
8.5719264677
 30
0.0
 10
10.6360700811
 20
8.5807359987
 30
0.0
 10
10.6400802409
 20
8.5891581098
 30
0.0
 10
10.6448405521
 20
8.5971406462
 30
0.0
 10
10.6502835468
 20
8.6046444612
 30
0.0
 10
10.6563413076
 20
8.6116419559
 30
0.0
 10
10.6629478976
 20
8.618115282
 30
0.0
 10
10.6700409176
 20
8.6240543597
 30
0.0
 10
10.6775624189
 20
8.6294550411
 30
0.0
 10
10.6854590138
 20
8.6343174202
 30
0.0
 10
10.6936826297
 20
8.6386447648
 30
0.0
 10
10.7050359505
 20
8.6437131726
 30
0.0
 10
10.7168714983
 20
8.6477279232
 30
0.0
 10
10.7290158793
 20
8.650714473
 30
0.0
 10
10.7413907099
 20
8.6530376986
 30
0.0
 10
10.757148531
 20
8.6546890699
 30
0.0
 10
10.7762535991
 20
8.6547082778
 30
0.0
 10
10.7953965352
 20
8.6527931287
 30
0.0
 10
10.8143793854
 20
8.6489536297
 30
0.0
 10
10.8298764317
 20
8.6441535878
 30
0.0
 10
10.8419781066
 20
8.6393484304
 30
0.0
 10
10.8538715463
 20
8.6338812803
 30
0.0
 10
10.8624598121
 20
8.6290512147
 30
0.0
 10
10.8679813547
 20
8.625512901
 30
0.0
  0
SPLINE
  5
3DE
100
AcDbEntity
  8
0
100
AcDbSpline
 62
7
  6
CONTINUOUS
 70
0
 71
3
 72
23
 73
19
 74
0
 42
0.0000001
 43
0.0000001
 44
0.0000000001
 40
0.0
 40
0.0
 40
0.0
 40
0.0
 40
0.0639337984
 40
0.1275587905
 40
0.1908823807
 40
0.2539224576
 40
0.3167003495
 40
0.3792438028
 40
0.4415848353
 40
0.5037593984
 40
0.565806308
 40
0.6277663347
 40
0.6896812406
 40
0.7515928695
 40
0.8135422751
 40
0.8755689339
 40
0.9377100562
 40
1.0
 40
1.0
 40
1.0
 40
1.0
 10
11.3126247086
 20
8.1497177778
 30
0.0
 10
11.3126247086
 20
8.146981718
 30
0.0
 10
11.3124324247
 20
8.1415207929
 30
0.0
 10
11.3115639207
 20
8.1333915646
 30
0.0
 10
11.3101210352
 20
8.1253827709
 30
0.0
 10
11.3081123217
 20
8.1175343204
 30
0.0
 10
11.3055494008
 20
8.1098841075
 30
0.0
 10
11.3024470658
 20
8.1024687094
 30
0.0
 10
11.2988228938
 20
8.0953228349
 30
0.0
 10
11.2946970876
 20
8.0884791974
 30
0.0
 10
11.2900921733
 20
8.0819683326
 30
0.0
 10
11.2850327396
 20
8.0758184867
 30
0.0
 10
11.2795451629
 20
8.0700555461
 30
0.0
 10
11.2736573333
 20
8.0647029945
 30
0.0
 10
11.2673984482
 20
8.0597819475
 30
0.0
 10
11.260798591
 20
8.0553110969
 30
0.0
 10
11.2538892415
 20
8.0513071065
 30
0.0
 10
11.2491032104
 20
8.0489611767
 30
0.0
 10
11.2466707588
 20
8.0478706755
 30
0.0
  0
SPLINE
  5
3DF
100
AcDbEntity
  8
0
100
AcDbSpline
 62
7
  6
CONTINUOUS
 70
0
 71
3
 72
23
 73
19
 74
0
 42
0.0000001
 43
0.0000001
 44
0.0000000001
 40
0.0
 40
0.0
 40
0.0
 40
0.0
 40
0.0604700924
 40
0.0908212474
 40
0.1212476749
 40
0.1823281186
 40
0.243734941
 40
0.2745664317
 40
0.3054785948
 40
0.3675276433
 40
0.4298756954
 40
0.4924999106
 40
0.5553737343
 40
0.6184685397
 40
0.745154371
 40
0.8087373962
 40
0.8724283692
 40
1.0
 40
1.0
 40
1.0
 40
1.0
 10
10.8374020306
 20
7.6938420784
 30
0.0
 10
10.8350236952
 20
7.6930461067
 30
0.0
 10
10.8313986166
 20
7.6920013024
 30
0.0
 10
10.826488039
 20
7.690912919
 30
0.0
 10
10.8215115157
 20
7.6900234482
 30
0.0
 10
10.8152044247
 20
7.6892914862
 30
0.0
 10
10.8088428759
 20
7.6890614694
 30
0.0
 10
10.8037353207
 20
7.6891702036
 30
0.0
 10
10.7986088568
 20
7.6894722865
 30
0.0
 10
10.7922032839
 20
7.6902069744
 30
0.0
 10
10.7845726771
 20
7.6916329316
 30
0.0
 10
10.7770225756
 20
7.6935775867
 30
0.0
 10
10.7695836471
 20
7.6960122991
 30
0.0
 10
10.7598377978
 20
7.6998763653
 30
0.0
 10
10.7504220623
 20
7.7046001097
 30
0.0
 10
10.7414098002
 20
7.7100586678
 30
0.0
 10
10.7326561905
 20
7.7159889998
 30
0.0
 10
10.726419946
 20
7.7209164679
 30
0.0
 10
10.7224210188
 20
7.7243810922
 30
0.0
  0
SPLINE
  5
3E0
100
AcDbEntity
  8
0
100
AcDbSpline
 62
7
  6
CONTINUOUS
 70
0
 71
3
 72
82
 73
78
 74
0
 42
0.0000001
 43
0.0000001
 44
0.0000000001
 40
0.0
 40
0.0
 40
0.0
 40
0.0
 40
0.0039801404
 40
0.0081240874
 40
0.0124359927
 40
0.0169193805
 40
0.0215772461
 40
0.0264119816
 40
0.0314252584
 40
0.0366182448
 40
0.0419916571
 40
0.0475457751
 40
0.0591949801
 40
0.0715620045
 40
0.084637695
 40
0.0984090251
 40
0.112859624
 40
0.1279701855
 40
0.1437188109
 40
0.1600813006
 40
0.1770313843
 40
0.1945409149
 40
0.2125800273
 40
0.2311173068
 40
0.2501199349
 40
0.2695538173
 40
0.2893836992
 40
0.3095732754
 40
0.3300853151
 40
0.3508817688
 40
0.371923872
 40
0.4145862166
 40
0.4577525765
 40
0.5010974346
 40
0.5442935277
 40
0.5870150451
 40
0.6080976014
 40
0.6289416312
 40
0.6495082481
 40
0.6697592592
 40
0.6896572746
 40
0.7091658223
 40
0.7282494504
 40
0.7468738389
 40
0.7650059189
 40
0.7826140145
 40
0.7996679805
 40
0.8161393432
 40
0.8320014675
 40
0.8472297521
 40
0.8618018735
 40
0.8756980414
 40
0.8889013164
 40
0.9013980141
 40
0.9131782286
 40
0.9187980915
 40
0.9242372041
 40
0.9294957522
 40
0.9345742644
 40
0.9394737733
 40
0.9441957786
 40
0.9487423263
 40
0.9531161313
 40
0.957320552
 40
0.961359786
 40
0.9652389017
 40
0.9689639469
 40
0.9725421294
 40
0.9759818433
 40
0.9792928702
 40
0.9824864412
 40
0.9855752996
 40
0.9885737811
 40
0.9914977096
 40
0.9943643176
 40
0.9971920024
 40
1.0
 40
1.0
 40
1.0
 40
1.0
 10
11.4707006883
 20
10.3551687388
 30
0.0
 10
11.4698480663
 20
10.3543451691
 30
0.0
 10
11.4680690092
 20
10.352703845
 30
0.0
 10
11.4652444004
 20
10.3503065518
 30
0.0
 10
11.4622123614
 20
10.3479264268
 30
0.0
 10
11.4589745563
 20
10.3455647844
 30
0.0
 10
11.4555325961
 20
10.3432227014
 30
0.0
 10
11.4518881397
 20
10.3409013401
 30
0.0
 10
11.4480430109
 20
10.3386017876
 30
0.0
 10
11.4439991249
 20
10.3363252233
 30
0.0
 10
11.4397584999
 20
10.3340727746
 30
0.0
 10
11.4337489868
 20
10.3310550934
 30
0.0
 10
11.4257513878
 20
10.3273604953
 30
0.0
 10
11.4155527605
 20
10.3231085353
 30
0.0
 10
11.4046257424
 20
10.3189789594
 30
0.0
 10
11.3929922778
 20
10.3149801226
 30
0.0
 10
11.3806755689
 20
10.3111201345
 30
0.0
 10
11.3677003392
 20
10.3074068406
 30
0.0
 10
11.3540926745
 20
10.3038477933
 30
0.0
 10
11.3398799792
 20
10.300450241
 30
0.0
 10
11.3250909038
 20
10.2972211063
 30
0.0
 10
11.3097552887
 20
10.2941669728
 30
0.0
 10
11.2939041033
 20
10.2912940569
 30
0.0
 10
11.277569375
 20
10.288608207
 30
0.0
 10
11.2607841171
 20
10.2861148916
 30
0.0
 10
11.2435822606
 20
10.2838191888
 30
0.0
 10
11.2259985898
 20
10.2817257748
 30
0.0
 10
11.2080686676
 20
10.2798389019
 30
0.0
 10
11.189828772
 20
10.2781624138
 30
0.0
 10
11.1713157704
 20
10.2766996972
 30
0.0
 10
11.1462033042
 20
10.2750309247
 30
0.0
 10
11.114406693
 20
10.273504745
 30
0.0
 10
11.0759422816
 20
10.2725688531
 30
0.0
 10
11.037307414
 20
10.2725281027
 30
0.0
 10
10.9988146333
 20
10.2733828041
 30
0.0
 10
10.9669763076
 20
10.2748416185
 30
0.0
 10
10.9418164169
 20
10.2764569236
 30
0.0
 10
10.923257764
 20
10.2778804265
 30
0.0
 10
10.9049654446
 20
10.2795182747
 30
0.0
 10
10.8869764358
 20
10.2813671633
 30
0.0
 10
10.8693271354
 20
10.2834233275
 30
0.0
 10
10.8520532357
 20
10.2856825803
 30
0.0
 10
10.8351896667
 20
10.2881403228
 30
0.0
 10
10.8187705237
 20
10.2907915526
 30
0.0
 10
10.8028289963
 20
10.2936308771
 30
0.0
 10
10.7873972937
 20
10.2966525132
 30
0.0
 10
10.7725065763
 20
10.299850302
 30
0.0
 10
10.7581868949
 20
10.3032177292
 30
0.0
 10
10.7444671279
 20
10.3067479358
 30
0.0
 10
10.731374915
 20
10.3104337379
 30
0.0
 10
10.7189365794
 20
10.3142676289
 30
0.0
 10
10.7071770927
 20
10.3182418092
 30
0.0
 10
10.6961199328
 20
10.3223482221
 30
0.0
 10
10.6857873196
 20
10.3265785492
 30
0.0
 10
10.6776748328
 20
10.3302555113
 30
0.0
 10
10.6715713649
 20
10.3332597593
 30
0.0
 10
10.6672597205
 20
10.3355031759
 30
0.0
 10
10.6631440415
 20
10.337771077
 30
0.0
 10
10.6592263999
 20
10.3400624041
 30
0.0
 10
10.6555087382
 20
10.3423759771
 30
0.0
 10
10.6519929094
 20
10.3447106598
 30
0.0
 10
10.6486806802
 20
10.3470653334
 30
0.0
 10
10.645573668
 20
10.3494388034
 30
0.0
 10
10.6426734491
 20
10.3518299768
 30
0.0
 10
10.6399814504
 20
10.3542376858
 30
0.0
 10
10.6374990146
 20
10.3566607967
 30
0.0
 10
10.6352274357
 20
10.3590982253
 30
0.0
 10
10.6331678384
 20
10.3615488078
 30
0.0
 10
10.6313213701
 20
10.3640114861
 30
0.0
 10
10.6296890475
 20
10.3664851326
 30
0.0
 10
10.6282718281
 20
10.3689686185
 30
0.0
 10
10.6270707037
 20
10.371460824
 30
0.0
 10
10.6260864687
 20
10.3739605017
 30
0.0
 10
10.6253199866
 20
10.3764663673
 30
0.0
 10
10.6247719398
 20
10.3789770744
 30
0.0
 10
10.6244428377
 20
10.3814908555
 30
0.0
 10
10.6243696093
 20
10.3831702632
 30
0.0
 10
10.6243696074
 20
10.3840065828
 30
0.0
  0
SPLINE
  5
3E1
100
AcDbEntity
  8
0
100
AcDbSpline
 62
7
  6
CONTINUOUS
 70
0
 71
3
 72
48
 73
44
 74
0
 42
0.0000001
 43
0.0000001
 44
0.0000000001
 40
0.0
 40
0.0
 40
0.0
 40
0.0
 40
0.0350612114
 40
0.0714617096
 40
0.1090494842
 40
0.1476680227
 40
0.1871530599
 40
0.227335977
 40
0.2680439218
 40
0.3091011429
 40
0.3503299047
 40
0.3915515144
 40
0.4325873181
 40
0.4732597038
 40
0.5133931044
 40
0.5528150067
 40
0.591356975
 40
0.6288556954
 40
0.6651540561
 40
0.7001022807
 40
0.7335591458
 40
0.7653933354
 40
0.7954849749
 40
0.8237274673
 40
0.8500298007
 40
0.8624309121
 40
0.8743215645
 40
0.8856964523
 40
0.89655188
 40
0.9068862992
 40
0.9167005264
 40
0.9259980288
 40
0.934785698
 40
0.9430740094
 40
0.9508782984
 40
0.9582190986
 40
0.9651237006
 40
0.9716269273
 40
0.9777725617
 40
0.9836142198
 40
0.989215719
 40
0.9946505992
 40
1.0
 40
1.0
 40
1.0
 40
1.0
 10
11.0694988615
 20
10.1773819543
 30
0.0
 10
11.067123378
 20
10.1769514526
 30
0.0
 10
11.0622701336
 20
10.1761367119
 30
0.0
 10
11.0548373765
 20
10.1750671509
 30
0.0
 10
11.0471398801
 20
10.1741306566
 30
0.0
 10
11.039213468
 20
10.1733316175
 30
0.0
 10
11.0310948282
 20
10.1726737995
 30
0.0
 10
11.022821662
 20
10.1721602828
 30
0.0
 10
11.0144323521
 20
10.1717934822
 30
0.0
 10
11.0059658417
 20
10.171575117
 30
0.0
 10
10.9974614314
 20
10.1715062126
 30
0.0
 10
10.9889586011
 20
10.1715870929
 30
0.0
 10
10.9804968231
 20
10.1718173779
 30
0.0
 10
10.9721153769
 20
10.1721959867
 30
0.0
 10
10.9638531651
 20
10.1727211427
 30
0.0
 10
10.9557485306
 20
10.1733903808
 30
0.0
 10
10.9478390765
 20
10.1742005587
 30
0.0
 10
10.9401614879
 20
10.1751478702
 30
0.0
 10
10.9327513574
 20
10.176227862
 30
0.0
 10
10.9256430146
 20
10.1774354538
 30
0.0
 10
10.918869352
 20
10.17876496
 30
0.0
 10
10.9124616772
 20
10.1802101177
 30
0.0
 10
10.9064494839
 20
10.1817641108
 30
0.0
 10
10.9008605102
 20
10.1834196362
 30
0.0
 10
10.8964950579
 20
10.1849050695
 30
0.0
 10
10.8932388295
 20
10.1861441803
 30
0.0
 10
10.8909661972
 20
10.1870757688
 30
0.0
 10
10.8888174846
 20
10.1880267753
 30
0.0
 10
10.8867951524
 20
10.1889961471
 30
0.0
 10
10.8849015059
 20
10.1899827647
 30
0.0
 10
10.8831386852
 20
10.1909854965
 30
0.0
 10
10.8815086939
 20
10.1920032544
 30
0.0
 10
10.8800133332
 20
10.1930348707
 30
0.0
 10
10.8786543062
 20
10.194079306
 30
0.0
 10
10.8774330875
 20
10.1951354184
 30
0.0
 10
10.8763510998
 20
10.1962022335
 30
0.0
 10
10.8754095741
 20
10.1972787132
 30
0.0
 10
10.8746097368
 20
10.1983639403
 30
0.0
 10
10.8739527674
 20
10.1994569737
 30
0.0
 10
10.8734398535
 20
10.2005567814
 30
0.0
 10
10.8730722827
 20
10.2016622605
 30
0.0
 10
10.8728511209
 20
10.2027716071
 30
0.0
 10
10.8728017962
 20
10.2035150747
 30
0.0
 10
10.8728017955
 20
10.2038834134
 30
0.0
  0
SPLINE
  5
3E2
100
AcDbEntity
  8
0
100
AcDbSpline
 62
7
  6
CONTINUOUS
 70
0
 71
3
 72
11
 73
7
 74
0
 42
0.0000001
 43
0.0000001
 44
0.0000000001
 40
0.0
 40
0.0
 40
0.0
 40
0.0
 40
0.2487917793
 40
0.4977917282
 40
0.7478062245
 40
1.0
 40
1.0
 40
1.0
 40
1.0
 10
10.8935481438
 20
7.8377836622
 30
0.0
 10
10.8940049409
 20
7.8387532514
 30
0.0
 10
10.8949873511
 20
7.8406620044
 30
0.0
 10
10.8966779046
 20
7.8434082908
 30
0.0
 10
10.8985990861
 20
7.8460173227
 30
0.0
 10
10.9000363728
 20
7.8476395126
 30
0.0
 10
10.9007953355
 20
7.8484169276
 30
0.0
  0
SPLINE
  5
3E3
100
AcDbEntity
  8
0
100
AcDbSpline
 62
7
  6
CONTINUOUS
 70
0
 71
3
 72
32
 73
28
 74
0
 42
0.0000001
 43
0.0000001
 44
0.0000000001
 40
0.0
 40
0.0
 40
0.0
 40
0.0
 40
0.0845017374
 40
0.167300855
 40
0.2480795303
 40
0.3265298693
 40
0.4023572177
 40
0.4752815404
 40
0.545039923
 40
0.5786558619
 40
0.6113908052
 40
0.6432178835
 40
0.6741118203
 40
0.704049142
 40
0.7330081882
 40
0.760969474
 40
0.7879156344
 40
0.8138319636
 40
0.8387063238
 40
0.8625298908
 40
0.8852970833
 40
0.9070065571
 40
0.9276612459
 40
0.94726967
 40
0.9658462264
 40
0.9834129037
 40
1.0
 40
1.0
 40
1.0
 40
1.0
 10
11.6309070587
 20
10.5024162186
 30
0.0
 10
11.6380280628
 20
10.5019223753
 30
0.0
 10
11.652118287
 20
10.5008196559
 30
0.0
 10
11.6729777087
 20
10.4987976306
 30
0.0
 10
11.6932864524
 20
10.4964309153
 30
0.0
 10
11.7129592047
 20
10.4937295571
 30
0.0
 10
11.7319134765
 20
10.4907050575
 30
0.0
 10
11.7500696908
 20
10.4873702529
 30
0.0
 10
11.7646459268
 20
10.4843080036
 30
0.0
 10
11.775845444
 20
10.4817056271
 30
0.0
 10
11.7838953335
 20
10.4797094265
 30
0.0
 10
11.7916908735
 20
10.4776468574
 30
0.0
 10
11.7992238995
 20
10.475520068
 30
0.0
 10
11.8064865155
 20
10.4733313193
 30
0.0
 10
11.8134711151
 20
10.471082898
 30
0.0
 10
11.8201703943
 20
10.4687771992
 30
0.0
 10
11.8265773483
 20
10.4664166167
 30
0.0
 10
11.8326852997
 20
10.4640036713
 30
0.0
 10
11.8384878787
 20
10.4615408466
 30
0.0
 10
11.8439790709
 20
10.4590307721
 30
0.0
 10
11.8491531729
 20
10.4564759987
 30
0.0
 10
11.8540048671
 20
10.4538792387
 30
0.0
 10
11.8585291475
 20
10.4512430749
 30
0.0
 10
11.862721409
 20
10.4485702706
 30
0.0
 10
11.8665774012
 20
10.4458633482
 30
0.0
 10
11.8700930842
 20
10.4431251924
 30
0.0
 10
11.8722686674
 20
10.441227277
 30
0.0
 10
11.8732943876
 20
10.4402727361
 30
0.0
  0
SPLINE
  5
3E4
100
AcDbEntity
  8
0
100
AcDbSpline
 62
7
  6
CONTINUOUS
 70
0
 71
3
 72
39
 73
35
 74
0
 42
0.0000001
 43
0.0000001
 44
0.0000000001
 40
0.0
 40
0.0
 40
0.0
 40
0.0
 40
0.0761045193
 40
0.1533639203
 40
0.2310946074
 40
0.3086064043
 40
0.385211887
 40
0.4229634241
 40
0.4602358098
 40
0.4969473753
 40
0.533018102
 40
0.5683699075
 40
0.6029269209
 40
0.6366157387
 40
0.6693657101
 40
0.7011092592
 40
0.7317822604
 40
0.7613243728
 40
0.7896794417
 40
0.8167959766
 40
0.8426277652
 40
0.8671345517
 40
0.8902828581
 40
0.9120470578
 40
0.9224052234
 40
0.9324121753
 40
0.9420676392
 40
0.9513721659
 40
0.9603273168
 40
0.9689355961
 40
0.9772009945
 40
0.9851289013
 40
0.9927259391
 40
1.0
 40
1.0
 40
1.0
 40
1.0
 10
11.2142780894
 20
5.814204247
 30
0.0
 10
11.2252012563
 20
5.8134467228
 30
0.0
 10
11.2472350707
 20
5.8122189746
 30
0.0
 10
11.2804719584
 20
5.8112260772
 30
0.0
 10
11.3139260192
 20
5.8110722472
 30
0.0
 10
11.3472791071
 20
5.8117590217
 30
0.0
 10
11.3748579345
 20
5.8130322417
 30
0.0
 10
11.3966263229
 20
5.8144721461
 30
0.0
 10
11.4126516897
 20
5.8157504609
 30
0.0
 10
11.4284169315
 20
5.817229236
 30
0.0
 10
11.4438845837
 20
5.8189049635
 30
0.0
 10
11.4590178585
 20
5.8207736243
 30
0.0
 10
11.4737807837
 20
5.8228307398
 30
0.0
 10
11.4881382714
 20
5.8250713819
 30
0.0
 10
11.5020562047
 20
5.8274901853
 30
0.0
 10
11.5155015256
 20
5.8300813591
 30
0.0
 10
11.5284423232
 20
5.8328386845
 30
0.0
 10
11.5408479095
 20
5.8357555486
 30
0.0
 10
11.5526888895
 20
5.8388249574
 30
0.0
 10
11.5639372489
 20
5.8420395614
 30
0.0
 10
11.574566417
 20
5.8453916588
 30
0.0
 10
11.5845514307
 20
5.8488732305
 30
0.0
 10
11.593868706
 20
5.8524759727
 30
0.0
 10
11.601174552
 20
5.8556218767
 30
0.0
 10
11.6066607756
 20
5.8581998383
 30
0.0
 10
11.610526972
 20
5.8601262994
 30
0.0
 10
11.6142105653
 20
5.86207656
 30
0.0
 10
11.6177093793
 20
5.8640495195
 30
0.0
 10
11.6210213747
 20
5.866043956
 30
0.0
 10
11.6241445987
 20
5.8680587667
 30
0.0
 10
11.6270772641
 20
5.8700927875
 30
0.0
 10
11.6298177096
 20
5.8721449078
 30
0.0
 10
11.6323641783
 20
5.8742138906
 30
0.0
 10
11.6339657083
 20
5.8756339253
 30
0.0
 10
11.6347318493
 20
5.8763468624
 30
0.0
  0
SPLINE
  5
3E5
100
AcDbEntity
  8
0
100
AcDbSpline
 62
7
  6
CONTINUOUS
 70
0
 71
3
 72
18
 73
14
 74
0
 42
0.0000001
 43
0.0000001
 44
0.0000000001
 40
0.0
 40
0.0
 40
0.0
 40
0.0
 40
0.1480408984
 40
0.2876685637
 40
0.4195638307
 40
0.4828953995
 40
0.5446366358
 40
0.6638663733
 40
0.7785245104
 40
0.8345987316
 40
0.8900708004
 40
0.9451373779
 40
1.0
 40
1.0
 40
1.0
 40
1.0
 10
11.9031296611
 20
6.1345275123
 30
0.0
 10
11.9041575335
 20
6.1355203609
 30
0.0
 10
11.9060946263
 20
6.1375137637
 30
0.0
 10
11.9086991086
 20
6.1406203831
 30
0.0
 10
11.910567212
 20
6.1432639847
 30
0.0
 10
11.911853765
 20
6.1453858799
 30
0.0
 10
11.9129773491
 20
6.1474602262
 30
0.0
 10
11.9141450064
 20
6.1500703781
 30
0.0
 10
11.9149976106
 20
6.1527436232
 30
0.0
 10
11.9154708429
 20
6.154876527
 30
0.0
 10
11.9157227004
 20
6.1564661312
 30
0.0
 10
11.915873844
 20
6.1580566198
 30
0.0
 10
11.9159074465
 20
6.1591181034
 30
0.0
 10
11.9159074437
 20
6.1596477077
 30
0.0
  0
SPLINE
  5
3E6
100
AcDbEntity
  8
0
100
AcDbSpline
 62
7
  6
CONTINUOUS
 70
0
 71
3
 72
21
 73
17
 74
0
 42
0.0000001
 43
0.0000001
 44
0.0000000001
 40
0.0
 40
0.0
 40
0.0
 40
0.0
 40
0.0616532317
 40
0.1233294843
 40
0.1850515407
 40
0.2468416642
 40
0.3087213449
 40
0.3707111025
 40
0.432830246
 40
0.4950966374
 40
0.5575265756
 40
0.6201345674
 40
0.6829331401
 40
0.7459332076
 40
0.8725262003
 40
1.0
 40
1.0
 40
1.0
 40
1.0
 10
11.2808850863
 20
9.0210807366
 30
0.0
 10
11.2825459522
 20
9.0226850114
 30
0.0
 10
11.2859553281
 20
9.0258054525
 30
0.0
 10
11.2913145903
 20
9.0302053989
 30
0.0
 10
11.2969065621
 20
9.0343145318
 30
0.0
 10
11.3027169889
 20
9.0381222806
 30
0.0
 10
11.3087312598
 20
9.0416191298
 30
0.0
 10
11.3149341943
 20
9.0447962871
 30
0.0
 10
11.321310185
 20
9.0476457262
 30
0.0
 10
11.3278431555
 20
9.0501602894
 30
0.0
 10
11.3345166491
 20
9.0523336907
 30
0.0
 10
11.3413138125
 20
9.0541604403
 30
0.0
 10
11.3482177254
 20
9.0556359593
 30
0.0
 10
11.357555204
 20
9.0571323397
 30
0.0
 10
11.3694123174
 20
9.0581045127
 30
0.0
 10
11.3789447216
 20
9.057918478
 30
0.0
 10
11.3837076643
 20
9.0575881668
 30
0.0
  0
SPLINE
  5
3E7
100
AcDbEntity
  8
0
100
AcDbSpline
 62
7
  6
CONTINUOUS
 70
0
 71
3
 72
21
 73
17
 74
0
 42
0.0000001
 43
0.0000001
 44
0.0000000001
 40
0.0
 40
0.0
 40
0.0
 40
0.0
 40
0.0616532317
 40
0.1233294843
 40
0.1850515407
 40
0.2468416642
 40
0.3087213449
 40
0.3707111025
 40
0.432830246
 40
0.4950966374
 40
0.5575265756
 40
0.6201345674
 40
0.6829331401
 40
0.7459332076
 40
0.8725262003
 40
1.0
 40
1.0
 40
1.0
 40
1.0
 10
10.0734777319
 20
9.104814721
 30
0.0
 10
10.0751385978
 20
9.1064189958
 30
0.0
 10
10.0785479737
 20
9.1095394369
 30
0.0
 10
10.0839072359
 20
9.1139393833
 30
0.0
 10
10.0894992077
 20
9.1180485162
 30
0.0
 10
10.0953096345
 20
9.1218562651
 30
0.0
 10
10.1013239054
 20
9.1253531142
 30
0.0
 10
10.1075268399
 20
9.1285302716
 30
0.0
 10
10.1139028306
 20
9.1313797106
 30
0.0
 10
10.1204358011
 20
9.1338942738
 30
0.0
 10
10.1271092947
 20
9.1360676751
 30
0.0
 10
10.1339064581
 20
9.1378944248
 30
0.0
 10
10.140810371
 20
9.1393699437
 30
0.0
 10
10.1501478496
 20
9.1408663242
 30
0.0
 10
10.162004963
 20
9.1418384972
 30
0.0
 10
10.1715373672
 20
9.1416524624
 30
0.0
 10
10.1763003098
 20
9.1413221512
 30
0.0
  0
SPLINE
  5
3E8
100
AcDbEntity
  8
0
100
AcDbSpline
 62
7
  6
CONTINUOUS
 70
0
 71
3
 72
21
 73
17
 74
0
 42
0.0000001
 43
0.0000001
 44
0.0000000001
 40
0.0
 40
0.0
 40
0.0
 40
0.0
 40
0.0616532317
 40
0.1233294843
 40
0.1850515407
 40
0.2468416642
 40
0.3087213449
 40
0.3707111025
 40
0.432830246
 40
0.4950966374
 40
0.5575265756
 40
0.6201345674
 40
0.6829331401
 40
0.7459332076
 40
0.8725262003
 40
1.0
 40
1.0
 40
1.0
 40
1.0
 10
10.0734777319
 20
7.5651288802
 30
0.0
 10
10.0751385978
 20
7.566733155
 30
0.0
 10
10.0785479737
 20
7.5698535961
 30
0.0
 10
10.0839072359
 20
7.5742535425
 30
0.0
 10
10.0894992077
 20
7.5783626754
 30
0.0
 10
10.0953096345
 20
7.5821704242
 30
0.0
 10
10.1013239054
 20
7.5856672734
 30
0.0
 10
10.1075268399
 20
7.5888444307
 30
0.0
 10
10.1139028306
 20
7.5916938698
 30
0.0
 10
10.1204358011
 20
7.594208433
 30
0.0
 10
10.1271092947
 20
7.5963818343
 30
0.0
 10
10.1339064581
 20
7.5982085839
 30
0.0
 10
10.140810371
 20
7.5996841029
 30
0.0
 10
10.1501478496
 20
7.6011804833
 30
0.0
 10
10.162004963
 20
7.6021526563
 30
0.0
 10
10.1715373672
 20
7.6019666216
 30
0.0
 10
10.1763003098
 20
7.6016363104
 30
0.0
  0
SPLINE
  5
3E9
100
AcDbEntity
  8
0
100
AcDbSpline
 62
7
  6
CONTINUOUS
 70
0
 71
3
 72
21
 73
17
 74
0
 42
0.0000001
 43
0.0000001
 44
0.0000000001
 40
0.0
 40
0.0
 40
0.0
 40
0.0
 40
0.0616532317
 40
0.1233294843
 40
0.1850515407
 40
0.2468416642
 40
0.3087213449
 40
0.3707111025
 40
0.432830246
 40
0.4950966374
 40
0.5575265756
 40
0.6201345674
 40
0.6829331401
 40
0.7459332076
 40
0.8725262003
 40
1.0
 40
1.0
 40
1.0
 40
1.0
 10
11.2808850863
 20
7.4813948958
 30
0.0
 10
11.2825459522
 20
7.4829991705
 30
0.0
 10
11.2859553281
 20
7.4861196117
 30
0.0
 10
11.2913145903
 20
7.4905195581
 30
0.0
 10
11.2969065621
 20
7.494628691
 30
0.0
 10
11.3027169889
 20
7.4984364398
 30
0.0
 10
11.3087312598
 20
7.501933289
 30
0.0
 10
11.3149341943
 20
7.5051104463
 30
0.0
 10
11.321310185
 20
7.5079598854
 30
0.0
 10
11.3278431555
 20
7.5104744486
 30
0.0
 10
11.3345166491
 20
7.5126478498
 30
0.0
 10
11.3413138125
 20
7.5144745995
 30
0.0
 10
11.3482177254
 20
7.5159501184
 30
0.0
 10
11.357555204
 20
7.5174464989
 30
0.0
 10
11.3694123174
 20
7.5184186719
 30
0.0
 10
11.3789447216
 20
7.5182326372
 30
0.0
 10
11.3837076643
 20
7.517902326
 30
0.0
  0
SPLINE
  5
3EA
100
AcDbEntity
  8
0
100
AcDbSpline
 62
7
  6
CONTINUOUS
 70
0
 71
3
 72
15
 73
11
 74
0
 42
0.0000001
 43
0.0000001
 44
0.0000000001
 40
0.0
 40
0.0
 40
0.0
 40
0.0
 40
0.1233171388
 40
0.2468172051
 40
0.3706750009
 40
0.4950496043
 40
0.6200772562
 40
0.7458671573
 40
0.8724928759
 40
1.0
 40
1.0
 40
1.0
 40
1.0
 10
10.735539958
 20
8.2326872049
 30
0.0
 10
10.7369761371
 20
8.234074456
 30
0.0
 10
10.7400026177
 20
8.236698448
 30
0.0
 10
10.7449421401
 20
8.2401272929
 30
0.0
 10
10.7502350122
 20
8.2430177619
 30
0.0
 10
10.7558270495
 20
8.2453401545
 30
0.0
 10
10.7616618476
 20
8.2470714185
 30
0.0
 10
10.7676806342
 20
8.2481942233
 30
0.0
 10
10.773821965
 20
8.2486976528
 30
0.0
 10
10.777944323
 20
8.248617245
 30
0.0
 10
10.7800039871
 20
8.2484744068
 30
0.0
  0
SPLINE
  5
3EB
100
AcDbEntity
  8
0
100
AcDbSpline
 62
7
  6
CONTINUOUS
 70
0
 71
3
 72
15
 73
11
 74
0
 42
0.0000001
 43
0.0000001
 44
0.0000000001
 40
0.0
 40
0.0
 40
0.0
 40
0.0
 40
0.1233171388
 40
0.2468172051
 40
0.3706750009
 40
0.4950496043
 40
0.6200772562
 40
0.7458671573
 40
0.8724928759
 40
1.0
 40
1.0
 40
1.0
 40
1.0
 10
11.3546984519
 20
7.752183926
 30
0.0
 10
11.3561346309
 20
7.753571177
 30
0.0
 10
11.3591611116
 20
7.7561951691
 30
0.0
 10
11.3641006339
 20
7.759624014
 30
0.0
 10
11.369393506
 20
7.7625144829
 30
0.0
 10
11.3749855434
 20
7.7648368756
 30
0.0
 10
11.3808203414
 20
7.7665681395
 30
0.0
 10
11.3868391281
 20
7.7676909443
 30
0.0
 10
11.3929804589
 20
7.7681943739
 30
0.0
 10
11.3971028168
 20
7.768113966
 30
0.0
 10
11.3991624809
 20
7.7679711279
 30
0.0
  0
SPLINE
  5
3EC
100
AcDbEntity
  8
0
100
AcDbSpline
 62
7
  6
CONTINUOUS
 70
0
 71
3
 72
15
 73
11
 74
0
 42
0.0000001
 43
0.0000001
 44
0.0000000001
 40
0.0
 40
0.0
 40
0.0
 40
0.0
 40
0.1233171217
 40
0.2468171833
 40
0.3706749954
 40
0.4950495965
 40
0.6200773092
 40
0.7458671694
 40
0.8724927499
 40
1.0
 40
1.0
 40
1.0
 40
1.0
 10
11.344972374
 20
8.6373827062
 30
0.0
 10
11.346722707
 20
8.6390733939
 30
0.0
 10
11.3504112249
 20
8.6422713167
 30
0.0
 10
11.3564312265
 20
8.6464501522
 30
0.0
 10
11.3628818715
 20
8.6499728399
 30
0.0
 10
11.3696971161
 20
8.652803192
 30
0.0
 10
11.3768082164
 20
8.6549131149
 30
0.0
 10
11.3841435413
 20
8.6562814987
 30
0.0
 10
11.3916282137
 20
8.6568950388
 30
0.0
 10
11.3966522876
 20
8.6567970407
 30
0.0
 10
11.3991624809
 20
8.6566229582
 30
0.0
  0
SPLINE
  5
3ED
100
AcDbEntity
  8
0
100
AcDbSpline
 62
7
  6
CONTINUOUS
 70
0
 71
3
 72
22
 73
18
 74
0
 42
0.0000001
 43
0.0000001
 44
0.0000000001
 40
0.0
 40
0.0
 40
0.0
 40
0.0
 40
0.1257305054
 40
0.2517012321
 40
0.3777301301
 40
0.4407231268
 40
0.5036423625
 40
0.5664518487
 40
0.62911372
 40
0.691589327
 40
0.7227502352
 40
0.7538504969
 40
0.8158422505
 40
0.877543506
 40
0.9082825712
 40
0.9389423402
 40
1.0
 40
1.0
 40
1.0
 40
1.0
 10
10.6920266194
 20
8.4413321212
 30
0.0
 10
10.6875942954
 20
8.4441724421
 30
0.0
 10
10.6789781169
 20
8.4502735069
 30
0.0
 10
10.667011009
 20
8.4606521453
 30
0.0
 10
10.657993417
 20
8.470316816
 30
0.0
 10
10.6514805555
 20
8.4786213621
 30
0.0
 10
10.6469800406
 20
8.4851223102
 30
0.0
 10
10.6428984349
 20
8.4918782064
 30
0.0
 10
10.6392701808
 20
8.4988674252
 30
0.0
 10
10.6366500867
 20
8.5048703279
 30
0.0
 10
10.6348143638
 20
8.5097607986
 30
0.0
 10
10.6331600572
 20
8.5146942143
 30
0.0
 10
10.6314338629
 20
8.5209476599
 30
0.0
 10
10.6301817627
 20
8.5272980182
 30
0.0
 10
10.6294770766
 20
8.5324049903
 30
0.0
 10
10.6289732103
 20
8.537508295
 30
0.0
 10
10.6288202068
 20
8.5413506723
 30
0.0
 10
10.6288202068
 20
8.5439071419
 30
0.0
  0
SPLINE
  5
3EE
100
AcDbEntity
  8
0
100
AcDbSpline
 62
7
  6
CONTINUOUS
 70
0
 71
3
 72
37
 73
33
 74
0
 42
0.0000001
 43
0.0000001
 44
0.0000000001
 40
0.0
 40
0.0
 40
0.0
 40
0.0
 40
0.0300305583
 40
0.0601569015
 40
0.0903895911
 40
0.1207373766
 40
0.1512071355
 40
0.1818038432
 40
0.212530567
 40
0.2433884751
 40
0.274376855
 40
0.30549315
 40
0.3367330081
 40
0.3680903414
 40
0.3995573893
 40
0.4311247844
 40
0.4944879266
 40
0.5581042674
 40
0.5899842865
 40
0.6218811459
 40
0.6537778009
 40
0.6856568705
 40
0.7175008999
 40
0.7492926485
 40
0.7810153972
 40
0.8126532705
 40
0.844191599
 40
0.8756171742
 40
0.906918867
 40
0.9380870012
 40
0.9691159876
 40
1.0
 40
1.0
 40
1.0
 40
1.0
 10
11.1285786435
 20
8.2689024399
 30
0.0
 10
11.1309346284
 20
8.26995866
 30
0.0
 10
11.135725866
 20
8.2719183085
 30
0.0
 10
11.1431012037
 20
8.2743839985
 30
0.0
 10
11.1506474406
 20
8.2763735519
 30
0.0
 10
11.1583344476
 20
8.2778810689
 30
0.0
 10
11.1661324999
 20
8.2789024766
 30
0.0
 10
11.1740116603
 20
8.279435168
 30
0.0
 10
11.1819419857
 20
8.2794780402
 30
0.0
 10
11.1898934995
 20
8.2790314575
 30
0.0
 10
11.1978362265
 20
8.2780972414
 30
0.0
 10
11.2057401951
 20
8.2766786521
 30
0.0
 10
11.2135754866
 20
8.2747803818
 30
0.0
 10
11.2213121305
 20
8.2724086451
 30
0.0
 10
11.2289205925
 20
8.2695709415
 30
0.0
 10
11.2388644496
 20
8.2651742332
 30
0.0
 10
11.2508224126
 20
8.258560217
 30
0.0
 10
11.2619362694
 20
8.2505624236
 30
0.0
 10
11.2702242897
 20
8.2433936256
 30
0.0
 10
11.2761158822
 20
8.2376459885
 30
0.0
 10
11.2816501586
 20
8.2315539184
 30
0.0
 10
11.2868016724
 20
8.2251405639
 30
0.0
 10
11.2915457832
 20
8.2184312123
 30
0.0
 10
11.2958593259
 20
8.2114529432
 30
0.0
 10
11.2997207054
 20
8.2042346522
 30
0.0
 10
11.3031101718
 20
8.1968069368
 30
0.0
 10
11.3060100157
 20
8.1892019713
 30
0.0
 10
11.3084048281
 20
8.1814533127
 30
0.0
 10
11.3102816009
 20
8.1735957928
 30
0.0
 10
11.3116301193
 20
8.165664965
 30
0.0
 10
11.3124427561
 20
8.1576978336
 30
0.0
 10
11.3126247086
 20
8.1523730658
 30
0.0
 10
11.3126247086
 20
8.1497177778
 30
0.0
  0
SPLINE
  5
3EF
100
AcDbEntity
  8
0
100
AcDbSpline
 62
7
  6
CONTINUOUS
 70
0
 71
3
 72
35
 73
31
 74
0
 42
0.0000001
 43
0.0000001
 44
0.0000000001
 40
0.0
 40
0.0
 40
0.0
 40
0.0
 40
0.0645598531
 40
0.0968513639
 40
0.1291252154
 40
0.1935564509
 40
0.257794327
 40
0.3217703041
 40
0.3854239415
 40
0.4487005586
 40
0.5115503274
 40
0.5428129975
 40
0.5739541627
 40
0.6358298294
 40
0.6665904308
 40
0.6972244539
 40
0.727736343
 40
0.7581343206
 40
0.7884312829
 40
0.8186456686
 40
0.8488021141
 40
0.8789316259
 40
0.8940023665
 40
0.9090806293
 40
0.9241716781
 40
0.9392809012
 40
0.9544131342
 40
0.9695737934
 40
0.9847690332
 40
1.0
 40
1.0
 40
1.0
 40
1.0
 10
10.8375869552
 20
7.9553944867
 30
0.0
 10
10.8426202362
 20
7.9510337102
 30
0.0
 10
10.8498056927
 20
7.9440546627
 30
0.0
 10
10.8585998993
 20
7.9340456609
 30
0.0
 10
10.8668636481
 20
7.923609428
 30
0.0
 10
10.8761862747
 20
7.909837564
 30
0.0
 10
10.8857119169
 20
7.8923641921
 30
0.0
 10
10.8935171869
 20
7.8741443386
 30
0.0
 10
10.899534408
 20
7.8553617705
 30
0.0
 10
10.9036814929
 20
7.8361979176
 30
0.0
 10
10.9054985943
 20
7.8200322411
 30
0.0
 10
10.9058991019
 20
7.8071119265
 30
0.0
 10
10.9055783585
 20
7.7942911571
 30
0.0
 10
10.9041413881
 20
7.7815655161
 30
0.0
 10
10.9014986857
 20
7.7691195902
 30
0.0
 10
10.8989014174
 20
7.7599933912
 30
0.0
 10
10.8956666233
 20
7.7511125001
 30
0.0
 10
10.8917774135
 20
7.7425349599
 30
0.0
 10
10.8872208321
 20
7.7343263272
 30
0.0
 10
10.8819896406
 20
7.7265585577
 30
0.0
 10
10.8760857269
 20
7.7193100798
 30
0.0
 10
10.8706140251
 20
7.7137695723
 30
0.0
 10
10.8659244687
 20
7.7096831816
 30
0.0
 10
10.8622533031
 20
7.7067986762
 30
0.0
 10
10.8584349838
 20
7.7041051775
 30
0.0
 10
10.8544762621
 20
7.70161202
 30
0.0
 10
10.8503852338
 20
7.6993276757
 30
0.0
 10
10.8461705728
 20
7.6972600112
 30
0.0
 10
10.8418424314
 20
7.6954160188
 30
0.0
 10
10.8388919378
 20
7.6943407146
 30
0.0
 10
10.8374020306
 20
7.6938420784
 30
0.0
  0
SPLINE
  5
3F0
100
AcDbEntity
  8
0
100
AcDbSpline
 62
7
  6
CONTINUOUS
 70
0
 71
3
 72
11
 73
7
 74
0
 42
0.0000001
 43
0.0000001
 44
0.0000000001
 40
0.0
 40
0.0
 40
0.0
 40
0.0
 40
0.2509689224
 40
0.5009727139
 40
0.750487862
 40
1.0
 40
1.0
 40
1.0
 40
1.0
 10
10.28985132
 20
8.3089950803
 30
0.0
 10
10.2919568388
 20
8.3110289204
 30
0.0
 10
10.2963439451
 20
8.3149030675
 30
0.0
 10
10.3034102849
 20
8.3200896681
 30
0.0
 10
10.3109011315
 20
8.3246088718
 30
0.0
 10
10.3161441988
 20
8.327158476
 30
0.0
 10
10.3188159338
 20
8.3283127498
 30
0.0
  0
SPLINE
  5
3F1
100
AcDbEntity
  8
0
100
AcDbSpline
 62
7
  6
CONTINUOUS
 70
0
 71
3
 72
18
 73
14
 74
0
 42
0.0000001
 43
0.0000001
 44
0.0000000001
 40
0.0
 40
0.0
 40
0.0
 40
0.0
 40
0.0548626755
 40
0.1099292576
 40
0.1654013202
 40
0.2214755501
 40
0.3361333804
 40
0.4553634196
 40
0.5171048815
 40
0.5804365284
 40
0.7123311193
 40
0.8519577055
 40
1.0
 40
1.0
 40
1.0
 40
1.0
 10
11.4853695836
 20
10.3840068632
 30
0.0
 10
11.485369585
 20
10.3833988744
 30
0.0
 10
11.4853310044
 20
10.3821802859
 30
0.0
 10
11.4851575225
 20
10.380354394
 30
0.0
 10
11.4848683949
 20
10.3785295187
 30
0.0
 10
11.484325111
 20
10.3760809413
 30
0.0
 10
11.4833463614
 20
10.3730120287
 30
0.0
 10
11.4820058617
 20
10.3700155679
 30
0.0
 10
11.4807159889
 20
10.3676341973
 30
0.0
 10
11.479239027
 20
10.3651982514
 30
0.0
 10
11.4770944451
 20
10.3621634
 30
0.0
 10
11.474104503
 20
10.3585969771
 30
0.0
 10
11.471880702
 20
10.3563085445
 30
0.0
 10
11.4707006883
 20
10.3551687388
 30
0.0
  0
SPLINE
  5
3F2
100
AcDbEntity
  8
0
100
AcDbSpline
 62
7
  6
CONTINUOUS
 70
0
 71
3
 72
32
 73
28
 74
0
 42
0.0000001
 43
0.0000001
 44
0.0000000001
 40
0.0
 40
0.0
 40
0.0
 40
0.0
 40
0.0165870963
 40
0.0341537736
 40
0.05273033
 40
0.0723387541
 40
0.0929934429
 40
0.1147029167
 40
0.1374701092
 40
0.1612936762
 40
0.1861680364
 40
0.2120843656
 40
0.239030526
 40
0.2669918118
 40
0.295950858
 40
0.3258881797
 40
0.3567821165
 40
0.3886091948
 40
0.4213441381
 40
0.454960077
 40
0.5247184596
 40
0.5976427823
 40
0.6734701307
 40
0.7519204697
 40
0.832699145
 40
0.9154982626
 40
1.0
 40
1.0
 40
1.0
 40
1.0
 10
10.1267056124
 20
5.9349615185
 30
0.0
 10
10.1277313326
 20
5.9340069776
 30
0.0
 10
10.1299069158
 20
5.9321090622
 30
0.0
 10
10.1334225988
 20
5.9293709064
 30
0.0
 10
10.137278591
 20
5.926663984
 30
0.0
 10
10.1414708525
 20
5.9239911797
 30
0.0
 10
10.1459951329
 20
5.9213550159
 30
0.0
 10
10.1508468271
 20
5.9187582559
 30
0.0
 10
10.1560209291
 20
5.9162034826
 30
0.0
 10
10.1615121213
 20
5.913693408
 30
0.0
 10
10.1673147003
 20
5.9112305833
 30
0.0
 10
10.1734226517
 20
5.9088176379
 30
0.0
 10
10.1798296057
 20
5.9064570554
 30
0.0
 10
10.1865288849
 20
5.9041513566
 30
0.0
 10
10.1935134845
 20
5.9019029353
 30
0.0
 10
10.2007761005
 20
5.8997141866
 30
0.0
 10
10.2083091265
 20
5.8975873972
 30
0.0
 10
10.2161046665
 20
5.8955248282
 30
0.0
 10
10.224154556
 20
5.8935286275
 30
0.0
 10
10.2353540732
 20
5.890926251
 30
0.0
 10
10.2499303092
 20
5.8878640017
 30
0.0
 10
10.2680865235
 20
5.8845291971
 30
0.0
 10
10.2870407953
 20
5.8815046975
 30
0.0
 10
10.3067135476
 20
5.8788033394
 30
0.0
 10
10.3270222913
 20
5.8764366241
 30
0.0
 10
10.347881713
 20
5.8744145988
 30
0.0
 10
10.3619719372
 20
5.8733118794
 30
0.0
 10
10.3690929413
 20
5.8728180361
 30
0.0
  0
SPLINE
  5
3F3
100
AcDbEntity
  8
0
100
AcDbSpline
 62
7
  6
CONTINUOUS
 70
0
 71
3
 72
18
 73
14
 74
0
 42
0.0000001
 43
0.0000001
 44
0.0000000001
 40
0.0
 40
0.0
 40
0.0
 40
0.0
 40
0.05442836
 40
0.1090738939
 40
0.1641510453
 40
0.219868736
 40
0.3339693927
 40
0.4529161514
 40
0.5146380566
 40
0.578038166
 40
0.710344963
 40
0.8507624719
 40
1.0
 40
1.0
 40
1.0
 40
1.0
 10
10.0831266304
 20
5.9887616726
 30
0.0
 10
10.0831266334
 20
5.9882129038
 30
0.0
 10
10.0831627347
 20
5.987112837
 30
0.0
 10
10.0833250213
 20
5.9854646708
 30
0.0
 10
10.083595475
 20
5.9838174994
 30
0.0
 10
10.0841039221
 20
5.9816064342
 30
0.0
 10
10.0850203021
 20
5.9788350168
 30
0.0
 10
10.0862735116
 20
5.9761333959
 30
0.0
 10
10.0874788124
 20
5.9739870211
 30
0.0
 10
10.0888607239
 20
5.9717888595
 30
0.0
 10
10.0908671426
 20
5.9690515622
 30
0.0
 10
10.0936618604
 20
5.9658385263
 30
0.0
 10
10.0957377137
 20
5.9637803969
 30
0.0
 10
10.0968392074
 20
5.9627553345
 30
0.0
  0
SPLINE
  5
3F4
100
AcDbEntity
  8
0
100
AcDbSpline
 62
7
  6
CONTINUOUS
 70
0
 71
3
 72
11
 73
7
 74
0
 42
0.0000001
 43
0.0000001
 44
0.0000000001
 40
0.0
 40
0.0
 40
0.0
 40
0.0
 40
0.2534435453
 40
0.5046259518
 40
0.7533554255
 40
1.0
 40
1.0
 40
1.0
 40
1.0
 10
10.8883017455
 20
7.8122555127
 30
0.0
 10
10.8883016999
 20
7.8144735881
 30
0.0
 10
10.8885044933
 20
7.8188928844
 30
0.0
 10
10.8894436226
 20
7.8254299143
 30
0.0
 10
10.891056154
 20
7.8317747213
 30
0.0
 10
10.8926281731
 20
7.8358309489
 30
0.0
 10
10.8935481438
 20
7.8377836622
 30
0.0
  0
SPLINE
  5
3F5
100
AcDbEntity
  8
0
100
AcDbSpline
 62
7
  6
CONTINUOUS
 70
0
 71
3
 72
31
 73
27
 74
0
 42
0.0000001
 43
0.0000001
 44
0.0000000001
 40
0.0
 40
0.0
 40
0.0
 40
0.0
 40
0.015547552
 40
0.0312880285
 40
0.0474067379
 40
0.0640750164
 40
0.081446335
 40
0.0996536174
 40
0.1188100048
 40
0.1390093636
 40
0.1603281383
 40
0.1828281955
 40
0.2065575545
 40
0.2315535635
 40
0.2578438746
 40
0.285447534
 40
0.3143773053
 40
0.3446390841
 40
0.4091525822
 40
0.4789504828
 40
0.5539291875
 40
0.6339380243
 40
0.7187873757
 40
0.8082512776
 40
0.9020847387
 40
1.0
 40
1.0
 40
1.0
 40
1.0
 10
11.1228017731
 20
10.2038834807
 30
0.0
 10
11.1228017738
 20
10.203559486
 30
0.0
 10
11.122763743
 20
10.2029068576
 30
0.0
 10
11.1225930334
 20
10.2019317745
 30
0.0
 10
11.1223090228
 20
10.2009591445
 30
0.0
 10
11.1219123614
 20
10.1999901873
 30
0.0
 10
11.1214037105
 20
10.1990257781
 30
0.0
 10
11.1207838928
 20
10.1980666609
 30
0.0
 10
11.1200536153
 20
10.1971135665
 30
0.0
 10
11.1192136645
 20
10.1961671776
 30
0.0
 10
11.1182648661
 20
10.1952281606
 30
0.0
 10
11.1172080413
 20
10.1942972753
 30
0.0
 10
11.1160441616
 20
10.1933752063
 30
0.0
 10
11.1147742219
 20
10.1924627305
 30
0.0
 10
11.113399329
 20
10.1915606142
 30
0.0
 10
11.1119206992
 20
10.1906695987
 30
0.0
 10
11.1103396061
 20
10.1897904823
 30
0.0
 10
11.1080475258
 20
10.1886099233
 30
0.0
 10
11.1049302018
 20
10.1871758114
 30
0.0
 10
11.1008820403
 20
10.1855490468
 30
0.0
 10
11.0964643993
 20
10.1839874334
 30
0.0
 10
11.091692941
 20
10.1824965988
 30
0.0
 10
11.0865845509
 20
10.1810819651
 30
0.0
 10
11.0811573217
 20
10.1797486101
 30
0.0
 10
11.0754307756
 20
10.1785014751
 30
0.0
 10
11.0715066084
 20
10.1777458122
 30
0.0
 10
11.0694988615
 20
10.1773819543
 30
0.0
  0
SPLINE
  5
3F6
100
AcDbEntity
  8
0
100
AcDbSpline
 62
7
  6
CONTINUOUS
 70
0
 71
3
 72
18
 73
14
 74
0
 42
0.0000001
 43
0.0000001
 44
0.0000000001
 40
0.0
 40
0.0
 40
0.0
 40
0.0
 40
0.0548626221
 40
0.1099291996
 40
0.1654012684
 40
0.2214754896
 40
0.3361336267
 40
0.4553633642
 40
0.5171046005
 40
0.5804361693
 40
0.7123314363
 40
0.8519591016
 40
1.0
 40
1.0
 40
1.0
 40
1.0
 10
10.0840925563
 20
10.215586547
 30
0.0
 10
10.0840925535
 20
10.2161161512
 30
0.0
 10
10.084126156
 20
10.2171776349
 30
0.0
 10
10.0842772996
 20
10.2187681234
 30
0.0
 10
10.0845291571
 20
10.2203577276
 30
0.0
 10
10.0850023894
 20
10.2224906314
 30
0.0
 10
10.0858549936
 20
10.2251638765
 30
0.0
 10
10.0870226509
 20
10.2277740284
 30
0.0
 10
10.088146235
 20
10.2298483748
 30
0.0
 10
10.089432788
 20
10.2319702699
 30
0.0
 10
10.0913008914
 20
10.2346138715
 30
0.0
 10
10.0939053737
 20
10.2377204909
 30
0.0
 10
10.0958424665
 20
10.2397138937
 30
0.0
 10
10.0968703389
 20
10.2407067423
 30
0.0
  0
SPLINE
  5
3F7
100
AcDbEntity
  8
0
100
AcDbSpline
 62
7
  6
CONTINUOUS
 70
0
 71
3
 72
32
 73
28
 74
0
 42
0.0000001
 43
0.0000001
 44
0.0000000001
 40
0.0
 40
0.0
 40
0.0
 40
0.0
 40
0.016478973
 40
0.0339511735
 40
0.0524463384
 40
0.0719872471
 40
0.092588773
 40
0.1142588623
 40
0.1370000477
 40
0.1608103511
 40
0.185683502
 40
0.2116097912
 40
0.238576108
 40
0.2665667484
 40
0.2955631658
 40
0.325544769
 40
0.3564885543
 40
0.3883698474
 40
0.421161909
 40
0.454836576
 40
0.524711205
 40
0.5977402045
 40
0.67364817
 40
0.7521422693
 40
0.8329146021
 40
0.9156443815
 40
1.0
 40
1.0
 40
1.0
 40
1.0
 10
10.3652681507
 20
10.4988873922
 30
0.0
 10
10.3663148991
 20
10.4998614501
 30
0.0
 10
10.3685377181
 20
10.5017979056
 30
0.0
 10
10.3721340666
 20
10.5045895122
 30
0.0
 10
10.3760842182
 20
10.5073484028
 30
0.0
 10
10.3803837522
 20
10.5100716411
 30
0.0
 10
10.3850282315
 20
10.5127565197
 30
0.0
 10
10.3900127244
 20
10.5154001744
 30
0.0
 10
10.3953318927
 20
10.5179997992
 30
0.0
 10
10.4009800347
 20
10.520552569
 30
0.0
 10
10.4069510602
 20
10.5230557632
 30
0.0
 10
10.4132385302
 20
10.5255066065
 30
0.0
 10
10.4198356225
 20
10.5279024804
 30
0.0
 10
10.4267351884
 20
10.5302407047
 30
0.0
 10
10.4339297199
 20
10.5325187824
 30
0.0
 10
10.4414113955
 20
10.5347341521
 30
0.0
 10
10.4491720602
 20
10.536884448
 30
0.0
 10
10.4572032564
 20
10.5389672463
 30
0.0
 10
10.4654962317
 20
10.540980337
 30
0.0
 10
10.4770328248
 20
10.5436007344
 30
0.0
 10
10.4920444492
 20
10.5466761091
 30
0.0
 10
10.5107368542
 20
10.5500117146
 30
0.0
 10
10.5302414616
 20
10.5530215916
 30
0.0
 10
10.5504730891
 20
10.5556924421
 30
0.0
 10
10.5713435158
 20
10.5580124447
 30
0.0
 10
10.5927615234
 20
10.5599713411
 30
0.0
 10
10.6072220567
 20
10.561021978
 30
0.0
 10
10.6145266518
 20
10.5614869826
 30
0.0
  0
SPLINE
  5
3F8
100
AcDbEntity
  8
0
100
AcDbSpline
 62
7
  6
CONTINUOUS
 70
0
 71
3
 72
18
 73
14
 74
0
 42
0.0000001
 43
0.0000001
 44
0.0000000001
 40
0.0
 40
0.0
 40
0.0
 40
0.0
 40
0.1492375281
 40
0.289655037
 40
0.421961834
 40
0.4853619434
 40
0.5470838486
 40
0.6660306073
 40
0.780131264
 40
0.8358489547
 40
0.8909261061
 40
0.94557164
 40
1.0
 40
1.0
 40
1.0
 40
1.0
 10
11.9031607926
 20
10.4124789201
 30
0.0
 10
11.9042622863
 20
10.4114538577
 30
0.0
 10
11.9063381396
 20
10.4093957283
 30
0.0
 10
11.9091328574
 20
10.4061826924
 30
0.0
 10
11.9111392761
 20
10.4034453951
 30
0.0
 10
11.9125211876
 20
10.4012472336
 30
0.0
 10
11.9137264884
 20
10.3991008587
 30
0.0
 10
11.9149796979
 20
10.3963992378
 30
0.0
 10
11.9158960779
 20
10.3936278204
 30
0.0
 10
11.916404525
 20
10.3914167552
 30
0.0
 10
11.9166749787
 20
10.3897695838
 30
0.0
 10
11.9168372653
 20
10.3881214176
 30
0.0
 10
11.9168733666
 20
10.3870213508
 30
0.0
 10
11.9168733696
 20
10.3864725821
 30
0.0
  0
SPLINE
  5
3F9
100
AcDbEntity
  8
0
100
AcDbSpline
 62
7
  6
CONTINUOUS
 70
0
 71
3
 72
21
 73
17
 74
0
 42
0.0000001
 43
0.0000001
 44
0.0000000001
 40
0.0
 40
0.0
 40
0.0
 40
0.0
 40
0.0616532317
 40
0.1233294843
 40
0.1850515407
 40
0.2468416642
 40
0.3087213449
 40
0.3707111025
 40
0.432830246
 40
0.4950966374
 40
0.5575265756
 40
0.6201345674
 40
0.6829331401
 40
0.7459332076
 40
0.8725262003
 40
1.0
 40
1.0
 40
1.0
 40
1.0
 10
10.2791228878
 20
7.3522296791
 30
0.0
 10
10.2774620219
 20
7.3506254043
 30
0.0
 10
10.274052646
 20
7.3475049632
 30
0.0
 10
10.2686933838
 20
7.3431050168
 30
0.0
 10
10.263101412
 20
7.3389958839
 30
0.0
 10
10.2572909852
 20
7.335188135
 30
0.0
 10
10.2512767143
 20
7.3316912859
 30
0.0
 10
10.2450737798
 20
7.3285141285
 30
0.0
 10
10.2386977891
 20
7.3256646895
 30
0.0
 10
10.2321648186
 20
7.3231501263
 30
0.0
 10
10.225491325
 20
7.320976725
 30
0.0
 10
10.2186941616
 20
7.3191499753
 30
0.0
 10
10.2117902487
 20
7.3176744564
 30
0.0
 10
10.2024527701
 20
7.316178076
 30
0.0
 10
10.1905956567
 20
7.3152059029
 30
0.0
 10
10.1810632525
 20
7.3153919377
 30
0.0
 10
10.1763003098
 20
7.3157222489
 30
0.0
  0
SPLINE
  5
3FA
100
AcDbEntity
  8
0
100
AcDbSpline
 62
7
  6
CONTINUOUS
 70
0
 71
3
 72
41
 73
37
 74
0
 42
0.0000001
 43
0.0000001
 44
0.0000000001
 40
0.0
 40
0.0
 40
0.0
 40
0.0
 40
0.0071757878
 40
0.0146740945
 40
0.0225035609
 40
0.0306713549
 40
0.0391834197
 40
0.0480443679
 40
0.0572572149
 40
0.0668238567
 40
0.076745221
 40
0.0870212626
 40
0.0976512706
 40
0.1086336674
 40
0.131645286
 40
0.1560326206
 40
0.1817627982
 40
0.2087958624
 40
0.2370856423
 40
0.2665805176
 40
0.2972240341
 40
0.3289554007
 40
0.3617098966
 40
0.3954192459
 40
0.4300120062
 40
0.4654138894
 40
0.5015480547
 40
0.5383353725
 40
0.5756947244
 40
0.6135432851
 40
0.6517967806
 40
0.6903697378
 40
0.7681261148
 40
0.8461161177
 40
0.9236388544
 40
1.0
 40
1.0
 40
1.0
 40
1.0
 10
11.6365561973
 20
10.1638728677
 30
0.0
 10
11.6358115997
 20
10.1631536417
 30
0.0
 10
11.6342519078
 20
10.1617208188
 30
0.0
 10
11.6317643593
 20
10.159633201
 30
0.0
 10
11.6290798691
 20
10.1575621344
 30
0.0
 10
11.6262001828
 20
10.1555089797
 30
0.0
 10
11.6231270047
 20
10.1534748391
 30
0.0
 10
11.619862091
 20
10.1514609148
 30
0.0
 10
11.6164073812
 20
10.1494683266
 30
0.0
 10
11.6127649204
 20
10.1474982791
 30
0.0
 10
11.6089368721
 20
10.1455519698
 30
0.0
 10
11.6049255355
 20
10.1436305147
 30
0.0
 10
11.6007332763
 20
10.1417350892
 30
0.0
 10
11.5948132337
 20
10.1392045923
 30
0.0
 10
11.5869724108
 20
10.1361230327
 30
0.0
 10
11.5770253462
 20
10.132601794
 30
0.0
 10
11.5664225951
 20
10.1292103904
 30
0.0
 10
11.5551895486
 20
10.1259570351
 30
0.0
 10
11.5433529985
 20
10.1228496081
 30
0.0
 10
11.5309412968
 20
10.1198956456
 30
0.0
 10
11.5179841963
 20
10.1171023177
 30
0.0
 10
11.5045127938
 20
10.1144764084
 30
0.0
 10
11.4905594497
 20
10.112024293
 30
0.0
 10
11.476157708
 20
10.1097519135
 30
0.0
 10
11.461342204
 20
10.1076647807
 30
0.0
 10
11.4461485755
 20
10.105767956
 30
0.0
 10
11.4306133795
 20
10.1040660438
 30
0.0
 10
11.4147740067
 20
10.1025631655
 30
0.0
 10
11.3986685841
 20
10.1012629564
 30
0.0
 10
11.3823358915
 20
10.1001685719
 30
0.0
 10
11.3658152168
 20
10.0992826434
 30
0.0
 10
11.3435316487
 20
10.0983799544
 30
0.0
 10
11.3155005582
 20
10.0977878452
 30
0.0
 10
11.2818440815
 20
10.0979297214
 30
0.0
 10
11.2484033516
 20
10.0989209072
 30
0.0
 10
11.2262340723
 20
10.1001543631
 30
0.0
 10
11.2152440153
 20
10.1009165261
 30
0.0
  0
SPLINE
  5
3FB
100
AcDbEntity
  8
0
100
AcDbSpline
 62
7
  6
CONTINUOUS
 70
0
 71
3
 72
21
 73
17
 74
0
 42
0.0000001
 43
0.0000001
 44
0.0000000001
 40
0.0
 40
0.0
 40
0.0
 40
0.0
 40
0.0616532317
 40
0.1233294843
 40
0.1850515407
 40
0.2468416642
 40
0.3087213449
 40
0.3707111025
 40
0.432830246
 40
0.4950966374
 40
0.5575265756
 40
0.6201345674
 40
0.6829331401
 40
0.7459332076
 40
0.8725262003
 40
1.0
 40
1.0
 40
1.0
 40
1.0
 10
11.4865302422
 20
7.2684956947
 30
0.0
 10
11.4848693763
 20
7.2668914199
 30
0.0
 10
11.4814600004
 20
7.2637709787
 30
0.0
 10
11.4761007382
 20
7.2593710323
 30
0.0
 10
11.4705087664
 20
7.2552618994
 30
0.0
 10
11.4646983396
 20
7.2514541506
 30
0.0
 10
11.4586840687
 20
7.2479573014
 30
0.0
 10
11.4524811342
 20
7.2447801441
 30
0.0
 10
11.4461051435
 20
7.2419307051
 30
0.0
 10
11.439572173
 20
7.2394161419
 30
0.0
 10
11.4328986794
 20
7.2372427406
 30
0.0
 10
11.426101516
 20
7.2354159909
 30
0.0
 10
11.4191976031
 20
7.233940472
 30
0.0
 10
11.4098601245
 20
7.2324440915
 30
0.0
 10
11.3980030111
 20
7.2314719185
 30
0.0
 10
11.3884706069
 20
7.2316579533
 30
0.0
 10
11.3837076643
 20
7.2319882644
 30
0.0
  0
SPLINE
  5
3FC
100
AcDbEntity
  8
0
100
AcDbSpline
 62
7
  6
CONTINUOUS
 70
0
 71
3
 72
41
 73
37
 74
0
 42
0.0000001
 43
0.0000001
 44
0.0000000001
 40
0.0
 40
0.0
 40
0.0
 40
0.0
 40
0.0071758425
 40
0.0146741453
 40
0.0225035656
 40
0.0306713257
 40
0.0391834036
 40
0.0480443729
 40
0.0572572157
 40
0.0668238661
 40
0.0767452117
 40
0.087021259
 40
0.0976512753
 40
0.1086336553
 40
0.1316452786
 40
0.1560326285
 40
0.1817628121
 40
0.2087958578
 40
0.2370856249
 40
0.2665805114
 40
0.2972240455
 40
0.3289554128
 40
0.3617098907
 40
0.3954192316
 40
0.4300120033
 40
0.4654138991
 40
0.5015480605
 40
0.5383353682
 40
0.5756947176
 40
0.6135432851
 40
0.6517967846
 40
0.6903697386
 40
0.7681261117
 40
0.8461161118
 40
0.923638923
 40
1.0
 40
1.0
 40
1.0
 40
1.0
 10
11.6664998996
 20
10.1318525625
 30
0.0
 10
11.6656881956
 20
10.1310685166
 30
0.0
 10
11.6639879456
 20
10.1295065659
 30
0.0
 10
11.6612762291
 20
10.1272308178
 30
0.0
 10
11.6583498277
 20
10.1249731294
 30
0.0
 10
11.6552106459
 20
10.1227349548
 30
0.0
 10
11.6518605226
 20
10.1205175075
 30
0.0
 10
11.6483013839
 20
10.1183220922
 30
0.0
 10
11.6445353492
 20
10.1161499297
 30
0.0
 10
11.6405646386
 20
10.1140023624
 30
0.0
 10
11.6363916264
 20
10.1118806497
 30
0.0
 10
11.6320188016
 20
10.1097860448
 30
0.0
 10
11.6274487511
 20
10.1077198132
 30
0.0
 10
11.6209952213
 20
10.104961267
 30
0.0
 10
11.6124478093
 20
10.1016020153
 30
0.0
 10
11.6016043475
 20
10.097763457
 30
0.0
 10
11.5900461143
 20
10.0940664361
 30
0.0
 10
11.5778007933
 20
10.090519895
 30
0.0
 10
11.5648975815
 20
10.0871324346
 30
0.0
 10
11.55136738
 20
10.083912275
 30
0.0
 10
11.5372426281
 20
10.0808672275
 30
0.0
 10
11.5225572327
 20
10.0780046821
 30
0.0
 10
11.5073464703
 20
10.0753315853
 30
0.0
 10
11.4916469
 20
10.0728544242
 30
0.0
 10
11.4754962749
 20
10.0705792103
 30
0.0
 10
11.4589334493
 20
10.0685114564
 30
0.0
 10
11.4419982796
 20
10.0666561729
 30
0.0
 10
11.4247315245
 20
10.065017856
 30
0.0
 10
11.4071747422
 20
10.0636004744
 30
0.0
 10
11.3893702065
 20
10.0624074717
 30
0.0
 10
11.3713607487
 20
10.0614417112
 30
0.0
 10
11.347069069
 20
10.060457672
 30
0.0
 10
11.3165119224
 20
10.059812199
 30
0.0
 10
11.2798224387
 20
10.0599668681
 30
0.0
 10
11.243368154
 20
10.0610473725
 30
0.0
 10
11.2192010609
 20
10.0623919841
 30
0.0
 10
11.2072206315
 20
10.0632228297
 30
0.0
  0
SPLINE
  5
3FD
100
AcDbEntity
  8
0
100
AcDbSpline
 62
7
  6
CONTINUOUS
 70
0
 71
3
 72
41
 73
37
 74
0
 42
0.0000001
 43
0.0000001
 44
0.0000000001
 40
0.0
 40
0.0
 40
0.0
 40
0.0
 40
0.0311445478
 40
0.0624424446
 40
0.0938872679
 40
0.125469566
 40
0.1571770992
 40
0.1889951145
 40
0.2209066667
 40
0.2528929719
 40
0.2849337877
 40
0.3170078142
 40
0.3490931102
 40
0.381167517
 40
0.4132090858
 40
0.4451965025
 40
0.4771095029
 40
0.5089292747
 40
0.5406388381
 40
0.5722233999
 40
0.6036706736
 40
0.63497116
 40
0.6661183793
 40
0.6971090497
 40
0.7279432042
 40
0.7586242401
 40
0.7891588962
 40
0.8195571523
 40
0.8498320512
 40
0.8649308901
 40
0.8800050513
 40
0.9100832572
 40
0.940092674
 40
0.9550812744
 40
0.9700610349
 40
1.0
 40
1.0
 40
1.0
 40
1.0
 10
10.1763003098
 20
7.3157222489
 30
0.0
 10
10.1728094475
 20
7.315964341
 30
0.0
 10
10.1658256579
 20
7.3167052388
 30
0.0
 10
10.1554346464
 20
7.3185715596
 30
0.0
 10
10.1451549215
 20
7.3211857413
 30
0.0
 10
10.135042027
 20
7.3245336932
 30
0.0
 10
10.1251496707
 20
7.3285974887
 30
0.0
 10
10.1155306258
 20
7.3333553837
 30
0.0
 10
10.1062361335
 20
7.3387819537
 30
0.0
 10
10.0973157205
 20
7.3448482241
 30
0.0
 10
10.0888169148
 20
7.3515218258
 30
0.0
 10
10.0807850013
 20
7.3587671655
 30
0.0
 10
10.0732627824
 20
7.3665456148
 30
0.0
 10
10.0662903518
 20
7.3748157141
 30
0.0
 10
10.0599048836
 20
7.3835333911
 30
0.0
 10
10.0541404352
 20
7.3926521933
 30
0.0
 10
10.0490277676
 20
7.4021235332
 30
0.0
 10
10.0445941824
 20
7.4118969437
 30
0.0
 10
10.0408633764
 20
7.4219203441
 30
0.0
 10
10.0378553155
 20
7.4321403136
 30
0.0
 10
10.0355861274
 20
7.4425023727
 30
0.0
 10
10.0340680135
 20
7.4529512692
 30
0.0
 10
10.033309182
 20
7.4634312697
 30
0.0
 10
10.0333137988
 20
7.4738864503
 30
0.0
 10
10.034081966
 20
7.4842610031
 30
0.0
 10
10.0356096962
 20
7.4944994906
 30
0.0
 10
10.0378889989
 20
7.5045472922
 30
0.0
 10
10.0409076513
 20
7.5143503346
 30
0.0
 10
10.0440294212
 20
7.5222804322
 30
0.0
 10
10.0468782485
 20
7.5284472873
 30
0.0
 10
10.0499526094
 20
7.5344800891
 30
0.0
 10
10.0542212561
 20
7.5417770452
 30
0.0
 10
10.0590388792
 20
7.548712171
 30
0.0
 10
10.0632020562
 20
7.5540131777
 30
0.0
 10
10.0675637775
 20
7.5591412018
 30
0.0
 10
10.071058309
 20
7.562791895
 30
0.0
 10
10.0734777319
 20
7.5651288802
 30
0.0
  0
SPLINE
  5
3FE
100
AcDbEntity
  8
0
100
AcDbSpline
 62
7
  6
CONTINUOUS
 70
0
 71
3
 72
15
 73
11
 74
0
 42
0.0000001
 43
0.0000001
 44
0.0000000001
 40
0.0
 40
0.0
 40
0.0
 40
0.0
 40
0.1233171388
 40
0.2468172051
 40
0.3706750009
 40
0.4950496043
 40
0.6200772562
 40
0.7458671573
 40
0.8724928759
 40
1.0
 40
1.0
 40
1.0
 40
1.0
 10
10.8244680161
 20
8.1406230956
 30
0.0
 10
10.823031837
 20
8.1392358445
 30
0.0
 10
10.8200053564
 20
8.1366118525
 30
0.0
 10
10.815065834
 20
8.1331830076
 30
0.0
 10
10.8097729619
 20
8.1302925386
 30
0.0
 10
10.8041809246
 20
8.127970146
 30
0.0
 10
10.7983461265
 20
8.126238882
 30
0.0
 10
10.7923273399
 20
8.1251160772
 30
0.0
 10
10.7861860091
 20
8.1246126477
 30
0.0
 10
10.7820636511
 20
8.1246930555
 30
0.0
 10
10.7800039871
 20
8.1248358937
 30
0.0
  0
SPLINE
  5
3FF
100
AcDbEntity
  8
0
100
AcDbSpline
 62
7
  6
CONTINUOUS
 70
0
 71
3
 72
15
 73
11
 74
0
 42
0.0000001
 43
0.0000001
 44
0.0000000001
 40
0.0
 40
0.0
 40
0.0
 40
0.0
 40
0.1232680506
 40
0.2468877099
 40
0.3709463021
 40
0.495519592
 40
0.6206717406
 40
0.7464473204
 40
0.8728891406
 40
1.0
 40
1.0
 40
1.0
 40
1.0
 10
10.8317978522
 20
8.1492403238
 30
0.0
 10
10.8305009488
 20
8.1484110742
 30
0.0
 10
10.8278338124
 20
8.1468563597
 30
0.0
 10
10.8236500784
 20
8.1448563303
 30
0.0
 10
10.8193023113
 20
8.1431966463
 30
0.0
 10
10.8148167269
 20
8.1418873251
 30
0.0
 10
10.8102199766
 20
8.1409360768
 30
0.0
 10
10.8055392517
 20
8.1403483942
 30
0.0
 10
10.8008028103
 20
8.1401278348
 30
0.0
 10
10.7976342942
 20
8.1402260627
 30
0.0
 10
10.7960507543
 20
8.1403358816
 30
0.0
  0
SPLINE
  5
400
100
AcDbEntity
  8
0
100
AcDbSpline
 62
7
  6
CONTINUOUS
 70
0
 71
3
 72
30
 73
26
 74
0
 42
0.0000001
 43
0.0000001
 44
0.0000000001
 40
0.0
 40
0.0
 40
0.0
 40
0.0
 40
0.0299442852
 40
0.0599608666
 40
0.0900662374
 40
0.120275131
 40
0.1506002724
 40
0.1810521749
 40
0.2116389426
 40
0.2423661304
 40
0.2732367141
 40
0.3042510735
 40
0.3354069893
 40
0.3666997166
 40
0.3981221427
 40
0.4296649193
 40
0.4930316772
 40
0.5567208306
 40
0.6205988802
 40
0.6845199813
 40
0.7483354542
 40
0.8119035534
 40
0.8750987526
 40
0.9378196997
 40
1.0
 40
1.0
 40
1.0
 40
1.0
 10
10.7443709263
 20
8.239662809
 30
0.0
 10
10.7436099737
 20
8.2385563489
 30
0.0
 10
10.7421652739
 20
8.2362852033
 30
0.0
 10
10.7402445434
 20
8.2327283509
 30
0.0
 10
10.7385761051
 20
8.2290331791
 30
0.0
 10
10.737167641
 20
8.2252166554
 30
0.0
 10
10.7360254237
 20
8.2212960115
 30
0.0
 10
10.7351545982
 20
8.2172890059
 30
0.0
 10
10.7345590994
 20
8.2132137565
 30
0.0
 10
10.734241568
 20
8.2090887008
 30
0.0
 10
10.7342033815
 20
8.2049324855
 30
0.0
 10
10.7344446872
 20
8.2007638925
 30
0.0
 10
10.734964399
 20
8.1966017424
 30
0.0
 10
10.7357600777
 20
8.1924648806
 30
0.0
 10
10.7368281933
 20
8.1883717833
 30
0.0
 10
10.7386111485
 20
8.1829907882
 30
0.0
 10
10.7414968162
 20
8.1764668838
 30
0.0
 10
10.7459353383
 20
8.1691185575
 30
0.0
 10
10.7512766208
 20
8.1623653722
 30
0.0
 10
10.7574243477
 20
8.1563293389
 30
0.0
 10
10.7642683264
 20
8.1511185692
 30
0.0
 10
10.7716857131
 20
8.1468269215
 30
0.0
 10
10.7795440263
 20
8.1435317945
 30
0.0
 10
10.7877003843
 20
8.1412931936
 30
0.0
 10
10.7932689195
 20
8.1405288025
 30
0.0
 10
10.7960507543
 20
8.1403358816
 30
0.0
  0
SPLINE
  5
401
100
AcDbEntity
  8
0
100
AcDbSpline
 62
7
  6
CONTINUOUS
 70
0
 71
3
 72
15
 73
11
 74
0
 42
0.0000001
 43
0.0000001
 44
0.0000000001
 40
0.0
 40
0.0
 40
0.0
 40
0.0
 40
0.1233171388
 40
0.2468172051
 40
0.3706750009
 40
0.4950496043
 40
0.6200772562
 40
0.7458671573
 40
0.8724928759
 40
1.0
 40
1.0
 40
1.0
 40
1.0
 10
11.44362651
 20
7.6601198166
 30
0.0
 10
11.4421903309
 20
7.6587325656
 30
0.0
 10
11.4391638503
 20
7.6561085736
 30
0.0
 10
11.4342243279
 20
7.6526797287
 30
0.0
 10
11.4289314558
 20
7.6497892597
 30
0.0
 10
11.4233394185
 20
7.6474668671
 30
0.0
 10
11.4175046204
 20
7.6457356031
 30
0.0
 10
11.4114858338
 20
7.6446127983
 30
0.0
 10
11.405344503
 20
7.6441093687
 30
0.0
 10
11.401222145
 20
7.6441897766
 30
0.0
 10
11.3991624809
 20
7.6443326148
 30
0.0
  0
SPLINE
  5
402
100
AcDbEntity
  8
0
100
AcDbSpline
 62
7
  6
CONTINUOUS
 70
0
 71
3
 72
15
 73
11
 74
0
 42
0.0000001
 43
0.0000001
 44
0.0000000001
 40
0.0
 40
0.0
 40
0.0
 40
0.0
 40
0.1233171217
 40
0.2468171833
 40
0.3706749954
 40
0.4950495965
 40
0.6200773092
 40
0.7458671694
 40
0.8724927499
 40
1.0
 40
1.0
 40
1.0
 40
1.0
 10
11.4533525878
 20
8.5251787724
 30
0.0
 10
11.4516022548
 20
8.5234880846
 30
0.0
 10
11.4479137369
 20
8.5202901619
 30
0.0
 10
11.4418937353
 20
8.5161113264
 30
0.0
 10
11.4354430903
 20
8.5125886387
 30
0.0
 10
11.4286278457
 20
8.5097582866
 30
0.0
 10
11.4215167454
 20
8.5076483637
 30
0.0
 10
11.4141814206
 20
8.5062799798
 30
0.0
 10
11.4066967481
 20
8.5056664398
 30
0.0
 10
11.4016726742
 20
8.5057644379
 30
0.0
 10
11.3991624809
 20
8.5059385204
 30
0.0
  0
SPLINE
  5
403
100
AcDbEntity
  8
0
100
AcDbSpline
 62
7
  6
CONTINUOUS
 70
0
 71
3
 72
11
 73
7
 74
0
 42
0.0000001
 43
0.0000001
 44
0.0000000001
 40
0.0
 40
0.0
 40
0.0
 40
0.0
 40
0.2476290643
 40
0.4967545117
 40
0.7475158752
 40
1.0
 40
1.0
 40
1.0
 40
1.0
 10
11.4696355227
 20
8.5497537638
 30
0.0
 10
11.4673363079
 20
8.5489519403
 30
0.0
 10
11.4626368212
 20
8.5475823872
 30
0.0
 10
11.4553942461
 20
8.546257177
 30
0.0
 10
11.4480074229
 20
8.5456667349
 30
0.0
 10
11.4430503029
 20
8.5457667215
 30
0.0
 10
11.440573493
 20
8.5459384888
 30
0.0
  0
SPLINE
  5
404
100
AcDbEntity
  8
0
100
AcDbSpline
 62
7
  6
CONTINUOUS
 70
0
 71
3
 72
26
 73
22
 74
0
 42
0.0000001
 43
0.0000001
 44
0.0000000001
 40
0.0
 40
0.0
 40
0.0
 40
0.0
 40
0.0301009649
 40
0.060307604
 40
0.0906281321
 40
0.1210690058
 40
0.1516348538
 40
0.1823284679
 40
0.2440730498
 40
0.3063159946
 40
0.3690139906
 40
0.432098536
 40
0.4954801135
 40
0.5590533439
 40
0.6227027077
 40
0.6863086761
 40
0.7497540061
 40
0.8129299511
 40
0.8757421303
 40
0.9381149683
 40
1.0
 40
1.0
 40
1.0
 40
1.0
 10
11.3700793926
 20
8.652759552
 30
0.0
 10
11.3695436065
 20
8.6513762826
 30
0.0
 10
11.3685576811
 20
8.6485700862
 30
0.0
 10
11.3673438278
 20
8.6442690738
 30
0.0
 10
11.3663967168
 20
8.6398842593
 30
0.0
 10
11.3657198749
 20
8.6354318991
 30
0.0
 10
11.3653157019
 20
8.6309279646
 30
0.0
 10
11.3651418464
 20
8.624865603
 30
0.0
 10
11.3656156077
 20
8.6172375008
 30
0.0
 10
11.3672732218
 20
8.6081669202
 30
0.0
 10
11.3699962562
 20
8.5992880378
 30
0.0
 10
11.3737447438
 20
8.5907304057
 30
0.0
 10
11.3784638782
 20
8.5826176239
 30
0.0
 10
11.3840851008
 20
8.5750672
 30
0.0
 10
11.3905268076
 20
8.5681883607
 30
0.0
 10
11.3976956832
 20
8.5620807274
 30
0.0
 10
11.405488031
 20
8.5568329015
 30
0.0
 10
11.4137909301
 20
8.5525210648
 30
0.0
 10
11.4224847009
 20
8.5492081233
 30
0.0
 10
11.4314417259
 20
8.5469426269
 30
0.0
 10
11.4375310383
 20
8.5461494838
 30
0.0
 10
11.440573493
 20
8.5459384888
 30
0.0
  0
SPLINE
  5
405
100
AcDbEntity
  8
0
100
AcDbSpline
 62
7
  6
CONTINUOUS
 70
0
 71
3
 72
22
 73
18
 74
0
 42
0.0000001
 43
0.0000001
 44
0.0000000001
 40
0.0
 40
0.0
 40
0.0
 40
0.0
 40
0.1257305062
 40
0.2517012337
 40
0.3777301324
 40
0.4407231295
 40
0.5036423654
 40
0.5664518517
 40
0.6291137229
 40
0.6915893297
 40
0.7227502378
 40
0.7538504992
 40
0.8158422523
 40
0.8775435071
 40
0.9082825718
 40
0.9389423403
 40
1.0
 40
1.0
 40
1.0
 40
1.0
 10
10.8679813547
 20
8.625512901
 30
0.0
 10
10.87241368
 20
8.6226725794
 30
0.0
 10
10.8810298607
 20
8.6165715128
 30
0.0
 10
10.8929969715
 20
8.606192871
 30
0.0
 10
10.9020145653
 20
8.5965281971
 30
0.0
 10
10.9085274276
 20
8.588223648
 30
0.0
 10
10.913027943
 20
8.5817226976
 30
0.0
 10
10.9171095488
 20
8.5749667989
 30
0.0
 10
10.9207378026
 20
8.5679775776
 30
0.0
 10
10.9233578962
 20
8.5619746729
 30
0.0
 10
10.9251936186
 20
8.5570842004
 30
0.0
 10
10.9268479244
 20
8.5521507831
 30
0.0
 10
10.9285741176
 20
8.5458973355
 30
0.0
 10
10.9298262164
 20
8.5395469752
 30
0.0
 10
10.930530901
 20
8.5344400016
 30
0.0
 10
10.9310347659
 20
8.5293366954
 30
0.0
 10
10.9311877686
 20
8.5254943171
 30
0.0
 10
10.9311877686
 20
8.5229378468
 30
0.0
  0
SPLINE
  5
406
100
AcDbEntity
  8
0
100
AcDbSpline
 62
7
  6
CONTINUOUS
 70
0
 71
3
 72
37
 73
33
 74
0
 42
0.0000001
 43
0.0000001
 44
0.0000000001
 40
0.0
 40
0.0
 40
0.0
 40
0.0
 40
0.0311467573
 40
0.0624481077
 40
0.0938952645
 40
0.125480423
 40
0.1571906467
 40
0.189011416
 40
0.2209257215
 40
0.2529147894
 40
0.2849583708
 40
0.3170351623
 40
0.381163081
 40
0.4451600481
 40
0.4770758024
 40
0.508898317
 40
0.5406106103
 40
0.5721978896
 40
0.6036478697
 40
0.6349510521
 40
0.6661009568
 40
0.6970942988
 40
0.7279311085
 40
0.7586147837
 40
0.7891520652
 40
0.819552936
 40
0.8498304416
 40
0.8800004329
 40
0.9100812331
 40
0.9400932378
 40
0.9700584557
 40
1.0
 40
1.0
 40
1.0
 40
1.0
 10
11.3991624809
 20
8.5059385204
 30
0.0
 10
11.397322728
 20
8.5060661077
 30
0.0
 10
11.3936420633
 20
8.5064565986
 30
0.0
 10
11.3881657128
 20
8.5074401721
 30
0.0
 10
11.3827479921
 20
8.50881796
 30
0.0
 10
11.3774182282
 20
8.5105824017
 30
0.0
 10
11.3722046792
 20
8.5127241457
 30
0.0
 10
11.3671351782
 20
8.5152316795
 30
0.0
 10
11.3622367137
 20
8.5180916442
 30
0.0
 10
11.357535446
 20
8.5212887016
 30
0.0
 10
11.3530562175
 20
8.5248060319
 30
0.0
 10
11.3474141109
 20
8.5298954431
 30
0.0
 10
11.3410347175
 20
8.5369574047
 30
0.0
 10
11.335681297
 20
8.5448144679
 30
0.0
 10
11.3320864518
 20
8.5514743107
 30
0.0
 10
11.3297497265
 20
8.55662533
 30
0.0
 10
11.3277835311
 20
8.5619079016
 30
0.0
 10
11.3261982022
 20
8.5672941217
 30
0.0
 10
11.3250022875
 20
8.5727552116
 30
0.0
 10
11.3242022051
 20
8.5782620705
 30
0.0
 10
11.3238022862
 20
8.5837853208
 30
0.0
 10
11.3238047308
 20
8.589295491
 30
0.0
 10
11.3242095918
 20
8.5947631635
 30
0.0
 10
11.3250147687
 20
8.6001591346
 30
0.0
 10
11.3262160246
 20
8.6054545687
 30
0.0
 10
11.3278070039
 20
8.6106211529
 30
0.0
 10
11.3297792601
 20
8.6156312463
 30
0.0
 10
11.3321223071
 20
8.6204580384
 30
0.0
 10
11.3348236364
 20
8.6250756605
 30
0.0
 10
11.3378689125
 20
8.6294594573
 30
0.0
 10
11.3412415451
 20
8.6335856517
 30
0.0
 10
11.3436972692
 20
8.6361510525
 30
0.0
 10
11.344972374
 20
8.6373827062
 30
0.0
  0
SPLINE
  5
407
100
AcDbEntity
  8
0
100
AcDbSpline
 62
7
  6
CONTINUOUS
 70
0
 71
3
 72
37
 73
33
 74
0
 42
0.0000001
 43
0.0000001
 44
0.0000000001
 40
0.0
 40
0.0
 40
0.0
 40
0.0
 40
0.0300305583
 40
0.0601569014
 40
0.0903895909
 40
0.1207373763
 40
0.1512071351
 40
0.1818038427
 40
0.2125305663
 40
0.2433884742
 40
0.274376854
 40
0.3054931488
 40
0.3367330067
 40
0.3680903397
 40
0.3995573874
 40
0.4311247823
 40
0.4944879241
 40
0.5581042646
 40
0.5899842837
 40
0.6218811429
 40
0.6537777979
 40
0.6856568675
 40
0.7175008971
 40
0.7492926458
 40
0.7810153947
 40
0.8126532682
 40
0.8441915971
 40
0.8756171726
 40
0.9069188659
 40
0.9380870005
 40
0.9691159874
 40
1.0
 40
1.0
 40
1.0
 40
1.0
 10
11.2466707588
 20
8.0478706755
 30
0.0
 10
11.2443147742
 20
8.0468144556
 30
0.0
 10
11.2395235372
 20
8.0448548073
 30
0.0
 10
11.2321482005
 20
8.0423891176
 30
0.0
 10
11.2246019646
 20
8.0403995643
 30
0.0
 10
11.2169149586
 20
8.0388920473
 30
0.0
 10
11.2091169074
 20
8.0378706393
 30
0.0
 10
11.2012377481
 20
8.0373379477
 30
0.0
 10
11.1933074237
 20
8.0372950751
 30
0.0
 10
11.185355911
 20
8.0377416572
 30
0.0
 10
11.177413185
 20
8.0386758727
 30
0.0
 10
11.1695092174
 20
8.0400944613
 30
0.0
 10
11.1616739267
 20
8.0419927306
 30
0.0
 10
11.1539372836
 20
8.0443644664
 30
0.0
 10
11.1463288224
 20
8.0472021688
 30
0.0
 10
11.1363849662
 20
8.0515988755
 30
0.0
 10
11.1244270041
 20
8.0582128894
 30
0.0
 10
11.1133131477
 20
8.0662106803
 30
0.0
 10
11.1050251274
 20
8.0733794762
 30
0.0
 10
11.0991335348
 20
8.0791271117
 30
0.0
 10
11.0935992582
 20
8.0852191801
 30
0.0
 10
11.088447744
 20
8.0916325329
 30
0.0
 10
11.0837036326
 20
8.0983418829
 30
0.0
 10
11.0793900891
 20
8.1053201503
 30
0.0
 10
11.0755287086
 20
8.1125384397
 30
0.0
 10
11.072139241
 20
8.1199661535
 30
0.0
 10
11.0692393958
 20
8.1275711175
 30
0.0
 10
11.066844582
 20
8.1353197746
 30
0.0
 10
11.0649678075
 20
8.1431772932
 30
0.0
 10
11.0636192872
 20
8.1511081197
 30
0.0
 10
11.0628066483
 20
8.15907525
 30
0.0
 10
11.062624695
 20
8.1644000172
 30
0.0
 10
11.062624695
 20
8.1670553048
 30
0.0
  0
SPLINE
  5
408
100
AcDbEntity
  8
0
100
AcDbSpline
 62
7
  6
CONTINUOUS
 70
0
 71
3
 72
35
 73
31
 74
0
 42
0.0000001
 43
0.0000001
 44
0.0000000001
 40
0.0
 40
0.0
 40
0.0
 40
0.0
 40
0.064559853
 40
0.0968513637
 40
0.1291252152
 40
0.1935564505
 40
0.2577943266
 40
0.3217703037
 40
0.3854239411
 40
0.4487005583
 40
0.5115503273
 40
0.5428129975
 40
0.5739541629
 40
0.6358298298
 40
0.6665904313
 40
0.6972244547
 40
0.7277363439
 40
0.7581343216
 40
0.7884312841
 40
0.8186456699
 40
0.8488021154
 40
0.8789316272
 40
0.8940023678
 40
0.9090806305
 40
0.9241716792
 40
0.9392809021
 40
0.954413135
 40
0.9695737939
 40
0.9847690335
 40
1.0
 40
1.0
 40
1.0
 40
1.0
 10
10.7224210188
 20
7.7243810922
 30
0.0
 10
10.7173877383
 20
7.7287418683
 30
0.0
 10
10.7102022824
 20
7.7357209152
 30
0.0
 10
10.7014080764
 20
7.745729916
 30
0.0
 10
10.6931443281
 20
7.7561661479
 30
0.0
 10
10.683821702
 20
7.7699380106
 30
0.0
 10
10.6742960602
 20
7.7874113807
 30
0.0
 10
10.6664907902
 20
7.8056312324
 30
0.0
 10
10.6604735687
 20
7.8244137987
 30
0.0
 10
10.6563264831
 20
7.8435776498
 30
0.0
 10
10.6545093808
 20
7.8597433249
 30
0.0
 10
10.6541088723
 20
7.8726636384
 30
0.0
 10
10.6544296145
 20
7.8854844067
 30
0.0
 10
10.6558665835
 20
7.8982100469
 30
0.0
 10
10.6585092844
 20
7.9106559721
 30
0.0
 10
10.6611065513
 20
7.9197821707
 30
0.0
 10
10.6643413439
 20
7.9286630616
 30
0.0
 10
10.668230552
 20
7.9372406017
 30
0.0
 10
10.6727871316
 20
7.9454492346
 30
0.0
 10
10.6780183212
 20
7.9532170044
 30
0.0
 10
10.6839222329
 20
7.960465483
 30
0.0
 10
10.689393933
 20
7.9660059913
 30
0.0
 10
10.6940834879
 20
7.9700923827
 30
0.0
 10
10.6977546525
 20
7.9729768888
 30
0.0
 10
10.7015729708
 20
7.9756703883
 30
0.0
 10
10.7055316914
 20
7.9781635467
 30
0.0
 10
10.7096227187
 20
7.9804478918
 30
0.0
 10
10.713837379
 20
7.9825155568
 30
0.0
 10
10.7181655189
 20
7.9843595514
 30
0.0
 10
10.7211160117
 20
7.9854348571
 30
0.0
 10
10.7226059186
 20
7.9859334932
 30
0.0
  0
SPLINE
  5
409
100
AcDbEntity
  8
0
100
AcDbSpline
 62
7
  6
CONTINUOUS
 70
0
 71
3
 72
37
 73
33
 74
0
 42
0.0000001
 43
0.0000001
 44
0.0000000001
 40
0.0
 40
0.0
 40
0.0
 40
0.0
 40
0.0311464763
 40
0.0624483004
 40
0.0938952738
 40
0.1254804953
 40
0.1571907415
 40
0.1890115257
 40
0.2209258547
 40
0.252914932
 40
0.2849585264
 40
0.317035338
 40
0.3491234252
 40
0.381200621
 40
0.4451976236
 40
0.5088978732
 40
0.5406101981
 40
0.5721975056
 40
0.6036475114
 40
0.634950721
 40
0.6661006564
 40
0.6970940303
 40
0.7279308694
 40
0.7586145731
 40
0.7891518852
 40
0.8195527902
 40
0.8498303302
 40
0.8800003491
 40
0.9100811696
 40
0.9400931924
 40
0.9700584311
 40
1.0
 40
1.0
 40
1.0
 40
1.0
 10
11.3991624809
 20
7.6443326148
 30
0.0
 10
11.3976529598
 20
7.6444373004
 30
0.0
 10
11.3946329314
 20
7.6447577111
 30
0.0
 10
11.3901395306
 20
7.6455647271
 30
0.0
 10
11.3856942249
 20
7.6466952276
 30
0.0
 10
11.3813211032
 20
7.6481429534
 30
0.0
 10
11.3770433292
 20
7.6499002681
 30
0.0
 10
11.3728837509
 20
7.6519577267
 30
0.0
 10
11.3688645205
 20
7.6543043497
 30
0.0
 10
11.3650070543
 20
7.6569275919
 30
0.0
 10
11.3613318921
 20
7.6598134703
 30
0.0
 10
11.3578586551
 20
7.6629465362
 30
0.0
 10
11.3546057137
 20
7.666310315
 30
0.0
 10
11.3505896984
 20
7.6710736004
 30
0.0
 10
11.3462037485
 20
7.6775090358
 30
0.0
 10
11.3427488779
 20
7.6844695442
 30
0.0
 10
11.3405952737
 20
7.690255849
 30
0.0
 10
11.3392944116
 20
7.694675424
 30
0.0
 10
11.3383131532
 20
7.6991562654
 30
0.0
 10
11.3376566504
 20
7.7036747052
 30
0.0
 10
11.3373284876
 20
7.7082065844
 30
0.0
 10
11.3373304684
 20
7.7127277365
 30
0.0
 10
11.3376626391
 20
7.7172140194
 30
0.0
 10
11.3383232689
 20
7.7216414728
 30
0.0
 10
11.3393088808
 20
7.725986438
 30
0.0
 10
11.340614262
 20
7.7302256844
 30
0.0
 10
11.3422324884
 20
7.73433653
 30
0.0
 10
11.3441549628
 20
7.738296972
 30
0.0
 10
11.3463714084
 20
7.74208579
 30
0.0
 10
11.3488700563
 20
7.7456827612
 30
0.0
 10
11.3516373034
 20
7.7490683704
 30
0.0
 10
11.3536522198
 20
7.7511733371
 30
0.0
 10
11.3546984519
 20
7.752183926
 30
0.0
  0
SPLINE
  5
40A
100
AcDbEntity
  8
0
100
AcDbSpline
 62
7
  6
CONTINUOUS
 70
0
 71
3
 72
11
 73
7
 74
0
 42
0.0000001
 43
0.0000001
 44
0.0000000001
 40
0.0
 40
0.0
 40
0.0
 40
0.0
 40
0.2432430349
 40
0.4892469432
 40
0.7406730755
 40
1.0
 40
1.0
 40
1.0
 40
1.0
 10
10.6243696074
 20
10.3840065828
 30
0.0
 10
10.624369605
 20
10.3850732299
 30
0.0
 10
10.6244891852
 20
10.387220483
 30
0.0
 10
10.6250260616
 20
10.3904299334
 30
0.0
 10
10.6259193054
 20
10.3936319395
 30
0.0
 10
10.6267366333
 20
10.3957216168
 30
0.0
 10
10.6271991273
 20
10.3967604961
 30
0.0
  0
SPLINE
  5
40B
100
AcDbEntity
  8
0
100
AcDbSpline
 62
7
  6
CONTINUOUS
 70
0
 71
3
 72
32
 73
28
 74
0
 42
0.0000001
 43
0.0000001
 44
0.0000000001
 40
0.0
 40
0.0
 40
0.0
 40
0.0
 40
0.0314268461
 40
0.0626422491
 40
0.0936630067
 40
0.1245125408
 40
0.1552207205
 40
0.1858201862
 40
0.2163440479
 40
0.246823901
 40
0.2772885413
 40
0.3077632963
 40
0.3382698224
 40
0.3688262243
 40
0.3994473776
 40
0.430145311
 40
0.4917803751
 40
0.5227579629
 40
0.5538393307
 40
0.6163031866
 40
0.6792085401
 40
0.742555874
 40
0.8063350316
 40
0.8705247835
 40
0.9027743862
 40
0.9351127946
 40
1.0
 40
1.0
 40
1.0
 40
1.0
 10
10.9311877686
 20
8.5229378468
 30
0.0
 10
10.9311877686
 20
8.5197616183
 30
0.0
 10
10.9308741671
 20
8.5134258616
 30
0.0
 10
10.9294608841
 20
8.5040504113
 30
0.0
 10
10.9271342375
 20
8.4949185262
 30
0.0
 10
10.923937882
 20
8.4861089972
 30
0.0
 10
10.9199277202
 20
8.4776868883
 30
0.0
 10
10.9151674075
 20
8.4697043541
 30
0.0
 10
10.9097244116
 20
8.4622005413
 30
0.0
 10
10.9036666499
 20
8.4552030488
 30
0.0
 10
10.8970600593
 20
8.4487297247
 30
0.0
 10
10.889967039
 20
8.442790649
 30
0.0
 10
10.8824455375
 20
8.4373899695
 30
0.0
 10
10.8745489427
 20
8.432527592
 30
0.0
 10
10.866325327
 20
8.428200249
 30
0.0
 10
10.8549720068
 20
8.4231318432
 30
0.0
 10
10.8431364598
 20
8.4191170944
 30
0.0
 10
10.8309920798
 20
8.416130546
 30
0.0
 10
10.8186172502
 20
8.4138073217
 30
0.0
 10
10.8028594307
 20
8.4121559518
 30
0.0
 10
10.7837543647
 20
8.412136745
 30
0.0
 10
10.7646114306
 20
8.4140518948
 30
0.0
 10
10.7456285826
 20
8.4178913942
 30
0.0
 10
10.7301315381
 20
8.422691436
 30
0.0
 10
10.7180298646
 20
8.4274965931
 30
0.0
 10
10.7061364262
 20
8.4329637428
 30
0.0
 10
10.6975481615
 20
8.4377938079
 30
0.0
 10
10.6920266194
 20
8.4413321212
 30
0.0
  0
SPLINE
  5
40C
100
AcDbEntity
  8
0
100
AcDbSpline
 62
7
  6
CONTINUOUS
 70
0
 71
3
 72
11
 73
7
 74
0
 42
0.0000001
 43
0.0000001
 44
0.0000000001
 40
0.0
 40
0.0
 40
0.0
 40
0.0
 40
0.2593323467
 40
0.51075963
 40
0.7567613553
 40
1.0
 40
1.0
 40
1.0
 40
1.0
 10
11.4825380387
 20
10.3967650555
 30
0.0
 10
11.4830008422
 20
10.395725843
 30
0.0
 10
11.4838187344
 20
10.3936354925
 30
0.0
 10
11.4847126163
 20
10.3904324068
 30
0.0
 10
11.4852498908
 20
10.3872218645
 30
0.0
 10
11.4853695812
 20
10.3850738724
 30
0.0
 10
11.4853695836
 20
10.3840068632
 30
0.0
  0
SPLINE
  5
40D
100
AcDbEntity
  8
0
100
AcDbSpline
 62
7
  6
CONTINUOUS
 70
0
 71
3
 72
41
 73
37
 74
0
 42
0.0000001
 43
0.0000001
 44
0.0000000001
 40
0.0
 40
0.0
 40
0.0
 40
0.0
 40
0.0761045125
 40
0.1533640536
 40
0.2310947966
 40
0.3086066342
 40
0.3470661279
 40
0.3852137617
 40
0.422965303
 40
0.4602376738
 40
0.4969492092
 40
0.5330199063
 40
0.5683716834
 40
0.602928646
 40
0.6366173801
 40
0.6693672547
 40
0.7011107167
 40
0.7317836229
 40
0.7613256076
 40
0.7896805113
 40
0.8167968801
 40
0.8426285084
 40
0.8671351182
 40
0.8902832146
 40
0.9013399809
 40
0.9120482875
 40
0.9224063604
 40
0.9324131777
 40
0.9420685251
 40
0.9513729307
 40
0.9603279659
 40
0.9689361507
 40
0.9772014048
 40
0.9851291396
 40
0.9927260306
 40
1.0
 40
1.0
 40
1.0
 40
1.0
 10
11.2062547056
 20
5.8363979553
 30
0.0
 10
11.218162293
 20
5.8355721613
 30
0.0
 10
11.2421818596
 20
5.8342337676
 30
0.0
 10
11.278414201
 20
5.8331513891
 30
0.0
 10
11.3148831218
 20
5.8329837397
 30
0.0
 10
11.3452603607
 20
5.8336091368
 30
0.0
 10
11.3694136823
 20
5.8345715074
 30
0.0
 10
11.3873251507
 20
5.8355184636
 30
0.0
 10
11.4050367244
 20
5.8366900937
 30
0.0
 10
11.4225063074
 20
5.8380836176
 30
0.0
 10
11.4396923412
 20
5.8396956907
 30
0.0
 10
11.4565539574
 20
5.8415224557
 30
0.0
 10
11.4730510601
 20
5.8435595393
 30
0.0
 10
11.4891444262
 20
5.8458020672
 30
0.0
 10
11.5047958037
 20
5.8482446689
 30
0.0
 10
11.5199680066
 20
5.850881488
 30
0.0
 10
11.5346250032
 20
5.853706204
 30
0.0
 10
11.5487320024
 20
5.8567120455
 30
0.0
 10
11.5622555405
 20
5.8598918081
 30
0.0
 10
11.5751635782
 20
5.8632378706
 30
0.0
 10
11.5874255682
 20
5.8667422077
 30
0.0
 10
11.5990126099
 20
5.8703964241
 30
0.0
 10
11.6098972712
 20
5.8741917848
 30
0.0
 10
11.6184878934
 20
5.8775134638
 30
0.0
 10
11.6249827051
 20
5.8802416768
 30
0.0
 10
11.6295878294
 20
5.8822861299
 30
0.0
 10
11.6339989654
 20
5.8843589981
 30
0.0
 10
11.6382135183
 20
5.8864590817
 30
0.0
 10
11.6422290197
 20
5.8885851099
 30
0.0
 10
11.6460430852
 20
5.8907358872
 30
0.0
 10
11.6496534925
 20
5.8929100877
 30
0.0
 10
11.6530581193
 20
5.895106483
 30
0.0
 10
11.6562549981
 20
5.8973238246
 30
0.0
 10
11.6592423312
 20
5.8995608829
 30
0.0
 10
11.6620182088
 20
5.90181633
 30
0.0
 10
11.6637640147
 20
5.9033643504
 30
0.0
 10
11.6645991765
 20
5.9041415457
 30
0.0
  0
SPLINE
  5
40E
100
AcDbEntity
  8
0
100
AcDbSpline
 62
7
  6
CONTINUOUS
 70
0
 71
3
 72
48
 73
44
 74
0
 42
0.0000001
 43
0.0000001
 44
0.0000000001
 40
0.0
 40
0.0
 40
0.0
 40
0.0
 40
0.0350612114
 40
0.0714617096
 40
0.1090494842
 40
0.1476680227
 40
0.1871530599
 40
0.227335977
 40
0.2680439218
 40
0.3091011429
 40
0.3503299047
 40
0.3915515144
 40
0.4325873181
 40
0.4732597038
 40
0.5133931044
 40
0.5528150067
 40
0.591356975
 40
0.6288556954
 40
0.6651540561
 40
0.7001022807
 40
0.7335591458
 40
0.7653933354
 40
0.7954849749
 40
0.8237274673
 40
0.8500298007
 40
0.8624309121
 40
0.8743215645
 40
0.8856964523
 40
0.89655188
 40
0.9068862992
 40
0.9167005264
 40
0.9259980288
 40
0.934785698
 40
0.9430740094
 40
0.9508782984
 40
0.9582190986
 40
0.9651237006
 40
0.9716269273
 40
0.9777725617
 40
0.9836142198
 40
0.989215719
 40
0.9946505992
 40
1.0
 40
1.0
 40
1.0
 40
1.0
 10
10.9261047071
 20
10.2303849398
 30
0.0
 10
10.9284801906
 20
10.2308154415
 30
0.0
 10
10.933333435
 20
10.2316301822
 30
0.0
 10
10.9407661921
 20
10.2326997432
 30
0.0
 10
10.9484636885
 20
10.2336362375
 30
0.0
 10
10.9563901006
 20
10.2344352766
 30
0.0
 10
10.9645087404
 20
10.2350930946
 30
0.0
 10
10.9727819067
 20
10.2356066113
 30
0.0
 10
10.9811712165
 20
10.2359734119
 30
0.0
 10
10.9896377269
 20
10.2361917771
 30
0.0
 10
10.9981421372
 20
10.2362606815
 30
0.0
 10
11.0066449675
 20
10.2361798012
 30
0.0
 10
11.0151067455
 20
10.2359495162
 30
0.0
 10
11.0234881917
 20
10.2355709074
 30
0.0
 10
11.0317504035
 20
10.2350457514
 30
0.0
 10
11.039855038
 20
10.2343765133
 30
0.0
 10
11.0477644922
 20
10.2335663354
 30
0.0
 10
11.0554420807
 20
10.2326190239
 30
0.0
 10
11.0628522112
 20
10.2315390321
 30
0.0
 10
11.069960554
 20
10.2303314403
 30
0.0
 10
11.0767342166
 20
10.2290019341
 30
0.0
 10
11.0831418914
 20
10.2275567764
 30
0.0
 10
11.0891540847
 20
10.2260027833
 30
0.0
 10
11.0947430584
 20
10.2243472579
 30
0.0
 10
11.0991085107
 20
10.2228618246
 30
0.0
 10
11.1023647391
 20
10.2216227138
 30
0.0
 10
11.1046373714
 20
10.2206911253
 30
0.0
 10
11.106786084
 20
10.2197401188
 30
0.0
 10
11.1088084162
 20
10.218770747
 30
0.0
 10
11.1107020627
 20
10.2177841294
 30
0.0
 10
11.1124648834
 20
10.2167813977
 30
0.0
 10
11.1140948747
 20
10.2157636397
 30
0.0
 10
11.1155902354
 20
10.2147320234
 30
0.0
 10
11.1169492624
 20
10.2136875881
 30
0.0
 10
11.1181704811
 20
10.2126314757
 30
0.0
 10
11.1192524688
 20
10.2115646606
 30
0.0
 10
11.1201939945
 20
10.2104881809
 30
0.0
 10
11.1209938318
 20
10.2094029538
 30
0.0
 10
11.1216508012
 20
10.2083099204
 30
0.0
 10
11.1221637151
 20
10.2072101127
 30
0.0
 10
11.122531286
 20
10.2061046336
 30
0.0
 10
11.1227524477
 20
10.204995287
 30
0.0
 10
11.1228017724
 20
10.2042518194
 30
0.0
 10
11.1228017731
 20
10.2038834807
 30
0.0
  0
SPLINE
  5
40F
100
AcDbEntity
  8
0
100
AcDbSpline
 62
7
  6
CONTINUOUS
 70
0
 71
3
 72
37
 73
33
 74
0
 42
0.0000001
 43
0.0000001
 44
0.0000000001
 40
0.0
 40
0.0
 40
0.0
 40
0.0
 40
0.0311464763
 40
0.0624483004
 40
0.0938952738
 40
0.1254804953
 40
0.1571907415
 40
0.1890115257
 40
0.2209258547
 40
0.252914932
 40
0.2849585264
 40
0.317035338
 40
0.3491234252
 40
0.381200621
 40
0.4451976236
 40
0.5088978732
 40
0.5406101981
 40
0.5721975056
 40
0.6036475114
 40
0.634950721
 40
0.6661006564
 40
0.6970940303
 40
0.7279308694
 40
0.7586145731
 40
0.7891518852
 40
0.8195527902
 40
0.8498303302
 40
0.8800003491
 40
0.9100811696
 40
0.9400931924
 40
0.9700584311
 40
1.0
 40
1.0
 40
1.0
 40
1.0
 10
10.7800039871
 20
8.1248358937
 30
0.0
 10
10.7784944659
 20
8.1249405794
 30
0.0
 10
10.7754744376
 20
8.12526099
 30
0.0
 10
10.7709810367
 20
8.126068006
 30
0.0
 10
10.766535731
 20
8.1271985065
 30
0.0
 10
10.7621626093
 20
8.1286462324
 30
0.0
 10
10.7578848353
 20
8.130403547
 30
0.0
 10
10.753725257
 20
8.1324610056
 30
0.0
 10
10.7497060266
 20
8.1348076286
 30
0.0
 10
10.7458485605
 20
8.1374308708
 30
0.0
 10
10.7421733982
 20
8.1403167492
 30
0.0
 10
10.7387001612
 20
8.1434498152
 30
0.0
 10
10.7354472199
 20
8.146813594
 30
0.0
 10
10.7314312045
 20
8.1515768794
 30
0.0
 10
10.7270452547
 20
8.1580123147
 30
0.0
 10
10.723590384
 20
8.1649728232
 30
0.0
 10
10.7214367799
 20
8.170759128
 30
0.0
 10
10.7201359177
 20
8.175178703
 30
0.0
 10
10.7191546594
 20
8.1796595443
 30
0.0
 10
10.7184981566
 20
8.1841779842
 30
0.0
 10
10.7181699937
 20
8.1887098633
 30
0.0
 10
10.7181719745
 20
8.1932310154
 30
0.0
 10
10.7185041452
 20
8.1977172983
 30
0.0
 10
10.719164775
 20
8.2021447518
 30
0.0
 10
10.7201503869
 20
8.206489717
 30
0.0
 10
10.7214557682
 20
8.2107289633
 30
0.0
 10
10.7230739945
 20
8.2148398089
 30
0.0
 10
10.7249964689
 20
8.2188002509
 30
0.0
 10
10.7272129145
 20
8.222589069
 30
0.0
 10
10.7297115624
 20
8.2261860401
 30
0.0
 10
10.7324788095
 20
8.2295716494
 30
0.0
 10
10.7344937259
 20
8.2316766161
 30
0.0
 10
10.735539958
 20
8.2326872049
 30
0.0
  0
SPLINE
  5
410
100
AcDbEntity
  8
0
100
AcDbSpline
 62
7
  6
CONTINUOUS
 70
0
 71
3
 72
40
 73
36
 74
0
 42
0.0000001
 43
0.0000001
 44
0.0000000001
 40
0.0
 40
0.0
 40
0.0
 40
0.0
 40
0.0958313936
 40
0.1891002636
 40
0.2345968559
 40
0.2792418231
 40
0.3229685191
 40
0.3657121987
 40
0.4074103657
 40
0.4480029213
 40
0.4874324913
 40
0.5256446262
 40
0.5625879545
 40
0.5982146421
 40
0.632480706
 40
0.6653462654
 40
0.6967761768
 40
0.726740613
 40
0.7552155871
 40
0.7821839784
 40
0.8076366943
 40
0.8315738914
 40
0.8540069425
 40
0.8749609194
 40
0.8944774765
 40
0.9126189061
 40
0.9294731629
 40
0.9451593854
 40
0.9598338584
 40
0.9668558876
 40
0.9737029112
 40
0.9804063068
 40
0.9869997133
 40
0.9935186461
 40
1.0
 40
1.0
 40
1.0
 40
1.0
 10
10.3620354834
 20
9.3065951731
 30
0.0
 10
10.3522681926
 20
9.307272537
 30
0.0
 10
10.3330089457
 20
9.308823997
 30
0.0
 10
10.3091679733
 20
9.3113119349
 30
0.0
 10
10.2905706285
 20
9.3136103808
 30
0.0
 10
10.2770196759
 20
9.3154648265
 30
0.0
 10
10.2637732187
 20
9.3174609386
 30
0.0
 10
10.2508533629
 20
9.3195953775
 30
0.0
 10
10.2382817013
 20
9.3218645414
 30
0.0
 10
10.2260792363
 20
9.3242646335
 30
0.0
 10
10.2142663403
 20
9.32679161
 30
0.0
 10
10.2028627252
 20
9.3294412097
 30
0.0
 10
10.1918874161
 20
9.3322089943
 30
0.0
 10
10.1813587028
 20
9.3350903057
 30
0.0
 10
10.1712941082
 20
9.3380802847
 30
0.0
 10
10.1617103696
 20
9.3411739257
 30
0.0
 10
10.1526233898
 20
9.3443660392
 30
0.0
 10
10.1440482001
 20
9.3476512608
 30
0.0
 10
10.1359989511
 20
9.351024125
 30
0.0
 10
10.1284888621
 20
9.3544790423
 30
0.0
 10
10.1215301756
 20
9.3580103065
 30
0.0
 10
10.1151341636
 20
9.3616122039
 30
0.0
 10
10.1093110894
 20
9.3652790345
 30
0.0
 10
10.1040701749
 20
9.3690051403
 30
0.0
 10
10.0994196753
 20
9.3727851215
 30
0.0
 10
10.0953670101
 20
9.3766138325
 30
0.0
 10
10.0919188128
 20
9.3804867664
 30
0.0
 10
10.0890817895
 20
9.3843990153
 30
0.0
 10
10.0872052889
 20
9.3877378973
 30
0.0
 10
10.0860355176
 20
9.3904113387
 30
0.0
 10
10.085327301
 20
9.3923921515
 30
0.0
 10
10.0847759371
 20
9.3943768643
 30
0.0
 10
10.0843817724
 20
9.3963646635
 30
0.0
 10
10.0841451875
 20
9.3983544035
 30
0.0
 10
10.0840925529
 20
9.3996831889
 30
0.0
 10
10.0840925563
 20
9.4003453656
 30
0.0
  0
SPLINE
  5
411
100
AcDbEntity
  8
0
100
AcDbSpline
 62
7
  6
CONTINUOUS
 70
0
 71
3
 72
41
 73
37
 74
0
 42
0.0000001
 43
0.0000001
 44
0.0000000001
 40
0.0
 40
0.0
 40
0.0
 40
0.0
 40
0.0071758425
 40
0.0146741453
 40
0.0225035656
 40
0.0306713257
 40
0.0391834036
 40
0.0480443729
 40
0.0572572157
 40
0.0668238661
 40
0.0767452117
 40
0.087021259
 40
0.0976512753
 40
0.1086336553
 40
0.1316452786
 40
0.1560326285
 40
0.1817628121
 40
0.2087958578
 40
0.2370856249
 40
0.2665805114
 40
0.2972240455
 40
0.3289554128
 40
0.3617098907
 40
0.3954192316
 40
0.4300120033
 40
0.4654138991
 40
0.5015480605
 40
0.5383353682
 40
0.5756947176
 40
0.6135432851
 40
0.6517967846
 40
0.6903697386
 40
0.7681261117
 40
0.8461161118
 40
0.923638923
 40
1.0
 40
1.0
 40
1.0
 40
1.0
 10
11.6664998996
 20
9.3166111168
 30
0.0
 10
11.6656881956
 20
9.3158270709
 30
0.0
 10
11.6639879456
 20
9.3142651202
 30
0.0
 10
11.6612762291
 20
9.3119893721
 30
0.0
 10
11.6583498277
 20
9.3097316837
 30
0.0
 10
11.6552106459
 20
9.3074935091
 30
0.0
 10
11.6518605226
 20
9.3052760619
 30
0.0
 10
11.6483013839
 20
9.3030806465
 30
0.0
 10
11.6445353492
 20
9.300908484
 30
0.0
 10
11.6405646386
 20
9.2987609167
 30
0.0
 10
11.6363916264
 20
9.296639204
 30
0.0
 10
11.6320188016
 20
9.2945445991
 30
0.0
 10
11.6274487511
 20
9.2924783675
 30
0.0
 10
11.6209952213
 20
9.2897198213
 30
0.0
 10
11.6124478093
 20
9.2863605696
 30
0.0
 10
11.6016043475
 20
9.2825220114
 30
0.0
 10
11.5900461143
 20
9.2788249904
 30
0.0
 10
11.5778007933
 20
9.2752784493
 30
0.0
 10
11.5648975815
 20
9.2718909889
 30
0.0
 10
11.55136738
 20
9.2686708293
 30
0.0
 10
11.5372426281
 20
9.2656257818
 30
0.0
 10
11.5225572327
 20
9.2627632364
 30
0.0
 10
11.5073464703
 20
9.2600901396
 30
0.0
 10
11.4916469
 20
9.2576129785
 30
0.0
 10
11.4754962749
 20
9.2553377646
 30
0.0
 10
11.4589334493
 20
9.2532700107
 30
0.0
 10
11.4419982796
 20
9.2514147272
 30
0.0
 10
11.4247315245
 20
9.2497764103
 30
0.0
 10
11.4071747422
 20
9.2483590287
 30
0.0
 10
11.3893702065
 20
9.247166026
 30
0.0
 10
11.3713607487
 20
9.2462002655
 30
0.0
 10
11.347069069
 20
9.2452162263
 30
0.0
 10
11.3165119224
 20
9.2445707533
 30
0.0
 10
11.2798224387
 20
9.2447254224
 30
0.0
 10
11.243368154
 20
9.2458059268
 30
0.0
 10
11.2192010609
 20
9.2471505384
 30
0.0
 10
11.2072206315
 20
9.247981384
 30
0.0
  0
SPLINE
  5
412
100
AcDbEntity
  8
0
100
AcDbSpline
 62
7
  6
CONTINUOUS
 70
0
 71
3
 72
41
 73
37
 74
0
 42
0.0000001
 43
0.0000001
 44
0.0000000001
 40
0.0
 40
0.0
 40
0.0
 40
0.0
 40
0.0311445478
 40
0.0624424446
 40
0.0938872679
 40
0.125469566
 40
0.1571770992
 40
0.1889951145
 40
0.2209066667
 40
0.2528929719
 40
0.2849337877
 40
0.3170078142
 40
0.3490931102
 40
0.381167517
 40
0.4132090858
 40
0.4451965025
 40
0.4771095029
 40
0.5089292747
 40
0.5406388381
 40
0.5722233999
 40
0.6036706736
 40
0.63497116
 40
0.6661183793
 40
0.6971090497
 40
0.7279432042
 40
0.7586242401
 40
0.7891588962
 40
0.8195571523
 40
0.8498320512
 40
0.8649308901
 40
0.8800050513
 40
0.9100832572
 40
0.940092674
 40
0.9550812744
 40
0.9700610349
 40
1.0
 40
1.0
 40
1.0
 40
1.0
 10
11.3837076643
 20
7.2319882644
 30
0.0
 10
11.3802168019
 20
7.2322303566
 30
0.0
 10
11.3732330123
 20
7.2329712544
 30
0.0
 10
11.3628420008
 20
7.2348375751
 30
0.0
 10
11.3525622759
 20
7.2374517569
 30
0.0
 10
11.3424493814
 20
7.2407997087
 30
0.0
 10
11.3325570251
 20
7.2448635043
 30
0.0
 10
11.3229379802
 20
7.2496213992
 30
0.0
 10
11.3136434879
 20
7.2550479692
 30
0.0
 10
11.304723075
 20
7.2611142397
 30
0.0
 10
11.2962242692
 20
7.2677878413
 30
0.0
 10
11.2881923557
 20
7.275033181
 30
0.0
 10
11.2806701368
 20
7.2828116304
 30
0.0
 10
11.2736977062
 20
7.2910817297
 30
0.0
 10
11.267312238
 20
7.2997994066
 30
0.0
 10
11.2615477896
 20
7.3089182089
 30
0.0
 10
11.256435122
 20
7.3183895488
 30
0.0
 10
11.2520015368
 20
7.3281629593
 30
0.0
 10
11.2482707308
 20
7.3381863597
 30
0.0
 10
11.2452626699
 20
7.3484063292
 30
0.0
 10
11.2429934818
 20
7.3587683883
 30
0.0
 10
11.2414753679
 20
7.3692172848
 30
0.0
 10
11.2407165364
 20
7.3796972852
 30
0.0
 10
11.2407211532
 20
7.3901524659
 30
0.0
 10
11.2414893204
 20
7.4005270187
 30
0.0
 10
11.2430170506
 20
7.4107655061
 30
0.0
 10
11.2452963533
 20
7.4208133077
 30
0.0
 10
11.2483150057
 20
7.4306163502
 30
0.0
 10
11.2514367756
 20
7.4385464477
 30
0.0
 10
11.2542856029
 20
7.4447133029
 30
0.0
 10
11.2573599639
 20
7.4507461047
 30
0.0
 10
11.2616286105
 20
7.4580430608
 30
0.0
 10
11.2664462336
 20
7.4649781866
 30
0.0
 10
11.2706094106
 20
7.4702791933
 30
0.0
 10
11.2749711319
 20
7.4754072174
 30
0.0
 10
11.2784656634
 20
7.4790579106
 30
0.0
 10
11.2808850863
 20
7.4813948958
 30
0.0
  0
SPLINE
  5
413
100
AcDbEntity
  8
0
100
AcDbSpline
 62
7
  6
CONTINUOUS
 70
0
 71
3
 72
21
 73
17
 74
0
 42
0.0000001
 43
0.0000001
 44
0.0000000001
 40
0.0
 40
0.0
 40
0.0
 40
0.0
 40
0.0616532317
 40
0.1233294843
 40
0.1850515407
 40
0.2468416642
 40
0.3087213449
 40
0.3707111025
 40
0.432830246
 40
0.4950966374
 40
0.5575265756
 40
0.6201345674
 40
0.6829331401
 40
0.7459332076
 40
0.8725262003
 40
1.0
 40
1.0
 40
1.0
 40
1.0
 10
11.4865302422
 20
8.8081815355
 30
0.0
 10
11.4848693763
 20
8.8065772607
 30
0.0
 10
11.4814600004
 20
8.8034568196
 30
0.0
 10
11.4761007382
 20
8.7990568732
 30
0.0
 10
11.4705087664
 20
8.7949477403
 30
0.0
 10
11.4646983396
 20
8.7911399914
 30
0.0
 10
11.4586840687
 20
8.7876431423
 30
0.0
 10
11.4524811342
 20
8.784465985
 30
0.0
 10
11.4461051435
 20
8.7816165459
 30
0.0
 10
11.439572173
 20
8.7791019827
 30
0.0
 10
11.4328986794
 20
8.7769285814
 30
0.0
 10
11.426101516
 20
8.7751018317
 30
0.0
 10
11.4191976031
 20
8.7736263128
 30
0.0
 10
11.4098601245
 20
8.7721299324
 30
0.0
 10
11.3980030111
 20
8.7711577593
 30
0.0
 10
11.3884706069
 20
8.7713437941
 30
0.0
 10
11.3837076643
 20
8.7716741053
 30
0.0
  0
SPLINE
  5
414
100
AcDbEntity
  8
0
100
AcDbSpline
 62
7
  6
CONTINUOUS
 70
0
 71
3
 72
54
 73
50
 74
0
 42
0.0000001
 43
0.0000001
 44
0.0000000001
 40
0.0
 40
0.0
 40
0.0
 40
0.0
 40
0.052784991
 40
0.1048060923
 40
0.1559445044
 40
0.2060905216
 40
0.2551340321
 40
0.3029694639
 40
0.3494949945
 40
0.3946130603
 40
0.438230921
 40
0.4802611185
 40
0.5206221511
 40
0.559239105
 40
0.5960444107
 40
0.6309787921
 40
0.663992489
 40
0.6950468015
 40
0.709831479
 40
0.7241178387
 40
0.7379051855
 40
0.751193962
 40
0.7639858374
 40
0.7762841535
 40
0.7880937245
 40
0.7994213683
 40
0.8102760565
 40
0.8206690605
 40
0.830614617
 40
0.8401299511
 40
0.8492359035
 40
0.8579573592
 40
0.8663234793
 40
0.8743683592
 40
0.8821310443
 40
0.8896557027
 40
0.8969914552
 40
0.9041916844
 40
0.9113132101
 40
0.9184149027
 40
0.9255561887
 40
0.9327954181
 40
0.9401884307
 40
0.9477872381
 40
0.9637758035
 40
0.972256837
 40
0.9811038595
 40
0.9903441354
 40
1.0
 40
1.0
 40
1.0
 40
1.0
 10
10.3700588672
 20
10.1595303152
 30
0.0
 10
10.3646573087
 20
10.1599049146
 30
0.0
 10
10.3539372119
 20
10.1607208588
 30
0.0
 10
10.3380049221
 20
10.1621565423
 30
0.0
 10
10.3223640484
 20
10.1637925685
 30
0.0
 10
10.3070524974
 20
10.1656248906
 30
0.0
 10
10.292106926
 20
10.1676491266
 30
0.0
 10
10.2775633648
 20
10.1698603494
 30
0.0
 10
10.2634567724
 20
10.1722531942
 30
0.0
 10
10.2498210602
 20
10.174821857
 30
0.0
 10
10.236688997
 20
10.1775601046
 30
0.0
 10
10.2240921159
 20
10.1804612995
 30
0.0
 10
10.2120606306
 20
10.1835183947
 30
0.0
 10
10.2006233492
 20
10.1867239684
 30
0.0
 10
10.189807627
 20
10.190070246
 30
0.0
 10
10.1796392042
 20
10.1935491327
 30
0.0
 10
10.1701424007
 20
10.1971522237
 30
0.0
 10
10.1626892261
 20
10.2003005635
 30
0.0
 10
10.1570874432
 20
10.2028819032
 30
0.0
 10
10.1531369361
 20
10.2048117901
 30
0.0
 10
10.1493705073
 20
10.2067661435
 30
0.0
 10
10.1457903855
 20
10.2087438128
 30
0.0
 10
10.1423987182
 20
10.2107436642
 30
0.0
 10
10.1391974878
 20
10.212764465
 30
0.0
 10
10.1361886071
 20
10.2148050782
 30
0.0
 10
10.1333738481
 20
10.2168643111
 30
0.0
 10
10.13075485
 20
10.218940958
 30
0.0
 10
10.1283331997
 20
10.2210339053
 30
0.0
 10
10.1261102908
 20
10.2231419337
 30
0.0
 10
10.1240874825
 20
10.2252639325
 30
0.0
 10
10.1222660285
 20
10.2273987745
 30
0.0
 10
10.1206470436
 20
10.2295452989
 30
0.0
 10
10.119231698
 20
10.2317024448
 30
0.0
 10
10.1180209743
 20
10.2338690259
 30
0.0
 10
10.1170158921
 20
10.2360438795
 30
0.0
 10
10.1162174372
 20
10.2382257479
 30
0.0
 10
10.1156263862
 20
10.2404132112
 30
0.0
 10
10.1152435693
 20
10.2426047612
 30
0.0
 10
10.115069438
 20
10.2447986938
 30
0.0
 10
10.1151042461
 20
10.2469932329
 30
0.0
 10
10.1153480155
 20
10.2491865662
 30
0.0
 10
10.115800275
 20
10.2513769212
 30
0.0
 10
10.1164606068
 20
10.2535627645
 30
0.0
 10
10.1176367602
 20
10.2565183784
 30
0.0
 10
10.1192246228
 20
10.2594160969
 30
0.0
 10
10.1211640115
 20
10.2622317392
 30
0.0
 10
10.1228507965
 20
10.2643747788
 30
0.0
 10
10.1247394567
 20
10.2665053507
 30
0.0
 10
10.1261016407
 20
10.2678857157
 30
0.0
 10
10.1268140413
 20
10.2685738419
 30
0.0
  0
SPLINE
  5
415
100
AcDbEntity
  8
0
100
AcDbSpline
 62
7
  6
CONTINUOUS
 70
0
 71
3
 72
32
 73
28
 74
0
 42
0.0000001
 43
0.0000001
 44
0.0000000001
 40
0.0
 40
0.0
 40
0.0
 40
0.0
 40
0.0165871556
 40
0.0341537781
 40
0.0527304073
 40
0.0723387658
 40
0.0929935323
 40
0.1147029403
 40
0.1374702042
 40
0.1612937152
 40
0.1861681311
 40
0.2120844207
 40
0.2390306154
 40
0.2669918814
 40
0.2959509389
 40
0.3258882603
 40
0.3567821873
 40
0.3886092818
 40
0.4213441995
 40
0.4549601652
 40
0.5247185438
 40
0.5976428572
 40
0.6734701968
 40
0.7519205058
 40
0.8326992182
 40
0.9154981809
 40
1.0
 40
1.0
 40
1.0
 40
1.0
 10
10.0968392074
 20
5.9627553345
 30
0.0
 10
10.0979573623
 20
5.961714767
 30
0.0
 10
10.1003290271
 20
5.9596458489
 30
0.0
 10
10.1041615059
 20
5.9566608994
 30
0.0
 10
10.108365011
 20
5.9537100831
 30
0.0
 10
10.112935045
 20
5.9507963741
 30
0.0
 10
10.1178670555
 20
5.947922692
 30
0.0
 10
10.1231559534
 20
5.9450918837
 30
0.0
 10
10.1287963386
 20
5.9423069206
 30
0.0
 10
10.1347823688
 20
5.9395706175
 30
0.0
 10
10.1411078615
 20
5.9368858796
 30
0.0
 10
10.1477662347
 20
5.9342554691
 30
0.0
 10
10.1547505622
 20
5.931682176
 30
0.0
 10
10.1620535539
 20
5.9291686878
 30
0.0
 10
10.1696675795
 20
5.9267176526
 30
0.0
 10
10.1775846747
 20
5.9243316636
 30
0.0
 10
10.1857965473
 20
5.9220132121
 30
0.0
 10
10.1942945917
 20
5.9197647815
 30
0.0
 10
10.2030699053
 20
5.917588681
 30
0.0
 10
10.2152786826
 20
5.9147518019
 30
0.0
 10
10.2311684725
 20
5.9114135892
 30
0.0
 10
10.2509608531
 20
5.9077782682
 30
0.0
 10
10.2716232061
 20
5.9044812131
 30
0.0
 10
10.2930687905
 20
5.9015364184
 30
0.0
 10
10.3152076662
 20
5.898956427
 30
0.0
 10
10.3379468546
 20
5.8967521822
 30
0.0
 10
10.3533068286
 20
5.8955500915
 30
0.0
 10
10.3610695575
 20
5.8950117444
 30
0.0
  0
SPLINE
  5
416
100
AcDbEntity
  8
0
100
AcDbSpline
 62
7
  6
CONTINUOUS
 70
0
 71
3
 72
40
 73
36
 74
0
 42
0.0000001
 43
0.0000001
 44
0.0000000001
 40
0.0
 40
0.0
 40
0.0
 40
0.0
 40
0.0958312793
 40
0.1891000446
 40
0.2345965891
 40
0.279241512
 40
0.3229681675
 40
0.3657118109
 40
0.4074099461
 40
0.4480024746
 40
0.4874320226
 40
0.5256441407
 40
0.5625874576
 40
0.5982141394
 40
0.6324802032
 40
0.6653457683
 40
0.6967756912
 40
0.7267401448
 40
0.7552151418
 40
0.7821835616
 40
0.8076363113
 40
0.8315735468
 40
0.8540066404
 40
0.8749606632
 40
0.8944772684
 40
0.9126187468
 40
0.9294730511
 40
0.9451593172
 40
0.9598338268
 40
0.9668558706
 40
0.9737029056
 40
0.980406309
 40
0.9869997194
 40
0.9935186515
 40
1.0
 40
1.0
 40
1.0
 40
1.0
 10
10.3620354834
 20
10.1218366188
 30
0.0
 10
10.3522682127
 20
10.1225139813
 30
0.0
 10
10.3330090046
 20
10.1240654377
 30
0.0
 10
10.3091680797
 20
10.1265533688
 30
0.0
 10
10.2905707706
 20
10.1288518081
 30
0.0
 10
10.2770198428
 20
10.1307062483
 30
0.0
 10
10.2637734089
 20
10.1327023544
 30
0.0
 10
10.2508535747
 20
10.1348367868
 30
0.0
 10
10.2382819329
 20
10.1371059436
 30
0.0
 10
10.2260794857
 20
10.1395060281
 30
0.0
 10
10.2142666055
 20
10.1420329967
 30
0.0
 10
10.2028630041
 20
10.144682588
 30
0.0
 10
10.1918877065
 20
10.1474503639
 30
0.0
 10
10.1813590023
 20
10.1503316662
 30
0.0
 10
10.1712944143
 20
10.1533216357
 30
0.0
 10
10.1617106799
 20
10.1564152671
 30
0.0
 10
10.1526237016
 20
10.1596073707
 30
0.0
 10
10.144048511
 20
10.1628925822
 30
0.0
 10
10.1359992582
 20
10.1662654362
 30
0.0
 10
10.1284891627
 20
10.1697203431
 30
0.0
 10
10.1215304669
 20
10.1732515969
 30
0.0
 10
10.1151344429
 20
10.1768534837
 30
0.0
 10
10.1093113538
 20
10.1805203039
 30
0.0
 10
10.1040704216
 20
10.1842463991
 30
0.0
 10
10.0994199015
 20
10.1880263699
 30
0.0
 10
10.0953672128
 20
10.1918550705
 30
0.0
 10
10.0919189894
 20
10.195727994
 30
0.0
 10
10.0890819369
 20
10.1996402326
 30
0.0
 10
10.087205409
 20
10.2029791063
 30
0.0
 10
10.0860356142
 20
10.2056525416
 30
0.0
 10
10.0853273797
 20
10.2076333498
 30
0.0
 10
10.0847759972
 20
10.2096180579
 30
0.0
 10
10.0843818132
 20
10.2116058527
 30
0.0
 10
10.0841452083
 20
10.2135955883
 30
0.0
 10
10.0840925599
 20
10.2149243714
 30
0.0
 10
10.0840925563
 20
10.215586547
 30
0.0
  0
SPLINE
  5
417
100
AcDbEntity
  8
0
100
AcDbSpline
 62
7
  6
CONTINUOUS
 70
0
 71
3
 72
31
 73
27
 74
0
 42
0.0000001
 43
0.0000001
 44
0.0000000001
 40
0.0
 40
0.0
 40
0.0
 40
0.0
 40
0.015547552
 40
0.0312880285
 40
0.0474067379
 40
0.0640750164
 40
0.081446335
 40
0.0996536174
 40
0.1188100048
 40
0.1390093636
 40
0.1603281383
 40
0.1828281955
 40
0.2065575545
 40
0.2315535635
 40
0.2578438746
 40
0.285447534
 40
0.3143773053
 40
0.3446390841
 40
0.4091525822
 40
0.4789504828
 40
0.5539291875
 40
0.6339380243
 40
0.7187873757
 40
0.8082512776
 40
0.9020847387
 40
1.0
 40
1.0
 40
1.0
 40
1.0
 10
10.8728017955
 20
10.2038834134
 30
0.0
 10
10.8728017948
 20
10.2042074081
 30
0.0
 10
10.8728398256
 20
10.2048600366
 30
0.0
 10
10.8730105352
 20
10.2058351196
 30
0.0
 10
10.8732945458
 20
10.2068077496
 30
0.0
 10
10.8736912072
 20
10.2077767068
 30
0.0
 10
10.8741998581
 20
10.208741116
 30
0.0
 10
10.8748196758
 20
10.2097002332
 30
0.0
 10
10.8755499533
 20
10.2106533276
 30
0.0
 10
10.8763899041
 20
10.2115997165
 30
0.0
 10
10.8773387025
 20
10.2125387335
 30
0.0
 10
10.8783955273
 20
10.2134696188
 30
0.0
 10
10.879559407
 20
10.2143916878
 30
0.0
 10
10.8808293468
 20
10.2153041636
 30
0.0
 10
10.8822042396
 20
10.2162062799
 30
0.0
 10
10.8836828694
 20
10.2170972954
 30
0.0
 10
10.8852639625
 20
10.2179764118
 30
0.0
 10
10.8875560428
 20
10.2191569708
 30
0.0
 10
10.8906733668
 20
10.2205910827
 30
0.0
 10
10.8947215284
 20
10.2222178473
 30
0.0
 10
10.8991391693
 20
10.2237794607
 30
0.0
 10
10.9039106277
 20
10.2252702953
 30
0.0
 10
10.9090190177
 20
10.226684929
 30
0.0
 10
10.9144462469
 20
10.228018284
 30
0.0
 10
10.920172793
 20
10.229265419
 30
0.0
 10
10.9240969602
 20
10.2300210819
 30
0.0
 10
10.9261047071
 20
10.2303849398
 30
0.0
  0
SPLINE
  5
418
100
AcDbEntity
  8
0
100
AcDbSpline
 62
7
  6
CONTINUOUS
 70
0
 71
3
 72
15
 73
11
 74
0
 42
0.0000001
 43
0.0000001
 44
0.0000000001
 40
0.0
 40
0.0
 40
0.0
 40
0.0
 40
0.1305884201
 40
0.2595612259
 40
0.386850039
 40
0.512445014
 40
0.6364046039
 40
0.7588519491
 40
0.8799711977
 40
1.0
 40
1.0
 40
1.0
 40
1.0
 10
10.2576386343
 20
8.229088986
 30
0.0
 10
10.2576386534
 20
8.2329405578
 30
0.0
 10
10.2579870969
 20
8.2406010214
 30
0.0
 10
10.2595715149
 20
8.2519167052
 30
0.0
 10
10.2621985612
 20
8.2628869283
 30
0.0
 10
10.2658418528
 20
8.2734068553
 30
0.0
 10
10.2704644737
 20
8.2833782025
 30
0.0
 10
10.2760203582
 20
8.2927089877
 30
0.0
 10
10.2824531123
 20
8.3013130415
 30
0.0
 10
10.2873051069
 20
8.3065355486
 30
0.0
 10
10.28985132
 20
8.3089950803
 30
0.0
  0
SPLINE
  5
419
100
AcDbEntity
  8
0
100
AcDbSpline
 62
7
  6
CONTINUOUS
 70
0
 71
3
 72
23
 73
19
 74
0
 42
0.0000001
 43
0.0000001
 44
0.0000000001
 40
0.0
 40
0.0
 40
0.0
 40
0.0
 40
0.0587707224
 40
0.1183125536
 40
0.1786427711
 40
0.239749305
 40
0.3015933442
 40
0.3641104533
 40
0.4272130991
 40
0.4907933136
 40
0.5547260233
 40
0.6188728902
 40
0.6830865816
 40
0.7472155484
 40
0.8111091175
 40
0.8746231384
 40
0.9376244926
 40
1.0
 40
1.0
 40
1.0
 40
1.0
 10
10.3723832154
 20
8.0941830114
 30
0.0
 10
10.3686373341
 20
8.0946450367
 30
0.0
 10
10.3611388446
 20
8.0959605758
 30
0.0
 10
10.3500716374
 20
8.0990470989
 30
0.0
 10
10.3392105838
 20
8.1032341064
 30
0.0
 10
10.3286572666
 20
8.1084841675
 30
0.0
 10
10.3185095729
 20
8.114751631
 30
0.0
 10
10.3088632858
 20
8.1219814319
 30
0.0
 10
10.2998107698
 20
8.1301095488
 30
0.0
 10
10.2914402767
 20
8.139063008
 30
0.0
 10
10.283834903
 20
8.1487601038
 30
0.0
 10
10.2770716563
 20
8.159110861
 30
0.0
 10
10.2712203784
 20
8.1700175686
 30
0.0
 10
10.2663425707
 20
8.1813755401
 30
0.0
 10
10.2624904279
 20
8.1930739997
 30
0.0
 10
10.2597059534
 20
8.2049978248
 30
0.0
 10
10.2580197976
 20
8.2170267236
 30
0.0
 10
10.2576386551
 20
8.2250832186
 30
0.0
 10
10.2576386343
 20
8.229088986
 30
0.0
  0
SPLINE
  5
41A
100
AcDbEntity
  8
0
100
AcDbSpline
 62
7
  6
CONTINUOUS
 70
0
 71
3
 72
23
 73
19
 74
0
 42
0.0000001
 43
0.0000001
 44
0.0000000001
 40
0.0
 40
0.0
 40
0.0
 40
0.0
 40
0.0639337999
 40
0.1275587927
 40
0.1908823835
 40
0.2539224607
 40
0.3167003529
 40
0.3792438063
 40
0.4415848388
 40
0.5037594018
 40
0.5658063112
 40
0.6277663375
 40
0.689681243
 40
0.7515928714
 40
0.8135422765
 40
0.8755689349
 40
0.9377100567
 40
1.0
 40
1.0
 40
1.0
 40
1.0
 10
11.062624695
 20
8.1670553048
 30
0.0
 10
11.062624695
 20
8.1697913653
 30
0.0
 10
11.0628169748
 20
8.1752522921
 30
0.0
 10
11.0636854775
 20
8.1833815228
 30
0.0
 10
11.0651283615
 20
8.191390319
 30
0.0
 10
11.0671370736
 20
8.199238772
 30
0.0
 10
11.0696999937
 20
8.2068889874
 30
0.0
 10
11.072802328
 20
8.214304388
 30
0.0
 10
11.0764264998
 20
8.2214502649
 30
0.0
 10
11.0805523059
 20
8.2282939048
 30
0.0
 10
11.0851572206
 20
8.2348047719
 30
0.0
 10
11.0902166548
 20
8.2409546199
 30
0.0
 10
11.0957042323
 20
8.2467175625
 30
0.0
 10
11.1015920629
 20
8.2520701159
 30
0.0
 10
11.1078509493
 20
8.2569911645
 30
0.0
 10
11.114450808
 20
8.2614620165
 30
0.0
 10
11.121360159
 20
8.265466008
 30
0.0
 10
11.1261461913
 20
8.2678119385
 30
0.0
 10
11.1285786435
 20
8.2689024399
 30
0.0
  0
SPLINE
  5
41B
100
AcDbEntity
  8
0
100
AcDbSpline
 62
7
  6
CONTINUOUS
 70
0
 71
3
 72
17
 73
13
 74
0
 42
0.0000001
 43
0.0000001
 44
0.0000000001
 40
0.0
 40
0.0
 40
0.0
 40
0.0
 40
0.1296950483
 40
0.2578797189
 40
0.3846617195
 40
0.4475487503
 40
0.5101101436
 40
0.6342866982
 40
0.6959186483
 40
0.7572569819
 40
0.8791130533
 40
1.0
 40
1.0
 40
1.0
 40
1.0
 10
10.4966258712
 20
8.172817911
 30
0.0
 10
10.4914931039
 20
8.1690600672
 30
0.0
 10
10.4812209838
 20
8.1616782442
 30
0.0
 10
10.4657027631
 20
8.1509457553
 30
0.0
 10
10.4527270689
 20
8.142302121
 30
0.0
 10
10.4423461458
 20
8.1355720599
 30
0.0
 10
10.4320187655
 20
8.1289950863
 30
0.0
 10
10.4216638806
 20
8.1225765876
 30
0.0
 10
10.411282843
 20
8.1163168954
 30
0.0
 10
10.400949083
 20
8.1101999573
 30
0.0
 10
10.3880205715
 20
8.1027619304
 30
0.0
 10
10.3775986747
 20
8.0970036168
 30
0.0
 10
10.3723832154
 20
8.0941830114
 30
0.0
  0
SPLINE
  5
41C
100
AcDbEntity
  8
0
100
AcDbSpline
 62
7
  6
CONTINUOUS
 70
0
 71
3
 72
21
 73
17
 74
0
 42
0.0000001
 43
0.0000001
 44
0.0000000001
 40
0.0
 40
0.0
 40
0.0
 40
0.0
 40
0.0616532317
 40
0.1233294843
 40
0.1850515407
 40
0.2468416642
 40
0.3087213449
 40
0.3707111025
 40
0.432830246
 40
0.4950966374
 40
0.5575265756
 40
0.6201345674
 40
0.6829331401
 40
0.7459332076
 40
0.8725262003
 40
1.0
 40
1.0
 40
1.0
 40
1.0
 10
10.2791228878
 20
8.8919155199
 30
0.0
 10
10.2774620219
 20
8.8903112451
 30
0.0
 10
10.274052646
 20
8.887190804
 30
0.0
 10
10.2686933838
 20
8.8827908576
 30
0.0
 10
10.263101412
 20
8.8786817247
 30
0.0
 10
10.2572909852
 20
8.8748739759
 30
0.0
 10
10.2512767143
 20
8.8713771267
 30
0.0
 10
10.2450737798
 20
8.8681999694
 30
0.0
 10
10.2386977891
 20
8.8653505303
 30
0.0
 10
10.2321648186
 20
8.8628359671
 30
0.0
 10
10.225491325
 20
8.8606625658
 30
0.0
 10
10.2186941616
 20
8.8588358162
 30
0.0
 10
10.2117902487
 20
8.8573602972
 30
0.0
 10
10.2024527701
 20
8.8558639168
 30
0.0
 10
10.1905956567
 20
8.8548917438
 30
0.0
 10
10.1810632525
 20
8.8550777785
 30
0.0
 10
10.1763003098
 20
8.8554080897
 30
0.0
  0
SPLINE
  5
41D
100
AcDbEntity
  8
0
100
AcDbSpline
 62
7
  6
CONTINUOUS
 70
0
 71
3
 72
41
 73
37
 74
0
 42
0.0000001
 43
0.0000001
 44
0.0000000001
 40
0.0
 40
0.0
 40
0.0
 40
0.0
 40
0.0311445478
 40
0.0624424446
 40
0.0938872679
 40
0.125469566
 40
0.1571770992
 40
0.1889951145
 40
0.2209066667
 40
0.2528929719
 40
0.2849337877
 40
0.3170078142
 40
0.3490931102
 40
0.381167517
 40
0.4132090858
 40
0.4451965025
 40
0.4771095029
 40
0.5089292747
 40
0.5406388381
 40
0.5722233999
 40
0.6036706736
 40
0.63497116
 40
0.6661183793
 40
0.6971090497
 40
0.7279432042
 40
0.7586242401
 40
0.7891588962
 40
0.8195571523
 40
0.8498320512
 40
0.8649308901
 40
0.8800050513
 40
0.9100832572
 40
0.940092674
 40
0.9550812744
 40
0.9700610349
 40
1.0
 40
1.0
 40
1.0
 40
1.0
 10
11.3837076643
 20
8.7716741053
 30
0.0
 10
11.3802168019
 20
8.7719161974
 30
0.0
 10
11.3732330123
 20
8.7726570952
 30
0.0
 10
11.3628420008
 20
8.774523416
 30
0.0
 10
11.3525622759
 20
8.7771375977
 30
0.0
 10
11.3424493814
 20
8.7804855496
 30
0.0
 10
11.3325570251
 20
8.7845493451
 30
0.0
 10
11.3229379802
 20
8.7893072401
 30
0.0
 10
11.3136434879
 20
8.7947338101
 30
0.0
 10
11.304723075
 20
8.8008000805
 30
0.0
 10
11.2962242692
 20
8.8074736822
 30
0.0
 10
11.2881923557
 20
8.8147190219
 30
0.0
 10
11.2806701368
 20
8.8224974712
 30
0.0
 10
11.2736977062
 20
8.8307675705
 30
0.0
 10
11.267312238
 20
8.8394852475
 30
0.0
 10
11.2615477896
 20
8.8486040497
 30
0.0
 10
11.256435122
 20
8.8580753896
 30
0.0
 10
11.2520015368
 20
8.8678488001
 30
0.0
 10
11.2482707308
 20
8.8778722005
 30
0.0
 10
11.2452626699
 20
8.88809217
 30
0.0
 10
11.2429934818
 20
8.8984542291
 30
0.0
 10
11.2414753679
 20
8.9089031256
 30
0.0
 10
11.2407165364
 20
8.9193831261
 30
0.0
 10
11.2407211532
 20
8.9298383067
 30
0.0
 10
11.2414893204
 20
8.9402128595
 30
0.0
 10
11.2430170506
 20
8.950451347
 30
0.0
 10
11.2452963533
 20
8.9604991486
 30
0.0
 10
11.2483150057
 20
8.970302191
 30
0.0
 10
11.2514367756
 20
8.9782322886
 30
0.0
 10
11.2542856029
 20
8.9843991437
 30
0.0
 10
11.2573599639
 20
8.9904319455
 30
0.0
 10
11.2616286105
 20
8.9977289016
 30
0.0
 10
11.2664462336
 20
9.0046640274
 30
0.0
 10
11.2706094106
 20
9.0099650341
 30
0.0
 10
11.2749711319
 20
9.0150930582
 30
0.0
 10
11.2784656634
 20
9.0187437514
 30
0.0
 10
11.2808850863
 20
9.0210807366
 30
0.0
  0
SPLINE
  5
41E
100
AcDbEntity
  8
0
100
AcDbSpline
 62
7
  6
CONTINUOUS
 70
0
 71
3
 72
18
 73
14
 74
0
 42
0.0000001
 43
0.0000001
 44
0.0000000001
 40
0.0
 40
0.0
 40
0.0
 40
0.0
 40
0.054862568
 40
0.1099291209
 40
0.1654011893
 40
0.2214754292
 40
0.336133642
 40
0.4553634706
 40
0.5171047465
 40
0.5804363458
 40
0.712331634
 40
0.8519592464
 40
1.0
 40
1.0
 40
1.0
 40
1.0
 10
11.9168733696
 20
9.571230872
 30
0.0
 10
11.9168733669
 20
9.5707012732
 30
0.0
 10
11.9168397538
 20
9.5696398003
 30
0.0
 10
11.9166885966
 20
9.5680493285
 30
0.0
 10
11.9164367276
 20
9.566459741
 30
0.0
 10
11.9159634827
 20
9.5643268596
 30
0.0
 10
11.9151108681
 20
9.5616536429
 30
0.0
 10
11.9139432077
 20
9.5590435189
 30
0.0
 10
11.9128196251
 20
9.5569691945
 30
0.0
 10
11.9115330766
 20
9.5548473221
 30
0.0
 10
11.9096649844
 20
9.5522037489
 30
0.0
 10
11.9070605234
 20
9.5490971621
 30
0.0
 10
11.905123449
 20
9.5471037796
 30
0.0
 10
11.904095587
 20
9.546110941
 30
0.0
  0
SPLINE
  5
41F
100
AcDbEntity
  8
0
100
AcDbSpline
 62
7
  6
CONTINUOUS
 70
0
 71
3
 72
18
 73
14
 74
0
 42
0.0000001
 43
0.0000001
 44
0.0000000001
 40
0.0
 40
0.0
 40
0.0
 40
0.0
 40
0.0548626221
 40
0.1099291996
 40
0.1654012684
 40
0.2214754896
 40
0.3361336267
 40
0.4553633642
 40
0.5171046005
 40
0.5804361693
 40
0.7123314363
 40
0.8519591016
 40
1.0
 40
1.0
 40
1.0
 40
1.0
 10
11.9168733696
 20
10.3864725821
 30
0.0
 10
11.9168733724
 20
10.3859429778
 30
0.0
 10
11.9168397699
 20
10.3848814942
 30
0.0
 10
11.9166886263
 20
10.3832910056
 30
0.0
 10
11.9164367688
 20
10.3817014014
 30
0.0
 10
11.9159635365
 20
10.3795684976
 30
0.0
 10
11.9151109323
 20
10.3768952525
 30
0.0
 10
11.9139432749
 20
10.3742851006
 30
0.0
 10
11.9128196909
 20
10.3722107543
 30
0.0
 10
11.9115331379
 20
10.3700888591
 30
0.0
 10
11.9096650345
 20
10.3674452575
 30
0.0
 10
11.9070605521
 20
10.3643386381
 30
0.0
 10
11.9051234594
 20
10.3623452353
 30
0.0
 10
11.904095587
 20
10.3613523867
 30
0.0
  0
SPLINE
  5
420
100
AcDbEntity
  8
0
100
AcDbSpline
 62
7
  6
CONTINUOUS
 70
0
 71
3
 72
41
 73
37
 74
0
 42
0.0000001
 43
0.0000001
 44
0.0000000001
 40
0.0
 40
0.0
 40
0.0
 40
0.0
 40
0.0311445478
 40
0.0624424446
 40
0.0938872679
 40
0.125469566
 40
0.1571770992
 40
0.1889951145
 40
0.2209066667
 40
0.2528929719
 40
0.2849337877
 40
0.3170078142
 40
0.3490931102
 40
0.381167517
 40
0.4132090858
 40
0.4451965025
 40
0.4771095029
 40
0.5089292747
 40
0.5406388381
 40
0.5722233999
 40
0.6036706736
 40
0.63497116
 40
0.6661183793
 40
0.6971090497
 40
0.7279432042
 40
0.7586242401
 40
0.7891588962
 40
0.8195571523
 40
0.8498320512
 40
0.8649308901
 40
0.8800050513
 40
0.9100832572
 40
0.940092674
 40
0.9550812744
 40
0.9700610349
 40
1.0
 40
1.0
 40
1.0
 40
1.0
 10
10.1763003098
 20
8.8554080897
 30
0.0
 10
10.1728094475
 20
8.8556501818
 30
0.0
 10
10.1658256579
 20
8.8563910796
 30
0.0
 10
10.1554346464
 20
8.8582574004
 30
0.0
 10
10.1451549215
 20
8.8608715821
 30
0.0
 10
10.135042027
 20
8.864219534
 30
0.0
 10
10.1251496707
 20
8.8682833295
 30
0.0
 10
10.1155306258
 20
8.8730412245
 30
0.0
 10
10.1062361335
 20
8.8784677945
 30
0.0
 10
10.0973157205
 20
8.884534065
 30
0.0
 10
10.0888169148
 20
8.8912076666
 30
0.0
 10
10.0807850013
 20
8.8984530063
 30
0.0
 10
10.0732627824
 20
8.9062314557
 30
0.0
 10
10.0662903518
 20
8.914501555
 30
0.0
 10
10.0599048836
 20
8.9232192319
 30
0.0
 10
10.0541404352
 20
8.9323380341
 30
0.0
 10
10.0490277676
 20
8.941809374
 30
0.0
 10
10.0445941824
 20
8.9515827846
 30
0.0
 10
10.0408633764
 20
8.9616061849
 30
0.0
 10
10.0378553155
 20
8.9718261545
 30
0.0
 10
10.0355861274
 20
8.9821882136
 30
0.0
 10
10.0340680135
 20
8.99263711
 30
0.0
 10
10.033309182
 20
9.0031171105
 30
0.0
 10
10.0333137988
 20
9.0135722911
 30
0.0
 10
10.034081966
 20
9.023946844
 30
0.0
 10
10.0356096962
 20
9.0341853314
 30
0.0
 10
10.0378889989
 20
9.044233133
 30
0.0
 10
10.0409076513
 20
9.0540361754
 30
0.0
 10
10.0440294212
 20
9.061966273
 30
0.0
 10
10.0468782485
 20
9.0681331282
 30
0.0
 10
10.0499526094
 20
9.07416593
 30
0.0
 10
10.0542212561
 20
9.081462886
 30
0.0
 10
10.0590388792
 20
9.0883980119
 30
0.0
 10
10.0632020562
 20
9.0936990186
 30
0.0
 10
10.0675637775
 20
9.0988270426
 30
0.0
 10
10.071058309
 20
9.1024777358
 30
0.0
 10
10.0734777319
 20
9.104814721
 30
0.0
  0
SPLINE
  5
421
100
AcDbEntity
  8
0
100
AcDbSpline
 62
7
  6
CONTINUOUS
 70
0
 71
3
 72
23
 73
19
 74
0
 42
0.0000001
 43
0.0000001
 44
0.0000000001
 40
0.0
 40
0.0
 40
0.0
 40
0.0
 40
0.0604700925
 40
0.0908212473
 40
0.1212476745
 40
0.1823281176
 40
0.2437349395
 40
0.2745664301
 40
0.305478593
 40
0.3675276412
 40
0.4298756932
 40
0.4924999083
 40
0.5553737321
 40
0.6184685376
 40
0.7451543695
 40
0.808737395
 40
0.8724283684
 40
1.0
 40
1.0
 40
1.0
 40
1.0
 10
10.7226059186
 20
7.9859334932
 30
0.0
 10
10.7249842546
 20
7.9867294652
 30
0.0
 10
10.7286093337
 20
7.9877742702
 30
0.0
 10
10.733519912
 20
7.9888626552
 30
0.0
 10
10.738496436
 20
7.9897521274
 30
0.0
 10
10.7448035281
 20
7.990484091
 30
0.0
 10
10.7511650782
 20
7.9907141092
 30
0.0
 10
10.7562726344
 20
7.990605376
 30
0.0
 10
10.7613990994
 20
7.990303294
 30
0.0
 10
10.7678046737
 20
7.9895686069
 30
0.0
 10
10.7754352823
 20
7.9881426505
 30
0.0
 10
10.7829853856
 20
7.9861979959
 30
0.0
 10
10.7904243159
 20
7.9837632837
 30
0.0
 10
10.8001701676
 20
7.9798992176
 30
0.0
 10
10.8095859053
 20
7.9751754727
 30
0.0
 10
10.8185981696
 20
7.9697169138
 30
0.0
 10
10.8273517813
 20
7.9637865807
 30
0.0
 10
10.8335880272
 20
7.9588591117
 30
0.0
 10
10.8375869552
 20
7.9553944867
 30
0.0
  0
SPLINE
  5
422
100
AcDbEntity
  8
0
100
AcDbSpline
 62
7
  6
CONTINUOUS
 70
0
 71
3
 72
23
 73
19
 74
0
 42
0.0000001
 43
0.0000001
 44
0.0000000001
 40
0.0
 40
0.0
 40
0.0
 40
0.0
 40
0.0749625009
 40
0.1455684839
 40
0.2121600745
 40
0.2751631548
 40
0.3350982506
 40
0.3925832742
 40
0.4483295117
 40
0.5031237972
 40
0.5577983643
 40
0.613191491
 40
0.670106811
 40
0.729278715
 40
0.7913522906
 40
0.8568775564
 40
0.9263090861
 40
1.0
 40
1.0
 40
1.0
 40
1.0
 10
11.8732943876
 20
10.4402727361
 30
0.0
 10
11.8742877326
 20
10.4393483236
 30
0.0
 10
11.8761616263
 20
10.4374924316
 30
0.0
 10
11.8786900741
 20
10.4345969664
 30
0.0
 10
11.8808461852
 20
10.4316785802
 30
0.0
 10
11.8826267161
 20
10.4287397829
 30
0.0
 10
11.8840287265
 20
10.4257831931
 30
0.0
 10
11.8850490428
 20
10.422811822
 30
0.0
 10
11.8856848113
 20
10.4198295004
 30
0.0
 10
11.8859337668
 20
10.4168409501
 30
0.0
 10
11.8857949298
 20
10.4138516064
 30
0.0
 10
11.8852688762
 20
10.4108669875
 30
0.0
 10
11.8843574835
 20
10.4078920883
 30
0.0
 10
11.8830636201
 20
10.4049309605
 30
0.0
 10
11.8813902968
 20
10.4019868511
 30
0.0
 10
11.8793405471
 20
10.3990623327
 30
0.0
 10
11.8769175265
 20
10.3961601917
 30
0.0
 10
11.8751113108
 20
10.3942994265
 30
0.0
 10
11.8741518846
 20
10.3933726919
 30
0.0
  0
SPLINE
  5
423
100
AcDbEntity
  8
0
100
AcDbSpline
 62
7
  6
CONTINUOUS
 70
0
 71
3
 72
20
 73
16
 74
0
 42
0.0000001
 43
0.0000001
 44
0.0000000001
 40
0.0
 40
0.0
 40
0.0
 40
0.0
 40
0.0631909822
 40
0.1259542203
 40
0.1884719746
 40
0.2508738838
 40
0.3132458276
 40
0.3756380227
 40
0.4380782058
 40
0.5005680658
 40
0.6256375961
 40
0.7507152692
 40
0.8131991311
 40
0.8755969064
 40
1.0
 40
1.0
 40
1.0
 40
1.0
 10
10.9020501509
 20
7.7725628881
 30
0.0
 10
10.9014191379
 20
7.773212487
 30
0.0
 10
10.9002096735
 20
7.7745551105
 30
0.0
 10
10.8985477377
 20
7.7766869301
 30
0.0
 10
10.8970366599
 20
7.7789143837
 30
0.0
 10
10.8956680877
 20
7.781225263
 30
0.0
 10
10.8944340305
 20
7.7836084243
 30
0.0
 10
10.8933272097
 20
7.786053676
 30
0.0
 10
10.8923419685
 20
7.7885520933
 30
0.0
 10
10.8911820406
 20
7.7919431276
 30
0.0
 10
10.8900110443
 20
7.7962737896
 30
0.0
 10
10.8891868404
 20
7.8006824488
 30
0.0
 10
10.8887275438
 20
7.8042359369
 30
0.0
 10
10.8884003767
 20
7.8077941341
 30
0.0
 10
10.8883017821
 20
7.8104726234
 30
0.0
 10
10.8883017455
 20
7.8122555127
 30
0.0
  0
SPLINE
  5
424
100
AcDbEntity
  8
0
100
AcDbSpline
 62
4
  6
CONTINUOUS
 70
0
 71
3
 72
545
 73
541
 74
0
 42
0.0000001
 43
0.0000001
 44
0.0000000001
 40
0.0
 40
0.0
 40
0.0
 40
0.0
 40
0.0078125
 40
0.015625
 40
0.0234375
 40
0.03125
 40
0.03515625
 40
0.0390625
 40
0.04296875
 40
0.046875
 40
0.05078125
 40
0.052734375
 40
0.0546875
 40
0.056640625
 40
0.0576171875
 40
0.05859375
 40
0.0595703125
 40
0.060546875
 40
0.0610351562
 40
0.0615234375
 40
0.0617675781
 40
0.0620117188
 40
0.0622558594
 40
0.0623779297
 40
0.0624389648
 40
0.0625
 40
0.0625610352
 40
0.0626220703
 40
0.0627441406
 40
0.0629882812
 40
0.0632324219
 40
0.0634765625
 40
0.0639648438
 40
0.064453125
 40
0.0654296875
 40
0.06640625
 40
0.0673828125
 40
0.068359375
 40
0.0703125
 40
0.072265625
 40
0.07421875
 40
0.078125
 40
0.08203125
 40
0.0859375
 40
0.08984375
 40
0.09375
 40
0.1015625
 40
0.10546875
 40
0.109375
 40
0.11328125
 40
0.115234375
 40
0.1171875
 40
0.119140625
 40
0.1201171875
 40
0.12109375
 40
0.1220703125
 40
0.123046875
 40
0.1235351562
 40
0.1240234375
 40
0.1242675781
 40
0.1245117188
 40
0.1247558594
 40
0.1248779297
 40
0.1249389648
 40
0.125
 40
0.1250610352
 40
0.1251220703
 40
0.1252441406
 40
0.1254882812
 40
0.1257324219
 40
0.1259765625
 40
0.1264648438
 40
0.126953125
 40
0.1279296875
 40
0.12890625
 40
0.1298828125
 40
0.130859375
 40
0.1328125
 40
0.134765625
 40
0.13671875
 40
0.140625
 40
0.14453125
 40
0.1484375
 40
0.15234375
 40
0.15625
 40
0.1640625
 40
0.16796875
 40
0.171875
 40
0.17578125
 40
0.177734375
 40
0.1796875
 40
0.181640625
 40
0.1826171875
 40
0.18359375
 40
0.1845703125
 40
0.185546875
 40
0.1860351562
 40
0.1865234375
 40
0.1867675781
 40
0.1870117188
 40
0.1872558594
 40
0.1873779297
 40
0.1874389648
 40
0.1875
 40
0.1875610352
 40
0.1876220703
 40
0.1877441406
 40
0.1879882812
 40
0.1882324219
 40
0.1884765625
 40
0.1889648438
 40
0.189453125
 40
0.1904296875
 40
0.19140625
 40
0.1923828125
 40
0.193359375
 40
0.1953125
 40
0.197265625
 40
0.19921875
 40
0.203125
 40
0.20703125
 40
0.2109375
 40
0.21484375
 40
0.21875
 40
0.2265625
 40
0.23046875
 40
0.234375
 40
0.23828125
 40
0.240234375
 40
0.2421875
 40
0.244140625
 40
0.24609375
 40
0.2470703125
 40
0.248046875
 40
0.2485351562
 40
0.2490234375
 40
0.2495117188
 40
0.2497558594
 40
0.2498779297
 40
0.25
 40
0.2501220703
 40
0.2502441406
 40
0.2504882812
 40
0.2509765625
 40
0.2514648438
 40
0.251953125
 40
0.2529296875
 40
0.25390625
 40
0.255859375
 40
0.2578125
 40
0.259765625
 40
0.26171875
 40
0.265625
 40
0.26953125
 40
0.2734375
 40
0.28125
 40
0.2890625
 40
0.29296875
 40
0.296875
 40
0.30078125
 40
0.302734375
 40
0.3046875
 40
0.306640625
 40
0.30859375
 40
0.3095703125
 40
0.310546875
 40
0.3110351562
 40
0.3115234375
 40
0.3120117188
 40
0.3122558594
 40
0.3123779297
 40
0.3125
 40
0.3126220703
 40
0.3127441406
 40
0.3129882812
 40
0.3134765625
 40
0.3139648438
 40
0.314453125
 40
0.3154296875
 40
0.31640625
 40
0.318359375
 40
0.3203125
 40
0.322265625
 40
0.32421875
 40
0.328125
 40
0.33203125
 40
0.3359375
 40
0.34375
 40
0.3515625
 40
0.35546875
 40
0.359375
 40
0.36328125
 40
0.3671875
 40
0.369140625
 40
0.37109375
 40
0.3720703125
 40
0.373046875
 40
0.3740234375
 40
0.3745117188
 40
0.3747558594
 40
0.375
 40
0.3752441406
 40
0.3754882812
 40
0.3759765625
 40
0.376953125
 40
0.3779296875
 40
0.37890625
 40
0.380859375
 40
0.3828125
 40
0.38671875
 40
0.390625
 40
0.39453125
 40
0.3984375
 40
0.40625
 40
0.4140625
 40
0.41796875
 40
0.421875
 40
0.42578125
 40
0.4296875
 40
0.431640625
 40
0.43359375
 40
0.4345703125
 40
0.435546875
 40
0.4365234375
 40
0.4370117188
 40
0.4372558594
 40
0.4375
 40
0.4377441406
 40
0.4379882812
 40
0.4384765625
 40
0.439453125
 40
0.4404296875
 40
0.44140625
 40
0.443359375
 40
0.4453125
 40
0.44921875
 40
0.453125
 40
0.45703125
 40
0.4609375
 40
0.46875
 40
0.4765625
 40
0.48046875
 40
0.484375
 40
0.48828125
 40
0.490234375
 40
0.4921875
 40
0.494140625
 40
0.49609375
 40
0.4970703125
 40
0.498046875
 40
0.4985351562
 40
0.4990234375
 40
0.4995117188
 40
0.4997558594
 40
0.4998779297
 40
0.5
 40
0.5001220703
 40
0.5002441406
 40
0.5004882812
 40
0.5009765625
 40
0.5014648438
 40
0.501953125
 40
0.5029296875
 40
0.50390625
 40
0.505859375
 40
0.5078125
 40
0.509765625
 40
0.51171875
 40
0.515625
 40
0.51953125
 40
0.5234375
 40
0.53125
 40
0.5390625
 40
0.54296875
 40
0.546875
 40
0.55078125
 40
0.552734375
 40
0.5546875
 40
0.556640625
 40
0.55859375
 40
0.5595703125
 40
0.560546875
 40
0.5610351562
 40
0.5615234375
 40
0.5620117188
 40
0.5622558594
 40
0.5623779297
 40
0.5625
 40
0.5626220703
 40
0.5627441406
 40
0.5629882812
 40
0.5634765625
 40
0.5639648438
 40
0.564453125
 40
0.5654296875
 40
0.56640625
 40
0.568359375
 40
0.5703125
 40
0.572265625
 40
0.57421875
 40
0.578125
 40
0.58203125
 40
0.5859375
 40
0.59375
 40
0.6015625
 40
0.60546875
 40
0.609375
 40
0.61328125
 40
0.615234375
 40
0.6171875
 40
0.619140625
 40
0.6201171875
 40
0.62109375
 40
0.6220703125
 40
0.623046875
 40
0.6235351562
 40
0.6240234375
 40
0.6245117188
 40
0.6247558594
 40
0.6248779297
 40
0.625
 40
0.6251220703
 40
0.6252441406
 40
0.6254882812
 40
0.6259765625
 40
0.6264648438
 40
0.626953125
 40
0.6279296875
 40
0.62890625
 40
0.6298828125
 40
0.630859375
 40
0.6328125
 40
0.634765625
 40
0.63671875
 40
0.640625
 40
0.64453125
 40
0.6484375
 40
0.65625
 40
0.6640625
 40
0.66796875
 40
0.671875
 40
0.67578125
 40
0.677734375
 40
0.6796875
 40
0.681640625
 40
0.6826171875
 40
0.68359375
 40
0.6845703125
 40
0.685546875
 40
0.6860351562
 40
0.6865234375
 40
0.6867675781
 40
0.6870117188
 40
0.6872558594
 40
0.6873779297
 40
0.6874389648
 40
0.6875
 40
0.6875610352
 40
0.6876220703
 40
0.6877441406
 40
0.6879882812
 40
0.6882324219
 40
0.6884765625
 40
0.6889648438
 40
0.689453125
 40
0.6904296875
 40
0.69140625
 40
0.6923828125
 40
0.693359375
 40
0.6953125
 40
0.697265625
 40
0.69921875
 40
0.703125
 40
0.70703125
 40
0.7109375
 40
0.71875
 40
0.72265625
 40
0.7265625
 40
0.73046875
 40
0.734375
 40
0.73828125
 40
0.740234375
 40
0.7421875
 40
0.744140625
 40
0.7451171875
 40
0.74609375
 40
0.7470703125
 40
0.748046875
 40
0.7485351562
 40
0.7490234375
 40
0.7492675781
 40
0.7495117188
 40
0.7497558594
 40
0.7498779297
 40
0.7499389648
 40
0.75
 40
0.7500610352
 40
0.7501220703
 40
0.7502441406
 40
0.7504882812
 40
0.7507324219
 40
0.7509765625
 40
0.7514648438
 40
0.751953125
 40
0.7529296875
 40
0.75390625
 40
0.7548828125
 40
0.755859375
 40
0.7578125
 40
0.759765625
 40
0.76171875
 40
0.765625
 40
0.76953125
 40
0.7734375
 40
0.77734375
 40
0.78125
 40
0.78515625
 40
0.7890625
 40
0.79296875
 40
0.796875
 40
0.80078125
 40
0.802734375
 40
0.8046875
 40
0.806640625
 40
0.8076171875
 40
0.80859375
 40
0.8095703125
 40
0.810546875
 40
0.8110351562
 40
0.8115234375
 40
0.8117675781
 40
0.8120117188
 40
0.8122558594
 40
0.8123779297
 40
0.8124389648
 40
0.8125
 40
0.8125610352
 40
0.8126220703
 40
0.8127441406
 40
0.8129882812
 40
0.8132324219
 40
0.8134765625
 40
0.8139648438
 40
0.814453125
 40
0.8154296875
 40
0.81640625
 40
0.8173828125
 40
0.818359375
 40
0.8203125
 40
0.822265625
 40
0.82421875
 40
0.828125
 40
0.83203125
 40
0.8359375
 40
0.83984375
 40
0.84375
 40
0.84765625
 40
0.8515625
 40
0.85546875
 40
0.859375
 40
0.86328125
 40
0.865234375
 40
0.8671875
 40
0.869140625
 40
0.8701171875
 40
0.87109375
 40
0.8720703125
 40
0.873046875
 40
0.8735351562
 40
0.8740234375
 40
0.8742675781
 40
0.8745117188
 40
0.8747558594
 40
0.8748779297
 40
0.8749389648
 40
0.875
 40
0.8750610352
 40
0.8751220703
 40
0.8752441406
 40
0.8754882812
 40
0.8757324219
 40
0.8759765625
 40
0.8764648438
 40
0.876953125
 40
0.8779296875
 40
0.87890625
 40
0.8798828125
 40
0.880859375
 40
0.8828125
 40
0.884765625
 40
0.88671875
 40
0.890625
 40
0.89453125
 40
0.8984375
 40
0.90234375
 40
0.90625
 40
0.91015625
 40
0.9140625
 40
0.91796875
 40
0.921875
 40
0.92578125
 40
0.927734375
 40
0.9296875
 40
0.931640625
 40
0.9326171875
 40
0.93359375
 40
0.9345703125
 40
0.935546875
 40
0.9360351562
 40
0.9365234375
 40
0.9367675781
 40
0.9370117188
 40
0.9372558594
 40
0.9373779297
 40
0.9374389648
 40
0.9375
 40
0.9375610352
 40
0.9376220703
 40
0.9377441406
 40
0.9379882812
 40
0.9382324219
 40
0.9384765625
 40
0.9389648438
 40
0.939453125
 40
0.9404296875
 40
0.94140625
 40
0.9423828125
 40
0.943359375
 40
0.9453125
 40
0.947265625
 40
0.94921875
 40
0.953125
 40
0.95703125
 40
0.9609375
 40
0.96484375
 40
0.96875
 40
0.9765625
 40
0.984375
 40
0.9921875
 40
1.0
 40
1.0
 40
1.0
 40
1.0
 10
11.7222461969
 20
7.9899690825
 30
0.0
 10
11.7218264299
 20
7.9894100128
 30
0.0
 10
11.7209868957
 20
7.9882918733
 30
0.0
 10
11.7197275945
 20
7.9866146642
 30
0.0
 10
11.7184682932
 20
7.984937455
 30
0.0
 10
11.7174188755
 20
7.9835397807
 30
0.0
 10
11.7165793414
 20
7.9824216413
 30
0.0
 10
11.7159496907
 20
7.9815830367
 30
0.0
 10
11.7153200401
 20
7.9807444321
 30
0.0
 10
11.7146903895
 20
7.9799058275
 30
0.0
 10
11.7141656806
 20
7.9792069904
 30
0.0
 10
11.7137459136
 20
7.9786479207
 30
0.0
 10
11.7134310882
 20
7.9782286184
 30
0.0
 10
11.7131687338
 20
7.9778791998
 30
0.0
 10
11.7129588503
 20
7.9775996649
 30
0.0
 10
11.7128014376
 20
7.977390014
 30
0.0
 10
11.712644025
 20
7.9771803619
 30
0.0
 10
11.7125128476
 20
7.9770056554
 30
0.0
 10
11.7124079062
 20
7.9768658824
 30
0.0
 10
11.7123423168
 20
7.9767785419
 30
0.0
 10
11.7122898475
 20
7.9767086292
 30
0.0
 10
11.7122504894
 20
7.9766563049
 30
0.0
 10
11.7122177106
 20
7.9766123508
 30
0.0
 10
11.7121947269
 20
7.9765822707
 30
0.0
 10
11.7121816535
 20
7.9765640082
 30
0.0
 10
11.7121716792
 20
7.9765533366
 30
0.0
 10
11.7121623516
 20
7.9765311006
 30
0.0
 10
11.7121496893
 20
7.9765054864
 30
0.0
 10
11.7121276353
 20
7.9764587821
 30
0.0
 10
11.7120960747
 20
7.9763930443
 30
0.0
 10
11.7120582254
 20
7.9763137384
 30
0.0
 10
11.7120077515
 20
7.976208144
 30
0.0
 10
11.7119446619
 20
7.9760761007
 30
0.0
 10
11.711843717
 20
7.9758648596
 30
0.0
 10
11.7117175365
 20
7.9756007986
 30
0.0
 10
11.7115661196
 20
7.9752839295
 30
0.0
 10
11.7114147027
 20
7.9749670593
 30
0.0
 10
11.7112128136
 20
7.9745445661
 30
0.0
 10
11.7109604522
 20
7.9740164494
 30
0.0
 10
11.7106576184
 20
7.9733827095
 30
0.0
 10
11.7102538402
 20
7.9725377229
 30
0.0
 10
11.7097491173
 20
7.9714814897
 30
0.0
 10
11.7091434499
 20
7.9702140098
 30
0.0
 10
11.7085377825
 20
7.9689465299
 30
0.0
 10
11.707932115
 20
7.96767905
 30
0.0
 10
11.7071245585
 20
7.9659890768
 30
0.0
 10
11.7063170019
 20
7.9642991036
 30
0.0
 10
11.7055094453
 20
7.9626091304
 30
0.0
 10
11.7049037779
 20
7.9613416506
 30
0.0
 10
11.7043990551
 20
7.9602854173
 30
0.0
 10
11.7039952768
 20
7.9594404307
 30
0.0
 10
11.7036924431
 20
7.9588066908
 30
0.0
 10
11.7034400816
 20
7.9582785742
 30
0.0
 10
11.7032381925
 20
7.9578560808
 30
0.0
 10
11.7030867756
 20
7.9575392111
 30
0.0
 10
11.7029353589
 20
7.9572223403
 30
0.0
 10
11.7028091778
 20
7.9569582844
 30
0.0
 10
11.7027082339
 20
7.9567470328
 30
0.0
 10
11.702645142
 20
7.9566150162
 30
0.0
 10
11.7025946729
 20
7.9565093672
 30
0.0
 10
11.7025568089
 20
7.9564302282
 30
0.0
 10
11.7025252941
 20
7.956363968
 30
0.0
 10
11.7025031583
 20
7.9563181963
 30
0.0
 10
11.7024906271
 20
7.9562910879
 30
0.0
 10
11.7024808967
 20
7.9562734414
 30
0.0
 10
11.7024724352
 20
7.9562455323
 30
0.0
 10
11.7024607105
 20
7.9562118999
 30
0.0
 10
11.7024403986
 20
7.9561513753
 30
0.0
 10
11.7024112737
 20
7.9560657836
 30
0.0
 10
11.70237637
 20
7.9559627002
 30
0.0
 10
11.7023298156
 20
7.9558253861
 30
0.0
 10
11.7022716281
 20
7.9556536989
 30
0.0
 10
11.7021785251
 20
7.9553790243
 30
0.0
 10
11.7020621474
 20
7.9550356724
 30
0.0
 10
11.7019224936
 20
7.9546236539
 30
0.0
 10
11.70178284
 20
7.9542116344
 30
0.0
 10
11.7015966352
 20
7.9536622753
 30
0.0
 10
11.7013638791
 20
7.9529755764
 30
0.0
 10
11.7010845718
 20
7.9521515378
 30
0.0
 10
11.7007121622
 20
7.9510528196
 30
0.0
 10
11.70024665
 20
7.9496794219
 30
0.0
 10
11.6996880355
 20
7.9480313446
 30
0.0
 10
11.6991294209
 20
7.9463832673
 30
0.0
 10
11.6985708064
 20
7.94473519
 30
0.0
 10
11.697825987
 20
7.9425377537
 30
0.0
 10
11.6970811676
 20
7.9403403173
 30
0.0
 10
11.6963363482
 20
7.9381428809
 30
0.0
 10
11.6957777337
 20
7.9364948037
 30
0.0
 10
11.6953122216
 20
7.9351214059
 30
0.0
 10
11.6949398119
 20
7.9340226877
 30
0.0
 10
11.6946605046
 20
7.9331986491
 30
0.0
 10
11.6944277485
 20
7.9325119503
 30
0.0
 10
11.6942415437
 20
7.9319625911
 30
0.0
 10
11.69410189
 20
7.931550572
 30
0.0
 10
11.6939622365
 20
7.9311385519
 30
0.0
 10
11.6938458581
 20
7.9307952047
 30
0.0
 10
11.6937527564
 20
7.9305205206
 30
0.0
 10
11.6936945654
 20
7.9303488576
 30
0.0
 10
11.6936480183
 20
7.9302114938
 30
0.0
 10
11.6936130925
 20
7.9301085623
 30
0.0
 10
11.6935840369
 20
7.9300224956
 30
0.0
 10
11.6935636012
 20
7.9299628188
 30
0.0
 10
11.6935520748
 20
7.9299278279
 30
0.0
 10
11.6935430044
 20
7.9299040916
 30
0.0
 10
11.6935355605
 20
7.9298707728
 30
0.0
 10
11.6935250679
 20
7.9298296902
 30
0.0
 10
11.6935069702
 20
7.9297562383
 30
0.0
 10
11.6934809782
 20
7.9296521212
 30
0.0
 10
11.6934498469
 20
7.9295268321
 30
0.0
 10
11.6934083179
 20
7.9293599018
 30
0.0
 10
11.6933564137
 20
7.9291511973
 30
0.0
 10
11.693273363
 20
7.9288172933
 30
0.0
 10
11.6931695509
 20
7.9283999052
 30
0.0
 10
11.6930449759
 20
7.9278990431
 30
0.0
 10
11.6929204011
 20
7.92739818
 30
0.0
 10
11.6927543012
 20
7.9267303628
 30
0.0
 10
11.6925466764
 20
7.9258955913
 30
0.0
 10
11.6922975266
 20
7.9248938655
 30
0.0
 10
11.6919653269
 20
7.923558231
 30
0.0
 10
11.6915500773
 20
7.921888688
 30
0.0
 10
11.6910517777
 20
7.9198852364
 30
0.0
 10
11.6905534782
 20
7.9178817848
 30
0.0
 10
11.6900551786
 20
7.9158783331
 30
0.0
 10
11.6893907792
 20
7.9132070643
 30
0.0
 10
11.6887263798
 20
7.9105357954
 30
0.0
 10
11.6880619804
 20
7.9078645266
 30
0.0
 10
11.6875636808
 20
7.905861075
 30
0.0
 10
11.6871484312
 20
7.904191532
 30
0.0
 10
11.6868162315
 20
7.9028558975
 30
0.0
 10
11.6865670816
 20
7.9018541719
 30
0.0
 10
11.6863179322
 20
7.9008524452
 30
0.0
 10
11.6861103062
 20
7.9000176764
 30
0.0
 10
11.6859442088
 20
7.8993498538
 30
0.0
 10
11.6858403901
 20
7.8989324817
 30
0.0
 10
11.6857573532
 20
7.8985985449
 30
0.0
 10
11.6856950258
 20
7.8983481997
 30
0.0
 10
11.6856432445
 20
7.8981392371
 30
0.0
 10
11.6856066873
 20
7.8979936336
 30
0.0
 10
11.6855862819
 20
7.8979093849
 30
0.0
 10
11.6855696132
 20
7.8978491469
 30
0.0
 10
11.6855581608
 20
7.8977776383
 30
0.0
 10
11.6855410714
 20
7.8976862249
 30
0.0
 10
11.6855120128
 20
7.8975244197
 30
0.0
 10
11.6854700572
 20
7.8972942271
 30
0.0
 10
11.6854199002
 20
7.8970175861
 30
0.0
 10
11.685352958
 20
7.8966488746
 30
0.0
 10
11.6852693029
 20
7.8961879361
 30
0.0
 10
11.6851354421
 20
7.895450462
 30
0.0
 10
11.6849681204
 20
7.8945286099
 30
0.0
 10
11.6847673325
 20
7.8934223915
 30
0.0
 10
11.684566545
 20
7.892316172
 30
0.0
 10
11.6842988283
 20
7.890841213
 30
0.0
 10
11.6839641825
 20
7.8889975141
 30
0.0
 10
11.6835626075
 20
7.8867850756
 30
0.0
 10
11.6830271741
 20
7.8838351574
 30
0.0
 10
11.6823578824
 20
7.8801477598
 30
0.0
 10
11.6816885907
 20
7.8764603622
 30
0.0
 10
11.6811531574
 20
7.8735104441
 30
0.0
 10
11.6807515824
 20
7.8712980055
 30
0.0
 10
11.6804169365
 20
7.8694543067
 30
0.0
 10
11.6801492198
 20
7.8679793476
 30
0.0
 10
11.6799484322
 20
7.8668731285
 30
0.0
 10
11.6797476451
 20
7.8657669085
 30
0.0
 10
11.6795803209
 20
7.8648450611
 30
0.0
 10
11.6794464652
 20
7.8641075775
 30
0.0
 10
11.679362797
 20
7.8636466632
 30
0.0
 10
11.6792958817
 20
7.8632779022
 30
0.0
 10
11.6792456425
 20
7.8630014122
 30
0.0
 10
11.6792039442
 20
7.8627707469
 30
0.0
 10
11.6791744263
 20
7.8626097856
 30
0.0
 10
11.6791580728
 20
7.8625170201
 30
0.0
 10
11.67914436
 20
7.8624496645
 30
0.0
 10
11.6791361808
 20
7.862373829
 30
0.0
 10
11.6791233449
 20
7.8622756728
 30
0.0
 10
11.6791017816
 20
7.8621025214
 30
0.0
 10
11.6790705065
 20
7.8618558828
 30
0.0
 10
11.6790331778
 20
7.861559608
 30
0.0
 10
11.6789833358
 20
7.8611646827
 30
0.0
 10
11.6789210574
 20
7.8606709891
 30
0.0
 10
11.6788213985
 20
7.8598811001
 30
0.0
 10
11.6786968295
 20
7.8588937318
 30
0.0
 10
11.6785473447
 20
7.8577088928
 30
0.0
 10
11.6783978604
 20
7.856524053
 30
0.0
 10
11.6781985479
 20
7.8549442668
 30
0.0
 10
11.6779494073
 20
7.8529695341
 30
0.0
 10
11.6776504386
 20
7.8505998548
 30
0.0
 10
11.6772518136
 20
7.8474402824
 30
0.0
 10
11.6767535324
 20
7.843490817
 30
0.0
 10
11.6762552511
 20
7.8395413516
 30
0.0
 10
11.6758566262
 20
7.8363817791
 30
0.0
 10
11.6755576572
 20
7.8340121
 30
0.0
 10
11.6752586894
 20
7.8316424202
 30
0.0
 10
11.6750095459
 20
7.8296676892
 30
0.0
 10
11.6748102393
 20
7.8280878995
 30
0.0
 10
11.674685654
 20
7.827100542
 30
0.0
 10
11.6745860285
 20
7.8263106308
 30
0.0
 10
11.6745111923
 20
7.8257182662
 30
0.0
 10
11.6744492014
 20
7.8252244102
 30
0.0
 10
11.6744050765
 20
7.8248791406
 30
0.0
 10
11.674381004
 20
7.8246811728
 30
0.0
 10
11.6743597332
 20
7.8245345869
 30
0.0
 10
11.6743507576
 20
7.8243807766
 30
0.0
 10
11.6743345014
 20
7.8241782162
 30
0.0
 10
11.6743080512
 20
7.8238225613
 30
0.0
 10
11.6742692205
 20
7.8233150968
 30
0.0
 10
11.6742230708
 20
7.8227058766
 30
0.0
 10
11.6741613817
 20
7.8218936748
 30
0.0
 10
11.6740843239
 20
7.8208783912
 30
0.0
 10
11.6739610014
 20
7.8192539549
 30
0.0
 10
11.6738068586
 20
7.8172234035
 30
0.0
 10
11.6736218829
 20
7.8147867445
 30
0.0
 10
11.6734369083
 20
7.8123500847
 30
0.0
 10
11.6731902751
 20
7.8091012053
 30
0.0
 10
11.6728819837
 20
7.8050401059
 30
0.0
 10
11.6725736923
 20
7.8009790065
 30
0.0
 10
11.6723270593
 20
7.797730127
 30
0.0
 10
11.6721420842
 20
7.7952934674
 30
0.0
 10
11.6719571103
 20
7.7928568077
 30
0.0
 10
11.6718029616
 20
7.7908262584
 30
0.0
 10
11.6716796513
 20
7.7892018178
 30
0.0
 10
11.6716025625
 20
7.7881865451
 30
0.0
 10
11.6715409369
 20
7.7873743208
 30
0.0
 10
11.6714945933
 20
7.7867651695
 30
0.0
 10
11.6714563693
 20
7.7862574897
 30
0.0
 10
11.6714288361
 20
7.7859022191
 30
0.0
 10
11.6714143151
 20
7.7856990429
 30
0.0
 10
11.6714000095
 20
7.7855471241
 30
0.0
 10
11.671398757
 20
7.7853934343
 30
0.0
 10
11.6713925339
 20
7.7851891324
 30
0.0
 10
11.6713837647
 20
7.7848313162
 30
0.0
 10
11.6713701284
 20
7.7843203006
 30
0.0
 10
11.6713542395
 20
7.7837070175
 30
0.0
 10
11.6713328884
 20
7.7828893293
 30
0.0
 10
11.6713062564
 20
7.7818672112
 30
0.0
 10
11.6712636135
 20
7.7802318267
 30
0.0
 10
11.6712103207
 20
7.7781875945
 30
0.0
 10
11.6711463646
 20
7.7757345165
 30
0.0
 10
11.6710824098
 20
7.7732814384
 30
0.0
 10
11.6709971364
 20
7.7700106676
 30
0.0
 10
11.6708905447
 20
7.7659222041
 30
0.0
 10
11.6707839529
 20
7.7618337406
 30
0.0
 10
11.6706986795
 20
7.7585629698
 30
0.0
 10
11.6706347245
 20
7.7561098917
 30
0.0
 10
11.6705814286
 20
7.7540656599
 30
0.0
 10
11.6705387919
 20
7.7524302746
 30
0.0
 10
11.6705068143
 20
7.7512037353
 30
0.0
 10
11.6704748372
 20
7.7499771969
 30
0.0
 10
11.6704481877
 20
7.748955079
 30
0.0
 10
11.6704268726
 20
7.7481373905
 30
0.0
 10
11.6704135404
 20
7.7476263219
 30
0.0
 10
11.6704028982
 20
7.7472174975
 30
0.0
 10
11.6703948519
 20
7.7469107956
 30
0.0
 10
11.6703883522
 20
7.7466554767
 30
0.0
 10
11.6703833992
 20
7.7464762313
 30
0.0
 10
11.6703811984
 20
7.7463746208
 30
0.0
 10
11.6703777745
 20
7.7462961158
 30
0.0
 10
11.6703811291
 20
7.7462263916
 30
0.0
 10
11.6703832375
 20
7.7461303632
 30
0.0
 10
11.6703880288
 20
7.7459637405
 30
0.0
 10
11.6703942976
 20
7.745724962
 30
0.0
 10
11.6704020667
 20
7.7454387472
 30
0.0
 10
11.6704123394
 20
7.7450570158
 30
0.0
 10
11.6704252097
 20
7.7445798899
 30
0.0
 10
11.6704457857
 20
7.743816467
 30
0.0
 10
11.6704715114
 20
7.7428621957
 30
0.0
 10
11.6705023797
 20
7.741717067
 30
0.0
 10
11.6705332488
 20
7.7405719391
 30
0.0
 10
11.6705744072
 20
7.7390451017
 30
0.0
 10
11.6706258554
 20
7.737136555
 30
0.0
 10
11.6706875932
 20
7.7348462989
 30
0.0
 10
11.6707699102
 20
7.7317926242
 30
0.0
 10
11.6708728065
 20
7.7279755307
 30
0.0
 10
11.6709757028
 20
7.7241584373
 30
0.0
 10
11.6710580199
 20
7.7211047625
 30
0.0
 10
11.6711197577
 20
7.7188145065
 30
0.0
 10
11.6711712058
 20
7.7169059597
 30
0.0
 10
11.6712123644
 20
7.7153791224
 30
0.0
 10
11.6712432331
 20
7.7142339942
 30
0.0
 10
11.6712741025
 20
7.713088867
 30
0.0
 10
11.6712998251
 20
7.712134591
 30
0.0
 10
11.6713204075
 20
7.7113711776
 30
0.0
 10
11.6713332615
 20
7.7108940274
 30
0.0
 10
11.6713435675
 20
7.7105123459
 30
0.0
 10
11.6713512348
 20
7.7102259787
 30
0.0
 10
11.6713578221
 20
7.7099876769
 30
0.0
 10
11.6713620448
 20
7.7098202033
 30
0.0
 10
11.6713650643
 20
7.7097255383
 30
0.0
 10
11.6713656201
 20
7.7096516261
 30
0.0
 10
11.671372708
 20
7.7095888505
 30
0.0
 10
11.6713798801
 20
7.7095012651
 30
0.0
 10
11.6713934929
 20
7.7093498006
 30
0.0
 10
11.6714123847
 20
7.7091324765
 30
0.0
 10
11.6714352923
 20
7.7088720926
 30
0.0
 10
11.6714657529
 20
7.7085247726
 30
0.0
 10
11.6715038571
 20
7.7080906711
 30
0.0
 10
11.6715648079
 20
7.7073960815
 30
0.0
 10
11.6716410019
 20
7.7065278538
 30
0.0
 10
11.6717324323
 20
7.7054859767
 30
0.0
 10
11.6718238633
 20
7.7044441006
 30
0.0
 10
11.6719457711
 20
7.703054932
 30
0.0
 10
11.6720981559
 20
7.7013184715
 30
0.0
 10
11.6722810177
 20
7.6992347188
 30
0.0
 10
11.6725248334
 20
7.6964563819
 30
0.0
 10
11.672829603
 20
7.6929834608
 30
0.0
 10
11.6731343726
 20
7.6895105396
 30
0.0
 10
11.6733781883
 20
7.6867322027
 30
0.0
 10
11.6735610501
 20
7.6846484501
 30
0.0
 10
11.6737134349
 20
7.6829119895
 30
0.0
 10
11.6738353428
 20
7.681522821
 30
0.0
 10
11.6739267737
 20
7.6804809448
 30
0.0
 10
11.674002966
 20
7.6796127142
 30
0.0
 10
11.6740639201
 20
7.6789181305
 30
0.0
 10
11.6741096349
 20
7.6783971907
 30
0.0
 10
11.6741553528
 20
7.6778762587
 30
0.0
 10
11.6741934415
 20
7.6774421246
 30
0.0
 10
11.6742239338
 20
7.6770948711
 30
0.0
 10
11.6742467445
 20
7.6768342841
 30
0.0
 10
11.6742659399
 20
7.6766175955
 30
0.0
 10
11.6742790106
 20
7.6764649965
 30
0.0
 10
11.6742870512
 20
7.6763792288
 30
0.0
 10
11.6742914711
 20
7.6763108699
 30
0.0
 10
11.6743020476
 20
7.6762579278
 30
0.0
 10
11.674314002
 20
7.6761819608
 30
0.0
 10
11.6743359228
 20
7.6760515241
 30
0.0
 10
11.6743667151
 20
7.675863876
 30
0.0
 10
11.6744038897
 20
7.6756392589
 30
0.0
 10
11.6744533778
 20
7.6753395737
 30
0.0
 10
11.6745152646
 20
7.6749650343
 30
0.0
 10
11.6745895173
 20
7.6745155583
 30
0.0
 10
11.6746637731
 20
7.6740660899
 30
0.0
 10
11.6747627798
 20
7.6734667961
 30
0.0
 10
11.6748865385
 20
7.6727176798
 30
0.0
 10
11.6750350488
 20
7.6718187398
 30
0.0
 10
11.6752330625
 20
7.6706201533
 30
0.0
 10
11.6754805797
 20
7.6691219202
 30
0.0
 10
11.6757776003
 20
7.6673240404
 30
0.0
 10
11.6761736278
 20
7.6649268673
 30
0.0
 10
11.6766686622
 20
7.661930401
 30
0.0
 10
11.6771636966
 20
7.6589339346
 30
0.0
 10
11.6775597241
 20
7.6565367616
 30
0.0
 10
11.6778567447
 20
7.6547388818
 30
0.0
 10
11.6781042619
 20
7.6532406486
 30
0.0
 10
11.6783022756
 20
7.6520420621
 30
0.0
 10
11.6784507859
 20
7.6511431222
 30
0.0
 10
11.6785745445
 20
7.6503940056
 30
0.0
 10
11.6786735514
 20
7.6497947124
 30
0.0
 10
11.6787478065
 20
7.6493452422
 30
0.0
 10
11.6788220619
 20
7.648895773
 30
0.0
 10
11.6788839405
 20
7.6485212126
 30
0.0
 10
11.6789334454
 20
7.6482215702
 30
0.0
 10
11.6789643814
 20
7.6480342801
 30
0.0
 10
11.6789891406
 20
7.6478844793
 30
0.0
 10
11.6790076815
 20
7.6477720433
 30
0.0
 10
11.6790232228
 20
7.647678618
 30
0.0
 10
11.679033924
 20
7.6476126877
 30
0.0
 10
11.6790403165
 20
7.647575845
 30
0.0
 10
11.6790443291
 20
7.6475458698
 30
0.0
 10
11.6790513302
 20
7.6475248511
 30
0.0
 10
11.6790596226
 20
7.6474937021
 30
0.0
 10
11.6790746199
 20
7.6474406469
 30
0.0
 10
11.6790957907
 20
7.6473640927
 30
0.0
 10
11.6791213044
 20
7.6472725534
 30
0.0
 10
11.6791552848
 20
7.6471503873
 30
0.0
 10
11.6791977731
 20
7.6469977185
 30
0.0
 10
11.6792657473
 20
7.6467534268
 30
0.0
 10
11.6793507175
 20
7.6464480696
 30
0.0
 10
11.6794526806
 20
7.6460816377
 30
0.0
 10
11.679554644
 20
7.6457152067
 30
0.0
 10
11.6796905952
 20
7.6452266318
 30
0.0
 10
11.6798605341
 20
7.6446159132
 30
0.0
 10
11.6800644608
 20
7.6438830508
 30
0.0
 10
11.6803363631
 20
7.642905901
 30
0.0
 10
11.680676241
 20
7.6416844638
 30
0.0
 10
11.6810840945
 20
7.6402187391
 30
0.0
 10
11.6816278991
 20
7.6382644395
 30
0.0
 10
11.6821717037
 20
7.6363101399
 30
0.0
 10
11.6827155083
 20
7.6343558403
 30
0.0
 10
11.6831233618
 20
7.6328901156
 30
0.0
 10
11.6835312153
 20
7.6314243909
 30
0.0
 10
11.6839390687
 20
7.6299586662
 30
0.0
 10
11.6842789466
 20
7.628737229
 30
0.0
 10
11.6845508489
 20
7.6277600792
 30
0.0
 10
11.6847547757
 20
7.6270272168
 30
0.0
 10
11.6849247146
 20
7.6264164982
 30
0.0
 10
11.6850606658
 20
7.6259279234
 30
0.0
 10
11.6851626291
 20
7.6255614919
 30
0.0
 10
11.6852645926
 20
7.6251950617
 30
0.0
 10
11.6853495616
 20
7.6248896996
 30
0.0
 10
11.6854175382
 20
7.6246454178
 30
0.0
 10
11.6854600203
 20
7.6244927237
 30
0.0
 10
11.6854940135
 20
7.6243706096
 30
0.0
 10
11.6855194876
 20
7.6242789112
 30
0.0
 10
11.6855407823
 20
7.6242028549
 30
0.0
 10
11.6855555586
 20
7.624148911
 30
0.0
 10
11.6855642051
 20
7.6241191858
 30
0.0
 10
11.6855701184
 20
7.6240937934
 30
0.0
 10
11.6855782167
 20
7.6240802452
 30
0.0
 10
11.6855882522
 20
7.6240580496
 30
0.0
 10
11.6856061695
 20
7.6240211321
 30
0.0
 10
11.68563158
 20
7.6239673866
 30
0.0
 10
11.6856621521
 20
7.6239033226
 30
0.0
 10
11.685702887
 20
7.6238177536
 30
0.0
 10
11.6857538153
 20
7.6237108438
 30
0.0
 10
11.6858352951
 20
7.6235397594
 30
0.0
 10
11.6859371468
 20
7.6233259137
 30
0.0
 10
11.686059368
 20
7.6230692946
 30
0.0
 10
11.6861815894
 20
7.6228126767
 30
0.0
 10
11.6863445512
 20
7.6224705191
 30
0.0
 10
11.6865482534
 20
7.6220428222
 30
0.0
 10
11.6867926961
 20
7.6215295859
 30
0.0
 10
11.6871186198
 20
7.6208452708
 30
0.0
 10
11.6875260243
 20
7.619989877
 30
0.0
 10
11.6880149097
 20
7.6189634044
 30
0.0
 10
11.6885037952
 20
7.6179369318
 30
0.0
 10
11.6889926806
 20
7.6169104592
 30
0.0
 10
11.689481566
 20
7.6158839866
 30
0.0
 10
11.6899704514
 20
7.614857514
 30
0.0
 10
11.6904593369
 20
7.6138310413
 30
0.0
 10
11.6909482223
 20
7.6128045687
 30
0.0
 10
11.6914371077
 20
7.6117780961
 30
0.0
 10
11.6918445123
 20
7.6109227023
 30
0.0
 10
11.6921704359
 20
7.6102383872
 30
0.0
 10
11.6924148786
 20
7.6097251509
 30
0.0
 10
11.6926185808
 20
7.609297454
 30
0.0
 10
11.6927815427
 20
7.6089552965
 30
0.0
 10
11.692903764
 20
7.6086986781
 30
0.0
 10
11.6930259855
 20
7.6084420609
 30
0.0
 10
11.6931278362
 20
7.6082282096
 30
0.0
 10
11.693209318
 20
7.6080571366
 30
0.0
 10
11.6932602413
 20
7.6079501976
 30
0.0
 10
11.6933009864
 20
7.6078646885
 30
0.0
 10
11.6933315275
 20
7.6078004413
 30
0.0
 10
11.6933570346
 20
7.6077472692
 30
0.0
 10
11.6933747795
 20
7.6077093281
 30
0.0
 10
11.6933850914
 20
7.6076887725
 30
0.0
 10
11.6933923407
 20
7.6076701866
 30
0.0
 10
11.6934014423
 20
7.6076637153
 30
0.0
 10
11.6934129316
 20
7.6076508612
 30
0.0
 10
11.693433339
 20
7.6076303353
 30
0.0
 10
11.693462335
 20
7.6075999833
 30
0.0
 10
11.6934971976
 20
7.6075640014
 30
0.0
 10
11.6935436575
 20
7.6075158718
 30
0.0
 10
11.6936017404
 20
7.6074557624
 30
0.0
 10
11.6936946686
 20
7.6073595579
 30
0.0
 10
11.6938108303
 20
7.6072393124
 30
0.0
 10
11.6939502238
 20
7.6070950135
 30
0.0
 10
11.6940896174
 20
7.6069507157
 30
0.0
 10
11.6942754755
 20
7.6067583183
 30
0.0
 10
11.6945077981
 20
7.6065178216
 30
0.0
 10
11.6947865853
 20
7.6062292256
 30
0.0
 10
11.6951583015
 20
7.6058444309
 30
0.0
 10
11.6956229468
 20
7.6053634376
 30
0.0
 10
11.6961805212
 20
7.6047862456
 30
0.0
 10
11.6967380955
 20
7.6042090535
 30
0.0
 10
11.6972956699
 20
7.6036318615
 30
0.0
 10
11.6978532442
 20
7.6030546695
 30
0.0
 10
11.6984108186
 20
7.6024774775
 30
0.0
 10
11.6989683929
 20
7.6019002854
 30
0.0
 10
11.6995259672
 20
7.6013230934
 30
0.0
 10
11.7000835416
 20
7.6007459014
 30
0.0
 10
11.7005481869
 20
7.600264908
 30
0.0
 10
11.7009199031
 20
7.5998801133
 30
0.0
 10
11.7011986903
 20
7.5995915173
 30
0.0
 10
11.7014310129
 20
7.5993510206
 30
0.0
 10
11.701616871
 20
7.5991586234
 30
0.0
 10
11.7017562646
 20
7.5990143251
 30
0.0
 10
11.7018956583
 20
7.5988700281
 30
0.0
 10
11.7020118193
 20
7.5987497767
 30
0.0
 10
11.702104749
 20
7.5986535841
 30
0.0
 10
11.7021628281
 20
7.5985934445
 30
0.0
 10
11.7022092958
 20
7.598545377
 30
0.0
 10
11.7022441344
 20
7.5985092053
 30
0.0
 10
11.7022732054
 20
7.5984794473
 30
0.0
 10
11.7022934789
 20
7.5984578609
 30
0.0
 10
11.7023051827
 20
7.598446706
 30
0.0
 10
11.7023136257
 20
7.5984350154
 30
0.0
 10
11.7023233483
 20
7.5984360322
 30
0.0
 10
11.7023358654
 20
7.5984329556
 30
0.0
 10
11.7023579783
 20
7.5984296366
 30
0.0
 10
11.7023894594
 20
7.5984238155
 30
0.0
 10
11.7024272833
 20
7.5984172923
 30
0.0
 10
11.7024776989
 20
7.5984084332
 30
0.0
 10
11.7025407239
 20
7.5983974147
 30
0.0
 10
11.7026415609
 20
7.5983797543
 30
0.0
 10
11.7027676081
 20
7.5983576893
 30
0.0
 10
11.7029188644
 20
7.5983312067
 30
0.0
 10
11.7030701208
 20
7.5983047254
 30
0.0
 10
11.7032717959
 20
7.5982694165
 30
0.0
 10
11.7035238898
 20
7.5982252805
 30
0.0
 10
11.7038264025
 20
7.5981723173
 30
0.0
 10
11.7042297528
 20
7.5981016998
 30
0.0
 10
11.7047339407
 20
7.5980134278
 30
0.0
 10
11.7053389661
 20
7.5979075014
 30
0.0
 10
11.7059439915
 20
7.597801575
 30
0.0
 10
11.706549017
 20
7.5976956486
 30
0.0
 10
11.7071540424
 20
7.5975897223
 30
0.0
 10
11.7077590678
 20
7.5974837959
 30
0.0
 10
11.7083640933
 20
7.5973778695
 30
0.0
 10
11.7089691187
 20
7.5972719431
 30
0.0
 10
11.7095741441
 20
7.5971660168
 30
0.0
 10
11.710078332
 20
7.5970777448
 30
0.0
 10
11.7104816823
 20
7.5970071272
 30
0.0
 10
11.710784195
 20
7.596954164
 30
0.0
 10
11.7110362889
 20
7.596910028
 30
0.0
 10
11.711237964
 20
7.5968747193
 30
0.0
 10
11.7113892204
 20
7.5968482374
 30
0.0
 10
11.7115404768
 20
7.5968217568
 30
0.0
 10
11.7116665235
 20
7.5967996857
 30
0.0
 10
11.7117673616
 20
7.5967820376
 30
0.0
 10
11.7118303839
 20
7.5967709876
 30
0.0
 10
11.7118808051
 20
7.5967621933
 30
0.0
 10
11.7119186118
 20
7.5967554726
 30
0.0
 10
11.7119501466
 20
7.5967502693
 30
0.0
 10
11.7119721637
 20
7.5967458474
 30
0.0
 10
11.7119848343
 20
7.5967445379
 30
0.0
 10
11.7119940853
 20
7.5967401264
 30
0.0
 10
11.7120042995
 20
7.5967488239
 30
0.0
 10
11.7120175825
 20
7.596755848
 30
0.0
 10
11.7120409842
 20
7.5967702707
 30
0.0
 10
11.7120743334
 20
7.5967897606
 30
0.0
 10
11.7121143875
 20
7.5968136253
 30
0.0
 10
11.7121677806
 20
7.5968452784
 30
0.0
 10
11.7122345263
 20
7.5968849017
 30
0.0
 10
11.7123413171
 20
7.5969482672
 30
0.0
 10
11.7124748063
 20
7.597027485
 30
0.0
 10
11.712634993
 20
7.5971225417
 30
0.0
 10
11.7127951799
 20
7.5972175996
 30
0.0
 10
11.7130087623
 20
7.5973443431
 30
0.0
 10
11.7132757403
 20
7.5975027725
 30
0.0
 10
11.7135961139
 20
7.5976928878
 30
0.0
 10
11.7140232787
 20
7.5979463749
 30
0.0
 10
11.7145572347
 20
7.5982632338
 30
0.0
 10
11.715197982
 20
7.5986434644
 30
0.0
 10
11.7158387292
 20
7.5990236951
 30
0.0
 10
11.7164794764
 20
7.5994039257
 30
0.0
 10
11.7173338061
 20
7.5999108999
 30
0.0
 10
11.7184017181
 20
7.6005446176
 30
0.0
 10
11.7196832126
 20
7.6013050789
 30
0.0
 10
11.720964707
 20
7.6020655401
 30
0.0
 10
11.7218190367
 20
7.6025725143
 30
0.0
 10
11.7222462015
 20
7.6028260014
 30
0.0
  0
SPLINE
  5
425
100
AcDbEntity
  8
0
100
AcDbSpline
 62
4
  6
CONTINUOUS
 70
0
 71
3
 72
545
 73
541
 74
0
 42
0.0000001
 43
0.0000001
 44
0.0000000001
 40
0.0
 40
0.0
 40
0.0
 40
0.0
 40
0.0078125
 40
0.015625
 40
0.0234375
 40
0.03125
 40
0.03515625
 40
0.0390625
 40
0.04296875
 40
0.046875
 40
0.05078125
 40
0.052734375
 40
0.0546875
 40
0.056640625
 40
0.0576171875
 40
0.05859375
 40
0.0595703125
 40
0.060546875
 40
0.0610351562
 40
0.0615234375
 40
0.0617675781
 40
0.0620117188
 40
0.0622558594
 40
0.0623779297
 40
0.0624389648
 40
0.0625
 40
0.0625610352
 40
0.0626220703
 40
0.0627441406
 40
0.0629882812
 40
0.0632324219
 40
0.0634765625
 40
0.0639648438
 40
0.064453125
 40
0.0654296875
 40
0.06640625
 40
0.0673828125
 40
0.068359375
 40
0.0703125
 40
0.072265625
 40
0.07421875
 40
0.078125
 40
0.08203125
 40
0.0859375
 40
0.08984375
 40
0.09375
 40
0.1015625
 40
0.10546875
 40
0.109375
 40
0.11328125
 40
0.115234375
 40
0.1171875
 40
0.119140625
 40
0.1201171875
 40
0.12109375
 40
0.1220703125
 40
0.123046875
 40
0.1235351562
 40
0.1240234375
 40
0.1242675781
 40
0.1245117188
 40
0.1247558594
 40
0.1248779297
 40
0.1249389648
 40
0.125
 40
0.1250610352
 40
0.1251220703
 40
0.1252441406
 40
0.1254882812
 40
0.1257324219
 40
0.1259765625
 40
0.1264648438
 40
0.126953125
 40
0.1279296875
 40
0.12890625
 40
0.1298828125
 40
0.130859375
 40
0.1328125
 40
0.134765625
 40
0.13671875
 40
0.140625
 40
0.14453125
 40
0.1484375
 40
0.15234375
 40
0.15625
 40
0.1640625
 40
0.16796875
 40
0.171875
 40
0.17578125
 40
0.177734375
 40
0.1796875
 40
0.181640625
 40
0.1826171875
 40
0.18359375
 40
0.1845703125
 40
0.185546875
 40
0.1860351562
 40
0.1865234375
 40
0.1867675781
 40
0.1870117188
 40
0.1872558594
 40
0.1873779297
 40
0.1874389648
 40
0.1875
 40
0.1875610352
 40
0.1876220703
 40
0.1877441406
 40
0.1879882812
 40
0.1882324219
 40
0.1884765625
 40
0.1889648438
 40
0.189453125
 40
0.1904296875
 40
0.19140625
 40
0.1923828125
 40
0.193359375
 40
0.1953125
 40
0.197265625
 40
0.19921875
 40
0.203125
 40
0.20703125
 40
0.2109375
 40
0.21484375
 40
0.21875
 40
0.2265625
 40
0.23046875
 40
0.234375
 40
0.23828125
 40
0.240234375
 40
0.2421875
 40
0.244140625
 40
0.24609375
 40
0.2470703125
 40
0.248046875
 40
0.2485351562
 40
0.2490234375
 40
0.2495117188
 40
0.2497558594
 40
0.2498779297
 40
0.25
 40
0.2501220703
 40
0.2502441406
 40
0.2504882812
 40
0.2509765625
 40
0.2514648438
 40
0.251953125
 40
0.2529296875
 40
0.25390625
 40
0.255859375
 40
0.2578125
 40
0.259765625
 40
0.26171875
 40
0.265625
 40
0.26953125
 40
0.2734375
 40
0.28125
 40
0.2890625
 40
0.29296875
 40
0.296875
 40
0.30078125
 40
0.302734375
 40
0.3046875
 40
0.306640625
 40
0.30859375
 40
0.3095703125
 40
0.310546875
 40
0.3110351562
 40
0.3115234375
 40
0.3120117188
 40
0.3122558594
 40
0.3123779297
 40
0.3125
 40
0.3126220703
 40
0.3127441406
 40
0.3129882812
 40
0.3134765625
 40
0.3139648438
 40
0.314453125
 40
0.3154296875
 40
0.31640625
 40
0.318359375
 40
0.3203125
 40
0.322265625
 40
0.32421875
 40
0.328125
 40
0.33203125
 40
0.3359375
 40
0.34375
 40
0.3515625
 40
0.35546875
 40
0.359375
 40
0.36328125
 40
0.3671875
 40
0.369140625
 40
0.37109375
 40
0.3720703125
 40
0.373046875
 40
0.3740234375
 40
0.3745117188
 40
0.3747558594
 40
0.375
 40
0.3752441406
 40
0.3754882812
 40
0.3759765625
 40
0.376953125
 40
0.3779296875
 40
0.37890625
 40
0.380859375
 40
0.3828125
 40
0.38671875
 40
0.390625
 40
0.39453125
 40
0.3984375
 40
0.40625
 40
0.4140625
 40
0.41796875
 40
0.421875
 40
0.42578125
 40
0.4296875
 40
0.431640625
 40
0.43359375
 40
0.4345703125
 40
0.435546875
 40
0.4365234375
 40
0.4370117188
 40
0.4372558594
 40
0.4375
 40
0.4377441406
 40
0.4379882812
 40
0.4384765625
 40
0.439453125
 40
0.4404296875
 40
0.44140625
 40
0.443359375
 40
0.4453125
 40
0.44921875
 40
0.453125
 40
0.45703125
 40
0.4609375
 40
0.46875
 40
0.4765625
 40
0.48046875
 40
0.484375
 40
0.48828125
 40
0.490234375
 40
0.4921875
 40
0.494140625
 40
0.49609375
 40
0.4970703125
 40
0.498046875
 40
0.4985351562
 40
0.4990234375
 40
0.4995117188
 40
0.4997558594
 40
0.4998779297
 40
0.5
 40
0.5001220703
 40
0.5002441406
 40
0.5004882812
 40
0.5009765625
 40
0.5014648438
 40
0.501953125
 40
0.5029296875
 40
0.50390625
 40
0.505859375
 40
0.5078125
 40
0.509765625
 40
0.51171875
 40
0.515625
 40
0.51953125
 40
0.5234375
 40
0.53125
 40
0.5390625
 40
0.54296875
 40
0.546875
 40
0.55078125
 40
0.552734375
 40
0.5546875
 40
0.556640625
 40
0.55859375
 40
0.5595703125
 40
0.560546875
 40
0.5610351562
 40
0.5615234375
 40
0.5620117188
 40
0.5622558594
 40
0.5623779297
 40
0.5625
 40
0.5626220703
 40
0.5627441406
 40
0.5629882812
 40
0.5634765625
 40
0.5639648438
 40
0.564453125
 40
0.5654296875
 40
0.56640625
 40
0.568359375
 40
0.5703125
 40
0.572265625
 40
0.57421875
 40
0.578125
 40
0.58203125
 40
0.5859375
 40
0.59375
 40
0.6015625
 40
0.60546875
 40
0.609375
 40
0.61328125
 40
0.615234375
 40
0.6171875
 40
0.619140625
 40
0.6201171875
 40
0.62109375
 40
0.6220703125
 40
0.623046875
 40
0.6235351562
 40
0.6240234375
 40
0.6245117188
 40
0.6247558594
 40
0.6248779297
 40
0.625
 40
0.6251220703
 40
0.6252441406
 40
0.6254882812
 40
0.6259765625
 40
0.6264648438
 40
0.626953125
 40
0.6279296875
 40
0.62890625
 40
0.6298828125
 40
0.630859375
 40
0.6328125
 40
0.634765625
 40
0.63671875
 40
0.640625
 40
0.64453125
 40
0.6484375
 40
0.65625
 40
0.6640625
 40
0.66796875
 40
0.671875
 40
0.67578125
 40
0.677734375
 40
0.6796875
 40
0.681640625
 40
0.6826171875
 40
0.68359375
 40
0.6845703125
 40
0.685546875
 40
0.6860351562
 40
0.6865234375
 40
0.6867675781
 40
0.6870117188
 40
0.6872558594
 40
0.6873779297
 40
0.6874389648
 40
0.6875
 40
0.6875610352
 40
0.6876220703
 40
0.6877441406
 40
0.6879882812
 40
0.6882324219
 40
0.6884765625
 40
0.6889648438
 40
0.689453125
 40
0.6904296875
 40
0.69140625
 40
0.6923828125
 40
0.693359375
 40
0.6953125
 40
0.697265625
 40
0.69921875
 40
0.703125
 40
0.70703125
 40
0.7109375
 40
0.71875
 40
0.72265625
 40
0.7265625
 40
0.73046875
 40
0.734375
 40
0.73828125
 40
0.740234375
 40
0.7421875
 40
0.744140625
 40
0.7451171875
 40
0.74609375
 40
0.7470703125
 40
0.748046875
 40
0.7485351562
 40
0.7490234375
 40
0.7492675781
 40
0.7495117188
 40
0.7497558594
 40
0.7498779297
 40
0.7499389648
 40
0.75
 40
0.7500610352
 40
0.7501220703
 40
0.7502441406
 40
0.7504882812
 40
0.7507324219
 40
0.7509765625
 40
0.7514648438
 40
0.751953125
 40
0.7529296875
 40
0.75390625
 40
0.7548828125
 40
0.755859375
 40
0.7578125
 40
0.759765625
 40
0.76171875
 40
0.765625
 40
0.76953125
 40
0.7734375
 40
0.77734375
 40
0.78125
 40
0.78515625
 40
0.7890625
 40
0.79296875
 40
0.796875
 40
0.80078125
 40
0.802734375
 40
0.8046875
 40
0.806640625
 40
0.8076171875
 40
0.80859375
 40
0.8095703125
 40
0.810546875
 40
0.8110351562
 40
0.8115234375
 40
0.8117675781
 40
0.8120117188
 40
0.8122558594
 40
0.8123779297
 40
0.8124389648
 40
0.8125
 40
0.8125610352
 40
0.8126220703
 40
0.8127441406
 40
0.8129882812
 40
0.8132324219
 40
0.8134765625
 40
0.8139648438
 40
0.814453125
 40
0.8154296875
 40
0.81640625
 40
0.8173828125
 40
0.818359375
 40
0.8203125
 40
0.822265625
 40
0.82421875
 40
0.828125
 40
0.83203125
 40
0.8359375
 40
0.83984375
 40
0.84375
 40
0.84765625
 40
0.8515625
 40
0.85546875
 40
0.859375
 40
0.86328125
 40
0.865234375
 40
0.8671875
 40
0.869140625
 40
0.8701171875
 40
0.87109375
 40
0.8720703125
 40
0.873046875
 40
0.8735351562
 40
0.8740234375
 40
0.8742675781
 40
0.8745117188
 40
0.8747558594
 40
0.8748779297
 40
0.8749389648
 40
0.875
 40
0.8750610352
 40
0.8751220703
 40
0.8752441406
 40
0.8754882812
 40
0.8757324219
 40
0.8759765625
 40
0.8764648438
 40
0.876953125
 40
0.8779296875
 40
0.87890625
 40
0.8798828125
 40
0.880859375
 40
0.8828125
 40
0.884765625
 40
0.88671875
 40
0.890625
 40
0.89453125
 40
0.8984375
 40
0.90234375
 40
0.90625
 40
0.91015625
 40
0.9140625
 40
0.91796875
 40
0.921875
 40
0.92578125
 40
0.927734375
 40
0.9296875
 40
0.931640625
 40
0.9326171875
 40
0.93359375
 40
0.9345703125
 40
0.935546875
 40
0.9360351562
 40
0.9365234375
 40
0.9367675781
 40
0.9370117188
 40
0.9372558594
 40
0.9373779297
 40
0.9374389648
 40
0.9375
 40
0.9375610352
 40
0.9376220703
 40
0.9377441406
 40
0.9379882812
 40
0.9382324219
 40
0.9384765625
 40
0.9389648438
 40
0.939453125
 40
0.9404296875
 40
0.94140625
 40
0.9423828125
 40
0.943359375
 40
0.9453125
 40
0.947265625
 40
0.94921875
 40
0.953125
 40
0.95703125
 40
0.9609375
 40
0.96484375
 40
0.96875
 40
0.9765625
 40
0.984375
 40
0.9921875
 40
1.0
 40
1.0
 40
1.0
 40
1.0
 10
11.7222461969
 20
7.602825997
 30
0.0
 10
11.722665964
 20
7.6033850667
 30
0.0
 10
11.7235054982
 20
7.6045032062
 30
0.0
 10
11.7247647994
 20
7.6061804153
 30
0.0
 10
11.7260241007
 20
7.6078576245
 30
0.0
 10
11.7270735184
 20
7.6092552988
 30
0.0
 10
11.7279130525
 20
7.6103734382
 30
0.0
 10
11.7285427032
 20
7.6112120428
 30
0.0
 10
11.7291723538
 20
7.6120506474
 30
0.0
 10
11.7298020044
 20
7.612889252
 30
0.0
 10
11.7303267133
 20
7.6135880891
 30
0.0
 10
11.7307464803
 20
7.6141471589
 30
0.0
 10
11.7310613056
 20
7.6145664612
 30
0.0
 10
11.7313236601
 20
7.6149158797
 30
0.0
 10
11.7315335436
 20
7.6151954146
 30
0.0
 10
11.7316909563
 20
7.6154050655
 30
0.0
 10
11.7318483689
 20
7.6156147176
 30
0.0
 10
11.7319795462
 20
7.6157894241
 30
0.0
 10
11.7320844877
 20
7.6159291971
 30
0.0
 10
11.7321500771
 20
7.6160165376
 30
0.0
 10
11.7322025464
 20
7.6160864503
 30
0.0
 10
11.7322419045
 20
7.6161387746
 30
0.0
 10
11.7322746833
 20
7.6161827287
 30
0.0
 10
11.7322976669
 20
7.6162128088
 30
0.0
 10
11.7323107404
 20
7.6162310713
 30
0.0
 10
11.7323207147
 20
7.6162417429
 30
0.0
 10
11.7323300422
 20
7.6162639789
 30
0.0
 10
11.7323427046
 20
7.6162895931
 30
0.0
 10
11.7323647586
 20
7.6163362974
 30
0.0
 10
11.7323963192
 20
7.6164020352
 30
0.0
 10
11.7324341685
 20
7.6164813412
 30
0.0
 10
11.7324846424
 20
7.6165869355
 30
0.0
 10
11.732547732
 20
7.6167189788
 30
0.0
 10
11.7326486769
 20
7.6169302199
 30
0.0
 10
11.7327748574
 20
7.6171942809
 30
0.0
 10
11.7329262743
 20
7.61751115
 30
0.0
 10
11.7330776912
 20
7.6178280202
 30
0.0
 10
11.7332795803
 20
7.6182505134
 30
0.0
 10
11.7335319417
 20
7.6187786301
 30
0.0
 10
11.7338347755
 20
7.61941237
 30
0.0
 10
11.7342385537
 20
7.6202573566
 30
0.0
 10
11.7347432766
 20
7.6213135899
 30
0.0
 10
11.735348944
 20
7.6225810697
 30
0.0
 10
11.7359546114
 20
7.6238485496
 30
0.0
 10
11.7365602789
 20
7.6251160295
 30
0.0
 10
11.7373678354
 20
7.6268060027
 30
0.0
 10
11.738175392
 20
7.6284959759
 30
0.0
 10
11.7389829486
 20
7.6301859491
 30
0.0
 10
11.739588616
 20
7.631453429
 30
0.0
 10
11.7400933388
 20
7.6325096622
 30
0.0
 10
11.7404971171
 20
7.6333546488
 30
0.0
 10
11.7407999508
 20
7.6339883887
 30
0.0
 10
11.7410523123
 20
7.6345165053
 30
0.0
 10
11.7412542014
 20
7.6349389987
 30
0.0
 10
11.7414056183
 20
7.6352558685
 30
0.0
 10
11.741557035
 20
7.6355727392
 30
0.0
 10
11.7416832161
 20
7.6358367951
 30
0.0
 10
11.74178416
 20
7.6360480467
 30
0.0
 10
11.7418472519
 20
7.6361800633
 30
0.0
 10
11.741897721
 20
7.6362857123
 30
0.0
 10
11.7419355849
 20
7.6363648513
 30
0.0
 10
11.7419670998
 20
7.6364311115
 30
0.0
 10
11.7419892356
 20
7.6364768833
 30
0.0
 10
11.7420017668
 20
7.6365039916
 30
0.0
 10
11.7420114971
 20
7.6365216381
 30
0.0
 10
11.7420199587
 20
7.6365495472
 30
0.0
 10
11.7420316834
 20
7.6365831796
 30
0.0
 10
11.7420519953
 20
7.6366437042
 30
0.0
 10
11.7420811202
 20
7.636729296
 30
0.0
 10
11.7421160239
 20
7.6368323793
 30
0.0
 10
11.7421625783
 20
7.6369696934
 30
0.0
 10
11.7422207658
 20
7.6371413806
 30
0.0
 10
11.7423138688
 20
7.6374160552
 30
0.0
 10
11.7424302465
 20
7.6377594071
 30
0.0
 10
11.7425699003
 20
7.6381714256
 30
0.0
 10
11.7427095539
 20
7.6385834452
 30
0.0
 10
11.7428957587
 20
7.6391328042
 30
0.0
 10
11.7431285148
 20
7.6398195031
 30
0.0
 10
11.743407822
 20
7.6406435417
 30
0.0
 10
11.7437802317
 20
7.6417422599
 30
0.0
 10
11.7442457439
 20
7.6431156576
 30
0.0
 10
11.7448043584
 20
7.6447637349
 30
0.0
 10
11.745362973
 20
7.6464118122
 30
0.0
 10
11.7459215875
 20
7.6480598895
 30
0.0
 10
11.7466664069
 20
7.6502573258
 30
0.0
 10
11.7474112263
 20
7.6524547622
 30
0.0
 10
11.7481560457
 20
7.6546521986
 30
0.0
 10
11.7487146602
 20
7.6563002759
 30
0.0
 10
11.7491801723
 20
7.6576736736
 30
0.0
 10
11.749552582
 20
7.6587723918
 30
0.0
 10
11.7498318893
 20
7.6595964304
 30
0.0
 10
11.7500646454
 20
7.6602831293
 30
0.0
 10
11.7502508502
 20
7.6608324884
 30
0.0
 10
11.7503905039
 20
7.6612445075
 30
0.0
 10
11.7505301574
 20
7.6616565276
 30
0.0
 10
11.7506465358
 20
7.6619998748
 30
0.0
 10
11.7507396374
 20
7.6622745589
 30
0.0
 10
11.7507978284
 20
7.6624462219
 30
0.0
 10
11.7508443756
 20
7.6625835857
 30
0.0
 10
11.7508793014
 20
7.6626865172
 30
0.0
 10
11.750908357
 20
7.6627725839
 30
0.0
 10
11.7509287927
 20
7.6628322607
 30
0.0
 10
11.7509403191
 20
7.6628672516
 30
0.0
 10
11.7509493895
 20
7.6628909879
 30
0.0
 10
11.7509568334
 20
7.6629243067
 30
0.0
 10
11.750967326
 20
7.6629653893
 30
0.0
 10
11.7509854237
 20
7.6630388412
 30
0.0
 10
11.7510114157
 20
7.6631429583
 30
0.0
 10
11.751042547
 20
7.6632682474
 30
0.0
 10
11.751084076
 20
7.6634351777
 30
0.0
 10
11.7511359802
 20
7.6636438823
 30
0.0
 10
11.7512190309
 20
7.6639777863
 30
0.0
 10
11.751322843
 20
7.6643951743
 30
0.0
 10
11.751447418
 20
7.6648960365
 30
0.0
 10
11.7515719928
 20
7.6653968996
 30
0.0
 10
11.7517380927
 20
7.6660647167
 30
0.0
 10
11.7519457175
 20
7.6668994882
 30
0.0
 10
11.7521948673
 20
7.6679012141
 30
0.0
 10
11.752527067
 20
7.6692368485
 30
0.0
 10
11.7529423166
 20
7.6709063915
 30
0.0
 10
11.7534406162
 20
7.6729098431
 30
0.0
 10
11.7539389157
 20
7.6749132948
 30
0.0
 10
11.7544372153
 20
7.6769167464
 30
0.0
 10
11.7551016147
 20
7.6795880152
 30
0.0
 10
11.7557660141
 20
7.6822592841
 30
0.0
 10
11.7564304135
 20
7.6849305529
 30
0.0
 10
11.7569287131
 20
7.6869340045
 30
0.0
 10
11.7573439627
 20
7.6886035475
 30
0.0
 10
11.7576761624
 20
7.689939182
 30
0.0
 10
11.7579253123
 20
7.6909409076
 30
0.0
 10
11.7581744617
 20
7.6919426343
 30
0.0
 10
11.7583820877
 20
7.6927774031
 30
0.0
 10
11.7585481851
 20
7.6934452258
 30
0.0
 10
11.7586520038
 20
7.6938625978
 30
0.0
 10
11.7587350407
 20
7.6941965346
 30
0.0
 10
11.758797368
 20
7.6944468798
 30
0.0
 10
11.7588491494
 20
7.6946558424
 30
0.0
 10
11.7588857066
 20
7.6948014459
 30
0.0
 10
11.758906112
 20
7.6948856946
 30
0.0
 10
11.7589227807
 20
7.6949459326
 30
0.0
 10
11.7589342331
 20
7.6950174412
 30
0.0
 10
11.7589513225
 20
7.6951088546
 30
0.0
 10
11.7589803811
 20
7.6952706598
 30
0.0
 10
11.7590223367
 20
7.6955008524
 30
0.0
 10
11.7590724937
 20
7.6957774934
 30
0.0
 10
11.7591394359
 20
7.696146205
 30
0.0
 10
11.759223091
 20
7.6966071434
 30
0.0
 10
11.7593569518
 20
7.6973446175
 30
0.0
 10
11.7595242735
 20
7.6982664696
 30
0.0
 10
11.7597250614
 20
7.699372688
 30
0.0
 10
11.7599258488
 20
7.7004789076
 30
0.0
 10
11.7601935656
 20
7.7019538665
 30
0.0
 10
11.7605282114
 20
7.7037975654
 30
0.0
 10
11.7609297864
 20
7.706010004
 30
0.0
 10
11.7614652198
 20
7.7089599221
 30
0.0
 10
11.7621345115
 20
7.7126473197
 30
0.0
 10
11.7628038032
 20
7.7163347173
 30
0.0
 10
11.7633392365
 20
7.7192846354
 30
0.0
 10
11.7637408115
 20
7.721497074
 30
0.0
 10
11.7640754574
 20
7.7233407728
 30
0.0
 10
11.7643431741
 20
7.7248157319
 30
0.0
 10
11.7645439617
 20
7.725921951
 30
0.0
 10
11.7647447488
 20
7.727028171
 30
0.0
 10
11.764912073
 20
7.7279500184
 30
0.0
 10
11.7650459287
 20
7.728687502
 30
0.0
 10
11.7651295969
 20
7.7291484163
 30
0.0
 10
11.7651965122
 20
7.7295171773
 30
0.0
 10
11.7652467514
 20
7.7297936673
 30
0.0
 10
11.7652884497
 20
7.7300243326
 30
0.0
 10
11.7653179676
 20
7.7301852939
 30
0.0
 10
11.7653343211
 20
7.7302780594
 30
0.0
 10
11.7653480339
 20
7.730345415
 30
0.0
 10
11.7653562131
 20
7.7304212505
 30
0.0
 10
11.7653690489
 20
7.7305194067
 30
0.0
 10
11.7653906123
 20
7.7306925581
 30
0.0
 10
11.7654218873
 20
7.7309391968
 30
0.0
 10
11.7654592161
 20
7.7312354715
 30
0.0
 10
11.7655090581
 20
7.7316303968
 30
0.0
 10
11.7655713365
 20
7.7321240904
 30
0.0
 10
11.7656709954
 20
7.7329139794
 30
0.0
 10
11.7657955644
 20
7.7339013478
 30
0.0
 10
11.7659450492
 20
7.7350861867
 30
0.0
 10
11.7660945335
 20
7.7362710266
 30
0.0
 10
11.766293846
 20
7.7378508127
 30
0.0
 10
11.7665429866
 20
7.7398255454
 30
0.0
 10
11.7668419553
 20
7.7421952247
 30
0.0
 10
11.7672405803
 20
7.7453547971
 30
0.0
 10
11.7677388615
 20
7.7493042625
 30
0.0
 10
11.7682371428
 20
7.753253728
 30
0.0
 10
11.7686357677
 20
7.7564133004
 30
0.0
 10
11.7689347367
 20
7.7587829795
 30
0.0
 10
11.7692337045
 20
7.7611526593
 30
0.0
 10
11.769482848
 20
7.7631273903
 30
0.0
 10
11.7696821546
 20
7.76470718
 30
0.0
 10
11.7698067399
 20
7.7656945375
 30
0.0
 10
11.7699063654
 20
7.7664844487
 30
0.0
 10
11.7699812016
 20
7.7670768133
 30
0.0
 10
11.7700431925
 20
7.7675706694
 30
0.0
 10
11.7700873174
 20
7.7679159389
 30
0.0
 10
11.7701113898
 20
7.7681139067
 30
0.0
 10
11.7701326607
 20
7.7682604926
 30
0.0
 10
11.7701416363
 20
7.7684143029
 30
0.0
 10
11.7701578925
 20
7.7686168633
 30
0.0
 10
11.7701843427
 20
7.7689725182
 30
0.0
 10
11.7702231734
 20
7.7694799827
 30
0.0
 10
11.7702693231
 20
7.7700892029
 30
0.0
 10
11.7703310121
 20
7.7709014047
 30
0.0
 10
11.77040807
 20
7.7719166883
 30
0.0
 10
11.7705313924
 20
7.7735411246
 30
0.0
 10
11.7706855353
 20
7.775571676
 30
0.0
 10
11.770870511
 20
7.7780083351
 30
0.0
 10
11.7710554856
 20
7.7804449948
 30
0.0
 10
11.7713021188
 20
7.7836938743
 30
0.0
 10
11.7716104101
 20
7.7877549736
 30
0.0
 10
11.7719187016
 20
7.791816073
 30
0.0
 10
11.7721653346
 20
7.7950649525
 30
0.0
 10
11.7723503097
 20
7.7975016121
 30
0.0
 10
11.7725352836
 20
7.7999382718
 30
0.0
 10
11.7726894323
 20
7.8019688211
 30
0.0
 10
11.7728127426
 20
7.8035932617
 30
0.0
 10
11.7728898314
 20
7.8046085344
 30
0.0
 10
11.772951457
 20
7.8054207587
 30
0.0
 10
11.7729978006
 20
7.80602991
 30
0.0
 10
11.7730360246
 20
7.8065375898
 30
0.0
 10
11.7730635578
 20
7.8068928604
 30
0.0
 10
11.7730780788
 20
7.8070960366
 30
0.0
 10
11.7730923844
 20
7.8072479554
 30
0.0
 10
11.7730936369
 20
7.8074016452
 30
0.0
 10
11.77309986
 20
7.8076059471
 30
0.0
 10
11.7731086291
 20
7.8079637633
 30
0.0
 10
11.7731222655
 20
7.8084747789
 30
0.0
 10
11.7731381544
 20
7.809088062
 30
0.0
 10
11.7731595055
 20
7.8099057502
 30
0.0
 10
11.7731861375
 20
7.8109278683
 30
0.0
 10
11.7732287804
 20
7.8125632528
 30
0.0
 10
11.7732820732
 20
7.814607485
 30
0.0
 10
11.7733460293
 20
7.817060563
 30
0.0
 10
11.773409984
 20
7.8195136411
 30
0.0
 10
11.7734952575
 20
7.8227844119
 30
0.0
 10
11.7736018492
 20
7.8268728754
 30
0.0
 10
11.773708441
 20
7.8309613389
 30
0.0
 10
11.7737937144
 20
7.8342321097
 30
0.0
 10
11.7738576694
 20
7.8366851878
 30
0.0
 10
11.7739109653
 20
7.8387294196
 30
0.0
 10
11.773953602
 20
7.840364805
 30
0.0
 10
11.7739855796
 20
7.8415913442
 30
0.0
 10
11.7740175566
 20
7.8428178826
 30
0.0
 10
11.7740442062
 20
7.8438400005
 30
0.0
 10
11.7740655213
 20
7.844657689
 30
0.0
 10
11.7740788535
 20
7.8451687577
 30
0.0
 10
11.7740894957
 20
7.845577582
 30
0.0
 10
11.7740975419
 20
7.845884284
 30
0.0
 10
11.7741040417
 20
7.8461396028
 30
0.0
 10
11.7741089947
 20
7.8463188482
 30
0.0
 10
11.7741111955
 20
7.8464204587
 30
0.0
 10
11.7741146194
 20
7.8464989637
 30
0.0
 10
11.7741112648
 20
7.8465686879
 30
0.0
 10
11.7741091564
 20
7.8466647163
 30
0.0
 10
11.7741043651
 20
7.846831339
 30
0.0
 10
11.7740980963
 20
7.8470701175
 30
0.0
 10
11.7740903272
 20
7.8473563323
 30
0.0
 10
11.7740800545
 20
7.8477380637
 30
0.0
 10
11.7740671842
 20
7.8482151896
 30
0.0
 10
11.7740466082
 20
7.8489786125
 30
0.0
 10
11.7740208825
 20
7.8499328838
 30
0.0
 10
11.7739900142
 20
7.8510780125
 30
0.0
 10
11.7739591451
 20
7.8522231404
 30
0.0
 10
11.7739179867
 20
7.8537499778
 30
0.0
 10
11.7738665385
 20
7.8556585245
 30
0.0
 10
11.7738048007
 20
7.8579487806
 30
0.0
 10
11.7737224837
 20
7.8610024553
 30
0.0
 10
11.7736195874
 20
7.8648195488
 30
0.0
 10
11.773516691
 20
7.8686366422
 30
0.0
 10
11.773434374
 20
7.871690317
 30
0.0
 10
11.7733726362
 20
7.873980573
 30
0.0
 10
11.7733211881
 20
7.8758891198
 30
0.0
 10
11.7732800295
 20
7.8774159571
 30
0.0
 10
11.7732491608
 20
7.8785610854
 30
0.0
 10
11.7732182914
 20
7.8797062125
 30
0.0
 10
11.7731925688
 20
7.8806604885
 30
0.0
 10
11.7731719864
 20
7.8814239019
 30
0.0
 10
11.7731591324
 20
7.8819010521
 30
0.0
 10
11.7731488264
 20
7.8822827336
 30
0.0
 10
11.7731411591
 20
7.8825691008
 30
0.0
 10
11.7731345718
 20
7.8828074026
 30
0.0
 10
11.7731303491
 20
7.8829748762
 30
0.0
 10
11.7731273296
 20
7.8830695412
 30
0.0
 10
11.7731267738
 20
7.8831434534
 30
0.0
 10
11.7731196858
 20
7.883206229
 30
0.0
 10
11.7731125138
 20
7.8832938144
 30
0.0
 10
11.773098901
 20
7.8834452789
 30
0.0
 10
11.7730800092
 20
7.883662603
 30
0.0
 10
11.7730571016
 20
7.8839229869
 30
0.0
 10
11.7730266409
 20
7.8842703069
 30
0.0
 10
11.7729885368
 20
7.8847044084
 30
0.0
 10
11.772927586
 20
7.885398998
 30
0.0
 10
11.772851392
 20
7.8862672257
 30
0.0
 10
11.7727599616
 20
7.8873091028
 30
0.0
 10
11.7726685306
 20
7.888350979
 30
0.0
 10
11.7725466228
 20
7.8897401475
 30
0.0
 10
11.772394238
 20
7.891476608
 30
0.0
 10
11.7722113762
 20
7.8935603607
 30
0.0
 10
11.7719675605
 20
7.8963386976
 30
0.0
 10
11.7716627909
 20
7.8998116187
 30
0.0
 10
11.7713580212
 20
7.9032845399
 30
0.0
 10
11.7711142055
 20
7.9060628768
 30
0.0
 10
11.7709313438
 20
7.9081466295
 30
0.0
 10
11.770778959
 20
7.90988309
 30
0.0
 10
11.7706570511
 20
7.9112722585
 30
0.0
 10
11.7705656202
 20
7.9123141347
 30
0.0
 10
11.7704894279
 20
7.9131823653
 30
0.0
 10
11.7704284737
 20
7.913876949
 30
0.0
 10
11.770382759
 20
7.9143978888
 30
0.0
 10
11.7703370411
 20
7.9149188209
 30
0.0
 10
11.7702989524
 20
7.9153529549
 30
0.0
 10
11.7702684601
 20
7.9157002084
 30
0.0
 10
11.7702456494
 20
7.9159607954
 30
0.0
 10
11.770226454
 20
7.916177484
 30
0.0
 10
11.7702133833
 20
7.916330083
 30
0.0
 10
11.7702053427
 20
7.9164158507
 30
0.0
 10
11.7702009227
 20
7.9164842096
 30
0.0
 10
11.7701903463
 20
7.9165371517
 30
0.0
 10
11.7701783919
 20
7.9166131187
 30
0.0
 10
11.7701564711
 20
7.9167435554
 30
0.0
 10
11.7701256788
 20
7.9169312036
 30
0.0
 10
11.7700885042
 20
7.9171558206
 30
0.0
 10
11.7700390161
 20
7.9174555059
 30
0.0
 10
11.7699771293
 20
7.9178300452
 30
0.0
 10
11.7699028766
 20
7.9182795212
 30
0.0
 10
11.7698286208
 20
7.9187289896
 30
0.0
 10
11.7697296141
 20
7.9193282834
 30
0.0
 10
11.7696058554
 20
7.9200773997
 30
0.0
 10
11.7694573451
 20
7.9209763397
 30
0.0
 10
11.7692593314
 20
7.9221749262
 30
0.0
 10
11.7690118142
 20
7.9236731594
 30
0.0
 10
11.7687147936
 20
7.9254710392
 30
0.0
 10
11.7683187661
 20
7.9278682122
 30
0.0
 10
11.7678237317
 20
7.9308646786
 30
0.0
 10
11.7673286973
 20
7.9338611449
 30
0.0
 10
11.7669326698
 20
7.9362583179
 30
0.0
 10
11.7666356492
 20
7.9380561977
 30
0.0
 10
11.766388132
 20
7.9395544309
 30
0.0
 10
11.7661901183
 20
7.9407530174
 30
0.0
 10
11.766041608
 20
7.9416519573
 30
0.0
 10
11.7659178494
 20
7.9424010739
 30
0.0
 10
11.7658188425
 20
7.9430003672
 30
0.0
 10
11.7657445874
 20
7.9434498373
 30
0.0
 10
11.765670332
 20
7.9438993066
 30
0.0
 10
11.7656084534
 20
7.944273867
 30
0.0
 10
11.7655589485
 20
7.9445735093
 30
0.0
 10
11.7655280125
 20
7.9447607994
 30
0.0
 10
11.7655032533
 20
7.9449106003
 30
0.0
 10
11.7654847124
 20
7.9450230363
 30
0.0
 10
11.7654691711
 20
7.9451164615
 30
0.0
 10
11.7654584699
 20
7.9451823918
 30
0.0
 10
11.7654520774
 20
7.9452192346
 30
0.0
 10
11.7654480648
 20
7.9452492097
 30
0.0
 10
11.7654410637
 20
7.9452702284
 30
0.0
 10
11.7654327713
 20
7.9453013774
 30
0.0
 10
11.765417774
 20
7.9453544326
 30
0.0
 10
11.7653966031
 20
7.9454309868
 30
0.0
 10
11.7653710894
 20
7.9455225261
 30
0.0
 10
11.7653371091
 20
7.9456446922
 30
0.0
 10
11.7652946208
 20
7.945797361
 30
0.0
 10
11.7652266466
 20
7.9460416527
 30
0.0
 10
11.7651416764
 20
7.9463470099
 30
0.0
 10
11.7650397133
 20
7.9467134418
 30
0.0
 10
11.7649377499
 20
7.9470798728
 30
0.0
 10
11.7648017987
 20
7.9475684477
 30
0.0
 10
11.7646318598
 20
7.9481791663
 30
0.0
 10
11.7644279331
 20
7.9489120287
 30
0.0
 10
11.7641560307
 20
7.9498891785
 30
0.0
 10
11.7638161529
 20
7.9511106157
 30
0.0
 10
11.7634082994
 20
7.9525763404
 30
0.0
 10
11.7628644948
 20
7.95453064
 30
0.0
 10
11.7623206902
 20
7.9564849396
 30
0.0
 10
11.7617768856
 20
7.9584392392
 30
0.0
 10
11.7613690321
 20
7.9599049639
 30
0.0
 10
11.7609611786
 20
7.9613706886
 30
0.0
 10
11.7605533252
 20
7.9628364133
 30
0.0
 10
11.7602134473
 20
7.9640578505
 30
0.0
 10
11.759941545
 20
7.9650350003
 30
0.0
 10
11.7597376182
 20
7.9657678627
 30
0.0
 10
11.7595676793
 20
7.9663785813
 30
0.0
 10
11.7594317281
 20
7.9668671562
 30
0.0
 10
11.7593297648
 20
7.9672335876
 30
0.0
 10
11.7592278013
 20
7.9676000178
 30
0.0
 10
11.7591428323
 20
7.9679053799
 30
0.0
 10
11.7590748557
 20
7.9681496617
 30
0.0
 10
11.7590323736
 20
7.9683023558
 30
0.0
 10
11.7589983804
 20
7.9684244699
 30
0.0
 10
11.7589729062
 20
7.9685161683
 30
0.0
 10
11.7589516116
 20
7.9685922246
 30
0.0
 10
11.7589368353
 20
7.9686461686
 30
0.0
 10
11.7589281888
 20
7.9686758937
 30
0.0
 10
11.7589222755
 20
7.9687012861
 30
0.0
 10
11.7589141772
 20
7.9687148343
 30
0.0
 10
11.7589041417
 20
7.9687370299
 30
0.0
 10
11.7588862244
 20
7.9687739474
 30
0.0
 10
11.7588608139
 20
7.9688276929
 30
0.0
 10
11.7588302418
 20
7.9688917569
 30
0.0
 10
11.7587895068
 20
7.9689773259
 30
0.0
 10
11.7587385786
 20
7.9690842357
 30
0.0
 10
11.7586570988
 20
7.9692553201
 30
0.0
 10
11.7585552471
 20
7.9694691658
 30
0.0
 10
11.7584330259
 20
7.9697257849
 30
0.0
 10
11.7583108045
 20
7.9699824028
 30
0.0
 10
11.7581478427
 20
7.9703245604
 30
0.0
 10
11.7579441405
 20
7.9707522573
 30
0.0
 10
11.7576996977
 20
7.9712654936
 30
0.0
 10
11.7573737741
 20
7.9719498087
 30
0.0
 10
11.7569663696
 20
7.9728052025
 30
0.0
 10
11.7564774842
 20
7.9738316751
 30
0.0
 10
11.7559885987
 20
7.9748581477
 30
0.0
 10
11.7554997133
 20
7.9758846203
 30
0.0
 10
11.7550108279
 20
7.9769110929
 30
0.0
 10
11.7545219425
 20
7.9779375656
 30
0.0
 10
11.754033057
 20
7.9789640382
 30
0.0
 10
11.7535441716
 20
7.9799905108
 30
0.0
 10
11.7530552862
 20
7.9810169834
 30
0.0
 10
11.7526478816
 20
7.9818723772
 30
0.0
 10
11.752321958
 20
7.9825566923
 30
0.0
 10
11.7520775153
 20
7.9830699286
 30
0.0
 10
11.751873813
 20
7.9834976256
 30
0.0
 10
11.7517108512
 20
7.983839783
 30
0.0
 10
11.7515886299
 20
7.9840964014
 30
0.0
 10
11.7514664084
 20
7.9843530186
 30
0.0
 10
11.7513645577
 20
7.98456687
 30
0.0
 10
11.7512830759
 20
7.9847379429
 30
0.0
 10
11.7512321526
 20
7.9848448819
 30
0.0
 10
11.7511914075
 20
7.984930391
 30
0.0
 10
11.7511608664
 20
7.9849946382
 30
0.0
 10
11.7511353592
 20
7.9850478104
 30
0.0
 10
11.7511176144
 20
7.9850857514
 30
0.0
 10
11.7511073025
 20
7.985106307
 30
0.0
 10
11.7511000531
 20
7.9851248929
 30
0.0
 10
11.7510909516
 20
7.9851313642
 30
0.0
 10
11.7510794622
 20
7.9851442184
 30
0.0
 10
11.7510590549
 20
7.9851647442
 30
0.0
 10
11.7510300589
 20
7.9851950963
 30
0.0
 10
11.7509951963
 20
7.9852310781
 30
0.0
 10
11.7509487364
 20
7.9852792078
 30
0.0
 10
11.7508906535
 20
7.9853393172
 30
0.0
 10
11.7507977253
 20
7.9854355216
 30
0.0
 10
11.7506815636
 20
7.9855557671
 30
0.0
 10
11.7505421701
 20
7.985700066
 30
0.0
 10
11.7504027765
 20
7.9858443638
 30
0.0
 10
11.7502169184
 20
7.9860367612
 30
0.0
 10
11.7499845958
 20
7.9862772579
 30
0.0
 10
11.7497058086
 20
7.9865658539
 30
0.0
 10
11.7493340924
 20
7.9869506486
 30
0.0
 10
11.7488694471
 20
7.9874316419
 30
0.0
 10
11.7483118727
 20
7.988008834
 30
0.0
 10
11.7477542984
 20
7.988586026
 30
0.0
 10
11.747196724
 20
7.989163218
 30
0.0
 10
11.7466391497
 20
7.98974041
 30
0.0
 10
11.7460815753
 20
7.9903176021
 30
0.0
 10
11.745524001
 20
7.9908947941
 30
0.0
 10
11.7449664266
 20
7.9914719861
 30
0.0
 10
11.7444088523
 20
7.9920491781
 30
0.0
 10
11.743944207
 20
7.9925301715
 30
0.0
 10
11.7435724908
 20
7.9929149662
 30
0.0
 10
11.7432937036
 20
7.9932035622
 30
0.0
 10
11.743061381
 20
7.9934440589
 30
0.0
 10
11.7428755228
 20
7.9936364561
 30
0.0
 10
11.7427361293
 20
7.9937807544
 30
0.0
 10
11.7425967356
 20
7.9939250515
 30
0.0
 10
11.7424805746
 20
7.9940453028
 30
0.0
 10
11.7423876449
 20
7.9941414954
 30
0.0
 10
11.7423295658
 20
7.994201635
 30
0.0
 10
11.7422830981
 20
7.9942497026
 30
0.0
 10
11.7422482595
 20
7.9942858743
 30
0.0
 10
11.7422191885
 20
7.9943156322
 30
0.0
 10
11.742198915
 20
7.9943372186
 30
0.0
 10
11.7421872112
 20
7.9943483735
 30
0.0
 10
11.7421787682
 20
7.9943600641
 30
0.0
 10
11.7421690456
 20
7.9943590473
 30
0.0
 10
11.7421565285
 20
7.9943621239
 30
0.0
 10
11.7421344156
 20
7.9943654429
 30
0.0
 10
11.7421029345
 20
7.9943712641
 30
0.0
 10
11.7420651106
 20
7.9943777873
 30
0.0
 10
11.742014695
 20
7.9943866463
 30
0.0
 10
11.74195167
 20
7.9943976648
 30
0.0
 10
11.741850833
 20
7.9944153253
 30
0.0
 10
11.7417247858
 20
7.9944373903
 30
0.0
 10
11.7415735295
 20
7.9944638728
 30
0.0
 10
11.7414222731
 20
7.9944903542
 30
0.0
 10
11.741220598
 20
7.994525663
 30
0.0
 10
11.7409685041
 20
7.994569799
 30
0.0
 10
11.7406659914
 20
7.9946227622
 30
0.0
 10
11.7402626411
 20
7.9946933798
 30
0.0
 10
11.7397584532
 20
7.9947816517
 30
0.0
 10
11.7391534278
 20
7.9948875781
 30
0.0
 10
11.7385484024
 20
7.9949935045
 30
0.0
 10
11.7379433769
 20
7.9950994309
 30
0.0
 10
11.7373383515
 20
7.9952053573
 30
0.0
 10
11.7367333261
 20
7.9953112836
 30
0.0
 10
11.7361283006
 20
7.99541721
 30
0.0
 10
11.7355232752
 20
7.9955231364
 30
0.0
 10
11.7349182498
 20
7.9956290628
 30
0.0
 10
11.7344140619
 20
7.9957173347
 30
0.0
 10
11.7340107116
 20
7.9957879523
 30
0.0
 10
11.7337081989
 20
7.9958409155
 30
0.0
 10
11.733456105
 20
7.9958850515
 30
0.0
 10
11.7332544299
 20
7.9959203602
 30
0.0
 10
11.7331031735
 20
7.9959468421
 30
0.0
 10
11.7329519171
 20
7.9959733227
 30
0.0
 10
11.7328258703
 20
7.9959953938
 30
0.0
 10
11.7327250323
 20
7.9960130419
 30
0.0
 10
11.73266201
 20
7.9960240919
 30
0.0
 10
11.7326115888
 20
7.9960328863
 30
0.0
 10
11.7325737821
 20
7.9960396069
 30
0.0
 10
11.7325422473
 20
7.9960448102
 30
0.0
 10
11.7325202302
 20
7.9960492322
 30
0.0
 10
11.7325075596
 20
7.9960505416
 30
0.0
 10
11.7324983086
 20
7.9960549531
 30
0.0
 10
11.7324880944
 20
7.9960462556
 30
0.0
 10
11.7324748114
 20
7.9960392315
 30
0.0
 10
11.7324514097
 20
7.9960248088
 30
0.0
 10
11.7324180605
 20
7.9960053189
 30
0.0
 10
11.7323780064
 20
7.9959814542
 30
0.0
 10
11.7323246132
 20
7.9959498011
 30
0.0
 10
11.7322578676
 20
7.9959101778
 30
0.0
 10
11.7321510768
 20
7.9958468123
 30
0.0
 10
11.7320175876
 20
7.9957675945
 30
0.0
 10
11.7318574009
 20
7.9956725378
 30
0.0
 10
11.731697214
 20
7.9955774799
 30
0.0
 10
11.7314836316
 20
7.9954507365
 30
0.0
 10
11.7312166536
 20
7.995292307
 30
0.0
 10
11.73089628
 20
7.9951021917
 30
0.0
 10
11.7304691152
 20
7.9948487046
 30
0.0
 10
11.7299351592
 20
7.9945318457
 30
0.0
 10
11.7292944119
 20
7.9941516151
 30
0.0
 10
11.7286536647
 20
7.9937713845
 30
0.0
 10
11.7280129175
 20
7.9933911538
 30
0.0
 10
11.7271585878
 20
7.9928841796
 30
0.0
 10
11.7260906758
 20
7.9922504619
 30
0.0
 10
11.7248091813
 20
7.9914900006
 30
0.0
 10
11.7235276869
 20
7.9907295394
 30
0.0
 10
11.7226733572
 20
7.9902225652
 30
0.0
 10
11.7222461924
 20
7.9899690781
 30
0.0
  0
ELLIPSE
  5
426
100
AcDbEntity
  8
0
100
AcDbEllipse
 62
7
  6
CONTINUOUS
 10
10.3723832154
 20
8.2149237468
 30
0.0
 11
0.1198361654
 21
-0.0537191407
 31
0.0
 40
0.9054325776
 41
0.0
 42
6.2831853072
  0
ENDSEC
  0
SECTION
  2
OBJECTS
  0
DICTIONARY
  5
C
100
AcDbDictionary
280
0
281
1
  3
ACAD_GROUP
350
D
  3
ACAD_MLINESTYLE
350
17
  3
ACAD_LAYOUT
350
1A
  3
ACAD_PLOTSETTINGS
350
19
  3
ACAD_PLOTSTYLENAME
350
E
  3
ACAD_IMAGE_DICT
350
       428
  3
ACAD_IMAGE_VARS
350
       429
  3
ACAD_TABLESTYLE
350
       42A
  0
IMAGEDEF_REACTOR
  5
427
100
AcDbRasterImageDefReactor
 90
2
330
271
  0
DICTIONARY
  5
D
102
{ACAD_REACTORS
330
C
102
}
100
AcDbDictionary
280
0
281
1
  0
ACDBDICTIONARYWDFLT
  5
E
102
{ACAD_REACTORS
330
C
102
}
100
AcDbDictionary
281
1
  3
Normal
350
F
100
AcDbDictionaryWithDefault
340
F
  0
DICTIONARY
  5
428
330
C
100
AcDbDictionary
281
1
  3
EB2_assy_2_img_1
350
       42D
  0
RASTERVARIABLES
  5
429
330
C
100
AcDbRasterVariables
 90
0
 70
0
 71
1
 72
5
  0
DICTIONARY
  5
17
102
{ACAD_REACTORS
330
C
102
}
100
AcDbDictionary
280
0
281
1
  3
Standard
350
18
  0
DICTIONARY
  5
42A
330
C
100
AcDbDictionary
281
1
  3
Standard
350
       42E
  3
Standard1
350
       42F
  0
DICTIONARY
  5
19
102
{ACAD_REACTORS
330
C
102
}
100
AcDbDictionary
281
1
  0
DICTIONARY
  5
1A
102
{ACAD_REACTORS
330
C
102
}
100
AcDbDictionary
281
1
  3
Model
350
42B
  3
Layout1
350
42C
  0
ACDBPLACEHOLDER
  5
F
102
{ACAD_REACTORS
330
E
102
}
  0
MLINESTYLE
  5
18
102
{ACAD_REACTORS
330
17
102
}
100
AcDbMlineStyle
  2
STANDARD
 70
0
  3

 62
256
 51
90.0
 52
90.0
 71
2
 49
0.5
 62
256
  6
BYLAYER
 49
-0.5
 62
256
  6
BYLAYER
  0
LAYOUT
  5
42B
102
{ACAD_REACTORS
330
1A
102
}
100
AcDbPlotSettings
  1

  2
none_device
  4
ANSI_C_(22.00_x_17.00_Inches)
  6

 40
0.0
 41
0.0
 42
0.0
 43
0.0
 44
558.8
 45
431.8
 46
0.0
 47
0.0
 48
0.0
 49
0.0
140
0.0
141
0.0
142
1.0
143
1.0
 70
1024
 72
0
 73
0
 74
0
  7

 75
0
147
1.0
148
0.0
149
0.0
100
AcDbLayout
  1
Model
 70
0
 71
0
 10
0.0
 20
0.0
 11
22.0
 21
17.0
 12
0.0
 22
0.0
 32
0.0
 14
0.0
 24
0.0
 34
0.0
 15
0.0
 25
0.0
 35
0.0
146
0.0
 13
0.0
 23
0.0
 33
0.0
 16
1.0
 26
0.0
 36
0.0
 17
0.0
 27
1.0
 37
0.0
 76
0
330
20E
345
0
346
0
  0
LAYOUT
  5
42C
102
{ACAD_REACTORS
330
1A
102
}
100
AcDbPlotSettings
  1

  2
none_device
  4
ANSI_C_(22.00_x_17.00_Inches)
  6

 40
0.0
 41
0.0
 42
0.0
 43
0.0
 44
558.8
 45
431.8
 46
0.0
 47
0.0
 48
0.0
 49
0.0
140
0.0
141
0.0
142
1.0
143
1.0
 70
0
 72
0
 73
0
 74
0
  7

 75
0
147
1.0
148
0.0
149
0.0
100
AcDbLayout
  1
Layout1
 70
0
 71
1
 10
0.0
 20
0.0
 11
22.0
 21
17.0
 12
0.0
 22
0.0
 32
0.0
 14
0.0
 24
0.0
 34
0.0
 15
0.0
 25
0.0
 35
0.0
146
0.0
 13
0.0
 23
0.0
 33
0.0
 16
1.0
 26
0.0
 36
0.0
 17
0.0
 27
1.0
 37
0.0
 76
0
330
20F
345
0
346
0
  0
IMAGEDEF
  5
42D
102
{ACAD_REACTORS
330
428
330
427
102
}
100
AcDbRasterImageDef
 90
0
  1
EB2_assy_2_img_1.png
 10
369.0
 20
92.0
 11
0.0066666667
 21
0.0066666667
280
1
281
0
  0
TABLESTYLE
  5
42E
102
{ACAD_REACTORS
330
42A
330
274
102
}
330
42A
100
AcDbTableStyle
  3
Standard
 70
0
 71
0
 40
0.06
 41
0.06
280
1
281
1
  7
Standard
140
0.18
170
1
 62
0
 63
7
283
0
  7
Standard
140
0.18
170
1
 62
0
 63
7
283
0
  7
Standard
140
0.18
170
1
 62
0
 63
7
283
0
  0
TABLESTYLE
  5
42F
102
{ACAD_REACTORS
330
42A
330
273
102
}
330
42A
100
AcDbTableStyle
  3
Standard1
 70
1
 71
0
 40
0.06
 41
0.06
280
1
281
1
  7
Standard
140
0.18
170
1
 62
0
 63
7
283
0
  7
Standard
140
0.18
170
1
 62
0
 63
7
283
0
  7
Standard
140
0.18
170
1
 62
0
 63
7
283
0
  0
ENDSEC
  0
EOF
