999
DXF file: E8U_assy_2.dxf
999
Pro/ENGINEER 2014200 by Parametric Technology Corporation
  0
SECTION
  2
HEADER
  9
$ACADVER
  1
AC1021
  9
$DWGCODEPAGE
  3
ANSI_1252
  9
$EXTMAX
 10
22.0
 20
17.0
 30
0.0
  9
$EXTMIN
 10
0.0
 20
0.0
 30
0.0
  9
$LIMMIN
 10
0.0
 20
0.0
  9
$LIMMAX
 10
22.0
 20
17.0
  9
$VIEWCTR
 10
11.0
 20
8.5
  9
$VIEWSIZE
 40
17.0
  9
$CLAYER
  8
0
  9
$LTSCALE
 40
1.21
  9
$CELTYPE
  6
BYLAYER
  9
$DIMSCALE
 40
1.0
  9
$DIMASZ
 40
0.1875
  9
$DIMEXO
 40
0.0625
  9
$DIMDLI
 40
0.836
  9
$DIMEXE
 40
0.125
  9
$DIMCEN
 40
0.198
  9
$DIMLFAC
 40
1.0
  9
$DIMBLK
  1
_FILLED
  9
$DIMTXT
 40
0.1
  9
$DIMTOL
 70
0
  9
$DIMLIM
 70
0
  9
$DIMTFAC
 40
1.0
  9
$DIMGAP
 40
0.09
  9
$DIMDSEP
 70
46
  9
$AUNITS
 70
0
  9
$PDMODE
 70
3
  9
$PDSIZE
 40
0.3125
  9
$HANDSEED
  5
3C1
  9
$TILEMODE
 70
1
  9
$MEASUREMENT
 70
0
  9
$INSUNITS
 70
1
  0
ENDSEC
  0
SECTION
  2
CLASSES
  0
CLASS
  1
ACDBDICTIONARYWDFLT
  2
AcDbDictionaryWithDefault
  3
AutoCAD 2000
 90
0
 91
1
280
0
281
0
  0
CLASS
  1
ACDBPLACEHOLDER
  2
AcDbPlaceHolder
  3
AutoCAD 2000
 90
0
 91
1
280
0
281
0
  0
CLASS
  1
LAYOUT
  2
AcDbLayout
  3
AutoCAD 2000
 90
0
 91
0
280
0
281
0
  0
CLASS
  1
RASTERVARIABLES
  2
AcDbRasterVariables
  3
ISM
 90
0
 91
1
280
0
281
0
  0
CLASS
  1
IMAGEDEF
  2
AcDbRasterImageDef
  3
ISM
 90
0
 91
1
280
0
281
0
  0
CLASS
  1
IMAGEDEF_REACTOR
  2
AcDbRasterImageDefReactor
  3
ISM
 90
0
 91
1
280
0
281
0
  0
CLASS
  1
IMAGE
  2
AcDbRasterImage
  3
ISM
 90
127
 91
1
280
0
281
1
  0
CLASS
  1
TABLESTYLE
  2
AcDbTableStyle
  3
ObjectDBX Classes
 90
2047
 91
1
280
0
281
0
  0
CLASS
  1
ACAD_TABLE
  2
AcDbTable
  3
ObjectDBX Classes
 90
1025
 91
3
280
0
281
1
  0
ENDSEC
  0
SECTION
  2
TABLES
  0
TABLE
  2
VPORT
  5
8
100
AcDbSymbolTable
 70
2
  0
VPORT
  5
1F4
100
AcDbSymbolTableRecord
100
AcDbViewportTableRecord
  2
*ACTIVE
 70
0
 10
0.0
 20
0.0
 11
1.0
 21
1.0
 12
11.0
 22
8.5
 13
0.0
 23
0.0
 14
1.0
 24
1.0
 15
0.0
 25
0.0
 16
0.0
 26
0.0
 36
1.0
 17
0.0
 27
0.0
 37
0.0
 40
17.0
 41
1.2941176471
 42
50.0
 43
0.0
 44
0.0
 50
0.0
 51
0.0
 71
0
 72
100
 73
1
 74
1
 75
0
 76
0
 77
0
 78
0
  0
ENDTAB
  0
TABLE
  2
LTYPE
  5
5
100
AcDbSymbolTable
 70
6
  0
LTYPE
  5
14
100
AcDbSymbolTableRecord
100
AcDbLinetypeTableRecord
  2
BYBLOCK
 70
0
  3

 72
65
 73
0
 40
0.0
  0
LTYPE
  5
15
100
AcDbSymbolTableRecord
100
AcDbLinetypeTableRecord
  2
BYLAYER
 70
0
  3

 72
65
 73
0
 40
0.0
  0
LTYPE
  5
16
100
AcDbSymbolTableRecord
100
AcDbLinetypeTableRecord
  2
CONTINUOUS
 70
64
  3
Solid line
 72
65
 73
0
 40
0.0
  0
LTYPE
  5
1F5
100
AcDbSymbolTableRecord
100
AcDbLinetypeTableRecord
  2
CENTER
 70
64
  3
____ _ ____ _ ____ _ ____ _ ____ _ ____ _ ____
 72
65
 73
4
 40
0.6
 49
0.375
 74
0
 49
-0.075
 74
0
 49
0.075
 74
0
 49
-0.075
 74
0
  0
LTYPE
  5
1F6
100
AcDbSymbolTableRecord
100
AcDbLinetypeTableRecord
  2
HIDDEN
 70
64
  3
- - - - - - - - - - - - - - - - - - - -
 72
65
 73
2
 40
0.2
 49
0.1
 74
0
 49
-0.1
 74
0
  0
LTYPE
  5
1F7
100
AcDbSymbolTableRecord
100
AcDbLinetypeTableRecord
  2
PHANTOM
 70
64
  3
_____ _ _ _____ _ _ _____ _ _ _____
 72
65
 73
6
 40
0.8
 49
0.45
 74
0
 49
-0.05
 74
0
 49
0.1
 74
0
 49
-0.05
 74
0
 49
0.1
 74
0
 49
-0.05
 74
0
  0
LTYPE
  5
1F8
100
AcDbSymbolTableRecord
100
AcDbLinetypeTableRecord
  2
DOT
 70
64
  3
. . . . . . . . . . . . . . . . . . . .
 72
65
 73
2
 40
0.2
 49
0.1
 74
0
 49
-0.1
 74
0
  0
LTYPE
  5
1F9
100
AcDbSymbolTableRecord
100
AcDbLinetypeTableRecord
  2
DASHED
 70
64
  3
- - - - - - - - - - - - - - - - - - - -
 72
65
 73
2
 40
0.2
 49
0.1
 74
0
 49
-0.1
 74
0
  0
ENDTAB
  0
TABLE
  2
LAYER
  5
2
100
AcDbSymbolTable
 70
36
  0
LAYER
  5
10
100
AcDbSymbolTableRecord
100
AcDbLayerTableRecord
  2
0
 70
0
 62
7
  6
CONTINUOUS
370
-3
390
F
  0
LAYER
  5
1FA
100
AcDbSymbolTableRecord
100
AcDbLayerTableRecord
  2
DEFAULT_1
 70
0
 62
7
  6
CENTER
370
-3
390
F
  0
LAYER
  5
1FB
100
AcDbSymbolTableRecord
100
AcDbLayerTableRecord
  2
DEFAULT_2
 70
0
 62
8
  6
HIDDEN
370
-3
390
F
  0
LAYER
  5
1FC
100
AcDbSymbolTableRecord
100
AcDbLayerTableRecord
  2
DEFAULT_3
 70
0
 62
7
  6
PHANTOM
370
-3
390
F
  0
LAYER
  5
1FD
100
AcDbSymbolTableRecord
100
AcDbLayerTableRecord
  2
01___PRT_ALL_DTM_PLN
 70
0
 62
7
  6
CONTINUOUS
370
-3
390
F
  0
LAYER
  5
1FE
100
AcDbSymbolTableRecord
100
AcDbLayerTableRecord
  2
01___PRT_DEF_DTM_PLN
 70
0
 62
7
  6
CONTINUOUS
370
-3
390
F
  0
LAYER
  5
1FF
100
AcDbSymbolTableRecord
100
AcDbLayerTableRecord
  2
02___PRT_ALL_AXES
 70
0
 62
7
  6
CONTINUOUS
370
-3
390
F
  0
LAYER
  5
200
100
AcDbSymbolTableRecord
100
AcDbLayerTableRecord
  2
03___PRT_ALL_CURVES
 70
0
 62
7
  6
CONTINUOUS
370
-3
390
F
  0
LAYER
  5
201
100
AcDbSymbolTableRecord
100
AcDbLayerTableRecord
  2
04___PRT_ALL_DTM_PNT
 70
0
 62
7
  6
CONTINUOUS
370
-3
390
F
  0
LAYER
  5
202
100
AcDbSymbolTableRecord
100
AcDbLayerTableRecord
  2
05___PRT_ALL_DTM_CSYS
 70
0
 62
7
  6
CONTINUOUS
370
-3
390
F
  0
LAYER
  5
203
100
AcDbSymbolTableRecord
100
AcDbLayerTableRecord
  2
05___PRT_DEF_DTM_CSYS
 70
0
 62
7
  6
CONTINUOUS
370
-3
390
F
  0
LAYER
  5
204
100
AcDbSymbolTableRecord
100
AcDbLayerTableRecord
  2
06___PRT_ALL_SURFS
 70
0
 62
7
  6
CONTINUOUS
370
-3
390
F
  0
LAYER
  5
205
100
AcDbSymbolTableRecord
100
AcDbLayerTableRecord
  2
DATUM_PLANES
 70
0
 62
7
  6
CONTINUOUS
370
-3
390
F
  0
LAYER
  5
206
100
AcDbSymbolTableRecord
100
AcDbLayerTableRecord
  2
PORT_AREAS
 70
0
 62
7
  6
CONTINUOUS
370
-3
390
F
  0
LAYER
  5
207
100
AcDbSymbolTableRecord
100
AcDbLayerTableRecord
  2
SUNNBOMCOSMETIC
 70
0
 62
7
  6
CONTINUOUS
370
-3
390
F
  0
LAYER
  5
208
100
AcDbSymbolTableRecord
100
AcDbLayerTableRecord
  2
SUNNBOMSTAMPING
 70
0
 62
7
  6
CONTINUOUS
370
-3
390
F
  0
LAYER
  5
209
100
AcDbSymbolTableRecord
100
AcDbLayerTableRecord
  2
THREADS
 70
0
 62
7
  6
CONTINUOUS
370
-3
390
F
  0
ENDTAB
  0
TABLE
  2
STYLE
  5
3
100
AcDbSymbolTable
 70
1
  0
STYLE
  5
11
100
AcDbSymbolTableRecord
100
AcDbTextStyleTableRecord
  2
STANDARD
 70
0
 40
0.0
 41
0.8
 50
0.0
 71
0
 42
0.2
  3
txt
  4

  0
STYLE
  5
20A
100
AcDbSymbolTableRecord
100
AcDbTextStyleTableRecord
  2
TEXTSTYLE_1
 70
0
 40
0.0
 41
0.8
 50
0.0
 71
0
 42
0.2
  3
gdt
  4

  0
ENDTAB
  0
TABLE
  2
VIEW
  5
6
100
AcDbSymbolTable
 70
0
  0
ENDTAB
  0
TABLE
  2
UCS
  5
7
100
AcDbSymbolTable
 70
0
  0
ENDTAB
  0
TABLE
  2
APPID
  5
9
100
AcDbSymbolTable
 70
1
  0
APPID
  5
20B
100
AcDbSymbolTableRecord
100
AcDbRegAppTableRecord
  2
ACAD
 70
0
  0
ENDTAB
  0
TABLE
  2
BLOCK_RECORD
  5
1
100
AcDbSymbolTable
 70
0
  0
BLOCK_RECORD
  5
20C
100
AcDbSymbolTableRecord
100
AcDbBlockTableRecord
  2
*Model_Space
  0
BLOCK_RECORD
  5
20D
100
AcDbSymbolTableRecord
100
AcDbBlockTableRecord
  2
*Paper_Space
  0
BLOCK_RECORD
  5
20E
100
AcDbSymbolTableRecord
100
AcDbBlockTableRecord
  2
SUN_FIRST_THIRD_ANGLE_BL0
  0
BLOCK_RECORD
  5
20F
100
AcDbSymbolTableRecord
100
AcDbBlockTableRecord
  2
*T1
  0
BLOCK_RECORD
  5
210
100
AcDbSymbolTableRecord
100
AcDbBlockTableRecord
  2
*T2
  0
BLOCK_RECORD
  5
211
100
AcDbSymbolTableRecord
100
AcDbBlockTableRecord
  2
*T3
  0
ENDTAB
  0
TABLE
  2
DIMSTYLE
  5
A
100
AcDbSymbolTable
 70
1
100
AcDbDimStyleTable
 71
0
  0
DIMSTYLE
105
212
100
AcDbSymbolTableRecord
100
AcDbDimStyleTableRecord
  2
STANDARD
 70
0
  3

  4

 40
1.0
 41
0.1875
 42
0.0625
 43
0.38
 44
0.125
 45
0.0
 46
0.0
 47
0.001
 48
0.001
140
0.1
141
0.09
142
0.0
143
25.4
144
1.0
145
0.0
146
1.0
147
0.09
 71
0.0
 72
0.0
 73
1
 74
1
 75
0
 76
0
 77
0
 78
4
170
0
171
2
172
0
173
0
174
0
175
0
176
0
177
0
178
0
270
2
271
3
272
3
273
2
274
2
275
0
280
0
281
0
282
0
283
1
284
4
285
0
286
0
287
3
288
0
340
11
278
46
  0
ENDTAB
  0
ENDSEC
  0
SECTION
  2
BLOCKS
  0
BLOCK
  5
20
100
AcDbEntity
  8
0
100
AcDbBlockBegin
  2
*Model_Space
 70
0
 10
0.0
 20
0.0
 30
0.0
  3
*Model_Space
  1

  0
ENDBLK
  5
21
100
AcDbEntity
  8
0
100
AcDbBlockEnd
  0
BLOCK
  5
1C
100
AcDbEntity
  8
0
100
AcDbBlockBegin
  2
*Paper_Space
 70
0
 10
0.0
 20
0.0
 30
0.0
  3
*Paper_Space
  1

  0
ENDBLK
  5
1D
100
AcDbEntity
  8
0
100
AcDbBlockEnd
  0
BLOCK
  5
213
100
AcDbEntity
  8
0
100
AcDbBlockBegin
 62
2
  6
CONTINUOUS
  2
SUN_FIRST_THIRD_ANGLE_BL0
 70
64
 10
20.4816717061
 20
1.2289683772
  3
SUN_FIRST_THIRD_ANGLE_BL0
  1

  0
TEXT
  5
214
100
AcDbEntity
  8
0
100
AcDbText
 62
2
  6
CONTINUOUS
 10
19.4750896608
 20
1.4136269581
  7
STANDARD
 40
0.08
  1
FIRST ANGLE
 41
0.8
 72
0
100
AcDbText
  0
TEXT
  5
215
100
AcDbEntity
  8
0
100
AcDbText
 62
2
  6
CONTINUOUS
 10
20.7842537513
 20
1.4047600029
  7
STANDARD
 40
0.08
  1
THIRD ANGLE
 41
0.8
 72
0
100
AcDbText
  0
LINE
  5
216
100
AcDbEntity
  8
0
100
AcDbLine
 62
7
  6
CONTINUOUS
 10
19.4767170086
 20
1.1727031207
 11
19.6334271527
 21
1.1717972817
  0
LINE
  5
217
100
AcDbEntity
  8
0
100
AcDbLine
 62
7
  6
CONTINUOUS
 10
19.6596964832
 20
1.1717972817
 11
19.6950230232
 21
1.171593082
  0
LINE
  5
218
100
AcDbEntity
  8
0
100
AcDbLine
 62
7
  6
CONTINUOUS
 10
19.7194818561
 20
1.1708914427
 11
19.8852396156
 21
1.1699333054
  0
LINE
  5
219
100
AcDbEntity
  8
0
100
AcDbLine
 62
7
  6
CONTINUOUS
 10
19.4758111696
 20
1.2723454088
 11
19.88525039
 21
1.3511534004
  0
LINE
  5
21A
100
AcDbEntity
  8
0
100
AcDbLine
 62
7
  6
CONTINUOUS
 10
19.88525039
 20
1.3511534004
 11
19.8831348489
 21
0.9851647912
  0
LINE
  5
21B
100
AcDbEntity
  8
0
100
AcDbLine
 62
7
  6
CONTINUOUS
 10
19.8831348489
 20
0.9851647912
 11
19.4767170086
 21
1.0658141206
  0
LINE
  5
21C
100
AcDbEntity
  8
0
100
AcDbLine
 62
7
  6
CONTINUOUS
 10
19.4767170086
 20
1.0658141206
 11
19.4779056764
 21
1.2714536432
  0
CIRCLE
  5
21D
100
AcDbEntity
  8
0
100
AcDbCircle
 62
7
  6
CONTINUOUS
 10
20.2068232291
 20
1.1717972817
 40
0.175742101
  0
CIRCLE
  5
21E
100
AcDbEntity
  8
0
100
AcDbCircle
 62
7
  6
CONTINUOUS
 10
20.2068232291
 20
1.1717972817
 40
0.1005522074
  0
LINE
  5
21F
100
AcDbEntity
  8
0
100
AcDbLine
 62
7
  6
CONTINUOUS
 10
20.2077290681
 20
1.3756110529
 11
20.2071171714
 21
1.2379342989
  0
LINE
  5
220
100
AcDbEntity
  8
0
100
AcDbLine
 62
7
  6
CONTINUOUS
 10
20.2077290681
 20
1.2016899681
 11
20.2074674401
 21
1.1428236749
  0
LINE
  5
221
100
AcDbEntity
  8
0
100
AcDbLine
 62
7
  6
CONTINUOUS
 10
20.208634907
 20
1.101141841
 11
20.2080230104
 21
0.963465087
  0
LINE
  5
222
100
AcDbEntity
  8
0
100
AcDbLine
 62
7
  6
CONTINUOUS
 10
20.0066328138
 20
1.1745147986
 11
20.1443095678
 21
1.1739029019
  0
LINE
  5
223
100
AcDbEntity
  8
0
100
AcDbLine
 62
7
  6
CONTINUOUS
 10
20.1832714155
 20
1.1727031207
 11
20.238153505
 21
1.172335442
  0
LINE
  5
224
100
AcDbEntity
  8
0
100
AcDbLine
 62
7
  6
CONTINUOUS
 10
20.2756669918
 20
1.1717972817
 11
20.407916871
 21
1.1712095044
  0
CIRCLE
  5
225
100
AcDbEntity
  8
0
100
AcDbCircle
 62
7
  6
CONTINUOUS
 10
20.7509457401
 20
1.1693297793
 40
0.1722024983
  0
CIRCLE
  5
226
100
AcDbEntity
  8
0
100
AcDbCircle
 62
7
  6
CONTINUOUS
 10
20.7509457401
 20
1.1693297793
 40
0.0985164967
  0
LINE
  5
227
100
AcDbEntity
  8
0
100
AcDbLine
 62
7
  6
CONTINUOUS
 10
20.7169767782
 20
1.170462078
 11
20.7825395137
 21
1.1682766535
  0
LINE
  5
228
100
AcDbEntity
  8
0
100
AcDbLine
 62
7
  6
CONTINUOUS
 10
20.8177513651
 20
1.1693297793
 11
20.947965719
 21
1.1693297793
  0
LINE
  5
229
100
AcDbEntity
  8
0
100
AcDbLine
 62
7
  6
CONTINUOUS
 10
20.6875370113
 20
1.170462078
 11
20.5573226574
 21
1.170462078
  0
LINE
  5
22A
100
AcDbEntity
  8
0
100
AcDbLine
 62
7
  6
CONTINUOUS
 10
20.7486811426
 20
1.1987695462
 11
20.7486811426
 21
1.1432869085
  0
LINE
  5
22B
100
AcDbEntity
  8
0
100
AcDbLine
 62
7
  6
CONTINUOUS
 10
20.7498134414
 20
1.1059210505
 11
20.7498134414
 21
0.9757066966
  0
LINE
  5
22C
100
AcDbEntity
  8
0
100
AcDbLine
 62
7
  6
CONTINUOUS
 10
20.7486811426
 20
1.2338708068
 11
20.7486811426
 21
1.3640851607
  0
LINE
  5
22D
100
AcDbEntity
  8
0
100
AcDbLine
 62
7
  6
CONTINUOUS
 10
21.0702539817
 20
1.2701043662
 11
21.4790138229
 21
1.3448360823
  0
LINE
  5
22E
100
AcDbEntity
  8
0
100
AcDbLine
 62
7
  6
CONTINUOUS
 10
21.4790138229
 20
1.3448360823
 11
21.4790138229
 21
0.9779712941
  0
LINE
  5
22F
100
AcDbEntity
  8
0
100
AcDbLine
 62
7
  6
CONTINUOUS
 10
21.4790138229
 20
0.9779712941
 11
21.069121683
 21
1.0617614
  0
LINE
  5
230
100
AcDbEntity
  8
0
100
AcDbLine
 62
7
  6
CONTINUOUS
 10
21.0702539817
 20
1.2701043662
 11
21.069121683
 21
1.0617614
  0
LINE
  5
231
100
AcDbEntity
  8
0
100
AcDbLine
 62
7
  6
CONTINUOUS
 10
21.4790138229
 20
1.1693297793
 11
21.3159628059
 21
1.1693297793
  0
LINE
  5
232
100
AcDbEntity
  8
0
100
AcDbLine
 62
7
  6
CONTINUOUS
 10
21.2876553377
 20
1.1693297793
 11
21.2502894796
 21
1.1693297793
  0
LINE
  5
233
100
AcDbEntity
  8
0
100
AcDbLine
 62
7
  6
CONTINUOUS
 10
21.2208497126
 20
1.1659328831
 11
21.0713862804
 21
1.1659328831
  0
LINE
  5
234
100
AcDbEntity
  8
0
100
AcDbLine
 62
7
  6
CONTINUOUS
 10
20.4796138713
 20
1.5284908897
 11
20.4766766948
 21
0.9294458646
  0
ENDBLK
  5
235
100
AcDbEntity
  8
0
  6
BYBLOCK
 62
0
100
AcDbBlockEnd
  0
BLOCK
  5
236
100
AcDbEntity
  8
0
100
AcDbBlockBegin
  2
*T1
 70
1
 10
0.0
 20
0.0
  3
*T1
  1

  0
LINE
  5
237
100
AcDbEntity
  8
0
100
AcDbLine
 62
2
  6
CONTINUOUS
 10
9.275
 20
0.0
 11
-0.0
 21
0.0
  0
LINE
  5
238
100
AcDbEntity
  8
0
100
AcDbLine
 62
2
  6
CONTINUOUS
 10
9.275
 20
0.0
 11
9.275
 21
1.25
  0
LINE
  5
239
100
AcDbEntity
  8
0
100
AcDbLine
 62
2
  6
CONTINUOUS
 10
9.275
 20
0.625
 11
-0.0
 21
0.625
  0
LINE
  5
23A
100
AcDbEntity
  8
0
100
AcDbLine
 62
2
  6
CONTINUOUS
 10
9.275
 20
1.25
 11
-0.0
 21
1.25
  0
LINE
  5
23B
100
AcDbEntity
  8
0
100
AcDbLine
 62
2
  6
CONTINUOUS
 10
6.8
 20
0.0
 11
6.8
 21
1.25
  0
LINE
  5
23C
100
AcDbEntity
  8
0
100
AcDbLine
 62
2
  6
CONTINUOUS
 10
6.4
 20
0.0
 11
6.4
 21
0.625
  0
LINE
  5
23D
100
AcDbEntity
  8
0
100
AcDbLine
 62
2
  6
CONTINUOUS
 10
5.9
 20
0.0
 11
5.9
 21
0.625
  0
LINE
  5
23E
100
AcDbEntity
  8
0
100
AcDbLine
 62
2
  6
CONTINUOUS
 10
5.2
 20
0.0
 11
5.2
 21
0.625
  0
LINE
  5
23F
100
AcDbEntity
  8
0
100
AcDbLine
 62
2
  6
CONTINUOUS
 10
4.1
 20
0.0
 11
4.1
 21
1.25
  0
LINE
  5
240
100
AcDbEntity
  8
0
100
AcDbLine
 62
2
  6
CONTINUOUS
 10
-0.0
 20
0.0
 11
-0.0
 21
1.25
  0
MTEXT
  5
241
100
AcDbEntity
  8
0
100
AcDbMText
 62
2
  6
CONTINUOUS
  7
STANDARD
 71
2
 72
1
 10
6.6
 20
0.325
 30
0.0
 11
1.0
 21
0.0
 31
0.0
 44
0.9
  1
2
 40
0.125
 41
0.2
  0
MTEXT
  5
242
100
AcDbEntity
  8
0
100
AcDbMText
 62
2
  6
CONTINUOUS
  7
STANDARD
 71
2
 72
1
 10
6.15
 20
0.325
 30
0.0
 11
1.0
 21
0.0
 31
0.0
 44
0.9
  1
C
 40
0.125
 41
0.2
  0
MTEXT
  5
243
100
AcDbEntity
  8
0
100
AcDbMText
 62
2
  6
CONTINUOUS
  7
STANDARD
 71
2
 72
1
 10
5.55
 20
0.325
 30
0.0
 11
1.0
 21
0.0
 31
0.0
 44
0.9
  1
2.000
 40
0.125
 41
1.0
  0
MTEXT
  5
244
100
AcDbEntity
  8
0
100
AcDbMText
 62
2
  6
CONTINUOUS
  7
STANDARD
 71
2
 72
1
 10
4.65
 20
0.325
 30
0.0
 11
1.0
 21
0.0
 31
0.0
 44
0.9
  1
Jul-29-19
 40
0.125
 41
1.8
  0
MTEXT
  5
245
100
AcDbEntity
  8
0
100
AcDbMText
 62
2
  6
CONTINUOUS
  7
STANDARD
 71
2
 72
1
 10
2.05
 20
0.4625
 30
0.0
 11
1.0
 21
0.0
 31
0.0
 44
0.9
  1
T-11A Line mount\P2 cylinder sequence, with reverse checks
 40
0.125
 41
8.0
  0
MTEXT
  5
246
100
AcDbEntity
  8
0
100
AcDbMText
 62
2
  6
CONTINUOUS
  7
STANDARD
 71
1
 72
1
 10
6.45
 20
0.5625
 30
0.0
 11
1.0
 21
0.0
 31
0.0
 44
0.9
  1
SHEET
 40
0.06
 41
0.48
  0
MTEXT
  5
247
100
AcDbEntity
  8
0
100
AcDbMText
 62
2
  6
CONTINUOUS
  7
STANDARD
 71
1
 72
1
 10
5.95
 20
0.5625
 30
0.0
 11
1.0
 21
0.0
 31
0.0
 44
0.9
  1
DWG SIZE
 40
0.06
 41
0.768
  0
MTEXT
  5
248
100
AcDbEntity
  8
0
100
AcDbMText
 62
2
  6
CONTINUOUS
  7
STANDARD
 71
1
 72
1
 10
5.25
 20
0.5625
 30
0.0
 11
1.0
 21
0.0
 31
0.0
 44
0.9
  1
SCALE
 40
0.06
 41
0.48
  0
MTEXT
  5
249
100
AcDbEntity
  8
0
100
AcDbMText
 62
2
  6
CONTINUOUS
  7
STANDARD
 71
1
 72
1
 10
4.15
 20
0.5625
 30
0.0
 11
1.0
 21
0.0
 31
0.0
 44
0.9
  1
DATE
 40
0.06
 41
0.384
  0
MTEXT
  5
24A
100
AcDbEntity
  8
0
100
AcDbMText
 62
2
  6
CONTINUOUS
  7
STANDARD
 71
1
 72
1
 10
0.05
 20
0.5625
 30
0.0
 11
1.0
 21
0.0
 31
0.0
 44
0.9
  1
DESCRIPTION
 40
0.06
 41
1.056
  0
MTEXT
  5
24B
100
AcDbEntity
  8
0
100
AcDbMText
 62
2
  6
CONTINUOUS
  7
STANDARD
 71
2
 72
1
 10
5.45
 20
1.0375
 30
0.0
 11
1.0
 21
0.0
 31
0.0
 44
0.9
  1
ALL DIMENSIONS IN INCH\PVIEWS ARE THIRD ANGLE
 40
0.12
 41
4.224
  0
MTEXT
  5
24C
100
AcDbEntity
  8
0
100
AcDbMText
 62
2
  6
CONTINUOUS
  7
STANDARD
 71
2
 72
1
 10
2.05
 20
0.95
 30
0.0
 11
1.0
 21
0.0
 31
0.0
 44
0.9
  1
E8U
 40
0.125
 41
0.6
  0
MTEXT
  5
24D
100
AcDbEntity
  8
0
100
AcDbMText
 62
2
  6
CONTINUOUS
  7
STANDARD
 71
1
 72
1
 10
0.05
 20
1.1875
 30
0.0
 11
1.0
 21
0.0
 31
0.0
 44
0.9
  1
MODEL
 40
0.06
 41
0.48
  0
ENDBLK
  5
24E
100
AcDbEntity
  8
0
  6
BYBLOCK
 62
0
100
AcDbBlockEnd
  0
BLOCK
  5
24F
100
AcDbEntity
  8
0
100
AcDbBlockBegin
  2
*T2
 70
1
 10
0.0
 20
0.0
  3
*T2
  1

  0
LINE
  5
250
100
AcDbEntity
  8
0
100
AcDbLine
 62
2
  6
CONTINUOUS
 10
0.0
 20
0.0
 11
9.055
 21
0.0
  0
LINE
  5
251
100
AcDbEntity
  8
0
100
AcDbLine
 62
2
  6
CONTINUOUS
 10
0.0
 20
0.0
 11
0.0
 21
-2.594
  0
LINE
  5
252
100
AcDbEntity
  8
0
100
AcDbLine
 62
2
  6
CONTINUOUS
 10
0.0
 20
-0.344
 11
9.055
 21
-0.344
  0
LINE
  5
253
100
AcDbEntity
  8
0
100
AcDbLine
 62
2
  6
CONTINUOUS
 10
0.0
 20
-0.594
 11
9.055
 21
-0.594
  0
LINE
  5
254
100
AcDbEntity
  8
0
100
AcDbLine
 62
2
  6
CONTINUOUS
 10
0.0
 20
-0.844
 11
9.055
 21
-0.844
  0
LINE
  5
255
100
AcDbEntity
  8
0
100
AcDbLine
 62
2
  6
CONTINUOUS
 10
0.0
 20
-1.094
 11
9.055
 21
-1.094
  0
LINE
  5
256
100
AcDbEntity
  8
0
100
AcDbLine
 62
2
  6
CONTINUOUS
 10
0.0
 20
-1.344
 11
9.055
 21
-1.344
  0
LINE
  5
257
100
AcDbEntity
  8
0
100
AcDbLine
 62
2
  6
CONTINUOUS
 10
0.0
 20
-1.594
 11
9.055
 21
-1.594
  0
LINE
  5
258
100
AcDbEntity
  8
0
100
AcDbLine
 62
2
  6
CONTINUOUS
 10
0.0
 20
-1.844
 11
9.055
 21
-1.844
  0
LINE
  5
259
100
AcDbEntity
  8
0
100
AcDbLine
 62
2
  6
CONTINUOUS
 10
0.0
 20
-2.094
 11
9.055
 21
-2.094
  0
LINE
  5
25A
100
AcDbEntity
  8
0
100
AcDbLine
 62
2
  6
CONTINUOUS
 10
0.0
 20
-2.344
 11
9.055
 21
-2.344
  0
LINE
  5
25B
100
AcDbEntity
  8
0
100
AcDbLine
 62
2
  6
CONTINUOUS
 10
0.0
 20
-2.594
 11
9.055
 21
-2.594
  0
LINE
  5
25C
100
AcDbEntity
  8
0
100
AcDbLine
 62
2
  6
CONTINUOUS
 10
3.055
 20
0.0
 11
3.055
 21
-2.594
  0
LINE
  5
25D
100
AcDbEntity
  8
0
100
AcDbLine
 62
2
  6
CONTINUOUS
 10
9.055
 20
0.0
 11
9.055
 21
-2.594
  0
MTEXT
  5
25E
100
AcDbEntity
  8
0
100
AcDbMText
 62
2
  6
CONTINUOUS
  7
STANDARD
 71
2
 72
1
 10
1.5275
 20
-0.0995
 30
0.0
 11
1.0
 21
0.0
 31
0.0
 44
0.9
  1
Technical Data
 40
0.145
 41
3.248
  0
MTEXT
  5
25F
100
AcDbEntity
  8
0
100
AcDbMText
 62
2
  6
CONTINUOUS
  7
STANDARD
 71
2
 72
1
 10
4.555
 20
-0.0995
 30
0.0
 11
1.0
 21
0.0
 31
0.0
 44
0.9
  1
U.S. Units
 40
0.145
 41
2.32
  0
MTEXT
  5
260
100
AcDbEntity
  8
0
100
AcDbMText
 62
2
  6
CONTINUOUS
  7
STANDARD
 71
2
 72
1
 10
7.555
 20
-0.0995
 30
0.0
 11
1.0
 21
0.0
 31
0.0
 44
0.9
  1
Metric Units
 40
0.145
 41
2.784
  0
MTEXT
  5
261
100
AcDbEntity
  8
0
100
AcDbMText
 62
2
  6
CONTINUOUS
  7
STANDARD
 71
2
 72
1
 10
1.5275
 20
-0.4065
 30
0.0
 11
1.0
 21
0.0
 31
0.0
 44
0.9
  1
Cavity
 40
0.125
 41
1.2
  0
MTEXT
  5
262
100
AcDbEntity
  8
0
100
AcDbMText
 62
2
  6
CONTINUOUS
  7
STANDARD
 71
2
 72
1
 10
6.055
 20
-0.4065
 30
0.0
 11
1.0
 21
0.0
 31
0.0
 44
0.9
  1
T-11A
 40
0.125
 41
1.0
  0
MTEXT
  5
263
100
AcDbEntity
  8
0
100
AcDbMText
 62
2
  6
CONTINUOUS
  7
STANDARD
 71
2
 72
1
 10
1.5275
 20
-0.6565
 30
0.0
 11
1.0
 21
0.0
 31
0.0
 44
0.9
  1
Body Features
 40
0.125
 41
2.6
  0
MTEXT
  5
264
100
AcDbEntity
  8
0
100
AcDbMText
 62
2
  6
CONTINUOUS
  7
STANDARD
 71
2
 72
1
 10
6.055
 20
-0.6565
 30
0.0
 11
1.0
 21
0.0
 31
0.0
 44
0.9
  1
2 cylinder sequence, with reverse checks
 40
0.125
 41
8.0
  0
MTEXT
  5
265
100
AcDbEntity
  8
0
100
AcDbMText
 62
2
  6
CONTINUOUS
  7
STANDARD
 71
2
 72
1
 10
1.5275
 20
-0.9065
 30
0.0
 11
1.0
 21
0.0
 31
0.0
 44
0.9
  1
Body Type
 40
0.125
 41
1.8
  0
MTEXT
  5
266
100
AcDbEntity
  8
0
100
AcDbMText
 62
2
  6
CONTINUOUS
  7
STANDARD
 71
2
 72
1
 10
6.055
 20
-0.9065
 30
0.0
 11
1.0
 21
0.0
 31
0.0
 44
0.9
  1
Line mount
 40
0.125
 41
2.0
  0
MTEXT
  5
267
100
AcDbEntity
  8
0
100
AcDbMText
 62
2
  6
CONTINUOUS
  7
STANDARD
 71
2
 72
1
 10
1.5275
 20
-1.1565
 30
0.0
 11
1.0
 21
0.0
 31
0.0
 44
0.9
  1
Interface
 40
0.125
 41
1.8
  0
MTEXT
  5
268
100
AcDbEntity
  8
0
100
AcDbMText
 62
2
  6
CONTINUOUS
  7
STANDARD
 71
2
 72
1
 10
6.055
 20
-1.1565
 30
0.0
 11
1.0
 21
0.0
 31
0.0
 44
0.9
  1
None
 40
0.125
 41
0.8
  0
MTEXT
  5
269
100
AcDbEntity
  8
0
100
AcDbMText
 62
2
  6
CONTINUOUS
  7
STANDARD
 71
2
 72
1
 10
1.5275
 20
-1.4065
 30
0.0
 11
1.0
 21
0.0
 31
0.0
 44
0.9
  1
Open Cavity Quantity
 40
0.125
 41
4.0
  0
MTEXT
  5
26A
100
AcDbEntity
  8
0
100
AcDbMText
 62
2
  6
CONTINUOUS
  7
STANDARD
 71
2
 72
1
 10
6.055
 20
-1.4065
 30
0.0
 11
1.0
 21
0.0
 31
0.0
 44
0.9
  1
2
 40
0.125
 41
0.2
  0
MTEXT
  5
26B
100
AcDbEntity
  8
0
100
AcDbMText
 62
2
  6
CONTINUOUS
  7
STANDARD
 71
2
 72
1
 10
1.5275
 20
-1.6565
 30
0.0
 11
1.0
 21
0.0
 31
0.0
 44
0.9
  1
Weight
 40
0.125
 41
1.2
  0
MTEXT
  5
26C
100
AcDbEntity
  8
0
100
AcDbMText
 62
2
  6
CONTINUOUS
  7
STANDARD
 71
2
 72
1
 10
4.555
 20
-1.6565
 30
0.0
 11
1.0
 21
0.0
 31
0.0
 44
0.9
  1
2.279 lb.
 40
0.125
 41
1.8
  0
MTEXT
  5
26D
100
AcDbEntity
  8
0
100
AcDbMText
 62
2
  6
CONTINUOUS
  7
STANDARD
 71
2
 72
1
 10
7.555
 20
-1.6565
 30
0.0
 11
1.0
 21
0.0
 31
0.0
 44
0.9
  1
1,034 kg.
 40
0.125
 41
1.8
  0
MTEXT
  5
26E
100
AcDbEntity
  8
0
100
AcDbMText
 62
2
  6
CONTINUOUS
  7
STANDARD
 71
2
 72
1
 10
1.5275
 20
-1.9065
 30
0.0
 11
1.0
 21
0.0
 31
0.0
 44
0.9
  1
Mounting Hole Diameter
 40
0.125
 41
4.4
  0
MTEXT
  5
26F
100
AcDbEntity
  8
0
100
AcDbMText
 62
2
  6
CONTINUOUS
  7
STANDARD
 71
2
 72
1
 10
4.555
 20
-1.9065
 30
0.0
 11
1.0
 21
0.0
 31
0.0
 44
0.9
  1
.34 in.
 40
0.125
 41
1.4
  0
MTEXT
  5
270
100
AcDbEntity
  8
0
100
AcDbMText
 62
2
  6
CONTINUOUS
  7
STANDARD
 71
2
 72
1
 10
7.555
 20
-1.9065
 30
0.0
 11
1.0
 21
0.0
 31
0.0
 44
0.9
  1
8.6 mm
 40
0.125
 41
1.2
  0
MTEXT
  5
271
100
AcDbEntity
  8
0
100
AcDbMText
 62
2
  6
CONTINUOUS
  7
STANDARD
 71
2
 72
1
 10
1.5275
 20
-2.1565
 30
0.0
 11
1.0
 21
0.0
 31
0.0
 44
0.9
  1
Mounting Hole Depth
 40
0.125
 41
3.8
  0
MTEXT
  5
272
100
AcDbEntity
  8
0
100
AcDbMText
 62
2
  6
CONTINUOUS
  7
STANDARD
 71
2
 72
1
 10
6.055
 20
-2.1565
 30
0.0
 11
1.0
 21
0.0
 31
0.0
 44
0.9
  1
Through
 40
0.125
 41
1.4
  0
MTEXT
  5
273
100
AcDbEntity
  8
0
100
AcDbMText
 62
2
  6
CONTINUOUS
  7
STANDARD
 71
2
 72
1
 10
1.5275
 20
-2.4065
 30
0.0
 11
1.0
 21
0.0
 31
0.0
 44
0.9
  1
Mounting Hole Quantity
 40
0.125
 41
4.4
  0
MTEXT
  5
274
100
AcDbEntity
  8
0
100
AcDbMText
 62
2
  6
CONTINUOUS
  7
STANDARD
 71
2
 72
1
 10
6.055
 20
-2.4065
 30
0.0
 11
1.0
 21
0.0
 31
0.0
 44
0.9
  1
2
 40
0.125
 41
0.2
  0
ENDBLK
  5
275
100
AcDbEntity
  8
0
  6
BYBLOCK
 62
0
100
AcDbBlockEnd
  0
BLOCK
  5
276
100
AcDbEntity
  8
0
100
AcDbBlockBegin
  2
*T3
 70
1
 10
0.0
 20
0.0
  3
*T3
  1

  0
LINE
  5
277
100
AcDbEntity
  8
0
100
AcDbLine
 62
2
  6
CONTINUOUS
 10
0.0
 20
0.0
 11
4.6
 21
0.0
  0
LINE
  5
278
100
AcDbEntity
  8
0
100
AcDbLine
 62
2
  6
CONTINUOUS
 10
0.0
 20
0.0
 11
0.0
 21
-0.93775
  0
LINE
  5
279
100
AcDbEntity
  8
0
100
AcDbLine
 62
2
  6
CONTINUOUS
 10
0.0
 20
-0.34375
 11
4.6
 21
-0.34375
  0
LINE
  5
27A
100
AcDbEntity
  8
0
100
AcDbLine
 62
2
  6
CONTINUOUS
 10
0.0
 20
-0.68775
 11
4.6
 21
-0.68775
  0
LINE
  5
27B
100
AcDbEntity
  8
0
100
AcDbLine
 62
2
  6
CONTINUOUS
 10
0.0
 20
-0.93775
 11
4.6
 21
-0.93775
  0
LINE
  5
27C
100
AcDbEntity
  8
0
100
AcDbLine
 62
2
  6
CONTINUOUS
 10
1.3
 20
-0.34375
 11
1.3
 21
-0.93775
  0
LINE
  5
27D
100
AcDbEntity
  8
0
100
AcDbLine
 62
2
  6
CONTINUOUS
 10
3.3
 20
-0.34375
 11
3.3
 21
-0.93775
  0
LINE
  5
27E
100
AcDbEntity
  8
0
100
AcDbLine
 62
2
  6
CONTINUOUS
 10
4.6
 20
0.0
 11
4.6
 21
-0.93775
  0
MTEXT
  5
27F
100
AcDbEntity
  8
0
100
AcDbMText
 62
2
  6
CONTINUOUS
  7
STANDARD
 71
2
 72
1
 10
2.3
 20
-0.099375
 30
0.0
 11
1.0
 21
0.0
 31
0.0
 44
0.9
  1
Port Headings
 40
0.145
 41
3.016
  0
MTEXT
  5
280
100
AcDbEntity
  8
0
100
AcDbMText
 62
2
  6
CONTINUOUS
  7
STANDARD
 71
2
 72
1
 10
0.65
 20
-0.44325
 30
0.0
 11
1.0
 21
0.0
 31
0.0
 44
0.9
  1
Product
 40
0.145
 41
1.624
  0
MTEXT
  5
281
100
AcDbEntity
  8
0
100
AcDbMText
 62
2
  6
CONTINUOUS
  7
STANDARD
 71
2
 72
1
 10
2.3
 20
-0.44325
 30
0.0
 11
1.0
 21
0.0
 31
0.0
 44
0.9
  1
Port
 40
0.145
 41
0.928
  0
MTEXT
  5
282
100
AcDbEntity
  8
0
100
AcDbMText
 62
2
  6
CONTINUOUS
  7
STANDARD
 71
2
 72
1
 10
3.95
 20
-0.44325
 30
0.0
 11
1.0
 21
0.0
 31
0.0
 44
0.9
  1
Size
 40
0.145
 41
0.928
  0
MTEXT
  5
283
100
AcDbEntity
  8
0
100
AcDbMText
 62
2
  6
CONTINUOUS
  7
STANDARD
 71
2
 72
1
 10
0.65
 20
-0.75025
 30
0.0
 11
1.0
 21
0.0
 31
0.0
 44
0.9
  1
E8U
 40
0.125
 41
0.6
  0
MTEXT
  5
284
100
AcDbEntity
  8
0
100
AcDbMText
 62
2
  6
CONTINUOUS
  7
STANDARD
 71
2
 72
1
 10
2.3
 20
-0.75025
 30
0.0
 11
1.0
 21
0.0
 31
0.0
 44
0.9
  1
All Ports
 40
0.125
 41
1.8
  0
MTEXT
  5
285
100
AcDbEntity
  8
0
100
AcDbMText
 62
2
  6
CONTINUOUS
  7
STANDARD
 71
2
 72
1
 10
3.95
 20
-0.75025
 30
0.0
 11
1.0
 21
0.0
 31
0.0
 44
0.9
  1
3/8" BSPP
 40
0.125
 41
1.8
  0
ENDBLK
  5
286
100
AcDbEntity
  8
0
  6
BYBLOCK
 62
0
100
AcDbBlockEnd
  0
ENDSEC
  0
SECTION
  2
ENTITIES
  0
IMAGE
  5
287
100
AcDbEntity
  8
0
100
AcDbRasterImage
 62
7
  6
CONTINUOUS
 10
19.2297077316
 20
0.3094318264
 30
0.0
 11
0.0066666667
 21
0.0
 31
0.0
 12
0.0
 22
0.0066666667
 32
0.0
 13
369.0
 23
92.0
340
       3BE
 70
9
280
0
281
50
282
50
283
0
360
       3B8
 71
1
 91
2
 14
-0.5
 24
-0.5
 14
368.5
 24
91.5
  0
INSERT
  5
288
100
AcDbEntity
  8
0
100
AcDbBlockReference
 62
2
  6
CONTINUOUS
  2
SUN_FIRST_THIRD_ANGLE_BL0
 10
20.4816717061
 20
1.2289683772
  0
ACAD_TABLE
  5
289
100
AcDbEntity
  8
0
 62
2
  6
CONTINUOUS
100
AcDbBlockReference
  2
*T1
 10
12.42375
 20
0.30125
 30
0.0
100
AcDbTable
342
       3C0
343
20F
 11
1.0
 21
0.0
 31
0.0
 90
6
 91
4
 92
6
 93
20
 94
0
 95
0
 96
0
 70
1
 41
0.0
141
0.525
141
0.1
141
0.525
141
0.1
142
4.1
142
1.1
142
0.7
142
0.5
142
0.4
142
2.475
171
1
172
0
173
0
174
0
175
1
176
1
 91
33
178
0
145
0.0
301
CELL_VALUE
 90
4
  1
T-11A Line mount\P2 cylinder sequence, with reverse checks
304
ACVALUE_END
170
2
140
0.125
171
1
172
0
173
0
174
0
175
1
176
1
 91
33
178
0
145
0.0
301
CELL_VALUE
 90
4
  1
Jul-29-19
304
ACVALUE_END
170
5
140
0.125
171
1
172
0
173
0
174
0
175
1
176
1
 91
33
178
0
145
0.0
301
CELL_VALUE
 90
4
  1
2.000
304
ACVALUE_END
170
5
140
0.125
171
1
172
0
173
0
174
0
175
1
176
1
 91
33
178
0
145
0.0
301
CELL_VALUE
 90
4
  1
C
304
ACVALUE_END
170
5
140
0.125
171
1
172
0
173
0
174
0
175
1
176
1
 91
33
178
0
145
0.0
301
CELL_VALUE
 90
4
  1
2
304
ACVALUE_END
170
5
140
0.125
171
1
172
0
173
0
174
0
175
1
176
1
 91
33
178
0
145
0.0
301
CELL_VALUE
 90
4
  1
 
304
ACVALUE_END
170
1
140
0.125
171
1
172
0
173
0
174
0
175
1
176
1
 91
33
178
0
145
0.0
301
CELL_VALUE
 90
4
  1
DESCRIPTION
304
ACVALUE_END
170
1
140
0.06
171
1
172
0
173
0
174
0
175
1
176
1
 91
33
178
0
145
0.0
301
CELL_VALUE
 90
4
  1
DATE
304
ACVALUE_END
170
1
140
0.06
171
1
172
0
173
0
174
0
175
1
176
1
 91
33
178
0
145
0.0
301
CELL_VALUE
 90
4
  1
SCALE
304
ACVALUE_END
170
1
140
0.06
171
1
172
0
173
0
174
0
175
1
176
1
 91
33
178
0
145
0.0
301
CELL_VALUE
 90
4
  1
DWG SIZE
304
ACVALUE_END
170
1
140
0.06
171
1
172
0
173
0
174
0
175
1
176
1
 91
33
178
0
145
0.0
301
CELL_VALUE
 90
4
  1
SHEET
304
ACVALUE_END
170
1
140
0.06
171
1
172
0
173
0
174
0
175
1
176
1
 91
33
178
0
145
0.0
301
CELL_VALUE
 90
4
  1
 
304
ACVALUE_END
170
1
140
0.125
171
1
172
0
173
0
174
0
175
1
176
1
 91
33
178
0
145
0.0
301
CELL_VALUE
 90
4
  1
E8U
304
ACVALUE_END
170
5
140
0.125
171
1
172
0
173
0
174
0
175
4
176
1
 91
33
178
0
145
0.0
301
CELL_VALUE
 90
4
  1
ALL DIMENSIONS IN INCH\PVIEWS ARE THIRD ANGLE
304
ACVALUE_END
170
5
140
0.12
171
1
172
0
173
1
174
0
175
1
176
1
 91
1
178
0
145
0.0
170
1
171
1
172
0
173
1
174
0
175
1
176
1
 91
1
178
0
145
0.0
170
1
171
1
172
0
173
1
174
0
175
1
176
1
 91
1
178
0
145
0.0
170
5
171
1
172
0
173
0
174
0
175
1
176
1
 91
33
178
0
145
0.0
301
CELL_VALUE
 90
4
  1
 
304
ACVALUE_END
170
1
140
0.125
171
1
172
0
173
0
174
0
175
1
176
1
 91
33
178
0
145
0.0
301
CELL_VALUE
 90
4
  1
MODEL
304
ACVALUE_END
170
1
140
0.06
171
1
172
0
173
0
174
0
175
1
176
1
 91
33
178
0
145
0.0
301
CELL_VALUE
 90
4
  1
 
304
ACVALUE_END
170
1
140
0.125
171
1
172
0
173
0
174
0
175
1
176
1
 91
33
178
0
145
0.0
301
CELL_VALUE
 90
4
  1
 
304
ACVALUE_END
170
1
140
0.125
171
1
172
0
173
0
174
0
175
1
176
1
 91
33
178
0
145
0.0
301
CELL_VALUE
 90
4
  1
 
304
ACVALUE_END
170
1
140
0.125
171
1
172
0
173
0
174
0
175
1
176
1
 91
33
178
0
145
0.0
301
CELL_VALUE
 90
4
  1
 
304
ACVALUE_END
170
1
140
0.125
171
1
172
0
173
0
174
0
175
1
176
1
 91
33
178
0
145
0.0
301
CELL_VALUE
 90
4
  1
 
304
ACVALUE_END
170
1
140
0.125
  0
ACAD_TABLE
  5
28A
100
AcDbEntity
  8
0
 62
2
  6
CONTINUOUS
100
AcDbBlockReference
  2
*T2
 10
12.4237499994
 20
16.47875
 30
0.0
100
AcDbTable
342
       3BF
343
210
 11
1.0
 21
0.0
 31
0.0
 90
22
 91
10
 92
3
 93
16
 94
0
 95
0
 96
0
 41
0.028
141
0.344
141
0.25
141
0.25
141
0.25
141
0.25
141
0.25
141
0.25
141
0.25
141
0.25
141
0.25
142
3.055
142
3.0
142
3.0
171
1
172
0
173
0
174
0
175
1
176
1
 91
33
178
0
145
0.0
301
CELL_VALUE
 90
4
  1
Technical Data
304
ACVALUE_END
170
5
140
0.145
171
1
172
0
173
0
174
0
175
1
176
1
 91
33
178
0
145
0.0
301
CELL_VALUE
 90
4
  1
U.S. Units
304
ACVALUE_END
170
5
140
0.145
171
1
172
0
173
0
174
0
175
1
176
1
 91
33
178
0
145
0.0
301
CELL_VALUE
 90
4
  1
Metric Units
304
ACVALUE_END
170
5
140
0.145
171
1
172
0
173
0
174
0
175
1
176
1
 91
33
178
0
145
0.0
301
CELL_VALUE
 90
4
  1
Cavity
304
ACVALUE_END
170
5
140
0.125
171
1
172
0
173
0
174
0
175
2
176
1
 91
33
178
0
145
0.0
301
CELL_VALUE
 90
4
  1
T-11A
304
ACVALUE_END
170
5
140
0.125
171
1
172
0
173
1
174
0
175
1
176
1
 91
1
178
0
145
0.0
170
1
171
1
172
0
173
0
174
0
175
1
176
1
 91
33
178
0
145
0.0
301
CELL_VALUE
 90
4
  1
Body Features
304
ACVALUE_END
170
5
140
0.125
171
1
172
0
173
0
174
0
175
2
176
1
 91
33
178
0
145
0.0
301
CELL_VALUE
 90
4
  1
2 cylinder sequence, with reverse checks
304
ACVALUE_END
170
5
140
0.125
171
1
172
0
173
1
174
0
175
1
176
1
 91
1
178
0
145
0.0
170
1
171
1
172
0
173
0
174
0
175
1
176
1
 91
33
178
0
145
0.0
301
CELL_VALUE
 90
4
  1
Body Type
304
ACVALUE_END
170
5
140
0.125
171
1
172
0
173
0
174
0
175
2
176
1
 91
33
178
0
145
0.0
301
CELL_VALUE
 90
4
  1
Line mount
304
ACVALUE_END
170
5
140
0.125
171
1
172
0
173
1
174
0
175
1
176
1
 91
1
178
0
145
0.0
170
1
171
1
172
0
173
0
174
0
175
1
176
1
 91
33
178
0
145
0.0
301
CELL_VALUE
 90
4
  1
Interface
304
ACVALUE_END
170
5
140
0.125
171
1
172
0
173
0
174
0
175
2
176
1
 91
33
178
0
145
0.0
301
CELL_VALUE
 90
4
  1
None
304
ACVALUE_END
170
5
140
0.125
171
1
172
0
173
1
174
0
175
1
176
1
 91
1
178
0
145
0.0
170
1
171
1
172
0
173
0
174
0
175
1
176
1
 91
33
178
0
145
0.0
301
CELL_VALUE
 90
4
  1
Open Cavity Quantity
304
ACVALUE_END
170
5
140
0.125
171
1
172
0
173
0
174
0
175
2
176
1
 91
33
178
0
145
0.0
301
CELL_VALUE
 90
4
  1
2
304
ACVALUE_END
170
5
140
0.125
171
1
172
0
173
1
174
0
175
1
176
1
 91
1
178
0
145
0.0
170
1
171
1
172
0
173
0
174
0
175
1
176
1
 91
33
178
0
145
0.0
301
CELL_VALUE
 90
4
  1
Weight
304
ACVALUE_END
170
5
140
0.125
171
1
172
0
173
0
174
0
175
1
176
1
 91
33
178
0
145
0.0
301
CELL_VALUE
 90
4
  1
2.279 lb.
304
ACVALUE_END
170
5
140
0.125
171
1
172
0
173
0
174
0
175
1
176
1
 91
33
178
0
145
0.0
301
CELL_VALUE
 90
4
  1
1,034 kg.
304
ACVALUE_END
170
5
140
0.125
171
1
172
0
173
0
174
0
175
1
176
1
 91
33
178
0
145
0.0
301
CELL_VALUE
 90
4
  1
Mounting Hole Diameter
304
ACVALUE_END
170
5
140
0.125
171
1
172
0
173
0
174
0
175
1
176
1
 91
33
178
0
145
0.0
301
CELL_VALUE
 90
4
  1
.34 in.
304
ACVALUE_END
170
5
140
0.125
171
1
172
0
173
0
174
0
175
1
176
1
 91
33
178
0
145
0.0
301
CELL_VALUE
 90
4
  1
8.6 mm
304
ACVALUE_END
170
5
140
0.125
171
1
172
0
173
0
174
0
175
1
176
1
 91
33
178
0
145
0.0
301
CELL_VALUE
 90
4
  1
Mounting Hole Depth
304
ACVALUE_END
170
5
140
0.125
171
1
172
0
173
0
174
0
175
2
176
1
 91
33
178
0
145
0.0
301
CELL_VALUE
 90
4
  1
Through
304
ACVALUE_END
170
5
140
0.125
171
1
172
0
173
1
174
0
175
1
176
1
 91
1
178
0
145
0.0
170
1
171
1
172
0
173
0
174
0
175
1
176
1
 91
33
178
0
145
0.0
301
CELL_VALUE
 90
4
  1
Mounting Hole Quantity
304
ACVALUE_END
170
5
140
0.125
171
1
172
0
173
0
174
0
175
2
176
1
 91
33
178
0
145
0.0
301
CELL_VALUE
 90
4
  1
2
304
ACVALUE_END
170
5
140
0.125
171
1
172
0
173
1
174
0
175
1
176
1
 91
1
178
0
145
0.0
170
1
  0
ACAD_TABLE
  5
28B
100
AcDbEntity
  8
0
 62
2
  6
CONTINUOUS
100
AcDbBlockReference
  2
*T3
 10
0.52125
 20
1.459
 30
0.0
100
AcDbTable
342
       3BF
343
211
 11
1.0
 21
0.0
 31
0.0
 90
22
 91
3
 92
3
 93
16
 94
0
 95
0
 96
0
 41
0.05
141
0.34375
141
0.344
141
0.25
142
1.3
142
2.0
142
1.3
171
1
172
0
173
0
174
0
175
3
176
1
 91
33
178
0
145
0.0
301
CELL_VALUE
 90
4
  1
Port Headings
304
ACVALUE_END
170
5
140
0.145
171
1
172
0
173
1
174
0
175
1
176
1
 91
1
178
0
145
0.0
170
1
171
1
172
0
173
1
174
0
175
1
176
1
 91
1
178
0
145
0.0
170
1
171
1
172
0
173
0
174
0
175
1
176
1
 91
33
178
0
145
0.0
301
CELL_VALUE
 90
4
  1
Product
304
ACVALUE_END
170
5
140
0.145
171
1
172
0
173
0
174
0
175
1
176
1
 91
33
178
0
145
0.0
301
CELL_VALUE
 90
4
  1
Port
304
ACVALUE_END
170
5
140
0.145
171
1
172
0
173
0
174
0
175
1
176
1
 91
33
178
0
145
0.0
301
CELL_VALUE
 90
4
  1
Size
304
ACVALUE_END
170
5
140
0.145
171
1
172
0
173
0
174
0
175
1
176
1
 91
33
178
0
145
0.0
301
CELL_VALUE
 90
4
  1
E8U
304
ACVALUE_END
170
5
140
0.125
171
1
172
0
173
0
174
0
175
1
176
1
 91
33
178
0
145
0.0
301
CELL_VALUE
 90
4
  1
All Ports
304
ACVALUE_END
170
5
140
0.125
171
1
172
0
173
0
174
0
175
1
176
1
 91
33
178
0
145
0.0
301
CELL_VALUE
 90
4
  1
3/8" BSPP
304
ACVALUE_END
170
5
140
0.125
  0
MTEXT
  5
28C
100
AcDbEntity
  8
0
100
AcDbMText
 62
2
  6
CONTINUOUS
  7
STANDARD
 71
1
 72
1
 10
0.52125
 20
5.75995
 30
0.0
 11
1.0
 21
0.0
 31
0.0
 44
0.6
  3
Notes\P \P1. Important: Carefully consider\P   the maximum system pressure. The\P   pressure rating of the manifold is\P   dependent on the manifold material,\P   with the port type/size a secondary\P   consideration. Manifolds\P   constructed of alu
  1
minum are not\P   rated for pressures higher than\P   3000 psi (210 bar), regardless of\P   the port type/size specified.
 40
0.1
 41
3.04
  0
LINE
  5
28D
100
AcDbEntity
  8
0
100
AcDbLine
 62
7
  6
CONTINUOUS
 10
0.30125
 20
0.30125
 11
0.30125
 21
16.69875
  0
LINE
  5
28E
100
AcDbEntity
  8
0
100
AcDbLine
 62
7
  6
CONTINUOUS
 10
0.30125
 20
0.30125
 11
21.69875
 21
0.30125
  0
LINE
  5
28F
100
AcDbEntity
  8
0
100
AcDbLine
 62
7
  6
CONTINUOUS
 10
0.30125
 20
16.69875
 11
21.69875
 21
16.69875
  0
LINE
  5
290
100
AcDbEntity
  8
0
100
AcDbLine
 62
7
  6
CONTINUOUS
 10
21.69875
 20
0.30125
 11
21.69875
 21
16.69875
  0
LINE
  5
291
100
AcDbEntity
  8
0
100
AcDbLine
 62
7
  6
CONTINUOUS
 10
6.2847269346
 20
7.2308565608
 11
6.2617617756
 21
7.2860324222
  0
LINE
  5
292
100
AcDbEntity
  8
0
100
AcDbLine
 62
7
  6
CONTINUOUS
 10
6.5369543311
 20
5.7281345201
 11
6.5369543311
 21
10.5577639377
  0
LINE
  5
293
100
AcDbEntity
  8
0
100
AcDbLine
 62
7
  6
CONTINUOUS
 10
6.5369543311
 20
10.5577639377
 11
7.8310484886
 21
11.8077629802
  0
LINE
  5
294
100
AcDbEntity
  8
0
100
AcDbLine
 62
7
  6
CONTINUOUS
 10
6.3842650069
 20
8.8480067843
 11
6.3681955867
 21
8.8207613269
  0
LINE
  5
295
100
AcDbEntity
  8
0
100
AcDbLine
 62
7
  6
CONTINUOUS
 10
14.2643613992
 20
5.1922370198
 11
6.5369543311
 21
5.7281345201
  0
LINE
  5
296
100
AcDbEntity
  8
0
100
AcDbLine
 62
4
  6
CONTINUOUS
 10
13.1670696604
 20
6.1376677685
 11
12.9352474535
 21
6.0813002535
  0
LINE
  5
297
100
AcDbEntity
  8
0
100
AcDbLine
 62
4
  6
CONTINUOUS
 10
9.8578074836
 20
6.4396103196
 11
10.0896296905
 21
6.3510889553
  0
LINE
  5
298
100
AcDbEntity
  8
0
100
AcDbLine
 62
4
  6
CONTINUOUS
 10
12.9932030052
 20
6.6858143153
 11
13.051158557
 21
6.6962839721
  0
LINE
  5
299
100
AcDbEntity
  8
0
100
AcDbLine
 62
4
  6
CONTINUOUS
 10
13.1284326213
 20
6.3142139114
 11
13.089795596
 21
6.3168933982
  0
LINE
  5
29A
100
AcDbEntity
  8
0
100
AcDbLine
 62
4
  6
CONTINUOUS
 10
10.0896296905
 20
6.5829111621
 11
9.8578074836
 21
6.5989880868
  0
LINE
  5
29B
100
AcDbEntity
  8
0
100
AcDbLine
 62
4
  6
CONTINUOUS
 10
9.8964445192
 20
6.7701752544
 11
9.8771260014
 21
6.7860038861
  0
LINE
  5
29C
100
AcDbEntity
  8
0
100
AcDbLine
 62
4
  6
CONTINUOUS
 10
10.0896296905
 20
6.3510889553
 11
9.8578074836
 21
6.2947214403
  0
LINE
  5
29D
100
AcDbEntity
  8
0
100
AcDbLine
 62
7
  6
CONTINUOUS
 10
6.5369543311
 20
7.0757439338
 11
6.363650394
 21
7.0877626027
  0
LINE
  5
29E
100
AcDbEntity
  8
0
100
AcDbLine
 62
7
  6
CONTINUOUS
 10
6.5369543311
 20
7.1054657914
 11
6.3370994215
 21
7.1193257765
  0
LINE
  5
29F
100
AcDbEntity
  8
0
100
AcDbLine
 62
4
  6
CONTINUOUS
 10
9.973718587
 20
6.9097051589
 11
10.0316741388
 21
6.8911970398
  0
LINE
  5
2A0
100
AcDbEntity
  8
0
100
AcDbLine
 62
4
  6
CONTINUOUS
 10
10.0316741388
 20
6.8911970398
 11
10.0703111778
 21
6.8595397762
  0
LINE
  5
2A1
100
AcDbEntity
  8
0
100
AcDbLine
 62
4
  6
CONTINUOUS
 10
9.8771260014
 20
6.7860038861
 11
9.8578074836
 21
6.8163214057
  0
LINE
  5
2A2
100
AcDbEntity
  8
0
100
AcDbLine
 62
4
  6
CONTINUOUS
 10
10.0703111778
 20
6.8595397762
 11
10.0896296905
 21
6.8292222569
  0
LINE
  5
2A3
100
AcDbEntity
  8
0
100
AcDbLine
 62
4
  6
CONTINUOUS
 10
9.8578074836
 20
6.8163214057
 11
9.8578074836
 21
6.8452991816
  0
LINE
  5
2A4
100
AcDbEntity
  8
0
100
AcDbLine
 62
7
  6
CONTINUOUS
 10
9.7887990115
 20
9.0685608197
 11
9.9267056595
 21
9.2017684205
  0
LINE
  5
2A5
100
AcDbEntity
  8
0
100
AcDbLine
 62
4
  6
CONTINUOUS
 10
9.9157630353
 20
6.8992355021
 11
9.973718587
 21
6.9097051589
  0
LINE
  5
2A6
100
AcDbEntity
  8
0
100
AcDbLine
 62
7
  6
CONTINUOUS
 10
9.0616351837
 20
7.1752679347
 11
8.7782535056
 21
7.1949205208
  0
LINE
  5
2A7
100
AcDbEntity
  8
0
100
AcDbLine
 62
4
  6
CONTINUOUS
 10
12.9932030052
 20
6.4250143326
 11
12.9352474535
 21
6.4435224517
  0
LINE
  5
2A8
100
AcDbEntity
  8
0
100
AcDbLine
 62
4
  6
CONTINUOUS
 10
12.9352474535
 20
6.2261891328
 11
13.1670696604
 21
6.1376677685
  0
LINE
  5
2A9
100
AcDbEntity
  8
0
100
AcDbLine
 62
4
  6
CONTINUOUS
 10
9.9350815549
 20
6.4052735687
 11
9.9350815549
 21
6.3183402411
  0
LINE
  5
2AA
100
AcDbEntity
  8
0
100
AcDbLine
 62
4
  6
CONTINUOUS
 10
10.0896296905
 20
6.8292222569
 11
10.0896296905
 21
6.8002444811
  0
LINE
  5
2AB
100
AcDbEntity
  8
0
100
AcDbLine
 62
4
  6
CONTINUOUS
 10
10.5803199542
 20
9.2100074804
 11
10.599638472
 21
9.2376455124
  0
LINE
  5
2AC
100
AcDbEntity
  8
0
100
AcDbLine
 62
4
  6
CONTINUOUS
 10
10.599638472
 20
9.2376455124
 11
10.6382755059
 21
9.2639438009
  0
LINE
  5
2AD
100
AcDbEntity
  8
0
100
AcDbLine
 62
7
  6
CONTINUOUS
 10
6.5369543311
 20
7.7192202702
 11
6.2240447962
 21
7.7409206202
  0
LINE
  5
2AE
100
AcDbEntity
  8
0
100
AcDbLine
 62
7
  6
CONTINUOUS
 10
6.5369543311
 20
7.8336391611
 11
6.2240447962
 21
7.855339511
  0
LINE
  5
2AF
100
AcDbEntity
  8
0
100
AcDbLine
 62
4
  6
CONTINUOUS
 10
13.051158557
 20
6.6962839721
 11
13.1091141087
 21
6.677775853
  0
LINE
  5
2B0
100
AcDbEntity
  8
0
100
AcDbLine
 62
4
  6
CONTINUOUS
 10
10.5803199542
 20
8.8043186183
 11
10.5803199542
 21
8.7028964028
  0
LINE
  5
2B1
100
AcDbEntity
  8
0
100
AcDbLine
 62
4
  6
CONTINUOUS
 10
10.5803199542
 20
9.1810297045
 11
10.5803199542
 21
9.2100074804
  0
LINE
  5
2B2
100
AcDbEntity
  8
0
100
AcDbLine
 62
4
  6
CONTINUOUS
 10
10.8121421611
 20
9.1649527798
 11
10.7928236484
 21
9.1373147474
  0
LINE
  5
2B3
100
AcDbEntity
  8
0
100
AcDbLine
 62
7
  6
CONTINUOUS
 10
8.8007219057
 20
7.193362332
 11
8.7378528851
 21
7.1348504914
  0
LINE
  5
2B4
100
AcDbEntity
  8
0
100
AcDbLine
 62
4
  6
CONTINUOUS
 10
10.7928236484
 20
9.1373147474
 11
10.773505122
 21
9.1241656038
  0
LINE
  5
2B5
100
AcDbEntity
  8
0
100
AcDbLine
 62
4
  6
CONTINUOUS
 10
14.4662400823
 20
8.194217412
 11
14.4507109528
 21
8.1937063117
  0
LINE
  5
2B6
100
AcDbEntity
  8
0
100
AcDbLine
 62
4
  6
CONTINUOUS
 10
13.089795596
 20
6.3168933982
 11
13.0704770696
 21
6.3327220305
  0
LINE
  5
2B7
100
AcDbEntity
  8
0
100
AcDbLine
 62
4
  6
CONTINUOUS
 10
13.0318400374
 20
6.3933570695
 11
12.9932030052
 21
6.4250143326
  0
LINE
  5
2B8
100
AcDbEntity
  8
0
100
AcDbLine
 62
4
  6
CONTINUOUS
 10
10.7155495703
 20
8.7949404126
 11
10.7155495703
 21
8.6935181971
  0
LINE
  5
2B9
100
AcDbEntity
  8
0
100
AcDbLine
 62
4
  6
CONTINUOUS
 10
10.8121421611
 20
9.1939305557
 11
10.8121421611
 21
9.1649527798
  0
LINE
  5
2BA
100
AcDbEntity
  8
0
100
AcDbLine
 62
4
  6
CONTINUOUS
 10
10.8121421611
 20
8.6868194782
 11
10.8121421611
 21
8.7882416937
  0
LINE
  5
2BB
100
AcDbEntity
  8
0
100
AcDbLine
 62
4
  6
CONTINUOUS
 10
9.8578074836
 20
6.8452991816
 11
9.8771260014
 21
6.8729372137
  0
LINE
  5
2BC
100
AcDbEntity
  8
0
100
AcDbLine
 62
4
  6
CONTINUOUS
 10
10.6769125381
 20
8.6672199085
 11
10.7155495703
 21
8.6935181971
  0
LINE
  5
2BD
100
AcDbEntity
  8
0
100
AcDbLine
 62
4
  6
CONTINUOUS
 10
10.7928236484
 20
8.6736703337
 11
10.8121421611
 21
8.6868194782
  0
LINE
  5
2BE
100
AcDbEntity
  8
0
100
AcDbLine
 62
7
  6
CONTINUOUS
 10
14.7240631227
 20
7.9603021229
 11
15.5079916472
 21
7.905936495
  0
LINE
  5
2BF
100
AcDbEntity
  8
0
100
AcDbLine
 62
7
  6
CONTINUOUS
 10
6.5369543311
 20
8.6814791473
 11
6.3370994215
 21
8.6953391324
  0
LINE
  5
2C0
100
AcDbEntity
  8
0
100
AcDbLine
 62
7
  6
CONTINUOUS
 10
14.6434357387
 20
8.1850956337
 11
15.3121752921
 21
8.1387183882
  0
LINE
  5
2C1
100
AcDbEntity
  8
0
100
AcDbLine
 62
7
  6
CONTINUOUS
 10
6.5369543311
 20
8.7661761806
 11
6.363650394
 21
8.7781948494
  0
LINE
  5
2C2
100
AcDbEntity
  8
0
100
AcDbLine
 62
7
  6
CONTINUOUS
 10
14.6289751738
 20
8.2693181772
 11
15.296846081
 21
8.2230011725
  0
LINE
  5
2C3
100
AcDbEntity
  8
0
100
AcDbLine
 62
4
  6
CONTINUOUS
 10
13.1284326213
 20
6.4301250148
 11
13.1477511478
 21
6.4142963825
  0
LINE
  5
2C4
100
AcDbEntity
  8
0
100
AcDbLine
 62
4
  6
CONTINUOUS
 10
12.9738844891
 20
6.5567540676
 11
12.9545659713
 21
6.5725826993
  0
LINE
  5
2C5
100
AcDbEntity
  8
0
100
AcDbLine
 62
4
  6
CONTINUOUS
 10
10.5803199542
 20
8.7028964028
 11
10.6189569898
 21
8.6712391395
  0
LINE
  5
2C6
100
AcDbEntity
  8
0
100
AcDbLine
 62
4
  6
CONTINUOUS
 10
13.1091141087
 20
6.677775853
 11
13.1477511478
 21
6.6461185894
  0
LINE
  5
2C7
100
AcDbEntity
  8
0
100
AcDbLine
 62
4
  6
CONTINUOUS
 10
10.7155495703
 20
8.6935181971
 11
10.7348680967
 21
8.6776895648
  0
LINE
  5
2C8
100
AcDbEntity
  8
0
100
AcDbLine
 62
4
  6
CONTINUOUS
 10
10.599638472
 20
9.1507121849
 11
10.5803199542
 21
9.1810297045
  0
LINE
  5
2C9
100
AcDbEntity
  8
0
100
AcDbLine
 62
4
  6
CONTINUOUS
 10
10.0896296905
 20
6.8002444811
 11
10.0703111778
 21
6.7726064486
  0
LINE
  5
2CA
100
AcDbEntity
  8
0
100
AcDbLine
 62
4
  6
CONTINUOUS
 10
13.7195791296
 20
9.0502546688
 11
13.7775346813
 21
9.0607243256
  0
LINE
  5
2CB
100
AcDbEntity
  8
0
100
AcDbLine
 62
4
  6
CONTINUOUS
 10
14.4662400823
 20
8.8172395929
 11
14.4817692119
 21
8.8177506932
  0
LINE
  5
2CC
100
AcDbEntity
  8
0
100
AcDbLine
 62
4
  6
CONTINUOUS
 10
10.6189569898
 20
8.6712391395
 11
10.6769125381
 21
8.6672199085
  0
LINE
  5
2CD
100
AcDbEntity
  8
0
100
AcDbLine
 62
4
  6
CONTINUOUS
 10
13.7002606135
 20
8.4575500074
 11
13.7582161618
 21
8.4535307764
  0
LINE
  5
2CE
100
AcDbEntity
  8
0
100
AcDbLine
 62
4
  6
CONTINUOUS
 10
10.7348680967
 20
8.6776895648
 11
10.7928236484
 21
8.6736703337
  0
LINE
  5
2CF
100
AcDbEntity
  8
0
100
AcDbLine
 62
4
  6
CONTINUOUS
 10
13.8161717204
 20
8.4640004327
 11
13.8741272721
 21
8.4599812016
  0
LINE
  5
2D0
100
AcDbEntity
  8
0
100
AcDbLine
 62
4
  6
CONTINUOUS
 10
13.8934457848
 20
8.5745525616
 11
13.6616235779
 21
8.5906294862
  0
LINE
  5
2D1
100
AcDbEntity
  8
0
100
AcDbLine
 62
4
  6
CONTINUOUS
 10
10.8121421611
 20
8.7882416937
 11
10.5803199542
 21
8.8043186183
  0
LINE
  5
2D2
100
AcDbEntity
  8
0
100
AcDbLine
 62
4
  6
CONTINUOUS
 10
13.8548087457
 20
8.6786542649
 11
13.8161717204
 21
8.6813337517
  0
LINE
  5
2D3
100
AcDbEntity
  8
0
100
AcDbLine
 62
4
  6
CONTINUOUS
 10
10.8121421611
 20
8.9476194609
 11
10.5803199542
 21
8.9636963856
  0
LINE
  5
2D4
100
AcDbEntity
  8
0
100
AcDbLine
 62
4
  6
CONTINUOUS
 10
10.6189569898
 20
9.1348835532
 11
10.599638472
 21
9.1507121849
  0
LINE
  5
2D5
100
AcDbEntity
  8
0
100
AcDbLine
 62
4
  6
CONTINUOUS
 10
10.7541866094
 20
9.2559053386
 11
10.7928236484
 21
9.224248075
  0
LINE
  5
2D6
100
AcDbEntity
  8
0
100
AcDbLine
 62
4
  6
CONTINUOUS
 10
10.7928236484
 20
9.224248075
 11
10.8121421611
 21
9.1939305557
  0
LINE
  5
2D7
100
AcDbEntity
  8
0
100
AcDbLine
 62
4
  6
CONTINUOUS
 10
9.8771260014
 20
6.8729372137
 11
9.9157630353
 21
6.8992355021
  0
LINE
  5
2D8
100
AcDbEntity
  8
0
100
AcDbLine
 62
4
  6
CONTINUOUS
 10
10.6382755059
 20
9.2639438009
 11
10.6962310576
 21
9.2744134577
  0
LINE
  5
2D9
100
AcDbEntity
  8
0
100
AcDbLine
 62
4
  6
CONTINUOUS
 10
10.6962310576
 20
9.2744134577
 11
10.7541866094
 21
9.2559053386
  0
LINE
  5
2DA
100
AcDbEntity
  8
0
100
AcDbLine
 62
4
  6
CONTINUOUS
 10
13.0704770696
 20
6.3327220305
 11
13.0318400374
 21
6.3933570695
  0
LINE
  5
2DB
100
AcDbEntity
  8
0
100
AcDbLine
 62
4
  6
CONTINUOUS
 10
12.9545659713
 20
6.5725826993
 11
12.9352474535
 21
6.6029002189
  0
LINE
  5
2DC
100
AcDbEntity
  8
0
100
AcDbLine
 62
4
  6
CONTINUOUS
 10
13.1477511478
 20
6.4142963825
 11
13.1670696604
 21
6.3839788633
  0
LINE
  5
2DD
100
AcDbEntity
  8
0
100
AcDbLine
 62
4
  6
CONTINUOUS
 10
13.1477511478
 20
6.6461185894
 11
13.1670696604
 21
6.6158010701
  0
LINE
  5
2DE
100
AcDbEntity
  8
0
100
AcDbLine
 62
7
  6
CONTINUOUS
 10
14.2643613992
 20
10.0218664374
 11
15.5584555568
 21
11.2718654799
  0
LINE
  5
2DF
100
AcDbEntity
  8
0
100
AcDbLine
 62
4
  6
CONTINUOUS
 10
10.0703111778
 20
6.7726064486
 11
10.0509926514
 21
6.759457305
  0
LINE
  5
2E0
100
AcDbEntity
  8
0
100
AcDbLine
 62
4
  6
CONTINUOUS
 10
13.6809420957
 20
9.0239563804
 11
13.7195791296
 21
9.0502546688
  0
LINE
  5
2E1
100
AcDbEntity
  8
0
100
AcDbLine
 62
7
  6
CONTINUOUS
 10
14.6307725859
 20
9.1130454841
 11
15.296846081
 21
9.0668531304
  0
LINE
  5
2E2
100
AcDbEntity
  8
0
100
AcDbLine
 62
7
  6
CONTINUOUS
 10
14.6459425289
 20
9.2269530774
 11
15.3121752921
 21
9.1807496783
  0
LINE
  5
2E3
100
AcDbEntity
  8
0
100
AcDbLine
 62
4
  6
CONTINUOUS
 10
14.4972983414
 20
8.9341728969
 11
14.4351818232
 21
8.9466173838
  0
LINE
  5
2E4
100
AcDbEntity
  8
0
100
AcDbLine
 62
4
  6
CONTINUOUS
 10
13.7195791296
 20
8.7894546861
 11
13.6616235779
 21
8.8079628052
  0
LINE
  5
2E5
100
AcDbEntity
  8
0
100
AcDbLine
 62
4
  6
CONTINUOUS
 10
13.8741272721
 20
8.9236256153
 11
13.8548087457
 21
8.9104764717
  0
LINE
  5
2E6
100
AcDbEntity
  8
0
100
AcDbLine
 62
4
  6
CONTINUOUS
 10
13.8741272721
 20
8.6918034084
 11
13.8548087457
 21
8.6786542649
  0
LINE
  5
2E7
100
AcDbEntity
  8
0
100
AcDbLine
 62
4
  6
CONTINUOUS
 10
13.7582161618
 20
8.4535307764
 11
13.796853194
 21
8.479829065
  0
LINE
  5
2E8
100
AcDbEntity
  8
0
100
AcDbLine
 62
7
  6
CONTINUOUS
 10
14.8321061178
 20
9.8386925637
 11
15.5079916472
 21
9.791819743
  0
LINE
  5
2E9
100
AcDbEntity
  8
0
100
AcDbLine
 62
4
  6
CONTINUOUS
 10
13.7775346813
 20
9.0607243256
 11
13.8354902331
 21
9.0422162065
  0
LINE
  5
2EA
100
AcDbEntity
  8
0
100
AcDbLine
 62
4
  6
CONTINUOUS
 10
12.9352474535
 20
6.4435224517
 11
12.9352474535
 21
6.3276113483
  0
LINE
  5
2EB
100
AcDbEntity
  8
0
100
AcDbLine
 62
4
  6
CONTINUOUS
 10
12.9352474535
 20
6.6029002189
 11
12.9352474535
 21
6.6318779948
  0
LINE
  5
2EC
100
AcDbEntity
  8
0
100
AcDbLine
 62
4
  6
CONTINUOUS
 10
13.6616235779
 20
8.9963183483
 11
13.6809420957
 21
9.0239563804
  0
LINE
  5
2ED
100
AcDbEntity
  8
0
100
AcDbLine
 62
4
  6
CONTINUOUS
 10
13.8741272721
 20
8.4599812016
 11
13.8934457848
 21
8.4731303461
  0
LINE
  5
2EE
100
AcDbEntity
  8
0
100
AcDbLine
 62
7
  6
CONTINUOUS
 10
14.8562329254
 20
9.8687592963
 11
15.5386500695
 21
9.8214335067
  0
LINE
  5
2EF
100
AcDbEntity
  8
0
100
AcDbLine
 62
7
  6
CONTINUOUS
 10
6.5369543311
 20
10.5577639377
 11
14.2643613992
 21
10.0218664374
  0
LINE
  5
2F0
100
AcDbEntity
  8
0
100
AcDbLine
 62
4
  6
CONTINUOUS
 10
13.6616235779
 20
8.4892072707
 11
13.7002606135
 21
8.4575500074
  0
LINE
  5
2F1
100
AcDbEntity
  8
0
100
AcDbLine
 62
4
  6
CONTINUOUS
 10
13.796853194
 20
8.479829065
 11
13.8161717204
 21
8.4640004327
  0
LINE
  5
2F2
100
AcDbEntity
  8
0
100
AcDbLine
 62
4
  6
CONTINUOUS
 10
13.8161717204
 20
8.6813337517
 11
13.796853194
 21
8.697162384
  0
LINE
  5
2F3
100
AcDbEntity
  8
0
100
AcDbLine
 62
4
  6
CONTINUOUS
 10
13.7582161618
 20
8.757797423
 11
13.7195791296
 21
8.7894546861
  0
LINE
  5
2F4
100
AcDbEntity
  8
0
100
AcDbLine
 62
4
  6
CONTINUOUS
 10
13.0125215248
 20
6.1918523819
 11
13.0125215248
 21
6.1049190543
  0
LINE
  5
2F5
100
AcDbEntity
  8
0
100
AcDbLine
 62
4
  6
CONTINUOUS
 10
13.1670696604
 20
6.6158010701
 11
13.1670696604
 21
6.5868232943
  0
LINE
  5
2F6
100
AcDbEntity
  8
0
100
AcDbLine
 62
4
  6
CONTINUOUS
 10
13.1670696604
 20
6.3839788633
 11
13.1670696604
 21
6.3550010874
  0
LINE
  5
2F7
100
AcDbEntity
  8
0
100
AcDbLine
 62
4
  6
CONTINUOUS
 10
13.8934457848
 20
8.9512636478
 11
13.8741272721
 21
8.9236256153
  0
LINE
  5
2F8
100
AcDbEntity
  8
0
100
AcDbLine
 62
4
  6
CONTINUOUS
 10
13.8934457848
 20
8.7194414409
 11
13.8741272721
 21
8.6918034084
  0
LINE
  5
2F9
100
AcDbEntity
  8
0
100
AcDbLine
 62
4
  6
CONTINUOUS
 10
14.4972983414
 20
8.7168395779
 11
14.4351818232
 21
8.6568396252
  0
LINE
  5
2FA
100
AcDbEntity
  8
0
100
AcDbLine
 62
4
  6
CONTINUOUS
 10
13.8548087457
 20
8.7945653683
 11
13.8741272721
 21
8.778736736
  0
LINE
  5
2FB
100
AcDbEntity
  8
0
100
AcDbLine
 62
4
  6
CONTINUOUS
 10
13.7002606135
 20
8.9211944211
 11
13.6809420957
 21
8.9370230528
  0
LINE
  5
2FC
100
AcDbEntity
  8
0
100
AcDbLine
 62
4
  6
CONTINUOUS
 10
13.8354902331
 20
9.0422162065
 11
13.8741272721
 21
9.0105589429
  0
LINE
  5
2FD
100
AcDbEntity
  8
0
100
AcDbLine
 62
4
  6
CONTINUOUS
 10
14.4972983414
 20
8.4850173711
 11
14.4351818232
 21
8.5409285218
  0
LINE
  5
2FE
100
AcDbEntity
  8
0
100
AcDbLine
 62
4
  6
CONTINUOUS
 10
13.6616235779
 20
8.8079628052
 11
13.6616235779
 21
8.6920517018
  0
LINE
  5
2FF
100
AcDbEntity
  8
0
100
AcDbLine
 62
4
  6
CONTINUOUS
 10
13.6616235779
 20
8.5906294862
 11
13.6616235779
 21
8.4892072707
  0
LINE
  5
300
100
AcDbEntity
  8
0
100
AcDbLine
 62
4
  6
CONTINUOUS
 10
13.6616235779
 20
8.9673405724
 11
13.6616235779
 21
8.9963183483
  0
LINE
  5
301
100
AcDbEntity
  8
0
100
AcDbLine
 62
4
  6
CONTINUOUS
 10
12.9352474535
 20
6.6318779948
 11
12.9545659713
 21
6.6595160269
  0
LINE
  5
302
100
AcDbEntity
  8
0
100
AcDbLine
 62
4
  6
CONTINUOUS
 10
12.9545659713
 20
6.6595160269
 11
12.9932030052
 21
6.6858143153
  0
LINE
  5
303
100
AcDbEntity
  8
0
100
AcDbLine
 62
4
  6
CONTINUOUS
 10
13.796853194
 20
8.697162384
 11
13.7582161618
 21
8.757797423
  0
LINE
  5
304
100
AcDbEntity
  8
0
100
AcDbLine
 62
4
  6
CONTINUOUS
 10
13.6809420957
 20
8.9370230528
 11
13.6616235779
 21
8.9673405724
  0
LINE
  5
305
100
AcDbEntity
  8
0
100
AcDbLine
 62
4
  6
CONTINUOUS
 10
13.8741272721
 20
8.778736736
 11
13.8934457848
 21
8.7484192167
  0
LINE
  5
306
100
AcDbEntity
  8
0
100
AcDbLine
 62
4
  6
CONTINUOUS
 10
13.8741272721
 20
9.0105589429
 11
13.8934457848
 21
8.9802414236
  0
LINE
  5
307
100
AcDbEntity
  8
0
100
AcDbLine
 62
4
  6
CONTINUOUS
 10
13.796853194
 20
8.5812512805
 11
13.796853194
 21
8.479829065
  0
LINE
  5
308
100
AcDbEntity
  8
0
100
AcDbLine
 62
4
  6
CONTINUOUS
 10
13.8934457848
 20
8.9802414236
 11
13.8934457848
 21
8.9512636478
  0
LINE
  5
309
100
AcDbEntity
  8
0
100
AcDbLine
 62
4
  6
CONTINUOUS
 10
13.8934457848
 20
8.7484192167
 11
13.8934457848
 21
8.7194414409
  0
LINE
  5
30A
100
AcDbEntity
  8
0
100
AcDbLine
 62
4
  6
CONTINUOUS
 10
13.8934457848
 20
8.4731303461
 11
13.8934457848
 21
8.5745525616
  0
LINE
  5
30B
100
AcDbEntity
  8
0
100
AcDbLine
 62
4
  6
CONTINUOUS
 10
14.4351818232
 20
8.9466173838
 11
14.4972983414
 21
9.0790617761
  0
LINE
  5
30C
100
AcDbEntity
  8
0
100
AcDbLine
 62
4
  6
CONTINUOUS
 10
14.4507109528
 20
8.7877507168
 11
14.4662400823
 21
8.8172395929
  0
LINE
  5
30D
100
AcDbEntity
  8
0
100
AcDbLine
 62
4
  6
CONTINUOUS
 10
13.1670696604
 20
6.5868232943
 11
13.1477511478
 21
6.5591852618
  0
LINE
  5
30E
100
AcDbEntity
  8
0
100
AcDbLine
 62
4
  6
CONTINUOUS
 10
13.1670696604
 20
6.3550010874
 11
13.1477511478
 21
6.3273630549
  0
LINE
  5
30F
100
AcDbEntity
  8
0
100
AcDbLine
 62
4
  6
CONTINUOUS
 10
13.1477511478
 20
6.5591852618
 11
13.1284326213
 21
6.5460361182
  0
LINE
  5
310
100
AcDbEntity
  8
0
100
AcDbLine
 62
4
  6
CONTINUOUS
 10
13.1477511478
 20
6.3273630549
 11
13.1284326213
 21
6.3142139114
  0
LINE
  5
311
100
AcDbEntity
  8
0
100
AcDbLine
 62
7
  6
CONTINUOUS
 10
7.8310484886
 20
11.8077629802
 11
15.5584555568
 21
11.2718654799
  0
LINE
  5
312
100
AcDbEntity
  8
0
100
AcDbLine
 62
4
  6
CONTINUOUS
 10
14.4507109528
 20
8.1937063117
 11
14.4403581985
 21
8.2126840943
  0
LINE
  5
313
100
AcDbEntity
  8
0
100
AcDbLine
 62
4
  6
CONTINUOUS
 10
14.4869455881
 20
8.3591062752
 11
14.4921219648
 21
8.3496173835
  0
LINE
  5
314
100
AcDbEntity
  8
0
100
AcDbLine
 62
7
  6
CONTINUOUS
 10
14.2643613992
 20
10.0218664374
 11
14.2643613992
 21
5.1922370198
  0
LINE
  5
315
100
AcDbEntity
  8
0
100
AcDbLine
 62
4
  6
CONTINUOUS
 10
14.4351818232
 20
8.2366618753
 11
14.4351818232
 21
8.2656396511
  0
LINE
  5
316
100
AcDbEntity
  8
0
100
AcDbLine
 62
4
  6
CONTINUOUS
 10
14.4351818232
 20
8.6568396252
 11
14.4351818232
 21
8.7147951769
  0
LINE
  5
317
100
AcDbEntity
  8
0
100
AcDbLine
 62
4
  6
CONTINUOUS
 10
14.4765928347
 20
8.9431506879
 11
14.4765928347
 21
9.0300840155
  0
LINE
  5
318
100
AcDbEntity
  8
0
100
AcDbLine
 62
4
  6
CONTINUOUS
 10
14.4972983414
 20
8.7747951296
 11
14.4972983414
 21
8.7168395779
  0
LINE
  5
319
100
AcDbEntity
  8
0
100
AcDbLine
 62
4
  6
CONTINUOUS
 10
14.4972983414
 20
8.3256396038
 11
14.4972983414
 21
8.296661828
  0
LINE
  5
31A
100
AcDbEntity
  8
0
100
AcDbLine
 62
4
  6
CONTINUOUS
 10
14.4351818232
 20
8.7147951769
 11
14.4403581985
 21
8.7487729477
  0
LINE
  5
31B
100
AcDbEntity
  8
0
100
AcDbLine
 62
4
  6
CONTINUOUS
 10
14.4351818232
 20
8.2656396511
 11
14.4403581985
 21
8.2996174219
  0
LINE
  5
31C
100
AcDbEntity
  8
0
100
AcDbLine
 62
4
  6
CONTINUOUS
 10
14.4972983414
 20
8.296661828
 11
14.4921219648
 21
8.2626840559
  0
LINE
  5
31D
100
AcDbEntity
  8
0
100
AcDbLine
 62
4
  6
CONTINUOUS
 10
14.4403581985
 20
8.7487729477
 11
14.4507109528
 21
8.7877507168
  0
LINE
  5
31E
100
AcDbEntity
  8
0
100
AcDbLine
 62
4
  6
CONTINUOUS
 10
14.4403581985
 20
8.2996174219
 11
14.4455345775
 21
8.3191063082
  0
LINE
  5
31F
100
AcDbEntity
  8
0
100
AcDbLine
 62
4
  6
CONTINUOUS
 10
14.4921219648
 20
8.2626840559
 11
14.4817692119
 21
8.2237062881
  0
LINE
  5
320
100
AcDbEntity
  8
0
100
AcDbLine
 62
4
  6
CONTINUOUS
 10
14.4351818232
 20
8.4250174184
 11
14.4972983414
 21
8.6009284745
  0
LINE
  5
321
100
AcDbEntity
  8
0
100
AcDbLine
 62
4
  6
CONTINUOUS
 10
14.4817692119
 20
8.2237062881
 11
14.4662400823
 21
8.194217412
  0
LINE
  5
322
100
AcDbEntity
  8
0
100
AcDbLine
 62
4
  6
CONTINUOUS
 10
14.4817692119
 20
8.8177506932
 11
14.4921219648
 21
8.7987729093
  0
LINE
  5
323
100
AcDbEntity
  8
0
100
AcDbLine
 62
4
  6
CONTINUOUS
 10
14.4403581985
 20
8.2126840943
 11
14.4351818232
 21
8.2366618753
  0
LINE
  5
324
100
AcDbEntity
  8
0
100
AcDbLine
 62
4
  6
CONTINUOUS
 10
14.4921219648
 20
8.3496173835
 11
14.4972983414
 21
8.3256396038
  0
LINE
  5
325
100
AcDbEntity
  8
0
100
AcDbLine
 62
4
  6
CONTINUOUS
 10
14.4921219648
 20
8.7987729093
 11
14.4972983414
 21
8.7747951296
  0
LINE
  5
326
100
AcDbEntity
  8
0
100
AcDbLine
 62
7
  6
CONTINUOUS
 10
15.5987063177
 20
8.0289435963
 11
15.631830291
 21
8.0851047889
  0
LINE
  5
327
100
AcDbEntity
  8
0
100
AcDbLine
 62
7
  6
CONTINUOUS
 10
15.5584555568
 20
11.2718654799
 11
15.5584555568
 21
9.8093160423
  0
LINE
  5
328
100
AcDbEntity
  8
0
100
AcDbLine
 62
7
  6
CONTINUOUS
 10
15.5584555568
 20
7.9647932894
 11
15.5584555568
 21
6.4422360623
  0
LINE
  5
329
100
AcDbEntity
  8
0
100
AcDbLine
 62
7
  6
CONTINUOUS
 10
14.2643613992
 20
5.1922370198
 11
15.5584555568
 21
6.4422360623
  0
LINE
  5
32A
100
AcDbEntity
  8
0
100
AcDbLine
 62
7
  6
CONTINUOUS
 10
15.7248663302
 20
9.6520230463
 11
15.7382641021
 21
9.6198336935
  0
ARC
  5
32B
100
AcDbEntity
  8
0
100
AcDbCircle
 62
7
  6
CONTINUOUS
 10
9.8273466767
 20
7.7974741162
 40
3.6037664805
100
AcDbArc
 50
179.0799666396
 51
179.9967059793
  0
ARC
  5
32C
100
AcDbEntity
  8
0
100
AcDbCircle
 62
7
  6
CONTINUOUS
 10
9.6616500743
 20
7.7974401375
 40
3.4380698806
100
AcDbArc
 50
179.9959809667
 51
180.9419458577
  0
ARC
  5
32D
100
AcDbEntity
  8
0
100
AcDbCircle
 62
7
  6
CONTINUOUS
 10
10.7980755747
 20
7.3691377749
 40
1.1422533133
100
AcDbArc
 50
340.6557138233
 51
343.455477298
  0
ARC
  5
32E
100
AcDbEntity
  8
0
100
AcDbCircle
 62
7
  6
CONTINUOUS
 10
10.7851573994
 20
7.3925105744
 40
1.1040549514
100
AcDbArc
 50
340.9605267278
 51
343.7472297862
  0
ARC
  5
32F
100
AcDbEntity
  8
0
100
AcDbCircle
 62
7
  6
CONTINUOUS
 10
9.4169340396
 20
9.0852754837
 40
0.8270591393
100
AcDbArc
 50
312.4115989855
 51
313.1280119249
  0
ARC
  5
330
100
AcDbEntity
  8
0
100
AcDbCircle
 62
7
  6
CONTINUOUS
 10
11.5883355658
 20
6.5198735676
 40
0.8270591393
100
AcDbArc
 50
312.4115989855
 51
313.1280119249
  0
ARC
  5
331
100
AcDbEntity
  8
0
100
AcDbCircle
 62
7
  6
CONTINUOUS
 10
8.6905579152
 20
6.7208351302
 40
0.8270591392
100
AcDbArc
 50
312.4115989854
 51
313.1280119249
  0
ARC
  5
332
100
AcDbEntity
  8
0
100
AcDbCircle
 62
7
  6
CONTINUOUS
 10
12.3147116902
 20
8.884313921
 40
0.8270591392
100
AcDbArc
 50
312.4115989854
 51
313.128011925
  0
ARC
  5
333
100
AcDbEntity
  8
0
100
AcDbCircle
 62
7
  6
CONTINUOUS
 10
12.1438339631
 20
9.0612178135
 40
0.8269851419
100
AcDbArc
 50
134.6521134011
 51
135.5734663776
  0
ARC
  5
334
100
AcDbEntity
  8
0
100
AcDbCircle
 62
7
  6
CONTINUOUS
 10
8.5196801882
 20
6.8977390226
 40
0.8269851419
100
AcDbArc
 50
134.6521134011
 51
135.5734663776
  0
ARC
  5
335
100
AcDbEntity
  8
0
100
AcDbCircle
 62
7
  6
CONTINUOUS
 10
11.4174578387
 20
6.69677746
 40
0.8269851419
100
AcDbArc
 50
134.652113401
 51
135.5734663776
  0
ARC
  5
336
100
AcDbEntity
  8
0
100
AcDbCircle
 62
7
  6
CONTINUOUS
 10
9.2460563126
 20
9.2621793761
 40
0.8269851419
100
AcDbArc
 50
134.6521134011
 51
135.5734663776
  0
SPLINE
  5
337
100
AcDbEntity
  8
0
100
AcDbSpline
 62
7
  6
CONTINUOUS
 70
0
 71
3
 72
53
 73
49
 74
0
 42
0.0000001
 43
0.0000001
 44
0.0000000001
 40
0.0
 40
0.0
 40
0.0
 40
0.0
 40
0.0354700217
 40
0.071271944
 40
0.1073440507
 40
0.1436238259
 40
0.1800483496
 40
0.2165543815
 40
0.2530785008
 40
0.2895572468
 40
0.3259272586
 40
0.3621254156
 40
0.3980889757
 40
0.4337557202
 40
0.4690640885
 40
0.5039533278
 40
0.5383636313
 40
0.5722362854
 40
0.6055138211
 40
0.6381401576
 40
0.6541921204
 40
0.6700609679
 40
0.6857401537
 40
0.7012232497
 40
0.7165039484
 40
0.7315760705
 40
0.7464335755
 40
0.7610705611
 40
0.7754812701
 40
0.7896601032
 40
0.8036016223
 40
0.8173005545
 40
0.8307518049
 40
0.8439504676
 40
0.8568918278
 40
0.8695713734
 40
0.8819848128
 40
0.89412808
 40
0.905997346
 40
0.9175890392
 40
0.9288998608
 40
0.9399267965
 40
0.9506671395
 40
0.9611185188
 40
0.9712789164
 40
0.981146696
 40
0.9907206436
 40
1.0
 40
1.0
 40
1.0
 40
1.0
 10
6.1883148711
 20
7.8317449379
 30
0.0
 10
6.1883148711
 20
7.8437296326
 30
0.0
 10
6.1884544352
 20
7.8678113809
 30
0.0
 10
6.1890742259
 20
7.9040764641
 30
0.0
 10
6.1901044235
 20
7.9406059545
 30
0.0
 10
6.1915431336
 20
7.9773321393
 30
0.0
 10
6.1933876969
 20
8.0141869732
 30
0.0
 10
6.1956347051
 20
8.0511021679
 30
0.0
 10
6.198279993
 20
8.0880093285
 30
0.0
 10
6.2013186626
 20
8.1248400728
 30
0.0
 10
6.2047450778
 20
8.1615261614
 30
0.0
 10
6.2085528831
 20
8.1979996238
 30
0.0
 10
6.212735016
 20
8.2341928847
 30
0.0
 10
6.2172837103
 20
8.2700388905
 30
0.0
 10
6.2221905261
 20
8.3054712328
 30
0.0
 10
6.2274463484
 20
8.3404242745
 30
0.0
 10
6.233041417
 20
8.3748332658
 30
0.0
 10
6.2389653384
 20
8.4086344868
 30
0.0
 10
6.2452071031
 20
8.4417652887
 30
0.0
 10
6.2506929212
 20
8.4689088394
 30
0.0
 10
6.2552350605
 20
8.4902401049
 30
0.0
 10
6.2586953879
 20
8.5059467907
 30
0.0
 10
6.2622261845
 20
8.5214407072
 30
0.0
 10
6.2658258178
 20
8.536714685
 30
0.0
 10
6.2694926173
 20
8.5517616464
 30
0.0
 10
6.2732248841
 20
8.5665746217
 30
0.0
 10
6.2770208848
 20
8.5811467504
 30
0.0
 10
6.2808788588
 20
8.5954712836
 30
0.0
 10
6.2847970183
 20
8.6095415863
 30
0.0
 10
6.2887735446
 20
8.623351143
 30
0.0
 10
6.292806592
 20
8.63689356
 30
0.0
 10
6.2968942912
 20
8.650162566
 30
0.0
 10
6.3010347464
 20
8.6631520178
 30
0.0
 10
6.3052260349
 20
8.6758559036
 30
0.0
 10
6.3094662131
 20
8.6882683434
 30
0.0
 10
6.3137533162
 20
8.7003835922
 30
0.0
 10
6.3180853537
 20
8.7121960457
 30
0.0
 10
6.3224603159
 20
8.7237002404
 30
0.0
 10
6.3268761762
 20
8.7348908552
 30
0.0
 10
6.3313308868
 20
8.745762717
 30
0.0
 10
6.3358223812
 20
8.7563108028
 30
0.0
 10
6.3403485792
 20
8.7665302395
 30
0.0
 10
6.344907386
 20
8.7764163076
 30
0.0
 10
6.3494966895
 20
8.7859644483
 30
0.0
 10
6.3541143643
 20
8.7951702549
 30
0.0
 10
6.3587582875
 20
8.8040294991
 30
0.0
 10
6.3634262838
 20
8.8125380504
 30
0.0
 10
6.3666026273
 20
8.8180604852
 30
0.0
 10
6.3681954439
 20
8.8207610841
 30
0.0
  0
SPLINE
  5
338
100
AcDbEntity
  8
0
100
AcDbSpline
 62
7
  6
CONTINUOUS
 70
0
 71
3
 72
15
 73
11
 74
0
 42
0.0000001
 43
0.0000001
 44
0.0000000001
 40
0.0
 40
0.0
 40
0.0
 40
0.0
 40
0.1130134526
 40
0.2292354891
 40
0.3487879676
 40
0.4717828379
 40
0.598318796
 40
0.7284835129
 40
0.8623555254
 40
1.0
 40
1.0
 40
1.0
 40
1.0
 10
6.363650394
 20
7.0877626027
 30
0.0
 10
6.3624908372
 20
7.0888028288
 30
0.0
 10
6.3601804337
 20
7.0909596525
 30
0.0
 10
6.3567891789
 20
7.0943688191
 30
0.0
 10
6.353425642
 20
7.0979953443
 30
0.0
 10
6.3500906368
 20
7.1018383092
 30
0.0
 10
6.3467848584
 20
7.1058968516
 30
0.0
 10
6.3435090287
 20
7.1101700642
 30
0.0
 10
6.3402639077
 20
7.1146569218
 30
0.0
 10
6.3381510471
 20
7.1177466132
 30
0.0
 10
6.3370994215
 20
7.1193257765
 30
0.0
  0
SPLINE
  5
339
100
AcDbEntity
  8
0
100
AcDbSpline
 62
7
  6
CONTINUOUS
 70
0
 71
3
 72
11
 73
7
 74
0
 42
0.0000001
 43
0.0000001
 44
0.0000000001
 40
0.0
 40
0.0
 40
0.0
 40
0.0
 40
0.2527935986
 40
0.5037865761
 40
0.7528844832
 40
1.0
 40
1.0
 40
1.0
 40
1.0
 10
6.3370994215
 20
7.1193257765
 30
0.0
 10
6.3323112485
 20
7.1285455433
 30
0.0
 10
6.3229344597
 20
7.1470059823
 30
0.0
 10
6.3094636658
 20
7.1748630123
 30
0.0
 10
6.2966805588
 20
7.2027860575
 30
0.0
 10
6.2886139997
 20
7.2215179698
 30
0.0
 10
6.2847114278
 20
7.2308938191
 30
0.0
  0
SPLINE
  5
33A
100
AcDbEntity
  8
0
100
AcDbSpline
 62
7
  6
CONTINUOUS
 70
0
 71
3
 72
23
 73
19
 74
0
 42
0.0000001
 43
0.0000001
 44
0.0000000001
 40
0.0
 40
0.0
 40
0.0
 40
0.0
 40
0.054423514
 40
0.1090638306
 40
0.1641349447
 40
0.2198454629
 40
0.2763962046
 40
0.3339783868
 40
0.3927720233
 40
0.4529450965
 40
0.5146528071
 40
0.5780376187
 40
0.6432291757
 40
0.7103449222
 40
0.7794904284
 40
0.8507602809
 40
0.9242386036
 40
1.0
 40
1.0
 40
1.0
 40
1.0
 10
8.6861287837
 20
7.1120956297
 30
0.0
 10
8.6871809203
 20
7.1120226658
 30
0.0
 10
8.6892948126
 20
7.1119453792
 30
0.0
 10
8.6924763694
 20
7.112036403
 30
0.0
 10
8.6956704061
 20
7.1123341626
 30
0.0
 10
8.6988757624
 20
7.1128385298
 30
0.0
 10
8.7020915362
 20
7.1135492385
 30
0.0
 10
8.7053167844
 20
7.1144660017
 30
0.0
 10
8.7085506227
 20
7.1155884307
 30
0.0
 10
8.711792174
 20
7.1169161291
 30
0.0
 10
8.7150406005
 20
7.1184486187
 30
0.0
 10
8.7182950617
 20
7.1201854179
 30
0.0
 10
8.7215547451
 20
7.1221259749
 30
0.0
 10
8.724818826
 20
7.1242697298
 30
0.0
 10
8.7280864947
 20
7.1266160552
 30
0.0
 10
8.7313569369
 20
7.1291643171
 30
0.0
 10
8.7346292961
 20
7.1319137704
 30
0.0
 10
8.7367781987
 20
7.1338502883
 30
0.0
 10
8.7378529233
 20
7.1348505283
 30
0.0
  0
SPLINE
  5
33B
100
AcDbEntity
  8
0
100
AcDbSpline
 62
7
  6
CONTINUOUS
 70
0
 71
3
 72
23
 73
19
 74
0
 42
0.0000001
 43
0.0000001
 44
0.0000000001
 40
0.0
 40
0.0
 40
0.0
 40
0.0
 40
0.0475983087
 40
0.0967765629
 40
0.1476852236
 40
0.2004585287
 40
0.2552116565
 40
0.3120387067
 40
0.3710116439
 40
0.4321800173
 40
0.4955714033
 40
0.5611926193
 40
0.6290314175
 40
0.6990585138
 40
0.7712299145
 40
0.8454893448
 40
0.9217706317
 40
1.0
 40
1.0
 40
1.0
 40
1.0
 10
6.3842443918
 20
8.847971831
 30
0.0
 10
6.3858434196
 20
8.8506831085
 30
0.0
 10
6.3892527576
 20
8.8561038132
 30
0.0
 10
6.3948946875
 20
8.8640810438
 30
0.0
 10
6.4011522957
 20
8.8720255333
 30
0.0
 10
6.4080315793
 20
8.8799332213
 30
0.0
 10
6.415535553
 20
8.8878006695
 30
0.0
 10
6.4236637916
 20
8.895624527
 30
0.0
 10
6.4324125294
 20
8.9034017278
 30
0.0
 10
6.4417747001
 20
8.911129489
 30
0.0
 10
6.4517400918
 20
8.9188053804
 30
0.0
 10
6.4622956029
 20
8.9264273362
 30
0.0
 10
6.4734255522
 20
8.9339936804
 30
0.0
 10
6.4851120322
 20
8.9415031517
 30
0.0
 10
6.4973353014
 20
8.948954896
 30
0.0
 10
6.5100742105
 20
8.956348463
 30
0.0
 10
6.5233065229
 20
8.9636837555
 30
0.0
 10
6.5323311976
 20
8.9684765608
 30
0.0
 10
6.5369196775
 20
8.9708659339
 30
0.0
  0
SPLINE
  5
33C
100
AcDbEntity
  8
0
100
AcDbSpline
 62
7
  6
CONTINUOUS
 70
0
 71
3
 72
39
 73
35
 74
0
 42
0.0000001
 43
0.0000001
 44
0.0000000001
 40
0.0
 40
0.0
 40
0.0
 40
0.0
 40
0.020705896
 40
0.0422069992
 40
0.064500326
 40
0.0875811462
 40
0.1114431524
 40
0.1360786007
 40
0.1614784371
 40
0.1876324038
 40
0.2145291301
 40
0.2421562144
 40
0.2705002944
 40
0.2995471085
 40
0.3292815523
 40
0.3596877294
 40
0.3907489969
 40
0.4224480095
 40
0.4547667563
 40
0.4876865961
 40
0.5211882928
 40
0.5552520438
 40
0.5898575113
 40
0.624983853
 40
0.6606097466
 40
0.6967134177
 40
0.7332726655
 40
0.7702648851
 40
0.8076670952
 40
0.8454559472
 40
0.8836078107
 40
0.9220985877
 40
0.9609042941
 40
1.0
 40
1.0
 40
1.0
 40
1.0
 10
6.2617617177
 20
7.2860325637
 30
0.0
 10
6.2602936828
 20
7.2895596525
 30
0.0
 10
6.2573967717
 20
7.2967893671
 30
0.0
 10
6.2532381452
 20
7.3079410224
 30
0.0
 10
6.2491869984
 20
7.3195970868
 30
0.0
 10
6.2452461322
 20
7.3317495614
 30
0.0
 10
6.2414182255
 20
7.3443902319
 30
0.0
 10
6.2377058981
 20
7.3575105039
 30
0.0
 10
6.2341116899
 20
7.3711014584
 30
0.0
 10
6.2306380629
 20
7.3851538461
 30
0.0
 10
6.2272873976
 20
7.3996580977
 30
0.0
 10
6.2240619914
 20
7.4146043312
 30
0.0
 10
6.2209640566
 20
7.4299823583
 30
0.0
 10
6.2179957183
 20
7.4457816926
 30
0.0
 10
6.2151590126
 20
7.4619915563
 30
0.0
 10
6.2124558855
 20
7.4786008886
 30
0.0
 10
6.2098881914
 20
7.4955983539
 30
0.0
 10
6.2074576922
 20
7.5129723495
 30
0.0
 10
6.2051660554
 20
7.5307110145
 30
0.0
 10
6.2030148535
 20
7.5488022372
 30
0.0
 10
6.2010055627
 20
7.5672336637
 30
0.0
 10
6.1991395615
 20
7.5859927064
 30
0.0
 10
6.1974181298
 20
7.6050665528
 30
0.0
 10
6.1958424489
 20
7.6244421747
 30
0.0
 10
6.1944136
 20
7.6441063372
 30
0.0
 10
6.1931325637
 20
7.6640456078
 30
0.0
 10
6.1920002195
 20
7.6842463653
 30
0.0
 10
6.1910173448
 20
7.7046948099
 30
0.0
 10
6.1901846148
 20
7.7253769698
 30
0.0
 10
6.1895026003
 20
7.7462787207
 30
0.0
 10
6.1889717725
 20
7.7673857646
 30
0.0
 10
6.188592492
 20
7.7886837211
 30
0.0
 10
6.1883650271
 20
7.8101579809
 30
0.0
 10
6.1883148711
 20
7.8245314676
 30
0.0
 10
6.1883148711
 20
7.8317449379
 30
0.0
  0
SPLINE
  5
33D
100
AcDbEntity
  8
0
100
AcDbSpline
 62
7
  6
CONTINUOUS
 70
0
 71
3
 72
59
 73
55
 74
0
 42
0.0000001
 43
0.0000001
 44
0.0000000001
 40
0.0
 40
0.0
 40
0.0
 40
0.0
 40
0.0496555186
 40
0.0982586676
 40
0.145778937
 40
0.1921871209
 40
0.2374554028
 40
0.2815574428
 40
0.3244684767
 40
0.3661654322
 40
0.4066270545
 40
0.4458340474
 40
0.4837692433
 40
0.5204177965
 40
0.5382558992
 40
0.5557679517
 40
0.5729528654
 40
0.5898097258
 40
0.6063378518
 40
0.6225367478
 40
0.63840618
 40
0.6539461332
 40
0.6691568705
 40
0.6840389269
 40
0.6985931288
 40
0.7128206362
 40
0.7267229246
 40
0.7403018654
 40
0.7535596912
 40
0.7664990859
 40
0.7791231682
 40
0.791435559
 40
0.8034404088
 40
0.8151424301
 40
0.8265469721
 40
0.8376600244
 40
0.8484883223
 40
0.8590393459
 40
0.8693214237
 40
0.8793437547
 40
0.8891164833
 40
0.8986507543
 40
0.9079587458
 40
0.9170537435
 40
0.9259501351
 40
0.9346634699
 40
0.9432104241
 40
0.9516088077
 40
0.9598775023
 40
0.9680363917
 40
0.9761062607
 40
0.9841086513
 40
0.9920657117
 40
1.0
 40
1.0
 40
1.0
 40
1.0
 10
8.5560991919
 20
7.406778651
 30
0.0
 10
8.5568363166
 20
7.4012280875
 30
0.0
 10
8.5583551119
 20
7.3902524742
 30
0.0
 10
8.5607961523
 20
7.3739959174
 30
0.0
 10
8.56337426
 20
7.3581313592
 30
0.0
 10
8.5660874458
 20
7.3426709766
 30
0.0
 10
8.56893362
 20
7.3276266013
 30
0.0
 10
8.5719105897
 20
7.3130097513
 30
0.0
 10
8.5750160619
 20
7.298831611
 30
0.0
 10
8.5782476452
 20
7.2851030237
 30
0.0
 10
8.5816028517
 20
7.2718344872
 30
0.0
 10
8.585079101
 20
7.2590361237
 30
0.0
 10
8.5886737171
 20
7.2467177478
 30
0.0
 10
8.5917929411
 20
7.2367728743
 30
0.0
 10
8.5943483419
 20
7.2290665962
 30
0.0
 10
8.5962755309
 20
7.2234646952
 30
0.0
 10
8.5982302094
 20
7.217989673
 30
0.0
 10
8.6002120167
 20
7.2126425732
 30
0.0
 10
8.6022205626
 20
7.2074244177
 30
0.0
 10
8.6042554727
 20
7.2023362055
 30
0.0
 10
8.606316349
 20
7.1973789072
 30
0.0
 10
8.6084028041
 20
7.1925534712
 30
0.0
 10
8.6105144361
 20
7.1878608181
 30
0.0
 10
8.6126508419
 20
7.1833018432
 30
0.0
 10
8.6148116184
 20
7.1788774175
 30
0.0
 10
8.6169963468
 20
7.1745883823
 30
0.0
 10
8.6192046218
 20
7.1704355583
 30
0.0
 10
8.6214360134
 20
7.1664197326
 30
0.0
 10
8.6236901095
 20
7.1625416738
 30
0.0
 10
8.6259664756
 20
7.1588021163
 30
0.0
 10
8.6282646882
 20
7.1552017737
 30
0.0
 10
8.6305843137
 20
7.1517413302
 30
0.0
 10
8.6329249151
 20
7.1484214424
 30
0.0
 10
8.635286062
 20
7.1452427458
 30
0.0
 10
8.6376673054
 20
7.1422058396
 30
0.0
 10
8.6400682162
 20
7.1393113108
 30
0.0
 10
8.6424883397
 20
7.1365597043
 30
0.0
 10
8.6449272424
 20
7.1339515558
 30
0.0
 10
8.6473844706
 20
7.1314873626
 30
0.0
 10
8.6498595807
 20
7.1291676064
 30
0.0
 10
8.6523521238
 20
7.1269927435
 30
0.0
 10
8.6548616434
 20
7.1249632011
 30
0.0
 10
8.6573876923
 20
7.1230793986
 30
0.0
 10
8.659929801
 20
7.1213417121
 30
0.0
 10
8.6624875151
 20
7.1197505231
 30
0.0
 10
8.6650603519
 20
7.1183061633
 30
0.0
 10
8.667647837
 20
7.1170089688
 30
0.0
 10
8.6702494724
 20
7.1158592331
 30
0.0
 10
8.6728647522
 20
7.1148572341
 30
0.0
 10
8.6754931586
 20
7.1140032254
 30
0.0
 10
8.6781341439
 20
7.1132974143
 30
0.0
 10
8.6807871902
 20
7.1127399993
 30
0.0
 10
8.6834516202
 20
7.1123311146
 30
0.0
 10
8.6852362348
 20
7.1121575265
 30
0.0
 10
8.6861287837
 20
7.1120956297
 30
0.0
  0
SPLINE
  5
33E
100
AcDbEntity
  8
0
100
AcDbSpline
 62
7
  6
CONTINUOUS
 70
0
 71
3
 72
44
 73
40
 74
0
 42
0.0000001
 43
0.0000001
 44
0.0000000001
 40
0.0
 40
0.0
 40
0.0
 40
0.0
 40
0.0491384899
 40
0.0971756614
 40
0.1440904188
 40
0.1898628678
 40
0.234474395
 40
0.2779077672
 40
0.3201472256
 40
0.3611785843
 40
0.4009893556
 40
0.4395689072
 40
0.4769086265
 40
0.5130020975
 40
0.5478453226
 40
0.5814369962
 40
0.6137788099
 40
0.6448757925
 40
0.6747367289
 40
0.7033746705
 40
0.7308075156
 40
0.7570586705
 40
0.7821578366
 40
0.8061419297
 40
0.8290560965
 40
0.8509548105
 40
0.8719030384
 40
0.8919773922
 40
0.911267109
 40
0.9206511656
 40
0.9298786464
 40
0.938964441
 40
0.9479242407
 40
0.9567744693
 40
0.9655322435
 40
0.9742152798
 40
0.9828417956
 40
0.9914304082
 40
1.0
 40
1.0
 40
1.0
 40
1.0
 10
8.6717195258
 20
7.4007193509
 30
0.0
 10
8.6724289815
 20
7.3967908074
 30
0.0
 10
8.673876487
 20
7.3890297155
 30
0.0
 10
8.6761619197
 20
7.3775485508
 30
0.0
 10
8.6785359015
 20
7.3663647379
 30
0.0
 10
8.6809970175
 20
7.3554849144
 30
0.0
 10
8.6835438065
 20
7.3449155111
 30
0.0
 10
8.6861747538
 20
7.3346627781
 30
0.0
 10
8.6888882949
 20
7.3247327725
 30
0.0
 10
8.6916828181
 20
7.3151313589
 30
0.0
 10
8.6945566665
 20
7.3058642041
 30
0.0
 10
8.6975081358
 20
7.2969367718
 30
0.0
 10
8.7005354773
 20
7.2883543187
 30
0.0
 10
8.7036369015
 20
7.2801218929
 30
0.0
 10
8.7068105816
 20
7.2722443304
 30
0.0
 10
8.7100546519
 20
7.264726249
 30
0.0
 10
8.7133672123
 20
7.2575720448
 30
0.0
 10
8.7167463342
 20
7.2507858922
 30
0.0
 10
8.7201900666
 20
7.2443717417
 30
0.0
 10
8.7236964371
 20
7.2383333152
 30
0.0
 10
8.7272634599
 20
7.2326741058
 30
0.0
 10
8.7308891463
 20
7.2273973832
 30
0.0
 10
8.7345715145
 20
7.222506199
 30
0.0
 10
8.7383085922
 20
7.2180033942
 30
0.0
 10
8.7420984319
 20
7.2138916092
 30
0.0
 10
8.7459390884
 20
7.2101733255
 30
0.0
 10
8.7498287134
 20
7.2068508454
 30
0.0
 10
8.7537651754
 20
7.2039265015
 30
0.0
 10
8.7571136947
 20
7.2018037036
 30
0.0
 10
8.7598096902
 20
7.2003146285
 30
0.0
 10
8.7618232407
 20
7.1993086564
 30
0.0
 10
8.763846413
 20
7.1984035689
 30
0.0
 10
8.765878928
 20
7.1975994952
 30
0.0
 10
8.7679204738
 20
7.1968965977
 30
0.0
 10
8.7699707352
 20
7.1962949992
 30
0.0
 10
8.7720293841
 20
7.1957948094
 30
0.0
 10
8.7740961127
 20
7.1953961344
 30
0.0
 10
8.7761705191
 20
7.1950990415
 30
0.0
 10
8.7775590251
 20
7.1949686821
 30
0.0
 10
8.7782535645
 20
7.1949205172
 30
0.0
  0
SPLINE
  5
33F
100
AcDbEntity
  8
0
100
AcDbSpline
 62
7
  6
CONTINUOUS
 70
0
 71
3
 72
11
 73
7
 74
0
 42
0.0000001
 43
0.0000001
 44
0.0000000001
 40
0.0
 40
0.0
 40
0.0
 40
0.0
 40
0.2597794222
 40
0.5131607124
 40
0.7599591931
 40
1.0
 40
1.0
 40
1.0
 40
1.0
 10
6.3370994215
 20
8.6953391324
 30
0.0
 10
6.3392064466
 20
8.7025735861
 30
0.0
 10
6.3434582907
 20
8.7168383996
 30
0.0
 10
6.3500359093
 20
8.7378778755
 30
0.0
 10
6.3567294477
 20
8.758279081
 30
0.0
 10
6.361329931
 20
8.7716303959
 30
0.0
 10
6.363650394
 20
8.7781948494
 30
0.0
  0
SPLINE
  5
340
100
AcDbEntity
  8
0
100
AcDbSpline
 62
7
  6
CONTINUOUS
 70
0
 71
3
 72
36
 73
32
 74
0
 42
0.0000001
 43
0.0000001
 44
0.0000000001
 40
0.0
 40
0.0
 40
0.0
 40
0.0
 40
0.0615612389
 40
0.0923780032
 40
0.1232201781
 40
0.1540890809
 40
0.1849860198
 40
0.2159122824
 40
0.2468691158
 40
0.2778577069
 40
0.3088791609
 40
0.3399344791
 40
0.3710245382
 40
0.4021500704
 40
0.4333116463
 40
0.4645096599
 40
0.4957443181
 40
0.5270156347
 40
0.5583234294
 40
0.5896673324
 40
0.621046793
 40
0.652461093
 40
0.6839093631
 40
0.7153906023
 40
0.7469036995
 40
0.7784474558
 40
0.810020606
 40
0.8416218396
 40
0.8732498202
 40
0.9365792905
 40
1.0
 40
1.0
 40
1.0
 40
1.0
 10
6.2240447962
 20
7.855339511
 30
0.0
 10
6.2219090374
 20
7.872808131
 30
0.0
 10
6.2190236595
 20
7.8990622223
 30
0.0
 10
6.2158734357
 20
7.9341471906
 30
0.0
 10
6.2138724311
 20
7.960523547
 30
0.0
 10
6.2122493268
 20
7.9869488099
 30
0.0
 10
6.2110191354
 20
8.0134194312
 30
0.0
 10
6.2101964616
 20
8.0399310632
 30
0.0
 10
6.20979529
 20
8.0664786958
 30
0.0
 10
6.209828783
 20
8.0930566159
 30
0.0
 10
6.2103090661
 20
8.1196584369
 30
0.0
 10
6.2112470119
 20
8.1462771355
 30
0.0
 10
6.2126520341
 20
8.1729051126
 30
0.0
 10
6.2145318978
 20
8.1995342757
 30
0.0
 10
6.2168925531
 20
8.2261561413
 30
0.0
 10
6.2197380007
 20
8.2527619547
 30
0.0
 10
6.223070197
 20
8.279342823
 30
0.0
 10
6.2268890018
 20
8.3058898563
 30
0.0
 10
6.2311921708
 20
8.3323943137
 30
0.0
 10
6.2359754023
 20
8.3588477432
 30
0.0
 10
6.2412324265
 20
8.3852421136
 30
0.0
 10
6.2469551346
 20
8.4115699313
 30
0.0
 10
6.2531337427
 20
8.4378243384
 30
0.0
 10
6.2597569829
 20
8.4639991897
 30
0.0
 10
6.2668123104
 20
8.4900891053
 30
0.0
 10
6.2742861236
 20
8.516089506
 30
0.0
 10
6.2821639801
 20
8.5419966028
 30
0.0
 10
6.2904308358
 20
8.5678074537
 30
0.0
 10
6.3019556789
 20
8.6021035807
 30
0.0
 10
6.3172566461
 20
8.6447216832
 30
0.0
 10
6.3303538541
 20
8.6785104662
 30
0.0
 10
6.3370994215
 20
8.6953391324
 30
0.0
  0
SPLINE
  5
341
100
AcDbEntity
  8
0
100
AcDbSpline
 62
7
  6
CONTINUOUS
 70
0
 71
3
 72
23
 73
19
 74
0
 42
0.0000001
 43
0.0000001
 44
0.0000000001
 40
0.0
 40
0.0
 40
0.0
 40
0.0
 40
0.0596059336
 40
0.1193158728
 40
0.1791800872
 40
0.2392527071
 40
0.2995911495
 40
0.3602561044
 40
0.4213113774
 40
0.4828235654
 40
0.5448617836
 40
0.60749731
 40
0.6708031144
 40
0.7348534296
 40
0.799723278
 40
0.8654878765
 40
0.9322221039
 40
1.0
 40
1.0
 40
1.0
 40
1.0
 10
6.363650394
 20
8.7781948494
 30
0.0
 10
6.3637035967
 20
8.7796547692
 30
0.0
 10
6.3638510568
 20
8.7825758386
 30
0.0
 10
6.364198403
 20
8.7869542186
 30
0.0
 10
6.3646755309
 20
8.7913319336
 30
0.0
 10
6.3652859358
 20
8.7957086349
 30
0.0
 10
6.3660331157
 20
8.8000840121
 30
0.0
 10
6.3669205532
 20
8.8044577124
 30
0.0
 10
6.3679517079
 20
8.8088293611
 30
0.0
 10
6.3691299943
 20
8.813198559
 30
0.0
 10
6.3704587702
 20
8.8175648823
 30
0.0
 10
6.3719413253
 20
8.8219278822
 30
0.0
 10
6.3735808526
 20
8.8262870881
 30
0.0
 10
6.375380438
 20
8.83064201
 30
0.0
 10
6.3773430466
 20
8.8349921304
 30
0.0
 10
6.3794715036
 20
8.8393369327
 30
0.0
 10
6.381768431
 20
8.8436758227
 30
0.0
 10
6.383400512
 20
8.8465409663
 30
0.0
 10
6.3842443918
 20
8.847971831
 30
0.0
  0
SPLINE
  5
342
100
AcDbEntity
  8
0
100
AcDbSpline
 62
7
  6
CONTINUOUS
 70
0
 71
3
 72
36
 73
32
 74
0
 42
0.0000001
 43
0.0000001
 44
0.0000000001
 40
0.0
 40
0.0
 40
0.0
 40
0.0
 40
0.0669064708
 40
0.1331414625
 40
0.1660035828
 40
0.1986934498
 40
0.2312108846
 40
0.263556407
 40
0.2957312622
 40
0.3277374341
 40
0.3595776472
 40
0.3912553526
 40
0.4227747006
 40
0.4541404994
 40
0.4853581604
 40
0.5164336325
 40
0.5473733271
 40
0.5781840359
 40
0.608872845
 40
0.639447047
 40
0.6699140544
 40
0.7002813167
 40
0.7305562424
 40
0.7607461282
 40
0.7908580973
 40
0.8208990453
 40
0.8508755968
 40
0.8807940693
 40
0.9106604527
 40
0.9404803739
 40
1.0
 40
1.0
 40
1.0
 40
1.0
 10
6.2847114278
 20
7.2308938191
 30
0.0
 10
6.2802448138
 20
7.2416247679
 30
0.0
 10
6.271654205
 20
7.2631044876
 30
0.0
 10
6.2617580509
 20
7.290197945
 30
0.0
 10
6.2544283805
 20
7.3118887898
 30
0.0
 10
6.2492440406
 20
7.3281189786
 30
0.0
 10
6.2443649842
 20
7.3443498558
 30
0.0
 10
6.239797033
 20
7.3605781406
 30
0.0
 10
6.2355453115
 20
7.3768003627
 30
0.0
 10
6.2316141537
 20
7.3930129533
 30
0.0
 10
6.2280070498
 20
7.4092122635
 30
0.0
 10
6.2247265951
 20
7.4253946061
 30
0.0
 10
6.2217744543
 20
7.4415562941
 30
0.0
 10
6.2191513384
 20
7.4576936815
 30
0.0
 10
6.2168569963
 20
7.4738032036
 30
0.0
 10
6.214890221
 20
7.4898814155
 30
0.0
 10
6.2132488708
 20
7.5059250292
 30
0.0
 10
6.2119299039
 20
7.5219309461
 30
0.0
 10
6.2109294252
 20
7.5378962857
 30
0.0
 10
6.2102427442
 20
7.5538184096
 30
0.0
 10
6.2098644418
 20
7.5696949393
 30
0.0
 10
6.2097884436
 20
7.5855237696
 30
0.0
 10
6.2100080976
 20
7.6013030756
 30
0.0
 10
6.2105162551
 20
7.6170313149
 30
0.0
 10
6.2113053519
 20
7.6327072253
 30
0.0
 10
6.2123674869
 20
7.6483298159
 30
0.0
 10
6.2136945011
 20
7.6638983646
 30
0.0
 10
6.2152780438
 20
7.6794123735
 30
0.0
 10
6.2171096635
 20
7.6948716702
 30
0.0
 10
6.219869287
 20
7.7153967935
 30
0.0
 10
6.2222883304
 20
7.7307307661
 30
0.0
 10
6.2240447962
 20
7.7409206202
 30
0.0
  0
SPLINE
  5
343
100
AcDbEntity
  8
0
100
AcDbSpline
 62
7
  6
CONTINUOUS
 70
0
 71
3
 72
27
 73
23
 74
0
 42
0.0000001
 43
0.0000001
 44
0.0000000001
 40
0.0
 40
0.0
 40
0.0
 40
0.0
 40
0.0636879539
 40
0.1271653574
 40
0.190434258
 40
0.253501197
 40
0.3163764605
 40
0.3790732973
 40
0.4416071553
 40
0.5039949636
 40
0.5662544882
 40
0.6284037918
 40
0.6594484668
 40
0.6904722889
 40
0.7214774292
 40
0.7524660293
 40
0.8143904829
 40
0.8762734233
 40
0.9072099794
 40
0.9381420043
 40
0.9690713862
 40
1.0
 40
1.0
 40
1.0
 40
1.0
 10
12.6522386211
 20
9.1476172293
 30
0.0
 10
12.6508277176
 20
9.1471136568
 30
0.0
 10
12.6479730931
 20
9.1462097256
 30
0.0
 10
12.6436114753
 20
9.1451724318
 30
0.0
 10
12.6391993262
 20
9.1444621058
 30
0.0
 10
12.6347606596
 20
9.1440834328
 30
0.0
 10
12.6303194847
 20
9.1440389593
 30
0.0
 10
12.6259001097
 20
9.1443291997
 30
0.0
 10
12.6215268625
 20
9.1449525723
 30
0.0
 10
12.6172238844
 20
9.14590546
 30
0.0
 10
12.6130151955
 20
9.1471821249
 30
0.0
 10
12.6096041107
 20
9.1485102627
 30
0.0
 10
12.6069464497
 20
9.1497258318
 30
0.0
 10
12.6049915048
 20
9.1507125614
 30
0.0
 10
12.6030771157
 20
9.151773114
 30
0.0
 10
12.6005831107
 20
9.1532829582
 30
0.0
 10
12.597579081
 20
9.1553473136
 30
0.0
 10
12.5947436968
 20
9.1576358589
 30
0.0
 10
12.5925873634
 20
9.1595921415
 30
0.0
 10
12.5910279196
 20
9.1611202988
 30
0.0
 10
12.5895285746
 20
9.1627071193
 30
0.0
 10
12.5885704071
 20
9.1638026892
 30
0.0
 10
12.5881020878
 20
9.164359415
 30
0.0
  0
SPLINE
  5
344
100
AcDbEntity
  8
0
100
AcDbSpline
 62
7
  6
CONTINUOUS
 70
0
 71
3
 72
11
 73
7
 74
0
 42
0.0000001
 43
0.0000001
 44
0.0000000001
 40
0.0
 40
0.0
 40
0.0
 40
0.0
 40
0.2394749506
 40
0.485822197
 40
0.7392645615
 40
1.0
 40
1.0
 40
1.0
 40
1.0
 10
15.5079916472
 20
7.905936495
 30
0.0
 10
15.5092855703
 20
7.9068933479
 30
0.0
 10
15.5118746645
 20
7.9088834728
 30
0.0
 10
15.5157068647
 20
7.912046255
 30
0.0
 10
15.519540596
 20
7.9154272535
 30
0.0
 10
15.5220606101
 20
7.9177921804
 30
0.0
 10
15.5233208583
 20
7.9190094868
 30
0.0
  0
SPLINE
  5
345
100
AcDbEntity
  8
0
100
AcDbSpline
 62
7
  6
CONTINUOUS
 70
0
 71
3
 72
11
 73
7
 74
0
 42
0.0000001
 43
0.0000001
 44
0.0000000001
 40
0.0
 40
0.0
 40
0.0
 40
0.0
 40
0.2396605935
 40
0.4861361377
 40
0.7395476642
 40
1.0
 40
1.0
 40
1.0
 40
1.0
 10
15.5233208583
 20
7.9190094868
 30
0.0
 10
15.5246172142
 20
7.9202616704
 30
0.0
 10
15.5272092743
 20
7.9228407475
 30
0.0
 10
15.5310424574
 20
7.9268714789
 30
0.0
 10
15.5348737691
 20
7.9311170291
 30
0.0
 10
15.5373913983
 20
7.9340494768
 30
0.0
 10
15.5386500695
 20
7.9355502587
 30
0.0
  0
SPLINE
  5
346
100
AcDbEntity
  8
0
100
AcDbSpline
 62
7
  6
CONTINUOUS
 70
0
 71
3
 72
11
 73
7
 74
0
 42
0.0000001
 43
0.0000001
 44
0.0000000001
 40
0.0
 40
0.0
 40
0.0
 40
0.0
 40
0.2523402475
 40
0.5031675623
 40
0.7524100652
 40
1.0
 40
1.0
 40
1.0
 40
1.0
 10
15.5386500695
 20
7.9355502587
 30
0.0
 10
15.5439772462
 20
7.943229893
 30
0.0
 10
15.5544775031
 20
7.9586283417
 30
0.0
 10
15.5697813707
 20
7.9819204898
 30
0.0
 10
15.5845612916
 20
8.0053409548
 30
0.0
 10
15.5940763515
 20
8.0210939871
 30
0.0
 10
15.5987353429
 20
8.0289928103
 30
0.0
  0
SPLINE
  5
347
100
AcDbEntity
  8
0
100
AcDbSpline
 62
7
  6
CONTINUOUS
 70
0
 71
3
 72
23
 73
19
 74
0
 42
0.0000001
 43
0.0000001
 44
0.0000000001
 40
0.0
 40
0.0
 40
0.0
 40
0.0
 40
0.0591639532
 40
0.119505717
 40
0.1808751813
 40
0.2431188145
 40
0.3060801976
 40
0.369600567
 40
0.4335193459
 40
0.4976746693
 40
0.561903911
 40
0.6260442086
 40
0.6899329829
 40
0.7534084673
 40
0.8163102299
 40
0.8784796987
 40
0.939760704
 40
1.0
 40
1.0
 40
1.0
 40
1.0
 10
12.6804378816
 20
9.3450255528
 30
0.0
 10
12.6784678812
 20
9.3345744073
 30
0.0
 10
12.6746555469
 20
9.3134322689
 30
0.0
 10
12.6693659268
 20
9.2813505536
 30
0.0
 10
12.6644584531
 20
9.2486482333
 30
0.0
 10
12.6599464633
 20
9.2154137958
 30
0.0
 10
12.6558421855
 20
9.1817370424
 30
0.0
 10
12.6521567488
 20
9.1477090142
 30
0.0
 10
12.6489001395
 20
9.1134216976
 30
0.0
 10
12.6460811738
 20
9.0789677866
 30
0.0
 10
12.6437074841
 20
9.0444404271
 30
0.0
 10
12.6417854833
 20
9.009932965
 30
0.0
 10
12.6403203624
 20
8.9755386927
 30
0.0
 10
12.6393160663
 20
8.9413505923
 30
0.0
 10
12.6387752842
 20
8.9074610958
 30
0.0
 10
12.6386994503
 20
8.8739617874
 30
0.0
 10
12.6390887208
 20
8.8409433194
 30
0.0
 10
12.6396629709
 20
8.8191056776
 30
0.0
 10
12.6400298711
 20
8.8082834002
 30
0.0
  0
SPLINE
  5
348
100
AcDbEntity
  8
0
100
AcDbSpline
 62
7
  6
CONTINUOUS
 70
0
 71
3
 72
91
 73
87
 74
0
 42
0.0000001
 43
0.0000001
 44
0.0000000001
 40
0.0
 40
0.0
 40
0.0
 40
0.0
 40
0.0048080603
 40
0.0097392102
 40
0.0147932383
 40
0.0199698132
 40
0.0252684781
 40
0.030688671
 40
0.0362297234
 40
0.04189087
 40
0.047671256
 40
0.0535699355
 40
0.059585887
 40
0.065718005
 40
0.0719651159
 40
0.078325972
 40
0.0847992602
 40
0.0913836048
 40
0.0980775656
 40
0.1048796485
 40
0.1117882979
 40
0.1188019097
 40
0.1331372289
 40
0.1478718627
 40
0.1629912164
 40
0.1784800071
 40
0.1943223135
 40
0.2105016194
 40
0.2270008554
 40
0.2438024385
 40
0.2608883084
 40
0.2782399646
 40
0.2958384992
 40
0.3136646323
 40
0.331698743
 40
0.3499209039
 40
0.3683109107
 40
0.3868483155
 40
0.4055124562
 40
0.4242824889
 40
0.4431374169
 40
0.4620561224
 40
0.481017397
 40
0.4999999711
 40
0.5189825453
 40
0.53794382
 40
0.556862526
 40
0.5757174542
 40
0.5944874874
 40
0.6131516288
 40
0.6316890346
 40
0.6500790425
 40
0.6683012045
 40
0.6863353165
 40
0.7041614505
 40
0.7217599865
 40
0.7391116439
 40
0.7561975158
 40
0.7729991008
 40
0.7894983391
 40
0.8056776469
 40
0.8215199553
 40
0.8370087478
 40
0.8521281034
 40
0.8668627397
 40
0.8811980616
 40
0.8882116747
 40
0.8951203257
 40
0.9019224091
 40
0.9086163722
 40
0.9152007171
 40
0.9216740078
 40
0.9280348644
 40
0.934281977
 40
0.9404140966
 40
0.9464300488
 40
0.9523287308
 40
0.9581091169
 40
0.9637702663
 40
0.9693113192
 40
0.9747315141
 40
0.9800301803
 40
0.9852067561
 40
0.9902607868
 40
0.9951919369
 40
1.0
 40
1.0
 40
1.0
 40
1.0
 10
15.6318302238
 20
8.0851046764
 30
0.0
 10
15.6331062173
 20
8.0872681032
 30
0.0
 10
15.6356525534
 20
8.0916730483
 30
0.0
 10
15.6394098155
 20
8.0984263835
 30
0.0
 10
15.6431520731
 20
8.1054072585
 30
0.0
 10
15.6468781844
 20
8.1126135706
 30
0.0
 10
15.6505870495
 20
8.1200431766
 30
0.0
 10
15.6542775532
 20
8.1276938614
 30
0.0
 10
15.6579485956
 20
8.1355633424
 30
0.0
 10
15.6615990796
 20
8.1436492713
 30
0.0
 10
15.6652279094
 20
8.1519492355
 30
0.0
 10
15.6688340056
 20
8.1604607553
 30
0.0
 10
15.6724162815
 20
8.1691812905
 30
0.0
 10
15.6759736726
 20
8.1781082346
 30
0.0
 10
15.6795051076
 20
8.1872389217
 30
0.0
 10
15.6830095334
 20
8.1965706225
 30
0.0
 10
15.6864858997
 20
8.2061005483
 30
0.0
 10
15.6899331635
 20
8.2158258508
 30
0.0
 10
15.6933502978
 20
8.2257436224
 30
0.0
 10
15.6967362712
 20
8.2358508974
 30
0.0
 10
15.700090083
 20
8.2461446579
 30
0.0
 10
15.7045499804
 20
8.2602164489
 30
0.0
 10
15.7100331107
 20
8.2782519068
 30
0.0
 10
15.7164217965
 20
8.3004351347
 30
0.0
 10
15.7226585804
 20
8.3232867318
 30
0.0
 10
15.7287359764
 20
8.3467793474
 30
0.0
 10
15.7346466928
 20
8.3708849129
 30
0.0
 10
15.7403836379
 20
8.3955746054
 30
0.0
 10
15.7459399296
 20
8.4208189029
 30
0.0
 10
15.7513089031
 20
8.4465876148
 30
0.0
 10
15.7564841191
 20
8.4728499204
 30
0.0
 10
15.7614593712
 20
8.4995744054
 30
0.0
 10
15.7662286938
 20
8.5267290999
 30
0.0
 10
15.7707863689
 20
8.5542815172
 30
0.0
 10
15.775126933
 20
8.5821986929
 30
0.0
 10
15.7792451835
 20
8.6104472244
 30
0.0
 10
15.7831361847
 20
8.6389933122
 30
0.0
 10
15.7867952735
 20
8.667802799
 30
0.0
 10
15.7902180658
 20
8.696841212
 30
0.0
 10
15.7934004605
 20
8.7260738033
 30
0.0
 10
15.7963386456
 20
8.7554655921
 30
0.0
 10
15.7990291024
 20
8.7849814067
 30
0.0
 10
15.8014686091
 20
8.8145859265
 30
0.0
 10
15.8036542453
 20
8.8442437246
 30
0.0
 10
15.8055833951
 20
8.8739193102
 30
0.0
 10
15.8072537501
 20
8.9035771712
 30
0.0
 10
15.8086633126
 20
8.9331818165
 30
0.0
 10
15.8098103978
 20
8.9626978193
 30
0.0
 10
15.8106936363
 20
8.9920898584
 30
0.0
 10
15.8113119752
 20
9.0213227621
 30
0.0
 10
15.8116646794
 20
9.050361549
 30
0.0
 10
15.8117513329
 20
9.0791714709
 30
0.0
 10
15.8115718386
 20
9.1077180541
 30
0.0
 10
15.8111264195
 20
9.1359671408
 30
0.0
 10
15.8104156174
 20
9.1638849302
 30
0.0
 10
15.8094402936
 20
9.1914380193
 30
0.0
 10
15.8082016272
 20
9.2185934435
 30
0.0
 10
15.8067011138
 20
9.2453187154
 30
0.0
 10
15.8049405637
 20
9.2715818649
 30
0.0
 10
15.8029221002
 20
9.297351477
 30
0.0
 10
15.8006481568
 20
9.32259673
 30
0.0
 10
15.7981214743
 20
9.3472874343
 30
0.0
 10
15.7953450981
 20
9.3713940643
 30
0.0
 10
15.7923223759
 20
9.3948878137
 30
0.0
 10
15.7890569467
 20
9.4177405609
 30
0.0
 10
15.7861158605
 20
9.436360244
 30
0.0
 10
15.7836410798
 20
9.4509129597
 30
0.0
 10
15.7817402909
 20
9.4615711303
 30
0.0
 10
15.7797819035
 20
9.47204904
 30
0.0
 10
15.7777664996
 20
9.4823435619
 30
0.0
 10
15.7756946816
 20
9.4924516162
 30
0.0
 10
15.7735670757
 20
9.5023701814
 30
0.0
 10
15.7713843124
 20
9.5120962923
 30
0.0
 10
15.7691470536
 20
9.5216270421
 30
0.0
 10
15.7668559631
 20
9.5309595823
 30
0.0
 10
15.7645117317
 20
9.5400911244
 30
0.0
 10
15.7621150605
 20
9.5490189405
 30
0.0
 10
15.7596666654
 20
9.5577403637
 30
0.0
 10
15.7571672847
 20
9.5662527903
 30
0.0
 10
15.7546176593
 20
9.5745536783
 30
0.0
 10
15.7520185606
 20
9.5826405513
 30
0.0
 10
15.749370758
 20
9.5905109964
 30
0.0
 10
15.7466750502
 20
9.5981626654
 30
0.0
 10
15.7439322361
 20
9.6055932852
 30
0.0
 10
15.7411431463
 20
9.6128006131
 30
0.0
 10
15.7392292324
 20
9.6175148807
 30
0.0
 10
15.7382640857
 20
9.6198337326
 30
0.0
  0
SPLINE
  5
349
100
AcDbEntity
  8
0
100
AcDbSpline
 62
7
  6
CONTINUOUS
 70
0
 71
3
 72
39
 73
35
 74
0
 42
0.0000001
 43
0.0000001
 44
0.0000000001
 40
0.0
 40
0.0
 40
0.0
 40
0.0
 40
0.0216079046
 40
0.0436791786
 40
0.0662464061
 40
0.0893405372
 40
0.1129906034
 40
0.1372234656
 40
0.162063601
 40
0.1875329225
 40
0.2136506471
 40
0.240433219
 40
0.2678942665
 40
0.2960445973
 40
0.324892228
 40
0.3544424416
 40
0.3846978934
 40
0.4156587385
 40
0.4473227758
 40
0.4796856079
 40
0.5127408105
 40
0.5464801181
 40
0.5808936196
 40
0.6159699475
 40
0.6516964637
 40
0.6880594401
 40
0.7250442361
 40
0.7626354701
 40
0.8008171733
 40
0.8395729352
 40
0.8788860374
 40
0.918739553
 40
0.9591165661
 40
1.0
 40
1.0
 40
1.0
 40
1.0
 10
15.7248897358
 20
9.6519668097
 30
0.0
 10
15.7241824334
 20
9.6536663444
 30
0.0
 10
15.7226877837
 20
9.6570752274
 30
0.0
 10
15.720234296
 20
9.6621590272
 30
0.0
 10
15.7175433103
 20
9.6672648219
 30
0.0
 10
15.7146120658
 20
9.6723920182
 30
0.0
 10
15.7114382045
 20
9.6775400866
 30
0.0
 10
15.7080198594
 20
9.6827084041
 30
0.0
 10
15.7043556587
 20
9.6878962999
 30
0.0
 10
15.7004447511
 20
9.6931030475
 30
0.0
 10
15.6962868169
 20
9.6983278736
 30
0.0
 10
15.6918820706
 20
9.7035699596
 30
0.0
 10
15.687231261
 20
9.7088284489
 30
0.0
 10
15.6823356658
 20
9.7141024522
 30
0.0
 10
15.6771970802
 20
9.7193910543
 30
0.0
 10
15.6718178037
 20
9.7246933233
 30
0.0
 10
15.6662006136
 20
9.7300083159
 30
0.0
 10
15.6603487364
 20
9.7353350842
 30
0.0
 10
15.6542658171
 20
9.7406726835
 30
0.0
 10
15.6479558843
 20
9.7460201781
 30
0.0
 10
15.6414233151
 20
9.7513766494
 30
0.0
 10
15.6346727953
 20
9.7567412009
 30
0.0
 10
15.627709277
 20
9.7621129621
 30
0.0
 10
15.6205379389
 20
9.7674910937
 30
0.0
 10
15.6131641463
 20
9.772874791
 30
0.0
 10
15.6055934133
 20
9.778263287
 30
0.0
 10
15.5978313654
 20
9.783655856
 30
0.0
 10
15.5898837028
 20
9.789051813
 30
0.0
 10
15.5817561677
 20
9.7944505155
 30
0.0
 10
15.573454514
 20
9.799851364
 30
0.0
 10
15.564984482
 20
9.8052538013
 30
0.0
 10
15.5563517645
 20
9.8106573169
 30
0.0
 10
15.547562006
 20
9.8160614312
 30
0.0
 10
15.5416372653
 20
9.819642471
 30
0.0
 10
15.5386500695
 20
9.8214335067
 30
0.0
  0
SPLINE
  5
34A
100
AcDbEntity
  8
0
100
AcDbSpline
 62
7
  6
CONTINUOUS
 70
0
 71
3
 72
11
 73
7
 74
0
 42
0.0000001
 43
0.0000001
 44
0.0000000001
 40
0.0
 40
0.0
 40
0.0
 40
0.0
 40
0.2396605935
 40
0.4861361377
 40
0.7395476642
 40
1.0
 40
1.0
 40
1.0
 40
1.0
 10
15.5233208583
 20
9.8083605149
 30
0.0
 10
15.5220245025
 20
9.8071083313
 30
0.0
 10
15.5194324424
 20
9.8045292542
 30
0.0
 10
15.5155992593
 20
9.8004985228
 30
0.0
 10
15.5117679476
 20
9.7962529726
 30
0.0
 10
15.5092503183
 20
9.7933205249
 30
0.0
 10
15.5079916472
 20
9.791819743
 30
0.0
  0
SPLINE
  5
34B
100
AcDbEntity
  8
0
100
AcDbSpline
 62
7
  6
CONTINUOUS
 70
0
 71
3
 72
11
 73
7
 74
0
 42
0.0000001
 43
0.0000001
 44
0.0000000001
 40
0.0
 40
0.0
 40
0.0
 40
0.0
 40
0.2600920509
 40
0.5135755305
 40
0.7602686496
 40
1.0
 40
1.0
 40
1.0
 40
1.0
 10
15.296846081
 20
8.2230011725
 30
0.0
 10
15.2979738163
 20
8.2156593349
 30
0.0
 10
15.3002941194
 20
8.2011763561
 30
0.0
 10
15.3040228175
 20
8.1797857652
 30
0.0
 10
15.3079524087
 20
8.1590226447
 30
0.0
 10
15.3107442558
 20
8.1454136273
 30
0.0
 10
15.3121752921
 20
8.1387183882
 30
0.0
  0
SPLINE
  5
34C
100
AcDbEntity
  8
0
100
AcDbSpline
 62
7
  6
CONTINUOUS
 70
0
 71
3
 72
11
 73
7
 74
0
 42
0.0000001
 43
0.0000001
 44
0.0000000001
 40
0.0
 40
0.0
 40
0.0
 40
0.0
 40
0.2471507066
 40
0.4963425996
 40
0.7473636924
 40
1.0
 40
1.0
 40
1.0
 40
1.0
 10
15.3121752921
 20
9.1807496783
 30
0.0
 10
15.3107590975
 20
9.1713879996
 30
0.0
 10
15.3079935001
 20
9.1525753622
 30
0.0
 10
15.3040607983
 20
9.1242153974
 30
0.0
 10
15.3003291539
 20
9.0956163373
 30
0.0
 10
15.2979845591
 20
9.0764642774
 30
0.0
 10
15.296846081
 20
9.0668531304
 30
0.0
  0
SPLINE
  5
34D
100
AcDbEntity
  8
0
100
AcDbSpline
 62
7
  6
CONTINUOUS
 70
0
 71
3
 72
11
 73
7
 74
0
 42
0.0000001
 43
0.0000001
 44
0.0000000001
 40
0.0
 40
0.0
 40
0.0
 40
0.0
 40
0.2394749506
 40
0.485822197
 40
0.7392645615
 40
1.0
 40
1.0
 40
1.0
 40
1.0
 10
15.5386500695
 20
9.8214335067
 30
0.0
 10
15.5373561464
 20
9.8204766538
 30
0.0
 10
15.5347670522
 20
9.8184865289
 30
0.0
 10
15.530934852
 20
9.8153237468
 30
0.0
 10
15.5271011207
 20
9.8119427482
 30
0.0
 10
15.5245811065
 20
9.8095778213
 30
0.0
 10
15.5233208583
 20
9.8083605149
 30
0.0
  0
SPLINE
  5
34E
100
AcDbEntity
  8
0
100
AcDbSpline
 62
7
  6
CONTINUOUS
 70
0
 71
3
 72
23
 73
19
 74
0
 42
0.0000001
 43
0.0000001
 44
0.0000000001
 40
0.0
 40
0.0
 40
0.0
 40
0.0
 40
0.0634130869
 40
0.1268712247
 40
0.1903043562
 40
0.2536526709
 40
0.3168677835
 40
0.3799131485
 40
0.4427639643
 40
0.5054064867
 40
0.567837006
 40
0.6300604834
 40
0.692088906
 40
0.7539396046
 40
0.8156334161
 40
0.8771929905
 40
0.938641241
 40
1.0
 40
1.0
 40
1.0
 40
1.0
 10
12.6591669608
 20
9.2087504818
 30
0.0
 10
12.6575573442
 20
9.2081581274
 30
0.0
 10
12.654380414
 20
9.2068508562
 30
0.0
 10
12.6497777981
 20
9.2045360986
 30
0.0
 10
12.6453654582
 20
9.2018791804
 30
0.0
 10
12.6411749965
 20
9.1988958158
 30
0.0
 10
12.6372361702
 20
9.1956034504
 30
0.0
 10
12.6335773513
 20
9.1920215012
 30
0.0
 10
12.6302252481
 20
9.1881713325
 30
0.0
 10
12.6272047201
 20
9.1840763667
 30
0.0
 10
12.6245385744
 20
9.1797620833
 30
0.0
 10
12.6222472644
 20
9.1752560423
 30
0.0
 10
12.620348584
 20
9.1705878119
 30
0.0
 10
12.6188573986
 20
9.1657887929
 30
0.0
 10
12.617785295
 20
9.1608920605
 30
0.0
 10
12.6171404519
 20
9.1559318118
 30
0.0
 10
12.6169273667
 20
9.1509437956
 30
0.0
 10
12.617073939
 20
9.1476204964
 30
0.0
 10
12.6172189233
 20
9.1459672527
 30
0.0
  0
SPLINE
  5
34F
100
AcDbEntity
  8
0
100
AcDbSpline
 62
7
  6
CONTINUOUS
 70
0
 71
3
 72
58
 73
54
 74
0
 42
0.0000001
 43
0.0000001
 44
0.0000000001
 40
0.0
 40
0.0
 40
0.0
 40
0.0
 40
0.0153119155
 40
0.0306257173
 40
0.0459426632
 40
0.0612640169
 40
0.0919172977
 40
0.1226037292
 40
0.1379666021
 40
0.1533418178
 40
0.1687307706
 40
0.1841348672
 40
0.1995555226
 40
0.2149941535
 40
0.2304521642
 40
0.2459309349
 40
0.2614318106
 40
0.2769560847
 40
0.2925049785
 40
0.308079625
 40
0.3236810525
 40
0.3393101607
 40
0.3549676988
 40
0.3706542491
 40
0.3863702065
 40
0.4021157553
 40
0.4178908507
 40
0.4336952053
 40
0.4495282705
 40
0.4653892204
 40
0.4971831554
 40
0.5290715009
 40
0.561036818
 40
0.5930567744
 40
0.6251043937
 40
0.6571485711
 40
0.6891548531
 40
0.7051355292
 40
0.7210928552
 40
0.7370221112
 40
0.7529186184
 40
0.7845887601
 40
0.8160751413
 40
0.831743085
 40
0.84735426
 40
0.8629058931
 40
0.8783957078
 40
0.9091765999
 40
0.9396972852
 40
0.9548645322
 40
0.9699691401
 40
0.9850133292
 40
1.0
 40
1.0
 40
1.0
 40
1.0
 10
12.5881020878
 20
9.164359415
 30
0.0
 10
12.5875538681
 20
9.1650111242
 30
0.0
 10
12.5864865562
 20
9.1663395103
 30
0.0
 10
12.5849768761
 20
9.1684021309
 30
0.0
 10
12.5835612002
 20
9.1705311224
 30
0.0
 10
12.5818027559
 20
9.1734526572
 30
0.0
 10
12.5798526457
 20
9.1772512529
 30
0.0
 10
12.5782511462
 20
9.1812119514
 30
0.0
 10
12.5771865113
 20
9.1844591876
 30
0.0
 10
12.5764973454
 20
9.1869313502
 30
0.0
 10
12.5759194196
 20
9.1894341611
 30
0.0
 10
12.5754539494
 20
9.1919628862
 30
0.0
 10
12.5751019521
 20
9.1945126714
 30
0.0
 10
12.5748642143
 20
9.1970786471
 30
0.0
 10
12.5747412994
 20
9.1996559133
 30
0.0
 10
12.5747335307
 20
9.202239557
 30
0.0
 10
12.5748409882
 20
9.2048246625
 30
0.0
 10
12.5750635177
 20
9.2074063246
 30
0.0
 10
12.5754007306
 20
9.2099796585
 30
0.0
 10
12.5758519892
 20
9.2125398137
 30
0.0
 10
12.5764164167
 20
9.2150819861
 30
0.0
 10
12.5770929058
 20
9.2176014278
 30
0.0
 10
12.5778801208
 20
9.2200934569
 30
0.0
 10
12.5787764876
 20
9.2225534733
 30
0.0
 10
12.5797802139
 20
9.2249769646
 30
0.0
 10
12.5808892956
 20
9.2273595123
 30
0.0
 10
12.582101523
 20
9.2296968066
 30
0.0
 10
12.5834144637
 20
9.2319846392
 30
0.0
 10
12.5848255456
 20
9.2342189746
 30
0.0
 10
12.5868353734
 20
9.2371233469
 30
0.0
 10
12.5895795086
 20
9.2406006478
 30
0.0
 10
12.5932126071
 20
9.2444946057
 30
0.0
 10
12.5971609012
 20
9.2480874142
 30
0.0
 10
12.6013937348
 20
9.2513544308
 30
0.0
 10
12.605878723
 20
9.2542736625
 30
0.0
 10
12.6105814189
 20
9.2568253454
 30
0.0
 10
12.6146549382
 20
9.2586324171
 30
0.0
 10
12.6179869124
 20
9.2598782448
 30
0.0
 10
12.6205164633
 20
9.2607108113
 30
0.0
 10
12.6230727224
 20
9.2614404837
 30
0.0
 10
12.6265054591
 20
9.2622734058
 30
0.0
 10
12.6308378557
 20
9.2630524281
 30
0.0
 10
12.6352065557
 20
9.2634771247
 30
0.0
 10
12.6386961365
 20
9.2636005402
 30
0.0
 10
12.6413015191
 20
9.2635851635
 30
0.0
 10
12.6438941312
 20
9.2634620051
 30
0.0
 10
12.6473197237
 20
9.2631551144
 30
0.0
 10
12.6515465648
 20
9.2625052787
 30
0.0
 10
12.6556848276
 20
9.2614992001
 30
0.0
 10
12.6589116531
 20
9.2604861452
 30
0.0
 10
12.6612815448
 20
9.2596256266
 30
0.0
 10
12.6636014691
 20
9.2586644496
 30
0.0
 10
12.6651149356
 20
9.2579562983
 30
0.0
 10
12.6658617274
 20
9.2575860446
 30
0.0
  0
SPLINE
  5
350
100
AcDbEntity
  8
0
100
AcDbSpline
 62
7
  6
CONTINUOUS
 70
0
 71
3
 72
49
 73
45
 74
0
 42
0.0000001
 43
0.0000001
 44
0.0000000001
 40
0.0
 40
0.0
 40
0.0
 40
0.0
 40
0.0470731633
 40
0.0924997698
 40
0.1362855027
 40
0.1784403553
 40
0.2189791703
 40
0.2579222657
 40
0.2952961279
 40
0.3311342316
 40
0.3654779909
 40
0.3983778365
 40
0.4298943676
 40
0.4600996075
 40
0.4890783026
 40
0.5169291564
 40
0.543765828
 40
0.5568460328
 40
0.5697225039
 40
0.5824138144
 40
0.5949394792
 40
0.6073198749
 40
0.6195761788
 40
0.6317302925
 40
0.6438047181
 40
0.6558224533
 40
0.6678068515
 40
0.6797814773
 40
0.6917699587
 40
0.7037958344
 40
0.7158824075
 40
0.7280525951
 40
0.7403288102
 40
0.752732831
 40
0.7652857013
 40
0.7780076619
 40
0.790918055
 40
0.8173721907
 40
0.8447889633
 40
0.8732884438
 40
0.9029754265
 40
0.9339401518
 40
0.9662601817
 40
1.0
 40
1.0
 40
1.0
 40
1.0
 10
15.7382640857
 20
9.6198337326
 30
0.0
 10
15.7370220985
 20
9.6228177191
 30
0.0
 10
15.7345154344
 20
9.6286541114
 30
0.0
 10
15.7306120812
 20
9.6371598321
 30
0.0
 10
15.7266342797
 20
9.6452565476
 30
0.0
 10
15.7225841026
 20
9.652940004
 30
0.0
 10
15.7184636148
 20
9.6602062444
 30
0.0
 10
15.7142749085
 20
9.6670515201
 30
0.0
 10
15.7100200823
 20
9.6734723094
 30
0.0
 10
15.7057012371
 20
9.6794653074
 30
0.0
 10
15.7013204683
 20
9.6850274237
 30
0.0
 10
15.6968798655
 20
9.6901557745
 30
0.0
 10
15.6923814935
 20
9.6948476666
 30
0.0
 10
15.6878274235
 20
9.6991005603
 30
0.0
 10
15.6832196375
 20
9.7029120977
 30
0.0
 10
15.6785604247
 20
9.7062798932
 30
0.0
 10
15.6746028082
 20
9.7087357134
 30
0.0
 10
15.6714177431
 20
9.7104680039
 30
0.0
 10
15.6690381694
 20
9.7116441406
 30
0.0
 10
15.6666479298
 20
9.7127079762
 30
0.0
 10
15.6642473155
 20
9.7136593776
 30
0.0
 10
15.6618366568
 20
9.7144981877
 30
0.0
 10
15.6594162783
 20
9.7152242658
 30
0.0
 10
15.6569865195
 20
9.715837506
 30
0.0
 10
15.6545477176
 20
9.716337797
 30
0.0
 10
15.6521002196
 20
9.7167250588
 30
0.0
 10
15.6496443759
 20
9.7169992357
 30
0.0
 10
15.6471805381
 20
9.7171602707
 30
0.0
 10
15.6447090623
 20
9.7172081532
 30
0.0
 10
15.6422303035
 20
9.7171428774
 30
0.0
 10
15.6397446175
 20
9.7169644538
 30
0.0
 10
15.6372523564
 20
9.7166729329
 30
0.0
 10
15.6347538726
 20
9.7162683593
 30
0.0
 10
15.6322495111
 20
9.7157508095
 30
0.0
 10
15.6297396234
 20
9.7151203848
 30
0.0
 10
15.6272245172
 20
9.7143771615
 30
0.0
 10
15.623837377
 20
9.7132267813
 30
0.0
 10
15.6195853444
 20
9.7114977696
 30
0.0
 10
15.6145107491
 20
9.7089905646
 30
0.0
 10
15.6094248401
 20
9.7060359848
 30
0.0
 10
15.6043302521
 20
9.7026360375
 30
0.0
 10
15.599229212
 20
9.6987927049
 30
0.0
 10
15.5941242644
 20
9.6945082698
 30
0.0
 10
15.5907930674
 20
9.6914270821
 30
0.0
 10
15.5891268115
 20
9.6898176023
 30
0.0
  0
SPLINE
  5
351
100
AcDbEntity
  8
0
100
AcDbSpline
 62
7
  6
CONTINUOUS
 70
0
 71
3
 72
38
 73
34
 74
0
 42
0.0000001
 43
0.0000001
 44
0.0000000001
 40
0.0
 40
0.0
 40
0.0
 40
0.0
 40
0.0293462456
 40
0.0587365411
 40
0.0881778495
 40
0.1176777158
 40
0.147244278
 40
0.1768862212
 40
0.2066127297
 40
0.2364334109
 40
0.2663581986
 40
0.2963972328
 40
0.3265607184
 40
0.3568587675
 40
0.3873012301
 40
0.4178975169
 40
0.4486564248
 40
0.4795859706
 40
0.5106932413
 40
0.5419842696
 40
0.5734639394
 40
0.6051359245
 40
0.6370026629
 40
0.6690653641
 40
0.7013240494
 40
0.7337776197
 40
0.7992573287
 40
0.8322792044
 40
0.8654823827
 40
0.8988617575
 40
0.9324117817
 40
0.966126564
 40
1.0
 40
1.0
 40
1.0
 40
1.0
 10
15.5079916472
 20
9.791819743
 30
0.0
 10
15.5082141497
 20
9.7854240652
 30
0.0
 10
15.5085507649
 20
9.7726190341
 30
0.0
 10
15.5087155505
 20
9.7533897607
 30
0.0
 10
15.5085253222
 20
9.7341270748
 30
0.0
 10
15.5079648446
 20
9.7148330754
 30
0.0
 10
15.5070190272
 20
9.6955102234
 30
0.0
 10
15.5056730866
 20
9.6761614807
 30
0.0
 10
15.5039127318
 20
9.6567902987
 30
0.0
 10
15.5017243629
 20
9.6374006333
 30
0.0
 10
15.4990952807
 20
9.6179969386
 30
0.0
 10
15.4960139007
 20
9.5985841492
 30
0.0
 10
15.4924699676
 20
9.5791676459
 30
0.0
 10
15.4884547578
 20
9.5597532056
 30
0.0
 10
15.4839612619
 20
9.5403469357
 30
0.0
 10
15.4789843427
 20
9.5209551934
 30
0.0
 10
15.473520857
 20
9.5015844931
 30
0.0
 10
15.4675697378
 20
9.4822414054
 30
0.0
 10
15.4611320306
 20
9.4629324503
 30
0.0
 10
15.4542108853
 20
9.4436639893
 30
0.0
 10
15.4468114928
 20
9.4244421228
 30
0.0
 10
15.4389409821
 20
9.4052725983
 30
0.0
 10
15.430608272
 20
9.3861607177
 30
0.0
 10
15.4218239163
 20
9.3671113094
 30
0.0
 10
15.4125998228
 20
9.3481285295
 30
0.0
 10
15.3996948028
 20
9.3228384204
 30
0.0
 10
15.3859985493
 20
9.297771254
 30
0.0
 10
15.3715832936
 20
9.2729288999
 30
0.0
 10
15.3603744667
 20
9.2543224851
 30
0.0
 10
15.3488153873
 20
9.2357959608
 30
0.0
 10
15.3369219236
 20
9.2173494647
 30
0.0
 10
15.3247099211
 20
9.1989829056
 30
0.0
 10
15.3163855401
 20
9.1868191532
 30
0.0
 10
15.3121752921
 20
9.1807496783
 30
0.0
  0
SPLINE
  5
352
100
AcDbEntity
  8
0
100
AcDbSpline
 62
7
  6
CONTINUOUS
 70
0
 71
3
 72
36
 73
32
 74
0
 42
0.0000001
 43
0.0000001
 44
0.0000000001
 40
0.0
 40
0.0
 40
0.0
 40
0.0
 40
0.0635007802
 40
0.1269002289
 40
0.1585591923
 40
0.1901886259
 40
0.2217871205
 40
0.2533533021
 40
0.2848858535
 40
0.3163835367
 40
0.3478452158
 40
0.3792698811
 40
0.410656671
 40
0.4420048926
 40
0.4733140381
 40
0.5045837976
 40
0.5358140674
 40
0.567004953
 40
0.5981567671
 40
0.6292700207
 40
0.6603454113
 40
0.6913838053
 40
0.7223862182
 40
0.7533537927
 40
0.7842877761
 40
0.8151894958
 40
0.8460603359
 40
0.8769017169
 40
0.9077150739
 40
0.9385018445
 40
1.0
 40
1.0
 40
1.0
 40
1.0
 10
15.296846081
 20
9.0668531304
 30
0.0
 10
15.301284931
 20
9.0493314658
 30
0.0
 10
15.3097548619
 20
9.0142130091
 30
0.0
 10
15.3192318902
 20
8.9700804621
 30
0.0
 10
15.3260772636
 20
8.9346740286
 30
0.0
 10
15.3308259536
 20
8.9080846861
 30
0.0
 10
15.3351764101
 20
8.8814540146
 30
0.0
 10
15.3391141204
 20
8.8547869863
 30
0.0
 10
15.3426252806
 20
8.8280893257
 30
0.0
 10
15.3456970253
 20
8.8013674208
 30
0.0
 10
15.348317643
 20
8.7746283036
 30
0.0
 10
15.3504767888
 20
8.7478795851
 30
0.0
 10
15.3521656835
 20
8.7211293747
 30
0.0
 10
15.3533772919
 20
8.6943861781
 30
0.0
 10
15.3541064727
 20
8.6676587783
 30
0.0
 10
15.3543500905
 20
8.6409561018
 30
0.0
 10
15.3541070867
 20
8.6142870776
 30
0.0
 10
15.3533785075
 20
8.5876604912
 30
0.0
 10
15.3521674766
 20
8.561084843
 30
0.0
 10
15.3504791249
 20
8.5345682156
 30
0.0
 10
15.3483204784
 20
8.5081181556
 30
0.0
 10
15.3457003096
 20
8.4817415741
 30
0.0
 10
15.3426289582
 20
8.4554446687
 30
0.0
 10
15.3391181331
 20
8.4292328683
 30
0.0
 10
15.3351806994
 20
8.403110801
 30
0.0
 10
15.3308304596
 20
8.3770822882
 30
0.0
 10
15.3260819375
 20
8.3511503445
 30
0.0
 10
15.3209501828
 20
8.3253172463
 30
0.0
 10
15.3154505421
 20
8.2995844237
 30
0.0
 10
15.3076511992
 20
8.2654233489
 30
0.0
 10
15.3012915658
 20
8.2399324359
 30
0.0
 10
15.296846081
 20
8.2230011725
 30
0.0
  0
SPLINE
  5
353
100
AcDbEntity
  8
0
100
AcDbSpline
 62
7
  6
CONTINUOUS
 70
0
 71
3
 72
39
 73
35
 74
0
 42
0.0000001
 43
0.0000001
 44
0.0000000001
 40
0.0
 40
0.0
 40
0.0
 40
0.0
 40
0.0456955419
 40
0.0905834148
 40
0.1346261228
 40
0.1777863341
 40
0.2200273954
 40
0.2613138611
 40
0.3016121232
 40
0.3408911018
 40
0.3791229973
 40
0.4162840877
 40
0.4523555537
 40
0.4873243001
 40
0.5211837449
 40
0.5539345441
 40
0.5855852136
 40
0.6161526124
 40
0.6456622523
 40
0.6741484013
 40
0.701653943
 40
0.7282299857
 40
0.7539352106
 40
0.7788349646
 40
0.8030001162
 40
0.8265057134
 40
0.8494294928
 40
0.8718503097
 40
0.8938465695
 40
0.9154947416
 40
0.9368680277
 40
0.9580352503
 40
0.979059986
 40
1.0
 40
1.0
 40
1.0
 40
1.0
 10
15.3121752921
 20
8.1387183882
 30
0.0
 10
15.3163593174
 20
8.1362097684
 30
0.0
 10
15.3246287042
 20
8.1311954862
 30
0.0
 10
15.3368369026
 20
8.1236098653
 30
0.0
 10
15.3487266084
 20
8.1160262663
 30
0.0
 10
15.3602820698
 20
8.1084461114
 30
0.0
 10
15.3714874212
 20
8.1008709731
 30
0.0
 10
15.3823268011
 20
8.0933025881
 30
0.0
 10
15.3927845198
 20
8.0857428522
 30
0.0
 10
15.4028452408
 20
8.0781938141
 30
0.0
 10
15.412494178
 20
8.070657664
 30
0.0
 10
15.4217173069
 20
8.0631367164
 30
0.0
 10
15.4305015816
 20
8.0556333892
 30
0.0
 10
15.4388351517
 20
8.0481501766
 30
0.0
 10
15.4467075693
 20
8.0406896179
 30
0.0
 10
15.4541099804
 20
8.0332542629
 30
0.0
 10
15.4610352915
 20
8.0258466363
 30
0.0
 10
15.4674783041
 20
8.018469201
 30
0.0
 10
15.4734358108
 20
8.011124323
 30
0.0
 10
15.4789066525
 20
8.003814242
 30
0.0
 10
15.4838917255
 20
7.9965410434
 30
0.0
 10
15.4883939482
 20
7.989306638
 30
0.0
 10
15.4924181874
 20
7.9821127476
 30
0.0
 10
15.495971151
 20
7.9749608949
 30
0.0
 10
15.4990612503
 20
7.9678523969
 30
0.0
 10
15.5016984415
 20
7.9607883599
 30
0.0
 10
15.5038940476
 20
7.9537696729
 30
0.0
 10
15.5056605662
 20
7.9467969997
 30
0.0
 10
15.5070114713
 20
7.9398707724
 30
0.0
 10
15.5079610088
 20
7.9329911772
 30
0.0
 10
15.5085239976
 20
7.9261581755
 30
0.0
 10
15.5087156238
 20
7.9193714151
 30
0.0
 10
15.5085512888
 20
7.9126305806
 30
0.0
 10
15.5082142416
 20
7.9081609371
 30
0.0
 10
15.5079916472
 20
7.905936495
 30
0.0
  0
SPLINE
  5
354
100
AcDbEntity
  8
0
100
AcDbSpline
 62
7
  6
CONTINUOUS
 70
0
 71
3
 72
153
 73
149
 74
0
 42
0.0000001
 43
0.0000001
 44
0.0000000001
 40
0.0
 40
0.0
 40
0.0
 40
0.0
 40
0.0020827402
 40
0.0042134583
 40
0.0063928236
 40
0.0086214633
 40
0.0108999661
 40
0.0132288565
 40
0.0156085793
 40
0.0180395232
 40
0.0205220232
 40
0.0230563651
 40
0.0256427905
 40
0.0282814909
 40
0.0309726197
 40
0.0337162893
 40
0.039361405
 40
0.0452171582
 40
0.0512832423
 40
0.0575589005
 40
0.0640429682
 40
0.0707339105
 40
0.0776298551
 40
0.0847286195
 40
0.0920277351
 40
0.0995244672
 40
0.1072158332
 40
0.1150986205
 40
0.1231694004
 40
0.131424541
 40
0.1398602183
 40
0.1484724269
 40
0.1572569903
 40
0.1662095704
 40
0.1753256756
 40
0.1846006673
 40
0.1940297678
 40
0.2036080679
 40
0.2133305334
 40
0.2231920109
 40
0.2331872342
 40
0.2433108289
 40
0.2535573194
 40
0.2639211341
 40
0.2743966108
 40
0.2849780015
 40
0.2956594774
 40
0.3064351342
 40
0.3172989972
 40
0.3392669995
 40
0.3615145881
 40
0.3839919209
 40
0.4066484887
 40
0.4294332633
 40
0.4522948494
 40
0.4751816305
 40
0.4980419184
 40
0.5208241006
 40
0.5434767886
 40
0.5659489663
 40
0.5881901386
 40
0.6101504827
 40
0.6210100578
 40
0.6317811246
 40
0.6424577121
 40
0.6530339199
 40
0.6635039233
 40
0.6738619782
 40
0.6841024262
 40
0.6942197007
 40
0.7042083317
 40
0.7140629502
 40
0.7237782949
 40
0.7333492181
 40
0.7427706916
 40
0.7520378131
 40
0.7611458124
 40
0.7700900577
 40
0.7788660639
 40
0.787469501
 40
0.7958962017
 40
0.8041421697
 40
0.8122035903
 40
0.8200768404
 40
0.827758502
 40
0.8352453743
 40
0.8425344874
 40
0.8496231191
 40
0.8565088138
 40
0.8631894039
 40
0.8696630339
 40
0.8759281876
 40
0.8819837197
 40
0.8878288937
 40
0.8934634269
 40
0.8962018134
 40
0.8988876675
 40
0.9015211084
 40
0.9041022902
 40
0.9066314122
 40
0.9091087181
 40
0.911534497
 40
0.9139090933
 40
0.9162329011
 40
0.9185063764
 40
0.9207300361
 40
0.9229044618
 40
0.9250303106
 40
0.9271083109
 40
0.9291392761
 40
0.9311241057
 40
0.9330637904
 40
0.9349594237
 40
0.9368121999
 40
0.9386234286
 40
0.9403945358
 40
0.9421270707
 40
0.9454827478
 40
0.9487060087
 40
0.9502736406
 40
0.9518148702
 40
0.9533322202
 40
0.954828351
 40
0.9563060495
 40
0.9577682193
 40
0.9592178676
 40
0.9606580865
 40
0.9620920358
 40
0.9635229202
 40
0.964953967
 40
0.966388402
 40
0.9678294267
 40
0.9692801945
 40
0.9707437904
 40
0.9722232117
 40
0.9737213505
 40
0.9752409824
 40
0.9767847528
 40
0.9783551722
 40
0.9815846908
 40
0.9849474367
 40
0.9884583814
 40
0.9902737196
 40
0.9921307387
 40
0.9940307449
 40
0.9959749389
 40
0.9979643819
 40
1.0
 40
1.0
 40
1.0
 40
1.0
 10
15.5891268115
 20
9.6898176023
 30
0.0
 10
15.5882058607
 20
9.6889280321
 30
0.0
 10
15.5863642367
 20
9.6871060198
 30
0.0
 10
15.5836333822
 20
9.6842791752
 30
0.0
 10
15.5809033708
 20
9.6813281055
 30
0.0
 10
15.578174656
 20
9.6782532989
 30
0.0
 10
15.5754476278
 20
9.6750552124
 30
0.0
 10
15.5727226888
 20
9.6717343115
 30
0.0
 10
15.570000233
 20
9.6682910954
 30
0.0
 10
15.5672806754
 20
9.6647260782
 30
0.0
 10
15.5645644222
 20
9.6610397965
 30
0.0
 10
15.561851875
 20
9.6572328048
 30
0.0
 10
15.5591434454
 20
9.6533056685
 30
0.0
 10
15.5564395325
 20
9.6492589816
 30
0.0
 10
15.5537405395
 20
9.6450933432
 30
0.0
 10
15.5501146148
 20
9.6393266959
 30
0.0
 10
15.5456003398
 20
9.6318214629
 30
0.0
 10
15.5402594569
 20
9.6224336604
 30
0.0
 10
15.5349478964
 20
9.6125865315
 30
0.0
 10
15.5296688584
 20
9.6022860057
 30
0.0
 10
15.5244255031
 20
9.5915382221
 30
0.0
 10
15.5192209815
 20
9.5803496159
 30
0.0
 10
15.5140584232
 20
9.5687268869
 30
0.0
 10
15.5089409359
 20
9.5566770019
 30
0.0
 10
15.5038716025
 20
9.5442071884
 30
0.0
 10
15.4988534775
 20
9.5313249317
 30
0.0
 10
15.4938895852
 20
9.5180379693
 30
0.0
 10
15.4889829186
 20
9.5043542845
 30
0.0
 10
15.4841364366
 20
9.4902821014
 30
0.0
 10
15.4793530628
 20
9.47582988
 30
0.0
 10
15.4746356821
 20
9.4610063115
 30
0.0
 10
15.4699871395
 20
9.4458203133
 30
0.0
 10
15.4654102386
 20
9.430281022
 30
0.0
 10
15.4609077403
 20
9.4143977876
 30
0.0
 10
15.4564823607
 20
9.3981801678
 30
0.0
 10
15.4521367692
 20
9.3816379236
 30
0.0
 10
15.4478735861
 20
9.3647810127
 30
0.0
 10
15.4436953825
 20
9.347619583
 30
0.0
 10
15.4396046783
 20
9.3301639657
 30
0.0
 10
15.4356039406
 20
9.3124246696
 30
0.0
 10
15.4316955825
 20
9.2944123753
 30
0.0
 10
15.42788196
 20
9.2761379286
 30
0.0
 10
15.4241653725
 20
9.2576123339
 30
0.0
 10
15.420548061
 20
9.2388467463
 30
0.0
 10
15.4170322069
 20
9.2198524659
 30
0.0
 10
15.4136199298
 20
9.2006409302
 30
0.0
 10
15.410313288
 20
9.1812237116
 30
0.0
 10
15.4071142685
 20
9.1616124941
 30
0.0
 10
15.4029798268
 20
9.1351240725
 30
0.0
 10
15.3980979351
 20
9.1016150591
 30
0.0
 10
15.3927199198
 20
9.0609667923
 30
0.0
 10
15.3878138501
 20
9.0198325139
 30
0.0
 10
15.3833915685
 20
8.9783113203
 30
0.0
 10
15.3794637418
 20
8.9365031761
 30
0.0
 10
15.3760398435
 20
8.894508759
 30
0.0
 10
15.3731281263
 20
8.8524291919
 30
0.0
 10
15.3707355987
 20
8.8103658061
 30
0.0
 10
15.3688680187
 20
8.7684198916
 30
0.0
 10
15.3675298675
 20
8.7266924595
 30
0.0
 10
15.3667243437
 20
8.6852839743
 30
0.0
 10
15.3664533704
 20
8.6442941954
 30
0.0
 10
15.3666743024
 20
8.6104434391
 30
0.0
 10
15.3671217941
 20
8.5836481994
 30
0.0
 10
15.3675898329
 20
8.5637917581
 30
0.0
 10
15.3681912265
 20
8.5441132012
 30
0.0
 10
15.3689256155
 20
8.5246243692
 30
0.0
 10
15.3697925542
 20
8.5053370017
 30
0.0
 10
15.3707915188
 20
8.4862627134
 30
0.0
 10
15.3719219054
 20
8.4674129913
 30
0.0
 10
15.3731830297
 20
8.4487991861
 30
0.0
 10
15.3745741289
 20
8.4304325058
 30
0.0
 10
15.3760943622
 20
8.4123240101
 30
0.0
 10
15.3777428108
 20
8.3944846028
 30
0.0
 10
15.3795184786
 20
8.376925025
 30
0.0
 10
15.3814202917
 20
8.3596558481
 30
0.0
 10
15.3834471001
 20
8.342687468
 30
0.0
 10
15.3855976788
 20
8.3260300991
 30
0.0
 10
15.3878707279
 20
8.3096937682
 30
0.0
 10
15.3902648743
 20
8.2936883076
 30
0.0
 10
15.3927786698
 20
8.2780233486
 30
0.0
 10
15.3954105948
 20
8.2627083159
 30
0.0
 10
15.3981590584
 20
8.2477524227
 30
0.0
 10
15.4010223995
 20
8.233164665
 30
0.0
 10
15.4039988885
 20
8.2189538148
 30
0.0
 10
15.4070867259
 20
8.2051284144
 30
0.0
 10
15.4102840458
 20
8.191696771
 30
0.0
 10
15.4135889168
 20
8.1786669525
 30
0.0
 10
15.4169993439
 20
8.166046782
 30
0.0
 10
15.4205132696
 20
8.1538438321
 30
0.0
 10
15.4241285743
 20
8.1420654192
 30
0.0
 10
15.4278430799
 20
8.1307185966
 30
0.0
 10
15.4316545504
 20
8.1198101583
 30
0.0
 10
15.4355607004
 20
8.1093466076
 30
0.0
 10
15.4395591773
 20
8.0993342463
 30
0.0
 10
15.4429980523
 20
8.0912970249
 30
0.0
 10
15.4457962467
 20
8.0851006729
 30
0.0
 10
15.4478965491
 20
8.080614092
 30
0.0
 10
15.4500181054
 20
8.0762447093
 30
0.0
 10
15.4521606131
 20
8.0719931766
 30
0.0
 10
15.4543237459
 20
8.0678601312
 30
0.0
 10
15.4565071795
 20
8.0638461912
 30
0.0
 10
15.4587105945
 20
8.0599519607
 30
0.0
 10
15.4609336535
 20
8.0561780187
 30
0.0
 10
15.4631760341
 20
8.0525249338
 30
0.0
 10
15.4654373987
 20
8.0489932507
 30
0.0
 10
15.4677174112
 20
8.0455834967
 30
0.0
 10
15.4700157407
 20
8.0422961859
 30
0.0
 10
15.4723320389
 20
8.0391318047
 30
0.0
 10
15.4746659739
 20
8.0360908323
 30
0.0
 10
15.477017198
 20
8.0331737211
 30
0.0
 10
15.4793853668
 20
8.0303809083
 30
0.0
 10
15.4817701412
 20
8.0277128184
 30
0.0
 10
15.484171164
 20
8.0251698472
 30
0.0
 10
15.4865881001
 20
8.0227523844
 30
0.0
 10
15.4890205814
 20
8.0204608038
 30
0.0
 10
15.4914683021
 20
8.018295417
 30
0.0
 10
15.4947169669
 20
8.0156057862
 30
0.0
 10
15.4988165442
 20
8.0125482615
 30
0.0
 10
15.5030472637
 20
8.0098576968
 30
0.0
 10
15.5064538185
 20
8.0079716699
 30
0.0
 10
15.508997936
 20
8.0066983605
 30
0.0
 10
15.5115543194
 20
8.0055535369
 30
0.0
 10
15.5141226084
 20
8.0045373721
 30
0.0
 10
15.5167023988
 20
8.0036500619
 30
0.0
 10
15.5192932889
 20
8.0028917787
 30
0.0
 10
15.5218948603
 20
8.0022626547
 30
0.0
 10
15.5245066951
 20
8.001762828
 30
0.0
 10
15.5271283609
 20
8.0013923825
 30
0.0
 10
15.5297594243
 20
8.001151393
 30
0.0
 10
15.5323994463
 20
8.0010399082
 30
0.0
 10
15.5350479865
 20
8.0010579297
 30
0.0
 10
15.5377046042
 20
8.0012054618
 30
0.0
 10
15.5403688618
 20
8.0014824513
 30
0.0
 10
15.5430403247
 20
8.0018888392
 30
0.0
 10
15.5457185614
 20
8.0024245397
 30
0.0
 10
15.5484031532
 20
8.0030894304
 30
0.0
 10
15.5510936668
 20
8.0038833889
 30
0.0
 10
15.5537897333
 20
8.004806269
 30
0.0
 10
15.5574248748
 20
8.0062214872
 30
0.0
 10
15.5619874427
 20
8.0083241666
 30
0.0
 10
15.5674249334
 20
8.011336578
 30
0.0
 10
15.5719141941
 20
8.0142392313
 30
0.0
 10
15.575508375
 20
8.0168060589
 30
0.0
 10
15.5782360685
 20
8.0188795008
 30
0.0
 10
15.5809652669
 20
8.0210793866
 30
0.0
 10
15.5836956219
 20
8.0234054335
 30
0.0
 10
15.5864266762
 20
8.0258572312
 30
0.0
 10
15.5882266972
 20
8.027555639
 30
0.0
 10
15.5891268115
 20
8.0284250827
 30
0.0
  0
SPLINE
  5
355
100
AcDbEntity
  8
0
100
AcDbSpline
 62
7
  6
CONTINUOUS
 70
0
 71
3
 72
22
 73
18
 74
0
 42
0.0000001
 43
0.0000001
 44
0.0000000001
 40
0.0
 40
0.0
 40
0.0
 40
0.0
 40
0.053053517
 40
0.1073085721
 40
0.1627816825
 40
0.2194883203
 40
0.2774430696
 40
0.3366589893
 40
0.3971471962
 40
0.4589173943
 40
0.5219780092
 40
0.5863362298
 40
0.6519982024
 40
0.7189688371
 40
0.7872520868
 40
0.8568509473
 40
1.0
 40
1.0
 40
1.0
 40
1.0
 10
15.5891268115
 20
8.0284250827
 30
0.0
 10
15.5900321112
 20
8.0292995351
 30
0.0
 10
15.591842448
 20
8.0310898652
 30
0.0
 10
15.5945274311
 20
8.0338660792
 30
0.0
 10
15.597211615
 20
8.0367623947
 30
0.0
 10
15.5998945662
 20
8.0397783479
 30
0.0
 10
15.6025759141
 20
8.0429135039
 30
0.0
 10
15.6052552758
 20
8.0461674225
 30
0.0
 10
15.6079322769
 20
8.0495396315
 30
0.0
 10
15.610606525
 20
8.0530296432
 30
0.0
 10
15.6132776307
 20
8.056636951
 30
0.0
 10
15.6159452144
 20
8.0603610287
 30
0.0
 10
15.6186088841
 20
8.0642013427
 30
0.0
 10
15.6212682584
 20
8.0681573302
 30
0.0
 10
15.623922961
 20
8.0722284303
 30
0.0
 10
15.6274891726
 20
8.0778619851
 30
0.0
 10
15.6301049149
 20
8.0821794423
 30
0.0
 10
15.6318302238
 20
8.0851046764
 30
0.0
  0
SPLINE
  5
356
100
AcDbEntity
  8
0
100
AcDbSpline
 62
7
  6
CONTINUOUS
 70
0
 71
3
 72
23
 73
19
 74
0
 42
0.0000001
 43
0.0000001
 44
0.0000000001
 40
0.0
 40
0.0
 40
0.0
 40
0.0
 40
0.0597399353
 40
0.1205020258
 40
0.1821513179
 40
0.244550244
 40
0.3075590458
 40
0.3710361997
 40
0.4348388294
 40
0.4988231285
 40
0.5628447659
 40
0.6267593088
 40
0.6904226258
 40
0.7536913096
 40
0.8164230844
 40
0.8784772275
 40
0.9397149852
 40
1.0
 40
1.0
 40
1.0
 40
1.0
 10
12.6919139665
 20
9.3311007747
 30
0.0
 10
12.6900807155
 20
9.3207958193
 30
0.0
 10
12.6865332657
 20
9.2999825495
 30
0.0
 10
12.6816064309
 20
9.2684503273
 30
0.0
 10
12.6770367553
 20
9.2363936918
 30
0.0
 10
12.6728352803
 20
9.2038898252
 30
0.0
 10
12.6690121333
 20
9.171016881
 30
0.0
 10
12.6655765346
 20
9.1378539353
 30
0.0
 10
12.6625367622
 20
9.1044807571
 30
0.0
 10
12.6599001388
 20
9.070977626
 30
0.0
 10
12.6576730108
 20
9.0374251348
 30
0.0
 10
12.655860734
 20
9.0039039962
 30
0.0
 10
12.654467662
 20
8.970494847
 30
0.0
 10
12.6534971321
 20
8.9372780521
 30
0.0
 10
12.6529514624
 20
8.9043335188
 30
0.0
 10
12.6528319389
 20
8.8717404671
 30
0.0
 10
12.6531388189
 20
8.8395773753
 30
0.0
 10
12.6536313815
 20
8.8182908341
 30
0.0
 10
12.6539506305
 20
8.8077334063
 30
0.0
  0
SPLINE
  5
357
100
AcDbEntity
  8
0
100
AcDbSpline
 62
7
  6
CONTINUOUS
 70
0
 71
3
 72
28
 73
24
 74
0
 42
0.0000001
 43
0.0000001
 44
0.0000000001
 40
0.0
 40
0.0
 40
0.0
 40
0.0
 40
0.0637759834
 40
0.0955879084
 40
0.127346187
 40
0.1907019989
 40
0.253854554
 40
0.2853588054
 40
0.3168148493
 40
0.3795822195
 40
0.4421719639
 40
0.5045963767
 40
0.5668693671
 40
0.6290063464
 40
0.6600315365
 40
0.6910291143
 40
0.7220013668
 40
0.7529506339
 40
0.8147848181
 40
0.8765565455
 40
0.9074279098
 40
0.938291375
 40
1.0
 40
1.0
 40
1.0
 40
1.0
 10
10.2325866914
 20
9.0940636087
 30
0.0
 10
10.2325866914
 20
9.0794061412
 30
0.0
 10
10.2320600108
 20
9.0574325367
 30
0.0
 10
10.2302979887
 20
9.0282159311
 30
0.0
 10
10.2278363883
 20
8.9991462867
 30
0.0
 10
10.2234464677
 20
8.9630227833
 30
0.0
 10
10.2173034114
 20
8.9272147108
 30
0.0
 10
10.2113491265
 20
8.8988460621
 30
0.0
 10
10.2047159795
 20
8.8707194543
 30
0.0
 10
10.1951419304
 20
8.8359576959
 30
0.0
 10
10.1816166583
 20
8.7949560091
 30
0.0
 10
10.1660938178
 20
8.7547890536
 30
0.0
 10
10.1486096434
 20
8.7155507304
 30
0.0
 10
10.1324291743
 20
8.6836831855
 30
0.0
 10
10.1185482502
 20
8.6587487017
 30
0.0
 10
10.1076789888
 20
8.6403433131
 30
0.0
 10
10.0963530761
 20
8.6222359352
 30
0.0
 10
10.0806575701
 20
8.5985131373
 30
0.0
 10
10.0599260841
 20
8.5696492127
 30
0.0
 10
10.0377528188
 20
8.5419005249
 30
0.0
 10
10.0191899489
 20
8.5204225937
 30
0.0
 10
10.000091542
 20
8.4994399266
 30
0.0
 10
9.9851655598
 20
8.4842612375
 30
0.0
 10
9.97496484
 20
8.4744081236
 30
0.0
  0
SPLINE
  5
358
100
AcDbEntity
  8
0
100
AcDbSpline
 62
7
  6
CONTINUOUS
 70
0
 71
3
 72
28
 73
24
 74
0
 42
0.0000001
 43
0.0000001
 44
0.0000000001
 40
0.0
 40
0.0
 40
0.0
 40
0.0
 40
0.0637759834
 40
0.0955879084
 40
0.127346187
 40
0.1907019989
 40
0.253854554
 40
0.2853588054
 40
0.3168148493
 40
0.3795822195
 40
0.4421719639
 40
0.5045963767
 40
0.5668693671
 40
0.6290063464
 40
0.6600315365
 40
0.6910291143
 40
0.7220013668
 40
0.7529506339
 40
0.8147848181
 40
0.8765565455
 40
0.9074279098
 40
0.938291375
 40
1.0
 40
1.0
 40
1.0
 40
1.0
 10
13.130364342
 20
8.893102046
 30
0.0
 10
13.130364342
 20
8.8784445786
 30
0.0
 10
13.1298376613
 20
8.8564709741
 30
0.0
 10
13.1280756393
 20
8.8272543685
 30
0.0
 10
13.1256140389
 20
8.7981847241
 30
0.0
 10
13.1212241183
 20
8.7620612207
 30
0.0
 10
13.1150810619
 20
8.7262531482
 30
0.0
 10
13.109126777
 20
8.6978844994
 30
0.0
 10
13.10249363
 20
8.6697578916
 30
0.0
 10
13.092919581
 20
8.6349961332
 30
0.0
 10
13.0793943088
 20
8.5939944464
 30
0.0
 10
13.0638714684
 20
8.553827491
 30
0.0
 10
13.046387294
 20
8.5145891677
 30
0.0
 10
13.0302068249
 20
8.4827216229
 30
0.0
 10
13.0163259007
 20
8.4577871391
 30
0.0
 10
13.0054566394
 20
8.4393817505
 30
0.0
 10
12.9941307267
 20
8.4212743726
 30
0.0
 10
12.9784352207
 20
8.3975515747
 30
0.0
 10
12.9577037346
 20
8.3686876501
 30
0.0
 10
12.9355304694
 20
8.3409389623
 30
0.0
 10
12.9169675995
 20
8.3194610311
 30
0.0
 10
12.8978691926
 20
8.298478364
 30
0.0
 10
12.8829432103
 20
8.2832996749
 30
0.0
 10
12.8727424906
 20
8.273446561
 30
0.0
  0
SPLINE
  5
359
100
AcDbEntity
  8
0
100
AcDbSpline
 62
7
  6
CONTINUOUS
 70
0
 71
3
 72
28
 73
24
 74
0
 42
0.0000001
 43
0.0000001
 44
0.0000000001
 40
0.0
 40
0.0
 40
0.0
 40
0.0
 40
0.0637759834
 40
0.0955879084
 40
0.127346187
 40
0.1907019989
 40
0.253854554
 40
0.2853588054
 40
0.3168148493
 40
0.3795822195
 40
0.4421719639
 40
0.5045963767
 40
0.5668693671
 40
0.6290063464
 40
0.6600315365
 40
0.6910291143
 40
0.7220013668
 40
0.7529506339
 40
0.8147848181
 40
0.8765565455
 40
0.9074279098
 40
0.938291375
 40
1.0
 40
1.0
 40
1.0
 40
1.0
 10
12.4039882176
 20
6.5286616925
 30
0.0
 10
12.4039882176
 20
6.5140042251
 30
0.0
 10
12.4034615369
 20
6.4920306206
 30
0.0
 10
12.4016995149
 20
6.462814015
 30
0.0
 10
12.3992379145
 20
6.4337443706
 30
0.0
 10
12.3948479939
 20
6.3976208672
 30
0.0
 10
12.3887049375
 20
6.3618127947
 30
0.0
 10
12.3827506527
 20
6.3334441459
 30
0.0
 10
12.3761175056
 20
6.3053175382
 30
0.0
 10
12.3665434566
 20
6.2705557798
 30
0.0
 10
12.3530181844
 20
6.2295540929
 30
0.0
 10
12.337495344
 20
6.1893871375
 30
0.0
 10
12.3200111696
 20
6.1501488143
 30
0.0
 10
12.3038307005
 20
6.1182812694
 30
0.0
 10
12.2899497764
 20
6.0933467856
 30
0.0
 10
12.279080515
 20
6.074941397
 30
0.0
 10
12.2677546023
 20
6.0568340191
 30
0.0
 10
12.2520590963
 20
6.0331112212
 30
0.0
 10
12.2313276102
 20
6.0042472966
 30
0.0
 10
12.209154345
 20
5.9764986088
 30
0.0
 10
12.1905914751
 20
5.9550206776
 30
0.0
 10
12.1714930682
 20
5.9340380105
 30
0.0
 10
12.156567086
 20
5.9188593214
 30
0.0
 10
12.1463663662
 20
5.9090062075
 30
0.0
  0
SPLINE
  5
35A
100
AcDbEntity
  8
0
100
AcDbSpline
 62
7
  6
CONTINUOUS
 70
0
 71
3
 72
28
 73
24
 74
0
 42
0.0000001
 43
0.0000001
 44
0.0000000001
 40
0.0
 40
0.0
 40
0.0
 40
0.0
 40
0.0637759834
 40
0.0955879084
 40
0.127346187
 40
0.1907019989
 40
0.253854554
 40
0.2853588054
 40
0.3168148493
 40
0.3795822195
 40
0.4421719639
 40
0.5045963767
 40
0.5668693671
 40
0.6290063464
 40
0.6600315365
 40
0.6910291143
 40
0.7220013668
 40
0.7529506339
 40
0.8147848181
 40
0.8765565455
 40
0.9074279098
 40
0.938291375
 40
1.0
 40
1.0
 40
1.0
 40
1.0
 10
9.506210567
 20
6.7296232552
 30
0.0
 10
9.506210567
 20
6.7149657878
 30
0.0
 10
9.5056838864
 20
6.6929921832
 30
0.0
 10
9.5039218643
 20
6.6637755776
 30
0.0
 10
9.5014602639
 20
6.6347059332
 30
0.0
 10
9.4970703433
 20
6.5985824298
 30
0.0
 10
9.490927287
 20
6.5627743573
 30
0.0
 10
9.4849730021
 20
6.5344057086
 30
0.0
 10
9.4783398551
 20
6.5062791008
 30
0.0
 10
9.468765806
 20
6.4715173424
 30
0.0
 10
9.4552405339
 20
6.4305156556
 30
0.0
 10
9.4397176934
 20
6.3903487001
 30
0.0
 10
9.422233519
 20
6.3511103769
 30
0.0
 10
9.4060530499
 20
6.319242832
 30
0.0
 10
9.3921721258
 20
6.2943083483
 30
0.0
 10
9.3813028644
 20
6.2759029596
 30
0.0
 10
9.3699769517
 20
6.2577955818
 30
0.0
 10
9.3542814457
 20
6.2340727838
 30
0.0
 10
9.3335499597
 20
6.2052088592
 30
0.0
 10
9.3113766945
 20
6.1774601714
 30
0.0
 10
9.2928138245
 20
6.1559822402
 30
0.0
 10
9.2737154176
 20
6.1349995732
 30
0.0
 10
9.2587894354
 20
6.119820884
 30
0.0
 10
9.2485887156
 20
6.1099677702
 30
0.0
  0
SPLINE
  5
35B
100
AcDbEntity
  8
0
100
AcDbSpline
 62
7
  6
CONTINUOUS
 70
0
 71
3
 72
18
 73
14
 74
0
 42
0.0000001
 43
0.0000001
 44
0.0000000001
 40
0.0
 40
0.0
 40
0.0
 40
0.0
 40
0.1480356372
 40
0.2876662502
 40
0.4195655771
 40
0.4828973127
 40
0.5446380375
 40
0.6638657774
 40
0.7785237916
 40
0.8345984481
 40
0.8900706527
 40
0.9451373023
 40
1.0
 40
1.0
 40
1.0
 40
1.0
 10
7.6334735529
 20
10.6489202231
 30
0.0
 10
7.6344164351
 20
10.6498309773
 30
0.0
 10
7.6361933888
 20
10.6516596222
 30
0.0
 10
7.6385826227
 20
10.6545094716
 30
0.0
 10
7.6402963709
 20
10.6569346168
 30
0.0
 10
7.6414765771
 20
10.6588811748
 30
0.0
 10
7.6425072931
 20
10.6607840467
 30
0.0
 10
7.643578377
 20
10.6631784671
 30
0.0
 10
7.6443604652
 20
10.6656307552
 30
0.0
 10
7.6447946103
 20
10.6675873666
 30
0.0
 10
7.6450256099
 20
10.6690455986
 30
0.0
 10
7.6451642166
 20
10.6705046345
 30
0.0
 10
7.6451950384
 20
10.6714783843
 30
0.0
 10
7.6451950335
 20
10.6719642158
 30
0.0
  0
SPLINE
  5
35C
100
AcDbEntity
  8
0
100
AcDbSpline
 62
7
  6
CONTINUOUS
 70
0
 71
3
 72
18
 73
14
 74
0
 42
0.0000001
 43
0.0000001
 44
0.0000000001
 40
0.0
 40
0.0
 40
0.0
 40
0.0
 40
0.1480356372
 40
0.2876662502
 40
0.4195655771
 40
0.4828973127
 40
0.5446380375
 40
0.6638657774
 40
0.7785237916
 40
0.8345984481
 40
0.8900706527
 40
0.9451373023
 40
1.0
 40
1.0
 40
1.0
 40
1.0
 10
14.155405036
 20
10.1966227385
 30
0.0
 10
14.1563479182
 20
10.1975334928
 30
0.0
 10
14.1581248719
 20
10.1993621376
 30
0.0
 10
14.1605141058
 20
10.202211987
 30
0.0
 10
14.162227854
 20
10.2046371322
 30
0.0
 10
14.1634080602
 20
10.2065836902
 30
0.0
 10
14.1644387762
 20
10.2084865621
 30
0.0
 10
14.1655098601
 20
10.2108809825
 30
0.0
 10
14.1662919483
 20
10.2133332706
 30
0.0
 10
14.1667260934
 20
10.215289882
 30
0.0
 10
14.166957093
 20
10.216748114
 30
0.0
 10
14.1670956997
 20
10.2182071499
 30
0.0
 10
14.1671265215
 20
10.2191808998
 30
0.0
 10
14.1671265166
 20
10.2196667313
 30
0.0
  0
SPLINE
  5
35D
100
AcDbEntity
  8
0
100
AcDbSpline
 62
7
  6
CONTINUOUS
 70
0
 71
3
 72
26
 73
22
 74
0
 42
0.0000001
 43
0.0000001
 44
0.0000000001
 40
0.0
 40
0.0
 40
0.0
 40
0.0
 40
0.064763614
 40
0.1303281264
 40
0.1964577444
 40
0.2629127684
 40
0.3294526685
 40
0.3958363032
 40
0.4618233107
 40
0.5271751411
 40
0.5916561891
 40
0.6550349124
 40
0.7170849725
 40
0.7775863937
 40
0.8363267544
 40
0.8649729325
 40
0.8931032394
 40
0.9206938694
 40
0.9477216316
 40
0.9741642016
 40
1.0
 40
1.0
 40
1.0
 40
1.0
 10
14.960066425
 20
7.0716438659
 30
0.0
 10
14.960066425
 20
7.0905223555
 30
0.0
 10
14.9603848945
 20
7.1285134836
 30
0.0
 10
14.9617907471
 20
7.1857656512
 30
0.0
 10
14.9641228846
 20
7.2434811272
 30
0.0
 10
14.9673723951
 20
7.3014369195
 30
0.0
 10
14.9715267274
 20
7.3594091264
 30
0.0
 10
14.9765698434
 20
7.4171738558
 30
0.0
 10
14.9824822246
 20
7.4745079928
 30
0.0
 10
14.9892409709
 20
7.5311901058
 30
0.0
 10
14.9968198788
 20
7.587001304
 30
0.0
 10
15.0051895465
 20
7.641726072
 30
0.0
 10
15.0143174724
 20
7.6951531962
 30
0.0
 10
15.0241682132
 20
7.7470762989
 30
0.0
 10
15.0330197609
 20
7.7892701042
 30
0.0
 10
15.0404453272
 20
7.8221146761
 30
0.0
 10
15.0461242766
 20
7.8460434013
 30
0.0
 10
15.0519538372
 20
7.869449997
 30
0.0
 10
15.0579284722
 20
7.892311893
 30
0.0
 10
15.0640423039
 20
7.9146069668
 30
0.0
 10
15.0682571512
 20
7.9292520801
 30
0.0
 10
15.0703883268
 20
7.9364753387
 30
0.0
  0
SPLINE
  5
35E
100
AcDbEntity
  8
0
100
AcDbSpline
 62
7
  6
CONTINUOUS
 70
0
 71
3
 72
59
 73
55
 74
0
 42
0.0000001
 43
0.0000001
 44
0.0000000001
 40
0.0
 40
0.0
 40
0.0
 40
0.0
 40
0.0417736767
 40
0.0840362765
 40
0.1266574811
 40
0.1695051262
 40
0.2124463914
 40
0.2553479967
 40
0.2980768488
 40
0.3405005256
 40
0.3824878146
 40
0.4239092383
 40
0.464637589
 40
0.5045484688
 40
0.5435208413
 40
0.5814375992
 40
0.6181861539
 40
0.6360888024
 40
0.6536595531
 40
0.6708859017
 40
0.6877557363
 40
0.7042573867
 40
0.720379648
 40
0.7361117919
 40
0.7514436399
 40
0.7663655339
 40
0.7808684645
 40
0.7949440033
 40
0.8085844873
 40
0.8217829218
 40
0.83453322
 40
0.8468300923
 40
0.8586693371
 40
0.8700477415
 40
0.8809634199
 40
0.8914157604
 40
0.9014058112
 40
0.9109363168
 40
0.9200121632
 40
0.9286405545
 40
0.9368315416
 40
0.9445983908
 40
0.9519582219
 40
0.9589325919
 40
0.9655482195
 40
0.9718376843
 40
0.9778400275
 40
0.9836011664
 40
0.9864084736
 40
0.9891757902
 40
0.9919106587
 40
0.9946209114
 40
0.9973146138
 40
1.0
 40
1.0
 40
1.0
 40
1.0
 10
14.6039317156
 20
8.659495899
 30
0.0
 10
14.6039317156
 20
8.6781517658
 30
0.0
 10
14.6042227669
 20
8.7156824358
 30
0.0
 10
14.6055094518
 20
8.7722342146
 30
0.0
 10
14.6076450329
 20
8.8292403586
 30
0.0
 10
14.6106225094
 20
8.8865121632
 30
0.0
 10
14.6144320418
 20
8.9438601442
 30
0.0
 10
14.6190610383
 20
9.0010945805
 30
0.0
 10
14.6244941644
 20
9.058026115
 30
0.0
 10
14.6307134094
 20
9.1144664054
 30
0.0
 10
14.6376981391
 20
9.1702287438
 30
0.0
 10
14.6454251655
 20
9.2251286807
 30
0.0
 10
14.6538688212
 20
9.2789846463
 30
0.0
 10
14.663001045
 20
9.3316185366
 30
0.0
 10
14.6727914644
 20
9.3828563896
 30
0.0
 10
14.6832075251
 20
9.4325286935
 30
0.0
 10
14.6924585542
 20
9.4728236108
 30
0.0
 10
14.7001575769
 20
9.5041456442
 30
0.0
 10
14.7060160357
 20
9.5269407032
 30
0.0
 10
14.7120039573
 20
9.5492248325
 30
0.0
 10
14.7181164197
 20
9.5709796231
 30
0.0
 10
14.7243483416
 20
9.5921870859
 30
0.0
 10
14.7306945501
 20
9.6128296932
 30
0.0
 10
14.7371498014
 20
9.6328903853
 30
0.0
 10
14.7437087098
 20
9.6523525938
 30
0.0
 10
14.7503658826
 20
9.6712002416
 30
0.0
 10
14.7571157414
 20
9.6894177799
 30
0.0
 10
14.7639527632
 20
9.7069901692
 30
0.0
 10
14.770871199
 20
9.723902938
 30
0.0
 10
14.7778654151
 20
9.7401421368
 30
0.0
 10
14.7849295186
 20
9.7556944273
 30
0.0
 10
14.7920577854
 20
9.7705470011
 30
0.0
 10
14.799244213
 20
9.7846877062
 30
0.0
 10
14.8064830107
 20
9.7981049255
 30
0.0
 10
14.8137681117
 20
9.8107877429
 30
0.0
 10
14.8210936908
 20
9.8227257808
 30
0.0
 10
14.8284536789
 20
9.8339094005
 30
0.0
 10
14.8358422671
 20
9.8443295055
 30
0.0
 10
14.843253471
 20
9.8539777578
 30
0.0
 10
14.8506815794
 20
9.8628463582
 30
0.0
 10
14.8581208145
 20
9.870928244
 30
0.0
 10
14.8655656814
 20
9.878216861
 30
0.0
 10
14.8730107466
 20
9.8847062779
 30
0.0
 10
14.8804508511
 20
9.8903909741
 30
0.0
 10
14.8878808999
 20
9.8952657769
 30
0.0
 10
14.8952960997
 20
9.8993257655
 30
0.0
 10
14.9026907125
 20
9.9025658931
 30
0.0
 10
14.9088856997
 20
9.9045963446
 30
0.0
 10
14.9138071122
 20
9.9057917293
 30
0.0
 10
14.9174567138
 20
9.9064741048
 30
0.0
 10
14.9210952516
 20
9.9069496569
 30
0.0
 10
14.9247220318
 20
9.9072182635
 30
0.0
 10
14.9283360325
 20
9.9072797595
 30
0.0
 10
14.9307379039
 20
9.907182586
 30
0.0
 10
14.9319343075
 20
9.9070996181
 30
0.0
  0
SPLINE
  5
35F
100
AcDbEntity
  8
0
100
AcDbSpline
 62
7
  6
CONTINUOUS
 70
0
 71
3
 72
13
 73
9
 74
0
 42
0.0000001
 43
0.0000001
 44
0.0000000001
 40
0.0
 40
0.0
 40
0.0
 40
0.0
 40
0.1237167206
 40
0.2477532241
 40
0.372143671
 40
0.4969136721
 40
0.7476296191
 40
1.0
 40
1.0
 40
1.0
 40
1.0
 10
9.9244835045
 20
9.0769810579
 30
0.0
 10
9.9189646566
 20
9.0759162244
 30
0.0
 10
9.9078767399
 20
9.0739656153
 30
0.0
 10
9.8911361124
 20
9.0715794995
 30
0.0
 10
9.874279455
 20
9.0697287915
 30
0.0
 10
9.851634154
 20
9.0679712482
 30
0.0
 10
9.823103075
 20
9.0671145046
 30
0.0
 10
9.8002422645
 20
9.0678458757
 30
0.0
 10
9.7887990115
 20
9.0685608197
 30
0.0
  0
SPLINE
  5
360
100
AcDbEntity
  8
0
100
AcDbSpline
 62
7
  6
CONTINUOUS
 70
0
 71
3
 72
11
 73
7
 74
0
 42
0.0000001
 43
0.0000001
 44
0.0000000001
 40
0.0
 40
0.0
 40
0.0
 40
0.0
 40
0.2595706699
 40
0.5131113827
 40
0.760104276
 40
1.0
 40
1.0
 40
1.0
 40
1.0
 10
12.1291946111
 20
9.4380462892
 30
0.0
 10
12.1315510528
 20
9.4497739242
 30
0.0
 10
12.1368837199
 20
9.4728265053
 30
0.0
 10
12.1466407676
 20
9.5064849237
 30
0.0
 10
12.1578053247
 20
9.538742888
 30
0.0
 10
12.1661452172
 20
9.5595829077
 30
0.0
 10
12.1704815234
 20
9.5697523164
 30
0.0
  0
SPLINE
  5
361
100
AcDbEntity
  8
0
100
AcDbSpline
 62
7
  6
CONTINUOUS
 70
0
 71
3
 72
35
 73
31
 74
0
 42
0.0000001
 43
0.0000001
 44
0.0000000001
 40
0.0
 40
0.0
 40
0.0
 40
0.0
 40
0.0638928011
 40
0.1278440432
 40
0.1598379804
 40
0.1918351014
 40
0.2238317211
 40
0.255824287
 40
0.2878087971
 40
0.3197807272
 40
0.3517351485
 40
0.3836661871
 40
0.4155671095
 40
0.4474302038
 40
0.4792465523
 40
0.5110061792
 40
0.5426978814
 40
0.574309299
 40
0.6058271315
 40
0.6372370673
 40
0.6685241364
 40
0.6996727688
 40
0.7306668363
 40
0.7614902918
 40
0.7921268236
 40
0.8225600978
 40
0.8527743832
 40
0.882753616
 40
0.9419370665
 40
1.0
 40
1.0
 40
1.0
 40
1.0
 10
12.3732934683
 20
8.8854656091
 30
0.0
 10
12.3613886404
 20
8.8924007898
 30
0.0
 10
12.3380716603
 20
8.9071628483
 30
0.0
 10
12.3103961227
 20
8.9277650576
 30
0.0
 10
12.2892535451
 20
8.9454984171
 30
0.0
 10
12.2739239985
 20
8.959414531
 30
0.0
 10
12.2591585656
 20
8.9739272168
 30
0.0
 10
12.2449890608
 20
8.9890188296
 30
0.0
 10
12.2314471355
 20
9.0046691243
 30
0.0
 10
12.2185631864
 20
9.020855036
 30
0.0
 10
12.2063668808
 20
9.0375510587
 30
0.0
 10
12.1948859399
 20
9.0547285218
 30
0.0
 10
12.184146014
 20
9.0723557848
 30
0.0
 10
12.1741707005
 20
9.0903985296
 30
0.0
 10
12.1649801092
 20
9.1088193134
 30
0.0
 10
12.156591131
 20
9.1275782113
 30
0.0
 10
12.1490172125
 20
9.1466331475
 30
0.0
 10
12.1422670439
 20
9.1659399057
 30
0.0
 10
12.1363452213
 20
9.1854530173
 30
0.0
 10
12.131252037
 20
9.2051262354
 30
0.0
 10
12.1269825366
 20
9.2249128702
 30
0.0
 10
12.12352764
 20
9.2447666643
 30
0.0
 10
12.1208740135
 20
9.2646422709
 30
0.0
 10
12.1190036451
 20
9.2844956679
 30
0.0
 10
12.1178953361
 20
9.304284807
 30
0.0
 10
12.1175243634
 20
9.3239698001
 30
0.0
 10
12.1178628916
 20
9.3435135441
 30
0.0
 10
12.1192145761
 20
9.3692244655
 30
0.0
 10
12.1225000314
 20
9.4008259565
 30
0.0
 10
12.1267281651
 20
9.4257711801
 30
0.0
 10
12.1291946111
 20
9.4380462892
 30
0.0
  0
SPLINE
  5
362
100
AcDbEntity
  8
0
100
AcDbSpline
 62
7
  6
CONTINUOUS
 70
0
 71
3
 72
23
 73
19
 74
0
 42
0.0000001
 43
0.0000001
 44
0.0000000001
 40
0.0
 40
0.0
 40
0.0
 40
0.0
 40
0.0606784811
 40
0.1215282539
 40
0.1825978193
 40
0.2439246773
 40
0.3055342678
 40
0.3674404726
 40
0.4296462228
 40
0.4921447836
 40
0.5549212679
 40
0.6179543922
 40
0.6812184374
 40
0.7446848976
 40
0.8083245563
 40
0.8721078503
 40
0.9360086568
 40
1.0
 40
1.0
 40
1.0
 40
1.0
 10
12.8141489772
 20
8.8305455006
 30
0.0
 10
12.8053191135
 20
8.8278218317
 30
0.0
 10
12.7874792072
 20
8.822856606
 30
0.0
 10
12.7603094941
 20
8.8168772533
 30
0.0
 10
12.732758088
 20
8.812360485
 30
0.0
 10
12.7048904027
 20
8.8093081111
 30
0.0
 10
12.6767736942
 20
8.8077198944
 30
0.0
 10
12.6484788829
 20
8.8075940418
 30
0.0
 10
12.6200799045
 20
8.8089271392
 30
0.0
 10
12.5916535983
 20
8.8117141848
 30
0.0
 10
12.5632793338
 20
8.8159486172
 30
0.0
 10
12.5350386342
 20
8.8216223522
 30
0.0
 10
12.5070148327
 20
8.8287258491
 30
0.0
 10
12.4792926566
 20
8.8372481038
 30
0.0
 10
12.4519582509
 20
8.8471766679
 30
0.0
 10
12.4250982459
 20
8.8584975963
 30
0.0
 10
12.398801812
 20
8.8711946288
 30
0.0
 10
12.3817137614
 20
8.8805603508
 30
0.0
 10
12.3732934683
 20
8.8854656091
 30
0.0
  0
SPLINE
  5
363
100
AcDbEntity
  8
0
100
AcDbSpline
 62
7
  6
CONTINUOUS
 70
0
 71
3
 72
67
 73
63
 74
0
 42
0.0000001
 43
0.0000001
 44
0.0000000001
 40
0.0
 40
0.0
 40
0.0
 40
0.0
 40
0.0149704495
 40
0.0299439584
 40
0.0449235667
 40
0.0599122761
 40
0.0749130354
 40
0.0899287185
 40
0.104962108
 40
0.1200158816
 40
0.1350925936
 40
0.1501946589
 40
0.165324344
 40
0.1804837509
 40
0.1956748038
 40
0.210899245
 40
0.2261586212
 40
0.2414542746
 40
0.2567873431
 40
0.2721587494
 40
0.2875691973
 40
0.3030191754
 40
0.3185089499
 40
0.3340385651
 40
0.3496078509
 40
0.3652164184
 40
0.3808636654
 40
0.3965487858
 40
0.4122707693
 40
0.4280284097
 40
0.4438203172
 40
0.4596449198
 40
0.4755004765
 40
0.4913850891
 40
0.5072967076
 40
0.523233145
 40
0.5391920903
 40
0.5551711158
 40
0.5711676941
 40
0.587179211
 40
0.6192314178
 40
0.6513103937
 40
0.683393424
 40
0.7154577138
 40
0.7314782096
 40
0.7474856706
 40
0.7634774284
 40
0.7794508909
 40
0.795403558
 40
0.8113330367
 40
0.8272370483
 40
0.843113445
 40
0.8589602211
 40
0.87477552
 40
0.8905576533
 40
0.9063050946
 40
0.9220165017
 40
0.9376907777
 40
0.9533268609
 40
0.968923964
 40
0.984482276
 40
1.0
 40
1.0
 40
1.0
 40
1.0
 10
8.6549493641
 20
9.84099475
 30
0.0
 10
8.6628302084
 20
9.8486070419
 30
0.0
 10
8.6788980438
 20
9.8635214951
 30
0.0
 10
8.703872355
 20
9.884920215
 30
0.0
 10
8.7296876352
 20
9.9053189087
 30
0.0
 10
8.7563077739
 20
9.9246891388
 30
0.0
 10
8.7836962707
 20
9.9430043863
 30
0.0
 10
8.8118154573
 20
9.9602393218
 30
0.0
 10
8.8406265746
 20
9.9763703528
 30
0.0
 10
8.8700899767
 20
9.9913752892
 30
0.0
 10
8.9001651628
 20
10.0052333989
 30
0.0
 10
8.9308106869
 20
10.0179257471
 30
0.0
 10
8.9619843902
 20
10.0294348729
 30
0.0
 10
8.9936434075
 20
10.0397448653
 30
0.0
 10
9.0257441341
 20
10.0488416866
 30
0.0
 10
9.0582424175
 20
10.0567128159
 30
0.0
 10
9.0910935638
 20
10.0633473602
 30
0.0
 10
9.1242523524
 20
10.0687363474
 30
0.0
 10
9.1576731821
 20
10.0728723481
 30
0.0
 10
9.1913100873
 20
10.0757496206
 30
0.0
 10
9.2251167918
 20
10.0773643638
 30
0.0
 10
9.2590468077
 20
10.0777143285
 30
0.0
 10
9.2930534697
 20
10.0767989928
 30
0.0
 10
9.327090017
 20
10.0746197689
 30
0.0
 10
9.3611096475
 20
10.0711796128
 30
0.0
 10
9.3950655748
 20
10.0664832269
 30
0.0
 10
9.42891113
 20
10.0605372145
 30
0.0
 10
9.4625997716
 20
10.053349699
 30
0.0
 10
9.4960851724
 20
10.0449305463
 30
0.0
 10
9.5293213293
 20
10.0352914666
 30
0.0
 10
9.5622625331
 20
10.0244456495
 30
0.0
 10
9.5948634897
 20
10.0124080004
 30
0.0
 10
9.6270794267
 20
9.9991951895
 30
0.0
 10
9.6588660287
 20
9.9848253103
 30
0.0
 10
9.6901795974
 20
9.9693181201
 30
0.0
 10
9.7209771328
 20
9.9526950492
 30
0.0
 10
9.7512162888
 20
9.9349788459
 30
0.0
 10
9.7808553882
 20
9.9161939722
 30
0.0
 10
9.809854164
 20
9.896365985
 30
0.0
 10
9.8476206436
 20
9.8685681196
 30
0.0
 10
9.8930260657
 20
9.8313526995
 30
0.0
 10
9.9443095976
 20
9.7830131784
 30
0.0
 10
9.9921351663
 20
9.7312380013
 30
0.0
 10
10.0289036334
 20
9.6854464012
 30
0.0
 10
10.0563360822
 20
9.6473848613
 30
0.0
 10
10.0758876232
 20
9.6181702942
 30
0.0
 10
10.0943926954
 20
9.5883228772
 30
0.0
 10
10.1118260999
 20
9.5578831495
 30
0.0
 10
10.1281638263
 20
9.5268930996
 30
0.0
 10
10.1433834786
 20
9.4953953135
 30
0.0
 10
10.1574640037
 20
9.463433039
 30
0.0
 10
10.1703861051
 20
9.4310502427
 30
0.0
 10
10.1821320437
 20
9.3982914481
 30
0.0
 10
10.1926855392
 20
9.3652016416
 30
0.0
 10
10.2020321452
 20
9.3318263418
 30
0.0
 10
10.2101590284
 20
9.2982114372
 30
0.0
 10
10.2170548898
 20
9.2644030852
 30
0.0
 10
10.2227102704
 20
9.2304478108
 30
0.0
 10
10.2271174446
 20
9.1963924215
 30
0.0
 10
10.2302702876
 20
9.1622831344
 30
0.0
 10
10.2321642422
 20
9.1281680339
 30
0.0
 10
10.2325866914
 20
9.105421109
 30
0.0
 10
10.2325866914
 20
9.0940636087
 30
0.0
  0
SPLINE
  5
364
100
AcDbEntity
  8
0
100
AcDbSpline
 62
7
  6
CONTINUOUS
 70
0
 71
3
 72
51
 73
47
 74
0
 42
0.0000001
 43
0.0000001
 44
0.0000000001
 40
0.0
 40
0.0
 40
0.0
 40
0.0
 40
0.0149716494
 40
0.0299463571
 40
0.0449271655
 40
0.0599170749
 40
0.0749190356
 40
0.0899359204
 40
0.1049705132
 40
0.1200254927
 40
0.1351034097
 40
0.1502066849
 40
0.1653375803
 40
0.1804981993
 40
0.195690469
 40
0.2109161272
 40
0.2261767249
 40
0.2414736015
 40
0.2568078973
 40
0.2721805327
 40
0.2875922134
 40
0.3030434288
 40
0.3185344406
 40
0.3340653004
 40
0.3496358309
 40
0.3652456471
 40
0.3965753628
 40
0.4280524196
 40
0.4596664387
 40
0.4914041862
 40
0.5232498795
 40
0.5551855358
 40
0.5871913552
 40
0.61924613
 40
0.651327676
 40
0.6834132767
 40
0.7154801356
 40
0.7475058286
 40
0.7794687516
 40
0.8113485557
 40
0.8431265663
 40
0.8747861818
 40
0.9063132024
 40
0.9376963089
 40
0.9689267552
 40
1.0
 40
1.0
 40
1.0
 40
1.0
 10
8.9327908588
 20
9.6227541571
 30
0.0
 10
8.937768231
 20
9.627561934
 30
0.0
 10
8.9479163432
 20
9.6369816022
 30
0.0
 10
8.963689559
 20
9.6504966532
 30
0.0
 10
8.9799939337
 20
9.6633800877
 30
0.0
 10
8.99680664
 20
9.6756139686
 30
0.0
 10
9.0141046223
 20
9.6871815532
 30
0.0
 10
9.031864115
 20
9.6980668006
 30
0.0
 10
9.0500605723
 20
9.7082549294
 30
0.0
 10
9.0686690714
 20
9.7177317054
 30
0.0
 10
9.0876638954
 20
9.7264843052
 30
0.0
 10
9.1070189707
 20
9.7345005606
 30
0.0
 10
9.1267076413
 20
9.7417694897
 30
0.0
 10
9.1467027914
 20
9.7482811839
 30
0.0
 10
9.1669769605
 20
9.7540265222
 30
0.0
 10
9.1875021897
 20
9.7589978502
 30
0.0
 10
9.2082502972
 20
9.7631881096
 30
0.0
 10
9.2291927001
 20
9.7665917349
 30
0.0
 10
9.2503006077
 20
9.7692039797
 30
0.0
 10
9.2715449842
 20
9.7710212321
 30
0.0
 10
9.2928966041
 20
9.7720411564
 30
0.0
 10
9.3143261023
 20
9.7722621437
 30
0.0
 10
9.3358040321
 20
9.7716841491
 30
0.0
 10
9.3573007589
 20
9.7703077962
 30
0.0
 10
9.3787870836
 20
9.7681350398
 30
0.0
 10
9.4074132725
 20
9.7641760072
 30
0.0
 10
9.443025695
 20
9.7572457624
 30
0.0
 10
9.4851870808
 20
9.7458291186
 30
0.0
 10
9.5266028009
 20
9.7313641543
 30
0.0
 10
9.5670439837
 20
9.7139308564
 30
0.0
 10
9.6062891145
 20
9.6936252019
 30
0.0
 10
9.6441227379
 20
9.6705589237
 30
0.0
 10
9.6803372961
 20
9.6448588205
 30
0.0
 10
9.7147340668
 20
9.6166660822
 30
0.0
 10
9.7471243127
 20
9.5861355436
 30
0.0
 10
9.7773302828
 20
9.5534348215
 30
0.0
 10
9.8051861714
 20
9.5187433953
 30
0.0
 10
9.8305390193
 20
9.4822516352
 30
0.0
 10
9.8532495455
 20
9.4441597716
 30
0.0
 10
9.8731928998
 20
9.4046768019
 30
0.0
 10
9.8902593686
 20
9.3640193943
 30
0.0
 10
9.9043549621
 20
9.3224106209
 30
0.0
 10
9.9154019921
 20
9.280079065
 30
0.0
 10
9.9233392647
 20
9.2372563872
 30
0.0
 10
9.9281229376
 20
9.1941807681
 30
0.0
 10
9.929194356
 20
9.1653717507
 30
0.0
 10
9.929194356
 20
9.151009099
 30
0.0
  0
SPLINE
  5
365
100
AcDbEntity
  8
0
100
AcDbSpline
 62
7
  6
CONTINUOUS
 70
0
 71
3
 72
24
 73
20
 74
0
 42
0.0000001
 43
0.0000001
 44
0.0000000001
 40
0.0
 40
0.0
 40
0.0
 40
0.0
 40
0.0617098353
 40
0.1234407738
 40
0.1852137086
 40
0.2470491059
 40
0.2779989826
 40
0.3089718424
 40
0.3709907986
 40
0.4331289968
 40
0.4954032096
 40
0.5578288482
 40
0.6204198348
 40
0.6831883877
 40
0.7461451742
 40
0.8092989976
 40
0.8726556328
 40
0.9362235592
 40
1.0
 40
1.0
 40
1.0
 40
1.0
 10
9.7664867929
 20
8.759648666
 30
0.0
 10
9.772929322
 20
8.7658716772
 30
0.0
 10
9.7854986493
 20
8.7786538771
 30
0.0
 10
9.8033450548
 20
8.7987750412
 30
0.0
 10
9.8201460829
 20
8.8198007686
 30
0.0
 10
9.8332397375
 20
8.838030665
 30
0.0
 10
9.8431525863
 20
8.853013553
 30
0.0
 10
9.8526936794
 20
8.8682673118
 30
0.0
 10
9.8639002831
 20
8.8878099807
 30
0.0
 10
9.8761563909
 20
8.9119487788
 30
0.0
 10
9.8871991702
 20
8.9367311356
 30
0.0
 10
9.8970029203
 20
8.9620995337
 30
0.0
 10
9.9055451925
 20
8.9879955415
 30
0.0
 10
9.9128063755
 20
9.0143594102
 30
0.0
 10
9.9187697687
 20
9.041130409
 30
0.0
 10
9.9234215607
 20
9.0682466492
 30
0.0
 10
9.9267513926
 20
9.0956461871
 30
0.0
 10
9.9287512425
 20
9.1232646169
 30
0.0
 10
9.929194356
 20
9.141751895
 30
0.0
 10
9.929194356
 20
9.151009099
 30
0.0
  0
SPLINE
  5
366
100
AcDbEntity
  8
0
100
AcDbSpline
 62
7
  6
CONTINUOUS
 70
0
 71
3
 72
21
 73
17
 74
0
 42
0.0000001
 43
0.0000001
 44
0.0000000001
 40
0.0
 40
0.0
 40
0.0
 40
0.0
 40
0.128181429
 40
0.2548083907
 40
0.3176374216
 40
0.380189261
 40
0.4425052856
 40
0.5046280165
 40
0.5666007054
 40
0.6284682673
 40
0.6902753575
 40
0.7520676766
 40
0.8138912458
 40
0.8757912714
 40
0.937812887
 40
1.0
 40
1.0
 40
1.0
 40
1.0
 10
9.8319606446
 20
9.4784077475
 30
0.0
 10
9.8182478314
 20
9.4847924645
 30
0.0
 10
9.7913738389
 20
9.4983334607
 30
0.0
 10
9.759062995
 20
9.517395015
 30
0.0
 10
9.7342805085
 20
9.5338434659
 30
0.0
 10
9.7162788806
 20
9.5467576113
 30
0.0
 10
9.6988398042
 20
9.5602865022
 30
0.0
 10
9.6819890777
 20
9.5744360492
 30
0.0
 10
9.6657550804
 20
9.5892111051
 30
0.0
 10
9.6501685441
 20
9.6046152285
 30
0.0
 10
9.6352627404
 20
9.620650442
 30
0.0
 10
9.6210731972
 20
9.6373165199
 30
0.0
 10
9.6076378291
 20
9.654610687
 30
0.0
 10
9.5949963409
 20
9.6725271585
 30
0.0
 10
9.5831904974
 20
9.6910556802
 30
0.0
 10
9.5759160732
 20
9.7037886168
 30
0.0
 10
9.572433358
 20
9.71024808
 30
0.0
  0
SPLINE
  5
367
100
AcDbEntity
  8
0
100
AcDbSpline
 62
7
  6
CONTINUOUS
 70
0
 71
3
 72
67
 73
63
 74
0
 42
0.0000001
 43
0.0000001
 44
0.0000000001
 40
0.0
 40
0.0
 40
0.0
 40
0.0
 40
0.0149704495
 40
0.0299439584
 40
0.0449235667
 40
0.0599122761
 40
0.0749130354
 40
0.0899287185
 40
0.104962108
 40
0.1200158816
 40
0.1350925936
 40
0.1501946589
 40
0.165324344
 40
0.1804837509
 40
0.1956748038
 40
0.210899245
 40
0.2261586212
 40
0.2414542746
 40
0.2567873431
 40
0.2721587494
 40
0.2875691973
 40
0.3030191754
 40
0.3185089499
 40
0.3340385651
 40
0.3496078509
 40
0.3652164184
 40
0.3808636654
 40
0.3965487858
 40
0.4122707693
 40
0.4280284097
 40
0.4438203172
 40
0.4596449198
 40
0.4755004765
 40
0.4913850891
 40
0.5072967076
 40
0.523233145
 40
0.5391920903
 40
0.5551711158
 40
0.5711676941
 40
0.587179211
 40
0.6192314178
 40
0.6513103937
 40
0.683393424
 40
0.7154577138
 40
0.7314782096
 40
0.7474856706
 40
0.7634774284
 40
0.7794508909
 40
0.795403558
 40
0.8113330367
 40
0.8272370483
 40
0.843113445
 40
0.8589602211
 40
0.87477552
 40
0.8905576533
 40
0.9063050946
 40
0.9220165017
 40
0.9376907777
 40
0.9533268609
 40
0.968923964
 40
0.984482276
 40
1.0
 40
1.0
 40
1.0
 40
1.0
 10
11.5527270146
 20
9.6400331874
 30
0.0
 10
11.560607859
 20
9.6476454793
 30
0.0
 10
11.5766756944
 20
9.6625599325
 30
0.0
 10
11.6016500056
 20
9.6839586524
 30
0.0
 10
11.6274652857
 20
9.704357346
 30
0.0
 10
11.6540854244
 20
9.7237275762
 30
0.0
 10
11.6814739213
 20
9.7420428237
 30
0.0
 10
11.7095931078
 20
9.7592777592
 30
0.0
 10
11.7384042251
 20
9.7754087902
 30
0.0
 10
11.7678676273
 20
9.7904137265
 30
0.0
 10
11.7979428133
 20
9.8042718363
 30
0.0
 10
11.8285883375
 20
9.8169641844
 30
0.0
 10
11.8597620408
 20
9.8284733102
 30
0.0
 10
11.891421058
 20
9.8387833027
 30
0.0
 10
11.9235217847
 20
9.8478801239
 30
0.0
 10
11.9560200681
 20
9.8557512532
 30
0.0
 10
11.9888712144
 20
9.8623857976
 30
0.0
 10
12.022030003
 20
9.8677747848
 30
0.0
 10
12.0554508326
 20
9.8719107855
 30
0.0
 10
12.0890877379
 20
9.874788058
 30
0.0
 10
12.1228944423
 20
9.8764028012
 30
0.0
 10
12.1568244583
 20
9.8767527659
 30
0.0
 10
12.1908311203
 20
9.8758374302
 30
0.0
 10
12.2248676676
 20
9.8736582063
 30
0.0
 10
12.2588872981
 20
9.8702180502
 30
0.0
 10
12.2928432254
 20
9.8655216642
 30
0.0
 10
12.3266887806
 20
9.8595756518
 30
0.0
 10
12.3603774222
 20
9.8523881364
 30
0.0
 10
12.393862823
 20
9.8439689837
 30
0.0
 10
12.4270989799
 20
9.834329904
 30
0.0
 10
12.4600401837
 20
9.8234840868
 30
0.0
 10
12.4926411403
 20
9.8114464377
 30
0.0
 10
12.5248570773
 20
9.7982336269
 30
0.0
 10
12.5566436793
 20
9.7838637477
 30
0.0
 10
12.587957248
 20
9.7683565574
 30
0.0
 10
12.6187547834
 20
9.7517334866
 30
0.0
 10
12.6489939394
 20
9.7340172832
 30
0.0
 10
12.6786330387
 20
9.7152324096
 30
0.0
 10
12.7076318145
 20
9.6954044224
 30
0.0
 10
12.7453982941
 20
9.667606557
 30
0.0
 10
12.7908037163
 20
9.6303911369
 30
0.0
 10
12.8420872482
 20
9.5820516158
 30
0.0
 10
12.8899128168
 20
9.5302764387
 30
0.0
 10
12.9266812839
 20
9.4844848386
 30
0.0
 10
12.9541137328
 20
9.4464232986
 30
0.0
 10
12.9736652738
 20
9.4172087316
 30
0.0
 10
12.992170346
 20
9.3873613146
 30
0.0
 10
13.0096037504
 20
9.3569215868
 30
0.0
 10
13.0259414768
 20
9.325931537
 30
0.0
 10
13.0411611292
 20
9.2944337509
 30
0.0
 10
13.0552416543
 20
9.2624714764
 30
0.0
 10
13.0681637556
 20
9.23008868
 30
0.0
 10
13.0799096942
 20
9.1973298855
 30
0.0
 10
13.0904631898
 20
9.1642400789
 30
0.0
 10
13.0998097958
 20
9.1308647792
 30
0.0
 10
13.107936679
 20
9.0972498746
 30
0.0
 10
13.1148325404
 20
9.0634415225
 30
0.0
 10
13.120487921
 20
9.0294862482
 30
0.0
 10
13.1248950952
 20
8.9954308588
 30
0.0
 10
13.1280479381
 20
8.9613215718
 30
0.0
 10
13.1299418927
 20
8.9272064712
 30
0.0
 10
13.130364342
 20
8.9044595464
 30
0.0
 10
13.130364342
 20
8.893102046
 30
0.0
  0
SPLINE
  5
368
100
AcDbEntity
  8
0
100
AcDbSpline
 62
7
  6
CONTINUOUS
 70
0
 71
3
 72
51
 73
47
 74
0
 42
0.0000001
 43
0.0000001
 44
0.0000000001
 40
0.0
 40
0.0
 40
0.0
 40
0.0
 40
0.0149716494
 40
0.0299463571
 40
0.0449271655
 40
0.0599170749
 40
0.0749190356
 40
0.0899359204
 40
0.1049705132
 40
0.1200254927
 40
0.1351034097
 40
0.1502066849
 40
0.1653375803
 40
0.1804981993
 40
0.195690469
 40
0.2109161272
 40
0.2261767249
 40
0.2414736015
 40
0.2568078973
 40
0.2721805327
 40
0.2875922134
 40
0.3030434288
 40
0.3185344406
 40
0.3340653004
 40
0.3496358309
 40
0.3652456471
 40
0.3965753628
 40
0.4280524196
 40
0.4596664387
 40
0.4914041862
 40
0.5232498795
 40
0.5551855358
 40
0.5871913552
 40
0.61924613
 40
0.651327676
 40
0.6834132767
 40
0.7154801356
 40
0.7475058286
 40
0.7794687516
 40
0.8113485557
 40
0.8431265663
 40
0.8747861818
 40
0.9063132024
 40
0.9376963089
 40
0.9689267552
 40
1.0
 40
1.0
 40
1.0
 40
1.0
 10
11.8305685094
 20
9.4217925945
 30
0.0
 10
11.8355458816
 20
9.4266003714
 30
0.0
 10
11.8456939938
 20
9.4360200396
 30
0.0
 10
11.8614672096
 20
9.4495350906
 30
0.0
 10
11.8777715843
 20
9.462418525
 30
0.0
 10
11.8945842906
 20
9.4746524059
 30
0.0
 10
11.9118822729
 20
9.4862199905
 30
0.0
 10
11.9296417656
 20
9.497105238
 30
0.0
 10
11.9478382229
 20
9.5072933667
 30
0.0
 10
11.9664467219
 20
9.5167701428
 30
0.0
 10
11.985441546
 20
9.5255227426
 30
0.0
 10
12.0047966212
 20
9.533538998
 30
0.0
 10
12.0244852919
 20
9.5408079271
 30
0.0
 10
12.044480442
 20
9.5473196213
 30
0.0
 10
12.0647546111
 20
9.5530649595
 30
0.0
 10
12.0852798403
 20
9.5580362876
 30
0.0
 10
12.1060279478
 20
9.562226547
 30
0.0
 10
12.1269703507
 20
9.5656301722
 30
0.0
 10
12.1480782583
 20
9.5682424171
 30
0.0
 10
12.1693226348
 20
9.5700596695
 30
0.0
 10
12.1906742547
 20
9.5710795938
 30
0.0
 10
12.2121037529
 20
9.5713005811
 30
0.0
 10
12.2335816827
 20
9.5707225865
 30
0.0
 10
12.2550784095
 20
9.5693462336
 30
0.0
 10
12.2765647342
 20
9.5671734772
 30
0.0
 10
12.3051909231
 20
9.5632144446
 30
0.0
 10
12.3408033456
 20
9.5562841998
 30
0.0
 10
12.3829647314
 20
9.544867556
 30
0.0
 10
12.4243804514
 20
9.5304025917
 30
0.0
 10
12.4648216342
 20
9.5129692937
 30
0.0
 10
12.504066765
 20
9.4926636392
 30
0.0
 10
12.5419003885
 20
9.4695973611
 30
0.0
 10
12.5781149467
 20
9.4438972578
 30
0.0
 10
12.6125117174
 20
9.4157045196
 30
0.0
 10
12.6449019633
 20
9.3851739809
 30
0.0
 10
12.6751079333
 20
9.3524732588
 30
0.0
 10
12.702963822
 20
9.3177818327
 30
0.0
 10
12.7283166699
 20
9.2812900725
 30
0.0
 10
12.7510271961
 20
9.2431982089
 30
0.0
 10
12.7709705504
 20
9.2037152393
 30
0.0
 10
12.7880370192
 20
9.1630578317
 30
0.0
 10
12.8021326127
 20
9.1214490582
 30
0.0
 10
12.8131796427
 20
9.0791175024
 30
0.0
 10
12.8211169153
 20
9.0362948246
 30
0.0
 10
12.8259005882
 20
8.9932192055
 30
0.0
 10
12.8269720066
 20
8.9644101881
 30
0.0
 10
12.8269720066
 20
8.9500475364
 30
0.0
  0
SPLINE
  5
369
100
AcDbEntity
  8
0
100
AcDbSpline
 62
7
  6
CONTINUOUS
 70
0
 71
3
 72
24
 73
20
 74
0
 42
0.0000001
 43
0.0000001
 44
0.0000000001
 40
0.0
 40
0.0
 40
0.0
 40
0.0
 40
0.0617098353
 40
0.1234407738
 40
0.1852137086
 40
0.2470491059
 40
0.2779989826
 40
0.3089718424
 40
0.3709907986
 40
0.4331289968
 40
0.4954032096
 40
0.5578288482
 40
0.6204198348
 40
0.6831883877
 40
0.7461451742
 40
0.8092989976
 40
0.8726556328
 40
0.9362235592
 40
1.0
 40
1.0
 40
1.0
 40
1.0
 10
12.6642644435
 20
8.5586871034
 30
0.0
 10
12.6707069726
 20
8.5649101146
 30
0.0
 10
12.6832762999
 20
8.5776923145
 30
0.0
 10
12.7011227053
 20
8.5978134786
 30
0.0
 10
12.7179237335
 20
8.6188392059
 30
0.0
 10
12.731017388
 20
8.6370691024
 30
0.0
 10
12.7409302368
 20
8.6520519903
 30
0.0
 10
12.75047133
 20
8.6673057492
 30
0.0
 10
12.7616779336
 20
8.6868484181
 30
0.0
 10
12.7739340415
 20
8.7109872162
 30
0.0
 10
12.7849768207
 20
8.7357695729
 30
0.0
 10
12.7947805709
 20
8.7611379711
 30
0.0
 10
12.803322843
 20
8.7870339789
 30
0.0
 10
12.810584026
 20
8.8133978476
 30
0.0
 10
12.8165474193
 20
8.8401688464
 30
0.0
 10
12.8211992113
 20
8.8672850866
 30
0.0
 10
12.8245290432
 20
8.8946846245
 30
0.0
 10
12.8265288931
 20
8.9223030543
 30
0.0
 10
12.8269720066
 20
8.9407903324
 30
0.0
 10
12.8269720066
 20
8.9500475364
 30
0.0
  0
SPLINE
  5
36A
100
AcDbEntity
  8
0
100
AcDbSpline
 62
7
  6
CONTINUOUS
 70
0
 71
3
 72
67
 73
63
 74
0
 42
0.0000001
 43
0.0000001
 44
0.0000000001
 40
0.0
 40
0.0
 40
0.0
 40
0.0
 40
0.0149704495
 40
0.0299439584
 40
0.0449235667
 40
0.0599122761
 40
0.0749130354
 40
0.0899287185
 40
0.104962108
 40
0.1200158816
 40
0.1350925936
 40
0.1501946589
 40
0.165324344
 40
0.1804837509
 40
0.1956748038
 40
0.210899245
 40
0.2261586212
 40
0.2414542746
 40
0.2567873431
 40
0.2721587494
 40
0.2875691973
 40
0.3030191754
 40
0.3185089499
 40
0.3340385651
 40
0.3496078509
 40
0.3652164184
 40
0.3808636654
 40
0.3965487858
 40
0.4122707693
 40
0.4280284097
 40
0.4438203172
 40
0.4596449198
 40
0.4755004765
 40
0.4913850891
 40
0.5072967076
 40
0.523233145
 40
0.5391920903
 40
0.5551711158
 40
0.5711676941
 40
0.587179211
 40
0.6192314178
 40
0.6513103937
 40
0.683393424
 40
0.7154577138
 40
0.7314782096
 40
0.7474856706
 40
0.7634774284
 40
0.7794508909
 40
0.795403558
 40
0.8113330367
 40
0.8272370483
 40
0.843113445
 40
0.8589602211
 40
0.87477552
 40
0.8905576533
 40
0.9063050946
 40
0.9220165017
 40
0.9376907777
 40
0.9533268609
 40
0.968923964
 40
0.984482276
 40
1.0
 40
1.0
 40
1.0
 40
1.0
 10
10.8263508903
 20
7.2755928339
 30
0.0
 10
10.8342317346
 20
7.2832051258
 30
0.0
 10
10.85029957
 20
7.298119579
 30
0.0
 10
10.8752738812
 20
7.3195182989
 30
0.0
 10
10.9010891613
 20
7.3399169926
 30
0.0
 10
10.9277093001
 20
7.3592872227
 30
0.0
 10
10.9550977969
 20
7.3776024702
 30
0.0
 10
10.9832169835
 20
7.3948374057
 30
0.0
 10
11.0120281007
 20
7.4109684367
 30
0.0
 10
11.0414915029
 20
7.4259733731
 30
0.0
 10
11.0715666889
 20
7.4398314828
 30
0.0
 10
11.1022122131
 20
7.452523831
 30
0.0
 10
11.1333859164
 20
7.4640329568
 30
0.0
 10
11.1650449336
 20
7.4743429492
 30
0.0
 10
11.1971456603
 20
7.4834397705
 30
0.0
 10
11.2296439437
 20
7.4913108997
 30
0.0
 10
11.26249509
 20
7.4979454441
 30
0.0
 10
11.2956538786
 20
7.5033344313
 30
0.0
 10
11.3290747082
 20
7.507470432
 30
0.0
 10
11.3627116135
 20
7.5103477045
 30
0.0
 10
11.3965183179
 20
7.5119624477
 30
0.0
 10
11.4304483339
 20
7.5123124124
 30
0.0
 10
11.4644549959
 20
7.5113970767
 30
0.0
 10
11.4984915432
 20
7.5092178528
 30
0.0
 10
11.5325111737
 20
7.5057776967
 30
0.0
 10
11.566467101
 20
7.5010813108
 30
0.0
 10
11.6003126562
 20
7.4951352983
 30
0.0
 10
11.6340012978
 20
7.4879477829
 30
0.0
 10
11.6674866986
 20
7.4795286302
 30
0.0
 10
11.7007228555
 20
7.4698895505
 30
0.0
 10
11.7336640593
 20
7.4590437334
 30
0.0
 10
11.7662650159
 20
7.4470060843
 30
0.0
 10
11.7984809529
 20
7.4337932734
 30
0.0
 10
11.8302675549
 20
7.4194233942
 30
0.0
 10
11.8615811236
 20
7.403916204
 30
0.0
 10
11.892378659
 20
7.3872931331
 30
0.0
 10
11.922617815
 20
7.3695769297
 30
0.0
 10
11.9522569144
 20
7.3507920561
 30
0.0
 10
11.9812556902
 20
7.3309640689
 30
0.0
 10
12.0190221698
 20
7.3031662035
 30
0.0
 10
12.0644275919
 20
7.2659507834
 30
0.0
 10
12.1157111238
 20
7.2176112623
 30
0.0
 10
12.1635366924
 20
7.1658360852
 30
0.0
 10
12.2003051596
 20
7.1200444851
 30
0.0
 10
12.2277376084
 20
7.0819829452
 30
0.0
 10
12.2472891494
 20
7.0527683781
 30
0.0
 10
12.2657942216
 20
7.0229209611
 30
0.0
 10
12.283227626
 20
6.9924812333
 30
0.0
 10
12.2995653525
 20
6.9614911835
 30
0.0
 10
12.3147850048
 20
6.9299933974
 30
0.0
 10
12.3288655299
 20
6.8980311229
 30
0.0
 10
12.3417876312
 20
6.8656483265
 30
0.0
 10
12.3535335699
 20
6.832889532
 30
0.0
 10
12.3640870654
 20
6.7997997254
 30
0.0
 10
12.3734336714
 20
6.7664244257
 30
0.0
 10
12.3815605546
 20
6.7328095211
 30
0.0
 10
12.388456416
 20
6.6990011691
 30
0.0
 10
12.3941117966
 20
6.6650458947
 30
0.0
 10
12.3985189708
 20
6.6309905053
 30
0.0
 10
12.4016718137
 20
6.5968812183
 30
0.0
 10
12.4035657684
 20
6.5627661178
 30
0.0
 10
12.4039882176
 20
6.5400191929
 30
0.0
 10
12.4039882176
 20
6.5286616925
 30
0.0
  0
SPLINE
  5
36B
100
AcDbEntity
  8
0
100
AcDbSpline
 62
7
  6
CONTINUOUS
 70
0
 71
3
 72
51
 73
47
 74
0
 42
0.0000001
 43
0.0000001
 44
0.0000000001
 40
0.0
 40
0.0
 40
0.0
 40
0.0
 40
0.0149716494
 40
0.0299463571
 40
0.0449271655
 40
0.0599170749
 40
0.0749190356
 40
0.0899359204
 40
0.1049705132
 40
0.1200254927
 40
0.1351034097
 40
0.1502066849
 40
0.1653375803
 40
0.1804981993
 40
0.195690469
 40
0.2109161272
 40
0.2261767249
 40
0.2414736015
 40
0.2568078973
 40
0.2721805327
 40
0.2875922134
 40
0.3030434288
 40
0.3185344406
 40
0.3340653004
 40
0.3496358309
 40
0.3652456471
 40
0.3965753628
 40
0.4280524196
 40
0.4596664387
 40
0.4914041862
 40
0.5232498795
 40
0.5551855358
 40
0.5871913552
 40
0.61924613
 40
0.651327676
 40
0.6834132767
 40
0.7154801356
 40
0.7475058286
 40
0.7794687516
 40
0.8113485557
 40
0.8431265663
 40
0.8747861818
 40
0.9063132024
 40
0.9376963089
 40
0.9689267552
 40
1.0
 40
1.0
 40
1.0
 40
1.0
 10
11.104192385
 20
7.057352241
 30
0.0
 10
11.1091697572
 20
7.0621600179
 30
0.0
 10
11.1193178694
 20
7.0715796861
 30
0.0
 10
11.1350910852
 20
7.0850947371
 30
0.0
 10
11.1513954599
 20
7.0979781715
 30
0.0
 10
11.1682081662
 20
7.1102120525
 30
0.0
 10
11.1855061485
 20
7.121779637
 30
0.0
 10
11.2032656412
 20
7.1326648845
 30
0.0
 10
11.2214620985
 20
7.1428530132
 30
0.0
 10
11.2400705975
 20
7.1523297893
 30
0.0
 10
11.2590654216
 20
7.1610823891
 30
0.0
 10
11.2784204968
 20
7.1690986445
 30
0.0
 10
11.2981091675
 20
7.1763675736
 30
0.0
 10
11.3181043176
 20
7.1828792678
 30
0.0
 10
11.3383784867
 20
7.1886246061
 30
0.0
 10
11.3589037159
 20
7.1935959341
 30
0.0
 10
11.3796518234
 20
7.1977861935
 30
0.0
 10
11.4005942263
 20
7.2011898187
 30
0.0
 10
11.4217021339
 20
7.2038020636
 30
0.0
 10
11.4429465104
 20
7.205619316
 30
0.0
 10
11.4642981303
 20
7.2066392403
 30
0.0
 10
11.4857276285
 20
7.2068602276
 30
0.0
 10
11.5072055583
 20
7.206282233
 30
0.0
 10
11.5287022851
 20
7.2049058801
 30
0.0
 10
11.5501886098
 20
7.2027331237
 30
0.0
 10
11.5788147987
 20
7.1987740911
 30
0.0
 10
11.6144272212
 20
7.1918438463
 30
0.0
 10
11.656588607
 20
7.1804272025
 30
0.0
 10
11.698004327
 20
7.1659622382
 30
0.0
 10
11.7384455099
 20
7.1485289402
 30
0.0
 10
11.7776906407
 20
7.1282232858
 30
0.0
 10
11.8155242641
 20
7.1051570076
 30
0.0
 10
11.8517388223
 20
7.0794569044
 30
0.0
 10
11.886135593
 20
7.0512641661
 30
0.0
 10
11.9185258389
 20
7.0207336274
 30
0.0
 10
11.9487318089
 20
6.9880329053
 30
0.0
 10
11.9765876976
 20
6.9533414792
 30
0.0
 10
12.0019405455
 20
6.9168497191
 30
0.0
 10
12.0246510717
 20
6.8787578554
 30
0.0
 10
12.044594426
 20
6.8392748858
 30
0.0
 10
12.0616608948
 20
6.7986174782
 30
0.0
 10
12.0757564883
 20
6.7570087047
 30
0.0
 10
12.0868035183
 20
6.7146771489
 30
0.0
 10
12.0947407909
 20
6.6718544711
 30
0.0
 10
12.0995244638
 20
6.628778852
 30
0.0
 10
12.1005958822
 20
6.5999698346
 30
0.0
 10
12.1005958822
 20
6.5856071829
 30
0.0
  0
SPLINE
  5
36C
100
AcDbEntity
  8
0
100
AcDbSpline
 62
7
  6
CONTINUOUS
 70
0
 71
3
 72
24
 73
20
 74
0
 42
0.0000001
 43
0.0000001
 44
0.0000000001
 40
0.0
 40
0.0
 40
0.0
 40
0.0
 40
0.0617098353
 40
0.1234407738
 40
0.1852137086
 40
0.2470491059
 40
0.2779989826
 40
0.3089718424
 40
0.3709907986
 40
0.4331289968
 40
0.4954032096
 40
0.5578288482
 40
0.6204198348
 40
0.6831883877
 40
0.7461451742
 40
0.8092989976
 40
0.8726556328
 40
0.9362235592
 40
1.0
 40
1.0
 40
1.0
 40
1.0
 10
11.9378883191
 20
6.1942467499
 30
0.0
 10
11.9443308482
 20
6.2004697611
 30
0.0
 10
11.9569001755
 20
6.213251961
 30
0.0
 10
11.9747465809
 20
6.2333731251
 30
0.0
 10
11.9915476091
 20
6.2543988525
 30
0.0
 10
12.0046412637
 20
6.2726287489
 30
0.0
 10
12.0145541124
 20
6.2876116368
 30
0.0
 10
12.0240952056
 20
6.3028653957
 30
0.0
 10
12.0353018092
 20
6.3224080646
 30
0.0
 10
12.0475579171
 20
6.3465468627
 30
0.0
 10
12.0586006963
 20
6.3713292195
 30
0.0
 10
12.0684044465
 20
6.3966976176
 30
0.0
 10
12.0769467186
 20
6.4225936254
 30
0.0
 10
12.0842079016
 20
6.4489574941
 30
0.0
 10
12.0901712949
 20
6.4757284929
 30
0.0
 10
12.0948230869
 20
6.5028447331
 30
0.0
 10
12.0981529188
 20
6.530244271
 30
0.0
 10
12.1001527687
 20
6.5578627008
 30
0.0
 10
12.1005958822
 20
6.5763499789
 30
0.0
 10
12.1005958822
 20
6.5856071829
 30
0.0
  0
SPLINE
  5
36D
100
AcDbEntity
  8
0
100
AcDbSpline
 62
7
  6
CONTINUOUS
 70
0
 71
3
 72
21
 73
17
 74
0
 42
0.0000001
 43
0.0000001
 44
0.0000000001
 40
0.0
 40
0.0
 40
0.0
 40
0.0
 40
0.1281814346
 40
0.2548084009
 40
0.3176374291
 40
0.3801892642
 40
0.4425052832
 40
0.5046280118
 40
0.5666006995
 40
0.6284682601
 40
0.6902753507
 40
0.7520676696
 40
0.8138912397
 40
0.8757912669
 40
0.9378128839
 40
1.0
 40
1.0
 40
1.0
 40
1.0
 10
12.0033624573
 20
6.913005698
 30
0.0
 10
11.9896496245
 20
6.9193904169
 30
0.0
 10
11.9627755939
 20
6.9329314186
 30
0.0
 10
11.9304647042
 20
6.9519929842
 30
0.0
 10
11.9056821837
 20
6.9684414467
 30
0.0
 10
11.8876805321
 20
6.9813556012
 30
0.0
 10
11.8702414331
 20
6.994884503
 30
0.0
 10
11.8533906844
 20
7.0090340622
 30
0.0
 10
11.8371566659
 20
7.0238091323
 30
0.0
 10
11.8215701094
 20
7.0392132716
 30
0.0
 10
11.8066642868
 20
7.0552485026
 30
0.0
 10
11.7924747263
 20
7.0719145997
 30
0.0
 10
11.7790393424
 20
7.0892087875
 30
0.0
 10
11.7663978405
 20
7.1071252816
 30
0.0
 10
11.754591985
 20
7.1256538271
 30
0.0
 10
11.7473175544
 20
7.1383867806
 30
0.0
 10
11.7438348364
 20
7.1448462525
 30
0.0
  0
SPLINE
  5
36E
100
AcDbEntity
  8
0
100
AcDbSpline
 62
7
  6
CONTINUOUS
 70
0
 71
3
 72
67
 73
63
 74
0
 42
0.0000001
 43
0.0000001
 44
0.0000000001
 40
0.0
 40
0.0
 40
0.0
 40
0.0
 40
0.0149704495
 40
0.0299439584
 40
0.0449235667
 40
0.0599122761
 40
0.0749130354
 40
0.0899287185
 40
0.104962108
 40
0.1200158816
 40
0.1350925936
 40
0.1501946589
 40
0.165324344
 40
0.1804837509
 40
0.1956748038
 40
0.210899245
 40
0.2261586212
 40
0.2414542746
 40
0.2567873431
 40
0.2721587494
 40
0.2875691973
 40
0.3030191754
 40
0.3185089499
 40
0.3340385651
 40
0.3496078509
 40
0.3652164184
 40
0.3808636654
 40
0.3965487858
 40
0.4122707693
 40
0.4280284097
 40
0.4438203172
 40
0.4596449198
 40
0.4755004765
 40
0.4913850891
 40
0.5072967076
 40
0.523233145
 40
0.5391920903
 40
0.5551711158
 40
0.5711676941
 40
0.587179211
 40
0.6192314178
 40
0.6513103937
 40
0.683393424
 40
0.7154577138
 40
0.7314782096
 40
0.7474856706
 40
0.7634774284
 40
0.7794508909
 40
0.795403558
 40
0.8113330367
 40
0.8272370483
 40
0.843113445
 40
0.8589602211
 40
0.87477552
 40
0.8905576533
 40
0.9063050946
 40
0.9220165017
 40
0.9376907777
 40
0.9533268609
 40
0.968923964
 40
0.984482276
 40
1.0
 40
1.0
 40
1.0
 40
1.0
 10
7.9285732397
 20
7.4765543965
 30
0.0
 10
7.936454084
 20
7.4841666884
 30
0.0
 10
7.9525219194
 20
7.4990811416
 30
0.0
 10
7.9774962306
 20
7.5204798615
 30
0.0
 10
8.0033115108
 20
7.5408785552
 30
0.0
 10
8.0299316495
 20
7.5602487853
 30
0.0
 10
8.0573201463
 20
7.5785640329
 30
0.0
 10
8.0854393329
 20
7.5957989683
 30
0.0
 10
8.1142504502
 20
7.6119299993
 30
0.0
 10
8.1437138524
 20
7.6269349357
 30
0.0
 10
8.1737890384
 20
7.6407930454
 30
0.0
 10
8.2044345625
 20
7.6534853936
 30
0.0
 10
8.2356082658
 20
7.6649945194
 30
0.0
 10
8.2672672831
 20
7.6753045118
 30
0.0
 10
8.2993680097
 20
7.6844013331
 30
0.0
 10
8.3318662931
 20
7.6922724624
 30
0.0
 10
8.3647174395
 20
7.6989070067
 30
0.0
 10
8.397876228
 20
7.7042959939
 30
0.0
 10
8.4312970577
 20
7.7084319947
 30
0.0
 10
8.4649339629
 20
7.7113092671
 30
0.0
 10
8.4987406674
 20
7.7129240103
 30
0.0
 10
8.5326706833
 20
7.713273975
 30
0.0
 10
8.5666773453
 20
7.7123586393
 30
0.0
 10
8.6007138927
 20
7.7101794154
 30
0.0
 10
8.6347335231
 20
7.7067392594
 30
0.0
 10
8.6686894504
 20
7.7020428734
 30
0.0
 10
8.7025350056
 20
7.696096861
 30
0.0
 10
8.7362236472
 20
7.6889093455
 30
0.0
 10
8.7697090481
 20
7.6804901928
 30
0.0
 10
8.8029452049
 20
7.6708511131
 30
0.0
 10
8.8358864088
 20
7.660005296
 30
0.0
 10
8.8684873653
 20
7.6479676469
 30
0.0
 10
8.9007033023
 20
7.634754836
 30
0.0
 10
8.9324899043
 20
7.6203849568
 30
0.0
 10
8.963803473
 20
7.6048777666
 30
0.0
 10
8.9946010085
 20
7.5882546957
 30
0.0
 10
9.0248401644
 20
7.5705384924
 30
0.0
 10
9.0544792638
 20
7.5517536187
 30
0.0
 10
9.0834780396
 20
7.5319256315
 30
0.0
 10
9.1212445192
 20
7.5041277661
 30
0.0
 10
9.1666499413
 20
7.466912346
 30
0.0
 10
9.2179334733
 20
7.4185728249
 30
0.0
 10
9.2657590419
 20
7.3667976478
 30
0.0
 10
9.302527509
 20
7.3210060477
 30
0.0
 10
9.3299599578
 20
7.2829445078
 30
0.0
 10
9.3495114988
 20
7.2537299407
 30
0.0
 10
9.3680165711
 20
7.2238825237
 30
0.0
 10
9.3854499755
 20
7.193442796
 30
0.0
 10
9.4017877019
 20
7.1624527461
 30
0.0
 10
9.4170073542
 20
7.13095496
 30
0.0
 10
9.4310878793
 20
7.0989926855
 30
0.0
 10
9.4440099807
 20
7.0666098892
 30
0.0
 10
9.4557559193
 20
7.0338510946
 30
0.0
 10
9.4663094148
 20
7.0007612881
 30
0.0
 10
9.4756560208
 20
6.9673859883
 30
0.0
 10
9.4837829041
 20
6.9337710838
 30
0.0
 10
9.4906787654
 20
6.8999627317
 30
0.0
 10
9.496334146
 20
6.8660074573
 30
0.0
 10
9.5007413202
 20
6.831952068
 30
0.0
 10
9.5038941632
 20
6.7978427809
 30
0.0
 10
9.5057881178
 20
6.7637276804
 30
0.0
 10
9.506210567
 20
6.7409807556
 30
0.0
 10
9.506210567
 20
6.7296232552
 30
0.0
  0
SPLINE
  5
36F
100
AcDbEntity
  8
0
100
AcDbSpline
 62
7
  6
CONTINUOUS
 70
0
 71
3
 72
51
 73
47
 74
0
 42
0.0000001
 43
0.0000001
 44
0.0000000001
 40
0.0
 40
0.0
 40
0.0
 40
0.0
 40
0.0149716494
 40
0.0299463571
 40
0.0449271655
 40
0.0599170749
 40
0.0749190356
 40
0.0899359204
 40
0.1049705132
 40
0.1200254927
 40
0.1351034097
 40
0.1502066849
 40
0.1653375803
 40
0.1804981993
 40
0.195690469
 40
0.2109161272
 40
0.2261767249
 40
0.2414736015
 40
0.2568078973
 40
0.2721805327
 40
0.2875922134
 40
0.3030434288
 40
0.3185344406
 40
0.3340653004
 40
0.3496358309
 40
0.3652456471
 40
0.3965753628
 40
0.4280524196
 40
0.4596664387
 40
0.4914041862
 40
0.5232498795
 40
0.5551855358
 40
0.5871913552
 40
0.61924613
 40
0.651327676
 40
0.6834132767
 40
0.7154801356
 40
0.7475058286
 40
0.7794687516
 40
0.8113485557
 40
0.8431265663
 40
0.8747861818
 40
0.9063132024
 40
0.9376963089
 40
0.9689267552
 40
1.0
 40
1.0
 40
1.0
 40
1.0
 10
8.2064147345
 20
7.2583138036
 30
0.0
 10
8.2113921066
 20
7.2631215805
 30
0.0
 10
8.2215402188
 20
7.2725412487
 30
0.0
 10
8.2373134346
 20
7.2860562997
 30
0.0
 10
8.2536178093
 20
7.2989397342
 30
0.0
 10
8.2704305156
 20
7.3111736151
 30
0.0
 10
8.2877284979
 20
7.3227411997
 30
0.0
 10
8.3054879906
 20
7.3336264471
 30
0.0
 10
8.3236844479
 20
7.3438145759
 30
0.0
 10
8.342292947
 20
7.3532913519
 30
0.0
 10
8.361287771
 20
7.3620439517
 30
0.0
 10
8.3806428463
 20
7.3700602071
 30
0.0
 10
8.4003315169
 20
7.3773291362
 30
0.0
 10
8.420326667
 20
7.3838408304
 30
0.0
 10
8.4406008362
 20
7.3895861687
 30
0.0
 10
8.4611260653
 20
7.3945574967
 30
0.0
 10
8.4818741729
 20
7.3987477561
 30
0.0
 10
8.5028165757
 20
7.4021513814
 30
0.0
 10
8.5239244833
 20
7.4047636262
 30
0.0
 10
8.5451688598
 20
7.4065808786
 30
0.0
 10
8.5665204797
 20
7.4076008029
 30
0.0
 10
8.5879499779
 20
7.4078217903
 30
0.0
 10
8.6094279077
 20
7.4072437956
 30
0.0
 10
8.6309246346
 20
7.4058674427
 30
0.0
 10
8.6524109592
 20
7.4036946863
 30
0.0
 10
8.6810371481
 20
7.3997356538
 30
0.0
 10
8.7166495706
 20
7.3928054089
 30
0.0
 10
8.7588109564
 20
7.3813887651
 30
0.0
 10
8.8002266765
 20
7.3669238008
 30
0.0
 10
8.8406678593
 20
7.3494905029
 30
0.0
 10
8.8799129901
 20
7.3291848484
 30
0.0
 10
8.9177466135
 20
7.3061185702
 30
0.0
 10
8.9539611718
 20
7.280418467
 30
0.0
 10
8.9883579424
 20
7.2522257287
 30
0.0
 10
9.0207481883
 20
7.2216951901
 30
0.0
 10
9.0509541584
 20
7.188994468
 30
0.0
 10
9.078810047
 20
7.1543030419
 30
0.0
 10
9.1041628949
 20
7.1178112817
 30
0.0
 10
9.1268734212
 20
7.0797194181
 30
0.0
 10
9.1468167754
 20
7.0402364484
 30
0.0
 10
9.1638832442
 20
6.9995790408
 30
0.0
 10
9.1779788377
 20
6.9579702674
 30
0.0
 10
9.1890258677
 20
6.9156387115
 30
0.0
 10
9.1969631403
 20
6.8728160337
 30
0.0
 10
9.2017468132
 20
6.8297404146
 30
0.0
 10
9.2028182316
 20
6.8009313972
 30
0.0
 10
9.2028182316
 20
6.7865687455
 30
0.0
  0
SPLINE
  5
370
100
AcDbEntity
  8
0
100
AcDbSpline
 62
7
  6
CONTINUOUS
 70
0
 71
3
 72
24
 73
20
 74
0
 42
0.0000001
 43
0.0000001
 44
0.0000000001
 40
0.0
 40
0.0
 40
0.0
 40
0.0
 40
0.0617098353
 40
0.1234407738
 40
0.1852137086
 40
0.2470491059
 40
0.2779989826
 40
0.3089718424
 40
0.3709907986
 40
0.4331289968
 40
0.4954032096
 40
0.5578288482
 40
0.6204198348
 40
0.6831883877
 40
0.7461451742
 40
0.8092989976
 40
0.8726556328
 40
0.9362235592
 40
1.0
 40
1.0
 40
1.0
 40
1.0
 10
9.0401106685
 20
6.3952083125
 30
0.0
 10
9.0465531976
 20
6.4014313237
 30
0.0
 10
9.0591225249
 20
6.4142135236
 30
0.0
 10
9.0769689304
 20
6.4343346877
 30
0.0
 10
9.0937699585
 20
6.4553604151
 30
0.0
 10
9.1068636131
 20
6.4735903115
 30
0.0
 10
9.1167764619
 20
6.4885731995
 30
0.0
 10
9.1263175551
 20
6.5038269583
 30
0.0
 10
9.1375241587
 20
6.5233696272
 30
0.0
 10
9.1497802666
 20
6.5475084253
 30
0.0
 10
9.1608230458
 20
6.5722907821
 30
0.0
 10
9.1706267959
 20
6.5976591802
 30
0.0
 10
9.1791690681
 20
6.623555188
 30
0.0
 10
9.1864302511
 20
6.6499190568
 30
0.0
 10
9.1923936443
 20
6.6766900555
 30
0.0
 10
9.1970454363
 20
6.7038062958
 30
0.0
 10
9.2003752682
 20
6.7312058336
 30
0.0
 10
9.2023751181
 20
6.7588242634
 30
0.0
 10
9.2028182316
 20
6.7773115415
 30
0.0
 10
9.2028182316
 20
6.7865687455
 30
0.0
  0
SPLINE
  5
371
100
AcDbEntity
  8
0
100
AcDbSpline
 62
7
  6
CONTINUOUS
 70
0
 71
3
 72
15
 73
11
 74
0
 42
0.0000001
 43
0.0000001
 44
0.0000000001
 40
0.0
 40
0.0
 40
0.0
 40
0.0
 40
0.1171100584
 40
0.2341990977
 40
0.3524949458
 40
0.4731647441
 40
0.5973097031
 40
0.7259215529
 40
0.8598921052
 40
1.0
 40
1.0
 40
1.0
 40
1.0
 10
11.5075881902
 20
7.1920872705
 30
0.0
 10
11.5064688652
 20
7.1921649742
 30
0.0
 10
11.5042371376
 20
7.1924501831
 30
0.0
 10
11.5009534259
 20
7.1932705501
 30
0.0
 10
11.497755603
 20
7.1944803657
 30
0.0
 10
11.4946565134
 20
7.1960769277
 30
0.0
 10
11.491668579
 20
7.1980571614
 30
0.0
 10
11.488804338
 20
7.2004175871
 30
0.0
 10
11.4860769144
 20
7.2031541975
 30
0.0
 10
11.4843983626
 20
7.205178784
 30
0.0
 10
11.4835853554
 20
7.2062469348
 30
0.0
  0
SPLINE
  5
372
100
AcDbEntity
  8
0
100
AcDbSpline
 62
7
  6
CONTINUOUS
 70
0
 71
3
 72
36
 73
32
 74
0
 42
0.0000001
 43
0.0000001
 44
0.0000000001
 40
0.0
 40
0.0
 40
0.0
 40
0.0
 40
0.0162143048
 40
0.0334273363
 40
0.0516716556
 40
0.0709707163
 40
0.0913401979
 40
0.1127892156
 40
0.13532147
 40
0.1589357362
 40
0.1836268569
 40
0.2093859311
 40
0.236200954
 40
0.2640570993
 40
0.2929369
 40
0.3228207324
 40
0.3536866939
 40
0.3855111001
 40
0.4182683916
 40
0.4519313784
 40
0.4864713931
 40
0.5218582276
 40
0.5580604815
 40
0.5950453717
 40
0.6327790535
 40
0.6712265605
 40
0.7103518611
 40
0.7501180517
 40
0.8314202535
 40
0.9148215003
 40
1.0
 40
1.0
 40
1.0
 40
1.0
 10
15.0794867296
 20
6.4077283196
 30
0.0
 10
15.0771573822
 20
6.410592372
 30
0.0
 10
15.0725512623
 20
6.416658208
 30
0.0
 10
15.065982455
 20
6.4264246372
 30
0.0
 10
15.0595580101
 20
6.4371146336
 30
0.0
 10
15.0532845901
 20
6.4487169098
 30
0.0
 10
15.0471682592
 20
6.4612198578
 30
0.0
 10
15.0412151793
 20
6.4746106566
 30
0.0
 10
15.0354315432
 20
6.4888755935
 30
0.0
 10
15.0298232398
 20
6.503999907
 30
0.0
 10
15.0243962287
 20
6.5199679356
 30
0.0
 10
15.0191561426
 20
6.5367630478
 30
0.0
 10
15.0141085234
 20
6.5543677229
 30
0.0
 10
15.0092587317
 20
6.5727635541
 30
0.0
 10
15.0046118316
 20
6.5919312684
 30
0.0
 10
15.0001728325
 20
6.6118507699
 30
0.0
 10
14.9959463524
 20
6.6325011421
 30
0.0
 10
14.9919369362
 20
6.653860691
 30
0.0
 10
14.9881488071
 20
6.6759069607
 30
0.0
 10
14.9845859718
 20
6.6986167632
 30
0.0
 10
14.9812522556
 20
6.7219662019
 30
0.0
 10
14.9781511258
 20
6.7459307027
 30
0.0
 10
14.9752859461
 20
6.7704850316
 30
0.0
 10
14.9726596939
 20
6.7956033348
 30
0.0
 10
14.9702751881
 20
6.821259158
 30
0.0
 10
14.968134964
 20
6.8474254678
 30
0.0
 10
14.966241238
 20
6.8740747215
 30
0.0
 10
14.9640315288
 20
6.9104814321
 30
0.0
 10
14.9619126366
 20
6.9569904589
 30
0.0
 10
14.9603968857
 20
7.0138667901
 30
0.0
 10
14.960066425
 20
7.052250278
 30
0.0
 10
14.960066425
 20
7.0716438659
 30
0.0
  0
SPLINE
  5
373
100
AcDbEntity
  8
0
100
AcDbSpline
 62
7
  6
CONTINUOUS
 70
0
 71
3
 72
11
 73
7
 74
0
 42
0.0000001
 43
0.0000001
 44
0.0000000001
 40
0.0
 40
0.0
 40
0.0
 40
0.0
 40
0.2579081487
 40
0.5091047379
 40
0.7557164262
 40
1.0
 40
1.0
 40
1.0
 40
1.0
 10
15.0489177627
 20
6.457630828
 30
0.0
 10
15.0506413828
 20
6.4567873491
 30
0.0
 10
15.0541180812
 20
6.4552684595
 30
0.0
 10
15.0594661602
 20
6.4535054007
 30
0.0
 10
15.0648622045
 20
6.4522947406
 30
0.0
 10
15.0684956861
 20
6.4518565319
 30
0.0
 10
15.0703088974
 20
6.4517307935
 30
0.0
  0
SPLINE
  5
374
100
AcDbEntity
  8
0
100
AcDbSpline
 62
7
  6
CONTINUOUS
 70
0
 71
3
 72
52
 73
48
 74
0
 42
0.0000001
 43
0.0000001
 44
0.0000000001
 40
0.0
 40
0.0
 40
0.0
 40
0.0
 40
0.0063158568
 40
0.0126706178
 40
0.0191024266
 40
0.0256479345
 40
0.0323417789
 40
0.0392160908
 40
0.0536138298
 40
0.0611945069
 40
0.0690562056
 40
0.0772172859
 40
0.0856936163
 40
0.094498959
 40
0.1036450353
 40
0.1131417384
 40
0.1229974561
 40
0.1332190303
 40
0.1438120572
 40
0.1547810415
 40
0.1661293353
 40
0.1778594655
 40
0.1899731041
 40
0.2024710934
 40
0.2153537091
 40
0.2286205088
 40
0.2422704818
 40
0.2563021821
 40
0.2707135511
 40
0.3006644045
 40
0.3320995118
 40
0.364988637
 40
0.399296387
 40
0.4349827261
 40
0.4720035166
 40
0.5103109065
 40
0.549853604
 40
0.5905771631
 40
0.632424299
 40
0.6753351168
 40
0.7192472758
 40
0.7640961515
 40
0.8098152405
 40
0.8563361104
 40
0.9035880427
 40
0.9515014724
 40
1.0
 40
1.0
 40
1.0
 40
1.0
 10
14.7935667866
 20
7.911891797
 30
0.0
 10
14.791876598
 20
7.9120090079
 30
0.0
 10
14.7884937952
 20
7.91238248
 30
0.0
 10
14.7834574946
 20
7.9133559737
 30
0.0
 10
14.7784548721
 20
7.9147427658
 30
0.0
 10
14.7734888208
 20
7.9165416504
 30
0.0
 10
14.768561322
 20
7.9187516907
 30
0.0
 10
14.7619450136
 20
7.9222983618
 30
0.0
 10
14.7555083684
 20
7.9266400155
 30
0.0
 10
14.749279347
 20
7.9316713316
 30
0.0
 10
14.7445743197
 20
7.9359133176
 30
0.0
 10
14.739919567
 20
7.9405562108
 30
0.0
 10
14.7353161874
 20
7.9455982968
 30
0.0
 10
14.7307661185
 20
7.9510374488
 30
0.0
 10
14.7262710244
 20
7.9568714441
 30
0.0
 10
14.7218325824
 20
7.9630978651
 30
0.0
 10
14.7174526053
 20
7.9697142456
 30
0.0
 10
14.7131327462
 20
7.9767178589
 30
0.0
 10
14.7088747182
 20
7.9841058702
 30
0.0
 10
14.7046802916
 20
7.9918753117
 30
0.0
 10
14.7005510683
 20
8.0000229843
 30
0.0
 10
14.6964887713
 20
8.008545594
 30
0.0
 10
14.692495067
 20
8.0174396678
 30
0.0
 10
14.6885715193
 20
8.0267015508
 30
0.0
 10
14.6847198106
 20
8.0363274801
 30
0.0
 10
14.6809414817
 20
8.0463135007
 30
0.0
 10
14.6772380692
 20
8.0566555105
 30
0.0
 10
14.6736111387
 20
8.0673492988
 30
0.0
 10
14.6688175493
 20
8.0822627416
 30
0.0
 10
14.6630416467
 20
8.1017612568
 30
0.0
 10
14.6565245604
 20
8.1261995384
 30
0.0
 10
14.6503463398
 20
8.1519290429
 30
0.0
 10
14.6445172563
 20
8.1789074339
 30
0.0
 10
14.6390469943
 20
8.2070904975
 30
0.0
 10
14.6339446646
 20
8.2364319121
 30
0.0
 10
14.6292187847
 20
8.2668834371
 30
0.0
 10
14.6248772331
 20
8.2983949518
 30
0.0
 10
14.6209272271
 20
8.3309145527
 30
0.0
 10
14.6173753508
 20
8.3643886608
 30
0.0
 10
14.6142275409
 20
8.3987621142
 30
0.0
 10
14.6114890417
 20
8.4339782342
 30
0.0
 10
14.6091643994
 20
8.4699789572
 30
0.0
 10
14.6072575005
 20
8.5067049239
 30
0.0
 10
14.6057715583
 20
8.5440954242
 30
0.0
 10
14.6047089885
 20
8.5820891943
 30
0.0
 10
14.6040716703
 20
8.620622981
 30
0.0
 10
14.6039317156
 20
8.6464860205
 30
0.0
 10
14.6039317156
 20
8.659495899
 30
0.0
  0
SPLINE
  5
375
100
AcDbEntity
  8
0
100
AcDbSpline
 62
7
  6
CONTINUOUS
 70
0
 71
3
 72
72
 73
68
 74
0
 42
0.0000001
 43
0.0000001
 44
0.0000000001
 40
0.0
 40
0.0
 40
0.0
 40
0.0
 40
0.0028080269
 40
0.0056357484
 40
0.0085023994
 40
0.0114263655
 40
0.0144248954
 40
0.0175138142
 40
0.0240150992
 40
0.0274548856
 40
0.0310331103
 40
0.0347582228
 40
0.038637415
 40
0.0426767077
 40
0.046881194
 40
0.0512550823
 40
0.0558017079
 40
0.0605237694
 40
0.0654233748
 40
0.075759731
 40
0.0868182127
 40
0.098598601
 40
0.1110954766
 40
0.1242989573
 40
0.1381953061
 40
0.1527676484
 40
0.1679961539
 40
0.1838584729
 40
0.2003300721
 40
0.2173842617
 40
0.2349925857
 40
0.2531249162
 40
0.2717495282
 40
0.2908334012
 40
0.3103422029
 40
0.3302404582
 40
0.3504917274
 40
0.3710585926
 40
0.4129848783
 40
0.4557069026
 40
0.4989035052
 40
0.542248869
 40
0.5854157291
 40
0.6280785651
 40
0.6699167822
 40
0.690429054
 40
0.7106188507
 40
0.7304489648
 40
0.7498830569
 40
0.7688859026
 40
0.7874234007
 40
0.8054626957
 40
0.82297243
 40
0.8399227074
 40
0.8562853711
 40
0.8720341902
 40
0.8871449021
 40
0.9015956586
 40
0.9153671668
 40
0.9284429885
 40
0.9408101529
 40
0.9524594887
 40
0.9633864448
 40
0.9735918993
 40
0.9830834872
 40
0.9918777842
 40
1.0
 40
1.0
 40
1.0
 40
1.0
 10
13.4791265476
 20
10.2196659307
 30
0.0
 10
13.4791265542
 20
10.2189976537
 30
0.0
 10
13.479185079
 20
10.2176556894
 30
0.0
 10
13.4794480914
 20
10.2156470055
 30
0.0
 10
13.4798860607
 20
10.2136407766
 30
0.0
 10
13.4804985189
 20
10.2116384215
 30
0.0
 10
13.4812850537
 20
10.2096409463
 30
0.0
 10
13.4825867944
 20
10.2069400953
 30
0.0
 10
13.4842263119
 20
10.2042956858
 30
0.0
 10
13.4861571115
 20
10.2017207312
 30
0.0
 10
13.4878029585
 20
10.1997623796
 30
0.0
 10
13.4896181146
 20
10.1978147544
 30
0.0
 10
13.4916017928
 20
10.1958785176
 30
0.0
 10
13.4937528978
 20
10.1939545853
 30
0.0
 10
13.4960703945
 20
10.1920438692
 30
0.0
 10
13.4985531433
 20
10.1901473085
 30
0.0
 10
13.5011998673
 20
10.1882657715
 30
0.0
 10
13.5040092698
 20
10.1864001608
 30
0.0
 10
13.5080424716
 20
10.1838903586
 30
0.0
 10
13.5134916421
 20
10.1808074187
 30
0.0
 10
13.5205426343
 20
10.1772495594
 30
0.0
 10
13.5282040548
 20
10.1737769607
 30
0.0
 10
13.5364606414
 20
10.1703966256
 30
0.0
 10
13.5452960969
 20
10.1671153367
 30
0.0
 10
13.5546927818
 20
10.1639396763
 30
0.0
 10
13.5646319135
 20
10.1608761461
 30
0.0
 10
13.5750935367
 20
10.1579309459
 30
0.0
 10
13.5860566108
 20
10.1551100522
 30
0.0
 10
13.5974990619
 20
10.1524192632
 30
0.0
 10
13.6093978092
 20
10.1498640087
 30
0.0
 10
13.6217288401
 20
10.1474495116
 30
0.0
 10
13.6344672555
 20
10.1451807143
 30
0.0
 10
13.647587314
 20
10.1430621892
 30
0.0
 10
13.6610624994
 20
10.1410982902
 30
0.0
 10
13.6748655696
 20
10.1392930042
 30
0.0
 10
13.6889686042
 20
10.137649984
 30
0.0
 10
13.7033431049
 20
10.1361725969
 30
0.0
 10
13.7229572982
 20
10.1344164558
 30
0.0
 10
13.7479386275
 20
10.1326628088
 30
0.0
 10
13.7783351046
 20
10.1312699422
 30
0.0
 10
13.8090936477
 20
10.1305870105
 30
0.0
 10
13.8399655506
 20
10.1306195966
 30
0.0
 10
13.8707014195
 20
10.1313674179
 30
0.0
 10
13.9010527315
 20
10.1328243593
 30
0.0
 10
13.9259821423
 20
10.1346309669
 30
0.0
 10
13.9455437689
 20
10.1364288837
 30
0.0
 10
13.959871038
 20
10.1379366528
 30
0.0
 10
13.9739216105
 20
10.1396094254
 30
0.0
 10
13.987667091
 20
10.1414438672
 30
0.0
 10
14.0010796811
 20
10.1434361997
 30
0.0
 10
14.0141322655
 20
10.145582375
 30
0.0
 10
14.0267984613
 20
10.1478780547
 30
0.0
 10
14.0390526835
 20
10.1503185142
 30
0.0
 10
14.0508701839
 20
10.1528988186
 30
0.0
 10
14.0622271157
 20
10.1556137125
 30
0.0
 10
14.073100587
 20
10.1584576253
 30
0.0
 10
14.0834686928
 20
10.1614248222
 30
0.0
 10
14.0933105957
 20
10.1645092267
 30
0.0
 10
14.1026065579
 20
10.1677045598
 30
0.0
 10
14.1113379728
 20
10.1710043981
 30
0.0
 10
14.119487477
 20
10.1744020099
 30
0.0
 10
14.1270389368
 20
10.1778906164
 30
0.0
 10
14.1339775044
 20
10.1814633524
 30
0.0
 10
14.1402896984
 20
10.1851131211
 30
0.0
 10
14.1459636592
 20
10.1888333486
 30
0.0
 10
14.1509879126
 20
10.1926168572
 30
0.0
 10
14.1540147236
 20
10.1952797997
 30
0.0
 10
14.155405036
 20
10.1966227385
 30
0.0
  0
SPLINE
  5
376
100
AcDbEntity
  8
0
100
AcDbSpline
 62
7
  6
CONTINUOUS
 70
0
 71
3
 72
72
 73
68
 74
0
 42
0.0000001
 43
0.0000001
 44
0.0000000001
 40
0.0
 40
0.0
 40
0.0
 40
0.0
 40
0.0028080269
 40
0.0056357484
 40
0.0085023994
 40
0.0114263655
 40
0.0144248954
 40
0.0175138142
 40
0.0240150992
 40
0.0274548856
 40
0.0310331103
 40
0.0347582228
 40
0.038637415
 40
0.0426767077
 40
0.046881194
 40
0.0512550823
 40
0.0558017079
 40
0.0605237694
 40
0.0654233748
 40
0.075759731
 40
0.0868182127
 40
0.098598601
 40
0.1110954766
 40
0.1242989573
 40
0.1381953061
 40
0.1527676484
 40
0.1679961539
 40
0.1838584729
 40
0.2003300721
 40
0.2173842617
 40
0.2349925857
 40
0.2531249162
 40
0.2717495282
 40
0.2908334012
 40
0.3103422029
 40
0.3302404582
 40
0.3504917274
 40
0.3710585926
 40
0.4129848783
 40
0.4557069026
 40
0.4989035052
 40
0.542248869
 40
0.5854157291
 40
0.6280785651
 40
0.6699167822
 40
0.690429054
 40
0.7106188507
 40
0.7304489648
 40
0.7498830569
 40
0.7688859026
 40
0.7874234007
 40
0.8054626957
 40
0.82297243
 40
0.8399227074
 40
0.8562853711
 40
0.8720341902
 40
0.8871449021
 40
0.9015956586
 40
0.9153671668
 40
0.9284429885
 40
0.9408101529
 40
0.9524594887
 40
0.9633864448
 40
0.9735918993
 40
0.9830834872
 40
0.9918777842
 40
1.0
 40
1.0
 40
1.0
 40
1.0
 10
6.9571950645
 20
10.6719634153
 30
0.0
 10
6.9571950711
 20
10.6712951383
 30
0.0
 10
6.9572535959
 20
10.669953174
 30
0.0
 10
6.9575166083
 20
10.66794449
 30
0.0
 10
6.9579545776
 20
10.6659382612
 30
0.0
 10
6.9585670358
 20
10.663935906
 30
0.0
 10
6.9593535707
 20
10.6619384309
 30
0.0
 10
6.9606553113
 20
10.6592375798
 30
0.0
 10
6.9622948288
 20
10.6565931703
 30
0.0
 10
6.9642256284
 20
10.6540182158
 30
0.0
 10
6.9658714754
 20
10.6520598641
 30
0.0
 10
6.9676866315
 20
10.6501122389
 30
0.0
 10
6.9696703097
 20
10.6481760022
 30
0.0
 10
6.9718214147
 20
10.6462520699
 30
0.0
 10
6.9741389114
 20
10.6443413538
 30
0.0
 10
6.9766216602
 20
10.6424447931
 30
0.0
 10
6.9792683842
 20
10.6405632561
 30
0.0
 10
6.9820777867
 20
10.6386976454
 30
0.0
 10
6.9861109885
 20
10.6361878432
 30
0.0
 10
6.991560159
 20
10.6331049032
 30
0.0
 10
6.9986111512
 20
10.629547044
 30
0.0
 10
7.0062725717
 20
10.6260744453
 30
0.0
 10
7.0145291583
 20
10.6226941101
 30
0.0
 10
7.0233646138
 20
10.6194128212
 30
0.0
 10
7.0327612987
 20
10.6162371608
 30
0.0
 10
7.0427004304
 20
10.6131736307
 30
0.0
 10
7.0531620537
 20
10.6102284305
 30
0.0
 10
7.0641251277
 20
10.6074075368
 30
0.0
 10
7.0755675788
 20
10.6047167478
 30
0.0
 10
7.0874663261
 20
10.6021614933
 30
0.0
 10
7.099797357
 20
10.5997469962
 30
0.0
 10
7.1125357724
 20
10.5974781989
 30
0.0
 10
7.1256558309
 20
10.5953596737
 30
0.0
 10
7.1391310163
 20
10.5933957748
 30
0.0
 10
7.1529340865
 20
10.5915904888
 30
0.0
 10
7.1670371211
 20
10.5899474686
 30
0.0
 10
7.1814116219
 20
10.5884700815
 30
0.0
 10
7.2010258151
 20
10.5867139404
 30
0.0
 10
7.2260071444
 20
10.5849602934
 30
0.0
 10
7.2564036215
 20
10.5835674268
 30
0.0
 10
7.2871621646
 20
10.5828844951
 30
0.0
 10
7.3180340675
 20
10.5829170812
 30
0.0
 10
7.3487699364
 20
10.5836649025
 30
0.0
 10
7.3791212484
 20
10.5851218438
 30
0.0
 10
7.4040506592
 20
10.5869284514
 30
0.0
 10
7.4236122858
 20
10.5887263682
 30
0.0
 10
7.4379395549
 20
10.5902341374
 30
0.0
 10
7.4519901274
 20
10.5919069099
 30
0.0
 10
7.4657356079
 20
10.5937413518
 30
0.0
 10
7.479148198
 20
10.5957336843
 30
0.0
 10
7.4922007824
 20
10.5978798595
 30
0.0
 10
7.5048669782
 20
10.6001755393
 30
0.0
 10
7.5171212004
 20
10.6026159988
 30
0.0
 10
7.5289387008
 20
10.6051963032
 30
0.0
 10
7.5402956326
 20
10.6079111971
 30
0.0
 10
7.5511691039
 20
10.6107551099
 30
0.0
 10
7.5615372097
 20
10.6137223068
 30
0.0
 10
7.5713791126
 20
10.6168067113
 30
0.0
 10
7.5806750748
 20
10.6200020443
 30
0.0
 10
7.5894064897
 20
10.6233018827
 30
0.0
 10
7.5975559939
 20
10.6266994945
 30
0.0
 10
7.6051074537
 20
10.630188101
 30
0.0
 10
7.6120460213
 20
10.6337608369
 30
0.0
 10
7.6183582153
 20
10.6374106057
 30
0.0
 10
7.6240321761
 20
10.6411308332
 30
0.0
 10
7.6290564295
 20
10.6449143418
 30
0.0
 10
7.6320832405
 20
10.6475772843
 30
0.0
 10
7.6334735529
 20
10.6489202231
 30
0.0
  0
SPLINE
  5
377
100
AcDbEntity
  8
0
100
AcDbSpline
 62
7
  6
CONTINUOUS
 70
0
 71
3
 72
43
 73
39
 74
0
 42
0.0000001
 43
0.0000001
 44
0.0000000001
 40
0.0
 40
0.0
 40
0.0
 40
0.0
 40
0.0149934808
 40
0.0300090612
 40
0.0450484599
 40
0.0601132789
 40
0.0903207592
 40
0.1206462943
 40
0.1358581335
 40
0.1511024454
 40
0.1663799374
 40
0.1816911651
 40
0.2124122855
 40
0.2432715099
 40
0.2742681061
 40
0.3053990702
 40
0.3366592058
 40
0.3680412342
 40
0.3995359353
 40
0.4311323138
 40
0.4628177885
 40
0.4945784003
 40
0.526399037
 40
0.5582636712
 40
0.5901556072
 40
0.6220577363
 40
0.653952796
 40
0.6858236303
 40
0.7176534497
 40
0.7494260872
 40
0.7811262465
 40
0.8127397431
 40
0.8442537286
 40
0.8756569109
 40
0.9069397189
 40
0.9380945583
 40
0.96911573
 40
1.0
 40
1.0
 40
1.0
 40
1.0
 10
12.0738776448
 20
6.4141552592
 30
0.0
 10
12.068735926
 20
6.4117083203
 30
0.0
 10
12.0583601848
 20
6.4069866296
 30
0.0
 10
12.0425526268
 20
6.4004342458
 30
0.0
 10
12.0265056419
 20
6.3944136517
 30
0.0
 10
12.0047961812
 20
6.387097687
 30
0.0
 10
11.9771365726
 20
6.379313831
 30
0.0
 10
11.9489632235
 20
6.3733901191
 30
0.0
 10
11.9261612319
 20
6.3697710648
 30
0.0
 10
11.9089230903
 20
6.3676174382
 30
0.0
 10
11.891585736
 20
6.3660299933
 30
0.0
 10
11.8683376381
 20
6.3646688911
 30
0.0
 10
11.8391142348
 20
6.3643943491
 30
0.0
 10
11.8039852565
 20
6.3663426106
 30
0.0
 10
11.7688986839
 20
6.3705595259
 30
0.0
 10
11.7340021874
 20
6.3770273029
 30
0.0
 10
11.6994413343
 20
6.3857186631
 30
0.0
 10
11.6653605983
 20
6.396597085
 30
0.0
 10
11.6319023278
 20
6.4096169277
 30
0.0
 10
11.5992062747
 20
6.4247236329
 30
0.0
 10
11.5674089854
 20
6.4418539522
 30
0.0
 10
11.5366432453
 20
6.4609362124
 30
0.0
 10
11.5070375272
 20
6.4818906139
 30
0.0
 10
11.4787154605
 20
6.5046295635
 30
0.0
 10
11.45179532
 20
6.5290580376
 30
0.0
 10
11.4263895357
 20
6.5550739772
 30
0.0
 10
11.4026042271
 20
6.5825687111
 30
0.0
 10
11.3805387637
 20
6.6114274061
 30
0.0
 10
11.3602853525
 20
6.6415295429
 30
0.0
 10
11.3419286558
 20
6.6727494157
 30
0.0
 10
11.3255454382
 20
6.7049566508
 30
0.0
 10
11.3112042501
 20
6.7380167507
 30
0.0
 10
11.2989651342
 20
6.7717916341
 30
0.0
 10
11.2888793928
 20
6.8061402646
 30
0.0
 10
11.2809893299
 20
6.8409190208
 30
0.0
 10
11.2753281571
 20
6.8759830888
 30
0.0
 10
11.2719197038
 20
6.9111840132
 30
0.0
 10
11.2711572151
 20
6.9347015701
 30
0.0
 10
11.2711572151
 20
6.9464309056
 30
0.0
  0
SPLINE
  5
378
100
AcDbEntity
  8
0
100
AcDbSpline
 62
7
  6
CONTINUOUS
 70
0
 71
3
 72
67
 73
63
 74
0
 42
0.0000001
 43
0.0000001
 44
0.0000000001
 40
0.0
 40
0.0
 40
0.0
 40
0.0
 40
0.0149704495
 40
0.0299439584
 40
0.0449235667
 40
0.0599122761
 40
0.0749130354
 40
0.0899287185
 40
0.104962108
 40
0.1200158816
 40
0.1350925936
 40
0.1501946589
 40
0.165324344
 40
0.1804837509
 40
0.1956748038
 40
0.210899245
 40
0.2261586212
 40
0.2414542746
 40
0.2567873431
 40
0.2721587494
 40
0.2875691973
 40
0.3030191754
 40
0.3185089499
 40
0.3340385651
 40
0.3496078509
 40
0.3652164184
 40
0.3808636654
 40
0.3965487858
 40
0.4122707693
 40
0.4280284097
 40
0.4438203172
 40
0.4596449198
 40
0.4755004765
 40
0.4913850891
 40
0.5072967076
 40
0.523233145
 40
0.5391920903
 40
0.5551711158
 40
0.5711676941
 40
0.587179211
 40
0.6192314178
 40
0.6513103937
 40
0.683393424
 40
0.7154577138
 40
0.7314782096
 40
0.7474856706
 40
0.7634774284
 40
0.7794508909
 40
0.795403558
 40
0.8113330367
 40
0.8272370483
 40
0.843113445
 40
0.8589602211
 40
0.87477552
 40
0.8905576533
 40
0.9063050946
 40
0.9220165017
 40
0.9376907777
 40
0.9533268609
 40
0.968923964
 40
0.984482276
 40
1.0
 40
1.0
 40
1.0
 40
1.0
 10
9.2485887156
 20
6.1099677702
 30
0.0
 10
9.2407078713
 20
6.1023554782
 30
0.0
 10
9.2246400359
 20
6.0874410251
 30
0.0
 10
9.1996657247
 20
6.0660423051
 30
0.0
 10
9.1738504446
 20
6.0456436115
 30
0.0
 10
9.1472303059
 20
6.0262733814
 30
0.0
 10
9.119841809
 20
6.0079581338
 30
0.0
 10
9.0917226225
 20
5.9907231984
 30
0.0
 10
9.0629115052
 20
5.9745921673
 30
0.0
 10
9.033448103
 20
5.959587231
 30
0.0
 10
9.003372917
 20
5.9457291213
 30
0.0
 10
8.9727273928
 20
5.9330367731
 30
0.0
 10
8.9415536895
 20
5.9215276473
 30
0.0
 10
8.9098946723
 20
5.9112176549
 30
0.0
 10
8.8777939456
 20
5.9021208336
 30
0.0
 10
8.8452956622
 20
5.8942497043
 30
0.0
 10
8.8124445159
 20
5.88761516
 30
0.0
 10
8.7792857273
 20
5.8822261728
 30
0.0
 10
8.7458648977
 20
5.878090172
 30
0.0
 10
8.7122279924
 20
5.8752128995
 30
0.0
 10
8.678421288
 20
5.8735981563
 30
0.0
 10
8.644491272
 20
5.8732481917
 30
0.0
 10
8.61048461
 20
5.8741635273
 30
0.0
 10
8.5764480627
 20
5.8763427513
 30
0.0
 10
8.5424284322
 20
5.8797829073
 30
0.0
 10
8.5084725049
 20
5.8844792933
 30
0.0
 10
8.4746269497
 20
5.8904253057
 30
0.0
 10
8.4409383081
 20
5.8976128211
 30
0.0
 10
8.4074529073
 20
5.9060319738
 30
0.0
 10
8.3742167504
 20
5.9156710535
 30
0.0
 10
8.3412755466
 20
5.9265168707
 30
0.0
 10
8.30867459
 20
5.9385545198
 30
0.0
 10
8.276458653
 20
5.9517673306
 30
0.0
 10
8.244672051
 20
5.9661372099
 30
0.0
 10
8.2133584823
 20
5.9816444001
 30
0.0
 10
8.1825609469
 20
5.9982674709
 30
0.0
 10
8.1523217909
 20
6.0159836743
 30
0.0
 10
8.1226826915
 20
6.034768548
 30
0.0
 10
8.0936839158
 20
6.0545965351
 30
0.0
 10
8.0559174362
 20
6.0823944005
 30
0.0
 10
8.010512014
 20
6.1196098206
 30
0.0
 10
7.9592284821
 20
6.1679493417
 30
0.0
 10
7.9114029135
 20
6.2197245189
 30
0.0
 10
7.8746344464
 20
6.2655161189
 30
0.0
 10
7.8472019975
 20
6.3035776589
 30
0.0
 10
7.8276504565
 20
6.3327922259
 30
0.0
 10
7.8091453843
 20
6.3626396429
 30
0.0
 10
7.7917119799
 20
6.3930793707
 30
0.0
 10
7.7753742535
 20
6.4240694205
 30
0.0
 10
7.7601546011
 20
6.4555672067
 30
0.0
 10
7.746074076
 20
6.4875294811
 30
0.0
 10
7.7331519747
 20
6.5199122775
 30
0.0
 10
7.7214060361
 20
6.552671072
 30
0.0
 10
7.7108525405
 20
6.5857608786
 30
0.0
 10
7.7015059345
 20
6.6191361784
 30
0.0
 10
7.6933790513
 20
6.6527510829
 30
0.0
 10
7.6864831899
 20
6.686559435
 30
0.0
 10
7.6808278093
 20
6.7205147093
 30
0.0
 10
7.6764206351
 20
6.7545700987
 30
0.0
 10
7.6732677922
 20
6.7886793858
 30
0.0
 10
7.6713738376
 20
6.8227944863
 30
0.0
 10
7.6709513883
 20
6.8455414111
 30
0.0
 10
7.6709513883
 20
6.8568989115
 30
0.0
  0
SPLINE
  5
379
100
AcDbEntity
  8
0
100
AcDbSpline
 62
7
  6
CONTINUOUS
 70
0
 71
3
 72
62
 73
58
 74
0
 42
0.0000001
 43
0.0000001
 44
0.0000000001
 40
0.0
 40
0.0
 40
0.0
 40
0.0
 40
0.0310563375
 40
0.062268137
 40
0.0779336701
 40
0.093635966
 40
0.1093739596
 40
0.1251463621
 40
0.1409516923
 40
0.1567883115
 40
0.1726544236
 40
0.1885480837
 40
0.2044672059
 40
0.2204095818
 40
0.252349936
 40
0.2843541598
 40
0.3164012259
 40
0.3484692718
 40
0.3805360275
 40
0.4125792478
 40
0.444577145
 40
0.4605548931
 40
0.4765135718
 40
0.4924507764
 40
0.5083642051
 40
0.5242516776
 40
0.5401111415
 40
0.5559406825
 40
0.5717385411
 40
0.5875031147
 40
0.6032329704
 40
0.6189268565
 40
0.6345837021
 40
0.6502026316
 40
0.6657829687
 40
0.6813242362
 40
0.6968261686
 40
0.7122887098
 40
0.7277120127
 40
0.7430964484
 40
0.7584425974
 40
0.7737512505
 40
0.7890234107
 40
0.8042602813
 40
0.8194632654
 40
0.8346339611
 40
0.8497741465
 40
0.864885778
 40
0.8799709778
 40
0.8950320184
 40
0.9100713166
 40
0.9250914168
 40
0.9400949737
 40
0.9550847432
 40
0.9700635622
 40
0.9850343308
 40
1.0
 40
1.0
 40
1.0
 40
1.0
 10
8.4138919183
 20
9.2373392531
 30
0.0
 10
8.4138919183
 20
9.2148478452
 30
0.0
 10
8.4155510361
 20
9.1697366126
 30
0.0
 10
8.4217190113
 20
9.1135828594
 30
0.0
 10
8.4290863515
 20
9.0688563666
 30
0.0
 10
8.4358331161
 20
9.0354078067
 30
0.0
 10
8.4437847152
 20
9.0021458882
 30
0.0
 10
8.4529303499
 20
8.9691147867
 30
0.0
 10
8.4632578396
 20
8.9363590891
 30
0.0
 10
8.4747532269
 20
8.9039228114
 30
0.0
 10
8.4874009751
 20
8.8718495105
 30
0.0
 10
8.5011841338
 20
8.8401824912
 30
0.0
 10
8.5160843337
 20
8.8089638399
 30
0.0
 10
8.5374243544
 20
8.7679722347
 30
0.0
 10
8.5667919321
 20
8.7180665757
 30
0.0
 10
8.6061173591
 20
8.6606754497
 30
0.0
 10
8.6493426852
 20
8.6060412877
 30
0.0
 10
8.6962346252
 20
8.5544594772
 30
0.0
 10
8.7465421247
 20
8.5062061348
 30
0.0
 10
8.799993116
 20
8.4615416611
 30
0.0
 10
8.8469462132
 20
8.4274905939
 30
0.0
 10
8.885789555
 20
8.4022760343
 30
0.0
 10
8.9155107585
 20
8.3844095863
 30
0.0
 10
8.9457912886
 20
8.3676050032
 30
0.0
 10
8.9765908928
 20
8.3518846468
 30
0.0
 10
9.0078679757
 20
8.3372696184
 30
0.0
 10
9.0395805616
 20
8.3237796588
 30
0.0
 10
9.0716860014
 20
8.3114329442
 30
0.0
 10
9.1041410841
 20
8.300245975
 30
0.0
 10
9.1369022164
 20
8.290233952
 30
0.0
 10
9.169925321
 20
8.2814103018
 30
0.0
 10
9.2031659742
 20
8.2737868377
 30
0.0
 10
9.2365795077
 20
8.2673739887
 30
0.0
 10
9.2701209567
 20
8.2621802812
 30
0.0
 10
9.3037452142
 20
8.2582127147
 30
0.0
 10
9.3374070674
 20
8.2554767842
 30
0.0
 10
9.371061223
 20
8.2539760371
 30
0.0
 10
9.404662419
 20
8.2537125781
 30
0.0
 10
9.4381654489
 20
8.2546868656
 30
0.0
 10
9.4715252447
 20
8.2568974589
 30
0.0
 10
9.5046969196
 20
8.2603415287
 30
0.0
 10
9.5376358344
 20
8.2650144705
 30
0.0
 10
9.5702976866
 20
8.2709099005
 30
0.0
 10
9.6026384972
 20
8.2780200647
 30
0.0
 10
9.6346147519
 20
8.2863353484
 30
0.0
 10
9.6661834373
 20
8.2958445203
 30
0.0
 10
9.6973020143
 20
8.3065349621
 30
0.0
 10
9.7279286353
 20
8.3183921792
 30
0.0
 10
9.7580220787
 20
8.3314002371
 30
0.0
 10
9.7875417759
 20
8.3455417666
 30
0.0
 10
9.8164480559
 20
8.3607976012
 30
0.0
 10
9.8447019713
 20
8.3771472851
 30
0.0
 10
9.8722654517
 20
8.3945688892
 30
0.0
 10
9.8991014359
 20
8.4130388092
 30
0.0
 10
9.9251738566
 20
8.4325324143
 30
0.0
 10
9.9504471118
 20
8.4530230256
 30
0.0
 10
9.9667434728
 20
8.4673322228
 30
0.0
 10
9.9747456202
 20
8.4746421564
 30
0.0
  0
SPLINE
  5
37A
100
AcDbEntity
  8
0
100
AcDbSpline
 62
7
  6
CONTINUOUS
 70
0
 71
3
 72
72
 73
68
 74
0
 42
0.0000001
 43
0.0000001
 44
0.0000000001
 40
0.0
 40
0.0
 40
0.0
 40
0.0
 40
0.0156372615
 40
0.0313279191
 40
0.0470702134
 40
0.06286356
 40
0.0787059865
 40
0.09459537
 40
0.1105290945
 40
0.1265041389
 40
0.1425171187
 40
0.1585643043
 40
0.1746416622
 40
0.1907448909
 40
0.206869462
 40
0.2230106607
 40
0.2391636259
 40
0.2553233934
 40
0.2714849395
 40
0.2876432263
 40
0.3037932446
 40
0.3199300561
 40
0.3360488372
 40
0.3521449226
 40
0.3682138475
 40
0.3842513862
 40
0.4002535907
 40
0.4162168274
 40
0.4321378144
 40
0.4480136525
 40
0.463841854
 40
0.4796203685
 40
0.4953476069
 40
0.511022462
 40
0.5266443232
 40
0.5422130856
 40
0.5577291565
 40
0.5731934572
 40
0.5886074208
 40
0.6039729818
 40
0.6192925608
 40
0.6345690437
 40
0.6498057581
 40
0.6650064431
 40
0.6801752129
 40
0.6953165153
 40
0.7104350867
 40
0.7255359045
 40
0.7406241355
 40
0.7557050811
 40
0.7707841204
 40
0.7858666522
 40
0.8009580377
 40
0.8160635439
 40
0.8311882882
 40
0.8463371832
 40
0.861514886
 40
0.8767257497
 40
0.8919737803
 40
0.9072626031
 40
0.9225954148
 40
0.9302798053
 40
0.9379761938
 40
0.9534048182
 40
0.9688840574
 40
0.9844158609
 40
1.0
 40
1.0
 40
1.0
 40
1.0
 10
11.5821288163
 20
9.017621278
 30
0.0
 10
11.5821288163
 20
9.0070151673
 30
0.0
 10
11.5826514207
 20
8.9857631188
 30
0.0
 10
11.5849915582
 20
8.953911241
 30
0.0
 10
11.5888839307
 20
8.9221042571
 30
0.0
 10
11.5943187034
 20
8.8904201245
 30
0.0
 10
11.6012829971
 20
8.8589345678
 30
0.0
 10
11.6097598975
 20
8.8277235862
 30
0.0
 10
11.619728936
 20
8.7968622591
 30
0.0
 10
11.6311660485
 20
8.7664248797
 30
0.0
 10
11.6440436519
 20
8.7364847084
 30
0.0
 10
11.658330727
 20
8.707113815
 30
0.0
 10
11.6739928645
 20
8.6783829029
 30
0.0
 10
11.6909923026
 20
8.6503611071
 30
0.0
 10
11.7092880885
 20
8.6231158627
 30
0.0
 10
11.7288361656
 20
8.5967127415
 30
0.0
 10
11.7495894842
 20
8.5712153038
 30
0.0
 10
11.7714980929
 20
8.5466849334
 30
0.0
 10
11.7945092251
 20
8.5231806537
 30
0.0
 10
11.8185674855
 20
8.5007590354
 30
0.0
 10
11.8436149703
 20
8.479474055
 30
0.0
 10
11.86959141
 20
8.4593769764
 30
0.0
 10
11.8964342912
 20
8.4405162033
 30
0.0
 10
11.9240789901
 20
8.4229371295
 30
0.0
 10
11.9524589715
 20
8.4066820885
 30
0.0
 10
11.9815059351
 20
8.3917902421
 30
0.0
 10
12.0111499829
 20
8.3782974999
 30
0.0
 10
12.0413197656
 20
8.3662363947
 30
0.0
 10
12.0719426518
 20
8.35563598
 30
0.0
 10
12.1029449281
 20
8.3465218223
 30
0.0
 10
12.134251965
 20
8.3389159267
 30
0.0
 10
12.1657883958
 20
8.3328366982
 30
0.0
 10
12.197478285
 20
8.328298846
 30
0.0
 10
12.2292453171
 20
8.3253133371
 30
0.0
 10
12.2610129883
 20
8.3238874297
 30
0.0
 10
12.2927047822
 20
8.3240246396
 30
0.0
 10
12.3242443508
 20
8.3257247465
 30
0.0
 10
12.3555556991
 20
8.3289837302
 30
0.0
 10
12.3865633762
 20
8.3337937867
 30
0.0
 10
12.4171926512
 20
8.3401433985
 30
0.0
 10
12.4473696898
 20
8.3480173448
 30
0.0
 10
12.4770217255
 20
8.3573967515
 30
0.0
 10
12.5060772562
 20
8.3682590665
 30
0.0
 10
12.5344662195
 20
8.3805781371
 30
0.0
 10
12.5621201455
 20
8.3943243138
 30
0.0
 10
12.5889723245
 20
8.4094645055
 30
0.0
 10
12.614957959
 20
8.425962271
 30
0.0
 10
12.640014363
 20
8.4437778391
 30
0.0
 10
12.6640811025
 20
8.4628682427
 30
0.0
 10
12.6871001212
 20
8.4831874504
 30
0.0
 10
12.7090158856
 20
8.5046864667
 30
0.0
 10
12.7297755079
 20
8.527313458
 30
0.0
 10
12.7493289365
 20
8.5510138235
 30
0.0
 10
12.7676290447
 20
8.57573037
 30
0.0
 10
12.7846317234
 20
8.6014034683
 30
0.0
 10
12.8002959918
 20
8.6279711863
 30
0.0
 10
12.814584088
 20
8.6553694563
 30
0.0
 10
12.8274616189
 20
8.6835321384
 30
0.0
 10
12.8388976478
 20
8.7123914243
 30
0.0
 10
12.8488645412
 20
8.7418772376
 30
0.0
 10
12.8559212025
 20
8.766894623
 30
0.0
 10
12.8608107093
 20
8.7871464031
 30
0.0
 10
12.8652004096
 20
8.8075788657
 30
0.0
 10
12.8697296611
 20
8.8333799709
 30
0.0
 10
12.8736171709
 20
8.864650305
 30
0.0
 10
12.8759521934
 20
8.8961799757
 30
0.0
 10
12.8764695002
 20
8.9172883667
 30
0.0
 10
12.8764695002
 20
8.9278584467
 30
0.0
  0
SPLINE
  5
37B
100
AcDbEntity
  8
0
100
AcDbSpline
 62
7
  6
CONTINUOUS
 70
0
 71
3
 72
43
 73
39
 74
0
 42
0.0000001
 43
0.0000001
 44
0.0000000001
 40
0.0
 40
0.0
 40
0.0
 40
0.0
 40
0.0149934808
 40
0.0300090612
 40
0.0450484599
 40
0.0601132789
 40
0.0903207592
 40
0.1206462943
 40
0.1358581335
 40
0.1511024454
 40
0.1663799374
 40
0.1816911651
 40
0.2124122855
 40
0.2432715099
 40
0.2742681061
 40
0.3053990702
 40
0.3366592058
 40
0.3680412342
 40
0.3995359353
 40
0.4311323138
 40
0.4628177885
 40
0.4945784003
 40
0.526399037
 40
0.5582636712
 40
0.5901556072
 40
0.6220577363
 40
0.653952796
 40
0.6858236303
 40
0.7176534497
 40
0.7494260872
 40
0.7811262465
 40
0.8127397431
 40
0.8442537286
 40
0.8756569109
 40
0.9069397189
 40
0.9380945583
 40
0.96911573
 40
1.0
 40
1.0
 40
1.0
 40
1.0
 10
9.1760999943
 20
6.6151168218
 30
0.0
 10
9.1709582754
 20
6.6126698829
 30
0.0
 10
9.1605825343
 20
6.6079481923
 30
0.0
 10
9.1447749763
 20
6.6013958085
 30
0.0
 10
9.1287279913
 20
6.5953752144
 30
0.0
 10
9.1070185307
 20
6.5880592496
 30
0.0
 10
9.079358922
 20
6.5802753937
 30
0.0
 10
9.0511855729
 20
6.5743516817
 30
0.0
 10
9.0283835813
 20
6.5707326274
 30
0.0
 10
9.0111454397
 20
6.5685790008
 30
0.0
 10
8.9938080854
 20
6.5669915559
 30
0.0
 10
8.9705599875
 20
6.5656304538
 30
0.0
 10
8.9413365843
 20
6.5653559117
 30
0.0
 10
8.906207606
 20
6.5673041732
 30
0.0
 10
8.8711210333
 20
6.5715210886
 30
0.0
 10
8.8362245368
 20
6.5779888656
 30
0.0
 10
8.8016636837
 20
6.5866802257
 30
0.0
 10
8.7675829478
 20
6.5975586477
 30
0.0
 10
8.7341246773
 20
6.6105784903
 30
0.0
 10
8.7014286241
 20
6.6256851955
 30
0.0
 10
8.6696313349
 20
6.6428155149
 30
0.0
 10
8.6388655947
 20
6.661897775
 30
0.0
 10
8.6092598766
 20
6.6828521766
 30
0.0
 10
8.58093781
 20
6.7055911261
 30
0.0
 10
8.5540176695
 20
6.7300196002
 30
0.0
 10
8.5286118851
 20
6.7560355399
 30
0.0
 10
8.5048265765
 20
6.7835302737
 30
0.0
 10
8.4827611131
 20
6.8123889687
 30
0.0
 10
8.4625077019
 20
6.8424911055
 30
0.0
 10
8.4441510052
 20
6.8737109784
 30
0.0
 10
8.4277677876
 20
6.9059182135
 30
0.0
 10
8.4134265995
 20
6.9389783134
 30
0.0
 10
8.4011874837
 20
6.9727531967
 30
0.0
 10
8.3911017422
 20
7.0071018273
 30
0.0
 10
8.3832116793
 20
7.0418805834
 30
0.0
 10
8.3775505065
 20
7.0769446514
 30
0.0
 10
8.3741420533
 20
7.1121455758
 30
0.0
 10
8.3733795646
 20
7.1356631327
 30
0.0
 10
8.3733795646
 20
7.1473924682
 30
0.0
  0
SPLINE
  5
37C
100
AcDbEntity
  8
0
100
AcDbSpline
 62
7
  6
CONTINUOUS
 70
0
 71
3
 72
51
 73
47
 74
0
 42
0.0000001
 43
0.0000001
 44
0.0000000001
 40
0.0
 40
0.0
 40
0.0
 40
0.0
 40
0.0310732448
 40
0.0623036911
 40
0.0936867976
 40
0.1252138182
 40
0.1568734337
 40
0.1886514443
 40
0.2205312484
 40
0.2524941714
 40
0.2845198644
 40
0.3165867233
 40
0.348672324
 40
0.38075387
 40
0.4128086448
 40
0.4448144642
 40
0.4767501205
 40
0.5085958138
 40
0.5403335613
 40
0.5719475804
 40
0.6034246372
 40
0.6347543529
 40
0.6503641691
 40
0.6659346996
 40
0.6814655594
 40
0.6969565712
 40
0.7124077866
 40
0.7278194673
 40
0.7431921027
 40
0.7585263985
 40
0.7738232751
 40
0.7890838728
 40
0.804309531
 40
0.8195018007
 40
0.8346624197
 40
0.8497933151
 40
0.8648965903
 40
0.8799745073
 40
0.8950294868
 40
0.9100640796
 40
0.9250809644
 40
0.9400829251
 40
0.9550728345
 40
0.9700536429
 40
0.9850283506
 40
1.0
 40
1.0
 40
1.0
 40
1.0
 10
11.6678609463
 20
9.0304321614
 30
0.0
 10
11.6678609463
 20
9.0160695098
 30
0.0
 10
11.6689323647
 20
8.9872604923
 30
0.0
 10
11.6737160376
 20
8.9441848732
 30
0.0
 10
11.6816533102
 20
8.9013621955
 30
0.0
 10
11.6927003402
 20
8.8590306396
 30
0.0
 10
11.7067959337
 20
8.8174218661
 30
0.0
 10
11.7238624025
 20
8.7767644585
 30
0.0
 10
11.7438057568
 20
8.7372814889
 30
0.0
 10
11.766516283
 20
8.6991896253
 30
0.0
 10
11.7918691309
 20
8.6626978651
 30
0.0
 10
11.8197250196
 20
8.628006439
 30
0.0
 10
11.8499309896
 20
8.5953057169
 30
0.0
 10
11.8823212355
 20
8.5647751782
 30
0.0
 10
11.9167180062
 20
8.53658244
 30
0.0
 10
11.9529325644
 20
8.5108823368
 30
0.0
 10
11.9907661878
 20
8.4878160586
 30
0.0
 10
12.0300113186
 20
8.4675104041
 30
0.0
 10
12.0704525015
 20
8.4500771062
 30
0.0
 10
12.1118682215
 20
8.4356121419
 30
0.0
 10
12.1540296073
 20
8.4241954981
 30
0.0
 10
12.1896420298
 20
8.4172652532
 30
0.0
 10
12.2182682187
 20
8.4133062206
 30
0.0
 10
12.2397545434
 20
8.4111334642
 30
0.0
 10
12.2612512702
 20
8.4097571113
 30
0.0
 10
12.2827292
 20
8.4091791167
 30
0.0
 10
12.3041586982
 20
8.409400104
 30
0.0
 10
12.3255103181
 20
8.4104200284
 30
0.0
 10
12.3467546946
 20
8.4122372807
 30
0.0
 10
12.3678626022
 20
8.4148495256
 30
0.0
 10
12.3888050051
 20
8.4182531508
 30
0.0
 10
12.4095531126
 20
8.4224434103
 30
0.0
 10
12.4300783418
 20
8.4274147383
 30
0.0
 10
12.4503525109
 20
8.4331600766
 30
0.0
 10
12.470347661
 20
8.4396717707
 30
0.0
 10
12.4900363317
 20
8.4469406999
 30
0.0
 10
12.5093914069
 20
8.4549569552
 30
0.0
 10
12.528386231
 20
8.4637095551
 30
0.0
 10
12.54699473
 20
8.4731863311
 30
0.0
 10
12.5651911873
 20
8.4833744599
 30
0.0
 10
12.58295068
 20
8.4942597073
 30
0.0
 10
12.6002486623
 20
8.5058272919
 30
0.0
 10
12.6170613686
 20
8.5180611728
 30
0.0
 10
12.6333657433
 20
8.5309446072
 30
0.0
 10
12.6491389591
 20
8.5444596582
 30
0.0
 10
12.6592870713
 20
8.5538793264
 30
0.0
 10
12.6642644435
 20
8.5586871034
 30
0.0
  0
SPLINE
  5
37D
100
AcDbEntity
  8
0
100
AcDbSpline
 62
7
  6
CONTINUOUS
 70
0
 71
3
 72
18
 73
14
 74
0
 42
0.0000001
 43
0.0000001
 44
0.0000000001
 40
0.0
 40
0.0
 40
0.0
 40
0.0
 40
0.1480356372
 40
0.2876662502
 40
0.4195655771
 40
0.4828973127
 40
0.5446380375
 40
0.6638657774
 40
0.7785237916
 40
0.8345984481
 40
0.8900706527
 40
0.9451373023
 40
1.0
 40
1.0
 40
1.0
 40
1.0
 10
6.9689165451
 20
10.6950074081
 30
0.0
 10
6.9679736629
 20
10.6940966538
 30
0.0
 10
6.9661967092
 20
10.692268009
 30
0.0
 10
6.9638074753
 20
10.6894181595
 30
0.0
 10
6.9620937271
 20
10.6869930143
 30
0.0
 10
6.9609135209
 20
10.6850464563
 30
0.0
 10
6.959882805
 20
10.6831435845
 30
0.0
 10
6.958811721
 20
10.6807491641
 30
0.0
 10
6.9580296328
 20
10.6782968759
 30
0.0
 10
6.9575954877
 20
10.6763402646
 30
0.0
 10
6.9573644881
 20
10.6748820325
 30
0.0
 10
6.9572258814
 20
10.6734229967
 30
0.0
 10
6.9571950597
 20
10.6724492468
 30
0.0
 10
6.9571950645
 20
10.6719634153
 30
0.0
  0
SPLINE
  5
37E
100
AcDbEntity
  8
0
100
AcDbSpline
 62
7
  6
CONTINUOUS
 70
0
 71
3
 72
43
 73
39
 74
0
 42
0.0000001
 43
0.0000001
 44
0.0000000001
 40
0.0
 40
0.0
 40
0.0
 40
0.0
 40
0.0308445992
 40
0.0618221191
 40
0.0929292953
 40
0.1241611314
 40
0.1555105885
 40
0.1869689292
 40
0.2185257774
 40
0.2501693184
 40
0.2818864723
 40
0.3136630958
 40
0.3454841909
 40
0.3773341237
 40
0.4091968492
 40
0.4410561404
 40
0.4728958191
 40
0.5046999865
 40
0.5364532502
 40
0.5681409474
 40
0.5997493598
 40
0.6312659183
 40
0.6626793965
 40
0.6939800878
 40
0.7251599656
 40
0.7562128227
 40
0.7871343874
 40
0.8179224129
 40
0.8332681295
 40
0.8485805753
 40
0.8638600679
 40
0.8791070437
 40
0.9095019497
 40
0.9397753208
 40
0.954870909
 40
0.9699393244
 40
0.9849818832
 40
1.0
 40
1.0
 40
1.0
 40
1.0
 10
11.9551498493
 20
9.3079319489
 30
0.0
 10
11.9551498493
 20
9.2957815164
 30
0.0
 10
11.9559161844
 20
9.2714215627
 30
0.0
 10
11.9593425769
 20
9.2349528237
 30
0.0
 10
11.9650346755
 20
9.1986128272
 30
0.0
 10
11.9729698264
 20
9.1625465156
 30
0.0
 10
11.9831166504
 20
9.1268952569
 30
0.0
 10
11.9954350335
 20
9.0917994461
 30
0.0
 10
12.0098763721
 20
9.057397086
 30
0.0
 10
12.0263837221
 20
9.0238234885
 30
0.0
 10
12.044892043
 20
8.9912106832
 30
0.0
 10
12.0653284457
 20
8.95968692
 30
0.0
 10
12.0876124812
 20
8.929376165
 30
0.0
 10
12.1116564546
 20
8.9003976182
 30
0.0
 10
12.1373657685
 20
8.872865248
 30
0.0
 10
12.1646392926
 20
8.8468873471
 30
0.0
 10
12.1933697584
 20
8.8225661089
 30
0.0
 10
12.2234441783
 20
8.7999972289
 30
0.0
 10
12.2547442865
 20
8.7792695303
 30
0.0
 10
12.2871469997
 20
8.7604646166
 30
0.0
 10
12.3205248972
 20
8.743656552
 30
0.0
 10
12.3547467186
 20
8.7289115708
 30
0.0
 10
12.3896778677
 20
8.7162878167
 30
0.0
 10
12.4251809666
 20
8.7058351146
 30
0.0
 10
12.4611162772
 20
8.6975947678
 30
0.0
 10
12.4973426659
 20
8.6915994119
 30
0.0
 10
12.5337165948
 20
8.6878728111
 30
0.0
 10
12.5640684462
 20
8.6866691545
 30
0.0
 10
12.5882761974
 20
8.6868545941
 30
0.0
 10
12.6063613098
 20
8.6875657109
 30
0.0
 10
12.6243759276
 20
8.688848184
 30
0.0
 10
12.6482505648
 20
8.6913156407
 30
0.0
 10
12.6778368278
 20
8.6958173643
 30
0.0
 10
12.7070126775
 20
8.7022082516
 30
0.0
 10
12.7299956959
 20
8.7084337994
 30
0.0
 10
12.7470260983
 20
8.713649968
 30
0.0
 10
12.7638470945
 20
8.7194117562
 30
0.0
 10
12.774919776
 20
8.7236165332
 30
0.0
 10
12.7804149772
 20
8.7258078357
 30
0.0
  0
SPLINE
  5
37F
100
AcDbEntity
  8
0
100
AcDbSpline
 62
7
  6
CONTINUOUS
 70
0
 71
3
 72
18
 73
14
 74
0
 42
0.0000001
 43
0.0000001
 44
0.0000000001
 40
0.0
 40
0.0
 40
0.0
 40
0.0
 40
0.1480356372
 40
0.2876662502
 40
0.4195655771
 40
0.4828973127
 40
0.5446380375
 40
0.6638657774
 40
0.7785237916
 40
0.8345984481
 40
0.8900706527
 40
0.9451373023
 40
1.0
 40
1.0
 40
1.0
 40
1.0
 10
13.4908480282
 20
10.2427099235
 30
0.0
 10
13.489905146
 20
10.2417991692
 30
0.0
 10
13.4881281923
 20
10.2399705244
 30
0.0
 10
13.4857389584
 20
10.237120675
 30
0.0
 10
13.4840252102
 20
10.2346955298
 30
0.0
 10
13.482845004
 20
10.2327489718
 30
0.0
 10
13.4818142881
 20
10.2308460999
 30
0.0
 10
13.4807432041
 20
10.2284516795
 30
0.0
 10
13.4799611159
 20
10.2259993914
 30
0.0
 10
13.4795269708
 20
10.22404278
 30
0.0
 10
13.4792959712
 20
10.222584548
 30
0.0
 10
13.4791573645
 20
10.2211255121
 30
0.0
 10
13.4791265428
 20
10.2201517622
 30
0.0
 10
13.4791265476
 20
10.2196659307
 30
0.0
  0
SPLINE
  5
380
100
AcDbEntity
  8
0
100
AcDbSpline
 62
7
  6
CONTINUOUS
 70
0
 71
3
 72
39
 73
35
 74
0
 42
0.0000001
 43
0.0000001
 44
0.0000000001
 40
0.0
 40
0.0
 40
0.0
 40
0.0
 40
0.0322743283
 40
0.0644671078
 40
0.0965434017
 40
0.1284711899
 40
0.1602244108
 40
0.1917831014
 40
0.2231345502
 40
0.2542738168
 40
0.285204103
 40
0.3159367853
 40
0.346491125
 40
0.376893631
 40
0.407177084
 40
0.4373792492
 40
0.4675413296
 40
0.4977062336
 40
0.5279167493
 40
0.5582137251
 40
0.5886343568
 40
0.6192106713
 40
0.6499682774
 40
0.6809254336
 40
0.7120924559
 40
0.7434714713
 40
0.7750564984
 40
0.8068338309
 40
0.8387826774
 40
0.870876057
 40
0.9030817571
 40
0.9353638376
 40
0.9676830369
 40
1.0
 40
1.0
 40
1.0
 40
1.0
 10
6.928164447
 20
9.97068072
 30
0.0
 10
6.9256480094
 20
9.9738542092
 30
0.0
 10
6.920909097
 20
9.9804275581
 30
0.0
 10
6.9147492258
 20
9.9908790379
 30
0.0
 10
6.9096000834
 20
10.0018170599
 30
0.0
 10
6.9055122105
 20
10.0131357177
 30
0.0
 10
6.9025248929
 20
10.0247265881
 30
0.0
 10
6.9006672546
 20
10.0364783106
 30
0.0
 10
6.8999575204
 20
10.0482779523
 30
0.0
 10
6.9004029608
 20
10.0600119978
 30
0.0
 10
6.9019997423
 20
10.0715674374
 30
0.0
 10
6.9047329403
 20
10.0828328396
 30
0.0
 10
6.9085766316
 20
10.0936994277
 30
0.0
 10
6.9134941003
 20
10.104062145
 30
0.0
 10
6.9194381509
 20
10.1138207017
 30
0.0
 10
6.9263515373
 20
10.1228805901
 30
0.0
 10
6.9341675068
 20
10.1311540532
 30
0.0
 10
6.9428104584
 20
10.1385609874
 30
0.0
 10
6.9521967076
 20
10.1450297635
 30
0.0
 10
6.9622353422
 20
10.1504979506
 30
0.0
 10
6.9728291594
 20
10.1549129258
 30
0.0
 10
6.9838756587
 20
10.1582323698
 30
0.0
 10
6.9952680757
 20
10.1604246441
 30
0.0
 10
7.006896442
 20
10.1614690542
 30
0.0
 10
7.0186486584
 20
10.1613560021
 30
0.0
 10
7.0304115731
 20
10.1600870331
 30
0.0
 10
7.0420720568
 20
10.1576747836
 30
0.0
 10
7.0535180693
 20
10.1541428246
 30
0.0
 10
7.0646397098
 20
10.1495254303
 30
0.0
 10
7.0753302518
 20
10.1438671868
 30
0.0
 10
7.0854871031
 20
10.1372227161
 30
0.0
 10
7.0950129841
 20
10.1296556435
 30
0.0
 10
7.1038157687
 20
10.1212397705
 30
0.0
 10
7.1091503367
 20
10.1151117658
 30
0.0
 10
7.1116700986
 20
10.1119340844
 30
0.0
  0
SPLINE
  5
381
100
AcDbEntity
  8
0
100
AcDbSpline
 62
7
  6
CONTINUOUS
 70
0
 71
3
 72
72
 73
68
 74
0
 42
0.0000001
 43
0.0000001
 44
0.0000000001
 40
0.0
 40
0.0
 40
0.0
 40
0.0
 40
0.0156372615
 40
0.0313279191
 40
0.0470702134
 40
0.06286356
 40
0.0787059865
 40
0.09459537
 40
0.1105290945
 40
0.1265041389
 40
0.1425171187
 40
0.1585643043
 40
0.1746416622
 40
0.1907448909
 40
0.206869462
 40
0.2230106607
 40
0.2391636259
 40
0.2553233934
 40
0.2714849395
 40
0.2876432263
 40
0.3037932446
 40
0.3199300561
 40
0.3360488372
 40
0.3521449226
 40
0.3682138475
 40
0.3842513862
 40
0.4002535907
 40
0.4162168274
 40
0.4321378144
 40
0.4480136525
 40
0.463841854
 40
0.4796203685
 40
0.4953476069
 40
0.511022462
 40
0.5266443232
 40
0.5422130856
 40
0.5577291565
 40
0.5731934572
 40
0.5886074208
 40
0.6039729818
 40
0.6192925608
 40
0.6345690437
 40
0.6498057581
 40
0.6650064431
 40
0.6801752129
 40
0.6953165153
 40
0.7104350867
 40
0.7255359045
 40
0.7406241355
 40
0.7557050811
 40
0.7707841204
 40
0.7858666522
 40
0.8009580377
 40
0.8160635439
 40
0.8311882882
 40
0.8463371832
 40
0.861514886
 40
0.8767257497
 40
0.8919737803
 40
0.9072626031
 40
0.9225954148
 40
0.9302798053
 40
0.9379761938
 40
0.9534048182
 40
0.9688840574
 40
0.9844158609
 40
1.0
 40
1.0
 40
1.0
 40
1.0
 10
8.6843511657
 20
9.2185828406
 30
0.0
 10
8.6843511657
 20
9.2079767299
 30
0.0
 10
8.6848737701
 20
9.1867246814
 30
0.0
 10
8.6872139076
 20
9.1548728036
 30
0.0
 10
8.6911062801
 20
9.1230658197
 30
0.0
 10
8.6965410528
 20
9.0913816871
 30
0.0
 10
8.7035053465
 20
9.0598961304
 30
0.0
 10
8.711982247
 20
9.0286851488
 30
0.0
 10
8.7219512854
 20
8.9978238217
 30
0.0
 10
8.7333883979
 20
8.9673864424
 30
0.0
 10
8.7462660013
 20
8.9374462711
 30
0.0
 10
8.7605530764
 20
8.9080753776
 30
0.0
 10
8.7762152139
 20
8.8793444656
 30
0.0
 10
8.7932146521
 20
8.8513226698
 30
0.0
 10
8.8115104379
 20
8.8240774253
 30
0.0
 10
8.831058515
 20
8.7976743041
 30
0.0
 10
8.8518118336
 20
8.7721768665
 30
0.0
 10
8.8737204423
 20
8.747646496
 30
0.0
 10
8.8967315745
 20
8.7241422163
 30
0.0
 10
8.920789835
 20
8.701720598
 30
0.0
 10
8.9458373197
 20
8.6804356176
 30
0.0
 10
8.9718137594
 20
8.660338539
 30
0.0
 10
8.9986566407
 20
8.6414777659
 30
0.0
 10
9.0263013396
 20
8.6238986921
 30
0.0
 10
9.0546813209
 20
8.6076436511
 30
0.0
 10
9.0837282846
 20
8.5927518047
 30
0.0
 10
9.1133723323
 20
8.5792590625
 30
0.0
 10
9.143542115
 20
8.5671979574
 30
0.0
 10
9.1741650012
 20
8.5565975426
 30
0.0
 10
9.2051672776
 20
8.547483385
 30
0.0
 10
9.2364743145
 20
8.5398774893
 30
0.0
 10
9.2680107452
 20
8.5337982608
 30
0.0
 10
9.2997006344
 20
8.5292604086
 30
0.0
 10
9.3314676666
 20
8.5262748997
 30
0.0
 10
9.3632353377
 20
8.5248489923
 30
0.0
 10
9.3949271317
 20
8.5249862023
 30
0.0
 10
9.4264667003
 20
8.5266863091
 30
0.0
 10
9.4577780485
 20
8.5299452928
 30
0.0
 10
9.4887857256
 20
8.5347553493
 30
0.0
 10
9.5194150006
 20
8.5411049611
 30
0.0
 10
9.5495920392
 20
8.5489789074
 30
0.0
 10
9.5792440749
 20
8.5583583141
 30
0.0
 10
9.6082996057
 20
8.5692206291
 30
0.0
 10
9.636688569
 20
8.5815396998
 30
0.0
 10
9.6643424949
 20
8.5952858764
 30
0.0
 10
9.691194674
 20
8.6104260682
 30
0.0
 10
9.7171803085
 20
8.6269238336
 30
0.0
 10
9.7422367124
 20
8.6447394017
 30
0.0
 10
9.766303452
 20
8.6638298053
 30
0.0
 10
9.7893224707
 20
8.684149013
 30
0.0
 10
9.811238235
 20
8.7056480293
 30
0.0
 10
9.8319978573
 20
8.7282750207
 30
0.0
 10
9.8515512859
 20
8.7519753861
 30
0.0
 10
9.8698513941
 20
8.7766919326
 30
0.0
 10
9.8868540729
 20
8.8023650309
 30
0.0
 10
9.9025183413
 20
8.8289327489
 30
0.0
 10
9.9168064374
 20
8.856331019
 30
0.0
 10
9.9296839683
 20
8.884493701
 30
0.0
 10
9.9411199972
 20
8.9133529869
 30
0.0
 10
9.9510868906
 20
8.9428388002
 30
0.0
 10
9.958143552
 20
8.9678561857
 30
0.0
 10
9.9630330587
 20
8.9881079657
 30
0.0
 10
9.967422759
 20
9.0085404283
 30
0.0
 10
9.9719520105
 20
9.0343415336
 30
0.0
 10
9.9758395203
 20
9.0656118676
 30
0.0
 10
9.9781745429
 20
9.0971415383
 30
0.0
 10
9.9786918496
 20
9.1182499293
 30
0.0
 10
9.9786918496
 20
9.1288200093
 30
0.0
  0
SPLINE
  5
382
100
AcDbEntity
  8
0
100
AcDbSpline
 62
7
  6
CONTINUOUS
 70
0
 71
3
 72
39
 73
35
 74
0
 42
0.0000001
 43
0.0000001
 44
0.0000000001
 40
0.0
 40
0.0
 40
0.0
 40
0.0
 40
0.0322743283
 40
0.0644671078
 40
0.0965434017
 40
0.1284711899
 40
0.1602244108
 40
0.1917831014
 40
0.2231345502
 40
0.2542738168
 40
0.285204103
 40
0.3159367853
 40
0.346491125
 40
0.376893631
 40
0.407177084
 40
0.4373792492
 40
0.4675413296
 40
0.4977062336
 40
0.5279167493
 40
0.5582137251
 40
0.5886343568
 40
0.6192106713
 40
0.6499682774
 40
0.6809254336
 40
0.7120924559
 40
0.7434714713
 40
0.7750564984
 40
0.8068338309
 40
0.8387826774
 40
0.870876057
 40
0.9030817571
 40
0.9353638376
 40
0.9676830369
 40
1.0
 40
1.0
 40
1.0
 40
1.0
 10
7.1116700986
 20
10.1119340844
 30
0.0
 10
7.1141865363
 20
10.1087605952
 30
0.0
 10
7.1189254487
 20
10.1021872463
 30
0.0
 10
7.1250853199
 20
10.0917357665
 30
0.0
 10
7.1302344622
 20
10.0807977445
 30
0.0
 10
7.1343223351
 20
10.0694790868
 30
0.0
 10
7.1373096528
 20
10.0578882163
 30
0.0
 10
7.1391672911
 20
10.0461364939
 30
0.0
 10
7.1398770252
 20
10.0343368521
 30
0.0
 10
7.1394315849
 20
10.0226028066
 30
0.0
 10
7.1378348033
 20
10.011047367
 30
0.0
 10
7.1351016054
 20
9.9997819648
 30
0.0
 10
7.1312579141
 20
9.9889153767
 30
0.0
 10
7.1263404454
 20
9.9785526594
 30
0.0
 10
7.1203963947
 20
9.9687941028
 30
0.0
 10
7.1134830084
 20
9.9597342143
 30
0.0
 10
7.1056670389
 20
9.9514607513
 30
0.0
 10
7.0970240872
 20
9.944053817
 30
0.0
 10
7.0876378381
 20
9.9375850409
 30
0.0
 10
7.0775992035
 20
9.9321168538
 30
0.0
 10
7.0670053862
 20
9.9277018786
 30
0.0
 10
7.0559588869
 20
9.9243824346
 30
0.0
 10
7.0445664699
 20
9.9221901603
 30
0.0
 10
7.0329381036
 20
9.9211457502
 30
0.0
 10
7.0211858872
 20
9.9212588023
 30
0.0
 10
7.0094229725
 20
9.9225277714
 30
0.0
 10
6.9977624888
 20
9.9249400208
 30
0.0
 10
6.9863164764
 20
9.9284719798
 30
0.0
 10
6.9751948358
 20
9.9330893741
 30
0.0
 10
6.9645042938
 20
9.9387476176
 30
0.0
 10
6.9543474425
 20
9.9453920883
 30
0.0
 10
6.9448215615
 20
9.9529591609
 30
0.0
 10
6.9360187769
 20
9.9613750339
 30
0.0
 10
6.9306842089
 20
9.9675030386
 30
0.0
 10
6.928164447
 20
9.97068072
 30
0.0
  0
SPLINE
  5
383
100
AcDbEntity
  8
0
100
AcDbSpline
 62
7
  6
CONTINUOUS
 70
0
 71
3
 72
67
 73
63
 74
0
 42
0.0000001
 43
0.0000001
 44
0.0000000001
 40
0.0
 40
0.0
 40
0.0
 40
0.0
 40
0.0452100989
 40
0.0910008364
 40
0.1371883692
 40
0.183585715
 40
0.2300053249
 40
0.2762593961
 40
0.3221610018
 40
0.3675250301
 40
0.4121691589
 40
0.4559148351
 40
0.4985882708
 40
0.5194704045
 40
0.5400220161
 40
0.5602231578
 40
0.5800544325
 40
0.5994969435
 40
0.6185323721
 40
0.6371430433
 40
0.6553118814
 40
0.6730225883
 40
0.6902595554
 40
0.7070080243
 40
0.7232541088
 40
0.7389848235
 40
0.754188278
 40
0.7688536093
 40
0.782971248
 40
0.796532929
 40
0.809531877
 40
0.8219630437
 40
0.8338231942
 40
0.8451113554
 40
0.8558289813
 40
0.8659804821
 40
0.8755737161
 40
0.884620568
 40
0.8931378811
 40
0.9011482533
 40
0.9086813189
 40
0.9157749243
 40
0.9224764257
 40
0.9288438133
 40
0.9319246608
 40
0.9349487983
 40
0.9379264824
 40
0.9408684995
 40
0.943786083
 40
0.9466907733
 40
0.9495942751
 40
0.9525083127
 40
0.9554444684
 40
0.9584140433
 40
0.9614279368
 40
0.9644965161
 40
0.9676295467
 40
0.9708361557
 40
0.977501043
 40
0.9845526509
 40
0.9920393771
 40
1.0
 40
1.0
 40
1.0
 40
1.0
 10
15.4445753018
 20
7.5396435307
 30
0.0
 10
15.4445753018
 20
7.5196872815
 30
0.0
 10
15.4442193942
 20
7.4795176745
 30
0.0
 10
15.4426500217
 20
7.4189788002
 30
0.0
 10
15.4400477139
 20
7.357950856
 30
0.0
 10
15.4364235749
 20
7.2966970728
 30
0.0
 10
15.4317932345
 20
7.2354816591
 30
0.0
 10
15.4261766609
 20
7.1745685696
 30
0.0
 10
15.4195981338
 20
7.1142204666
 30
0.0
 10
15.4120861255
 20
7.054697566
 30
0.0
 10
15.4036731883
 20
6.9962564265
 30
0.0
 10
15.394395765
 20
6.9391491288
 30
0.0
 10
15.3859179518
 20
6.8925467089
 30
0.0
 10
15.3787227751
 20
6.8561241962
 30
0.0
 10
15.3731751583
 20
6.829488942
 30
0.0
 10
15.3674434826
 20
6.8033673867
 30
0.0
 10
15.3615339694
 20
6.7777876709
 30
0.0
 10
15.3554529914
 20
6.7527773842
 30
0.0
 10
15.3492071131
 20
6.7283634884
 30
0.0
 10
15.3428031342
 20
6.7045722963
 30
0.0
 10
15.3362479145
 20
6.6814294535
 30
0.0
 10
15.3295486164
 20
6.6589598855
 30
0.0
 10
15.3227124325
 20
6.6371877986
 30
0.0
 10
15.3157467799
 20
6.6161366295
 30
0.0
 10
15.3086592121
 20
6.5958290269
 30
0.0
 10
15.3014573374
 20
6.5762868388
 30
0.0
 10
15.2941490219
 20
6.557531048
 30
0.0
 10
15.2867420809
 20
6.5395818035
 30
0.0
 10
15.2792445702
 20
6.5224583336
 30
0.0
 10
15.2716645555
 20
6.5061789673
 30
0.0
 10
15.2640101617
 20
6.4907611019
 30
0.0
 10
15.2562896753
 20
6.476221134
 30
0.0
 10
15.2485112439
 20
6.4625745355
 30
0.0
 10
15.2406832204
 20
6.4498356941
 30
0.0
 10
15.2328137744
 20
6.4380180324
 30
0.0
 10
15.2249110857
 20
6.4271339074
 30
0.0
 10
15.2169832512
 20
6.417194603
 30
0.0
 10
15.209038038
 20
6.4082104783
 30
0.0
 10
15.2010831716
 20
6.400190772
 30
0.0
 10
15.193125786
 20
6.3931440262
 30
0.0
 10
15.1851729031
 20
6.3870779948
 30
0.0
 10
15.1772307901
 20
6.3820000101
 30
0.0
 10
15.1693067541
 20
6.3779176904
 30
0.0
 10
15.1626500261
 20
6.3753232031
 30
0.0
 10
15.1573638425
 20
6.3737751569
 30
0.0
 10
15.1534535986
 20
6.372878573
 30
0.0
 10
15.1495560147
 20
6.3722343642
 30
0.0
 10
15.1456721463
 20
6.3718428679
 30
0.0
 10
15.1418032372
 20
6.3717042737
 30
0.0
 10
15.1379505057
 20
6.3718186277
 30
0.0
 10
15.1341151895
 20
6.3721859712
 30
0.0
 10
15.1302985322
 20
6.372806209
 30
0.0
 10
15.1265017313
 20
6.3736790064
 30
0.0
 10
15.1227259547
 20
6.3748040179
 30
0.0
 10
15.1189723512
 20
6.3761808754
 30
0.0
 10
15.1152420036
 20
6.3778089686
 30
0.0
 10
15.1115358467
 20
6.3796877262
 30
0.0
 10
15.1065645447
 20
6.3825627857
 30
0.0
 10
15.1004053878
 20
6.386813973
 30
0.0
 10
15.0932283865
 20
6.3928397865
 30
0.0
 10
15.0861760444
 20
6.3998465364
 30
0.0
 10
15.0817038958
 20
6.4050021995
 30
0.0
 10
15.0794867296
 20
6.4077283196
 30
0.0
  0
SPLINE
  5
384
100
AcDbEntity
  8
0
100
AcDbSpline
 62
7
  6
CONTINUOUS
 70
0
 71
3
 72
51
 73
47
 74
0
 42
0.0000001
 43
0.0000001
 44
0.0000000001
 40
0.0
 40
0.0
 40
0.0
 40
0.0
 40
0.0310732448
 40
0.0623036911
 40
0.0936867976
 40
0.1252138182
 40
0.1568734337
 40
0.1886514443
 40
0.2205312484
 40
0.2524941714
 40
0.2845198644
 40
0.3165867233
 40
0.348672324
 40
0.38075387
 40
0.4128086448
 40
0.4448144642
 40
0.4767501205
 40
0.5085958138
 40
0.5403335613
 40
0.5719475804
 40
0.6034246372
 40
0.6347543529
 40
0.6503641691
 40
0.6659346996
 40
0.6814655594
 40
0.6969565712
 40
0.7124077866
 40
0.7278194673
 40
0.7431921027
 40
0.7585263985
 40
0.7738232751
 40
0.7890838728
 40
0.804309531
 40
0.8195018007
 40
0.8346624197
 40
0.8497933151
 40
0.8648965903
 40
0.8799745073
 40
0.8950294868
 40
0.9100640796
 40
0.9250809644
 40
0.9400829251
 40
0.9550728345
 40
0.9700536429
 40
0.9850283506
 40
1.0
 40
1.0
 40
1.0
 40
1.0
 10
8.7700832958
 20
9.2313937241
 30
0.0
 10
8.7700832958
 20
9.2170310724
 30
0.0
 10
8.7711547141
 20
9.188222055
 30
0.0
 10
8.7759383871
 20
9.1451464358
 30
0.0
 10
8.7838756596
 20
9.1023237581
 30
0.0
 10
8.7949226896
 20
9.0599922022
 30
0.0
 10
8.8090182831
 20
9.0183834288
 30
0.0
 10
8.8260847519
 20
8.9777260212
 30
0.0
 10
8.8460281062
 20
8.9382430515
 30
0.0
 10
8.8687386324
 20
8.9001511879
 30
0.0
 10
8.8940914804
 20
8.8636594277
 30
0.0
 10
8.921947369
 20
8.8289680016
 30
0.0
 10
8.952153339
 20
8.7962672795
 30
0.0
 10
8.9845435849
 20
8.7657367408
 30
0.0
 10
9.0189403556
 20
8.7375440026
 30
0.0
 10
9.0551549138
 20
8.7118438994
 30
0.0
 10
9.0929885373
 20
8.6887776212
 30
0.0
 10
9.1322336681
 20
8.6684719667
 30
0.0
 10
9.1726748509
 20
8.6510386688
 30
0.0
 10
9.214090571
 20
8.6365737045
 30
0.0
 10
9.2562519568
 20
8.6251570607
 30
0.0
 10
9.2918643793
 20
8.6182268158
 30
0.0
 10
9.3204905681
 20
8.6142677832
 30
0.0
 10
9.3419768928
 20
8.6120950268
 30
0.0
 10
9.3634736196
 20
8.610718674
 30
0.0
 10
9.3849515494
 20
8.6101406793
 30
0.0
 10
9.4063810476
 20
8.6103616667
 30
0.0
 10
9.4277326675
 20
8.611381591
 30
0.0
 10
9.4489770441
 20
8.6131988434
 30
0.0
 10
9.4700849516
 20
8.6158110882
 30
0.0
 10
9.4910273545
 20
8.6192147135
 30
0.0
 10
9.511775462
 20
8.6234049729
 30
0.0
 10
9.5323006912
 20
8.6283763009
 30
0.0
 10
9.5525748603
 20
8.6341216392
 30
0.0
 10
9.5725700105
 20
8.6406333333
 30
0.0
 10
9.5922586811
 20
8.6479022625
 30
0.0
 10
9.6116137563
 20
8.6559185179
 30
0.0
 10
9.6306085804
 20
8.6646711177
 30
0.0
 10
9.6492170795
 20
8.6741478937
 30
0.0
 10
9.6674135367
 20
8.6843360225
 30
0.0
 10
9.6851730295
 20
8.6952212699
 30
0.0
 10
9.7024710117
 20
8.7067888545
 30
0.0
 10
9.719283718
 20
8.7190227354
 30
0.0
 10
9.7355880927
 20
8.7319061699
 30
0.0
 10
9.7513613085
 20
8.7454212208
 30
0.0
 10
9.7615094207
 20
8.7548408891
 30
0.0
 10
9.7664867929
 20
8.759648666
 30
0.0
  0
SPLINE
  5
385
100
AcDbEntity
  8
0
100
AcDbSpline
 62
7
  6
CONTINUOUS
 70
0
 71
3
 72
62
 73
58
 74
0
 42
0.0000001
 43
0.0000001
 44
0.0000000001
 40
0.0
 40
0.0
 40
0.0
 40
0.0
 40
0.0310563375
 40
0.062268137
 40
0.0779336701
 40
0.093635966
 40
0.1093739596
 40
0.1251463621
 40
0.1409516923
 40
0.1567883115
 40
0.1726544236
 40
0.1885480837
 40
0.2044672059
 40
0.2204095818
 40
0.252349936
 40
0.2843541598
 40
0.3164012259
 40
0.3484692718
 40
0.3805360275
 40
0.4125792478
 40
0.444577145
 40
0.4605548931
 40
0.4765135718
 40
0.4924507764
 40
0.5083642051
 40
0.5242516776
 40
0.5401111415
 40
0.5559406825
 40
0.5717385411
 40
0.5875031147
 40
0.6032329704
 40
0.6189268565
 40
0.6345837021
 40
0.6502026316
 40
0.6657829687
 40
0.6813242362
 40
0.6968261686
 40
0.7122887098
 40
0.7277120127
 40
0.7430964484
 40
0.7584425974
 40
0.7737512505
 40
0.7890234107
 40
0.8042602813
 40
0.8194632654
 40
0.8346339611
 40
0.8497741465
 40
0.864885778
 40
0.8799709778
 40
0.8950320184
 40
0.9100713166
 40
0.9250914168
 40
0.9400949737
 40
0.9550847432
 40
0.9700635622
 40
0.9850343308
 40
1.0
 40
1.0
 40
1.0
 40
1.0
 10
10.5852934445
 20
6.671937337
 30
0.0
 10
10.5852934445
 20
6.6494459291
 30
0.0
 10
10.5869525623
 20
6.6043346965
 30
0.0
 10
10.5931205374
 20
6.5481809433
 30
0.0
 10
10.6004878777
 20
6.5034544505
 30
0.0
 10
10.6072346423
 20
6.4700058905
 30
0.0
 10
10.6151862414
 20
6.4367439721
 30
0.0
 10
10.6243318761
 20
6.4037128706
 30
0.0
 10
10.6346593657
 20
6.370957173
 30
0.0
 10
10.6461547531
 20
6.3385208953
 30
0.0
 10
10.6588025013
 20
6.3064475944
 30
0.0
 10
10.67258566
 20
6.2747805751
 30
0.0
 10
10.6874858599
 20
6.2435619238
 30
0.0
 10
10.7088258806
 20
6.2025703186
 30
0.0
 10
10.7381934583
 20
6.1526646596
 30
0.0
 10
10.7775188853
 20
6.0952735336
 30
0.0
 10
10.8207442114
 20
6.0406393716
 30
0.0
 10
10.8676361514
 20
5.9890575611
 30
0.0
 10
10.9179436509
 20
5.9408042187
 30
0.0
 10
10.9713946422
 20
5.8961397449
 30
0.0
 10
11.0183477394
 20
5.8620886778
 30
0.0
 10
11.0571910812
 20
5.8368741182
 30
0.0
 10
11.0869122847
 20
5.8190076702
 30
0.0
 10
11.1171928147
 20
5.8022030871
 30
0.0
 10
11.147992419
 20
5.7864827307
 30
0.0
 10
11.1792695018
 20
5.7718677023
 30
0.0
 10
11.2109820877
 20
5.7583777427
 30
0.0
 10
11.2430875276
 20
5.7460310281
 30
0.0
 10
11.2755426103
 20
5.7348440588
 30
0.0
 10
11.3083037426
 20
5.7248320359
 30
0.0
 10
11.3413268472
 20
5.7160083857
 30
0.0
 10
11.3745675004
 20
5.7083849216
 30
0.0
 10
11.4079810339
 20
5.7019720726
 30
0.0
 10
11.4415224829
 20
5.6967783651
 30
0.0
 10
11.4751467403
 20
5.6928107986
 30
0.0
 10
11.5088085935
 20
5.690074868
 30
0.0
 10
11.5424627492
 20
5.688574121
 30
0.0
 10
11.5760639452
 20
5.688310662
 30
0.0
 10
11.6095669751
 20
5.6892849495
 30
0.0
 10
11.6429267709
 20
5.6914955428
 30
0.0
 10
11.6760984458
 20
5.6949396126
 30
0.0
 10
11.7090373605
 20
5.6996125544
 30
0.0
 10
11.7416992128
 20
5.7055079844
 30
0.0
 10
11.7740400233
 20
5.7126181486
 30
0.0
 10
11.8060162781
 20
5.7209334323
 30
0.0
 10
11.8375849635
 20
5.7304426042
 30
0.0
 10
11.8687035405
 20
5.741133046
 30
0.0
 10
11.8993301615
 20
5.7529902631
 30
0.0
 10
11.9294236049
 20
5.765998321
 30
0.0
 10
11.9589433021
 20
5.7801398505
 30
0.0
 10
11.9878495821
 20
5.7953956851
 30
0.0
 10
12.0161034975
 20
5.811745369
 30
0.0
 10
12.0436669779
 20
5.8291669731
 30
0.0
 10
12.0705029621
 20
5.8476368931
 30
0.0
 10
12.0965753828
 20
5.8671304982
 30
0.0
 10
12.121848638
 20
5.8876211095
 30
0.0
 10
12.138144999
 20
5.9019303067
 30
0.0
 10
12.1461471464
 20
5.9092402403
 30
0.0
  0
SPLINE
  5
386
100
AcDbEntity
  8
0
100
AcDbSpline
 62
7
  6
CONTINUOUS
 70
0
 71
3
 72
26
 73
22
 74
0
 42
0.0000001
 43
0.0000001
 44
0.0000000001
 40
0.0
 40
0.0
 40
0.0
 40
0.0
 40
0.0637517333
 40
0.1273007155
 40
0.1906464103
 40
0.2537954111
 40
0.2852999197
 40
0.3167575344
 40
0.3795319293
 40
0.442132578
 40
0.5045705888
 40
0.5668585785
 40
0.629010536
 40
0.6910417187
 40
0.7220194482
 40
0.7529732182
 40
0.8148129932
 40
0.8765839448
 40
0.9074518584
 40
0.9383096753
 40
1.0
 40
1.0
 40
1.0
 40
1.0
 10
10.5852934445
 20
6.671937337
 30
0.0
 10
10.5852934445
 20
6.6861001597
 30
0.0
 10
10.5859484592
 20
6.7143852186
 30
0.0
 10
10.5889047616
 20
6.7566500188
 30
0.0
 10
10.5938272635
 20
6.7985969553
 30
0.0
 10
10.5995635583
 20
6.8332399769
 30
0.0
 10
10.6051245803
 20
6.8607012039
 30
0.0
 10
10.6113204765
 20
6.8879408179
 30
0.0
 10
10.6202651082
 20
6.9216294201
 30
0.0
 10
10.6329048447
 20
6.9614092221
 30
0.0
 10
10.6474164675
 20
7.0004303156
 30
0.0
 10
10.6637687639
 20
7.0386082704
 30
0.0
 10
10.6819263173
 20
7.075860497
 30
0.0
 10
10.6985379093
 20
7.106080863
 30
0.0
 10
10.7126872361
 20
7.129709819
 30
0.0
 10
10.7273919944
 20
7.1529469212
 30
0.0
 10
10.7468236173
 20
7.1812752081
 30
0.0
 10
10.7676222191
 20
7.2085916625
 30
0.0
 10
10.7850445878
 20
7.2297886014
 30
0.0
 10
10.8029755234
 20
7.2505326578
 30
0.0
 10
10.8169983609
 20
7.2655838008
 30
0.0
 10
10.8265869373
 20
7.2753757684
 30
0.0
  0
LINE
  5
387
100
AcDbEntity
  8
0
100
AcDbLine
 62
7
  6
CONTINUOUS
 10
10.8265869373
 20
7.2753757684
 11
10.826867566
 21
7.2756622108
  0
SPLINE
  5
388
100
AcDbEntity
  8
0
100
AcDbSpline
 62
7
  6
CONTINUOUS
 70
0
 71
3
 72
72
 73
68
 74
0
 42
0.0000001
 43
0.0000001
 44
0.0000000001
 40
0.0
 40
0.0
 40
0.0
 40
0.0
 40
0.0155841391
 40
0.0311159426
 40
0.0465951818
 40
0.0620238062
 40
0.0697201947
 40
0.0774045852
 40
0.0927373969
 40
0.1080262197
 40
0.1232742503
 40
0.138485114
 40
0.1536628168
 40
0.1688117118
 40
0.1839364561
 40
0.1990419623
 40
0.2141333478
 40
0.2292158796
 40
0.2442949189
 40
0.2593758645
 40
0.2744640955
 40
0.2895649133
 40
0.3046834847
 40
0.3198247871
 40
0.3349935569
 40
0.3501942419
 40
0.3654309563
 40
0.3807074392
 40
0.3960270182
 40
0.4113925792
 40
0.4268065428
 40
0.4422708435
 40
0.4577869144
 40
0.4733556768
 40
0.488977538
 40
0.5046523931
 40
0.5203796315
 40
0.536158146
 40
0.5519863475
 40
0.5678621856
 40
0.5837831726
 40
0.5997464093
 40
0.6157486138
 40
0.6317861525
 40
0.6478550774
 40
0.6639511628
 40
0.6800699439
 40
0.6962067554
 40
0.7123567737
 40
0.7285150605
 40
0.7446766066
 40
0.7608363741
 40
0.7769893393
 40
0.793130538
 40
0.8092551091
 40
0.8253583378
 40
0.8414356957
 40
0.8574828813
 40
0.8734958611
 40
0.8894709055
 40
0.90540463
 40
0.9212940135
 40
0.93713644
 40
0.9529297866
 40
0.9686720809
 40
0.9843627385
 40
1.0
 40
1.0
 40
1.0
 40
1.0
 10
10.8557526919
 20
6.6531809245
 30
0.0
 10
10.8557526919
 20
6.6637510045
 30
0.0
 10
10.8562699986
 20
6.6848593954
 30
0.0
 10
10.8586050212
 20
6.7163890662
 30
0.0
 10
10.862492531
 20
6.7476594002
 30
0.0
 10
10.8670217825
 20
6.7734605055
 30
0.0
 10
10.8714114828
 20
6.7938929681
 30
0.0
 10
10.8763009895
 20
6.8141447481
 30
0.0
 10
10.8833576509
 20
6.8391621336
 30
0.0
 10
10.8933245443
 20
6.8686479469
 30
0.0
 10
10.9047605732
 20
6.8975072328
 30
0.0
 10
10.9176381041
 20
6.9256699148
 30
0.0
 10
10.9319262002
 20
6.9530681849
 30
0.0
 10
10.9475904686
 20
6.9796359029
 30
0.0
 10
10.9645931474
 20
7.0053090012
 30
0.0
 10
10.9828932556
 20
7.0300255477
 30
0.0
 10
11.0024466842
 20
7.0537259131
 30
0.0
 10
11.0232063065
 20
7.0763529045
 30
0.0
 10
11.0451220709
 20
7.0978519208
 30
0.0
 10
11.0681410895
 20
7.1181711285
 30
0.0
 10
11.0922078291
 20
7.1372615321
 30
0.0
 10
11.1172642331
 20
7.1550771002
 30
0.0
 10
11.1432498675
 20
7.1715748656
 30
0.0
 10
11.1701020466
 20
7.1867150573
 30
0.0
 10
11.1977559726
 20
7.200461234
 30
0.0
 10
11.2261449359
 20
7.2127803047
 30
0.0
 10
11.2552004666
 20
7.2236426197
 30
0.0
 10
11.2848525023
 20
7.2330220264
 30
0.0
 10
11.3150295409
 20
7.2408959727
 30
0.0
 10
11.3456588159
 20
7.2472455845
 30
0.0
 10
11.376666493
 20
7.252055641
 30
0.0
 10
11.4079778412
 20
7.2553146247
 30
0.0
 10
11.4395174099
 20
7.2570147315
 30
0.0
 10
11.4712092038
 20
7.2571519414
 30
0.0
 10
11.5029768749
 20
7.2557260341
 30
0.0
 10
11.5347439071
 20
7.2527405252
 30
0.0
 10
11.5664337963
 20
7.248202673
 30
0.0
 10
11.597970227
 20
7.2421234445
 30
0.0
 10
11.6292772639
 20
7.2345175488
 30
0.0
 10
11.6602795403
 20
7.2254033912
 30
0.0
 10
11.6909024265
 20
7.2148029764
 30
0.0
 10
11.7210722092
 20
7.2027418712
 30
0.0
 10
11.750716257
 20
7.189249129
 30
0.0
 10
11.7797632206
 20
7.1743572827
 30
0.0
 10
11.8081432019
 20
7.1581022417
 30
0.0
 10
11.8357879009
 20
7.1405231679
 30
0.0
 10
11.8626307821
 20
7.1216623948
 30
0.0
 10
11.8886072218
 20
7.1015653162
 30
0.0
 10
11.9136547065
 20
7.0802803358
 30
0.0
 10
11.937712967
 20
7.0578587175
 30
0.0
 10
11.9607240992
 20
7.0343544378
 30
0.0
 10
11.9826327079
 20
7.0098240673
 30
0.0
 10
12.0033860265
 20
6.9843266296
 30
0.0
 10
12.0229341036
 20
6.9579235085
 30
0.0
 10
12.0412298894
 20
6.930678264
 30
0.0
 10
12.0582293276
 20
6.9026564682
 30
0.0
 10
12.0738914651
 20
6.8739255562
 30
0.0
 10
12.0881785402
 20
6.8445546627
 30
0.0
 10
12.1010561436
 20
6.8146144914
 30
0.0
 10
12.1124932561
 20
6.7841771121
 30
0.0
 10
12.1224622946
 20
6.7533157849
 30
0.0
 10
12.130939195
 20
6.7221048034
 30
0.0
 10
12.1379034887
 20
6.6906192467
 30
0.0
 10
12.1433382614
 20
6.6589351141
 30
0.0
 10
12.1472306339
 20
6.6271281301
 30
0.0
 10
12.1495707714
 20
6.5952762524
 30
0.0
 10
12.1500933758
 20
6.5740242039
 30
0.0
 10
12.1500933758
 20
6.5634180932
 30
0.0
  0
SPLINE
  5
389
100
AcDbEntity
  8
0
100
AcDbSpline
 62
7
  6
CONTINUOUS
 70
0
 71
3
 72
26
 73
22
 74
0
 42
0.0000001
 43
0.0000001
 44
0.0000000001
 40
0.0
 40
0.0
 40
0.0
 40
0.0
 40
0.0637517333
 40
0.1273007155
 40
0.1906464103
 40
0.2537954111
 40
0.2852999197
 40
0.3167575344
 40
0.3795319293
 40
0.442132578
 40
0.5045705888
 40
0.5668585785
 40
0.629010536
 40
0.6910417187
 40
0.7220194482
 40
0.7529732182
 40
0.8148129932
 40
0.8765839448
 40
0.9074518584
 40
0.9383096753
 40
1.0
 40
1.0
 40
1.0
 40
1.0
 10
8.4138919183
 20
9.2373392531
 30
0.0
 10
8.4138919183
 20
9.2515020758
 30
0.0
 10
8.414546933
 20
9.2797871347
 30
0.0
 10
8.4175032355
 20
9.3220519349
 30
0.0
 10
8.4224257373
 20
9.3639988714
 30
0.0
 10
8.4281620321
 20
9.398641893
 30
0.0
 10
8.4337230541
 20
9.42610312
 30
0.0
 10
8.4399189503
 20
9.453342734
 30
0.0
 10
8.448863582
 20
9.4870313362
 30
0.0
 10
8.4615033185
 20
9.5268111382
 30
0.0
 10
8.4760149413
 20
9.5658322318
 30
0.0
 10
8.4923672377
 20
9.6040101865
 30
0.0
 10
8.5105247912
 20
9.6412624131
 30
0.0
 10
8.5271363831
 20
9.6714827791
 30
0.0
 10
8.5412857099
 20
9.6951117351
 30
0.0
 10
8.5559904682
 20
9.7183488373
 30
0.0
 10
8.5754220911
 20
9.7466771242
 30
0.0
 10
8.5962206929
 20
9.7739935787
 30
0.0
 10
8.6136430617
 20
9.7951905175
 30
0.0
 10
8.6315739972
 20
9.8159345739
 30
0.0
 10
8.6455968347
 20
9.8309857169
 30
0.0
 10
8.6551854111
 20
9.8407776845
 30
0.0
  0
LINE
  5
38A
100
AcDbEntity
  8
0
100
AcDbLine
 62
7
  6
CONTINUOUS
 10
8.6551854111
 20
9.8407776845
 11
8.6554660399
 21
9.8410641269
  0
SPLINE
  5
38B
100
AcDbEntity
  8
0
100
AcDbSpline
 62
7
  6
CONTINUOUS
 70
0
 71
3
 72
24
 73
20
 74
0
 42
0.0000001
 43
0.0000001
 44
0.0000000001
 40
0.0
 40
0.0
 40
0.0
 40
0.0
 40
0.0637764408
 40
0.1273443672
 40
0.1907010024
 40
0.2538548258
 40
0.3168116123
 40
0.3795801652
 40
0.4421711518
 40
0.5045967904
 40
0.5668710032
 40
0.6290092014
 40
0.6910281576
 40
0.7220010174
 40
0.7529508941
 40
0.8147862914
 40
0.8765592262
 40
0.9382901647
 40
1.0
 40
1.0
 40
1.0
 40
1.0
 10
10.9414848219
 20
6.665991808
 30
0.0
 10
10.9414848219
 20
6.675249012
 30
0.0
 10
10.9419279354
 20
6.6937362901
 30
0.0
 10
10.9439277853
 20
6.7213547199
 30
0.0
 10
10.9472576172
 20
6.7487542577
 30
0.0
 10
10.9519094092
 20
6.7758704979
 30
0.0
 10
10.9578728025
 20
6.8026414967
 30
0.0
 10
10.9651339855
 20
6.8290053655
 30
0.0
 10
10.9736762576
 20
6.8549013733
 30
0.0
 10
10.9834800078
 20
6.8802697714
 30
0.0
 10
10.994522787
 20
6.9050521282
 30
0.0
 10
11.0067788949
 20
6.9291909263
 30
0.0
 10
11.0179854985
 20
6.9487335952
 30
0.0
 10
11.0275265917
 20
6.963987354
 30
0.0
 10
11.0374394404
 20
6.978970242
 30
0.0
 10
11.050533095
 20
6.9972001384
 30
0.0
 10
11.0673341232
 20
7.0182258657
 30
0.0
 10
11.0851805286
 20
7.0383470299
 30
0.0
 10
11.0977498559
 20
7.0511292297
 30
0.0
 10
11.104192385
 20
7.057352241
 30
0.0
  0
SPLINE
  5
38C
100
AcDbEntity
  8
0
100
AcDbSpline
 62
7
  6
CONTINUOUS
 70
0
 71
3
 72
15
 73
11
 74
0
 42
0.0000001
 43
0.0000001
 44
0.0000000001
 40
0.0
 40
0.0
 40
0.0
 40
0.0
 40
0.1266450919
 40
0.2527837384
 40
0.3784238432
 40
0.503584459
 40
0.6282887886
 40
0.7525675744
 40
0.8764572503
 40
1.0
 40
1.0
 40
1.0
 40
1.0
 10
11.2711572151
 20
6.9464309056
 30
0.0
 10
11.2711572151
 20
6.9569251144
 30
0.0
 10
11.271764964
 20
6.9778768023
 30
0.0
 10
11.2745096564
 20
7.0091311328
 30
0.0
 10
11.2790766147
 20
7.0400485562
 30
0.0
 10
11.2854504163
 20
7.0705231474
 30
0.0
 10
11.2936097434
 20
7.1004522692
 30
0.0
 10
11.3035272855
 20
7.1297349773
 30
0.0
 10
11.3151689903
 20
7.1582709271
 30
0.0
 10
11.324066474
 20
7.1767596549
 30
0.0
 10
11.3287874672
 20
7.1858432246
 30
0.0
  0
SPLINE
  5
38D
100
AcDbEntity
  8
0
100
AcDbSpline
 62
7
  6
CONTINUOUS
 70
0
 71
3
 72
17
 73
13
 74
0
 42
0.0000001
 43
0.0000001
 44
0.0000000001
 40
0.0
 40
0.0
 40
0.0
 40
0.0
 40
0.0550852423
 40
0.111354406
 40
0.1687695843
 40
0.2272912727
 40
0.3474892042
 40
0.4716107805
 40
0.5992999648
 40
0.7301858563
 40
0.8638842393
 40
1.0
 40
1.0
 40
1.0
 40
1.0
 10
15.4200857313
 20
7.9121082102
 30
0.0
 10
15.4210997011
 20
7.9053237087
 30
0.0
 10
15.423066013
 20
7.8915962955
 30
0.0
 10
15.4258064058
 20
7.8707581515
 30
0.0
 10
15.4283674739
 20
7.8494660902
 30
0.0
 10
15.4315688503
 20
7.8202341661
 30
0.0
 10
15.4350941452
 20
7.7826832588
 30
0.0
 10
15.4385432977
 20
7.7364824367
 30
0.0
 10
15.4412365088
 20
7.688898313
 30
0.0
 10
15.4431649822
 20
7.6400836724
 30
0.0
 10
15.4443223622
 20
7.5901952493
 30
0.0
 10
15.4445753018
 20
7.5565942453
 30
0.0
 10
15.4445753018
 20
7.5396435307
 30
0.0
  0
SPLINE
  5
38E
100
AcDbEntity
  8
0
100
AcDbSpline
 62
7
  6
CONTINUOUS
 70
0
 71
3
 72
15
 73
11
 74
0
 42
0.0000001
 43
0.0000001
 44
0.0000000001
 40
0.0
 40
0.0
 40
0.0
 40
0.0
 40
0.1264526698
 40
0.2524701444
 40
0.3780498168
 40
0.5032091093
 40
0.6279614917
 40
0.7523273826
 40
0.8763309049
 40
1.0
 40
1.0
 40
1.0
 40
1.0
 10
11.2287737249
 20
6.9434915954
 30
0.0
 10
11.2287737249
 20
6.9532067536
 30
0.0
 10
11.2292617228
 20
6.972607264
 30
0.0
 10
11.231464505
 20
7.0015805692
 30
0.0
 10
11.2351317071
 20
7.0303058678
 30
0.0
 10
11.2402536834
 20
7.05870892
 30
0.0
 10
11.2468177816
 20
7.0867180907
 30
0.0
 10
11.2548074261
 20
7.1142623156
 30
0.0
 10
11.26420198
 20
7.1412707121
 30
0.0
 10
11.271395864
 20
7.1588980635
 30
0.0
 10
11.2752181072
 20
7.1675966363
 30
0.0
  0
SPLINE
  5
38F
100
AcDbEntity
  8
0
100
AcDbSpline
 62
7
  6
CONTINUOUS
 70
0
 71
3
 72
20
 73
16
 74
0
 42
0.0000001
 43
0.0000001
 44
0.0000000001
 40
0.0
 40
0.0
 40
0.0
 40
0.0
 40
0.0529053482
 40
0.107349923
 40
0.1632853691
 40
0.2206604553
 40
0.2794217981
 40
0.3395135536
 40
0.4008778897
 40
0.4634550263
 40
0.5271831926
 40
0.5919991152
 40
0.7246316204
 40
0.8608166229
 40
1.0
 40
1.0
 40
1.0
 40
1.0
 10
15.3217409684
 20
7.9190026996
 30
0.0
 10
15.3230199356
 20
7.912158298
 30
0.0
 10
15.3255008251
 20
7.8982487926
 30
0.0
 10
15.3289507051
 20
7.8770367742
 30
0.0
 10
15.3321796283
 20
7.8551951666
 30
0.0
 10
15.335184059
 20
7.8327482911
 30
0.0
 10
15.3379605641
 20
7.8097210563
 30
0.0
 10
15.3405060812
 20
7.7861390424
 30
0.0
 10
15.342817751
 20
7.762028443
 30
0.0
 10
15.3448929552
 20
7.7374160592
 30
0.0
 10
15.346729447
 20
7.7123292159
 30
0.0
 10
15.3488732829
 20
7.6780221506
 30
0.0
 10
15.3509288385
 20
7.6341575178
 30
0.0
 10
15.3523990248
 20
7.580477687
 30
0.0
 10
15.3527193909
 20
7.5442354982
 30
0.0
 10
15.3527193909
 20
7.5259175756
 30
0.0
  0
SPLINE
  5
390
100
AcDbEntity
  8
0
100
AcDbSpline
 62
7
  6
CONTINUOUS
 70
0
 71
3
 72
28
 73
24
 74
0
 42
0.0000001
 43
0.0000001
 44
0.0000000001
 40
0.0
 40
0.0
 40
0.0
 40
0.0
 40
0.0637759834
 40
0.0955879084
 40
0.127346187
 40
0.1907019989
 40
0.253854554
 40
0.2853588054
 40
0.3168148493
 40
0.3795822195
 40
0.4421719639
 40
0.5045963767
 40
0.5668693671
 40
0.6290063464
 40
0.6600315365
 40
0.6910291143
 40
0.7220013668
 40
0.7529506339
 40
0.8147848181
 40
0.8765565455
 40
0.9074279098
 40
0.938291375
 40
1.0
 40
1.0
 40
1.0
 40
1.0
 10
10.5687290389
 20
6.6559373489
 30
0.0
 10
10.5687290389
 20
6.6705948163
 30
0.0
 10
10.5692557195
 20
6.6925684208
 30
0.0
 10
10.5710177416
 20
6.7217850264
 30
0.0
 10
10.573479342
 20
6.7508546708
 30
0.0
 10
10.5778692626
 20
6.7869781742
 30
0.0
 10
10.5840123189
 20
6.8227862467
 30
0.0
 10
10.5899666038
 20
6.8511548955
 30
0.0
 10
10.5965997508
 20
6.8792815033
 30
0.0
 10
10.6061737999
 20
6.9140432617
 30
0.0
 10
10.619699072
 20
6.9550449485
 30
0.0
 10
10.6352219125
 20
6.9952119039
 30
0.0
 10
10.6527060869
 20
7.0344502272
 30
0.0
 10
10.668886556
 20
7.0663177721
 30
0.0
 10
10.6827674801
 20
7.0912522558
 30
0.0
 10
10.6936367415
 20
7.1096576444
 30
0.0
 10
10.7049626542
 20
7.1277650223
 30
0.0
 10
10.7206581602
 20
7.1514878202
 30
0.0
 10
10.7413896462
 20
7.1803517448
 30
0.0
 10
10.7635629115
 20
7.2081004327
 30
0.0
 10
10.7821257814
 20
7.2295783638
 30
0.0
 10
10.8012241883
 20
7.2505610309
 30
0.0
 10
10.8161501705
 20
7.26573972
 30
0.0
 10
10.8263508903
 20
7.2755928339
 30
0.0
  0
SPLINE
  5
391
100
AcDbEntity
  8
0
100
AcDbSpline
 62
7
  6
CONTINUOUS
 70
0
 71
3
 72
72
 73
68
 74
0
 42
0.0000001
 43
0.0000001
 44
0.0000000001
 40
0.0
 40
0.0
 40
0.0
 40
0.0
 40
0.0156372615
 40
0.0313279191
 40
0.0470702134
 40
0.06286356
 40
0.0787059865
 40
0.09459537
 40
0.1105290945
 40
0.1265041389
 40
0.1425171187
 40
0.1585643043
 40
0.1746416622
 40
0.1907448909
 40
0.206869462
 40
0.2230106607
 40
0.2391636259
 40
0.2553233934
 40
0.2714849395
 40
0.2876432263
 40
0.3037932446
 40
0.3199300561
 40
0.3360488372
 40
0.3521449226
 40
0.3682138475
 40
0.3842513862
 40
0.4002535907
 40
0.4162168274
 40
0.4321378144
 40
0.4480136525
 40
0.463841854
 40
0.4796203685
 40
0.4953476069
 40
0.511022462
 40
0.5266443232
 40
0.5422130856
 40
0.5577291565
 40
0.5731934572
 40
0.5886074208
 40
0.6039729818
 40
0.6192925608
 40
0.6345690437
 40
0.6498057581
 40
0.6650064431
 40
0.6801752129
 40
0.6953165153
 40
0.7104350867
 40
0.7255359045
 40
0.7406241355
 40
0.7557050811
 40
0.7707841204
 40
0.7858666522
 40
0.8009580377
 40
0.8160635439
 40
0.8311882882
 40
0.8463371832
 40
0.861514886
 40
0.8767257497
 40
0.8919737803
 40
0.9072626031
 40
0.9225954148
 40
0.9302798053
 40
0.9379761938
 40
0.9534048182
 40
0.9688840574
 40
0.9844158609
 40
1.0
 40
1.0
 40
1.0
 40
1.0
 10
10.8557526919
 20
6.6531809245
 30
0.0
 10
10.8557526919
 20
6.6425748138
 30
0.0
 10
10.8562752963
 20
6.6213227653
 30
0.0
 10
10.8586154338
 20
6.5894708875
 30
0.0
 10
10.8625078063
 20
6.5576639036
 30
0.0
 10
10.867942579
 20
6.525979771
 30
0.0
 10
10.8749068727
 20
6.4944942143
 30
0.0
 10
10.8833837731
 20
6.4632832327
 30
0.0
 10
10.8933528116
 20
6.4324219056
 30
0.0
 10
10.9047899241
 20
6.4019845262
 30
0.0
 10
10.9176675275
 20
6.3720443549
 30
0.0
 10
10.9319546026
 20
6.3426734615
 30
0.0
 10
10.9476167401
 20
6.3139425494
 30
0.0
 10
10.9646161782
 20
6.2859207537
 30
0.0
 10
10.9829119641
 20
6.2586755092
 30
0.0
 10
11.0024600412
 20
6.232272388
 30
0.0
 10
11.0232133598
 20
6.2067749503
 30
0.0
 10
11.0451219685
 20
6.1822445799
 30
0.0
 10
11.0681331007
 20
6.1587403002
 30
0.0
 10
11.0921913612
 20
6.1363186819
 30
0.0
 10
11.1172388459
 20
6.1150337015
 30
0.0
 10
11.1432152856
 20
6.0949366229
 30
0.0
 10
11.1700581668
 20
6.0760758498
 30
0.0
 10
11.1977028658
 20
6.058496776
 30
0.0
 10
11.2260828471
 20
6.042241735
 30
0.0
 10
11.2551298107
 20
6.0273498886
 30
0.0
 10
11.2847738585
 20
6.0138571464
 30
0.0
 10
11.3149436412
 20
6.0017960412
 30
0.0
 10
11.3455665274
 20
5.9911956265
 30
0.0
 10
11.3765688037
 20
5.9820814689
 30
0.0
 10
11.4078758407
 20
5.9744755732
 30
0.0
 10
11.4394122714
 20
5.9683963447
 30
0.0
 10
11.4711021606
 20
5.9638584925
 30
0.0
 10
11.5028691927
 20
5.9608729836
 30
0.0
 10
11.5346368639
 20
5.9594470762
 30
0.0
 10
11.5663286578
 20
5.9595842862
 30
0.0
 10
11.5978682265
 20
5.961284393
 30
0.0
 10
11.6291795747
 20
5.9645433767
 30
0.0
 10
11.6601872518
 20
5.9693534332
 30
0.0
 10
11.6908165268
 20
5.975703045
 30
0.0
 10
11.7209935654
 20
5.9835769913
 30
0.0
 10
11.7506456011
 20
5.992956398
 30
0.0
 10
11.7797011318
 20
6.003818713
 30
0.0
 10
11.8080900951
 20
6.0161377836
 30
0.0
 10
11.8357440211
 20
6.0298839603
 30
0.0
 10
11.8625962001
 20
6.045024152
 30
0.0
 10
11.8885818346
 20
6.0615219175
 30
0.0
 10
11.9136382386
 20
6.0793374856
 30
0.0
 10
11.9377049782
 20
6.0984278892
 30
0.0
 10
11.9607239968
 20
6.1187470969
 30
0.0
 10
11.9826397612
 20
6.1402461132
 30
0.0
 10
12.0033993835
 20
6.1628731046
 30
0.0
 10
12.0229528121
 20
6.18657347
 30
0.0
 10
12.0412529203
 20
6.2112900165
 30
0.0
 10
12.0582555991
 20
6.2369631148
 30
0.0
 10
12.0739198675
 20
6.2635308328
 30
0.0
 10
12.0882079636
 20
6.2909291029
 30
0.0
 10
12.1010854945
 20
6.3190917849
 30
0.0
 10
12.1125215234
 20
6.3479510708
 30
0.0
 10
12.1224884168
 20
6.3774368841
 30
0.0
 10
12.1295450782
 20
6.4024542695
 30
0.0
 10
12.1344345849
 20
6.4227060496
 30
0.0
 10
12.1388242852
 20
6.4431385122
 30
0.0
 10
12.1433535367
 20
6.4689396174
 30
0.0
 10
12.1472410465
 20
6.5002099515
 30
0.0
 10
12.149576069
 20
6.5317396222
 30
0.0
 10
12.1500933758
 20
6.5528480132
 30
0.0
 10
12.1500933758
 20
6.5634180932
 30
0.0
  0
SPLINE
  5
392
100
AcDbEntity
  8
0
100
AcDbSpline
 62
7
  6
CONTINUOUS
 70
0
 71
3
 72
59
 73
55
 74
0
 42
0.0000001
 43
0.0000001
 44
0.0000000001
 40
0.0
 40
0.0
 40
0.0
 40
0.0
 40
0.0026853875
 40
0.0053790891
 40
0.008089339
 40
0.0108242091
 40
0.0135915278
 40
0.0163988281
 40
0.0221599612
 40
0.0281622954
 40
0.034451753
 40
0.0410673672
 40
0.0480417309
 40
0.0554015447
 40
0.0631683895
 40
0.0713593564
 40
0.079987746
 40
0.0890635702
 40
0.0985940765
 40
0.1085841041
 40
0.1190364474
 40
0.1299521029
 40
0.1413305111
 40
0.1531697345
 40
0.1654666105
 40
0.1782168903
 40
0.1914153275
 40
0.2050557971
 40
0.2191313368
 40
0.2336342578
 40
0.2485561505
 40
0.263887994
 40
0.2796201342
 40
0.2957423961
 40
0.3122440407
 40
0.3291138806
 40
0.3463402216
 40
0.3639109818
 40
0.3818136215
 40
0.4185621798
 40
0.4564789439
 40
0.4954513254
 40
0.5353622163
 40
0.5760905802
 40
0.6175120189
 40
0.6594993243
 40
0.7019230188
 40
0.7446518888
 40
0.787553515
 40
0.8304947933
 40
0.8733424763
 40
0.9159636495
 40
0.9582263773
 40
1.0
 40
1.0
 40
1.0
 40
1.0
 10
15.0703088974
 20
6.4517307935
 30
0.0
 10
15.0713390017
 20
6.4516593602
 30
0.0
 10
15.0734070136
 20
6.4515757011
 30
0.0
 10
15.0765186678
 20
6.4516286132
 30
0.0
 10
15.0796413294
 20
6.4518598389
 30
0.0
 10
15.0827741107
 20
6.4522693023
 30
0.0
 10
15.0859164136
 20
6.4528568414
 30
0.0
 10
15.090153762
 20
6.4538860037
 30
0.0
 10
15.0954876391
 20
6.4556342261
 30
0.0
 10
15.1018544107
 20
6.4584239335
 30
0.0
 10
15.1082388932
 20
6.4619195726
 30
0.0
 10
15.1146361801
 20
6.4661167392
 30
0.0
 10
15.1210420997
 20
6.471011256
 30
0.0
 10
15.1274523227
 20
6.4765986053
 30
0.0
 10
15.1338623366
 20
6.4828741015
 30
0.0
 10
15.140267546
 20
6.4898325684
 30
0.0
 10
15.1466631262
 20
6.4974684321
 30
0.0
 10
15.1530442051
 20
6.505775544
 30
0.0
 10
15.1594057556
 20
6.5147472535
 30
0.0
 10
15.1657427399
 20
6.5243763212
 30
0.0
 10
15.1720500391
 20
6.5346549708
 30
0.0
 10
15.1783225455
 20
6.5455748525
 30
0.0
 10
15.1845551275
 20
6.5571270765
 30
0.0
 10
15.1907426738
 20
6.5693022046
 30
0.0
 10
15.1968800925
 20
6.5820902681
 30
0.0
 10
15.2029623135
 20
6.595480776
 30
0.0
 10
15.2089843199
 20
6.6094627232
 30
0.0
 10
15.2149411152
 20
6.6240246074
 30
0.0
 10
15.2208277839
 20
6.6391544318
 30
0.0
 10
15.2266394276
 20
6.6548397265
 30
0.0
 10
15.2323712533
 20
6.6710675491
 30
0.0
 10
15.2380184818
 20
6.6878245081
 30
0.0
 10
15.2435764601
 20
6.7050967631
 30
0.0
 10
15.2490405469
 20
6.7228700483
 30
0.0
 10
15.2544062454
 20
6.7411296743
 30
0.0
 10
15.2596690703
 20
6.7598605517
 30
0.0
 10
15.2648246904
 20
6.7790471893
 30
0.0
 10
15.2698688135
 20
6.7986737396
 30
0.0
 10
15.276497697
 20
6.8256420122
 30
0.0
 10
15.2844628335
 20
6.8603359448
 30
0.0
 10
15.2934310758
 20
6.9031038128
 30
0.0
 10
15.3018606366
 20
6.947219623
 30
0.0
 10
15.3097234914
 20
6.9925374243
 30
0.0
 10
15.316993488
 20
7.0389074352
 30
0.0
 10
15.3236464661
 20
7.0861763079
 30
0.0
 10
15.3296603259
 20
7.1341877103
 30
0.0
 10
15.3350151023
 20
7.1827828308
 30
0.0
 10
15.3396930299
 20
7.2318009144
 30
0.0
 10
15.3436785996
 20
7.2810797948
 30
0.0
 10
15.3469586128
 20
7.330456445
 30
0.0
 10
15.3495222187
 20
7.3797674874
 30
0.0
 10
15.3513609626
 20
7.4288498399
 30
0.0
 10
15.3524687927
 20
7.4775409489
 30
0.0
 10
15.3527193909
 20
7.5098548915
 30
0.0
 10
15.3527193909
 20
7.5259175756
 30
0.0
  0
SPLINE
  5
393
100
AcDbEntity
  8
0
100
AcDbSpline
 62
7
  6
CONTINUOUS
 70
0
 71
3
 72
72
 73
68
 74
0
 42
0.0000001
 43
0.0000001
 44
0.0000000001
 40
0.0
 40
0.0
 40
0.0
 40
0.0
 40
0.0155841391
 40
0.0311159426
 40
0.0465951818
 40
0.0620238062
 40
0.0697201947
 40
0.0774045852
 40
0.0927373969
 40
0.1080262197
 40
0.1232742503
 40
0.138485114
 40
0.1536628168
 40
0.1688117118
 40
0.1839364561
 40
0.1990419623
 40
0.2141333478
 40
0.2292158796
 40
0.2442949189
 40
0.2593758645
 40
0.2744640955
 40
0.2895649133
 40
0.3046834847
 40
0.3198247871
 40
0.3349935569
 40
0.3501942419
 40
0.3654309563
 40
0.3807074392
 40
0.3960270182
 40
0.4113925792
 40
0.4268065428
 40
0.4422708435
 40
0.4577869144
 40
0.4733556768
 40
0.488977538
 40
0.5046523931
 40
0.5203796315
 40
0.536158146
 40
0.5519863475
 40
0.5678621856
 40
0.5837831726
 40
0.5997464093
 40
0.6157486138
 40
0.6317861525
 40
0.6478550774
 40
0.6639511628
 40
0.6800699439
 40
0.6962067554
 40
0.7123567737
 40
0.7285150605
 40
0.7446766066
 40
0.7608363741
 40
0.7769893393
 40
0.793130538
 40
0.8092551091
 40
0.8253583378
 40
0.8414356957
 40
0.8574828813
 40
0.8734958611
 40
0.8894709055
 40
0.90540463
 40
0.9212940135
 40
0.93713644
 40
0.9529297866
 40
0.9686720809
 40
0.9843627385
 40
1.0
 40
1.0
 40
1.0
 40
1.0
 10
8.6843511657
 20
9.2185828406
 30
0.0
 10
8.6843511657
 20
9.2291529206
 30
0.0
 10
8.6848684725
 20
9.2502613115
 30
0.0
 10
8.6872034951
 20
9.2817909823
 30
0.0
 10
8.6910910048
 20
9.3130613163
 30
0.0
 10
8.6956202563
 20
9.3388624216
 30
0.0
 10
8.7000099566
 20
9.3592948842
 30
0.0
 10
8.7048994634
 20
9.3795466642
 30
0.0
 10
8.7119561247
 20
9.4045640497
 30
0.0
 10
8.7219230181
 20
9.434049863
 30
0.0
 10
8.733359047
 20
9.4629091489
 30
0.0
 10
8.7462365779
 20
9.4910718309
 30
0.0
 10
8.7605246741
 20
9.518470101
 30
0.0
 10
8.7761889425
 20
9.545037819
 30
0.0
 10
8.7931916212
 20
9.5707109173
 30
0.0
 10
8.8114917294
 20
9.5954274638
 30
0.0
 10
8.831045158
 20
9.6191278292
 30
0.0
 10
8.8518047803
 20
9.6417548206
 30
0.0
 10
8.8737205447
 20
9.6632538369
 30
0.0
 10
8.8967395634
 20
9.6835730446
 30
0.0
 10
8.920806303
 20
9.7026634482
 30
0.0
 10
8.9458627069
 20
9.7204790163
 30
0.0
 10
8.9718483414
 20
9.7369767817
 30
0.0
 10
8.9987005204
 20
9.7521169735
 30
0.0
 10
9.0263544464
 20
9.7658631501
 30
0.0
 10
9.0547434097
 20
9.7781822208
 30
0.0
 10
9.0837989404
 20
9.7890445358
 30
0.0
 10
9.1134509761
 20
9.7984239425
 30
0.0
 10
9.1436280147
 20
9.8062978888
 30
0.0
 10
9.1742572897
 20
9.8126475006
 30
0.0
 10
9.2052649668
 20
9.8174575571
 30
0.0
 10
9.2365763151
 20
9.8207165408
 30
0.0
 10
9.2681158837
 20
9.8224166476
 30
0.0
 10
9.2998076777
 20
9.8225538575
 30
0.0
 10
9.3315753488
 20
9.8211279502
 30
0.0
 10
9.3633423809
 20
9.8181424413
 30
0.0
 10
9.3950322701
 20
9.8136045891
 30
0.0
 10
9.4265687009
 20
9.8075253606
 30
0.0
 10
9.4578757378
 20
9.7999194649
 30
0.0
 10
9.4888780141
 20
9.7908053073
 30
0.0
 10
9.5195009003
 20
9.7802048925
 30
0.0
 10
9.549670683
 20
9.7681437874
 30
0.0
 10
9.5793147308
 20
9.7546510451
 30
0.0
 10
9.6083616944
 20
9.7397591988
 30
0.0
 10
9.6367416758
 20
9.7235041578
 30
0.0
 10
9.6643863747
 20
9.705925084
 30
0.0
 10
9.6912292559
 20
9.6870643109
 30
0.0
 10
9.7172056956
 20
9.6669672323
 30
0.0
 10
9.7422531804
 20
9.6456822519
 30
0.0
 10
9.7663114408
 20
9.6232606336
 30
0.0
 10
9.789322573
 20
9.5997563539
 30
0.0
 10
9.8112311817
 20
9.5752259834
 30
0.0
 10
9.8319845003
 20
9.5497285457
 30
0.0
 10
9.8515325774
 20
9.5233254246
 30
0.0
 10
9.8698283633
 20
9.4960801801
 30
0.0
 10
9.8868278014
 20
9.4680583843
 30
0.0
 10
9.9024899389
 20
9.4393274723
 30
0.0
 10
9.916777014
 20
9.4099565788
 30
0.0
 10
9.9296546174
 20
9.3800164075
 30
0.0
 10
9.94109173
 20
9.3495790282
 30
0.0
 10
9.9510607684
 20
9.318717701
 30
0.0
 10
9.9595376688
 20
9.2875067195
 30
0.0
 10
9.9665019625
 20
9.2560211628
 30
0.0
 10
9.9719367352
 20
9.2243370302
 30
0.0
 10
9.9758291077
 20
9.1925300462
 30
0.0
 10
9.9781692452
 20
9.1606781685
 30
0.0
 10
9.9786918496
 20
9.13942612
 30
0.0
 10
9.9786918496
 20
9.1288200093
 30
0.0
  0
SPLINE
  5
394
100
AcDbEntity
  8
0
100
AcDbSpline
 62
7
  6
CONTINUOUS
 70
0
 71
3
 72
43
 73
39
 74
0
 42
0.0000001
 43
0.0000001
 44
0.0000000001
 40
0.0
 40
0.0
 40
0.0
 40
0.0
 40
0.0308445992
 40
0.0618221191
 40
0.0929292953
 40
0.1241611314
 40
0.1555105885
 40
0.1869689292
 40
0.2185257774
 40
0.2501693184
 40
0.2818864723
 40
0.3136630958
 40
0.3454841909
 40
0.3773341237
 40
0.4091968492
 40
0.4410561404
 40
0.4728958191
 40
0.5046999865
 40
0.5364532502
 40
0.5681409474
 40
0.5997493598
 40
0.6312659183
 40
0.6626793965
 40
0.6939800878
 40
0.7251599656
 40
0.7562128227
 40
0.7871343874
 40
0.8179224129
 40
0.8332681295
 40
0.8485805753
 40
0.8638600679
 40
0.8791070437
 40
0.9095019497
 40
0.9397753208
 40
0.954870909
 40
0.9699393244
 40
0.9849818832
 40
1.0
 40
1.0
 40
1.0
 40
1.0
 10
9.0573721987
 20
9.5088935115
 30
0.0
 10
9.0573721987
 20
9.496743079
 30
0.0
 10
9.0581385338
 20
9.4723831253
 30
0.0
 10
9.0615649263
 20
9.4359143863
 30
0.0
 10
9.0672570249
 20
9.3995743898
 30
0.0
 10
9.0751921759
 20
9.3635080782
 30
0.0
 10
9.0853389998
 20
9.3278568195
 30
0.0
 10
9.0976573829
 20
9.2927610087
 30
0.0
 10
9.1120987215
 20
9.2583586487
 30
0.0
 10
9.1286060715
 20
9.2247850511
 30
0.0
 10
9.1471143924
 20
9.1921722458
 30
0.0
 10
9.1675507951
 20
9.1606484826
 30
0.0
 10
9.1898348306
 20
9.1303377276
 30
0.0
 10
9.213878804
 20
9.1013591808
 30
0.0
 10
9.239588118
 20
9.0738268106
 30
0.0
 10
9.266861642
 20
9.0478489097
 30
0.0
 10
9.2955921078
 20
9.0235276715
 30
0.0
 10
9.3256665278
 20
9.0009587915
 30
0.0
 10
9.3569666359
 20
8.9802310929
 30
0.0
 10
9.3893693492
 20
8.9614261793
 30
0.0
 10
9.4227472466
 20
8.9446181147
 30
0.0
 10
9.4569690681
 20
8.9298731335
 30
0.0
 10
9.4919002172
 20
8.9172493793
 30
0.0
 10
9.527403316
 20
8.9067966772
 30
0.0
 10
9.5633386266
 20
8.8985563305
 30
0.0
 10
9.5995650154
 20
8.8925609745
 30
0.0
 10
9.6359389442
 20
8.8888343737
 30
0.0
 10
9.6662907957
 20
8.8876307171
 30
0.0
 10
9.6904985468
 20
8.8878161567
 30
0.0
 10
9.7085836592
 20
8.8885272736
 30
0.0
 10
9.726598277
 20
8.8898097466
 30
0.0
 10
9.7504729142
 20
8.8922772033
 30
0.0
 10
9.7800591772
 20
8.8967789269
 30
0.0
 10
9.8092350269
 20
8.9031698142
 30
0.0
 10
9.8322180454
 20
8.9093953621
 30
0.0
 10
9.8492484477
 20
8.9146115306
 30
0.0
 10
9.8660694439
 20
8.9203733188
 30
0.0
 10
9.8771421255
 20
8.9245780958
 30
0.0
 10
9.8826373266
 20
8.9267693983
 30
0.0
  0
SPLINE
  5
395
100
AcDbEntity
  8
0
100
AcDbSpline
 62
7
  6
CONTINUOUS
 70
0
 71
3
 72
51
 73
47
 74
0
 42
0.0000001
 43
0.0000001
 44
0.0000000001
 40
0.0
 40
0.0
 40
0.0
 40
0.0
 40
0.0310732448
 40
0.0623036911
 40
0.0936867976
 40
0.1252138182
 40
0.1568734337
 40
0.1886514443
 40
0.2205312484
 40
0.2524941714
 40
0.2845198644
 40
0.3165867233
 40
0.348672324
 40
0.38075387
 40
0.4128086448
 40
0.4448144642
 40
0.4767501205
 40
0.5085958138
 40
0.5403335613
 40
0.5719475804
 40
0.6034246372
 40
0.6347543529
 40
0.6503641691
 40
0.6659346996
 40
0.6814655594
 40
0.6969565712
 40
0.7124077866
 40
0.7278194673
 40
0.7431921027
 40
0.7585263985
 40
0.7738232751
 40
0.7890838728
 40
0.804309531
 40
0.8195018007
 40
0.8346624197
 40
0.8497933151
 40
0.8648965903
 40
0.8799745073
 40
0.8950294868
 40
0.9100640796
 40
0.9250809644
 40
0.9400829251
 40
0.9550728345
 40
0.9700536429
 40
0.9850283506
 40
1.0
 40
1.0
 40
1.0
 40
1.0
 10
10.9414848219
 20
6.665991808
 30
0.0
 10
10.9414848219
 20
6.6516291563
 30
0.0
 10
10.9425562403
 20
6.6228201388
 30
0.0
 10
10.9473399132
 20
6.5797445197
 30
0.0
 10
10.9552771858
 20
6.536921842
 30
0.0
 10
10.9663242158
 20
6.4945902861
 30
0.0
 10
10.9804198093
 20
6.4529815126
 30
0.0
 10
10.9974862781
 20
6.412324105
 30
0.0
 10
11.0174296324
 20
6.3728411354
 30
0.0
 10
11.0401401586
 20
6.3347492718
 30
0.0
 10
11.0654930065
 20
6.2982575116
 30
0.0
 10
11.0933488952
 20
6.2635660855
 30
0.0
 10
11.1235548652
 20
6.2308653634
 30
0.0
 10
11.1559451111
 20
6.2003348247
 30
0.0
 10
11.1903418818
 20
6.1721420865
 30
0.0
 10
11.22655644
 20
6.1464419833
 30
0.0
 10
11.2643900635
 20
6.1233757051
 30
0.0
 10
11.3036351943
 20
6.1030700506
 30
0.0
 10
11.3440763771
 20
6.0856367527
 30
0.0
 10
11.3854920971
 20
6.0711717884
 30
0.0
 10
11.4276534829
 20
6.0597551446
 30
0.0
 10
11.4632659054
 20
6.0528248997
 30
0.0
 10
11.4918920943
 20
6.0488658671
 30
0.0
 10
11.513378419
 20
6.0466931107
 30
0.0
 10
11.5348751458
 20
6.0453167579
 30
0.0
 10
11.5563530756
 20
6.0447387632
 30
0.0
 10
11.5777825738
 20
6.0449597506
 30
0.0
 10
11.5991341937
 20
6.0459796749
 30
0.0
 10
11.6203785702
 20
6.0477969272
 30
0.0
 10
11.6414864778
 20
6.0504091721
 30
0.0
 10
11.6624288807
 20
6.0538127973
 30
0.0
 10
11.6831769882
 20
6.0580030568
 30
0.0
 10
11.7037022174
 20
6.0629743848
 30
0.0
 10
11.7239763865
 20
6.0687197231
 30
0.0
 10
11.7439715366
 20
6.0752314172
 30
0.0
 10
11.7636602073
 20
6.0825003464
 30
0.0
 10
11.7830152825
 20
6.0905166018
 30
0.0
 10
11.8020101066
 20
6.0992692016
 30
0.0
 10
11.8206186056
 20
6.1087459776
 30
0.0
 10
11.8388150629
 20
6.1189341064
 30
0.0
 10
11.8565745556
 20
6.1298193538
 30
0.0
 10
11.8738725379
 20
6.1413869384
 30
0.0
 10
11.8906852442
 20
6.1536208193
 30
0.0
 10
11.9069896189
 20
6.1665042538
 30
0.0
 10
11.9227628347
 20
6.1800193047
 30
0.0
 10
11.9329109469
 20
6.189438973
 30
0.0
 10
11.9378883191
 20
6.1942467499
 30
0.0
  0
SPLINE
  5
396
100
AcDbEntity
  8
0
100
AcDbSpline
 62
7
  6
CONTINUOUS
 70
0
 71
3
 72
24
 73
20
 74
0
 42
0.0000001
 43
0.0000001
 44
0.0000000001
 40
0.0
 40
0.0
 40
0.0
 40
0.0
 40
0.0637764408
 40
0.1273443672
 40
0.1907010024
 40
0.2538548258
 40
0.3168116123
 40
0.3795801652
 40
0.4421711518
 40
0.5045967904
 40
0.5668710032
 40
0.6290092014
 40
0.6910281576
 40
0.7220010174
 40
0.7529508941
 40
0.8147862914
 40
0.8765592262
 40
0.9382901647
 40
1.0
 40
1.0
 40
1.0
 40
1.0
 10
8.7700832958
 20
9.2313937241
 30
0.0
 10
8.7700832958
 20
9.2406509281
 30
0.0
 10
8.7705264093
 20
9.2591382062
 30
0.0
 10
8.7725262592
 20
9.286756636
 30
0.0
 10
8.775856091
 20
9.3141561738
 30
0.0
 10
8.780507883
 20
9.3412724141
 30
0.0
 10
8.7864712763
 20
9.3680434128
 30
0.0
 10
8.7937324593
 20
9.3944072816
 30
0.0
 10
8.8022747314
 20
9.4203032894
 30
0.0
 10
8.8120784816
 20
9.4456716875
 30
0.0
 10
8.8231212608
 20
9.4704540443
 30
0.0
 10
8.8353773687
 20
9.4945928424
 30
0.0
 10
8.8465839723
 20
9.5141355113
 30
0.0
 10
8.8561250655
 20
9.5293892701
 30
0.0
 10
8.8660379143
 20
9.5443721581
 30
0.0
 10
8.8791315688
 20
9.5626020545
 30
0.0
 10
8.895932597
 20
9.5836277818
 30
0.0
 10
8.9137790024
 20
9.603748946
 30
0.0
 10
8.9263483297
 20
9.6165311459
 30
0.0
 10
8.9327908588
 20
9.6227541571
 30
0.0
  0
SPLINE
  5
397
100
AcDbEntity
  8
0
100
AcDbSpline
 62
7
  6
CONTINUOUS
 70
0
 71
3
 72
67
 73
63
 74
0
 42
0.0000001
 43
0.0000001
 44
0.0000000001
 40
0.0
 40
0.0
 40
0.0
 40
0.0
 40
0.0149704495
 40
0.0299439584
 40
0.0449235667
 40
0.0599122761
 40
0.0749130354
 40
0.0899287185
 40
0.104962108
 40
0.1200158816
 40
0.1350925936
 40
0.1501946589
 40
0.165324344
 40
0.1804837509
 40
0.1956748038
 40
0.210899245
 40
0.2261586212
 40
0.2414542746
 40
0.2567873431
 40
0.2721587494
 40
0.2875691973
 40
0.3030191754
 40
0.3185089499
 40
0.3340385651
 40
0.3496078509
 40
0.3652164184
 40
0.3808636654
 40
0.3965487858
 40
0.4122707693
 40
0.4280284097
 40
0.4438203172
 40
0.4596449198
 40
0.4755004765
 40
0.4913850891
 40
0.5072967076
 40
0.523233145
 40
0.5391920903
 40
0.5551711158
 40
0.5711676941
 40
0.587179211
 40
0.6192314178
 40
0.6513103937
 40
0.683393424
 40
0.7154577138
 40
0.7314782096
 40
0.7474856706
 40
0.7634774284
 40
0.7794508909
 40
0.795403558
 40
0.8113330367
 40
0.8272370483
 40
0.843113445
 40
0.8589602211
 40
0.87477552
 40
0.8905576533
 40
0.9063050946
 40
0.9220165017
 40
0.9376907777
 40
0.9533268609
 40
0.968923964
 40
0.984482276
 40
1.0
 40
1.0
 40
1.0
 40
1.0
 10
9.97496484
 20
8.4744081236
 30
0.0
 10
9.9670839957
 20
8.4667958317
 30
0.0
 10
9.9510161603
 20
8.4518813786
 30
0.0
 10
9.9260418491
 20
8.4304826586
 30
0.0
 10
9.900226569
 20
8.410083965
 30
0.0
 10
9.8736064302
 20
8.3907137348
 30
0.0
 10
9.8462179334
 20
8.3723984873
 30
0.0
 10
9.8180987468
 20
8.3551635519
 30
0.0
 10
9.7892876296
 20
8.3390325208
 30
0.0
 10
9.7598242274
 20
8.3240275845
 30
0.0
 10
9.7297490413
 20
8.3101694747
 30
0.0
 10
9.6991035172
 20
8.2974771266
 30
0.0
 10
9.6679298139
 20
8.2859680008
 30
0.0
 10
9.6362707967
 20
8.2756580084
 30
0.0
 10
9.60417007
 20
8.2665611871
 30
0.0
 10
9.5716717866
 20
8.2586900578
 30
0.0
 10
9.5388206403
 20
8.2520555135
 30
0.0
 10
9.5056618517
 20
8.2466665262
 30
0.0
 10
9.4722410221
 20
8.2425305255
 30
0.0
 10
9.4386041168
 20
8.239653253
 30
0.0
 10
9.4047974124
 20
8.2380385098
 30
0.0
 10
9.3708673964
 20
8.2376885451
 30
0.0
 10
9.3368607344
 20
8.2386038808
 30
0.0
 10
9.3028241871
 20
8.2407831047
 30
0.0
 10
9.2688045566
 20
8.2442232608
 30
0.0
 10
9.2348486293
 20
8.2489196468
 30
0.0
 10
9.2010030741
 20
8.2548656592
 30
0.0
 10
9.1673144325
 20
8.2620531746
 30
0.0
 10
9.1338290317
 20
8.2704723273
 30
0.0
 10
9.1005928748
 20
8.280111407
 30
0.0
 10
9.067651671
 20
8.2909572242
 30
0.0
 10
9.0350507144
 20
8.3029948733
 30
0.0
 10
9.0028347774
 20
8.3162076841
 30
0.0
 10
8.9710481754
 20
8.3305775634
 30
0.0
 10
8.9397346067
 20
8.3460847536
 30
0.0
 10
8.9089370713
 20
8.3627078244
 30
0.0
 10
8.8786979153
 20
8.3804240278
 30
0.0
 10
8.8490588159
 20
8.3992089014
 30
0.0
 10
8.8200600401
 20
8.4190368886
 30
0.0
 10
8.7822935605
 20
8.446834754
 30
0.0
 10
8.7368881384
 20
8.4840501741
 30
0.0
 10
8.6856046065
 20
8.5323896952
 30
0.0
 10
8.6377790379
 20
8.5841648723
 30
0.0
 10
8.6010105707
 20
8.6299564724
 30
0.0
 10
8.5735781219
 20
8.6680180124
 30
0.0
 10
8.5540265809
 20
8.6972325794
 30
0.0
 10
8.5355215087
 20
8.7270799964
 30
0.0
 10
8.5180881043
 20
8.7575197242
 30
0.0
 10
8.5017503778
 20
8.788509774
 30
0.0
 10
8.4865307255
 20
8.8200075601
 30
0.0
 10
8.4724502004
 20
8.8519698346
 30
0.0
 10
8.4595280991
 20
8.884352631
 30
0.0
 10
8.4477821604
 20
8.9171114255
 30
0.0
 10
8.4372286649
 20
8.9502012321
 30
0.0
 10
8.4278820589
 20
8.9835765319
 30
0.0
 10
8.4197551757
 20
9.0171914364
 30
0.0
 10
8.4128593143
 20
9.0509997885
 30
0.0
 10
8.4072039337
 20
9.0849550628
 30
0.0
 10
8.4027967595
 20
9.1190104522
 30
0.0
 10
8.3996439166
 20
9.1531197393
 30
0.0
 10
8.3977499619
 20
9.1872348398
 30
0.0
 10
8.3973275127
 20
9.2099817646
 30
0.0
 10
8.3973275127
 20
9.221339265
 30
0.0
  0
SPLINE
  5
398
100
AcDbEntity
  8
0
100
AcDbSpline
 62
7
  6
CONTINUOUS
 70
0
 71
3
 72
28
 73
24
 74
0
 42
0.0000001
 43
0.0000001
 44
0.0000000001
 40
0.0
 40
0.0
 40
0.0
 40
0.0
 40
0.0637759834
 40
0.0955879084
 40
0.127346187
 40
0.1907019989
 40
0.253854554
 40
0.2853588054
 40
0.3168148493
 40
0.3795822195
 40
0.4421719639
 40
0.5045963767
 40
0.5668693671
 40
0.6290063464
 40
0.6600315365
 40
0.6910291143
 40
0.7220013668
 40
0.7529506339
 40
0.8147848181
 40
0.8765565455
 40
0.9074279098
 40
0.938291375
 40
1.0
 40
1.0
 40
1.0
 40
1.0
 10
11.2951051633
 20
9.0203777024
 30
0.0
 10
11.2951051633
 20
9.0350351698
 30
0.0
 10
11.2956318439
 20
9.0570087743
 30
0.0
 10
11.297393866
 20
9.0862253799
 30
0.0
 10
11.2998554664
 20
9.1152950243
 30
0.0
 10
11.304245387
 20
9.1514185277
 30
0.0
 10
11.3103884433
 20
9.1872266002
 30
0.0
 10
11.3163427282
 20
9.215595249
 30
0.0
 10
11.3229758752
 20
9.2437218567
 30
0.0
 10
11.3325499243
 20
9.2784836152
 30
0.0
 10
11.3460751964
 20
9.319485302
 30
0.0
 10
11.3615980369
 20
9.3596522574
 30
0.0
 10
11.3790822113
 20
9.3988905806
 30
0.0
 10
11.3952626804
 20
9.4307581255
 30
0.0
 10
11.4091436045
 20
9.4556926093
 30
0.0
 10
11.4200128659
 20
9.4740979979
 30
0.0
 10
11.4313387786
 20
9.4922053758
 30
0.0
 10
11.4470342846
 20
9.5159281737
 30
0.0
 10
11.4677657706
 20
9.5447920983
 30
0.0
 10
11.4899390358
 20
9.5725407861
 30
0.0
 10
11.5085019058
 20
9.5940187173
 30
0.0
 10
11.5276003127
 20
9.6150013844
 30
0.0
 10
11.5425262949
 20
9.6301800735
 30
0.0
 10
11.5527270146
 20
9.6400331874
 30
0.0
  0
SPLINE
  5
399
100
AcDbEntity
  8
0
100
AcDbSpline
 62
7
  6
CONTINUOUS
 70
0
 71
3
 72
23
 73
19
 74
0
 42
0.0000001
 43
0.0000001
 44
0.0000000001
 40
0.0
 40
0.0
 40
0.0
 40
0.0
 40
0.052790178
 40
0.1058485708
 40
0.159439106
 40
0.2138170689
 40
0.2692259757
 40
0.3258947937
 40
0.3840355776
 40
0.4438431412
 40
0.505494423
 40
0.5691480749
 40
0.6349461492
 40
0.7030145764
 40
0.7734635595
 40
0.8463900174
 40
0.9218781797
 40
1.0
 40
1.0
 40
1.0
 40
1.0
 10
14.9319343075
 20
9.9070996181
 30
0.0
 10
14.9334685029
 20
9.906993225
 30
0.0
 10
14.9365379965
 20
9.9066660457
 30
0.0
 10
14.9411118006
 20
9.9058349352
 30
0.0
 10
14.9456583738
 20
9.9046633787
 30
0.0
 10
14.9501756153
 20
9.9031521734
 30
0.0
 10
14.9546619063
 20
9.9013020663
 30
0.0
 10
14.9591155898
 20
9.8991139404
 30
0.0
 10
14.9635352143
 20
9.8965889311
 30
0.0
 10
14.9679193205
 20
9.8937280928
 30
0.0
 10
14.9722664914
 20
9.8905325612
 30
0.0
 10
14.9765754444
 20
9.8870036626
 30
0.0
 10
14.9808448249
 20
9.8831426592
 30
0.0
 10
14.9850732863
 20
9.8789509031
 30
0.0
 10
14.989259585
 20
9.8744299305
 30
0.0
 10
14.9934023915
 20
9.8695812353
 30
0.0
 10
14.9975003158
 20
9.864406515
 30
0.0
 10
15.000155413
 20
9.8608031096
 30
0.0
 10
15.0014760057
 20
9.8589496043
 30
0.0
  0
SPLINE
  5
39A
100
AcDbEntity
  8
0
100
AcDbSpline
 62
7
  6
CONTINUOUS
 70
0
 71
3
 72
43
 73
39
 74
0
 42
0.0000001
 43
0.0000001
 44
0.0000000001
 40
0.0
 40
0.0
 40
0.0
 40
0.0
 40
0.0308445992
 40
0.0618221191
 40
0.0929292953
 40
0.1241611314
 40
0.1555105885
 40
0.1869689292
 40
0.2185257774
 40
0.2501693184
 40
0.2818864723
 40
0.3136630958
 40
0.3454841909
 40
0.3773341237
 40
0.4091968492
 40
0.4410561404
 40
0.4728958191
 40
0.5046999865
 40
0.5364532502
 40
0.5681409474
 40
0.5997493598
 40
0.6312659183
 40
0.6626793965
 40
0.6939800878
 40
0.7251599656
 40
0.7562128227
 40
0.7871343874
 40
0.8179224129
 40
0.8332681295
 40
0.8485805753
 40
0.8638600679
 40
0.8791070437
 40
0.9095019497
 40
0.9397753208
 40
0.954870909
 40
0.9699393244
 40
0.9849818832
 40
1.0
 40
1.0
 40
1.0
 40
1.0
 10
11.2287737249
 20
6.9434915954
 30
0.0
 10
11.2287737249
 20
6.9313411629
 30
0.0
 10
11.22954006
 20
6.9069812092
 30
0.0
 10
11.2329664525
 20
6.8705124702
 30
0.0
 10
11.2386585511
 20
6.8341724737
 30
0.0
 10
11.2465937021
 20
6.7981061621
 30
0.0
 10
11.256740526
 20
6.7624549034
 30
0.0
 10
11.2690589091
 20
6.7273590926
 30
0.0
 10
11.2835002477
 20
6.6929567325
 30
0.0
 10
11.3000075977
 20
6.659383135
 30
0.0
 10
11.3185159186
 20
6.6267703297
 30
0.0
 10
11.3389523213
 20
6.5952465665
 30
0.0
 10
11.3612363568
 20
6.5649358115
 30
0.0
 10
11.3852803302
 20
6.5359572647
 30
0.0
 10
11.4109896441
 20
6.5084248945
 30
0.0
 10
11.4382631682
 20
6.4824469936
 30
0.0
 10
11.466993634
 20
6.4581257554
 30
0.0
 10
11.4970680539
 20
6.4355568754
 30
0.0
 10
11.5283681621
 20
6.4148291768
 30
0.0
 10
11.5607708753
 20
6.3960242632
 30
0.0
 10
11.5941487728
 20
6.3792161985
 30
0.0
 10
11.6283705942
 20
6.3644712173
 30
0.0
 10
11.6633017433
 20
6.3518474632
 30
0.0
 10
11.6988048422
 20
6.3413947611
 30
0.0
 10
11.7347401528
 20
6.3331544143
 30
0.0
 10
11.7709665415
 20
6.3271590584
 30
0.0
 10
11.8073404704
 20
6.3234324576
 30
0.0
 10
11.8376923219
 20
6.322228801
 30
0.0
 10
11.861900073
 20
6.3224142406
 30
0.0
 10
11.8799851854
 20
6.3231253574
 30
0.0
 10
11.8979998032
 20
6.3244078305
 30
0.0
 10
11.9218744404
 20
6.3268752872
 30
0.0
 10
11.9514607034
 20
6.3313770108
 30
0.0
 10
11.9806365531
 20
6.3377678981
 30
0.0
 10
12.0036195715
 20
6.343993446
 30
0.0
 10
12.0206499739
 20
6.3492096145
 30
0.0
 10
12.0374709701
 20
6.3549714027
 30
0.0
 10
12.0485436516
 20
6.3591761797
 30
0.0
 10
12.0540388528
 20
6.3613674822
 30
0.0
  0
SPLINE
  5
39B
100
AcDbEntity
  8
0
100
AcDbSpline
 62
7
  6
CONTINUOUS
 70
0
 71
3
 72
43
 73
39
 74
0
 42
0.0000001
 43
0.0000001
 44
0.0000000001
 40
0.0
 40
0.0
 40
0.0
 40
0.0
 40
0.0308445992
 40
0.0618221191
 40
0.0929292953
 40
0.1241611314
 40
0.1555105885
 40
0.1869689292
 40
0.2185257774
 40
0.2501693184
 40
0.2818864723
 40
0.3136630958
 40
0.3454841909
 40
0.3773341237
 40
0.4091968492
 40
0.4410561404
 40
0.4728958191
 40
0.5046999865
 40
0.5364532502
 40
0.5681409474
 40
0.5997493598
 40
0.6312659183
 40
0.6626793965
 40
0.6939800878
 40
0.7251599656
 40
0.7562128227
 40
0.7871343874
 40
0.8179224129
 40
0.8332681295
 40
0.8485805753
 40
0.8638600679
 40
0.8791070437
 40
0.9095019497
 40
0.9397753208
 40
0.954870909
 40
0.9699393244
 40
0.9849818832
 40
1.0
 40
1.0
 40
1.0
 40
1.0
 10
8.3309960743
 20
7.144453158
 30
0.0
 10
8.3309960743
 20
7.1323027255
 30
0.0
 10
8.3317624094
 20
7.1079427718
 30
0.0
 10
8.3351888019
 20
7.0714740328
 30
0.0
 10
8.3408809005
 20
7.0351340363
 30
0.0
 10
8.3488160515
 20
6.9990677247
 30
0.0
 10
8.3589628754
 20
6.963416466
 30
0.0
 10
8.3712812585
 20
6.9283206552
 30
0.0
 10
8.3857225971
 20
6.8939182952
 30
0.0
 10
8.4022299471
 20
6.8603446977
 30
0.0
 10
8.420738268
 20
6.8277318923
 30
0.0
 10
8.4411746707
 20
6.7962081291
 30
0.0
 10
8.4634587062
 20
6.7658973741
 30
0.0
 10
8.4875026796
 20
6.7369188273
 30
0.0
 10
8.5132119936
 20
6.7093864572
 30
0.0
 10
8.5404855176
 20
6.6834085562
 30
0.0
 10
8.5692159834
 20
6.659087318
 30
0.0
 10
8.5992904034
 20
6.636518438
 30
0.0
 10
8.6305905115
 20
6.6157907395
 30
0.0
 10
8.6629932248
 20
6.5969858258
 30
0.0
 10
8.6963711222
 20
6.5801777612
 30
0.0
 10
8.7305929437
 20
6.56543278
 30
0.0
 10
8.7655240928
 20
6.5528090259
 30
0.0
 10
8.8010271916
 20
6.5423563238
 30
0.0
 10
8.8369625022
 20
6.534115977
 30
0.0
 10
8.873188891
 20
6.528120621
 30
0.0
 10
8.9095628198
 20
6.5243940202
 30
0.0
 10
8.9399146713
 20
6.5231903636
 30
0.0
 10
8.9641224224
 20
6.5233758032
 30
0.0
 10
8.9822075348
 20
6.5240869201
 30
0.0
 10
9.0002221526
 20
6.5253693931
 30
0.0
 10
9.0240967898
 20
6.5278368498
 30
0.0
 10
9.0536830528
 20
6.5323385734
 30
0.0
 10
9.0828589025
 20
6.5387294607
 30
0.0
 10
9.105841921
 20
6.5449550086
 30
0.0
 10
9.1228723233
 20
6.5501711772
 30
0.0
 10
9.1396933195
 20
6.5559329654
 30
0.0
 10
9.1507660011
 20
6.5601377423
 30
0.0
 10
9.1562612022
 20
6.5623290448
 30
0.0
  0
SPLINE
  5
39C
100
AcDbEntity
  8
0
100
AcDbSpline
 62
7
  6
CONTINUOUS
 70
0
 71
3
 72
28
 73
24
 74
0
 42
0.0000001
 43
0.0000001
 44
0.0000000001
 40
0.0
 40
0.0
 40
0.0
 40
0.0
 40
0.0637759834
 40
0.0955879084
 40
0.127346187
 40
0.1907019989
 40
0.253854554
 40
0.2853588054
 40
0.3168148493
 40
0.3795822195
 40
0.4421719639
 40
0.5045963767
 40
0.5668693671
 40
0.6290063464
 40
0.6600315365
 40
0.6910291143
 40
0.7220013668
 40
0.7529506339
 40
0.8147848181
 40
0.8765565455
 40
0.9074279098
 40
0.938291375
 40
1.0
 40
1.0
 40
1.0
 40
1.0
 10
8.3973275127
 20
9.221339265
 30
0.0
 10
8.3973275127
 20
9.2359967324
 30
0.0
 10
8.3978541934
 20
9.2579703369
 30
0.0
 10
8.3996162154
 20
9.2871869425
 30
0.0
 10
8.4020778158
 20
9.316256587
 30
0.0
 10
8.4064677364
 20
9.3523800903
 30
0.0
 10
8.4126107927
 20
9.3881881628
 30
0.0
 10
8.4185650776
 20
9.4165568116
 30
0.0
 10
8.4251982247
 20
9.4446834194
 30
0.0
 10
8.4347722737
 20
9.4794451778
 30
0.0
 10
8.4482975459
 20
9.5204468646
 30
0.0
 10
8.4638203863
 20
9.5606138201
 30
0.0
 10
8.4813045607
 20
9.5998521433
 30
0.0
 10
8.4974850298
 20
9.6317196882
 30
0.0
 10
8.5113659539
 20
9.6566541719
 30
0.0
 10
8.5222352153
 20
9.6750595605
 30
0.0
 10
8.533561128
 20
9.6931669384
 30
0.0
 10
8.549256634
 20
9.7168897363
 30
0.0
 10
8.5699881201
 20
9.7457536609
 30
0.0
 10
8.5921613853
 20
9.7735023488
 30
0.0
 10
8.6107242552
 20
9.7949802799
 30
0.0
 10
8.6298226621
 20
9.815962947
 30
0.0
 10
8.6447486443
 20
9.8311416361
 30
0.0
 10
8.6549493641
 20
9.84099475
 30
0.0
  0
SPLINE
  5
39D
100
AcDbEntity
  8
0
100
AcDbSpline
 62
7
  6
CONTINUOUS
 70
0
 71
3
 72
43
 73
39
 74
0
 42
0.0000001
 43
0.0000001
 44
0.0000000001
 40
0.0
 40
0.0
 40
0.0
 40
0.0
 40
0.0149934808
 40
0.0300090612
 40
0.0450484599
 40
0.0601132789
 40
0.0903207592
 40
0.1206462943
 40
0.1358581335
 40
0.1511024454
 40
0.1663799374
 40
0.1816911651
 40
0.2124122855
 40
0.2432715099
 40
0.2742681061
 40
0.3053990702
 40
0.3366592058
 40
0.3680412342
 40
0.3995359353
 40
0.4311323138
 40
0.4628177885
 40
0.4945784003
 40
0.526399037
 40
0.5582636712
 40
0.5901556072
 40
0.6220577363
 40
0.653952796
 40
0.6858236303
 40
0.7176534497
 40
0.7494260872
 40
0.7811262465
 40
0.8127397431
 40
0.8442537286
 40
0.8756569109
 40
0.9069397189
 40
0.9380945583
 40
0.96911573
 40
1.0
 40
1.0
 40
1.0
 40
1.0
 10
9.9024761187
 20
8.9795571753
 30
0.0
 10
9.8973343998
 20
8.9771102364
 30
0.0
 10
9.8869586587
 20
8.9723885458
 30
0.0
 10
9.8711511006
 20
8.9658361619
 30
0.0
 10
9.8551041157
 20
8.9598155678
 30
0.0
 10
9.8333946551
 20
8.9524996031
 30
0.0
 10
9.8057350464
 20
8.9447157471
 30
0.0
 10
9.7775616973
 20
8.9387920352
 30
0.0
 10
9.7547597057
 20
8.9351729809
 30
0.0
 10
9.7375215641
 20
8.9330193543
 30
0.0
 10
9.7201842098
 20
8.9314319094
 30
0.0
 10
9.6969361119
 20
8.9300708072
 30
0.0
 10
9.6677127087
 20
8.9297962652
 30
0.0
 10
9.6325837304
 20
8.9317445267
 30
0.0
 10
9.5974971577
 20
8.9359614421
 30
0.0
 10
9.5626006612
 20
8.942429219
 30
0.0
 10
9.5280398081
 20
8.9511205792
 30
0.0
 10
9.4939590722
 20
8.9619990011
 30
0.0
 10
9.4605008016
 20
8.9750188438
 30
0.0
 10
9.4278047485
 20
8.990125549
 30
0.0
 10
9.3960074592
 20
9.0072558684
 30
0.0
 10
9.3652417191
 20
9.0263381285
 30
0.0
 10
9.335636001
 20
9.0472925301
 30
0.0
 10
9.3073139343
 20
9.0700314796
 30
0.0
 10
9.2803937939
 20
9.0944599537
 30
0.0
 10
9.2549880095
 20
9.1204758933
 30
0.0
 10
9.2312027009
 20
9.1479706272
 30
0.0
 10
9.2091372375
 20
9.1768293222
 30
0.0
 10
9.1888838263
 20
9.206931459
 30
0.0
 10
9.1705271296
 20
9.2381513319
 30
0.0
 10
9.154143912
 20
9.270358567
 30
0.0
 10
9.1398027239
 20
9.3034186669
 30
0.0
 10
9.1275636081
 20
9.3371935502
 30
0.0
 10
9.1174778666
 20
9.3715421807
 30
0.0
 10
9.1095878037
 20
9.4063209369
 30
0.0
 10
9.1039266309
 20
9.4413850049
 30
0.0
 10
9.1005181777
 20
9.4765859293
 30
0.0
 10
9.0997556889
 20
9.5001034862
 30
0.0
 10
9.0997556889
 20
9.5118328217
 30
0.0
  0
SPLINE
  5
39E
100
AcDbEntity
  8
0
100
AcDbSpline
 62
7
  6
CONTINUOUS
 70
0
 71
3
 72
23
 73
19
 74
0
 42
0.0000001
 43
0.0000001
 44
0.0000000001
 40
0.0
 40
0.0
 40
0.0
 40
0.0
 40
0.0781691239
 40
0.1536976975
 40
0.2266579234
 40
0.2971334203
 40
0.3652213516
 40
0.4310322547
 40
0.4946916894
 40
0.5563421329
 40
0.6161427433
 40
0.6742704686
 40
0.730920822
 40
0.7863066268
 40
0.8406573579
 40
0.8942175326
 40
0.9472434512
 40
1.0
 40
1.0
 40
1.0
 40
1.0
 10
14.8692685764
 20
7.9501721119
 30
0.0
 10
14.8677011832
 20
7.9485107678
 30
0.0
 10
14.8645669034
 20
7.9452930984
 30
0.0
 10
14.8597826895
 20
7.9407116106
 30
0.0
 10
14.8549990159
 20
7.936460674
 30
0.0
 10
14.8502174307
 20
7.9325418726
 30
0.0
 10
14.8454394978
 20
7.9289564879
 30
0.0
 10
14.8406667115
 20
7.9257058179
 30
0.0
 10
14.8359005329
 20
7.9227911261
 30
0.0
 10
14.8311425197
 20
7.9202134496
 30
0.0
 10
14.8263941654
 20
7.9179738614
 30
0.0
 10
14.8216569824
 20
7.9160734198
 30
0.0
 10
14.8169326026
 20
7.9145129281
 30
0.0
 10
14.8122226463
 20
7.9132932391
 30
0.0
 10
14.8075288522
 20
7.9124151444
 30
0.0
 10
14.8028529631
 20
7.911879105
 30
0.0
 10
14.798197183
 20
7.9116855452
 30
0.0
 10
14.7951045902
 20
7.9117851537
 30
0.0
 10
14.7935667866
 20
7.911891797
 30
0.0
  0
SPLINE
  5
39F
100
AcDbEntity
  8
0
100
AcDbSpline
 62
7
  6
CONTINUOUS
 70
0
 71
3
 72
28
 73
24
 74
0
 42
0.0000001
 43
0.0000001
 44
0.0000000001
 40
0.0
 40
0.0
 40
0.0
 40
0.0
 40
0.0637759834
 40
0.0955879084
 40
0.127346187
 40
0.1907019989
 40
0.253854554
 40
0.2853588054
 40
0.3168148493
 40
0.3795822195
 40
0.4421719639
 40
0.5045963767
 40
0.5668693671
 40
0.6290063464
 40
0.6600315365
 40
0.6910291143
 40
0.7220013668
 40
0.7529506339
 40
0.8147848181
 40
0.8765565455
 40
0.9074279098
 40
0.938291375
 40
1.0
 40
1.0
 40
1.0
 40
1.0
 10
7.6709513883
 20
6.8568989115
 30
0.0
 10
7.6709513883
 20
6.8715563789
 30
0.0
 10
7.671478069
 20
6.8935299835
 30
0.0
 10
7.673240091
 20
6.922746589
 30
0.0
 10
7.6757016914
 20
6.9518162335
 30
0.0
 10
7.680091612
 20
6.9879397368
 30
0.0
 10
7.6862346684
 20
7.0237478094
 30
0.0
 10
7.6921889533
 20
7.0521164581
 30
0.0
 10
7.6988221003
 20
7.0802430659
 30
0.0
 10
7.7083961493
 20
7.1150048243
 30
0.0
 10
7.7219214215
 20
7.1560065111
 30
0.0
 10
7.7374442619
 20
7.1961734666
 30
0.0
 10
7.7549284363
 20
7.2354117898
 30
0.0
 10
7.7711089054
 20
7.2672793347
 30
0.0
 10
7.7849898296
 20
7.2922138184
 30
0.0
 10
7.7958590909
 20
7.3106192071
 30
0.0
 10
7.8071850036
 20
7.3287265849
 30
0.0
 10
7.8228805096
 20
7.3524493829
 30
0.0
 10
7.8436119957
 20
7.3813133074
 30
0.0
 10
7.8657852609
 20
7.4090619953
 30
0.0
 10
7.8843481308
 20
7.4305399264
 30
0.0
 10
7.9034465377
 20
7.4515225935
 30
0.0
 10
7.9183725199
 20
7.4667012826
 30
0.0
 10
7.9285732397
 20
7.4765543965
 30
0.0
  0
SPLINE
  5
3A0
100
AcDbEntity
  8
0
100
AcDbSpline
 62
7
  6
CONTINUOUS
 70
0
 71
3
 72
15
 73
11
 74
0
 42
0.0000001
 43
0.0000001
 44
0.0000000001
 40
0.0
 40
0.0
 40
0.0
 40
0.0
 40
0.1266450919
 40
0.2527837384
 40
0.3784238432
 40
0.503584459
 40
0.6282887886
 40
0.7525675744
 40
0.8764572503
 40
1.0
 40
1.0
 40
1.0
 40
1.0
 10
9.0997556889
 20
9.5118328217
 30
0.0
 10
9.0997556889
 20
9.5223270305
 30
0.0
 10
9.1003634378
 20
9.5432787184
 30
0.0
 10
9.1031081302
 20
9.5745330489
 30
0.0
 10
9.1076750885
 20
9.6054504723
 30
0.0
 10
9.1140488901
 20
9.6359250636
 30
0.0
 10
9.1222082172
 20
9.6658541853
 30
0.0
 10
9.1321257593
 20
9.6951368934
 30
0.0
 10
9.1437674641
 20
9.7236728432
 30
0.0
 10
9.1526649478
 20
9.742161571
 30
0.0
 10
9.157385941
 20
9.7512451407
 30
0.0
  0
SPLINE
  5
3A1
100
AcDbEntity
  8
0
100
AcDbSpline
 62
7
  6
CONTINUOUS
 70
0
 71
3
 72
67
 73
63
 74
0
 42
0.0000001
 43
0.0000001
 44
0.0000000001
 40
0.0
 40
0.0
 40
0.0
 40
0.0
 40
0.0149704495
 40
0.0299439584
 40
0.0449235667
 40
0.0599122761
 40
0.0749130354
 40
0.0899287185
 40
0.104962108
 40
0.1200158816
 40
0.1350925936
 40
0.1501946589
 40
0.165324344
 40
0.1804837509
 40
0.1956748038
 40
0.210899245
 40
0.2261586212
 40
0.2414542746
 40
0.2567873431
 40
0.2721587494
 40
0.2875691973
 40
0.3030191754
 40
0.3185089499
 40
0.3340385651
 40
0.3496078509
 40
0.3652164184
 40
0.3808636654
 40
0.3965487858
 40
0.4122707693
 40
0.4280284097
 40
0.4438203172
 40
0.4596449198
 40
0.4755004765
 40
0.4913850891
 40
0.5072967076
 40
0.523233145
 40
0.5391920903
 40
0.5551711158
 40
0.5711676941
 40
0.587179211
 40
0.6192314178
 40
0.6513103937
 40
0.683393424
 40
0.7154577138
 40
0.7314782096
 40
0.7474856706
 40
0.7634774284
 40
0.7794508909
 40
0.795403558
 40
0.8113330367
 40
0.8272370483
 40
0.843113445
 40
0.8589602211
 40
0.87477552
 40
0.8905576533
 40
0.9063050946
 40
0.9220165017
 40
0.9376907777
 40
0.9533268609
 40
0.968923964
 40
0.984482276
 40
1.0
 40
1.0
 40
1.0
 40
1.0
 10
12.8727424906
 20
8.273446561
 30
0.0
 10
12.8648616463
 20
8.2658342691
 30
0.0
 10
12.8487938109
 20
8.2509198159
 30
0.0
 10
12.8238194997
 20
8.229521096
 30
0.0
 10
12.7980042195
 20
8.2091224024
 30
0.0
 10
12.7713840808
 20
8.1897521722
 30
0.0
 10
12.743995584
 20
8.1714369247
 30
0.0
 10
12.7158763974
 20
8.1542019892
 30
0.0
 10
12.6870652801
 20
8.1380709582
 30
0.0
 10
12.6576018779
 20
8.1230660218
 30
0.0
 10
12.6275266919
 20
8.1092079121
 30
0.0
 10
12.5968811678
 20
8.096515564
 30
0.0
 10
12.5657074645
 20
8.0850064381
 30
0.0
 10
12.5340484472
 20
8.0746964457
 30
0.0
 10
12.5019477206
 20
8.0655996245
 30
0.0
 10
12.4694494372
 20
8.0577284952
 30
0.0
 10
12.4365982908
 20
8.0510939508
 30
0.0
 10
12.4034395023
 20
8.0457049636
 30
0.0
 10
12.3700186726
 20
8.0415689629
 30
0.0
 10
12.3363817674
 20
8.0386916904
 30
0.0
 10
12.3025750629
 20
8.0370769472
 30
0.0
 10
12.2686450469
 20
8.0367269825
 30
0.0
 10
12.234638385
 20
8.0376423182
 30
0.0
 10
12.2006018376
 20
8.0398215421
 30
0.0
 10
12.1665822072
 20
8.0432616982
 30
0.0
 10
12.1326262799
 20
8.0479580842
 30
0.0
 10
12.0987807247
 20
8.0539040966
 30
0.0
 10
12.0650920831
 20
8.061091612
 30
0.0
 10
12.0316066822
 20
8.0695107647
 30
0.0
 10
11.9983705254
 20
8.0791498444
 30
0.0
 10
11.9654293215
 20
8.0899956615
 30
0.0
 10
11.932828365
 20
8.1020333107
 30
0.0
 10
11.900612428
 20
8.1152461215
 30
0.0
 10
11.868825826
 20
8.1296160007
 30
0.0
 10
11.8375122573
 20
8.1451231909
 30
0.0
 10
11.8067147218
 20
8.1617462618
 30
0.0
 10
11.7764755659
 20
8.1794624652
 30
0.0
 10
11.7468364665
 20
8.1982473388
 30
0.0
 10
11.7178376907
 20
8.218075326
 30
0.0
 10
11.6800712111
 20
8.2458731914
 30
0.0
 10
11.634665789
 20
8.2830886115
 30
0.0
 10
11.583382257
 20
8.3314281326
 30
0.0
 10
11.5355566884
 20
8.3832033097
 30
0.0
 10
11.4987882213
 20
8.4289949098
 30
0.0
 10
11.4713557725
 20
8.4670564498
 30
0.0
 10
11.4518042315
 20
8.4962710168
 30
0.0
 10
11.4332991592
 20
8.5261184338
 30
0.0
 10
11.4158657548
 20
8.5565581616
 30
0.0
 10
11.3995280284
 20
8.5875482114
 30
0.0
 10
11.3843083761
 20
8.6190459975
 30
0.0
 10
11.3702278509
 20
8.651008272
 30
0.0
 10
11.3573057496
 20
8.6833910684
 30
0.0
 10
11.345559811
 20
8.7161498629
 30
0.0
 10
11.3350063155
 20
8.7492396695
 30
0.0
 10
11.3256597095
 20
8.7826149692
 30
0.0
 10
11.3175328262
 20
8.8162298738
 30
0.0
 10
11.3106369649
 20
8.8500382259
 30
0.0
 10
11.3049815843
 20
8.8839935002
 30
0.0
 10
11.3005744101
 20
8.9180488896
 30
0.0
 10
11.2974215671
 20
8.9521581766
 30
0.0
 10
11.2955276125
 20
8.9862732772
 30
0.0
 10
11.2951051633
 20
9.009020202
 30
0.0
 10
11.2951051633
 20
9.0203777024
 30
0.0
  0
SPLINE
  5
3A2
100
AcDbEntity
  8
0
100
AcDbSpline
 62
7
  6
CONTINUOUS
 70
0
 71
3
 72
17
 73
13
 74
0
 42
0.0000001
 43
0.0000001
 44
0.0000000001
 40
0.0
 40
0.0
 40
0.0
 40
0.0
 40
0.1468971343
 40
0.2860263977
 40
0.4180024643
 40
0.4815488924
 40
0.5435904969
 40
0.6635559311
 40
0.7788834689
 40
0.890630948
 40
0.9455428312
 40
1.0
 40
1.0
 40
1.0
 40
1.0
 10
11.537155113
 20
7.2036895722
 30
0.0
 10
11.5359286316
 20
7.2026726334
 30
0.0
 10
11.5334774089
 20
7.2007665964
 30
0.0
 10
11.5297046048
 20
7.1982454672
 30
0.0
 10
11.5265319637
 20
7.1964726675
 30
0.0
 10
11.5240070975
 20
7.195275228
 30
0.0
 10
11.5215501038
 20
7.1942455671
 30
0.0
 10
11.5184890829
 20
7.1932122777
 30
0.0
 10
11.5148099726
 20
7.1923849556
 30
0.0
 10
11.5117624374
 20
7.1920501353
 30
0.0
 10
11.50936361
 20
7.1920001699
 30
0.0
 10
11.5081774132
 20
7.1920463666
 30
0.0
 10
11.5075881902
 20
7.1920872705
 30
0.0
  0
SPLINE
  5
3A3
100
AcDbEntity
  8
0
100
AcDbSpline
 62
7
  6
CONTINUOUS
 70
0
 71
3
 72
15
 73
11
 74
0
 42
0.0000001
 43
0.0000001
 44
0.0000000001
 40
0.0
 40
0.0
 40
0.0
 40
0.0
 40
0.1264526698
 40
0.2524701444
 40
0.3780498168
 40
0.5032091093
 40
0.6279614917
 40
0.7523273826
 40
0.8763309049
 40
1.0
 40
1.0
 40
1.0
 40
1.0
 10
9.0573721987
 20
9.5088935115
 30
0.0
 10
9.0573721987
 20
9.5186086697
 30
0.0
 10
9.0578601966
 20
9.5380091801
 30
0.0
 10
9.0600629788
 20
9.5669824853
 30
0.0
 10
9.063730181
 20
9.5957077839
 30
0.0
 10
9.0688521573
 20
9.6241108362
 30
0.0
 10
9.0754162554
 20
9.6521200068
 30
0.0
 10
9.0834058999
 20
9.6796642317
 30
0.0
 10
9.0928004539
 20
9.7066726282
 30
0.0
 10
9.0999943378
 20
9.7242999796
 30
0.0
 10
9.103816581
 20
9.7329985524
 30
0.0
  0
SPLINE
  5
3A4
100
AcDbEntity
  8
0
100
AcDbSpline
 62
7
  6
CONTINUOUS
 70
0
 71
3
 72
43
 73
39
 74
0
 42
0.0000001
 43
0.0000001
 44
0.0000000001
 40
0.0
 40
0.0
 40
0.0
 40
0.0
 40
0.0149934808
 40
0.0300090612
 40
0.0450484599
 40
0.0601132789
 40
0.0903207592
 40
0.1206462943
 40
0.1358581335
 40
0.1511024454
 40
0.1663799374
 40
0.1816911651
 40
0.2124122855
 40
0.2432715099
 40
0.2742681061
 40
0.3053990702
 40
0.3366592058
 40
0.3680412342
 40
0.3995359353
 40
0.4311323138
 40
0.4628177885
 40
0.4945784003
 40
0.526399037
 40
0.5582636712
 40
0.5901556072
 40
0.6220577363
 40
0.653952796
 40
0.6858236303
 40
0.7176534497
 40
0.7494260872
 40
0.7811262465
 40
0.8127397431
 40
0.8442537286
 40
0.8756569109
 40
0.9069397189
 40
0.9380945583
 40
0.96911573
 40
1.0
 40
1.0
 40
1.0
 40
1.0
 10
12.8002537692
 20
8.7785956127
 30
0.0
 10
12.7951120504
 20
8.7761486738
 30
0.0
 10
12.7847363092
 20
8.7714269831
 30
0.0
 10
12.7689287512
 20
8.7648745993
 30
0.0
 10
12.7528817663
 20
8.7588540052
 30
0.0
 10
12.7311723056
 20
8.7515380405
 30
0.0
 10
12.703512697
 20
8.7437541845
 30
0.0
 10
12.6753393479
 20
8.7378304726
 30
0.0
 10
12.6525373562
 20
8.7342114183
 30
0.0
 10
12.6352992147
 20
8.7320577916
 30
0.0
 10
12.6179618604
 20
8.7304703467
 30
0.0
 10
12.5947137625
 20
8.7291092446
 30
0.0
 10
12.5654903592
 20
8.7288347026
 30
0.0
 10
12.5303613809
 20
8.7307829641
 30
0.0
 10
12.4952748082
 20
8.7349998794
 30
0.0
 10
12.4603783118
 20
8.7414676564
 30
0.0
 10
12.4258174587
 20
8.7501590166
 30
0.0
 10
12.3917367227
 20
8.7610374385
 30
0.0
 10
12.3582784522
 20
8.7740572812
 30
0.0
 10
12.3255823991
 20
8.7891639864
 30
0.0
 10
12.2937851098
 20
8.8062943057
 30
0.0
 10
12.2630193697
 20
8.8253765659
 30
0.0
 10
12.2334136515
 20
8.8463309674
 30
0.0
 10
12.2050915849
 20
8.869069917
 30
0.0
 10
12.1781714444
 20
8.8934983911
 30
0.0
 10
12.1527656601
 20
8.9195143307
 30
0.0
 10
12.1289803515
 20
8.9470090646
 30
0.0
 10
12.106914888
 20
8.9758677595
 30
0.0
 10
12.0866614769
 20
9.0059698964
 30
0.0
 10
12.0683047802
 20
9.0371897692
 30
0.0
 10
12.0519215626
 20
9.0693970043
 30
0.0
 10
12.0375803744
 20
9.1024571042
 30
0.0
 10
12.0253412586
 20
9.1362319876
 30
0.0
 10
12.0152555172
 20
9.1705806181
 30
0.0
 10
12.0073654543
 20
9.2053593742
 30
0.0
 10
12.0017042814
 20
9.2404234422
 30
0.0
 10
11.9982958282
 20
9.2756243666
 30
0.0
 10
11.9975333395
 20
9.2991419236
 30
0.0
 10
11.9975333395
 20
9.3108712591
 30
0.0
  0
SPLINE
  5
3A5
100
AcDbEntity
  8
0
100
AcDbSpline
 62
7
  6
CONTINUOUS
 70
0
 71
3
 72
62
 73
58
 74
0
 42
0.0000001
 43
0.0000001
 44
0.0000000001
 40
0.0
 40
0.0
 40
0.0
 40
0.0
 40
0.0310563375
 40
0.062268137
 40
0.0779336701
 40
0.093635966
 40
0.1093739596
 40
0.1251463621
 40
0.1409516923
 40
0.1567883115
 40
0.1726544236
 40
0.1885480837
 40
0.2044672059
 40
0.2204095818
 40
0.252349936
 40
0.2843541598
 40
0.3164012259
 40
0.3484692718
 40
0.3805360275
 40
0.4125792478
 40
0.444577145
 40
0.4605548931
 40
0.4765135718
 40
0.4924507764
 40
0.5083642051
 40
0.5242516776
 40
0.5401111415
 40
0.5559406825
 40
0.5717385411
 40
0.5875031147
 40
0.6032329704
 40
0.6189268565
 40
0.6345837021
 40
0.6502026316
 40
0.6657829687
 40
0.6813242362
 40
0.6968261686
 40
0.7122887098
 40
0.7277120127
 40
0.7430964484
 40
0.7584425974
 40
0.7737512505
 40
0.7890234107
 40
0.8042602813
 40
0.8194632654
 40
0.8346339611
 40
0.8497741465
 40
0.864885778
 40
0.8799709778
 40
0.8950320184
 40
0.9100713166
 40
0.9250914168
 40
0.9400949737
 40
0.9550847432
 40
0.9700635622
 40
0.9850343308
 40
1.0
 40
1.0
 40
1.0
 40
1.0
 10
11.3116695689
 20
9.0363776905
 30
0.0
 10
11.3116695689
 20
9.0138862826
 30
0.0
 10
11.3133286867
 20
8.96877505
 30
0.0
 10
11.3194966618
 20
8.9126212968
 30
0.0
 10
11.3268640021
 20
8.867894804
 30
0.0
 10
11.3336107667
 20
8.834446244
 30
0.0
 10
11.3415623658
 20
8.8011843255
 30
0.0
 10
11.3507080005
 20
8.7681532241
 30
0.0
 10
11.3610354901
 20
8.7353975265
 30
0.0
 10
11.3725308775
 20
8.7029612488
 30
0.0
 10
11.3851786257
 20
8.6708879479
 30
0.0
 10
11.3989617844
 20
8.6392209286
 30
0.0
 10
11.4138619843
 20
8.6080022772
 30
0.0
 10
11.435202005
 20
8.567010672
 30
0.0
 10
11.4645695826
 20
8.517105013
 30
0.0
 10
11.5038950097
 20
8.4597138871
 30
0.0
 10
11.5471203358
 20
8.4050797251
 30
0.0
 10
11.5940122758
 20
8.3534979146
 30
0.0
 10
11.6443197753
 20
8.3052445722
 30
0.0
 10
11.6977707666
 20
8.2605800984
 30
0.0
 10
11.7447238638
 20
8.2265290313
 30
0.0
 10
11.7835672056
 20
8.2013144717
 30
0.0
 10
11.8132884091
 20
8.1834480237
 30
0.0
 10
11.8435689391
 20
8.1666434406
 30
0.0
 10
11.8743685434
 20
8.1509230842
 30
0.0
 10
11.9056456262
 20
8.1363080557
 30
0.0
 10
11.9373582121
 20
8.1228180962
 30
0.0
 10
11.969463652
 20
8.1104713815
 30
0.0
 10
12.0019187346
 20
8.0992844123
 30
0.0
 10
12.034679867
 20
8.0892723894
 30
0.0
 10
12.0677029715
 20
8.0804487392
 30
0.0
 10
12.1009436248
 20
8.0728252751
 30
0.0
 10
12.1343571583
 20
8.0664124261
 30
0.0
 10
12.1678986073
 20
8.0612187186
 30
0.0
 10
12.2015228647
 20
8.0572511521
 30
0.0
 10
12.2351847179
 20
8.0545152215
 30
0.0
 10
12.2688388736
 20
8.0530144744
 30
0.0
 10
12.3024400696
 20
8.0527510155
 30
0.0
 10
12.3359430995
 20
8.053725303
 30
0.0
 10
12.3693028953
 20
8.0559358963
 30
0.0
 10
12.4024745702
 20
8.0593799661
 30
0.0
 10
12.4354134849
 20
8.0640529078
 30
0.0
 10
12.4680753372
 20
8.0699483378
 30
0.0
 10
12.5004161477
 20
8.0770585021
 30
0.0
 10
12.5323924025
 20
8.0853737858
 30
0.0
 10
12.5639610879
 20
8.0948829577
 30
0.0
 10
12.5950796649
 20
8.1055733995
 30
0.0
 10
12.6257062859
 20
8.1174306166
 30
0.0
 10
12.6557997292
 20
8.1304386745
 30
0.0
 10
12.6853194264
 20
8.144580204
 30
0.0
 10
12.7142257065
 20
8.1598360386
 30
0.0
 10
12.7424796219
 20
8.1761857224
 30
0.0
 10
12.7700431023
 20
8.1936073266
 30
0.0
 10
12.7968790865
 20
8.2120772465
 30
0.0
 10
12.8229515072
 20
8.2315708517
 30
0.0
 10
12.8482247624
 20
8.252061463
 30
0.0
 10
12.8645211234
 20
8.2663706602
 30
0.0
 10
12.8725232708
 20
8.2736805938
 30
0.0
  0
SPLINE
  5
3A6
100
AcDbEntity
  8
0
100
AcDbSpline
 62
7
  6
CONTINUOUS
 70
0
 71
3
 72
26
 73
22
 74
0
 42
0.0000001
 43
0.0000001
 44
0.0000000001
 40
0.0
 40
0.0
 40
0.0
 40
0.0
 40
0.0637517333
 40
0.1273007155
 40
0.1906464103
 40
0.2537954111
 40
0.2852999197
 40
0.3167575344
 40
0.3795319293
 40
0.442132578
 40
0.5045705888
 40
0.5668585785
 40
0.629010536
 40
0.6910417187
 40
0.7220194482
 40
0.7529732182
 40
0.8148129932
 40
0.8765839448
 40
0.9074518584
 40
0.9383096753
 40
1.0
 40
1.0
 40
1.0
 40
1.0
 10
11.3116695689
 20
9.0363776905
 30
0.0
 10
11.3116695689
 20
9.0505405132
 30
0.0
 10
11.3123245835
 20
9.0788255721
 30
0.0
 10
11.315280886
 20
9.1210903723
 30
0.0
 10
11.3202033879
 20
9.1630373088
 30
0.0
 10
11.3259396827
 20
9.1976803304
 30
0.0
 10
11.3315007047
 20
9.2251415574
 30
0.0
 10
11.3376966009
 20
9.2523811714
 30
0.0
 10
11.3466412326
 20
9.2860697736
 30
0.0
 10
11.3592809691
 20
9.3258495755
 30
0.0
 10
11.3737925919
 20
9.3648706691
 30
0.0
 10
11.3901448883
 20
9.4030486239
 30
0.0
 10
11.4083024417
 20
9.4403008505
 30
0.0
 10
11.4249140337
 20
9.4705212165
 30
0.0
 10
11.4390633605
 20
9.4941501724
 30
0.0
 10
11.4537681188
 20
9.5173872747
 30
0.0
 10
11.4731997416
 20
9.5457155616
 30
0.0
 10
11.4939983435
 20
9.573032016
 30
0.0
 10
11.5114207122
 20
9.5942289548
 30
0.0
 10
11.5293516478
 20
9.6149730113
 30
0.0
 10
11.5433744853
 20
9.6300241543
 30
0.0
 10
11.5529630616
 20
9.6398161219
 30
0.0
  0
LINE
  5
3A7
100
AcDbEntity
  8
0
100
AcDbLine
 62
7
  6
CONTINUOUS
 10
11.5529630616
 20
9.6398161219
 11
11.5532436904
 21
9.6401025643
  0
SPLINE
  5
3A8
100
AcDbEntity
  8
0
100
AcDbSpline
 62
7
  6
CONTINUOUS
 70
0
 71
3
 72
72
 73
68
 74
0
 42
0.0000001
 43
0.0000001
 44
0.0000000001
 40
0.0
 40
0.0
 40
0.0
 40
0.0
 40
0.0155841391
 40
0.0311159426
 40
0.0465951818
 40
0.0620238062
 40
0.0697201947
 40
0.0774045852
 40
0.0927373969
 40
0.1080262197
 40
0.1232742503
 40
0.138485114
 40
0.1536628168
 40
0.1688117118
 40
0.1839364561
 40
0.1990419623
 40
0.2141333478
 40
0.2292158796
 40
0.2442949189
 40
0.2593758645
 40
0.2744640955
 40
0.2895649133
 40
0.3046834847
 40
0.3198247871
 40
0.3349935569
 40
0.3501942419
 40
0.3654309563
 40
0.3807074392
 40
0.3960270182
 40
0.4113925792
 40
0.4268065428
 40
0.4422708435
 40
0.4577869144
 40
0.4733556768
 40
0.488977538
 40
0.5046523931
 40
0.5203796315
 40
0.536158146
 40
0.5519863475
 40
0.5678621856
 40
0.5837831726
 40
0.5997464093
 40
0.6157486138
 40
0.6317861525
 40
0.6478550774
 40
0.6639511628
 40
0.6800699439
 40
0.6962067554
 40
0.7123567737
 40
0.7285150605
 40
0.7446766066
 40
0.7608363741
 40
0.7769893393
 40
0.793130538
 40
0.8092551091
 40
0.8253583378
 40
0.8414356957
 40
0.8574828813
 40
0.8734958611
 40
0.8894709055
 40
0.90540463
 40
0.9212940135
 40
0.93713644
 40
0.9529297866
 40
0.9686720809
 40
0.9843627385
 40
1.0
 40
1.0
 40
1.0
 40
1.0
 10
11.5821288163
 20
9.017621278
 30
0.0
 10
11.5821288163
 20
9.028191358
 30
0.0
 10
11.582646123
 20
9.0492997489
 30
0.0
 10
11.5849811456
 20
9.0808294197
 30
0.0
 10
11.5888686554
 20
9.1120997537
 30
0.0
 10
11.5933979069
 20
9.1379008589
 30
0.0
 10
11.5977876072
 20
9.1583333215
 30
0.0
 10
11.6026771139
 20
9.1785851016
 30
0.0
 10
11.6097337753
 20
9.2036024871
 30
0.0
 10
11.6197006687
 20
9.2330883003
 30
0.0
 10
11.6311366976
 20
9.2619475863
 30
0.0
 10
11.6440142285
 20
9.2901102683
 30
0.0
 10
11.6583023246
 20
9.3175085384
 30
0.0
 10
11.673966593
 20
9.3440762564
 30
0.0
 10
11.6909692718
 20
9.3697493546
 30
0.0
 10
11.70926938
 20
9.3944659012
 30
0.0
 10
11.7288228086
 20
9.4181662666
 30
0.0
 10
11.7495824309
 20
9.440793258
 30
0.0
 10
11.7714981952
 20
9.4622922742
 30
0.0
 10
11.7945172139
 20
9.482611482
 30
0.0
 10
11.8185839535
 20
9.5017018856
 30
0.0
 10
11.8436403575
 20
9.5195174537
 30
0.0
 10
11.8696259919
 20
9.5360152191
 30
0.0
 10
11.896478171
 20
9.5511554108
 30
0.0
 10
11.9241320969
 20
9.5649015875
 30
0.0
 10
11.9525210602
 20
9.5772206582
 30
0.0
 10
11.981576591
 20
9.5880829732
 30
0.0
 10
12.0112286267
 20
9.5974623799
 30
0.0
 10
12.0414056653
 20
9.6053363262
 30
0.0
 10
12.0720349403
 20
9.611685938
 30
0.0
 10
12.1030426174
 20
9.6164959944
 30
0.0
 10
12.1343539656
 20
9.6197549782
 30
0.0
 10
12.1658935343
 20
9.621455085
 30
0.0
 10
12.1975853282
 20
9.6215922949
 30
0.0
 10
12.2293529993
 20
9.6201663876
 30
0.0
 10
12.2611200315
 20
9.6171808786
 30
0.0
 10
12.2928099207
 20
9.6126430265
 30
0.0
 10
12.3243463514
 20
9.606563798
 30
0.0
 10
12.3556533883
 20
9.5989579023
 30
0.0
 10
12.3866556647
 20
9.5898437447
 30
0.0
 10
12.4172785509
 20
9.5792433299
 30
0.0
 10
12.4474483336
 20
9.5671822247
 30
0.0
 10
12.4770923813
 20
9.5536894825
 30
0.0
 10
12.506139345
 20
9.5387976361
 30
0.0
 10
12.5345193263
 20
9.5225425951
 30
0.0
 10
12.5621640252
 20
9.5049635214
 30
0.0
 10
12.5890069065
 20
9.4861027483
 30
0.0
 10
12.6149833462
 20
9.4660056697
 30
0.0
 10
12.6400308309
 20
9.4447206893
 30
0.0
 10
12.6640890914
 20
9.422299071
 30
0.0
 10
12.6871002236
 20
9.3987947913
 30
0.0
 10
12.7090088323
 20
9.3742644208
 30
0.0
 10
12.7297621509
 20
9.3487669831
 30
0.0
 10
12.749310228
 20
9.322363862
 30
0.0
 10
12.7676060138
 20
9.2951186175
 30
0.0
 10
12.784605452
 20
9.2670968217
 30
0.0
 10
12.8002675895
 20
9.2383659096
 30
0.0
 10
12.8145546646
 20
9.2089950162
 30
0.0
 10
12.827432268
 20
9.1790548449
 30
0.0
 10
12.8388693805
 20
9.1486174656
 30
0.0
 10
12.8488384189
 20
9.1177561384
 30
0.0
 10
12.8573153194
 20
9.0865451569
 30
0.0
 10
12.8642796131
 20
9.0550596002
 30
0.0
 10
12.8697143858
 20
9.0233754675
 30
0.0
 10
12.8736067583
 20
8.9915684836
 30
0.0
 10
12.8759468958
 20
8.9597166059
 30
0.0
 10
12.8764695002
 20
8.9384645574
 30
0.0
 10
12.8764695002
 20
8.9278584467
 30
0.0
  0
SPLINE
  5
3A9
100
AcDbEntity
  8
0
100
AcDbSpline
 62
7
  6
CONTINUOUS
 70
0
 71
3
 72
24
 73
20
 74
0
 42
0.0000001
 43
0.0000001
 44
0.0000000001
 40
0.0
 40
0.0
 40
0.0
 40
0.0
 40
0.0637764408
 40
0.1273443672
 40
0.1907010024
 40
0.2538548258
 40
0.3168116123
 40
0.3795801652
 40
0.4421711518
 40
0.5045967904
 40
0.5668710032
 40
0.6290092014
 40
0.6910281576
 40
0.7220010174
 40
0.7529508941
 40
0.8147862914
 40
0.8765592262
 40
0.9382901647
 40
1.0
 40
1.0
 40
1.0
 40
1.0
 10
11.6678609463
 20
9.0304321614
 30
0.0
 10
11.6678609463
 20
9.0396893655
 30
0.0
 10
11.6683040598
 20
9.0581766436
 30
0.0
 10
11.6703039097
 20
9.0857950733
 30
0.0
 10
11.6736337416
 20
9.1131946112
 30
0.0
 10
11.6782855336
 20
9.1403108514
 30
0.0
 10
11.6842489269
 20
9.1670818502
 30
0.0
 10
11.6915101099
 20
9.193445719
 30
0.0
 10
11.700052382
 20
9.2193417268
 30
0.0
 10
11.7098561322
 20
9.2447101249
 30
0.0
 10
11.7208989114
 20
9.2694924817
 30
0.0
 10
11.7331550193
 20
9.2936312798
 30
0.0
 10
11.7443616229
 20
9.3131739487
 30
0.0
 10
11.753902716
 20
9.3284277075
 30
0.0
 10
11.7638155648
 20
9.3434105955
 30
0.0
 10
11.7769092194
 20
9.3616404919
 30
0.0
 10
11.7937102476
 20
9.3826662192
 30
0.0
 10
11.811556653
 20
9.4027873834
 30
0.0
 10
11.8241259803
 20
9.4155695832
 30
0.0
 10
11.8305685094
 20
9.4217925945
 30
0.0
  0
SPLINE
  5
3AA
100
AcDbEntity
  8
0
100
AcDbSpline
 62
7
  6
CONTINUOUS
 70
0
 71
3
 72
67
 73
63
 74
0
 42
0.0000001
 43
0.0000001
 44
0.0000000001
 40
0.0
 40
0.0
 40
0.0
 40
0.0
 40
0.0149704495
 40
0.0299439584
 40
0.0449235667
 40
0.0599122761
 40
0.0749130354
 40
0.0899287185
 40
0.104962108
 40
0.1200158816
 40
0.1350925936
 40
0.1501946589
 40
0.165324344
 40
0.1804837509
 40
0.1956748038
 40
0.210899245
 40
0.2261586212
 40
0.2414542746
 40
0.2567873431
 40
0.2721587494
 40
0.2875691973
 40
0.3030191754
 40
0.3185089499
 40
0.3340385651
 40
0.3496078509
 40
0.3652164184
 40
0.3808636654
 40
0.3965487858
 40
0.4122707693
 40
0.4280284097
 40
0.4438203172
 40
0.4596449198
 40
0.4755004765
 40
0.4913850891
 40
0.5072967076
 40
0.523233145
 40
0.5391920903
 40
0.5551711158
 40
0.5711676941
 40
0.587179211
 40
0.6192314178
 40
0.6513103937
 40
0.683393424
 40
0.7154577138
 40
0.7314782096
 40
0.7474856706
 40
0.7634774284
 40
0.7794508909
 40
0.795403558
 40
0.8113330367
 40
0.8272370483
 40
0.843113445
 40
0.8589602211
 40
0.87477552
 40
0.8905576533
 40
0.9063050946
 40
0.9220165017
 40
0.9376907777
 40
0.9533268609
 40
0.968923964
 40
0.984482276
 40
1.0
 40
1.0
 40
1.0
 40
1.0
 10
12.1463663662
 20
5.9090062075
 30
0.0
 10
12.1384855219
 20
5.9013939156
 30
0.0
 10
12.1224176865
 20
5.8864794624
 30
0.0
 10
12.0974433753
 20
5.8650807425
 30
0.0
 10
12.0716280951
 20
5.8446820489
 30
0.0
 10
12.0450079564
 20
5.8253118187
 30
0.0
 10
12.0176194596
 20
5.8069965712
 30
0.0
 10
11.989500273
 20
5.7897616357
 30
0.0
 10
11.9606891557
 20
5.7736306047
 30
0.0
 10
11.9312257535
 20
5.7586256684
 30
0.0
 10
11.9011505675
 20
5.7447675586
 30
0.0
 10
11.8705050434
 20
5.7320752105
 30
0.0
 10
11.8393313401
 20
5.7205660847
 30
0.0
 10
11.8076723228
 20
5.7102560922
 30
0.0
 10
11.7755715962
 20
5.701159271
 30
0.0
 10
11.7430733128
 20
5.6932881417
 30
0.0
 10
11.7102221665
 20
5.6866535974
 30
0.0
 10
11.6770633779
 20
5.6812646101
 30
0.0
 10
11.6436425482
 20
5.6771286094
 30
0.0
 10
11.610005643
 20
5.6742513369
 30
0.0
 10
11.5761989385
 20
5.6726365937
 30
0.0
 10
11.5422689226
 20
5.672286629
 30
0.0
 10
11.5082622606
 20
5.6732019647
 30
0.0
 10
11.4742257133
 20
5.6753811886
 30
0.0
 10
11.4402060828
 20
5.6788213447
 30
0.0
 10
11.4062501555
 20
5.6835177307
 30
0.0
 10
11.3724046003
 20
5.6894637431
 30
0.0
 10
11.3387159587
 20
5.6966512585
 30
0.0
 10
11.3052305579
 20
5.7050704112
 30
0.0
 10
11.271994401
 20
5.7147094909
 30
0.0
 10
11.2390531972
 20
5.7255553081
 30
0.0
 10
11.2064522406
 20
5.7375929572
 30
0.0
 10
11.1742363036
 20
5.750805768
 30
0.0
 10
11.1424497016
 20
5.7651756472
 30
0.0
 10
11.1111361329
 20
5.7806828375
 30
0.0
 10
11.0803385975
 20
5.7973059083
 30
0.0
 10
11.0500994415
 20
5.8150221117
 30
0.0
 10
11.0204603421
 20
5.8338069853
 30
0.0
 10
10.9914615663
 20
5.8536349725
 30
0.0
 10
10.9536950867
 20
5.8814328379
 30
0.0
 10
10.9082896646
 20
5.918648258
 30
0.0
 10
10.8570061327
 20
5.9669877791
 30
0.0
 10
10.809180564
 20
6.0187629562
 30
0.0
 10
10.7724120969
 20
6.0645545563
 30
0.0
 10
10.7449796481
 20
6.1026160963
 30
0.0
 10
10.7254281071
 20
6.1318306633
 30
0.0
 10
10.7069230349
 20
6.1616780803
 30
0.0
 10
10.6894896304
 20
6.1921178081
 30
0.0
 10
10.673151904
 20
6.2231078579
 30
0.0
 10
10.6579322517
 20
6.254605644
 30
0.0
 10
10.6438517266
 20
6.2865679185
 30
0.0
 10
10.6309296252
 20
6.3189507149
 30
0.0
 10
10.6191836866
 20
6.3517095094
 30
0.0
 10
10.6086301911
 20
6.384799316
 30
0.0
 10
10.5992835851
 20
6.4181746157
 30
0.0
 10
10.5911567019
 20
6.4517895203
 30
0.0
 10
10.5842608405
 20
6.4855978724
 30
0.0
 10
10.5786054599
 20
6.5195531467
 30
0.0
 10
10.5741982857
 20
6.5536085361
 30
0.0
 10
10.5710454427
 20
6.5877178232
 30
0.0
 10
10.5691514881
 20
6.6218329237
 30
0.0
 10
10.5687290389
 20
6.6445798485
 30
0.0
 10
10.5687290389
 20
6.6559373489
 30
0.0
  0
SPLINE
  5
3AB
100
AcDbEntity
  8
0
100
AcDbSpline
 62
7
  6
CONTINUOUS
 70
0
 71
3
 72
62
 73
58
 74
0
 42
0.0000001
 43
0.0000001
 44
0.0000000001
 40
0.0
 40
0.0
 40
0.0
 40
0.0
 40
0.0310563375
 40
0.062268137
 40
0.0779336701
 40
0.093635966
 40
0.1093739596
 40
0.1251463621
 40
0.1409516923
 40
0.1567883115
 40
0.1726544236
 40
0.1885480837
 40
0.2044672059
 40
0.2204095818
 40
0.252349936
 40
0.2843541598
 40
0.3164012259
 40
0.3484692718
 40
0.3805360275
 40
0.4125792478
 40
0.444577145
 40
0.4605548931
 40
0.4765135718
 40
0.4924507764
 40
0.5083642051
 40
0.5242516776
 40
0.5401111415
 40
0.5559406825
 40
0.5717385411
 40
0.5875031147
 40
0.6032329704
 40
0.6189268565
 40
0.6345837021
 40
0.6502026316
 40
0.6657829687
 40
0.6813242362
 40
0.6968261686
 40
0.7122887098
 40
0.7277120127
 40
0.7430964484
 40
0.7584425974
 40
0.7737512505
 40
0.7890234107
 40
0.8042602813
 40
0.8194632654
 40
0.8346339611
 40
0.8497741465
 40
0.864885778
 40
0.8799709778
 40
0.8950320184
 40
0.9100713166
 40
0.9250914168
 40
0.9400949737
 40
0.9550847432
 40
0.9700635622
 40
0.9850343308
 40
1.0
 40
1.0
 40
1.0
 40
1.0
 10
7.6875157939
 20
6.8728988996
 30
0.0
 10
7.6875157939
 20
6.8504074917
 30
0.0
 10
7.6891749117
 20
6.8052962592
 30
0.0
 10
7.6953428869
 20
6.749142506
 30
0.0
 10
7.7027102271
 20
6.7044160131
 30
0.0
 10
7.7094569917
 20
6.6709674532
 30
0.0
 10
7.7174085908
 20
6.6377055347
 30
0.0
 10
7.7265542255
 20
6.6046744332
 30
0.0
 10
7.7368817152
 20
6.5719187356
 30
0.0
 10
7.7483771025
 20
6.5394824579
 30
0.0
 10
7.7610248507
 20
6.5074091571
 30
0.0
 10
7.7748080094
 20
6.4757421377
 30
0.0
 10
7.7897082094
 20
6.4445234864
 30
0.0
 10
7.81104823
 20
6.4035318812
 30
0.0
 10
7.8404158077
 20
6.3536262222
 30
0.0
 10
7.8797412347
 20
6.2962350962
 30
0.0
 10
7.9229665609
 20
6.2416009343
 30
0.0
 10
7.9698585008
 20
6.1900191237
 30
0.0
 10
8.0201660003
 20
6.1417657813
 30
0.0
 10
8.0736169916
 20
6.0971013076
 30
0.0
 10
8.1205700888
 20
6.0630502404
 30
0.0
 10
8.1594134306
 20
6.0378356808
 30
0.0
 10
8.1891346341
 20
6.0199692328
 30
0.0
 10
8.2194151642
 20
6.0031646497
 30
0.0
 10
8.2502147685
 20
5.9874442933
 30
0.0
 10
8.2814918513
 20
5.9728292649
 30
0.0
 10
8.3132044372
 20
5.9593393053
 30
0.0
 10
8.345309877
 20
5.9469925907
 30
0.0
 10
8.3777649597
 20
5.9358056215
 30
0.0
 10
8.410526092
 20
5.9257935985
 30
0.0
 10
8.4435491966
 20
5.9169699483
 30
0.0
 10
8.4767898498
 20
5.9093464843
 30
0.0
 10
8.5102033833
 20
5.9029336352
 30
0.0
 10
8.5437448324
 20
5.8977399277
 30
0.0
 10
8.5773690898
 20
5.8937723612
 30
0.0
 10
8.611030943
 20
5.8910364307
 30
0.0
 10
8.6446850986
 20
5.8895356836
 30
0.0
 10
8.6782862946
 20
5.8892722247
 30
0.0
 10
8.7117893245
 20
5.8902465121
 30
0.0
 10
8.7451491203
 20
5.8924571054
 30
0.0
 10
8.7783207953
 20
5.8959011752
 30
0.0
 10
8.81125971
 20
5.900574117
 30
0.0
 10
8.8439215622
 20
5.906469547
 30
0.0
 10
8.8762623728
 20
5.9135797113
 30
0.0
 10
8.9082386275
 20
5.9218949949
 30
0.0
 10
8.9398073129
 20
5.9314041668
 30
0.0
 10
8.9709258899
 20
5.9420946086
 30
0.0
 10
9.0015525109
 20
5.9539518257
 30
0.0
 10
9.0316459543
 20
5.9669598836
 30
0.0
 10
9.0611656515
 20
5.9811014131
 30
0.0
 10
9.0900719315
 20
5.9963572478
 30
0.0
 10
9.1183258469
 20
6.0127069316
 30
0.0
 10
9.1458893274
 20
6.0301285357
 30
0.0
 10
9.1727253115
 20
6.0485984557
 30
0.0
 10
9.1987977322
 20
6.0680920608
 30
0.0
 10
9.2240709874
 20
6.0885826721
 30
0.0
 10
9.2403673484
 20
6.1028918693
 30
0.0
 10
9.2483694958
 20
6.1102018029
 30
0.0
  0
SPLINE
  5
3AC
100
AcDbEntity
  8
0
100
AcDbSpline
 62
7
  6
CONTINUOUS
 70
0
 71
3
 72
15
 73
11
 74
0
 42
0.0000001
 43
0.0000001
 44
0.0000000001
 40
0.0
 40
0.0
 40
0.0
 40
0.0
 40
0.1266450919
 40
0.2527837384
 40
0.3784238432
 40
0.503584459
 40
0.6282887886
 40
0.7525675744
 40
0.8764572503
 40
1.0
 40
1.0
 40
1.0
 40
1.0
 10
11.9975333395
 20
9.3108712591
 30
0.0
 10
11.9975333395
 20
9.3213654678
 30
0.0
 10
11.9981410884
 20
9.3423171558
 30
0.0
 10
12.0008857807
 20
9.3735714863
 30
0.0
 10
12.0054527391
 20
9.4044889097
 30
0.0
 10
12.0118265406
 20
9.4349635009
 30
0.0
 10
12.0199858677
 20
9.4648926227
 30
0.0
 10
12.0299034098
 20
9.4941753308
 30
0.0
 10
12.0415451147
 20
9.5227112806
 30
0.0
 10
12.0504425984
 20
9.5412000084
 30
0.0
 10
12.0551635916
 20
9.5502835781
 30
0.0
  0
SPLINE
  5
3AD
100
AcDbEntity
  8
0
100
AcDbSpline
 62
7
  6
CONTINUOUS
 70
0
 71
3
 72
26
 73
22
 74
0
 42
0.0000001
 43
0.0000001
 44
0.0000000001
 40
0.0
 40
0.0
 40
0.0
 40
0.0
 40
0.0637517333
 40
0.1273007155
 40
0.1906464103
 40
0.2537954111
 40
0.2852999197
 40
0.3167575344
 40
0.3795319293
 40
0.442132578
 40
0.5045705888
 40
0.5668585785
 40
0.629010536
 40
0.6910417187
 40
0.7220194482
 40
0.7529732182
 40
0.8148129932
 40
0.8765839448
 40
0.9074518584
 40
0.9383096753
 40
1.0
 40
1.0
 40
1.0
 40
1.0
 10
7.6875157939
 20
6.8728988996
 30
0.0
 10
7.6875157939
 20
6.8870617224
 30
0.0
 10
7.6881708086
 20
6.9153467812
 30
0.0
 10
7.6911271111
 20
6.9576115815
 30
0.0
 10
7.6960496129
 20
6.9995585179
 30
0.0
 10
7.7017859077
 20
7.0342015395
 30
0.0
 10
7.7073469297
 20
7.0616627665
 30
0.0
 10
7.7135428259
 20
7.0889023805
 30
0.0
 10
7.7224874576
 20
7.1225909827
 30
0.0
 10
7.7351271941
 20
7.1623707847
 30
0.0
 10
7.749638817
 20
7.2013918783
 30
0.0
 10
7.7659911133
 20
7.239569833
 30
0.0
 10
7.7841486668
 20
7.2768220596
 30
0.0
 10
7.8007602587
 20
7.3070424256
 30
0.0
 10
7.8149095855
 20
7.3306713816
 30
0.0
 10
7.8296143438
 20
7.3539084838
 30
0.0
 10
7.8490459667
 20
7.3822367707
 30
0.0
 10
7.8698445685
 20
7.4095532252
 30
0.0
 10
7.8872669373
 20
7.430750164
 30
0.0
 10
7.9051978728
 20
7.4514942205
 30
0.0
 10
7.9192207103
 20
7.4665453635
 30
0.0
 10
7.9288092867
 20
7.476337331
 30
0.0
  0
LINE
  5
3AE
100
AcDbEntity
  8
0
100
AcDbLine
 62
7
  6
CONTINUOUS
 10
7.9288092867
 20
7.476337331
 11
7.9290899155
 21
7.4766237735
  0
SPLINE
  5
3AF
100
AcDbEntity
  8
0
100
AcDbSpline
 62
7
  6
CONTINUOUS
 70
0
 71
3
 72
72
 73
68
 74
0
 42
0.0000001
 43
0.0000001
 44
0.0000000001
 40
0.0
 40
0.0
 40
0.0
 40
0.0
 40
0.0155841391
 40
0.0311159426
 40
0.0465951818
 40
0.0620238062
 40
0.0697201947
 40
0.0774045852
 40
0.0927373969
 40
0.1080262197
 40
0.1232742503
 40
0.138485114
 40
0.1536628168
 40
0.1688117118
 40
0.1839364561
 40
0.1990419623
 40
0.2141333478
 40
0.2292158796
 40
0.2442949189
 40
0.2593758645
 40
0.2744640955
 40
0.2895649133
 40
0.3046834847
 40
0.3198247871
 40
0.3349935569
 40
0.3501942419
 40
0.3654309563
 40
0.3807074392
 40
0.3960270182
 40
0.4113925792
 40
0.4268065428
 40
0.4422708435
 40
0.4577869144
 40
0.4733556768
 40
0.488977538
 40
0.5046523931
 40
0.5203796315
 40
0.536158146
 40
0.5519863475
 40
0.5678621856
 40
0.5837831726
 40
0.5997464093
 40
0.6157486138
 40
0.6317861525
 40
0.6478550774
 40
0.6639511628
 40
0.6800699439
 40
0.6962067554
 40
0.7123567737
 40
0.7285150605
 40
0.7446766066
 40
0.7608363741
 40
0.7769893393
 40
0.793130538
 40
0.8092551091
 40
0.8253583378
 40
0.8414356957
 40
0.8574828813
 40
0.8734958611
 40
0.8894709055
 40
0.90540463
 40
0.9212940135
 40
0.93713644
 40
0.9529297866
 40
0.9686720809
 40
0.9843627385
 40
1.0
 40
1.0
 40
1.0
 40
1.0
 10
7.9579750413
 20
6.8541424871
 30
0.0
 10
7.9579750413
 20
6.8647125671
 30
0.0
 10
7.9584923481
 20
6.8858209581
 30
0.0
 10
7.9608273707
 20
6.9173506288
 30
0.0
 10
7.9647148804
 20
6.9486209628
 30
0.0
 10
7.9692441319
 20
6.9744220681
 30
0.0
 10
7.9736338323
 20
6.9948545307
 30
0.0
 10
7.978523339
 20
7.0151063107
 30
0.0
 10
7.9855800003
 20
7.0401236962
 30
0.0
 10
7.9955468937
 20
7.0696095095
 30
0.0
 10
8.0069829226
 20
7.0984687954
 30
0.0
 10
8.0198604535
 20
7.1266314774
 30
0.0
 10
8.0341485497
 20
7.1540297475
 30
0.0
 10
8.0498128181
 20
7.1805974655
 30
0.0
 10
8.0668154968
 20
7.2062705638
 30
0.0
 10
8.085115605
 20
7.2309871103
 30
0.0
 10
8.1046690336
 20
7.2546874757
 30
0.0
 10
8.1254286559
 20
7.2773144671
 30
0.0
 10
8.1473444203
 20
7.2988134834
 30
0.0
 10
8.170363439
 20
7.3191326911
 30
0.0
 10
8.1944301786
 20
7.3382230947
 30
0.0
 10
8.2194865825
 20
7.3560386628
 30
0.0
 10
8.245472217
 20
7.3725364282
 30
0.0
 10
8.272324396
 20
7.38767662
 30
0.0
 10
8.299978322
 20
7.4014227967
 30
0.0
 10
8.3283672853
 20
7.4137418673
 30
0.0
 10
8.357422816
 20
7.4246041823
 30
0.0
 10
8.3870748517
 20
7.433983589
 30
0.0
 10
8.4172518904
 20
7.4418575353
 30
0.0
 10
8.4478811653
 20
7.4482071471
 30
0.0
 10
8.4788888425
 20
7.4530172036
 30
0.0
 10
8.5102001907
 20
7.4562761873
 30
0.0
 10
8.5417397593
 20
7.4579762941
 30
0.0
 10
8.5734315533
 20
7.4581135041
 30
0.0
 10
8.6051992244
 20
7.4566875967
 30
0.0
 10
8.6369662565
 20
7.4537020878
 30
0.0
 10
8.6686561457
 20
7.4491642356
 30
0.0
 10
8.7001925765
 20
7.4430850071
 30
0.0
 10
8.7314996134
 20
7.4354791114
 30
0.0
 10
8.7625018897
 20
7.4263649538
 30
0.0
 10
8.7931247759
 20
7.415764539
 30
0.0
 10
8.8232945586
 20
7.4037034339
 30
0.0
 10
8.8529386064
 20
7.3902106917
 30
0.0
 10
8.8819855701
 20
7.3753188453
 30
0.0
 10
8.9103655514
 20
7.3590638043
 30
0.0
 10
8.9380102503
 20
7.3414847305
 30
0.0
 10
8.9648531315
 20
7.3226239574
 30
0.0
 10
8.9908295712
 20
7.3025268788
 30
0.0
 10
9.015877056
 20
7.2812418984
 30
0.0
 10
9.0399353164
 20
7.2588202801
 30
0.0
 10
9.0629464486
 20
7.2353160004
 30
0.0
 10
9.0848550573
 20
7.2107856299
 30
0.0
 10
9.1056083759
 20
7.1852881923
 30
0.0
 10
9.125156453
 20
7.1588850711
 30
0.0
 10
9.1434522389
 20
7.1316398266
 30
0.0
 10
9.160451677
 20
7.1036180308
 30
0.0
 10
9.1761138145
 20
7.0748871188
 30
0.0
 10
9.1904008896
 20
7.0455162253
 30
0.0
 10
9.2032784931
 20
7.015576054
 30
0.0
 10
9.2147156056
 20
6.9851386747
 30
0.0
 10
9.224684644
 20
6.9542773476
 30
0.0
 10
9.2331615444
 20
6.923066366
 30
0.0
 10
9.2401258382
 20
6.8915808093
 30
0.0
 10
9.2455606108
 20
6.8598966767
 30
0.0
 10
9.2494529833
 20
6.8280896928
 30
0.0
 10
9.2517931208
 20
6.796237815
 30
0.0
 10
9.2523157252
 20
6.7749857665
 30
0.0
 10
9.2523157252
 20
6.7643796558
 30
0.0
  0
SPLINE
  5
3B0
100
AcDbEntity
  8
0
100
AcDbSpline
 62
7
  6
CONTINUOUS
 70
0
 71
3
 72
15
 73
11
 74
0
 42
0.0000001
 43
0.0000001
 44
0.0000000001
 40
0.0
 40
0.0
 40
0.0
 40
0.0
 40
0.1264526698
 40
0.2524701444
 40
0.3780498168
 40
0.5032091093
 40
0.6279614917
 40
0.7523273826
 40
0.8763309049
 40
1.0
 40
1.0
 40
1.0
 40
1.0
 10
11.9551498493
 20
9.3079319489
 30
0.0
 10
11.9551498493
 20
9.3176471071
 30
0.0
 10
11.9556378472
 20
9.3370476175
 30
0.0
 10
11.9578406294
 20
9.3660209226
 30
0.0
 10
11.9615078315
 20
9.3947462213
 30
0.0
 10
11.9666298078
 20
9.4231492735
 30
0.0
 10
11.973193906
 20
9.4511584442
 30
0.0
 10
11.9811835505
 20
9.4787026691
 30
0.0
 10
11.9905781044
 20
9.5057110656
 30
0.0
 10
11.9977719884
 20
9.523338417
 30
0.0
 10
12.0015942316
 20
9.5320369898
 30
0.0
  0
SPLINE
  5
3B1
100
AcDbEntity
  8
0
100
AcDbSpline
 62
7
  6
CONTINUOUS
 70
0
 71
3
 72
24
 73
20
 74
0
 42
0.0000001
 43
0.0000001
 44
0.0000000001
 40
0.0
 40
0.0
 40
0.0
 40
0.0
 40
0.0637764408
 40
0.1273443672
 40
0.1907010024
 40
0.2538548258
 40
0.3168116123
 40
0.3795801652
 40
0.4421711518
 40
0.5045967904
 40
0.5668710032
 40
0.6290092014
 40
0.6910281576
 40
0.7220010174
 40
0.7529508941
 40
0.8147862914
 40
0.8765592262
 40
0.9382901647
 40
1.0
 40
1.0
 40
1.0
 40
1.0
 10
8.0437071714
 20
6.8669533706
 30
0.0
 10
8.0437071714
 20
6.8762105746
 30
0.0
 10
8.0441502849
 20
6.8946978527
 30
0.0
 10
8.0461501348
 20
6.9223162825
 30
0.0
 10
8.0494799666
 20
6.9497158204
 30
0.0
 10
8.0541317586
 20
6.9768320606
 30
0.0
 10
8.0600951519
 20
7.0036030593
 30
0.0
 10
8.0673563349
 20
7.0299669281
 30
0.0
 10
8.075898607
 20
7.0558629359
 30
0.0
 10
8.0857023572
 20
7.081231334
 30
0.0
 10
8.0967451364
 20
7.1060136908
 30
0.0
 10
8.1090012443
 20
7.1301524889
 30
0.0
 10
8.1202078479
 20
7.1496951578
 30
0.0
 10
8.1297489411
 20
7.1649489166
 30
0.0
 10
8.1396617899
 20
7.1799318046
 30
0.0
 10
8.1527554444
 20
7.198161701
 30
0.0
 10
8.1695564726
 20
7.2191874284
 30
0.0
 10
8.187402878
 20
7.2393085925
 30
0.0
 10
8.1999722053
 20
7.2520907924
 30
0.0
 10
8.2064147345
 20
7.2583138036
 30
0.0
  0
SPLINE
  5
3B2
100
AcDbEntity
  8
0
100
AcDbSpline
 62
7
  6
CONTINUOUS
 70
0
 71
3
 72
72
 73
68
 74
0
 42
0.0000001
 43
0.0000001
 44
0.0000000001
 40
0.0
 40
0.0
 40
0.0
 40
0.0
 40
0.0028080269
 40
0.0056357484
 40
0.0085023994
 40
0.0114263655
 40
0.0144248954
 40
0.0175138142
 40
0.0240150992
 40
0.0274548856
 40
0.0310331103
 40
0.0347582228
 40
0.038637415
 40
0.0426767077
 40
0.046881194
 40
0.0512550823
 40
0.0558017079
 40
0.0605237694
 40
0.0654233748
 40
0.075759731
 40
0.0868182127
 40
0.098598601
 40
0.1110954766
 40
0.1242989573
 40
0.1381953061
 40
0.1527676484
 40
0.1679961539
 40
0.1838584729
 40
0.2003300721
 40
0.2173842617
 40
0.2349925857
 40
0.2531249162
 40
0.2717495282
 40
0.2908334012
 40
0.3103422029
 40
0.3302404582
 40
0.3504917274
 40
0.3710585926
 40
0.4129848783
 40
0.4557069026
 40
0.4989035052
 40
0.542248869
 40
0.5854157291
 40
0.6280785651
 40
0.6699167822
 40
0.690429054
 40
0.7106188507
 40
0.7304489648
 40
0.7498830569
 40
0.7688859026
 40
0.7874234007
 40
0.8054626957
 40
0.82297243
 40
0.8399227074
 40
0.8562853711
 40
0.8720341902
 40
0.8871449021
 40
0.9015956586
 40
0.9153671668
 40
0.9284429885
 40
0.9408101529
 40
0.9524594887
 40
0.9633864448
 40
0.9735918993
 40
0.9830834872
 40
0.9918777842
 40
1.0
 40
1.0
 40
1.0
 40
1.0
 10
14.1671265166
 20
10.2196667313
 30
0.0
 10
14.16712651
 20
10.2203350083
 30
0.0
 10
14.1670679852
 20
10.2216769726
 30
0.0
 10
14.1668049728
 20
10.2236856566
 30
0.0
 10
14.1663670035
 20
10.2256918854
 30
0.0
 10
14.1657545453
 20
10.2276942405
 30
0.0
 10
14.1649680105
 20
10.2296917157
 30
0.0
 10
14.1636662698
 20
10.2323925668
 30
0.0
 10
14.1620267523
 20
10.2350369763
 30
0.0
 10
14.1600959527
 20
10.2376119308
 30
0.0
 10
14.1584501057
 20
10.2395702824
 30
0.0
 10
14.1566349496
 20
10.2415179076
 30
0.0
 10
14.1546512714
 20
10.2434541444
 30
0.0
 10
14.1525001664
 20
10.2453780767
 30
0.0
 10
14.1501826697
 20
10.2472887928
 30
0.0
 10
14.1476999209
 20
10.2491853535
 30
0.0
 10
14.1450531969
 20
10.2510668905
 30
0.0
 10
14.1422437944
 20
10.2529325012
 30
0.0
 10
14.1382105927
 20
10.2554423034
 30
0.0
 10
14.1327614221
 20
10.2585252434
 30
0.0
 10
14.1257104299
 20
10.2620831026
 30
0.0
 10
14.1180490094
 20
10.2655557013
 30
0.0
 10
14.1097924228
 20
10.2689360364
 30
0.0
 10
14.1009569673
 20
10.2722173253
 30
0.0
 10
14.0915602824
 20
10.2753929857
 30
0.0
 10
14.0816211508
 20
10.2784565159
 30
0.0
 10
14.0711595275
 20
10.2814017161
 30
0.0
 10
14.0601964534
 20
10.2842226098
 30
0.0
 10
14.0487540023
 20
10.2869133988
 30
0.0
 10
14.036855255
 20
10.2894686533
 30
0.0
 10
14.0245242241
 20
10.2918831504
 30
0.0
 10
14.0117858087
 20
10.2941519477
 30
0.0
 10
13.9986657502
 20
10.2962704728
 30
0.0
 10
13.9851905648
 20
10.2982343718
 30
0.0
 10
13.9713874946
 20
10.3000396578
 30
0.0
 10
13.95728446
 20
10.301682678
 30
0.0
 10
13.9429099593
 20
10.3031600651
 30
0.0
 10
13.923295766
 20
10.3049162062
 30
0.0
 10
13.8983144367
 20
10.3066698532
 30
0.0
 10
13.8679179596
 20
10.3080627198
 30
0.0
 10
13.8371594165
 20
10.3087456515
 30
0.0
 10
13.8062875137
 20
10.3087130654
 30
0.0
 10
13.7755516447
 20
10.3079652441
 30
0.0
 10
13.7452003327
 20
10.3065083027
 30
0.0
 10
13.7202709219
 20
10.3047016951
 30
0.0
 10
13.7007092953
 20
10.3029037783
 30
0.0
 10
13.6863820262
 20
10.3013960092
 30
0.0
 10
13.6723314537
 20
10.2997232367
 30
0.0
 10
13.6585859732
 20
10.2978887948
 30
0.0
 10
13.6451733831
 20
10.2958964623
 30
0.0
 10
13.6321207987
 20
10.293750287
 30
0.0
 10
13.6194546029
 20
10.2914546073
 30
0.0
 10
13.6072003807
 20
10.2890141478
 30
0.0
 10
13.5953828803
 20
10.2864338434
 30
0.0
 10
13.5840259485
 20
10.2837189495
 30
0.0
 10
13.5731524772
 20
10.2808750367
 30
0.0
 10
13.5627843714
 20
10.2779078398
 30
0.0
 10
13.5529424685
 20
10.2748234353
 30
0.0
 10
13.5436465063
 20
10.2716281022
 30
0.0
 10
13.5349150914
 20
10.2683282639
 30
0.0
 10
13.5267655872
 20
10.2649306521
 30
0.0
 10
13.5192141274
 20
10.2614420456
 30
0.0
 10
13.5122755598
 20
10.2578693097
 30
0.0
 10
13.5059633658
 20
10.2542195409
 30
0.0
 10
13.500289405
 20
10.2504993134
 30
0.0
 10
13.4952651516
 20
10.2467158048
 30
0.0
 10
13.4922383406
 20
10.2440528623
 30
0.0
 10
13.4908480282
 20
10.2427099235
 30
0.0
  0
SPLINE
  5
3B3
100
AcDbEntity
  8
0
100
AcDbSpline
 62
7
  6
CONTINUOUS
 70
0
 71
3
 72
15
 73
11
 74
0
 42
0.0000001
 43
0.0000001
 44
0.0000000001
 40
0.0
 40
0.0
 40
0.0
 40
0.0
 40
0.1266450919
 40
0.2527837384
 40
0.3784238432
 40
0.503584459
 40
0.6282887886
 40
0.7525675744
 40
0.8764572503
 40
1.0
 40
1.0
 40
1.0
 40
1.0
 10
8.3733795646
 20
7.1473924682
 30
0.0
 10
8.3733795646
 20
7.157886677
 30
0.0
 10
8.3739873135
 20
7.1788383649
 30
0.0
 10
8.3767320058
 20
7.2100926954
 30
0.0
 10
8.3812989641
 20
7.2410101188
 30
0.0
 10
8.3876727657
 20
7.2714847101
 30
0.0
 10
8.3958320928
 20
7.3014138318
 30
0.0
 10
8.4057496349
 20
7.3306965399
 30
0.0
 10
8.4173913397
 20
7.3592324897
 30
0.0
 10
8.4262888234
 20
7.3777212176
 30
0.0
 10
8.4310098167
 20
7.3868047872
 30
0.0
  0
SPLINE
  5
3B4
100
AcDbEntity
  8
0
100
AcDbSpline
 62
7
  6
CONTINUOUS
 70
0
 71
3
 72
15
 73
11
 74
0
 42
0.0000001
 43
0.0000001
 44
0.0000000001
 40
0.0
 40
0.0
 40
0.0
 40
0.0
 40
0.1264526698
 40
0.2524701444
 40
0.3780498168
 40
0.5032091093
 40
0.6279614917
 40
0.7523273826
 40
0.8763309049
 40
1.0
 40
1.0
 40
1.0
 40
1.0
 10
8.3309960743
 20
7.144453158
 30
0.0
 10
8.3309960743
 20
7.1541683162
 30
0.0
 10
8.3314840722
 20
7.1735688266
 30
0.0
 10
8.3336868544
 20
7.2025421318
 30
0.0
 10
8.3373540566
 20
7.2312674304
 30
0.0
 10
8.3424760329
 20
7.2596704827
 30
0.0
 10
8.349040131
 20
7.2876796533
 30
0.0
 10
8.3570297755
 20
7.3152238782
 30
0.0
 10
8.3664243295
 20
7.3422322747
 30
0.0
 10
8.3736182134
 20
7.3598596261
 30
0.0
 10
8.3774404566
 20
7.368558199
 30
0.0
  0
SPLINE
  5
3B5
100
AcDbEntity
  8
0
100
AcDbSpline
 62
7
  6
CONTINUOUS
 70
0
 71
3
 72
72
 73
68
 74
0
 42
0.0000001
 43
0.0000001
 44
0.0000000001
 40
0.0
 40
0.0
 40
0.0
 40
0.0
 40
0.0028080269
 40
0.0056357484
 40
0.0085023994
 40
0.0114263655
 40
0.0144248954
 40
0.0175138142
 40
0.0240150992
 40
0.0274548856
 40
0.0310331103
 40
0.0347582228
 40
0.038637415
 40
0.0426767077
 40
0.046881194
 40
0.0512550823
 40
0.0558017079
 40
0.0605237694
 40
0.0654233748
 40
0.075759731
 40
0.0868182127
 40
0.098598601
 40
0.1110954766
 40
0.1242989573
 40
0.1381953061
 40
0.1527676484
 40
0.1679961539
 40
0.1838584729
 40
0.2003300721
 40
0.2173842617
 40
0.2349925857
 40
0.2531249162
 40
0.2717495282
 40
0.2908334012
 40
0.3103422029
 40
0.3302404582
 40
0.3504917274
 40
0.3710585926
 40
0.4129848783
 40
0.4557069026
 40
0.4989035052
 40
0.542248869
 40
0.5854157291
 40
0.6280785651
 40
0.6699167822
 40
0.690429054
 40
0.7106188507
 40
0.7304489648
 40
0.7498830569
 40
0.7688859026
 40
0.7874234007
 40
0.8054626957
 40
0.82297243
 40
0.8399227074
 40
0.8562853711
 40
0.8720341902
 40
0.8871449021
 40
0.9015956586
 40
0.9153671668
 40
0.9284429885
 40
0.9408101529
 40
0.9524594887
 40
0.9633864448
 40
0.9735918993
 40
0.9830834872
 40
0.9918777842
 40
1.0
 40
1.0
 40
1.0
 40
1.0
 10
7.6451950335
 20
10.6719642158
 30
0.0
 10
7.6451950269
 20
10.6726324928
 30
0.0
 10
7.6451365021
 20
10.6739744572
 30
0.0
 10
7.6448734897
 20
10.6759831411
 30
0.0
 10
7.6444355204
 20
10.67798937
 30
0.0
 10
7.6438230623
 20
10.6799917251
 30
0.0
 10
7.6430365274
 20
10.6819892002
 30
0.0
 10
7.6417347867
 20
10.6846900513
 30
0.0
 10
7.6400952693
 20
10.6873344608
 30
0.0
 10
7.6381644696
 20
10.6899094154
 30
0.0
 10
7.6365186226
 20
10.691867767
 30
0.0
 10
7.6347034665
 20
10.6938153922
 30
0.0
 10
7.6327197883
 20
10.695751629
 30
0.0
 10
7.6305686833
 20
10.6976755612
 30
0.0
 10
7.6282511866
 20
10.6995862773
 30
0.0
 10
7.6257684378
 20
10.7014828381
 30
0.0
 10
7.6231217138
 20
10.7033643751
 30
0.0
 10
7.6203123113
 20
10.7052299858
 30
0.0
 10
7.6162791096
 20
10.707739788
 30
0.0
 10
7.610829939
 20
10.7108227279
 30
0.0
 10
7.6037789468
 20
10.7143805872
 30
0.0
 10
7.5961175263
 20
10.7178531859
 30
0.0
 10
7.5878609397
 20
10.721233521
 30
0.0
 10
7.5790254842
 20
10.7245148099
 30
0.0
 10
7.5696287993
 20
10.7276904703
 30
0.0
 10
7.5596896677
 20
10.7307540005
 30
0.0
 10
7.5492280444
 20
10.7336992006
 30
0.0
 10
7.5382649703
 20
10.7365200943
 30
0.0
 10
7.5268225192
 20
10.7392108833
 30
0.0
 10
7.5149237719
 20
10.7417661379
 30
0.0
 10
7.502592741
 20
10.7441806349
 30
0.0
 10
7.4898543256
 20
10.7464494323
 30
0.0
 10
7.4767342671
 20
10.7485679574
 30
0.0
 10
7.4632590817
 20
10.7505318564
 30
0.0
 10
7.4494560115
 20
10.7523371424
 30
0.0
 10
7.4353529769
 20
10.7539801626
 30
0.0
 10
7.4209784762
 20
10.7554575496
 30
0.0
 10
7.4013642829
 20
10.7572136908
 30
0.0
 10
7.3763829536
 20
10.7589673378
 30
0.0
 10
7.3459864765
 20
10.7603602043
 30
0.0
 10
7.3152279334
 20
10.7610431361
 30
0.0
 10
7.2843560306
 20
10.76101055
 30
0.0
 10
7.2536201616
 20
10.7602627287
 30
0.0
 10
7.2232688496
 20
10.7588057873
 30
0.0
 10
7.1983394388
 20
10.7569991797
 30
0.0
 10
7.1787778122
 20
10.7552012629
 30
0.0
 10
7.1644505431
 20
10.7536934938
 30
0.0
 10
7.1503999706
 20
10.7520207212
 30
0.0
 10
7.1366544901
 20
10.7501862793
 30
0.0
 10
7.1232419
 20
10.7481939468
 30
0.0
 10
7.1101893156
 20
10.7460477716
 30
0.0
 10
7.0975231198
 20
10.7437520919
 30
0.0
 10
7.0852688976
 20
10.7413116324
 30
0.0
 10
7.0734513972
 20
10.7387313279
 30
0.0
 10
7.0620944654
 20
10.7360164341
 30
0.0
 10
7.0512209941
 20
10.7331725213
 30
0.0
 10
7.0408528883
 20
10.7302053243
 30
0.0
 10
7.0310109854
 20
10.7271209199
 30
0.0
 10
7.0217150232
 20
10.7239255868
 30
0.0
 10
7.0129836083
 20
10.7206257485
 30
0.0
 10
7.0048341041
 20
10.7172281367
 30
0.0
 10
6.9972826443
 20
10.7137395301
 30
0.0
 10
6.9903440767
 20
10.7101667942
 30
0.0
 10
6.9840318827
 20
10.7065170254
 30
0.0
 10
6.9783579219
 20
10.702796798
 30
0.0
 10
6.9733336685
 20
10.6990132894
 30
0.0
 10
6.9703068575
 20
10.6963503469
 30
0.0
 10
6.9689165451
 20
10.6950074081
 30
0.0
  0
SPLINE
  5
3B6
100
AcDbEntity
  8
0
100
AcDbSpline
 62
7
  6
CONTINUOUS
 70
0
 71
3
 72
72
 73
68
 74
0
 42
0.0000001
 43
0.0000001
 44
0.0000000001
 40
0.0
 40
0.0
 40
0.0
 40
0.0
 40
0.0156372615
 40
0.0313279191
 40
0.0470702134
 40
0.06286356
 40
0.0787059865
 40
0.09459537
 40
0.1105290945
 40
0.1265041389
 40
0.1425171187
 40
0.1585643043
 40
0.1746416622
 40
0.1907448909
 40
0.206869462
 40
0.2230106607
 40
0.2391636259
 40
0.2553233934
 40
0.2714849395
 40
0.2876432263
 40
0.3037932446
 40
0.3199300561
 40
0.3360488372
 40
0.3521449226
 40
0.3682138475
 40
0.3842513862
 40
0.4002535907
 40
0.4162168274
 40
0.4321378144
 40
0.4480136525
 40
0.463841854
 40
0.4796203685
 40
0.4953476069
 40
0.511022462
 40
0.5266443232
 40
0.5422130856
 40
0.5577291565
 40
0.5731934572
 40
0.5886074208
 40
0.6039729818
 40
0.6192925608
 40
0.6345690437
 40
0.6498057581
 40
0.6650064431
 40
0.6801752129
 40
0.6953165153
 40
0.7104350867
 40
0.7255359045
 40
0.7406241355
 40
0.7557050811
 40
0.7707841204
 40
0.7858666522
 40
0.8009580377
 40
0.8160635439
 40
0.8311882882
 40
0.8463371832
 40
0.861514886
 40
0.8767257497
 40
0.8919737803
 40
0.9072626031
 40
0.9225954148
 40
0.9302798053
 40
0.9379761938
 40
0.9534048182
 40
0.9688840574
 40
0.9844158609
 40
1.0
 40
1.0
 40
1.0
 40
1.0
 10
7.9579750413
 20
6.8541424871
 30
0.0
 10
7.9579750413
 20
6.8435363764
 30
0.0
 10
7.9584976457
 20
6.8222843279
 30
0.0
 10
7.9608377832
 20
6.7904324502
 30
0.0
 10
7.9647301557
 20
6.7586254662
 30
0.0
 10
7.9701649284
 20
6.7269413336
 30
0.0
 10
7.9771292222
 20
6.6954557769
 30
0.0
 10
7.9856061226
 20
6.6642447954
 30
0.0
 10
7.995575161
 20
6.6333834682
 30
0.0
 10
8.0070122735
 20
6.6029460889
 30
0.0
 10
8.0198898769
 20
6.5730059176
 30
0.0
 10
8.034176952
 20
6.5436350241
 30
0.0
 10
8.0498390895
 20
6.5149041121
 30
0.0
 10
8.0668385277
 20
6.4868823163
 30
0.0
 10
8.0851343135
 20
6.4596370718
 30
0.0
 10
8.1046823906
 20
6.4332339507
 30
0.0
 10
8.1254357092
 20
6.407736513
 30
0.0
 10
8.147344318
 20
6.3832061425
 30
0.0
 10
8.1703554502
 20
6.3597018628
 30
0.0
 10
8.1944137106
 20
6.3372802445
 30
0.0
 10
8.2194611954
 20
6.3159952641
 30
0.0
 10
8.245437635
 20
6.2958981855
 30
0.0
 10
8.2722805163
 20
6.2770374124
 30
0.0
 10
8.2999252152
 20
6.2594583386
 30
0.0
 10
8.3283051965
 20
6.2432032976
 30
0.0
 10
8.3573521602
 20
6.2283114513
 30
0.0
 10
8.3869962079
 20
6.214818709
 30
0.0
 10
8.4171659906
 20
6.2027576039
 30
0.0
 10
8.4477888769
 20
6.1921571891
 30
0.0
 10
8.4787911532
 20
6.1830430315
 30
0.0
 10
8.5100981901
 20
6.1754371358
 30
0.0
 10
8.5416346209
 20
6.1693579073
 30
0.0
 10
8.5733245101
 20
6.1648200551
 30
0.0
 10
8.6050915422
 20
6.1618345462
 30
0.0
 10
8.6368592133
 20
6.1604086389
 30
0.0
 10
8.6685510073
 20
6.1605458488
 30
0.0
 10
8.7000905759
 20
6.1622459556
 30
0.0
 10
8.7314019241
 20
6.1655049393
 30
0.0
 10
8.7624096012
 20
6.1703149958
 30
0.0
 10
8.7930388762
 20
6.1766646076
 30
0.0
 10
8.8232159148
 20
6.1845385539
 30
0.0
 10
8.8528679506
 20
6.1939179606
 30
0.0
 10
8.8819234813
 20
6.2047802756
 30
0.0
 10
8.9103124446
 20
6.2170993463
 30
0.0
 10
8.9379663705
 20
6.230845523
 30
0.0
 10
8.9648185496
 20
6.2459857147
 30
0.0
 10
8.9908041841
 20
6.2624834801
 30
0.0
 10
9.015860588
 20
6.2802990482
 30
0.0
 10
9.0399273276
 20
6.2993894518
 30
0.0
 10
9.0629463463
 20
6.3197086595
 30
0.0
 10
9.0848621106
 20
6.3412076758
 30
0.0
 10
9.1056217329
 20
6.3638346672
 30
0.0
 10
9.1251751616
 20
6.3875350326
 30
0.0
 10
9.1434752697
 20
6.4122515791
 30
0.0
 10
9.1604779485
 20
6.4379246774
 30
0.0
 10
9.1761422169
 20
6.4644923954
 30
0.0
 10
9.190430313
 20
6.4918906655
 30
0.0
 10
9.2033078439
 20
6.5200533475
 30
0.0
 10
9.2147438728
 20
6.5489126334
 30
0.0
 10
9.2247107662
 20
6.5783984467
 30
0.0
 10
9.2317674276
 20
6.6034158322
 30
0.0
 10
9.2366569343
 20
6.6236676122
 30
0.0
 10
9.2410466346
 20
6.6441000748
 30
0.0
 10
9.2455758861
 20
6.6699011801
 30
0.0
 10
9.2494633959
 20
6.7011715141
 30
0.0
 10
9.2517984185
 20
6.7327011849
 30
0.0
 10
9.2523157252
 20
6.7538095758
 30
0.0
 10
9.2523157252
 20
6.7643796558
 30
0.0
  0
SPLINE
  5
3B7
100
AcDbEntity
  8
0
100
AcDbSpline
 62
7
  6
CONTINUOUS
 70
0
 71
3
 72
51
 73
47
 74
0
 42
0.0000001
 43
0.0000001
 44
0.0000000001
 40
0.0
 40
0.0
 40
0.0
 40
0.0
 40
0.0310732448
 40
0.0623036911
 40
0.0936867976
 40
0.1252138182
 40
0.1568734337
 40
0.1886514443
 40
0.2205312484
 40
0.2524941714
 40
0.2845198644
 40
0.3165867233
 40
0.348672324
 40
0.38075387
 40
0.4128086448
 40
0.4448144642
 40
0.4767501205
 40
0.5085958138
 40
0.5403335613
 40
0.5719475804
 40
0.6034246372
 40
0.6347543529
 40
0.6503641691
 40
0.6659346996
 40
0.6814655594
 40
0.6969565712
 40
0.7124077866
 40
0.7278194673
 40
0.7431921027
 40
0.7585263985
 40
0.7738232751
 40
0.7890838728
 40
0.804309531
 40
0.8195018007
 40
0.8346624197
 40
0.8497933151
 40
0.8648965903
 40
0.8799745073
 40
0.8950294868
 40
0.9100640796
 40
0.9250809644
 40
0.9400829251
 40
0.9550728345
 40
0.9700536429
 40
0.9850283506
 40
1.0
 40
1.0
 40
1.0
 40
1.0
 10
8.0437071714
 20
6.8669533706
 30
0.0
 10
8.0437071714
 20
6.8525907189
 30
0.0
 10
8.0447785898
 20
6.8237817015
 30
0.0
 10
8.0495622627
 20
6.7807060824
 30
0.0
 10
8.0574995352
 20
6.7378834046
 30
0.0
 10
8.0685465652
 20
6.6955518487
 30
0.0
 10
8.0826421587
 20
6.6539430753
 30
0.0
 10
8.0997086275
 20
6.6132856677
 30
0.0
 10
8.1196519818
 20
6.573802698
 30
0.0
 10
8.1423625081
 20
6.5357108344
 30
0.0
 10
8.167715356
 20
6.4992190742
 30
0.0
 10
8.1955712446
 20
6.4645276481
 30
0.0
 10
8.2257772146
 20
6.431826926
 30
0.0
 10
8.2581674605
 20
6.4012963874
 30
0.0
 10
8.2925642312
 20
6.3731036491
 30
0.0
 10
8.3287787894
 20
6.3474035459
 30
0.0
 10
8.3666124129
 20
6.3243372677
 30
0.0
 10
8.4058575437
 20
6.3040316132
 30
0.0
 10
8.4462987265
 20
6.2865983153
 30
0.0
 10
8.4877144466
 20
6.272133351
 30
0.0
 10
8.5298758324
 20
6.2607167072
 30
0.0
 10
8.5654882549
 20
6.2537864624
 30
0.0
 10
8.5941144437
 20
6.2498274298
 30
0.0
 10
8.6156007684
 20
6.2476546734
 30
0.0
 10
8.6370974952
 20
6.2462783205
 30
0.0
 10
8.658575425
 20
6.2457003258
 30
0.0
 10
8.6800049232
 20
6.2459213132
 30
0.0
 10
8.7013565432
 20
6.2469412375
 30
0.0
 10
8.7226009197
 20
6.2487584899
 30
0.0
 10
8.7437088272
 20
6.2513707347
 30
0.0
 10
8.7646512301
 20
6.25477436
 30
0.0
 10
8.7853993376
 20
6.2589646194
 30
0.0
 10
8.8059245668
 20
6.2639359474
 30
0.0
 10
8.826198736
 20
6.2696812857
 30
0.0
 10
8.8461938861
 20
6.2761929799
 30
0.0
 10
8.8658825567
 20
6.283461909
 30
0.0
 10
8.885237632
 20
6.2914781644
 30
0.0
 10
8.904232456
 20
6.3002307642
 30
0.0
 10
8.9228409551
 20
6.3097075402
 30
0.0
 10
8.9410374124
 20
6.319895669
 30
0.0
 10
8.9587969051
 20
6.3307809164
 30
0.0
 10
8.9760948873
 20
6.342348501
 30
0.0
 10
8.9929075936
 20
6.3545823819
 30
0.0
 10
9.0092119683
 20
6.3674658164
 30
0.0
 10
9.0249851841
 20
6.3809808674
 30
0.0
 10
9.0351332964
 20
6.3904005356
 30
0.0
 10
9.0401106685
 20
6.3952083125
 30
0.0
  0
ENDSEC
  0
SECTION
  2
OBJECTS
  0
DICTIONARY
  5
C
100
AcDbDictionary
280
0
281
1
  3
ACAD_GROUP
350
D
  3
ACAD_MLINESTYLE
350
17
  3
ACAD_LAYOUT
350
1A
  3
ACAD_PLOTSETTINGS
350
19
  3
ACAD_PLOTSTYLENAME
350
E
  3
ACAD_IMAGE_DICT
350
       3B9
  3
ACAD_IMAGE_VARS
350
       3BA
  3
ACAD_TABLESTYLE
350
       3BB
  0
IMAGEDEF_REACTOR
  5
3B8
100
AcDbRasterImageDefReactor
 90
2
330
287
  0
DICTIONARY
  5
D
102
{ACAD_REACTORS
330
C
102
}
100
AcDbDictionary
280
0
281
1
  0
ACDBDICTIONARYWDFLT
  5
E
102
{ACAD_REACTORS
330
C
102
}
100
AcDbDictionary
281
1
  3
Normal
350
F
100
AcDbDictionaryWithDefault
340
F
  0
DICTIONARY
  5
3B9
330
C
100
AcDbDictionary
281
1
  3
E8U_assy_2_img_1
350
       3BE
  0
RASTERVARIABLES
  5
3BA
330
C
100
AcDbRasterVariables
 90
0
 70
0
 71
1
 72
5
  0
DICTIONARY
  5
17
102
{ACAD_REACTORS
330
C
102
}
100
AcDbDictionary
280
0
281
1
  3
Standard
350
18
  0
DICTIONARY
  5
3BB
330
C
100
AcDbDictionary
281
1
  3
Standard
350
       3BF
  3
Standard1
350
       3C0
  0
DICTIONARY
  5
19
102
{ACAD_REACTORS
330
C
102
}
100
AcDbDictionary
281
1
  0
DICTIONARY
  5
1A
102
{ACAD_REACTORS
330
C
102
}
100
AcDbDictionary
281
1
  3
Model
350
3BC
  3
Layout1
350
3BD
  0
ACDBPLACEHOLDER
  5
F
102
{ACAD_REACTORS
330
E
102
}
  0
MLINESTYLE
  5
18
102
{ACAD_REACTORS
330
17
102
}
100
AcDbMlineStyle
  2
STANDARD
 70
0
  3

 62
256
 51
90.0
 52
90.0
 71
2
 49
0.5
 62
256
  6
BYLAYER
 49
-0.5
 62
256
  6
BYLAYER
  0
LAYOUT
  5
3BC
102
{ACAD_REACTORS
330
1A
102
}
100
AcDbPlotSettings
  1

  2
none_device
  4
ANSI_C_(22.00_x_17.00_Inches)
  6

 40
0.0
 41
0.0
 42
0.0
 43
0.0
 44
558.8
 45
431.8
 46
0.0
 47
0.0
 48
0.0
 49
0.0
140
0.0
141
0.0
142
1.0
143
1.0
 70
1024
 72
0
 73
0
 74
0
  7

 75
0
147
1.0
148
0.0
149
0.0
100
AcDbLayout
  1
Model
 70
0
 71
0
 10
0.0
 20
0.0
 11
22.0
 21
17.0
 12
0.0
 22
0.0
 32
0.0
 14
0.0
 24
0.0
 34
0.0
 15
0.0
 25
0.0
 35
0.0
146
0.0
 13
0.0
 23
0.0
 33
0.0
 16
1.0
 26
0.0
 36
0.0
 17
0.0
 27
1.0
 37
0.0
 76
0
330
20C
345
0
346
0
  0
LAYOUT
  5
3BD
102
{ACAD_REACTORS
330
1A
102
}
100
AcDbPlotSettings
  1

  2
none_device
  4
ANSI_C_(22.00_x_17.00_Inches)
  6

 40
0.0
 41
0.0
 42
0.0
 43
0.0
 44
558.8
 45
431.8
 46
0.0
 47
0.0
 48
0.0
 49
0.0
140
0.0
141
0.0
142
1.0
143
1.0
 70
0
 72
0
 73
0
 74
0
  7

 75
0
147
1.0
148
0.0
149
0.0
100
AcDbLayout
  1
Layout1
 70
0
 71
1
 10
0.0
 20
0.0
 11
22.0
 21
17.0
 12
0.0
 22
0.0
 32
0.0
 14
0.0
 24
0.0
 34
0.0
 15
0.0
 25
0.0
 35
0.0
146
0.0
 13
0.0
 23
0.0
 33
0.0
 16
1.0
 26
0.0
 36
0.0
 17
0.0
 27
1.0
 37
0.0
 76
0
330
20D
345
0
346
0
  0
IMAGEDEF
  5
3BE
102
{ACAD_REACTORS
330
3B9
330
3B8
102
}
100
AcDbRasterImageDef
 90
0
  1
E8U_assy_2_img_1.png
 10
369.0
 20
92.0
 11
0.0066666667
 21
0.0066666667
280
1
281
0
  0
TABLESTYLE
  5
3BF
102
{ACAD_REACTORS
330
3BB
330
28A
330
28B
102
}
330
3BB
100
AcDbTableStyle
  3
Standard
 70
0
 71
0
 40
0.06
 41
0.06
280
1
281
1
  7
Standard
140
0.18
170
1
 62
0
 63
7
283
0
  7
Standard
140
0.18
170
1
 62
0
 63
7
283
0
  7
Standard
140
0.18
170
1
 62
0
 63
7
283
0
  0
TABLESTYLE
  5
3C0
102
{ACAD_REACTORS
330
3BB
330
289
102
}
330
3BB
100
AcDbTableStyle
  3
Standard1
 70
1
 71
0
 40
0.06
 41
0.06
280
1
281
1
  7
Standard
140
0.18
170
1
 62
0
 63
7
283
0
  7
Standard
140
0.18
170
1
 62
0
 63
7
283
0
  7
Standard
140
0.18
170
1
 62
0
 63
7
283
0
  0
ENDSEC
  0
EOF
