999
DXF file: E8T_assy_2.dxf
999
Pro/ENGINEER 2014200 by Parametric Technology Corporation
  0
SECTION
  2
HEADER
  9
$ACADVER
  1
AC1021
  9
$DWGCODEPAGE
  3
ANSI_1252
  9
$EXTMAX
 10
22.0
 20
17.0
 30
0.0
  9
$EXTMIN
 10
0.0
 20
0.0
 30
0.0
  9
$LIMMIN
 10
0.0
 20
0.0
  9
$LIMMAX
 10
22.0
 20
17.0
  9
$VIEWCTR
 10
11.0
 20
8.5
  9
$VIEWSIZE
 40
17.0
  9
$CLAYER
  8
0
  9
$LTSCALE
 40
1.21
  9
$CELTYPE
  6
BYLAYER
  9
$DIMSCALE
 40
1.0
  9
$DIMASZ
 40
0.1875
  9
$DIMEXO
 40
0.0625
  9
$DIMDLI
 40
0.836
  9
$DIMEXE
 40
0.125
  9
$DIMCEN
 40
0.198
  9
$DIMLFAC
 40
1.0
  9
$DIMBLK
  1
_FILLED
  9
$DIMTXT
 40
0.1
  9
$DIMTOL
 70
0
  9
$DIMLIM
 70
0
  9
$DIMTFAC
 40
1.0
  9
$DIMGAP
 40
0.09
  9
$DIMDSEP
 70
46
  9
$AUNITS
 70
0
  9
$PDMODE
 70
3
  9
$PDSIZE
 40
0.3125
  9
$HANDSEED
  5
3AE
  9
$TILEMODE
 70
1
  9
$MEASUREMENT
 70
0
  9
$INSUNITS
 70
1
  0
ENDSEC
  0
SECTION
  2
CLASSES
  0
CLASS
  1
ACDBDICTIONARYWDFLT
  2
AcDbDictionaryWithDefault
  3
AutoCAD 2000
 90
0
 91
1
280
0
281
0
  0
CLASS
  1
ACDBPLACEHOLDER
  2
AcDbPlaceHolder
  3
AutoCAD 2000
 90
0
 91
1
280
0
281
0
  0
CLASS
  1
LAYOUT
  2
AcDbLayout
  3
AutoCAD 2000
 90
0
 91
0
280
0
281
0
  0
CLASS
  1
RASTERVARIABLES
  2
AcDbRasterVariables
  3
ISM
 90
0
 91
1
280
0
281
0
  0
CLASS
  1
IMAGEDEF
  2
AcDbRasterImageDef
  3
ISM
 90
0
 91
1
280
0
281
0
  0
CLASS
  1
IMAGEDEF_REACTOR
  2
AcDbRasterImageDefReactor
  3
ISM
 90
0
 91
1
280
0
281
0
  0
CLASS
  1
IMAGE
  2
AcDbRasterImage
  3
ISM
 90
127
 91
1
280
0
281
1
  0
CLASS
  1
TABLESTYLE
  2
AcDbTableStyle
  3
ObjectDBX Classes
 90
2047
 91
1
280
0
281
0
  0
CLASS
  1
ACAD_TABLE
  2
AcDbTable
  3
ObjectDBX Classes
 90
1025
 91
3
280
0
281
1
  0
ENDSEC
  0
SECTION
  2
TABLES
  0
TABLE
  2
VPORT
  5
8
100
AcDbSymbolTable
 70
2
  0
VPORT
  5
1F4
100
AcDbSymbolTableRecord
100
AcDbViewportTableRecord
  2
*ACTIVE
 70
0
 10
0.0
 20
0.0
 11
1.0
 21
1.0
 12
11.0
 22
8.5
 13
0.0
 23
0.0
 14
1.0
 24
1.0
 15
0.0
 25
0.0
 16
0.0
 26
0.0
 36
1.0
 17
0.0
 27
0.0
 37
0.0
 40
17.0
 41
1.2941176471
 42
50.0
 43
0.0
 44
0.0
 50
0.0
 51
0.0
 71
0
 72
100
 73
1
 74
1
 75
0
 76
0
 77
0
 78
0
  0
ENDTAB
  0
TABLE
  2
LTYPE
  5
5
100
AcDbSymbolTable
 70
6
  0
LTYPE
  5
14
100
AcDbSymbolTableRecord
100
AcDbLinetypeTableRecord
  2
BYBLOCK
 70
0
  3

 72
65
 73
0
 40
0.0
  0
LTYPE
  5
15
100
AcDbSymbolTableRecord
100
AcDbLinetypeTableRecord
  2
BYLAYER
 70
0
  3

 72
65
 73
0
 40
0.0
  0
LTYPE
  5
16
100
AcDbSymbolTableRecord
100
AcDbLinetypeTableRecord
  2
CONTINUOUS
 70
64
  3
Solid line
 72
65
 73
0
 40
0.0
  0
LTYPE
  5
1F5
100
AcDbSymbolTableRecord
100
AcDbLinetypeTableRecord
  2
CENTER
 70
64
  3
____ _ ____ _ ____ _ ____ _ ____ _ ____ _ ____
 72
65
 73
4
 40
0.6
 49
0.375
 74
0
 49
-0.075
 74
0
 49
0.075
 74
0
 49
-0.075
 74
0
  0
LTYPE
  5
1F6
100
AcDbSymbolTableRecord
100
AcDbLinetypeTableRecord
  2
HIDDEN
 70
64
  3
- - - - - - - - - - - - - - - - - - - -
 72
65
 73
2
 40
0.2
 49
0.1
 74
0
 49
-0.1
 74
0
  0
LTYPE
  5
1F7
100
AcDbSymbolTableRecord
100
AcDbLinetypeTableRecord
  2
PHANTOM
 70
64
  3
_____ _ _ _____ _ _ _____ _ _ _____
 72
65
 73
6
 40
0.8
 49
0.45
 74
0
 49
-0.05
 74
0
 49
0.1
 74
0
 49
-0.05
 74
0
 49
0.1
 74
0
 49
-0.05
 74
0
  0
LTYPE
  5
1F8
100
AcDbSymbolTableRecord
100
AcDbLinetypeTableRecord
  2
DOT
 70
64
  3
. . . . . . . . . . . . . . . . . . . .
 72
65
 73
2
 40
0.2
 49
0.1
 74
0
 49
-0.1
 74
0
  0
LTYPE
  5
1F9
100
AcDbSymbolTableRecord
100
AcDbLinetypeTableRecord
  2
DASHED
 70
64
  3
- - - - - - - - - - - - - - - - - - - -
 72
65
 73
2
 40
0.2
 49
0.1
 74
0
 49
-0.1
 74
0
  0
ENDTAB
  0
TABLE
  2
LAYER
  5
2
100
AcDbSymbolTable
 70
36
  0
LAYER
  5
10
100
AcDbSymbolTableRecord
100
AcDbLayerTableRecord
  2
0
 70
0
 62
7
  6
CONTINUOUS
370
-3
390
F
  0
LAYER
  5
1FA
100
AcDbSymbolTableRecord
100
AcDbLayerTableRecord
  2
DEFAULT_1
 70
0
 62
7
  6
CENTER
370
-3
390
F
  0
LAYER
  5
1FB
100
AcDbSymbolTableRecord
100
AcDbLayerTableRecord
  2
DEFAULT_2
 70
0
 62
8
  6
HIDDEN
370
-3
390
F
  0
LAYER
  5
1FC
100
AcDbSymbolTableRecord
100
AcDbLayerTableRecord
  2
DEFAULT_3
 70
0
 62
7
  6
PHANTOM
370
-3
390
F
  0
LAYER
  5
1FD
100
AcDbSymbolTableRecord
100
AcDbLayerTableRecord
  2
01___PRT_ALL_DTM_PLN
 70
0
 62
7
  6
CONTINUOUS
370
-3
390
F
  0
LAYER
  5
1FE
100
AcDbSymbolTableRecord
100
AcDbLayerTableRecord
  2
01___PRT_DEF_DTM_PLN
 70
0
 62
7
  6
CONTINUOUS
370
-3
390
F
  0
LAYER
  5
1FF
100
AcDbSymbolTableRecord
100
AcDbLayerTableRecord
  2
02___PRT_ALL_AXES
 70
0
 62
7
  6
CONTINUOUS
370
-3
390
F
  0
LAYER
  5
200
100
AcDbSymbolTableRecord
100
AcDbLayerTableRecord
  2
03___PRT_ALL_CURVES
 70
0
 62
7
  6
CONTINUOUS
370
-3
390
F
  0
LAYER
  5
201
100
AcDbSymbolTableRecord
100
AcDbLayerTableRecord
  2
04___PRT_ALL_DTM_PNT
 70
0
 62
7
  6
CONTINUOUS
370
-3
390
F
  0
LAYER
  5
202
100
AcDbSymbolTableRecord
100
AcDbLayerTableRecord
  2
05___PRT_ALL_DTM_CSYS
 70
0
 62
7
  6
CONTINUOUS
370
-3
390
F
  0
LAYER
  5
203
100
AcDbSymbolTableRecord
100
AcDbLayerTableRecord
  2
05___PRT_DEF_DTM_CSYS
 70
0
 62
7
  6
CONTINUOUS
370
-3
390
F
  0
LAYER
  5
204
100
AcDbSymbolTableRecord
100
AcDbLayerTableRecord
  2
06___PRT_ALL_SURFS
 70
0
 62
7
  6
CONTINUOUS
370
-3
390
F
  0
LAYER
  5
205
100
AcDbSymbolTableRecord
100
AcDbLayerTableRecord
  2
DATUM_PLANES
 70
0
 62
7
  6
CONTINUOUS
370
-3
390
F
  0
LAYER
  5
206
100
AcDbSymbolTableRecord
100
AcDbLayerTableRecord
  2
PORT_AREAS
 70
0
 62
7
  6
CONTINUOUS
370
-3
390
F
  0
LAYER
  5
207
100
AcDbSymbolTableRecord
100
AcDbLayerTableRecord
  2
SUNNBOMCOSMETIC
 70
0
 62
7
  6
CONTINUOUS
370
-3
390
F
  0
LAYER
  5
208
100
AcDbSymbolTableRecord
100
AcDbLayerTableRecord
  2
SUNNBOMSTAMPING
 70
0
 62
7
  6
CONTINUOUS
370
-3
390
F
  0
LAYER
  5
209
100
AcDbSymbolTableRecord
100
AcDbLayerTableRecord
  2
THREADS
 70
0
 62
7
  6
CONTINUOUS
370
-3
390
F
  0
ENDTAB
  0
TABLE
  2
STYLE
  5
3
100
AcDbSymbolTable
 70
1
  0
STYLE
  5
11
100
AcDbSymbolTableRecord
100
AcDbTextStyleTableRecord
  2
STANDARD
 70
0
 40
0.0
 41
0.8
 50
0.0
 71
0
 42
0.2
  3
txt
  4

  0
STYLE
  5
20A
100
AcDbSymbolTableRecord
100
AcDbTextStyleTableRecord
  2
TEXTSTYLE_1
 70
0
 40
0.0
 41
0.8
 50
0.0
 71
0
 42
0.2
  3
gdt
  4

  0
ENDTAB
  0
TABLE
  2
VIEW
  5
6
100
AcDbSymbolTable
 70
0
  0
ENDTAB
  0
TABLE
  2
UCS
  5
7
100
AcDbSymbolTable
 70
0
  0
ENDTAB
  0
TABLE
  2
APPID
  5
9
100
AcDbSymbolTable
 70
1
  0
APPID
  5
20B
100
AcDbSymbolTableRecord
100
AcDbRegAppTableRecord
  2
ACAD
 70
0
  0
ENDTAB
  0
TABLE
  2
BLOCK_RECORD
  5
1
100
AcDbSymbolTable
 70
0
  0
BLOCK_RECORD
  5
20C
100
AcDbSymbolTableRecord
100
AcDbBlockTableRecord
  2
*Model_Space
  0
BLOCK_RECORD
  5
20D
100
AcDbSymbolTableRecord
100
AcDbBlockTableRecord
  2
*Paper_Space
  0
BLOCK_RECORD
  5
20E
100
AcDbSymbolTableRecord
100
AcDbBlockTableRecord
  2
SUN_FIRST_THIRD_ANGLE_BL0
  0
BLOCK_RECORD
  5
20F
100
AcDbSymbolTableRecord
100
AcDbBlockTableRecord
  2
*T1
  0
BLOCK_RECORD
  5
210
100
AcDbSymbolTableRecord
100
AcDbBlockTableRecord
  2
*T2
  0
BLOCK_RECORD
  5
211
100
AcDbSymbolTableRecord
100
AcDbBlockTableRecord
  2
*T3
  0
ENDTAB
  0
TABLE
  2
DIMSTYLE
  5
A
100
AcDbSymbolTable
 70
1
100
AcDbDimStyleTable
 71
0
  0
DIMSTYLE
105
212
100
AcDbSymbolTableRecord
100
AcDbDimStyleTableRecord
  2
STANDARD
 70
0
  3

  4

 40
1.0
 41
0.1875
 42
0.0625
 43
0.38
 44
0.125
 45
0.0
 46
0.0
 47
0.001
 48
0.001
140
0.1
141
0.09
142
0.0
143
25.4
144
1.0
145
0.0
146
1.0
147
0.09
 71
0.0
 72
0.0
 73
1
 74
1
 75
0
 76
0
 77
0
 78
4
170
0
171
2
172
0
173
0
174
0
175
0
176
0
177
0
178
0
270
2
271
3
272
3
273
2
274
2
275
0
280
0
281
0
282
0
283
1
284
4
285
0
286
0
287
3
288
0
340
11
278
46
  0
ENDTAB
  0
ENDSEC
  0
SECTION
  2
BLOCKS
  0
BLOCK
  5
20
100
AcDbEntity
  8
0
100
AcDbBlockBegin
  2
*Model_Space
 70
0
 10
0.0
 20
0.0
 30
0.0
  3
*Model_Space
  1

  0
ENDBLK
  5
21
100
AcDbEntity
  8
0
100
AcDbBlockEnd
  0
BLOCK
  5
1C
100
AcDbEntity
  8
0
100
AcDbBlockBegin
  2
*Paper_Space
 70
0
 10
0.0
 20
0.0
 30
0.0
  3
*Paper_Space
  1

  0
ENDBLK
  5
1D
100
AcDbEntity
  8
0
100
AcDbBlockEnd
  0
BLOCK
  5
213
100
AcDbEntity
  8
0
100
AcDbBlockBegin
 62
2
  6
CONTINUOUS
  2
SUN_FIRST_THIRD_ANGLE_BL0
 70
64
 10
20.4816717061
 20
1.2289683772
  3
SUN_FIRST_THIRD_ANGLE_BL0
  1

  0
TEXT
  5
214
100
AcDbEntity
  8
0
100
AcDbText
 62
2
  6
CONTINUOUS
 10
19.4750896608
 20
1.4136269581
  7
STANDARD
 40
0.08
  1
FIRST ANGLE
 41
0.8
 72
0
100
AcDbText
  0
TEXT
  5
215
100
AcDbEntity
  8
0
100
AcDbText
 62
2
  6
CONTINUOUS
 10
20.7842537513
 20
1.4047600029
  7
STANDARD
 40
0.08
  1
THIRD ANGLE
 41
0.8
 72
0
100
AcDbText
  0
LINE
  5
216
100
AcDbEntity
  8
0
100
AcDbLine
 62
7
  6
CONTINUOUS
 10
19.4767170086
 20
1.1727031207
 11
19.6334271527
 21
1.1717972817
  0
LINE
  5
217
100
AcDbEntity
  8
0
100
AcDbLine
 62
7
  6
CONTINUOUS
 10
19.6596964832
 20
1.1717972817
 11
19.6950230232
 21
1.171593082
  0
LINE
  5
218
100
AcDbEntity
  8
0
100
AcDbLine
 62
7
  6
CONTINUOUS
 10
19.7194818561
 20
1.1708914427
 11
19.8852396156
 21
1.1699333054
  0
LINE
  5
219
100
AcDbEntity
  8
0
100
AcDbLine
 62
7
  6
CONTINUOUS
 10
19.4758111696
 20
1.2723454088
 11
19.88525039
 21
1.3511534004
  0
LINE
  5
21A
100
AcDbEntity
  8
0
100
AcDbLine
 62
7
  6
CONTINUOUS
 10
19.88525039
 20
1.3511534004
 11
19.8831348489
 21
0.9851647912
  0
LINE
  5
21B
100
AcDbEntity
  8
0
100
AcDbLine
 62
7
  6
CONTINUOUS
 10
19.8831348489
 20
0.9851647912
 11
19.4767170086
 21
1.0658141206
  0
LINE
  5
21C
100
AcDbEntity
  8
0
100
AcDbLine
 62
7
  6
CONTINUOUS
 10
19.4767170086
 20
1.0658141206
 11
19.4779056764
 21
1.2714536432
  0
CIRCLE
  5
21D
100
AcDbEntity
  8
0
100
AcDbCircle
 62
7
  6
CONTINUOUS
 10
20.2068232291
 20
1.1717972817
 40
0.175742101
  0
CIRCLE
  5
21E
100
AcDbEntity
  8
0
100
AcDbCircle
 62
7
  6
CONTINUOUS
 10
20.2068232291
 20
1.1717972817
 40
0.1005522074
  0
LINE
  5
21F
100
AcDbEntity
  8
0
100
AcDbLine
 62
7
  6
CONTINUOUS
 10
20.2077290681
 20
1.3756110529
 11
20.2071171714
 21
1.2379342989
  0
LINE
  5
220
100
AcDbEntity
  8
0
100
AcDbLine
 62
7
  6
CONTINUOUS
 10
20.2077290681
 20
1.2016899681
 11
20.2074674401
 21
1.1428236749
  0
LINE
  5
221
100
AcDbEntity
  8
0
100
AcDbLine
 62
7
  6
CONTINUOUS
 10
20.208634907
 20
1.101141841
 11
20.2080230104
 21
0.963465087
  0
LINE
  5
222
100
AcDbEntity
  8
0
100
AcDbLine
 62
7
  6
CONTINUOUS
 10
20.0066328138
 20
1.1745147986
 11
20.1443095678
 21
1.1739029019
  0
LINE
  5
223
100
AcDbEntity
  8
0
100
AcDbLine
 62
7
  6
CONTINUOUS
 10
20.1832714155
 20
1.1727031207
 11
20.238153505
 21
1.172335442
  0
LINE
  5
224
100
AcDbEntity
  8
0
100
AcDbLine
 62
7
  6
CONTINUOUS
 10
20.2756669918
 20
1.1717972817
 11
20.407916871
 21
1.1712095044
  0
CIRCLE
  5
225
100
AcDbEntity
  8
0
100
AcDbCircle
 62
7
  6
CONTINUOUS
 10
20.7509457401
 20
1.1693297793
 40
0.1722024983
  0
CIRCLE
  5
226
100
AcDbEntity
  8
0
100
AcDbCircle
 62
7
  6
CONTINUOUS
 10
20.7509457401
 20
1.1693297793
 40
0.0985164967
  0
LINE
  5
227
100
AcDbEntity
  8
0
100
AcDbLine
 62
7
  6
CONTINUOUS
 10
20.7169767782
 20
1.170462078
 11
20.7825395137
 21
1.1682766535
  0
LINE
  5
228
100
AcDbEntity
  8
0
100
AcDbLine
 62
7
  6
CONTINUOUS
 10
20.8177513651
 20
1.1693297793
 11
20.947965719
 21
1.1693297793
  0
LINE
  5
229
100
AcDbEntity
  8
0
100
AcDbLine
 62
7
  6
CONTINUOUS
 10
20.6875370113
 20
1.170462078
 11
20.5573226574
 21
1.170462078
  0
LINE
  5
22A
100
AcDbEntity
  8
0
100
AcDbLine
 62
7
  6
CONTINUOUS
 10
20.7486811426
 20
1.1987695462
 11
20.7486811426
 21
1.1432869085
  0
LINE
  5
22B
100
AcDbEntity
  8
0
100
AcDbLine
 62
7
  6
CONTINUOUS
 10
20.7498134414
 20
1.1059210505
 11
20.7498134414
 21
0.9757066966
  0
LINE
  5
22C
100
AcDbEntity
  8
0
100
AcDbLine
 62
7
  6
CONTINUOUS
 10
20.7486811426
 20
1.2338708068
 11
20.7486811426
 21
1.3640851607
  0
LINE
  5
22D
100
AcDbEntity
  8
0
100
AcDbLine
 62
7
  6
CONTINUOUS
 10
21.0702539817
 20
1.2701043662
 11
21.4790138229
 21
1.3448360823
  0
LINE
  5
22E
100
AcDbEntity
  8
0
100
AcDbLine
 62
7
  6
CONTINUOUS
 10
21.4790138229
 20
1.3448360823
 11
21.4790138229
 21
0.9779712941
  0
LINE
  5
22F
100
AcDbEntity
  8
0
100
AcDbLine
 62
7
  6
CONTINUOUS
 10
21.4790138229
 20
0.9779712941
 11
21.069121683
 21
1.0617614
  0
LINE
  5
230
100
AcDbEntity
  8
0
100
AcDbLine
 62
7
  6
CONTINUOUS
 10
21.0702539817
 20
1.2701043662
 11
21.069121683
 21
1.0617614
  0
LINE
  5
231
100
AcDbEntity
  8
0
100
AcDbLine
 62
7
  6
CONTINUOUS
 10
21.4790138229
 20
1.1693297793
 11
21.3159628059
 21
1.1693297793
  0
LINE
  5
232
100
AcDbEntity
  8
0
100
AcDbLine
 62
7
  6
CONTINUOUS
 10
21.2876553377
 20
1.1693297793
 11
21.2502894796
 21
1.1693297793
  0
LINE
  5
233
100
AcDbEntity
  8
0
100
AcDbLine
 62
7
  6
CONTINUOUS
 10
21.2208497126
 20
1.1659328831
 11
21.0713862804
 21
1.1659328831
  0
LINE
  5
234
100
AcDbEntity
  8
0
100
AcDbLine
 62
7
  6
CONTINUOUS
 10
20.4796138713
 20
1.5284908897
 11
20.4766766948
 21
0.9294458646
  0
ENDBLK
  5
235
100
AcDbEntity
  8
0
  6
BYBLOCK
 62
0
100
AcDbBlockEnd
  0
BLOCK
  5
236
100
AcDbEntity
  8
0
100
AcDbBlockBegin
  2
*T1
 70
1
 10
0.0
 20
0.0
  3
*T1
  1

  0
LINE
  5
237
100
AcDbEntity
  8
0
100
AcDbLine
 62
2
  6
CONTINUOUS
 10
9.275
 20
0.0
 11
-0.0
 21
0.0
  0
LINE
  5
238
100
AcDbEntity
  8
0
100
AcDbLine
 62
2
  6
CONTINUOUS
 10
9.275
 20
0.0
 11
9.275
 21
1.25
  0
LINE
  5
239
100
AcDbEntity
  8
0
100
AcDbLine
 62
2
  6
CONTINUOUS
 10
9.275
 20
0.625
 11
-0.0
 21
0.625
  0
LINE
  5
23A
100
AcDbEntity
  8
0
100
AcDbLine
 62
2
  6
CONTINUOUS
 10
9.275
 20
1.25
 11
-0.0
 21
1.25
  0
LINE
  5
23B
100
AcDbEntity
  8
0
100
AcDbLine
 62
2
  6
CONTINUOUS
 10
6.8
 20
0.0
 11
6.8
 21
1.25
  0
LINE
  5
23C
100
AcDbEntity
  8
0
100
AcDbLine
 62
2
  6
CONTINUOUS
 10
6.4
 20
0.0
 11
6.4
 21
0.625
  0
LINE
  5
23D
100
AcDbEntity
  8
0
100
AcDbLine
 62
2
  6
CONTINUOUS
 10
5.9
 20
0.0
 11
5.9
 21
0.625
  0
LINE
  5
23E
100
AcDbEntity
  8
0
100
AcDbLine
 62
2
  6
CONTINUOUS
 10
5.2
 20
0.0
 11
5.2
 21
0.625
  0
LINE
  5
23F
100
AcDbEntity
  8
0
100
AcDbLine
 62
2
  6
CONTINUOUS
 10
4.1
 20
0.0
 11
4.1
 21
1.25
  0
LINE
  5
240
100
AcDbEntity
  8
0
100
AcDbLine
 62
2
  6
CONTINUOUS
 10
-0.0
 20
0.0
 11
-0.0
 21
1.25
  0
MTEXT
  5
241
100
AcDbEntity
  8
0
100
AcDbMText
 62
2
  6
CONTINUOUS
  7
STANDARD
 71
2
 72
1
 10
6.6
 20
0.325
 30
0.0
 11
1.0
 21
0.0
 31
0.0
 44
0.9
  1
2
 40
0.125
 41
0.2
  0
MTEXT
  5
242
100
AcDbEntity
  8
0
100
AcDbMText
 62
2
  6
CONTINUOUS
  7
STANDARD
 71
2
 72
1
 10
6.15
 20
0.325
 30
0.0
 11
1.0
 21
0.0
 31
0.0
 44
0.9
  1
C
 40
0.125
 41
0.2
  0
MTEXT
  5
243
100
AcDbEntity
  8
0
100
AcDbMText
 62
2
  6
CONTINUOUS
  7
STANDARD
 71
2
 72
1
 10
5.55
 20
0.325
 30
0.0
 11
1.0
 21
0.0
 31
0.0
 44
0.9
  1
2.000
 40
0.125
 41
1.0
  0
MTEXT
  5
244
100
AcDbEntity
  8
0
100
AcDbMText
 62
2
  6
CONTINUOUS
  7
STANDARD
 71
2
 72
1
 10
4.65
 20
0.325
 30
0.0
 11
1.0
 21
0.0
 31
0.0
 44
0.9
  1
Jan-10-24
 40
0.125
 41
1.8
  0
MTEXT
  5
245
100
AcDbEntity
  8
0
100
AcDbMText
 62
2
  6
CONTINUOUS
  7
STANDARD
 71
2
 72
1
 10
2.05
 20
0.4625
 30
0.0
 11
1.0
 21
0.0
 31
0.0
 44
0.9
  1
T-11A Line mount\P2 cylinder sequence, with reverse checks
 40
0.125
 41
8.0
  0
MTEXT
  5
246
100
AcDbEntity
  8
0
100
AcDbMText
 62
2
  6
CONTINUOUS
  7
STANDARD
 71
1
 72
1
 10
6.45
 20
0.5625
 30
0.0
 11
1.0
 21
0.0
 31
0.0
 44
0.9
  1
SHEET
 40
0.06
 41
0.48
  0
MTEXT
  5
247
100
AcDbEntity
  8
0
100
AcDbMText
 62
2
  6
CONTINUOUS
  7
STANDARD
 71
1
 72
1
 10
5.95
 20
0.5625
 30
0.0
 11
1.0
 21
0.0
 31
0.0
 44
0.9
  1
DWG SIZE
 40
0.06
 41
0.768
  0
MTEXT
  5
248
100
AcDbEntity
  8
0
100
AcDbMText
 62
2
  6
CONTINUOUS
  7
STANDARD
 71
1
 72
1
 10
5.25
 20
0.5625
 30
0.0
 11
1.0
 21
0.0
 31
0.0
 44
0.9
  1
SCALE
 40
0.06
 41
0.48
  0
MTEXT
  5
249
100
AcDbEntity
  8
0
100
AcDbMText
 62
2
  6
CONTINUOUS
  7
STANDARD
 71
1
 72
1
 10
4.15
 20
0.5625
 30
0.0
 11
1.0
 21
0.0
 31
0.0
 44
0.9
  1
DATE
 40
0.06
 41
0.384
  0
MTEXT
  5
24A
100
AcDbEntity
  8
0
100
AcDbMText
 62
2
  6
CONTINUOUS
  7
STANDARD
 71
1
 72
1
 10
0.05
 20
0.5625
 30
0.0
 11
1.0
 21
0.0
 31
0.0
 44
0.9
  1
DESCRIPTION
 40
0.06
 41
1.056
  0
MTEXT
  5
24B
100
AcDbEntity
  8
0
100
AcDbMText
 62
2
  6
CONTINUOUS
  7
STANDARD
 71
2
 72
1
 10
5.45
 20
1.0375
 30
0.0
 11
1.0
 21
0.0
 31
0.0
 44
0.9
  1
ALL DIMENSIONS IN INCH\PVIEWS ARE THIRD ANGLE
 40
0.12
 41
4.224
  0
MTEXT
  5
24C
100
AcDbEntity
  8
0
100
AcDbMText
 62
2
  6
CONTINUOUS
  7
STANDARD
 71
2
 72
1
 10
2.05
 20
0.95
 30
0.0
 11
1.0
 21
0.0
 31
0.0
 44
0.9
  1
E8T
 40
0.125
 41
0.6
  0
MTEXT
  5
24D
100
AcDbEntity
  8
0
100
AcDbMText
 62
2
  6
CONTINUOUS
  7
STANDARD
 71
1
 72
1
 10
0.05
 20
1.1875
 30
0.0
 11
1.0
 21
0.0
 31
0.0
 44
0.9
  1
MODEL
 40
0.06
 41
0.48
  0
ENDBLK
  5
24E
100
AcDbEntity
  8
0
  6
BYBLOCK
 62
0
100
AcDbBlockEnd
  0
BLOCK
  5
24F
100
AcDbEntity
  8
0
100
AcDbBlockBegin
  2
*T2
 70
1
 10
0.0
 20
0.0
  3
*T2
  1

  0
LINE
  5
250
100
AcDbEntity
  8
0
100
AcDbLine
 62
2
  6
CONTINUOUS
 10
0.0
 20
0.0
 11
9.055
 21
0.0
  0
LINE
  5
251
100
AcDbEntity
  8
0
100
AcDbLine
 62
2
  6
CONTINUOUS
 10
0.0
 20
0.0
 11
0.0
 21
-2.594
  0
LINE
  5
252
100
AcDbEntity
  8
0
100
AcDbLine
 62
2
  6
CONTINUOUS
 10
0.0
 20
-0.344
 11
9.055
 21
-0.344
  0
LINE
  5
253
100
AcDbEntity
  8
0
100
AcDbLine
 62
2
  6
CONTINUOUS
 10
0.0
 20
-0.594
 11
9.055
 21
-0.594
  0
LINE
  5
254
100
AcDbEntity
  8
0
100
AcDbLine
 62
2
  6
CONTINUOUS
 10
0.0
 20
-0.844
 11
9.055
 21
-0.844
  0
LINE
  5
255
100
AcDbEntity
  8
0
100
AcDbLine
 62
2
  6
CONTINUOUS
 10
0.0
 20
-1.094
 11
9.055
 21
-1.094
  0
LINE
  5
256
100
AcDbEntity
  8
0
100
AcDbLine
 62
2
  6
CONTINUOUS
 10
0.0
 20
-1.344
 11
9.055
 21
-1.344
  0
LINE
  5
257
100
AcDbEntity
  8
0
100
AcDbLine
 62
2
  6
CONTINUOUS
 10
0.0
 20
-1.594
 11
9.055
 21
-1.594
  0
LINE
  5
258
100
AcDbEntity
  8
0
100
AcDbLine
 62
2
  6
CONTINUOUS
 10
0.0
 20
-1.844
 11
9.055
 21
-1.844
  0
LINE
  5
259
100
AcDbEntity
  8
0
100
AcDbLine
 62
2
  6
CONTINUOUS
 10
0.0
 20
-2.094
 11
9.055
 21
-2.094
  0
LINE
  5
25A
100
AcDbEntity
  8
0
100
AcDbLine
 62
2
  6
CONTINUOUS
 10
0.0
 20
-2.344
 11
9.055
 21
-2.344
  0
LINE
  5
25B
100
AcDbEntity
  8
0
100
AcDbLine
 62
2
  6
CONTINUOUS
 10
0.0
 20
-2.594
 11
9.055
 21
-2.594
  0
LINE
  5
25C
100
AcDbEntity
  8
0
100
AcDbLine
 62
2
  6
CONTINUOUS
 10
3.055
 20
0.0
 11
3.055
 21
-2.594
  0
LINE
  5
25D
100
AcDbEntity
  8
0
100
AcDbLine
 62
2
  6
CONTINUOUS
 10
9.055
 20
0.0
 11
9.055
 21
-2.594
  0
MTEXT
  5
25E
100
AcDbEntity
  8
0
100
AcDbMText
 62
2
  6
CONTINUOUS
  7
STANDARD
 71
2
 72
1
 10
1.5275
 20
-0.0995
 30
0.0
 11
1.0
 21
0.0
 31
0.0
 44
0.9
  1
Technical Data
 40
0.145
 41
3.248
  0
MTEXT
  5
25F
100
AcDbEntity
  8
0
100
AcDbMText
 62
2
  6
CONTINUOUS
  7
STANDARD
 71
2
 72
1
 10
4.555
 20
-0.0995
 30
0.0
 11
1.0
 21
0.0
 31
0.0
 44
0.9
  1
U.S. Units
 40
0.145
 41
2.32
  0
MTEXT
  5
260
100
AcDbEntity
  8
0
100
AcDbMText
 62
2
  6
CONTINUOUS
  7
STANDARD
 71
2
 72
1
 10
7.555
 20
-0.0995
 30
0.0
 11
1.0
 21
0.0
 31
0.0
 44
0.9
  1
Metric Units
 40
0.145
 41
2.784
  0
MTEXT
  5
261
100
AcDbEntity
  8
0
100
AcDbMText
 62
2
  6
CONTINUOUS
  7
STANDARD
 71
2
 72
1
 10
1.5275
 20
-0.4065
 30
0.0
 11
1.0
 21
0.0
 31
0.0
 44
0.9
  1
Cavity
 40
0.125
 41
1.2
  0
MTEXT
  5
262
100
AcDbEntity
  8
0
100
AcDbMText
 62
2
  6
CONTINUOUS
  7
STANDARD
 71
2
 72
1
 10
6.055
 20
-0.4065
 30
0.0
 11
1.0
 21
0.0
 31
0.0
 44
0.9
  1
T-11A
 40
0.125
 41
1.0
  0
MTEXT
  5
263
100
AcDbEntity
  8
0
100
AcDbMText
 62
2
  6
CONTINUOUS
  7
STANDARD
 71
2
 72
1
 10
1.5275
 20
-0.6565
 30
0.0
 11
1.0
 21
0.0
 31
0.0
 44
0.9
  1
Body Features
 40
0.125
 41
2.6
  0
MTEXT
  5
264
100
AcDbEntity
  8
0
100
AcDbMText
 62
2
  6
CONTINUOUS
  7
STANDARD
 71
2
 72
1
 10
6.055
 20
-0.6565
 30
0.0
 11
1.0
 21
0.0
 31
0.0
 44
0.9
  1
2 cylinder sequence, with reverse checks
 40
0.125
 41
8.0
  0
MTEXT
  5
265
100
AcDbEntity
  8
0
100
AcDbMText
 62
2
  6
CONTINUOUS
  7
STANDARD
 71
2
 72
1
 10
1.5275
 20
-0.9065
 30
0.0
 11
1.0
 21
0.0
 31
0.0
 44
0.9
  1
Body Type
 40
0.125
 41
1.8
  0
MTEXT
  5
266
100
AcDbEntity
  8
0
100
AcDbMText
 62
2
  6
CONTINUOUS
  7
STANDARD
 71
2
 72
1
 10
6.055
 20
-0.9065
 30
0.0
 11
1.0
 21
0.0
 31
0.0
 44
0.9
  1
Line mount
 40
0.125
 41
2.0
  0
MTEXT
  5
267
100
AcDbEntity
  8
0
100
AcDbMText
 62
2
  6
CONTINUOUS
  7
STANDARD
 71
2
 72
1
 10
1.5275
 20
-1.1565
 30
0.0
 11
1.0
 21
0.0
 31
0.0
 44
0.9
  1
Interface
 40
0.125
 41
1.8
  0
MTEXT
  5
268
100
AcDbEntity
  8
0
100
AcDbMText
 62
2
  6
CONTINUOUS
  7
STANDARD
 71
2
 72
1
 10
6.055
 20
-1.1565
 30
0.0
 11
1.0
 21
0.0
 31
0.0
 44
0.9
  1
None
 40
0.125
 41
0.8
  0
MTEXT
  5
269
100
AcDbEntity
  8
0
100
AcDbMText
 62
2
  6
CONTINUOUS
  7
STANDARD
 71
2
 72
1
 10
1.5275
 20
-1.4065
 30
0.0
 11
1.0
 21
0.0
 31
0.0
 44
0.9
  1
Open Cavity Quantity
 40
0.125
 41
4.0
  0
MTEXT
  5
26A
100
AcDbEntity
  8
0
100
AcDbMText
 62
2
  6
CONTINUOUS
  7
STANDARD
 71
2
 72
1
 10
6.055
 20
-1.4065
 30
0.0
 11
1.0
 21
0.0
 31
0.0
 44
0.9
  1
2
 40
0.125
 41
0.2
  0
MTEXT
  5
26B
100
AcDbEntity
  8
0
100
AcDbMText
 62
2
  6
CONTINUOUS
  7
STANDARD
 71
2
 72
1
 10
1.5275
 20
-1.6565
 30
0.0
 11
1.0
 21
0.0
 31
0.0
 44
0.9
  1
Weight
 40
0.125
 41
1.2
  0
MTEXT
  5
26C
100
AcDbEntity
  8
0
100
AcDbMText
 62
2
  6
CONTINUOUS
  7
STANDARD
 71
2
 72
1
 10
4.555
 20
-1.6565
 30
0.0
 11
1.0
 21
0.0
 31
0.0
 44
0.9
  1
2.351 lb.
 40
0.125
 41
1.8
  0
MTEXT
  5
26D
100
AcDbEntity
  8
0
100
AcDbMText
 62
2
  6
CONTINUOUS
  7
STANDARD
 71
2
 72
1
 10
7.555
 20
-1.6565
 30
0.0
 11
1.0
 21
0.0
 31
0.0
 44
0.9
  1
1,067 kg.
 40
0.125
 41
1.8
  0
MTEXT
  5
26E
100
AcDbEntity
  8
0
100
AcDbMText
 62
2
  6
CONTINUOUS
  7
STANDARD
 71
2
 72
1
 10
1.5275
 20
-1.9065
 30
0.0
 11
1.0
 21
0.0
 31
0.0
 44
0.9
  1
Mounting Hole Diameter
 40
0.125
 41
4.4
  0
MTEXT
  5
26F
100
AcDbEntity
  8
0
100
AcDbMText
 62
2
  6
CONTINUOUS
  7
STANDARD
 71
2
 72
1
 10
4.555
 20
-1.9065
 30
0.0
 11
1.0
 21
0.0
 31
0.0
 44
0.9
  1
.34 in.
 40
0.125
 41
1.4
  0
MTEXT
  5
270
100
AcDbEntity
  8
0
100
AcDbMText
 62
2
  6
CONTINUOUS
  7
STANDARD
 71
2
 72
1
 10
7.555
 20
-1.9065
 30
0.0
 11
1.0
 21
0.0
 31
0.0
 44
0.9
  1
8.6 mm
 40
0.125
 41
1.2
  0
MTEXT
  5
271
100
AcDbEntity
  8
0
100
AcDbMText
 62
2
  6
CONTINUOUS
  7
STANDARD
 71
2
 72
1
 10
1.5275
 20
-2.1565
 30
0.0
 11
1.0
 21
0.0
 31
0.0
 44
0.9
  1
Mounting Hole Depth
 40
0.125
 41
3.8
  0
MTEXT
  5
272
100
AcDbEntity
  8
0
100
AcDbMText
 62
2
  6
CONTINUOUS
  7
STANDARD
 71
2
 72
1
 10
6.055
 20
-2.1565
 30
0.0
 11
1.0
 21
0.0
 31
0.0
 44
0.9
  1
Through
 40
0.125
 41
1.4
  0
MTEXT
  5
273
100
AcDbEntity
  8
0
100
AcDbMText
 62
2
  6
CONTINUOUS
  7
STANDARD
 71
2
 72
1
 10
1.5275
 20
-2.4065
 30
0.0
 11
1.0
 21
0.0
 31
0.0
 44
0.9
  1
Mounting Hole Quantity
 40
0.125
 41
4.4
  0
MTEXT
  5
274
100
AcDbEntity
  8
0
100
AcDbMText
 62
2
  6
CONTINUOUS
  7
STANDARD
 71
2
 72
1
 10
6.055
 20
-2.4065
 30
0.0
 11
1.0
 21
0.0
 31
0.0
 44
0.9
  1
2
 40
0.125
 41
0.2
  0
ENDBLK
  5
275
100
AcDbEntity
  8
0
  6
BYBLOCK
 62
0
100
AcDbBlockEnd
  0
BLOCK
  5
276
100
AcDbEntity
  8
0
100
AcDbBlockBegin
  2
*T3
 70
1
 10
0.0
 20
0.0
  3
*T3
  1

  0
LINE
  5
277
100
AcDbEntity
  8
0
100
AcDbLine
 62
2
  6
CONTINUOUS
 10
0.0
 20
0.0
 11
4.6
 21
0.0
  0
LINE
  5
278
100
AcDbEntity
  8
0
100
AcDbLine
 62
2
  6
CONTINUOUS
 10
0.0
 20
0.0
 11
0.0
 21
-0.93775
  0
LINE
  5
279
100
AcDbEntity
  8
0
100
AcDbLine
 62
2
  6
CONTINUOUS
 10
0.0
 20
-0.34375
 11
4.6
 21
-0.34375
  0
LINE
  5
27A
100
AcDbEntity
  8
0
100
AcDbLine
 62
2
  6
CONTINUOUS
 10
0.0
 20
-0.68775
 11
4.6
 21
-0.68775
  0
LINE
  5
27B
100
AcDbEntity
  8
0
100
AcDbLine
 62
2
  6
CONTINUOUS
 10
0.0
 20
-0.93775
 11
4.6
 21
-0.93775
  0
LINE
  5
27C
100
AcDbEntity
  8
0
100
AcDbLine
 62
2
  6
CONTINUOUS
 10
1.3
 20
-0.34375
 11
1.3
 21
-0.93775
  0
LINE
  5
27D
100
AcDbEntity
  8
0
100
AcDbLine
 62
2
  6
CONTINUOUS
 10
3.3
 20
-0.34375
 11
3.3
 21
-0.93775
  0
LINE
  5
27E
100
AcDbEntity
  8
0
100
AcDbLine
 62
2
  6
CONTINUOUS
 10
4.6
 20
0.0
 11
4.6
 21
-0.93775
  0
MTEXT
  5
27F
100
AcDbEntity
  8
0
100
AcDbMText
 62
2
  6
CONTINUOUS
  7
STANDARD
 71
2
 72
1
 10
2.3
 20
-0.099375
 30
0.0
 11
1.0
 21
0.0
 31
0.0
 44
0.9
  1
Port Headings
 40
0.145
 41
3.016
  0
MTEXT
  5
280
100
AcDbEntity
  8
0
100
AcDbMText
 62
2
  6
CONTINUOUS
  7
STANDARD
 71
2
 72
1
 10
0.65
 20
-0.44325
 30
0.0
 11
1.0
 21
0.0
 31
0.0
 44
0.9
  1
Product
 40
0.145
 41
1.624
  0
MTEXT
  5
281
100
AcDbEntity
  8
0
100
AcDbMText
 62
2
  6
CONTINUOUS
  7
STANDARD
 71
2
 72
1
 10
2.3
 20
-0.44325
 30
0.0
 11
1.0
 21
0.0
 31
0.0
 44
0.9
  1
Port
 40
0.145
 41
0.928
  0
MTEXT
  5
282
100
AcDbEntity
  8
0
100
AcDbMText
 62
2
  6
CONTINUOUS
  7
STANDARD
 71
2
 72
1
 10
3.95
 20
-0.44325
 30
0.0
 11
1.0
 21
0.0
 31
0.0
 44
0.9
  1
Size
 40
0.145
 41
0.928
  0
MTEXT
  5
283
100
AcDbEntity
  8
0
100
AcDbMText
 62
2
  6
CONTINUOUS
  7
STANDARD
 71
2
 72
1
 10
0.65
 20
-0.75025
 30
0.0
 11
1.0
 21
0.0
 31
0.0
 44
0.9
  1
E8T
 40
0.125
 41
0.6
  0
MTEXT
  5
284
100
AcDbEntity
  8
0
100
AcDbMText
 62
2
  6
CONTINUOUS
  7
STANDARD
 71
2
 72
1
 10
2.3
 20
-0.75025
 30
0.0
 11
1.0
 21
0.0
 31
0.0
 44
0.9
  1
All Ports
 40
0.125
 41
1.8
  0
MTEXT
  5
285
100
AcDbEntity
  8
0
100
AcDbMText
 62
2
  6
CONTINUOUS
  7
STANDARD
 71
2
 72
1
 10
3.95
 20
-0.75025
 30
0.0
 11
1.0
 21
0.0
 31
0.0
 44
0.9
  1
1/4" BSPP
 40
0.125
 41
1.8
  0
ENDBLK
  5
286
100
AcDbEntity
  8
0
  6
BYBLOCK
 62
0
100
AcDbBlockEnd
  0
ENDSEC
  0
SECTION
  2
ENTITIES
  0
IMAGE
  5
287
100
AcDbEntity
  8
0
100
AcDbRasterImage
 62
7
  6
CONTINUOUS
 10
19.2297077316
 20
0.3094318264
 30
0.0
 11
0.0066666667
 21
0.0
 31
0.0
 12
0.0
 22
0.0066666667
 32
0.0
 13
369.0
 23
92.0
340
       3AB
 70
9
280
0
281
50
282
50
283
0
360
       3A5
 71
1
 91
2
 14
-0.5
 24
-0.5
 14
368.5
 24
91.5
  0
INSERT
  5
288
100
AcDbEntity
  8
0
100
AcDbBlockReference
 62
2
  6
CONTINUOUS
  2
SUN_FIRST_THIRD_ANGLE_BL0
 10
20.4816717061
 20
1.2289683772
  0
ACAD_TABLE
  5
289
100
AcDbEntity
  8
0
 62
2
  6
CONTINUOUS
100
AcDbBlockReference
  2
*T1
 10
12.42375
 20
0.30125
 30
0.0
100
AcDbTable
342
       3AD
343
20F
 11
1.0
 21
0.0
 31
0.0
 90
6
 91
4
 92
6
 93
20
 94
0
 95
0
 96
0
 70
1
 41
0.0
141
0.525
141
0.1
141
0.525
141
0.1
142
4.1
142
1.1
142
0.7
142
0.5
142
0.4
142
2.475
171
1
172
0
173
0
174
0
175
1
176
1
 91
33
178
0
145
0.0
301
CELL_VALUE
 90
4
  1
T-11A Line mount\P2 cylinder sequence, with reverse checks
304
ACVALUE_END
170
2
140
0.125
171
1
172
0
173
0
174
0
175
1
176
1
 91
33
178
0
145
0.0
301
CELL_VALUE
 90
4
  1
Jan-10-24
304
ACVALUE_END
170
5
140
0.125
171
1
172
0
173
0
174
0
175
1
176
1
 91
33
178
0
145
0.0
301
CELL_VALUE
 90
4
  1
2.000
304
ACVALUE_END
170
5
140
0.125
171
1
172
0
173
0
174
0
175
1
176
1
 91
33
178
0
145
0.0
301
CELL_VALUE
 90
4
  1
C
304
ACVALUE_END
170
5
140
0.125
171
1
172
0
173
0
174
0
175
1
176
1
 91
33
178
0
145
0.0
301
CELL_VALUE
 90
4
  1
2
304
ACVALUE_END
170
5
140
0.125
171
1
172
0
173
0
174
0
175
1
176
1
 91
33
178
0
145
0.0
301
CELL_VALUE
 90
4
  1
 
304
ACVALUE_END
170
1
140
0.125
171
1
172
0
173
0
174
0
175
1
176
1
 91
33
178
0
145
0.0
301
CELL_VALUE
 90
4
  1
DESCRIPTION
304
ACVALUE_END
170
1
140
0.06
171
1
172
0
173
0
174
0
175
1
176
1
 91
33
178
0
145
0.0
301
CELL_VALUE
 90
4
  1
DATE
304
ACVALUE_END
170
1
140
0.06
171
1
172
0
173
0
174
0
175
1
176
1
 91
33
178
0
145
0.0
301
CELL_VALUE
 90
4
  1
SCALE
304
ACVALUE_END
170
1
140
0.06
171
1
172
0
173
0
174
0
175
1
176
1
 91
33
178
0
145
0.0
301
CELL_VALUE
 90
4
  1
DWG SIZE
304
ACVALUE_END
170
1
140
0.06
171
1
172
0
173
0
174
0
175
1
176
1
 91
33
178
0
145
0.0
301
CELL_VALUE
 90
4
  1
SHEET
304
ACVALUE_END
170
1
140
0.06
171
1
172
0
173
0
174
0
175
1
176
1
 91
33
178
0
145
0.0
301
CELL_VALUE
 90
4
  1
 
304
ACVALUE_END
170
1
140
0.125
171
1
172
0
173
0
174
0
175
1
176
1
 91
33
178
0
145
0.0
301
CELL_VALUE
 90
4
  1
E8T
304
ACVALUE_END
170
5
140
0.125
171
1
172
0
173
0
174
0
175
4
176
1
 91
33
178
0
145
0.0
301
CELL_VALUE
 90
4
  1
ALL DIMENSIONS IN INCH\PVIEWS ARE THIRD ANGLE
304
ACVALUE_END
170
5
140
0.12
171
1
172
0
173
1
174
0
175
1
176
1
 91
1
178
0
145
0.0
170
1
171
1
172
0
173
1
174
0
175
1
176
1
 91
1
178
0
145
0.0
170
1
171
1
172
0
173
1
174
0
175
1
176
1
 91
1
178
0
145
0.0
170
5
171
1
172
0
173
0
174
0
175
1
176
1
 91
33
178
0
145
0.0
301
CELL_VALUE
 90
4
  1
 
304
ACVALUE_END
170
1
140
0.125
171
1
172
0
173
0
174
0
175
1
176
1
 91
33
178
0
145
0.0
301
CELL_VALUE
 90
4
  1
MODEL
304
ACVALUE_END
170
1
140
0.06
171
1
172
0
173
0
174
0
175
1
176
1
 91
33
178
0
145
0.0
301
CELL_VALUE
 90
4
  1
 
304
ACVALUE_END
170
1
140
0.125
171
1
172
0
173
0
174
0
175
1
176
1
 91
33
178
0
145
0.0
301
CELL_VALUE
 90
4
  1
 
304
ACVALUE_END
170
1
140
0.125
171
1
172
0
173
0
174
0
175
1
176
1
 91
33
178
0
145
0.0
301
CELL_VALUE
 90
4
  1
 
304
ACVALUE_END
170
1
140
0.125
171
1
172
0
173
0
174
0
175
1
176
1
 91
33
178
0
145
0.0
301
CELL_VALUE
 90
4
  1
 
304
ACVALUE_END
170
1
140
0.125
171
1
172
0
173
0
174
0
175
1
176
1
 91
33
178
0
145
0.0
301
CELL_VALUE
 90
4
  1
 
304
ACVALUE_END
170
1
140
0.125
  0
ACAD_TABLE
  5
28A
100
AcDbEntity
  8
0
 62
2
  6
CONTINUOUS
100
AcDbBlockReference
  2
*T2
 10
12.4237499994
 20
16.47875
 30
0.0
100
AcDbTable
342
       3AC
343
210
 11
1.0
 21
0.0
 31
0.0
 90
22
 91
10
 92
3
 93
16
 94
0
 95
0
 96
0
 41
0.028
141
0.344
141
0.25
141
0.25
141
0.25
141
0.25
141
0.25
141
0.25
141
0.25
141
0.25
141
0.25
142
3.055
142
3.0
142
3.0
171
1
172
0
173
0
174
0
175
1
176
1
 91
33
178
0
145
0.0
301
CELL_VALUE
 90
4
  1
Technical Data
304
ACVALUE_END
170
5
140
0.145
171
1
172
0
173
0
174
0
175
1
176
1
 91
33
178
0
145
0.0
301
CELL_VALUE
 90
4
  1
U.S. Units
304
ACVALUE_END
170
5
140
0.145
171
1
172
0
173
0
174
0
175
1
176
1
 91
33
178
0
145
0.0
301
CELL_VALUE
 90
4
  1
Metric Units
304
ACVALUE_END
170
5
140
0.145
171
1
172
0
173
0
174
0
175
1
176
1
 91
33
178
0
145
0.0
301
CELL_VALUE
 90
4
  1
Cavity
304
ACVALUE_END
170
5
140
0.125
171
1
172
0
173
0
174
0
175
2
176
1
 91
33
178
0
145
0.0
301
CELL_VALUE
 90
4
  1
T-11A
304
ACVALUE_END
170
5
140
0.125
171
1
172
0
173
1
174
0
175
1
176
1
 91
1
178
0
145
0.0
170
1
171
1
172
0
173
0
174
0
175
1
176
1
 91
33
178
0
145
0.0
301
CELL_VALUE
 90
4
  1
Body Features
304
ACVALUE_END
170
5
140
0.125
171
1
172
0
173
0
174
0
175
2
176
1
 91
33
178
0
145
0.0
301
CELL_VALUE
 90
4
  1
2 cylinder sequence, with reverse checks
304
ACVALUE_END
170
5
140
0.125
171
1
172
0
173
1
174
0
175
1
176
1
 91
1
178
0
145
0.0
170
1
171
1
172
0
173
0
174
0
175
1
176
1
 91
33
178
0
145
0.0
301
CELL_VALUE
 90
4
  1
Body Type
304
ACVALUE_END
170
5
140
0.125
171
1
172
0
173
0
174
0
175
2
176
1
 91
33
178
0
145
0.0
301
CELL_VALUE
 90
4
  1
Line mount
304
ACVALUE_END
170
5
140
0.125
171
1
172
0
173
1
174
0
175
1
176
1
 91
1
178
0
145
0.0
170
1
171
1
172
0
173
0
174
0
175
1
176
1
 91
33
178
0
145
0.0
301
CELL_VALUE
 90
4
  1
Interface
304
ACVALUE_END
170
5
140
0.125
171
1
172
0
173
0
174
0
175
2
176
1
 91
33
178
0
145
0.0
301
CELL_VALUE
 90
4
  1
None
304
ACVALUE_END
170
5
140
0.125
171
1
172
0
173
1
174
0
175
1
176
1
 91
1
178
0
145
0.0
170
1
171
1
172
0
173
0
174
0
175
1
176
1
 91
33
178
0
145
0.0
301
CELL_VALUE
 90
4
  1
Open Cavity Quantity
304
ACVALUE_END
170
5
140
0.125
171
1
172
0
173
0
174
0
175
2
176
1
 91
33
178
0
145
0.0
301
CELL_VALUE
 90
4
  1
2
304
ACVALUE_END
170
5
140
0.125
171
1
172
0
173
1
174
0
175
1
176
1
 91
1
178
0
145
0.0
170
1
171
1
172
0
173
0
174
0
175
1
176
1
 91
33
178
0
145
0.0
301
CELL_VALUE
 90
4
  1
Weight
304
ACVALUE_END
170
5
140
0.125
171
1
172
0
173
0
174
0
175
1
176
1
 91
33
178
0
145
0.0
301
CELL_VALUE
 90
4
  1
2.351 lb.
304
ACVALUE_END
170
5
140
0.125
171
1
172
0
173
0
174
0
175
1
176
1
 91
33
178
0
145
0.0
301
CELL_VALUE
 90
4
  1
1,067 kg.
304
ACVALUE_END
170
5
140
0.125
171
1
172
0
173
0
174
0
175
1
176
1
 91
33
178
0
145
0.0
301
CELL_VALUE
 90
4
  1
Mounting Hole Diameter
304
ACVALUE_END
170
5
140
0.125
171
1
172
0
173
0
174
0
175
1
176
1
 91
33
178
0
145
0.0
301
CELL_VALUE
 90
4
  1
.34 in.
304
ACVALUE_END
170
5
140
0.125
171
1
172
0
173
0
174
0
175
1
176
1
 91
33
178
0
145
0.0
301
CELL_VALUE
 90
4
  1
8.6 mm
304
ACVALUE_END
170
5
140
0.125
171
1
172
0
173
0
174
0
175
1
176
1
 91
33
178
0
145
0.0
301
CELL_VALUE
 90
4
  1
Mounting Hole Depth
304
ACVALUE_END
170
5
140
0.125
171
1
172
0
173
0
174
0
175
2
176
1
 91
33
178
0
145
0.0
301
CELL_VALUE
 90
4
  1
Through
304
ACVALUE_END
170
5
140
0.125
171
1
172
0
173
1
174
0
175
1
176
1
 91
1
178
0
145
0.0
170
1
171
1
172
0
173
0
174
0
175
1
176
1
 91
33
178
0
145
0.0
301
CELL_VALUE
 90
4
  1
Mounting Hole Quantity
304
ACVALUE_END
170
5
140
0.125
171
1
172
0
173
0
174
0
175
2
176
1
 91
33
178
0
145
0.0
301
CELL_VALUE
 90
4
  1
2
304
ACVALUE_END
170
5
140
0.125
171
1
172
0
173
1
174
0
175
1
176
1
 91
1
178
0
145
0.0
170
1
  0
ACAD_TABLE
  5
28B
100
AcDbEntity
  8
0
 62
2
  6
CONTINUOUS
100
AcDbBlockReference
  2
*T3
 10
0.52125
 20
1.459
 30
0.0
100
AcDbTable
342
       3AC
343
211
 11
1.0
 21
0.0
 31
0.0
 90
22
 91
3
 92
3
 93
16
 94
0
 95
0
 96
0
 41
0.05
141
0.34375
141
0.344
141
0.25
142
1.3
142
2.0
142
1.3
171
1
172
0
173
0
174
0
175
3
176
1
 91
33
178
0
145
0.0
301
CELL_VALUE
 90
4
  1
Port Headings
304
ACVALUE_END
170
5
140
0.145
171
1
172
0
173
1
174
0
175
1
176
1
 91
1
178
0
145
0.0
170
1
171
1
172
0
173
1
174
0
175
1
176
1
 91
1
178
0
145
0.0
170
1
171
1
172
0
173
0
174
0
175
1
176
1
 91
33
178
0
145
0.0
301
CELL_VALUE
 90
4
  1
Product
304
ACVALUE_END
170
5
140
0.145
171
1
172
0
173
0
174
0
175
1
176
1
 91
33
178
0
145
0.0
301
CELL_VALUE
 90
4
  1
Port
304
ACVALUE_END
170
5
140
0.145
171
1
172
0
173
0
174
0
175
1
176
1
 91
33
178
0
145
0.0
301
CELL_VALUE
 90
4
  1
Size
304
ACVALUE_END
170
5
140
0.145
171
1
172
0
173
0
174
0
175
1
176
1
 91
33
178
0
145
0.0
301
CELL_VALUE
 90
4
  1
E8T
304
ACVALUE_END
170
5
140
0.125
171
1
172
0
173
0
174
0
175
1
176
1
 91
33
178
0
145
0.0
301
CELL_VALUE
 90
4
  1
All Ports
304
ACVALUE_END
170
5
140
0.125
171
1
172
0
173
0
174
0
175
1
176
1
 91
33
178
0
145
0.0
301
CELL_VALUE
 90
4
  1
1/4" BSPP
304
ACVALUE_END
170
5
140
0.125
  0
MTEXT
  5
28C
100
AcDbEntity
  8
0
100
AcDbMText
 62
2
  6
CONTINUOUS
  7
STANDARD
 71
1
 72
1
 10
0.52125
 20
5.75995
 30
0.0
 11
1.0
 21
0.0
 31
0.0
 44
0.6
  3
Notes\P \P1. Important: Carefully consider\P   the maximum system pressure. The\P   pressure rating of the manifold is\P   dependent on the manifold material,\P   with the port type/size a secondary\P   consideration. Manifolds\P   constructed of alu
  3
minum are not\P   rated for pressures higher than\P   3000 psi (210 bar), regardless of\P   the port type/size specified.\P2. This drawing is for reference\P   only. It is generated by an\P   automated process and does not fall\P   under Sun's docume
  1
nt control\P   process.
 40
0.1
 41
3.04
  0
LINE
  5
28D
100
AcDbEntity
  8
0
100
AcDbLine
 62
7
  6
CONTINUOUS
 10
0.30125
 20
0.30125
 11
0.30125
 21
16.69875
  0
LINE
  5
28E
100
AcDbEntity
  8
0
100
AcDbLine
 62
7
  6
CONTINUOUS
 10
0.30125
 20
0.30125
 11
21.69875
 21
0.30125
  0
LINE
  5
28F
100
AcDbEntity
  8
0
100
AcDbLine
 62
7
  6
CONTINUOUS
 10
0.30125
 20
16.69875
 11
21.69875
 21
16.69875
  0
LINE
  5
290
100
AcDbEntity
  8
0
100
AcDbLine
 62
7
  6
CONTINUOUS
 10
21.69875
 20
0.30125
 11
21.69875
 21
16.69875
  0
LINE
  5
291
100
AcDbEntity
  8
0
100
AcDbLine
 62
7
  6
CONTINUOUS
 10
6.2856928605
 20
7.2308565608
 11
6.2627277015
 21
7.2860324222
  0
LINE
  5
292
100
AcDbEntity
  8
0
100
AcDbLine
 62
7
  6
CONTINUOUS
 10
6.5379202569
 20
5.7281345201
 11
6.5379202569
 21
10.5577639377
  0
LINE
  5
293
100
AcDbEntity
  8
0
100
AcDbLine
 62
7
  6
CONTINUOUS
 10
6.5379202569
 20
10.5577639377
 11
7.8320144145
 21
11.8077629802
  0
LINE
  5
294
100
AcDbEntity
  8
0
100
AcDbLine
 62
7
  6
CONTINUOUS
 10
6.3852309328
 20
8.8480067843
 11
6.3691615125
 21
8.8207613269
  0
LINE
  5
295
100
AcDbEntity
  8
0
100
AcDbLine
 62
7
  6
CONTINUOUS
 10
14.2653273251
 20
5.1922370198
 11
6.5379202569
 21
5.7281345201
  0
LINE
  5
296
100
AcDbEntity
  8
0
100
AcDbLine
 62
4
  6
CONTINUOUS
 10
12.9516682105
 20
6.2106283947
 11
12.7198460036
 21
6.1542608797
  0
LINE
  5
297
100
AcDbEntity
  8
0
100
AcDbLine
 62
4
  6
CONTINUOUS
 10
9.7254756265
 20
6.5068100499
 11
9.9572978334
 21
6.4182886856
  0
LINE
  5
298
100
AcDbEntity
  8
0
100
AcDbLine
 62
4
  6
CONTINUOUS
 10
12.7778015553
 20
6.7587749415
 11
12.835757107
 21
6.7692445983
  0
LINE
  5
299
100
AcDbEntity
  8
0
100
AcDbLine
 62
4
  6
CONTINUOUS
 10
12.9130311714
 20
6.3871745376
 11
12.8743941461
 21
6.3898540244
  0
LINE
  5
29A
100
AcDbEntity
  8
0
100
AcDbLine
 62
4
  6
CONTINUOUS
 10
9.9572978334
 20
6.6501108925
 11
9.7254756265
 21
6.6661878172
  0
LINE
  5
29B
100
AcDbEntity
  8
0
100
AcDbLine
 62
4
  6
CONTINUOUS
 10
9.7641126621
 20
6.8373749848
 11
9.7447941443
 21
6.8532036165
  0
LINE
  5
29C
100
AcDbEntity
  8
0
100
AcDbLine
 62
4
  6
CONTINUOUS
 10
9.7447941443
 20
6.8532036165
 11
9.7254756265
 21
6.8835211361
  0
LINE
  5
29D
100
AcDbEntity
  8
0
100
AcDbLine
 62
4
  6
CONTINUOUS
 10
9.9572978334
 20
6.4182886856
 11
9.7254756265
 21
6.3619211707
  0
LINE
  5
29E
100
AcDbEntity
  8
0
100
AcDbLine
 62
7
  6
CONTINUOUS
 10
6.5379202569
 20
7.0757439338
 11
6.3646163199
 21
7.0877626027
  0
LINE
  5
29F
100
AcDbEntity
  8
0
100
AcDbLine
 62
7
  6
CONTINUOUS
 10
6.5379202569
 20
7.1054657914
 11
6.3380653474
 21
7.1193257765
  0
LINE
  5
2A0
100
AcDbEntity
  8
0
100
AcDbLine
 62
4
  6
CONTINUOUS
 10
9.8413867299
 20
6.9769048893
 11
9.8993422817
 21
6.9583967702
  0
LINE
  5
2A1
100
AcDbEntity
  8
0
100
AcDbLine
 62
4
  6
CONTINUOUS
 10
9.8993422817
 20
6.9583967702
 11
9.9379793207
 21
6.9267395066
  0
LINE
  5
2A2
100
AcDbEntity
  8
0
100
AcDbLine
 62
4
  6
CONTINUOUS
 10
9.9379793207
 20
6.9267395066
 11
9.9572978334
 21
6.8964219873
  0
LINE
  5
2A3
100
AcDbEntity
  8
0
100
AcDbLine
 62
4
  6
CONTINUOUS
 10
9.7254756265
 20
6.8835211361
 11
9.7254756265
 21
6.912498912
  0
LINE
  5
2A4
100
AcDbEntity
  8
0
100
AcDbLine
 62
4
  6
CONTINUOUS
 10
9.8027496978
 20
6.472473299
 11
9.8027496978
 21
6.3855399715
  0
LINE
  5
2A5
100
AcDbEntity
  8
0
100
AcDbLine
 62
4
  6
CONTINUOUS
 10
9.7834311782
 20
6.9664352325
 11
9.8413867299
 21
6.9769048893
  0
LINE
  5
2A6
100
AcDbEntity
  8
0
100
AcDbLine
 62
7
  6
CONTINUOUS
 10
8.8452075918
 20
7.1903442264
 11
8.7792194315
 21
7.1949205208
  0
LINE
  5
2A7
100
AcDbEntity
  8
0
100
AcDbLine
 62
4
  6
CONTINUOUS
 10
12.7778015553
 20
6.4979749588
 11
12.7198460036
 21
6.5164830779
  0
LINE
  5
2A8
100
AcDbEntity
  8
0
100
AcDbLine
 62
4
  6
CONTINUOUS
 10
12.7198460036
 20
6.299149759
 11
12.9516682105
 21
6.2106283947
  0
LINE
  5
2A9
100
AcDbEntity
  8
0
100
AcDbLine
 62
4
  6
CONTINUOUS
 10
9.9572978334
 20
6.8964219873
 11
9.9572978334
 21
6.8674442114
  0
LINE
  5
2AA
100
AcDbEntity
  8
0
100
AcDbLine
 62
4
  6
CONTINUOUS
 10
10.478897788
 20
9.275063674
 11
10.4982163058
 21
9.3027017061
  0
LINE
  5
2AB
100
AcDbEntity
  8
0
100
AcDbLine
 62
4
  6
CONTINUOUS
 10
10.4982163058
 20
9.3027017061
 11
10.5368533397
 21
9.3289999945
  0
LINE
  5
2AC
100
AcDbEntity
  8
0
100
AcDbLine
 62
4
  6
CONTINUOUS
 10
10.6914014823
 20
9.202370941
 11
10.6720829558
 21
9.1892217974
  0
LINE
  5
2AD
100
AcDbEntity
  8
0
100
AcDbLine
 62
7
  6
CONTINUOUS
 10
6.5379202569
 20
7.7192202702
 11
6.2250107221
 21
7.7409206202
  0
LINE
  5
2AE
100
AcDbEntity
  8
0
100
AcDbLine
 62
7
  6
CONTINUOUS
 10
6.5379202569
 20
7.8336391611
 11
6.2250107221
 21
7.855339511
  0
LINE
  5
2AF
100
AcDbEntity
  8
0
100
AcDbLine
 62
4
  6
CONTINUOUS
 10
12.835757107
 20
6.7692445983
 11
12.8937126588
 21
6.7507364792
  0
LINE
  5
2B0
100
AcDbEntity
  8
0
100
AcDbLine
 62
4
  6
CONTINUOUS
 10
10.478897788
 20
8.869374812
 11
10.478897788
 21
8.7679525965
  0
LINE
  5
2B1
100
AcDbEntity
  8
0
100
AcDbLine
 62
4
  6
CONTINUOUS
 10
10.478897788
 20
9.2460858981
 11
10.478897788
 21
9.275063674
  0
LINE
  5
2B2
100
AcDbEntity
  8
0
100
AcDbLine
 62
4
  6
CONTINUOUS
 10
10.6141274041
 20
8.8599966062
 11
10.6141274041
 21
8.7585743907
  0
LINE
  5
2B3
100
AcDbEntity
  8
0
100
AcDbLine
 62
4
  6
CONTINUOUS
 10
10.7107199949
 20
9.2300089735
 11
10.6914014823
 21
9.202370941
  0
LINE
  5
2B4
100
AcDbEntity
  8
0
100
AcDbLine
 62
7
  6
CONTINUOUS
 10
8.8016878316
 20
7.193362332
 11
8.7566011697
 21
7.1514004317
  0
LINE
  5
2B5
100
AcDbEntity
  8
0
100
AcDbLine
 62
4
  6
CONTINUOUS
 10
10.5754903719
 20
8.7322761022
 11
10.6141274041
 21
8.7585743907
  0
LINE
  5
2B6
100
AcDbEntity
  8
0
100
AcDbLine
 62
4
  6
CONTINUOUS
 10
10.6914014823
 20
8.7387265273
 11
10.7107199949
 21
8.7518756718
  0
LINE
  5
2B7
100
AcDbEntity
  8
0
100
AcDbLine
 62
4
  6
CONTINUOUS
 10
14.4672060082
 20
8.194217412
 11
14.4516768787
 21
8.1937063117
  0
LINE
  5
2B8
100
AcDbEntity
  8
0
100
AcDbLine
 62
4
  6
CONTINUOUS
 10
12.8743941461
 20
6.3898540244
 11
12.8550756197
 21
6.4056826567
  0
LINE
  5
2B9
100
AcDbEntity
  8
0
100
AcDbLine
 62
4
  6
CONTINUOUS
 10
12.8164385875
 20
6.4663176957
 11
12.7778015553
 21
6.4979749588
  0
LINE
  5
2BA
100
AcDbEntity
  8
0
100
AcDbLine
 62
4
  6
CONTINUOUS
 10
10.7107199949
 20
9.2589867493
 11
10.7107199949
 21
9.2300089735
  0
LINE
  5
2BB
100
AcDbEntity
  8
0
100
AcDbLine
 62
4
  6
CONTINUOUS
 10
10.7107199949
 20
8.7518756718
 11
10.7107199949
 21
8.8532978873
  0
LINE
  5
2BC
100
AcDbEntity
  8
0
100
AcDbLine
 62
4
  6
CONTINUOUS
 10
9.7254756265
 20
6.912498912
 11
9.7447941443
 21
6.9401369441
  0
LINE
  5
2BD
100
AcDbEntity
  8
0
100
AcDbLine
 62
7
  6
CONTINUOUS
 10
14.7250290486
 20
7.9603021229
 11
15.5070257213
 21
7.9060704694
  0
LINE
  5
2BE
100
AcDbEntity
  8
0
100
AcDbLine
 62
7
  6
CONTINUOUS
 10
6.5379202569
 20
8.6814791473
 11
6.3380653474
 21
8.6953391324
  0
LINE
  5
2BF
100
AcDbEntity
  8
0
100
AcDbLine
 62
7
  6
CONTINUOUS
 10
14.6444016646
 20
8.1850956337
 11
15.3112093662
 21
8.1388523626
  0
LINE
  5
2C0
100
AcDbEntity
  8
0
100
AcDbLine
 62
7
  6
CONTINUOUS
 10
6.5379202569
 20
8.7661761806
 11
6.3646163199
 21
8.7781948494
  0
LINE
  5
2C1
100
AcDbEntity
  8
0
100
AcDbLine
 62
7
  6
CONTINUOUS
 10
14.6299410997
 20
8.2693181772
 11
15.2958801551
 21
8.2231351469
  0
LINE
  5
2C2
100
AcDbEntity
  8
0
100
AcDbLine
 62
4
  6
CONTINUOUS
 10
12.9130311714
 20
6.503085641
 11
12.9323496978
 21
6.4872570087
  0
LINE
  5
2C3
100
AcDbEntity
  8
0
100
AcDbLine
 62
4
  6
CONTINUOUS
 10
12.7584830392
 20
6.6297146938
 11
12.7391645214
 21
6.6455433255
  0
LINE
  5
2C4
100
AcDbEntity
  8
0
100
AcDbLine
 62
4
  6
CONTINUOUS
 10
12.8937126588
 20
6.7507364792
 11
12.9323496978
 21
6.7190792156
  0
LINE
  5
2C5
100
AcDbEntity
  8
0
100
AcDbLine
 62
4
  6
CONTINUOUS
 10
10.478897788
 20
8.7679525965
 11
10.5175348236
 21
8.7362953331
  0
LINE
  5
2C6
100
AcDbEntity
  8
0
100
AcDbLine
 62
4
  6
CONTINUOUS
 10
10.6141274041
 20
8.7585743907
 11
10.6334459305
 21
8.7427457584
  0
LINE
  5
2C7
100
AcDbEntity
  8
0
100
AcDbLine
 62
4
  6
CONTINUOUS
 10
10.4982163058
 20
9.2157683785
 11
10.478897788
 21
9.2460858981
  0
LINE
  5
2C8
100
AcDbEntity
  8
0
100
AcDbLine
 62
4
  6
CONTINUOUS
 10
9.9572978334
 20
6.8674442114
 11
9.9379793207
 21
6.839806179
  0
LINE
  5
2C9
100
AcDbEntity
  8
0
100
AcDbLine
 62
4
  6
CONTINUOUS
 10
13.4732679888
 20
9.125358947
 11
13.5312235405
 21
9.1358286037
  0
LINE
  5
2CA
100
AcDbEntity
  8
0
100
AcDbLine
 62
4
  6
CONTINUOUS
 10
14.4672060082
 20
8.8172395929
 11
14.4827351378
 21
8.8177506932
  0
LINE
  5
2CB
100
AcDbEntity
  8
0
100
AcDbLine
 62
4
  6
CONTINUOUS
 10
10.5175348236
 20
8.7362953331
 11
10.5754903719
 21
8.7322761022
  0
LINE
  5
2CC
100
AcDbEntity
  8
0
100
AcDbLine
 62
4
  6
CONTINUOUS
 10
13.4539494727
 20
8.5326542855
 11
13.511905021
 21
8.5286350546
  0
LINE
  5
2CD
100
AcDbEntity
  8
0
100
AcDbLine
 62
4
  6
CONTINUOUS
 10
10.6334459305
 20
8.7427457584
 11
10.6914014823
 21
8.7387265273
  0
LINE
  5
2CE
100
AcDbEntity
  8
0
100
AcDbLine
 62
4
  6
CONTINUOUS
 10
13.5698605796
 20
8.5391047109
 11
13.6278161313
 21
8.5350854797
  0
LINE
  5
2CF
100
AcDbEntity
  8
0
100
AcDbLine
 62
4
  6
CONTINUOUS
 10
13.6471346439
 20
8.6496568397
 11
13.4153124371
 21
8.6657337644
  0
LINE
  5
2D0
100
AcDbEntity
  8
0
100
AcDbLine
 62
4
  6
CONTINUOUS
 10
10.7107199949
 20
8.8532978873
 11
10.478897788
 21
8.869374812
  0
LINE
  5
2D1
100
AcDbEntity
  8
0
100
AcDbLine
 62
4
  6
CONTINUOUS
 10
13.6084976049
 20
8.753758543
 11
13.5698605796
 21
8.7564380298
  0
LINE
  5
2D2
100
AcDbEntity
  8
0
100
AcDbLine
 62
4
  6
CONTINUOUS
 10
10.5175348236
 20
9.1999397468
 11
10.4982163058
 21
9.2157683785
  0
LINE
  5
2D3
100
AcDbEntity
  8
0
100
AcDbLine
 62
4
  6
CONTINUOUS
 10
10.6527644432
 20
9.3209615322
 11
10.6914014823
 21
9.2893042686
  0
LINE
  5
2D4
100
AcDbEntity
  8
0
100
AcDbLine
 62
4
  6
CONTINUOUS
 10
10.6914014823
 20
9.2893042686
 11
10.7107199949
 21
9.2589867493
  0
LINE
  5
2D5
100
AcDbEntity
  8
0
100
AcDbLine
 62
4
  6
CONTINUOUS
 10
12.8550756197
 20
6.4056826567
 11
12.8164385875
 21
6.4663176957
  0
LINE
  5
2D6
100
AcDbEntity
  8
0
100
AcDbLine
 62
4
  6
CONTINUOUS
 10
9.7447941443
 20
6.9401369441
 11
9.7834311782
 21
6.9664352325
  0
LINE
  5
2D7
100
AcDbEntity
  8
0
100
AcDbLine
 62
4
  6
CONTINUOUS
 10
9.9379793207
 20
6.839806179
 11
9.9186607943
 21
6.8266570354
  0
LINE
  5
2D8
100
AcDbEntity
  8
0
100
AcDbLine
 62
4
  6
CONTINUOUS
 10
10.7107199949
 20
9.0126756545
 11
10.478897788
 21
9.0287525792
  0
LINE
  5
2D9
100
AcDbEntity
  8
0
100
AcDbLine
 62
4
  6
CONTINUOUS
 10
10.5948088915
 20
9.3394696513
 11
10.6527644432
 21
9.3209615322
  0
LINE
  5
2DA
100
AcDbEntity
  8
0
100
AcDbLine
 62
4
  6
CONTINUOUS
 10
12.7391645214
 20
6.6455433255
 11
12.7198460036
 21
6.6758608451
  0
LINE
  5
2DB
100
AcDbEntity
  8
0
100
AcDbLine
 62
4
  6
CONTINUOUS
 10
12.9323496978
 20
6.4872570087
 11
12.9516682105
 21
6.4569394895
  0
LINE
  5
2DC
100
AcDbEntity
  8
0
100
AcDbLine
 62
4
  6
CONTINUOUS
 10
12.9323496978
 20
6.7190792156
 11
12.9516682105
 21
6.6887616963
  0
LINE
  5
2DD
100
AcDbEntity
  8
0
100
AcDbLine
 62
7
  6
CONTINUOUS
 10
14.2653273251
 20
10.0218664374
 11
15.5594214826
 21
11.2718654799
  0
LINE
  5
2DE
100
AcDbEntity
  8
0
100
AcDbLine
 62
4
  6
CONTINUOUS
 10
13.4346309549
 20
9.0990606585
 11
13.4732679888
 21
9.125358947
  0
LINE
  5
2DF
100
AcDbEntity
  8
0
100
AcDbLine
 62
4
  6
CONTINUOUS
 10
13.6278161313
 20
8.9987298934
 11
13.6084976049
 21
8.9855807499
  0
LINE
  5
2E0
100
AcDbEntity
  8
0
100
AcDbLine
 62
4
  6
CONTINUOUS
 10
10.5368533397
 20
9.3289999945
 11
10.5948088915
 21
9.3394696513
  0
LINE
  5
2E1
100
AcDbEntity
  8
0
100
AcDbLine
 62
7
  6
CONTINUOUS
 10
14.6317385118
 20
9.1130454841
 11
15.2958801551
 21
9.0669871047
  0
LINE
  5
2E2
100
AcDbEntity
  8
0
100
AcDbLine
 62
7
  6
CONTINUOUS
 10
14.6469084547
 20
9.2269530774
 11
15.3112093662
 21
9.1808836527
  0
LINE
  5
2E3
100
AcDbEntity
  8
0
100
AcDbLine
 62
4
  6
CONTINUOUS
 10
14.4982642673
 20
8.9341728969
 11
14.4361477491
 21
8.9466173838
  0
LINE
  5
2E4
100
AcDbEntity
  8
0
100
AcDbLine
 62
4
  6
CONTINUOUS
 10
13.4732679888
 20
8.8645589642
 11
13.4153124371
 21
8.8830670833
  0
LINE
  5
2E5
100
AcDbEntity
  8
0
100
AcDbLine
 62
4
  6
CONTINUOUS
 10
13.6278161313
 20
8.7669076866
 11
13.6084976049
 21
8.753758543
  0
LINE
  5
2E6
100
AcDbEntity
  8
0
100
AcDbLine
 62
4
  6
CONTINUOUS
 10
13.511905021
 20
8.5286350546
 11
13.5505420531
 21
8.5549333432
  0
LINE
  5
2E7
100
AcDbEntity
  8
0
100
AcDbLine
 62
4
  6
CONTINUOUS
 10
13.6278161313
 20
8.5350854797
 11
13.6471346439
 21
8.5482346242
  0
LINE
  5
2E8
100
AcDbEntity
  8
0
100
AcDbLine
 62
7
  6
CONTINUOUS
 10
14.8330720437
 20
9.8386925637
 11
15.5070257213
 21
9.7919537174
  0
LINE
  5
2E9
100
AcDbEntity
  8
0
100
AcDbLine
 62
4
  6
CONTINUOUS
 10
13.5312235405
 20
9.1358286037
 11
13.5891790922
 21
9.1173204846
  0
LINE
  5
2EA
100
AcDbEntity
  8
0
100
AcDbLine
 62
4
  6
CONTINUOUS
 10
13.4153124371
 20
8.5643115489
 11
13.4539494727
 21
8.5326542855
  0
LINE
  5
2EB
100
AcDbEntity
  8
0
100
AcDbLine
 62
4
  6
CONTINUOUS
 10
12.7198460036
 20
6.5164830779
 11
12.7198460036
 21
6.4005719745
  0
LINE
  5
2EC
100
AcDbEntity
  8
0
100
AcDbLine
 62
4
  6
CONTINUOUS
 10
12.7198460036
 20
6.6758608451
 11
12.7198460036
 21
6.704838621
  0
LINE
  5
2ED
100
AcDbEntity
  8
0
100
AcDbLine
 62
4
  6
CONTINUOUS
 10
12.7971200749
 20
6.2648130081
 11
12.7971200749
 21
6.1778796805
  0
LINE
  5
2EE
100
AcDbEntity
  8
0
100
AcDbLine
 62
4
  6
CONTINUOUS
 10
12.9516682105
 20
6.6887616963
 11
12.9516682105
 21
6.6597839205
  0
LINE
  5
2EF
100
AcDbEntity
  8
0
100
AcDbLine
 62
4
  6
CONTINUOUS
 10
12.9516682105
 20
6.4569394895
 11
12.9516682105
 21
6.4279617136
  0
LINE
  5
2F0
100
AcDbEntity
  8
0
100
AcDbLine
 62
4
  6
CONTINUOUS
 10
13.4153124371
 20
9.0714226264
 11
13.4346309549
 21
9.0990606585
  0
LINE
  5
2F1
100
AcDbEntity
  8
0
100
AcDbLine
 62
4
  6
CONTINUOUS
 10
13.6471346439
 20
9.0263679259
 11
13.6278161313
 21
8.9987298934
  0
LINE
  5
2F2
100
AcDbEntity
  8
0
100
AcDbLine
 62
7
  6
CONTINUOUS
 10
14.8571988513
 20
9.8687592963
 11
15.5376841436
 21
9.821567481
  0
LINE
  5
2F3
100
AcDbEntity
  8
0
100
AcDbLine
 62
7
  6
CONTINUOUS
 10
6.5379202569
 20
10.5577639377
 11
14.2653273251
 21
10.0218664374
  0
LINE
  5
2F4
100
AcDbEntity
  8
0
100
AcDbLine
 62
4
  6
CONTINUOUS
 10
13.5505420531
 20
8.5549333432
 11
13.5698605796
 21
8.5391047109
  0
LINE
  5
2F5
100
AcDbEntity
  8
0
100
AcDbLine
 62
4
  6
CONTINUOUS
 10
13.5698605796
 20
8.7564380298
 11
13.5505420531
 21
8.7722666621
  0
LINE
  5
2F6
100
AcDbEntity
  8
0
100
AcDbLine
 62
4
  6
CONTINUOUS
 10
13.511905021
 20
8.8329017011
 11
13.4732679888
 21
8.8645589642
  0
LINE
  5
2F7
100
AcDbEntity
  8
0
100
AcDbLine
 62
4
  6
CONTINUOUS
 10
13.6084976049
 20
8.8696696464
 11
13.6278161313
 21
8.8538410141
  0
LINE
  5
2F8
100
AcDbEntity
  8
0
100
AcDbLine
 62
4
  6
CONTINUOUS
 10
13.4539494727
 20
8.9962986992
 11
13.4346309549
 21
9.0121273309
  0
LINE
  5
2F9
100
AcDbEntity
  8
0
100
AcDbLine
 62
4
  6
CONTINUOUS
 10
13.6471346439
 20
8.794545719
 11
13.6278161313
 21
8.7669076866
  0
LINE
  5
2FA
100
AcDbEntity
  8
0
100
AcDbLine
 62
4
  6
CONTINUOUS
 10
14.4982642673
 20
8.7168395779
 11
14.4361477491
 21
8.6568396252
  0
LINE
  5
2FB
100
AcDbEntity
  8
0
100
AcDbLine
 62
4
  6
CONTINUOUS
 10
13.5891790922
 20
9.1173204846
 11
13.6278161313
 21
9.085663221
  0
LINE
  5
2FC
100
AcDbEntity
  8
0
100
AcDbLine
 62
4
  6
CONTINUOUS
 10
14.4982642673
 20
8.4850173711
 11
14.4361477491
 21
8.5409285218
  0
LINE
  5
2FD
100
AcDbEntity
  8
0
100
AcDbLine
 62
4
  6
CONTINUOUS
 10
13.5505420531
 20
8.7722666621
 11
13.511905021
 21
8.8329017011
  0
LINE
  5
2FE
100
AcDbEntity
  8
0
100
AcDbLine
 62
4
  6
CONTINUOUS
 10
13.4346309549
 20
9.0121273309
 11
13.4153124371
 21
9.0424448505
  0
LINE
  5
2FF
100
AcDbEntity
  8
0
100
AcDbLine
 62
4
  6
CONTINUOUS
 10
13.4153124371
 20
8.8830670833
 11
13.4153124371
 21
8.7671559799
  0
LINE
  5
300
100
AcDbEntity
  8
0
100
AcDbLine
 62
4
  6
CONTINUOUS
 10
13.4153124371
 20
8.6657337644
 11
13.4153124371
 21
8.5643115489
  0
LINE
  5
301
100
AcDbEntity
  8
0
100
AcDbLine
 62
4
  6
CONTINUOUS
 10
13.4153124371
 20
9.0424448505
 11
13.4153124371
 21
9.0714226264
  0
LINE
  5
302
100
AcDbEntity
  8
0
100
AcDbLine
 62
4
  6
CONTINUOUS
 10
13.5505420531
 20
8.6563555587
 11
13.5505420531
 21
8.5549333432
  0
LINE
  5
303
100
AcDbEntity
  8
0
100
AcDbLine
 62
4
  6
CONTINUOUS
 10
13.6471346439
 20
9.0553457017
 11
13.6471346439
 21
9.0263679259
  0
LINE
  5
304
100
AcDbEntity
  8
0
100
AcDbLine
 62
4
  6
CONTINUOUS
 10
13.6471346439
 20
8.8235234949
 11
13.6471346439
 21
8.794545719
  0
LINE
  5
305
100
AcDbEntity
  8
0
100
AcDbLine
 62
4
  6
CONTINUOUS
 10
13.6471346439
 20
8.5482346242
 11
13.6471346439
 21
8.6496568397
  0
LINE
  5
306
100
AcDbEntity
  8
0
100
AcDbLine
 62
4
  6
CONTINUOUS
 10
12.7198460036
 20
6.704838621
 11
12.7391645214
 21
6.7324766531
  0
LINE
  5
307
100
AcDbEntity
  8
0
100
AcDbLine
 62
4
  6
CONTINUOUS
 10
12.9516682105
 20
6.6597839205
 11
12.9323496978
 21
6.632145888
  0
LINE
  5
308
100
AcDbEntity
  8
0
100
AcDbLine
 62
4
  6
CONTINUOUS
 10
12.7391645214
 20
6.7324766531
 11
12.7778015553
 21
6.7587749415
  0
LINE
  5
309
100
AcDbEntity
  8
0
100
AcDbLine
 62
4
  6
CONTINUOUS
 10
12.9323496978
 20
6.632145888
 11
12.9130311714
 21
6.6189967445
  0
LINE
  5
30A
100
AcDbEntity
  8
0
100
AcDbLine
 62
4
  6
CONTINUOUS
 10
13.6278161313
 20
8.8538410141
 11
13.6471346439
 21
8.8235234949
  0
LINE
  5
30B
100
AcDbEntity
  8
0
100
AcDbLine
 62
4
  6
CONTINUOUS
 10
13.6278161313
 20
9.085663221
 11
13.6471346439
 21
9.0553457017
  0
LINE
  5
30C
100
AcDbEntity
  8
0
100
AcDbLine
 62
4
  6
CONTINUOUS
 10
14.4361477491
 20
8.9466173838
 11
14.4982642673
 21
9.0790617761
  0
LINE
  5
30D
100
AcDbEntity
  8
0
100
AcDbLine
 62
4
  6
CONTINUOUS
 10
14.4516768787
 20
8.7877507168
 11
14.4672060082
 21
8.8172395929
  0
LINE
  5
30E
100
AcDbEntity
  8
0
100
AcDbLine
 62
4
  6
CONTINUOUS
 10
12.9516682105
 20
6.4279617136
 11
12.9323496978
 21
6.4003236812
  0
LINE
  5
30F
100
AcDbEntity
  8
0
100
AcDbLine
 62
4
  6
CONTINUOUS
 10
12.9323496978
 20
6.4003236812
 11
12.9130311714
 21
6.3871745376
  0
LINE
  5
310
100
AcDbEntity
  8
0
100
AcDbLine
 62
7
  6
CONTINUOUS
 10
7.8320144145
 20
11.8077629802
 11
15.5594214826
 21
11.2718654799
  0
LINE
  5
311
100
AcDbEntity
  8
0
100
AcDbLine
 62
4
  6
CONTINUOUS
 10
14.4516768787
 20
8.1937063117
 11
14.4413241244
 21
8.2126840943
  0
LINE
  5
312
100
AcDbEntity
  8
0
100
AcDbLine
 62
4
  6
CONTINUOUS
 10
14.487911514
 20
8.3591062752
 11
14.4930878906
 21
8.3496173835
  0
LINE
  5
313
100
AcDbEntity
  8
0
100
AcDbLine
 62
7
  6
CONTINUOUS
 10
14.2653273251
 20
10.0218664374
 11
14.2653273251
 21
5.1922370198
  0
LINE
  5
314
100
AcDbEntity
  8
0
100
AcDbLine
 62
4
  6
CONTINUOUS
 10
14.4361477491
 20
8.2366618753
 11
14.4361477491
 21
8.2656396511
  0
LINE
  5
315
100
AcDbEntity
  8
0
100
AcDbLine
 62
4
  6
CONTINUOUS
 10
14.4361477491
 20
8.6568396252
 11
14.4361477491
 21
8.7147951769
  0
LINE
  5
316
100
AcDbEntity
  8
0
100
AcDbLine
 62
4
  6
CONTINUOUS
 10
14.4775587606
 20
8.9431506879
 11
14.4775587606
 21
9.0300840155
  0
LINE
  5
317
100
AcDbEntity
  8
0
100
AcDbLine
 62
4
  6
CONTINUOUS
 10
14.4982642673
 20
8.7747951296
 11
14.4982642673
 21
8.7168395779
  0
LINE
  5
318
100
AcDbEntity
  8
0
100
AcDbLine
 62
4
  6
CONTINUOUS
 10
14.4982642673
 20
8.3256396038
 11
14.4982642673
 21
8.296661828
  0
LINE
  5
319
100
AcDbEntity
  8
0
100
AcDbLine
 62
4
  6
CONTINUOUS
 10
14.4361477491
 20
8.7147951769
 11
14.4413241244
 21
8.7487729477
  0
LINE
  5
31A
100
AcDbEntity
  8
0
100
AcDbLine
 62
4
  6
CONTINUOUS
 10
14.4361477491
 20
8.2656396511
 11
14.4413241244
 21
8.2996174219
  0
LINE
  5
31B
100
AcDbEntity
  8
0
100
AcDbLine
 62
4
  6
CONTINUOUS
 10
14.4982642673
 20
8.296661828
 11
14.4930878906
 21
8.2626840559
  0
LINE
  5
31C
100
AcDbEntity
  8
0
100
AcDbLine
 62
4
  6
CONTINUOUS
 10
14.4413241244
 20
8.7487729477
 11
14.4516768787
 21
8.7877507168
  0
LINE
  5
31D
100
AcDbEntity
  8
0
100
AcDbLine
 62
4
  6
CONTINUOUS
 10
14.4413241244
 20
8.2996174219
 11
14.4465005034
 21
8.3191063082
  0
LINE
  5
31E
100
AcDbEntity
  8
0
100
AcDbLine
 62
4
  6
CONTINUOUS
 10
14.4930878906
 20
8.2626840559
 11
14.4827351378
 21
8.2237062881
  0
LINE
  5
31F
100
AcDbEntity
  8
0
100
AcDbLine
 62
4
  6
CONTINUOUS
 10
14.4361477491
 20
8.4250174184
 11
14.4982642673
 21
8.6009284745
  0
LINE
  5
320
100
AcDbEntity
  8
0
100
AcDbLine
 62
4
  6
CONTINUOUS
 10
14.4827351378
 20
8.2237062881
 11
14.4672060082
 21
8.194217412
  0
LINE
  5
321
100
AcDbEntity
  8
0
100
AcDbLine
 62
4
  6
CONTINUOUS
 10
14.4827351378
 20
8.8177506932
 11
14.4930878906
 21
8.7987729093
  0
LINE
  5
322
100
AcDbEntity
  8
0
100
AcDbLine
 62
4
  6
CONTINUOUS
 10
14.4413241244
 20
8.2126840943
 11
14.4361477491
 21
8.2366618753
  0
LINE
  5
323
100
AcDbEntity
  8
0
100
AcDbLine
 62
4
  6
CONTINUOUS
 10
14.4930878906
 20
8.3496173835
 11
14.4982642673
 21
8.3256396038
  0
LINE
  5
324
100
AcDbEntity
  8
0
100
AcDbLine
 62
4
  6
CONTINUOUS
 10
14.4930878906
 20
8.7987729093
 11
14.4982642673
 21
8.7747951296
  0
LINE
  5
325
100
AcDbEntity
  8
0
100
AcDbLine
 62
7
  6
CONTINUOUS
 10
15.5977403918
 20
8.0290775707
 11
15.6308643652
 21
8.0852387633
  0
LINE
  5
326
100
AcDbEntity
  8
0
100
AcDbLine
 62
7
  6
CONTINUOUS
 10
15.5594214826
 20
11.2718654799
 11
15.5594214826
 21
9.8082520501
  0
LINE
  5
327
100
AcDbEntity
  8
0
100
AcDbLine
 62
7
  6
CONTINUOUS
 10
15.5594214826
 20
7.9678253
 11
15.5594214826
 21
6.4422360623
  0
LINE
  5
328
100
AcDbEntity
  8
0
100
AcDbLine
 62
7
  6
CONTINUOUS
 10
14.2653273251
 20
5.1922370198
 11
15.5594214826
 21
6.4422360623
  0
LINE
  5
329
100
AcDbEntity
  8
0
100
AcDbLine
 62
7
  6
CONTINUOUS
 10
15.7239004043
 20
9.6521570206
 11
15.7372981762
 21
9.6199676679
  0
ARC
  5
32A
100
AcDbEntity
  8
0
100
AcDbCircle
 62
7
  6
CONTINUOUS
 10
9.8283126026
 20
7.7974741162
 40
3.6037664805
100
AcDbArc
 50
179.0799666396
 51
179.9967059793
  0
ARC
  5
32B
100
AcDbEntity
  8
0
100
AcDbCircle
 62
7
  6
CONTINUOUS
 10
9.6626160002
 20
7.7974401375
 40
3.4380698806
100
AcDbArc
 50
179.9959809667
 51
180.9419458577
  0
ARC
  5
32C
100
AcDbEntity
  8
0
100
AcDbCircle
 62
7
  6
CONTINUOUS
 10
12.7567243316
 20
9.3299436199
 40
0.5011544543
100
AcDbArc
 50
168.3879867809
 51
168.638763922
  0
ARC
  5
32D
100
AcDbEntity
  8
0
100
AcDbCircle
 62
7
  6
CONTINUOUS
 10
8.8154382341
 20
7.3223984351
 40
0.1833553109
100
AcDbArc
 50
197.4676740055
 51
198.1805530585
  0
SPLINE
  5
32E
100
AcDbEntity
  8
0
100
AcDbSpline
 62
7
  6
CONTINUOUS
 70
0
 71
3
 72
53
 73
49
 74
0
 42
0.0000001
 43
0.0000001
 44
0.0000000001
 40
0.0
 40
0.0
 40
0.0
 40
0.0
 40
0.0354700217
 40
0.071271944
 40
0.1073440507
 40
0.1436238259
 40
0.1800483496
 40
0.2165543815
 40
0.2530785008
 40
0.2895572468
 40
0.3259272586
 40
0.3621254156
 40
0.3980889757
 40
0.4337557202
 40
0.4690640885
 40
0.5039533278
 40
0.5383636313
 40
0.5722362854
 40
0.6055138211
 40
0.6381401576
 40
0.6541921204
 40
0.6700609679
 40
0.6857401537
 40
0.7012232497
 40
0.7165039484
 40
0.7315760705
 40
0.7464335755
 40
0.7610705611
 40
0.7754812701
 40
0.7896601032
 40
0.8036016223
 40
0.8173005545
 40
0.8307518049
 40
0.8439504676
 40
0.8568918278
 40
0.8695713734
 40
0.8819848128
 40
0.89412808
 40
0.905997346
 40
0.9175890392
 40
0.9288998608
 40
0.9399267965
 40
0.9506671395
 40
0.9611185188
 40
0.9712789164
 40
0.981146696
 40
0.9907206436
 40
1.0
 40
1.0
 40
1.0
 40
1.0
 10
6.189280797
 20
7.8317449379
 30
0.0
 10
6.189280797
 20
7.8437296326
 30
0.0
 10
6.1894203611
 20
7.8678113809
 30
0.0
 10
6.1900401518
 20
7.9040764641
 30
0.0
 10
6.1910703494
 20
7.9406059545
 30
0.0
 10
6.1925090595
 20
7.9773321393
 30
0.0
 10
6.1943536228
 20
8.0141869732
 30
0.0
 10
6.196600631
 20
8.0511021679
 30
0.0
 10
6.1992459189
 20
8.0880093285
 30
0.0
 10
6.2022845884
 20
8.1248400728
 30
0.0
 10
6.2057110036
 20
8.1615261614
 30
0.0
 10
6.209518809
 20
8.1979996238
 30
0.0
 10
6.2137009419
 20
8.2341928847
 30
0.0
 10
6.2182496362
 20
8.2700388905
 30
0.0
 10
6.223156452
 20
8.3054712328
 30
0.0
 10
6.2284122743
 20
8.3404242745
 30
0.0
 10
6.2340073429
 20
8.3748332658
 30
0.0
 10
6.2399312642
 20
8.4086344868
 30
0.0
 10
6.246173029
 20
8.4417652887
 30
0.0
 10
6.2516588471
 20
8.4689088394
 30
0.0
 10
6.2562009864
 20
8.4902401049
 30
0.0
 10
6.2596613137
 20
8.5059467907
 30
0.0
 10
6.2631921104
 20
8.5214407072
 30
0.0
 10
6.2667917436
 20
8.536714685
 30
0.0
 10
6.2704585432
 20
8.5517616464
 30
0.0
 10
6.27419081
 20
8.5665746217
 30
0.0
 10
6.2779868107
 20
8.5811467504
 30
0.0
 10
6.2818447846
 20
8.5954712836
 30
0.0
 10
6.2857629442
 20
8.6095415863
 30
0.0
 10
6.2897394705
 20
8.623351143
 30
0.0
 10
6.2937725179
 20
8.63689356
 30
0.0
 10
6.2978602171
 20
8.650162566
 30
0.0
 10
6.3020006722
 20
8.6631520178
 30
0.0
 10
6.3061919608
 20
8.6758559036
 30
0.0
 10
6.310432139
 20
8.6882683434
 30
0.0
 10
6.3147192421
 20
8.7003835922
 30
0.0
 10
6.3190512796
 20
8.7121960457
 30
0.0
 10
6.3234262418
 20
8.7237002404
 30
0.0
 10
6.3278421021
 20
8.7348908552
 30
0.0
 10
6.3322968127
 20
8.745762717
 30
0.0
 10
6.336788307
 20
8.7563108028
 30
0.0
 10
6.3413145051
 20
8.7665302395
 30
0.0
 10
6.3458733119
 20
8.7764163076
 30
0.0
 10
6.3504626154
 20
8.7859644483
 30
0.0
 10
6.3550802902
 20
8.7951702549
 30
0.0
 10
6.3597242133
 20
8.8040294991
 30
0.0
 10
6.3643922097
 20
8.8125380504
 30
0.0
 10
6.3675685531
 20
8.8180604852
 30
0.0
 10
6.3691613697
 20
8.8207610841
 30
0.0
  0
SPLINE
  5
32F
100
AcDbEntity
  8
0
100
AcDbSpline
 62
7
  6
CONTINUOUS
 70
0
 71
3
 72
15
 73
11
 74
0
 42
0.0000001
 43
0.0000001
 44
0.0000000001
 40
0.0
 40
0.0
 40
0.0
 40
0.0
 40
0.1130134526
 40
0.2292354891
 40
0.3487879676
 40
0.4717828379
 40
0.598318796
 40
0.7284835129
 40
0.8623555254
 40
1.0
 40
1.0
 40
1.0
 40
1.0
 10
6.3646163199
 20
7.0877626027
 30
0.0
 10
6.3634567631
 20
7.0888028288
 30
0.0
 10
6.3611463596
 20
7.0909596525
 30
0.0
 10
6.3577551048
 20
7.0943688191
 30
0.0
 10
6.3543915679
 20
7.0979953443
 30
0.0
 10
6.3510565627
 20
7.1018383092
 30
0.0
 10
6.3477507843
 20
7.1058968516
 30
0.0
 10
6.3444749546
 20
7.1101700642
 30
0.0
 10
6.3412298336
 20
7.1146569218
 30
0.0
 10
6.339116973
 20
7.1177466132
 30
0.0
 10
6.3380653474
 20
7.1193257765
 30
0.0
  0
SPLINE
  5
330
100
AcDbEntity
  8
0
100
AcDbSpline
 62
7
  6
CONTINUOUS
 70
0
 71
3
 72
11
 73
7
 74
0
 42
0.0000001
 43
0.0000001
 44
0.0000000001
 40
0.0
 40
0.0
 40
0.0
 40
0.0
 40
0.2527935986
 40
0.5037865761
 40
0.7528844832
 40
1.0
 40
1.0
 40
1.0
 40
1.0
 10
6.3380653474
 20
7.1193257765
 30
0.0
 10
6.3332771744
 20
7.1285455433
 30
0.0
 10
6.3239003856
 20
7.1470059823
 30
0.0
 10
6.3104295917
 20
7.1748630123
 30
0.0
 10
6.2976464847
 20
7.2027860575
 30
0.0
 10
6.2895799256
 20
7.2215179698
 30
0.0
 10
6.2856773536
 20
7.2308938191
 30
0.0
  0
SPLINE
  5
331
100
AcDbEntity
  8
0
100
AcDbSpline
 62
7
  6
CONTINUOUS
 70
0
 71
3
 72
23
 73
19
 74
0
 42
0.0000001
 43
0.0000001
 44
0.0000000001
 40
0.0
 40
0.0
 40
0.0
 40
0.0
 40
0.0475983087
 40
0.0967765629
 40
0.1476852236
 40
0.2004585287
 40
0.2552116565
 40
0.3120387067
 40
0.3710116439
 40
0.4321800173
 40
0.4955714033
 40
0.5611926193
 40
0.6290314175
 40
0.6990585138
 40
0.7712299145
 40
0.8454893448
 40
0.9217706317
 40
1.0
 40
1.0
 40
1.0
 40
1.0
 10
6.3852103177
 20
8.847971831
 30
0.0
 10
6.3868093454
 20
8.8506831085
 30
0.0
 10
6.3902186834
 20
8.8561038132
 30
0.0
 10
6.3958606134
 20
8.8640810438
 30
0.0
 10
6.4021182215
 20
8.8720255333
 30
0.0
 10
6.4089975051
 20
8.8799332213
 30
0.0
 10
6.4165014789
 20
8.8878006695
 30
0.0
 10
6.4246297175
 20
8.895624527
 30
0.0
 10
6.4333784553
 20
8.9034017278
 30
0.0
 10
6.442740626
 20
8.911129489
 30
0.0
 10
6.4527060177
 20
8.9188053804
 30
0.0
 10
6.4632615288
 20
8.9264273362
 30
0.0
 10
6.4743914781
 20
8.9339936804
 30
0.0
 10
6.4860779581
 20
8.9415031517
 30
0.0
 10
6.4983012272
 20
8.948954896
 30
0.0
 10
6.5110401364
 20
8.956348463
 30
0.0
 10
6.5242724488
 20
8.9636837555
 30
0.0
 10
6.5332971235
 20
8.9684765608
 30
0.0
 10
6.5378856033
 20
8.9708659339
 30
0.0
  0
SPLINE
  5
332
100
AcDbEntity
  8
0
100
AcDbSpline
 62
7
  6
CONTINUOUS
 70
0
 71
3
 72
39
 73
35
 74
0
 42
0.0000001
 43
0.0000001
 44
0.0000000001
 40
0.0
 40
0.0
 40
0.0
 40
0.0
 40
0.020705896
 40
0.0422069992
 40
0.064500326
 40
0.0875811462
 40
0.1114431524
 40
0.1360786007
 40
0.1614784371
 40
0.1876324038
 40
0.2145291301
 40
0.2421562144
 40
0.2705002944
 40
0.2995471085
 40
0.3292815523
 40
0.3596877294
 40
0.3907489969
 40
0.4224480095
 40
0.4547667563
 40
0.4876865961
 40
0.5211882928
 40
0.5552520438
 40
0.5898575113
 40
0.624983853
 40
0.6606097466
 40
0.6967134177
 40
0.7332726655
 40
0.7702648851
 40
0.8076670952
 40
0.8454559472
 40
0.8836078107
 40
0.9220985877
 40
0.9609042941
 40
1.0
 40
1.0
 40
1.0
 40
1.0
 10
6.2627276436
 20
7.2860325637
 30
0.0
 10
6.2612596087
 20
7.2895596525
 30
0.0
 10
6.2583626976
 20
7.2967893671
 30
0.0
 10
6.2542040711
 20
7.3079410224
 30
0.0
 10
6.2501529243
 20
7.3195970868
 30
0.0
 10
6.2462120581
 20
7.3317495614
 30
0.0
 10
6.2423841514
 20
7.3443902319
 30
0.0
 10
6.238671824
 20
7.3575105039
 30
0.0
 10
6.2350776158
 20
7.3711014584
 30
0.0
 10
6.2316039887
 20
7.3851538461
 30
0.0
 10
6.2282533235
 20
7.3996580977
 30
0.0
 10
6.2250279173
 20
7.4146043312
 30
0.0
 10
6.2219299825
 20
7.4299823583
 30
0.0
 10
6.2189616442
 20
7.4457816926
 30
0.0
 10
6.2161249385
 20
7.4619915563
 30
0.0
 10
6.2134218114
 20
7.4786008886
 30
0.0
 10
6.2108541173
 20
7.4955983539
 30
0.0
 10
6.2084236181
 20
7.5129723495
 30
0.0
 10
6.2061319813
 20
7.5307110145
 30
0.0
 10
6.2039807794
 20
7.5488022372
 30
0.0
 10
6.2019714886
 20
7.5672336637
 30
0.0
 10
6.2001054873
 20
7.5859927064
 30
0.0
 10
6.1983840557
 20
7.6050665528
 30
0.0
 10
6.1968083748
 20
7.6244421747
 30
0.0
 10
6.1953795258
 20
7.6441063372
 30
0.0
 10
6.1940984896
 20
7.6640456078
 30
0.0
 10
6.1929661453
 20
7.6842463653
 30
0.0
 10
6.1919832707
 20
7.7046948099
 30
0.0
 10
6.1911505407
 20
7.7253769698
 30
0.0
 10
6.1904685262
 20
7.7462787207
 30
0.0
 10
6.1899376984
 20
7.7673857646
 30
0.0
 10
6.1895584179
 20
7.7886837211
 30
0.0
 10
6.1893309529
 20
7.8101579809
 30
0.0
 10
6.189280797
 20
7.8245314676
 30
0.0
 10
6.189280797
 20
7.8317449379
 30
0.0
  0
SPLINE
  5
333
100
AcDbEntity
  8
0
100
AcDbSpline
 62
7
  6
CONTINUOUS
 70
0
 71
3
 72
28
 73
24
 74
0
 42
0.0000001
 43
0.0000001
 44
0.0000000001
 40
0.0
 40
0.0
 40
0.0
 40
0.0
 40
0.0840380681
 40
0.1646382991
 40
0.2418513691
 40
0.3157434387
 40
0.3863983593
 40
0.453920249
 40
0.5184363481
 40
0.5801000822
 40
0.6390943203
 40
0.6956345904
 40
0.7499718105
 40
0.7764082531
 40
0.8024051673
 40
0.8280043773
 40
0.8532499493
 40
0.8781879983
 40
0.9028665777
 40
0.9273354165
 40
0.9516456447
 40
0.9758495098
 40
1.0
 40
1.0
 40
1.0
 40
1.0
 10
8.7179091699
 20
7.2504885246
 30
0.0
 10
8.7190227796
 20
7.2483428427
 30
0.0
 10
8.7212679454
 20
7.2441717493
 30
0.0
 10
8.7247687103
 20
7.2381580022
 30
0.0
 10
8.7283298378
 20
7.2325218952
 30
0.0
 10
8.7319493141
 20
7.2272667463
 30
0.0
 10
8.7356251787
 20
7.2223955633
 30
0.0
 10
8.7393554696
 20
7.2179111693
 30
0.0
 10
8.7431382516
 20
7.2138161824
 30
0.0
 10
8.7469715908
 20
7.210113065
 30
0.0
 10
8.7508536492
 20
7.2068041018
 30
0.0
 10
8.7547823071
 20
7.2038916079
 30
0.0
 10
8.7581239683
 20
7.2017774256
 30
0.0
 10
8.7608143784
 20
7.2002943384
 30
0.0
 10
8.7628237924
 20
7.1992923546
 30
0.0
 10
8.7648427812
 20
7.1983908264
 30
0.0
 10
8.7668710675
 20
7.197589882
 30
0.0
 10
8.7689083413
 20
7.1968896827
 30
0.0
 10
8.7709542894
 20
7.1962903499
 30
0.0
 10
8.7730085859
 20
7.1957919925
 30
0.0
 10
8.7750709248
 20
7.1953947157
 30
0.0
 10
8.7771409071
 20
7.195098586
 30
0.0
 10
8.778526438
 20
7.1949685789
 30
0.0
 10
8.7792194904
 20
7.1949205172
 30
0.0
  0
SPLINE
  5
334
100
AcDbEntity
  8
0
100
AcDbSpline
 62
7
  6
CONTINUOUS
 70
0
 71
3
 72
11
 73
7
 74
0
 42
0.0000001
 43
0.0000001
 44
0.0000000001
 40
0.0
 40
0.0
 40
0.0
 40
0.0
 40
0.2597794222
 40
0.5131607124
 40
0.7599591931
 40
1.0
 40
1.0
 40
1.0
 40
1.0
 10
6.3380653474
 20
8.6953391324
 30
0.0
 10
6.3401723724
 20
8.7025735861
 30
0.0
 10
6.3444242165
 20
8.7168383996
 30
0.0
 10
6.3510018352
 20
8.7378778755
 30
0.0
 10
6.3576953736
 20
8.758279081
 30
0.0
 10
6.3622958569
 20
8.7716303959
 30
0.0
 10
6.3646163199
 20
8.7781948494
 30
0.0
  0
SPLINE
  5
335
100
AcDbEntity
  8
0
100
AcDbSpline
 62
7
  6
CONTINUOUS
 70
0
 71
3
 72
36
 73
32
 74
0
 42
0.0000001
 43
0.0000001
 44
0.0000000001
 40
0.0
 40
0.0
 40
0.0
 40
0.0
 40
0.0615612389
 40
0.0923780032
 40
0.1232201781
 40
0.1540890809
 40
0.1849860198
 40
0.2159122824
 40
0.2468691158
 40
0.2778577069
 40
0.3088791609
 40
0.3399344791
 40
0.3710245382
 40
0.4021500704
 40
0.4333116463
 40
0.4645096599
 40
0.4957443181
 40
0.5270156347
 40
0.5583234294
 40
0.5896673324
 40
0.621046793
 40
0.652461093
 40
0.6839093631
 40
0.7153906023
 40
0.7469036995
 40
0.7784474558
 40
0.810020606
 40
0.8416218396
 40
0.8732498202
 40
0.9365792905
 40
1.0
 40
1.0
 40
1.0
 40
1.0
 10
6.2250107221
 20
7.855339511
 30
0.0
 10
6.2228749633
 20
7.872808131
 30
0.0
 10
6.2199895854
 20
7.8990622223
 30
0.0
 10
6.2168393616
 20
7.9341471906
 30
0.0
 10
6.214838357
 20
7.960523547
 30
0.0
 10
6.2132152527
 20
7.9869488099
 30
0.0
 10
6.2119850613
 20
8.0134194312
 30
0.0
 10
6.2111623875
 20
8.0399310632
 30
0.0
 10
6.2107612159
 20
8.0664786958
 30
0.0
 10
6.2107947089
 20
8.0930566159
 30
0.0
 10
6.211274992
 20
8.1196584369
 30
0.0
 10
6.2122129378
 20
8.1462771355
 30
0.0
 10
6.21361796
 20
8.1729051126
 30
0.0
 10
6.2154978237
 20
8.1995342757
 30
0.0
 10
6.217858479
 20
8.2261561413
 30
0.0
 10
6.2207039266
 20
8.2527619547
 30
0.0
 10
6.2240361228
 20
8.279342823
 30
0.0
 10
6.2278549277
 20
8.3058898563
 30
0.0
 10
6.2321580967
 20
8.3323943137
 30
0.0
 10
6.2369413282
 20
8.3588477432
 30
0.0
 10
6.2421983524
 20
8.3852421136
 30
0.0
 10
6.2479210605
 20
8.4115699313
 30
0.0
 10
6.2540996686
 20
8.4378243384
 30
0.0
 10
6.2607229088
 20
8.4639991897
 30
0.0
 10
6.2677782362
 20
8.4900891053
 30
0.0
 10
6.2752520495
 20
8.516089506
 30
0.0
 10
6.283129906
 20
8.5419966028
 30
0.0
 10
6.2913967617
 20
8.5678074537
 30
0.0
 10
6.3029216048
 20
8.6021035807
 30
0.0
 10
6.3182225719
 20
8.6447216832
 30
0.0
 10
6.33131978
 20
8.6785104662
 30
0.0
 10
6.3380653474
 20
8.6953391324
 30
0.0
  0
SPLINE
  5
336
100
AcDbEntity
  8
0
100
AcDbSpline
 62
7
  6
CONTINUOUS
 70
0
 71
3
 72
23
 73
19
 74
0
 42
0.0000001
 43
0.0000001
 44
0.0000000001
 40
0.0
 40
0.0
 40
0.0
 40
0.0
 40
0.0596059336
 40
0.1193158728
 40
0.1791800872
 40
0.2392527071
 40
0.2995911495
 40
0.3602561044
 40
0.4213113774
 40
0.4828235654
 40
0.5448617836
 40
0.60749731
 40
0.6708031144
 40
0.7348534296
 40
0.799723278
 40
0.8654878765
 40
0.9322221039
 40
1.0
 40
1.0
 40
1.0
 40
1.0
 10
6.3646163199
 20
8.7781948494
 30
0.0
 10
6.3646695225
 20
8.7796547692
 30
0.0
 10
6.3648169827
 20
8.7825758386
 30
0.0
 10
6.3651643289
 20
8.7869542186
 30
0.0
 10
6.3656414568
 20
8.7913319336
 30
0.0
 10
6.3662518616
 20
8.7957086349
 30
0.0
 10
6.3669990416
 20
8.8000840121
 30
0.0
 10
6.3678864791
 20
8.8044577124
 30
0.0
 10
6.3689176337
 20
8.8088293611
 30
0.0
 10
6.3700959202
 20
8.813198559
 30
0.0
 10
6.3714246961
 20
8.8175648823
 30
0.0
 10
6.3729072511
 20
8.8219278822
 30
0.0
 10
6.3745467785
 20
8.8262870881
 30
0.0
 10
6.3763463639
 20
8.83064201
 30
0.0
 10
6.3783089725
 20
8.8349921304
 30
0.0
 10
6.3804374295
 20
8.8393369327
 30
0.0
 10
6.3827343568
 20
8.8436758227
 30
0.0
 10
6.3843664379
 20
8.8465409663
 30
0.0
 10
6.3852103177
 20
8.847971831
 30
0.0
  0
SPLINE
  5
337
100
AcDbEntity
  8
0
100
AcDbSpline
 62
7
  6
CONTINUOUS
 70
0
 71
3
 72
36
 73
32
 74
0
 42
0.0000001
 43
0.0000001
 44
0.0000000001
 40
0.0
 40
0.0
 40
0.0
 40
0.0
 40
0.0669064708
 40
0.1331414625
 40
0.1660035828
 40
0.1986934498
 40
0.2312108846
 40
0.263556407
 40
0.2957312622
 40
0.3277374341
 40
0.3595776472
 40
0.3912553526
 40
0.4227747006
 40
0.4541404994
 40
0.4853581604
 40
0.5164336325
 40
0.5473733271
 40
0.5781840359
 40
0.608872845
 40
0.639447047
 40
0.6699140544
 40
0.7002813167
 40
0.7305562424
 40
0.7607461282
 40
0.7908580973
 40
0.8208990453
 40
0.8508755968
 40
0.8807940693
 40
0.9106604527
 40
0.9404803739
 40
1.0
 40
1.0
 40
1.0
 40
1.0
 10
6.2856773536
 20
7.2308938191
 30
0.0
 10
6.2812107397
 20
7.2416247679
 30
0.0
 10
6.2726201309
 20
7.2631044876
 30
0.0
 10
6.2627239767
 20
7.290197945
 30
0.0
 10
6.2553943063
 20
7.3118887898
 30
0.0
 10
6.2502099665
 20
7.3281189786
 30
0.0
 10
6.2453309101
 20
7.3443498558
 30
0.0
 10
6.2407629589
 20
7.3605781406
 30
0.0
 10
6.2365112374
 20
7.3768003627
 30
0.0
 10
6.2325800796
 20
7.3930129533
 30
0.0
 10
6.2289729756
 20
7.4092122635
 30
0.0
 10
6.2256925209
 20
7.4253946061
 30
0.0
 10
6.2227403802
 20
7.4415562941
 30
0.0
 10
6.2201172643
 20
7.4576936815
 30
0.0
 10
6.2178229222
 20
7.4738032036
 30
0.0
 10
6.2158561468
 20
7.4898814155
 30
0.0
 10
6.2142147967
 20
7.5059250292
 30
0.0
 10
6.2128958298
 20
7.5219309461
 30
0.0
 10
6.2118953511
 20
7.5378962857
 30
0.0
 10
6.2112086701
 20
7.5538184096
 30
0.0
 10
6.2108303677
 20
7.5696949393
 30
0.0
 10
6.2107543695
 20
7.5855237696
 30
0.0
 10
6.2109740234
 20
7.6013030756
 30
0.0
 10
6.211482181
 20
7.6170313149
 30
0.0
 10
6.2122712778
 20
7.6327072253
 30
0.0
 10
6.2133334128
 20
7.6483298159
 30
0.0
 10
6.214660427
 20
7.6638983646
 30
0.0
 10
6.2162439697
 20
7.6794123735
 30
0.0
 10
6.2180755894
 20
7.6948716702
 30
0.0
 10
6.2208352129
 20
7.7153967935
 30
0.0
 10
6.2232542563
 20
7.7307307661
 30
0.0
 10
6.2250107221
 20
7.7409206202
 30
0.0
  0
SPLINE
  5
338
100
AcDbEntity
  8
0
100
AcDbSpline
 62
7
  6
CONTINUOUS
 70
0
 71
3
 72
29
 73
25
 74
0
 42
0.0000001
 43
0.0000001
 44
0.0000000001
 40
0.0
 40
0.0
 40
0.0
 40
0.0
 40
0.0318135266
 40
0.0635775642
 40
0.0952924394
 40
0.1269587113
 40
0.1901390263
 40
0.2531366524
 40
0.2845753068
 40
0.3159726562
 40
0.3786403239
 40
0.4411641426
 40
0.5035595704
 40
0.5658425049
 40
0.6280289084
 40
0.6901345234
 40
0.7211669179
 40
0.7521848237
 40
0.8141743511
 40
0.8761275398
 40
0.9070998994
 40
0.9380683211
 40
0.9690344689
 40
1.0
 40
1.0
 40
1.0
 40
1.0
 10
12.6471389027
 20
9.1464371911
 30
0.0
 10
12.6464624798
 20
9.1462481139
 30
0.0
 10
12.6451040804
 20
9.145893432
 30
0.0
 10
12.6430510208
 20
9.1454324372
 30
0.0
 10
12.6409863563
 20
9.1450434846
 30
0.0
 10
12.6382237327
 20
9.1446220467
 30
0.0
 10
12.6347530087
 20
9.1442773719
 30
0.0
 10
12.6312716181
 20
9.1441780696
 30
0.0
 10
12.6284939025
 20
9.1442466923
 30
0.0
 10
12.6257276665
 20
9.1444135321
 30
0.0
 10
12.6222897702
 20
9.144806053
 30
0.0
 10
12.618215875
 20
9.1455697535
 30
0.0
 10
12.6142154432
 20
9.1466218788
 30
0.0
 10
12.6103081859
 20
9.1479568979
 30
0.0
 10
12.6065133633
 20
9.1495677016
 30
0.0
 10
12.603458952
 20
9.1511335002
 30
0.0
 10
12.6010907185
 20
9.1525145903
 30
0.0
 10
12.5987761013
 20
9.1539790024
 30
0.0
 10
12.5959858671
 20
9.1559639726
 30
0.0
 10
12.5933471749
 20
9.1581448085
 30
0.0
 10
12.5913360247
 20
9.1599993806
 30
0.0
 10
12.5898790593
 20
9.1614437774
 30
0.0
 10
12.5884753888
 20
9.1629397397
 30
0.0
 10
12.5875762365
 20
9.1639702402
 30
0.0
 10
12.5871361619
 20
9.1644933893
 30
0.0
  0
SPLINE
  5
339
100
AcDbEntity
  8
0
100
AcDbSpline
 62
7
  6
CONTINUOUS
 70
0
 71
3
 72
11
 73
7
 74
0
 42
0.0000001
 43
0.0000001
 44
0.0000000001
 40
0.0
 40
0.0
 40
0.0
 40
0.0
 40
0.2394749506
 40
0.485822197
 40
0.7392645615
 40
1.0
 40
1.0
 40
1.0
 40
1.0
 10
15.5070257213
 20
7.9060704694
 30
0.0
 10
15.5083196444
 20
7.9070273223
 30
0.0
 10
15.5109087386
 20
7.9090174472
 30
0.0
 10
15.5147409388
 20
7.9121802293
 30
0.0
 10
15.5185746701
 20
7.9155612279
 30
0.0
 10
15.5210946843
 20
7.9179261548
 30
0.0
 10
15.5223549325
 20
7.9191434611
 30
0.0
  0
SPLINE
  5
33A
100
AcDbEntity
  8
0
100
AcDbSpline
 62
7
  6
CONTINUOUS
 70
0
 71
3
 72
11
 73
7
 74
0
 42
0.0000001
 43
0.0000001
 44
0.0000000001
 40
0.0
 40
0.0
 40
0.0
 40
0.0
 40
0.2396605935
 40
0.4861361377
 40
0.7395476642
 40
1.0
 40
1.0
 40
1.0
 40
1.0
 10
15.5223549325
 20
7.9191434611
 30
0.0
 10
15.5236512883
 20
7.9203956448
 30
0.0
 10
15.5262433484
 20
7.9229747219
 30
0.0
 10
15.5300765315
 20
7.9270054532
 30
0.0
 10
15.5339078432
 20
7.9312510034
 30
0.0
 10
15.5364254725
 20
7.9341834511
 30
0.0
 10
15.5376841436
 20
7.935684233
 30
0.0
  0
SPLINE
  5
33B
100
AcDbEntity
  8
0
100
AcDbSpline
 62
7
  6
CONTINUOUS
 70
0
 71
3
 72
11
 73
7
 74
0
 42
0.0000001
 43
0.0000001
 44
0.0000000001
 40
0.0
 40
0.0
 40
0.0
 40
0.0
 40
0.2523402475
 40
0.5031675623
 40
0.7524100652
 40
1.0
 40
1.0
 40
1.0
 40
1.0
 10
15.5376841436
 20
7.935684233
 30
0.0
 10
15.5430113203
 20
7.9433638674
 30
0.0
 10
15.5535115772
 20
7.9587623161
 30
0.0
 10
15.5688154449
 20
7.9820544642
 30
0.0
 10
15.5835953657
 20
8.0054749292
 30
0.0
 10
15.5931104256
 20
8.0212279615
 30
0.0
 10
15.5977694171
 20
8.0291267847
 30
0.0
  0
SPLINE
  5
33C
100
AcDbEntity
  8
0
100
AcDbSpline
 62
7
  6
CONTINUOUS
 70
0
 71
3
 72
15
 73
11
 74
0
 42
0.0000001
 43
0.0000001
 44
0.0000000001
 40
0.0
 40
0.0
 40
0.0
 40
0.0
 40
0.1249389698
 40
0.250214438
 40
0.3756669747
 40
0.5011368601
 40
0.6264643531
 40
0.751489933
 40
0.8760545768
 40
1.0
 40
1.0
 40
1.0
 40
1.0
 10
12.6504132893
 20
9.1393060466
 30
0.0
 10
12.6496162795
 20
9.1311992548
 30
0.0
 10
12.6480959331
 20
9.1149562826
 30
0.0
 10
12.6460392668
 20
9.0905494
 30
0.0
 10
12.6442052036
 20
9.0660900482
 30
0.0
 10
12.6425962375
 20
9.0416114649
 30
0.0
 10
12.641214552
 20
9.0171468819
 30
0.0
 10
12.6400620219
 20
8.992729511
 30
0.0
 10
12.6391402111
 20
8.9683925345
 30
0.0
 10
12.6386789686
 20
8.9521962472
 30
0.0
 10
12.6384873974
 20
8.9441174202
 30
0.0
  0
SPLINE
  5
33D
100
AcDbEntity
  8
0
100
AcDbSpline
 62
7
  6
CONTINUOUS
 70
0
 71
3
 72
91
 73
87
 74
0
 42
0.0000001
 43
0.0000001
 44
0.0000000001
 40
0.0
 40
0.0
 40
0.0
 40
0.0
 40
0.0048080603
 40
0.0097392102
 40
0.0147932383
 40
0.0199698132
 40
0.0252684781
 40
0.030688671
 40
0.0362297234
 40
0.04189087
 40
0.047671256
 40
0.0535699355
 40
0.059585887
 40
0.065718005
 40
0.0719651159
 40
0.078325972
 40
0.0847992602
 40
0.0913836048
 40
0.0980775656
 40
0.1048796485
 40
0.1117882979
 40
0.1188019097
 40
0.1331372289
 40
0.1478718627
 40
0.1629912164
 40
0.1784800071
 40
0.1943223135
 40
0.2105016194
 40
0.2270008554
 40
0.2438024385
 40
0.2608883084
 40
0.2782399646
 40
0.2958384992
 40
0.3136646323
 40
0.331698743
 40
0.3499209039
 40
0.3683109107
 40
0.3868483155
 40
0.4055124562
 40
0.4242824889
 40
0.4431374169
 40
0.4620561224
 40
0.481017397
 40
0.4999999711
 40
0.5189825453
 40
0.53794382
 40
0.556862526
 40
0.5757174542
 40
0.5944874874
 40
0.6131516288
 40
0.6316890346
 40
0.6500790425
 40
0.6683012045
 40
0.6863353165
 40
0.7041614505
 40
0.7217599865
 40
0.7391116439
 40
0.7561975158
 40
0.7729991008
 40
0.7894983391
 40
0.8056776469
 40
0.8215199553
 40
0.8370087478
 40
0.8521281034
 40
0.8668627397
 40
0.8811980616
 40
0.8882116747
 40
0.8951203257
 40
0.9019224091
 40
0.9086163722
 40
0.9152007171
 40
0.9216740078
 40
0.9280348644
 40
0.934281977
 40
0.9404140966
 40
0.9464300488
 40
0.9523287308
 40
0.9581091169
 40
0.9637702663
 40
0.9693113192
 40
0.9747315141
 40
0.9800301803
 40
0.9852067561
 40
0.9902607868
 40
0.9951919369
 40
1.0
 40
1.0
 40
1.0
 40
1.0
 10
15.6308642979
 20
8.0852386508
 30
0.0
 10
15.6321402914
 20
8.0874020776
 30
0.0
 10
15.6346866275
 20
8.0918070227
 30
0.0
 10
15.6384438896
 20
8.0985603578
 30
0.0
 10
15.6421861472
 20
8.1055412329
 30
0.0
 10
15.6459122585
 20
8.1127475449
 30
0.0
 10
15.6496211236
 20
8.120177151
 30
0.0
 10
15.6533116273
 20
8.1278278358
 30
0.0
 10
15.6569826697
 20
8.1356973168
 30
0.0
 10
15.6606331537
 20
8.1437832456
 30
0.0
 10
15.6642619835
 20
8.1520832098
 30
0.0
 10
15.6678680798
 20
8.1605947296
 30
0.0
 10
15.6714503557
 20
8.1693152649
 30
0.0
 10
15.6750077467
 20
8.178242209
 30
0.0
 10
15.6785391818
 20
8.1873728961
 30
0.0
 10
15.6820436075
 20
8.1967045969
 30
0.0
 10
15.6855199738
 20
8.2062345227
 30
0.0
 10
15.6889672376
 20
8.2159598252
 30
0.0
 10
15.6923843719
 20
8.2258775968
 30
0.0
 10
15.6957703453
 20
8.2359848717
 30
0.0
 10
15.6991241572
 20
8.2462786323
 30
0.0
 10
15.7035840545
 20
8.2603504233
 30
0.0
 10
15.7090671848
 20
8.2783858812
 30
0.0
 10
15.7154558706
 20
8.3005691091
 30
0.0
 10
15.7216926545
 20
8.3234207062
 30
0.0
 10
15.7277700505
 20
8.3469133218
 30
0.0
 10
15.7336807669
 20
8.3710188873
 30
0.0
 10
15.7394177121
 20
8.3957085798
 30
0.0
 10
15.7449740038
 20
8.4209528772
 30
0.0
 10
15.7503429772
 20
8.4467215892
 30
0.0
 10
15.7555181932
 20
8.4729838948
 30
0.0
 10
15.7604934453
 20
8.4997083797
 30
0.0
 10
15.7652627679
 20
8.5268630743
 30
0.0
 10
15.769820443
 20
8.5544154916
 30
0.0
 10
15.7741610072
 20
8.5823326672
 30
0.0
 10
15.7782792577
 20
8.6105811988
 30
0.0
 10
15.7821702588
 20
8.6391272866
 30
0.0
 10
15.7858293477
 20
8.6679367734
 30
0.0
 10
15.7892521399
 20
8.6969751864
 30
0.0
 10
15.7924345346
 20
8.7262077777
 30
0.0
 10
15.7953727197
 20
8.7555995665
 30
0.0
 10
15.7980631765
 20
8.7851153811
 30
0.0
 10
15.8005026832
 20
8.8147199008
 30
0.0
 10
15.8026883195
 20
8.844377699
 30
0.0
 10
15.8046174692
 20
8.8740532846
 30
0.0
 10
15.8062878242
 20
8.9037111456
 30
0.0
 10
15.8076973867
 20
8.9333157909
 30
0.0
 10
15.8088444719
 20
8.9628317936
 30
0.0
 10
15.8097277104
 20
8.9922238328
 30
0.0
 10
15.8103460493
 20
9.0214567364
 30
0.0
 10
15.8106987535
 20
9.0504955233
 30
0.0
 10
15.810785407
 20
9.0793054453
 30
0.0
 10
15.8106059127
 20
9.1078520285
 30
0.0
 10
15.8101604936
 20
9.1361011152
 30
0.0
 10
15.8094496915
 20
9.1640189045
 30
0.0
 10
15.8084743677
 20
9.1915719937
 30
0.0
 10
15.8072357013
 20
9.2187274178
 30
0.0
 10
15.8057351879
 20
9.2454526898
 30
0.0
 10
15.8039746379
 20
9.2717158393
 30
0.0
 10
15.8019561744
 20
9.2974854513
 30
0.0
 10
15.7996822309
 20
9.3227307044
 30
0.0
 10
15.7971555484
 20
9.3474214087
 30
0.0
 10
15.7943791722
 20
9.3715280386
 30
0.0
 10
15.79135645
 20
9.3950217881
 30
0.0
 10
15.7880910208
 20
9.4178745352
 30
0.0
 10
15.7851499346
 20
9.4364942184
 30
0.0
 10
15.7826751539
 20
9.4510469341
 30
0.0
 10
15.780774365
 20
9.4617051047
 30
0.0
 10
15.7788159777
 20
9.4721830144
 30
0.0
 10
15.7768005737
 20
9.4824775362
 30
0.0
 10
15.7747287557
 20
9.4925855905
 30
0.0
 10
15.7726011498
 20
9.5025041558
 30
0.0
 10
15.7704183866
 20
9.5122302667
 30
0.0
 10
15.7681811277
 20
9.5217610165
 30
0.0
 10
15.7658900372
 20
9.5310935567
 30
0.0
 10
15.7635458058
 20
9.5402250988
 30
0.0
 10
15.7611491347
 20
9.5491529149
 30
0.0
 10
15.7587007395
 20
9.5578743381
 30
0.0
 10
15.7562013589
 20
9.5663867647
 30
0.0
 10
15.7536517334
 20
9.5746876527
 30
0.0
 10
15.7510526347
 20
9.5827745257
 30
0.0
 10
15.7484048322
 20
9.5906449708
 30
0.0
 10
15.7457091243
 20
9.5982966398
 30
0.0
 10
15.7429663103
 20
9.6057272595
 30
0.0
 10
15.7401772204
 20
9.6129345875
 30
0.0
 10
15.7382633065
 20
9.6176488551
 30
0.0
 10
15.7372981599
 20
9.619967707
 30
0.0
  0
SPLINE
  5
33E
100
AcDbEntity
  8
0
100
AcDbSpline
 62
7
  6
CONTINUOUS
 70
0
 71
3
 72
39
 73
35
 74
0
 42
0.0000001
 43
0.0000001
 44
0.0000000001
 40
0.0
 40
0.0
 40
0.0
 40
0.0
 40
0.0216079046
 40
0.0436791786
 40
0.0662464061
 40
0.0893405372
 40
0.1129906034
 40
0.1372234656
 40
0.162063601
 40
0.1875329225
 40
0.2136506471
 40
0.240433219
 40
0.2678942665
 40
0.2960445973
 40
0.324892228
 40
0.3544424416
 40
0.3846978934
 40
0.4156587385
 40
0.4473227758
 40
0.4796856079
 40
0.5127408105
 40
0.5464801181
 40
0.5808936196
 40
0.6159699475
 40
0.6516964637
 40
0.6880594401
 40
0.7250442361
 40
0.7626354701
 40
0.8008171733
 40
0.8395729352
 40
0.8788860374
 40
0.918739553
 40
0.9591165661
 40
1.0
 40
1.0
 40
1.0
 40
1.0
 10
15.72392381
 20
9.6521007841
 30
0.0
 10
15.7232165075
 20
9.6538003188
 30
0.0
 10
15.7217218578
 20
9.6572092018
 30
0.0
 10
15.7192683701
 20
9.6622930015
 30
0.0
 10
15.7165773844
 20
9.6673987963
 30
0.0
 10
15.7136461399
 20
9.6725259926
 30
0.0
 10
15.7104722786
 20
9.677674061
 30
0.0
 10
15.7070539335
 20
9.6828423785
 30
0.0
 10
15.7033897328
 20
9.6880302743
 30
0.0
 10
15.6994788252
 20
9.6932370219
 30
0.0
 10
15.695320891
 20
9.698461848
 30
0.0
 10
15.6909161447
 20
9.703703934
 30
0.0
 10
15.6862653352
 20
9.7089624232
 30
0.0
 10
15.6813697399
 20
9.7142364266
 30
0.0
 10
15.6762311543
 20
9.7195250287
 30
0.0
 10
15.6708518778
 20
9.7248272977
 30
0.0
 10
15.6652346877
 20
9.7301422903
 30
0.0
 10
15.6593828105
 20
9.7354690586
 30
0.0
 10
15.6532998912
 20
9.7408066578
 30
0.0
 10
15.6469899584
 20
9.7461541525
 30
0.0
 10
15.6404573892
 20
9.7515106238
 30
0.0
 10
15.6337068694
 20
9.7568751752
 30
0.0
 10
15.6267433511
 20
9.7622469364
 30
0.0
 10
15.619572013
 20
9.7676250681
 30
0.0
 10
15.6121982204
 20
9.7730087653
 30
0.0
 10
15.6046274874
 20
9.7783972614
 30
0.0
 10
15.5968654395
 20
9.7837898304
 30
0.0
 10
15.5889177769
 20
9.7891857874
 30
0.0
 10
15.5807902418
 20
9.7945844899
 30
0.0
 10
15.5724885881
 20
9.7999853384
 30
0.0
 10
15.5640185561
 20
9.8053877757
 30
0.0
 10
15.5553858386
 20
9.8107912912
 30
0.0
 10
15.5465960802
 20
9.8161954055
 30
0.0
 10
15.5406713394
 20
9.8197764454
 30
0.0
 10
15.5376841436
 20
9.821567481
 30
0.0
  0
SPLINE
  5
33F
100
AcDbEntity
  8
0
100
AcDbSpline
 62
7
  6
CONTINUOUS
 70
0
 71
3
 72
11
 73
7
 74
0
 42
0.0000001
 43
0.0000001
 44
0.0000000001
 40
0.0
 40
0.0
 40
0.0
 40
0.0
 40
0.2396605935
 40
0.4861361377
 40
0.7395476642
 40
1.0
 40
1.0
 40
1.0
 40
1.0
 10
15.5223549325
 20
9.8084944893
 30
0.0
 10
15.5210585766
 20
9.8072423056
 30
0.0
 10
15.5184665165
 20
9.8046632286
 30
0.0
 10
15.5146333334
 20
9.8006324972
 30
0.0
 10
15.5108020217
 20
9.796386947
 30
0.0
 10
15.5082843925
 20
9.7934544993
 30
0.0
 10
15.5070257213
 20
9.7919537174
 30
0.0
  0
SPLINE
  5
340
100
AcDbEntity
  8
0
100
AcDbSpline
 62
7
  6
CONTINUOUS
 70
0
 71
3
 72
11
 73
7
 74
0
 42
0.0000001
 43
0.0000001
 44
0.0000000001
 40
0.0
 40
0.0
 40
0.0
 40
0.0
 40
0.2600920509
 40
0.5135755305
 40
0.7602686496
 40
1.0
 40
1.0
 40
1.0
 40
1.0
 10
15.2958801551
 20
8.2231351469
 30
0.0
 10
15.2970078904
 20
8.2157933092
 30
0.0
 10
15.2993281935
 20
8.2013103305
 30
0.0
 10
15.3030568916
 20
8.1799197395
 30
0.0
 10
15.3069864829
 20
8.1591566191
 30
0.0
 10
15.3097783299
 20
8.1455476016
 30
0.0
 10
15.3112093662
 20
8.1388523626
 30
0.0
  0
SPLINE
  5
341
100
AcDbEntity
  8
0
100
AcDbSpline
 62
7
  6
CONTINUOUS
 70
0
 71
3
 72
11
 73
7
 74
0
 42
0.0000001
 43
0.0000001
 44
0.0000000001
 40
0.0
 40
0.0
 40
0.0
 40
0.0
 40
0.2471507066
 40
0.4963425996
 40
0.7473636924
 40
1.0
 40
1.0
 40
1.0
 40
1.0
 10
15.3112093662
 20
9.1808836527
 30
0.0
 10
15.3097931716
 20
9.1715219739
 30
0.0
 10
15.3070275742
 20
9.1527093366
 30
0.0
 10
15.3030948724
 20
9.1243493717
 30
0.0
 10
15.299363228
 20
9.0957503117
 30
0.0
 10
15.2970186332
 20
9.0765982518
 30
0.0
 10
15.2958801551
 20
9.0669871047
 30
0.0
  0
SPLINE
  5
342
100
AcDbEntity
  8
0
100
AcDbSpline
 62
7
  6
CONTINUOUS
 70
0
 71
3
 72
11
 73
7
 74
0
 42
0.0000001
 43
0.0000001
 44
0.0000000001
 40
0.0
 40
0.0
 40
0.0
 40
0.0
 40
0.2394749506
 40
0.485822197
 40
0.7392645615
 40
1.0
 40
1.0
 40
1.0
 40
1.0
 10
15.5376841436
 20
9.821567481
 30
0.0
 10
15.5363902205
 20
9.8206106282
 30
0.0
 10
15.5338011263
 20
9.8186205033
 30
0.0
 10
15.5299689261
 20
9.8154577211
 30
0.0
 10
15.5261351948
 20
9.8120767225
 30
0.0
 10
15.5236151807
 20
9.8097117957
 30
0.0
 10
15.5223549325
 20
9.8084944893
 30
0.0
  0
SPLINE
  5
343
100
AcDbEntity
  8
0
100
AcDbSpline
 62
7
  6
CONTINUOUS
 70
0
 71
3
 72
23
 73
19
 74
0
 42
0.0000001
 43
0.0000001
 44
0.0000000001
 40
0.0
 40
0.0
 40
0.0
 40
0.0
 40
0.0632006123
 40
0.126290167
 40
0.1892700072
 40
0.2521425014
 40
0.3149109718
 40
0.3775795683
 40
0.4401530815
 40
0.5026368487
 40
0.5650366452
 40
0.6273585375
 40
0.6896087113
 40
0.7517934494
 40
0.8139189973
 40
0.8759914099
 40
0.9380165512
 40
1.0
 40
1.0
 40
1.0
 40
1.0
 10
12.6271724347
 20
9.1854332392
 30
0.0
 10
12.6266627079
 20
9.1847181937
 30
0.0
 10
12.6256742613
 20
9.1832676094
 30
0.0
 10
12.6242870893
 20
9.1810325446
 30
0.0
 10
12.6229994374
 20
9.1787438648
 30
0.0
 10
12.6218140075
 20
9.1764056116
 30
0.0
 10
12.6207332629
 20
9.1740219019
 30
0.0
 10
12.6197594757
 20
9.1715970041
 30
0.0
 10
12.6188946849
 20
9.169135316
 30
0.0
 10
12.6181407014
 20
9.1666413557
 30
0.0
 10
12.6174991021
 20
9.1641197484
 30
0.0
 10
12.6169712191
 20
9.1615752174
 30
0.0
 10
12.6165581183
 20
9.1590125738
 30
0.0
 10
12.616260612
 20
9.1564366954
 30
0.0
 10
12.6160792551
 20
9.1538525212
 30
0.0
 10
12.6160143387
 20
9.1512650072
 30
0.0
 10
12.6160658768
 20
9.148679221
 30
0.0
 10
12.6161777601
 20
9.1469591522
 30
0.0
 10
12.6162529974
 20
9.1461012271
 30
0.0
  0
SPLINE
  5
344
100
AcDbEntity
  8
0
100
AcDbSpline
 62
7
  6
CONTINUOUS
 70
0
 71
3
 72
39
 73
35
 74
0
 42
0.0000001
 43
0.0000001
 44
0.0000000001
 40
0.0
 40
0.0
 40
0.0
 40
0.0
 40
0.0307822864
 40
0.0615684783
 40
0.0923611956
 40
0.123163071
 40
0.1539767595
 40
0.1848049523
 40
0.2156503837
 40
0.2465158328
 40
0.2774041222
 40
0.3083181217
 40
0.3392607417
 40
0.3702349179
 40
0.4012435975
 40
0.4322897256
 40
0.4633762206
 40
0.4945059413
 40
0.5256816589
 40
0.556906027
 40
0.5881815403
 40
0.6195104891
 40
0.6508949224
 40
0.6823366073
 40
0.7138369796
 40
0.745397096
 40
0.7770175974
 40
0.8086986683
 40
0.8404399916
 40
0.8722407106
 40
0.9040994026
 40
0.9360140492
 40
0.9679820093
 40
1.0
 40
1.0
 40
1.0
 40
1.0
 10
12.5871361619
 20
9.1644933893
 30
0.0
 10
12.5865781674
 20
9.1651567186
 30
0.0
 10
12.5854923513
 20
9.1665092455
 30
0.0
 10
12.5839582538
 20
9.1686105357
 30
0.0
 10
12.5825216705
 20
9.1707803903
 30
0.0
 10
12.5811855856
 20
9.1730144159
 30
0.0
 10
12.579952738
 20
9.1753081692
 30
0.0
 10
12.5788256855
 20
9.1776570741
 30
0.0
 10
12.5778067865
 20
9.1800564586
 30
0.0
 10
12.5768981994
 20
9.1825015551
 30
0.0
 10
12.576101865
 20
9.1849875067
 30
0.0
 10
12.575419501
 20
9.1875093774
 30
0.0
 10
12.5748526026
 20
9.190062164
 30
0.0
 10
12.5744024366
 20
9.1926408053
 30
0.0
 10
12.5740700243
 20
9.1952401907
 30
0.0
 10
12.5738561405
 20
9.1978551733
 30
0.0
 10
12.5737613145
 20
9.2004805828
 30
0.0
 10
12.5737858276
 20
9.2031112367
 30
0.0
 10
12.5739296975
 20
9.205741953
 30
0.0
 10
12.5741926833
 20
9.2083675644
 30
0.0
 10
12.5745742904
 20
9.2109829307
 30
0.0
 10
12.5750737718
 20
9.2135829507
 30
0.0
 10
12.5756901165
 20
9.2161625777
 30
0.0
 10
12.5764220622
 20
9.2187168307
 30
0.0
 10
12.577268103
 20
9.2212408053
 30
0.0
 10
12.578226495
 20
9.2237296833
 30
0.0
 10
12.5792952498
 20
9.2261787485
 30
0.0
 10
12.5804721521
 20
9.2285833924
 30
0.0
 10
12.5817547694
 20
9.2309391214
 30
0.0
 10
12.5831404609
 20
9.2332415642
 30
0.0
 10
12.5846263697
 20
9.2354864807
 30
0.0
 10
12.5862094615
 20
9.2376697811
 30
0.0
 10
12.5878864641
 20
9.2397874565
 30
0.0
 10
12.5890640379
 20
9.2411520441
 30
0.0
 10
12.5896672477
 20
9.2418221462
 30
0.0
  0
SPLINE
  5
345
100
AcDbEntity
  8
0
100
AcDbSpline
 62
7
  6
CONTINUOUS
 70
0
 71
3
 72
49
 73
45
 74
0
 42
0.0000001
 43
0.0000001
 44
0.0000000001
 40
0.0
 40
0.0
 40
0.0
 40
0.0
 40
0.0470731633
 40
0.0924997698
 40
0.1362855027
 40
0.1784403553
 40
0.2189791703
 40
0.2579222657
 40
0.2952961279
 40
0.3311342316
 40
0.3654779909
 40
0.3983778365
 40
0.4298943676
 40
0.4600996075
 40
0.4890783026
 40
0.5169291564
 40
0.543765828
 40
0.5568460328
 40
0.5697225039
 40
0.5824138144
 40
0.5949394792
 40
0.6073198749
 40
0.6195761788
 40
0.6317302925
 40
0.6438047181
 40
0.6558224533
 40
0.6678068515
 40
0.6797814773
 40
0.6917699587
 40
0.7037958344
 40
0.7158824075
 40
0.7280525951
 40
0.7403288102
 40
0.752732831
 40
0.7652857013
 40
0.7780076619
 40
0.790918055
 40
0.8173721907
 40
0.8447889633
 40
0.8732884438
 40
0.9029754265
 40
0.9339401518
 40
0.9662601817
 40
1.0
 40
1.0
 40
1.0
 40
1.0
 10
15.7372981599
 20
9.619967707
 30
0.0
 10
15.7360561726
 20
9.6229516935
 30
0.0
 10
15.7335495086
 20
9.6287880857
 30
0.0
 10
15.7296461554
 20
9.6372938065
 30
0.0
 10
15.7256683538
 20
9.645390522
 30
0.0
 10
15.7216181767
 20
9.6530739784
 30
0.0
 10
15.7174976889
 20
9.6603402188
 30
0.0
 10
15.7133089827
 20
9.6671854945
 30
0.0
 10
15.7090541564
 20
9.6736062837
 30
0.0
 10
15.7047353112
 20
9.6795992817
 30
0.0
 10
15.7003545424
 20
9.6851613981
 30
0.0
 10
15.6959139396
 20
9.6902897489
 30
0.0
 10
15.6914155676
 20
9.694981641
 30
0.0
 10
15.6868614976
 20
9.6992345347
 30
0.0
 10
15.6822537116
 20
9.7030460721
 30
0.0
 10
15.6775944989
 20
9.7064138676
 30
0.0
 10
15.6736368823
 20
9.7088696878
 30
0.0
 10
15.6704518172
 20
9.7106019783
 30
0.0
 10
15.6680722435
 20
9.711778115
 30
0.0
 10
15.6656820039
 20
9.7128419506
 30
0.0
 10
15.6632813896
 20
9.7137933519
 30
0.0
 10
15.6608707309
 20
9.7146321621
 30
0.0
 10
15.6584503524
 20
9.7153582402
 30
0.0
 10
15.6560205936
 20
9.7159714804
 30
0.0
 10
15.6535817917
 20
9.7164717714
 30
0.0
 10
15.6511342937
 20
9.7168590332
 30
0.0
 10
15.64867845
 20
9.7171332101
 30
0.0
 10
15.6462146122
 20
9.7172942451
 30
0.0
 10
15.6437431364
 20
9.7173421275
 30
0.0
 10
15.6412643776
 20
9.7172768518
 30
0.0
 10
15.6387786917
 20
9.7170984282
 30
0.0
 10
15.6362864305
 20
9.7168069073
 30
0.0
 10
15.6337879467
 20
9.7164023337
 30
0.0
 10
15.6312835852
 20
9.7158847838
 30
0.0
 10
15.6287736975
 20
9.7152543592
 30
0.0
 10
15.6262585913
 20
9.7145111359
 30
0.0
 10
15.6228714511
 20
9.7133607557
 30
0.0
 10
15.6186194185
 20
9.7116317439
 30
0.0
 10
15.6135448232
 20
9.709124539
 30
0.0
 10
15.6084589142
 20
9.7061699592
 30
0.0
 10
15.6033643263
 20
9.7027700119
 30
0.0
 10
15.5982632861
 20
9.6989266793
 30
0.0
 10
15.5931583385
 20
9.6946422442
 30
0.0
 10
15.5898271415
 20
9.6915610565
 30
0.0
 10
15.5881608856
 20
9.6899515767
 30
0.0
  0
SPLINE
  5
346
100
AcDbEntity
  8
0
100
AcDbSpline
 62
7
  6
CONTINUOUS
 70
0
 71
3
 72
38
 73
34
 74
0
 42
0.0000001
 43
0.0000001
 44
0.0000000001
 40
0.0
 40
0.0
 40
0.0
 40
0.0
 40
0.0293462456
 40
0.0587365411
 40
0.0881778495
 40
0.1176777158
 40
0.147244278
 40
0.1768862212
 40
0.2066127297
 40
0.2364334109
 40
0.2663581986
 40
0.2963972328
 40
0.3265607184
 40
0.3568587675
 40
0.3873012301
 40
0.4178975169
 40
0.4486564248
 40
0.4795859706
 40
0.5106932413
 40
0.5419842696
 40
0.5734639394
 40
0.6051359245
 40
0.6370026629
 40
0.6690653641
 40
0.7013240494
 40
0.7337776197
 40
0.7992573287
 40
0.8322792044
 40
0.8654823827
 40
0.8988617575
 40
0.9324117817
 40
0.966126564
 40
1.0
 40
1.0
 40
1.0
 40
1.0
 10
15.5070257213
 20
9.7919537174
 30
0.0
 10
15.5072482238
 20
9.7855580395
 30
0.0
 10
15.5075848391
 20
9.7727530085
 30
0.0
 10
15.5077496246
 20
9.7535237351
 30
0.0
 10
15.5075593963
 20
9.7342610492
 30
0.0
 10
15.5069989187
 20
9.7149670498
 30
0.0
 10
15.5060531013
 20
9.6956441978
 30
0.0
 10
15.5047071607
 20
9.6762954551
 30
0.0
 10
15.5029468059
 20
9.6569242731
 30
0.0
 10
15.500758437
 20
9.6375346077
 30
0.0
 10
15.4981293549
 20
9.618130913
 30
0.0
 10
15.4950479748
 20
9.5987181236
 30
0.0
 10
15.4915040418
 20
9.5793016203
 30
0.0
 10
15.4874888319
 20
9.55988718
 30
0.0
 10
15.482995336
 20
9.5404809101
 30
0.0
 10
15.4780184168
 20
9.5210891678
 30
0.0
 10
15.4725549311
 20
9.5017184675
 30
0.0
 10
15.4666038119
 20
9.4823753797
 30
0.0
 10
15.4601661047
 20
9.4630664246
 30
0.0
 10
15.4532449594
 20
9.4437979637
 30
0.0
 10
15.4458455669
 20
9.4245760972
 30
0.0
 10
15.4379750563
 20
9.4054065727
 30
0.0
 10
15.4296423461
 20
9.3862946921
 30
0.0
 10
15.4208579905
 20
9.3672452837
 30
0.0
 10
15.4116338969
 20
9.3482625039
 30
0.0
 10
15.3987288769
 20
9.3229723948
 30
0.0
 10
15.3850326234
 20
9.2979052284
 30
0.0
 10
15.3706173677
 20
9.2730628742
 30
0.0
 10
15.3594085408
 20
9.2544564595
 30
0.0
 10
15.3478494614
 20
9.2359299352
 30
0.0
 10
15.3359559977
 20
9.2174834391
 30
0.0
 10
15.3237439952
 20
9.19911688
 30
0.0
 10
15.3154196143
 20
9.1869531276
 30
0.0
 10
15.3112093662
 20
9.1808836527
 30
0.0
  0
SPLINE
  5
347
100
AcDbEntity
  8
0
100
AcDbSpline
 62
7
  6
CONTINUOUS
 70
0
 71
3
 72
36
 73
32
 74
0
 42
0.0000001
 43
0.0000001
 44
0.0000000001
 40
0.0
 40
0.0
 40
0.0
 40
0.0
 40
0.0635007802
 40
0.1269002289
 40
0.1585591923
 40
0.1901886259
 40
0.2217871205
 40
0.2533533021
 40
0.2848858535
 40
0.3163835367
 40
0.3478452158
 40
0.3792698811
 40
0.410656671
 40
0.4420048926
 40
0.4733140381
 40
0.5045837976
 40
0.5358140674
 40
0.567004953
 40
0.5981567671
 40
0.6292700207
 40
0.6603454113
 40
0.6913838053
 40
0.7223862182
 40
0.7533537927
 40
0.7842877761
 40
0.8151894958
 40
0.8460603359
 40
0.8769017169
 40
0.9077150739
 40
0.9385018445
 40
1.0
 40
1.0
 40
1.0
 40
1.0
 10
15.2958801551
 20
9.0669871047
 30
0.0
 10
15.3003190051
 20
9.0494654401
 30
0.0
 10
15.308788936
 20
9.0143469835
 30
0.0
 10
15.3182659643
 20
8.9702144364
 30
0.0
 10
15.3251113377
 20
8.934808003
 30
0.0
 10
15.3298600277
 20
8.9082186604
 30
0.0
 10
15.3342104843
 20
8.881587989
 30
0.0
 10
15.3381481945
 20
8.8549209607
 30
0.0
 10
15.3416593547
 20
8.8282233001
 30
0.0
 10
15.3447310994
 20
8.8015013951
 30
0.0
 10
15.3473517171
 20
8.774762278
 30
0.0
 10
15.3495108629
 20
8.7480135594
 30
0.0
 10
15.3511997576
 20
8.7212633491
 30
0.0
 10
15.352411366
 20
8.6945201525
 30
0.0
 10
15.3531405468
 20
8.6677927526
 30
0.0
 10
15.3533841646
 20
8.6410900762
 30
0.0
 10
15.3531411608
 20
8.6144210519
 30
0.0
 10
15.3524125817
 20
8.5877944655
 30
0.0
 10
15.3512015507
 20
8.5612188174
 30
0.0
 10
15.349513199
 20
8.53470219
 30
0.0
 10
15.3473545526
 20
8.50825213
 30
0.0
 10
15.3447343837
 20
8.4818755485
 30
0.0
 10
15.3416630324
 20
8.4555786431
 30
0.0
 10
15.3381522073
 20
8.4293668426
 30
0.0
 10
15.3342147735
 20
8.4032447754
 30
0.0
 10
15.3298645337
 20
8.3772162626
 30
0.0
 10
15.3251160116
 20
8.3512843189
 30
0.0
 10
15.3199842569
 20
8.3254512207
 30
0.0
 10
15.3144846163
 20
8.2997183981
 30
0.0
 10
15.3066852733
 20
8.2655573233
 30
0.0
 10
15.3003256399
 20
8.2400664103
 30
0.0
 10
15.2958801551
 20
8.2231351469
 30
0.0
  0
SPLINE
  5
348
100
AcDbEntity
  8
0
100
AcDbSpline
 62
7
  6
CONTINUOUS
 70
0
 71
3
 72
39
 73
35
 74
0
 42
0.0000001
 43
0.0000001
 44
0.0000000001
 40
0.0
 40
0.0
 40
0.0
 40
0.0
 40
0.0456955419
 40
0.0905834148
 40
0.1346261228
 40
0.1777863341
 40
0.2200273954
 40
0.2613138611
 40
0.3016121232
 40
0.3408911018
 40
0.3791229973
 40
0.4162840877
 40
0.4523555537
 40
0.4873243001
 40
0.5211837449
 40
0.5539345441
 40
0.5855852136
 40
0.6161526124
 40
0.6456622523
 40
0.6741484013
 40
0.701653943
 40
0.7282299857
 40
0.7539352106
 40
0.7788349646
 40
0.8030001162
 40
0.8265057134
 40
0.8494294928
 40
0.8718503097
 40
0.8938465695
 40
0.9154947416
 40
0.9368680277
 40
0.9580352503
 40
0.979059986
 40
1.0
 40
1.0
 40
1.0
 40
1.0
 10
15.3112093662
 20
8.1388523626
 30
0.0
 10
15.3153933915
 20
8.1363437428
 30
0.0
 10
15.3236627783
 20
8.1313294606
 30
0.0
 10
15.3358709768
 20
8.1237438397
 30
0.0
 10
15.3477606825
 20
8.1161602407
 30
0.0
 10
15.3593161439
 20
8.1085800858
 30
0.0
 10
15.3705214953
 20
8.1010049475
 30
0.0
 10
15.3813608752
 20
8.0934365625
 30
0.0
 10
15.391818594
 20
8.0858768266
 30
0.0
 10
15.4018793149
 20
8.0783277885
 30
0.0
 10
15.4115282521
 20
8.0707916384
 30
0.0
 10
15.420751381
 20
8.0632706908
 30
0.0
 10
15.4295356557
 20
8.0557673636
 30
0.0
 10
15.4378692258
 20
8.048284151
 30
0.0
 10
15.4457416434
 20
8.0408235922
 30
0.0
 10
15.4531440545
 20
8.0333882373
 30
0.0
 10
15.4600693657
 20
8.0259806107
 30
0.0
 10
15.4665123782
 20
8.0186031754
 30
0.0
 10
15.4724698849
 20
8.0112582973
 30
0.0
 10
15.4779407266
 20
8.0039482164
 30
0.0
 10
15.4829257996
 20
7.9966750178
 30
0.0
 10
15.4874280223
 20
7.9894406124
 30
0.0
 10
15.4914522615
 20
7.982246722
 30
0.0
 10
15.4950052251
 20
7.9750948692
 30
0.0
 10
15.4980953245
 20
7.9679863713
 30
0.0
 10
15.5007325156
 20
7.9609223342
 30
0.0
 10
15.5029281217
 20
7.9539036473
 30
0.0
 10
15.5046946404
 20
7.9469309741
 30
0.0
 10
15.5060455454
 20
7.9400047468
 30
0.0
 10
15.5069950829
 20
7.9331251515
 30
0.0
 10
15.5075580717
 20
7.9262921498
 30
0.0
 10
15.5077496979
 20
7.9195053894
 30
0.0
 10
15.5075853629
 20
7.912764555
 30
0.0
 10
15.5072483157
 20
7.9082949115
 30
0.0
 10
15.5070257213
 20
7.9060704694
 30
0.0
  0
SPLINE
  5
349
100
AcDbEntity
  8
0
100
AcDbSpline
 62
7
  6
CONTINUOUS
 70
0
 71
3
 72
153
 73
149
 74
0
 42
0.0000001
 43
0.0000001
 44
0.0000000001
 40
0.0
 40
0.0
 40
0.0
 40
0.0
 40
0.0020827402
 40
0.0042134583
 40
0.0063928236
 40
0.0086214633
 40
0.0108999661
 40
0.0132288565
 40
0.0156085793
 40
0.0180395232
 40
0.0205220232
 40
0.0230563651
 40
0.0256427905
 40
0.0282814909
 40
0.0309726197
 40
0.0337162893
 40
0.039361405
 40
0.0452171582
 40
0.0512832423
 40
0.0575589005
 40
0.0640429682
 40
0.0707339105
 40
0.0776298551
 40
0.0847286195
 40
0.0920277351
 40
0.0995244672
 40
0.1072158332
 40
0.1150986205
 40
0.1231694004
 40
0.131424541
 40
0.1398602183
 40
0.1484724269
 40
0.1572569903
 40
0.1662095704
 40
0.1753256756
 40
0.1846006673
 40
0.1940297678
 40
0.2036080679
 40
0.2133305334
 40
0.2231920109
 40
0.2331872342
 40
0.2433108289
 40
0.2535573194
 40
0.2639211341
 40
0.2743966108
 40
0.2849780015
 40
0.2956594774
 40
0.3064351342
 40
0.3172989972
 40
0.3392669995
 40
0.3615145881
 40
0.3839919209
 40
0.4066484887
 40
0.4294332633
 40
0.4522948494
 40
0.4751816305
 40
0.4980419184
 40
0.5208241006
 40
0.5434767886
 40
0.5659489663
 40
0.5881901386
 40
0.6101504827
 40
0.6210100578
 40
0.6317811246
 40
0.6424577121
 40
0.6530339199
 40
0.6635039233
 40
0.6738619782
 40
0.6841024262
 40
0.6942197007
 40
0.7042083317
 40
0.7140629502
 40
0.7237782949
 40
0.7333492181
 40
0.7427706916
 40
0.7520378131
 40
0.7611458124
 40
0.7700900577
 40
0.7788660639
 40
0.787469501
 40
0.7958962017
 40
0.8041421697
 40
0.8122035903
 40
0.8200768404
 40
0.827758502
 40
0.8352453743
 40
0.8425344874
 40
0.8496231191
 40
0.8565088138
 40
0.8631894039
 40
0.8696630339
 40
0.8759281876
 40
0.8819837197
 40
0.8878288937
 40
0.8934634269
 40
0.8962018134
 40
0.8988876675
 40
0.9015211084
 40
0.9041022902
 40
0.9066314122
 40
0.9091087181
 40
0.911534497
 40
0.9139090933
 40
0.9162329011
 40
0.9185063764
 40
0.9207300361
 40
0.9229044618
 40
0.9250303106
 40
0.9271083109
 40
0.9291392761
 40
0.9311241057
 40
0.9330637904
 40
0.9349594237
 40
0.9368121999
 40
0.9386234286
 40
0.9403945358
 40
0.9421270707
 40
0.9454827478
 40
0.9487060087
 40
0.9502736406
 40
0.9518148702
 40
0.9533322202
 40
0.954828351
 40
0.9563060495
 40
0.9577682193
 40
0.9592178676
 40
0.9606580865
 40
0.9620920358
 40
0.9635229202
 40
0.964953967
 40
0.966388402
 40
0.9678294267
 40
0.9692801945
 40
0.9707437904
 40
0.9722232117
 40
0.9737213505
 40
0.9752409824
 40
0.9767847528
 40
0.9783551722
 40
0.9815846908
 40
0.9849474367
 40
0.9884583814
 40
0.9902737196
 40
0.9921307387
 40
0.9940307449
 40
0.9959749389
 40
0.9979643819
 40
1.0
 40
1.0
 40
1.0
 40
1.0
 10
15.5881608856
 20
9.6899515767
 30
0.0
 10
15.5872399348
 20
9.6890620065
 30
0.0
 10
15.5853983108
 20
9.6872399942
 30
0.0
 10
15.5826674564
 20
9.6844131496
 30
0.0
 10
15.579937445
 20
9.6814620799
 30
0.0
 10
15.5772087302
 20
9.6783872733
 30
0.0
 10
15.5744817019
 20
9.6751891868
 30
0.0
 10
15.5717567629
 20
9.6718682859
 30
0.0
 10
15.5690343072
 20
9.6684250698
 30
0.0
 10
15.5663147495
 20
9.6648600526
 30
0.0
 10
15.5635984963
 20
9.6611737709
 30
0.0
 10
15.5608859491
 20
9.6573667792
 30
0.0
 10
15.5581775195
 20
9.6534396429
 30
0.0
 10
15.5554736067
 20
9.6493929559
 30
0.0
 10
15.5527746137
 20
9.6452273175
 30
0.0
 10
15.5491486889
 20
9.6394606703
 30
0.0
 10
15.5446344139
 20
9.6319554373
 30
0.0
 10
15.539293531
 20
9.6225676347
 30
0.0
 10
15.5339819705
 20
9.6127205059
 30
0.0
 10
15.5287029325
 20
9.6024199801
 30
0.0
 10
15.5234595772
 20
9.5916721965
 30
0.0
 10
15.5182550556
 20
9.5804835903
 30
0.0
 10
15.5130924974
 20
9.5688608613
 30
0.0
 10
15.50797501
 20
9.5568109762
 30
0.0
 10
15.5029056766
 20
9.5443411627
 30
0.0
 10
15.4978875516
 20
9.5314589061
 30
0.0
 10
15.4929236593
 20
9.5181719437
 30
0.0
 10
15.4880169927
 20
9.5044882589
 30
0.0
 10
15.4831705107
 20
9.4904160758
 30
0.0
 10
15.4783871369
 20
9.4759638543
 30
0.0
 10
15.4736697563
 20
9.4611402859
 30
0.0
 10
15.4690212136
 20
9.4459542877
 30
0.0
 10
15.4644443127
 20
9.4304149964
 30
0.0
 10
15.4599418144
 20
9.4145317619
 30
0.0
 10
15.4555164348
 20
9.3983141422
 30
0.0
 10
15.4511708433
 20
9.381771898
 30
0.0
 10
15.4469076603
 20
9.3649149871
 30
0.0
 10
15.4427294567
 20
9.3477535574
 30
0.0
 10
15.4386387524
 20
9.3302979401
 30
0.0
 10
15.4346380147
 20
9.312558644
 30
0.0
 10
15.4307296566
 20
9.2945463496
 30
0.0
 10
15.4269160341
 20
9.276271903
 30
0.0
 10
15.4231994466
 20
9.2577463083
 30
0.0
 10
15.4195821351
 20
9.2389807206
 30
0.0
 10
15.416066281
 20
9.2199864402
 30
0.0
 10
15.4126540039
 20
9.2007749046
 30
0.0
 10
15.4093473621
 20
9.181357686
 30
0.0
 10
15.4061483426
 20
9.1617464685
 30
0.0
 10
15.4020139009
 20
9.1352580469
 30
0.0
 10
15.3971320092
 20
9.1017490335
 30
0.0
 10
15.3917539939
 20
9.0611007667
 30
0.0
 10
15.3868479242
 20
9.0199664883
 30
0.0
 10
15.3824256426
 20
8.9784452946
 30
0.0
 10
15.3784978159
 20
8.9366371505
 30
0.0
 10
15.3750739176
 20
8.8946427333
 30
0.0
 10
15.3721622004
 20
8.8525631663
 30
0.0
 10
15.3697696728
 20
8.8104997805
 30
0.0
 10
15.3679020929
 20
8.768553866
 30
0.0
 10
15.3665639416
 20
8.7268264339
 30
0.0
 10
15.3657584178
 20
8.6854179487
 30
0.0
 10
15.3654874445
 20
8.6444281698
 30
0.0
 10
15.3657083765
 20
8.6105774135
 30
0.0
 10
15.3661558682
 20
8.5837821738
 30
0.0
 10
15.366623907
 20
8.5639257324
 30
0.0
 10
15.3672253006
 20
8.5442471755
 30
0.0
 10
15.3679596897
 20
8.5247583435
 30
0.0
 10
15.3688266283
 20
8.505470976
 30
0.0
 10
15.369825593
 20
8.4863966878
 30
0.0
 10
15.3709559795
 20
8.4675469657
 30
0.0
 10
15.3722171038
 20
8.4489331604
 30
0.0
 10
15.3736082031
 20
8.4305664802
 30
0.0
 10
15.3751284363
 20
8.4124579845
 30
0.0
 10
15.3767768849
 20
8.3946185772
 30
0.0
 10
15.3785525528
 20
8.3770589994
 30
0.0
 10
15.3804543658
 20
8.3597898225
 30
0.0
 10
15.3824811743
 20
8.3428214424
 30
0.0
 10
15.3846317529
 20
8.3261640735
 30
0.0
 10
15.3869048021
 20
8.3098277426
 30
0.0
 10
15.3892989484
 20
8.293822282
 30
0.0
 10
15.3918127439
 20
8.2781573229
 30
0.0
 10
15.3944446689
 20
8.2628422903
 30
0.0
 10
15.3971931325
 20
8.2478863971
 30
0.0
 10
15.4000564736
 20
8.2332986394
 30
0.0
 10
15.4030329626
 20
8.2190877892
 30
0.0
 10
15.4061208
 20
8.2052623888
 30
0.0
 10
15.4093181199
 20
8.1918307454
 30
0.0
 10
15.412622991
 20
8.1788009269
 30
0.0
 10
15.416033418
 20
8.1661807564
 30
0.0
 10
15.4195473437
 20
8.1539778065
 30
0.0
 10
15.4231626485
 20
8.1421993936
 30
0.0
 10
15.426877154
 20
8.130852571
 30
0.0
 10
15.4306886245
 20
8.1199441327
 30
0.0
 10
15.4345947745
 20
8.109480582
 30
0.0
 10
15.4385932514
 20
8.0994682207
 30
0.0
 10
15.4420321264
 20
8.0914309993
 30
0.0
 10
15.4448303208
 20
8.0852346473
 30
0.0
 10
15.4469306232
 20
8.0807480664
 30
0.0
 10
15.4490521796
 20
8.0763786837
 30
0.0
 10
15.4511946872
 20
8.0721271509
 30
0.0
 10
15.45335782
 20
8.0679941055
 30
0.0
 10
15.4555412536
 20
8.0639801655
 30
0.0
 10
15.4577446686
 20
8.060085935
 30
0.0
 10
15.4599677276
 20
8.0563119931
 30
0.0
 10
15.4622101082
 20
8.0526589082
 30
0.0
 10
15.4644714728
 20
8.049127225
 30
0.0
 10
15.4667514853
 20
8.0457174711
 30
0.0
 10
15.4690498148
 20
8.0424301603
 30
0.0
 10
15.471366113
 20
8.0392657791
 30
0.0
 10
15.4737000481
 20
8.0362248066
 30
0.0
 10
15.4760512721
 20
8.0333076954
 30
0.0
 10
15.4784194409
 20
8.0305148827
 30
0.0
 10
15.4808042153
 20
8.0278467928
 30
0.0
 10
15.4832052382
 20
8.0253038216
 30
0.0
 10
15.4856221742
 20
8.0228863587
 30
0.0
 10
15.4880546556
 20
8.0205947781
 30
0.0
 10
15.4905023762
 20
8.0184293914
 30
0.0
 10
15.493751041
 20
8.0157397606
 30
0.0
 10
15.4978506183
 20
8.0126822358
 30
0.0
 10
15.5020813379
 20
8.0099916711
 30
0.0
 10
15.5054878926
 20
8.0081056442
 30
0.0
 10
15.5080320102
 20
8.0068323349
 30
0.0
 10
15.5105883935
 20
8.0056875113
 30
0.0
 10
15.5131566825
 20
8.0046713464
 30
0.0
 10
15.5157364729
 20
8.0037840363
 30
0.0
 10
15.5183273631
 20
8.0030257531
 30
0.0
 10
15.5209289345
 20
8.0023966291
 30
0.0
 10
15.5235407692
 20
8.0018968023
 30
0.0
 10
15.526162435
 20
8.0015263568
 30
0.0
 10
15.5287934984
 20
8.0012853674
 30
0.0
 10
15.5314335205
 20
8.0011738826
 30
0.0
 10
15.5340820606
 20
8.001191904
 30
0.0
 10
15.5367386784
 20
8.0013394362
 30
0.0
 10
15.5394029359
 20
8.0016164257
 30
0.0
 10
15.5420743989
 20
8.0020228136
 30
0.0
 10
15.5447526355
 20
8.002558514
 30
0.0
 10
15.5474372273
 20
8.0032234048
 30
0.0
 10
15.5501277409
 20
8.0040173633
 30
0.0
 10
15.5528238074
 20
8.0049402434
 30
0.0
 10
15.5564589489
 20
8.0063554616
 30
0.0
 10
15.5610215169
 20
8.008458141
 30
0.0
 10
15.5664590076
 20
8.0114705524
 30
0.0
 10
15.5709482682
 20
8.0143732056
 30
0.0
 10
15.5745424491
 20
8.0169400333
 30
0.0
 10
15.5772701426
 20
8.0190134752
 30
0.0
 10
15.579999341
 20
8.021213361
 30
0.0
 10
15.582729696
 20
8.0235394078
 30
0.0
 10
15.5854607503
 20
8.0259912056
 30
0.0
 10
15.5872607714
 20
8.0276896134
 30
0.0
 10
15.5881608856
 20
8.0285590571
 30
0.0
  0
SPLINE
  5
34A
100
AcDbEntity
  8
0
100
AcDbSpline
 62
7
  6
CONTINUOUS
 70
0
 71
3
 72
22
 73
18
 74
0
 42
0.0000001
 43
0.0000001
 44
0.0000000001
 40
0.0
 40
0.0
 40
0.0
 40
0.0
 40
0.053053517
 40
0.1073085721
 40
0.1627816825
 40
0.2194883203
 40
0.2774430696
 40
0.3366589893
 40
0.3971471962
 40
0.4589173943
 40
0.5219780092
 40
0.5863362298
 40
0.6519982024
 40
0.7189688371
 40
0.7872520868
 40
0.8568509473
 40
1.0
 40
1.0
 40
1.0
 40
1.0
 10
15.5881608856
 20
8.0285590571
 30
0.0
 10
15.5890661853
 20
8.0294335095
 30
0.0
 10
15.5908765222
 20
8.0312238396
 30
0.0
 10
15.5935615052
 20
8.0340000536
 30
0.0
 10
15.5962456891
 20
8.036896369
 30
0.0
 10
15.5989286403
 20
8.0399123223
 30
0.0
 10
15.6016099882
 20
8.0430474783
 30
0.0
 10
15.6042893499
 20
8.0463013968
 30
0.0
 10
15.6069663511
 20
8.0496736059
 30
0.0
 10
15.6096405991
 20
8.0531636175
 30
0.0
 10
15.6123117048
 20
8.0567709254
 30
0.0
 10
15.6149792885
 20
8.0604950031
 30
0.0
 10
15.6176429582
 20
8.0643353171
 30
0.0
 10
15.6203023326
 20
8.0682913045
 30
0.0
 10
15.6229570351
 20
8.0723624047
 30
0.0
 10
15.6265232467
 20
8.0779959595
 30
0.0
 10
15.629138989
 20
8.0823134167
 30
0.0
 10
15.6308642979
 20
8.0852386508
 30
0.0
  0
SPLINE
  5
34B
100
AcDbEntity
  8
0
100
AcDbSpline
 62
7
  6
CONTINUOUS
 70
0
 71
3
 72
11
 73
7
 74
0
 42
0.0000001
 43
0.0000001
 44
0.0000000001
 40
0.0
 40
0.0
 40
0.0
 40
0.0
 40
0.2506797067
 40
0.5014891906
 40
0.7515532545
 40
1.0
 40
1.0
 40
1.0
 40
1.0
 10
12.6621301051
 20
9.1103182979
 30
0.0
 10
12.6609217481
 20
9.0964293907
 30
0.0
 10
12.6587174073
 20
9.068625395
 30
0.0
 10
12.6560490699
 20
9.0269119949
 30
0.0
 10
12.6540240913
 20
8.985286739
 30
0.0
 10
12.653103961
 20
8.9575763701
 30
0.0
 10
12.6527541805
 20
8.9437636101
 30
0.0
  0
SPLINE
  5
34C
100
AcDbEntity
  8
0
100
AcDbSpline
 62
7
  6
CONTINUOUS
 70
0
 71
3
 72
28
 73
24
 74
0
 42
0.0000001
 43
0.0000001
 44
0.0000000001
 40
0.0
 40
0.0
 40
0.0
 40
0.0
 40
0.0637758941
 40
0.0955879065
 40
0.1273462157
 40
0.1907019646
 40
0.2538545302
 40
0.2853587825
 40
0.3168148204
 40
0.379582186
 40
0.4421719279
 40
0.504596336
 40
0.566869323
 40
0.6290062994
 40
0.6910240361
 40
0.7219962863
 40
0.7529455528
 40
0.8147797337
 40
0.8765514554
 40
0.9074228165
 40
0.9382862783
 40
0.9691444605
 40
1.0
 40
1.0
 40
1.0
 40
1.0
 10
10.1659378054
 20
9.0987527118
 30
0.0
 10
10.1659378054
 20
9.0851753425
 30
0.0
 10
10.1654499287
 20
9.0648209293
 30
0.0
 10
10.1638177654
 20
9.0377572291
 30
0.0
 10
10.1615375593
 20
9.0108296557
 30
0.0
 10
10.1574711335
 20
8.9773680243
 30
0.0
 10
10.1517807884
 20
8.9441985798
 30
0.0
 10
10.1462652684
 20
8.9179203574
 30
0.0
 10
10.1401209516
 20
8.8918663325
 30
0.0
 10
10.1312524287
 20
8.8596661002
 30
0.0
 10
10.1187238315
 20
8.8216857
 30
0.0
 10
10.1043449664
 20
8.7844786697
 30
0.0
 10
10.0881489544
 20
8.7481312599
 30
0.0
 10
10.0701733897
 20
8.7127276972
 30
0.0
 10
10.0537370399
 20
8.684065151
 30
0.0
 10
10.0397434981
 20
8.661692977
 30
0.0
 10
10.0252046149
 20
8.6397180828
 30
0.0
 10
10.0060008903
 20
8.6129811251
 30
0.0
 10
9.9854614738
 20
8.5872770549
 30
0.0
 10
9.9682667635
 20
8.5673818634
 30
0.0
 10
9.9549964005
 20
8.5528023334
 30
0.0
 10
9.9413580901
 20
8.5385714219
 30
0.0
 10
9.9320252189
 20
8.5293216134
 30
0.0
 10
9.9273005142
 20
8.5247578949
 30
0.0
  0
SPLINE
  5
34D
100
AcDbEntity
  8
0
100
AcDbSpline
 62
7
  6
CONTINUOUS
 70
0
 71
3
 72
28
 73
24
 74
0
 42
0.0000001
 43
0.0000001
 44
0.0000000001
 40
0.0
 40
0.0
 40
0.0
 40
0.0
 40
0.0637758941
 40
0.0955879065
 40
0.1273462157
 40
0.1907019646
 40
0.2538545302
 40
0.2853587825
 40
0.3168148204
 40
0.379582186
 40
0.4421719279
 40
0.504596336
 40
0.566869323
 40
0.6290062994
 40
0.6910240361
 40
0.7219962863
 40
0.7529455528
 40
0.8147797337
 40
0.8765514554
 40
0.9074228165
 40
0.9382862783
 40
0.9691444605
 40
1.0
 40
1.0
 40
1.0
 40
1.0
 10
13.063715456
 20
8.8977911492
 30
0.0
 10
13.063715456
 20
8.8842137799
 30
0.0
 10
13.0632275792
 20
8.8638593666
 30
0.0
 10
13.061595416
 20
8.8367956664
 30
0.0
 10
13.0593152099
 20
8.809868093
 30
0.0
 10
13.055248784
 20
8.7764064617
 30
0.0
 10
13.049558439
 20
8.7432370172
 30
0.0
 10
13.044042919
 20
8.7169587948
 30
0.0
 10
13.0378986022
 20
8.6909047699
 30
0.0
 10
13.0290300793
 20
8.6587045376
 30
0.0
 10
13.0165014821
 20
8.6207241373
 30
0.0
 10
13.002122617
 20
8.5835171071
 30
0.0
 10
12.985926605
 20
8.5471696972
 30
0.0
 10
12.9679510403
 20
8.5117661346
 30
0.0
 10
12.9515146905
 20
8.4831035884
 30
0.0
 10
12.9375211487
 20
8.4607314144
 30
0.0
 10
12.9229822654
 20
8.4387565202
 30
0.0
 10
12.9037785408
 20
8.4120195624
 30
0.0
 10
12.8832391244
 20
8.3863154923
 30
0.0
 10
12.866044414
 20
8.3664203008
 30
0.0
 10
12.8527740511
 20
8.3518407708
 30
0.0
 10
12.8391357406
 20
8.3376098593
 30
0.0
 10
12.8298028695
 20
8.3283600508
 30
0.0
 10
12.8250781648
 20
8.3237963323
 30
0.0
  0
SPLINE
  5
34E
100
AcDbEntity
  8
0
100
AcDbSpline
 62
7
  6
CONTINUOUS
 70
0
 71
3
 72
28
 73
24
 74
0
 42
0.0000001
 43
0.0000001
 44
0.0000000001
 40
0.0
 40
0.0
 40
0.0
 40
0.0
 40
0.0637758941
 40
0.0955879065
 40
0.1273462157
 40
0.1907019646
 40
0.2538545302
 40
0.2853587825
 40
0.3168148204
 40
0.379582186
 40
0.4421719279
 40
0.504596336
 40
0.566869323
 40
0.6290062994
 40
0.6910240361
 40
0.7219962863
 40
0.7529455528
 40
0.8147797337
 40
0.8765514554
 40
0.9074228165
 40
0.9382862783
 40
0.9691444605
 40
1.0
 40
1.0
 40
1.0
 40
1.0
 10
12.3373393316
 20
6.5333507957
 30
0.0
 10
12.3373393316
 20
6.5197734264
 30
0.0
 10
12.3368514548
 20
6.4994190131
 30
0.0
 10
12.3352192916
 20
6.4723553129
 30
0.0
 10
12.3329390855
 20
6.4454277396
 30
0.0
 10
12.3288726596
 20
6.4119661082
 30
0.0
 10
12.3231823146
 20
6.3787966637
 30
0.0
 10
12.3176667946
 20
6.3525184413
 30
0.0
 10
12.3115224778
 20
6.3264644164
 30
0.0
 10
12.3026539549
 20
6.2942641841
 30
0.0
 10
12.2901253577
 20
6.2562837839
 30
0.0
 10
12.2757464926
 20
6.2190767536
 30
0.0
 10
12.2595504806
 20
6.1827293438
 30
0.0
 10
12.2415749159
 20
6.1473257811
 30
0.0
 10
12.2251385661
 20
6.1186632349
 30
0.0
 10
12.2111450243
 20
6.0962910609
 30
0.0
 10
12.1966061411
 20
6.0743161667
 30
0.0
 10
12.1774024164
 20
6.047579209
 30
0.0
 10
12.156863
 20
6.0218751388
 30
0.0
 10
12.1396682897
 20
6.0019799473
 30
0.0
 10
12.1263979267
 20
5.9874004173
 30
0.0
 10
12.1127596163
 20
5.9731695058
 30
0.0
 10
12.1034267451
 20
5.9639196973
 30
0.0
 10
12.0987020404
 20
5.9593559788
 30
0.0
  0
SPLINE
  5
34F
100
AcDbEntity
  8
0
100
AcDbSpline
 62
7
  6
CONTINUOUS
 70
0
 71
3
 72
28
 73
24
 74
0
 42
0.0000001
 43
0.0000001
 44
0.0000000001
 40
0.0
 40
0.0
 40
0.0
 40
0.0
 40
0.0637758941
 40
0.0955879065
 40
0.1273462157
 40
0.1907019646
 40
0.2538545302
 40
0.2853587825
 40
0.3168148204
 40
0.379582186
 40
0.4421719279
 40
0.504596336
 40
0.566869323
 40
0.6290062994
 40
0.6910240361
 40
0.7219962863
 40
0.7529455528
 40
0.8147797337
 40
0.8765514554
 40
0.9074228165
 40
0.9382862783
 40
0.9691444605
 40
1.0
 40
1.0
 40
1.0
 40
1.0
 10
9.4395616811
 20
6.7343123583
 30
0.0
 10
9.4395616811
 20
6.720734989
 30
0.0
 10
9.4390738043
 20
6.7003805758
 30
0.0
 10
9.437441641
 20
6.6733168756
 30
0.0
 10
9.4351614349
 20
6.6463893022
 30
0.0
 10
9.4310950091
 20
6.6129276708
 30
0.0
 10
9.425404664
 20
6.5797582263
 30
0.0
 10
9.4198891441
 20
6.5534800039
 30
0.0
 10
9.4137448272
 20
6.527425979
 30
0.0
 10
9.4048763043
 20
6.4952257467
 30
0.0
 10
9.3923477071
 20
6.4572453465
 30
0.0
 10
9.377968842
 20
6.4200383162
 30
0.0
 10
9.36177283
 20
6.3836909064
 30
0.0
 10
9.3437972654
 20
6.3482873437
 30
0.0
 10
9.3273609155
 20
6.3196247975
 30
0.0
 10
9.3133673737
 20
6.2972526235
 30
0.0
 10
9.2988284905
 20
6.2752777293
 30
0.0
 10
9.2796247659
 20
6.2485407716
 30
0.0
 10
9.2590853494
 20
6.2228367014
 30
0.0
 10
9.2418906391
 20
6.2029415099
 30
0.0
 10
9.2286202761
 20
6.1883619799
 30
0.0
 10
9.2149819657
 20
6.1741310684
 30
0.0
 10
9.2056490945
 20
6.16488126
 30
0.0
 10
9.2009243898
 20
6.1603175414
 30
0.0
  0
SPLINE
  5
350
100
AcDbEntity
  8
0
100
AcDbSpline
 62
7
  6
CONTINUOUS
 70
0
 71
3
 72
18
 73
14
 74
0
 42
0.0000001
 43
0.0000001
 44
0.0000000001
 40
0.0
 40
0.0
 40
0.0
 40
0.0
 40
0.1480356372
 40
0.2876662502
 40
0.4195655771
 40
0.4828973127
 40
0.5446380375
 40
0.6638657774
 40
0.7785237916
 40
0.8345984481
 40
0.8900706527
 40
0.9451373023
 40
1.0
 40
1.0
 40
1.0
 40
1.0
 10
7.6344394788
 20
10.6489202231
 30
0.0
 10
7.635382361
 20
10.6498309773
 30
0.0
 10
7.6371593147
 20
10.6516596222
 30
0.0
 10
7.6395485486
 20
10.6545094716
 30
0.0
 10
7.6412622968
 20
10.6569346168
 30
0.0
 10
7.642442503
 20
10.6588811748
 30
0.0
 10
7.6434732189
 20
10.6607840467
 30
0.0
 10
7.6445443029
 20
10.6631784671
 30
0.0
 10
7.6453263911
 20
10.6656307552
 30
0.0
 10
7.6457605362
 20
10.6675873666
 30
0.0
 10
7.6459915358
 20
10.6690455986
 30
0.0
 10
7.6461301425
 20
10.6705046345
 30
0.0
 10
7.6461609642
 20
10.6714783843
 30
0.0
 10
7.6461609594
 20
10.6719642158
 30
0.0
  0
SPLINE
  5
351
100
AcDbEntity
  8
0
100
AcDbSpline
 62
7
  6
CONTINUOUS
 70
0
 71
3
 72
18
 73
14
 74
0
 42
0.0000001
 43
0.0000001
 44
0.0000000001
 40
0.0
 40
0.0
 40
0.0
 40
0.0
 40
0.1480356372
 40
0.2876662502
 40
0.4195655771
 40
0.4828973127
 40
0.5446380375
 40
0.6638657774
 40
0.7785237916
 40
0.8345984481
 40
0.8900706527
 40
0.9451373023
 40
1.0
 40
1.0
 40
1.0
 40
1.0
 10
14.1563709619
 20
10.1966227385
 30
0.0
 10
14.1573138441
 20
10.1975334928
 30
0.0
 10
14.1590907978
 20
10.1993621376
 30
0.0
 10
14.1614800317
 20
10.202211987
 30
0.0
 10
14.1631937799
 20
10.2046371322
 30
0.0
 10
14.1643739861
 20
10.2065836902
 30
0.0
 10
14.165404702
 20
10.2084865621
 30
0.0
 10
14.166475786
 20
10.2108809825
 30
0.0
 10
14.1672578742
 20
10.2133332706
 30
0.0
 10
14.1676920193
 20
10.215289882
 30
0.0
 10
14.1679230189
 20
10.216748114
 30
0.0
 10
14.1680616256
 20
10.2182071499
 30
0.0
 10
14.1680924473
 20
10.2191808998
 30
0.0
 10
14.1680924425
 20
10.2196667313
 30
0.0
  0
SPLINE
  5
352
100
AcDbEntity
  8
0
100
AcDbSpline
 62
7
  6
CONTINUOUS
 70
0
 71
3
 72
26
 73
22
 74
0
 42
0.0000001
 43
0.0000001
 44
0.0000000001
 40
0.0
 40
0.0
 40
0.0
 40
0.0
 40
0.064763614
 40
0.1303281264
 40
0.1964577444
 40
0.2629127684
 40
0.3294526685
 40
0.3958363032
 40
0.4618233107
 40
0.5271751411
 40
0.5916561891
 40
0.6550349124
 40
0.7170849725
 40
0.7775863937
 40
0.8363267544
 40
0.8649729325
 40
0.8931032394
 40
0.9206938694
 40
0.9477216316
 40
0.9741642016
 40
1.0
 40
1.0
 40
1.0
 40
1.0
 10
14.9610323509
 20
7.0716438659
 30
0.0
 10
14.9610323509
 20
7.0905223555
 30
0.0
 10
14.9613508204
 20
7.1285134836
 30
0.0
 10
14.962756673
 20
7.1857656512
 30
0.0
 10
14.9650888105
 20
7.2434811272
 30
0.0
 10
14.9683383209
 20
7.3014369195
 30
0.0
 10
14.9724926533
 20
7.3594091264
 30
0.0
 10
14.9775357693
 20
7.4171738558
 30
0.0
 10
14.9834481505
 20
7.4745079928
 30
0.0
 10
14.9902068968
 20
7.5311901058
 30
0.0
 10
14.9977858047
 20
7.587001304
 30
0.0
 10
15.0061554724
 20
7.641726072
 30
0.0
 10
15.0152833983
 20
7.6951531962
 30
0.0
 10
15.0251341391
 20
7.7470762989
 30
0.0
 10
15.0339856868
 20
7.7892701042
 30
0.0
 10
15.0414112531
 20
7.8221146761
 30
0.0
 10
15.0470902024
 20
7.8460434013
 30
0.0
 10
15.0529197631
 20
7.869449997
 30
0.0
 10
15.0588943981
 20
7.892311893
 30
0.0
 10
15.0650082298
 20
7.9146069668
 30
0.0
 10
15.0692230771
 20
7.9292520801
 30
0.0
 10
15.0713542527
 20
7.9364753387
 30
0.0
  0
SPLINE
  5
353
100
AcDbEntity
  8
0
100
AcDbSpline
 62
7
  6
CONTINUOUS
 70
0
 71
3
 72
59
 73
55
 74
0
 42
0.0000001
 43
0.0000001
 44
0.0000000001
 40
0.0
 40
0.0
 40
0.0
 40
0.0
 40
0.0417736767
 40
0.0840362765
 40
0.1266574811
 40
0.1695051262
 40
0.2124463914
 40
0.2553479967
 40
0.2980768488
 40
0.3405005256
 40
0.3824878146
 40
0.4239092383
 40
0.464637589
 40
0.5045484688
 40
0.5435208413
 40
0.5814375992
 40
0.6181861539
 40
0.6360888024
 40
0.6536595531
 40
0.6708859017
 40
0.6877557363
 40
0.7042573867
 40
0.720379648
 40
0.7361117919
 40
0.7514436399
 40
0.7663655339
 40
0.7808684645
 40
0.7949440033
 40
0.8085844873
 40
0.8217829218
 40
0.83453322
 40
0.8468300923
 40
0.8586693371
 40
0.8700477415
 40
0.8809634199
 40
0.8914157604
 40
0.9014058112
 40
0.9109363168
 40
0.9200121632
 40
0.9286405545
 40
0.9368315416
 40
0.9445983908
 40
0.9519582219
 40
0.9589325919
 40
0.9655482195
 40
0.9718376843
 40
0.9778400275
 40
0.9836011664
 40
0.9864084736
 40
0.9891757902
 40
0.9919106587
 40
0.9946209114
 40
0.9973146138
 40
1.0
 40
1.0
 40
1.0
 40
1.0
 10
14.6048976414
 20
8.659495899
 30
0.0
 10
14.6048976414
 20
8.6781517658
 30
0.0
 10
14.6051886928
 20
8.7156824358
 30
0.0
 10
14.6064753777
 20
8.7722342146
 30
0.0
 10
14.6086109588
 20
8.8292403586
 30
0.0
 10
14.6115884352
 20
8.8865121632
 30
0.0
 10
14.6153979677
 20
8.9438601442
 30
0.0
 10
14.6200269642
 20
9.0010945805
 30
0.0
 10
14.6254600902
 20
9.058026115
 30
0.0
 10
14.6316793353
 20
9.1144664054
 30
0.0
 10
14.638664065
 20
9.1702287438
 30
0.0
 10
14.6463910914
 20
9.2251286807
 30
0.0
 10
14.6548347471
 20
9.2789846463
 30
0.0
 10
14.6639669708
 20
9.3316185366
 30
0.0
 10
14.6737573902
 20
9.3828563896
 30
0.0
 10
14.684173451
 20
9.4325286935
 30
0.0
 10
14.6934244801
 20
9.4728236108
 30
0.0
 10
14.7011235028
 20
9.5041456442
 30
0.0
 10
14.7069819615
 20
9.5269407032
 30
0.0
 10
14.7129698832
 20
9.5492248325
 30
0.0
 10
14.7190823456
 20
9.5709796231
 30
0.0
 10
14.7253142675
 20
9.5921870859
 30
0.0
 10
14.731660476
 20
9.6128296932
 30
0.0
 10
14.7381157273
 20
9.6328903853
 30
0.0
 10
14.7446746357
 20
9.6523525938
 30
0.0
 10
14.7513318085
 20
9.6712002416
 30
0.0
 10
14.7580816672
 20
9.6894177799
 30
0.0
 10
14.7649186891
 20
9.7069901692
 30
0.0
 10
14.7718371249
 20
9.723902938
 30
0.0
 10
14.778831341
 20
9.7401421368
 30
0.0
 10
14.7858954445
 20
9.7556944273
 30
0.0
 10
14.7930237113
 20
9.7705470011
 30
0.0
 10
14.8002101389
 20
9.7846877062
 30
0.0
 10
14.8074489366
 20
9.7981049255
 30
0.0
 10
14.8147340375
 20
9.8107877429
 30
0.0
 10
14.8220596167
 20
9.8227257808
 30
0.0
 10
14.8294196048
 20
9.8339094005
 30
0.0
 10
14.836808193
 20
9.8443295055
 30
0.0
 10
14.8442193969
 20
9.8539777578
 30
0.0
 10
14.8516475053
 20
9.8628463582
 30
0.0
 10
14.8590867404
 20
9.870928244
 30
0.0
 10
14.8665316073
 20
9.878216861
 30
0.0
 10
14.8739766725
 20
9.8847062779
 30
0.0
 10
14.881416777
 20
9.8903909741
 30
0.0
 10
14.8888468258
 20
9.8952657769
 30
0.0
 10
14.8962620256
 20
9.8993257655
 30
0.0
 10
14.9036566384
 20
9.9025658931
 30
0.0
 10
14.9098516256
 20
9.9045963446
 30
0.0
 10
14.9147730381
 20
9.9057917293
 30
0.0
 10
14.9184226397
 20
9.9064741048
 30
0.0
 10
14.9220611775
 20
9.9069496569
 30
0.0
 10
14.9256879577
 20
9.9072182635
 30
0.0
 10
14.9293019584
 20
9.9072797595
 30
0.0
 10
14.9317038298
 20
9.907182586
 30
0.0
 10
14.9329002334
 20
9.9070996181
 30
0.0
  0
SPLINE
  5
354
100
AcDbEntity
  8
0
100
AcDbSpline
 62
7
  6
CONTINUOUS
 70
0
 71
3
 72
54
 73
50
 74
0
 42
0.0000001
 43
0.0000001
 44
0.0000000001
 40
0.0
 40
0.0
 40
0.0
 40
0.0
 40
0.0149714207
 40
0.0299459009
 40
0.0449264795
 40
0.0599161607
 40
0.0749178924
 40
0.0899345474
 40
0.1049689109
 40
0.1200236599
 40
0.135101347
 40
0.1502043904
 40
0.1653350555
 40
0.1804954423
 40
0.195687479
 40
0.210912906
 40
0.2261732683
 40
0.2414699124
 40
0.2568039734
 40
0.2721763729
 40
0.2875878193
 40
0.3030387972
 40
0.3185295728
 40
0.3340601946
 40
0.3496304877
 40
0.3652400644
 40
0.3808883259
 40
0.3965744612
 40
0.4122974619
 40
0.4280561242
 40
0.4438490534
 40
0.4596746808
 40
0.4914119437
 40
0.5232571513
 40
0.5551923202
 40
0.587197651
 40
0.6192519366
 40
0.651332993
 40
0.6834181045
 40
0.7154844744
 40
0.7475096792
 40
0.7794721147
 40
0.8113514322
 40
0.8431289588
 40
0.8747880885
 40
0.9063146442
 40
0.9376972366
 40
0.9689272309
 40
1.0
 40
1.0
 40
1.0
 40
1.0
 10
8.7045455417
 20
9.7906449787
 30
0.0
 10
8.71184569
 20
9.7976963872
 30
0.0
 10
8.7267295038
 20
9.8115120029
 30
0.0
 10
8.7498636179
 20
9.8313340215
 30
0.0
 10
8.7737766733
 20
9.8502297735
 30
0.0
 10
8.798435276
 20
9.8681728649
 30
0.0
 10
8.8238056916
 20
9.8851386109
 30
0.0
 10
8.8498529027
 20
9.9011037329
 30
0.0
 10
8.8765410655
 20
9.9160462971
 30
0.0
 10
8.9038335075
 20
9.9299456367
 30
0.0
 10
8.9316926025
 20
9.9427827636
 30
0.0
 10
8.9600800281
 20
9.9545400065
 30
0.0
 10
8.988956753
 20
9.9652011137
 30
0.0
 10
9.0182829897
 20
9.9747515728
 30
0.0
 10
9.0480184123
 20
9.9831782008
 30
0.0
 10
9.0781221181
 20
9.9904693712
 30
0.0
 10
9.1085526595
 20
9.9966152103
 30
0.0
 10
9.1392681966
 20
10.0016071869
 30
0.0
 10
9.1702264726
 20
10.0054384502
 30
0.0
 10
9.201384893
 20
10.0081038692
 30
0.0
 10
9.2327006142
 20
10.0095996764
 30
0.0
 10
9.2641305598
 20
10.0099238791
 30
0.0
 10
9.2956315098
 20
10.0090761395
 30
0.0
 10
9.3271601418
 20
10.0070575084
 30
0.0
 10
9.358673103
 20
10.0038708689
 30
0.0
 10
9.3901270728
 20
9.9995206702
 30
0.0
 10
9.4214787863
 20
9.9940127796
 30
0.0
 10
9.4526851482
 20
9.9873549116
 30
0.0
 10
9.4837032959
 20
9.9795562259
 30
0.0
 10
9.5144904305
 20
9.9706274081
 30
0.0
 10
9.5450047361
 20
9.9605806658
 30
0.0
 10
9.5853038055
 20
9.9457008454
 30
0.0
 10
9.6347846436
 20
9.9243711128
 30
0.0
 10
9.6923428813
 20
9.894589926
 30
0.0
 10
9.7478325821
 20
9.8607592776
 30
0.0
 10
9.8009471979
 20
9.8230658207
 30
0.0
 10
9.8513958349
 20
9.7817164457
 30
0.0
 10
9.8989015711
 20
9.736938345
 30
0.0
 10
9.9432037207
 20
9.6889773059
 30
0.0
 10
9.9840590259
 20
9.6380965183
 30
0.0
 10
10.02124321
 20
9.5845752476
 30
0.0
 10
10.054552014
 20
9.5287071734
 30
0.0
 10
10.0838022718
 20
9.4707987935
 30
0.0
 10
10.1088331025
 20
9.4111679115
 30
0.0
 10
10.1295067048
 20
9.3501416984
 30
0.0
 10
10.1457090176
 20
9.2880554079
 30
0.0
 10
10.1573503466
 20
9.2252487864
 30
0.0
 10
10.164366375
 20
9.1620711955
 30
0.0
 10
10.1659378054
 20
9.1198179406
 30
0.0
 10
10.1659378054
 20
9.0987527118
 30
0.0
  0
SPLINE
  5
355
100
AcDbEntity
  8
0
100
AcDbSpline
 62
7
  6
CONTINUOUS
 70
0
 71
3
 72
46
 73
42
 74
0
 42
0.0000001
 43
0.0000001
 44
0.0000000001
 40
0.0
 40
0.0
 40
0.0
 40
0.0
 40
0.0149720544
 40
0.0299471661
 40
0.0449283789
 40
0.0599186934
 40
0.0749210586
 40
0.0899383495
 40
0.1049733478
 40
0.1200287341
 40
0.1351070579
 40
0.1502107414
 40
0.1653420445
 40
0.1805030741
 40
0.1956957524
 40
0.2109218231
 40
0.2414745585
 40
0.2721768357
 40
0.3030351652
 40
0.3340525576
 40
0.3652285104
 40
0.3965590722
 40
0.4280369779
 40
0.4596518497
 40
0.4913904535
 40
0.5232370064
 40
0.5551735251
 40
0.5871802087
 40
0.6192358493
 40
0.6513182619
 40
0.6834047295
 40
0.7154724546
 40
0.7474990121
 40
0.7794627971
 40
0.8113434614
 40
0.8431223287
 40
0.8747828018
 40
0.9063106702
 40
0.9376946216
 40
0.9689259505
 40
1.0
 40
1.0
 40
1.0
 40
1.0
 10
9.0132034634
 20
9.5187510598
 30
0.0
 10
9.017102417
 20
9.5225171397
 30
0.0
 10
9.0250517232
 20
9.5298959323
 30
0.0
 10
9.0374074626
 20
9.5404826602
 30
0.0
 10
9.0501791772
 20
9.5505747405
 30
0.0
 10
9.0633491653
 20
9.5601578999
 30
0.0
 10
9.0768992264
 20
9.569219211
 30
0.0
 10
9.0908108455
 20
9.5777459616
 30
0.0
 10
9.1050647266
 20
9.585726681
 30
0.0
 10
9.1196413926
 20
9.5931501378
 30
0.0
 10
9.1345206622
 20
9.600006364
 30
0.0
 10
9.1496821464
 20
9.6062857325
 30
0.0
 10
9.1651049385
 20
9.6119797664
 30
0.0
 10
9.1807677683
 20
9.617080545
 30
0.0
 10
9.1966493813
 20
9.621581121
 30
0.0
 10
9.2181088251
 20
9.6267787927
 30
0.0
 10
9.2453810525
 20
9.6317427891
 30
0.0
 10
9.2785821794
 20
9.635210317
 30
0.0
 10
9.3121186931
 20
9.6361782843
 30
0.0
 10
9.3458048812
 20
9.6346414631
 30
0.0
 10
9.3794559151
 20
9.630608815
 30
0.0
 10
9.4128868103
 20
9.6241028735
 30
0.0
 10
9.4459139831
 20
9.6151597528
 30
0.0
 10
9.478356096
 20
9.6038288976
 30
0.0
 10
9.5100350795
 20
9.5901728147
 30
0.0
 10
9.5407770843
 20
9.574266722
 30
0.0
 10
9.5704134251
 20
9.5561981346
 30
0.0
 10
9.5987814926
 20
9.5360663849
 30
0.0
 10
9.6257256352
 20
9.5139820799
 30
0.0
 10
9.6510980014
 20
9.4900664983
 30
0.0
 10
9.6747593462
 20
9.4644509334
 30
0.0
 10
9.6965797869
 20
9.4372759783
 30
0.0
 10
9.7164395059
 20
9.4086907585
 30
0.0
 10
9.7342294047
 20
9.3788521251
 30
0.0
 10
9.7498516937
 20
9.3479237982
 30
0.0
 10
9.7632204391
 20
9.3160755005
 30
0.0
 10
9.7742619971
 20
9.2834819656
 30
0.0
 10
9.7829155135
 20
9.2503222507
 30
0.0
 10
9.7891330496
 20
9.2167778084
 30
0.0
 10
9.7928802469
 20
9.1830352378
 30
0.0
 10
9.7937195261
 20
9.1604681728
 30
0.0
 10
9.7937195261
 20
9.1492174414
 30
0.0
  0
SPLINE
  5
356
100
AcDbEntity
  8
0
100
AcDbSpline
 62
7
  6
CONTINUOUS
 70
0
 71
3
 72
23
 73
19
 74
0
 42
0.0000001
 43
0.0000001
 44
0.0000000001
 40
0.0
 40
0.0
 40
0.0
 40
0.0
 40
0.0617101425
 40
0.1234413926
 40
0.1852146455
 40
0.2470503552
 40
0.3089683456
 40
0.3709876175
 40
0.433126137
 40
0.4954006583
 40
0.5578266139
 40
0.620417918
 40
0.6831867633
 40
0.7461439667
 40
0.8092979859
 40
0.8726548131
 40
0.9362237855
 40
1.0
 40
1.0
 40
1.0
 40
1.0
 10
9.6662652582
 20
8.8426517794
 30
0.0
 10
9.6713119209
 20
8.8475264553
 30
0.0
 10
9.6811578689
 20
8.8575392205
 30
0.0
 10
9.6951375668
 20
8.8733007081
 30
0.0
 10
9.708298484
 20
8.8897710469
 30
0.0
 10
9.7206097563
 20
8.906911711
 30
0.0
 10
9.7320432129
 20
8.9246832456
 30
0.0
 10
9.7425724442
 20
8.9430446361
 30
0.0
 10
9.752173133
 20
8.9619535685
 30
0.0
 10
9.7608232578
 20
8.9813663733
 30
0.0
 10
9.7685029204
 20
9.0012382785
 30
0.0
 10
9.7751943576
 20
9.0215234816
 30
0.0
 10
9.7808822619
 20
9.0421751948
 30
0.0
 10
9.7855535766
 20
9.0631458057
 30
0.0
 10
9.7891975186
 20
9.0843868362
 30
0.0
 10
9.7918058818
 20
9.1058498632
 30
0.0
 10
9.7933723947
 20
9.1274843072
 30
0.0
 10
9.7937195261
 20
9.1419660274
 30
0.0
 10
9.7937195261
 20
9.1492174414
 30
0.0
  0
SPLINE
  5
357
100
AcDbEntity
  8
0
100
AcDbSpline
 62
7
  6
CONTINUOUS
 70
0
 71
3
 72
54
 73
50
 74
0
 42
0.0000001
 43
0.0000001
 44
0.0000000001
 40
0.0
 40
0.0
 40
0.0
 40
0.0
 40
0.0149714207
 40
0.0299459009
 40
0.0449264795
 40
0.0599161607
 40
0.0749178924
 40
0.0899345474
 40
0.1049689109
 40
0.1200236599
 40
0.135101347
 40
0.1502043904
 40
0.1653350555
 40
0.1804954423
 40
0.195687479
 40
0.210912906
 40
0.2261732683
 40
0.2414699124
 40
0.2568039734
 40
0.2721763729
 40
0.2875878193
 40
0.3030387972
 40
0.3185295728
 40
0.3340601946
 40
0.3496304877
 40
0.3652400644
 40
0.3808883259
 40
0.3965744612
 40
0.4122974619
 40
0.4280561242
 40
0.4438490534
 40
0.4596746808
 40
0.4914119437
 40
0.5232571513
 40
0.5551923202
 40
0.587197651
 40
0.6192519366
 40
0.651332993
 40
0.6834181045
 40
0.7154844744
 40
0.7475096792
 40
0.7794721147
 40
0.8113514322
 40
0.8431289588
 40
0.8747880885
 40
0.9063146442
 40
0.9376972366
 40
0.9689272309
 40
1.0
 40
1.0
 40
1.0
 40
1.0
 10
11.6023231922
 20
9.5896834161
 30
0.0
 10
11.6096233406
 20
9.5967348246
 30
0.0
 10
11.6245071544
 20
9.6105504402
 30
0.0
 10
11.6476412685
 20
9.6303724589
 30
0.0
 10
11.6715543239
 20
9.6492682109
 30
0.0
 10
11.6962129265
 20
9.6672113023
 30
0.0
 10
11.7215833422
 20
9.6841770483
 30
0.0
 10
11.7476305532
 20
9.7001421703
 30
0.0
 10
11.7743187161
 20
9.7150847345
 30
0.0
 10
11.8016111581
 20
9.7289840741
 30
0.0
 10
11.829470253
 20
9.7418212009
 30
0.0
 10
11.8578576787
 20
9.7535784439
 30
0.0
 10
11.8867344035
 20
9.7642395511
 30
0.0
 10
11.9160606403
 20
9.7737900102
 30
0.0
 10
11.9457960629
 20
9.7822166381
 30
0.0
 10
11.9758997687
 20
9.7895078086
 30
0.0
 10
12.00633031
 20
9.7956536476
 30
0.0
 10
12.0370458471
 20
9.8006456243
 30
0.0
 10
12.0680041232
 20
9.8044768875
 30
0.0
 10
12.0991625436
 20
9.8071423066
 30
0.0
 10
12.1304782648
 20
9.8086381137
 30
0.0
 10
12.1619082103
 20
9.8089623165
 30
0.0
 10
12.1934091604
 20
9.8081145769
 30
0.0
 10
12.2249377924
 20
9.8060959457
 30
0.0
 10
12.2564507536
 20
9.8029093063
 30
0.0
 10
12.2879047233
 20
9.7985591075
 30
0.0
 10
12.3192564369
 20
9.793051217
 30
0.0
 10
12.3504627988
 20
9.786393349
 30
0.0
 10
12.3814809464
 20
9.7785946633
 30
0.0
 10
12.412268081
 20
9.7696658455
 30
0.0
 10
12.4427823867
 20
9.7596191032
 30
0.0
 10
12.4830814561
 20
9.7447392828
 30
0.0
 10
12.5325622941
 20
9.7234095502
 30
0.0
 10
12.5901205318
 20
9.6936283634
 30
0.0
 10
12.6456102326
 20
9.659797715
 30
0.0
 10
12.6987248485
 20
9.622104258
 30
0.0
 10
12.7491734855
 20
9.5807548831
 30
0.0
 10
12.7966792217
 20
9.5359767824
 30
0.0
 10
12.8409813712
 20
9.4880157433
 30
0.0
 10
12.8818366765
 20
9.4371349557
 30
0.0
 10
12.9190208605
 20
9.3836136849
 30
0.0
 10
12.9523296645
 20
9.3277456107
 30
0.0
 10
12.9815799224
 20
9.2698372308
 30
0.0
 10
13.0066107531
 20
9.2102063489
 30
0.0
 10
13.0272843554
 20
9.1491801357
 30
0.0
 10
13.0434866682
 20
9.0870938453
 30
0.0
 10
13.0551279972
 20
9.0242872238
 30
0.0
 10
13.0621440256
 20
8.9611096329
 30
0.0
 10
13.063715456
 20
8.9188563779
 30
0.0
 10
13.063715456
 20
8.8977911492
 30
0.0
  0
SPLINE
  5
358
100
AcDbEntity
  8
0
100
AcDbSpline
 62
7
  6
CONTINUOUS
 70
0
 71
3
 72
46
 73
42
 74
0
 42
0.0000001
 43
0.0000001
 44
0.0000000001
 40
0.0
 40
0.0
 40
0.0
 40
0.0
 40
0.0149720544
 40
0.0299471661
 40
0.0449283789
 40
0.0599186934
 40
0.0749210586
 40
0.0899383495
 40
0.1049733478
 40
0.1200287341
 40
0.1351070579
 40
0.1502107414
 40
0.1653420445
 40
0.1805030741
 40
0.1956957524
 40
0.2109218231
 40
0.2414745585
 40
0.2721768357
 40
0.3030351652
 40
0.3340525576
 40
0.3652285104
 40
0.3965590722
 40
0.4280369779
 40
0.4596518497
 40
0.4913904535
 40
0.5232370064
 40
0.5551735251
 40
0.5871802087
 40
0.6192358493
 40
0.6513182619
 40
0.6834047295
 40
0.7154724546
 40
0.7474990121
 40
0.7794627971
 40
0.8113434614
 40
0.8431223287
 40
0.8747828018
 40
0.9063106702
 40
0.9376946216
 40
0.9689259505
 40
1.0
 40
1.0
 40
1.0
 40
1.0
 10
11.910981114
 20
9.3177894972
 30
0.0
 10
11.9148800675
 20
9.3215555771
 30
0.0
 10
11.9228293738
 20
9.3289343697
 30
0.0
 10
11.9351851131
 20
9.3395210976
 30
0.0
 10
11.9479568278
 20
9.3496131779
 30
0.0
 10
11.9611268159
 20
9.3591963373
 30
0.0
 10
11.974676877
 20
9.3682576484
 30
0.0
 10
11.9885884961
 20
9.376784399
 30
0.0
 10
12.0028423771
 20
9.3847651184
 30
0.0
 10
12.0174190432
 20
9.3921885751
 30
0.0
 10
12.0322983127
 20
9.3990448014
 30
0.0
 10
12.047459797
 20
9.4053241699
 30
0.0
 10
12.0628825891
 20
9.4110182037
 30
0.0
 10
12.0785454188
 20
9.4161189823
 30
0.0
 10
12.0944270319
 20
9.4206195584
 30
0.0
 10
12.1158864756
 20
9.4258172301
 30
0.0
 10
12.1431587031
 20
9.4307812265
 30
0.0
 10
12.17635983
 20
9.4342487544
 30
0.0
 10
12.2098963437
 20
9.4352167217
 30
0.0
 10
12.2435825318
 20
9.4336799004
 30
0.0
 10
12.2772335657
 20
9.4296472524
 30
0.0
 10
12.3106644609
 20
9.4231413109
 30
0.0
 10
12.3436916337
 20
9.4141981901
 30
0.0
 10
12.3761337466
 20
9.4028673349
 30
0.0
 10
12.4078127301
 20
9.3892112521
 30
0.0
 10
12.4385547349
 20
9.3733051594
 30
0.0
 10
12.4681910756
 20
9.355236572
 30
0.0
 10
12.4965591432
 20
9.3351048223
 30
0.0
 10
12.5235032858
 20
9.3130205173
 30
0.0
 10
12.548875652
 20
9.2891049356
 30
0.0
 10
12.5725369968
 20
9.2634893708
 30
0.0
 10
12.5943574375
 20
9.2363144157
 30
0.0
 10
12.6142171565
 20
9.2077291958
 30
0.0
 10
12.6320070552
 20
9.1778905625
 30
0.0
 10
12.6476293443
 20
9.1469622356
 30
0.0
 10
12.6609980897
 20
9.1151139379
 30
0.0
 10
12.6720396477
 20
9.0825204029
 30
0.0
 10
12.6806931641
 20
9.0493606881
 30
0.0
 10
12.6869107002
 20
9.0158162458
 30
0.0
 10
12.6906578975
 20
8.9820736752
 30
0.0
 10
12.6914971767
 20
8.9595066101
 30
0.0
 10
12.6914971767
 20
8.9482558788
 30
0.0
  0
SPLINE
  5
359
100
AcDbEntity
  8
0
100
AcDbSpline
 62
7
  6
CONTINUOUS
 70
0
 71
3
 72
23
 73
19
 74
0
 42
0.0000001
 43
0.0000001
 44
0.0000000001
 40
0.0
 40
0.0
 40
0.0
 40
0.0
 40
0.0617101425
 40
0.1234413926
 40
0.1852146455
 40
0.2470503552
 40
0.3089683456
 40
0.3709876175
 40
0.433126137
 40
0.4954006583
 40
0.5578266139
 40
0.620417918
 40
0.6831867633
 40
0.7461439667
 40
0.8092979859
 40
0.8726548131
 40
0.9362237855
 40
1.0
 40
1.0
 40
1.0
 40
1.0
 10
12.5640429088
 20
8.6416902168
 30
0.0
 10
12.5690895715
 20
8.6465648927
 30
0.0
 10
12.5789355194
 20
8.6565776578
 30
0.0
 10
12.5929152174
 20
8.6723391455
 30
0.0
 10
12.6060761346
 20
8.6888094842
 30
0.0
 10
12.6183874068
 20
8.7059501484
 30
0.0
 10
12.6298208634
 20
8.7237216829
 30
0.0
 10
12.6403500948
 20
8.7420830735
 30
0.0
 10
12.6499507836
 20
8.7609920059
 30
0.0
 10
12.6586009084
 20
8.7804048107
 30
0.0
 10
12.6662805709
 20
8.8002767159
 30
0.0
 10
12.6729720082
 20
8.820561919
 30
0.0
 10
12.6786599124
 20
8.8412136321
 30
0.0
 10
12.6833312272
 20
8.862184243
 30
0.0
 10
12.6869751692
 20
8.8834252735
 30
0.0
 10
12.6895835324
 20
8.9048883006
 30
0.0
 10
12.6911500453
 20
8.9265227446
 30
0.0
 10
12.6914971767
 20
8.9410044647
 30
0.0
 10
12.6914971767
 20
8.9482558788
 30
0.0
  0
SPLINE
  5
35A
100
AcDbEntity
  8
0
100
AcDbSpline
 62
7
  6
CONTINUOUS
 70
0
 71
3
 72
40
 73
36
 74
0
 42
0.0000001
 43
0.0000001
 44
0.0000000001
 40
0.0
 40
0.0
 40
0.0
 40
0.0
 40
0.0311827328
 40
0.0624272487
 40
0.0937431227
 40
0.1251359749
 40
0.1566077548
 40
0.188157167
 40
0.2197802469
 40
0.2514708512
 40
0.2832212051
 40
0.315022377
 40
0.3468645946
 40
0.3787375402
 40
0.4106304606
 40
0.4425321469
 40
0.4744308898
 40
0.5063142703
 40
0.5381689266
 40
0.5699803089
 40
0.6017324432
 40
0.6334078846
 40
0.6649877577
 40
0.696451807
 40
0.7277787394
 40
0.7589465822
 40
0.7899330623
 40
0.8207161225
 40
0.851274233
 40
0.866463678
 40
0.8815892568
 40
0.9116360694
 40
0.941398159
 40
0.9708594145
 40
1.0
 40
1.0
 40
1.0
 40
1.0
 10
12.6914532638
 20
8.9458276181
 30
0.0
 10
12.6836664452
 20
8.9450133138
 30
0.0
 10
12.6680241803
 20
8.9438530433
 30
0.0
 10
12.6444764711
 20
8.9435197933
 30
0.0
 10
12.6208971729
 20
8.9445899908
 30
0.0
 10
12.5973660636
 20
8.9470591213
 30
0.0
 10
12.5739634213
 20
8.9509197378
 30
0.0
 10
12.5507717222
 20
8.9561616168
 30
0.0
 10
12.5278750387
 20
8.9627716055
 30
0.0
 10
12.5053590104
 20
8.9707334056
 30
0.0
 10
12.4833106334
 20
8.9800272594
 30
0.0
 10
12.4618180322
 20
8.9906294885
 30
0.0
 10
12.4409701473
 20
9.0025119383
 30
0.0
 10
12.4208563013
 20
9.0156412677
 30
0.0
 10
12.4015655887
 20
9.0299781446
 30
0.0
 10
12.3831860546
 20
9.045476401
 30
0.0
 10
12.3658036217
 20
9.0620821977
 30
0.0
 10
12.3495007152
 20
9.0797332781
 30
0.0
 10
12.3343546455
 20
9.0983584467
 30
0.0
 10
12.3204357415
 20
9.1178773545
 30
0.0
 10
12.30780537
 20
9.138200769
 30
0.0
 10
12.2965139486
 20
9.1592313706
 30
0.0
 10
12.2865991757
 20
9.1808651115
 30
0.0
 10
12.2780846312
 20
9.2029930888
 30
0.0
 10
12.2709789401
 20
9.2255038385
 30
0.0
 10
12.2652756003
 20
9.2482858061
 30
0.0
 10
12.2609534437
 20
9.271230058
 30
0.0
 10
12.2579778628
 20
9.2942319531
 30
0.0
 10
12.2565786872
 20
9.31340652
 30
0.0
 10
12.2560849327
 20
9.3286839438
 30
0.0
 10
12.2559961746
 20
9.3438407179
 30
0.0
 10
12.2566176247
 20
9.3626536801
 30
0.0
 10
12.258474201
 20
9.3849991702
 30
0.0
 10
12.2613663286
 20
9.4070039098
 30
0.0
 10
12.2639488498
 20
9.4214949085
 30
0.0
 10
12.2653901607
 20
9.4286680829
 30
0.0
  0
SPLINE
  5
35B
100
AcDbEntity
  8
0
100
AcDbSpline
 62
7
  6
CONTINUOUS
 70
0
 71
3
 72
54
 73
50
 74
0
 42
0.0000001
 43
0.0000001
 44
0.0000000001
 40
0.0
 40
0.0
 40
0.0
 40
0.0
 40
0.0149714207
 40
0.0299459009
 40
0.0449264795
 40
0.0599161607
 40
0.0749178924
 40
0.0899345474
 40
0.1049689109
 40
0.1200236599
 40
0.135101347
 40
0.1502043904
 40
0.1653350555
 40
0.1804954423
 40
0.195687479
 40
0.210912906
 40
0.2261732683
 40
0.2414699124
 40
0.2568039734
 40
0.2721763729
 40
0.2875878193
 40
0.3030387972
 40
0.3185295728
 40
0.3340601946
 40
0.3496304877
 40
0.3652400644
 40
0.3808883259
 40
0.3965744612
 40
0.4122974619
 40
0.4280561242
 40
0.4438490534
 40
0.4596746808
 40
0.4914119437
 40
0.5232571513
 40
0.5551923202
 40
0.587197651
 40
0.6192519366
 40
0.651332993
 40
0.6834181045
 40
0.7154844744
 40
0.7475096792
 40
0.7794721147
 40
0.8113514322
 40
0.8431289588
 40
0.8747880885
 40
0.9063146442
 40
0.9376972366
 40
0.9689272309
 40
1.0
 40
1.0
 40
1.0
 40
1.0
 10
10.8759470678
 20
7.2252430626
 30
0.0
 10
10.8832472162
 20
7.2322944711
 30
0.0
 10
10.89813103
 20
7.2461100867
 30
0.0
 10
10.9212651441
 20
7.2659321054
 30
0.0
 10
10.9451781995
 20
7.2848278574
 30
0.0
 10
10.9698368022
 20
7.3027709488
 30
0.0
 10
10.9952072178
 20
7.3197366948
 30
0.0
 10
11.0212544288
 20
7.3357018168
 30
0.0
 10
11.0479425917
 20
7.350644381
 30
0.0
 10
11.0752350337
 20
7.3645437206
 30
0.0
 10
11.1030941286
 20
7.3773808475
 30
0.0
 10
11.1314815543
 20
7.3891380904
 30
0.0
 10
11.1603582791
 20
7.3997991976
 30
0.0
 10
11.1896845159
 20
7.4093496567
 30
0.0
 10
11.2194199385
 20
7.4177762847
 30
0.0
 10
11.2495236443
 20
7.4250674551
 30
0.0
 10
11.2799541856
 20
7.4312132942
 30
0.0
 10
11.3106697228
 20
7.4362052708
 30
0.0
 10
11.3416279988
 20
7.440036534
 30
0.0
 10
11.3727864192
 20
7.4427019531
 30
0.0
 10
11.4041021404
 20
7.4441977602
 30
0.0
 10
11.4355320859
 20
7.444521963
 30
0.0
 10
11.467033036
 20
7.4436742234
 30
0.0
 10
11.498561668
 20
7.4416555922
 30
0.0
 10
11.5300746292
 20
7.4384689528
 30
0.0
 10
11.5615285989
 20
7.4341187541
 30
0.0
 10
11.5928803125
 20
7.4286108635
 30
0.0
 10
11.6240866744
 20
7.4219529955
 30
0.0
 10
11.6551048221
 20
7.4141543098
 30
0.0
 10
11.6858919566
 20
7.405225492
 30
0.0
 10
11.7164062623
 20
7.3951787497
 30
0.0
 10
11.7567053317
 20
7.3802989293
 30
0.0
 10
11.8061861698
 20
7.3589691967
 30
0.0
 10
11.8637444074
 20
7.3291880099
 30
0.0
 10
11.9192341082
 20
7.2953573615
 30
0.0
 10
11.9723487241
 20
7.2576639046
 30
0.0
 10
12.0227973611
 20
7.2163145296
 30
0.0
 10
12.0703030973
 20
7.1715364289
 30
0.0
 10
12.1146052468
 20
7.1235753898
 30
0.0
 10
12.1554605521
 20
7.0726946022
 30
0.0
 10
12.1926447361
 20
7.0191733314
 30
0.0
 10
12.2259535402
 20
6.9633052573
 30
0.0
 10
12.255203798
 20
6.9053968774
 30
0.0
 10
12.2802346287
 20
6.8457659954
 30
0.0
 10
12.300908231
 20
6.7847397823
 30
0.0
 10
12.3171105438
 20
6.7226534918
 30
0.0
 10
12.3287518728
 20
6.6598468703
 30
0.0
 10
12.3357679012
 20
6.5966692794
 30
0.0
 10
12.3373393316
 20
6.5544160245
 30
0.0
 10
12.3373393316
 20
6.5333507957
 30
0.0
  0
SPLINE
  5
35C
100
AcDbEntity
  8
0
100
AcDbSpline
 62
7
  6
CONTINUOUS
 70
0
 71
3
 72
46
 73
42
 74
0
 42
0.0000001
 43
0.0000001
 44
0.0000000001
 40
0.0
 40
0.0
 40
0.0
 40
0.0
 40
0.0149720544
 40
0.0299471661
 40
0.0449283789
 40
0.0599186934
 40
0.0749210586
 40
0.0899383495
 40
0.1049733478
 40
0.1200287341
 40
0.1351070579
 40
0.1502107414
 40
0.1653420445
 40
0.1805030741
 40
0.1956957524
 40
0.2109218231
 40
0.2414745585
 40
0.2721768357
 40
0.3030351652
 40
0.3340525576
 40
0.3652285104
 40
0.3965590722
 40
0.4280369779
 40
0.4596518497
 40
0.4913904535
 40
0.5232370064
 40
0.5551735251
 40
0.5871802087
 40
0.6192358493
 40
0.6513182619
 40
0.6834047295
 40
0.7154724546
 40
0.7474990121
 40
0.7794627971
 40
0.8113434614
 40
0.8431223287
 40
0.8747828018
 40
0.9063106702
 40
0.9376946216
 40
0.9689259505
 40
1.0
 40
1.0
 40
1.0
 40
1.0
 10
11.1846049896
 20
6.9533491437
 30
0.0
 10
11.1885039431
 20
6.9571152236
 30
0.0
 10
11.1964532494
 20
6.9644940162
 30
0.0
 10
11.2088089887
 20
6.9750807441
 30
0.0
 10
11.2215807034
 20
6.9851728244
 30
0.0
 10
11.2347506915
 20
6.9947559838
 30
0.0
 10
11.2483007526
 20
7.0038172949
 30
0.0
 10
11.2622123717
 20
7.0123440455
 30
0.0
 10
11.2764662527
 20
7.0203247649
 30
0.0
 10
11.2910429188
 20
7.0277482217
 30
0.0
 10
11.3059221883
 20
7.0346044479
 30
0.0
 10
11.3210836726
 20
7.0408838164
 30
0.0
 10
11.3365064647
 20
7.0465778503
 30
0.0
 10
11.3521692944
 20
7.0516786289
 30
0.0
 10
11.3680509075
 20
7.0561792049
 30
0.0
 10
11.3895103512
 20
7.0613768766
 30
0.0
 10
11.4167825787
 20
7.066340873
 30
0.0
 10
11.4499837056
 20
7.0698084009
 30
0.0
 10
11.4835202193
 20
7.0707763682
 30
0.0
 10
11.5172064074
 20
7.0692395469
 30
0.0
 10
11.5508574413
 20
7.0652068989
 30
0.0
 10
11.5842883365
 20
7.0587009574
 30
0.0
 10
11.6173155093
 20
7.0497578366
 30
0.0
 10
11.6497576222
 20
7.0384269815
 30
0.0
 10
11.6814366057
 20
7.0247708986
 30
0.0
 10
11.7121786105
 20
7.0088648059
 30
0.0
 10
11.7418149512
 20
6.9907962185
 30
0.0
 10
11.7701830188
 20
6.9706644688
 30
0.0
 10
11.7971271614
 20
6.9485801638
 30
0.0
 10
11.8224995276
 20
6.9246645821
 30
0.0
 10
11.8461608724
 20
6.8990490173
 30
0.0
 10
11.8679813131
 20
6.8718740622
 30
0.0
 10
11.8878410321
 20
6.8432888424
 30
0.0
 10
11.9056309309
 20
6.813450209
 30
0.0
 10
11.9212532199
 20
6.7825218821
 30
0.0
 10
11.9346219653
 20
6.7506735844
 30
0.0
 10
11.9456635233
 20
6.7180800495
 30
0.0
 10
11.9543170397
 20
6.6849203346
 30
0.0
 10
11.9605345758
 20
6.6513758923
 30
0.0
 10
11.9642817731
 20
6.6176333217
 30
0.0
 10
11.9651210523
 20
6.5950662567
 30
0.0
 10
11.9651210523
 20
6.5838155253
 30
0.0
  0
SPLINE
  5
35D
100
AcDbEntity
  8
0
100
AcDbSpline
 62
7
  6
CONTINUOUS
 70
0
 71
3
 72
23
 73
19
 74
0
 42
0.0000001
 43
0.0000001
 44
0.0000000001
 40
0.0
 40
0.0
 40
0.0
 40
0.0
 40
0.0617101425
 40
0.1234413926
 40
0.1852146455
 40
0.2470503552
 40
0.3089683456
 40
0.3709876175
 40
0.433126137
 40
0.4954006583
 40
0.5578266139
 40
0.620417918
 40
0.6831867633
 40
0.7461439667
 40
0.8092979859
 40
0.8726548131
 40
0.9362237855
 40
1.0
 40
1.0
 40
1.0
 40
1.0
 10
11.8376667844
 20
6.2772498633
 30
0.0
 10
11.8427134471
 20
6.2821245392
 30
0.0
 10
11.8525593951
 20
6.2921373043
 30
0.0
 10
11.866539093
 20
6.307898792
 30
0.0
 10
11.8797000102
 20
6.3243691307
 30
0.0
 10
11.8920112824
 20
6.3415097949
 30
0.0
 10
11.903444739
 20
6.3592813295
 30
0.0
 10
11.9139739704
 20
6.37764272
 30
0.0
 10
11.9235746592
 20
6.3965516524
 30
0.0
 10
11.932224784
 20
6.4159644572
 30
0.0
 10
11.9399044465
 20
6.4358363624
 30
0.0
 10
11.9465958838
 20
6.4561215655
 30
0.0
 10
11.952283788
 20
6.4767732787
 30
0.0
 10
11.9569551028
 20
6.4977438895
 30
0.0
 10
11.9605990448
 20
6.5189849201
 30
0.0
 10
11.963207408
 20
6.5404479471
 30
0.0
 10
11.9647739209
 20
6.5620823911
 30
0.0
 10
11.9651210523
 20
6.5765641113
 30
0.0
 10
11.9651210523
 20
6.5838155253
 30
0.0
  0
SPLINE
  5
35E
100
AcDbEntity
  8
0
100
AcDbSpline
 62
7
  6
CONTINUOUS
 70
0
 71
3
 72
54
 73
50
 74
0
 42
0.0000001
 43
0.0000001
 44
0.0000000001
 40
0.0
 40
0.0
 40
0.0
 40
0.0
 40
0.0149714207
 40
0.0299459009
 40
0.0449264795
 40
0.0599161607
 40
0.0749178924
 40
0.0899345474
 40
0.1049689109
 40
0.1200236599
 40
0.135101347
 40
0.1502043904
 40
0.1653350555
 40
0.1804954423
 40
0.195687479
 40
0.210912906
 40
0.2261732683
 40
0.2414699124
 40
0.2568039734
 40
0.2721763729
 40
0.2875878193
 40
0.3030387972
 40
0.3185295728
 40
0.3340601946
 40
0.3496304877
 40
0.3652400644
 40
0.3808883259
 40
0.3965744612
 40
0.4122974619
 40
0.4280561242
 40
0.4438490534
 40
0.4596746808
 40
0.4914119437
 40
0.5232571513
 40
0.5551923202
 40
0.587197651
 40
0.6192519366
 40
0.651332993
 40
0.6834181045
 40
0.7154844744
 40
0.7475096792
 40
0.7794721147
 40
0.8113514322
 40
0.8431289588
 40
0.8747880885
 40
0.9063146442
 40
0.9376972366
 40
0.9689272309
 40
1.0
 40
1.0
 40
1.0
 40
1.0
 10
7.9781694173
 20
7.4262046253
 30
0.0
 10
7.9854695656
 20
7.4332560337
 30
0.0
 10
8.0003533794
 20
7.4470716494
 30
0.0
 10
8.0234874935
 20
7.466893668
 30
0.0
 10
8.0474005489
 20
7.48578942
 30
0.0
 10
8.0720591516
 20
7.5037325114
 30
0.0
 10
8.0974295672
 20
7.5206982574
 30
0.0
 10
8.1234767783
 20
7.5366633794
 30
0.0
 10
8.1501649412
 20
7.5516059436
 30
0.0
 10
8.1774573831
 20
7.5655052833
 30
0.0
 10
8.2053164781
 20
7.5783424101
 30
0.0
 10
8.2337039037
 20
7.5900996531
 30
0.0
 10
8.2625806286
 20
7.6007607602
 30
0.0
 10
8.2919068653
 20
7.6103112193
 30
0.0
 10
8.3216422879
 20
7.6187378473
 30
0.0
 10
8.3517459937
 20
7.6260290178
 30
0.0
 10
8.3821765351
 20
7.6321748568
 30
0.0
 10
8.4128920722
 20
7.6371668335
 30
0.0
 10
8.4438503482
 20
7.6409980967
 30
0.0
 10
8.4750087686
 20
7.6436635157
 30
0.0
 10
8.5063244898
 20
7.6451593229
 30
0.0
 10
8.5377544354
 20
7.6454835257
 30
0.0
 10
8.5692553854
 20
7.644635786
 30
0.0
 10
8.6007840174
 20
7.6426171549
 30
0.0
 10
8.6322969786
 20
7.6394305154
 30
0.0
 10
8.6637509484
 20
7.6350803167
 30
0.0
 10
8.6951026619
 20
7.6295724261
 30
0.0
 10
8.7263090238
 20
7.6229145581
 30
0.0
 10
8.7573271715
 20
7.6151158724
 30
0.0
 10
8.7881143061
 20
7.6061870546
 30
0.0
 10
8.8186286117
 20
7.5961403123
 30
0.0
 10
8.8589276811
 20
7.5812604919
 30
0.0
 10
8.9084085192
 20
7.5599307593
 30
0.0
 10
8.9659667569
 20
7.5301495725
 30
0.0
 10
9.0214564577
 20
7.4963189241
 30
0.0
 10
9.0745710735
 20
7.4586254672
 30
0.0
 10
9.1250197105
 20
7.4172760923
 30
0.0
 10
9.1725254467
 20
7.3724979915
 30
0.0
 10
9.2168275963
 20
7.3245369525
 30
0.0
 10
9.2576829015
 20
7.2736561648
 30
0.0
 10
9.2948670856
 20
7.2201348941
 30
0.0
 10
9.3281758896
 20
7.1642668199
 30
0.0
 10
9.3574261475
 20
7.10635844
 30
0.0
 10
9.3824569781
 20
7.046727558
 30
0.0
 10
9.4031305805
 20
6.9857013449
 30
0.0
 10
9.4193328932
 20
6.9236150544
 30
0.0
 10
9.4309742222
 20
6.8608084329
 30
0.0
 10
9.4379902507
 20
6.797630842
 30
0.0
 10
9.4395616811
 20
6.7553775871
 30
0.0
 10
9.4395616811
 20
6.7343123583
 30
0.0
  0
SPLINE
  5
35F
100
AcDbEntity
  8
0
100
AcDbSpline
 62
7
  6
CONTINUOUS
 70
0
 71
3
 72
46
 73
42
 74
0
 42
0.0000001
 43
0.0000001
 44
0.0000000001
 40
0.0
 40
0.0
 40
0.0
 40
0.0
 40
0.0149720544
 40
0.0299471661
 40
0.0449283789
 40
0.0599186934
 40
0.0749210586
 40
0.0899383495
 40
0.1049733478
 40
0.1200287341
 40
0.1351070579
 40
0.1502107414
 40
0.1653420445
 40
0.1805030741
 40
0.1956957524
 40
0.2109218231
 40
0.2414745585
 40
0.2721768357
 40
0.3030351652
 40
0.3340525576
 40
0.3652285104
 40
0.3965590722
 40
0.4280369779
 40
0.4596518497
 40
0.4913904535
 40
0.5232370064
 40
0.5551735251
 40
0.5871802087
 40
0.6192358493
 40
0.6513182619
 40
0.6834047295
 40
0.7154724546
 40
0.7474990121
 40
0.7794627971
 40
0.8113434614
 40
0.8431223287
 40
0.8747828018
 40
0.9063106702
 40
0.9376946216
 40
0.9689259505
 40
1.0
 40
1.0
 40
1.0
 40
1.0
 10
8.2868273391
 20
7.1543107063
 30
0.0
 10
8.2907262926
 20
7.1580767862
 30
0.0
 10
8.2986755988
 20
7.1654555788
 30
0.0
 10
8.3110313382
 20
7.1760423067
 30
0.0
 10
8.3238030528
 20
7.186134387
 30
0.0
 10
8.3369730409
 20
7.1957175464
 30
0.0
 10
8.3505231021
 20
7.2047788575
 30
0.0
 10
8.3644347211
 20
7.2133056082
 30
0.0
 10
8.3786886022
 20
7.2212863275
 30
0.0
 10
8.3932652682
 20
7.2287097843
 30
0.0
 10
8.4081445378
 20
7.2355660105
 30
0.0
 10
8.423306022
 20
7.241845379
 30
0.0
 10
8.4387288141
 20
7.2475394129
 30
0.0
 10
8.4543916439
 20
7.2526401915
 30
0.0
 10
8.4702732569
 20
7.2571407675
 30
0.0
 10
8.4917327007
 20
7.2623384393
 30
0.0
 10
8.5190049281
 20
7.2673024356
 30
0.0
 10
8.552206055
 20
7.2707699635
 30
0.0
 10
8.5857425687
 20
7.2717379308
 30
0.0
 10
8.6194287568
 20
7.2702011096
 30
0.0
 10
8.6530797907
 20
7.2661684615
 30
0.0
 10
8.6865106859
 20
7.25966252
 30
0.0
 10
8.7195378587
 20
7.2507193993
 30
0.0
 10
8.7519799717
 20
7.2393885441
 30
0.0
 10
8.7836589551
 20
7.2257324612
 30
0.0
 10
8.8144009599
 20
7.2098263685
 30
0.0
 10
8.8440373007
 20
7.1917577812
 30
0.0
 10
8.8724053682
 20
7.1716260314
 30
0.0
 10
8.8993495108
 20
7.1495417265
 30
0.0
 10
8.924721877
 20
7.1256261448
 30
0.0
 10
8.9483832219
 20
7.1000105799
 30
0.0
 10
8.9702036625
 20
7.0728356248
 30
0.0
 10
8.9900633815
 20
7.044250405
 30
0.0
 10
9.0078532803
 20
7.0144117716
 30
0.0
 10
9.0234755694
 20
6.9834834447
 30
0.0
 10
9.0368443147
 20
6.9516351471
 30
0.0
 10
9.0478858727
 20
6.9190416121
 30
0.0
 10
9.0565393891
 20
6.8858818972
 30
0.0
 10
9.0627569253
 20
6.8523374549
 30
0.0
 10
9.0665041225
 20
6.8185948843
 30
0.0
 10
9.0673434017
 20
6.7960278193
 30
0.0
 10
9.0673434017
 20
6.784777088
 30
0.0
  0
SPLINE
  5
360
100
AcDbEntity
  8
0
100
AcDbSpline
 62
7
  6
CONTINUOUS
 70
0
 71
3
 72
23
 73
19
 74
0
 42
0.0000001
 43
0.0000001
 44
0.0000000001
 40
0.0
 40
0.0
 40
0.0
 40
0.0
 40
0.0617101425
 40
0.1234413926
 40
0.1852146455
 40
0.2470503552
 40
0.3089683456
 40
0.3709876175
 40
0.433126137
 40
0.4954006583
 40
0.5578266139
 40
0.620417918
 40
0.6831867633
 40
0.7461439667
 40
0.8092979859
 40
0.8726548131
 40
0.9362237855
 40
1.0
 40
1.0
 40
1.0
 40
1.0
 10
8.9398891338
 20
6.4782114259
 30
0.0
 10
8.9449357965
 20
6.4830861018
 30
0.0
 10
8.9547817445
 20
6.493098867
 30
0.0
 10
8.9687614424
 20
6.5088603546
 30
0.0
 10
8.9819223596
 20
6.5253306934
 30
0.0
 10
8.9942336319
 20
6.5424713576
 30
0.0
 10
9.0056670885
 20
6.5602428921
 30
0.0
 10
9.0161963198
 20
6.5786042826
 30
0.0
 10
9.0257970086
 20
6.5975132151
 30
0.0
 10
9.0344471334
 20
6.6169260198
 30
0.0
 10
9.042126796
 20
6.636797925
 30
0.0
 10
9.0488182332
 20
6.6570831281
 30
0.0
 10
9.0545061375
 20
6.6777348413
 30
0.0
 10
9.0591774522
 20
6.6987054522
 30
0.0
 10
9.0628213942
 20
6.7199464827
 30
0.0
 10
9.0654297574
 20
6.7414095098
 30
0.0
 10
9.0669962703
 20
6.7630439537
 30
0.0
 10
9.0673434017
 20
6.7775256739
 30
0.0
 10
9.0673434017
 20
6.784777088
 30
0.0
  0
SPLINE
  5
361
100
AcDbEntity
  8
0
100
AcDbSpline
 62
7
  6
CONTINUOUS
 70
0
 71
3
 72
24
 73
20
 74
0
 42
0.0000001
 43
0.0000001
 44
0.0000000001
 40
0.0
 40
0.0
 40
0.0
 40
0.0
 40
0.1055111787
 40
0.1605156504
 40
0.2169642186
 40
0.2748204145
 40
0.3340444511
 40
0.3945994895
 40
0.4564571981
 40
0.5196015408
 40
0.5840314378
 40
0.6497647545
 40
0.6831358835
 40
0.7168487048
 40
0.7853182239
 40
0.855261844
 40
0.8908236105
 40
0.9267946107
 40
1.0
 40
1.0
 40
1.0
 40
1.0
 10
8.7821100048
 20
7.1466047695
 30
0.0
 10
8.775280716
 20
7.1470778095
 30
0.0
 10
8.7649354181
 20
7.1487253367
 30
0.0
 10
8.751372071
 20
7.1525198786
 30
0.0
 10
8.7410327594
 20
7.1562632321
 30
0.0
 10
8.7307428921
 20
7.1608550053
 30
0.0
 10
8.7205679379
 20
7.1662881776
 30
0.0
 10
8.7105771228
 20
7.1725561606
 30
0.0
 10
8.7008398585
 20
7.1796525505
 30
0.0
 10
8.6914272323
 20
7.1875712738
 30
0.0
 10
8.6824121612
 20
7.1963053401
 30
0.0
 10
8.6753283047
 20
7.2042176997
 30
0.0
 10
8.6699330572
 20
7.2109390818
 30
0.0
 10
8.6646796707
 20
7.2179946464
 30
0.0
 10
8.6585097666
 20
7.2273162013
 30
0.0
 10
8.6529948844
 20
7.2371779268
 30
0.0
 10
8.6489759179
 20
7.2454327169
 30
0.0
 10
8.6451918333
 20
7.2540290788
 30
0.0
 10
8.6427183332
 20
7.2606767786
 30
0.0
 10
8.6412363857
 20
7.2651892921
 30
0.0
  0
SPLINE
  5
362
100
AcDbEntity
  8
0
100
AcDbSpline
 62
7
  6
CONTINUOUS
 70
0
 71
3
 72
36
 73
32
 74
0
 42
0.0000001
 43
0.0000001
 44
0.0000000001
 40
0.0
 40
0.0
 40
0.0
 40
0.0
 40
0.0162143048
 40
0.0334273363
 40
0.0516716556
 40
0.0709707163
 40
0.0913401979
 40
0.1127892156
 40
0.13532147
 40
0.1589357362
 40
0.1836268569
 40
0.2093859311
 40
0.236200954
 40
0.2640570993
 40
0.2929369
 40
0.3228207324
 40
0.3536866939
 40
0.3855111001
 40
0.4182683916
 40
0.4519313784
 40
0.4864713931
 40
0.5218582276
 40
0.5580604815
 40
0.5950453717
 40
0.6327790535
 40
0.6712265605
 40
0.7103518611
 40
0.7501180517
 40
0.8314202535
 40
0.9148215003
 40
1.0
 40
1.0
 40
1.0
 40
1.0
 10
15.0804526555
 20
6.4077283196
 30
0.0
 10
15.0781233081
 20
6.410592372
 30
0.0
 10
15.0735171882
 20
6.416658208
 30
0.0
 10
15.0669483808
 20
6.4264246372
 30
0.0
 10
15.060523936
 20
6.4371146336
 30
0.0
 10
15.054250516
 20
6.4487169098
 30
0.0
 10
15.0481341851
 20
6.4612198578
 30
0.0
 10
15.0421811052
 20
6.4746106566
 30
0.0
 10
15.0363974691
 20
6.4888755935
 30
0.0
 10
15.0307891657
 20
6.503999907
 30
0.0
 10
15.0253621546
 20
6.5199679356
 30
0.0
 10
15.0201220685
 20
6.5367630478
 30
0.0
 10
15.0150744493
 20
6.5543677229
 30
0.0
 10
15.0102246576
 20
6.5727635541
 30
0.0
 10
15.0055777575
 20
6.5919312684
 30
0.0
 10
15.0011387584
 20
6.6118507699
 30
0.0
 10
14.9969122782
 20
6.6325011421
 30
0.0
 10
14.9929028621
 20
6.653860691
 30
0.0
 10
14.989114733
 20
6.6759069607
 30
0.0
 10
14.9855518977
 20
6.6986167632
 30
0.0
 10
14.9822181815
 20
6.7219662019
 30
0.0
 10
14.9791170517
 20
6.7459307027
 30
0.0
 10
14.976251872
 20
6.7704850316
 30
0.0
 10
14.9736256198
 20
6.7956033348
 30
0.0
 10
14.971241114
 20
6.821259158
 30
0.0
 10
14.9691008899
 20
6.8474254678
 30
0.0
 10
14.9672071639
 20
6.8740747215
 30
0.0
 10
14.9649974547
 20
6.9104814321
 30
0.0
 10
14.9628785625
 20
6.9569904589
 30
0.0
 10
14.9613628116
 20
7.0138667901
 30
0.0
 10
14.9610323509
 20
7.052250278
 30
0.0
 10
14.9610323509
 20
7.0716438659
 30
0.0
  0
SPLINE
  5
363
100
AcDbEntity
  8
0
100
AcDbSpline
 62
7
  6
CONTINUOUS
 70
0
 71
3
 72
11
 73
7
 74
0
 42
0.0000001
 43
0.0000001
 44
0.0000000001
 40
0.0
 40
0.0
 40
0.0
 40
0.0
 40
0.2579081487
 40
0.5091047379
 40
0.7557164262
 40
1.0
 40
1.0
 40
1.0
 40
1.0
 10
15.0498836886
 20
6.457630828
 30
0.0
 10
15.0516073087
 20
6.4567873491
 30
0.0
 10
15.0550840071
 20
6.4552684595
 30
0.0
 10
15.060432086
 20
6.4535054007
 30
0.0
 10
15.0658281304
 20
6.4522947406
 30
0.0
 10
15.069461612
 20
6.4518565319
 30
0.0
 10
15.0712748233
 20
6.4517307935
 30
0.0
  0
SPLINE
  5
364
100
AcDbEntity
  8
0
100
AcDbSpline
 62
7
  6
CONTINUOUS
 70
0
 71
3
 72
72
 73
68
 74
0
 42
0.0000001
 43
0.0000001
 44
0.0000000001
 40
0.0
 40
0.0
 40
0.0
 40
0.0
 40
0.0028080269
 40
0.0056357484
 40
0.0085023994
 40
0.0114263655
 40
0.0144248954
 40
0.0175138142
 40
0.0240150992
 40
0.0274548856
 40
0.0310331103
 40
0.0347582228
 40
0.038637415
 40
0.0426767077
 40
0.046881194
 40
0.0512550823
 40
0.0558017079
 40
0.0605237694
 40
0.0654233748
 40
0.075759731
 40
0.0868182127
 40
0.098598601
 40
0.1110954766
 40
0.1242989573
 40
0.1381953061
 40
0.1527676484
 40
0.1679961539
 40
0.1838584729
 40
0.2003300721
 40
0.2173842617
 40
0.2349925857
 40
0.2531249162
 40
0.2717495282
 40
0.2908334012
 40
0.3103422029
 40
0.3302404582
 40
0.3504917274
 40
0.3710585926
 40
0.4129848783
 40
0.4557069026
 40
0.4989035052
 40
0.542248869
 40
0.5854157291
 40
0.6280785651
 40
0.6699167822
 40
0.690429054
 40
0.7106188507
 40
0.7304489648
 40
0.7498830569
 40
0.7688859026
 40
0.7874234007
 40
0.8054626957
 40
0.82297243
 40
0.8399227074
 40
0.8562853711
 40
0.8720341902
 40
0.8871449021
 40
0.9015956586
 40
0.9153671668
 40
0.9284429885
 40
0.9408101529
 40
0.9524594887
 40
0.9633864448
 40
0.9735918993
 40
0.9830834872
 40
0.9918777842
 40
1.0
 40
1.0
 40
1.0
 40
1.0
 10
13.4800924735
 20
10.2196659307
 30
0.0
 10
13.4800924801
 20
10.2189976537
 30
0.0
 10
13.4801510049
 20
10.2176556894
 30
0.0
 10
13.4804140173
 20
10.2156470055
 30
0.0
 10
13.4808519866
 20
10.2136407766
 30
0.0
 10
13.4814644447
 20
10.2116384215
 30
0.0
 10
13.4822509796
 20
10.2096409463
 30
0.0
 10
13.4835527203
 20
10.2069400953
 30
0.0
 10
13.4851922377
 20
10.2042956858
 30
0.0
 10
13.4871230374
 20
10.2017207312
 30
0.0
 10
13.4887688844
 20
10.1997623796
 30
0.0
 10
13.4905840405
 20
10.1978147544
 30
0.0
 10
13.4925677187
 20
10.1958785176
 30
0.0
 10
13.4947188237
 20
10.1939545853
 30
0.0
 10
13.4970363204
 20
10.1920438692
 30
0.0
 10
13.4995190692
 20
10.1901473085
 30
0.0
 10
13.5021657932
 20
10.1882657715
 30
0.0
 10
13.5049751957
 20
10.1864001608
 30
0.0
 10
13.5090083974
 20
10.1838903586
 30
0.0
 10
13.514457568
 20
10.1808074187
 30
0.0
 10
13.5215085602
 20
10.1772495594
 30
0.0
 10
13.5291699807
 20
10.1737769607
 30
0.0
 10
13.5374265672
 20
10.1703966256
 30
0.0
 10
13.5462620228
 20
10.1671153367
 30
0.0
 10
13.5556587077
 20
10.1639396763
 30
0.0
 10
13.5655978393
 20
10.1608761461
 30
0.0
 10
13.5760594626
 20
10.1579309459
 30
0.0
 10
13.5870225367
 20
10.1551100522
 30
0.0
 10
13.5984649878
 20
10.1524192632
 30
0.0
 10
13.6103637351
 20
10.1498640087
 30
0.0
 10
13.622694766
 20
10.1474495116
 30
0.0
 10
13.6354331814
 20
10.1451807143
 30
0.0
 10
13.6485532399
 20
10.1430621892
 30
0.0
 10
13.6620284253
 20
10.1410982902
 30
0.0
 10
13.6758314955
 20
10.1392930042
 30
0.0
 10
13.6899345301
 20
10.137649984
 30
0.0
 10
13.7043090308
 20
10.1361725969
 30
0.0
 10
13.723923224
 20
10.1344164558
 30
0.0
 10
13.7489045534
 20
10.1326628088
 30
0.0
 10
13.7793010305
 20
10.1312699422
 30
0.0
 10
13.8100595736
 20
10.1305870105
 30
0.0
 10
13.8409314764
 20
10.1306195966
 30
0.0
 10
13.8716673454
 20
10.1313674179
 30
0.0
 10
13.9020186574
 20
10.1328243593
 30
0.0
 10
13.9269480682
 20
10.1346309669
 30
0.0
 10
13.9465096948
 20
10.1364288837
 30
0.0
 10
13.9608369639
 20
10.1379366528
 30
0.0
 10
13.9748875364
 20
10.1396094254
 30
0.0
 10
13.9886330169
 20
10.1414438672
 30
0.0
 10
14.002045607
 20
10.1434361997
 30
0.0
 10
14.0150981913
 20
10.145582375
 30
0.0
 10
14.0277643872
 20
10.1478780547
 30
0.0
 10
14.0400186094
 20
10.1503185142
 30
0.0
 10
14.0518361098
 20
10.1528988186
 30
0.0
 10
14.0631930416
 20
10.1556137125
 30
0.0
 10
14.0740665129
 20
10.1584576253
 30
0.0
 10
14.0844346186
 20
10.1614248222
 30
0.0
 10
14.0942765216
 20
10.1645092267
 30
0.0
 10
14.1035724838
 20
10.1677045598
 30
0.0
 10
14.1123038987
 20
10.1710043981
 30
0.0
 10
14.1204534029
 20
10.1744020099
 30
0.0
 10
14.1280048626
 20
10.1778906164
 30
0.0
 10
14.1349434303
 20
10.1814633524
 30
0.0
 10
14.1412556243
 20
10.1851131211
 30
0.0
 10
14.1469295851
 20
10.1888333486
 30
0.0
 10
14.1519538385
 20
10.1926168572
 30
0.0
 10
14.1549806495
 20
10.1952797997
 30
0.0
 10
14.1563709619
 20
10.1966227385
 30
0.0
  0
SPLINE
  5
365
100
AcDbEntity
  8
0
100
AcDbSpline
 62
7
  6
CONTINUOUS
 70
0
 71
3
 72
72
 73
68
 74
0
 42
0.0000001
 43
0.0000001
 44
0.0000000001
 40
0.0
 40
0.0
 40
0.0
 40
0.0
 40
0.0028080269
 40
0.0056357484
 40
0.0085023994
 40
0.0114263655
 40
0.0144248954
 40
0.0175138142
 40
0.0240150992
 40
0.0274548856
 40
0.0310331103
 40
0.0347582228
 40
0.038637415
 40
0.0426767077
 40
0.046881194
 40
0.0512550823
 40
0.0558017079
 40
0.0605237694
 40
0.0654233748
 40
0.075759731
 40
0.0868182127
 40
0.098598601
 40
0.1110954766
 40
0.1242989573
 40
0.1381953061
 40
0.1527676484
 40
0.1679961539
 40
0.1838584729
 40
0.2003300721
 40
0.2173842617
 40
0.2349925857
 40
0.2531249162
 40
0.2717495282
 40
0.2908334012
 40
0.3103422029
 40
0.3302404582
 40
0.3504917274
 40
0.3710585926
 40
0.4129848783
 40
0.4557069026
 40
0.4989035052
 40
0.542248869
 40
0.5854157291
 40
0.6280785651
 40
0.6699167822
 40
0.690429054
 40
0.7106188507
 40
0.7304489648
 40
0.7498830569
 40
0.7688859026
 40
0.7874234007
 40
0.8054626957
 40
0.82297243
 40
0.8399227074
 40
0.8562853711
 40
0.8720341902
 40
0.8871449021
 40
0.9015956586
 40
0.9153671668
 40
0.9284429885
 40
0.9408101529
 40
0.9524594887
 40
0.9633864448
 40
0.9735918993
 40
0.9830834872
 40
0.9918777842
 40
1.0
 40
1.0
 40
1.0
 40
1.0
 10
6.9581609904
 20
10.6719634153
 30
0.0
 10
6.958160997
 20
10.6712951383
 30
0.0
 10
6.9582195218
 20
10.669953174
 30
0.0
 10
6.9584825342
 20
10.66794449
 30
0.0
 10
6.9589205035
 20
10.6659382612
 30
0.0
 10
6.9595329616
 20
10.663935906
 30
0.0
 10
6.9603194965
 20
10.6619384309
 30
0.0
 10
6.9616212372
 20
10.6592375798
 30
0.0
 10
6.9632607546
 20
10.6565931703
 30
0.0
 10
6.9651915543
 20
10.6540182158
 30
0.0
 10
6.9668374013
 20
10.6520598641
 30
0.0
 10
6.9686525574
 20
10.6501122389
 30
0.0
 10
6.9706362356
 20
10.6481760022
 30
0.0
 10
6.9727873406
 20
10.6462520699
 30
0.0
 10
6.9751048373
 20
10.6443413538
 30
0.0
 10
6.9775875861
 20
10.6424447931
 30
0.0
 10
6.9802343101
 20
10.6405632561
 30
0.0
 10
6.9830437126
 20
10.6386976454
 30
0.0
 10
6.9870769143
 20
10.6361878432
 30
0.0
 10
6.9925260849
 20
10.6331049032
 30
0.0
 10
6.9995770771
 20
10.629547044
 30
0.0
 10
7.0072384976
 20
10.6260744453
 30
0.0
 10
7.0154950842
 20
10.6226941101
 30
0.0
 10
7.0243305397
 20
10.6194128212
 30
0.0
 10
7.0337272246
 20
10.6162371608
 30
0.0
 10
7.0436663562
 20
10.6131736307
 30
0.0
 10
7.0541279795
 20
10.6102284305
 30
0.0
 10
7.0650910536
 20
10.6074075368
 30
0.0
 10
7.0765335047
 20
10.6047167478
 30
0.0
 10
7.088432252
 20
10.6021614933
 30
0.0
 10
7.1007632829
 20
10.5997469962
 30
0.0
 10
7.1135016983
 20
10.5974781989
 30
0.0
 10
7.1266217568
 20
10.5953596737
 30
0.0
 10
7.1400969422
 20
10.5933957748
 30
0.0
 10
7.1539000124
 20
10.5915904888
 30
0.0
 10
7.168003047
 20
10.5899474686
 30
0.0
 10
7.1823775477
 20
10.5884700815
 30
0.0
 10
7.2019917409
 20
10.5867139404
 30
0.0
 10
7.2269730703
 20
10.5849602934
 30
0.0
 10
7.2573695474
 20
10.5835674268
 30
0.0
 10
7.2881280905
 20
10.5828844951
 30
0.0
 10
7.3189999933
 20
10.5829170812
 30
0.0
 10
7.3497358623
 20
10.5836649025
 30
0.0
 10
7.3800871743
 20
10.5851218438
 30
0.0
 10
7.4050165851
 20
10.5869284514
 30
0.0
 10
7.4245782117
 20
10.5887263682
 30
0.0
 10
7.4389054808
 20
10.5902341374
 30
0.0
 10
7.4529560533
 20
10.5919069099
 30
0.0
 10
7.4667015338
 20
10.5937413518
 30
0.0
 10
7.4801141239
 20
10.5957336843
 30
0.0
 10
7.4931667082
 20
10.5978798595
 30
0.0
 10
7.5058329041
 20
10.6001755393
 30
0.0
 10
7.5180871263
 20
10.6026159988
 30
0.0
 10
7.5299046267
 20
10.6051963032
 30
0.0
 10
7.5412615585
 20
10.6079111971
 30
0.0
 10
7.5521350298
 20
10.6107551099
 30
0.0
 10
7.5625031355
 20
10.6137223068
 30
0.0
 10
7.5723450385
 20
10.6168067113
 30
0.0
 10
7.5816410007
 20
10.6200020443
 30
0.0
 10
7.5903724156
 20
10.6233018827
 30
0.0
 10
7.5985219198
 20
10.6266994945
 30
0.0
 10
7.6060733795
 20
10.630188101
 30
0.0
 10
7.6130119472
 20
10.6337608369
 30
0.0
 10
7.6193241412
 20
10.6374106057
 30
0.0
 10
7.624998102
 20
10.6411308332
 30
0.0
 10
7.6300223554
 20
10.6449143418
 30
0.0
 10
7.6330491664
 20
10.6475772843
 30
0.0
 10
7.6344394788
 20
10.6489202231
 30
0.0
  0
SPLINE
  5
366
100
AcDbEntity
  8
0
100
AcDbSpline
 62
7
  6
CONTINUOUS
 70
0
 71
3
 72
52
 73
48
 74
0
 42
0.0000001
 43
0.0000001
 44
0.0000000001
 40
0.0
 40
0.0
 40
0.0
 40
0.0
 40
0.0063158568
 40
0.0126706178
 40
0.0191024266
 40
0.0256479345
 40
0.0323417789
 40
0.0392160908
 40
0.0536138298
 40
0.0611945069
 40
0.0690562056
 40
0.0772172859
 40
0.0856936163
 40
0.094498959
 40
0.1036450353
 40
0.1131417384
 40
0.1229974561
 40
0.1332190303
 40
0.1438120572
 40
0.1547810415
 40
0.1661293353
 40
0.1778594655
 40
0.1899731041
 40
0.2024710934
 40
0.2153537091
 40
0.2286205088
 40
0.2422704818
 40
0.2563021821
 40
0.2707135511
 40
0.3006644045
 40
0.3320995118
 40
0.364988637
 40
0.399296387
 40
0.4349827261
 40
0.4720035166
 40
0.5103109065
 40
0.549853604
 40
0.5905771631
 40
0.632424299
 40
0.6753351168
 40
0.7192472758
 40
0.7640961515
 40
0.8098152405
 40
0.8563361104
 40
0.9035880427
 40
0.9515014724
 40
1.0
 40
1.0
 40
1.0
 40
1.0
 10
14.7945327125
 20
7.911891797
 30
0.0
 10
14.7928425239
 20
7.9120090079
 30
0.0
 10
14.7894597211
 20
7.91238248
 30
0.0
 10
14.7844234205
 20
7.9133559737
 30
0.0
 10
14.779420798
 20
7.9147427658
 30
0.0
 10
14.7744547467
 20
7.9165416504
 30
0.0
 10
14.7695272479
 20
7.9187516907
 30
0.0
 10
14.7629109395
 20
7.9222983618
 30
0.0
 10
14.7564742943
 20
7.9266400155
 30
0.0
 10
14.7502452729
 20
7.9316713316
 30
0.0
 10
14.7455402456
 20
7.9359133176
 30
0.0
 10
14.7408854929
 20
7.9405562108
 30
0.0
 10
14.7362821133
 20
7.9455982968
 30
0.0
 10
14.7317320444
 20
7.9510374488
 30
0.0
 10
14.7272369503
 20
7.9568714441
 30
0.0
 10
14.7227985083
 20
7.9630978651
 30
0.0
 10
14.7184185312
 20
7.9697142456
 30
0.0
 10
14.7140986721
 20
7.9767178589
 30
0.0
 10
14.7098406441
 20
7.9841058702
 30
0.0
 10
14.7056462175
 20
7.9918753117
 30
0.0
 10
14.7015169942
 20
8.0000229843
 30
0.0
 10
14.6974546972
 20
8.008545594
 30
0.0
 10
14.6934609929
 20
8.0174396678
 30
0.0
 10
14.6895374452
 20
8.0267015508
 30
0.0
 10
14.6856857365
 20
8.0363274801
 30
0.0
 10
14.6819074076
 20
8.0463135007
 30
0.0
 10
14.6782039951
 20
8.0566555105
 30
0.0
 10
14.6745770646
 20
8.0673492988
 30
0.0
 10
14.6697834752
 20
8.0822627416
 30
0.0
 10
14.6640075726
 20
8.1017612568
 30
0.0
 10
14.6574904863
 20
8.1261995384
 30
0.0
 10
14.6513122657
 20
8.1519290429
 30
0.0
 10
14.6454831821
 20
8.1789074339
 30
0.0
 10
14.6400129202
 20
8.2070904975
 30
0.0
 10
14.6349105904
 20
8.2364319121
 30
0.0
 10
14.6301847106
 20
8.2668834371
 30
0.0
 10
14.625843159
 20
8.2983949518
 30
0.0
 10
14.621893153
 20
8.3309145527
 30
0.0
 10
14.6183412767
 20
8.3643886608
 30
0.0
 10
14.6151934668
 20
8.3987621142
 30
0.0
 10
14.6124549676
 20
8.4339782342
 30
0.0
 10
14.6101303253
 20
8.4699789572
 30
0.0
 10
14.6082234264
 20
8.5067049239
 30
0.0
 10
14.6067374841
 20
8.5440954242
 30
0.0
 10
14.6056749144
 20
8.5820891943
 30
0.0
 10
14.6050375962
 20
8.620622981
 30
0.0
 10
14.6048976414
 20
8.6464860205
 30
0.0
 10
14.6048976414
 20
8.659495899
 30
0.0
  0
SPLINE
  5
367
100
AcDbEntity
  8
0
100
AcDbSpline
 62
7
  6
CONTINUOUS
 70
0
 71
3
 72
14
 73
10
 74
0
 42
0.0000001
 43
0.0000001
 44
0.0000000001
 40
0.0
 40
0.0
 40
0.0
 40
0.0
 40
0.251962426
 40
0.3774501598
 40
0.5025983895
 40
0.6274178217
 40
0.7519161965
 40
0.8761054267
 40
1.0
 40
1.0
 40
1.0
 40
1.0
 10
12.0578748075
 20
9.2762236321
 30
0.0
 10
12.0578748075
 20
9.2882233435
 30
0.0
 10
12.0585885529
 20
9.3062106328
 30
0.0
 10
12.0609800827
 20
9.3300315292
 30
0.0
 10
12.063484527
 20
9.3477417074
 30
0.0
 10
12.0666978919
 20
9.3652886581
 30
0.0
 10
12.0706154346
 20
9.3826453857
 30
0.0
 10
12.0752305805
 20
9.3997838468
 30
0.0
 10
12.078772109
 20
9.4110597467
 30
0.0
 10
12.0806565636
 20
9.4166512125
 30
0.0
  0
SPLINE
  5
368
100
AcDbEntity
  8
0
100
AcDbSpline
 62
7
  6
CONTINUOUS
 70
0
 71
3
 72
14
 73
10
 74
0
 42
0.0000001
 43
0.0000001
 44
0.0000000001
 40
0.0
 40
0.0
 40
0.0
 40
0.0
 40
0.251962426
 40
0.3774501598
 40
0.5025983895
 40
0.6274178217
 40
0.7519161965
 40
0.8761054267
 40
1.0
 40
1.0
 40
1.0
 40
1.0
 10
9.160097157
 20
9.4771851947
 30
0.0
 10
9.160097157
 20
9.4891849061
 30
0.0
 10
9.1608109023
 20
9.5071721954
 30
0.0
 10
9.1632024322
 20
9.5309930919
 30
0.0
 10
9.1657068764
 20
9.54870327
 30
0.0
 10
9.1689202414
 20
9.5662502207
 30
0.0
 10
9.172837784
 20
9.5836069483
 30
0.0
 10
9.17745293
 20
9.6007454094
 30
0.0
 10
9.1809944585
 20
9.6120213093
 30
0.0
 10
9.182878913
 20
9.6176127751
 30
0.0
  0
SPLINE
  5
369
100
AcDbEntity
  8
0
100
AcDbSpline
 62
7
  6
CONTINUOUS
 70
0
 71
3
 72
54
 73
50
 74
0
 42
0.0000001
 43
0.0000001
 44
0.0000000001
 40
0.0
 40
0.0
 40
0.0
 40
0.0
 40
0.0149714207
 40
0.0299459009
 40
0.0449264795
 40
0.0599161607
 40
0.0749178924
 40
0.0899345474
 40
0.1049689109
 40
0.1200236599
 40
0.135101347
 40
0.1502043904
 40
0.1653350555
 40
0.1804954423
 40
0.195687479
 40
0.210912906
 40
0.2261732683
 40
0.2414699124
 40
0.2568039734
 40
0.2721763729
 40
0.2875878193
 40
0.3030387972
 40
0.3185295728
 40
0.3340601946
 40
0.3496304877
 40
0.3652400644
 40
0.3808883259
 40
0.3965744612
 40
0.4122974619
 40
0.4280561242
 40
0.4438490534
 40
0.4596746808
 40
0.4914119437
 40
0.5232571513
 40
0.5551923202
 40
0.587197651
 40
0.6192519366
 40
0.651332993
 40
0.6834181045
 40
0.7154844744
 40
0.7475096792
 40
0.7794721147
 40
0.8113514322
 40
0.8431289588
 40
0.8747880885
 40
0.9063146442
 40
0.9376972366
 40
0.9689272309
 40
1.0
 40
1.0
 40
1.0
 40
1.0
 10
12.8250781648
 20
8.3237963323
 30
0.0
 10
12.8177780164
 20
8.3167449238
 30
0.0
 10
12.8028942026
 20
8.3029293082
 30
0.0
 10
12.7797600886
 20
8.2831072895
 30
0.0
 10
12.7558470332
 20
8.2642115375
 30
0.0
 10
12.7311884305
 20
8.2462684461
 30
0.0
 10
12.7058180149
 20
8.2293027001
 30
0.0
 10
12.6797708038
 20
8.2133375781
 30
0.0
 10
12.6530826409
 20
8.1983950139
 30
0.0
 10
12.625790199
 20
8.1844956743
 30
0.0
 10
12.597931104
 20
8.1716585474
 30
0.0
 10
12.5695436783
 20
8.1599013045
 30
0.0
 10
12.5406669535
 20
8.1492401973
 30
0.0
 10
12.5113407167
 20
8.1396897382
 30
0.0
 10
12.4816052941
 20
8.1312631102
 30
0.0
 10
12.4515015883
 20
8.1239719398
 30
0.0
 10
12.421071047
 20
8.1178261007
 30
0.0
 10
12.3903555099
 20
8.1128341241
 30
0.0
 10
12.3593972338
 20
8.1090028609
 30
0.0
 10
12.3282388134
 20
8.1063374418
 30
0.0
 10
12.2969230923
 20
8.1048416347
 30
0.0
 10
12.2654931467
 20
8.1045174319
 30
0.0
 10
12.2339921966
 20
8.1053651715
 30
0.0
 10
12.2024635646
 20
8.1073838027
 30
0.0
 10
12.1709506034
 20
8.1105704421
 30
0.0
 10
12.1394966337
 20
8.1149206408
 30
0.0
 10
12.1081449202
 20
8.1204285314
 30
0.0
 10
12.0769385583
 20
8.1270863994
 30
0.0
 10
12.0459204106
 20
8.1348850851
 30
0.0
 10
12.015133276
 20
8.1438139029
 30
0.0
 10
11.9846189704
 20
8.1538606452
 30
0.0
 10
11.944319901
 20
8.1687404656
 30
0.0
 10
11.8948390629
 20
8.1900701982
 30
0.0
 10
11.8372808252
 20
8.219851385
 30
0.0
 10
11.7817911244
 20
8.2536820334
 30
0.0
 10
11.7286765085
 20
8.2913754903
 30
0.0
 10
11.6782278715
 20
8.3327248653
 30
0.0
 10
11.6307221354
 20
8.377502966
 30
0.0
 10
11.5864199858
 20
8.4254640051
 30
0.0
 10
11.5455646806
 20
8.4763447927
 30
0.0
 10
11.5083804965
 20
8.5298660635
 30
0.0
 10
11.4750716925
 20
8.5857341377
 30
0.0
 10
11.4458214346
 20
8.6436425175
 30
0.0
 10
11.420790604
 20
8.7032733995
 30
0.0
 10
11.4001170016
 20
8.7642996127
 30
0.0
 10
11.3839146888
 20
8.8263859031
 30
0.0
 10
11.3722733599
 20
8.8891925246
 30
0.0
 10
11.3652573314
 20
8.9523701155
 30
0.0
 10
11.363685901
 20
8.9946233705
 30
0.0
 10
11.363685901
 20
9.0156885992
 30
0.0
  0
SPLINE
  5
36A
100
AcDbEntity
  8
0
100
AcDbSpline
 62
7
  6
CONTINUOUS
 70
0
 71
3
 72
71
 73
67
 74
0
 42
0.0000001
 43
0.0000001
 44
0.0000000001
 40
0.0
 40
0.0
 40
0.0
 40
0.0
 40
0.0156371759
 40
0.0313280019
 40
0.0470702678
 40
0.0628636296
 40
0.0787060897
 40
0.0945954846
 40
0.1105292297
 40
0.1265042943
 40
0.1425172948
 40
0.1585644998
 40
0.1746418761
 40
0.1907451249
 40
0.2068697171
 40
0.2230109354
 40
0.2391639194
 40
0.2553237068
 40
0.2714852736
 40
0.2876435803
 40
0.3037936179
 40
0.3199304494
 40
0.3360492505
 40
0.3521453554
 40
0.3682143001
 40
0.3842518591
 40
0.4002540828
 40
0.4162173384
 40
0.4321383455
 40
0.4480142043
 40
0.4638424247
 40
0.4796209571
 40
0.4953482151
 40
0.5110230912
 40
0.5266449716
 40
0.5422137517
 40
0.5577298411
 40
0.5731941622
 40
0.5886081453
 40
0.6039737245
 40
0.6192933215
 40
0.6345698237
 40
0.6498065572
 40
0.6650072607
 40
0.6801760491
 40
0.6953173703
 40
0.7104359602
 40
0.7255367961
 40
0.7406250457
 40
0.7557060107
 40
0.7707850687
 40
0.7858676181
 40
0.8009590215
 40
0.8160645471
 40
0.831189311
 40
0.8463382243
 40
0.8615159445
 40
0.8767268265
 40
0.8919748772
 40
0.9072637212
 40
0.9225965434
 40
0.9379761247
 40
0.9534047641
 40
0.9688839755
 40
0.984415947
 40
1.0
 40
1.0
 40
1.0
 40
1.0
 10
11.7100421632
 20
9.0002430778
 30
0.0
 10
11.7100421632
 20
8.9918532257
 30
0.0
 10
11.7104555905
 20
8.9750418811
 30
0.0
 10
11.7123067085
 20
8.9498456191
 30
0.0
 10
11.7153857645
 20
8.9246848198
 30
0.0
 10
11.7196848989
 20
8.8996212704
 30
0.0
 10
11.7251939911
 20
8.8747147893
 30
0.0
 10
11.7318996077
 20
8.8500255047
 30
0.0
 10
11.7397855355
 20
8.8256128084
 30
0.0
 10
11.7488327856
 20
8.8015354696
 30
0.0
 10
11.7590195797
 20
8.7778514666
 30
0.0
 10
11.770321315
 20
8.7546177855
 30
0.0
 10
11.7827107426
 20
8.7318903359
 30
0.0
 10
11.7961580321
 20
8.7097238236
 30
0.0
 10
11.8106308392
 20
8.6881716281
 30
0.0
 10
11.8260942647
 20
8.6672855934
 30
0.0
 10
11.8425110632
 20
8.6471159756
 30
0.0
 10
11.8598417265
 20
8.6277113299
 30
0.0
 10
11.8780445725
 20
8.6091184008
 30
0.0
 10
11.897075745
 20
8.5913819092
 30
0.0
 10
11.9168894268
 20
8.5745445377
 30
0.0
 10
11.9374379432
 20
8.5586468352
 30
0.0
 10
11.9586718686
 20
8.5437271252
 30
0.0
 10
11.9805400658
 20
8.5298212953
 30
0.0
 10
12.0029898972
 20
8.5169628224
 30
0.0
 10
12.0259673429
 20
8.5051826979
 30
0.0
 10
12.0494171222
 20
8.4945093581
 30
0.0
 10
12.0732827697
 20
8.4849684829
 30
0.0
 10
12.0975068372
 20
8.4765830604
 30
0.0
 10
12.1220310222
 20
8.4693733368
 30
0.0
 10
12.1467962989
 20
8.4633567693
 30
0.0
 10
12.1717430287
 20
8.4585478423
 30
0.0
 10
12.1968111455
 20
8.4549581695
 30
0.0
 10
12.2219402892
 20
8.4525964688
 30
0.0
 10
12.2470699415
 20
8.4514685415
 30
0.0
 10
12.2721395676
 20
8.4515771101
 30
0.0
 10
12.2970887781
 20
8.4529219558
 30
0.0
 10
12.3218574616
 20
8.4554999195
 30
0.0
 10
12.3463859212
 20
8.4593049071
 30
0.0
 10
12.3706150439
 20
8.4643277553
 30
0.0
 10
12.394486431
 20
8.4705564008
 30
0.0
 10
12.4179425271
 20
8.4779759059
 30
0.0
 10
12.4409267507
 20
8.4865684913
 30
0.0
 10
12.4633836877
 20
8.4963134364
 30
0.0
 10
12.4852591835
 20
8.5071872726
 30
0.0
 10
12.5065004636
 20
8.5191638353
 30
0.0
 10
12.5270562541
 20
8.5322143217
 30
0.0
 10
12.5468769912
 20
8.5463072327
 30
0.0
 10
12.5659148709
 20
8.5614085825
 30
0.0
 10
12.5841239556
 20
8.5774819758
 30
0.0
 10
12.6014602793
 20
8.5944886884
 30
0.0
 10
12.617882064
 20
8.612387655
 30
0.0
 10
12.6333497231
 20
8.6311356862
 30
0.0
 10
12.64782595
 20
8.6506875666
 30
0.0
 10
12.6612758023
 20
8.6709961567
 30
0.0
 10
12.6736669151
 20
8.692012426
 30
0.0
 10
12.6849694575
 20
8.7136856673
 30
0.0
 10
12.6951561995
 20
8.7359636114
 30
0.0
 10
12.7042025755
 20
8.7587925456
 30
0.0
 10
12.7120868664
 20
8.7821173876
 30
0.0
 10
12.7187901589
 20
8.8058818879
 30
0.0
 10
12.7242963284
 20
8.8300287969
 30
0.0
 10
12.7285920433
 20
8.8544997449
 30
0.0
 10
12.7316673019
 20
8.8792362741
 30
0.0
 10
12.73351436
 20
8.9041775894
 30
0.0
 10
12.7339235998
 20
8.920875309
 30
0.0
 10
12.7339235998
 20
8.9292366591
 30
0.0
  0
SPLINE
  5
36B
100
AcDbEntity
  8
0
100
AcDbSpline
 62
7
  6
CONTINUOUS
 70
0
 71
3
 72
44
 73
40
 74
0
 42
0.0000001
 43
0.0000001
 44
0.0000000001
 40
0.0
 40
0.0
 40
0.0
 40
0.0
 40
0.0300771772
 40
0.0451567468
 40
0.0602639675
 40
0.0905617452
 40
0.1209818011
 40
0.136241349
 40
0.1515333273
 40
0.1668580883
 40
0.1822158673
 40
0.213027061
 40
0.2439699363
 40
0.2750417736
 40
0.3062379122
 40
0.3375518419
 40
0.3689753207
 40
0.4004985129
 40
0.4321101468
 40
0.4637976877
 40
0.4955475249
 40
0.5273451705
 40
0.5591754665
 40
0.5910227989
 40
0.6228713162
 40
0.6547051499
 40
0.6865086358
 40
0.7182665337
 40
0.7341254845
 40
0.7499676322
 40
0.7815913967
 40
0.8131285079
 40
0.8445675051
 40
0.875898295
 40
0.9071124935
 40
0.9382030429
 40
0.9537020995
 40
0.9691692742
 40
1.0
 40
1.0
 40
1.0
 40
1.0
 10
12.6839546472
 20
8.8674633012
 30
0.0
 10
12.6762265434
 20
8.8645801114
 30
0.0
 10
12.6644778389
 20
8.86062886
 30
0.0
 10
12.6485740455
 20
8.856126175
 30
0.0
 10
12.6324740057
 20
8.8521239162
 30
0.0
 10
12.6120605049
 20
8.848083774
 30
0.0
 10
12.5913896944
 20
8.845347829
 30
0.0
 10
12.5747256958
 20
8.8439412478
 30
0.0
 10
12.562159838
 20
8.8432783028
 30
0.0
 10
12.5495524547
 20
8.8430090342
 30
0.0
 10
12.5326868744
 20
8.843175588
 30
0.0
 10
12.5115586538
 20
8.8443718055
 30
0.0
 10
12.4862641025
 20
8.8473759724
 30
0.0
 10
12.4610961311
 20
8.8519386206
 30
0.0
 10
12.4361523563
 20
8.8580420548
 30
0.0
 10
12.4115286786
 20
8.865662632
 30
0.0
 10
12.3873199724
 20
8.8747708814
 30
0.0
 10
12.36361944
 20
8.8853316179
 30
0.0
 10
12.3405183335
 20
8.8973040803
 30
0.0
 10
12.3181055863
 20
8.9106420882
 30
0.0
 10
12.2964674795
 20
8.9252942198
 30
0.0
 10
12.2756873113
 20
8.9412040097
 30
0.0
 10
12.2558450816
 20
8.9583101619
 30
0.0
 10
12.237017178
 20
8.976546799
 30
0.0
 10
12.2192761163
 20
8.9958436582
 30
0.0
 10
12.2026901432
 20
9.0161265694
 30
0.0
 10
12.1873234241
 20
9.037316956
 30
0.0
 10
12.1755767521
 20
9.055674094
 30
0.0
 10
12.1668464394
 20
9.0707314622
 30
0.0
 10
12.1585776538
 20
9.086005303
 30
0.0
 10
12.1491039425
 20
9.1055052557
 30
0.0
 10
12.1391552567
 20
9.1294811035
 30
0.0
 10
12.1306703557
 20
9.1539287488
 30
0.0
 10
12.1236822311
 20
9.178753739
 30
0.0
 10
12.1182179791
 20
9.2038599793
 30
0.0
 10
12.1149483025
 20
9.2249594542
 30
0.0
 10
12.1131152766
 20
9.2418814345
 30
0.0
 10
12.1118072407
 20
9.2587800609
 30
0.0
 10
12.1114118478
 20
9.2714813742
 30
0.0
 10
12.1114118478
 20
9.279936445
 30
0.0
  0
SPLINE
  5
36C
100
AcDbEntity
  8
0
100
AcDbSpline
 62
7
  6
CONTINUOUS
 70
0
 71
3
 72
46
 73
42
 74
0
 42
0.0000001
 43
0.0000001
 44
0.0000000001
 40
0.0
 40
0.0
 40
0.0
 40
0.0
 40
0.0310740495
 40
0.0623053784
 40
0.0936893298
 40
0.1252171982
 40
0.1568776713
 40
0.1886565386
 40
0.2205372029
 40
0.2525009879
 40
0.2845275454
 40
0.3165952705
 40
0.3486817381
 40
0.3807641507
 40
0.4128197913
 40
0.4448264749
 40
0.4767629936
 40
0.5086095465
 40
0.5403481503
 40
0.5719630221
 40
0.6034409278
 40
0.6347714896
 40
0.6659474424
 40
0.6969648348
 40
0.7278231643
 40
0.7585254415
 40
0.7890781769
 40
0.8043042476
 40
0.8194969259
 40
0.8346579555
 40
0.8497892586
 40
0.8648929421
 40
0.8799712659
 40
0.8950266522
 40
0.9100616505
 40
0.9250789414
 40
0.9400813066
 40
0.9550716211
 40
0.9700528339
 40
0.9850279456
 40
1.0
 40
1.0
 40
1.0
 40
1.0
 10
11.7835268461
 20
9.0112238351
 30
0.0
 10
11.7835268461
 20
8.9999731038
 30
0.0
 10
11.7843661253
 20
8.9774060387
 30
0.0
 10
11.7881133226
 20
8.9436634682
 30
0.0
 10
11.7943308587
 20
8.9101190258
 30
0.0
 10
11.8029843751
 20
8.876959311
 30
0.0
 10
11.8140259331
 20
8.844365776
 30
0.0
 10
11.8273946785
 20
8.8125174783
 30
0.0
 10
11.8430169676
 20
8.7815891514
 30
0.0
 10
11.8608068663
 20
8.7517505181
 30
0.0
 10
11.8806665853
 20
8.7231652982
 30
0.0
 10
11.902487026
 20
8.6959903431
 30
0.0
 10
11.9261483708
 20
8.6703747783
 30
0.0
 10
11.9515207371
 20
8.6464591966
 30
0.0
 10
11.9784648796
 20
8.6243748916
 30
0.0
 10
12.0068329472
 20
8.6042431419
 30
0.0
 10
12.0364692879
 20
8.5861745545
 30
0.0
 10
12.0672112927
 20
8.5702684619
 30
0.0
 10
12.0988902762
 20
8.556612379
 30
0.0
 10
12.1313323891
 20
8.5452815238
 30
0.0
 10
12.1643595619
 20
8.536338403
 30
0.0
 10
12.1977904571
 20
8.5298324615
 30
0.0
 10
12.231441491
 20
8.5257998135
 30
0.0
 10
12.2651276791
 20
8.5242629923
 30
0.0
 10
12.2986641928
 20
8.5252309595
 30
0.0
 10
12.3318653197
 20
8.5286984874
 30
0.0
 10
12.3591375472
 20
8.5336624838
 30
0.0
 10
12.3805969909
 20
8.5388601555
 30
0.0
 10
12.396478604
 20
8.5433607316
 30
0.0
 10
12.4121414337
 20
8.5484615102
 30
0.0
 10
12.4275642259
 20
8.5541555441
 30
0.0
 10
12.4427257101
 20
8.5604349125
 30
0.0
 10
12.4576049796
 20
8.5672911388
 30
0.0
 10
12.4721816457
 20
8.5747145955
 30
0.0
 10
12.4864355267
 20
8.5826953149
 30
0.0
 10
12.5003471458
 20
8.5912220655
 30
0.0
 10
12.5138972069
 20
8.6002833766
 30
0.0
 10
12.527067195
 20
8.609866536
 30
0.0
 10
12.5398389097
 20
8.6199586164
 30
0.0
 10
12.5521946491
 20
8.6305453442
 30
0.0
 10
12.5601439553
 20
8.6379241369
 30
0.0
 10
12.5640429088
 20
8.6416902168
 30
0.0
  0
SPLINE
  5
36D
100
AcDbEntity
  8
0
100
AcDbSpline
 62
7
  6
CONTINUOUS
 70
0
 71
3
 72
28
 73
24
 74
0
 42
0.0000001
 43
0.0000001
 44
0.0000000001
 40
0.0
 40
0.0
 40
0.0
 40
0.0
 40
0.0637758941
 40
0.0955879065
 40
0.1273462157
 40
0.1907019646
 40
0.2538545302
 40
0.2853587825
 40
0.3168148204
 40
0.379582186
 40
0.4421719279
 40
0.504596336
 40
0.566869323
 40
0.6290062994
 40
0.6910240361
 40
0.7219962863
 40
0.7529455528
 40
0.8147797337
 40
0.8765514554
 40
0.9074228165
 40
0.9382862783
 40
0.9691444605
 40
1.0
 40
1.0
 40
1.0
 40
1.0
 10
7.7395321261
 20
6.8522098084
 30
0.0
 10
7.7395321261
 20
6.8657871776
 30
0.0
 10
7.7400200028
 20
6.8861415909
 30
0.0
 10
7.7416521661
 20
6.9132052911
 30
0.0
 10
7.7439323722
 20
6.9401328645
 30
0.0
 10
7.747998798
 20
6.9735944959
 30
0.0
 10
7.7536891431
 20
7.0067639403
 30
0.0
 10
7.7592046631
 20
7.0330421627
 30
0.0
 10
7.7653489799
 20
7.0590961877
 30
0.0
 10
7.7742175028
 20
7.0912964199
 30
0.0
 10
7.7867461
 20
7.1292768202
 30
0.0
 10
7.8011249651
 20
7.1664838505
 30
0.0
 10
7.8173209771
 20
7.2028312603
 30
0.0
 10
7.8352965418
 20
7.238234823
 30
0.0
 10
7.8517328916
 20
7.2668973692
 30
0.0
 10
7.8657264334
 20
7.2892695432
 30
0.0
 10
7.8802653166
 20
7.3112444374
 30
0.0
 10
7.8994690412
 20
7.3379813951
 30
0.0
 10
7.9200084577
 20
7.3636854653
 30
0.0
 10
7.937203168
 20
7.3835806568
 30
0.0
 10
7.950473531
 20
7.3981601868
 30
0.0
 10
7.9641118414
 20
7.4123910982
 30
0.0
 10
7.9734447126
 20
7.4216409067
 30
0.0
 10
7.9781694173
 20
7.4262046253
 30
0.0
  0
SPLINE
  5
36E
100
AcDbEntity
  8
0
100
AcDbSpline
 62
7
  6
CONTINUOUS
 70
0
 71
3
 72
43
 73
39
 74
0
 42
0.0000001
 43
0.0000001
 44
0.0000000001
 40
0.0
 40
0.0
 40
0.0
 40
0.0
 40
0.0307902025
 40
0.0617081277
 40
0.0927497852
 40
0.1239115816
 40
0.1551869822
 40
0.1708666191
 40
0.1865716649
 40
0.2180499181
 40
0.2496145429
 40
0.2654272443
 40
0.281257091
 40
0.3129585946
 40
0.3447087941
 40
0.3764936148
 40
0.4082985295
 40
0.4401087487
 40
0.471909414
 40
0.5036857907
 40
0.5354234609
 40
0.5671085132
 40
0.5987277288
 40
0.6302687601
 40
0.6617203007
 40
0.6930722447
 40
0.724315834
 40
0.7554437907
 40
0.7864504329
 40
0.8173317727
 40
0.8480855932
 40
0.8634162345
 40
0.8787150054
 40
0.909214464
 40
0.9395907867
 40
0.9547361222
 40
0.9698527487
 40
1.0
 40
1.0
 40
1.0
 40
1.0
 10
12.0578748075
 20
9.2762236321
 30
0.0
 10
12.0578748075
 20
9.2671114889
 30
0.0
 10
12.0584249821
 20
9.2488447696
 30
0.0
 10
12.0608854885
 20
9.2214912765
 30
0.0
 10
12.0649742491
 20
9.1942212464
 30
0.0
 10
12.0706759016
 20
9.1671351051
 30
0.0
 10
12.076749793
 20
9.1448145458
 30
0.0
 10
12.0823897219
 20
9.1271469089
 30
0.0
 10
12.0885561036
 20
9.1095923341
 30
0.0
 10
12.0972249966
 20
9.0879451605
 30
0.0
 10
12.107128557
 20
9.0667992818
 30
0.0
 10
12.1157771618
 20
9.0502105019
 30
0.0
 10
12.1249118886
 20
9.0338380041
 30
0.0
 10
12.1372097921
 20
9.0138404543
 30
0.0
 10
12.1533112204
 20
8.9906902169
 30
0.0
 10
12.1707068179
 20
8.9684566357
 30
0.0
 10
12.1893335411
 20
8.94722037
 30
0.0
 10
12.2091242846
 20
8.9270578658
 30
0.0
 10
12.2300076582
 20
8.908041874
 30
0.0
 10
12.2519083667
 20
8.8902409776
 30
0.0
 10
12.274747446
 20
8.873719405
 30
0.0
 10
12.2984425502
 20
8.8585367774
 30
0.0
 10
12.3229082419
 20
8.8447478922
 30
0.0
 10
12.3480563073
 20
8.8324025374
 30
0.0
 10
12.3737960702
 20
8.8215453109
 30
0.0
 10
12.4000347114
 20
8.8122154604
 30
0.0
 10
12.4266776189
 20
8.804446742
 30
0.0
 10
12.4536286513
 20
8.7982672963
 30
0.0
 10
12.4807907563
 20
8.7936995505
 30
0.0
 10
12.5080652945
 20
8.7907601141
 30
0.0
 10
12.5308318345
 20
8.7896753516
 30
0.0
 10
12.5490001083
 20
8.7896320256
 30
0.0
 10
12.5670861588
 20
8.7901360128
 30
0.0
 10
12.5895836265
 20
8.7917895553
 30
0.0
 10
12.6118928809
 20
8.7948112577
 30
0.0
 10
12.6295478913
 20
8.7980416393
 30
0.0
 10
12.6470274683
 20
8.8018029864
 30
0.0
 10
12.6599887727
 20
8.8052310795
 30
0.0
 10
12.6685382146
 20
8.807781911
 30
0.0
  0
SPLINE
  5
36F
100
AcDbEntity
  8
0
100
AcDbSpline
 62
7
  6
CONTINUOUS
 70
0
 71
3
 72
54
 73
50
 74
0
 42
0.0000001
 43
0.0000001
 44
0.0000000001
 40
0.0
 40
0.0
 40
0.0
 40
0.0
 40
0.0149714207
 40
0.0299459009
 40
0.0449264795
 40
0.0599161607
 40
0.0749178924
 40
0.0899345474
 40
0.1049689109
 40
0.1200236599
 40
0.135101347
 40
0.1502043904
 40
0.1653350555
 40
0.1804954423
 40
0.195687479
 40
0.210912906
 40
0.2261732683
 40
0.2414699124
 40
0.2568039734
 40
0.2721763729
 40
0.2875878193
 40
0.3030387972
 40
0.3185295728
 40
0.3340601946
 40
0.3496304877
 40
0.3652400644
 40
0.3808883259
 40
0.3965744612
 40
0.4122974619
 40
0.4280561242
 40
0.4438490534
 40
0.4596746808
 40
0.4914119437
 40
0.5232571513
 40
0.5551923202
 40
0.587197651
 40
0.6192519366
 40
0.651332993
 40
0.6834181045
 40
0.7154844744
 40
0.7475096792
 40
0.7794721147
 40
0.8113514322
 40
0.8431289588
 40
0.8747880885
 40
0.9063146442
 40
0.9376972366
 40
0.9689272309
 40
1.0
 40
1.0
 40
1.0
 40
1.0
 10
12.0987020404
 20
5.9593559788
 30
0.0
 10
12.091401892
 20
5.9523045703
 30
0.0
 10
12.0765180782
 20
5.9384889547
 30
0.0
 10
12.0533839642
 20
5.918666936
 30
0.0
 10
12.0294709088
 20
5.899771184
 30
0.0
 10
12.0048123061
 20
5.8818280926
 30
0.0
 10
11.9794418905
 20
5.8648623466
 30
0.0
 10
11.9533946794
 20
5.8488972246
 30
0.0
 10
11.9267065165
 20
5.8339546604
 30
0.0
 10
11.8994140746
 20
5.8200553208
 30
0.0
 10
11.8715549796
 20
5.807218194
 30
0.0
 10
11.8431675539
 20
5.795460951
 30
0.0
 10
11.8142908291
 20
5.7847998438
 30
0.0
 10
11.7849645923
 20
5.7752493847
 30
0.0
 10
11.7552291697
 20
5.7668227568
 30
0.0
 10
11.7251254639
 20
5.7595315863
 30
0.0
 10
11.6946949226
 20
5.7533857473
 30
0.0
 10
11.6639793855
 20
5.7483937706
 30
0.0
 10
11.6330211094
 20
5.7445625074
 30
0.0
 10
11.6018626891
 20
5.7418970883
 30
0.0
 10
11.5705469679
 20
5.7404012812
 30
0.0
 10
11.5391170223
 20
5.7400770784
 30
0.0
 10
11.5076160722
 20
5.740924818
 30
0.0
 10
11.4760874403
 20
5.7429434492
 30
0.0
 10
11.444574479
 20
5.7461300886
 30
0.0
 10
11.4131205093
 20
5.7504802874
 30
0.0
 10
11.3817687958
 20
5.7559881779
 30
0.0
 10
11.3505624339
 20
5.762646046
 30
0.0
 10
11.3195442862
 20
5.7704447316
 30
0.0
 10
11.2887571516
 20
5.7793735494
 30
0.0
 10
11.258242846
 20
5.7894202917
 30
0.0
 10
11.2179437766
 20
5.8043001121
 30
0.0
 10
11.1684629385
 20
5.8256298447
 30
0.0
 10
11.1109047008
 20
5.8554110315
 30
0.0
 10
11.055415
 20
5.8892416799
 30
0.0
 10
11.0023003842
 20
5.9269351369
 30
0.0
 10
10.9518517471
 20
5.9682845118
 30
0.0
 10
10.904346011
 20
6.0130626125
 30
0.0
 10
10.8600438614
 20
6.0610236516
 30
0.0
 10
10.8191885562
 20
6.1119044393
 30
0.0
 10
10.7820043721
 20
6.16542571
 30
0.0
 10
10.7486955681
 20
6.2212937842
 30
0.0
 10
10.7194453102
 20
6.2792021641
 30
0.0
 10
10.6944144796
 20
6.338833046
 30
0.0
 10
10.6737408772
 20
6.3998592592
 30
0.0
 10
10.6575385645
 20
6.4619455496
 30
0.0
 10
10.6458972355
 20
6.5247521711
 30
0.0
 10
10.638881207
 20
6.587929762
 30
0.0
 10
10.6373097766
 20
6.630183017
 30
0.0
 10
10.6373097766
 20
6.6512482457
 30
0.0
  0
SPLINE
  5
370
100
AcDbEntity
  8
0
100
AcDbSpline
 62
7
  6
CONTINUOUS
 70
0
 71
3
 72
18
 73
14
 74
0
 42
0.0000001
 43
0.0000001
 44
0.0000000001
 40
0.0
 40
0.0
 40
0.0
 40
0.0
 40
0.1480356372
 40
0.2876662502
 40
0.4195655771
 40
0.4828973127
 40
0.5446380375
 40
0.6638657774
 40
0.7785237916
 40
0.8345984481
 40
0.8900706527
 40
0.9451373023
 40
1.0
 40
1.0
 40
1.0
 40
1.0
 10
6.969882471
 20
10.6950074081
 30
0.0
 10
6.9689395888
 20
10.6940966538
 30
0.0
 10
6.967162635
 20
10.692268009
 30
0.0
 10
6.9647734012
 20
10.6894181595
 30
0.0
 10
6.963059653
 20
10.6869930143
 30
0.0
 10
6.9618794468
 20
10.6850464563
 30
0.0
 10
6.9608487308
 20
10.6831435845
 30
0.0
 10
6.9597776469
 20
10.6807491641
 30
0.0
 10
6.9589955587
 20
10.6782968759
 30
0.0
 10
6.9585614136
 20
10.6763402646
 30
0.0
 10
6.958330414
 20
10.6748820325
 30
0.0
 10
6.9581918073
 20
10.6734229967
 30
0.0
 10
6.9581609855
 20
10.6724492468
 30
0.0
 10
6.9581609904
 20
10.6719634153
 30
0.0
  0
SPLINE
  5
371
100
AcDbEntity
  8
0
100
AcDbSpline
 62
7
  6
CONTINUOUS
 70
0
 71
3
 72
44
 73
40
 74
0
 42
0.0000001
 43
0.0000001
 44
0.0000000001
 40
0.0
 40
0.0
 40
0.0
 40
0.0
 40
0.0300771772
 40
0.0451567468
 40
0.0602639675
 40
0.0905617452
 40
0.1209818011
 40
0.136241349
 40
0.1515333273
 40
0.1668580883
 40
0.1822158673
 40
0.213027061
 40
0.2439699363
 40
0.2750417736
 40
0.3062379122
 40
0.3375518419
 40
0.3689753207
 40
0.4004985129
 40
0.4321101468
 40
0.4637976877
 40
0.4955475249
 40
0.5273451705
 40
0.5591754665
 40
0.5910227989
 40
0.6228713162
 40
0.6547051499
 40
0.6865086358
 40
0.7182665337
 40
0.7341254845
 40
0.7499676322
 40
0.7815913967
 40
0.8131285079
 40
0.8445675051
 40
0.875898295
 40
0.9071124935
 40
0.9382030429
 40
0.9537020995
 40
0.9691692742
 40
1.0
 40
1.0
 40
1.0
 40
1.0
 10
11.9575785228
 20
6.5030229477
 30
0.0
 10
11.949850419
 20
6.5001397579
 30
0.0
 10
11.9381017145
 20
6.4961885065
 30
0.0
 10
11.9221979211
 20
6.4916858215
 30
0.0
 10
11.9060978813
 20
6.4876835627
 30
0.0
 10
11.8856843805
 20
6.4836434206
 30
0.0
 10
11.86501357
 20
6.4809074755
 30
0.0
 10
11.8483495714
 20
6.4795008943
 30
0.0
 10
11.8357837136
 20
6.4788379493
 30
0.0
 10
11.8231763303
 20
6.4785686807
 30
0.0
 10
11.80631075
 20
6.4787352345
 30
0.0
 10
11.7851825294
 20
6.479931452
 30
0.0
 10
11.7598879781
 20
6.4829356189
 30
0.0
 10
11.7347200067
 20
6.4874982671
 30
0.0
 10
11.7097762319
 20
6.4936017013
 30
0.0
 10
11.6851525543
 20
6.5012222785
 30
0.0
 10
11.660943848
 20
6.5103305279
 30
0.0
 10
11.6372433156
 20
6.5208912645
 30
0.0
 10
11.6141422092
 20
6.5328637268
 30
0.0
 10
11.5917294619
 20
6.5462017348
 30
0.0
 10
11.5700913551
 20
6.5608538663
 30
0.0
 10
11.549311187
 20
6.5767636562
 30
0.0
 10
11.5294689572
 20
6.5938698084
 30
0.0
 10
11.5106410536
 20
6.6121064455
 30
0.0
 10
11.4928999919
 20
6.6314033047
 30
0.0
 10
11.4763140189
 20
6.6516862159
 30
0.0
 10
11.4609472997
 20
6.6728766025
 30
0.0
 10
11.4492006277
 20
6.6912337405
 30
0.0
 10
11.4404703151
 20
6.7062911087
 30
0.0
 10
11.4322015294
 20
6.7215649495
 30
0.0
 10
11.4227278181
 20
6.7410649022
 30
0.0
 10
11.4127791323
 20
6.76504075
 30
0.0
 10
11.4042942313
 20
6.7894883954
 30
0.0
 10
11.3973061067
 20
6.8143133855
 30
0.0
 10
11.3918418547
 20
6.8394196258
 30
0.0
 10
11.3885721782
 20
6.8605191007
 30
0.0
 10
11.3867391522
 20
6.877441081
 30
0.0
 10
11.3854311163
 20
6.8943397074
 30
0.0
 10
11.3850357234
 20
6.9070410207
 30
0.0
 10
11.3850357234
 20
6.9154960915
 30
0.0
  0
SPLINE
  5
372
100
AcDbEntity
  8
0
100
AcDbSpline
 62
7
  6
CONTINUOUS
 70
0
 71
3
 72
18
 73
14
 74
0
 42
0.0000001
 43
0.0000001
 44
0.0000000001
 40
0.0
 40
0.0
 40
0.0
 40
0.0
 40
0.1480356372
 40
0.2876662502
 40
0.4195655771
 40
0.4828973127
 40
0.5446380375
 40
0.6638657774
 40
0.7785237916
 40
0.8345984481
 40
0.8900706527
 40
0.9451373023
 40
1.0
 40
1.0
 40
1.0
 40
1.0
 10
13.4918139541
 20
10.2427099235
 30
0.0
 10
13.4908710719
 20
10.2417991692
 30
0.0
 10
13.4890941181
 20
10.2399705244
 30
0.0
 10
13.4867048843
 20
10.237120675
 30
0.0
 10
13.4849911361
 20
10.2346955298
 30
0.0
 10
13.4838109299
 20
10.2327489718
 30
0.0
 10
13.4827802139
 20
10.2308460999
 30
0.0
 10
13.48170913
 20
10.2284516795
 30
0.0
 10
13.4809270418
 20
10.2259993914
 30
0.0
 10
13.4804928967
 20
10.22404278
 30
0.0
 10
13.4802618971
 20
10.222584548
 30
0.0
 10
13.4801232904
 20
10.2211255121
 30
0.0
 10
13.4800924686
 20
10.2201517622
 30
0.0
 10
13.4800924735
 20
10.2196659307
 30
0.0
  0
SPLINE
  5
373
100
AcDbEntity
  8
0
100
AcDbSpline
 62
7
  6
CONTINUOUS
 70
0
 71
3
 72
54
 73
50
 74
0
 42
0.0000001
 43
0.0000001
 44
0.0000000001
 40
0.0
 40
0.0
 40
0.0
 40
0.0
 40
0.0149714207
 40
0.0299459009
 40
0.0449264795
 40
0.0599161607
 40
0.0749178924
 40
0.0899345474
 40
0.1049689109
 40
0.1200236599
 40
0.135101347
 40
0.1502043904
 40
0.1653350555
 40
0.1804954423
 40
0.195687479
 40
0.210912906
 40
0.2261732683
 40
0.2414699124
 40
0.2568039734
 40
0.2721763729
 40
0.2875878193
 40
0.3030387972
 40
0.3185295728
 40
0.3340601946
 40
0.3496304877
 40
0.3652400644
 40
0.3808883259
 40
0.3965744612
 40
0.4122974619
 40
0.4280561242
 40
0.4438490534
 40
0.4596746808
 40
0.4914119437
 40
0.5232571513
 40
0.5551923202
 40
0.587197651
 40
0.6192519366
 40
0.651332993
 40
0.6834181045
 40
0.7154844744
 40
0.7475096792
 40
0.7794721147
 40
0.8113514322
 40
0.8431289588
 40
0.8747880885
 40
0.9063146442
 40
0.9376972366
 40
0.9689272309
 40
1.0
 40
1.0
 40
1.0
 40
1.0
 10
9.2009243898
 20
6.1603175414
 30
0.0
 10
9.1936242415
 20
6.153266133
 30
0.0
 10
9.1787404277
 20
6.1394505173
 30
0.0
 10
9.1556063136
 20
6.1196284987
 30
0.0
 10
9.1316932582
 20
6.1007327467
 30
0.0
 10
9.1070346555
 20
6.0827896552
 30
0.0
 10
9.0816642399
 20
6.0658239093
 30
0.0
 10
9.0556170288
 20
6.0498587873
 30
0.0
 10
9.028928866
 20
6.034916223
 30
0.0
 10
9.001636424
 20
6.0210168834
 30
0.0
 10
8.973777329
 20
6.0081797566
 30
0.0
 10
8.9453899034
 20
5.9964225136
 30
0.0
 10
8.9165131785
 20
5.9857614065
 30
0.0
 10
8.8871869418
 20
5.9762109473
 30
0.0
 10
8.8574515192
 20
5.9677843194
 30
0.0
 10
8.8273478134
 20
5.9604931489
 30
0.0
 10
8.796917272
 20
5.9543473099
 30
0.0
 10
8.7662017349
 20
5.9493553332
 30
0.0
 10
8.7352434589
 20
5.94552407
 30
0.0
 10
8.7040850385
 20
5.9428586509
 30
0.0
 10
8.6727693173
 20
5.9413628438
 30
0.0
 10
8.6413393717
 20
5.941038641
 30
0.0
 10
8.6098384217
 20
5.9418863807
 30
0.0
 10
8.5783097897
 20
5.9439050118
 30
0.0
 10
8.5467968285
 20
5.9470916513
 30
0.0
 10
8.5153428587
 20
5.95144185
 30
0.0
 10
8.4839911452
 20
5.9569497406
 30
0.0
 10
8.4527847833
 20
5.9636076086
 30
0.0
 10
8.4217666356
 20
5.9714062942
 30
0.0
 10
8.390979501
 20
5.980335112
 30
0.0
 10
8.3604651954
 20
5.9903818544
 30
0.0
 10
8.320166126
 20
6.0052616748
 30
0.0
 10
8.2706852879
 20
6.0265914074
 30
0.0
 10
8.2131270502
 20
6.0563725941
 30
0.0
 10
8.1576373494
 20
6.0902032425
 30
0.0
 10
8.1045227336
 20
6.1278966995
 30
0.0
 10
8.0540740966
 20
6.1692460744
 30
0.0
 10
8.0065683604
 20
6.2140241752
 30
0.0
 10
7.9622662108
 20
6.2619852142
 30
0.0
 10
7.9214109056
 20
6.3128660019
 30
0.0
 10
7.8842267215
 20
6.3663872726
 30
0.0
 10
7.8509179175
 20
6.4222553468
 30
0.0
 10
7.8216676597
 20
6.4801637267
 30
0.0
 10
7.796636829
 20
6.5397946086
 30
0.0
 10
7.7759632266
 20
6.6008208218
 30
0.0
 10
7.7597609139
 20
6.6629071122
 30
0.0
 10
7.7481195849
 20
6.7257137337
 30
0.0
 10
7.7411035565
 20
6.7888913246
 30
0.0
 10
7.7395321261
 20
6.8311445796
 30
0.0
 10
7.7395321261
 20
6.8522098084
 30
0.0
  0
SPLINE
  5
374
100
AcDbEntity
  8
0
100
AcDbSpline
 62
7
  6
CONTINUOUS
 70
0
 71
3
 72
44
 73
40
 74
0
 42
0.0000001
 43
0.0000001
 44
0.0000000001
 40
0.0
 40
0.0
 40
0.0
 40
0.0
 40
0.0300771772
 40
0.0451567468
 40
0.0602639675
 40
0.0905617452
 40
0.1209818011
 40
0.136241349
 40
0.1515333273
 40
0.1668580883
 40
0.1822158673
 40
0.213027061
 40
0.2439699363
 40
0.2750417736
 40
0.3062379122
 40
0.3375518419
 40
0.3689753207
 40
0.4004985129
 40
0.4321101468
 40
0.4637976877
 40
0.4955475249
 40
0.5273451705
 40
0.5591754665
 40
0.5910227989
 40
0.6228713162
 40
0.6547051499
 40
0.6865086358
 40
0.7182665337
 40
0.7341254845
 40
0.7499676322
 40
0.7815913967
 40
0.8131285079
 40
0.8445675051
 40
0.875898295
 40
0.9071124935
 40
0.9382030429
 40
0.9537020995
 40
0.9691692742
 40
1.0
 40
1.0
 40
1.0
 40
1.0
 10
9.0598008723
 20
6.7039845103
 30
0.0
 10
9.0520727684
 20
6.7011013205
 30
0.0
 10
9.0403240639
 20
6.6971500691
 30
0.0
 10
9.0244202705
 20
6.6926473841
 30
0.0
 10
9.0083202307
 20
6.6886451253
 30
0.0
 10
8.9879067299
 20
6.6846049832
 30
0.0
 10
8.9672359194
 20
6.6818690382
 30
0.0
 10
8.9505719208
 20
6.680462457
 30
0.0
 10
8.938006063
 20
6.6797995119
 30
0.0
 10
8.9253986797
 20
6.6795302434
 30
0.0
 10
8.9085330995
 20
6.6796967971
 30
0.0
 10
8.8874048789
 20
6.6808930146
 30
0.0
 10
8.8621103275
 20
6.6838971815
 30
0.0
 10
8.8369423561
 20
6.6884598297
 30
0.0
 10
8.8119985813
 20
6.6945632639
 30
0.0
 10
8.7873749037
 20
6.7021838411
 30
0.0
 10
8.7631661975
 20
6.7112920906
 30
0.0
 10
8.7394656651
 20
6.7218528271
 30
0.0
 10
8.7163645586
 20
6.7338252895
 30
0.0
 10
8.6939518113
 20
6.7471632974
 30
0.0
 10
8.6723137046
 20
6.7618154289
 30
0.0
 10
8.6515335364
 20
6.7777252188
 30
0.0
 10
8.6316913067
 20
6.794831371
 30
0.0
 10
8.612863403
 20
6.8130680081
 30
0.0
 10
8.5951223413
 20
6.8323648673
 30
0.0
 10
8.5785363683
 20
6.8526477785
 30
0.0
 10
8.5631696491
 20
6.8738381651
 30
0.0
 10
8.5514229771
 20
6.8921953031
 30
0.0
 10
8.5426926645
 20
6.9072526713
 30
0.0
 10
8.5344238788
 20
6.9225265121
 30
0.0
 10
8.5249501676
 20
6.9420264649
 30
0.0
 10
8.5150014817
 20
6.9660023126
 30
0.0
 10
8.5065165807
 20
6.990449958
 30
0.0
 10
8.4995284561
 20
7.0152749482
 30
0.0
 10
8.4940642041
 20
7.0403811885
 30
0.0
 10
8.4907945276
 20
7.0614806633
 30
0.0
 10
8.4889615016
 20
7.0784026436
 30
0.0
 10
8.4876534657
 20
7.09530127
 30
0.0
 10
8.4872580729
 20
7.1080025833
 30
0.0
 10
8.4872580729
 20
7.1164576542
 30
0.0
  0
SPLINE
  5
375
100
AcDbEntity
  8
0
100
AcDbSpline
 62
7
  6
CONTINUOUS
 70
0
 71
3
 72
39
 73
35
 74
0
 42
0.0000001
 43
0.0000001
 44
0.0000000001
 40
0.0
 40
0.0
 40
0.0
 40
0.0
 40
0.0322743283
 40
0.0644671078
 40
0.0965434017
 40
0.1284711899
 40
0.1602244108
 40
0.1917831014
 40
0.2231345502
 40
0.2542738168
 40
0.285204103
 40
0.3159367853
 40
0.346491125
 40
0.376893631
 40
0.407177084
 40
0.4373792492
 40
0.4675413296
 40
0.4977062336
 40
0.5279167493
 40
0.5582137251
 40
0.5886343568
 40
0.6192106713
 40
0.6499682774
 40
0.6809254336
 40
0.7120924559
 40
0.7434714713
 40
0.7750564984
 40
0.8068338309
 40
0.8387826774
 40
0.870876057
 40
0.9030817571
 40
0.9353638376
 40
0.9676830369
 40
1.0
 40
1.0
 40
1.0
 40
1.0
 10
6.9291303729
 20
9.97068072
 30
0.0
 10
6.9266139353
 20
9.9738542092
 30
0.0
 10
6.9218750229
 20
9.9804275581
 30
0.0
 10
6.9157151516
 20
9.9908790379
 30
0.0
 10
6.9105660093
 20
10.0018170599
 30
0.0
 10
6.9064781364
 20
10.0131357177
 30
0.0
 10
6.9034908188
 20
10.0247265881
 30
0.0
 10
6.9016331805
 20
10.0364783106
 30
0.0
 10
6.9009234463
 20
10.0482779523
 30
0.0
 10
6.9013688867
 20
10.0600119978
 30
0.0
 10
6.9029656682
 20
10.0715674374
 30
0.0
 10
6.9056988661
 20
10.0828328396
 30
0.0
 10
6.9095425575
 20
10.0936994277
 30
0.0
 10
6.9144600261
 20
10.104062145
 30
0.0
 10
6.9204040768
 20
10.1138207017
 30
0.0
 10
6.9273174632
 20
10.1228805901
 30
0.0
 10
6.9351334326
 20
10.1311540532
 30
0.0
 10
6.9437763843
 20
10.1385609874
 30
0.0
 10
6.9531626335
 20
10.1450297635
 30
0.0
 10
6.963201268
 20
10.1504979506
 30
0.0
 10
6.9737950853
 20
10.1549129258
 30
0.0
 10
6.9848415846
 20
10.1582323698
 30
0.0
 10
6.9962340016
 20
10.1604246441
 30
0.0
 10
7.0078623679
 20
10.1614690542
 30
0.0
 10
7.0196145843
 20
10.1613560021
 30
0.0
 10
7.031377499
 20
10.1600870331
 30
0.0
 10
7.0430379827
 20
10.1576747836
 30
0.0
 10
7.0544839952
 20
10.1541428246
 30
0.0
 10
7.0656056357
 20
10.1495254303
 30
0.0
 10
7.0762961777
 20
10.1438671868
 30
0.0
 10
7.086453029
 20
10.1372227161
 30
0.0
 10
7.09597891
 20
10.1296556435
 30
0.0
 10
7.1047816946
 20
10.1212397705
 30
0.0
 10
7.1101162626
 20
10.1151117658
 30
0.0
 10
7.1126360245
 20
10.1119340844
 30
0.0
  0
SPLINE
  5
376
100
AcDbEntity
  8
0
100
AcDbSpline
 62
7
  6
CONTINUOUS
 70
0
 71
3
 72
57
 73
53
 74
0
 42
0.0000001
 43
0.0000001
 44
0.0000000001
 40
0.0
 40
0.0
 40
0.0
 40
0.0
 40
0.0310641337
 40
0.0622845305
 40
0.0779546774
 40
0.0936617568
 40
0.1251771505
 40
0.156824606
 40
0.1885901819
 40
0.2204575434
 40
0.2524083141
 40
0.2844224549
 40
0.3164786733
 40
0.3485548485
 40
0.3806284681
 40
0.4126770697
 40
0.4446786825
 40
0.4766122612
 40
0.4925497375
 40
0.5084629572
 40
0.5243497373
 40
0.5402080238
 40
0.5560359118
 40
0.5718316485
 40
0.5875936442
 40
0.6033204876
 40
0.6190109446
 40
0.634663973
 40
0.6502787297
 40
0.6658545685
 40
0.681391056
 40
0.6968879684
 40
0.7123452932
 40
0.7277632393
 40
0.7431422276
 40
0.7584828952
 40
0.7737860964
 40
0.7890528914
 40
0.8042845492
 40
0.8194825407
 40
0.8346485254
 40
0.8497843524
 40
0.8648920448
 40
0.8799737881
 40
0.8950319243
 40
0.9100689324
 40
0.9250874165
 40
0.9400900941
 40
0.9550797742
 40
0.9700593448
 40
0.9850317565
 40
1.0
 40
1.0
 40
1.0
 40
1.0
 10
10.6455919796
 20
6.65924824
 30
0.0
 10
10.6455919796
 20
6.6383076944
 30
0.0
 10
10.6471446242
 20
6.596306328
 30
0.0
 10
10.6529163939
 20
6.5440265185
 30
0.0
 10
10.659810356
 20
6.5023877533
 30
0.0
 10
10.6682361604
 20
6.4608291011
 30
0.0
 10
10.681596802
 20
6.409317782
 30
0.0
 10
10.7020310674
 20
6.3486213195
 30
0.0
 10
10.7267752341
 20
6.2892923493
 30
0.0
 10
10.7556942537
 20
6.2316547015
 30
0.0
 10
10.7886310584
 20
6.176020401
 30
0.0
 10
10.8254066948
 20
6.1226912777
 30
0.0
 10
10.8658214551
 20
6.0719564463
 30
0.0
 10
10.9096560646
 20
6.0240910377
 30
0.0
 10
10.9566726434
 20
5.9793547865
 30
0.0
 10
11.0066166503
 20
5.9379901058
 30
0.0
 10
11.05921539
 20
5.9002224309
 30
0.0
 10
11.1050596323
 20
5.871895171
 30
0.0
 10
11.1427738017
 20
5.8512303743
 30
0.0
 10
11.171523588
 20
5.8367578394
 30
0.0
 10
11.2007135295
 20
5.8233229928
 30
0.0
 10
11.2303044356
 20
5.8109439163
 30
0.0
 10
11.260255935
 20
5.7996373624
 30
0.0
 10
11.2905274188
 20
5.7894188009
 30
0.0
 10
11.321077751
 20
5.7803021349
 30
0.0
 10
11.3518654011
 20
5.7722996518
 30
0.0
 10
11.3828485855
 20
5.7654224046
 30
0.0
 10
11.413985184
 20
5.7596796568
 30
0.0
 10
11.4452328928
 20
5.7550791985
 30
0.0
 10
11.4765492749
 20
5.7516274529
 30
0.0
 10
11.5078917577
 20
5.7493289684
 30
0.0
 10
11.5392177622
 20
5.748186959
 30
0.0
 10
11.570484716
 20
5.7482030724
 30
0.0
 10
11.601650128
 20
5.749377151
 30
0.0
 10
11.632671639
 20
5.7517077682
 30
0.0
 10
11.6635070816
 20
5.7551917453
 30
0.0
 10
11.6941145572
 20
5.7598242731
 30
0.0
 10
11.7244524321
 20
5.7655992512
 30
0.0
 10
11.7544794825
 20
5.772508723
 30
0.0
 10
11.7841548916
 20
5.7805433179
 30
0.0
 10
11.8134382712
 20
5.7896922662
 30
0.0
 10
11.8422898539
 20
5.7999429833
 30
0.0
 10
11.8706703794
 20
5.8112816453
 30
0.0
 10
11.8985412312
 20
5.8236928909
 30
0.0
 10
11.9258645691
 20
5.8371597249
 30
0.0
 10
11.9526031632
 20
5.8516639983
 30
0.0
 10
11.9787206717
 20
5.8671859358
 30
0.0
 10
12.0041816238
 20
5.8837043881
 30
0.0
 10
12.0289512608
 20
5.901197015
 30
0.0
 10
12.0529960988
 20
5.9196400216
 30
0.0
 10
12.0762829731
 20
5.9390079293
 30
0.0
 10
12.0912832757
 20
5.9525210097
 30
0.0
 10
12.0986452038
 20
5.959421304
 30
0.0
  0
SPLINE
  5
377
100
AcDbEntity
  8
0
100
AcDbSpline
 62
7
  6
CONTINUOUS
 70
0
 71
3
 72
26
 73
22
 74
0
 42
0.0000001
 43
0.0000001
 44
0.0000000001
 40
0.0
 40
0.0
 40
0.0
 40
0.0
 40
0.0637632661
 40
0.1273205661
 40
0.190671333
 40
0.2538224833
 40
0.2853271227
 40
0.3167842484
 40
0.3795558683
 40
0.4421519345
 40
0.5045840823
 40
0.5668655194
 40
0.6290108777
 40
0.6910360998
 40
0.7220113907
 40
0.7529631527
 40
0.8148004164
 40
0.8765716938
 40
0.9074411441
 40
0.9383014821
 40
1.0
 40
1.0
 40
1.0
 40
1.0
 10
10.6455919796
 20
6.65924824
 30
0.0
 10
10.6455919796
 20
6.6725782177
 30
0.0
 10
10.6462183732
 20
6.6991994461
 30
0.0
 10
10.6490455912
 20
6.7389741619
 30
0.0
 10
10.6537529848
 20
6.778442126
 30
0.0
 10
10.6592383076
 20
6.8110294981
 30
0.0
 10
10.6645556413
 20
6.8368544398
 30
0.0
 10
10.6704795909
 20
6.8624655545
 30
0.0
 10
10.6790309614
 20
6.894130188
 30
0.0
 10
10.6911133738
 20
6.9315012963
 30
0.0
 10
10.7049828654
 20
6.9681376852
 30
0.0
 10
10.7206086365
 20
7.0039575074
 30
0.0
 10
10.7379557446
 20
7.0388807591
 30
0.0
 10
10.7538220658
 20
7.0671857141
 30
0.0
 10
10.7673337226
 20
7.089299656
 30
0.0
 10
10.7813740303
 20
7.1110350672
 30
0.0
 10
10.7999237882
 20
7.1375090792
 30
0.0
 10
10.8197717198
 20
7.1630025057
 30
0.0
 10
10.8363932321
 20
7.182762199
 30
0.0
 10
10.8534973716
 20
7.2020845657
 30
0.0
 10
10.8668695863
 20
7.2160852356
 30
0.0
 10
10.8760110779
 20
7.2251846937
 30
0.0
  0
SPLINE
  5
378
100
AcDbEntity
  8
0
100
AcDbSpline
 62
7
  6
CONTINUOUS
 70
0
 71
3
 72
71
 73
67
 74
0
 42
0.0000001
 43
0.0000001
 44
0.0000000001
 40
0.0
 40
0.0
 40
0.0
 40
0.0
 40
0.015584053
 40
0.0311160245
 40
0.0465952359
 40
0.0620238753
 40
0.0774034566
 40
0.0927362788
 40
0.1080251228
 40
0.1232731735
 40
0.1384840555
 40
0.1536617757
 40
0.168810689
 40
0.1839354529
 40
0.1990409785
 40
0.2141323819
 40
0.2292149313
 40
0.2442939893
 40
0.2593749543
 40
0.2744632039
 40
0.2895640398
 40
0.3046826297
 40
0.3198239509
 40
0.3349927393
 40
0.3501934428
 40
0.3654301763
 40
0.3807066785
 40
0.3960262755
 40
0.4113918547
 40
0.4268058378
 40
0.4422701589
 40
0.4577862483
 40
0.4733550284
 40
0.4889769088
 40
0.5046517849
 40
0.5203790429
 40
0.5361575753
 40
0.5519857957
 40
0.5678616545
 40
0.5837826616
 40
0.5997459172
 40
0.6157481409
 40
0.6317856999
 40
0.6478546446
 40
0.6639507495
 40
0.6800695506
 40
0.6962063821
 40
0.7123564197
 40
0.7285147264
 40
0.7446762932
 40
0.7608360806
 40
0.7769890646
 40
0.7931302829
 40
0.8092548751
 40
0.8253581239
 40
0.8414355002
 40
0.8574827052
 40
0.8734957057
 40
0.8894707703
 40
0.9054045154
 40
0.9212939103
 40
0.9371363704
 40
0.9529297322
 40
0.9686719981
 40
0.9843628241
 40
1.0
 40
1.0
 40
1.0
 40
1.0
 10
10.9836660389
 20
6.6358027244
 30
0.0
 10
10.9836660389
 20
6.6441640744
 30
0.0
 10
10.9840752786
 20
6.660861794
 30
0.0
 10
10.9859223368
 20
6.6858031093
 30
0.0
 10
10.9889975953
 20
6.7105396385
 30
0.0
 10
10.9932933102
 20
6.7350105866
 30
0.0
 10
10.9987994797
 20
6.7591574955
 30
0.0
 10
11.0055027722
 20
6.7829219958
 30
0.0
 10
11.0133870632
 20
6.8062468378
 30
0.0
 10
11.0224334391
 20
6.829075772
 30
0.0
 10
11.0326201811
 20
6.8513537161
 30
0.0
 10
11.0439227235
 20
6.8730269574
 30
0.0
 10
11.0563138364
 20
6.8940432267
 30
0.0
 10
11.0697636886
 20
6.9143518168
 30
0.0
 10
11.0842399155
 20
6.9339036972
 30
0.0
 10
11.0997075746
 20
6.9526517284
 30
0.0
 10
11.1161293593
 20
6.970550695
 30
0.0
 10
11.133465683
 20
6.9875574076
 30
0.0
 10
11.1516747677
 20
7.0036308009
 30
0.0
 10
11.1707126474
 20
7.0187321507
 30
0.0
 10
11.1905333845
 20
7.0328250617
 30
0.0
 10
11.211089175
 20
7.0458755482
 30
0.0
 10
11.2323304551
 20
7.0578521109
 30
0.0
 10
11.2542059509
 20
7.068725947
 30
0.0
 10
11.2766628879
 20
7.0784708921
 30
0.0
 10
11.2996471115
 20
7.0870634775
 30
0.0
 10
11.3231032076
 20
7.0944829826
 30
0.0
 10
11.3469745947
 20
7.1007116281
 30
0.0
 10
11.3712037175
 20
7.1057344764
 30
0.0
 10
11.395732177
 20
7.1095394639
 30
0.0
 10
11.4205008605
 20
7.1121174276
 30
0.0
 10
11.445450071
 20
7.1134622733
 30
0.0
 10
11.4705196972
 20
7.1135708419
 30
0.0
 10
11.4956493494
 20
7.1124429146
 30
0.0
 10
11.5207784931
 20
7.1100812139
 30
0.0
 10
11.54584661
 20
7.1064915411
 30
0.0
 10
11.5707933397
 20
7.1016826141
 30
0.0
 10
11.5955586164
 20
7.0956660466
 30
0.0
 10
11.6200828014
 20
7.088456323
 30
0.0
 10
11.644306869
 20
7.0800709005
 30
0.0
 10
11.6681725164
 20
7.0705300253
 30
0.0
 10
11.6916222958
 20
7.0598566855
 30
0.0
 10
11.7145997414
 20
7.048076561
 30
0.0
 10
11.7370495728
 20
7.0352180881
 30
0.0
 10
11.75891777
 20
7.0213122582
 30
0.0
 10
11.7801516955
 20
7.0063925482
 30
0.0
 10
11.8007002118
 20
6.9904948457
 30
0.0
 10
11.8205138937
 20
6.9736574742
 30
0.0
 10
11.8395450662
 20
6.9559209826
 30
0.0
 10
11.8577479121
 20
6.9373280535
 30
0.0
 10
11.8750785755
 20
6.9179234078
 30
0.0
 10
11.8914953739
 20
6.89775379
 30
0.0
 10
11.9069587995
 20
6.8768677554
 30
0.0
 10
11.9214316065
 20
6.8553155598
 30
0.0
 10
11.9348788961
 20
6.8331490475
 30
0.0
 10
11.9472683237
 20
6.8104215979
 30
0.0
 10
11.958570059
 20
6.7871879168
 30
0.0
 10
11.968756853
 20
6.7635039139
 30
0.0
 10
11.9778041031
 20
6.739426575
 30
0.0
 10
11.985690031
 20
6.7150138787
 30
0.0
 10
11.9923956475
 20
6.6903245941
 30
0.0
 10
11.9979047397
 20
6.665418113
 30
0.0
 10
12.0022038741
 20
6.6403545637
 30
0.0
 10
12.0052829301
 20
6.6151937644
 30
0.0
 10
12.0071340481
 20
6.5899975024
 30
0.0
 10
12.0075474754
 20
6.5731861577
 30
0.0
 10
12.0075474754
 20
6.5647963056
 30
0.0
  0
SPLINE
  5
379
100
AcDbEntity
  8
0
100
AcDbSpline
 62
7
  6
CONTINUOUS
 70
0
 71
3
 72
23
 73
19
 74
0
 42
0.0000001
 43
0.0000001
 44
0.0000000001
 40
0.0
 40
0.0
 40
0.0
 40
0.0
 40
0.0637762145
 40
0.1273451869
 40
0.1907020141
 40
0.2538560333
 40
0.3168132367
 40
0.379582082
 40
0.4421733861
 40
0.5045993417
 40
0.566873863
 40
0.6290123825
 40
0.6910316544
 40
0.7529496448
 40
0.8147853545
 40
0.8765586074
 40
0.9382898575
 40
1.0
 40
1.0
 40
1.0
 40
1.0
 10
11.0571507218
 20
6.6467834816
 30
0.0
 10
11.0571507218
 20
6.6540348957
 30
0.0
 10
11.0574978531
 20
6.6685166159
 30
0.0
 10
11.059064366
 20
6.6901510598
 30
0.0
 10
11.0616727293
 20
6.7116140869
 30
0.0
 10
11.0653166712
 20
6.7328551174
 30
0.0
 10
11.069987986
 20
6.7538257283
 30
0.0
 10
11.0756758902
 20
6.7744774414
 30
0.0
 10
11.0823673275
 20
6.7947626446
 30
0.0
 10
11.0900469901
 20
6.8146345497
 30
0.0
 10
11.0986971148
 20
6.8340473545
 30
0.0
 10
11.1082978037
 20
6.8529562869
 30
0.0
 10
11.118827035
 20
6.8713176775
 30
0.0
 10
11.1302604916
 20
6.889089212
 30
0.0
 10
11.1425717638
 20
6.9062298762
 30
0.0
 10
11.155732681
 20
6.9227002149
 30
0.0
 10
11.169712379
 20
6.9384617026
 30
0.0
 10
11.179558327
 20
6.9484744678
 30
0.0
 10
11.1846049896
 20
6.9533491437
 30
0.0
  0
SPLINE
  5
37A
100
AcDbEntity
  8
0
100
AcDbSpline
 62
7
  6
CONTINUOUS
 70
0
 71
3
 72
15
 73
11
 74
0
 42
0.0000001
 43
0.0000001
 44
0.0000000001
 40
0.0
 40
0.0
 40
0.0
 40
0.0
 40
0.1263846937
 40
0.2523604924
 40
0.377917448
 40
0.5030739692
 40
0.6278418353
 40
0.752237549
 40
0.8762823096
 40
1.0
 40
1.0
 40
1.0
 40
1.0
 10
11.3850357234
 20
6.9154960915
 30
0.0
 10
11.3850357234
 20
6.9219805682
 30
0.0
 10
11.3853448861
 20
6.9349307199
 30
0.0
 10
11.3867400367
 20
6.9542776387
 30
0.0
 10
11.3890630927
 20
6.9734722476
 30
0.0
 10
11.3923085209
 20
6.9924696821
 30
0.0
 10
11.3964690438
 20
7.0112269494
 30
0.0
 10
11.4015352082
 20
7.0297011955
 30
0.0
 10
11.4074952318
 20
7.0478495891
 30
0.0
 10
11.412061786
 20
7.0597198428
 30
0.0
 10
11.4144890028
 20
7.0655850918
 30
0.0
  0
SPLINE
  5
37B
100
AcDbEntity
  8
0
100
AcDbSpline
 62
7
  6
CONTINUOUS
 70
0
 71
3
 72
14
 73
10
 74
0
 42
0.0000001
 43
0.0000001
 44
0.0000000001
 40
0.0
 40
0.0
 40
0.0
 40
0.0
 40
0.251962426
 40
0.3774501598
 40
0.5025983895
 40
0.6274178217
 40
0.7519161965
 40
0.8761054267
 40
1.0
 40
1.0
 40
1.0
 40
1.0
 10
11.3314986832
 20
6.9117832786
 30
0.0
 10
11.3314986832
 20
6.92378299
 30
0.0
 10
11.3322124285
 20
6.9417702793
 30
0.0
 10
11.3346039583
 20
6.9655911758
 30
0.0
 10
11.3371084026
 20
6.9833013539
 30
0.0
 10
11.3403217675
 20
7.0008483046
 30
0.0
 10
11.3442393102
 20
7.0182050322
 30
0.0
 10
11.3488544561
 20
7.0353434933
 30
0.0
 10
11.3523959846
 20
7.0466193932
 30
0.0
 10
11.3542804392
 20
7.052210859
 30
0.0
  0
SPLINE
  5
37C
100
AcDbEntity
  8
0
100
AcDbSpline
 62
7
  6
CONTINUOUS
 70
0
 71
3
 72
71
 73
67
 74
0
 42
0.0000001
 43
0.0000001
 44
0.0000000001
 40
0.0
 40
0.0
 40
0.0
 40
0.0
 40
0.0156371759
 40
0.0313280019
 40
0.0470702678
 40
0.0628636296
 40
0.0787060897
 40
0.0945954846
 40
0.1105292297
 40
0.1265042943
 40
0.1425172948
 40
0.1585644998
 40
0.1746418761
 40
0.1907451249
 40
0.2068697171
 40
0.2230109354
 40
0.2391639194
 40
0.2553237068
 40
0.2714852736
 40
0.2876435803
 40
0.3037936179
 40
0.3199304494
 40
0.3360492505
 40
0.3521453554
 40
0.3682143001
 40
0.3842518591
 40
0.4002540828
 40
0.4162173384
 40
0.4321383455
 40
0.4480142043
 40
0.4638424247
 40
0.4796209571
 40
0.4953482151
 40
0.5110230912
 40
0.5266449716
 40
0.5422137517
 40
0.5577298411
 40
0.5731941622
 40
0.5886081453
 40
0.6039737245
 40
0.6192933215
 40
0.6345698237
 40
0.6498065572
 40
0.6650072607
 40
0.6801760491
 40
0.6953173703
 40
0.7104359602
 40
0.7255367961
 40
0.7406250457
 40
0.7557060107
 40
0.7707850687
 40
0.7858676181
 40
0.8009590215
 40
0.8160645471
 40
0.831189311
 40
0.8463382243
 40
0.8615159445
 40
0.8767268265
 40
0.8919748772
 40
0.9072637212
 40
0.9225965434
 40
0.9379761247
 40
0.9534047641
 40
0.9688839755
 40
0.984415947
 40
1.0
 40
1.0
 40
1.0
 40
1.0
 10
8.8122645127
 20
9.2012046405
 30
0.0
 10
8.8122645127
 20
9.1928147883
 30
0.0
 10
8.81267794
 20
9.1760034437
 30
0.0
 10
8.8145290579
 20
9.1508071817
 30
0.0
 10
8.817608114
 20
9.1256463824
 30
0.0
 10
8.8219072483
 20
9.100582833
 30
0.0
 10
8.8274163406
 20
9.075676352
 30
0.0
 10
8.8341219571
 20
9.0509870674
 30
0.0
 10
8.842007885
 20
9.026574371
 30
0.0
 10
8.851055135
 20
9.0024970322
 30
0.0
 10
8.8612419291
 20
8.9788130292
 30
0.0
 10
8.8725436644
 20
8.9555793481
 30
0.0
 10
8.884933092
 20
8.9328518986
 30
0.0
 10
8.8983803816
 20
8.9106853862
 30
0.0
 10
8.9128531886
 20
8.8891331907
 30
0.0
 10
8.9283166142
 20
8.868247156
 30
0.0
 10
8.9447334126
 20
8.8480775383
 30
0.0
 10
8.9620640759
 20
8.8286728925
 30
0.0
 10
8.9802669219
 20
8.8100799634
 30
0.0
 10
8.9992980944
 20
8.7923434718
 30
0.0
 10
9.0191117763
 20
8.7755061003
 30
0.0
 10
9.0396602926
 20
8.7596083979
 30
0.0
 10
9.060894218
 20
8.7446886879
 30
0.0
 10
9.0827624153
 20
8.730782858
 30
0.0
 10
9.1052122467
 20
8.717924385
 30
0.0
 10
9.1281896923
 20
8.7061442606
 30
0.0
 10
9.1516394716
 20
8.6954709207
 30
0.0
 10
9.1755051191
 20
8.6859300455
 30
0.0
 10
9.1997291867
 20
8.6775446231
 30
0.0
 10
9.2242533716
 20
8.6703348994
 30
0.0
 10
9.2490186483
 20
8.664318332
 30
0.0
 10
9.2739653781
 20
8.659509405
 30
0.0
 10
9.299033495
 20
8.6559197322
 30
0.0
 10
9.3241626386
 20
8.6535580314
 30
0.0
 10
9.3492922909
 20
8.6524301041
 30
0.0
 10
9.3743619171
 20
8.6525386727
 30
0.0
 10
9.3993111275
 20
8.6538835185
 30
0.0
 10
9.4240798111
 20
8.6564614821
 30
0.0
 10
9.4486082706
 20
8.6602664697
 30
0.0
 10
9.4728373933
 20
8.665289318
 30
0.0
 10
9.4967087804
 20
8.6715179634
 30
0.0
 10
9.5201648765
 20
8.6789374685
 30
0.0
 10
9.5431491002
 20
8.687530054
 30
0.0
 10
9.5656060372
 20
8.6972749991
 30
0.0
 10
9.5874815329
 20
8.7081488352
 30
0.0
 10
9.6087228131
 20
8.7201253979
 30
0.0
 10
9.6292786035
 20
8.7331758843
 30
0.0
 10
9.6490993407
 20
8.7472687953
 30
0.0
 10
9.6681372203
 20
8.7623701452
 30
0.0
 10
9.6863463051
 20
8.7784435385
 30
0.0
 10
9.7036826288
 20
8.795450251
 30
0.0
 10
9.7201044134
 20
8.8133492176
 30
0.0
 10
9.7355720726
 20
8.8320972488
 30
0.0
 10
9.7500482995
 20
8.8516491293
 30
0.0
 10
9.7634981517
 20
8.8719577193
 30
0.0
 10
9.7758892645
 20
8.8929739886
 30
0.0
 10
9.787191807
 20
8.9146472299
 30
0.0
 10
9.797378549
 20
8.936925174
 30
0.0
 10
9.8064249249
 20
8.9597541083
 30
0.0
 10
9.8143092159
 20
8.9830789502
 30
0.0
 10
9.8210125083
 20
9.0068434506
 30
0.0
 10
9.8265186778
 20
9.0309903595
 30
0.0
 10
9.8308143928
 20
9.0554613075
 30
0.0
 10
9.8338896513
 20
9.0801978367
 30
0.0
 10
9.8357367094
 20
9.105139152
 30
0.0
 10
9.8361459492
 20
9.1218368717
 30
0.0
 10
9.8361459492
 20
9.1301982217
 30
0.0
  0
SPLINE
  5
37D
100
AcDbEntity
  8
0
100
AcDbSpline
 62
7
  6
CONTINUOUS
 70
0
 71
3
 72
28
 73
24
 74
0
 42
0.0000001
 43
0.0000001
 44
0.0000000001
 40
0.0
 40
0.0
 40
0.0
 40
0.0
 40
0.0637758941
 40
0.0955879065
 40
0.1273462157
 40
0.1907019646
 40
0.2538545302
 40
0.2853587825
 40
0.3168148204
 40
0.379582186
 40
0.4421719279
 40
0.504596336
 40
0.566869323
 40
0.6290062994
 40
0.6910240361
 40
0.7219962863
 40
0.7529455528
 40
0.8147797337
 40
0.8765514554
 40
0.9074228165
 40
0.9382862783
 40
0.9691444605
 40
1.0
 40
1.0
 40
1.0
 40
1.0
 10
10.6373097766
 20
6.6512482457
 30
0.0
 10
10.6373097766
 20
6.664825615
 30
0.0
 10
10.6377976534
 20
6.6851800283
 30
0.0
 10
10.6394298166
 20
6.7122437285
 30
0.0
 10
10.6417100228
 20
6.7391713019
 30
0.0
 10
10.6457764486
 20
6.7726329332
 30
0.0
 10
10.6514667937
 20
6.8058023777
 30
0.0
 10
10.6569823136
 20
6.8320806001
 30
0.0
 10
10.6631266304
 20
6.858134625
 30
0.0
 10
10.6719951534
 20
6.8903348573
 30
0.0
 10
10.6845237505
 20
6.9283152576
 30
0.0
 10
10.6989026157
 20
6.9655222878
 30
0.0
 10
10.7150986276
 20
7.0018696977
 30
0.0
 10
10.7330741923
 20
7.0372732603
 30
0.0
 10
10.7495105422
 20
7.0659358065
 30
0.0
 10
10.7635040839
 20
7.0883079806
 30
0.0
 10
10.7780429672
 20
7.1102828747
 30
0.0
 10
10.7972466918
 20
7.1370198325
 30
0.0
 10
10.8177861083
 20
7.1627239026
 30
0.0
 10
10.8349808186
 20
7.1826190941
 30
0.0
 10
10.8482511816
 20
7.1971986241
 30
0.0
 10
10.861889492
 20
7.2114295356
 30
0.0
 10
10.8712223632
 20
7.2206793441
 30
0.0
 10
10.8759470678
 20
7.2252430626
 30
0.0
  0
SPLINE
  5
37E
100
AcDbEntity
  8
0
100
AcDbSpline
 62
7
  6
CONTINUOUS
 70
0
 71
3
 72
71
 73
67
 74
0
 42
0.0000001
 43
0.0000001
 44
0.0000000001
 40
0.0
 40
0.0
 40
0.0
 40
0.0
 40
0.0156371759
 40
0.0313280019
 40
0.0470702678
 40
0.0628636296
 40
0.0787060897
 40
0.0945954846
 40
0.1105292297
 40
0.1265042943
 40
0.1425172948
 40
0.1585644998
 40
0.1746418761
 40
0.1907451249
 40
0.2068697171
 40
0.2230109354
 40
0.2391639194
 40
0.2553237068
 40
0.2714852736
 40
0.2876435803
 40
0.3037936179
 40
0.3199304494
 40
0.3360492505
 40
0.3521453554
 40
0.3682143001
 40
0.3842518591
 40
0.4002540828
 40
0.4162173384
 40
0.4321383455
 40
0.4480142043
 40
0.4638424247
 40
0.4796209571
 40
0.4953482151
 40
0.5110230912
 40
0.5266449716
 40
0.5422137517
 40
0.5577298411
 40
0.5731941622
 40
0.5886081453
 40
0.6039737245
 40
0.6192933215
 40
0.6345698237
 40
0.6498065572
 40
0.6650072607
 40
0.6801760491
 40
0.6953173703
 40
0.7104359602
 40
0.7255367961
 40
0.7406250457
 40
0.7557060107
 40
0.7707850687
 40
0.7858676181
 40
0.8009590215
 40
0.8160645471
 40
0.831189311
 40
0.8463382243
 40
0.8615159445
 40
0.8767268265
 40
0.8919748772
 40
0.9072637212
 40
0.9225965434
 40
0.9379761247
 40
0.9534047641
 40
0.9688839755
 40
0.984415947
 40
1.0
 40
1.0
 40
1.0
 40
1.0
 10
10.9836660389
 20
6.6358027244
 30
0.0
 10
10.9836660389
 20
6.6274128722
 30
0.0
 10
10.9840794661
 20
6.6106015276
 30
0.0
 10
10.9859305841
 20
6.5854052656
 30
0.0
 10
10.9890096402
 20
6.5602444663
 30
0.0
 10
10.9933087745
 20
6.5351809169
 30
0.0
 10
10.9988178667
 20
6.5102744358
 30
0.0
 10
11.0055234833
 20
6.4855851513
 30
0.0
 10
11.0134094112
 20
6.4611724549
 30
0.0
 10
11.0224566612
 20
6.4370951161
 30
0.0
 10
11.0326434553
 20
6.4134111131
 30
0.0
 10
11.0439451906
 20
6.390177432
 30
0.0
 10
11.0563346182
 20
6.3674499824
 30
0.0
 10
11.0697819077
 20
6.3452834701
 30
0.0
 10
11.0842547148
 20
6.3237312746
 30
0.0
 10
11.0997181403
 20
6.3028452399
 30
0.0
 10
11.1161349388
 20
6.2826756222
 30
0.0
 10
11.1334656021
 20
6.2632709764
 30
0.0
 10
11.1516684481
 20
6.2446780473
 30
0.0
 10
11.1706996206
 20
6.2269415557
 30
0.0
 10
11.1905133024
 20
6.2101041842
 30
0.0
 10
11.2110618188
 20
6.1942064818
 30
0.0
 10
11.2322957442
 20
6.1792867717
 30
0.0
 10
11.2541639415
 20
6.1653809419
 30
0.0
 10
11.2766137729
 20
6.1525224689
 30
0.0
 10
11.2995912185
 20
6.1407423445
 30
0.0
 10
11.3230409978
 20
6.1300690046
 30
0.0
 10
11.3469066453
 20
6.1205281294
 30
0.0
 10
11.3711307128
 20
6.1121427069
 30
0.0
 10
11.3956548978
 20
6.1049329833
 30
0.0
 10
11.4204201745
 20
6.0989164158
 30
0.0
 10
11.4453669043
 20
6.0941074889
 30
0.0
 10
11.4704350211
 20
6.0905178161
 30
0.0
 10
11.4955641648
 20
6.0881561153
 30
0.0
 10
11.5206938171
 20
6.087028188
 30
0.0
 10
11.5457634433
 20
6.0871367566
 30
0.0
 10
11.5707126537
 20
6.0884816023
 30
0.0
 10
11.5954813372
 20
6.091059566
 30
0.0
 10
11.6200097968
 20
6.0948645536
 30
0.0
 10
11.6442389195
 20
6.0998874019
 30
0.0
 10
11.6681103066
 20
6.1061160473
 30
0.0
 10
11.6915664027
 20
6.1135355524
 30
0.0
 10
11.7145506263
 20
6.1221281378
 30
0.0
 10
11.7370075633
 20
6.1318730829
 30
0.0
 10
11.7588830591
 20
6.1427469191
 30
0.0
 10
11.7801243392
 20
6.1547234818
 30
0.0
 10
11.8006801297
 20
6.1677739682
 30
0.0
 10
11.8205008669
 20
6.1818668792
 30
0.0
 10
11.8395387465
 20
6.1969682291
 30
0.0
 10
11.8577478313
 20
6.2130416224
 30
0.0
 10
11.8750841549
 20
6.2300483349
 30
0.0
 10
11.8915059396
 20
6.2479473015
 30
0.0
 10
11.9069735987
 20
6.2666953327
 30
0.0
 10
11.9214498256
 20
6.2862472132
 30
0.0
 10
11.9348996779
 20
6.3065558032
 30
0.0
 10
11.9472907907
 20
6.3275720725
 30
0.0
 10
11.9585933331
 20
6.3492453138
 30
0.0
 10
11.9687800751
 20
6.3715232579
 30
0.0
 10
11.9778264511
 20
6.3943521921
 30
0.0
 10
11.9857107421
 20
6.4176770341
 30
0.0
 10
11.9924140345
 20
6.4414415345
 30
0.0
 10
11.997920204
 20
6.4655884434
 30
0.0
 10
12.0022159189
 20
6.4900593914
 30
0.0
 10
12.0052911775
 20
6.5147959206
 30
0.0
 10
12.0071382356
 20
6.5397372359
 30
0.0
 10
12.0075474754
 20
6.5564349556
 30
0.0
 10
12.0075474754
 20
6.5647963056
 30
0.0
  0
SPLINE
  5
37F
100
AcDbEntity
  8
0
100
AcDbSpline
 62
7
  6
CONTINUOUS
 70
0
 71
3
 72
46
 73
42
 74
0
 42
0.0000001
 43
0.0000001
 44
0.0000000001
 40
0.0
 40
0.0
 40
0.0
 40
0.0
 40
0.0310740495
 40
0.0623053784
 40
0.0936893298
 40
0.1252171982
 40
0.1568776713
 40
0.1886565386
 40
0.2205372029
 40
0.2525009879
 40
0.2845275454
 40
0.3165952705
 40
0.3486817381
 40
0.3807641507
 40
0.4128197913
 40
0.4448264749
 40
0.4767629936
 40
0.5086095465
 40
0.5403481503
 40
0.5719630221
 40
0.6034409278
 40
0.6347714896
 40
0.6659474424
 40
0.6969648348
 40
0.7278231643
 40
0.7585254415
 40
0.7890781769
 40
0.8043042476
 40
0.8194969259
 40
0.8346579555
 40
0.8497892586
 40
0.8648929421
 40
0.8799712659
 40
0.8950266522
 40
0.9100616505
 40
0.9250789414
 40
0.9400813066
 40
0.9550716211
 40
0.9700528339
 40
0.9850279456
 40
1.0
 40
1.0
 40
1.0
 40
1.0
 10
8.8857491956
 20
9.2121853977
 30
0.0
 10
8.8857491956
 20
9.2009346664
 30
0.0
 10
8.8865884747
 20
9.1783676013
 30
0.0
 10
8.890335672
 20
9.1446250308
 30
0.0
 10
8.8965532081
 20
9.1110805885
 30
0.0
 10
8.9052067245
 20
9.0779208736
 30
0.0
 10
8.9162482826
 20
9.0453273386
 30
0.0
 10
8.9296170279
 20
9.013479041
 30
0.0
 10
8.945239317
 20
8.9825507141
 30
0.0
 10
8.9630292158
 20
8.9527120807
 30
0.0
 10
8.9828889348
 20
8.9241268608
 30
0.0
 10
9.0047093754
 20
8.8969519057
 30
0.0
 10
9.0283707203
 20
8.8713363409
 30
0.0
 10
9.0537430865
 20
8.8474207592
 30
0.0
 10
9.0806872291
 20
8.8253364543
 30
0.0
 10
9.1090552966
 20
8.8052047045
 30
0.0
 10
9.1386916374
 20
8.7871361172
 30
0.0
 10
9.1694336421
 20
8.7712300245
 30
0.0
 10
9.2011126256
 20
8.7575739416
 30
0.0
 10
9.2335547386
 20
8.7462430864
 30
0.0
 10
9.2665819114
 20
8.7372999657
 30
0.0
 10
9.3000128066
 20
8.7307940242
 30
0.0
 10
9.3336638405
 20
8.7267613761
 30
0.0
 10
9.3673500285
 20
8.7252245549
 30
0.0
 10
9.4008865423
 20
8.7261925221
 30
0.0
 10
9.4340876691
 20
8.7296600501
 30
0.0
 10
9.4613598966
 20
8.7346240464
 30
0.0
 10
9.4828193404
 20
8.7398217181
 30
0.0
 10
9.4987009534
 20
8.7443222942
 30
0.0
 10
9.5143637832
 20
8.7494230728
 30
0.0
 10
9.5297865753
 20
8.7551171067
 30
0.0
 10
9.5449480595
 20
8.7613964752
 30
0.0
 10
9.5598273291
 20
8.7682527014
 30
0.0
 10
9.5744039951
 20
8.7756761581
 30
0.0
 10
9.5886578762
 20
8.7836568775
 30
0.0
 10
9.6025694952
 20
8.7921836281
 30
0.0
 10
9.6161195564
 20
8.8012449392
 30
0.0
 10
9.6292895445
 20
8.8108280986
 30
0.0
 10
9.6420612591
 20
8.820920179
 30
0.0
 10
9.6544169985
 20
8.8315069069
 30
0.0
 10
9.6623663047
 20
8.8388856995
 30
0.0
 10
9.6662652582
 20
8.8426517794
 30
0.0
  0
SPLINE
  5
380
100
AcDbEntity
  8
0
100
AcDbSpline
 62
7
  6
CONTINUOUS
 70
0
 71
3
 72
46
 73
42
 74
0
 42
0.0000001
 43
0.0000001
 44
0.0000000001
 40
0.0
 40
0.0
 40
0.0
 40
0.0
 40
0.0310740495
 40
0.0623053784
 40
0.0936893298
 40
0.1252171982
 40
0.1568776713
 40
0.1886565386
 40
0.2205372029
 40
0.2525009879
 40
0.2845275454
 40
0.3165952705
 40
0.3486817381
 40
0.3807641507
 40
0.4128197913
 40
0.4448264749
 40
0.4767629936
 40
0.5086095465
 40
0.5403481503
 40
0.5719630221
 40
0.6034409278
 40
0.6347714896
 40
0.6659474424
 40
0.6969648348
 40
0.7278231643
 40
0.7585254415
 40
0.7890781769
 40
0.8043042476
 40
0.8194969259
 40
0.8346579555
 40
0.8497892586
 40
0.8648929421
 40
0.8799712659
 40
0.8950266522
 40
0.9100616505
 40
0.9250789414
 40
0.9400813066
 40
0.9550716211
 40
0.9700528339
 40
0.9850279456
 40
1.0
 40
1.0
 40
1.0
 40
1.0
 10
11.0571507218
 20
6.6467834816
 30
0.0
 10
11.0571507218
 20
6.6355327503
 30
0.0
 10
11.0579900009
 20
6.6129656852
 30
0.0
 10
11.0617371982
 20
6.5792231147
 30
0.0
 10
11.0679547343
 20
6.5456786723
 30
0.0
 10
11.0766082507
 20
6.5125189575
 30
0.0
 10
11.0876498087
 20
6.4799254225
 30
0.0
 10
11.1010185541
 20
6.4480771248
 30
0.0
 10
11.1166408432
 20
6.417148798
 30
0.0
 10
11.1344307419
 20
6.3873101646
 30
0.0
 10
11.1542904609
 20
6.3587249447
 30
0.0
 10
11.1761109016
 20
6.3315499896
 30
0.0
 10
11.1997722465
 20
6.3059344248
 30
0.0
 10
11.2251446127
 20
6.2820188431
 30
0.0
 10
11.2520887552
 20
6.2599345382
 30
0.0
 10
11.2804568228
 20
6.2398027884
 30
0.0
 10
11.3100931635
 20
6.2217342011
 30
0.0
 10
11.3408351683
 20
6.2058281084
 30
0.0
 10
11.3725141518
 20
6.1921720255
 30
0.0
 10
11.4049562647
 20
6.1808411703
 30
0.0
 10
11.4379834375
 20
6.1718980495
 30
0.0
 10
11.4714143328
 20
6.1653921081
 30
0.0
 10
11.5050653667
 20
6.16135946
 30
0.0
 10
11.5387515547
 20
6.1598226388
 30
0.0
 10
11.5722880685
 20
6.160790606
 30
0.0
 10
11.6054891953
 20
6.164258134
 30
0.0
 10
11.6327614228
 20
6.1692221303
 30
0.0
 10
11.6542208665
 20
6.174419802
 30
0.0
 10
11.6701024796
 20
6.1789203781
 30
0.0
 10
11.6857653094
 20
6.1840211567
 30
0.0
 10
11.7011881015
 20
6.1897151906
 30
0.0
 10
11.7163495857
 20
6.195994559
 30
0.0
 10
11.7312288552
 20
6.2028507853
 30
0.0
 10
11.7458055213
 20
6.210274242
 30
0.0
 10
11.7600594024
 20
6.2182549614
 30
0.0
 10
11.7739710214
 20
6.226781712
 30
0.0
 10
11.7875210826
 20
6.2358430231
 30
0.0
 10
11.8006910706
 20
6.2454261825
 30
0.0
 10
11.8134627853
 20
6.2555182629
 30
0.0
 10
11.8258185247
 20
6.2661049908
 30
0.0
 10
11.8337678309
 20
6.2734837834
 30
0.0
 10
11.8376667844
 20
6.2772498633
 30
0.0
  0
SPLINE
  5
381
100
AcDbEntity
  8
0
100
AcDbSpline
 62
7
  6
CONTINUOUS
 70
0
 71
3
 72
39
 73
35
 74
0
 42
0.0000001
 43
0.0000001
 44
0.0000000001
 40
0.0
 40
0.0
 40
0.0
 40
0.0
 40
0.0322743283
 40
0.0644671078
 40
0.0965434017
 40
0.1284711899
 40
0.1602244108
 40
0.1917831014
 40
0.2231345502
 40
0.2542738168
 40
0.285204103
 40
0.3159367853
 40
0.346491125
 40
0.376893631
 40
0.407177084
 40
0.4373792492
 40
0.4675413296
 40
0.4977062336
 40
0.5279167493
 40
0.5582137251
 40
0.5886343568
 40
0.6192106713
 40
0.6499682774
 40
0.6809254336
 40
0.7120924559
 40
0.7434714713
 40
0.7750564984
 40
0.8068338309
 40
0.8387826774
 40
0.870876057
 40
0.9030817571
 40
0.9353638376
 40
0.9676830369
 40
1.0
 40
1.0
 40
1.0
 40
1.0
 10
7.1126360245
 20
10.1119340844
 30
0.0
 10
7.1151524622
 20
10.1087605952
 30
0.0
 10
7.1198913746
 20
10.1021872463
 30
0.0
 10
7.1260512458
 20
10.0917357665
 30
0.0
 10
7.1312003881
 20
10.0807977445
 30
0.0
 10
7.135288261
 20
10.0694790868
 30
0.0
 10
7.1382755786
 20
10.0578882163
 30
0.0
 10
7.140133217
 20
10.0461364939
 30
0.0
 10
7.1408429511
 20
10.0343368521
 30
0.0
 10
7.1403975108
 20
10.0226028066
 30
0.0
 10
7.1388007292
 20
10.011047367
 30
0.0
 10
7.1360675313
 20
9.9997819648
 30
0.0
 10
7.1322238399
 20
9.9889153767
 30
0.0
 10
7.1273063713
 20
9.9785526594
 30
0.0
 10
7.1213623206
 20
9.9687941028
 30
0.0
 10
7.1144489342
 20
9.9597342143
 30
0.0
 10
7.1066329648
 20
9.9514607513
 30
0.0
 10
7.0979900131
 20
9.944053817
 30
0.0
 10
7.088603764
 20
9.9375850409
 30
0.0
 10
7.0785651294
 20
9.9321168538
 30
0.0
 10
7.0679713121
 20
9.9277018786
 30
0.0
 10
7.0569248128
 20
9.9243824346
 30
0.0
 10
7.0455323958
 20
9.9221901603
 30
0.0
 10
7.0339040295
 20
9.9211457502
 30
0.0
 10
7.0221518131
 20
9.9212588023
 30
0.0
 10
7.0103888984
 20
9.9225277714
 30
0.0
 10
6.9987284147
 20
9.9249400208
 30
0.0
 10
6.9872824022
 20
9.9284719798
 30
0.0
 10
6.9761607617
 20
9.9330893741
 30
0.0
 10
6.9654702197
 20
9.9387476176
 30
0.0
 10
6.9553133684
 20
9.9453920883
 30
0.0
 10
6.9457874874
 20
9.9529591609
 30
0.0
 10
6.9369847028
 20
9.9613750339
 30
0.0
 10
6.9316501348
 20
9.9675030386
 30
0.0
 10
6.9291303729
 20
9.97068072
 30
0.0
  0
SPLINE
  5
382
100
AcDbEntity
  8
0
100
AcDbSpline
 62
7
  6
CONTINUOUS
 70
0
 71
3
 72
57
 73
53
 74
0
 42
0.0000001
 43
0.0000001
 44
0.0000000001
 40
0.0
 40
0.0
 40
0.0
 40
0.0
 40
0.0310641337
 40
0.0622845305
 40
0.0779546774
 40
0.0936617568
 40
0.1251771505
 40
0.156824606
 40
0.1885901819
 40
0.2204575434
 40
0.2524083141
 40
0.2844224549
 40
0.3164786733
 40
0.3485548485
 40
0.3806284681
 40
0.4126770697
 40
0.4446786825
 40
0.4766122612
 40
0.4925497375
 40
0.5084629572
 40
0.5243497373
 40
0.5402080238
 40
0.5560359118
 40
0.5718316485
 40
0.5875936442
 40
0.6033204876
 40
0.6190109446
 40
0.634663973
 40
0.6502787297
 40
0.6658545685
 40
0.681391056
 40
0.6968879684
 40
0.7123452932
 40
0.7277632393
 40
0.7431422276
 40
0.7584828952
 40
0.7737860964
 40
0.7890528914
 40
0.8042845492
 40
0.8194825407
 40
0.8346485254
 40
0.8497843524
 40
0.8648920448
 40
0.8799737881
 40
0.8950319243
 40
0.9100689324
 40
0.9250874165
 40
0.9400900941
 40
0.9550797742
 40
0.9700593448
 40
0.9850317565
 40
1.0
 40
1.0
 40
1.0
 40
1.0
 10
8.4741904534
 20
9.2246501561
 30
0.0
 10
8.4741904534
 20
9.2037096106
 30
0.0
 10
8.475743098
 20
9.1617082441
 30
0.0
 10
8.4815148678
 20
9.1094284346
 30
0.0
 10
8.4884088298
 20
9.0677896694
 30
0.0
 10
8.4968346342
 20
9.0262310172
 30
0.0
 10
8.5101952759
 20
8.9747196981
 30
0.0
 10
8.5306295412
 20
8.9140232357
 30
0.0
 10
8.5553737079
 20
8.8546942654
 30
0.0
 10
8.5842927275
 20
8.7970566176
 30
0.0
 10
8.6172295323
 20
8.7414223171
 30
0.0
 10
8.6540051686
 20
8.6880931938
 30
0.0
 10
8.6944199289
 20
8.6373583625
 30
0.0
 10
8.7382545385
 20
8.5894929538
 30
0.0
 10
8.7852711172
 20
8.5447567026
 30
0.0
 10
8.8352151241
 20
8.5033920219
 30
0.0
 10
8.8878138638
 20
8.465624347
 30
0.0
 10
8.9336581061
 20
8.4372970871
 30
0.0
 10
8.9713722756
 20
8.4166322905
 30
0.0
 10
9.0001220618
 20
8.4021597555
 30
0.0
 10
9.0293120033
 20
8.3887249089
 30
0.0
 10
9.0589029095
 20
8.3763458324
 30
0.0
 10
9.0888544089
 20
8.3650392785
 30
0.0
 10
9.1191258926
 20
8.354820717
 30
0.0
 10
9.1496762248
 20
8.345704051
 30
0.0
 10
9.1804638749
 20
8.3377015679
 30
0.0
 10
9.2114470593
 20
8.3308243207
 30
0.0
 10
9.2425836578
 20
8.3250815729
 30
0.0
 10
9.2738313666
 20
8.3204811146
 30
0.0
 10
9.3051477487
 20
8.317029369
 30
0.0
 10
9.3364902315
 20
8.3147308846
 30
0.0
 10
9.367816236
 20
8.3135888751
 30
0.0
 10
9.3990831899
 20
8.3136049885
 30
0.0
 10
9.4302486018
 20
8.3147790671
 30
0.0
 10
9.4612701129
 20
8.3171096843
 30
0.0
 10
9.4921055554
 20
8.3205936614
 30
0.0
 10
9.522713031
 20
8.3252261892
 30
0.0
 10
9.5530509059
 20
8.3310011673
 30
0.0
 10
9.5830779563
 20
8.3379106391
 30
0.0
 10
9.6127533655
 20
8.345945234
 30
0.0
 10
9.6420367451
 20
8.3550941823
 30
0.0
 10
9.6708883278
 20
8.3653448994
 30
0.0
 10
9.6992688532
 20
8.3766835614
 30
0.0
 10
9.7271397051
 20
8.389094807
 30
0.0
 10
9.754463043
 20
8.402561641
 30
0.0
 10
9.7812016371
 20
8.4170659144
 30
0.0
 10
9.8073191455
 20
8.4325878519
 30
0.0
 10
9.8327800976
 20
8.4491063042
 30
0.0
 10
9.8575497346
 20
8.4665989311
 30
0.0
 10
9.8815945726
 20
8.4850419378
 30
0.0
 10
9.904881447
 20
8.5044098455
 30
0.0
 10
9.9198817495
 20
8.5179229259
 30
0.0
 10
9.9272436776
 20
8.5248232201
 30
0.0
  0
SPLINE
  5
383
100
AcDbEntity
  8
0
100
AcDbSpline
 62
7
  6
CONTINUOUS
 70
0
 71
3
 72
43
 73
39
 74
0
 42
0.0000001
 43
0.0000001
 44
0.0000000001
 40
0.0
 40
0.0
 40
0.0
 40
0.0
 40
0.0307902025
 40
0.0617081277
 40
0.0927497852
 40
0.1239115816
 40
0.1551869822
 40
0.1708666191
 40
0.1865716649
 40
0.2180499181
 40
0.2496145429
 40
0.2654272443
 40
0.281257091
 40
0.3129585946
 40
0.3447087941
 40
0.3764936148
 40
0.4082985295
 40
0.4401087487
 40
0.471909414
 40
0.5036857907
 40
0.5354234609
 40
0.5671085132
 40
0.5987277288
 40
0.6302687601
 40
0.6617203007
 40
0.6930722447
 40
0.724315834
 40
0.7554437907
 40
0.7864504329
 40
0.8173317727
 40
0.8480855932
 40
0.8634162345
 40
0.8787150054
 40
0.909214464
 40
0.9395907867
 40
0.9547361222
 40
0.9698527487
 40
1.0
 40
1.0
 40
1.0
 40
1.0
 10
9.160097157
 20
9.4771851947
 30
0.0
 10
9.160097157
 20
9.4680730516
 30
0.0
 10
9.1606473315
 20
9.4498063322
 30
0.0
 10
9.1631078379
 20
9.4224528391
 30
0.0
 10
9.1671965985
 20
9.395182809
 30
0.0
 10
9.172898251
 20
9.3680966678
 30
0.0
 10
9.1789721424
 20
9.3457761084
 30
0.0
 10
9.1846120714
 20
9.3281084715
 30
0.0
 10
9.1907784531
 20
9.3105538968
 30
0.0
 10
9.1994473461
 20
9.2889067231
 30
0.0
 10
9.2093509064
 20
9.2677608444
 30
0.0
 10
9.2179995112
 20
9.2511720646
 30
0.0
 10
9.227134238
 20
9.2347995667
 30
0.0
 10
9.2394321415
 20
9.2148020169
 30
0.0
 10
9.2555335698
 20
9.1916517796
 30
0.0
 10
9.2729291674
 20
9.1694181983
 30
0.0
 10
9.2915558906
 20
9.1481819327
 30
0.0
 10
9.311346634
 20
9.1280194284
 30
0.0
 10
9.3322300077
 20
9.1090034366
 30
0.0
 10
9.3541307161
 20
9.0912025403
 30
0.0
 10
9.3769697954
 20
9.0746809676
 30
0.0
 10
9.4006648996
 20
9.05949834
 30
0.0
 10
9.4251305914
 20
9.0457094548
 30
0.0
 10
9.4502786567
 20
9.0333641
 30
0.0
 10
9.4760184197
 20
9.0225068735
 30
0.0
 10
9.5022570609
 20
9.013177023
 30
0.0
 10
9.5288999684
 20
9.0054083047
 30
0.0
 10
9.5558510007
 20
8.9992288589
 30
0.0
 10
9.5830131058
 20
8.9946611131
 30
0.0
 10
9.610287644
 20
8.9917216767
 30
0.0
 10
9.6330541839
 20
8.9906369142
 30
0.0
 10
9.6512224577
 20
8.9905935882
 30
0.0
 10
9.6693085083
 20
8.9910975754
 30
0.0
 10
9.6918059759
 20
8.9927511179
 30
0.0
 10
9.7141152303
 20
8.9957728203
 30
0.0
 10
9.7317702407
 20
8.9990032019
 30
0.0
 10
9.7492498177
 20
9.002764549
 30
0.0
 10
9.7622111221
 20
9.0061926421
 30
0.0
 10
9.770760564
 20
9.0087434736
 30
0.0
  0
SPLINE
  5
384
100
AcDbEntity
  8
0
100
AcDbSpline
 62
7
  6
CONTINUOUS
 70
0
 71
3
 72
28
 73
24
 74
0
 42
0.0000001
 43
0.0000001
 44
0.0000000001
 40
0.0
 40
0.0
 40
0.0
 40
0.0
 40
0.0637758941
 40
0.0955879065
 40
0.1273462157
 40
0.1907019646
 40
0.2538545302
 40
0.2853587825
 40
0.3168148204
 40
0.379582186
 40
0.4421719279
 40
0.504596336
 40
0.566869323
 40
0.6290062994
 40
0.6910240361
 40
0.7219962863
 40
0.7529455528
 40
0.8147797337
 40
0.8765514554
 40
0.9074228165
 40
0.9382862783
 40
0.9691444605
 40
1.0
 40
1.0
 40
1.0
 40
1.0
 10
8.4659082504
 20
9.2166501619
 30
0.0
 10
8.4659082504
 20
9.2302275311
 30
0.0
 10
8.4663961272
 20
9.2505819444
 30
0.0
 10
8.4680282905
 20
9.2776456446
 30
0.0
 10
8.4703084966
 20
9.304573218
 30
0.0
 10
8.4743749224
 20
9.3380348493
 30
0.0
 10
8.4800652675
 20
9.3712042938
 30
0.0
 10
8.4855807874
 20
9.3974825162
 30
0.0
 10
8.4917251043
 20
9.4235365412
 30
0.0
 10
8.5005936272
 20
9.4557367734
 30
0.0
 10
8.5131222244
 20
9.4937171737
 30
0.0
 10
8.5275010895
 20
9.5309242039
 30
0.0
 10
8.5436971015
 20
9.5672716138
 30
0.0
 10
8.5616726661
 20
9.6026751764
 30
0.0
 10
8.578109016
 20
9.6313377227
 30
0.0
 10
8.5921025577
 20
9.6537098967
 30
0.0
 10
8.606641441
 20
9.6756847909
 30
0.0
 10
8.6258451656
 20
9.7024217486
 30
0.0
 10
8.6463845821
 20
9.7281258188
 30
0.0
 10
8.6635792924
 20
9.7480210102
 30
0.0
 10
8.6768496554
 20
9.7626005402
 30
0.0
 10
8.6904879658
 20
9.7768314517
 30
0.0
 10
8.699820837
 20
9.7860812602
 30
0.0
 10
8.7045455417
 20
9.7906449787
 30
0.0
  0
SPLINE
  5
385
100
AcDbEntity
  8
0
100
AcDbSpline
 62
7
  6
CONTINUOUS
 70
0
 71
3
 72
26
 73
22
 74
0
 42
0.0000001
 43
0.0000001
 44
0.0000000001
 40
0.0
 40
0.0
 40
0.0
 40
0.0
 40
0.0637632661
 40
0.1273205661
 40
0.190671333
 40
0.2538224833
 40
0.2853271227
 40
0.3167842484
 40
0.3795558683
 40
0.4421519345
 40
0.5045840823
 40
0.5668655194
 40
0.6290108777
 40
0.6910360998
 40
0.7220113907
 40
0.7529631527
 40
0.8148004164
 40
0.8765716938
 40
0.9074411441
 40
0.9383014821
 40
1.0
 40
1.0
 40
1.0
 40
1.0
 10
8.4741904534
 20
9.2246501561
 30
0.0
 10
8.4741904534
 20
9.2379801339
 30
0.0
 10
8.474816847
 20
9.2646013622
 30
0.0
 10
8.4776440651
 20
9.304376078
 30
0.0
 10
8.4823514586
 20
9.3438440421
 30
0.0
 10
8.4878367814
 20
9.3764314142
 30
0.0
 10
8.4931541151
 20
9.4022563559
 30
0.0
 10
8.4990780648
 20
9.4278674707
 30
0.0
 10
8.5076294352
 20
9.4595321041
 30
0.0
 10
8.5197118476
 20
9.4969032124
 30
0.0
 10
8.5335813392
 20
9.5335396013
 30
0.0
 10
8.5492071103
 20
9.5693594235
 30
0.0
 10
8.5665542184
 20
9.6042826752
 30
0.0
 10
8.5824205397
 20
9.6325876303
 30
0.0
 10
8.5959321965
 20
9.6547015721
 30
0.0
 10
8.6099725041
 20
9.6764369833
 30
0.0
 10
8.628522262
 20
9.7029109953
 30
0.0
 10
8.6483701936
 20
9.7284044218
 30
0.0
 10
8.6649917059
 20
9.7481641151
 30
0.0
 10
8.6820958454
 20
9.7674864819
 30
0.0
 10
8.6954680602
 20
9.7814871517
 30
0.0
 10
8.7046095518
 20
9.7905866098
 30
0.0
  0
SPLINE
  5
386
100
AcDbEntity
  8
0
100
AcDbSpline
 62
7
  6
CONTINUOUS
 70
0
 71
3
 72
43
 73
39
 74
0
 42
0.0000001
 43
0.0000001
 44
0.0000000001
 40
0.0
 40
0.0
 40
0.0
 40
0.0
 40
0.0307902025
 40
0.0617081277
 40
0.0927497852
 40
0.1239115816
 40
0.1551869822
 40
0.1708666191
 40
0.1865716649
 40
0.2180499181
 40
0.2496145429
 40
0.2654272443
 40
0.281257091
 40
0.3129585946
 40
0.3447087941
 40
0.3764936148
 40
0.4082985295
 40
0.4401087487
 40
0.471909414
 40
0.5036857907
 40
0.5354234609
 40
0.5671085132
 40
0.5987277288
 40
0.6302687601
 40
0.6617203007
 40
0.6930722447
 40
0.724315834
 40
0.7554437907
 40
0.7864504329
 40
0.8173317727
 40
0.8480855932
 40
0.8634162345
 40
0.8787150054
 40
0.909214464
 40
0.9395907867
 40
0.9547361222
 40
0.9698527487
 40
1.0
 40
1.0
 40
1.0
 40
1.0
 10
11.3314986832
 20
6.9117832786
 30
0.0
 10
11.3314986832
 20
6.9026711354
 30
0.0
 10
11.3320488577
 20
6.8844044161
 30
0.0
 10
11.3345093641
 20
6.857050923
 30
0.0
 10
11.3385981247
 20
6.8297808929
 30
0.0
 10
11.3442997772
 20
6.8026947517
 30
0.0
 10
11.3503736686
 20
6.7803741923
 30
0.0
 10
11.3560135975
 20
6.7627065554
 30
0.0
 10
11.3621799792
 20
6.7451519806
 30
0.0
 10
11.3708488722
 20
6.723504807
 30
0.0
 10
11.3807524326
 20
6.7023589283
 30
0.0
 10
11.3894010374
 20
6.6857701485
 30
0.0
 10
11.3985357642
 20
6.6693976506
 30
0.0
 10
11.4108336677
 20
6.6494001008
 30
0.0
 10
11.426935096
 20
6.6262498634
 30
0.0
 10
11.4443306935
 20
6.6040162822
 30
0.0
 10
11.4629574168
 20
6.5827800166
 30
0.0
 10
11.4827481602
 20
6.5626175123
 30
0.0
 10
11.5036315338
 20
6.5436015205
 30
0.0
 10
11.5255322423
 20
6.5258006241
 30
0.0
 10
11.5483713216
 20
6.5092790515
 30
0.0
 10
11.5720664258
 20
6.4940964239
 30
0.0
 10
11.5965321175
 20
6.4803075387
 30
0.0
 10
11.6216801829
 20
6.4679621839
 30
0.0
 10
11.6474199458
 20
6.4571049574
 30
0.0
 10
11.673658587
 20
6.4477751069
 30
0.0
 10
11.7003014945
 20
6.4400063886
 30
0.0
 10
11.7272525269
 20
6.4338269428
 30
0.0
 10
11.7544146319
 20
6.429259197
 30
0.0
 10
11.7816891701
 20
6.4263197606
 30
0.0
 10
11.8044557101
 20
6.4252349981
 30
0.0
 10
11.8226239839
 20
6.4251916721
 30
0.0
 10
11.8407100345
 20
6.4256956593
 30
0.0
 10
11.8632075021
 20
6.4273492018
 30
0.0
 10
11.8855167565
 20
6.4303709042
 30
0.0
 10
11.9031717669
 20
6.4336012858
 30
0.0
 10
11.9206513439
 20
6.4373626329
 30
0.0
 10
11.9336126483
 20
6.440790726
 30
0.0
 10
11.9421620902
 20
6.4433415575
 30
0.0
  0
SPLINE
  5
387
100
AcDbEntity
  8
0
100
AcDbSpline
 62
7
  6
CONTINUOUS
 70
0
 71
3
 72
67
 73
63
 74
0
 42
0.0000001
 43
0.0000001
 44
0.0000000001
 40
0.0
 40
0.0
 40
0.0
 40
0.0
 40
0.0452100989
 40
0.0910008364
 40
0.1371883692
 40
0.183585715
 40
0.2300053249
 40
0.2762593961
 40
0.3221610018
 40
0.3675250301
 40
0.4121691589
 40
0.4559148351
 40
0.4985882708
 40
0.5194704045
 40
0.5400220161
 40
0.5602231578
 40
0.5800544325
 40
0.5994969435
 40
0.6185323721
 40
0.6371430433
 40
0.6553118814
 40
0.6730225883
 40
0.6902595554
 40
0.7070080243
 40
0.7232541088
 40
0.7389848235
 40
0.754188278
 40
0.7688536093
 40
0.782971248
 40
0.796532929
 40
0.809531877
 40
0.8219630437
 40
0.8338231942
 40
0.8451113554
 40
0.8558289813
 40
0.8659804821
 40
0.8755737161
 40
0.884620568
 40
0.8931378811
 40
0.9011482533
 40
0.9086813189
 40
0.9157749243
 40
0.9224764257
 40
0.9288438133
 40
0.9319246608
 40
0.9349487983
 40
0.9379264824
 40
0.9408684995
 40
0.943786083
 40
0.9466907733
 40
0.9495942751
 40
0.9525083127
 40
0.9554444684
 40
0.9584140433
 40
0.9614279368
 40
0.9644965161
 40
0.9676295467
 40
0.9708361557
 40
0.977501043
 40
0.9845526509
 40
0.9920393771
 40
1.0
 40
1.0
 40
1.0
 40
1.0
 10
15.4455412276
 20
7.5396435307
 30
0.0
 10
15.4455412276
 20
7.5196872815
 30
0.0
 10
15.44518532
 20
7.4795176745
 30
0.0
 10
15.4436159476
 20
7.4189788002
 30
0.0
 10
15.4410136398
 20
7.357950856
 30
0.0
 10
15.4373895008
 20
7.2966970728
 30
0.0
 10
15.4327591604
 20
7.2354816591
 30
0.0
 10
15.4271425868
 20
7.1745685696
 30
0.0
 10
15.4205640597
 20
7.1142204666
 30
0.0
 10
15.4130520514
 20
7.054697566
 30
0.0
 10
15.4046391142
 20
6.9962564265
 30
0.0
 10
15.3953616908
 20
6.9391491288
 30
0.0
 10
15.3868838777
 20
6.8925467089
 30
0.0
 10
15.379688701
 20
6.8561241962
 30
0.0
 10
15.3741410842
 20
6.829488942
 30
0.0
 10
15.3684094085
 20
6.8033673867
 30
0.0
 10
15.3624998953
 20
6.7777876709
 30
0.0
 10
15.3564189173
 20
6.7527773842
 30
0.0
 10
15.350173039
 20
6.7283634884
 30
0.0
 10
15.3437690601
 20
6.7045722963
 30
0.0
 10
15.3372138404
 20
6.6814294535
 30
0.0
 10
15.3305145423
 20
6.6589598855
 30
0.0
 10
15.3236783584
 20
6.6371877986
 30
0.0
 10
15.3167127058
 20
6.6161366295
 30
0.0
 10
15.309625138
 20
6.5958290269
 30
0.0
 10
15.3024232633
 20
6.5762868388
 30
0.0
 10
15.2951149477
 20
6.557531048
 30
0.0
 10
15.2877080068
 20
6.5395818035
 30
0.0
 10
15.2802104961
 20
6.5224583336
 30
0.0
 10
15.2726304813
 20
6.5061789673
 30
0.0
 10
15.2649760875
 20
6.4907611019
 30
0.0
 10
15.2572556011
 20
6.476221134
 30
0.0
 10
15.2494771698
 20
6.4625745355
 30
0.0
 10
15.2416491463
 20
6.4498356941
 30
0.0
 10
15.2337797003
 20
6.4380180324
 30
0.0
 10
15.2258770116
 20
6.4271339074
 30
0.0
 10
15.217949177
 20
6.417194603
 30
0.0
 10
15.2100039639
 20
6.4082104783
 30
0.0
 10
15.2020490975
 20
6.400190772
 30
0.0
 10
15.1940917119
 20
6.3931440262
 30
0.0
 10
15.186138829
 20
6.3870779948
 30
0.0
 10
15.178196716
 20
6.3820000101
 30
0.0
 10
15.17027268
 20
6.3779176904
 30
0.0
 10
15.163615952
 20
6.3753232031
 30
0.0
 10
15.1583297684
 20
6.3737751569
 30
0.0
 10
15.1544195245
 20
6.372878573
 30
0.0
 10
15.1505219406
 20
6.3722343642
 30
0.0
 10
15.1466380722
 20
6.3718428679
 30
0.0
 10
15.1427691631
 20
6.3717042737
 30
0.0
 10
15.1389164316
 20
6.3718186277
 30
0.0
 10
15.1350811154
 20
6.3721859712
 30
0.0
 10
15.1312644581
 20
6.372806209
 30
0.0
 10
15.1274676572
 20
6.3736790064
 30
0.0
 10
15.1236918806
 20
6.3748040179
 30
0.0
 10
15.1199382771
 20
6.3761808754
 30
0.0
 10
15.1162079294
 20
6.3778089686
 30
0.0
 10
15.1125017726
 20
6.3796877262
 30
0.0
 10
15.1075304706
 20
6.3825627857
 30
0.0
 10
15.1013713136
 20
6.386813973
 30
0.0
 10
15.0941943124
 20
6.3928397865
 30
0.0
 10
15.0871419703
 20
6.3998465364
 30
0.0
 10
15.0826698217
 20
6.4050021995
 30
0.0
 10
15.0804526555
 20
6.4077283196
 30
0.0
  0
SPLINE
  5
388
100
AcDbEntity
  8
0
100
AcDbSpline
 62
7
  6
CONTINUOUS
 70
0
 71
3
 72
71
 73
67
 74
0
 42
0.0000001
 43
0.0000001
 44
0.0000000001
 40
0.0
 40
0.0
 40
0.0
 40
0.0
 40
0.015584053
 40
0.0311160245
 40
0.0465952359
 40
0.0620238753
 40
0.0774034566
 40
0.0927362788
 40
0.1080251228
 40
0.1232731735
 40
0.1384840555
 40
0.1536617757
 40
0.168810689
 40
0.1839354529
 40
0.1990409785
 40
0.2141323819
 40
0.2292149313
 40
0.2442939893
 40
0.2593749543
 40
0.2744632039
 40
0.2895640398
 40
0.3046826297
 40
0.3198239509
 40
0.3349927393
 40
0.3501934428
 40
0.3654301763
 40
0.3807066785
 40
0.3960262755
 40
0.4113918547
 40
0.4268058378
 40
0.4422701589
 40
0.4577862483
 40
0.4733550284
 40
0.4889769088
 40
0.5046517849
 40
0.5203790429
 40
0.5361575753
 40
0.5519857957
 40
0.5678616545
 40
0.5837826616
 40
0.5997459172
 40
0.6157481409
 40
0.6317856999
 40
0.6478546446
 40
0.6639507495
 40
0.6800695506
 40
0.6962063821
 40
0.7123564197
 40
0.7285147264
 40
0.7446762932
 40
0.7608360806
 40
0.7769890646
 40
0.7931302829
 40
0.8092548751
 40
0.8253581239
 40
0.8414355002
 40
0.8574827052
 40
0.8734957057
 40
0.8894707703
 40
0.9054045154
 40
0.9212939103
 40
0.9371363704
 40
0.9529297322
 40
0.9686719981
 40
0.9843628241
 40
1.0
 40
1.0
 40
1.0
 40
1.0
 10
8.8122645127
 20
9.2012046405
 30
0.0
 10
8.8122645127
 20
9.2095659905
 30
0.0
 10
8.8126737524
 20
9.2262637101
 30
0.0
 10
8.8145208106
 20
9.2512050254
 30
0.0
 10
8.8175960691
 20
9.2759415546
 30
0.0
 10
8.821891784
 20
9.3004125027
 30
0.0
 10
8.8273979535
 20
9.3245594116
 30
0.0
 10
8.834101246
 20
9.3483239119
 30
0.0
 10
8.841985537
 20
9.3716487539
 30
0.0
 10
8.8510319129
 20
9.3944776881
 30
0.0
 10
8.8612186549
 20
9.4167556322
 30
0.0
 10
8.8725211974
 20
9.4384288735
 30
0.0
 10
8.8849123102
 20
9.4594451428
 30
0.0
 10
8.8983621624
 20
9.4797537329
 30
0.0
 10
8.9128383893
 20
9.4993056133
 30
0.0
 10
8.9283060485
 20
9.5180536445
 30
0.0
 10
8.9447278331
 20
9.5359526111
 30
0.0
 10
8.9620641568
 20
9.5529593237
 30
0.0
 10
8.9802732415
 20
9.569032717
 30
0.0
 10
8.9993111212
 20
9.5841340669
 30
0.0
 10
9.0191318583
 20
9.5982269778
 30
0.0
 10
9.0396876488
 20
9.6112774643
 30
0.0
 10
9.060928929
 20
9.623254027
 30
0.0
 10
9.0828044247
 20
9.6341278631
 30
0.0
 10
9.1052613617
 20
9.6438728082
 30
0.0
 10
9.1282455853
 20
9.6524653936
 30
0.0
 10
9.1517016815
 20
9.6598848987
 30
0.0
 10
9.1755730686
 20
9.6661135442
 30
0.0
 10
9.1998021913
 20
9.6711363925
 30
0.0
 10
9.2243306508
 20
9.67494138
 30
0.0
 10
9.2490993343
 20
9.6775193437
 30
0.0
 10
9.2740485448
 20
9.6788641894
 30
0.0
 10
9.299118171
 20
9.678972758
 30
0.0
 10
9.3242478233
 20
9.6778448307
 30
0.0
 10
9.3493769669
 20
9.67548313
 30
0.0
 10
9.3744450838
 20
9.6718934572
 30
0.0
 10
9.3993918135
 20
9.6670845302
 30
0.0
 10
9.4241570903
 20
9.6610679627
 30
0.0
 10
9.4486812752
 20
9.6538582391
 30
0.0
 10
9.4729053428
 20
9.6454728166
 30
0.0
 10
9.4967709903
 20
9.6359319414
 30
0.0
 10
9.5202207696
 20
9.6252586016
 30
0.0
 10
9.5431982152
 20
9.6134784771
 30
0.0
 10
9.5656480466
 20
9.6006200042
 30
0.0
 10
9.5875162438
 20
9.5867141743
 30
0.0
 10
9.6087501693
 20
9.5717944643
 30
0.0
 10
9.6292986856
 20
9.5558967618
 30
0.0
 10
9.6491123675
 20
9.5390593903
 30
0.0
 10
9.66814354
 20
9.5213228987
 30
0.0
 10
9.686346386
 20
9.5027299696
 30
0.0
 10
9.7036770493
 20
9.4833253239
 30
0.0
 10
9.7200938477
 20
9.4631557062
 30
0.0
 10
9.7355572733
 20
9.4422696715
 30
0.0
 10
9.7500300803
 20
9.4207174759
 30
0.0
 10
9.7634773699
 20
9.3985509636
 30
0.0
 10
9.7758667975
 20
9.375823514
 30
0.0
 10
9.7871685328
 20
9.3525898329
 30
0.0
 10
9.7973553269
 20
9.32890583
 30
0.0
 10
9.8064025769
 20
9.3048284912
 30
0.0
 10
9.8142885048
 20
9.2804157948
 30
0.0
 10
9.8209941213
 20
9.2557265102
 30
0.0
 10
9.8265032136
 20
9.2308200291
 30
0.0
 10
9.8308023479
 20
9.2057564798
 30
0.0
 10
9.8338814039
 20
9.1805956805
 30
0.0
 10
9.8357325219
 20
9.1553994185
 30
0.0
 10
9.8361459492
 20
9.1385880739
 30
0.0
 10
9.8361459492
 20
9.1301982217
 30
0.0
  0
SPLINE
  5
389
100
AcDbEntity
  8
0
100
AcDbSpline
 62
7
  6
CONTINUOUS
 70
0
 71
3
 72
28
 73
24
 74
0
 42
0.0000001
 43
0.0000001
 44
0.0000000001
 40
0.0
 40
0.0
 40
0.0
 40
0.0
 40
0.0637758941
 40
0.0955879065
 40
0.1273462157
 40
0.1907019646
 40
0.2538545302
 40
0.2853587825
 40
0.3168148204
 40
0.379582186
 40
0.4421719279
 40
0.504596336
 40
0.566869323
 40
0.6290062994
 40
0.6910240361
 40
0.7219962863
 40
0.7529455528
 40
0.8147797337
 40
0.8765514554
 40
0.9074228165
 40
0.9382862783
 40
0.9691444605
 40
1.0
 40
1.0
 40
1.0
 40
1.0
 10
11.363685901
 20
9.0156885992
 30
0.0
 10
11.363685901
 20
9.0292659685
 30
0.0
 10
11.3641737778
 20
9.0496203818
 30
0.0
 10
11.365805941
 20
9.076684082
 30
0.0
 10
11.3680861472
 20
9.1036116553
 30
0.0
 10
11.372152573
 20
9.1370732867
 30
0.0
 10
11.3778429181
 20
9.1702427312
 30
0.0
 10
11.383358438
 20
9.1965209536
 30
0.0
 10
11.3895027548
 20
9.2225749785
 30
0.0
 10
11.3983712778
 20
9.2547752108
 30
0.0
 10
11.4108998749
 20
9.2927556111
 30
0.0
 10
11.42527874
 20
9.3299626413
 30
0.0
 10
11.441474752
 20
9.3663100511
 30
0.0
 10
11.4594503167
 20
9.4017136138
 30
0.0
 10
11.4758866666
 20
9.43037616
 30
0.0
 10
11.4898802083
 20
9.452748334
 30
0.0
 10
11.5044190916
 20
9.4747232282
 30
0.0
 10
11.5236228162
 20
9.5014601859
 30
0.0
 10
11.5441622326
 20
9.5271642561
 30
0.0
 10
11.561356943
 20
9.5470594476
 30
0.0
 10
11.574627306
 20
9.5616389776
 30
0.0
 10
11.5882656164
 20
9.5758698891
 30
0.0
 10
11.5975984875
 20
9.5851196976
 30
0.0
 10
11.6023231922
 20
9.5896834161
 30
0.0
  0
SPLINE
  5
38A
100
AcDbEntity
  8
0
100
AcDbSpline
 62
7
  6
CONTINUOUS
 70
0
 71
3
 72
23
 73
19
 74
0
 42
0.0000001
 43
0.0000001
 44
0.0000000001
 40
0.0
 40
0.0
 40
0.0
 40
0.0
 40
0.0637762145
 40
0.1273451869
 40
0.1907020141
 40
0.2538560333
 40
0.3168132367
 40
0.379582082
 40
0.4421733861
 40
0.5045993417
 40
0.566873863
 40
0.6290123825
 40
0.6910316544
 40
0.7529496448
 40
0.8147853545
 40
0.8765586074
 40
0.9382898575
 40
1.0
 40
1.0
 40
1.0
 40
1.0
 10
8.8857491956
 20
9.2121853977
 30
0.0
 10
8.8857491956
 20
9.2194368118
 30
0.0
 10
8.886096327
 20
9.233918532
 30
0.0
 10
8.8876628398
 20
9.2555529759
 30
0.0
 10
8.8902712031
 20
9.277016003
 30
0.0
 10
8.8939151451
 20
9.2982570335
 30
0.0
 10
8.8985864598
 20
9.3192276444
 30
0.0
 10
8.9042743641
 20
9.3398793575
 30
0.0
 10
8.9109658013
 20
9.3601645607
 30
0.0
 10
8.9186454639
 20
9.3800364658
 30
0.0
 10
8.9272955887
 20
9.3994492706
 30
0.0
 10
8.9368962775
 20
9.418358203
 30
0.0
 10
8.9474255088
 20
9.4367195936
 30
0.0
 10
8.9588589654
 20
9.4544911281
 30
0.0
 10
8.9711702376
 20
9.4716317923
 30
0.0
 10
8.9843311549
 20
9.488102131
 30
0.0
 10
8.9983108528
 20
9.5038636187
 30
0.0
 10
9.0081568008
 20
9.5138763839
 30
0.0
 10
9.0132034634
 20
9.5187510598
 30
0.0
  0
SPLINE
  5
38B
100
AcDbEntity
  8
0
100
AcDbSpline
 62
7
  6
CONTINUOUS
 70
0
 71
3
 72
17
 73
13
 74
0
 42
0.0000001
 43
0.0000001
 44
0.0000000001
 40
0.0
 40
0.0
 40
0.0
 40
0.0
 40
0.0550852423
 40
0.111354406
 40
0.1687695843
 40
0.2272912727
 40
0.3474892042
 40
0.4716107805
 40
0.5992999648
 40
0.7301858563
 40
0.8638842393
 40
1.0
 40
1.0
 40
1.0
 40
1.0
 10
15.4210516572
 20
7.9121082102
 30
0.0
 10
15.4220656269
 20
7.9053237087
 30
0.0
 10
15.4240319389
 20
7.8915962955
 30
0.0
 10
15.4267723317
 20
7.8707581515
 30
0.0
 10
15.4293333998
 20
7.8494660902
 30
0.0
 10
15.4325347762
 20
7.8202341661
 30
0.0
 10
15.4360600711
 20
7.7826832588
 30
0.0
 10
15.4395092236
 20
7.7364824367
 30
0.0
 10
15.4422024347
 20
7.688898313
 30
0.0
 10
15.4441309081
 20
7.6400836724
 30
0.0
 10
15.445288288
 20
7.5901952493
 30
0.0
 10
15.4455412276
 20
7.5565942453
 30
0.0
 10
15.4455412276
 20
7.5396435307
 30
0.0
  0
SPLINE
  5
38C
100
AcDbEntity
  8
0
100
AcDbSpline
 62
7
  6
CONTINUOUS
 70
0
 71
3
 72
20
 73
16
 74
0
 42
0.0000001
 43
0.0000001
 44
0.0000000001
 40
0.0
 40
0.0
 40
0.0
 40
0.0
 40
0.0529053482
 40
0.107349923
 40
0.1632853691
 40
0.2206604553
 40
0.2794217981
 40
0.3395135536
 40
0.4008778897
 40
0.4634550263
 40
0.5271831926
 40
0.5919991152
 40
0.7246316204
 40
0.8608166229
 40
1.0
 40
1.0
 40
1.0
 40
1.0
 10
15.3227068943
 20
7.9190026996
 30
0.0
 10
15.3239858615
 20
7.912158298
 30
0.0
 10
15.326466751
 20
7.8982487926
 30
0.0
 10
15.3299166309
 20
7.8770367742
 30
0.0
 10
15.3331455542
 20
7.8551951666
 30
0.0
 10
15.3361499848
 20
7.8327482911
 30
0.0
 10
15.33892649
 20
7.8097210563
 30
0.0
 10
15.3414720071
 20
7.7861390424
 30
0.0
 10
15.3437836769
 20
7.762028443
 30
0.0
 10
15.3458588811
 20
7.7374160592
 30
0.0
 10
15.3476953729
 20
7.7123292159
 30
0.0
 10
15.3498392088
 20
7.6780221506
 30
0.0
 10
15.3518947644
 20
7.6341575178
 30
0.0
 10
15.3533649507
 20
7.580477687
 30
0.0
 10
15.3536853168
 20
7.5442354982
 30
0.0
 10
15.3536853168
 20
7.5259175756
 30
0.0
  0
SPLINE
  5
38D
100
AcDbEntity
  8
0
100
AcDbSpline
 62
7
  6
CONTINUOUS
 70
0
 71
3
 72
57
 73
53
 74
0
 42
0.0000001
 43
0.0000001
 44
0.0000000001
 40
0.0
 40
0.0
 40
0.0
 40
0.0
 40
0.0310641337
 40
0.0622845305
 40
0.0779546774
 40
0.0936617568
 40
0.1251771505
 40
0.156824606
 40
0.1885901819
 40
0.2204575434
 40
0.2524083141
 40
0.2844224549
 40
0.3164786733
 40
0.3485548485
 40
0.3806284681
 40
0.4126770697
 40
0.4446786825
 40
0.4766122612
 40
0.4925497375
 40
0.5084629572
 40
0.5243497373
 40
0.5402080238
 40
0.5560359118
 40
0.5718316485
 40
0.5875936442
 40
0.6033204876
 40
0.6190109446
 40
0.634663973
 40
0.6502787297
 40
0.6658545685
 40
0.681391056
 40
0.6968879684
 40
0.7123452932
 40
0.7277632393
 40
0.7431422276
 40
0.7584828952
 40
0.7737860964
 40
0.7890528914
 40
0.8042845492
 40
0.8194825407
 40
0.8346485254
 40
0.8497843524
 40
0.8648920448
 40
0.8799737881
 40
0.8950319243
 40
0.9100689324
 40
0.9250874165
 40
0.9400900941
 40
0.9550797742
 40
0.9700593448
 40
0.9850317565
 40
1.0
 40
1.0
 40
1.0
 40
1.0
 10
7.7478143291
 20
6.8602098026
 30
0.0
 10
7.7478143291
 20
6.8392692571
 30
0.0
 10
7.7493669736
 20
6.7972678906
 30
0.0
 10
7.7551387434
 20
6.7449880811
 30
0.0
 10
7.7620327054
 20
6.7033493159
 30
0.0
 10
7.7704585099
 20
6.6617906637
 30
0.0
 10
7.7838191515
 20
6.6102793446
 30
0.0
 10
7.8042534168
 20
6.5495828822
 30
0.0
 10
7.8289975835
 20
6.490253912
 30
0.0
 10
7.8579166031
 20
6.4326162641
 30
0.0
 10
7.8908534079
 20
6.3769819636
 30
0.0
 10
7.9276290442
 20
6.3236528403
 30
0.0
 10
7.9680438045
 20
6.272918009
 30
0.0
 10
8.0118784141
 20
6.2250526003
 30
0.0
 10
8.0588949928
 20
6.1803163491
 30
0.0
 10
8.1088389997
 20
6.1389516684
 30
0.0
 10
8.1614377394
 20
6.1011839935
 30
0.0
 10
8.2072819817
 20
6.0728567336
 30
0.0
 10
8.2449961512
 20
6.052191937
 30
0.0
 10
8.2737459374
 20
6.037719402
 30
0.0
 10
8.3029358789
 20
6.0242845554
 30
0.0
 10
8.3325267851
 20
6.0119054789
 30
0.0
 10
8.3624782845
 20
6.000598925
 30
0.0
 10
8.3927497682
 20
5.9903803635
 30
0.0
 10
8.4233001004
 20
5.9812636976
 30
0.0
 10
8.4540877505
 20
5.9732612144
 30
0.0
 10
8.4850709349
 20
5.9663839672
 30
0.0
 10
8.5162075334
 20
5.9606412194
 30
0.0
 10
8.5474552422
 20
5.9560407612
 30
0.0
 10
8.5787716243
 20
5.9525890155
 30
0.0
 10
8.6101141071
 20
5.9502905311
 30
0.0
 10
8.6414401117
 20
5.9491485216
 30
0.0
 10
8.6727070655
 20
5.949164635
 30
0.0
 10
8.7038724774
 20
5.9503387136
 30
0.0
 10
8.7348939885
 20
5.9526693308
 30
0.0
 10
8.765729431
 20
5.956153308
 30
0.0
 10
8.7963369066
 20
5.9607858357
 30
0.0
 10
8.8266747815
 20
5.9665608138
 30
0.0
 10
8.8567018319
 20
5.9734702856
 30
0.0
 10
8.8863772411
 20
5.9815048805
 30
0.0
 10
8.9156606207
 20
5.9906538288
 30
0.0
 10
8.9445122034
 20
6.0009045459
 30
0.0
 10
8.9728927288
 20
6.0122432079
 30
0.0
 10
9.0007635807
 20
6.0246544535
 30
0.0
 10
9.0280869186
 20
6.0381212876
 30
0.0
 10
9.0548255127
 20
6.0526255609
 30
0.0
 10
9.0809430211
 20
6.0681474984
 30
0.0
 10
9.1064039732
 20
6.0846659507
 30
0.0
 10
9.1311736102
 20
6.1021585776
 30
0.0
 10
9.1552184482
 20
6.1206015843
 30
0.0
 10
9.1785053226
 20
6.139969492
 30
0.0
 10
9.1935056251
 20
6.1534825724
 30
0.0
 10
9.2008675533
 20
6.1603828666
 30
0.0
  0
SPLINE
  5
38E
100
AcDbEntity
  8
0
100
AcDbSpline
 62
7
  6
CONTINUOUS
 70
0
 71
3
 72
57
 73
53
 74
0
 42
0.0000001
 43
0.0000001
 44
0.0000000001
 40
0.0
 40
0.0
 40
0.0
 40
0.0
 40
0.0310641337
 40
0.0622845305
 40
0.0779546774
 40
0.0936617568
 40
0.1251771505
 40
0.156824606
 40
0.1885901819
 40
0.2204575434
 40
0.2524083141
 40
0.2844224549
 40
0.3164786733
 40
0.3485548485
 40
0.3806284681
 40
0.4126770697
 40
0.4446786825
 40
0.4766122612
 40
0.4925497375
 40
0.5084629572
 40
0.5243497373
 40
0.5402080238
 40
0.5560359118
 40
0.5718316485
 40
0.5875936442
 40
0.6033204876
 40
0.6190109446
 40
0.634663973
 40
0.6502787297
 40
0.6658545685
 40
0.681391056
 40
0.6968879684
 40
0.7123452932
 40
0.7277632393
 40
0.7431422276
 40
0.7584828952
 40
0.7737860964
 40
0.7890528914
 40
0.8042845492
 40
0.8194825407
 40
0.8346485254
 40
0.8497843524
 40
0.8648920448
 40
0.8799737881
 40
0.8950319243
 40
0.9100689324
 40
0.9250874165
 40
0.9400900941
 40
0.9550797742
 40
0.9700593448
 40
0.9850317565
 40
1.0
 40
1.0
 40
1.0
 40
1.0
 10
11.371968104
 20
9.0236885935
 30
0.0
 10
11.371968104
 20
9.0027480479
 30
0.0
 10
11.3735207486
 20
8.9607466815
 30
0.0
 10
11.3792925183
 20
8.9084668719
 30
0.0
 10
11.3861864804
 20
8.8668281068
 30
0.0
 10
11.3946122848
 20
8.8252694546
 30
0.0
 10
11.4079729264
 20
8.7737581355
 30
0.0
 10
11.4284071918
 20
8.713061673
 30
0.0
 10
11.4531513585
 20
8.6537327028
 30
0.0
 10
11.4820703781
 20
8.596095055
 30
0.0
 10
11.5150071828
 20
8.5404607545
 30
0.0
 10
11.5517828192
 20
8.4871316311
 30
0.0
 10
11.5921975795
 20
8.4363967998
 30
0.0
 10
11.636032189
 20
8.3885313912
 30
0.0
 10
11.6830487678
 20
8.3437951399
 30
0.0
 10
11.7329927747
 20
8.3024304593
 30
0.0
 10
11.7855915144
 20
8.2646627844
 30
0.0
 10
11.8314357567
 20
8.2363355245
 30
0.0
 10
11.8691499261
 20
8.2156707278
 30
0.0
 10
11.8978997123
 20
8.2011981929
 30
0.0
 10
11.9270896539
 20
8.1877633463
 30
0.0
 10
11.95668056
 20
8.1753842698
 30
0.0
 10
11.9866320594
 20
8.1640777159
 30
0.0
 10
12.0169035432
 20
8.1538591544
 30
0.0
 10
12.0474538754
 20
8.1447424884
 30
0.0
 10
12.0782415255
 20
8.1367400052
 30
0.0
 10
12.1092247099
 20
8.1298627581
 30
0.0
 10
12.1403613084
 20
8.1241200103
 30
0.0
 10
12.1716090172
 20
8.119519552
 30
0.0
 10
12.2029253992
 20
8.1160678064
 30
0.0
 10
12.2342678821
 20
8.1137693219
 30
0.0
 10
12.2655938866
 20
8.1126273125
 30
0.0
 10
12.2968608404
 20
8.1126434259
 30
0.0
 10
12.3280262524
 20
8.1138175045
 30
0.0
 10
12.3590477634
 20
8.1161481217
 30
0.0
 10
12.389883206
 20
8.1196320988
 30
0.0
 10
12.4204906816
 20
8.1242646266
 30
0.0
 10
12.4508285564
 20
8.1300396046
 30
0.0
 10
12.4808556069
 20
8.1369490765
 30
0.0
 10
12.510531016
 20
8.1449836714
 30
0.0
 10
12.5398143956
 20
8.1541326197
 30
0.0
 10
12.5686659783
 20
8.1643833368
 30
0.0
 10
12.5970465038
 20
8.1757219988
 30
0.0
 10
12.6249173556
 20
8.1881332444
 30
0.0
 10
12.6522406935
 20
8.2016000784
 30
0.0
 10
12.6789792876
 20
8.2161043518
 30
0.0
 10
12.7050967961
 20
8.2316262892
 30
0.0
 10
12.7305577482
 20
8.2481447416
 30
0.0
 10
12.7553273852
 20
8.2656373684
 30
0.0
 10
12.7793722232
 20
8.2840803751
 30
0.0
 10
12.8026590975
 20
8.3034482828
 30
0.0
 10
12.8176594001
 20
8.3169613632
 30
0.0
 10
12.8250213282
 20
8.3238616575
 30
0.0
  0
SPLINE
  5
38F
100
AcDbEntity
  8
0
100
AcDbSpline
 62
7
  6
CONTINUOUS
 70
0
 71
3
 72
26
 73
22
 74
0
 42
0.0000001
 43
0.0000001
 44
0.0000000001
 40
0.0
 40
0.0
 40
0.0
 40
0.0
 40
0.0637632661
 40
0.1273205661
 40
0.190671333
 40
0.2538224833
 40
0.2853271227
 40
0.3167842484
 40
0.3795558683
 40
0.4421519345
 40
0.5045840823
 40
0.5668655194
 40
0.6290108777
 40
0.6910360998
 40
0.7220113907
 40
0.7529631527
 40
0.8148004164
 40
0.8765716938
 40
0.9074411441
 40
0.9383014821
 40
1.0
 40
1.0
 40
1.0
 40
1.0
 10
7.7478143291
 20
6.8602098026
 30
0.0
 10
7.7478143291
 20
6.8735397804
 30
0.0
 10
7.7484407226
 20
6.9001610087
 30
0.0
 10
7.7512679407
 20
6.9399357245
 30
0.0
 10
7.7559753342
 20
6.9794036886
 30
0.0
 10
7.7614606571
 20
7.0119910607
 30
0.0
 10
7.7667779907
 20
7.0378160024
 30
0.0
 10
7.7727019404
 20
7.0634271172
 30
0.0
 10
7.7812533108
 20
7.0950917506
 30
0.0
 10
7.7933357232
 20
7.1324628589
 30
0.0
 10
7.8072052148
 20
7.1690992478
 30
0.0
 10
7.8228309859
 20
7.20491907
 30
0.0
 10
7.840178094
 20
7.2398423217
 30
0.0
 10
7.8560444153
 20
7.2681472768
 30
0.0
 10
7.8695560721
 20
7.2902612186
 30
0.0
 10
7.8835963797
 20
7.3119966298
 30
0.0
 10
7.9021461376
 20
7.3384706418
 30
0.0
 10
7.9219940692
 20
7.3639640683
 30
0.0
 10
7.9386155815
 20
7.3837237616
 30
0.0
 10
7.9557197211
 20
7.4030461284
 30
0.0
 10
7.9690919358
 20
7.4170467982
 30
0.0
 10
7.9782334274
 20
7.4261462563
 30
0.0
  0
SPLINE
  5
390
100
AcDbEntity
  8
0
100
AcDbSpline
 62
7
  6
CONTINUOUS
 70
0
 71
3
 72
71
 73
67
 74
0
 42
0.0000001
 43
0.0000001
 44
0.0000000001
 40
0.0
 40
0.0
 40
0.0
 40
0.0
 40
0.015584053
 40
0.0311160245
 40
0.0465952359
 40
0.0620238753
 40
0.0774034566
 40
0.0927362788
 40
0.1080251228
 40
0.1232731735
 40
0.1384840555
 40
0.1536617757
 40
0.168810689
 40
0.1839354529
 40
0.1990409785
 40
0.2141323819
 40
0.2292149313
 40
0.2442939893
 40
0.2593749543
 40
0.2744632039
 40
0.2895640398
 40
0.3046826297
 40
0.3198239509
 40
0.3349927393
 40
0.3501934428
 40
0.3654301763
 40
0.3807066785
 40
0.3960262755
 40
0.4113918547
 40
0.4268058378
 40
0.4422701589
 40
0.4577862483
 40
0.4733550284
 40
0.4889769088
 40
0.5046517849
 40
0.5203790429
 40
0.5361575753
 40
0.5519857957
 40
0.5678616545
 40
0.5837826616
 40
0.5997459172
 40
0.6157481409
 40
0.6317856999
 40
0.6478546446
 40
0.6639507495
 40
0.6800695506
 40
0.6962063821
 40
0.7123564197
 40
0.7285147264
 40
0.7446762932
 40
0.7608360806
 40
0.7769890646
 40
0.7931302829
 40
0.8092548751
 40
0.8253581239
 40
0.8414355002
 40
0.8574827052
 40
0.8734957057
 40
0.8894707703
 40
0.9054045154
 40
0.9212939103
 40
0.9371363704
 40
0.9529297322
 40
0.9686719981
 40
0.9843628241
 40
1.0
 40
1.0
 40
1.0
 40
1.0
 10
8.0858883883
 20
6.836764287
 30
0.0
 10
8.0858883883
 20
6.845125637
 30
0.0
 10
8.0862976281
 20
6.8618233566
 30
0.0
 10
8.0881446862
 20
6.8867646719
 30
0.0
 10
8.0912199447
 20
6.9115012011
 30
0.0
 10
8.0955156597
 20
6.9359721492
 30
0.0
 10
8.1010218292
 20
6.9601190581
 30
0.0
 10
8.1077251216
 20
6.9838835585
 30
0.0
 10
8.1156094126
 20
7.0072084004
 30
0.0
 10
8.1246557885
 20
7.0300373347
 30
0.0
 10
8.1348425305
 20
7.0523152787
 30
0.0
 10
8.146145073
 20
7.07398852
 30
0.0
 10
8.1585361858
 20
7.0950047893
 30
0.0
 10
8.171986038
 20
7.1153133794
 30
0.0
 10
8.1864622649
 20
7.1348652599
 30
0.0
 10
8.2019299241
 20
7.153613291
 30
0.0
 10
8.2183517087
 20
7.1715122576
 30
0.0
 10
8.2356880324
 20
7.1885189702
 30
0.0
 10
8.2538971172
 20
7.2045923635
 30
0.0
 10
8.2729349968
 20
7.2196937134
 30
0.0
 10
8.292755734
 20
7.2337866244
 30
0.0
 10
8.3133115244
 20
7.2468371108
 30
0.0
 10
8.3345528046
 20
7.2588136735
 30
0.0
 10
8.3564283003
 20
7.2696875096
 30
0.0
 10
8.3788852373
 20
7.2794324547
 30
0.0
 10
8.401869461
 20
7.2880250401
 30
0.0
 10
8.4253255571
 20
7.2954445453
 30
0.0
 10
8.4491969442
 20
7.3016731907
 30
0.0
 10
8.4734260669
 20
7.306696039
 30
0.0
 10
8.4979545264
 20
7.3105010265
 30
0.0
 10
8.52272321
 20
7.3130789902
 30
0.0
 10
8.5476724204
 20
7.314423836
 30
0.0
 10
8.5727420466
 20
7.3145324046
 30
0.0
 10
8.5978716989
 20
7.3134044773
 30
0.0
 10
8.6230008425
 20
7.3110427765
 30
0.0
 10
8.6480689594
 20
7.3074531037
 30
0.0
 10
8.6730156892
 20
7.3026441767
 30
0.0
 10
8.6977809659
 20
7.2966276093
 30
0.0
 10
8.7223051508
 20
7.2894178856
 30
0.0
 10
8.7465292184
 20
7.2810324632
 30
0.0
 10
8.7703948659
 20
7.2714915879
 30
0.0
 10
8.7938446452
 20
7.2608182481
 30
0.0
 10
8.8168220908
 20
7.2490381237
 30
0.0
 10
8.8392719222
 20
7.2361796507
 30
0.0
 10
8.8611401195
 20
7.2222738208
 30
0.0
 10
8.8823740449
 20
7.2073541108
 30
0.0
 10
8.9029225612
 20
7.1914564083
 30
0.0
 10
8.9227362431
 20
7.1746190369
 30
0.0
 10
8.9417674156
 20
7.1568825452
 30
0.0
 10
8.9599702616
 20
7.1382896161
 30
0.0
 10
8.9773009249
 20
7.1188849704
 30
0.0
 10
8.9937177233
 20
7.0987153527
 30
0.0
 10
9.0091811489
 20
7.077829318
 30
0.0
 10
9.0236539559
 20
7.0562771224
 30
0.0
 10
9.0371012455
 20
7.0341106101
 30
0.0
 10
9.0494906731
 20
7.0113831606
 30
0.0
 10
9.0607924084
 20
6.9881494794
 30
0.0
 10
9.0709792025
 20
6.9644654765
 30
0.0
 10
9.0800264525
 20
6.9403881377
 30
0.0
 10
9.0879123804
 20
6.9159754413
 30
0.0
 10
9.0946179969
 20
6.8912861567
 30
0.0
 10
9.1001270892
 20
6.8663796757
 30
0.0
 10
9.1044262235
 20
6.8413161263
 30
0.0
 10
9.1075052796
 20
6.816155327
 30
0.0
 10
9.1093563975
 20
6.790959065
 30
0.0
 10
9.1097698248
 20
6.7741477204
 30
0.0
 10
9.1097698248
 20
6.7657578682
 30
0.0
  0
SPLINE
  5
391
100
AcDbEntity
  8
0
100
AcDbSpline
 62
7
  6
CONTINUOUS
 70
0
 71
3
 72
23
 73
19
 74
0
 42
0.0000001
 43
0.0000001
 44
0.0000000001
 40
0.0
 40
0.0
 40
0.0
 40
0.0
 40
0.0637762145
 40
0.1273451869
 40
0.1907020141
 40
0.2538560333
 40
0.3168132367
 40
0.379582082
 40
0.4421733861
 40
0.5045993417
 40
0.566873863
 40
0.6290123825
 40
0.6910316544
 40
0.7529496448
 40
0.8147853545
 40
0.8765586074
 40
0.9382898575
 40
1.0
 40
1.0
 40
1.0
 40
1.0
 10
8.1593730712
 20
6.8477450442
 30
0.0
 10
8.1593730712
 20
6.8549964583
 30
0.0
 10
8.1597202026
 20
6.8694781785
 30
0.0
 10
8.1612867155
 20
6.8911126224
 30
0.0
 10
8.1638950787
 20
6.9125756495
 30
0.0
 10
8.1675390207
 20
6.93381668
 30
0.0
 10
8.1722103354
 20
6.9547872909
 30
0.0
 10
8.1778982397
 20
6.9754390041
 30
0.0
 10
8.1845896769
 20
6.9957242072
 30
0.0
 10
8.1922693395
 20
7.0155961123
 30
0.0
 10
8.2009194643
 20
7.0350089171
 30
0.0
 10
8.2105201531
 20
7.0539178495
 30
0.0
 10
8.2210493844
 20
7.0722792401
 30
0.0
 10
8.232482841
 20
7.0900507746
 30
0.0
 10
8.2447941132
 20
7.1071914388
 30
0.0
 10
8.2579550305
 20
7.1236617776
 30
0.0
 10
8.2719347284
 20
7.1394232652
 30
0.0
 10
8.2817806764
 20
7.1494360304
 30
0.0
 10
8.2868273391
 20
7.1543107063
 30
0.0
  0
SPLINE
  5
392
100
AcDbEntity
  8
0
100
AcDbSpline
 62
7
  6
CONTINUOUS
 70
0
 71
3
 72
15
 73
11
 74
0
 42
0.0000001
 43
0.0000001
 44
0.0000000001
 40
0.0
 40
0.0
 40
0.0
 40
0.0
 40
0.1263846937
 40
0.2523604924
 40
0.377917448
 40
0.5030739692
 40
0.6278418353
 40
0.752237549
 40
0.8762823096
 40
1.0
 40
1.0
 40
1.0
 40
1.0
 10
9.2136341972
 20
9.4808980077
 30
0.0
 10
9.2136341972
 20
9.4873824843
 30
0.0
 10
9.21394336
 20
9.500332636
 30
0.0
 10
9.2153385106
 20
9.5196795548
 30
0.0
 10
9.2176615666
 20
9.5388741637
 30
0.0
 10
9.2209069947
 20
9.5578715982
 30
0.0
 10
9.2250675176
 20
9.5766288655
 30
0.0
 10
9.230133682
 20
9.5951031116
 30
0.0
 10
9.2360937056
 20
9.6132515052
 30
0.0
 10
9.2406602598
 20
9.6251217589
 30
0.0
 10
9.2430874766
 20
9.6309870079
 30
0.0
  0
SPLINE
  5
393
100
AcDbEntity
  8
0
100
AcDbSpline
 62
7
  6
CONTINUOUS
 70
0
 71
3
 72
59
 73
55
 74
0
 42
0.0000001
 43
0.0000001
 44
0.0000000001
 40
0.0
 40
0.0
 40
0.0
 40
0.0
 40
0.0026853875
 40
0.0053790891
 40
0.008089339
 40
0.0108242091
 40
0.0135915278
 40
0.0163988281
 40
0.0221599612
 40
0.0281622954
 40
0.034451753
 40
0.0410673672
 40
0.0480417309
 40
0.0554015447
 40
0.0631683895
 40
0.0713593564
 40
0.079987746
 40
0.0890635702
 40
0.0985940765
 40
0.1085841041
 40
0.1190364474
 40
0.1299521029
 40
0.1413305111
 40
0.1531697345
 40
0.1654666105
 40
0.1782168903
 40
0.1914153275
 40
0.2050557971
 40
0.2191313368
 40
0.2336342578
 40
0.2485561505
 40
0.263887994
 40
0.2796201342
 40
0.2957423961
 40
0.3122440407
 40
0.3291138806
 40
0.3463402216
 40
0.3639109818
 40
0.3818136215
 40
0.4185621798
 40
0.4564789439
 40
0.4954513254
 40
0.5353622163
 40
0.5760905802
 40
0.6175120189
 40
0.6594993243
 40
0.7019230188
 40
0.7446518888
 40
0.787553515
 40
0.8304947933
 40
0.8733424763
 40
0.9159636495
 40
0.9582263773
 40
1.0
 40
1.0
 40
1.0
 40
1.0
 10
15.0712748233
 20
6.4517307935
 30
0.0
 10
15.0723049276
 20
6.4516593602
 30
0.0
 10
15.0743729395
 20
6.4515757011
 30
0.0
 10
15.0774845936
 20
6.4516286132
 30
0.0
 10
15.0806072553
 20
6.4518598389
 30
0.0
 10
15.0837400366
 20
6.4522693023
 30
0.0
 10
15.0868823395
 20
6.4528568414
 30
0.0
 10
15.0911196879
 20
6.4538860037
 30
0.0
 10
15.096453565
 20
6.4556342261
 30
0.0
 10
15.1028203365
 20
6.4584239335
 30
0.0
 10
15.1092048191
 20
6.4619195726
 30
0.0
 10
15.115602106
 20
6.4661167392
 30
0.0
 10
15.1220080255
 20
6.471011256
 30
0.0
 10
15.1284182486
 20
6.4765986053
 30
0.0
 10
15.1348282625
 20
6.4828741015
 30
0.0
 10
15.1412334719
 20
6.4898325684
 30
0.0
 10
15.147629052
 20
6.4974684321
 30
0.0
 10
15.154010131
 20
6.505775544
 30
0.0
 10
15.1603716815
 20
6.5147472535
 30
0.0
 10
15.1667086658
 20
6.5243763212
 30
0.0
 10
15.1730159649
 20
6.5346549708
 30
0.0
 10
15.1792884714
 20
6.5455748525
 30
0.0
 10
15.1855210534
 20
6.5571270765
 30
0.0
 10
15.1917085997
 20
6.5693022046
 30
0.0
 10
15.1978460184
 20
6.5820902681
 30
0.0
 10
15.2039282393
 20
6.595480776
 30
0.0
 10
15.2099502458
 20
6.6094627232
 30
0.0
 10
15.2159070411
 20
6.6240246074
 30
0.0
 10
15.2217937097
 20
6.6391544318
 30
0.0
 10
15.2276053535
 20
6.6548397265
 30
0.0
 10
15.2333371792
 20
6.6710675491
 30
0.0
 10
15.2389844076
 20
6.6878245081
 30
0.0
 10
15.244542386
 20
6.7050967631
 30
0.0
 10
15.2500064728
 20
6.7228700483
 30
0.0
 10
15.2553721713
 20
6.7411296743
 30
0.0
 10
15.2606349962
 20
6.7598605517
 30
0.0
 10
15.2657906163
 20
6.7790471893
 30
0.0
 10
15.2708347394
 20
6.7986737396
 30
0.0
 10
15.2774636229
 20
6.8256420122
 30
0.0
 10
15.2854287594
 20
6.8603359448
 30
0.0
 10
15.2943970017
 20
6.9031038128
 30
0.0
 10
15.3028265625
 20
6.947219623
 30
0.0
 10
15.3106894173
 20
6.9925374243
 30
0.0
 10
15.3179594139
 20
7.0389074352
 30
0.0
 10
15.324612392
 20
7.0861763079
 30
0.0
 10
15.3306262518
 20
7.1341877103
 30
0.0
 10
15.3359810282
 20
7.1827828308
 30
0.0
 10
15.3406589557
 20
7.2318009144
 30
0.0
 10
15.3446445255
 20
7.2810797948
 30
0.0
 10
15.3479245387
 20
7.330456445
 30
0.0
 10
15.3504881446
 20
7.3797674874
 30
0.0
 10
15.3523268885
 20
7.4288498399
 30
0.0
 10
15.3534347186
 20
7.4775409489
 30
0.0
 10
15.3536853168
 20
7.5098548915
 30
0.0
 10
15.3536853168
 20
7.5259175756
 30
0.0
  0
SPLINE
  5
394
100
AcDbEntity
  8
0
100
AcDbSpline
 62
7
  6
CONTINUOUS
 70
0
 71
3
 72
15
 73
11
 74
0
 42
0.0000001
 43
0.0000001
 44
0.0000000001
 40
0.0
 40
0.0
 40
0.0
 40
0.0
 40
0.1263846937
 40
0.2523604924
 40
0.377917448
 40
0.5030739692
 40
0.6278418353
 40
0.752237549
 40
0.8762823096
 40
1.0
 40
1.0
 40
1.0
 40
1.0
 10
8.4872580729
 20
7.1164576542
 30
0.0
 10
8.4872580729
 20
7.1229421308
 30
0.0
 10
8.4875672356
 20
7.1358922826
 30
0.0
 10
8.4889623862
 20
7.1552392014
 30
0.0
 10
8.4912854422
 20
7.1744338102
 30
0.0
 10
8.4945308703
 20
7.1934312447
 30
0.0
 10
8.4986913932
 20
7.212188512
 30
0.0
 10
8.5037575576
 20
7.2306627581
 30
0.0
 10
8.5097175812
 20
7.2488111517
 30
0.0
 10
8.5142841354
 20
7.2606814054
 30
0.0
 10
8.5167113522
 20
7.2665466544
 30
0.0
  0
SPLINE
  5
395
100
AcDbEntity
  8
0
100
AcDbSpline
 62
7
  6
CONTINUOUS
 70
0
 71
3
 72
14
 73
10
 74
0
 42
0.0000001
 43
0.0000001
 44
0.0000000001
 40
0.0
 40
0.0
 40
0.0
 40
0.0
 40
0.251962426
 40
0.3774501598
 40
0.5025983895
 40
0.6274178217
 40
0.7519161965
 40
0.8761054267
 40
1.0
 40
1.0
 40
1.0
 40
1.0
 10
8.4337210326
 20
7.1127448412
 30
0.0
 10
8.4337210326
 20
7.1247445527
 30
0.0
 10
8.4344347779
 20
7.142731842
 30
0.0
 10
8.4368263078
 20
7.1665527384
 30
0.0
 10
8.439330752
 20
7.1842629165
 30
0.0
 10
8.442544117
 20
7.2018098672
 30
0.0
 10
8.4464616596
 20
7.2191665948
 30
0.0
 10
8.4510768056
 20
7.236305056
 30
0.0
 10
8.4546183341
 20
7.2475809558
 30
0.0
 10
8.4565027886
 20
7.2531724216
 30
0.0
  0
SPLINE
  5
396
100
AcDbEntity
  8
0
100
AcDbSpline
 62
7
  6
CONTINUOUS
 70
0
 71
3
 72
26
 73
22
 74
0
 42
0.0000001
 43
0.0000001
 44
0.0000000001
 40
0.0
 40
0.0
 40
0.0
 40
0.0
 40
0.0637632661
 40
0.1273205661
 40
0.190671333
 40
0.2538224833
 40
0.2853271227
 40
0.3167842484
 40
0.3795558683
 40
0.4421519345
 40
0.5045840823
 40
0.5668655194
 40
0.6290108777
 40
0.6910360998
 40
0.7220113907
 40
0.7529631527
 40
0.8148004164
 40
0.8765716938
 40
0.9074411441
 40
0.9383014821
 40
1.0
 40
1.0
 40
1.0
 40
1.0
 10
11.371968104
 20
9.0236885935
 30
0.0
 10
11.371968104
 20
9.0370185712
 30
0.0
 10
11.3725944976
 20
9.0636397996
 30
0.0
 10
11.3754217156
 20
9.1034145154
 30
0.0
 10
11.3801291092
 20
9.1428824795
 30
0.0
 10
11.385614432
 20
9.1754698515
 30
0.0
 10
11.3909317657
 20
9.2012947933
 30
0.0
 10
11.3968557153
 20
9.226905908
 30
0.0
 10
11.4054070857
 20
9.2585705414
 30
0.0
 10
11.4174894982
 20
9.2959416497
 30
0.0
 10
11.4313589898
 20
9.3325780387
 30
0.0
 10
11.4469847609
 20
9.3683978608
 30
0.0
 10
11.464331869
 20
9.4033211126
 30
0.0
 10
11.4801981902
 20
9.4316260676
 30
0.0
 10
11.493709847
 20
9.4537400095
 30
0.0
 10
11.5077501547
 20
9.4754754207
 30
0.0
 10
11.5262999126
 20
9.5019494326
 30
0.0
 10
11.5461478442
 20
9.5274428592
 30
0.0
 10
11.5627693564
 20
9.5472025525
 30
0.0
 10
11.579873496
 20
9.5665249192
 30
0.0
 10
11.5932457107
 20
9.580525589
 30
0.0
 10
11.6023872023
 20
9.5896250472
 30
0.0
  0
SPLINE
  5
397
100
AcDbEntity
  8
0
100
AcDbSpline
 62
7
  6
CONTINUOUS
 70
0
 71
3
 72
71
 73
67
 74
0
 42
0.0000001
 43
0.0000001
 44
0.0000000001
 40
0.0
 40
0.0
 40
0.0
 40
0.0
 40
0.015584053
 40
0.0311160245
 40
0.0465952359
 40
0.0620238753
 40
0.0774034566
 40
0.0927362788
 40
0.1080251228
 40
0.1232731735
 40
0.1384840555
 40
0.1536617757
 40
0.168810689
 40
0.1839354529
 40
0.1990409785
 40
0.2141323819
 40
0.2292149313
 40
0.2442939893
 40
0.2593749543
 40
0.2744632039
 40
0.2895640398
 40
0.3046826297
 40
0.3198239509
 40
0.3349927393
 40
0.3501934428
 40
0.3654301763
 40
0.3807066785
 40
0.3960262755
 40
0.4113918547
 40
0.4268058378
 40
0.4422701589
 40
0.4577862483
 40
0.4733550284
 40
0.4889769088
 40
0.5046517849
 40
0.5203790429
 40
0.5361575753
 40
0.5519857957
 40
0.5678616545
 40
0.5837826616
 40
0.5997459172
 40
0.6157481409
 40
0.6317856999
 40
0.6478546446
 40
0.6639507495
 40
0.6800695506
 40
0.6962063821
 40
0.7123564197
 40
0.7285147264
 40
0.7446762932
 40
0.7608360806
 40
0.7769890646
 40
0.7931302829
 40
0.8092548751
 40
0.8253581239
 40
0.8414355002
 40
0.8574827052
 40
0.8734957057
 40
0.8894707703
 40
0.9054045154
 40
0.9212939103
 40
0.9371363704
 40
0.9529297322
 40
0.9686719981
 40
0.9843628241
 40
1.0
 40
1.0
 40
1.0
 40
1.0
 10
11.7100421632
 20
9.0002430778
 30
0.0
 10
11.7100421632
 20
9.0086044279
 30
0.0
 10
11.710451403
 20
9.0253021475
 30
0.0
 10
11.7122984612
 20
9.0502434628
 30
0.0
 10
11.7153737197
 20
9.074979992
 30
0.0
 10
11.7196694346
 20
9.09945094
 30
0.0
 10
11.7251756041
 20
9.1235978489
 30
0.0
 10
11.7318788966
 20
9.1473623493
 30
0.0
 10
11.7397631876
 20
9.1706871913
 30
0.0
 10
11.7488095635
 20
9.1935161255
 30
0.0
 10
11.7589963055
 20
9.2157940696
 30
0.0
 10
11.7702988479
 20
9.2374673109
 30
0.0
 10
11.7826899607
 20
9.2584835802
 30
0.0
 10
11.796139813
 20
9.2787921703
 30
0.0
 10
11.8106160399
 20
9.2983440507
 30
0.0
 10
11.826083699
 20
9.3170920819
 30
0.0
 10
11.8425054837
 20
9.3349910485
 30
0.0
 10
11.8598418074
 20
9.3519977611
 30
0.0
 10
11.8780508921
 20
9.3680711544
 30
0.0
 10
11.8970887718
 20
9.3831725042
 30
0.0
 10
11.9169095089
 20
9.3972654152
 30
0.0
 10
11.9374652994
 20
9.4103159016
 30
0.0
 10
11.9587065795
 20
9.4222924643
 30
0.0
 10
11.9805820753
 20
9.4331663005
 30
0.0
 10
12.0030390123
 20
9.4429112456
 30
0.0
 10
12.0260232359
 20
9.451503831
 30
0.0
 10
12.049479332
 20
9.4589233361
 30
0.0
 10
12.0733507191
 20
9.4651519816
 30
0.0
 10
12.0975798419
 20
9.4701748298
 30
0.0
 10
12.1221083014
 20
9.4739798174
 30
0.0
 10
12.1468769849
 20
9.4765577811
 30
0.0
 10
12.1718261954
 20
9.4779026268
 30
0.0
 10
12.1968958216
 20
9.4780111954
 30
0.0
 10
12.2220254738
 20
9.4768832681
 30
0.0
 10
12.2471546175
 20
9.4745215674
 30
0.0
 10
12.2722227343
 20
9.4709318945
 30
0.0
 10
12.2971694641
 20
9.4661229676
 30
0.0
 10
12.3219347408
 20
9.4601064001
 30
0.0
 10
12.3464589258
 20
9.4528966765
 30
0.0
 10
12.3706829933
 20
9.444511254
 30
0.0
 10
12.3945486408
 20
9.4349703788
 30
0.0
 10
12.4179984202
 20
9.424297039
 30
0.0
 10
12.4409758658
 20
9.4125169145
 30
0.0
 10
12.4634256972
 20
9.3996584416
 30
0.0
 10
12.4852938944
 20
9.3857526117
 30
0.0
 10
12.5065278198
 20
9.3708329017
 30
0.0
 10
12.5270763362
 20
9.3549351992
 30
0.0
 10
12.5468900181
 20
9.3380978277
 30
0.0
 10
12.5659211906
 20
9.3203613361
 30
0.0
 10
12.5841240365
 20
9.301768407
 30
0.0
 10
12.6014546999
 20
9.2823637613
 30
0.0
 10
12.6178714983
 20
9.2621941435
 30
0.0
 10
12.6333349239
 20
9.2413081088
 30
0.0
 10
12.6478077309
 20
9.2197559133
 30
0.0
 10
12.6612550205
 20
9.197589401
 30
0.0
 10
12.6736444481
 20
9.1748619514
 30
0.0
 10
12.6849461833
 20
9.1516282703
 30
0.0
 10
12.6951329774
 20
9.1279442673
 30
0.0
 10
12.7041802275
 20
9.1038669285
 30
0.0
 10
12.7120661554
 20
9.0794542322
 30
0.0
 10
12.7187717719
 20
9.0547649476
 30
0.0
 10
12.7242808641
 20
9.0298584665
 30
0.0
 10
12.7285799985
 20
9.0047949171
 30
0.0
 10
12.7316590545
 20
8.9796341178
 30
0.0
 10
12.7335101725
 20
8.9544378558
 30
0.0
 10
12.7339235998
 20
8.9376265112
 30
0.0
 10
12.7339235998
 20
8.9292366591
 30
0.0
  0
SPLINE
  5
398
100
AcDbEntity
  8
0
100
AcDbSpline
 62
7
  6
CONTINUOUS
 70
0
 71
3
 72
23
 73
19
 74
0
 42
0.0000001
 43
0.0000001
 44
0.0000000001
 40
0.0
 40
0.0
 40
0.0
 40
0.0
 40
0.052790178
 40
0.1058485708
 40
0.159439106
 40
0.2138170689
 40
0.2692259757
 40
0.3258947937
 40
0.3840355776
 40
0.4438431412
 40
0.505494423
 40
0.5691480749
 40
0.6349461492
 40
0.7030145764
 40
0.7734635595
 40
0.8463900174
 40
0.9218781797
 40
1.0
 40
1.0
 40
1.0
 40
1.0
 10
14.9329002334
 20
9.9070996181
 30
0.0
 10
14.9344344288
 20
9.906993225
 30
0.0
 10
14.9375039224
 20
9.9066660457
 30
0.0
 10
14.9420777265
 20
9.9058349352
 30
0.0
 10
14.9466242997
 20
9.9046633787
 30
0.0
 10
14.9511415412
 20
9.9031521734
 30
0.0
 10
14.9556278322
 20
9.9013020663
 30
0.0
 10
14.9600815157
 20
9.8991139404
 30
0.0
 10
14.9645011402
 20
9.8965889311
 30
0.0
 10
14.9688852464
 20
9.8937280928
 30
0.0
 10
14.9732324173
 20
9.8905325612
 30
0.0
 10
14.9775413703
 20
9.8870036626
 30
0.0
 10
14.9818107507
 20
9.8831426592
 30
0.0
 10
14.9860392122
 20
9.8789509031
 30
0.0
 10
14.9902255109
 20
9.8744299305
 30
0.0
 10
14.9943683173
 20
9.8695812353
 30
0.0
 10
14.9984662417
 20
9.864406515
 30
0.0
 10
15.0011213388
 20
9.8608031096
 30
0.0
 10
15.0024419316
 20
9.8589496043
 30
0.0
  0
SPLINE
  5
399
100
AcDbEntity
  8
0
100
AcDbSpline
 62
7
  6
CONTINUOUS
 70
0
 71
3
 72
54
 73
50
 74
0
 42
0.0000001
 43
0.0000001
 44
0.0000000001
 40
0.0
 40
0.0
 40
0.0
 40
0.0
 40
0.0149714207
 40
0.0299459009
 40
0.0449264795
 40
0.0599161607
 40
0.0749178924
 40
0.0899345474
 40
0.1049689109
 40
0.1200236599
 40
0.135101347
 40
0.1502043904
 40
0.1653350555
 40
0.1804954423
 40
0.195687479
 40
0.210912906
 40
0.2261732683
 40
0.2414699124
 40
0.2568039734
 40
0.2721763729
 40
0.2875878193
 40
0.3030387972
 40
0.3185295728
 40
0.3340601946
 40
0.3496304877
 40
0.3652400644
 40
0.3808883259
 40
0.3965744612
 40
0.4122974619
 40
0.4280561242
 40
0.4438490534
 40
0.4596746808
 40
0.4914119437
 40
0.5232571513
 40
0.5551923202
 40
0.587197651
 40
0.6192519366
 40
0.651332993
 40
0.6834181045
 40
0.7154844744
 40
0.7475096792
 40
0.7794721147
 40
0.8113514322
 40
0.8431289588
 40
0.8747880885
 40
0.9063146442
 40
0.9376972366
 40
0.9689272309
 40
1.0
 40
1.0
 40
1.0
 40
1.0
 10
9.9273005142
 20
8.5247578949
 30
0.0
 10
9.9200003659
 20
8.5177064864
 30
0.0
 10
9.9051165521
 20
8.5038908708
 30
0.0
 10
9.881982438
 20
8.4840688521
 30
0.0
 10
9.8580693826
 20
8.4651731001
 30
0.0
 10
9.8334107799
 20
8.4472300087
 30
0.0
 10
9.8080403643
 20
8.4302642627
 30
0.0
 10
9.7819931532
 20
8.4142991408
 30
0.0
 10
9.7553049903
 20
8.3993565765
 30
0.0
 10
9.7280125484
 20
8.3854572369
 30
0.0
 10
9.7001534534
 20
8.3726201101
 30
0.0
 10
9.6717660278
 20
8.3608628671
 30
0.0
 10
9.6428893029
 20
8.35020176
 30
0.0
 10
9.6135630662
 20
8.3406513008
 30
0.0
 10
9.5838276436
 20
8.3322246729
 30
0.0
 10
9.5537239378
 20
8.3249335024
 30
0.0
 10
9.5232933964
 20
8.3187876634
 30
0.0
 10
9.4925778593
 20
8.3137956867
 30
0.0
 10
9.4616195833
 20
8.3099644235
 30
0.0
 10
9.4304611629
 20
8.3072990044
 30
0.0
 10
9.3991454417
 20
8.3058031973
 30
0.0
 10
9.3677154961
 20
8.3054789945
 30
0.0
 10
9.3362145461
 20
8.3063267342
 30
0.0
 10
9.3046859141
 20
8.3083453653
 30
0.0
 10
9.2731729529
 20
8.3115320047
 30
0.0
 10
9.2417189831
 20
8.3158822035
 30
0.0
 10
9.2103672696
 20
8.321390094
 30
0.0
 10
9.1791609077
 20
8.3280479621
 30
0.0
 10
9.14814276
 20
8.3358466477
 30
0.0
 10
9.1173556254
 20
8.3447754655
 30
0.0
 10
9.0868413198
 20
8.3548222079
 30
0.0
 10
9.0465422504
 20
8.3697020282
 30
0.0
 10
8.9970614123
 20
8.3910317608
 30
0.0
 10
8.9395031746
 20
8.4208129476
 30
0.0
 10
8.8840134738
 20
8.454643596
 30
0.0
 10
8.830898858
 20
8.492337053
 30
0.0
 10
8.780450221
 20
8.5336864279
 30
0.0
 10
8.7329444848
 20
8.5784645287
 30
0.0
 10
8.6886423352
 20
8.6264255677
 30
0.0
 10
8.64778703
 20
8.6773063554
 30
0.0
 10
8.6106028459
 20
8.7308276261
 30
0.0
 10
8.5772940419
 20
8.7866957003
 30
0.0
 10
8.548043784
 20
8.8446040802
 30
0.0
 10
8.5230129534
 20
8.9042349621
 30
0.0
 10
8.502339351
 20
8.9652611753
 30
0.0
 10
8.4861370383
 20
9.0273474657
 30
0.0
 10
8.4744957093
 20
9.0901540872
 30
0.0
 10
8.4674796808
 20
9.1533316781
 30
0.0
 10
8.4659082504
 20
9.1955849331
 30
0.0
 10
8.4659082504
 20
9.2166501619
 30
0.0
  0
SPLINE
  5
39A
100
AcDbEntity
  8
0
100
AcDbSpline
 62
7
  6
CONTINUOUS
 70
0
 71
3
 72
72
 73
68
 74
0
 42
0.0000001
 43
0.0000001
 44
0.0000000001
 40
0.0
 40
0.0
 40
0.0
 40
0.0
 40
0.0028080269
 40
0.0056357484
 40
0.0085023994
 40
0.0114263655
 40
0.0144248954
 40
0.0175138142
 40
0.0240150992
 40
0.0274548856
 40
0.0310331103
 40
0.0347582228
 40
0.038637415
 40
0.0426767077
 40
0.046881194
 40
0.0512550823
 40
0.0558017079
 40
0.0605237694
 40
0.0654233748
 40
0.075759731
 40
0.0868182127
 40
0.098598601
 40
0.1110954766
 40
0.1242989573
 40
0.1381953061
 40
0.1527676484
 40
0.1679961539
 40
0.1838584729
 40
0.2003300721
 40
0.2173842617
 40
0.2349925857
 40
0.2531249162
 40
0.2717495282
 40
0.2908334012
 40
0.3103422029
 40
0.3302404582
 40
0.3504917274
 40
0.3710585926
 40
0.4129848783
 40
0.4557069026
 40
0.4989035052
 40
0.542248869
 40
0.5854157291
 40
0.6280785651
 40
0.6699167822
 40
0.690429054
 40
0.7106188507
 40
0.7304489648
 40
0.7498830569
 40
0.7688859026
 40
0.7874234007
 40
0.8054626957
 40
0.82297243
 40
0.8399227074
 40
0.8562853711
 40
0.8720341902
 40
0.8871449021
 40
0.9015956586
 40
0.9153671668
 40
0.9284429885
 40
0.9408101529
 40
0.9524594887
 40
0.9633864448
 40
0.9735918993
 40
0.9830834872
 40
0.9918777842
 40
1.0
 40
1.0
 40
1.0
 40
1.0
 10
14.1680924425
 20
10.2196667313
 30
0.0
 10
14.1680924359
 20
10.2203350083
 30
0.0
 10
14.1680339111
 20
10.2216769726
 30
0.0
 10
14.1677708987
 20
10.2236856566
 30
0.0
 10
14.1673329294
 20
10.2256918854
 30
0.0
 10
14.1667204712
 20
10.2276942405
 30
0.0
 10
14.1659339363
 20
10.2296917157
 30
0.0
 10
14.1646321957
 20
10.2323925668
 30
0.0
 10
14.1629926782
 20
10.2350369763
 30
0.0
 10
14.1610618786
 20
10.2376119308
 30
0.0
 10
14.1594160316
 20
10.2395702824
 30
0.0
 10
14.1576008755
 20
10.2415179076
 30
0.0
 10
14.1556171973
 20
10.2434541444
 30
0.0
 10
14.1534660922
 20
10.2453780767
 30
0.0
 10
14.1511485956
 20
10.2472887928
 30
0.0
 10
14.1486658468
 20
10.2491853535
 30
0.0
 10
14.1460191228
 20
10.2510668905
 30
0.0
 10
14.1432097203
 20
10.2529325012
 30
0.0
 10
14.1391765185
 20
10.2554423034
 30
0.0
 10
14.133727348
 20
10.2585252434
 30
0.0
 10
14.1266763557
 20
10.2620831026
 30
0.0
 10
14.1190149352
 20
10.2655557013
 30
0.0
 10
14.1107583487
 20
10.2689360364
 30
0.0
 10
14.1019228932
 20
10.2722173253
 30
0.0
 10
14.0925262083
 20
10.2753929857
 30
0.0
 10
14.0825870766
 20
10.2784565159
 30
0.0
 10
14.0721254533
 20
10.2814017161
 30
0.0
 10
14.0611623793
 20
10.2842226098
 30
0.0
 10
14.0497199282
 20
10.2869133988
 30
0.0
 10
14.0378211809
 20
10.2894686533
 30
0.0
 10
14.02549015
 20
10.2918831504
 30
0.0
 10
14.0127517346
 20
10.2941519477
 30
0.0
 10
13.999631676
 20
10.2962704728
 30
0.0
 10
13.9861564907
 20
10.2982343718
 30
0.0
 10
13.9723534204
 20
10.3000396578
 30
0.0
 10
13.9582503859
 20
10.301682678
 30
0.0
 10
13.9438758851
 20
10.3031600651
 30
0.0
 10
13.9242616919
 20
10.3049162062
 30
0.0
 10
13.8992803626
 20
10.3066698532
 30
0.0
 10
13.8688838855
 20
10.3080627198
 30
0.0
 10
13.8381253424
 20
10.3087456515
 30
0.0
 10
13.8072534395
 20
10.3087130654
 30
0.0
 10
13.7765175706
 20
10.3079652441
 30
0.0
 10
13.7461662586
 20
10.3065083027
 30
0.0
 10
13.7212368478
 20
10.3047016951
 30
0.0
 10
13.7016752212
 20
10.3029037783
 30
0.0
 10
13.6873479521
 20
10.3013960092
 30
0.0
 10
13.6732973796
 20
10.2997232367
 30
0.0
 10
13.6595518991
 20
10.2978887948
 30
0.0
 10
13.646139309
 20
10.2958964623
 30
0.0
 10
13.6330867246
 20
10.293750287
 30
0.0
 10
13.6204205288
 20
10.2914546073
 30
0.0
 10
13.6081663066
 20
10.2890141478
 30
0.0
 10
13.5963488062
 20
10.2864338434
 30
0.0
 10
13.5849918744
 20
10.2837189495
 30
0.0
 10
13.574118403
 20
10.2808750367
 30
0.0
 10
13.5637502973
 20
10.2779078398
 30
0.0
 10
13.5539083944
 20
10.2748234353
 30
0.0
 10
13.5446124322
 20
10.2716281022
 30
0.0
 10
13.5358810173
 20
10.2683282639
 30
0.0
 10
13.5277315131
 20
10.2649306521
 30
0.0
 10
13.5201800533
 20
10.2614420456
 30
0.0
 10
13.5132414857
 20
10.2578693097
 30
0.0
 10
13.5069292917
 20
10.2542195409
 30
0.0
 10
13.5012553309
 20
10.2504993134
 30
0.0
 10
13.4962310775
 20
10.2467158048
 30
0.0
 10
13.4932042665
 20
10.2440528623
 30
0.0
 10
13.4918139541
 20
10.2427099235
 30
0.0
  0
SPLINE
  5
39B
100
AcDbEntity
  8
0
100
AcDbSpline
 62
7
  6
CONTINUOUS
 70
0
 71
3
 72
71
 73
67
 74
0
 42
0.0000001
 43
0.0000001
 44
0.0000000001
 40
0.0
 40
0.0
 40
0.0
 40
0.0
 40
0.0156371759
 40
0.0313280019
 40
0.0470702678
 40
0.0628636296
 40
0.0787060897
 40
0.0945954846
 40
0.1105292297
 40
0.1265042943
 40
0.1425172948
 40
0.1585644998
 40
0.1746418761
 40
0.1907451249
 40
0.2068697171
 40
0.2230109354
 40
0.2391639194
 40
0.2553237068
 40
0.2714852736
 40
0.2876435803
 40
0.3037936179
 40
0.3199304494
 40
0.3360492505
 40
0.3521453554
 40
0.3682143001
 40
0.3842518591
 40
0.4002540828
 40
0.4162173384
 40
0.4321383455
 40
0.4480142043
 40
0.4638424247
 40
0.4796209571
 40
0.4953482151
 40
0.5110230912
 40
0.5266449716
 40
0.5422137517
 40
0.5577298411
 40
0.5731941622
 40
0.5886081453
 40
0.6039737245
 40
0.6192933215
 40
0.6345698237
 40
0.6498065572
 40
0.6650072607
 40
0.6801760491
 40
0.6953173703
 40
0.7104359602
 40
0.7255367961
 40
0.7406250457
 40
0.7557060107
 40
0.7707850687
 40
0.7858676181
 40
0.8009590215
 40
0.8160645471
 40
0.831189311
 40
0.8463382243
 40
0.8615159445
 40
0.8767268265
 40
0.8919748772
 40
0.9072637212
 40
0.9225965434
 40
0.9379761247
 40
0.9534047641
 40
0.9688839755
 40
0.984415947
 40
1.0
 40
1.0
 40
1.0
 40
1.0
 10
8.0858883883
 20
6.836764287
 30
0.0
 10
8.0858883883
 20
6.8283744348
 30
0.0
 10
8.0863018156
 20
6.8115630902
 30
0.0
 10
8.0881529336
 20
6.7863668282
 30
0.0
 10
8.0912319896
 20
6.7612060289
 30
0.0
 10
8.0955311239
 20
6.7361424795
 30
0.0
 10
8.1010402162
 20
6.7112359985
 30
0.0
 10
8.1077458327
 20
6.6865467139
 30
0.0
 10
8.1156317606
 20
6.6621340175
 30
0.0
 10
8.1246790106
 20
6.6380566787
 30
0.0
 10
8.1348658047
 20
6.6143726757
 30
0.0
 10
8.14616754
 20
6.5911389946
 30
0.0
 10
8.1585569676
 20
6.5684115451
 30
0.0
 10
8.1720042572
 20
6.5462450327
 30
0.0
 10
8.1864770642
 20
6.5246928372
 30
0.0
 10
8.2019404898
 20
6.5038068025
 30
0.0
 10
8.2183572882
 20
6.4836371848
 30
0.0
 10
8.2356879515
 20
6.464232539
 30
0.0
 10
8.2538907975
 20
6.4456396099
 30
0.0
 10
8.27292197
 20
6.4279031183
 30
0.0
 10
8.2927356519
 20
6.4110657468
 30
0.0
 10
8.3132841682
 20
6.3951680444
 30
0.0
 10
8.3345180937
 20
6.3802483344
 30
0.0
 10
8.3563862909
 20
6.3663425045
 30
0.0
 10
8.3788361223
 20
6.3534840315
 30
0.0
 10
8.4018135679
 20
6.3417039071
 30
0.0
 10
8.4252633472
 20
6.3310305673
 30
0.0
 10
8.4491289947
 20
6.321489692
 30
0.0
 10
8.4733530623
 20
6.3131042696
 30
0.0
 10
8.4978772472
 20
6.3058945459
 30
0.0
 10
8.522642524
 20
6.2998779785
 30
0.0
 10
8.5475892537
 20
6.2950690515
 30
0.0
 10
8.5726573706
 20
6.2914793787
 30
0.0
 10
8.5977865142
 20
6.2891176779
 30
0.0
 10
8.6229161665
 20
6.2879897506
 30
0.0
 10
8.6479857927
 20
6.2880983192
 30
0.0
 10
8.6729350032
 20
6.289443165
 30
0.0
 10
8.6977036867
 20
6.2920211287
 30
0.0
 10
8.7222321462
 20
6.2958261162
 30
0.0
 10
8.7464612689
 20
6.3008489645
 30
0.0
 10
8.770332656
 20
6.3070776099
 30
0.0
 10
8.7937887522
 20
6.3144971151
 30
0.0
 10
8.8167729758
 20
6.3230897005
 30
0.0
 10
8.8392299128
 20
6.3328346456
 30
0.0
 10
8.8611054085
 20
6.3437084817
 30
0.0
 10
8.8823466887
 20
6.3556850444
 30
0.0
 10
8.9029024792
 20
6.3687355308
 30
0.0
 10
8.9227232163
 20
6.3828284418
 30
0.0
 10
8.941761096
 20
6.3979297917
 30
0.0
 10
8.9599701807
 20
6.414003185
 30
0.0
 10
8.9773065044
 20
6.4310098976
 30
0.0
 10
8.993728289
 20
6.4489088642
 30
0.0
 10
9.0091959482
 20
6.4676568953
 30
0.0
 10
9.0236721751
 20
6.4872087758
 30
0.0
 10
9.0371220273
 20
6.5075173658
 30
0.0
 10
9.0495131401
 20
6.5285336351
 30
0.0
 10
9.0608156826
 20
6.5502068764
 30
0.0
 10
9.0710024246
 20
6.5724848205
 30
0.0
 10
9.0800488005
 20
6.5953137548
 30
0.0
 10
9.0879330915
 20
6.6186385967
 30
0.0
 10
9.094636384
 20
6.6424030971
 30
0.0
 10
9.1001425535
 20
6.666550006
 30
0.0
 10
9.1044382684
 20
6.691020954
 30
0.0
 10
9.1075135269
 20
6.7157574832
 30
0.0
 10
9.1093605851
 20
6.7406987985
 30
0.0
 10
9.1097698248
 20
6.7573965182
 30
0.0
 10
9.1097698248
 20
6.7657578682
 30
0.0
  0
SPLINE
  5
39C
100
AcDbEntity
  8
0
100
AcDbSpline
 62
7
  6
CONTINUOUS
 70
0
 71
3
 72
72
 73
68
 74
0
 42
0.0000001
 43
0.0000001
 44
0.0000000001
 40
0.0
 40
0.0
 40
0.0
 40
0.0
 40
0.0028080269
 40
0.0056357484
 40
0.0085023994
 40
0.0114263655
 40
0.0144248954
 40
0.0175138142
 40
0.0240150992
 40
0.0274548856
 40
0.0310331103
 40
0.0347582228
 40
0.038637415
 40
0.0426767077
 40
0.046881194
 40
0.0512550823
 40
0.0558017079
 40
0.0605237694
 40
0.0654233748
 40
0.075759731
 40
0.0868182127
 40
0.098598601
 40
0.1110954766
 40
0.1242989573
 40
0.1381953061
 40
0.1527676484
 40
0.1679961539
 40
0.1838584729
 40
0.2003300721
 40
0.2173842617
 40
0.2349925857
 40
0.2531249162
 40
0.2717495282
 40
0.2908334012
 40
0.3103422029
 40
0.3302404582
 40
0.3504917274
 40
0.3710585926
 40
0.4129848783
 40
0.4557069026
 40
0.4989035052
 40
0.542248869
 40
0.5854157291
 40
0.6280785651
 40
0.6699167822
 40
0.690429054
 40
0.7106188507
 40
0.7304489648
 40
0.7498830569
 40
0.7688859026
 40
0.7874234007
 40
0.8054626957
 40
0.82297243
 40
0.8399227074
 40
0.8562853711
 40
0.8720341902
 40
0.8871449021
 40
0.9015956586
 40
0.9153671668
 40
0.9284429885
 40
0.9408101529
 40
0.9524594887
 40
0.9633864448
 40
0.9735918993
 40
0.9830834872
 40
0.9918777842
 40
1.0
 40
1.0
 40
1.0
 40
1.0
 10
7.6461609594
 20
10.6719642158
 30
0.0
 10
7.6461609528
 20
10.6726324928
 30
0.0
 10
7.646102428
 20
10.6739744572
 30
0.0
 10
7.6458394156
 20
10.6759831411
 30
0.0
 10
7.6454014463
 20
10.67798937
 30
0.0
 10
7.6447889881
 20
10.6799917251
 30
0.0
 10
7.6440024532
 20
10.6819892002
 30
0.0
 10
7.6427007126
 20
10.6846900513
 30
0.0
 10
7.6410611951
 20
10.6873344608
 30
0.0
 10
7.6391303955
 20
10.6899094154
 30
0.0
 10
7.6374845485
 20
10.691867767
 30
0.0
 10
7.6356693924
 20
10.6938153922
 30
0.0
 10
7.6336857142
 20
10.695751629
 30
0.0
 10
7.6315346091
 20
10.6976755612
 30
0.0
 10
7.6292171125
 20
10.6995862773
 30
0.0
 10
7.6267343637
 20
10.7014828381
 30
0.0
 10
7.6240876397
 20
10.7033643751
 30
0.0
 10
7.6212782372
 20
10.7052299858
 30
0.0
 10
7.6172450354
 20
10.707739788
 30
0.0
 10
7.6117958649
 20
10.7108227279
 30
0.0
 10
7.6047448727
 20
10.7143805872
 30
0.0
 10
7.5970834521
 20
10.7178531859
 30
0.0
 10
7.5888268656
 20
10.721233521
 30
0.0
 10
7.5799914101
 20
10.7245148099
 30
0.0
 10
7.5705947252
 20
10.7276904703
 30
0.0
 10
7.5606555935
 20
10.7307540005
 30
0.0
 10
7.5501939702
 20
10.7336992006
 30
0.0
 10
7.5392308962
 20
10.7365200943
 30
0.0
 10
7.5277884451
 20
10.7392108833
 30
0.0
 10
7.5158896978
 20
10.7417661379
 30
0.0
 10
7.5035586669
 20
10.7441806349
 30
0.0
 10
7.4908202515
 20
10.7464494323
 30
0.0
 10
7.4777001929
 20
10.7485679574
 30
0.0
 10
7.4642250076
 20
10.7505318564
 30
0.0
 10
7.4504219373
 20
10.7523371424
 30
0.0
 10
7.4363189028
 20
10.7539801626
 30
0.0
 10
7.421944402
 20
10.7554575496
 30
0.0
 10
7.4023302088
 20
10.7572136908
 30
0.0
 10
7.3773488795
 20
10.7589673378
 30
0.0
 10
7.3469524024
 20
10.7603602043
 30
0.0
 10
7.3161938593
 20
10.7610431361
 30
0.0
 10
7.2853219564
 20
10.76101055
 30
0.0
 10
7.2545860875
 20
10.7602627287
 30
0.0
 10
7.2242347755
 20
10.7588057873
 30
0.0
 10
7.1993053647
 20
10.7569991797
 30
0.0
 10
7.1797437381
 20
10.7552012629
 30
0.0
 10
7.165416469
 20
10.7536934938
 30
0.0
 10
7.1513658965
 20
10.7520207212
 30
0.0
 10
7.137620416
 20
10.7501862793
 30
0.0
 10
7.1242078259
 20
10.7481939468
 30
0.0
 10
7.1111552415
 20
10.7460477716
 30
0.0
 10
7.0984890457
 20
10.7437520919
 30
0.0
 10
7.0862348235
 20
10.7413116324
 30
0.0
 10
7.0744173231
 20
10.7387313279
 30
0.0
 10
7.0630603913
 20
10.7360164341
 30
0.0
 10
7.0521869199
 20
10.7331725213
 30
0.0
 10
7.0418188142
 20
10.7302053243
 30
0.0
 10
7.0319769113
 20
10.7271209199
 30
0.0
 10
7.0226809491
 20
10.7239255868
 30
0.0
 10
7.0139495342
 20
10.7206257485
 30
0.0
 10
7.00580003
 20
10.7172281367
 30
0.0
 10
6.9982485702
 20
10.7137395301
 30
0.0
 10
6.9913100026
 20
10.7101667942
 30
0.0
 10
6.9849978086
 20
10.7065170254
 30
0.0
 10
6.9793238478
 20
10.702796798
 30
0.0
 10
6.9742995944
 20
10.6990132894
 30
0.0
 10
6.9712727834
 20
10.6963503469
 30
0.0
 10
6.969882471
 20
10.6950074081
 30
0.0
  0
SPLINE
  5
39D
100
AcDbEntity
  8
0
100
AcDbSpline
 62
7
  6
CONTINUOUS
 70
0
 71
3
 72
46
 73
42
 74
0
 42
0.0000001
 43
0.0000001
 44
0.0000000001
 40
0.0
 40
0.0
 40
0.0
 40
0.0
 40
0.0310740495
 40
0.0623053784
 40
0.0936893298
 40
0.1252171982
 40
0.1568776713
 40
0.1886565386
 40
0.2205372029
 40
0.2525009879
 40
0.2845275454
 40
0.3165952705
 40
0.3486817381
 40
0.3807641507
 40
0.4128197913
 40
0.4448264749
 40
0.4767629936
 40
0.5086095465
 40
0.5403481503
 40
0.5719630221
 40
0.6034409278
 40
0.6347714896
 40
0.6659474424
 40
0.6969648348
 40
0.7278231643
 40
0.7585254415
 40
0.7890781769
 40
0.8043042476
 40
0.8194969259
 40
0.8346579555
 40
0.8497892586
 40
0.8648929421
 40
0.8799712659
 40
0.8950266522
 40
0.9100616505
 40
0.9250789414
 40
0.9400813066
 40
0.9550716211
 40
0.9700528339
 40
0.9850279456
 40
1.0
 40
1.0
 40
1.0
 40
1.0
 10
8.1593730712
 20
6.8477450442
 30
0.0
 10
8.1593730712
 20
6.8364943129
 30
0.0
 10
8.1602123504
 20
6.8139272479
 30
0.0
 10
8.1639595476
 20
6.7801846773
 30
0.0
 10
8.1701770838
 20
6.746640235
 30
0.0
 10
8.1788306001
 20
6.7134805201
 30
0.0
 10
8.1898721582
 20
6.6808869851
 30
0.0
 10
8.2032409035
 20
6.6490386875
 30
0.0
 10
8.2188631926
 20
6.6181103606
 30
0.0
 10
8.2366530914
 20
6.5882717272
 30
0.0
 10
8.2565128104
 20
6.5596865074
 30
0.0
 10
8.278333251
 20
6.5325115523
 30
0.0
 10
8.3019945959
 20
6.5068959874
 30
0.0
 10
8.3273669621
 20
6.4829804057
 30
0.0
 10
8.3543111047
 20
6.4608961008
 30
0.0
 10
8.3826791722
 20
6.440764351
 30
0.0
 10
8.412315513
 20
6.4226957637
 30
0.0
 10
8.4430575178
 20
6.406789671
 30
0.0
 10
8.4747365012
 20
6.3931335881
 30
0.0
 10
8.5071786142
 20
6.3818027329
 30
0.0
 10
8.540205787
 20
6.3728596122
 30
0.0
 10
8.5736366822
 20
6.3663536707
 30
0.0
 10
8.6072877161
 20
6.3623210226
 30
0.0
 10
8.6409739042
 20
6.3607842014
 30
0.0
 10
8.6745104179
 20
6.3617521687
 30
0.0
 10
8.7077115448
 20
6.3652196966
 30
0.0
 10
8.7349837722
 20
6.3701836929
 30
0.0
 10
8.756443216
 20
6.3753813647
 30
0.0
 10
8.772324829
 20
6.3798819407
 30
0.0
 10
8.7879876588
 20
6.3849827193
 30
0.0
 10
8.8034104509
 20
6.3906767532
 30
0.0
 10
8.8185719351
 20
6.3969561217
 30
0.0
 10
8.8334512047
 20
6.4038123479
 30
0.0
 10
8.8480278707
 20
6.4112358047
 30
0.0
 10
8.8622817518
 20
6.419216524
 30
0.0
 10
8.8761933708
 20
6.4277432747
 30
0.0
 10
8.889743432
 20
6.4368045858
 30
0.0
 10
8.9029134201
 20
6.4463877452
 30
0.0
 10
8.9156851347
 20
6.4564798255
 30
0.0
 10
8.9280408741
 20
6.4670665534
 30
0.0
 10
8.9359901803
 20
6.474445346
 30
0.0
 10
8.9398891338
 20
6.4782114259
 30
0.0
  0
SPLINE
  5
39E
100
AcDbEntity
  8
0
100
AcDbSpline
 62
7
  6
CONTINUOUS
 70
0
 71
3
 72
23
 73
19
 74
0
 42
0.0000001
 43
0.0000001
 44
0.0000000001
 40
0.0
 40
0.0
 40
0.0
 40
0.0
 40
0.0781691239
 40
0.1536976975
 40
0.2266579234
 40
0.2971334203
 40
0.3652213516
 40
0.4310322547
 40
0.4946916894
 40
0.5563421329
 40
0.6161427433
 40
0.6742704686
 40
0.730920822
 40
0.7863066268
 40
0.8406573579
 40
0.8942175326
 40
0.9472434512
 40
1.0
 40
1.0
 40
1.0
 40
1.0
 10
14.8702345023
 20
7.9501721119
 30
0.0
 10
14.8686671091
 20
7.9485107678
 30
0.0
 10
14.8655328293
 20
7.9452930984
 30
0.0
 10
14.8607486154
 20
7.9407116106
 30
0.0
 10
14.8559649418
 20
7.936460674
 30
0.0
 10
14.8511833566
 20
7.9325418726
 30
0.0
 10
14.8464054237
 20
7.9289564879
 30
0.0
 10
14.8416326374
 20
7.9257058179
 30
0.0
 10
14.8368664588
 20
7.9227911261
 30
0.0
 10
14.8321084455
 20
7.9202134496
 30
0.0
 10
14.8273600913
 20
7.9179738614
 30
0.0
 10
14.8226229083
 20
7.9160734198
 30
0.0
 10
14.8178985285
 20
7.9145129281
 30
0.0
 10
14.8131885722
 20
7.9132932391
 30
0.0
 10
14.808494778
 20
7.9124151444
 30
0.0
 10
14.803818889
 20
7.911879105
 30
0.0
 10
14.7991631089
 20
7.9116855452
 30
0.0
 10
14.796070516
 20
7.9117851537
 30
0.0
 10
14.7945327125
 20
7.911891797
 30
0.0
  0
SPLINE
  5
39F
100
AcDbEntity
  8
0
100
AcDbSpline
 62
7
  6
CONTINUOUS
 70
0
 71
3
 72
43
 73
39
 74
0
 42
0.0000001
 43
0.0000001
 44
0.0000000001
 40
0.0
 40
0.0
 40
0.0
 40
0.0
 40
0.0307902025
 40
0.0617081277
 40
0.0927497852
 40
0.1239115816
 40
0.1551869822
 40
0.1708666191
 40
0.1865716649
 40
0.2180499181
 40
0.2496145429
 40
0.2654272443
 40
0.281257091
 40
0.3129585946
 40
0.3447087941
 40
0.3764936148
 40
0.4082985295
 40
0.4401087487
 40
0.471909414
 40
0.5036857907
 40
0.5354234609
 40
0.5671085132
 40
0.5987277288
 40
0.6302687601
 40
0.6617203007
 40
0.6930722447
 40
0.724315834
 40
0.7554437907
 40
0.7864504329
 40
0.8173317727
 40
0.8480855932
 40
0.8634162345
 40
0.8787150054
 40
0.909214464
 40
0.9395907867
 40
0.9547361222
 40
0.9698527487
 40
1.0
 40
1.0
 40
1.0
 40
1.0
 10
8.4337210326
 20
7.1127448412
 30
0.0
 10
8.4337210326
 20
7.1036326981
 30
0.0
 10
8.4342712071
 20
7.0853659787
 30
0.0
 10
8.4367317135
 20
7.0580124857
 30
0.0
 10
8.4408204741
 20
7.0307424555
 30
0.0
 10
8.4465221267
 20
7.0036563143
 30
0.0
 10
8.452596018
 20
6.981335755
 30
0.0
 10
8.458235947
 20
6.963668118
 30
0.0
 10
8.4644023287
 20
6.9461135433
 30
0.0
 10
8.4730712217
 20
6.9244663696
 30
0.0
 10
8.482974782
 20
6.9033204909
 30
0.0
 10
8.4916233868
 20
6.8867317111
 30
0.0
 10
8.5007581136
 20
6.8703592132
 30
0.0
 10
8.5130560171
 20
6.8503616634
 30
0.0
 10
8.5291574454
 20
6.8272114261
 30
0.0
 10
8.546553043
 20
6.8049778448
 30
0.0
 10
8.5651797662
 20
6.7837415792
 30
0.0
 10
8.5849705096
 20
6.7635790749
 30
0.0
 10
8.6058538833
 20
6.7445630831
 30
0.0
 10
8.6277545917
 20
6.7267621868
 30
0.0
 10
8.650593671
 20
6.7102406142
 30
0.0
 10
8.6742887752
 20
6.6950579866
 30
0.0
 10
8.698754467
 20
6.6812691014
 30
0.0
 10
8.7239025323
 20
6.6689237466
 30
0.0
 10
8.7496422953
 20
6.65806652
 30
0.0
 10
8.7758809365
 20
6.6487366695
 30
0.0
 10
8.802523844
 20
6.6409679512
 30
0.0
 10
8.8294748763
 20
6.6347885054
 30
0.0
 10
8.8566369814
 20
6.6302207596
 30
0.0
 10
8.8839115196
 20
6.6272813232
 30
0.0
 10
8.9066780595
 20
6.6261965607
 30
0.0
 10
8.9248463333
 20
6.6261532348
 30
0.0
 10
8.9429323839
 20
6.6266572219
 30
0.0
 10
8.9654298515
 20
6.6283107644
 30
0.0
 10
8.9877391059
 20
6.6313324668
 30
0.0
 10
9.0053941163
 20
6.6345628484
 30
0.0
 10
9.0228736933
 20
6.6383241955
 30
0.0
 10
9.0358349977
 20
6.6417522886
 30
0.0
 10
9.0443844396
 20
6.6443031201
 30
0.0
  0
SPLINE
  5
3A0
100
AcDbEntity
  8
0
100
AcDbSpline
 62
7
  6
CONTINUOUS
 70
0
 71
3
 72
23
 73
19
 74
0
 42
0.0000001
 43
0.0000001
 44
0.0000000001
 40
0.0
 40
0.0
 40
0.0
 40
0.0
 40
0.0637762145
 40
0.1273451869
 40
0.1907020141
 40
0.2538560333
 40
0.3168132367
 40
0.379582082
 40
0.4421733861
 40
0.5045993417
 40
0.566873863
 40
0.6290123825
 40
0.6910316544
 40
0.7529496448
 40
0.8147853545
 40
0.8765586074
 40
0.9382898575
 40
1.0
 40
1.0
 40
1.0
 40
1.0
 10
11.7835268461
 20
9.0112238351
 30
0.0
 10
11.7835268461
 20
9.0184752492
 30
0.0
 10
11.7838739775
 20
9.0329569693
 30
0.0
 10
11.7854404904
 20
9.0545914133
 30
0.0
 10
11.7880488537
 20
9.0760544404
 30
0.0
 10
11.7916927956
 20
9.0972954709
 30
0.0
 10
11.7963641104
 20
9.1182660818
 30
0.0
 10
11.8020520146
 20
9.1389177949
 30
0.0
 10
11.8087434519
 20
9.1592029981
 30
0.0
 10
11.8164231144
 20
9.1790749032
 30
0.0
 10
11.8250732392
 20
9.198487708
 30
0.0
 10
11.8346739281
 20
9.2173966404
 30
0.0
 10
11.8452031594
 20
9.235758031
 30
0.0
 10
11.856636616
 20
9.2535295655
 30
0.0
 10
11.8689478882
 20
9.2706702297
 30
0.0
 10
11.8821088054
 20
9.2871405684
 30
0.0
 10
11.8960885034
 20
9.3029020561
 30
0.0
 10
11.9059344514
 20
9.3129148212
 30
0.0
 10
11.910981114
 20
9.3177894972
 30
0.0
  0
SPLINE
  5
3A1
100
AcDbEntity
  8
0
100
AcDbSpline
 62
7
  6
CONTINUOUS
 70
0
 71
3
 72
15
 73
11
 74
0
 42
0.0000001
 43
0.0000001
 44
0.0000000001
 40
0.0
 40
0.0
 40
0.0
 40
0.0
 40
0.1263846937
 40
0.2523604924
 40
0.377917448
 40
0.5030739692
 40
0.6278418353
 40
0.752237549
 40
0.8762823096
 40
1.0
 40
1.0
 40
1.0
 40
1.0
 10
12.1114118478
 20
9.279936445
 30
0.0
 10
12.1114118478
 20
9.2864209217
 30
0.0
 10
12.1117210105
 20
9.2993710734
 30
0.0
 10
12.1131161611
 20
9.3187179922
 30
0.0
 10
12.1154392171
 20
9.3379126011
 30
0.0
 10
12.1186846453
 20
9.3569100356
 30
0.0
 10
12.1228451682
 20
9.3756673028
 30
0.0
 10
12.1279113325
 20
9.3941415489
 30
0.0
 10
12.1338713562
 20
9.4122899426
 30
0.0
 10
12.1384379104
 20
9.4241601963
 30
0.0
 10
12.1408651272
 20
9.4300254453
 30
0.0
  0
SPLINE
  5
3A2
100
AcDbEntity
  8
0
100
AcDbSpline
 62
7
  6
CONTINUOUS
 70
0
 71
3
 72
44
 73
40
 74
0
 42
0.0000001
 43
0.0000001
 44
0.0000000001
 40
0.0
 40
0.0
 40
0.0
 40
0.0
 40
0.0300771772
 40
0.0451567468
 40
0.0602639675
 40
0.0905617452
 40
0.1209818011
 40
0.136241349
 40
0.1515333273
 40
0.1668580883
 40
0.1822158673
 40
0.213027061
 40
0.2439699363
 40
0.2750417736
 40
0.3062379122
 40
0.3375518419
 40
0.3689753207
 40
0.4004985129
 40
0.4321101468
 40
0.4637976877
 40
0.4955475249
 40
0.5273451705
 40
0.5591754665
 40
0.5910227989
 40
0.6228713162
 40
0.6547051499
 40
0.6865086358
 40
0.7182665337
 40
0.7341254845
 40
0.7499676322
 40
0.7815913967
 40
0.8131285079
 40
0.8445675051
 40
0.875898295
 40
0.9071124935
 40
0.9382030429
 40
0.9537020995
 40
0.9691692742
 40
1.0
 40
1.0
 40
1.0
 40
1.0
 10
9.7861769967
 20
9.0684248638
 30
0.0
 10
9.7784488928
 20
9.065541674
 30
0.0
 10
9.7667001883
 20
9.0615904226
 30
0.0
 10
9.7507963949
 20
9.0570877376
 30
0.0
 10
9.7346963551
 20
9.0530854788
 30
0.0
 10
9.7142828543
 20
9.0490453367
 30
0.0
 10
9.6936120438
 20
9.0463093916
 30
0.0
 10
9.6769480452
 20
9.0449028104
 30
0.0
 10
9.6643821874
 20
9.0442398654
 30
0.0
 10
9.6517748041
 20
9.0439705968
 30
0.0
 10
9.6349092238
 20
9.0441371506
 30
0.0
 10
9.6137810032
 20
9.0453333681
 30
0.0
 10
9.5884864519
 20
9.048337535
 30
0.0
 10
9.5633184805
 20
9.0529001832
 30
0.0
 10
9.5383747057
 20
9.0590036174
 30
0.0
 10
9.5137510281
 20
9.0666241946
 30
0.0
 10
9.4895423218
 20
9.075732444
 30
0.0
 10
9.4658417895
 20
9.0862931806
 30
0.0
 10
9.442740683
 20
9.0982656429
 30
0.0
 10
9.4203279357
 20
9.1116036509
 30
0.0
 10
9.398689829
 20
9.1262557824
 30
0.0
 10
9.3779096608
 20
9.1421655723
 30
0.0
 10
9.3580674311
 20
9.1592717245
 30
0.0
 10
9.3392395274
 20
9.1775083616
 30
0.0
 10
9.3214984657
 20
9.1968052208
 30
0.0
 10
9.3049124927
 20
9.217088132
 30
0.0
 10
9.2895457735
 20
9.2382785186
 30
0.0
 10
9.2777991015
 20
9.2566356566
 30
0.0
 10
9.2690687889
 20
9.2716930248
 30
0.0
 10
9.2608000032
 20
9.2869668656
 30
0.0
 10
9.251326292
 20
9.3064668183
 30
0.0
 10
9.2413776061
 20
9.3304426661
 30
0.0
 10
9.2328927051
 20
9.3548903115
 30
0.0
 10
9.2259045805
 20
9.3797153016
 30
0.0
 10
9.2204403285
 20
9.4048215419
 30
0.0
 10
9.217170652
 20
9.4259210168
 30
0.0
 10
9.215337626
 20
9.4428429971
 30
0.0
 10
9.2140295901
 20
9.4597416235
 30
0.0
 10
9.2136341972
 20
9.4724429368
 30
0.0
 10
9.2136341972
 20
9.4808980077
 30
0.0
  0
SPLINE
  5
3A3
100
AcDbEntity
  8
0
100
AcDbSpline
 62
7
  6
CONTINUOUS
 70
0
 71
3
 72
20
 73
16
 74
0
 42
0.0000001
 43
0.0000001
 44
0.0000000001
 40
0.0
 40
0.0
 40
0.0
 40
0.0
 40
0.0616600329
 40
0.1227910318
 40
0.1835522717
 40
0.2441037783
 40
0.304598486
 40
0.3651837351
 40
0.4260003321
 40
0.4871718176
 40
0.54880927
 40
0.6110144896
 40
0.7374176681
 40
0.8669621294
 40
1.0
 40
1.0
 40
1.0
 40
1.0
 10
8.848721364
 20
7.1687586114
 30
0.0
 10
8.847651648
 20
7.167725345
 30
0.0
 10
8.84546401
 20
7.1657260804
 30
0.0
 10
8.8420306687
 20
7.16292723
 30
0.0
 10
8.838464514
 20
7.1603447255
 30
0.0
 10
8.8347685192
 20
7.157980155
 30
0.0
 10
8.8309466228
 20
7.1558337079
 30
0.0
 10
8.8270029824
 20
7.1539056148
 30
0.0
 10
8.8229420431
 20
7.1521963125
 30
0.0
 10
8.8187691048
 20
7.150705397
 30
0.0
 10
8.8144896255
 20
7.1494324435
 30
0.0
 10
8.8086192804
 20
7.1480181554
 30
0.0
 10
8.8010284514
 20
7.1467995955
 30
0.0
 10
8.7916519853
 20
7.1462094542
 30
0.0
 10
8.7853112435
 20
7.1463830314
 30
0.0
 10
8.7821100048
 20
7.1466047695
 30
0.0
  0
SPLINE
  5
3A4
100
AcDbEntity
  8
0
100
AcDbSpline
 62
7
  6
CONTINUOUS
 70
0
 71
3
 72
9
 73
5
 74
0
 42
0.0000001
 43
0.0000001
 44
0.0000000001
 40
0.0
 40
0.0
 40
0.0
 40
0.0
 40
0.506610696
 40
1.0
 40
1.0
 40
1.0
 40
1.0
 10
8.8589716061
 20
7.1806836022
 30
0.0
 10
8.8574219158
 20
7.1785238889
 30
0.0
 10
8.8541834968
 20
7.1743861066
 30
0.0
 10
8.8505833731
 20
7.1705571742
 30
0.0
 10
8.848721364
 20
7.1687586114
 30
0.0
  0
ENDSEC
  0
SECTION
  2
OBJECTS
  0
DICTIONARY
  5
C
100
AcDbDictionary
280
0
281
1
  3
ACAD_GROUP
350
D
  3
ACAD_MLINESTYLE
350
17
  3
ACAD_LAYOUT
350
1A
  3
ACAD_PLOTSETTINGS
350
19
  3
ACAD_PLOTSTYLENAME
350
E
  3
ACAD_IMAGE_DICT
350
       3A6
  3
ACAD_IMAGE_VARS
350
       3A7
  3
ACAD_TABLESTYLE
350
       3A8
  0
IMAGEDEF_REACTOR
  5
3A5
100
AcDbRasterImageDefReactor
 90
2
330
287
  0
DICTIONARY
  5
D
102
{ACAD_REACTORS
330
C
102
}
100
AcDbDictionary
280
0
281
1
  0
ACDBDICTIONARYWDFLT
  5
E
102
{ACAD_REACTORS
330
C
102
}
100
AcDbDictionary
281
1
  3
Normal
350
F
100
AcDbDictionaryWithDefault
340
F
  0
DICTIONARY
  5
3A6
330
C
100
AcDbDictionary
281
1
  3
E8T_assy_2_img_1
350
       3AB
  0
RASTERVARIABLES
  5
3A7
330
C
100
AcDbRasterVariables
 90
0
 70
0
 71
1
 72
5
  0
DICTIONARY
  5
17
102
{ACAD_REACTORS
330
C
102
}
100
AcDbDictionary
280
0
281
1
  3
Standard
350
18
  0
DICTIONARY
  5
3A8
330
C
100
AcDbDictionary
281
1
  3
Standard
350
       3AC
  3
Standard1
350
       3AD
  0
DICTIONARY
  5
19
102
{ACAD_REACTORS
330
C
102
}
100
AcDbDictionary
281
1
  0
DICTIONARY
  5
1A
102
{ACAD_REACTORS
330
C
102
}
100
AcDbDictionary
281
1
  3
Model
350
3A9
  3
Layout1
350
3AA
  0
ACDBPLACEHOLDER
  5
F
102
{ACAD_REACTORS
330
E
102
}
  0
MLINESTYLE
  5
18
102
{ACAD_REACTORS
330
17
102
}
100
AcDbMlineStyle
  2
STANDARD
 70
0
  3

 62
256
 51
90.0
 52
90.0
 71
2
 49
0.5
 62
256
  6
BYLAYER
 49
-0.5
 62
256
  6
BYLAYER
  0
LAYOUT
  5
3A9
102
{ACAD_REACTORS
330
1A
102
}
100
AcDbPlotSettings
  1

  2
none_device
  4
ANSI_C_(22.00_x_17.00_Inches)
  6

 40
0.0
 41
0.0
 42
0.0
 43
0.0
 44
558.8
 45
431.8
 46
0.0
 47
0.0
 48
0.0
 49
0.0
140
0.0
141
0.0
142
1.0
143
1.0
 70
1024
 72
0
 73
0
 74
0
  7

 75
0
147
1.0
148
0.0
149
0.0
100
AcDbLayout
  1
Model
 70
0
 71
0
 10
0.0
 20
0.0
 11
22.0
 21
17.0
 12
0.0
 22
0.0
 32
0.0
 14
0.0
 24
0.0
 34
0.0
 15
0.0
 25
0.0
 35
0.0
146
0.0
 13
0.0
 23
0.0
 33
0.0
 16
1.0
 26
0.0
 36
0.0
 17
0.0
 27
1.0
 37
0.0
 76
0
330
20C
345
0
346
0
  0
LAYOUT
  5
3AA
102
{ACAD_REACTORS
330
1A
102
}
100
AcDbPlotSettings
  1

  2
none_device
  4
ANSI_C_(22.00_x_17.00_Inches)
  6

 40
0.0
 41
0.0
 42
0.0
 43
0.0
 44
558.8
 45
431.8
 46
0.0
 47
0.0
 48
0.0
 49
0.0
140
0.0
141
0.0
142
1.0
143
1.0
 70
0
 72
0
 73
0
 74
0
  7

 75
0
147
1.0
148
0.0
149
0.0
100
AcDbLayout
  1
Layout1
 70
0
 71
1
 10
0.0
 20
0.0
 11
22.0
 21
17.0
 12
0.0
 22
0.0
 32
0.0
 14
0.0
 24
0.0
 34
0.0
 15
0.0
 25
0.0
 35
0.0
146
0.0
 13
0.0
 23
0.0
 33
0.0
 16
1.0
 26
0.0
 36
0.0
 17
0.0
 27
1.0
 37
0.0
 76
0
330
20D
345
0
346
0
  0
IMAGEDEF
  5
3AB
102
{ACAD_REACTORS
330
3A6
330
3A5
102
}
100
AcDbRasterImageDef
 90
0
  1
E8T_assy_2_img_1.png
 10
369.0
 20
92.0
 11
0.0066666667
 21
0.0066666667
280
1
281
0
  0
TABLESTYLE
  5
3AC
102
{ACAD_REACTORS
330
3A8
330
28A
330
28B
102
}
330
3A8
100
AcDbTableStyle
  3
Standard
 70
0
 71
0
 40
0.06
 41
0.06
280
1
281
1
  7
Standard
140
0.18
170
1
 62
0
 63
7
283
0
  7
Standard
140
0.18
170
1
 62
0
 63
7
283
0
  7
Standard
140
0.18
170
1
 62
0
 63
7
283
0
  0
TABLESTYLE
  5
3AD
102
{ACAD_REACTORS
330
3A8
330
289
102
}
330
3A8
100
AcDbTableStyle
  3
Standard1
 70
1
 71
0
 40
0.06
 41
0.06
280
1
281
1
  7
Standard
140
0.18
170
1
 62
0
 63
7
283
0
  7
Standard
140
0.18
170
1
 62
0
 63
7
283
0
  7
Standard
140
0.18
170
1
 62
0
 63
7
283
0
  0
ENDSEC
  0
EOF
