999
DXF file: E8C_assy_2.dxf
999
Pro/ENGINEER 2014200 by Parametric Technology Corporation
  0
SECTION
  2
HEADER
  9
$ACADVER
  1
AC1021
  9
$DWGCODEPAGE
  3
ANSI_1252
  9
$EXTMAX
 10
22.0
 20
17.0
 30
0.0
  9
$EXTMIN
 10
0.0
 20
0.0
 30
0.0
  9
$LIMMIN
 10
0.0
 20
0.0
  9
$LIMMAX
 10
22.0
 20
17.0
  9
$VIEWCTR
 10
11.0
 20
8.5
  9
$VIEWSIZE
 40
17.0
  9
$CLAYER
  8
0
  9
$LTSCALE
 40
1.21
  9
$CELTYPE
  6
BYLAYER
  9
$DIMSCALE
 40
1.0
  9
$DIMASZ
 40
0.1875
  9
$DIMEXO
 40
0.0625
  9
$DIMDLI
 40
0.836
  9
$DIMEXE
 40
0.125
  9
$DIMCEN
 40
0.198
  9
$DIMLFAC
 40
1.0
  9
$DIMBLK
  1
_FILLED
  9
$DIMTXT
 40
0.1
  9
$DIMTOL
 70
0
  9
$DIMLIM
 70
0
  9
$DIMTFAC
 40
1.0
  9
$DIMGAP
 40
0.09
  9
$DIMDSEP
 70
46
  9
$AUNITS
 70
0
  9
$PDMODE
 70
3
  9
$PDSIZE
 40
0.3125
  9
$HANDSEED
  5
3A9
  9
$TILEMODE
 70
1
  9
$MEASUREMENT
 70
0
  9
$INSUNITS
 70
1
  0
ENDSEC
  0
SECTION
  2
CLASSES
  0
CLASS
  1
ACDBDICTIONARYWDFLT
  2
AcDbDictionaryWithDefault
  3
AutoCAD 2000
 90
0
 91
1
280
0
281
0
  0
CLASS
  1
ACDBPLACEHOLDER
  2
AcDbPlaceHolder
  3
AutoCAD 2000
 90
0
 91
1
280
0
281
0
  0
CLASS
  1
LAYOUT
  2
AcDbLayout
  3
AutoCAD 2000
 90
0
 91
0
280
0
281
0
  0
CLASS
  1
RASTERVARIABLES
  2
AcDbRasterVariables
  3
ISM
 90
0
 91
1
280
0
281
0
  0
CLASS
  1
IMAGEDEF
  2
AcDbRasterImageDef
  3
ISM
 90
0
 91
1
280
0
281
0
  0
CLASS
  1
IMAGEDEF_REACTOR
  2
AcDbRasterImageDefReactor
  3
ISM
 90
0
 91
1
280
0
281
0
  0
CLASS
  1
IMAGE
  2
AcDbRasterImage
  3
ISM
 90
127
 91
1
280
0
281
1
  0
CLASS
  1
TABLESTYLE
  2
AcDbTableStyle
  3
ObjectDBX Classes
 90
2047
 91
1
280
0
281
0
  0
CLASS
  1
ACAD_TABLE
  2
AcDbTable
  3
ObjectDBX Classes
 90
1025
 91
3
280
0
281
1
  0
ENDSEC
  0
SECTION
  2
TABLES
  0
TABLE
  2
VPORT
  5
8
100
AcDbSymbolTable
 70
2
  0
VPORT
  5
1F4
100
AcDbSymbolTableRecord
100
AcDbViewportTableRecord
  2
*ACTIVE
 70
0
 10
0.0
 20
0.0
 11
1.0
 21
1.0
 12
11.0
 22
8.5
 13
0.0
 23
0.0
 14
1.0
 24
1.0
 15
0.0
 25
0.0
 16
0.0
 26
0.0
 36
1.0
 17
0.0
 27
0.0
 37
0.0
 40
17.0
 41
1.2941176471
 42
50.0
 43
0.0
 44
0.0
 50
0.0
 51
0.0
 71
0
 72
100
 73
1
 74
1
 75
0
 76
0
 77
0
 78
0
  0
ENDTAB
  0
TABLE
  2
LTYPE
  5
5
100
AcDbSymbolTable
 70
6
  0
LTYPE
  5
14
100
AcDbSymbolTableRecord
100
AcDbLinetypeTableRecord
  2
BYBLOCK
 70
0
  3

 72
65
 73
0
 40
0.0
  0
LTYPE
  5
15
100
AcDbSymbolTableRecord
100
AcDbLinetypeTableRecord
  2
BYLAYER
 70
0
  3

 72
65
 73
0
 40
0.0
  0
LTYPE
  5
16
100
AcDbSymbolTableRecord
100
AcDbLinetypeTableRecord
  2
CONTINUOUS
 70
64
  3
Solid line
 72
65
 73
0
 40
0.0
  0
LTYPE
  5
1F5
100
AcDbSymbolTableRecord
100
AcDbLinetypeTableRecord
  2
CENTER
 70
64
  3
____ _ ____ _ ____ _ ____ _ ____ _ ____ _ ____
 72
65
 73
4
 40
0.6
 49
0.375
 74
0
 49
-0.075
 74
0
 49
0.075
 74
0
 49
-0.075
 74
0
  0
LTYPE
  5
1F6
100
AcDbSymbolTableRecord
100
AcDbLinetypeTableRecord
  2
HIDDEN
 70
64
  3
- - - - - - - - - - - - - - - - - - - -
 72
65
 73
2
 40
0.2
 49
0.1
 74
0
 49
-0.1
 74
0
  0
LTYPE
  5
1F7
100
AcDbSymbolTableRecord
100
AcDbLinetypeTableRecord
  2
PHANTOM
 70
64
  3
_____ _ _ _____ _ _ _____ _ _ _____
 72
65
 73
6
 40
0.8
 49
0.45
 74
0
 49
-0.05
 74
0
 49
0.1
 74
0
 49
-0.05
 74
0
 49
0.1
 74
0
 49
-0.05
 74
0
  0
LTYPE
  5
1F8
100
AcDbSymbolTableRecord
100
AcDbLinetypeTableRecord
  2
DOT
 70
64
  3
. . . . . . . . . . . . . . . . . . . .
 72
65
 73
2
 40
0.2
 49
0.1
 74
0
 49
-0.1
 74
0
  0
LTYPE
  5
1F9
100
AcDbSymbolTableRecord
100
AcDbLinetypeTableRecord
  2
DASHED
 70
64
  3
- - - - - - - - - - - - - - - - - - - -
 72
65
 73
2
 40
0.2
 49
0.1
 74
0
 49
-0.1
 74
0
  0
ENDTAB
  0
TABLE
  2
LAYER
  5
2
100
AcDbSymbolTable
 70
36
  0
LAYER
  5
10
100
AcDbSymbolTableRecord
100
AcDbLayerTableRecord
  2
0
 70
0
 62
7
  6
CONTINUOUS
370
-3
390
F
  0
LAYER
  5
1FA
100
AcDbSymbolTableRecord
100
AcDbLayerTableRecord
  2
DEFAULT_1
 70
0
 62
7
  6
CENTER
370
-3
390
F
  0
LAYER
  5
1FB
100
AcDbSymbolTableRecord
100
AcDbLayerTableRecord
  2
DEFAULT_2
 70
0
 62
8
  6
HIDDEN
370
-3
390
F
  0
LAYER
  5
1FC
100
AcDbSymbolTableRecord
100
AcDbLayerTableRecord
  2
DEFAULT_3
 70
0
 62
7
  6
PHANTOM
370
-3
390
F
  0
LAYER
  5
1FD
100
AcDbSymbolTableRecord
100
AcDbLayerTableRecord
  2
01___PRT_ALL_DTM_PLN
 70
0
 62
7
  6
CONTINUOUS
370
-3
390
F
  0
LAYER
  5
1FE
100
AcDbSymbolTableRecord
100
AcDbLayerTableRecord
  2
01___PRT_DEF_DTM_PLN
 70
0
 62
7
  6
CONTINUOUS
370
-3
390
F
  0
LAYER
  5
1FF
100
AcDbSymbolTableRecord
100
AcDbLayerTableRecord
  2
02___PRT_ALL_AXES
 70
0
 62
7
  6
CONTINUOUS
370
-3
390
F
  0
LAYER
  5
200
100
AcDbSymbolTableRecord
100
AcDbLayerTableRecord
  2
03___PRT_ALL_CURVES
 70
0
 62
7
  6
CONTINUOUS
370
-3
390
F
  0
LAYER
  5
201
100
AcDbSymbolTableRecord
100
AcDbLayerTableRecord
  2
04___PRT_ALL_DTM_PNT
 70
0
 62
7
  6
CONTINUOUS
370
-3
390
F
  0
LAYER
  5
202
100
AcDbSymbolTableRecord
100
AcDbLayerTableRecord
  2
05___PRT_ALL_DTM_CSYS
 70
0
 62
7
  6
CONTINUOUS
370
-3
390
F
  0
LAYER
  5
203
100
AcDbSymbolTableRecord
100
AcDbLayerTableRecord
  2
05___PRT_DEF_DTM_CSYS
 70
0
 62
7
  6
CONTINUOUS
370
-3
390
F
  0
LAYER
  5
204
100
AcDbSymbolTableRecord
100
AcDbLayerTableRecord
  2
06___PRT_ALL_SURFS
 70
0
 62
7
  6
CONTINUOUS
370
-3
390
F
  0
LAYER
  5
205
100
AcDbSymbolTableRecord
100
AcDbLayerTableRecord
  2
DATUM_PLANES
 70
0
 62
7
  6
CONTINUOUS
370
-3
390
F
  0
LAYER
  5
206
100
AcDbSymbolTableRecord
100
AcDbLayerTableRecord
  2
PORT_AREAS
 70
0
 62
7
  6
CONTINUOUS
370
-3
390
F
  0
LAYER
  5
207
100
AcDbSymbolTableRecord
100
AcDbLayerTableRecord
  2
SUNNBOMCOSMETIC
 70
0
 62
7
  6
CONTINUOUS
370
-3
390
F
  0
LAYER
  5
208
100
AcDbSymbolTableRecord
100
AcDbLayerTableRecord
  2
SUNNBOMSTAMPING
 70
0
 62
7
  6
CONTINUOUS
370
-3
390
F
  0
LAYER
  5
209
100
AcDbSymbolTableRecord
100
AcDbLayerTableRecord
  2
THREADS
 70
0
 62
7
  6
CONTINUOUS
370
-3
390
F
  0
ENDTAB
  0
TABLE
  2
STYLE
  5
3
100
AcDbSymbolTable
 70
1
  0
STYLE
  5
11
100
AcDbSymbolTableRecord
100
AcDbTextStyleTableRecord
  2
STANDARD
 70
0
 40
0.0
 41
0.8
 50
0.0
 71
0
 42
0.2
  3
txt
  4

  0
STYLE
  5
20A
100
AcDbSymbolTableRecord
100
AcDbTextStyleTableRecord
  2
TEXTSTYLE_1
 70
0
 40
0.0
 41
0.8
 50
0.0
 71
0
 42
0.2
  3
gdt
  4

  0
ENDTAB
  0
TABLE
  2
VIEW
  5
6
100
AcDbSymbolTable
 70
0
  0
ENDTAB
  0
TABLE
  2
UCS
  5
7
100
AcDbSymbolTable
 70
0
  0
ENDTAB
  0
TABLE
  2
APPID
  5
9
100
AcDbSymbolTable
 70
1
  0
APPID
  5
20B
100
AcDbSymbolTableRecord
100
AcDbRegAppTableRecord
  2
ACAD
 70
0
  0
ENDTAB
  0
TABLE
  2
BLOCK_RECORD
  5
1
100
AcDbSymbolTable
 70
0
  0
BLOCK_RECORD
  5
20C
100
AcDbSymbolTableRecord
100
AcDbBlockTableRecord
  2
*Model_Space
  0
BLOCK_RECORD
  5
20D
100
AcDbSymbolTableRecord
100
AcDbBlockTableRecord
  2
*Paper_Space
  0
BLOCK_RECORD
  5
20E
100
AcDbSymbolTableRecord
100
AcDbBlockTableRecord
  2
SUN_FIRST_THIRD_ANGLE_BL0
  0
BLOCK_RECORD
  5
20F
100
AcDbSymbolTableRecord
100
AcDbBlockTableRecord
  2
*T1
  0
BLOCK_RECORD
  5
210
100
AcDbSymbolTableRecord
100
AcDbBlockTableRecord
  2
*T2
  0
BLOCK_RECORD
  5
211
100
AcDbSymbolTableRecord
100
AcDbBlockTableRecord
  2
*T3
  0
ENDTAB
  0
TABLE
  2
DIMSTYLE
  5
A
100
AcDbSymbolTable
 70
1
100
AcDbDimStyleTable
 71
0
  0
DIMSTYLE
105
212
100
AcDbSymbolTableRecord
100
AcDbDimStyleTableRecord
  2
STANDARD
 70
0
  3

  4

 40
1.0
 41
0.1875
 42
0.0625
 43
0.38
 44
0.125
 45
0.0
 46
0.0
 47
0.001
 48
0.001
140
0.1
141
0.09
142
0.0
143
25.4
144
1.0
145
0.0
146
1.0
147
0.09
 71
0.0
 72
0.0
 73
1
 74
1
 75
0
 76
0
 77
0
 78
4
170
0
171
2
172
0
173
0
174
0
175
0
176
0
177
0
178
0
270
2
271
3
272
3
273
2
274
2
275
0
280
0
281
0
282
0
283
1
284
4
285
0
286
0
287
3
288
0
340
11
278
46
  0
ENDTAB
  0
ENDSEC
  0
SECTION
  2
BLOCKS
  0
BLOCK
  5
20
100
AcDbEntity
  8
0
100
AcDbBlockBegin
  2
*Model_Space
 70
0
 10
0.0
 20
0.0
 30
0.0
  3
*Model_Space
  1

  0
ENDBLK
  5
21
100
AcDbEntity
  8
0
100
AcDbBlockEnd
  0
BLOCK
  5
1C
100
AcDbEntity
  8
0
100
AcDbBlockBegin
  2
*Paper_Space
 70
0
 10
0.0
 20
0.0
 30
0.0
  3
*Paper_Space
  1

  0
ENDBLK
  5
1D
100
AcDbEntity
  8
0
100
AcDbBlockEnd
  0
BLOCK
  5
213
100
AcDbEntity
  8
0
100
AcDbBlockBegin
 62
2
  6
CONTINUOUS
  2
SUN_FIRST_THIRD_ANGLE_BL0
 70
64
 10
20.4816717061
 20
1.2289683772
  3
SUN_FIRST_THIRD_ANGLE_BL0
  1

  0
TEXT
  5
214
100
AcDbEntity
  8
0
100
AcDbText
 62
2
  6
CONTINUOUS
 10
19.4750896608
 20
1.4136269581
  7
STANDARD
 40
0.08
  1
FIRST ANGLE
 41
0.8
 72
0
100
AcDbText
  0
TEXT
  5
215
100
AcDbEntity
  8
0
100
AcDbText
 62
2
  6
CONTINUOUS
 10
20.7842537513
 20
1.4047600029
  7
STANDARD
 40
0.08
  1
THIRD ANGLE
 41
0.8
 72
0
100
AcDbText
  0
LINE
  5
216
100
AcDbEntity
  8
0
100
AcDbLine
 62
7
  6
CONTINUOUS
 10
19.4767170086
 20
1.1727031207
 11
19.6334271527
 21
1.1717972817
  0
LINE
  5
217
100
AcDbEntity
  8
0
100
AcDbLine
 62
7
  6
CONTINUOUS
 10
19.6596964832
 20
1.1717972817
 11
19.6950230232
 21
1.171593082
  0
LINE
  5
218
100
AcDbEntity
  8
0
100
AcDbLine
 62
7
  6
CONTINUOUS
 10
19.7194818561
 20
1.1708914427
 11
19.8852396156
 21
1.1699333054
  0
LINE
  5
219
100
AcDbEntity
  8
0
100
AcDbLine
 62
7
  6
CONTINUOUS
 10
19.4758111696
 20
1.2723454088
 11
19.88525039
 21
1.3511534004
  0
LINE
  5
21A
100
AcDbEntity
  8
0
100
AcDbLine
 62
7
  6
CONTINUOUS
 10
19.88525039
 20
1.3511534004
 11
19.8831348489
 21
0.9851647912
  0
LINE
  5
21B
100
AcDbEntity
  8
0
100
AcDbLine
 62
7
  6
CONTINUOUS
 10
19.8831348489
 20
0.9851647912
 11
19.4767170086
 21
1.0658141206
  0
LINE
  5
21C
100
AcDbEntity
  8
0
100
AcDbLine
 62
7
  6
CONTINUOUS
 10
19.4767170086
 20
1.0658141206
 11
19.4779056764
 21
1.2714536432
  0
CIRCLE
  5
21D
100
AcDbEntity
  8
0
100
AcDbCircle
 62
7
  6
CONTINUOUS
 10
20.2068232291
 20
1.1717972817
 40
0.175742101
  0
CIRCLE
  5
21E
100
AcDbEntity
  8
0
100
AcDbCircle
 62
7
  6
CONTINUOUS
 10
20.2068232291
 20
1.1717972817
 40
0.1005522074
  0
LINE
  5
21F
100
AcDbEntity
  8
0
100
AcDbLine
 62
7
  6
CONTINUOUS
 10
20.2077290681
 20
1.3756110529
 11
20.2071171714
 21
1.2379342989
  0
LINE
  5
220
100
AcDbEntity
  8
0
100
AcDbLine
 62
7
  6
CONTINUOUS
 10
20.2077290681
 20
1.2016899681
 11
20.2074674401
 21
1.1428236749
  0
LINE
  5
221
100
AcDbEntity
  8
0
100
AcDbLine
 62
7
  6
CONTINUOUS
 10
20.208634907
 20
1.101141841
 11
20.2080230104
 21
0.963465087
  0
LINE
  5
222
100
AcDbEntity
  8
0
100
AcDbLine
 62
7
  6
CONTINUOUS
 10
20.0066328138
 20
1.1745147986
 11
20.1443095678
 21
1.1739029019
  0
LINE
  5
223
100
AcDbEntity
  8
0
100
AcDbLine
 62
7
  6
CONTINUOUS
 10
20.1832714155
 20
1.1727031207
 11
20.238153505
 21
1.172335442
  0
LINE
  5
224
100
AcDbEntity
  8
0
100
AcDbLine
 62
7
  6
CONTINUOUS
 10
20.2756669918
 20
1.1717972817
 11
20.407916871
 21
1.1712095044
  0
CIRCLE
  5
225
100
AcDbEntity
  8
0
100
AcDbCircle
 62
7
  6
CONTINUOUS
 10
20.7509457401
 20
1.1693297793
 40
0.1722024983
  0
CIRCLE
  5
226
100
AcDbEntity
  8
0
100
AcDbCircle
 62
7
  6
CONTINUOUS
 10
20.7509457401
 20
1.1693297793
 40
0.0985164967
  0
LINE
  5
227
100
AcDbEntity
  8
0
100
AcDbLine
 62
7
  6
CONTINUOUS
 10
20.7169767782
 20
1.170462078
 11
20.7825395137
 21
1.1682766535
  0
LINE
  5
228
100
AcDbEntity
  8
0
100
AcDbLine
 62
7
  6
CONTINUOUS
 10
20.8177513651
 20
1.1693297793
 11
20.947965719
 21
1.1693297793
  0
LINE
  5
229
100
AcDbEntity
  8
0
100
AcDbLine
 62
7
  6
CONTINUOUS
 10
20.6875370113
 20
1.170462078
 11
20.5573226574
 21
1.170462078
  0
LINE
  5
22A
100
AcDbEntity
  8
0
100
AcDbLine
 62
7
  6
CONTINUOUS
 10
20.7486811426
 20
1.1987695462
 11
20.7486811426
 21
1.1432869085
  0
LINE
  5
22B
100
AcDbEntity
  8
0
100
AcDbLine
 62
7
  6
CONTINUOUS
 10
20.7498134414
 20
1.1059210505
 11
20.7498134414
 21
0.9757066966
  0
LINE
  5
22C
100
AcDbEntity
  8
0
100
AcDbLine
 62
7
  6
CONTINUOUS
 10
20.7486811426
 20
1.2338708068
 11
20.7486811426
 21
1.3640851607
  0
LINE
  5
22D
100
AcDbEntity
  8
0
100
AcDbLine
 62
7
  6
CONTINUOUS
 10
21.0702539817
 20
1.2701043662
 11
21.4790138229
 21
1.3448360823
  0
LINE
  5
22E
100
AcDbEntity
  8
0
100
AcDbLine
 62
7
  6
CONTINUOUS
 10
21.4790138229
 20
1.3448360823
 11
21.4790138229
 21
0.9779712941
  0
LINE
  5
22F
100
AcDbEntity
  8
0
100
AcDbLine
 62
7
  6
CONTINUOUS
 10
21.4790138229
 20
0.9779712941
 11
21.069121683
 21
1.0617614
  0
LINE
  5
230
100
AcDbEntity
  8
0
100
AcDbLine
 62
7
  6
CONTINUOUS
 10
21.0702539817
 20
1.2701043662
 11
21.069121683
 21
1.0617614
  0
LINE
  5
231
100
AcDbEntity
  8
0
100
AcDbLine
 62
7
  6
CONTINUOUS
 10
21.4790138229
 20
1.1693297793
 11
21.3159628059
 21
1.1693297793
  0
LINE
  5
232
100
AcDbEntity
  8
0
100
AcDbLine
 62
7
  6
CONTINUOUS
 10
21.2876553377
 20
1.1693297793
 11
21.2502894796
 21
1.1693297793
  0
LINE
  5
233
100
AcDbEntity
  8
0
100
AcDbLine
 62
7
  6
CONTINUOUS
 10
21.2208497126
 20
1.1659328831
 11
21.0713862804
 21
1.1659328831
  0
LINE
  5
234
100
AcDbEntity
  8
0
100
AcDbLine
 62
7
  6
CONTINUOUS
 10
20.4796138713
 20
1.5284908897
 11
20.4766766948
 21
0.9294458646
  0
ENDBLK
  5
235
100
AcDbEntity
  8
0
  6
BYBLOCK
 62
0
100
AcDbBlockEnd
  0
BLOCK
  5
236
100
AcDbEntity
  8
0
100
AcDbBlockBegin
  2
*T1
 70
1
 10
0.0
 20
0.0
  3
*T1
  1

  0
LINE
  5
237
100
AcDbEntity
  8
0
100
AcDbLine
 62
2
  6
CONTINUOUS
 10
9.275
 20
0.0
 11
-0.0
 21
0.0
  0
LINE
  5
238
100
AcDbEntity
  8
0
100
AcDbLine
 62
2
  6
CONTINUOUS
 10
9.275
 20
0.0
 11
9.275
 21
1.25
  0
LINE
  5
239
100
AcDbEntity
  8
0
100
AcDbLine
 62
2
  6
CONTINUOUS
 10
9.275
 20
0.625
 11
-0.0
 21
0.625
  0
LINE
  5
23A
100
AcDbEntity
  8
0
100
AcDbLine
 62
2
  6
CONTINUOUS
 10
9.275
 20
1.25
 11
-0.0
 21
1.25
  0
LINE
  5
23B
100
AcDbEntity
  8
0
100
AcDbLine
 62
2
  6
CONTINUOUS
 10
6.8
 20
0.0
 11
6.8
 21
1.25
  0
LINE
  5
23C
100
AcDbEntity
  8
0
100
AcDbLine
 62
2
  6
CONTINUOUS
 10
6.4
 20
0.0
 11
6.4
 21
0.625
  0
LINE
  5
23D
100
AcDbEntity
  8
0
100
AcDbLine
 62
2
  6
CONTINUOUS
 10
5.9
 20
0.0
 11
5.9
 21
0.625
  0
LINE
  5
23E
100
AcDbEntity
  8
0
100
AcDbLine
 62
2
  6
CONTINUOUS
 10
5.2
 20
0.0
 11
5.2
 21
0.625
  0
LINE
  5
23F
100
AcDbEntity
  8
0
100
AcDbLine
 62
2
  6
CONTINUOUS
 10
4.1
 20
0.0
 11
4.1
 21
1.25
  0
LINE
  5
240
100
AcDbEntity
  8
0
100
AcDbLine
 62
2
  6
CONTINUOUS
 10
-0.0
 20
0.0
 11
-0.0
 21
1.25
  0
MTEXT
  5
241
100
AcDbEntity
  8
0
100
AcDbMText
 62
2
  6
CONTINUOUS
  7
STANDARD
 71
2
 72
1
 10
6.6
 20
0.325
 30
0.0
 11
1.0
 21
0.0
 31
0.0
 44
0.9
  1
2
 40
0.125
 41
0.2
  0
MTEXT
  5
242
100
AcDbEntity
  8
0
100
AcDbMText
 62
2
  6
CONTINUOUS
  7
STANDARD
 71
2
 72
1
 10
6.15
 20
0.325
 30
0.0
 11
1.0
 21
0.0
 31
0.0
 44
0.9
  1
C
 40
0.125
 41
0.2
  0
MTEXT
  5
243
100
AcDbEntity
  8
0
100
AcDbMText
 62
2
  6
CONTINUOUS
  7
STANDARD
 71
2
 72
1
 10
5.55
 20
0.325
 30
0.0
 11
1.0
 21
0.0
 31
0.0
 44
0.9
  1
2.000
 40
0.125
 41
1.0
  0
MTEXT
  5
244
100
AcDbEntity
  8
0
100
AcDbMText
 62
2
  6
CONTINUOUS
  7
STANDARD
 71
2
 72
1
 10
4.65
 20
0.325
 30
0.0
 11
1.0
 21
0.0
 31
0.0
 44
0.9
  1
Nov-24-19
 40
0.125
 41
1.8
  0
MTEXT
  5
245
100
AcDbEntity
  8
0
100
AcDbMText
 62
2
  6
CONTINUOUS
  7
STANDARD
 71
2
 72
1
 10
2.05
 20
0.4625
 30
0.0
 11
1.0
 21
0.0
 31
0.0
 44
0.9
  1
T-11A Line mount\P2 cylinder sequence, with reverse checks
 40
0.125
 41
8.0
  0
MTEXT
  5
246
100
AcDbEntity
  8
0
100
AcDbMText
 62
2
  6
CONTINUOUS
  7
STANDARD
 71
1
 72
1
 10
6.45
 20
0.5625
 30
0.0
 11
1.0
 21
0.0
 31
0.0
 44
0.9
  1
SHEET
 40
0.06
 41
0.48
  0
MTEXT
  5
247
100
AcDbEntity
  8
0
100
AcDbMText
 62
2
  6
CONTINUOUS
  7
STANDARD
 71
1
 72
1
 10
5.95
 20
0.5625
 30
0.0
 11
1.0
 21
0.0
 31
0.0
 44
0.9
  1
DWG SIZE
 40
0.06
 41
0.768
  0
MTEXT
  5
248
100
AcDbEntity
  8
0
100
AcDbMText
 62
2
  6
CONTINUOUS
  7
STANDARD
 71
1
 72
1
 10
5.25
 20
0.5625
 30
0.0
 11
1.0
 21
0.0
 31
0.0
 44
0.9
  1
SCALE
 40
0.06
 41
0.48
  0
MTEXT
  5
249
100
AcDbEntity
  8
0
100
AcDbMText
 62
2
  6
CONTINUOUS
  7
STANDARD
 71
1
 72
1
 10
4.15
 20
0.5625
 30
0.0
 11
1.0
 21
0.0
 31
0.0
 44
0.9
  1
DATE
 40
0.06
 41
0.384
  0
MTEXT
  5
24A
100
AcDbEntity
  8
0
100
AcDbMText
 62
2
  6
CONTINUOUS
  7
STANDARD
 71
1
 72
1
 10
0.05
 20
0.5625
 30
0.0
 11
1.0
 21
0.0
 31
0.0
 44
0.9
  1
DESCRIPTION
 40
0.06
 41
1.056
  0
MTEXT
  5
24B
100
AcDbEntity
  8
0
100
AcDbMText
 62
2
  6
CONTINUOUS
  7
STANDARD
 71
2
 72
1
 10
5.45
 20
1.0375
 30
0.0
 11
1.0
 21
0.0
 31
0.0
 44
0.9
  1
ALL DIMENSIONS IN INCH\PVIEWS ARE THIRD ANGLE
 40
0.12
 41
4.224
  0
MTEXT
  5
24C
100
AcDbEntity
  8
0
100
AcDbMText
 62
2
  6
CONTINUOUS
  7
STANDARD
 71
2
 72
1
 10
2.05
 20
0.95
 30
0.0
 11
1.0
 21
0.0
 31
0.0
 44
0.9
  1
E8C
 40
0.125
 41
0.6
  0
MTEXT
  5
24D
100
AcDbEntity
  8
0
100
AcDbMText
 62
2
  6
CONTINUOUS
  7
STANDARD
 71
1
 72
1
 10
0.05
 20
1.1875
 30
0.0
 11
1.0
 21
0.0
 31
0.0
 44
0.9
  1
MODEL
 40
0.06
 41
0.48
  0
ENDBLK
  5
24E
100
AcDbEntity
  8
0
  6
BYBLOCK
 62
0
100
AcDbBlockEnd
  0
BLOCK
  5
24F
100
AcDbEntity
  8
0
100
AcDbBlockBegin
  2
*T2
 70
1
 10
0.0
 20
0.0
  3
*T2
  1

  0
LINE
  5
250
100
AcDbEntity
  8
0
100
AcDbLine
 62
2
  6
CONTINUOUS
 10
0.0
 20
0.0
 11
9.055
 21
0.0
  0
LINE
  5
251
100
AcDbEntity
  8
0
100
AcDbLine
 62
2
  6
CONTINUOUS
 10
0.0
 20
0.0
 11
0.0
 21
-2.594
  0
LINE
  5
252
100
AcDbEntity
  8
0
100
AcDbLine
 62
2
  6
CONTINUOUS
 10
0.0
 20
-0.344
 11
9.055
 21
-0.344
  0
LINE
  5
253
100
AcDbEntity
  8
0
100
AcDbLine
 62
2
  6
CONTINUOUS
 10
0.0
 20
-0.594
 11
9.055
 21
-0.594
  0
LINE
  5
254
100
AcDbEntity
  8
0
100
AcDbLine
 62
2
  6
CONTINUOUS
 10
0.0
 20
-0.844
 11
9.055
 21
-0.844
  0
LINE
  5
255
100
AcDbEntity
  8
0
100
AcDbLine
 62
2
  6
CONTINUOUS
 10
0.0
 20
-1.094
 11
9.055
 21
-1.094
  0
LINE
  5
256
100
AcDbEntity
  8
0
100
AcDbLine
 62
2
  6
CONTINUOUS
 10
0.0
 20
-1.344
 11
9.055
 21
-1.344
  0
LINE
  5
257
100
AcDbEntity
  8
0
100
AcDbLine
 62
2
  6
CONTINUOUS
 10
0.0
 20
-1.594
 11
9.055
 21
-1.594
  0
LINE
  5
258
100
AcDbEntity
  8
0
100
AcDbLine
 62
2
  6
CONTINUOUS
 10
0.0
 20
-1.844
 11
9.055
 21
-1.844
  0
LINE
  5
259
100
AcDbEntity
  8
0
100
AcDbLine
 62
2
  6
CONTINUOUS
 10
0.0
 20
-2.094
 11
9.055
 21
-2.094
  0
LINE
  5
25A
100
AcDbEntity
  8
0
100
AcDbLine
 62
2
  6
CONTINUOUS
 10
0.0
 20
-2.344
 11
9.055
 21
-2.344
  0
LINE
  5
25B
100
AcDbEntity
  8
0
100
AcDbLine
 62
2
  6
CONTINUOUS
 10
0.0
 20
-2.594
 11
9.055
 21
-2.594
  0
LINE
  5
25C
100
AcDbEntity
  8
0
100
AcDbLine
 62
2
  6
CONTINUOUS
 10
3.055
 20
0.0
 11
3.055
 21
-2.594
  0
LINE
  5
25D
100
AcDbEntity
  8
0
100
AcDbLine
 62
2
  6
CONTINUOUS
 10
9.055
 20
0.0
 11
9.055
 21
-2.594
  0
MTEXT
  5
25E
100
AcDbEntity
  8
0
100
AcDbMText
 62
2
  6
CONTINUOUS
  7
STANDARD
 71
2
 72
1
 10
1.5275
 20
-0.0995
 30
0.0
 11
1.0
 21
0.0
 31
0.0
 44
0.9
  1
Technical Data
 40
0.145
 41
3.248
  0
MTEXT
  5
25F
100
AcDbEntity
  8
0
100
AcDbMText
 62
2
  6
CONTINUOUS
  7
STANDARD
 71
2
 72
1
 10
4.555
 20
-0.0995
 30
0.0
 11
1.0
 21
0.0
 31
0.0
 44
0.9
  1
U.S. Units
 40
0.145
 41
2.32
  0
MTEXT
  5
260
100
AcDbEntity
  8
0
100
AcDbMText
 62
2
  6
CONTINUOUS
  7
STANDARD
 71
2
 72
1
 10
7.555
 20
-0.0995
 30
0.0
 11
1.0
 21
0.0
 31
0.0
 44
0.9
  1
Metric Units
 40
0.145
 41
2.784
  0
MTEXT
  5
261
100
AcDbEntity
  8
0
100
AcDbMText
 62
2
  6
CONTINUOUS
  7
STANDARD
 71
2
 72
1
 10
1.5275
 20
-0.4065
 30
0.0
 11
1.0
 21
0.0
 31
0.0
 44
0.9
  1
Cavity
 40
0.125
 41
1.2
  0
MTEXT
  5
262
100
AcDbEntity
  8
0
100
AcDbMText
 62
2
  6
CONTINUOUS
  7
STANDARD
 71
2
 72
1
 10
6.055
 20
-0.4065
 30
0.0
 11
1.0
 21
0.0
 31
0.0
 44
0.9
  1
T-11A
 40
0.125
 41
1.0
  0
MTEXT
  5
263
100
AcDbEntity
  8
0
100
AcDbMText
 62
2
  6
CONTINUOUS
  7
STANDARD
 71
2
 72
1
 10
1.5275
 20
-0.6565
 30
0.0
 11
1.0
 21
0.0
 31
0.0
 44
0.9
  1
Body Features
 40
0.125
 41
2.6
  0
MTEXT
  5
264
100
AcDbEntity
  8
0
100
AcDbMText
 62
2
  6
CONTINUOUS
  7
STANDARD
 71
2
 72
1
 10
6.055
 20
-0.6565
 30
0.0
 11
1.0
 21
0.0
 31
0.0
 44
0.9
  1
2 cylinder sequence, with reverse checks
 40
0.125
 41
8.0
  0
MTEXT
  5
265
100
AcDbEntity
  8
0
100
AcDbMText
 62
2
  6
CONTINUOUS
  7
STANDARD
 71
2
 72
1
 10
1.5275
 20
-0.9065
 30
0.0
 11
1.0
 21
0.0
 31
0.0
 44
0.9
  1
Body Type
 40
0.125
 41
1.8
  0
MTEXT
  5
266
100
AcDbEntity
  8
0
100
AcDbMText
 62
2
  6
CONTINUOUS
  7
STANDARD
 71
2
 72
1
 10
6.055
 20
-0.9065
 30
0.0
 11
1.0
 21
0.0
 31
0.0
 44
0.9
  1
Line mount
 40
0.125
 41
2.0
  0
MTEXT
  5
267
100
AcDbEntity
  8
0
100
AcDbMText
 62
2
  6
CONTINUOUS
  7
STANDARD
 71
2
 72
1
 10
1.5275
 20
-1.1565
 30
0.0
 11
1.0
 21
0.0
 31
0.0
 44
0.9
  1
Interface
 40
0.125
 41
1.8
  0
MTEXT
  5
268
100
AcDbEntity
  8
0
100
AcDbMText
 62
2
  6
CONTINUOUS
  7
STANDARD
 71
2
 72
1
 10
6.055
 20
-1.1565
 30
0.0
 11
1.0
 21
0.0
 31
0.0
 44
0.9
  1
None
 40
0.125
 41
0.8
  0
MTEXT
  5
269
100
AcDbEntity
  8
0
100
AcDbMText
 62
2
  6
CONTINUOUS
  7
STANDARD
 71
2
 72
1
 10
1.5275
 20
-1.4065
 30
0.0
 11
1.0
 21
0.0
 31
0.0
 44
0.9
  1
Open Cavity Quantity
 40
0.125
 41
4.0
  0
MTEXT
  5
26A
100
AcDbEntity
  8
0
100
AcDbMText
 62
2
  6
CONTINUOUS
  7
STANDARD
 71
2
 72
1
 10
6.055
 20
-1.4065
 30
0.0
 11
1.0
 21
0.0
 31
0.0
 44
0.9
  1
2
 40
0.125
 41
0.2
  0
MTEXT
  5
26B
100
AcDbEntity
  8
0
100
AcDbMText
 62
2
  6
CONTINUOUS
  7
STANDARD
 71
2
 72
1
 10
1.5275
 20
-1.6565
 30
0.0
 11
1.0
 21
0.0
 31
0.0
 44
0.9
  1
Weight
 40
0.125
 41
1.2
  0
MTEXT
  5
26C
100
AcDbEntity
  8
0
100
AcDbMText
 62
2
  6
CONTINUOUS
  7
STANDARD
 71
2
 72
1
 10
4.555
 20
-1.6565
 30
0.0
 11
1.0
 21
0.0
 31
0.0
 44
0.9
  1
2.210 lb.
 40
0.125
 41
1.8
  0
MTEXT
  5
26D
100
AcDbEntity
  8
0
100
AcDbMText
 62
2
  6
CONTINUOUS
  7
STANDARD
 71
2
 72
1
 10
7.555
 20
-1.6565
 30
0.0
 11
1.0
 21
0.0
 31
0.0
 44
0.9
  1
1,002 kg.
 40
0.125
 41
1.8
  0
MTEXT
  5
26E
100
AcDbEntity
  8
0
100
AcDbMText
 62
2
  6
CONTINUOUS
  7
STANDARD
 71
2
 72
1
 10
1.5275
 20
-1.9065
 30
0.0
 11
1.0
 21
0.0
 31
0.0
 44
0.9
  1
Mounting Hole Diameter
 40
0.125
 41
4.4
  0
MTEXT
  5
26F
100
AcDbEntity
  8
0
100
AcDbMText
 62
2
  6
CONTINUOUS
  7
STANDARD
 71
2
 72
1
 10
4.555
 20
-1.9065
 30
0.0
 11
1.0
 21
0.0
 31
0.0
 44
0.9
  1
.34 in.
 40
0.125
 41
1.4
  0
MTEXT
  5
270
100
AcDbEntity
  8
0
100
AcDbMText
 62
2
  6
CONTINUOUS
  7
STANDARD
 71
2
 72
1
 10
7.555
 20
-1.9065
 30
0.0
 11
1.0
 21
0.0
 31
0.0
 44
0.9
  1
8.6 mm
 40
0.125
 41
1.2
  0
MTEXT
  5
271
100
AcDbEntity
  8
0
100
AcDbMText
 62
2
  6
CONTINUOUS
  7
STANDARD
 71
2
 72
1
 10
1.5275
 20
-2.1565
 30
0.0
 11
1.0
 21
0.0
 31
0.0
 44
0.9
  1
Mounting Hole Depth
 40
0.125
 41
3.8
  0
MTEXT
  5
272
100
AcDbEntity
  8
0
100
AcDbMText
 62
2
  6
CONTINUOUS
  7
STANDARD
 71
2
 72
1
 10
6.055
 20
-2.1565
 30
0.0
 11
1.0
 21
0.0
 31
0.0
 44
0.9
  1
Through
 40
0.125
 41
1.4
  0
MTEXT
  5
273
100
AcDbEntity
  8
0
100
AcDbMText
 62
2
  6
CONTINUOUS
  7
STANDARD
 71
2
 72
1
 10
1.5275
 20
-2.4065
 30
0.0
 11
1.0
 21
0.0
 31
0.0
 44
0.9
  1
Mounting Hole Quantity
 40
0.125
 41
4.4
  0
MTEXT
  5
274
100
AcDbEntity
  8
0
100
AcDbMText
 62
2
  6
CONTINUOUS
  7
STANDARD
 71
2
 72
1
 10
6.055
 20
-2.4065
 30
0.0
 11
1.0
 21
0.0
 31
0.0
 44
0.9
  1
2
 40
0.125
 41
0.2
  0
ENDBLK
  5
275
100
AcDbEntity
  8
0
  6
BYBLOCK
 62
0
100
AcDbBlockEnd
  0
BLOCK
  5
276
100
AcDbEntity
  8
0
100
AcDbBlockBegin
  2
*T3
 70
1
 10
0.0
 20
0.0
  3
*T3
  1

  0
LINE
  5
277
100
AcDbEntity
  8
0
100
AcDbLine
 62
2
  6
CONTINUOUS
 10
0.0
 20
0.0
 11
4.6
 21
0.0
  0
LINE
  5
278
100
AcDbEntity
  8
0
100
AcDbLine
 62
2
  6
CONTINUOUS
 10
0.0
 20
0.0
 11
0.0
 21
-0.93775
  0
LINE
  5
279
100
AcDbEntity
  8
0
100
AcDbLine
 62
2
  6
CONTINUOUS
 10
0.0
 20
-0.34375
 11
4.6
 21
-0.34375
  0
LINE
  5
27A
100
AcDbEntity
  8
0
100
AcDbLine
 62
2
  6
CONTINUOUS
 10
0.0
 20
-0.68775
 11
4.6
 21
-0.68775
  0
LINE
  5
27B
100
AcDbEntity
  8
0
100
AcDbLine
 62
2
  6
CONTINUOUS
 10
0.0
 20
-0.93775
 11
4.6
 21
-0.93775
  0
LINE
  5
27C
100
AcDbEntity
  8
0
100
AcDbLine
 62
2
  6
CONTINUOUS
 10
1.3
 20
-0.34375
 11
1.3
 21
-0.93775
  0
LINE
  5
27D
100
AcDbEntity
  8
0
100
AcDbLine
 62
2
  6
CONTINUOUS
 10
3.3
 20
-0.34375
 11
3.3
 21
-0.93775
  0
LINE
  5
27E
100
AcDbEntity
  8
0
100
AcDbLine
 62
2
  6
CONTINUOUS
 10
4.6
 20
0.0
 11
4.6
 21
-0.93775
  0
MTEXT
  5
27F
100
AcDbEntity
  8
0
100
AcDbMText
 62
2
  6
CONTINUOUS
  7
STANDARD
 71
2
 72
1
 10
2.3
 20
-0.099375
 30
0.0
 11
1.0
 21
0.0
 31
0.0
 44
0.9
  1
Port Headings
 40
0.145
 41
3.016
  0
MTEXT
  5
280
100
AcDbEntity
  8
0
100
AcDbMText
 62
2
  6
CONTINUOUS
  7
STANDARD
 71
2
 72
1
 10
0.65
 20
-0.44325
 30
0.0
 11
1.0
 21
0.0
 31
0.0
 44
0.9
  1
Product
 40
0.145
 41
1.624
  0
MTEXT
  5
281
100
AcDbEntity
  8
0
100
AcDbMText
 62
2
  6
CONTINUOUS
  7
STANDARD
 71
2
 72
1
 10
2.3
 20
-0.44325
 30
0.0
 11
1.0
 21
0.0
 31
0.0
 44
0.9
  1
Port
 40
0.145
 41
0.928
  0
MTEXT
  5
282
100
AcDbEntity
  8
0
100
AcDbMText
 62
2
  6
CONTINUOUS
  7
STANDARD
 71
2
 72
1
 10
3.95
 20
-0.44325
 30
0.0
 11
1.0
 21
0.0
 31
0.0
 44
0.9
  1
Size
 40
0.145
 41
0.928
  0
MTEXT
  5
283
100
AcDbEntity
  8
0
100
AcDbMText
 62
2
  6
CONTINUOUS
  7
STANDARD
 71
2
 72
1
 10
0.65
 20
-0.75025
 30
0.0
 11
1.0
 21
0.0
 31
0.0
 44
0.9
  1
E8C
 40
0.125
 41
0.6
  0
MTEXT
  5
284
100
AcDbEntity
  8
0
100
AcDbMText
 62
2
  6
CONTINUOUS
  7
STANDARD
 71
2
 72
1
 10
2.3
 20
-0.75025
 30
0.0
 11
1.0
 21
0.0
 31
0.0
 44
0.9
  1
All Ports
 40
0.125
 41
1.8
  0
MTEXT
  5
285
100
AcDbEntity
  8
0
100
AcDbMText
 62
2
  6
CONTINUOUS
  7
STANDARD
 71
2
 72
1
 10
3.95
 20
-0.75025
 30
0.0
 11
1.0
 21
0.0
 31
0.0
 44
0.9
  1
1/2" NPTF
 40
0.125
 41
1.8
  0
ENDBLK
  5
286
100
AcDbEntity
  8
0
  6
BYBLOCK
 62
0
100
AcDbBlockEnd
  0
ENDSEC
  0
SECTION
  2
ENTITIES
  0
IMAGE
  5
287
100
AcDbEntity
  8
0
100
AcDbRasterImage
 62
7
  6
CONTINUOUS
 10
19.2297077316
 20
0.3094318264
 30
0.0
 11
0.0066666667
 21
0.0
 31
0.0
 12
0.0
 22
0.0066666667
 32
0.0
 13
369.0
 23
92.0
340
       3A6
 70
9
280
0
281
50
282
50
283
0
360
       3A0
 71
1
 91
2
 14
-0.5
 24
-0.5
 14
368.5
 24
91.5
  0
INSERT
  5
288
100
AcDbEntity
  8
0
100
AcDbBlockReference
 62
2
  6
CONTINUOUS
  2
SUN_FIRST_THIRD_ANGLE_BL0
 10
20.4816717061
 20
1.2289683772
  0
ACAD_TABLE
  5
289
100
AcDbEntity
  8
0
 62
2
  6
CONTINUOUS
100
AcDbBlockReference
  2
*T1
 10
12.42375
 20
0.30125
 30
0.0
100
AcDbTable
342
       3A8
343
20F
 11
1.0
 21
0.0
 31
0.0
 90
6
 91
4
 92
6
 93
20
 94
0
 95
0
 96
0
 70
1
 41
0.0
141
0.525
141
0.1
141
0.525
141
0.1
142
4.1
142
1.1
142
0.7
142
0.5
142
0.4
142
2.475
171
1
172
0
173
0
174
0
175
1
176
1
 91
33
178
0
145
0.0
301
CELL_VALUE
 90
4
  1
T-11A Line mount\P2 cylinder sequence, with reverse checks
304
ACVALUE_END
170
2
140
0.125
171
1
172
0
173
0
174
0
175
1
176
1
 91
33
178
0
145
0.0
301
CELL_VALUE
 90
4
  1
Nov-24-19
304
ACVALUE_END
170
5
140
0.125
171
1
172
0
173
0
174
0
175
1
176
1
 91
33
178
0
145
0.0
301
CELL_VALUE
 90
4
  1
2.000
304
ACVALUE_END
170
5
140
0.125
171
1
172
0
173
0
174
0
175
1
176
1
 91
33
178
0
145
0.0
301
CELL_VALUE
 90
4
  1
C
304
ACVALUE_END
170
5
140
0.125
171
1
172
0
173
0
174
0
175
1
176
1
 91
33
178
0
145
0.0
301
CELL_VALUE
 90
4
  1
2
304
ACVALUE_END
170
5
140
0.125
171
1
172
0
173
0
174
0
175
1
176
1
 91
33
178
0
145
0.0
301
CELL_VALUE
 90
4
  1
 
304
ACVALUE_END
170
1
140
0.125
171
1
172
0
173
0
174
0
175
1
176
1
 91
33
178
0
145
0.0
301
CELL_VALUE
 90
4
  1
DESCRIPTION
304
ACVALUE_END
170
1
140
0.06
171
1
172
0
173
0
174
0
175
1
176
1
 91
33
178
0
145
0.0
301
CELL_VALUE
 90
4
  1
DATE
304
ACVALUE_END
170
1
140
0.06
171
1
172
0
173
0
174
0
175
1
176
1
 91
33
178
0
145
0.0
301
CELL_VALUE
 90
4
  1
SCALE
304
ACVALUE_END
170
1
140
0.06
171
1
172
0
173
0
174
0
175
1
176
1
 91
33
178
0
145
0.0
301
CELL_VALUE
 90
4
  1
DWG SIZE
304
ACVALUE_END
170
1
140
0.06
171
1
172
0
173
0
174
0
175
1
176
1
 91
33
178
0
145
0.0
301
CELL_VALUE
 90
4
  1
SHEET
304
ACVALUE_END
170
1
140
0.06
171
1
172
0
173
0
174
0
175
1
176
1
 91
33
178
0
145
0.0
301
CELL_VALUE
 90
4
  1
 
304
ACVALUE_END
170
1
140
0.125
171
1
172
0
173
0
174
0
175
1
176
1
 91
33
178
0
145
0.0
301
CELL_VALUE
 90
4
  1
E8C
304
ACVALUE_END
170
5
140
0.125
171
1
172
0
173
0
174
0
175
4
176
1
 91
33
178
0
145
0.0
301
CELL_VALUE
 90
4
  1
ALL DIMENSIONS IN INCH\PVIEWS ARE THIRD ANGLE
304
ACVALUE_END
170
5
140
0.12
171
1
172
0
173
1
174
0
175
1
176
1
 91
1
178
0
145
0.0
170
1
171
1
172
0
173
1
174
0
175
1
176
1
 91
1
178
0
145
0.0
170
1
171
1
172
0
173
1
174
0
175
1
176
1
 91
1
178
0
145
0.0
170
5
171
1
172
0
173
0
174
0
175
1
176
1
 91
33
178
0
145
0.0
301
CELL_VALUE
 90
4
  1
 
304
ACVALUE_END
170
1
140
0.125
171
1
172
0
173
0
174
0
175
1
176
1
 91
33
178
0
145
0.0
301
CELL_VALUE
 90
4
  1
MODEL
304
ACVALUE_END
170
1
140
0.06
171
1
172
0
173
0
174
0
175
1
176
1
 91
33
178
0
145
0.0
301
CELL_VALUE
 90
4
  1
 
304
ACVALUE_END
170
1
140
0.125
171
1
172
0
173
0
174
0
175
1
176
1
 91
33
178
0
145
0.0
301
CELL_VALUE
 90
4
  1
 
304
ACVALUE_END
170
1
140
0.125
171
1
172
0
173
0
174
0
175
1
176
1
 91
33
178
0
145
0.0
301
CELL_VALUE
 90
4
  1
 
304
ACVALUE_END
170
1
140
0.125
171
1
172
0
173
0
174
0
175
1
176
1
 91
33
178
0
145
0.0
301
CELL_VALUE
 90
4
  1
 
304
ACVALUE_END
170
1
140
0.125
171
1
172
0
173
0
174
0
175
1
176
1
 91
33
178
0
145
0.0
301
CELL_VALUE
 90
4
  1
 
304
ACVALUE_END
170
1
140
0.125
  0
ACAD_TABLE
  5
28A
100
AcDbEntity
  8
0
 62
2
  6
CONTINUOUS
100
AcDbBlockReference
  2
*T2
 10
12.4237499994
 20
16.47875
 30
0.0
100
AcDbTable
342
       3A7
343
210
 11
1.0
 21
0.0
 31
0.0
 90
22
 91
10
 92
3
 93
16
 94
0
 95
0
 96
0
 41
0.028
141
0.344
141
0.25
141
0.25
141
0.25
141
0.25
141
0.25
141
0.25
141
0.25
141
0.25
141
0.25
142
3.055
142
3.0
142
3.0
171
1
172
0
173
0
174
0
175
1
176
1
 91
33
178
0
145
0.0
301
CELL_VALUE
 90
4
  1
Technical Data
304
ACVALUE_END
170
5
140
0.145
171
1
172
0
173
0
174
0
175
1
176
1
 91
33
178
0
145
0.0
301
CELL_VALUE
 90
4
  1
U.S. Units
304
ACVALUE_END
170
5
140
0.145
171
1
172
0
173
0
174
0
175
1
176
1
 91
33
178
0
145
0.0
301
CELL_VALUE
 90
4
  1
Metric Units
304
ACVALUE_END
170
5
140
0.145
171
1
172
0
173
0
174
0
175
1
176
1
 91
33
178
0
145
0.0
301
CELL_VALUE
 90
4
  1
Cavity
304
ACVALUE_END
170
5
140
0.125
171
1
172
0
173
0
174
0
175
2
176
1
 91
33
178
0
145
0.0
301
CELL_VALUE
 90
4
  1
T-11A
304
ACVALUE_END
170
5
140
0.125
171
1
172
0
173
1
174
0
175
1
176
1
 91
1
178
0
145
0.0
170
1
171
1
172
0
173
0
174
0
175
1
176
1
 91
33
178
0
145
0.0
301
CELL_VALUE
 90
4
  1
Body Features
304
ACVALUE_END
170
5
140
0.125
171
1
172
0
173
0
174
0
175
2
176
1
 91
33
178
0
145
0.0
301
CELL_VALUE
 90
4
  1
2 cylinder sequence, with reverse checks
304
ACVALUE_END
170
5
140
0.125
171
1
172
0
173
1
174
0
175
1
176
1
 91
1
178
0
145
0.0
170
1
171
1
172
0
173
0
174
0
175
1
176
1
 91
33
178
0
145
0.0
301
CELL_VALUE
 90
4
  1
Body Type
304
ACVALUE_END
170
5
140
0.125
171
1
172
0
173
0
174
0
175
2
176
1
 91
33
178
0
145
0.0
301
CELL_VALUE
 90
4
  1
Line mount
304
ACVALUE_END
170
5
140
0.125
171
1
172
0
173
1
174
0
175
1
176
1
 91
1
178
0
145
0.0
170
1
171
1
172
0
173
0
174
0
175
1
176
1
 91
33
178
0
145
0.0
301
CELL_VALUE
 90
4
  1
Interface
304
ACVALUE_END
170
5
140
0.125
171
1
172
0
173
0
174
0
175
2
176
1
 91
33
178
0
145
0.0
301
CELL_VALUE
 90
4
  1
None
304
ACVALUE_END
170
5
140
0.125
171
1
172
0
173
1
174
0
175
1
176
1
 91
1
178
0
145
0.0
170
1
171
1
172
0
173
0
174
0
175
1
176
1
 91
33
178
0
145
0.0
301
CELL_VALUE
 90
4
  1
Open Cavity Quantity
304
ACVALUE_END
170
5
140
0.125
171
1
172
0
173
0
174
0
175
2
176
1
 91
33
178
0
145
0.0
301
CELL_VALUE
 90
4
  1
2
304
ACVALUE_END
170
5
140
0.125
171
1
172
0
173
1
174
0
175
1
176
1
 91
1
178
0
145
0.0
170
1
171
1
172
0
173
0
174
0
175
1
176
1
 91
33
178
0
145
0.0
301
CELL_VALUE
 90
4
  1
Weight
304
ACVALUE_END
170
5
140
0.125
171
1
172
0
173
0
174
0
175
1
176
1
 91
33
178
0
145
0.0
301
CELL_VALUE
 90
4
  1
2.210 lb.
304
ACVALUE_END
170
5
140
0.125
171
1
172
0
173
0
174
0
175
1
176
1
 91
33
178
0
145
0.0
301
CELL_VALUE
 90
4
  1
1,002 kg.
304
ACVALUE_END
170
5
140
0.125
171
1
172
0
173
0
174
0
175
1
176
1
 91
33
178
0
145
0.0
301
CELL_VALUE
 90
4
  1
Mounting Hole Diameter
304
ACVALUE_END
170
5
140
0.125
171
1
172
0
173
0
174
0
175
1
176
1
 91
33
178
0
145
0.0
301
CELL_VALUE
 90
4
  1
.34 in.
304
ACVALUE_END
170
5
140
0.125
171
1
172
0
173
0
174
0
175
1
176
1
 91
33
178
0
145
0.0
301
CELL_VALUE
 90
4
  1
8.6 mm
304
ACVALUE_END
170
5
140
0.125
171
1
172
0
173
0
174
0
175
1
176
1
 91
33
178
0
145
0.0
301
CELL_VALUE
 90
4
  1
Mounting Hole Depth
304
ACVALUE_END
170
5
140
0.125
171
1
172
0
173
0
174
0
175
2
176
1
 91
33
178
0
145
0.0
301
CELL_VALUE
 90
4
  1
Through
304
ACVALUE_END
170
5
140
0.125
171
1
172
0
173
1
174
0
175
1
176
1
 91
1
178
0
145
0.0
170
1
171
1
172
0
173
0
174
0
175
1
176
1
 91
33
178
0
145
0.0
301
CELL_VALUE
 90
4
  1
Mounting Hole Quantity
304
ACVALUE_END
170
5
140
0.125
171
1
172
0
173
0
174
0
175
2
176
1
 91
33
178
0
145
0.0
301
CELL_VALUE
 90
4
  1
2
304
ACVALUE_END
170
5
140
0.125
171
1
172
0
173
1
174
0
175
1
176
1
 91
1
178
0
145
0.0
170
1
  0
ACAD_TABLE
  5
28B
100
AcDbEntity
  8
0
 62
2
  6
CONTINUOUS
100
AcDbBlockReference
  2
*T3
 10
0.52125
 20
1.459
 30
0.0
100
AcDbTable
342
       3A7
343
211
 11
1.0
 21
0.0
 31
0.0
 90
22
 91
3
 92
3
 93
16
 94
0
 95
0
 96
0
 41
0.05
141
0.34375
141
0.344
141
0.25
142
1.3
142
2.0
142
1.3
171
1
172
0
173
0
174
0
175
3
176
1
 91
33
178
0
145
0.0
301
CELL_VALUE
 90
4
  1
Port Headings
304
ACVALUE_END
170
5
140
0.145
171
1
172
0
173
1
174
0
175
1
176
1
 91
1
178
0
145
0.0
170
1
171
1
172
0
173
1
174
0
175
1
176
1
 91
1
178
0
145
0.0
170
1
171
1
172
0
173
0
174
0
175
1
176
1
 91
33
178
0
145
0.0
301
CELL_VALUE
 90
4
  1
Product
304
ACVALUE_END
170
5
140
0.145
171
1
172
0
173
0
174
0
175
1
176
1
 91
33
178
0
145
0.0
301
CELL_VALUE
 90
4
  1
Port
304
ACVALUE_END
170
5
140
0.145
171
1
172
0
173
0
174
0
175
1
176
1
 91
33
178
0
145
0.0
301
CELL_VALUE
 90
4
  1
Size
304
ACVALUE_END
170
5
140
0.145
171
1
172
0
173
0
174
0
175
1
176
1
 91
33
178
0
145
0.0
301
CELL_VALUE
 90
4
  1
E8C
304
ACVALUE_END
170
5
140
0.125
171
1
172
0
173
0
174
0
175
1
176
1
 91
33
178
0
145
0.0
301
CELL_VALUE
 90
4
  1
All Ports
304
ACVALUE_END
170
5
140
0.125
171
1
172
0
173
0
174
0
175
1
176
1
 91
33
178
0
145
0.0
301
CELL_VALUE
 90
4
  1
1/2" NPTF
304
ACVALUE_END
170
5
140
0.125
  0
MTEXT
  5
28C
100
AcDbEntity
  8
0
100
AcDbMText
 62
2
  6
CONTINUOUS
  7
STANDARD
 71
1
 72
1
 10
0.52125
 20
5.75995
 30
0.0
 11
1.0
 21
0.0
 31
0.0
 44
0.6
  3
Notes\P \P1. Important: Carefully consider\P   the maximum system pressure. The\P   pressure rating of the manifold is\P   dependent on the manifold material,\P   with the port type/size a secondary\P   consideration. Manifolds\P   constructed of alu
  1
minum are not\P   rated for pressures higher than\P   3000 psi (210 bar), regardless of\P   the port type/size specified.
 40
0.1
 41
3.04
  0
LINE
  5
28D
100
AcDbEntity
  8
0
100
AcDbLine
 62
7
  6
CONTINUOUS
 10
0.30125
 20
0.30125
 11
0.30125
 21
16.69875
  0
LINE
  5
28E
100
AcDbEntity
  8
0
100
AcDbLine
 62
7
  6
CONTINUOUS
 10
0.30125
 20
0.30125
 11
21.69875
 21
0.30125
  0
LINE
  5
28F
100
AcDbEntity
  8
0
100
AcDbLine
 62
7
  6
CONTINUOUS
 10
0.30125
 20
16.69875
 11
21.69875
 21
16.69875
  0
LINE
  5
290
100
AcDbEntity
  8
0
100
AcDbLine
 62
7
  6
CONTINUOUS
 10
21.69875
 20
0.30125
 11
21.69875
 21
16.69875
  0
LINE
  5
291
100
AcDbEntity
  8
0
100
AcDbLine
 62
7
  6
CONTINUOUS
 10
6.2847269346
 20
7.2308565608
 11
6.2617617756
 21
7.2860324222
  0
LINE
  5
292
100
AcDbEntity
  8
0
100
AcDbLine
 62
7
  6
CONTINUOUS
 10
6.5369543311
 20
5.7281345201
 11
6.5369543311
 21
10.5577639377
  0
LINE
  5
293
100
AcDbEntity
  8
0
100
AcDbLine
 62
7
  6
CONTINUOUS
 10
6.5369543311
 20
10.5577639377
 11
7.8310484886
 21
11.8077629802
  0
LINE
  5
294
100
AcDbEntity
  8
0
100
AcDbLine
 62
7
  6
CONTINUOUS
 10
6.3842650069
 20
8.8480067843
 11
6.3681955867
 21
8.8207613269
  0
LINE
  5
295
100
AcDbEntity
  8
0
100
AcDbLine
 62
7
  6
CONTINUOUS
 10
14.2643613992
 20
5.1922370198
 11
6.5369543311
 21
5.7281345201
  0
LINE
  5
296
100
AcDbEntity
  8
0
100
AcDbLine
 62
4
  6
CONTINUOUS
 10
12.9275199013
 20
6.1542806007
 11
12.6956976944
 21
6.0979130857
  0
LINE
  5
297
100
AcDbEntity
  8
0
100
AcDbLine
 62
4
  6
CONTINUOUS
 10
9.6163260127
 20
6.4563571164
 11
9.8481482196
 21
6.3678357521
  0
LINE
  5
298
100
AcDbEntity
  8
0
100
AcDbLine
 62
4
  6
CONTINUOUS
 10
12.7536532461
 20
6.7024271476
 11
12.8116087978
 21
6.7128968043
  0
LINE
  5
299
100
AcDbEntity
  8
0
100
AcDbLine
 62
4
  6
CONTINUOUS
 10
12.8888828622
 20
6.3308267436
 11
12.8502458369
 21
6.3335062304
  0
LINE
  5
29A
100
AcDbEntity
  8
0
100
AcDbLine
 62
4
  6
CONTINUOUS
 10
9.8481482196
 20
6.599657959
 11
9.6163260127
 21
6.6157348837
  0
LINE
  5
29B
100
AcDbEntity
  8
0
100
AcDbLine
 62
4
  6
CONTINUOUS
 10
9.6549630484
 20
6.7869220513
 11
9.6356445305
 21
6.802750683
  0
LINE
  5
29C
100
AcDbEntity
  8
0
100
AcDbLine
 62
4
  6
CONTINUOUS
 10
9.7901926679
 20
6.9079438367
 11
9.828829707
 21
6.8762865731
  0
LINE
  5
29D
100
AcDbEntity
  8
0
100
AcDbLine
 62
4
  6
CONTINUOUS
 10
9.6356445305
 20
6.802750683
 11
9.6163260127
 21
6.8330682026
  0
LINE
  5
29E
100
AcDbEntity
  8
0
100
AcDbLine
 62
4
  6
CONTINUOUS
 10
9.8481482196
 20
6.3678357521
 11
9.6163260127
 21
6.3114682372
  0
LINE
  5
29F
100
AcDbEntity
  8
0
100
AcDbLine
 62
7
  6
CONTINUOUS
 10
6.5369543311
 20
7.0757439338
 11
6.363650394
 21
7.0877626027
  0
LINE
  5
2A0
100
AcDbEntity
  8
0
100
AcDbLine
 62
7
  6
CONTINUOUS
 10
6.5369543311
 20
7.1054657914
 11
6.3370994215
 21
7.1193257765
  0
LINE
  5
2A1
100
AcDbEntity
  8
0
100
AcDbLine
 62
4
  6
CONTINUOUS
 10
9.7322371162
 20
6.9264519558
 11
9.7901926679
 21
6.9079438367
  0
LINE
  5
2A2
100
AcDbEntity
  8
0
100
AcDbLine
 62
4
  6
CONTINUOUS
 10
9.828829707
 20
6.8762865731
 11
9.8481482196
 21
6.8459690538
  0
LINE
  5
2A3
100
AcDbEntity
  8
0
100
AcDbLine
 62
4
  6
CONTINUOUS
 10
9.6163260127
 20
6.8330682026
 11
9.6163260127
 21
6.8620459785
  0
LINE
  5
2A4
100
AcDbEntity
  8
0
100
AcDbLine
 62
4
  6
CONTINUOUS
 10
9.693600084
 20
6.4220203655
 11
9.693600084
 21
6.335087038
  0
LINE
  5
2A5
100
AcDbEntity
  8
0
100
AcDbLine
 62
4
  6
CONTINUOUS
 10
9.8481482196
 20
6.8459690538
 11
9.8481482196
 21
6.8169912779
  0
LINE
  5
2A6
100
AcDbEntity
  8
0
100
AcDbLine
 62
7
  6
CONTINUOUS
 10
9.7919091505
 20
9.0107102666
 11
10.0286169874
 21
9.2393524931
  0
LINE
  5
2A7
100
AcDbEntity
  8
0
100
AcDbLine
 62
4
  6
CONTINUOUS
 10
9.6742815644
 20
6.915982299
 11
9.7322371162
 21
6.9264519558
  0
LINE
  5
2A8
100
AcDbEntity
  8
0
100
AcDbLine
 62
7
  6
CONTINUOUS
 10
9.1221231201
 20
7.1710730821
 11
8.7782535056
 21
7.1949205208
  0
LINE
  5
2A9
100
AcDbEntity
  8
0
100
AcDbLine
 62
4
  6
CONTINUOUS
 10
12.7536532461
 20
6.4416271648
 11
12.6956976944
 21
6.4601352839
  0
LINE
  5
2AA
100
AcDbEntity
  8
0
100
AcDbLine
 62
4
  6
CONTINUOUS
 10
12.8116087978
 20
6.7128968043
 11
12.8695643495
 21
6.6943886852
  0
LINE
  5
2AB
100
AcDbEntity
  8
0
100
AcDbLine
 62
4
  6
CONTINUOUS
 10
12.6956976944
 20
6.242801965
 11
12.9275199013
 21
6.1542806007
  0
LINE
  5
2AC
100
AcDbEntity
  8
0
100
AcDbLine
 62
4
  6
CONTINUOUS
 10
10.4006578651
 20
9.2224670885
 11
10.419976383
 21
9.2501051206
  0
LINE
  5
2AD
100
AcDbEntity
  8
0
100
AcDbLine
 62
4
  6
CONTINUOUS
 10
10.419976383
 20
9.2501051206
 11
10.4586134169
 21
9.2764034091
  0
LINE
  5
2AE
100
AcDbEntity
  8
0
100
AcDbLine
 62
4
  6
CONTINUOUS
 10
10.6131615594
 20
9.1497743556
 11
10.5938430329
 21
9.136625212
  0
LINE
  5
2AF
100
AcDbEntity
  8
0
100
AcDbLine
 62
7
  6
CONTINUOUS
 10
6.5369543311
 20
7.7192202702
 11
6.2240447962
 21
7.7409206202
  0
LINE
  5
2B0
100
AcDbEntity
  8
0
100
AcDbLine
 62
7
  6
CONTINUOUS
 10
6.5369543311
 20
7.8336391611
 11
6.2240447962
 21
7.855339511
  0
LINE
  5
2B1
100
AcDbEntity
  8
0
100
AcDbLine
 62
4
  6
CONTINUOUS
 10
10.4006578651
 20
8.8167782265
 11
10.4006578651
 21
8.715356011
  0
LINE
  5
2B2
100
AcDbEntity
  8
0
100
AcDbLine
 62
4
  6
CONTINUOUS
 10
10.4006578651
 20
9.1934893127
 11
10.4006578651
 21
9.2224670885
  0
LINE
  5
2B3
100
AcDbEntity
  8
0
100
AcDbLine
 62
4
  6
CONTINUOUS
 10
10.5358874812
 20
8.8074000208
 11
10.5358874812
 21
8.7059778053
  0
LINE
  5
2B4
100
AcDbEntity
  8
0
100
AcDbLine
 62
4
  6
CONTINUOUS
 10
10.632480072
 20
9.2063901639
 11
10.632480072
 21
9.177412388
  0
LINE
  5
2B5
100
AcDbEntity
  8
0
100
AcDbLine
 62
4
  6
CONTINUOUS
 10
10.632480072
 20
8.6992790864
 11
10.632480072
 21
8.8007013019
  0
LINE
  5
2B6
100
AcDbEntity
  8
0
100
AcDbLine
 62
4
  6
CONTINUOUS
 10
10.632480072
 20
9.177412388
 11
10.6131615594
 21
9.1497743556
  0
LINE
  5
2B7
100
AcDbEntity
  8
0
100
AcDbLine
 62
7
  6
CONTINUOUS
 10
8.8007219057
 20
7.193362332
 11
8.7378528851
 21
7.1348504914
  0
LINE
  5
2B8
100
AcDbEntity
  8
0
100
AcDbLine
 62
4
  6
CONTINUOUS
 10
10.497250449
 20
8.6796795167
 11
10.5358874812
 21
8.7059778053
  0
LINE
  5
2B9
100
AcDbEntity
  8
0
100
AcDbLine
 62
4
  6
CONTINUOUS
 10
10.6131615594
 20
8.6861299419
 11
10.632480072
 21
8.6992790864
  0
LINE
  5
2BA
100
AcDbEntity
  8
0
100
AcDbLine
 62
4
  6
CONTINUOUS
 10
14.4662400823
 20
8.194217412
 11
14.4507109528
 21
8.1937063117
  0
LINE
  5
2BB
100
AcDbEntity
  8
0
100
AcDbLine
 62
4
  6
CONTINUOUS
 10
12.8502458369
 20
6.3335062304
 11
12.8309273105
 21
6.3493348627
  0
LINE
  5
2BC
100
AcDbEntity
  8
0
100
AcDbLine
 62
4
  6
CONTINUOUS
 10
12.7922902783
 20
6.4099699017
 11
12.7536532461
 21
6.4416271648
  0
LINE
  5
2BD
100
AcDbEntity
  8
0
100
AcDbLine
 62
4
  6
CONTINUOUS
 10
12.8888828622
 20
6.446737847
 11
12.9082013886
 21
6.4309092147
  0
LINE
  5
2BE
100
AcDbEntity
  8
0
100
AcDbLine
 62
4
  6
CONTINUOUS
 10
12.73433473
 20
6.5733668998
 11
12.7150162122
 21
6.5891955315
  0
LINE
  5
2BF
100
AcDbEntity
  8
0
100
AcDbLine
 62
4
  6
CONTINUOUS
 10
9.6163260127
 20
6.8620459785
 11
9.6356445305
 21
6.8896840105
  0
LINE
  5
2C0
100
AcDbEntity
  8
0
100
AcDbLine
 62
4
  6
CONTINUOUS
 10
9.8481482196
 20
6.8169912779
 11
9.828829707
 21
6.7893532455
  0
LINE
  5
2C1
100
AcDbEntity
  8
0
100
AcDbLine
 62
7
  6
CONTINUOUS
 10
9.1751593459
 20
7.197964195
 11
9.1679073488
 21
7.1912148024
  0
LINE
  5
2C2
100
AcDbEntity
  8
0
100
AcDbLine
 62
7
  6
CONTINUOUS
 10
14.7240631227
 20
7.9603021229
 11
15.5079916472
 21
7.905936495
  0
LINE
  5
2C3
100
AcDbEntity
  8
0
100
AcDbLine
 62
7
  6
CONTINUOUS
 10
6.5369543311
 20
8.6814791473
 11
6.3370994215
 21
8.6953391324
  0
LINE
  5
2C4
100
AcDbEntity
  8
0
100
AcDbLine
 62
7
  6
CONTINUOUS
 10
14.6434357387
 20
8.1850956337
 11
15.3121752921
 21
8.1387183882
  0
LINE
  5
2C5
100
AcDbEntity
  8
0
100
AcDbLine
 62
7
  6
CONTINUOUS
 10
6.5369543311
 20
8.7661761806
 11
6.363650394
 21
8.7781948494
  0
LINE
  5
2C6
100
AcDbEntity
  8
0
100
AcDbLine
 62
7
  6
CONTINUOUS
 10
14.6289751738
 20
8.2693181772
 11
15.296846081
 21
8.2230011725
  0
LINE
  5
2C7
100
AcDbEntity
  8
0
100
AcDbLine
 62
4
  6
CONTINUOUS
 10
10.4006578651
 20
8.715356011
 11
10.4392949008
 21
8.6836987477
  0
LINE
  5
2C8
100
AcDbEntity
  8
0
100
AcDbLine
 62
4
  6
CONTINUOUS
 10
12.8695643495
 20
6.6943886852
 11
12.9082013886
 21
6.6627314216
  0
LINE
  5
2C9
100
AcDbEntity
  8
0
100
AcDbLine
 62
4
  6
CONTINUOUS
 10
10.5358874812
 20
8.7059778053
 11
10.5552060077
 21
8.690149173
  0
LINE
  5
2CA
100
AcDbEntity
  8
0
100
AcDbLine
 62
4
  6
CONTINUOUS
 10
10.419976383
 20
9.1631717931
 11
10.4006578651
 21
9.1934893127
  0
LINE
  5
2CB
100
AcDbEntity
  8
0
100
AcDbLine
 62
4
  6
CONTINUOUS
 10
13.5379853288
 20
9.0628482417
 11
13.5959408805
 21
9.0733178984
  0
LINE
  5
2CC
100
AcDbEntity
  8
0
100
AcDbLine
 62
4
  6
CONTINUOUS
 10
14.4662400823
 20
8.8172395929
 11
14.4817692119
 21
8.8177506932
  0
LINE
  5
2CD
100
AcDbEntity
  8
0
100
AcDbLine
 62
4
  6
CONTINUOUS
 10
10.4392949008
 20
8.6836987477
 11
10.497250449
 21
8.6796795167
  0
LINE
  5
2CE
100
AcDbEntity
  8
0
100
AcDbLine
 62
4
  6
CONTINUOUS
 10
13.5186668127
 20
8.4701435802
 11
13.576622361
 21
8.4661243493
  0
LINE
  5
2CF
100
AcDbEntity
  8
0
100
AcDbLine
 62
4
  6
CONTINUOUS
 10
10.5552060077
 20
8.690149173
 11
10.6131615594
 21
8.6861299419
  0
LINE
  5
2D0
100
AcDbEntity
  8
0
100
AcDbLine
 62
4
  6
CONTINUOUS
 10
13.6345779196
 20
8.4765940056
 11
13.6925334713
 21
8.4725747744
  0
LINE
  5
2D1
100
AcDbEntity
  8
0
100
AcDbLine
 62
4
  6
CONTINUOUS
 10
13.711851984
 20
8.5871461345
 11
13.4800297771
 21
8.6032230591
  0
LINE
  5
2D2
100
AcDbEntity
  8
0
100
AcDbLine
 62
4
  6
CONTINUOUS
 10
10.632480072
 20
8.8007013019
 11
10.4006578651
 21
8.8167782265
  0
LINE
  5
2D3
100
AcDbEntity
  8
0
100
AcDbLine
 62
4
  6
CONTINUOUS
 10
13.6732149449
 20
8.6912478377
 11
13.6345779196
 21
8.6939273245
  0
LINE
  5
2D4
100
AcDbEntity
  8
0
100
AcDbLine
 62
4
  6
CONTINUOUS
 10
10.632480072
 20
8.9600790691
 11
10.4006578651
 21
8.9761559938
  0
LINE
  5
2D5
100
AcDbEntity
  8
0
100
AcDbLine
 62
4
  6
CONTINUOUS
 10
10.4392949008
 20
9.1473431614
 11
10.419976383
 21
9.1631717931
  0
LINE
  5
2D6
100
AcDbEntity
  8
0
100
AcDbLine
 62
4
  6
CONTINUOUS
 10
10.5745245203
 20
9.2683649468
 11
10.6131615594
 21
9.2367076832
  0
LINE
  5
2D7
100
AcDbEntity
  8
0
100
AcDbLine
 62
4
  6
CONTINUOUS
 10
10.6131615594
 20
9.2367076832
 11
10.632480072
 21
9.2063901639
  0
LINE
  5
2D8
100
AcDbEntity
  8
0
100
AcDbLine
 62
4
  6
CONTINUOUS
 10
12.8309273105
 20
6.3493348627
 11
12.7922902783
 21
6.4099699017
  0
LINE
  5
2D9
100
AcDbEntity
  8
0
100
AcDbLine
 62
4
  6
CONTINUOUS
 10
12.7150162122
 20
6.5891955315
 11
12.6956976944
 21
6.6195130511
  0
LINE
  5
2DA
100
AcDbEntity
  8
0
100
AcDbLine
 62
4
  6
CONTINUOUS
 10
9.6356445305
 20
6.8896840105
 11
9.6742815644
 21
6.915982299
  0
LINE
  5
2DB
100
AcDbEntity
  8
0
100
AcDbLine
 62
4
  6
CONTINUOUS
 10
9.828829707
 20
6.7893532455
 11
9.8095111805
 21
6.7762041019
  0
LINE
  5
2DC
100
AcDbEntity
  8
0
100
AcDbLine
 62
4
  6
CONTINUOUS
 10
10.5165689686
 20
9.2868730659
 11
10.5745245203
 21
9.2683649468
  0
LINE
  5
2DD
100
AcDbEntity
  8
0
100
AcDbLine
 62
4
  6
CONTINUOUS
 10
12.9082013886
 20
6.4309092147
 11
12.9275199013
 21
6.4005916955
  0
LINE
  5
2DE
100
AcDbEntity
  8
0
100
AcDbLine
 62
4
  6
CONTINUOUS
 10
12.9082013886
 20
6.6627314216
 11
12.9275199013
 21
6.6324139023
  0
LINE
  5
2DF
100
AcDbEntity
  8
0
100
AcDbLine
 62
7
  6
CONTINUOUS
 10
14.2643613992
 20
10.0218664374
 11
15.5584555568
 21
11.2718654799
  0
LINE
  5
2E0
100
AcDbEntity
  8
0
100
AcDbLine
 62
4
  6
CONTINUOUS
 10
13.4993482949
 20
9.0365499532
 11
13.5379853288
 21
9.0628482417
  0
LINE
  5
2E1
100
AcDbEntity
  8
0
100
AcDbLine
 62
4
  6
CONTINUOUS
 10
13.6925334713
 20
8.9362191882
 11
13.6732149449
 21
8.9230700446
  0
LINE
  5
2E2
100
AcDbEntity
  8
0
100
AcDbLine
 62
4
  6
CONTINUOUS
 10
10.4586134169
 20
9.2764034091
 11
10.5165689686
 21
9.2868730659
  0
LINE
  5
2E3
100
AcDbEntity
  8
0
100
AcDbLine
 62
7
  6
CONTINUOUS
 10
14.6307725859
 20
9.1130454841
 11
15.296846081
 21
9.0668531304
  0
LINE
  5
2E4
100
AcDbEntity
  8
0
100
AcDbLine
 62
7
  6
CONTINUOUS
 10
14.6459425289
 20
9.2269530774
 11
15.3121752921
 21
9.1807496783
  0
LINE
  5
2E5
100
AcDbEntity
  8
0
100
AcDbLine
 62
4
  6
CONTINUOUS
 10
14.4972983414
 20
8.9341728969
 11
14.4351818232
 21
8.9466173838
  0
LINE
  5
2E6
100
AcDbEntity
  8
0
100
AcDbLine
 62
4
  6
CONTINUOUS
 10
13.5379853288
 20
8.802048259
 11
13.4800297771
 21
8.820556378
  0
LINE
  5
2E7
100
AcDbEntity
  8
0
100
AcDbLine
 62
4
  6
CONTINUOUS
 10
13.6925334713
 20
8.7043969813
 11
13.6732149449
 21
8.6912478377
  0
LINE
  5
2E8
100
AcDbEntity
  8
0
100
AcDbLine
 62
4
  6
CONTINUOUS
 10
13.576622361
 20
8.4661243493
 11
13.6152593932
 21
8.4924226379
  0
LINE
  5
2E9
100
AcDbEntity
  8
0
100
AcDbLine
 62
4
  6
CONTINUOUS
 10
13.6925334713
 20
8.4725747744
 11
13.711851984
 21
8.485723919
  0
LINE
  5
2EA
100
AcDbEntity
  8
0
100
AcDbLine
 62
7
  6
CONTINUOUS
 10
12.0853838395
 20
9.6644541769
 11
12.4245246977
 21
9.6409346785
  0
LINE
  5
2EB
100
AcDbEntity
  8
0
100
AcDbLine
 62
7
  6
CONTINUOUS
 10
14.8321061178
 20
9.8386925637
 11
15.5079916472
 21
9.791819743
  0
LINE
  5
2EC
100
AcDbEntity
  8
0
100
AcDbLine
 62
4
  6
CONTINUOUS
 10
13.5959408805
 20
9.0733178984
 11
13.6538964323
 21
9.0548097793
  0
LINE
  5
2ED
100
AcDbEntity
  8
0
100
AcDbLine
 62
4
  6
CONTINUOUS
 10
13.4800297771
 20
8.5018008436
 11
13.5186668127
 21
8.4701435802
  0
LINE
  5
2EE
100
AcDbEntity
  8
0
100
AcDbLine
 62
4
  6
CONTINUOUS
 10
12.6956976944
 20
6.4601352839
 11
12.6956976944
 21
6.3442241805
  0
LINE
  5
2EF
100
AcDbEntity
  8
0
100
AcDbLine
 62
4
  6
CONTINUOUS
 10
12.6956976944
 20
6.6195130511
 11
12.6956976944
 21
6.648490827
  0
LINE
  5
2F0
100
AcDbEntity
  8
0
100
AcDbLine
 62
4
  6
CONTINUOUS
 10
12.7729717656
 20
6.2084652141
 11
12.7729717656
 21
6.1215318865
  0
LINE
  5
2F1
100
AcDbEntity
  8
0
100
AcDbLine
 62
4
  6
CONTINUOUS
 10
12.9275199013
 20
6.6324139023
 11
12.9275199013
 21
6.6034361265
  0
LINE
  5
2F2
100
AcDbEntity
  8
0
100
AcDbLine
 62
4
  6
CONTINUOUS
 10
12.9275199013
 20
6.4005916955
 11
12.9275199013
 21
6.3716139196
  0
LINE
  5
2F3
100
AcDbEntity
  8
0
100
AcDbLine
 62
4
  6
CONTINUOUS
 10
13.4800297771
 20
9.0089119211
 11
13.4993482949
 21
9.0365499532
  0
LINE
  5
2F4
100
AcDbEntity
  8
0
100
AcDbLine
 62
4
  6
CONTINUOUS
 10
13.711851984
 20
8.9638572206
 11
13.6925334713
 21
8.9362191882
  0
LINE
  5
2F5
100
AcDbEntity
  8
0
100
AcDbLine
 62
7
  6
CONTINUOUS
 10
14.8562329254
 20
9.8687592963
 11
15.5386500695
 21
9.8214335067
  0
LINE
  5
2F6
100
AcDbEntity
  8
0
100
AcDbLine
 62
7
  6
CONTINUOUS
 10
6.5369543311
 20
10.5577639377
 11
14.2643613992
 21
10.0218664374
  0
LINE
  5
2F7
100
AcDbEntity
  8
0
100
AcDbLine
 62
4
  6
CONTINUOUS
 10
13.6152593932
 20
8.4924226379
 11
13.6345779196
 21
8.4765940056
  0
LINE
  5
2F8
100
AcDbEntity
  8
0
100
AcDbLine
 62
4
  6
CONTINUOUS
 10
13.6345779196
 20
8.6939273245
 11
13.6152593932
 21
8.7097559568
  0
LINE
  5
2F9
100
AcDbEntity
  8
0
100
AcDbLine
 62
4
  6
CONTINUOUS
 10
13.576622361
 20
8.7703909958
 11
13.5379853288
 21
8.802048259
  0
LINE
  5
2FA
100
AcDbEntity
  8
0
100
AcDbLine
 62
4
  6
CONTINUOUS
 10
13.6732149449
 20
8.8071589412
 11
13.6925334713
 21
8.7913303089
  0
LINE
  5
2FB
100
AcDbEntity
  8
0
100
AcDbLine
 62
4
  6
CONTINUOUS
 10
13.5186668127
 20
8.933787994
 11
13.4993482949
 21
8.9496166256
  0
LINE
  5
2FC
100
AcDbEntity
  8
0
100
AcDbLine
 62
4
  6
CONTINUOUS
 10
13.711851984
 20
8.7320350137
 11
13.6925334713
 21
8.7043969813
  0
LINE
  5
2FD
100
AcDbEntity
  8
0
100
AcDbLine
 62
4
  6
CONTINUOUS
 10
14.4972983414
 20
8.7168395779
 11
14.4351818232
 21
8.6568396252
  0
LINE
  5
2FE
100
AcDbEntity
  8
0
100
AcDbLine
 62
4
  6
CONTINUOUS
 10
13.6538964323
 20
9.0548097793
 11
13.6925334713
 21
9.0231525157
  0
LINE
  5
2FF
100
AcDbEntity
  8
0
100
AcDbLine
 62
4
  6
CONTINUOUS
 10
14.4972983414
 20
8.4850173711
 11
14.4351818232
 21
8.5409285218
  0
LINE
  5
300
100
AcDbEntity
  8
0
100
AcDbLine
 62
4
  6
CONTINUOUS
 10
13.6152593932
 20
8.7097559568
 11
13.576622361
 21
8.7703909958
  0
LINE
  5
301
100
AcDbEntity
  8
0
100
AcDbLine
 62
4
  6
CONTINUOUS
 10
13.4993482949
 20
8.9496166256
 11
13.4800297771
 21
8.9799341453
  0
LINE
  5
302
100
AcDbEntity
  8
0
100
AcDbLine
 62
4
  6
CONTINUOUS
 10
13.4800297771
 20
8.820556378
 11
13.4800297771
 21
8.7046452746
  0
LINE
  5
303
100
AcDbEntity
  8
0
100
AcDbLine
 62
4
  6
CONTINUOUS
 10
13.4800297771
 20
8.6032230591
 11
13.4800297771
 21
8.5018008436
  0
LINE
  5
304
100
AcDbEntity
  8
0
100
AcDbLine
 62
4
  6
CONTINUOUS
 10
13.4800297771
 20
8.9799341453
 11
13.4800297771
 21
9.0089119211
  0
LINE
  5
305
100
AcDbEntity
  8
0
100
AcDbLine
 62
4
  6
CONTINUOUS
 10
13.6152593932
 20
8.5938448534
 11
13.6152593932
 21
8.4924226379
  0
LINE
  5
306
100
AcDbEntity
  8
0
100
AcDbLine
 62
4
  6
CONTINUOUS
 10
13.711851984
 20
8.9928349965
 11
13.711851984
 21
8.9638572206
  0
LINE
  5
307
100
AcDbEntity
  8
0
100
AcDbLine
 62
4
  6
CONTINUOUS
 10
13.711851984
 20
8.7610127896
 11
13.711851984
 21
8.7320350137
  0
LINE
  5
308
100
AcDbEntity
  8
0
100
AcDbLine
 62
4
  6
CONTINUOUS
 10
13.711851984
 20
8.485723919
 11
13.711851984
 21
8.5871461345
  0
LINE
  5
309
100
AcDbEntity
  8
0
100
AcDbLine
 62
4
  6
CONTINUOUS
 10
12.6956976944
 20
6.648490827
 11
12.7150162122
 21
6.6761288591
  0
LINE
  5
30A
100
AcDbEntity
  8
0
100
AcDbLine
 62
4
  6
CONTINUOUS
 10
12.9275199013
 20
6.6034361265
 11
12.9082013886
 21
6.575798094
  0
LINE
  5
30B
100
AcDbEntity
  8
0
100
AcDbLine
 62
4
  6
CONTINUOUS
 10
12.7150162122
 20
6.6761288591
 11
12.7536532461
 21
6.7024271476
  0
LINE
  5
30C
100
AcDbEntity
  8
0
100
AcDbLine
 62
4
  6
CONTINUOUS
 10
12.9082013886
 20
6.575798094
 11
12.8888828622
 21
6.5626489505
  0
LINE
  5
30D
100
AcDbEntity
  8
0
100
AcDbLine
 62
4
  6
CONTINUOUS
 10
13.6925334713
 20
8.7913303089
 11
13.711851984
 21
8.7610127896
  0
LINE
  5
30E
100
AcDbEntity
  8
0
100
AcDbLine
 62
4
  6
CONTINUOUS
 10
13.6925334713
 20
9.0231525157
 11
13.711851984
 21
8.9928349965
  0
LINE
  5
30F
100
AcDbEntity
  8
0
100
AcDbLine
 62
4
  6
CONTINUOUS
 10
14.4351818232
 20
8.9466173838
 11
14.4972983414
 21
9.0790617761
  0
LINE
  5
310
100
AcDbEntity
  8
0
100
AcDbLine
 62
4
  6
CONTINUOUS
 10
14.4507109528
 20
8.7877507168
 11
14.4662400823
 21
8.8172395929
  0
LINE
  5
311
100
AcDbEntity
  8
0
100
AcDbLine
 62
4
  6
CONTINUOUS
 10
12.9275199013
 20
6.3716139196
 11
12.9082013886
 21
6.3439758872
  0
LINE
  5
312
100
AcDbEntity
  8
0
100
AcDbLine
 62
4
  6
CONTINUOUS
 10
12.9082013886
 20
6.3439758872
 11
12.8888828622
 21
6.3308267436
  0
LINE
  5
313
100
AcDbEntity
  8
0
100
AcDbLine
 62
7
  6
CONTINUOUS
 10
7.8310484886
 20
11.8077629802
 11
15.5584555568
 21
11.2718654799
  0
LINE
  5
314
100
AcDbEntity
  8
0
100
AcDbLine
 62
4
  6
CONTINUOUS
 10
14.4507109528
 20
8.1937063117
 11
14.4403581985
 21
8.2126840943
  0
LINE
  5
315
100
AcDbEntity
  8
0
100
AcDbLine
 62
4
  6
CONTINUOUS
 10
14.4869455881
 20
8.3591062752
 11
14.4921219648
 21
8.3496173835
  0
LINE
  5
316
100
AcDbEntity
  8
0
100
AcDbLine
 62
7
  6
CONTINUOUS
 10
14.2643613992
 20
10.0218664374
 11
14.2643613992
 21
5.1922370198
  0
LINE
  5
317
100
AcDbEntity
  8
0
100
AcDbLine
 62
4
  6
CONTINUOUS
 10
14.4351818232
 20
8.2366618753
 11
14.4351818232
 21
8.2656396511
  0
LINE
  5
318
100
AcDbEntity
  8
0
100
AcDbLine
 62
4
  6
CONTINUOUS
 10
14.4351818232
 20
8.6568396252
 11
14.4351818232
 21
8.7147951769
  0
LINE
  5
319
100
AcDbEntity
  8
0
100
AcDbLine
 62
4
  6
CONTINUOUS
 10
14.4765928347
 20
8.9431506879
 11
14.4765928347
 21
9.0300840155
  0
LINE
  5
31A
100
AcDbEntity
  8
0
100
AcDbLine
 62
4
  6
CONTINUOUS
 10
14.4972983414
 20
8.7747951296
 11
14.4972983414
 21
8.7168395779
  0
LINE
  5
31B
100
AcDbEntity
  8
0
100
AcDbLine
 62
4
  6
CONTINUOUS
 10
14.4972983414
 20
8.3256396038
 11
14.4972983414
 21
8.296661828
  0
LINE
  5
31C
100
AcDbEntity
  8
0
100
AcDbLine
 62
4
  6
CONTINUOUS
 10
14.4351818232
 20
8.7147951769
 11
14.4403581985
 21
8.7487729477
  0
LINE
  5
31D
100
AcDbEntity
  8
0
100
AcDbLine
 62
4
  6
CONTINUOUS
 10
14.4351818232
 20
8.2656396511
 11
14.4403581985
 21
8.2996174219
  0
LINE
  5
31E
100
AcDbEntity
  8
0
100
AcDbLine
 62
4
  6
CONTINUOUS
 10
14.4972983414
 20
8.296661828
 11
14.4921219648
 21
8.2626840559
  0
LINE
  5
31F
100
AcDbEntity
  8
0
100
AcDbLine
 62
4
  6
CONTINUOUS
 10
14.4403581985
 20
8.7487729477
 11
14.4507109528
 21
8.7877507168
  0
LINE
  5
320
100
AcDbEntity
  8
0
100
AcDbLine
 62
4
  6
CONTINUOUS
 10
14.4403581985
 20
8.2996174219
 11
14.4455345775
 21
8.3191063082
  0
LINE
  5
321
100
AcDbEntity
  8
0
100
AcDbLine
 62
4
  6
CONTINUOUS
 10
14.4921219648
 20
8.2626840559
 11
14.4817692119
 21
8.2237062881
  0
LINE
  5
322
100
AcDbEntity
  8
0
100
AcDbLine
 62
4
  6
CONTINUOUS
 10
14.4351818232
 20
8.4250174184
 11
14.4972983414
 21
8.6009284745
  0
LINE
  5
323
100
AcDbEntity
  8
0
100
AcDbLine
 62
4
  6
CONTINUOUS
 10
14.4817692119
 20
8.2237062881
 11
14.4662400823
 21
8.194217412
  0
LINE
  5
324
100
AcDbEntity
  8
0
100
AcDbLine
 62
4
  6
CONTINUOUS
 10
14.4817692119
 20
8.8177506932
 11
14.4921219648
 21
8.7987729093
  0
LINE
  5
325
100
AcDbEntity
  8
0
100
AcDbLine
 62
4
  6
CONTINUOUS
 10
14.4403581985
 20
8.2126840943
 11
14.4351818232
 21
8.2366618753
  0
LINE
  5
326
100
AcDbEntity
  8
0
100
AcDbLine
 62
4
  6
CONTINUOUS
 10
14.4921219648
 20
8.3496173835
 11
14.4972983414
 21
8.3256396038
  0
LINE
  5
327
100
AcDbEntity
  8
0
100
AcDbLine
 62
4
  6
CONTINUOUS
 10
14.4921219648
 20
8.7987729093
 11
14.4972983414
 21
8.7747951296
  0
LINE
  5
328
100
AcDbEntity
  8
0
100
AcDbLine
 62
7
  6
CONTINUOUS
 10
15.5987063177
 20
8.0289435963
 11
15.631830291
 21
8.0851047889
  0
LINE
  5
329
100
AcDbEntity
  8
0
100
AcDbLine
 62
7
  6
CONTINUOUS
 10
15.5584555568
 20
11.2718654799
 11
15.5584555568
 21
9.8093160423
  0
LINE
  5
32A
100
AcDbEntity
  8
0
100
AcDbLine
 62
7
  6
CONTINUOUS
 10
15.5584555568
 20
7.9647932894
 11
15.5584555568
 21
6.4422360623
  0
LINE
  5
32B
100
AcDbEntity
  8
0
100
AcDbLine
 62
7
  6
CONTINUOUS
 10
14.2643613992
 20
5.1922370198
 11
15.5584555568
 21
6.4422360623
  0
LINE
  5
32C
100
AcDbEntity
  8
0
100
AcDbLine
 62
7
  6
CONTINUOUS
 10
15.7248663302
 20
9.6520230463
 11
15.7382641021
 21
9.6198336935
  0
ARC
  5
32D
100
AcDbEntity
  8
0
100
AcDbCircle
 62
7
  6
CONTINUOUS
 10
9.8273466767
 20
7.7974741162
 40
3.6037664805
100
AcDbArc
 50
179.0799666396
 51
179.9967059793
  0
ARC
  5
32E
100
AcDbEntity
  8
0
100
AcDbCircle
 62
7
  6
CONTINUOUS
 10
9.6616500743
 20
7.7974401375
 40
3.4380698806
100
AcDbArc
 50
179.9959809667
 51
180.9419458577
  0
ARC
  5
32F
100
AcDbEntity
  8
0
100
AcDbCircle
 62
7
  6
CONTINUOUS
 10
8.1369627144
 20
9.3731822
 40
1.9092863547
100
AcDbArc
 50
353.2877226391
 51
353.60002916
  0
ARC
  5
330
100
AcDbEntity
  8
0
100
AcDbCircle
 62
7
  6
CONTINUOUS
 10
13.7375855494
 20
10.1795696896
 40
1.5260636547
100
AcDbArc
 50
199.504778793
 51
200.33894234
  0
ARC
  5
331
100
AcDbEntity
  8
0
100
AcDbCircle
 62
7
  6
CONTINUOUS
 10
11.4115654013
 20
9.4773086795
 40
0.8225283357
100
AcDbArc
 50
12.5166341984
 51
14.0198557789
  0
ARC
  5
332
100
AcDbEntity
  8
0
100
AcDbCircle
 62
7
  6
CONTINUOUS
 10
11.5382874651
 20
9.49578233
 40
0.6514761778
100
AcDbArc
 50
14.4986514684
 51
15.9943652643
  0
ARC
  5
333
100
AcDbEntity
  8
0
100
AcDbCircle
 62
7
  6
CONTINUOUS
 10
11.7435683455
 20
9.5235058828
 40
0.4376054143
100
AcDbArc
 50
18.0895854237
 51
20.1881331068
  0
ARC
  5
334
100
AcDbEntity
  8
0
100
AcDbCircle
 62
7
  6
CONTINUOUS
 10
12.77810612
 20
9.7756421049
 40
0.4225310596
100
AcDbArc
 50
196.4889694204
 51
198.1289257963
  0
ARC
  5
335
100
AcDbEntity
  8
0
100
AcDbCircle
 62
7
  6
CONTINUOUS
 10
12.2917650773
 20
9.0565597821
 40
0.3168354732
100
AcDbArc
 50
154.875861899
 51
158.8305081727
  0
SPLINE
  5
336
100
AcDbEntity
  8
0
100
AcDbSpline
 62
7
  6
CONTINUOUS
 70
0
 71
3
 72
53
 73
49
 74
0
 42
0.0000001
 43
0.0000001
 44
0.0000000001
 40
0.0
 40
0.0
 40
0.0
 40
0.0
 40
0.0354700217
 40
0.071271944
 40
0.1073440507
 40
0.1436238259
 40
0.1800483496
 40
0.2165543815
 40
0.2530785008
 40
0.2895572468
 40
0.3259272586
 40
0.3621254156
 40
0.3980889757
 40
0.4337557202
 40
0.4690640885
 40
0.5039533278
 40
0.5383636313
 40
0.5722362854
 40
0.6055138211
 40
0.6381401576
 40
0.6541921204
 40
0.6700609679
 40
0.6857401537
 40
0.7012232497
 40
0.7165039484
 40
0.7315760705
 40
0.7464335755
 40
0.7610705611
 40
0.7754812701
 40
0.7896601032
 40
0.8036016223
 40
0.8173005545
 40
0.8307518049
 40
0.8439504676
 40
0.8568918278
 40
0.8695713734
 40
0.8819848128
 40
0.89412808
 40
0.905997346
 40
0.9175890392
 40
0.9288998608
 40
0.9399267965
 40
0.9506671395
 40
0.9611185188
 40
0.9712789164
 40
0.981146696
 40
0.9907206436
 40
1.0
 40
1.0
 40
1.0
 40
1.0
 10
6.1883148711
 20
7.8317449379
 30
0.0
 10
6.1883148711
 20
7.8437296326
 30
0.0
 10
6.1884544352
 20
7.8678113809
 30
0.0
 10
6.1890742259
 20
7.9040764641
 30
0.0
 10
6.1901044235
 20
7.9406059545
 30
0.0
 10
6.1915431336
 20
7.9773321393
 30
0.0
 10
6.1933876969
 20
8.0141869732
 30
0.0
 10
6.1956347051
 20
8.0511021679
 30
0.0
 10
6.198279993
 20
8.0880093285
 30
0.0
 10
6.2013186626
 20
8.1248400728
 30
0.0
 10
6.2047450778
 20
8.1615261614
 30
0.0
 10
6.2085528831
 20
8.1979996238
 30
0.0
 10
6.212735016
 20
8.2341928847
 30
0.0
 10
6.2172837103
 20
8.2700388905
 30
0.0
 10
6.2221905261
 20
8.3054712328
 30
0.0
 10
6.2274463484
 20
8.3404242745
 30
0.0
 10
6.233041417
 20
8.3748332658
 30
0.0
 10
6.2389653384
 20
8.4086344868
 30
0.0
 10
6.2452071031
 20
8.4417652887
 30
0.0
 10
6.2506929212
 20
8.4689088394
 30
0.0
 10
6.2552350605
 20
8.4902401049
 30
0.0
 10
6.2586953879
 20
8.5059467907
 30
0.0
 10
6.2622261845
 20
8.5214407072
 30
0.0
 10
6.2658258178
 20
8.536714685
 30
0.0
 10
6.2694926173
 20
8.5517616464
 30
0.0
 10
6.2732248841
 20
8.5665746217
 30
0.0
 10
6.2770208848
 20
8.5811467504
 30
0.0
 10
6.2808788588
 20
8.5954712836
 30
0.0
 10
6.2847970183
 20
8.6095415863
 30
0.0
 10
6.2887735446
 20
8.623351143
 30
0.0
 10
6.292806592
 20
8.63689356
 30
0.0
 10
6.2968942912
 20
8.650162566
 30
0.0
 10
6.3010347464
 20
8.6631520178
 30
0.0
 10
6.3052260349
 20
8.6758559036
 30
0.0
 10
6.3094662131
 20
8.6882683434
 30
0.0
 10
6.3137533162
 20
8.7003835922
 30
0.0
 10
6.3180853537
 20
8.7121960457
 30
0.0
 10
6.3224603159
 20
8.7237002404
 30
0.0
 10
6.3268761762
 20
8.7348908552
 30
0.0
 10
6.3313308868
 20
8.745762717
 30
0.0
 10
6.3358223812
 20
8.7563108028
 30
0.0
 10
6.3403485792
 20
8.7665302395
 30
0.0
 10
6.344907386
 20
8.7764163076
 30
0.0
 10
6.3494966895
 20
8.7859644483
 30
0.0
 10
6.3541143643
 20
8.7951702549
 30
0.0
 10
6.3587582875
 20
8.8040294991
 30
0.0
 10
6.3634262838
 20
8.8125380504
 30
0.0
 10
6.3666026273
 20
8.8180604852
 30
0.0
 10
6.3681954439
 20
8.8207610841
 30
0.0
  0
SPLINE
  5
337
100
AcDbEntity
  8
0
100
AcDbSpline
 62
7
  6
CONTINUOUS
 70
0
 71
3
 72
15
 73
11
 74
0
 42
0.0000001
 43
0.0000001
 44
0.0000000001
 40
0.0
 40
0.0
 40
0.0
 40
0.0
 40
0.1130134526
 40
0.2292354891
 40
0.3487879676
 40
0.4717828379
 40
0.598318796
 40
0.7284835129
 40
0.8623555254
 40
1.0
 40
1.0
 40
1.0
 40
1.0
 10
6.363650394
 20
7.0877626027
 30
0.0
 10
6.3624908372
 20
7.0888028288
 30
0.0
 10
6.3601804337
 20
7.0909596525
 30
0.0
 10
6.3567891789
 20
7.0943688191
 30
0.0
 10
6.353425642
 20
7.0979953443
 30
0.0
 10
6.3500906368
 20
7.1018383092
 30
0.0
 10
6.3467848584
 20
7.1058968516
 30
0.0
 10
6.3435090287
 20
7.1101700642
 30
0.0
 10
6.3402639077
 20
7.1146569218
 30
0.0
 10
6.3381510471
 20
7.1177466132
 30
0.0
 10
6.3370994215
 20
7.1193257765
 30
0.0
  0
SPLINE
  5
338
100
AcDbEntity
  8
0
100
AcDbSpline
 62
7
  6
CONTINUOUS
 70
0
 71
3
 72
11
 73
7
 74
0
 42
0.0000001
 43
0.0000001
 44
0.0000000001
 40
0.0
 40
0.0
 40
0.0
 40
0.0
 40
0.2527935986
 40
0.5037865761
 40
0.7528844832
 40
1.0
 40
1.0
 40
1.0
 40
1.0
 10
6.3370994215
 20
7.1193257765
 30
0.0
 10
6.3323112485
 20
7.1285455433
 30
0.0
 10
6.3229344597
 20
7.1470059823
 30
0.0
 10
6.3094636658
 20
7.1748630123
 30
0.0
 10
6.2966805588
 20
7.2027860575
 30
0.0
 10
6.2886139997
 20
7.2215179698
 30
0.0
 10
6.2847114278
 20
7.2308938191
 30
0.0
  0
SPLINE
  5
339
100
AcDbEntity
  8
0
100
AcDbSpline
 62
7
  6
CONTINUOUS
 70
0
 71
3
 72
23
 73
19
 74
0
 42
0.0000001
 43
0.0000001
 44
0.0000000001
 40
0.0
 40
0.0
 40
0.0
 40
0.0
 40
0.054423514
 40
0.1090638306
 40
0.1641349447
 40
0.2198454629
 40
0.2763962046
 40
0.3339783868
 40
0.3927720233
 40
0.4529450965
 40
0.5146528071
 40
0.5780376187
 40
0.6432291757
 40
0.7103449222
 40
0.7794904284
 40
0.8507602809
 40
0.9242386036
 40
1.0
 40
1.0
 40
1.0
 40
1.0
 10
8.6861287837
 20
7.1120956297
 30
0.0
 10
8.6871809203
 20
7.1120226658
 30
0.0
 10
8.6892948126
 20
7.1119453792
 30
0.0
 10
8.6924763694
 20
7.112036403
 30
0.0
 10
8.6956704061
 20
7.1123341626
 30
0.0
 10
8.6988757624
 20
7.1128385298
 30
0.0
 10
8.7020915362
 20
7.1135492385
 30
0.0
 10
8.7053167844
 20
7.1144660017
 30
0.0
 10
8.7085506227
 20
7.1155884307
 30
0.0
 10
8.711792174
 20
7.1169161291
 30
0.0
 10
8.7150406005
 20
7.1184486187
 30
0.0
 10
8.7182950617
 20
7.1201854179
 30
0.0
 10
8.7215547451
 20
7.1221259749
 30
0.0
 10
8.724818826
 20
7.1242697298
 30
0.0
 10
8.7280864947
 20
7.1266160552
 30
0.0
 10
8.7313569369
 20
7.1291643171
 30
0.0
 10
8.7346292961
 20
7.1319137704
 30
0.0
 10
8.7367781987
 20
7.1338502883
 30
0.0
 10
8.7378529233
 20
7.1348505283
 30
0.0
  0
SPLINE
  5
33A
100
AcDbEntity
  8
0
100
AcDbSpline
 62
7
  6
CONTINUOUS
 70
0
 71
3
 72
23
 73
19
 74
0
 42
0.0000001
 43
0.0000001
 44
0.0000000001
 40
0.0
 40
0.0
 40
0.0
 40
0.0
 40
0.0475983087
 40
0.0967765629
 40
0.1476852236
 40
0.2004585287
 40
0.2552116565
 40
0.3120387067
 40
0.3710116439
 40
0.4321800173
 40
0.4955714033
 40
0.5611926193
 40
0.6290314175
 40
0.6990585138
 40
0.7712299145
 40
0.8454893448
 40
0.9217706317
 40
1.0
 40
1.0
 40
1.0
 40
1.0
 10
6.3842443918
 20
8.847971831
 30
0.0
 10
6.3858434196
 20
8.8506831085
 30
0.0
 10
6.3892527576
 20
8.8561038132
 30
0.0
 10
6.3948946875
 20
8.8640810438
 30
0.0
 10
6.4011522957
 20
8.8720255333
 30
0.0
 10
6.4080315793
 20
8.8799332213
 30
0.0
 10
6.415535553
 20
8.8878006695
 30
0.0
 10
6.4236637916
 20
8.895624527
 30
0.0
 10
6.4324125294
 20
8.9034017278
 30
0.0
 10
6.4417747001
 20
8.911129489
 30
0.0
 10
6.4517400918
 20
8.9188053804
 30
0.0
 10
6.4622956029
 20
8.9264273362
 30
0.0
 10
6.4734255522
 20
8.9339936804
 30
0.0
 10
6.4851120322
 20
8.9415031517
 30
0.0
 10
6.4973353014
 20
8.948954896
 30
0.0
 10
6.5100742105
 20
8.956348463
 30
0.0
 10
6.5233065229
 20
8.9636837555
 30
0.0
 10
6.5323311976
 20
8.9684765608
 30
0.0
 10
6.5369196775
 20
8.9708659339
 30
0.0
  0
SPLINE
  5
33B
100
AcDbEntity
  8
0
100
AcDbSpline
 62
7
  6
CONTINUOUS
 70
0
 71
3
 72
39
 73
35
 74
0
 42
0.0000001
 43
0.0000001
 44
0.0000000001
 40
0.0
 40
0.0
 40
0.0
 40
0.0
 40
0.020705896
 40
0.0422069992
 40
0.064500326
 40
0.0875811462
 40
0.1114431524
 40
0.1360786007
 40
0.1614784371
 40
0.1876324038
 40
0.2145291301
 40
0.2421562144
 40
0.2705002944
 40
0.2995471085
 40
0.3292815523
 40
0.3596877294
 40
0.3907489969
 40
0.4224480095
 40
0.4547667563
 40
0.4876865961
 40
0.5211882928
 40
0.5552520438
 40
0.5898575113
 40
0.624983853
 40
0.6606097466
 40
0.6967134177
 40
0.7332726655
 40
0.7702648851
 40
0.8076670952
 40
0.8454559472
 40
0.8836078107
 40
0.9220985877
 40
0.9609042941
 40
1.0
 40
1.0
 40
1.0
 40
1.0
 10
6.2617617177
 20
7.2860325637
 30
0.0
 10
6.2602936828
 20
7.2895596525
 30
0.0
 10
6.2573967717
 20
7.2967893671
 30
0.0
 10
6.2532381452
 20
7.3079410224
 30
0.0
 10
6.2491869984
 20
7.3195970868
 30
0.0
 10
6.2452461322
 20
7.3317495614
 30
0.0
 10
6.2414182255
 20
7.3443902319
 30
0.0
 10
6.2377058981
 20
7.3575105039
 30
0.0
 10
6.2341116899
 20
7.3711014584
 30
0.0
 10
6.2306380629
 20
7.3851538461
 30
0.0
 10
6.2272873976
 20
7.3996580977
 30
0.0
 10
6.2240619914
 20
7.4146043312
 30
0.0
 10
6.2209640566
 20
7.4299823583
 30
0.0
 10
6.2179957183
 20
7.4457816926
 30
0.0
 10
6.2151590126
 20
7.4619915563
 30
0.0
 10
6.2124558855
 20
7.4786008886
 30
0.0
 10
6.2098881914
 20
7.4955983539
 30
0.0
 10
6.2074576922
 20
7.5129723495
 30
0.0
 10
6.2051660554
 20
7.5307110145
 30
0.0
 10
6.2030148535
 20
7.5488022372
 30
0.0
 10
6.2010055627
 20
7.5672336637
 30
0.0
 10
6.1991395615
 20
7.5859927064
 30
0.0
 10
6.1974181298
 20
7.6050665528
 30
0.0
 10
6.1958424489
 20
7.6244421747
 30
0.0
 10
6.1944136
 20
7.6441063372
 30
0.0
 10
6.1931325637
 20
7.6640456078
 30
0.0
 10
6.1920002195
 20
7.6842463653
 30
0.0
 10
6.1910173448
 20
7.7046948099
 30
0.0
 10
6.1901846148
 20
7.7253769698
 30
0.0
 10
6.1895026003
 20
7.7462787207
 30
0.0
 10
6.1889717725
 20
7.7673857646
 30
0.0
 10
6.188592492
 20
7.7886837211
 30
0.0
 10
6.1883650271
 20
7.8101579809
 30
0.0
 10
6.1883148711
 20
7.8245314676
 30
0.0
 10
6.1883148711
 20
7.8317449379
 30
0.0
  0
SPLINE
  5
33C
100
AcDbEntity
  8
0
100
AcDbSpline
 62
7
  6
CONTINUOUS
 70
0
 71
3
 72
23
 73
19
 74
0
 42
0.0000001
 43
0.0000001
 44
0.0000000001
 40
0.0
 40
0.0
 40
0.0
 40
0.0
 40
0.0757613976
 40
0.1492397515
 40
0.220509596
 40
0.2896551323
 40
0.3567708639
 40
0.4219624473
 40
0.4853472386
 40
0.5470549713
 40
0.6072280217
 40
0.6660216734
 40
0.7236038338
 40
0.7801545824
 40
0.8358650812
 40
0.8909361938
 40
0.9455764953
 40
1.0
 40
1.0
 40
1.0
 40
1.0
 10
9.1679074228
 20
7.1912148722
 30
0.0
 10
9.1669561185
 20
7.1903294962
 30
0.0
 10
9.1650539891
 20
7.1886153653
 30
0.0
 10
9.1621574237
 20
7.1861816487
 30
0.0
 10
9.1592625499
 20
7.1839260248
 30
0.0
 10
9.1563701365
 20
7.1818491414
 30
0.0
 10
9.1534808931
 20
7.1799515731
 30
0.0
 10
9.1505955482
 20
7.1782338595
 30
0.0
 10
9.1477148197
 20
7.1766965144
 30
0.0
 10
9.144839439
 20
7.1753400058
 30
0.0
 10
9.1419701379
 20
7.1741647826
 30
0.0
 10
9.1391076698
 20
7.1731712431
 30
0.0
 10
9.1362528002
 20
7.1723597654
 30
0.0
 10
9.1334063213
 20
7.1717306647
 30
0.0
 10
9.1305690602
 20
7.171284225
 30
0.0
 10
9.1277418212
 20
7.1710206513
 30
0.0
 10
9.1249256275
 20
7.1709400875
 30
0.0
 10
9.1230544904
 20
7.171008494
 30
0.0
 10
9.122123179
 20
7.1710730785
 30
0.0
  0
SPLINE
  5
33D
100
AcDbEntity
  8
0
100
AcDbSpline
 62
7
  6
CONTINUOUS
 70
0
 71
3
 72
61
 73
57
 74
0
 42
0.0000001
 43
0.0000001
 44
0.0000000001
 40
0.0
 40
0.0
 40
0.0
 40
0.0
 40
0.0497215051
 40
0.0985276505
 40
0.1463721576
 40
0.1932101669
 40
0.2389983372
 40
0.2836949497
 40
0.3272600286
 40
0.3696554613
 40
0.4108451381
 40
0.4507951074
 40
0.4702954155
 40
0.4894741331
 40
0.5083277159
 40
0.5268527675
 40
0.5450460951
 40
0.5629046694
 40
0.5804256831
 40
0.5976065132
 40
0.614444778
 40
0.6309383059
 40
0.6470851875
 40
0.6628837567
 40
0.6783326358
 40
0.6934307303
 40
0.7081772653
 40
0.7225717974
 40
0.7366142425
 40
0.7503049073
 40
0.7636445091
 40
0.7766342265
 40
0.7892757143
 40
0.8015711746
 40
0.8135233698
 40
0.8251357147
 40
0.8364122917
 40
0.8473579604
 40
0.8579783819
 40
0.8682801453
 40
0.8782708041
 40
0.887959014
 40
0.8973545853
 40
0.9064686224
 40
0.9153135897
 40
0.9239034404
 40
0.9322536814
 40
0.9403814688
 40
0.9483056463
 40
0.9560467751
 40
0.9636271082
 40
0.971070519
 40
0.9784023707
 40
0.9856493181
 40
0.9928390553
 40
1.0
 40
1.0
 40
1.0
 40
1.0
 10
8.5454309714
 20
7.5118506062
 30
0.0
 10
8.5459701418
 20
7.5045130468
 30
0.0
 10
8.5471155013
 20
7.4899785304
 30
0.0
 10
8.5490558295
 20
7.46840634
 30
0.0
 10
8.5512009464
 20
7.4472823211
 30
0.0
 10
8.5535485279
 20
7.4266292053
 30
0.0
 10
8.5560960336
 20
7.4064691748
 30
0.0
 10
8.5588407062
 20
7.3868238866
 30
0.0
 10
8.5617795751
 20
7.3677144415
 30
0.0
 10
8.5649094589
 20
7.3491613431
 30
0.0
 10
8.5682269726
 20
7.3311845458
 30
0.0
 10
8.5711680542
 20
7.3165852705
 30
0.0
 10
8.5736153599
 20
7.3052106236
 30
0.0
 10
8.5754807351
 20
7.2969042203
 30
0.0
 10
8.5773902444
 20
7.2887560009
 30
0.0
 10
8.5793433882
 20
7.2807681487
 30
0.0
 10
8.5813396299
 20
7.27294281
 30
0.0
 10
8.5833784419
 20
7.2652820861
 30
0.0
 10
8.585459266
 20
7.2577880332
 30
0.0
 10
8.5875815513
 20
7.2504626634
 30
0.0
 10
8.5897447183
 20
7.2433079417
 30
0.0
 10
8.591948193
 20
7.2363257881
 30
0.0
 10
8.594191376
 20
7.2295180747
 30
0.0
 10
8.5964736703
 20
7.2228866273
 30
0.0
 10
8.5987944581
 20
7.2164332227
 30
0.0
 10
8.6011531199
 20
7.21015959
 30
0.0
 10
8.6035490207
 20
7.2040674087
 30
0.0
 10
8.6059815193
 20
7.1981583094
 30
0.0
 10
8.6084499651
 20
7.1924338728
 30
0.0
 10
8.6109536958
 20
7.1868956282
 30
0.0
 10
8.613492047
 20
7.1815450559
 30
0.0
 10
8.616064337
 20
7.176383582
 30
0.0
 10
8.6186698887
 20
7.1714125853
 30
0.0
 10
8.6213080031
 20
7.1666333871
 30
0.0
 10
8.6239779924
 20
7.1620472635
 30
0.0
 10
8.6266791429
 20
7.1576554296
 30
0.0
 10
8.6294107581
 20
7.1534590585
 30
0.0
 10
8.6321721126
 20
7.1494592591
 30
0.0
 10
8.6349625035
 20
7.1456571019
 30
0.0
 10
8.6377811978
 20
7.1420535912
 30
0.0
 10
8.6406274874
 20
7.1386496966
 30
0.0
 10
8.643500636
 20
7.1354463213
 30
0.0
 10
8.646399931
 20
7.1324443383
 30
0.0
 10
8.6493246349
 20
7.1296445565
 30
0.0
 10
8.652274029
 20
7.1270477588
 30
0.0
 10
8.6552473721
 20
7.1246546694
 30
0.0
 10
8.6582439327
 20
7.122465989
 30
0.0
 10
8.6612629563
 20
7.1204823673
 30
0.0
 10
8.6643036827
 20
7.1187044284
 30
0.0
 10
8.6673653249
 20
7.1171327521
 30
0.0
 10
8.6704470697
 20
7.1157678811
 30
0.0
 10
8.673548075
 20
7.1146103142
 30
0.0
 10
8.676667441
 20
7.1136604901
 30
0.0
 10
8.6798042938
 20
7.112918791
 30
0.0
 10
8.6829574885
 20
7.1123855214
 30
0.0
 10
8.6850717102
 20
7.112168936
 30
0.0
 10
8.6861287837
 20
7.1120956297
 30
0.0
  0
SPLINE
  5
33E
100
AcDbEntity
  8
0
100
AcDbSpline
 62
7
  6
CONTINUOUS
 70
0
 71
3
 72
60
 73
56
 74
0
 42
0.0000001
 43
0.0000001
 44
0.0000000001
 40
0.0
 40
0.0
 40
0.0
 40
0.0
 40
0.0497889465
 40
0.0985972093
 40
0.1463852661
 40
0.1931149709
 40
0.2387496511
 40
0.2832542011
 40
0.3265951894
 40
0.3687409809
 40
0.4096618644
 40
0.4493302009
 40
0.4877205954
 40
0.506429509
 40
0.5248105409
 40
0.5428612362
 40
0.5605793311
 40
0.5779627401
 40
0.5950095968
 40
0.6117182259
 40
0.6280872027
 40
0.6441153124
 40
0.6598016241
 40
0.675145444
 40
0.690146397
 40
0.7048043827
 40
0.7191196594
 40
0.7330928101
 40
0.7467248209
 40
0.7600170658
 40
0.7729713757
 40
0.7855900474
 40
0.7978759014
 40
0.8098323188
 40
0.8214632869
 40
0.8327734655
 40
0.8437682231
 40
0.8544537317
 40
0.864836997
 40
0.8749259757
 40
0.884729604
 40
0.8942579282
 40
0.9035221333
 40
0.9125346733
 40
0.9213092961
 40
0.9298611517
 40
0.9382068024
 40
0.9463642825
 40
0.954353072
 40
0.9621940801
 40
0.9699095551
 40
0.9775229693
 40
0.9850588455
 40
0.992542542
 40
1.0
 40
1.0
 40
1.0
 40
1.0
 10
8.6570998254
 20
7.5088429833
 30
0.0
 10
8.6576631041
 20
7.5030138562
 30
0.0
 10
8.6588402446
 20
7.4914762675
 30
0.0
 10
8.6607798019
 20
7.4743673584
 30
0.0
 10
8.662874306
 20
7.4576392656
 30
0.0
 10
8.6651217727
 20
7.441307736
 30
0.0
 10
8.6675200765
 20
7.4253881086
 30
0.0
 10
8.6700669485
 20
7.4098953402
 30
0.0
 10
8.6727599793
 20
7.3948439789
 30
0.0
 10
8.6755966217
 20
7.3802481579
 30
0.0
 10
8.6785741925
 20
7.3661215615
 30
0.0
 10
8.681689877
 20
7.3524774786
 30
0.0
 10
8.6844218097
 20
7.3414274528
 30
0.0
 10
8.6866770796
 20
7.3328403973
 30
0.0
 10
8.688386706
 20
7.3265839055
 30
0.0
 10
8.6901286102
 20
7.3204573954
 30
0.0
 10
8.6919023842
 20
7.3144623003
 30
0.0
 10
8.6937076143
 20
7.3086000296
 30
0.0
 10
8.6955438697
 20
7.302871958
 30
0.0
 10
8.6974107263
 20
7.2972794309
 30
0.0
 10
8.6993077363
 20
7.2918237589
 30
0.0
 10
8.7012344638
 20
7.2865062231
 30
0.0
 10
8.7031904457
 20
7.2813280681
 30
0.0
 10
8.705175234
 20
7.2762905094
 30
0.0
 10
8.7071883521
 20
7.2713947247
 30
0.0
 10
8.709229339
 20
7.2666418627
 30
0.0
 10
8.7112977069
 20
7.262033033
 30
0.0
 10
8.7133929815
 20
7.2575693158
 30
0.0
 10
8.7155146656
 20
7.253251752
 30
0.0
 10
8.7176622715
 20
7.2490813518
 30
0.0
 10
8.7198352948
 20
7.245059087
 30
0.0
 10
8.7220332344
 20
7.2411858969
 30
0.0
 10
8.7242555809
 20
7.2374626836
 30
0.0
 10
8.7265018209
 20
7.233890314
 30
0.0
 10
8.7287714413
 20
7.2304696213
 30
0.0
 10
8.7310639181
 20
7.2272013993
 30
0.0
 10
8.7333787364
 20
7.2240864134
 30
0.0
 10
8.7357153631
 20
7.2211253844
 30
0.0
 10
8.7380732825
 20
7.2183190113
 30
0.0
 10
8.7404519551
 20
7.2156679438
 30
0.0
 10
8.7428508646
 20
7.213172817
 30
0.0
 10
8.7452694668
 20
7.2108342132
 30
0.0
 10
8.7477072426
 20
7.2086527069
 30
0.0
 10
8.7501636436
 20
7.2066288187
 30
0.0
 10
8.7526381432
 20
7.2047630663
 30
0.0
 10
8.7551301851
 20
7.2030559148
 30
0.0
 10
8.757639226
 20
7.201507828
 30
0.0
 10
8.760164693
 20
7.2001192198
 30
0.0
 10
8.7627060129
 20
7.1988904975
 30
0.0
 10
8.7652625825
 20
7.1978220219
 30
0.0
 10
8.7678337871
 20
7.1969141321
 30
0.0
 10
8.7704189725
 20
7.196167123
 30
0.0
 10
8.7730175063
 20
7.1955812415
 30
0.0
 10
8.7756285693
 20
7.1951567025
 30
0.0
 10
8.7773785044
 20
7.1949812008
 30
0.0
 10
8.7782535645
 20
7.1949205172
 30
0.0
  0
SPLINE
  5
33F
100
AcDbEntity
  8
0
100
AcDbSpline
 62
7
  6
CONTINUOUS
 70
0
 71
3
 72
11
 73
7
 74
0
 42
0.0000001
 43
0.0000001
 44
0.0000000001
 40
0.0
 40
0.0
 40
0.0
 40
0.0
 40
0.2597794222
 40
0.5131607124
 40
0.7599591931
 40
1.0
 40
1.0
 40
1.0
 40
1.0
 10
6.3370994215
 20
8.6953391324
 30
0.0
 10
6.3392064466
 20
8.7025735861
 30
0.0
 10
6.3434582907
 20
8.7168383996
 30
0.0
 10
6.3500359093
 20
8.7378778755
 30
0.0
 10
6.3567294477
 20
8.758279081
 30
0.0
 10
6.361329931
 20
8.7716303959
 30
0.0
 10
6.363650394
 20
8.7781948494
 30
0.0
  0
SPLINE
  5
340
100
AcDbEntity
  8
0
100
AcDbSpline
 62
7
  6
CONTINUOUS
 70
0
 71
3
 72
36
 73
32
 74
0
 42
0.0000001
 43
0.0000001
 44
0.0000000001
 40
0.0
 40
0.0
 40
0.0
 40
0.0
 40
0.0615612389
 40
0.0923780032
 40
0.1232201781
 40
0.1540890809
 40
0.1849860198
 40
0.2159122824
 40
0.2468691158
 40
0.2778577069
 40
0.3088791609
 40
0.3399344791
 40
0.3710245382
 40
0.4021500704
 40
0.4333116463
 40
0.4645096599
 40
0.4957443181
 40
0.5270156347
 40
0.5583234294
 40
0.5896673324
 40
0.621046793
 40
0.652461093
 40
0.6839093631
 40
0.7153906023
 40
0.7469036995
 40
0.7784474558
 40
0.810020606
 40
0.8416218396
 40
0.8732498202
 40
0.9365792905
 40
1.0
 40
1.0
 40
1.0
 40
1.0
 10
6.2240447962
 20
7.855339511
 30
0.0
 10
6.2219090374
 20
7.872808131
 30
0.0
 10
6.2190236595
 20
7.8990622223
 30
0.0
 10
6.2158734357
 20
7.9341471906
 30
0.0
 10
6.2138724311
 20
7.960523547
 30
0.0
 10
6.2122493268
 20
7.9869488099
 30
0.0
 10
6.2110191354
 20
8.0134194312
 30
0.0
 10
6.2101964616
 20
8.0399310632
 30
0.0
 10
6.20979529
 20
8.0664786958
 30
0.0
 10
6.209828783
 20
8.0930566159
 30
0.0
 10
6.2103090661
 20
8.1196584369
 30
0.0
 10
6.2112470119
 20
8.1462771355
 30
0.0
 10
6.2126520341
 20
8.1729051126
 30
0.0
 10
6.2145318978
 20
8.1995342757
 30
0.0
 10
6.2168925531
 20
8.2261561413
 30
0.0
 10
6.2197380007
 20
8.2527619547
 30
0.0
 10
6.223070197
 20
8.279342823
 30
0.0
 10
6.2268890018
 20
8.3058898563
 30
0.0
 10
6.2311921708
 20
8.3323943137
 30
0.0
 10
6.2359754023
 20
8.3588477432
 30
0.0
 10
6.2412324265
 20
8.3852421136
 30
0.0
 10
6.2469551346
 20
8.4115699313
 30
0.0
 10
6.2531337427
 20
8.4378243384
 30
0.0
 10
6.2597569829
 20
8.4639991897
 30
0.0
 10
6.2668123104
 20
8.4900891053
 30
0.0
 10
6.2742861236
 20
8.516089506
 30
0.0
 10
6.2821639801
 20
8.5419966028
 30
0.0
 10
6.2904308358
 20
8.5678074537
 30
0.0
 10
6.3019556789
 20
8.6021035807
 30
0.0
 10
6.3172566461
 20
8.6447216832
 30
0.0
 10
6.3303538541
 20
8.6785104662
 30
0.0
 10
6.3370994215
 20
8.6953391324
 30
0.0
  0
SPLINE
  5
341
100
AcDbEntity
  8
0
100
AcDbSpline
 62
7
  6
CONTINUOUS
 70
0
 71
3
 72
23
 73
19
 74
0
 42
0.0000001
 43
0.0000001
 44
0.0000000001
 40
0.0
 40
0.0
 40
0.0
 40
0.0
 40
0.0596059336
 40
0.1193158728
 40
0.1791800872
 40
0.2392527071
 40
0.2995911495
 40
0.3602561044
 40
0.4213113774
 40
0.4828235654
 40
0.5448617836
 40
0.60749731
 40
0.6708031144
 40
0.7348534296
 40
0.799723278
 40
0.8654878765
 40
0.9322221039
 40
1.0
 40
1.0
 40
1.0
 40
1.0
 10
6.363650394
 20
8.7781948494
 30
0.0
 10
6.3637035967
 20
8.7796547692
 30
0.0
 10
6.3638510568
 20
8.7825758386
 30
0.0
 10
6.364198403
 20
8.7869542186
 30
0.0
 10
6.3646755309
 20
8.7913319336
 30
0.0
 10
6.3652859358
 20
8.7957086349
 30
0.0
 10
6.3660331157
 20
8.8000840121
 30
0.0
 10
6.3669205532
 20
8.8044577124
 30
0.0
 10
6.3679517079
 20
8.8088293611
 30
0.0
 10
6.3691299943
 20
8.813198559
 30
0.0
 10
6.3704587702
 20
8.8175648823
 30
0.0
 10
6.3719413253
 20
8.8219278822
 30
0.0
 10
6.3735808526
 20
8.8262870881
 30
0.0
 10
6.375380438
 20
8.83064201
 30
0.0
 10
6.3773430466
 20
8.8349921304
 30
0.0
 10
6.3794715036
 20
8.8393369327
 30
0.0
 10
6.381768431
 20
8.8436758227
 30
0.0
 10
6.383400512
 20
8.8465409663
 30
0.0
 10
6.3842443918
 20
8.847971831
 30
0.0
  0
SPLINE
  5
342
100
AcDbEntity
  8
0
100
AcDbSpline
 62
7
  6
CONTINUOUS
 70
0
 71
3
 72
44
 73
40
 74
0
 42
0.0000001
 43
0.0000001
 44
0.0000000001
 40
0.0
 40
0.0
 40
0.0
 40
0.0
 40
0.0087819921
 40
0.0175819152
 40
0.0264175802
 40
0.0353065677
 40
0.0442661109
 40
0.0533130028
 40
0.0624635154
 40
0.0717333079
 40
0.0811373881
 40
0.0906900623
 40
0.1102912406
 40
0.1306401119
 40
0.1518240712
 40
0.1739188845
 40
0.1969894896
 40
0.221090954
 40
0.2462694646
 40
0.2725633289
 40
0.3000039148
 40
0.3286164723
 40
0.3584208532
 40
0.3894321801
 40
0.421661405
 40
0.4551157614
 40
0.4897991796
 40
0.5257126558
 40
0.5628545426
 40
0.6012207823
 40
0.6408051519
 40
0.6815994603
 40
0.7235936905
 40
0.7667761419
 40
0.8111335774
 40
0.8566513279
 40
0.9033133643
 40
0.9511024046
 40
1.0
 40
1.0
 40
1.0
 40
1.0
 10
9.122123179
 20
7.1710730785
 30
0.0
 10
9.1214570965
 20
7.1711192699
 30
0.0
 10
9.1201255245
 20
7.1712429412
 30
0.0
 10
9.1181357968
 20
7.1715218445
 30
0.0
 10
9.1161531019
 20
7.171894169
 30
0.0
 10
9.1141777925
 20
7.1723598588
 30
0.0
 10
9.11221014
 20
7.1729188264
 30
0.0
 10
9.110250432
 20
7.1735709745
 30
0.0
 10
9.1082989481
 20
7.174316205
 30
0.0
 10
9.106355965
 20
7.1751543789
 30
0.0
 10
9.1044217259
 20
7.1760853832
 30
0.0
 10
9.1018327893
 20
7.1774619658
 30
0.0
 10
9.0986158191
 20
7.1794229276
 30
0.0
 10
9.0948292772
 20
7.1821245877
 30
0.0
 10
9.0910851473
 20
7.1851930515
 30
0.0
 10
9.0873853462
 20
7.1886263066
 30
0.0
 10
9.0837315301
 20
7.192422373
 30
0.0
 10
9.0801254355
 20
7.1965791225
 30
0.0
 10
9.0765687882
 20
7.2010942898
 30
0.0
 10
9.0730633353
 20
7.2059654478
 30
0.0
 10
9.0696108368
 20
7.2111899996
 30
0.0
 10
9.066213058
 20
7.2167651646
 30
0.0
 10
9.0628717574
 20
7.2226879698
 30
0.0
 10
9.0595886883
 20
7.2289552536
 30
0.0
 10
9.0563655925
 20
7.2355636644
 30
0.0
 10
9.0532041898
 20
7.2425096566
 30
0.0
 10
9.0501061757
 20
7.2497894941
 30
0.0
 10
9.0470732222
 20
7.2573992551
 30
0.0
 10
9.0441069731
 20
7.2653348329
 30
0.0
 10
9.0412090359
 20
7.2735919356
 30
0.0
 10
9.038380986
 20
7.2821660924
 30
0.0
 10
9.0356243657
 20
7.291052657
 30
0.0
 10
9.0329406786
 20
7.3002468083
 30
0.0
 10
9.0303313874
 20
7.309743553
 30
0.0
 10
9.0277979176
 20
7.319537732
 30
0.0
 10
9.025341656
 20
7.3296240206
 30
0.0
 10
9.0229639428
 20
7.3399969373
 30
0.0
 10
9.0206660806
 20
7.3506508185
 30
0.0
 10
9.0192047939
 20
7.3578552697
 30
0.0
 10
9.0184870146
 20
7.3615029328
 30
0.0
  0
SPLINE
  5
343
100
AcDbEntity
  8
0
100
AcDbSpline
 62
7
  6
CONTINUOUS
 70
0
 71
3
 72
36
 73
32
 74
0
 42
0.0000001
 43
0.0000001
 44
0.0000000001
 40
0.0
 40
0.0
 40
0.0
 40
0.0
 40
0.0669064708
 40
0.1331414625
 40
0.1660035828
 40
0.1986934498
 40
0.2312108846
 40
0.263556407
 40
0.2957312622
 40
0.3277374341
 40
0.3595776472
 40
0.3912553526
 40
0.4227747006
 40
0.4541404994
 40
0.4853581604
 40
0.5164336325
 40
0.5473733271
 40
0.5781840359
 40
0.608872845
 40
0.639447047
 40
0.6699140544
 40
0.7002813167
 40
0.7305562424
 40
0.7607461282
 40
0.7908580973
 40
0.8208990453
 40
0.8508755968
 40
0.8807940693
 40
0.9106604527
 40
0.9404803739
 40
1.0
 40
1.0
 40
1.0
 40
1.0
 10
6.2847114278
 20
7.2308938191
 30
0.0
 10
6.2802448138
 20
7.2416247679
 30
0.0
 10
6.271654205
 20
7.2631044876
 30
0.0
 10
6.2617580509
 20
7.290197945
 30
0.0
 10
6.2544283805
 20
7.3118887898
 30
0.0
 10
6.2492440406
 20
7.3281189786
 30
0.0
 10
6.2443649842
 20
7.3443498558
 30
0.0
 10
6.239797033
 20
7.3605781406
 30
0.0
 10
6.2355453115
 20
7.3768003627
 30
0.0
 10
6.2316141537
 20
7.3930129533
 30
0.0
 10
6.2280070498
 20
7.4092122635
 30
0.0
 10
6.2247265951
 20
7.4253946061
 30
0.0
 10
6.2217744543
 20
7.4415562941
 30
0.0
 10
6.2191513384
 20
7.4576936815
 30
0.0
 10
6.2168569963
 20
7.4738032036
 30
0.0
 10
6.214890221
 20
7.4898814155
 30
0.0
 10
6.2132488708
 20
7.5059250292
 30
0.0
 10
6.2119299039
 20
7.5219309461
 30
0.0
 10
6.2109294252
 20
7.5378962857
 30
0.0
 10
6.2102427442
 20
7.5538184096
 30
0.0
 10
6.2098644418
 20
7.5696949393
 30
0.0
 10
6.2097884436
 20
7.5855237696
 30
0.0
 10
6.2100080976
 20
7.6013030756
 30
0.0
 10
6.2105162551
 20
7.6170313149
 30
0.0
 10
6.2113053519
 20
7.6327072253
 30
0.0
 10
6.2123674869
 20
7.6483298159
 30
0.0
 10
6.2136945011
 20
7.6638983646
 30
0.0
 10
6.2152780438
 20
7.6794123735
 30
0.0
 10
6.2171096635
 20
7.6948716702
 30
0.0
 10
6.219869287
 20
7.7153967935
 30
0.0
 10
6.2222883304
 20
7.7307307661
 30
0.0
 10
6.2240447962
 20
7.7409206202
 30
0.0
  0
SPLINE
  5
344
100
AcDbEntity
  8
0
100
AcDbSpline
 62
7
  6
CONTINUOUS
 70
0
 71
3
 72
61
 73
57
 74
0
 42
0.0000001
 43
0.0000001
 44
0.0000000001
 40
0.0
 40
0.0
 40
0.0
 40
0.0
 40
0.0245845016
 40
0.0480892507
 40
0.0594802362
 40
0.0706531087
 40
0.0816277132
 40
0.0924251522
 40
0.1030676904
 40
0.1135786935
 40
0.1239825086
 40
0.1343043083
 40
0.1445699355
 40
0.1548056914
 40
0.1650381312
 40
0.1752938365
 40
0.1855991959
 40
0.1959801795
 40
0.2064621499
 40
0.217069673
 40
0.2278263662
 40
0.2387547908
 40
0.2498763278
 40
0.2612111539
 40
0.2845902667
 40
0.2966733334
 40
0.3090377421
 40
0.3216974485
 40
0.3346652396
 40
0.3479528065
 40
0.3615708229
 40
0.3755289502
 40
0.3898359683
 40
0.4044997734
 40
0.419527464
 40
0.4349254121
 40
0.4506992562
 40
0.4668540295
 40
0.4833941337
 40
0.5003234192
 40
0.5176452343
 40
0.5353624041
 40
0.5534773456
 40
0.5719920207
 40
0.5909080088
 40
0.6102265373
 40
0.6299484518
 40
0.6500743187
 40
0.6706043637
 40
0.7128757422
 40
0.7567599572
 40
0.8022496175
 40
0.8493338635
 40
0.8979986893
 40
0.9482272283
 40
1.0
 40
1.0
 40
1.0
 40
1.0
 10
9.1743406353
 20
7.1990173224
 30
0.0
 10
9.1728676327
 20
7.1980605639
 30
0.0
 10
9.1699215415
 20
7.1962861649
 30
0.0
 10
9.1661202007
 20
7.1943756456
 30
0.0
 10
9.1630911631
 20
7.1930856675
 30
0.0
 10
9.1608472244
 20
7.1922429269
 30
0.0
 10
9.1586079553
 20
7.1915150965
 30
0.0
 10
9.1563737254
 20
7.1909023102
 30
0.0
 10
9.1541449383
 20
7.1904047228
 30
0.0
 10
9.1519219988
 20
7.1900224552
 30
0.0
 10
9.1497053214
 20
7.1897555972
 30
0.0
 10
9.1474953234
 20
7.1896042385
 30
0.0
 10
9.1452924304
 20
7.1895684097
 30
0.0
 10
9.1430970686
 20
7.1896481404
 30
0.0
 10
9.1409096668
 20
7.1898434177
 30
0.0
 10
9.1387306498
 20
7.1901541928
 30
0.0
 10
9.1365604421
 20
7.1905804108
 30
0.0
 10
9.1343994561
 20
7.1911219566
 30
0.0
 10
9.1322481013
 20
7.1917787174
 30
0.0
 10
9.1301067758
 20
7.19255054
 30
0.0
 10
9.1279758614
 20
7.1934372493
 30
0.0
 10
9.1258557543
 20
7.1944386586
 30
0.0
 10
9.1237467705
 20
7.1955545739
 30
0.0
 10
9.1209213159
 20
7.1972117182
 30
0.0
 10
9.1181473284
 20
7.1990859479
 30
0.0
 10
9.1154297812
 20
7.2011582376
 30
0.0
 10
9.1133818898
 20
7.2028428894
 30
0.0
 10
9.1113473142
 20
7.2046403921
 30
0.0
 10
9.1093263057
 20
7.2065504755
 30
0.0
 10
9.1073192178
 20
7.2085727846
 30
0.0
 10
9.1053263844
 20
7.2107069752
 30
0.0
 10
9.1033481283
 20
7.212952666
 30
0.0
 10
9.1013847873
 20
7.2153094744
 30
0.0
 10
9.099436686
 20
7.217776989
 30
0.0
 10
9.0975041497
 20
7.2203547834
 30
0.0
 10
9.0955875114
 20
7.2230424173
 30
0.0
 10
9.0936870855
 20
7.2258394222
 30
0.0
 10
9.0918032033
 20
7.2287453216
 30
0.0
 10
9.0899361804
 20
7.2317596124
 30
0.0
 10
9.0880863346
 20
7.2348817756
 30
0.0
 10
9.0862539882
 20
7.2381112763
 30
0.0
 10
9.0844394462
 20
7.2414475542
 30
0.0
 10
9.0826430285
 20
7.2448900379
 30
0.0
 10
9.0808650389
 20
7.2484381317
 30
0.0
 10
9.0791057834
 20
7.2520912235
 30
0.0
 10
9.07736557
 20
7.2558486852
 30
0.0
 10
9.0756446923
 20
7.259709864
 30
0.0
 10
9.0739434493
 20
7.2636741006
 30
0.0
 10
9.0716796883
 20
7.2691495144
 30
0.0
 10
9.0689043363
 20
7.2762494131
 30
0.0
 10
9.0656885411
 20
7.2850888807
 30
0.0
 10
9.0625580324
 20
7.2943227113
 30
0.0
 10
9.0595149856
 20
7.3039445021
 30
0.0
 10
9.0565615067
 20
7.313947647
 30
0.0
 10
9.0536996547
 20
7.3243252072
 30
0.0
 10
9.0518814088
 20
7.3313826683
 30
0.0
 10
9.0509867701
 20
7.334971779
 30
0.0
  0
SPLINE
  5
345
100
AcDbEntity
  8
0
100
AcDbSpline
 62
7
  6
CONTINUOUS
 70
0
 71
3
 72
27
 73
23
 74
0
 42
0.0000001
 43
0.0000001
 44
0.0000000001
 40
0.0
 40
0.0
 40
0.0
 40
0.0
 40
0.0636879539
 40
0.1271653574
 40
0.190434258
 40
0.253501197
 40
0.3163764605
 40
0.3790732973
 40
0.4416071553
 40
0.5039949636
 40
0.5662544882
 40
0.6284037918
 40
0.6594484668
 40
0.6904722889
 40
0.7214774292
 40
0.7524660293
 40
0.8143904829
 40
0.8762734233
 40
0.9072099794
 40
0.9381420043
 40
0.9690713862
 40
1.0
 40
1.0
 40
1.0
 40
1.0
 10
12.6522386211
 20
9.1476172293
 30
0.0
 10
12.6508277176
 20
9.1471136568
 30
0.0
 10
12.6479730931
 20
9.1462097256
 30
0.0
 10
12.6436114753
 20
9.1451724318
 30
0.0
 10
12.6391993262
 20
9.1444621058
 30
0.0
 10
12.6347606596
 20
9.1440834328
 30
0.0
 10
12.6303194847
 20
9.1440389593
 30
0.0
 10
12.6259001097
 20
9.1443291997
 30
0.0
 10
12.6215268625
 20
9.1449525723
 30
0.0
 10
12.6172238844
 20
9.14590546
 30
0.0
 10
12.6130151955
 20
9.1471821249
 30
0.0
 10
12.6096041107
 20
9.1485102627
 30
0.0
 10
12.6069464497
 20
9.1497258318
 30
0.0
 10
12.6049915048
 20
9.1507125614
 30
0.0
 10
12.6030771157
 20
9.151773114
 30
0.0
 10
12.6005831107
 20
9.1532829582
 30
0.0
 10
12.597579081
 20
9.1553473136
 30
0.0
 10
12.5947436968
 20
9.1576358589
 30
0.0
 10
12.5925873634
 20
9.1595921415
 30
0.0
 10
12.5910279196
 20
9.1611202988
 30
0.0
 10
12.5895285746
 20
9.1627071193
 30
0.0
 10
12.5885704071
 20
9.1638026892
 30
0.0
 10
12.5881020878
 20
9.164359415
 30
0.0
  0
SPLINE
  5
346
100
AcDbEntity
  8
0
100
AcDbSpline
 62
7
  6
CONTINUOUS
 70
0
 71
3
 72
11
 73
7
 74
0
 42
0.0000001
 43
0.0000001
 44
0.0000000001
 40
0.0
 40
0.0
 40
0.0
 40
0.0
 40
0.2394749506
 40
0.485822197
 40
0.7392645615
 40
1.0
 40
1.0
 40
1.0
 40
1.0
 10
15.5079916472
 20
7.905936495
 30
0.0
 10
15.5092855703
 20
7.9068933479
 30
0.0
 10
15.5118746645
 20
7.9088834728
 30
0.0
 10
15.5157068647
 20
7.912046255
 30
0.0
 10
15.519540596
 20
7.9154272535
 30
0.0
 10
15.5220606101
 20
7.9177921804
 30
0.0
 10
15.5233208583
 20
7.9190094868
 30
0.0
  0
SPLINE
  5
347
100
AcDbEntity
  8
0
100
AcDbSpline
 62
7
  6
CONTINUOUS
 70
0
 71
3
 72
11
 73
7
 74
0
 42
0.0000001
 43
0.0000001
 44
0.0000000001
 40
0.0
 40
0.0
 40
0.0
 40
0.0
 40
0.2396605935
 40
0.4861361377
 40
0.7395476642
 40
1.0
 40
1.0
 40
1.0
 40
1.0
 10
15.5233208583
 20
7.9190094868
 30
0.0
 10
15.5246172142
 20
7.9202616704
 30
0.0
 10
15.5272092743
 20
7.9228407475
 30
0.0
 10
15.5310424574
 20
7.9268714789
 30
0.0
 10
15.5348737691
 20
7.9311170291
 30
0.0
 10
15.5373913983
 20
7.9340494768
 30
0.0
 10
15.5386500695
 20
7.9355502587
 30
0.0
  0
SPLINE
  5
348
100
AcDbEntity
  8
0
100
AcDbSpline
 62
7
  6
CONTINUOUS
 70
0
 71
3
 72
11
 73
7
 74
0
 42
0.0000001
 43
0.0000001
 44
0.0000000001
 40
0.0
 40
0.0
 40
0.0
 40
0.0
 40
0.2523402475
 40
0.5031675623
 40
0.7524100652
 40
1.0
 40
1.0
 40
1.0
 40
1.0
 10
15.5386500695
 20
7.9355502587
 30
0.0
 10
15.5439772462
 20
7.943229893
 30
0.0
 10
15.5544775031
 20
7.9586283417
 30
0.0
 10
15.5697813707
 20
7.9819204898
 30
0.0
 10
15.5845612916
 20
8.0053409548
 30
0.0
 10
15.5940763515
 20
8.0210939871
 30
0.0
 10
15.5987353429
 20
8.0289928103
 30
0.0
  0
SPLINE
  5
349
100
AcDbEntity
  8
0
100
AcDbSpline
 62
7
  6
CONTINUOUS
 70
0
 71
3
 72
39
 73
35
 74
0
 42
0.0000001
 43
0.0000001
 44
0.0000000001
 40
0.0
 40
0.0
 40
0.0
 40
0.0
 40
0.0271794517
 40
0.0550707402
 40
0.0836352654
 40
0.112832965
 40
0.1426224408
 40
0.1729610677
 40
0.2038051051
 40
0.2351097969
 40
0.2668294742
 40
0.2989176567
 40
0.3313271485
 40
0.3640101365
 40
0.3969182818
 40
0.4300028192
 40
0.4632146468
 40
0.4965044251
 40
0.5298226648
 40
0.5631198248
 40
0.5963464025
 40
0.6294530294
 40
0.662390563
 40
0.6951101805
 40
0.727563476
 40
0.7597025503
 40
0.7914801102
 40
0.8228495604
 40
0.8537651075
 40
0.8841818528
 40
0.9140558974
 40
0.943344442
 40
0.972005898
 40
1.0
 40
1.0
 40
1.0
 40
1.0
 10
12.7081748442
 20
9.4683050258
 30
0.0
 10
12.7063141666
 20
9.4613368587
 30
0.0
 10
12.7026539486
 20
9.4471884751
 30
0.0
 10
12.6974085667
 20
9.4256231551
 30
0.0
 10
12.6923429892
 20
9.4034651643
 30
0.0
 10
12.68746529
 20
9.3807496734
 30
0.0
 10
12.6827832222
 20
9.3575126553
 30
0.0
 10
12.6783042323
 20
9.3337909388
 30
0.0
 10
12.6740354419
 20
9.3096221187
 30
0.0
 10
12.6699836369
 20
9.2850445047
 30
0.0
 10
12.6661552562
 20
9.2600970577
 30
0.0
 10
12.6625563831
 20
9.2348193274
 30
0.0
 10
12.6591927354
 20
9.2092513888
 30
0.0
 10
12.6560696572
 20
9.1834337791
 30
0.0
 10
12.6531921078
 20
9.1574074327
 30
0.0
 10
12.6505646557
 20
9.1312136167
 30
0.0
 10
12.6481914718
 20
9.1048938638
 30
0.0
 10
12.6460763227
 20
9.0784899075
 30
0.0
 10
12.6442225645
 20
9.0520436149
 30
0.0
 10
12.6426331359
 20
9.0255969209
 30
0.0
 10
12.6413105556
 20
8.9991917606
 30
0.0
 10
12.6402569178
 20
8.9728700034
 30
0.0
 10
12.6394738895
 20
8.9466733861
 30
0.0
 10
12.6389627061
 20
8.9206434461
 30
0.0
 10
12.6387241694
 20
8.8948214559
 30
0.0
 10
12.6387586479
 20
8.8692483568
 30
0.0
 10
12.6390660755
 20
8.8439646948
 30
0.0
 10
12.639645952
 20
8.8190105546
 30
0.0
 10
12.6404973412
 20
8.7944254968
 30
0.0
 10
12.6416188745
 20
8.7702484916
 30
0.0
 10
12.6430087522
 20
8.7465178663
 30
0.0
 10
12.6446647491
 20
8.7232712136
 30
0.0
 10
12.6465842076
 20
8.7005454361
 30
0.0
 10
12.6480554534
 20
8.6855829357
 30
0.0
 10
12.6488364319
 20
8.6781956141
 30
0.0
  0
SPLINE
  5
34A
100
AcDbEntity
  8
0
100
AcDbSpline
 62
7
  6
CONTINUOUS
 70
0
 71
3
 72
91
 73
87
 74
0
 42
0.0000001
 43
0.0000001
 44
0.0000000001
 40
0.0
 40
0.0
 40
0.0
 40
0.0
 40
0.0048080603
 40
0.0097392102
 40
0.0147932383
 40
0.0199698132
 40
0.0252684781
 40
0.030688671
 40
0.0362297234
 40
0.04189087
 40
0.047671256
 40
0.0535699355
 40
0.059585887
 40
0.065718005
 40
0.0719651159
 40
0.078325972
 40
0.0847992602
 40
0.0913836048
 40
0.0980775656
 40
0.1048796485
 40
0.1117882979
 40
0.1188019097
 40
0.1331372289
 40
0.1478718627
 40
0.1629912164
 40
0.1784800071
 40
0.1943223135
 40
0.2105016194
 40
0.2270008554
 40
0.2438024385
 40
0.2608883084
 40
0.2782399646
 40
0.2958384992
 40
0.3136646323
 40
0.331698743
 40
0.3499209039
 40
0.3683109107
 40
0.3868483155
 40
0.4055124562
 40
0.4242824889
 40
0.4431374169
 40
0.4620561224
 40
0.481017397
 40
0.4999999711
 40
0.5189825453
 40
0.53794382
 40
0.556862526
 40
0.5757174542
 40
0.5944874874
 40
0.6131516288
 40
0.6316890346
 40
0.6500790425
 40
0.6683012045
 40
0.6863353165
 40
0.7041614505
 40
0.7217599865
 40
0.7391116439
 40
0.7561975158
 40
0.7729991008
 40
0.7894983391
 40
0.8056776469
 40
0.8215199553
 40
0.8370087478
 40
0.8521281034
 40
0.8668627397
 40
0.8811980616
 40
0.8882116747
 40
0.8951203257
 40
0.9019224091
 40
0.9086163722
 40
0.9152007171
 40
0.9216740078
 40
0.9280348644
 40
0.934281977
 40
0.9404140966
 40
0.9464300488
 40
0.9523287308
 40
0.9581091169
 40
0.9637702663
 40
0.9693113192
 40
0.9747315141
 40
0.9800301803
 40
0.9852067561
 40
0.9902607868
 40
0.9951919369
 40
1.0
 40
1.0
 40
1.0
 40
1.0
 10
15.6318302238
 20
8.0851046764
 30
0.0
 10
15.6331062173
 20
8.0872681032
 30
0.0
 10
15.6356525534
 20
8.0916730483
 30
0.0
 10
15.6394098155
 20
8.0984263835
 30
0.0
 10
15.6431520731
 20
8.1054072585
 30
0.0
 10
15.6468781844
 20
8.1126135706
 30
0.0
 10
15.6505870495
 20
8.1200431766
 30
0.0
 10
15.6542775532
 20
8.1276938614
 30
0.0
 10
15.6579485956
 20
8.1355633424
 30
0.0
 10
15.6615990796
 20
8.1436492713
 30
0.0
 10
15.6652279094
 20
8.1519492355
 30
0.0
 10
15.6688340056
 20
8.1604607553
 30
0.0
 10
15.6724162815
 20
8.1691812905
 30
0.0
 10
15.6759736726
 20
8.1781082346
 30
0.0
 10
15.6795051076
 20
8.1872389217
 30
0.0
 10
15.6830095334
 20
8.1965706225
 30
0.0
 10
15.6864858997
 20
8.2061005483
 30
0.0
 10
15.6899331635
 20
8.2158258508
 30
0.0
 10
15.6933502978
 20
8.2257436224
 30
0.0
 10
15.6967362712
 20
8.2358508974
 30
0.0
 10
15.700090083
 20
8.2461446579
 30
0.0
 10
15.7045499804
 20
8.2602164489
 30
0.0
 10
15.7100331107
 20
8.2782519068
 30
0.0
 10
15.7164217965
 20
8.3004351347
 30
0.0
 10
15.7226585804
 20
8.3232867318
 30
0.0
 10
15.7287359764
 20
8.3467793474
 30
0.0
 10
15.7346466928
 20
8.3708849129
 30
0.0
 10
15.7403836379
 20
8.3955746054
 30
0.0
 10
15.7459399296
 20
8.4208189029
 30
0.0
 10
15.7513089031
 20
8.4465876148
 30
0.0
 10
15.7564841191
 20
8.4728499204
 30
0.0
 10
15.7614593712
 20
8.4995744054
 30
0.0
 10
15.7662286938
 20
8.5267290999
 30
0.0
 10
15.7707863689
 20
8.5542815172
 30
0.0
 10
15.775126933
 20
8.5821986929
 30
0.0
 10
15.7792451835
 20
8.6104472244
 30
0.0
 10
15.7831361847
 20
8.6389933122
 30
0.0
 10
15.7867952735
 20
8.667802799
 30
0.0
 10
15.7902180658
 20
8.696841212
 30
0.0
 10
15.7934004605
 20
8.7260738033
 30
0.0
 10
15.7963386456
 20
8.7554655921
 30
0.0
 10
15.7990291024
 20
8.7849814067
 30
0.0
 10
15.8014686091
 20
8.8145859265
 30
0.0
 10
15.8036542453
 20
8.8442437246
 30
0.0
 10
15.8055833951
 20
8.8739193102
 30
0.0
 10
15.8072537501
 20
8.9035771712
 30
0.0
 10
15.8086633126
 20
8.9331818165
 30
0.0
 10
15.8098103978
 20
8.9626978193
 30
0.0
 10
15.8106936363
 20
8.9920898584
 30
0.0
 10
15.8113119752
 20
9.0213227621
 30
0.0
 10
15.8116646794
 20
9.050361549
 30
0.0
 10
15.8117513329
 20
9.0791714709
 30
0.0
 10
15.8115718386
 20
9.1077180541
 30
0.0
 10
15.8111264195
 20
9.1359671408
 30
0.0
 10
15.8104156174
 20
9.1638849302
 30
0.0
 10
15.8094402936
 20
9.1914380193
 30
0.0
 10
15.8082016272
 20
9.2185934435
 30
0.0
 10
15.8067011138
 20
9.2453187154
 30
0.0
 10
15.8049405637
 20
9.2715818649
 30
0.0
 10
15.8029221002
 20
9.297351477
 30
0.0
 10
15.8006481568
 20
9.32259673
 30
0.0
 10
15.7981214743
 20
9.3472874343
 30
0.0
 10
15.7953450981
 20
9.3713940643
 30
0.0
 10
15.7923223759
 20
9.3948878137
 30
0.0
 10
15.7890569467
 20
9.4177405609
 30
0.0
 10
15.7861158605
 20
9.436360244
 30
0.0
 10
15.7836410798
 20
9.4509129597
 30
0.0
 10
15.7817402909
 20
9.4615711303
 30
0.0
 10
15.7797819035
 20
9.47204904
 30
0.0
 10
15.7777664996
 20
9.4823435619
 30
0.0
 10
15.7756946816
 20
9.4924516162
 30
0.0
 10
15.7735670757
 20
9.5023701814
 30
0.0
 10
15.7713843124
 20
9.5120962923
 30
0.0
 10
15.7691470536
 20
9.5216270421
 30
0.0
 10
15.7668559631
 20
9.5309595823
 30
0.0
 10
15.7645117317
 20
9.5400911244
 30
0.0
 10
15.7621150605
 20
9.5490189405
 30
0.0
 10
15.7596666654
 20
9.5577403637
 30
0.0
 10
15.7571672847
 20
9.5662527903
 30
0.0
 10
15.7546176593
 20
9.5745536783
 30
0.0
 10
15.7520185606
 20
9.5826405513
 30
0.0
 10
15.749370758
 20
9.5905109964
 30
0.0
 10
15.7466750502
 20
9.5981626654
 30
0.0
 10
15.7439322361
 20
9.6055932852
 30
0.0
 10
15.7411431463
 20
9.6128006131
 30
0.0
 10
15.7392292324
 20
9.6175148807
 30
0.0
 10
15.7382640857
 20
9.6198337326
 30
0.0
  0
SPLINE
  5
34B
100
AcDbEntity
  8
0
100
AcDbSpline
 62
7
  6
CONTINUOUS
 70
0
 71
3
 72
39
 73
35
 74
0
 42
0.0000001
 43
0.0000001
 44
0.0000000001
 40
0.0
 40
0.0
 40
0.0
 40
0.0
 40
0.0216079046
 40
0.0436791786
 40
0.0662464061
 40
0.0893405372
 40
0.1129906034
 40
0.1372234656
 40
0.162063601
 40
0.1875329225
 40
0.2136506471
 40
0.240433219
 40
0.2678942665
 40
0.2960445973
 40
0.324892228
 40
0.3544424416
 40
0.3846978934
 40
0.4156587385
 40
0.4473227758
 40
0.4796856079
 40
0.5127408105
 40
0.5464801181
 40
0.5808936196
 40
0.6159699475
 40
0.6516964637
 40
0.6880594401
 40
0.7250442361
 40
0.7626354701
 40
0.8008171733
 40
0.8395729352
 40
0.8788860374
 40
0.918739553
 40
0.9591165661
 40
1.0
 40
1.0
 40
1.0
 40
1.0
 10
15.7248897358
 20
9.6519668097
 30
0.0
 10
15.7241824334
 20
9.6536663444
 30
0.0
 10
15.7226877837
 20
9.6570752274
 30
0.0
 10
15.720234296
 20
9.6621590272
 30
0.0
 10
15.7175433103
 20
9.6672648219
 30
0.0
 10
15.7146120658
 20
9.6723920182
 30
0.0
 10
15.7114382045
 20
9.6775400866
 30
0.0
 10
15.7080198594
 20
9.6827084041
 30
0.0
 10
15.7043556587
 20
9.6878962999
 30
0.0
 10
15.7004447511
 20
9.6931030475
 30
0.0
 10
15.6962868169
 20
9.6983278736
 30
0.0
 10
15.6918820706
 20
9.7035699596
 30
0.0
 10
15.687231261
 20
9.7088284489
 30
0.0
 10
15.6823356658
 20
9.7141024522
 30
0.0
 10
15.6771970802
 20
9.7193910543
 30
0.0
 10
15.6718178037
 20
9.7246933233
 30
0.0
 10
15.6662006136
 20
9.7300083159
 30
0.0
 10
15.6603487364
 20
9.7353350842
 30
0.0
 10
15.6542658171
 20
9.7406726835
 30
0.0
 10
15.6479558843
 20
9.7460201781
 30
0.0
 10
15.6414233151
 20
9.7513766494
 30
0.0
 10
15.6346727953
 20
9.7567412009
 30
0.0
 10
15.627709277
 20
9.7621129621
 30
0.0
 10
15.6205379389
 20
9.7674910937
 30
0.0
 10
15.6131641463
 20
9.772874791
 30
0.0
 10
15.6055934133
 20
9.778263287
 30
0.0
 10
15.5978313654
 20
9.783655856
 30
0.0
 10
15.5898837028
 20
9.789051813
 30
0.0
 10
15.5817561677
 20
9.7944505155
 30
0.0
 10
15.573454514
 20
9.799851364
 30
0.0
 10
15.564984482
 20
9.8052538013
 30
0.0
 10
15.5563517645
 20
9.8106573169
 30
0.0
 10
15.547562006
 20
9.8160614312
 30
0.0
 10
15.5416372653
 20
9.819642471
 30
0.0
 10
15.5386500695
 20
9.8214335067
 30
0.0
  0
SPLINE
  5
34C
100
AcDbEntity
  8
0
100
AcDbSpline
 62
7
  6
CONTINUOUS
 70
0
 71
3
 72
11
 73
7
 74
0
 42
0.0000001
 43
0.0000001
 44
0.0000000001
 40
0.0
 40
0.0
 40
0.0
 40
0.0
 40
0.2396605935
 40
0.4861361377
 40
0.7395476642
 40
1.0
 40
1.0
 40
1.0
 40
1.0
 10
15.5233208583
 20
9.8083605149
 30
0.0
 10
15.5220245025
 20
9.8071083313
 30
0.0
 10
15.5194324424
 20
9.8045292542
 30
0.0
 10
15.5155992593
 20
9.8004985228
 30
0.0
 10
15.5117679476
 20
9.7962529726
 30
0.0
 10
15.5092503183
 20
9.7933205249
 30
0.0
 10
15.5079916472
 20
9.791819743
 30
0.0
  0
SPLINE
  5
34D
100
AcDbEntity
  8
0
100
AcDbSpline
 62
7
  6
CONTINUOUS
 70
0
 71
3
 72
11
 73
7
 74
0
 42
0.0000001
 43
0.0000001
 44
0.0000000001
 40
0.0
 40
0.0
 40
0.0
 40
0.0
 40
0.2600920509
 40
0.5135755305
 40
0.7602686496
 40
1.0
 40
1.0
 40
1.0
 40
1.0
 10
15.296846081
 20
8.2230011725
 30
0.0
 10
15.2979738163
 20
8.2156593349
 30
0.0
 10
15.3002941194
 20
8.2011763561
 30
0.0
 10
15.3040228175
 20
8.1797857652
 30
0.0
 10
15.3079524087
 20
8.1590226447
 30
0.0
 10
15.3107442558
 20
8.1454136273
 30
0.0
 10
15.3121752921
 20
8.1387183882
 30
0.0
  0
SPLINE
  5
34E
100
AcDbEntity
  8
0
100
AcDbSpline
 62
7
  6
CONTINUOUS
 70
0
 71
3
 72
11
 73
7
 74
0
 42
0.0000001
 43
0.0000001
 44
0.0000000001
 40
0.0
 40
0.0
 40
0.0
 40
0.0
 40
0.2471507066
 40
0.4963425996
 40
0.7473636924
 40
1.0
 40
1.0
 40
1.0
 40
1.0
 10
15.3121752921
 20
9.1807496783
 30
0.0
 10
15.3107590975
 20
9.1713879996
 30
0.0
 10
15.3079935001
 20
9.1525753622
 30
0.0
 10
15.3040607983
 20
9.1242153974
 30
0.0
 10
15.3003291539
 20
9.0956163373
 30
0.0
 10
15.2979845591
 20
9.0764642774
 30
0.0
 10
15.296846081
 20
9.0668531304
 30
0.0
  0
SPLINE
  5
34F
100
AcDbEntity
  8
0
100
AcDbSpline
 62
7
  6
CONTINUOUS
 70
0
 71
3
 72
11
 73
7
 74
0
 42
0.0000001
 43
0.0000001
 44
0.0000000001
 40
0.0
 40
0.0
 40
0.0
 40
0.0
 40
0.2394749506
 40
0.485822197
 40
0.7392645615
 40
1.0
 40
1.0
 40
1.0
 40
1.0
 10
15.5386500695
 20
9.8214335067
 30
0.0
 10
15.5373561464
 20
9.8204766538
 30
0.0
 10
15.5347670522
 20
9.8184865289
 30
0.0
 10
15.530934852
 20
9.8153237468
 30
0.0
 10
15.5271011207
 20
9.8119427482
 30
0.0
 10
15.5245811065
 20
9.8095778213
 30
0.0
 10
15.5233208583
 20
9.8083605149
 30
0.0
  0
SPLINE
  5
350
100
AcDbEntity
  8
0
100
AcDbSpline
 62
7
  6
CONTINUOUS
 70
0
 71
3
 72
23
 73
19
 74
0
 42
0.0000001
 43
0.0000001
 44
0.0000000001
 40
0.0
 40
0.0
 40
0.0
 40
0.0
 40
0.0634130869
 40
0.1268712247
 40
0.1903043562
 40
0.2536526709
 40
0.3168677835
 40
0.3799131485
 40
0.4427639643
 40
0.5054064867
 40
0.567837006
 40
0.6300604834
 40
0.692088906
 40
0.7539396046
 40
0.8156334161
 40
0.8771929905
 40
0.938641241
 40
1.0
 40
1.0
 40
1.0
 40
1.0
 10
12.6591669608
 20
9.2087504818
 30
0.0
 10
12.6575573442
 20
9.2081581274
 30
0.0
 10
12.654380414
 20
9.2068508562
 30
0.0
 10
12.6497777981
 20
9.2045360986
 30
0.0
 10
12.6453654582
 20
9.2018791804
 30
0.0
 10
12.6411749965
 20
9.1988958158
 30
0.0
 10
12.6372361702
 20
9.1956034504
 30
0.0
 10
12.6335773513
 20
9.1920215012
 30
0.0
 10
12.6302252481
 20
9.1881713325
 30
0.0
 10
12.6272047201
 20
9.1840763667
 30
0.0
 10
12.6245385744
 20
9.1797620833
 30
0.0
 10
12.6222472644
 20
9.1752560423
 30
0.0
 10
12.620348584
 20
9.1705878119
 30
0.0
 10
12.6188573986
 20
9.1657887929
 30
0.0
 10
12.617785295
 20
9.1608920605
 30
0.0
 10
12.6171404519
 20
9.1559318118
 30
0.0
 10
12.6169273667
 20
9.1509437956
 30
0.0
 10
12.617073939
 20
9.1476204964
 30
0.0
 10
12.6172189233
 20
9.1459672527
 30
0.0
  0
SPLINE
  5
351
100
AcDbEntity
  8
0
100
AcDbSpline
 62
7
  6
CONTINUOUS
 70
0
 71
3
 72
58
 73
54
 74
0
 42
0.0000001
 43
0.0000001
 44
0.0000000001
 40
0.0
 40
0.0
 40
0.0
 40
0.0
 40
0.0153119155
 40
0.0306257173
 40
0.0459426632
 40
0.0612640169
 40
0.0919172977
 40
0.1226037292
 40
0.1379666021
 40
0.1533418178
 40
0.1687307706
 40
0.1841348672
 40
0.1995555226
 40
0.2149941535
 40
0.2304521642
 40
0.2459309349
 40
0.2614318106
 40
0.2769560847
 40
0.2925049785
 40
0.308079625
 40
0.3236810525
 40
0.3393101607
 40
0.3549676988
 40
0.3706542491
 40
0.3863702065
 40
0.4021157553
 40
0.4178908507
 40
0.4336952053
 40
0.4495282705
 40
0.4653892204
 40
0.4971831554
 40
0.5290715009
 40
0.561036818
 40
0.5930567744
 40
0.6251043937
 40
0.6571485711
 40
0.6891548531
 40
0.7051355292
 40
0.7210928552
 40
0.7370221112
 40
0.7529186184
 40
0.7845887601
 40
0.8160751413
 40
0.831743085
 40
0.84735426
 40
0.8629058931
 40
0.8783957078
 40
0.9091765999
 40
0.9396972852
 40
0.9548645322
 40
0.9699691401
 40
0.9850133292
 40
1.0
 40
1.0
 40
1.0
 40
1.0
 10
12.5881020878
 20
9.164359415
 30
0.0
 10
12.5875538681
 20
9.1650111242
 30
0.0
 10
12.5864865562
 20
9.1663395103
 30
0.0
 10
12.5849768761
 20
9.1684021309
 30
0.0
 10
12.5835612002
 20
9.1705311224
 30
0.0
 10
12.5818027559
 20
9.1734526572
 30
0.0
 10
12.5798526457
 20
9.1772512529
 30
0.0
 10
12.5782511462
 20
9.1812119514
 30
0.0
 10
12.5771865113
 20
9.1844591876
 30
0.0
 10
12.5764973454
 20
9.1869313502
 30
0.0
 10
12.5759194196
 20
9.1894341611
 30
0.0
 10
12.5754539494
 20
9.1919628862
 30
0.0
 10
12.5751019521
 20
9.1945126714
 30
0.0
 10
12.5748642143
 20
9.1970786471
 30
0.0
 10
12.5747412994
 20
9.1996559133
 30
0.0
 10
12.5747335307
 20
9.202239557
 30
0.0
 10
12.5748409882
 20
9.2048246625
 30
0.0
 10
12.5750635177
 20
9.2074063246
 30
0.0
 10
12.5754007306
 20
9.2099796585
 30
0.0
 10
12.5758519892
 20
9.2125398137
 30
0.0
 10
12.5764164167
 20
9.2150819861
 30
0.0
 10
12.5770929058
 20
9.2176014278
 30
0.0
 10
12.5778801208
 20
9.2200934569
 30
0.0
 10
12.5787764876
 20
9.2225534733
 30
0.0
 10
12.5797802139
 20
9.2249769646
 30
0.0
 10
12.5808892956
 20
9.2273595123
 30
0.0
 10
12.582101523
 20
9.2296968066
 30
0.0
 10
12.5834144637
 20
9.2319846392
 30
0.0
 10
12.5848255456
 20
9.2342189746
 30
0.0
 10
12.5868353734
 20
9.2371233469
 30
0.0
 10
12.5895795086
 20
9.2406006478
 30
0.0
 10
12.5932126071
 20
9.2444946057
 30
0.0
 10
12.5971609012
 20
9.2480874142
 30
0.0
 10
12.6013937348
 20
9.2513544308
 30
0.0
 10
12.605878723
 20
9.2542736625
 30
0.0
 10
12.6105814189
 20
9.2568253454
 30
0.0
 10
12.6146549382
 20
9.2586324171
 30
0.0
 10
12.6179869124
 20
9.2598782448
 30
0.0
 10
12.6205164633
 20
9.2607108113
 30
0.0
 10
12.6230727224
 20
9.2614404837
 30
0.0
 10
12.6265054591
 20
9.2622734058
 30
0.0
 10
12.6308378557
 20
9.2630524281
 30
0.0
 10
12.6352065557
 20
9.2634771247
 30
0.0
 10
12.6386961365
 20
9.2636005402
 30
0.0
 10
12.6413015191
 20
9.2635851635
 30
0.0
 10
12.6438941312
 20
9.2634620051
 30
0.0
 10
12.6473197237
 20
9.2631551144
 30
0.0
 10
12.6515465648
 20
9.2625052787
 30
0.0
 10
12.6556848276
 20
9.2614992001
 30
0.0
 10
12.6589116531
 20
9.2604861452
 30
0.0
 10
12.6612815448
 20
9.2596256266
 30
0.0
 10
12.6636014691
 20
9.2586644496
 30
0.0
 10
12.6651149356
 20
9.2579562983
 30
0.0
 10
12.6658617274
 20
9.2575860446
 30
0.0
  0
SPLINE
  5
352
100
AcDbEntity
  8
0
100
AcDbSpline
 62
7
  6
CONTINUOUS
 70
0
 71
3
 72
49
 73
45
 74
0
 42
0.0000001
 43
0.0000001
 44
0.0000000001
 40
0.0
 40
0.0
 40
0.0
 40
0.0
 40
0.0470731633
 40
0.0924997698
 40
0.1362855027
 40
0.1784403553
 40
0.2189791703
 40
0.2579222657
 40
0.2952961279
 40
0.3311342316
 40
0.3654779909
 40
0.3983778365
 40
0.4298943676
 40
0.4600996075
 40
0.4890783026
 40
0.5169291564
 40
0.543765828
 40
0.5568460328
 40
0.5697225039
 40
0.5824138144
 40
0.5949394792
 40
0.6073198749
 40
0.6195761788
 40
0.6317302925
 40
0.6438047181
 40
0.6558224533
 40
0.6678068515
 40
0.6797814773
 40
0.6917699587
 40
0.7037958344
 40
0.7158824075
 40
0.7280525951
 40
0.7403288102
 40
0.752732831
 40
0.7652857013
 40
0.7780076619
 40
0.790918055
 40
0.8173721907
 40
0.8447889633
 40
0.8732884438
 40
0.9029754265
 40
0.9339401518
 40
0.9662601817
 40
1.0
 40
1.0
 40
1.0
 40
1.0
 10
15.7382640857
 20
9.6198337326
 30
0.0
 10
15.7370220985
 20
9.6228177191
 30
0.0
 10
15.7345154344
 20
9.6286541114
 30
0.0
 10
15.7306120812
 20
9.6371598321
 30
0.0
 10
15.7266342797
 20
9.6452565476
 30
0.0
 10
15.7225841026
 20
9.652940004
 30
0.0
 10
15.7184636148
 20
9.6602062444
 30
0.0
 10
15.7142749085
 20
9.6670515201
 30
0.0
 10
15.7100200823
 20
9.6734723094
 30
0.0
 10
15.7057012371
 20
9.6794653074
 30
0.0
 10
15.7013204683
 20
9.6850274237
 30
0.0
 10
15.6968798655
 20
9.6901557745
 30
0.0
 10
15.6923814935
 20
9.6948476666
 30
0.0
 10
15.6878274235
 20
9.6991005603
 30
0.0
 10
15.6832196375
 20
9.7029120977
 30
0.0
 10
15.6785604247
 20
9.7062798932
 30
0.0
 10
15.6746028082
 20
9.7087357134
 30
0.0
 10
15.6714177431
 20
9.7104680039
 30
0.0
 10
15.6690381694
 20
9.7116441406
 30
0.0
 10
15.6666479298
 20
9.7127079762
 30
0.0
 10
15.6642473155
 20
9.7136593776
 30
0.0
 10
15.6618366568
 20
9.7144981877
 30
0.0
 10
15.6594162783
 20
9.7152242658
 30
0.0
 10
15.6569865195
 20
9.715837506
 30
0.0
 10
15.6545477176
 20
9.716337797
 30
0.0
 10
15.6521002196
 20
9.7167250588
 30
0.0
 10
15.6496443759
 20
9.7169992357
 30
0.0
 10
15.6471805381
 20
9.7171602707
 30
0.0
 10
15.6447090623
 20
9.7172081532
 30
0.0
 10
15.6422303035
 20
9.7171428774
 30
0.0
 10
15.6397446175
 20
9.7169644538
 30
0.0
 10
15.6372523564
 20
9.7166729329
 30
0.0
 10
15.6347538726
 20
9.7162683593
 30
0.0
 10
15.6322495111
 20
9.7157508095
 30
0.0
 10
15.6297396234
 20
9.7151203848
 30
0.0
 10
15.6272245172
 20
9.7143771615
 30
0.0
 10
15.623837377
 20
9.7132267813
 30
0.0
 10
15.6195853444
 20
9.7114977696
 30
0.0
 10
15.6145107491
 20
9.7089905646
 30
0.0
 10
15.6094248401
 20
9.7060359848
 30
0.0
 10
15.6043302521
 20
9.7026360375
 30
0.0
 10
15.599229212
 20
9.6987927049
 30
0.0
 10
15.5941242644
 20
9.6945082698
 30
0.0
 10
15.5907930674
 20
9.6914270821
 30
0.0
 10
15.5891268115
 20
9.6898176023
 30
0.0
  0
SPLINE
  5
353
100
AcDbEntity
  8
0
100
AcDbSpline
 62
7
  6
CONTINUOUS
 70
0
 71
3
 72
38
 73
34
 74
0
 42
0.0000001
 43
0.0000001
 44
0.0000000001
 40
0.0
 40
0.0
 40
0.0
 40
0.0
 40
0.0293462456
 40
0.0587365411
 40
0.0881778495
 40
0.1176777158
 40
0.147244278
 40
0.1768862212
 40
0.2066127297
 40
0.2364334109
 40
0.2663581986
 40
0.2963972328
 40
0.3265607184
 40
0.3568587675
 40
0.3873012301
 40
0.4178975169
 40
0.4486564248
 40
0.4795859706
 40
0.5106932413
 40
0.5419842696
 40
0.5734639394
 40
0.6051359245
 40
0.6370026629
 40
0.6690653641
 40
0.7013240494
 40
0.7337776197
 40
0.7992573287
 40
0.8322792044
 40
0.8654823827
 40
0.8988617575
 40
0.9324117817
 40
0.966126564
 40
1.0
 40
1.0
 40
1.0
 40
1.0
 10
15.5079916472
 20
9.791819743
 30
0.0
 10
15.5082141497
 20
9.7854240652
 30
0.0
 10
15.5085507649
 20
9.7726190341
 30
0.0
 10
15.5087155505
 20
9.7533897607
 30
0.0
 10
15.5085253222
 20
9.7341270748
 30
0.0
 10
15.5079648446
 20
9.7148330754
 30
0.0
 10
15.5070190272
 20
9.6955102234
 30
0.0
 10
15.5056730866
 20
9.6761614807
 30
0.0
 10
15.5039127318
 20
9.6567902987
 30
0.0
 10
15.5017243629
 20
9.6374006333
 30
0.0
 10
15.4990952807
 20
9.6179969386
 30
0.0
 10
15.4960139007
 20
9.5985841492
 30
0.0
 10
15.4924699676
 20
9.5791676459
 30
0.0
 10
15.4884547578
 20
9.5597532056
 30
0.0
 10
15.4839612619
 20
9.5403469357
 30
0.0
 10
15.4789843427
 20
9.5209551934
 30
0.0
 10
15.473520857
 20
9.5015844931
 30
0.0
 10
15.4675697378
 20
9.4822414054
 30
0.0
 10
15.4611320306
 20
9.4629324503
 30
0.0
 10
15.4542108853
 20
9.4436639893
 30
0.0
 10
15.4468114928
 20
9.4244421228
 30
0.0
 10
15.4389409821
 20
9.4052725983
 30
0.0
 10
15.430608272
 20
9.3861607177
 30
0.0
 10
15.4218239163
 20
9.3671113094
 30
0.0
 10
15.4125998228
 20
9.3481285295
 30
0.0
 10
15.3996948028
 20
9.3228384204
 30
0.0
 10
15.3859985493
 20
9.297771254
 30
0.0
 10
15.3715832936
 20
9.2729288999
 30
0.0
 10
15.3603744667
 20
9.2543224851
 30
0.0
 10
15.3488153873
 20
9.2357959608
 30
0.0
 10
15.3369219236
 20
9.2173494647
 30
0.0
 10
15.3247099211
 20
9.1989829056
 30
0.0
 10
15.3163855401
 20
9.1868191532
 30
0.0
 10
15.3121752921
 20
9.1807496783
 30
0.0
  0
SPLINE
  5
354
100
AcDbEntity
  8
0
100
AcDbSpline
 62
7
  6
CONTINUOUS
 70
0
 71
3
 72
36
 73
32
 74
0
 42
0.0000001
 43
0.0000001
 44
0.0000000001
 40
0.0
 40
0.0
 40
0.0
 40
0.0
 40
0.0635007802
 40
0.1269002289
 40
0.1585591923
 40
0.1901886259
 40
0.2217871205
 40
0.2533533021
 40
0.2848858535
 40
0.3163835367
 40
0.3478452158
 40
0.3792698811
 40
0.410656671
 40
0.4420048926
 40
0.4733140381
 40
0.5045837976
 40
0.5358140674
 40
0.567004953
 40
0.5981567671
 40
0.6292700207
 40
0.6603454113
 40
0.6913838053
 40
0.7223862182
 40
0.7533537927
 40
0.7842877761
 40
0.8151894958
 40
0.8460603359
 40
0.8769017169
 40
0.9077150739
 40
0.9385018445
 40
1.0
 40
1.0
 40
1.0
 40
1.0
 10
15.296846081
 20
9.0668531304
 30
0.0
 10
15.301284931
 20
9.0493314658
 30
0.0
 10
15.3097548619
 20
9.0142130091
 30
0.0
 10
15.3192318902
 20
8.9700804621
 30
0.0
 10
15.3260772636
 20
8.9346740286
 30
0.0
 10
15.3308259536
 20
8.9080846861
 30
0.0
 10
15.3351764101
 20
8.8814540146
 30
0.0
 10
15.3391141204
 20
8.8547869863
 30
0.0
 10
15.3426252806
 20
8.8280893257
 30
0.0
 10
15.3456970253
 20
8.8013674208
 30
0.0
 10
15.348317643
 20
8.7746283036
 30
0.0
 10
15.3504767888
 20
8.7478795851
 30
0.0
 10
15.3521656835
 20
8.7211293747
 30
0.0
 10
15.3533772919
 20
8.6943861781
 30
0.0
 10
15.3541064727
 20
8.6676587783
 30
0.0
 10
15.3543500905
 20
8.6409561018
 30
0.0
 10
15.3541070867
 20
8.6142870776
 30
0.0
 10
15.3533785075
 20
8.5876604912
 30
0.0
 10
15.3521674766
 20
8.561084843
 30
0.0
 10
15.3504791249
 20
8.5345682156
 30
0.0
 10
15.3483204784
 20
8.5081181556
 30
0.0
 10
15.3457003096
 20
8.4817415741
 30
0.0
 10
15.3426289582
 20
8.4554446687
 30
0.0
 10
15.3391181331
 20
8.4292328683
 30
0.0
 10
15.3351806994
 20
8.403110801
 30
0.0
 10
15.3308304596
 20
8.3770822882
 30
0.0
 10
15.3260819375
 20
8.3511503445
 30
0.0
 10
15.3209501828
 20
8.3253172463
 30
0.0
 10
15.3154505421
 20
8.2995844237
 30
0.0
 10
15.3076511992
 20
8.2654233489
 30
0.0
 10
15.3012915658
 20
8.2399324359
 30
0.0
 10
15.296846081
 20
8.2230011725
 30
0.0
  0
SPLINE
  5
355
100
AcDbEntity
  8
0
100
AcDbSpline
 62
7
  6
CONTINUOUS
 70
0
 71
3
 72
39
 73
35
 74
0
 42
0.0000001
 43
0.0000001
 44
0.0000000001
 40
0.0
 40
0.0
 40
0.0
 40
0.0
 40
0.0456955419
 40
0.0905834148
 40
0.1346261228
 40
0.1777863341
 40
0.2200273954
 40
0.2613138611
 40
0.3016121232
 40
0.3408911018
 40
0.3791229973
 40
0.4162840877
 40
0.4523555537
 40
0.4873243001
 40
0.5211837449
 40
0.5539345441
 40
0.5855852136
 40
0.6161526124
 40
0.6456622523
 40
0.6741484013
 40
0.701653943
 40
0.7282299857
 40
0.7539352106
 40
0.7788349646
 40
0.8030001162
 40
0.8265057134
 40
0.8494294928
 40
0.8718503097
 40
0.8938465695
 40
0.9154947416
 40
0.9368680277
 40
0.9580352503
 40
0.979059986
 40
1.0
 40
1.0
 40
1.0
 40
1.0
 10
15.3121752921
 20
8.1387183882
 30
0.0
 10
15.3163593174
 20
8.1362097684
 30
0.0
 10
15.3246287042
 20
8.1311954862
 30
0.0
 10
15.3368369026
 20
8.1236098653
 30
0.0
 10
15.3487266084
 20
8.1160262663
 30
0.0
 10
15.3602820698
 20
8.1084461114
 30
0.0
 10
15.3714874212
 20
8.1008709731
 30
0.0
 10
15.3823268011
 20
8.0933025881
 30
0.0
 10
15.3927845198
 20
8.0857428522
 30
0.0
 10
15.4028452408
 20
8.0781938141
 30
0.0
 10
15.412494178
 20
8.070657664
 30
0.0
 10
15.4217173069
 20
8.0631367164
 30
0.0
 10
15.4305015816
 20
8.0556333892
 30
0.0
 10
15.4388351517
 20
8.0481501766
 30
0.0
 10
15.4467075693
 20
8.0406896179
 30
0.0
 10
15.4541099804
 20
8.0332542629
 30
0.0
 10
15.4610352915
 20
8.0258466363
 30
0.0
 10
15.4674783041
 20
8.018469201
 30
0.0
 10
15.4734358108
 20
8.011124323
 30
0.0
 10
15.4789066525
 20
8.003814242
 30
0.0
 10
15.4838917255
 20
7.9965410434
 30
0.0
 10
15.4883939482
 20
7.989306638
 30
0.0
 10
15.4924181874
 20
7.9821127476
 30
0.0
 10
15.495971151
 20
7.9749608949
 30
0.0
 10
15.4990612503
 20
7.9678523969
 30
0.0
 10
15.5016984415
 20
7.9607883599
 30
0.0
 10
15.5038940476
 20
7.9537696729
 30
0.0
 10
15.5056605662
 20
7.9467969997
 30
0.0
 10
15.5070114713
 20
7.9398707724
 30
0.0
 10
15.5079610088
 20
7.9329911772
 30
0.0
 10
15.5085239976
 20
7.9261581755
 30
0.0
 10
15.5087156238
 20
7.9193714151
 30
0.0
 10
15.5085512888
 20
7.9126305806
 30
0.0
 10
15.5082142416
 20
7.9081609371
 30
0.0
 10
15.5079916472
 20
7.905936495
 30
0.0
  0
SPLINE
  5
356
100
AcDbEntity
  8
0
100
AcDbSpline
 62
7
  6
CONTINUOUS
 70
0
 71
3
 72
153
 73
149
 74
0
 42
0.0000001
 43
0.0000001
 44
0.0000000001
 40
0.0
 40
0.0
 40
0.0
 40
0.0
 40
0.0020827402
 40
0.0042134583
 40
0.0063928236
 40
0.0086214633
 40
0.0108999661
 40
0.0132288565
 40
0.0156085793
 40
0.0180395232
 40
0.0205220232
 40
0.0230563651
 40
0.0256427905
 40
0.0282814909
 40
0.0309726197
 40
0.0337162893
 40
0.039361405
 40
0.0452171582
 40
0.0512832423
 40
0.0575589005
 40
0.0640429682
 40
0.0707339105
 40
0.0776298551
 40
0.0847286195
 40
0.0920277351
 40
0.0995244672
 40
0.1072158332
 40
0.1150986205
 40
0.1231694004
 40
0.131424541
 40
0.1398602183
 40
0.1484724269
 40
0.1572569903
 40
0.1662095704
 40
0.1753256756
 40
0.1846006673
 40
0.1940297678
 40
0.2036080679
 40
0.2133305334
 40
0.2231920109
 40
0.2331872342
 40
0.2433108289
 40
0.2535573194
 40
0.2639211341
 40
0.2743966108
 40
0.2849780015
 40
0.2956594774
 40
0.3064351342
 40
0.3172989972
 40
0.3392669995
 40
0.3615145881
 40
0.3839919209
 40
0.4066484887
 40
0.4294332633
 40
0.4522948494
 40
0.4751816305
 40
0.4980419184
 40
0.5208241006
 40
0.5434767886
 40
0.5659489663
 40
0.5881901386
 40
0.6101504827
 40
0.6210100578
 40
0.6317811246
 40
0.6424577121
 40
0.6530339199
 40
0.6635039233
 40
0.6738619782
 40
0.6841024262
 40
0.6942197007
 40
0.7042083317
 40
0.7140629502
 40
0.7237782949
 40
0.7333492181
 40
0.7427706916
 40
0.7520378131
 40
0.7611458124
 40
0.7700900577
 40
0.7788660639
 40
0.787469501
 40
0.7958962017
 40
0.8041421697
 40
0.8122035903
 40
0.8200768404
 40
0.827758502
 40
0.8352453743
 40
0.8425344874
 40
0.8496231191
 40
0.8565088138
 40
0.8631894039
 40
0.8696630339
 40
0.8759281876
 40
0.8819837197
 40
0.8878288937
 40
0.8934634269
 40
0.8962018134
 40
0.8988876675
 40
0.9015211084
 40
0.9041022902
 40
0.9066314122
 40
0.9091087181
 40
0.911534497
 40
0.9139090933
 40
0.9162329011
 40
0.9185063764
 40
0.9207300361
 40
0.9229044618
 40
0.9250303106
 40
0.9271083109
 40
0.9291392761
 40
0.9311241057
 40
0.9330637904
 40
0.9349594237
 40
0.9368121999
 40
0.9386234286
 40
0.9403945358
 40
0.9421270707
 40
0.9454827478
 40
0.9487060087
 40
0.9502736406
 40
0.9518148702
 40
0.9533322202
 40
0.954828351
 40
0.9563060495
 40
0.9577682193
 40
0.9592178676
 40
0.9606580865
 40
0.9620920358
 40
0.9635229202
 40
0.964953967
 40
0.966388402
 40
0.9678294267
 40
0.9692801945
 40
0.9707437904
 40
0.9722232117
 40
0.9737213505
 40
0.9752409824
 40
0.9767847528
 40
0.9783551722
 40
0.9815846908
 40
0.9849474367
 40
0.9884583814
 40
0.9902737196
 40
0.9921307387
 40
0.9940307449
 40
0.9959749389
 40
0.9979643819
 40
1.0
 40
1.0
 40
1.0
 40
1.0
 10
15.5891268115
 20
9.6898176023
 30
0.0
 10
15.5882058607
 20
9.6889280321
 30
0.0
 10
15.5863642367
 20
9.6871060198
 30
0.0
 10
15.5836333822
 20
9.6842791752
 30
0.0
 10
15.5809033708
 20
9.6813281055
 30
0.0
 10
15.578174656
 20
9.6782532989
 30
0.0
 10
15.5754476278
 20
9.6750552124
 30
0.0
 10
15.5727226888
 20
9.6717343115
 30
0.0
 10
15.570000233
 20
9.6682910954
 30
0.0
 10
15.5672806754
 20
9.6647260782
 30
0.0
 10
15.5645644222
 20
9.6610397965
 30
0.0
 10
15.561851875
 20
9.6572328048
 30
0.0
 10
15.5591434454
 20
9.6533056685
 30
0.0
 10
15.5564395325
 20
9.6492589816
 30
0.0
 10
15.5537405395
 20
9.6450933432
 30
0.0
 10
15.5501146148
 20
9.6393266959
 30
0.0
 10
15.5456003398
 20
9.6318214629
 30
0.0
 10
15.5402594569
 20
9.6224336604
 30
0.0
 10
15.5349478964
 20
9.6125865315
 30
0.0
 10
15.5296688584
 20
9.6022860057
 30
0.0
 10
15.5244255031
 20
9.5915382221
 30
0.0
 10
15.5192209815
 20
9.5803496159
 30
0.0
 10
15.5140584232
 20
9.5687268869
 30
0.0
 10
15.5089409359
 20
9.5566770019
 30
0.0
 10
15.5038716025
 20
9.5442071884
 30
0.0
 10
15.4988534775
 20
9.5313249317
 30
0.0
 10
15.4938895852
 20
9.5180379693
 30
0.0
 10
15.4889829186
 20
9.5043542845
 30
0.0
 10
15.4841364366
 20
9.4902821014
 30
0.0
 10
15.4793530628
 20
9.47582988
 30
0.0
 10
15.4746356821
 20
9.4610063115
 30
0.0
 10
15.4699871395
 20
9.4458203133
 30
0.0
 10
15.4654102386
 20
9.430281022
 30
0.0
 10
15.4609077403
 20
9.4143977876
 30
0.0
 10
15.4564823607
 20
9.3981801678
 30
0.0
 10
15.4521367692
 20
9.3816379236
 30
0.0
 10
15.4478735861
 20
9.3647810127
 30
0.0
 10
15.4436953825
 20
9.347619583
 30
0.0
 10
15.4396046783
 20
9.3301639657
 30
0.0
 10
15.4356039406
 20
9.3124246696
 30
0.0
 10
15.4316955825
 20
9.2944123753
 30
0.0
 10
15.42788196
 20
9.2761379286
 30
0.0
 10
15.4241653725
 20
9.2576123339
 30
0.0
 10
15.420548061
 20
9.2388467463
 30
0.0
 10
15.4170322069
 20
9.2198524659
 30
0.0
 10
15.4136199298
 20
9.2006409302
 30
0.0
 10
15.410313288
 20
9.1812237116
 30
0.0
 10
15.4071142685
 20
9.1616124941
 30
0.0
 10
15.4029798268
 20
9.1351240725
 30
0.0
 10
15.3980979351
 20
9.1016150591
 30
0.0
 10
15.3927199198
 20
9.0609667923
 30
0.0
 10
15.3878138501
 20
9.0198325139
 30
0.0
 10
15.3833915685
 20
8.9783113203
 30
0.0
 10
15.3794637418
 20
8.9365031761
 30
0.0
 10
15.3760398435
 20
8.894508759
 30
0.0
 10
15.3731281263
 20
8.8524291919
 30
0.0
 10
15.3707355987
 20
8.8103658061
 30
0.0
 10
15.3688680187
 20
8.7684198916
 30
0.0
 10
15.3675298675
 20
8.7266924595
 30
0.0
 10
15.3667243437
 20
8.6852839743
 30
0.0
 10
15.3664533704
 20
8.6442941954
 30
0.0
 10
15.3666743024
 20
8.6104434391
 30
0.0
 10
15.3671217941
 20
8.5836481994
 30
0.0
 10
15.3675898329
 20
8.5637917581
 30
0.0
 10
15.3681912265
 20
8.5441132012
 30
0.0
 10
15.3689256155
 20
8.5246243692
 30
0.0
 10
15.3697925542
 20
8.5053370017
 30
0.0
 10
15.3707915188
 20
8.4862627134
 30
0.0
 10
15.3719219054
 20
8.4674129913
 30
0.0
 10
15.3731830297
 20
8.4487991861
 30
0.0
 10
15.3745741289
 20
8.4304325058
 30
0.0
 10
15.3760943622
 20
8.4123240101
 30
0.0
 10
15.3777428108
 20
8.3944846028
 30
0.0
 10
15.3795184786
 20
8.376925025
 30
0.0
 10
15.3814202917
 20
8.3596558481
 30
0.0
 10
15.3834471001
 20
8.342687468
 30
0.0
 10
15.3855976788
 20
8.3260300991
 30
0.0
 10
15.3878707279
 20
8.3096937682
 30
0.0
 10
15.3902648743
 20
8.2936883076
 30
0.0
 10
15.3927786698
 20
8.2780233486
 30
0.0
 10
15.3954105948
 20
8.2627083159
 30
0.0
 10
15.3981590584
 20
8.2477524227
 30
0.0
 10
15.4010223995
 20
8.233164665
 30
0.0
 10
15.4039988885
 20
8.2189538148
 30
0.0
 10
15.4070867259
 20
8.2051284144
 30
0.0
 10
15.4102840458
 20
8.191696771
 30
0.0
 10
15.4135889168
 20
8.1786669525
 30
0.0
 10
15.4169993439
 20
8.166046782
 30
0.0
 10
15.4205132696
 20
8.1538438321
 30
0.0
 10
15.4241285743
 20
8.1420654192
 30
0.0
 10
15.4278430799
 20
8.1307185966
 30
0.0
 10
15.4316545504
 20
8.1198101583
 30
0.0
 10
15.4355607004
 20
8.1093466076
 30
0.0
 10
15.4395591773
 20
8.0993342463
 30
0.0
 10
15.4429980523
 20
8.0912970249
 30
0.0
 10
15.4457962467
 20
8.0851006729
 30
0.0
 10
15.4478965491
 20
8.080614092
 30
0.0
 10
15.4500181054
 20
8.0762447093
 30
0.0
 10
15.4521606131
 20
8.0719931766
 30
0.0
 10
15.4543237459
 20
8.0678601312
 30
0.0
 10
15.4565071795
 20
8.0638461912
 30
0.0
 10
15.4587105945
 20
8.0599519607
 30
0.0
 10
15.4609336535
 20
8.0561780187
 30
0.0
 10
15.4631760341
 20
8.0525249338
 30
0.0
 10
15.4654373987
 20
8.0489932507
 30
0.0
 10
15.4677174112
 20
8.0455834967
 30
0.0
 10
15.4700157407
 20
8.0422961859
 30
0.0
 10
15.4723320389
 20
8.0391318047
 30
0.0
 10
15.4746659739
 20
8.0360908323
 30
0.0
 10
15.477017198
 20
8.0331737211
 30
0.0
 10
15.4793853668
 20
8.0303809083
 30
0.0
 10
15.4817701412
 20
8.0277128184
 30
0.0
 10
15.484171164
 20
8.0251698472
 30
0.0
 10
15.4865881001
 20
8.0227523844
 30
0.0
 10
15.4890205814
 20
8.0204608038
 30
0.0
 10
15.4914683021
 20
8.018295417
 30
0.0
 10
15.4947169669
 20
8.0156057862
 30
0.0
 10
15.4988165442
 20
8.0125482615
 30
0.0
 10
15.5030472637
 20
8.0098576968
 30
0.0
 10
15.5064538185
 20
8.0079716699
 30
0.0
 10
15.508997936
 20
8.0066983605
 30
0.0
 10
15.5115543194
 20
8.0055535369
 30
0.0
 10
15.5141226084
 20
8.0045373721
 30
0.0
 10
15.5167023988
 20
8.0036500619
 30
0.0
 10
15.5192932889
 20
8.0028917787
 30
0.0
 10
15.5218948603
 20
8.0022626547
 30
0.0
 10
15.5245066951
 20
8.001762828
 30
0.0
 10
15.5271283609
 20
8.0013923825
 30
0.0
 10
15.5297594243
 20
8.001151393
 30
0.0
 10
15.5323994463
 20
8.0010399082
 30
0.0
 10
15.5350479865
 20
8.0010579297
 30
0.0
 10
15.5377046042
 20
8.0012054618
 30
0.0
 10
15.5403688618
 20
8.0014824513
 30
0.0
 10
15.5430403247
 20
8.0018888392
 30
0.0
 10
15.5457185614
 20
8.0024245397
 30
0.0
 10
15.5484031532
 20
8.0030894304
 30
0.0
 10
15.5510936668
 20
8.0038833889
 30
0.0
 10
15.5537897333
 20
8.004806269
 30
0.0
 10
15.5574248748
 20
8.0062214872
 30
0.0
 10
15.5619874427
 20
8.0083241666
 30
0.0
 10
15.5674249334
 20
8.011336578
 30
0.0
 10
15.5719141941
 20
8.0142392313
 30
0.0
 10
15.575508375
 20
8.0168060589
 30
0.0
 10
15.5782360685
 20
8.0188795008
 30
0.0
 10
15.5809652669
 20
8.0210793866
 30
0.0
 10
15.5836956219
 20
8.0234054335
 30
0.0
 10
15.5864266762
 20
8.0258572312
 30
0.0
 10
15.5882266972
 20
8.027555639
 30
0.0
 10
15.5891268115
 20
8.0284250827
 30
0.0
  0
SPLINE
  5
357
100
AcDbEntity
  8
0
100
AcDbSpline
 62
7
  6
CONTINUOUS
 70
0
 71
3
 72
22
 73
18
 74
0
 42
0.0000001
 43
0.0000001
 44
0.0000000001
 40
0.0
 40
0.0
 40
0.0
 40
0.0
 40
0.053053517
 40
0.1073085721
 40
0.1627816825
 40
0.2194883203
 40
0.2774430696
 40
0.3366589893
 40
0.3971471962
 40
0.4589173943
 40
0.5219780092
 40
0.5863362298
 40
0.6519982024
 40
0.7189688371
 40
0.7872520868
 40
0.8568509473
 40
1.0
 40
1.0
 40
1.0
 40
1.0
 10
15.5891268115
 20
8.0284250827
 30
0.0
 10
15.5900321112
 20
8.0292995351
 30
0.0
 10
15.591842448
 20
8.0310898652
 30
0.0
 10
15.5945274311
 20
8.0338660792
 30
0.0
 10
15.597211615
 20
8.0367623947
 30
0.0
 10
15.5998945662
 20
8.0397783479
 30
0.0
 10
15.6025759141
 20
8.0429135039
 30
0.0
 10
15.6052552758
 20
8.0461674225
 30
0.0
 10
15.6079322769
 20
8.0495396315
 30
0.0
 10
15.610606525
 20
8.0530296432
 30
0.0
 10
15.6132776307
 20
8.056636951
 30
0.0
 10
15.6159452144
 20
8.0603610287
 30
0.0
 10
15.6186088841
 20
8.0642013427
 30
0.0
 10
15.6212682584
 20
8.0681573302
 30
0.0
 10
15.623922961
 20
8.0722284303
 30
0.0
 10
15.6274891726
 20
8.0778619851
 30
0.0
 10
15.6301049149
 20
8.0821794423
 30
0.0
 10
15.6318302238
 20
8.0851046764
 30
0.0
  0
SPLINE
  5
358
100
AcDbEntity
  8
0
100
AcDbSpline
 62
7
  6
CONTINUOUS
 70
0
 71
3
 72
39
 73
35
 74
0
 42
0.0000001
 43
0.0000001
 44
0.0000000001
 40
0.0
 40
0.0
 40
0.0
 40
0.0
 40
0.027703752
 40
0.0560459426
 40
0.0849906002
 40
0.1145005997
 40
0.1445377515
 40
0.1750628921
 40
0.2060359686
 40
0.2374161201
 40
0.2691617637
 40
0.3012306694
 40
0.3335800448
 40
0.366166608
 40
0.3989466679
 40
0.4318762005
 40
0.4649109243
 40
0.4980063801
 40
0.5311180025
 40
0.564201201
 40
0.5972114313
 40
0.6301042752
 40
0.6628355153
 40
0.6953612109
 40
0.7276377766
 40
0.7596220555
 40
0.7912714028
 40
0.8225437583
 40
0.8533977304
 40
0.8837926726
 40
0.9136887674
 40
0.9430471095
 40
0.9718297922
 40
1.0
 40
1.0
 40
1.0
 40
1.0
 10
12.7188009814
 20
9.4578401354
 30
0.0
 10
12.7170355976
 20
9.4508070746
 30
0.0
 10
12.7135638521
 20
9.4365536693
 30
0.0
 10
12.7085851791
 20
9.4148717197
 30
0.0
 10
12.7037811031
 20
9.3926664595
 30
0.0
 10
12.6991585557
 20
9.3699698132
 30
0.0
 10
12.6947241895
 20
9.3468143425
 30
0.0
 10
12.6904843899
 20
9.3232332916
 30
0.0
 10
12.68644526
 20
9.2992605134
 30
0.0
 10
12.6826126127
 20
9.2749304278
 30
0.0
 10
12.6789919631
 20
9.2502779695
 30
0.0
 10
12.6755885207
 20
9.2253385375
 30
0.0
 10
12.6724071816
 20
9.2001479447
 30
0.0
 10
12.669452522
 20
9.1747423655
 30
0.0
 10
12.6667287912
 20
9.1491582843
 30
0.0
 10
12.664239905
 20
9.1234324427
 30
0.0
 10
12.6619894409
 20
9.0976017864
 30
0.0
 10
12.6599806332
 20
9.0717034123
 30
0.0
 10
12.6582163679
 20
9.0457745143
 30
0.0
 10
12.6566991789
 20
9.0198523308
 30
0.0
 10
12.6554312441
 20
8.9939740901
 30
0.0
 10
12.6544143815
 20
8.9681769576
 30
0.0
 10
12.6536500474
 20
8.9424979817
 30
0.0
 10
12.6531393347
 20
8.9169740406
 30
0.0
 10
12.6528829707
 20
8.8916417894
 30
0.0
 10
12.6528813161
 20
8.866537607
 30
0.0
 10
12.6531343643
 20
8.8416975438
 30
0.0
 10
12.6536417408
 20
8.8171572691
 30
0.0
 10
12.6544027042
 20
8.7929520206
 30
0.0
 10
12.6554161477
 20
8.7691165514
 30
0.0
 10
12.6566805995
 20
8.745685087
 30
0.0
 10
12.6581942271
 20
8.7226912505
 30
0.0
 10
12.6599548321
 20
8.7001681025
 30
0.0
 10
12.6613066305
 20
8.6853220336
 30
0.0
 10
12.6620249148
 20
8.6779837692
 30
0.0
  0
SPLINE
  5
359
100
AcDbEntity
  8
0
100
AcDbSpline
 62
7
  6
CONTINUOUS
 70
0
 71
3
 72
18
 73
14
 74
0
 42
0.0000001
 43
0.0000001
 44
0.0000000001
 40
0.0
 40
0.0
 40
0.0
 40
0.0
 40
0.1480356372
 40
0.2876662502
 40
0.4195655771
 40
0.4828973127
 40
0.5446380375
 40
0.6638657774
 40
0.7785237916
 40
0.8345984481
 40
0.8900706527
 40
0.9451373023
 40
1.0
 40
1.0
 40
1.0
 40
1.0
 10
7.6334735529
 20
10.6489202231
 30
0.0
 10
7.6344164351
 20
10.6498309773
 30
0.0
 10
7.6361933888
 20
10.6516596222
 30
0.0
 10
7.6385826227
 20
10.6545094716
 30
0.0
 10
7.6402963709
 20
10.6569346168
 30
0.0
 10
7.6414765771
 20
10.6588811748
 30
0.0
 10
7.6425072931
 20
10.6607840467
 30
0.0
 10
7.643578377
 20
10.6631784671
 30
0.0
 10
7.6443604652
 20
10.6656307552
 30
0.0
 10
7.6447946103
 20
10.6675873666
 30
0.0
 10
7.6450256099
 20
10.6690455986
 30
0.0
 10
7.6451642166
 20
10.6705046345
 30
0.0
 10
7.6451950384
 20
10.6714783843
 30
0.0
 10
7.6451950335
 20
10.6719642158
 30
0.0
  0
SPLINE
  5
35A
100
AcDbEntity
  8
0
100
AcDbSpline
 62
7
  6
CONTINUOUS
 70
0
 71
3
 72
18
 73
14
 74
0
 42
0.0000001
 43
0.0000001
 44
0.0000000001
 40
0.0
 40
0.0
 40
0.0
 40
0.0
 40
0.1480356372
 40
0.2876662502
 40
0.4195655771
 40
0.4828973127
 40
0.5446380375
 40
0.6638657774
 40
0.7785237916
 40
0.8345984481
 40
0.8900706527
 40
0.9451373023
 40
1.0
 40
1.0
 40
1.0
 40
1.0
 10
14.155405036
 20
10.1966227385
 30
0.0
 10
14.1563479182
 20
10.1975334928
 30
0.0
 10
14.1581248719
 20
10.1993621376
 30
0.0
 10
14.1605141058
 20
10.202211987
 30
0.0
 10
14.162227854
 20
10.2046371322
 30
0.0
 10
14.1634080602
 20
10.2065836902
 30
0.0
 10
14.1644387762
 20
10.2084865621
 30
0.0
 10
14.1655098601
 20
10.2108809825
 30
0.0
 10
14.1662919483
 20
10.2133332706
 30
0.0
 10
14.1667260934
 20
10.215289882
 30
0.0
 10
14.166957093
 20
10.216748114
 30
0.0
 10
14.1670956997
 20
10.2182071499
 30
0.0
 10
14.1671265215
 20
10.2191808998
 30
0.0
 10
14.1671265166
 20
10.2196667313
 30
0.0
  0
SPLINE
  5
35B
100
AcDbEntity
  8
0
100
AcDbSpline
 62
7
  6
CONTINUOUS
 70
0
 71
3
 72
26
 73
22
 74
0
 42
0.0000001
 43
0.0000001
 44
0.0000000001
 40
0.0
 40
0.0
 40
0.0
 40
0.0
 40
0.064763614
 40
0.1303281264
 40
0.1964577444
 40
0.2629127684
 40
0.3294526685
 40
0.3958363032
 40
0.4618233107
 40
0.5271751411
 40
0.5916561891
 40
0.6550349124
 40
0.7170849725
 40
0.7775863937
 40
0.8363267544
 40
0.8649729325
 40
0.8931032394
 40
0.9206938694
 40
0.9477216316
 40
0.9741642016
 40
1.0
 40
1.0
 40
1.0
 40
1.0
 10
14.960066425
 20
7.0716438659
 30
0.0
 10
14.960066425
 20
7.0905223555
 30
0.0
 10
14.9603848945
 20
7.1285134836
 30
0.0
 10
14.9617907471
 20
7.1857656512
 30
0.0
 10
14.9641228846
 20
7.2434811272
 30
0.0
 10
14.9673723951
 20
7.3014369195
 30
0.0
 10
14.9715267274
 20
7.3594091264
 30
0.0
 10
14.9765698434
 20
7.4171738558
 30
0.0
 10
14.9824822246
 20
7.4745079928
 30
0.0
 10
14.9892409709
 20
7.5311901058
 30
0.0
 10
14.9968198788
 20
7.587001304
 30
0.0
 10
15.0051895465
 20
7.641726072
 30
0.0
 10
15.0143174724
 20
7.6951531962
 30
0.0
 10
15.0241682132
 20
7.7470762989
 30
0.0
 10
15.0330197609
 20
7.7892701042
 30
0.0
 10
15.0404453272
 20
7.8221146761
 30
0.0
 10
15.0461242766
 20
7.8460434013
 30
0.0
 10
15.0519538372
 20
7.869449997
 30
0.0
 10
15.0579284722
 20
7.892311893
 30
0.0
 10
15.0640423039
 20
7.9146069668
 30
0.0
 10
15.0682571512
 20
7.9292520801
 30
0.0
 10
15.0703883268
 20
7.9364753387
 30
0.0
  0
SPLINE
  5
35C
100
AcDbEntity
  8
0
100
AcDbSpline
 62
7
  6
CONTINUOUS
 70
0
 71
3
 72
59
 73
55
 74
0
 42
0.0000001
 43
0.0000001
 44
0.0000000001
 40
0.0
 40
0.0
 40
0.0
 40
0.0
 40
0.0417736767
 40
0.0840362765
 40
0.1266574811
 40
0.1695051262
 40
0.2124463914
 40
0.2553479967
 40
0.2980768488
 40
0.3405005256
 40
0.3824878146
 40
0.4239092383
 40
0.464637589
 40
0.5045484688
 40
0.5435208413
 40
0.5814375992
 40
0.6181861539
 40
0.6360888024
 40
0.6536595531
 40
0.6708859017
 40
0.6877557363
 40
0.7042573867
 40
0.720379648
 40
0.7361117919
 40
0.7514436399
 40
0.7663655339
 40
0.7808684645
 40
0.7949440033
 40
0.8085844873
 40
0.8217829218
 40
0.83453322
 40
0.8468300923
 40
0.8586693371
 40
0.8700477415
 40
0.8809634199
 40
0.8914157604
 40
0.9014058112
 40
0.9109363168
 40
0.9200121632
 40
0.9286405545
 40
0.9368315416
 40
0.9445983908
 40
0.9519582219
 40
0.9589325919
 40
0.9655482195
 40
0.9718376843
 40
0.9778400275
 40
0.9836011664
 40
0.9864084736
 40
0.9891757902
 40
0.9919106587
 40
0.9946209114
 40
0.9973146138
 40
1.0
 40
1.0
 40
1.0
 40
1.0
 10
14.6039317156
 20
8.659495899
 30
0.0
 10
14.6039317156
 20
8.6781517658
 30
0.0
 10
14.6042227669
 20
8.7156824358
 30
0.0
 10
14.6055094518
 20
8.7722342146
 30
0.0
 10
14.6076450329
 20
8.8292403586
 30
0.0
 10
14.6106225094
 20
8.8865121632
 30
0.0
 10
14.6144320418
 20
8.9438601442
 30
0.0
 10
14.6190610383
 20
9.0010945805
 30
0.0
 10
14.6244941644
 20
9.058026115
 30
0.0
 10
14.6307134094
 20
9.1144664054
 30
0.0
 10
14.6376981391
 20
9.1702287438
 30
0.0
 10
14.6454251655
 20
9.2251286807
 30
0.0
 10
14.6538688212
 20
9.2789846463
 30
0.0
 10
14.663001045
 20
9.3316185366
 30
0.0
 10
14.6727914644
 20
9.3828563896
 30
0.0
 10
14.6832075251
 20
9.4325286935
 30
0.0
 10
14.6924585542
 20
9.4728236108
 30
0.0
 10
14.7001575769
 20
9.5041456442
 30
0.0
 10
14.7060160357
 20
9.5269407032
 30
0.0
 10
14.7120039573
 20
9.5492248325
 30
0.0
 10
14.7181164197
 20
9.5709796231
 30
0.0
 10
14.7243483416
 20
9.5921870859
 30
0.0
 10
14.7306945501
 20
9.6128296932
 30
0.0
 10
14.7371498014
 20
9.6328903853
 30
0.0
 10
14.7437087098
 20
9.6523525938
 30
0.0
 10
14.7503658826
 20
9.6712002416
 30
0.0
 10
14.7571157414
 20
9.6894177799
 30
0.0
 10
14.7639527632
 20
9.7069901692
 30
0.0
 10
14.770871199
 20
9.723902938
 30
0.0
 10
14.7778654151
 20
9.7401421368
 30
0.0
 10
14.7849295186
 20
9.7556944273
 30
0.0
 10
14.7920577854
 20
9.7705470011
 30
0.0
 10
14.799244213
 20
9.7846877062
 30
0.0
 10
14.8064830107
 20
9.7981049255
 30
0.0
 10
14.8137681117
 20
9.8107877429
 30
0.0
 10
14.8210936908
 20
9.8227257808
 30
0.0
 10
14.8284536789
 20
9.8339094005
 30
0.0
 10
14.8358422671
 20
9.8443295055
 30
0.0
 10
14.843253471
 20
9.8539777578
 30
0.0
 10
14.8506815794
 20
9.8628463582
 30
0.0
 10
14.8581208145
 20
9.870928244
 30
0.0
 10
14.8655656814
 20
9.878216861
 30
0.0
 10
14.8730107466
 20
9.8847062779
 30
0.0
 10
14.8804508511
 20
9.8903909741
 30
0.0
 10
14.8878808999
 20
9.8952657769
 30
0.0
 10
14.8952960997
 20
9.8993257655
 30
0.0
 10
14.9026907125
 20
9.9025658931
 30
0.0
 10
14.9088856997
 20
9.9045963446
 30
0.0
 10
14.9138071122
 20
9.9057917293
 30
0.0
 10
14.9174567138
 20
9.9064741048
 30
0.0
 10
14.9210952516
 20
9.9069496569
 30
0.0
 10
14.9247220318
 20
9.9072182635
 30
0.0
 10
14.9283360325
 20
9.9072797595
 30
0.0
 10
14.9307379039
 20
9.907182586
 30
0.0
 10
14.9319343075
 20
9.9070996181
 30
0.0
  0
SPLINE
  5
35D
100
AcDbEntity
  8
0
100
AcDbSpline
 62
7
  6
CONTINUOUS
 70
0
 71
3
 72
15
 73
11
 74
0
 42
0.0000001
 43
0.0000001
 44
0.0000000001
 40
0.0
 40
0.0
 40
0.0
 40
0.0
 40
0.1225801332
 40
0.2455842613
 40
0.369195068
 40
0.4935581633
 40
0.6187788162
 40
0.7449179794
 40
0.8719992047
 40
1.0
 40
1.0
 40
1.0
 40
1.0
 10
10.0255841159
 20
9.0415523266
 30
0.0
 10
10.0164441457
 20
9.0383179066
 30
0.0
 10
9.9979521727
 20
9.0323357607
 30
0.0
 10
9.9697144496
 20
9.024845601
 30
0.0
 10
9.9409837158
 20
9.0188206446
 30
0.0
 10
9.9118084759
 20
9.0142553013
 30
0.0
 10
9.8822419388
 20
9.0111438828
 30
0.0
 10
9.8523436355
 20
9.0094808233
 30
0.0
 10
9.8221810733
 20
9.0092608146
 30
0.0
 10
9.8020129911
 20
9.0100696271
 30
0.0
 10
9.7919091505
 20
9.0107102666
 30
0.0
  0
SPLINE
  5
35E
100
AcDbEntity
  8
0
100
AcDbSpline
 62
7
  6
CONTINUOUS
 70
0
 71
3
 72
20
 73
16
 74
0
 42
0.0000001
 43
0.0000001
 44
0.0000000001
 40
0.0
 40
0.0
 40
0.0
 40
0.0
 40
0.1253494252
 40
0.2506938532
 40
0.3133674
 40
0.3760314339
 40
0.4386801173
 40
0.5013063429
 40
0.5639010549
 40
0.6264533806
 40
0.6889504531
 40
0.7513775647
 40
0.813716828
 40
0.8759505928
 40
1.0
 40
1.0
 40
1.0
 40
1.0
 10
12.1438143868
 20
8.9013800374
 30
0.0
 10
12.1348923062
 20
8.9108169254
 30
0.0
 10
12.1176211636
 20
8.9302412344
 30
0.0
 10
12.0975970213
 20
8.9558261632
 30
0.0
 10
12.0825883955
 20
8.9770271992
 30
0.0
 10
12.0718528081
 20
8.9932818585
 30
0.0
 10
12.0616554212
 20
9.009873571
 30
0.0
 10
12.0520117236
 20
9.0267849357
 30
0.0
 10
12.042936027
 20
9.0439965393
 30
0.0
 10
12.0344419056
 20
9.0614876101
 30
0.0
 10
12.0265406541
 20
9.0792354087
 30
0.0
 10
12.019242831
 20
9.0972158039
 30
0.0
 10
12.0125560376
 20
9.1154036035
 30
0.0
 10
12.0044732708
 20
9.1398645336
 30
0.0
 10
11.9993275086
 20
9.1584848529
 30
0.0
 10
11.9963108586
 20
9.1709779701
 30
0.0
  0
SPLINE
  5
35F
100
AcDbEntity
  8
0
100
AcDbSpline
 62
7
  6
CONTINUOUS
 70
0
 71
3
 72
29
 73
25
 74
0
 42
0.0000001
 43
0.0000001
 44
0.0000000001
 40
0.0
 40
0.0
 40
0.0
 40
0.0
 40
0.0293640665
 40
0.0588413125
 40
0.0884516329
 40
0.1182115247
 40
0.1481342458
 40
0.1782293664
 40
0.238947416
 40
0.300381271
 40
0.3624861351
 40
0.4251783324
 40
0.4883501678
 40
0.5518857086
 40
0.6156746416
 40
0.6796224512
 40
0.7436564014
 40
0.8077272457
 40
0.8397725742
 40
0.8718185926
 40
0.903864175
 40
0.9359091904
 40
0.9679555094
 40
1.0
 40
1.0
 40
1.0
 40
1.0
 10
12.8882052855
 20
8.7107785212
 30
0.0
 10
12.8807051885
 20
8.708255317
 30
0.0
 10
12.8655748503
 20
8.7034947426
 30
0.0
 10
12.8425713889
 20
8.6972274889
 30
0.0
 10
12.8192406406
 20
8.6918215579
 30
0.0
 10
12.7956049758
 20
8.6872770981
 30
0.0
 10
12.7716874873
 20
8.6835940273
 30
0.0
 10
12.7393645814
 20
8.679820709
 30
0.0
 10
12.6983776387
 20
8.6772744004
 30
0.0
 10
12.648686664
 20
8.6776634219
 30
0.0
 10
12.5986066611
 20
8.6814703785
 30
0.0
 10
12.5484292948
 20
8.6886724072
 30
0.0
 10
12.4984577211
 20
8.6992408859
 30
0.0
 10
12.449001989
 20
8.7131437596
 30
0.0
 10
12.4003727933
 20
8.7303476247
 30
0.0
 10
12.352878313
 20
8.7508199939
 30
0.0
 10
12.3068270337
 20
8.7745277234
 30
0.0
 10
12.2699066154
 20
8.7969551603
 30
0.0
 10
12.2414062829
 20
8.8164752008
 30
0.0
 10
12.2205842757
 20
8.8319012954
 30
0.0
 10
12.2003601109
 20
8.8481029133
 30
0.0
 10
12.1807742097
 20
8.8650713891
 30
0.0
 10
12.1618693397
 20
8.8827947013
 30
0.0
 10
12.1497470406
 20
8.8951050673
 30
0.0
 10
12.1438143868
 20
8.9013800374
 30
0.0
  0
SPLINE
  5
360
100
AcDbEntity
  8
0
100
AcDbSpline
 62
7
  6
CONTINUOUS
 70
0
 71
3
 72
51
 73
47
 74
0
 42
0.0000001
 43
0.0000001
 44
0.0000000001
 40
0.0
 40
0.0
 40
0.0
 40
0.0
 40
0.0149716491
 40
0.0299463579
 40
0.0449271649
 40
0.0599170755
 40
0.0749190358
 40
0.0899359201
 40
0.1049705142
 40
0.1200254921
 40
0.1351034104
 40
0.150206685
 40
0.16533758
 40
0.1804982002
 40
0.1956904684
 40
0.2109161278
 40
0.2261767248
 40
0.2414736015
 40
0.2568078978
 40
0.2721805325
 40
0.2875922139
 40
0.3030434288
 40
0.3185344409
 40
0.3340653005
 40
0.3496358313
 40
0.365245647
 40
0.396575363
 40
0.4280524198
 40
0.4596664386
 40
0.4914041857
 40
0.523249879
 40
0.5551855359
 40
0.5871913555
 40
0.61924613
 40
0.6513276757
 40
0.6834132767
 40
0.7154801359
 40
0.7475058287
 40
0.7794687512
 40
0.8113485552
 40
0.843126567
 40
0.8747861806
 40
0.9063132067
 40
0.9376963039
 40
0.9689267485
 40
1.0
 40
1.0
 40
1.0
 40
1.0
 10
8.8671848086
 20
9.7025873549
 30
0.0
 10
8.873016634
 20
9.7082204623
 30
0.0
 10
8.8849067673
 20
9.7192572521
 30
0.0
 10
8.9033877938
 20
9.7350923008
 30
0.0
 10
8.9224910555
 20
9.7501874272
 30
0.0
 10
8.9421899269
 20
9.7645214835
 30
0.0
 10
8.962457447
 20
9.7780747581
 30
0.0
 10
8.9832655875
 20
9.7908287474
 30
0.0
 10
9.00458583
 20
9.802765732
 30
0.0
 10
9.0263887512
 20
9.8138694244
 30
0.0
 10
9.0486443609
 20
9.8241245415
 30
0.0
 10
9.0713220725
 20
9.8335168805
 30
0.0
 10
9.0943906038
 20
9.842033721
 30
0.0
 10
9.1178182847
 20
9.8496631632
 30
0.0
 10
9.1415728315
 20
9.8563948591
 30
0.0
 10
9.1656215686
 20
9.8622195596
 30
0.0
 10
9.1899314333
 20
9.8671291487
 30
0.0
 10
9.2144689445
 20
9.8711170939
 30
0.0
 10
9.2392003817
 20
9.8741777274
 30
0.0
 10
9.264091706
 20
9.8763069847
 30
0.0
 10
9.2891086891
 20
9.8775019632
 30
0.0
 10
9.3142169176
 20
9.8777609069
 30
0.0
 10
9.3393818918
 20
9.87708368
 30
0.0
 10
9.3645688907
 20
9.8754710603
 30
0.0
 10
9.3897437002
 20
9.8729253059
 30
0.0
 10
9.4232840532
 20
9.8682866505
 30
0.0
 10
9.465009939
 20
9.8601666977
 30
0.0
 10
9.5144090277
 20
9.8467901922
 30
0.0
 10
9.5629344487
 20
9.8298420838
 30
0.0
 10
9.6103180413
 20
9.8094160862
 30
0.0
 10
9.6563002602
 20
9.78562464
 30
0.0
 10
9.7006286458
 20
9.7585986319
 30
0.0
 10
9.7430600175
 20
9.7284866508
 30
0.0
 10
9.7833615676
 20
9.6954541611
 30
0.0
 10
9.821312158
 20
9.6596825674
 30
0.0
 10
9.8567035083
 20
9.6213682405
 30
0.0
 10
9.8893413166
 20
9.580721445
 30
0.0
 10
9.9190463795
 20
9.5379652494
 30
0.0
 10
9.9456555296
 20
9.4933342737
 30
0.0
 10
9.9690225028
 20
9.4470733995
 30
0.0
 10
9.9890187443
 20
9.3994364826
 30
0.0
 10
10.005534086
 20
9.3506848674
 30
0.0
 10
10.0184775039
 20
9.3010863925
 30
0.0
 10
10.027777338
 20
9.2509124909
 30
0.0
 10
10.0333822066
 20
9.200442226
 30
0.0
 10
10.0346375547
 20
9.1666876578
 30
0.0
 10
10.0346375547
 20
9.1498594139
 30
0.0
  0
SPLINE
  5
361
100
AcDbEntity
  8
0
100
AcDbSpline
 62
7
  6
CONTINUOUS
 70
0
 71
3
 72
25
 73
21
 74
0
 42
0.0000001
 43
0.0000001
 44
0.0000000001
 40
0.0
 40
0.0
 40
0.0
 40
0.0
 40
0.0617095319
 40
0.0925734525
 40
0.1234452711
 40
0.1852179107
 40
0.2470530079
 40
0.3089703872
 40
0.3709890414
 40
0.4331269412
 40
0.4954008557
 40
0.5578261871
 40
0.6204168633
 40
0.6831851338
 40
0.7146416333
 40
0.746146383
 40
0.80929992
 40
0.8726563647
 40
0.9362235836
 40
1.0
 40
1.0
 40
1.0
 40
1.0
 10
9.8439985086
 20
8.6913154586
 30
0.0
 10
9.8515470104
 20
8.6986067471
 30
0.0
 10
9.8625921501
 20
8.7098389887
 30
0.0
 10
9.8767249182
 20
8.7253661341
 30
0.0
 10
9.8904613352
 20
8.7412597592
 30
0.0
 10
9.9068696178
 20
8.761794008
 30
0.0
 10
9.9252839908
 20
8.7874318501
 30
0.0
 10
9.9423855468
 20
8.8140135976
 30
0.0
 10
9.9581345518
 20
8.8414775456
 30
0.0
 10
9.9724948012
 20
8.8697604574
 30
0.0
 10
9.9854331591
 20
8.8987970439
 30
0.0
 10
9.9969199297
 20
8.9285204426
 30
0.0
 10
10.0069285737
 20
8.9588616261
 30
0.0
 10
10.0140133943
 20
8.984585223
 30
0.0
 10
10.0189218163
 20
9.005398877
 30
0.0
 10
10.0233280411
 20
9.026391583
 30
0.0
 10
10.0278738083
 20
9.0528896634
 30
0.0
 10
10.0317751941
 20
9.0849924424
 30
0.0
 10
10.034118397
 20
9.1173521175
 30
0.0
 10
10.0346375547
 20
9.139013008
 30
0.0
 10
10.0346375547
 20
9.1498594139
 30
0.0
  0
SPLINE
  5
362
100
AcDbEntity
  8
0
100
AcDbSpline
 62
7
  6
CONTINUOUS
 70
0
 71
3
 72
35
 73
31
 74
0
 42
0.0000001
 43
0.0000001
 44
0.0000000001
 40
0.0
 40
0.0
 40
0.0
 40
0.0
 40
0.0334285338
 40
0.0665738829
 40
0.1319655311
 40
0.1962012176
 40
0.2279259208
 40
0.2594127261
 40
0.321750578
 40
0.3833951349
 40
0.4140164761
 40
0.4445303716
 40
0.4749582591
 40
0.5053221786
 40
0.5356438876
 40
0.5659453594
 40
0.5962489711
 40
0.6265767747
 40
0.6569513633
 40
0.6873951031
 40
0.7179300287
 40
0.7485780453
 40
0.7793601595
 40
0.8102961165
 40
0.8414042695
 40
0.8727009795
 40
0.9041999627
 40
0.93591186
 40
0.9678440633
 40
1.0
 40
1.0
 40
1.0
 40
1.0
 10
9.9929665819
 20
9.3861054509
 30
0.0
 10
9.9846828637
 20
9.3878496416
 30
0.0
 10
9.9682241932
 20
9.3915103679
 30
0.0
 10
9.935779458
 20
9.3995291352
 30
0.0
 10
9.8961293151
 20
9.410862653
 30
0.0
 10
9.8574558194
 20
9.4241160874
 30
0.0
 10
9.8273838249
 20
9.4358449013
 30
0.0
 10
9.7981030322
 20
9.4482431983
 30
0.0
 10
9.7625410619
 20
9.4651963878
 30
0.0
 10
9.7283126099
 20
9.4842656642
 30
0.0
 10
9.701952503
 20
9.5007645777
 30
0.0
 10
9.6827364489
 20
9.5137501278
 30
0.0
 10
9.6640556443
 20
9.5273844278
 30
0.0
 10
9.6459354566
 20
9.5416775954
 30
0.0
 10
9.628404612
 20
9.5566390277
 30
0.0
 10
9.6114945126
 20
9.572276711
 30
0.0
 10
9.5952395393
 20
9.588597055
 30
0.0
 10
9.5796768927
 20
9.6056045227
 30
0.0
 10
9.5648464344
 20
9.62330097
 30
0.0
 10
9.5507906576
 20
9.6416853819
 30
0.0
 10
9.5375541617
 20
9.6607530569
 30
0.0
 10
9.5251834829
 20
9.6804952117
 30
0.0
 10
9.5137265145
 20
9.7008983009
 30
0.0
 10
9.5032316943
 20
9.7219433069
 30
0.0
 10
9.4937473772
 20
9.7436053583
 30
0.0
 10
9.4853209095
 20
9.7658532993
 30
0.0
 10
9.4779973655
 20
9.7886491447
 30
0.0
 10
9.4718183943
 20
9.8119484152
 30
0.0
 10
9.466821333
 20
9.8356989437
 30
0.0
 10
9.4643074449
 20
9.851741293
 30
0.0
 10
9.4632547967
 20
9.8598160521
 30
0.0
  0
SPLINE
  5
363
100
AcDbEntity
  8
0
100
AcDbSpline
 62
7
  6
CONTINUOUS
 70
0
 71
3
 72
51
 73
47
 74
0
 42
0.0000001
 43
0.0000001
 44
0.0000000001
 40
0.0
 40
0.0
 40
0.0
 40
0.0
 40
0.0149716491
 40
0.0299463579
 40
0.0449271649
 40
0.0599170755
 40
0.0749190358
 40
0.0899359201
 40
0.1049705142
 40
0.1200254921
 40
0.1351034104
 40
0.150206685
 40
0.16533758
 40
0.1804982002
 40
0.1956904684
 40
0.2109161278
 40
0.2261767248
 40
0.2414736015
 40
0.2568078978
 40
0.2721805325
 40
0.2875922139
 40
0.3030434288
 40
0.3185344409
 40
0.3340653005
 40
0.3496358313
 40
0.365245647
 40
0.396575363
 40
0.4280524198
 40
0.4596664386
 40
0.4914041857
 40
0.523249879
 40
0.5551855359
 40
0.5871913555
 40
0.61924613
 40
0.6513276757
 40
0.6834132767
 40
0.7154801359
 40
0.7475058287
 40
0.7794687512
 40
0.8113485552
 40
0.843126567
 40
0.8747861806
 40
0.9063132067
 40
0.9376963039
 40
0.9689267485
 40
1.0
 40
1.0
 40
1.0
 40
1.0
 10
11.7649624592
 20
9.5016257923
 30
0.0
 10
11.7707942845
 20
9.5072588997
 30
0.0
 10
11.7826844178
 20
9.5182956894
 30
0.0
 10
11.8011654444
 20
9.5341307381
 30
0.0
 10
11.8202687061
 20
9.5492258646
 30
0.0
 10
11.8399675775
 20
9.5635599209
 30
0.0
 10
11.8602350976
 20
9.5771131955
 30
0.0
 10
11.8810432381
 20
9.5898671848
 30
0.0
 10
11.9023634805
 20
9.6018041694
 30
0.0
 10
11.9241664017
 20
9.6129078618
 30
0.0
 10
11.9464220114
 20
9.6231629789
 30
0.0
 10
11.9690997231
 20
9.6325553179
 30
0.0
 10
11.9921682544
 20
9.6410721584
 30
0.0
 10
12.0155959353
 20
9.6487016006
 30
0.0
 10
12.0393504821
 20
9.6554332965
 30
0.0
 10
12.0633992192
 20
9.6612579969
 30
0.0
 10
12.0877090839
 20
9.6661675861
 30
0.0
 10
12.1122465951
 20
9.6701555313
 30
0.0
 10
12.1369780323
 20
9.6732161648
 30
0.0
 10
12.1618693566
 20
9.6753454221
 30
0.0
 10
12.1868863397
 20
9.6765404005
 30
0.0
 10
12.2119945681
 20
9.6767993443
 30
0.0
 10
12.2371595424
 20
9.6761221173
 30
0.0
 10
12.2623465413
 20
9.6745094977
 30
0.0
 10
12.2875213508
 20
9.6719637432
 30
0.0
 10
12.3210617037
 20
9.6673250879
 30
0.0
 10
12.3627875896
 20
9.6592051351
 30
0.0
 10
12.4121866782
 20
9.6458286296
 30
0.0
 10
12.4607120993
 20
9.6288805212
 30
0.0
 10
12.5080956919
 20
9.6084545236
 30
0.0
 10
12.5540779107
 20
9.5846630774
 30
0.0
 10
12.5984062963
 20
9.5576370693
 30
0.0
 10
12.640837668
 20
9.5275250882
 30
0.0
 10
12.6811392181
 20
9.4944925985
 30
0.0
 10
12.7190898086
 20
9.4587210047
 30
0.0
 10
12.7544811589
 20
9.4204066778
 30
0.0
 10
12.7871189672
 20
9.3797598824
 30
0.0
 10
12.8168240301
 20
9.3370036868
 30
0.0
 10
12.8434331801
 20
9.292372711
 30
0.0
 10
12.8668001533
 20
9.2461118369
 30
0.0
 10
12.8867963949
 20
9.19847492
 30
0.0
 10
12.9033117365
 20
9.1497233048
 30
0.0
 10
12.9162551545
 20
9.1001248299
 30
0.0
 10
12.9255549886
 20
9.0499509283
 30
0.0
 10
12.9311598572
 20
8.9994806633
 30
0.0
 10
12.9324152053
 20
8.9657260952
 30
0.0
 10
12.9324152053
 20
8.9488978513
 30
0.0
  0
SPLINE
  5
364
100
AcDbEntity
  8
0
100
AcDbSpline
 62
7
  6
CONTINUOUS
 70
0
 71
3
 72
25
 73
21
 74
0
 42
0.0000001
 43
0.0000001
 44
0.0000000001
 40
0.0
 40
0.0
 40
0.0
 40
0.0
 40
0.0617095319
 40
0.0925734525
 40
0.1234452711
 40
0.1852179107
 40
0.2470530079
 40
0.3089703872
 40
0.3709890414
 40
0.4331269412
 40
0.4954008557
 40
0.5578261871
 40
0.6204168633
 40
0.6831851338
 40
0.7146416333
 40
0.746146383
 40
0.80929992
 40
0.8726563647
 40
0.9362235836
 40
1.0
 40
1.0
 40
1.0
 40
1.0
 10
12.7417761592
 20
8.490353896
 30
0.0
 10
12.749324661
 20
8.4976451845
 30
0.0
 10
12.7603698007
 20
8.5088774261
 30
0.0
 10
12.7745025687
 20
8.5244045715
 30
0.0
 10
12.7882389857
 20
8.5402981965
 30
0.0
 10
12.8046472683
 20
8.5608324454
 30
0.0
 10
12.8230616413
 20
8.5864702875
 30
0.0
 10
12.8401631974
 20
8.613052035
 30
0.0
 10
12.8559122024
 20
8.6405159829
 30
0.0
 10
12.8702724518
 20
8.6687988948
 30
0.0
 10
12.8832108096
 20
8.6978354813
 30
0.0
 10
12.8946975802
 20
8.72755888
 30
0.0
 10
12.9047062243
 20
8.7579000635
 30
0.0
 10
12.9117910449
 20
8.7836236604
 30
0.0
 10
12.9166994669
 20
8.8044373143
 30
0.0
 10
12.9211056917
 20
8.8254300204
 30
0.0
 10
12.9256514588
 20
8.8519281008
 30
0.0
 10
12.9295528446
 20
8.8840308798
 30
0.0
 10
12.9318960476
 20
8.9163905549
 30
0.0
 10
12.9324152053
 20
8.9380514454
 30
0.0
 10
12.9324152053
 20
8.9488978513
 30
0.0
  0
SPLINE
  5
365
100
AcDbEntity
  8
0
100
AcDbSpline
 62
7
  6
CONTINUOUS
 70
0
 71
3
 72
51
 73
47
 74
0
 42
0.0000001
 43
0.0000001
 44
0.0000000001
 40
0.0
 40
0.0
 40
0.0
 40
0.0
 40
0.0149716491
 40
0.0299463579
 40
0.0449271649
 40
0.0599170755
 40
0.0749190358
 40
0.0899359201
 40
0.1049705142
 40
0.1200254921
 40
0.1351034104
 40
0.150206685
 40
0.16533758
 40
0.1804982002
 40
0.1956904684
 40
0.2109161278
 40
0.2261767248
 40
0.2414736015
 40
0.2568078978
 40
0.2721805325
 40
0.2875922139
 40
0.3030434288
 40
0.3185344409
 40
0.3340653005
 40
0.3496358313
 40
0.365245647
 40
0.396575363
 40
0.4280524198
 40
0.4596664386
 40
0.4914041857
 40
0.523249879
 40
0.5551855359
 40
0.5871913555
 40
0.61924613
 40
0.6513276757
 40
0.6834132767
 40
0.7154801359
 40
0.7475058287
 40
0.7794687512
 40
0.8113485552
 40
0.843126567
 40
0.8747861806
 40
0.9063132067
 40
0.9376963039
 40
0.9689267485
 40
1.0
 40
1.0
 40
1.0
 40
1.0
 10
11.0385863348
 20
7.1371854388
 30
0.0
 10
11.0444181601
 20
7.1428185462
 30
0.0
 10
11.0563082935
 20
7.1538553359
 30
0.0
 10
11.07478932
 20
7.1696903846
 30
0.0
 10
11.0938925817
 20
7.1847855111
 30
0.0
 10
11.1135914531
 20
7.1991195674
 30
0.0
 10
11.1338589732
 20
7.212672842
 30
0.0
 10
11.1546671137
 20
7.2254268313
 30
0.0
 10
11.1759873562
 20
7.2373638159
 30
0.0
 10
11.1977902774
 20
7.2484675083
 30
0.0
 10
11.220045887
 20
7.2587226254
 30
0.0
 10
11.2427235987
 20
7.2681149644
 30
0.0
 10
11.26579213
 20
7.2766318049
 30
0.0
 10
11.2892198109
 20
7.2842612471
 30
0.0
 10
11.3129743577
 20
7.290992943
 30
0.0
 10
11.3370230948
 20
7.2968176435
 30
0.0
 10
11.3613329595
 20
7.3017272326
 30
0.0
 10
11.3858704707
 20
7.3057151778
 30
0.0
 10
11.4106019079
 20
7.3087758113
 30
0.0
 10
11.4354932322
 20
7.3109050686
 30
0.0
 10
11.4605102153
 20
7.312100047
 30
0.0
 10
11.4856184438
 20
7.3123589908
 30
0.0
 10
11.510783418
 20
7.3116817639
 30
0.0
 10
11.5359704169
 20
7.3100691442
 30
0.0
 10
11.5611452264
 20
7.3075233898
 30
0.0
 10
11.5946855794
 20
7.3028847344
 30
0.0
 10
11.6364114652
 20
7.2947647816
 30
0.0
 10
11.6858105538
 20
7.2813882761
 30
0.0
 10
11.7343359749
 20
7.2644401677
 30
0.0
 10
11.7817195675
 20
7.2440141701
 30
0.0
 10
11.8277017863
 20
7.2202227239
 30
0.0
 10
11.8720301719
 20
7.1931967158
 30
0.0
 10
11.9144615436
 20
7.1630847347
 30
0.0
 10
11.9547630937
 20
7.130052245
 30
0.0
 10
11.9927136842
 20
7.0942806513
 30
0.0
 10
12.0281050345
 20
7.0559663243
 30
0.0
 10
12.0607428428
 20
7.0153195289
 30
0.0
 10
12.0904479057
 20
6.9725633333
 30
0.0
 10
12.1170570557
 20
6.9279323575
 30
0.0
 10
12.1404240289
 20
6.8816714834
 30
0.0
 10
12.1604202705
 20
6.8340345665
 30
0.0
 10
12.1769356121
 20
6.7852829513
 30
0.0
 10
12.1898790301
 20
6.7356844764
 30
0.0
 10
12.1991788642
 20
6.6855105748
 30
0.0
 10
12.2047837328
 20
6.6350403099
 30
0.0
 10
12.2060390809
 20
6.6012857417
 30
0.0
 10
12.2060390809
 20
6.5844574978
 30
0.0
  0
SPLINE
  5
366
100
AcDbEntity
  8
0
100
AcDbSpline
 62
7
  6
CONTINUOUS
 70
0
 71
3
 72
25
 73
21
 74
0
 42
0.0000001
 43
0.0000001
 44
0.0000000001
 40
0.0
 40
0.0
 40
0.0
 40
0.0
 40
0.0617095319
 40
0.0925734525
 40
0.1234452711
 40
0.1852179107
 40
0.2470530079
 40
0.3089703872
 40
0.3709890414
 40
0.4331269412
 40
0.4954008557
 40
0.5578261871
 40
0.6204168633
 40
0.6831851338
 40
0.7146416333
 40
0.746146383
 40
0.80929992
 40
0.8726563647
 40
0.9362235836
 40
1.0
 40
1.0
 40
1.0
 40
1.0
 10
12.0154000348
 20
6.1259135425
 30
0.0
 10
12.0229485366
 20
6.133204831
 30
0.0
 10
12.0339936763
 20
6.1444370726
 30
0.0
 10
12.0481264443
 20
6.159964218
 30
0.0
 10
12.0618628613
 20
6.1758578431
 30
0.0
 10
12.0782711439
 20
6.1963920919
 30
0.0
 10
12.096685517
 20
6.222029934
 30
0.0
 10
12.113787073
 20
6.2486116815
 30
0.0
 10
12.129536078
 20
6.2760756294
 30
0.0
 10
12.1438963274
 20
6.3043585413
 30
0.0
 10
12.1568346853
 20
6.3333951278
 30
0.0
 10
12.1683214558
 20
6.3631185265
 30
0.0
 10
12.1783300999
 20
6.39345971
 30
0.0
 10
12.1854149205
 20
6.4191833069
 30
0.0
 10
12.1903233425
 20
6.4399969609
 30
0.0
 10
12.1947295673
 20
6.4609896669
 30
0.0
 10
12.1992753345
 20
6.4874877473
 30
0.0
 10
12.2031767202
 20
6.5195905263
 30
0.0
 10
12.2055199232
 20
6.5519502014
 30
0.0
 10
12.2060390809
 20
6.5736110919
 30
0.0
 10
12.2060390809
 20
6.5844574978
 30
0.0
  0
SPLINE
  5
367
100
AcDbEntity
  8
0
100
AcDbSpline
 62
7
  6
CONTINUOUS
 70
0
 71
3
 72
35
 73
31
 74
0
 42
0.0000001
 43
0.0000001
 44
0.0000000001
 40
0.0
 40
0.0
 40
0.0
 40
0.0
 40
0.0334285367
 40
0.0665738895
 40
0.1319655386
 40
0.1962012114
 40
0.2279259057
 40
0.2594127035
 40
0.3217505497
 40
0.3833951113
 40
0.4140164545
 40
0.4445303498
 40
0.4749582356
 40
0.5053221517
 40
0.535643858
 40
0.5659453268
 40
0.5962489371
 40
0.6265767411
 40
0.6569513302
 40
0.6873950718
 40
0.7179299992
 40
0.7485780171
 40
0.779360134
 40
0.8102960954
 40
0.8414042532
 40
0.8727009667
 40
0.9041999554
 40
0.9359118588
 40
0.9678440655
 40
1.0
 40
1.0
 40
1.0
 40
1.0
 10
12.1643681832
 20
6.820703519
 30
0.0
 10
12.1560844583
 20
6.8224477105
 30
0.0
 10
12.1396257743
 20
6.8261084388
 30
0.0
 10
12.1071810139
 20
6.8341272107
 30
0.0
 10
12.0675308449
 20
6.8454607352
 30
0.0
 10
12.028857327
 20
6.8587141776
 30
0.0
 10
11.9987853188
 20
6.8704429984
 30
0.0
 10
11.969504511
 20
6.8828413031
 30
0.0
 10
11.9339425186
 20
6.8997945065
 30
0.0
 10
11.8997140446
 20
6.918863801
 30
0.0
 10
11.8733539206
 20
6.935362732
 30
0.0
 10
11.8541378556
 20
6.9483482954
 30
0.0
 10
11.835457042
 20
6.9619826088
 30
0.0
 10
11.8173368472
 20
6.9762757906
 30
0.0
 10
11.7998059963
 20
6.9912372371
 30
0.0
 10
11.7828958918
 20
7.0068749364
 30
0.0
 10
11.7666409138
 20
7.0231952973
 30
0.0
 10
11.7510782635
 20
7.0402027837
 30
0.0
 10
11.7362478024
 20
7.057899251
 30
0.0
 10
11.7221920243
 20
7.0762836839
 30
0.0
 10
11.7089555292
 20
7.095351381
 30
0.0
 10
11.6965848526
 20
7.1150935584
 30
0.0
 10
11.6851278883
 20
7.1354966715
 30
0.0
 10
11.6746330744
 20
7.1565417026
 30
0.0
 10
11.6651487655
 20
7.1782037795
 30
0.0
 10
11.6567223081
 20
7.2004517462
 30
0.0
 10
11.6493987773
 20
7.2232476177
 30
0.0
 10
11.6432198216
 20
7.246546914
 30
0.0
 10
11.6382227788
 20
7.2702974659
 30
0.0
 10
11.6357089038
 20
7.2863398291
 30
0.0
 10
11.634656263
 20
7.2944145945
 30
0.0
  0
SPLINE
  5
368
100
AcDbEntity
  8
0
100
AcDbSpline
 62
7
  6
CONTINUOUS
 70
0
 71
3
 72
51
 73
47
 74
0
 42
0.0000001
 43
0.0000001
 44
0.0000000001
 40
0.0
 40
0.0
 40
0.0
 40
0.0
 40
0.0149716491
 40
0.0299463579
 40
0.0449271649
 40
0.0599170755
 40
0.0749190358
 40
0.0899359201
 40
0.1049705142
 40
0.1200254921
 40
0.1351034104
 40
0.150206685
 40
0.16533758
 40
0.1804982002
 40
0.1956904684
 40
0.2109161278
 40
0.2261767248
 40
0.2414736015
 40
0.2568078978
 40
0.2721805325
 40
0.2875922139
 40
0.3030434288
 40
0.3185344409
 40
0.3340653005
 40
0.3496358313
 40
0.365245647
 40
0.396575363
 40
0.4280524198
 40
0.4596664386
 40
0.4914041857
 40
0.523249879
 40
0.5551855359
 40
0.5871913555
 40
0.61924613
 40
0.6513276757
 40
0.6834132767
 40
0.7154801359
 40
0.7475058287
 40
0.7794687512
 40
0.8113485552
 40
0.843126567
 40
0.8747861806
 40
0.9063132067
 40
0.9376963039
 40
0.9689267485
 40
1.0
 40
1.0
 40
1.0
 40
1.0
 10
8.1408086842
 20
7.3381470014
 30
0.0
 10
8.1466405096
 20
7.3437801088
 30
0.0
 10
8.1585306429
 20
7.3548168986
 30
0.0
 10
8.1770116695
 20
7.3706519473
 30
0.0
 10
8.1961149312
 20
7.3857470737
 30
0.0
 10
8.2158138025
 20
7.40008113
 30
0.0
 10
8.2360813226
 20
7.4136344047
 30
0.0
 10
8.2568894631
 20
7.4263883939
 30
0.0
 10
8.2782097056
 20
7.4383253785
 30
0.0
 10
8.3000126268
 20
7.4494290709
 30
0.0
 10
8.3222682365
 20
7.459684188
 30
0.0
 10
8.3449459481
 20
7.469076527
 30
0.0
 10
8.3680144794
 20
7.4775933675
 30
0.0
 10
8.3914421603
 20
7.4852228097
 30
0.0
 10
8.4151967071
 20
7.4919545056
 30
0.0
 10
8.4392454442
 20
7.4977792061
 30
0.0
 10
8.4635553089
 20
7.5026887952
 30
0.0
 10
8.4880928201
 20
7.5066767404
 30
0.0
 10
8.5128242573
 20
7.5097373739
 30
0.0
 10
8.5377155816
 20
7.5118666312
 30
0.0
 10
8.5627325647
 20
7.5130616097
 30
0.0
 10
8.5878407932
 20
7.5133205534
 30
0.0
 10
8.6130057674
 20
7.5126433265
 30
0.0
 10
8.6381927663
 20
7.5110307069
 30
0.0
 10
8.6633675758
 20
7.5084849524
 30
0.0
 10
8.6969079288
 20
7.5038462971
 30
0.0
 10
8.7386338146
 20
7.4957263442
 30
0.0
 10
8.7880329033
 20
7.4823498387
 30
0.0
 10
8.8365583243
 20
7.4654017303
 30
0.0
 10
8.8839419169
 20
7.4449757327
 30
0.0
 10
8.9299241358
 20
7.4211842865
 30
0.0
 10
8.9742525214
 20
7.3941582784
 30
0.0
 10
9.0166838931
 20
7.3640462973
 30
0.0
 10
9.0569854432
 20
7.3310138076
 30
0.0
 10
9.0949360336
 20
7.2952422139
 30
0.0
 10
9.1303273839
 20
7.256927887
 30
0.0
 10
9.1629651922
 20
7.2162810915
 30
0.0
 10
9.1926702551
 20
7.1735248959
 30
0.0
 10
9.2192794052
 20
7.1288939202
 30
0.0
 10
9.2426463784
 20
7.0826330461
 30
0.0
 10
9.2626426199
 20
7.0349961291
 30
0.0
 10
9.2791579616
 20
6.9862445139
 30
0.0
 10
9.2921013796
 20
6.936646039
 30
0.0
 10
9.3014012136
 20
6.8864721374
 30
0.0
 10
9.3070060822
 20
6.8360018725
 30
0.0
 10
9.3082614303
 20
6.8022473043
 30
0.0
 10
9.3082614303
 20
6.7854190604
 30
0.0
  0
SPLINE
  5
369
100
AcDbEntity
  8
0
100
AcDbSpline
 62
7
  6
CONTINUOUS
 70
0
 71
3
 72
25
 73
21
 74
0
 42
0.0000001
 43
0.0000001
 44
0.0000000001
 40
0.0
 40
0.0
 40
0.0
 40
0.0
 40
0.0617095319
 40
0.0925734525
 40
0.1234452711
 40
0.1852179107
 40
0.2470530079
 40
0.3089703872
 40
0.3709890414
 40
0.4331269412
 40
0.4954008557
 40
0.5578261871
 40
0.6204168633
 40
0.6831851338
 40
0.7146416333
 40
0.746146383
 40
0.80929992
 40
0.8726563647
 40
0.9362235836
 40
1.0
 40
1.0
 40
1.0
 40
1.0
 10
9.1176223842
 20
6.3268751051
 30
0.0
 10
9.125170886
 20
6.3341663936
 30
0.0
 10
9.1362160257
 20
6.3453986352
 30
0.0
 10
9.1503487938
 20
6.3609257806
 30
0.0
 10
9.1640852108
 20
6.3768194057
 30
0.0
 10
9.1804934934
 20
6.3973536545
 30
0.0
 10
9.1989078664
 20
6.4229914966
 30
0.0
 10
9.2160094224
 20
6.4495732441
 30
0.0
 10
9.2317584274
 20
6.4770371921
 30
0.0
 10
9.2461186768
 20
6.5053201039
 30
0.0
 10
9.2590570347
 20
6.5343566904
 30
0.0
 10
9.2705438053
 20
6.5640800891
 30
0.0
 10
9.2805524493
 20
6.5944212726
 30
0.0
 10
9.2876372699
 20
6.6201448695
 30
0.0
 10
9.292545692
 20
6.6409585235
 30
0.0
 10
9.2969519167
 20
6.6619512295
 30
0.0
 10
9.3014976839
 20
6.68844931
 30
0.0
 10
9.3053990697
 20
6.7205520889
 30
0.0
 10
9.3077422727
 20
6.752911764
 30
0.0
 10
9.3082614303
 20
6.7745726545
 30
0.0
 10
9.3082614303
 20
6.7854190604
 30
0.0
  0
SPLINE
  5
36A
100
AcDbEntity
  8
0
100
AcDbSpline
 62
7
  6
CONTINUOUS
 70
0
 71
3
 72
15
 73
11
 74
0
 42
0.0000001
 43
0.0000001
 44
0.0000000001
 40
0.0
 40
0.0
 40
0.0
 40
0.0
 40
0.1240755035
 40
0.2485008669
 40
0.3732373705
 40
0.4982425454
 40
0.6234707076
 40
0.7488735194
 40
0.8744005746
 40
1.0
 40
1.0
 40
1.0
 40
1.0
 10
9.2699628431
 20
7.0115096708
 30
0.0
 10
9.2578284922
 20
7.0159746537
 30
0.0
 10
9.2337657553
 20
7.0255858461
 30
0.0
 10
9.1984678459
 20
7.0419645042
 30
0.0
 10
9.1640215177
 20
7.0602752933
 30
0.0
 10
9.1305402757
 20
7.0804580083
 30
0.0
 10
9.0981327557
 20
7.1024469715
 30
0.0
 10
9.0669042339
 20
7.1261707997
 30
0.0
 10
9.0369573491
 20
7.1515512374
 30
0.0
 10
9.0179123686
 20
7.1695207224
 30
0.0
 10
9.008634984
 20
7.1787533029
 30
0.0
  0
SPLINE
  5
36B
100
AcDbEntity
  8
0
100
AcDbSpline
 62
7
  6
CONTINUOUS
 70
0
 71
3
 72
29
 73
25
 74
0
 42
0.0000001
 43
0.0000001
 44
0.0000000001
 40
0.0
 40
0.0
 40
0.0
 40
0.0
 40
0.0196973804
 40
0.0393720073
 40
0.0591446036
 40
0.0791330986
 40
0.0994494491
 40
0.1202006331
 40
0.141486314
 40
0.1633966795
 40
0.2093886544
 40
0.23363794
 40
0.258795086
 40
0.2849129717
 40
0.3120368658
 40
0.3694437861
 40
0.4313023325
 40
0.4978150675
 40
0.569130158
 40
0.6453503758
 40
0.7265394475
 40
0.8127234365
 40
0.903891871
 40
1.0
 40
1.0
 40
1.0
 40
1.0
 10
11.4467069584
 20
7.1963093941
 30
0.0
 10
11.445853823
 20
7.1963685949
 30
0.0
 10
11.4441527388
 20
7.1965616206
 30
0.0
 10
11.4416337337
 20
7.1970762516
 30
0.0
 10
11.4391576853
 20
7.1978147861
 30
0.0
 10
11.4367296165
 20
7.1987764273
 30
0.0
 10
11.4343542814
 20
7.1999601645
 30
0.0
 10
11.432036679
 20
7.2013648913
 30
0.0
 10
11.4297817034
 20
7.202989478
 30
0.0
 10
11.4268182323
 20
7.2054864826
 30
0.0
 10
11.4240499013
 20
7.208395786
 30
0.0
 10
11.4214929755
 20
7.211656299
 30
0.0
 10
11.4196301656
 20
7.2143573803
 30
0.0
 10
11.4178625145
 20
7.2172682851
 30
0.0
 10
11.4155971533
 20
7.2215069052
 30
0.0
 10
11.4130506203
 20
7.2273427034
 30
0.0
 10
11.4105271341
 20
7.2350143693
 30
0.0
 10
11.4085273931
 20
7.2434602561
 30
0.0
 10
11.4070997718
 20
7.2526519778
 30
0.0
 10
11.406291744
 20
7.2625576075
 30
0.0
 10
11.4061496877
 20
7.2731402005
 30
0.0
 10
11.4067177601
 20
7.2843580629
 30
0.0
 10
11.4080366807
 20
7.2961638895
 30
0.0
 10
11.4094054947
 20
7.3041838725
 30
0.0
 10
11.4102182233
 20
7.3082766152
 30
0.0
  0
SPLINE
  5
36C
100
AcDbEntity
  8
0
100
AcDbSpline
 62
7
  6
CONTINUOUS
 70
0
 71
3
 72
36
 73
32
 74
0
 42
0.0000001
 43
0.0000001
 44
0.0000000001
 40
0.0
 40
0.0
 40
0.0
 40
0.0
 40
0.0162143048
 40
0.0334273363
 40
0.0516716556
 40
0.0709707163
 40
0.0913401979
 40
0.1127892156
 40
0.13532147
 40
0.1589357362
 40
0.1836268569
 40
0.2093859311
 40
0.236200954
 40
0.2640570993
 40
0.2929369
 40
0.3228207324
 40
0.3536866939
 40
0.3855111001
 40
0.4182683916
 40
0.4519313784
 40
0.4864713931
 40
0.5218582276
 40
0.5580604815
 40
0.5950453717
 40
0.6327790535
 40
0.6712265605
 40
0.7103518611
 40
0.7501180517
 40
0.8314202535
 40
0.9148215003
 40
1.0
 40
1.0
 40
1.0
 40
1.0
 10
15.0794867296
 20
6.4077283196
 30
0.0
 10
15.0771573822
 20
6.410592372
 30
0.0
 10
15.0725512623
 20
6.416658208
 30
0.0
 10
15.065982455
 20
6.4264246372
 30
0.0
 10
15.0595580101
 20
6.4371146336
 30
0.0
 10
15.0532845901
 20
6.4487169098
 30
0.0
 10
15.0471682592
 20
6.4612198578
 30
0.0
 10
15.0412151793
 20
6.4746106566
 30
0.0
 10
15.0354315432
 20
6.4888755935
 30
0.0
 10
15.0298232398
 20
6.503999907
 30
0.0
 10
15.0243962287
 20
6.5199679356
 30
0.0
 10
15.0191561426
 20
6.5367630478
 30
0.0
 10
15.0141085234
 20
6.5543677229
 30
0.0
 10
15.0092587317
 20
6.5727635541
 30
0.0
 10
15.0046118316
 20
6.5919312684
 30
0.0
 10
15.0001728325
 20
6.6118507699
 30
0.0
 10
14.9959463524
 20
6.6325011421
 30
0.0
 10
14.9919369362
 20
6.653860691
 30
0.0
 10
14.9881488071
 20
6.6759069607
 30
0.0
 10
14.9845859718
 20
6.6986167632
 30
0.0
 10
14.9812522556
 20
6.7219662019
 30
0.0
 10
14.9781511258
 20
6.7459307027
 30
0.0
 10
14.9752859461
 20
6.7704850316
 30
0.0
 10
14.9726596939
 20
6.7956033348
 30
0.0
 10
14.9702751881
 20
6.821259158
 30
0.0
 10
14.968134964
 20
6.8474254678
 30
0.0
 10
14.966241238
 20
6.8740747215
 30
0.0
 10
14.9640315288
 20
6.9104814321
 30
0.0
 10
14.9619126366
 20
6.9569904589
 30
0.0
 10
14.9603968857
 20
7.0138667901
 30
0.0
 10
14.960066425
 20
7.052250278
 30
0.0
 10
14.960066425
 20
7.0716438659
 30
0.0
  0
SPLINE
  5
36D
100
AcDbEntity
  8
0
100
AcDbSpline
 62
7
  6
CONTINUOUS
 70
0
 71
3
 72
11
 73
7
 74
0
 42
0.0000001
 43
0.0000001
 44
0.0000000001
 40
0.0
 40
0.0
 40
0.0
 40
0.0
 40
0.2579081487
 40
0.5091047379
 40
0.7557164262
 40
1.0
 40
1.0
 40
1.0
 40
1.0
 10
15.0489177627
 20
6.457630828
 30
0.0
 10
15.0506413828
 20
6.4567873491
 30
0.0
 10
15.0541180812
 20
6.4552684595
 30
0.0
 10
15.0594661602
 20
6.4535054007
 30
0.0
 10
15.0648622045
 20
6.4522947406
 30
0.0
 10
15.0684956861
 20
6.4518565319
 30
0.0
 10
15.0703088974
 20
6.4517307935
 30
0.0
  0
SPLINE
  5
36E
100
AcDbEntity
  8
0
100
AcDbSpline
 62
7
  6
CONTINUOUS
 70
0
 71
3
 72
22
 73
18
 74
0
 42
0.0000001
 43
0.0000001
 44
0.0000000001
 40
0.0
 40
0.0
 40
0.0
 40
0.0
 40
0.0512411137
 40
0.1045117904
 40
0.1596849865
 40
0.2166398151
 40
0.3354185705
 40
0.3970473636
 40
0.4600238878
 40
0.5242464829
 40
0.5896135309
 40
0.6560223806
 40
0.7233686981
 40
0.7915463982
 40
0.860448393
 40
0.9299676323
 40
1.0
 40
1.0
 40
1.0
 40
1.0
 10
12.0858430767
 20
9.6655781283
 30
0.0
 10
12.0818507989
 20
9.658196728
 30
0.0
 10
12.0739345215
 20
9.6430178502
 30
0.0
 10
12.0625556071
 20
9.6194668072
 30
0.0
 10
12.0515560596
 20
9.5947071135
 30
0.0
 10
12.0373709305
 20
9.5596467995
 30
0.0
 10
12.0247344762
 20
9.522838838
 30
0.0
 10
12.0140034364
 20
9.4844421105
 30
0.0
 10
12.0069173437
 20
9.4543301314
 30
0.0
 10
12.0010360609
 20
9.4233358628
 30
0.0
 10
11.9965009627
 20
9.391546827
 30
0.0
 10
11.9934499937
 20
9.3590660269
 30
0.0
 10
11.9920141299
 20
9.3260116982
 30
0.0
 10
11.9923137413
 20
9.2925179344
 30
0.0
 10
11.9944547243
 20
9.2587330841
 30
0.0
 10
11.9985239475
 20
9.2248199622
 30
0.0
 10
12.0025535814
 20
9.2023077004
 30
0.0
 10
12.0049054057
 20
9.1910820698
 30
0.0
  0
SPLINE
  5
36F
100
AcDbEntity
  8
0
100
AcDbSpline
 62
7
  6
CONTINUOUS
 70
0
 71
3
 72
52
 73
48
 74
0
 42
0.0000001
 43
0.0000001
 44
0.0000000001
 40
0.0
 40
0.0
 40
0.0
 40
0.0
 40
0.0063158568
 40
0.0126706178
 40
0.0191024266
 40
0.0256479345
 40
0.0323417789
 40
0.0392160908
 40
0.0536138298
 40
0.0611945069
 40
0.0690562056
 40
0.0772172859
 40
0.0856936163
 40
0.094498959
 40
0.1036450353
 40
0.1131417384
 40
0.1229974561
 40
0.1332190303
 40
0.1438120572
 40
0.1547810415
 40
0.1661293353
 40
0.1778594655
 40
0.1899731041
 40
0.2024710934
 40
0.2153537091
 40
0.2286205088
 40
0.2422704818
 40
0.2563021821
 40
0.2707135511
 40
0.3006644045
 40
0.3320995118
 40
0.364988637
 40
0.399296387
 40
0.4349827261
 40
0.4720035166
 40
0.5103109065
 40
0.549853604
 40
0.5905771631
 40
0.632424299
 40
0.6753351168
 40
0.7192472758
 40
0.7640961515
 40
0.8098152405
 40
0.8563361104
 40
0.9035880427
 40
0.9515014724
 40
1.0
 40
1.0
 40
1.0
 40
1.0
 10
14.7935667866
 20
7.911891797
 30
0.0
 10
14.791876598
 20
7.9120090079
 30
0.0
 10
14.7884937952
 20
7.91238248
 30
0.0
 10
14.7834574946
 20
7.9133559737
 30
0.0
 10
14.7784548721
 20
7.9147427658
 30
0.0
 10
14.7734888208
 20
7.9165416504
 30
0.0
 10
14.768561322
 20
7.9187516907
 30
0.0
 10
14.7619450136
 20
7.9222983618
 30
0.0
 10
14.7555083684
 20
7.9266400155
 30
0.0
 10
14.749279347
 20
7.9316713316
 30
0.0
 10
14.7445743197
 20
7.9359133176
 30
0.0
 10
14.739919567
 20
7.9405562108
 30
0.0
 10
14.7353161874
 20
7.9455982968
 30
0.0
 10
14.7307661185
 20
7.9510374488
 30
0.0
 10
14.7262710244
 20
7.9568714441
 30
0.0
 10
14.7218325824
 20
7.9630978651
 30
0.0
 10
14.7174526053
 20
7.9697142456
 30
0.0
 10
14.7131327462
 20
7.9767178589
 30
0.0
 10
14.7088747182
 20
7.9841058702
 30
0.0
 10
14.7046802916
 20
7.9918753117
 30
0.0
 10
14.7005510683
 20
8.0000229843
 30
0.0
 10
14.6964887713
 20
8.008545594
 30
0.0
 10
14.692495067
 20
8.0174396678
 30
0.0
 10
14.6885715193
 20
8.0267015508
 30
0.0
 10
14.6847198106
 20
8.0363274801
 30
0.0
 10
14.6809414817
 20
8.0463135007
 30
0.0
 10
14.6772380692
 20
8.0566555105
 30
0.0
 10
14.6736111387
 20
8.0673492988
 30
0.0
 10
14.6688175493
 20
8.0822627416
 30
0.0
 10
14.6630416467
 20
8.1017612568
 30
0.0
 10
14.6565245604
 20
8.1261995384
 30
0.0
 10
14.6503463398
 20
8.1519290429
 30
0.0
 10
14.6445172563
 20
8.1789074339
 30
0.0
 10
14.6390469943
 20
8.2070904975
 30
0.0
 10
14.6339446646
 20
8.2364319121
 30
0.0
 10
14.6292187847
 20
8.2668834371
 30
0.0
 10
14.6248772331
 20
8.2983949518
 30
0.0
 10
14.6209272271
 20
8.3309145527
 30
0.0
 10
14.6173753508
 20
8.3643886608
 30
0.0
 10
14.6142275409
 20
8.3987621142
 30
0.0
 10
14.6114890417
 20
8.4339782342
 30
0.0
 10
14.6091643994
 20
8.4699789572
 30
0.0
 10
14.6072575005
 20
8.5067049239
 30
0.0
 10
14.6057715583
 20
8.5440954242
 30
0.0
 10
14.6047089885
 20
8.5820891943
 30
0.0
 10
14.6040716703
 20
8.620622981
 30
0.0
 10
14.6039317156
 20
8.6464860205
 30
0.0
 10
14.6039317156
 20
8.659495899
 30
0.0
  0
SPLINE
  5
370
100
AcDbEntity
  8
0
100
AcDbSpline
 62
7
  6
CONTINUOUS
 70
0
 71
3
 72
72
 73
68
 74
0
 42
0.0000001
 43
0.0000001
 44
0.0000000001
 40
0.0
 40
0.0
 40
0.0
 40
0.0
 40
0.0028080269
 40
0.0056357484
 40
0.0085023994
 40
0.0114263655
 40
0.0144248954
 40
0.0175138142
 40
0.0240150992
 40
0.0274548856
 40
0.0310331103
 40
0.0347582228
 40
0.038637415
 40
0.0426767077
 40
0.046881194
 40
0.0512550823
 40
0.0558017079
 40
0.0605237694
 40
0.0654233748
 40
0.075759731
 40
0.0868182127
 40
0.098598601
 40
0.1110954766
 40
0.1242989573
 40
0.1381953061
 40
0.1527676484
 40
0.1679961539
 40
0.1838584729
 40
0.2003300721
 40
0.2173842617
 40
0.2349925857
 40
0.2531249162
 40
0.2717495282
 40
0.2908334012
 40
0.3103422029
 40
0.3302404582
 40
0.3504917274
 40
0.3710585926
 40
0.4129848783
 40
0.4557069026
 40
0.4989035052
 40
0.542248869
 40
0.5854157291
 40
0.6280785651
 40
0.6699167822
 40
0.690429054
 40
0.7106188507
 40
0.7304489648
 40
0.7498830569
 40
0.7688859026
 40
0.7874234007
 40
0.8054626957
 40
0.82297243
 40
0.8399227074
 40
0.8562853711
 40
0.8720341902
 40
0.8871449021
 40
0.9015956586
 40
0.9153671668
 40
0.9284429885
 40
0.9408101529
 40
0.9524594887
 40
0.9633864448
 40
0.9735918993
 40
0.9830834872
 40
0.9918777842
 40
1.0
 40
1.0
 40
1.0
 40
1.0
 10
6.9571950645
 20
10.6719634153
 30
0.0
 10
6.9571950711
 20
10.6712951383
 30
0.0
 10
6.9572535959
 20
10.669953174
 30
0.0
 10
6.9575166083
 20
10.66794449
 30
0.0
 10
6.9579545776
 20
10.6659382612
 30
0.0
 10
6.9585670358
 20
10.663935906
 30
0.0
 10
6.9593535707
 20
10.6619384309
 30
0.0
 10
6.9606553113
 20
10.6592375798
 30
0.0
 10
6.9622948288
 20
10.6565931703
 30
0.0
 10
6.9642256284
 20
10.6540182158
 30
0.0
 10
6.9658714754
 20
10.6520598641
 30
0.0
 10
6.9676866315
 20
10.6501122389
 30
0.0
 10
6.9696703097
 20
10.6481760022
 30
0.0
 10
6.9718214147
 20
10.6462520699
 30
0.0
 10
6.9741389114
 20
10.6443413538
 30
0.0
 10
6.9766216602
 20
10.6424447931
 30
0.0
 10
6.9792683842
 20
10.6405632561
 30
0.0
 10
6.9820777867
 20
10.6386976454
 30
0.0
 10
6.9861109885
 20
10.6361878432
 30
0.0
 10
6.991560159
 20
10.6331049032
 30
0.0
 10
6.9986111512
 20
10.629547044
 30
0.0
 10
7.0062725717
 20
10.6260744453
 30
0.0
 10
7.0145291583
 20
10.6226941101
 30
0.0
 10
7.0233646138
 20
10.6194128212
 30
0.0
 10
7.0327612987
 20
10.6162371608
 30
0.0
 10
7.0427004304
 20
10.6131736307
 30
0.0
 10
7.0531620537
 20
10.6102284305
 30
0.0
 10
7.0641251277
 20
10.6074075368
 30
0.0
 10
7.0755675788
 20
10.6047167478
 30
0.0
 10
7.0874663261
 20
10.6021614933
 30
0.0
 10
7.099797357
 20
10.5997469962
 30
0.0
 10
7.1125357724
 20
10.5974781989
 30
0.0
 10
7.1256558309
 20
10.5953596737
 30
0.0
 10
7.1391310163
 20
10.5933957748
 30
0.0
 10
7.1529340865
 20
10.5915904888
 30
0.0
 10
7.1670371211
 20
10.5899474686
 30
0.0
 10
7.1814116219
 20
10.5884700815
 30
0.0
 10
7.2010258151
 20
10.5867139404
 30
0.0
 10
7.2260071444
 20
10.5849602934
 30
0.0
 10
7.2564036215
 20
10.5835674268
 30
0.0
 10
7.2871621646
 20
10.5828844951
 30
0.0
 10
7.3180340675
 20
10.5829170812
 30
0.0
 10
7.3487699364
 20
10.5836649025
 30
0.0
 10
7.3791212484
 20
10.5851218438
 30
0.0
 10
7.4040506592
 20
10.5869284514
 30
0.0
 10
7.4236122858
 20
10.5887263682
 30
0.0
 10
7.4379395549
 20
10.5902341374
 30
0.0
 10
7.4519901274
 20
10.5919069099
 30
0.0
 10
7.4657356079
 20
10.5937413518
 30
0.0
 10
7.479148198
 20
10.5957336843
 30
0.0
 10
7.4922007824
 20
10.5978798595
 30
0.0
 10
7.5048669782
 20
10.6001755393
 30
0.0
 10
7.5171212004
 20
10.6026159988
 30
0.0
 10
7.5289387008
 20
10.6051963032
 30
0.0
 10
7.5402956326
 20
10.6079111971
 30
0.0
 10
7.5511691039
 20
10.6107551099
 30
0.0
 10
7.5615372097
 20
10.6137223068
 30
0.0
 10
7.5713791126
 20
10.6168067113
 30
0.0
 10
7.5806750748
 20
10.6200020443
 30
0.0
 10
7.5894064897
 20
10.6233018827
 30
0.0
 10
7.5975559939
 20
10.6266994945
 30
0.0
 10
7.6051074537
 20
10.630188101
 30
0.0
 10
7.6120460213
 20
10.6337608369
 30
0.0
 10
7.6183582153
 20
10.6374106057
 30
0.0
 10
7.6240321761
 20
10.6411308332
 30
0.0
 10
7.6290564295
 20
10.6449143418
 30
0.0
 10
7.6320832405
 20
10.6475772843
 30
0.0
 10
7.6334735529
 20
10.6489202231
 30
0.0
  0
SPLINE
  5
371
100
AcDbEntity
  8
0
100
AcDbSpline
 62
7
  6
CONTINUOUS
 70
0
 71
3
 72
72
 73
68
 74
0
 42
0.0000001
 43
0.0000001
 44
0.0000000001
 40
0.0
 40
0.0
 40
0.0
 40
0.0
 40
0.0028080269
 40
0.0056357484
 40
0.0085023994
 40
0.0114263655
 40
0.0144248954
 40
0.0175138142
 40
0.0240150992
 40
0.0274548856
 40
0.0310331103
 40
0.0347582228
 40
0.038637415
 40
0.0426767077
 40
0.046881194
 40
0.0512550823
 40
0.0558017079
 40
0.0605237694
 40
0.0654233748
 40
0.075759731
 40
0.0868182127
 40
0.098598601
 40
0.1110954766
 40
0.1242989573
 40
0.1381953061
 40
0.1527676484
 40
0.1679961539
 40
0.1838584729
 40
0.2003300721
 40
0.2173842617
 40
0.2349925857
 40
0.2531249162
 40
0.2717495282
 40
0.2908334012
 40
0.3103422029
 40
0.3302404582
 40
0.3504917274
 40
0.3710585926
 40
0.4129848783
 40
0.4557069026
 40
0.4989035052
 40
0.542248869
 40
0.5854157291
 40
0.6280785651
 40
0.6699167822
 40
0.690429054
 40
0.7106188507
 40
0.7304489648
 40
0.7498830569
 40
0.7688859026
 40
0.7874234007
 40
0.8054626957
 40
0.82297243
 40
0.8399227074
 40
0.8562853711
 40
0.8720341902
 40
0.8871449021
 40
0.9015956586
 40
0.9153671668
 40
0.9284429885
 40
0.9408101529
 40
0.9524594887
 40
0.9633864448
 40
0.9735918993
 40
0.9830834872
 40
0.9918777842
 40
1.0
 40
1.0
 40
1.0
 40
1.0
 10
13.4791265476
 20
10.2196659307
 30
0.0
 10
13.4791265542
 20
10.2189976537
 30
0.0
 10
13.479185079
 20
10.2176556894
 30
0.0
 10
13.4794480914
 20
10.2156470055
 30
0.0
 10
13.4798860607
 20
10.2136407766
 30
0.0
 10
13.4804985189
 20
10.2116384215
 30
0.0
 10
13.4812850537
 20
10.2096409463
 30
0.0
 10
13.4825867944
 20
10.2069400953
 30
0.0
 10
13.4842263119
 20
10.2042956858
 30
0.0
 10
13.4861571115
 20
10.2017207312
 30
0.0
 10
13.4878029585
 20
10.1997623796
 30
0.0
 10
13.4896181146
 20
10.1978147544
 30
0.0
 10
13.4916017928
 20
10.1958785176
 30
0.0
 10
13.4937528978
 20
10.1939545853
 30
0.0
 10
13.4960703945
 20
10.1920438692
 30
0.0
 10
13.4985531433
 20
10.1901473085
 30
0.0
 10
13.5011998673
 20
10.1882657715
 30
0.0
 10
13.5040092698
 20
10.1864001608
 30
0.0
 10
13.5080424716
 20
10.1838903586
 30
0.0
 10
13.5134916421
 20
10.1808074187
 30
0.0
 10
13.5205426343
 20
10.1772495594
 30
0.0
 10
13.5282040548
 20
10.1737769607
 30
0.0
 10
13.5364606414
 20
10.1703966256
 30
0.0
 10
13.5452960969
 20
10.1671153367
 30
0.0
 10
13.5546927818
 20
10.1639396763
 30
0.0
 10
13.5646319135
 20
10.1608761461
 30
0.0
 10
13.5750935367
 20
10.1579309459
 30
0.0
 10
13.5860566108
 20
10.1551100522
 30
0.0
 10
13.5974990619
 20
10.1524192632
 30
0.0
 10
13.6093978092
 20
10.1498640087
 30
0.0
 10
13.6217288401
 20
10.1474495116
 30
0.0
 10
13.6344672555
 20
10.1451807143
 30
0.0
 10
13.647587314
 20
10.1430621892
 30
0.0
 10
13.6610624994
 20
10.1410982902
 30
0.0
 10
13.6748655696
 20
10.1392930042
 30
0.0
 10
13.6889686042
 20
10.137649984
 30
0.0
 10
13.7033431049
 20
10.1361725969
 30
0.0
 10
13.7229572982
 20
10.1344164558
 30
0.0
 10
13.7479386275
 20
10.1326628088
 30
0.0
 10
13.7783351046
 20
10.1312699422
 30
0.0
 10
13.8090936477
 20
10.1305870105
 30
0.0
 10
13.8399655506
 20
10.1306195966
 30
0.0
 10
13.8707014195
 20
10.1313674179
 30
0.0
 10
13.9010527315
 20
10.1328243593
 30
0.0
 10
13.9259821423
 20
10.1346309669
 30
0.0
 10
13.9455437689
 20
10.1364288837
 30
0.0
 10
13.959871038
 20
10.1379366528
 30
0.0
 10
13.9739216105
 20
10.1396094254
 30
0.0
 10
13.987667091
 20
10.1414438672
 30
0.0
 10
14.0010796811
 20
10.1434361997
 30
0.0
 10
14.0141322655
 20
10.145582375
 30
0.0
 10
14.0267984613
 20
10.1478780547
 30
0.0
 10
14.0390526835
 20
10.1503185142
 30
0.0
 10
14.0508701839
 20
10.1528988186
 30
0.0
 10
14.0622271157
 20
10.1556137125
 30
0.0
 10
14.073100587
 20
10.1584576253
 30
0.0
 10
14.0834686928
 20
10.1614248222
 30
0.0
 10
14.0933105957
 20
10.1645092267
 30
0.0
 10
14.1026065579
 20
10.1677045598
 30
0.0
 10
14.1113379728
 20
10.1710043981
 30
0.0
 10
14.119487477
 20
10.1744020099
 30
0.0
 10
14.1270389368
 20
10.1778906164
 30
0.0
 10
14.1339775044
 20
10.1814633524
 30
0.0
 10
14.1402896984
 20
10.1851131211
 30
0.0
 10
14.1459636592
 20
10.1888333486
 30
0.0
 10
14.1509879126
 20
10.1926168572
 30
0.0
 10
14.1540147236
 20
10.1952797997
 30
0.0
 10
14.155405036
 20
10.1966227385
 30
0.0
  0
SPLINE
  5
372
100
AcDbEntity
  8
0
100
AcDbSpline
 62
7
  6
CONTINUOUS
 70
0
 71
3
 72
23
 73
19
 74
0
 42
0.0000001
 43
0.0000001
 44
0.0000000001
 40
0.0
 40
0.0
 40
0.0
 40
0.0
 40
0.0638331446
 40
0.1275096372
 40
0.1910155915
 40
0.2543473692
 40
0.3174984211
 40
0.380464303
 40
0.4432421935
 40
0.5058304499
 40
0.5682289578
 40
0.6304390646
 40
0.6924635639
 40
0.7543066987
 40
0.8159741545
 40
0.8774730187
 40
0.9388117242
 40
1.0
 40
1.0
 40
1.0
 40
1.0
 10
12.0049054057
 20
9.1910820698
 30
0.0
 10
12.0017402152
 20
9.2004824316
 30
0.0
 10
11.9958103457
 20
9.2193950199
 30
0.0
 10
11.9881293649
 20
9.2480742854
 30
0.0
 10
11.9816871115
 20
9.2769777665
 30
0.0
 10
11.976496014
 20
9.3060489419
 30
0.0
 10
11.9725660713
 20
9.3352327333
 30
0.0
 10
11.9699048082
 20
9.364473088
 30
0.0
 10
11.9685173313
 20
9.3937140332
 30
0.0
 10
11.968406432
 20
9.4228995878
 30
0.0
 10
11.9695723228
 20
9.4519738435
 30
0.0
 10
11.972012775
 20
9.4808811185
 30
0.0
 10
11.9757231879
 20
9.5095660345
 30
0.0
 10
11.980696561
 20
9.5379736387
 30
0.0
 10
11.9869233194
 20
9.5660494578
 30
0.0
 10
11.9943916466
 20
9.5937398949
 30
0.0
 10
12.0030870295
 20
9.6209911339
 30
0.0
 10
12.009699383
 20
9.6388536813
 30
0.0
 10
12.0132039936
 20
9.6476921674
 30
0.0
  0
SPLINE
  5
373
100
AcDbEntity
  8
0
100
AcDbSpline
 62
7
  6
CONTINUOUS
 70
0
 71
3
 72
73
 73
69
 74
0
 42
0.0000001
 43
0.0000001
 44
0.0000000001
 40
0.0
 40
0.0
 40
0.0
 40
0.0
 40
0.0155842187
 40
0.0233573351
 40
0.0311170504
 40
0.0465963334
 40
0.0620249262
 40
0.0697213
 40
0.077405684
 40
0.0927384813
 40
0.1080272848
 40
0.1232752985
 40
0.1384861436
 40
0.1536638274
 40
0.1688127039
 40
0.1839374303
 40
0.1990429191
 40
0.2141342867
 40
0.2292168003
 40
0.2442958215
 40
0.2593767492
 40
0.2744649624
 40
0.289565762
 40
0.3046843148
 40
0.3198255988
 40
0.3349943509
 40
0.3501950187
 40
0.3654317152
 40
0.3807081792
 40
0.3960277389
 40
0.4113932814
 40
0.4268072272
 40
0.4422715102
 40
0.4577875624
 40
0.4733563058
 40
0.4889781483
 40
0.504652985
 40
0.5203802045
 40
0.5361586996
 40
0.551986882
 40
0.5678627018
 40
0.5837836705
 40
0.5997468881
 40
0.6157490725
 40
0.6317865915
 40
0.6478554975
 40
0.6639515646
 40
0.6800703266
 40
0.6962071184
 40
0.712357117
 40
0.7285153847
 40
0.7446769117
 40
0.7608366596
 40
0.7769896055
 40
0.7931307852
 40
0.8092553375
 40
0.8253585467
 40
0.8414358846
 40
0.8574830507
 40
0.8734960118
 40
0.8894710388
 40
0.9054047423
 40
0.9212941098
 40
0.9371365144
 40
0.9529298298
 40
0.9686721679
 40
0.9843626594
 40
1.0
 40
1.0
 40
1.0
 40
1.0
 10
8.4842608422
 20
9.2153104181
 30
0.0
 10
8.4842608422
 20
9.228878069
 30
0.0
 10
8.4847593438
 20
9.2492177409
 30
0.0
 10
8.4864271997
 20
9.2762589031
 30
0.0
 10
8.4887571015
 20
9.3031599266
 30
0.0
 10
8.4929119528
 20
9.3365815162
 30
0.0
 10
8.4987256914
 20
9.3696991005
 30
0.0
 10
8.5043601399
 20
9.3959258857
 30
0.0
 10
8.5106363232
 20
9.4219206764
 30
0.0
 10
8.5196940487
 20
9.4540325734
 30
0.0
 10
8.5324873708
 20
9.4918800414
 30
0.0
 10
8.5471664541
 20
9.5289233037
 30
0.0
 10
8.5636958548
 20
9.5650724037
 30
0.0
 10
8.5820358186
 20
9.60024032
 30
0.0
 10
8.6021421732
 20
9.6343421772
 30
0.0
 10
8.623966488
 20
9.6672957198
 30
0.0
 10
8.6474561746
 20
9.6990214414
 30
0.0
 10
8.6725546168
 20
9.7294427978
 30
0.0
 10
8.6992013083
 20
9.7584863872
 30
0.0
 10
8.7273319813
 20
9.7860821489
 30
0.0
 10
8.7568787774
 20
9.8121635254
 30
0.0
 10
8.7877704189
 20
9.8366676195
 30
0.0
 10
8.8199323809
 20
9.8595353482
 30
0.0
 10
8.8532870738
 20
9.8807115851
 30
0.0
 10
8.8877540323
 20
9.900145295
 30
0.0
 10
8.9232501129
 20
9.917789652
 30
0.0
 10
8.9596896872
 20
9.933602174
 30
0.0
 10
8.9969848585
 20
9.9475448152
 30
0.0
 10
9.0350456815
 20
9.9595840452
 30
0.0
 10
9.0737803785
 20
9.9696909305
 30
0.0
 10
9.1130955628
 20
9.9778412004
 30
0.0
 10
9.1528964633
 20
9.9840153043
 30
0.0
 10
9.1930871533
 20
9.9881984518
 30
0.0
 10
9.2335707792
 20
9.990380666
 30
0.0
 10
9.2742497978
 20
9.9905568018
 30
0.0
 10
9.315026212
 20
9.9887265393
 30
0.0
 10
9.3558018054
 20
9.9848943867
 30
0.0
 10
9.3964783772
 20
9.9790696658
 30
0.0
 10
9.4369579763
 20
9.9712664894
 30
0.0
 10
9.4771431344
 20
9.9615037224
 30
0.0
 10
9.5169371023
 20
9.949804951
 30
0.0
 10
9.556244085
 20
9.9361984275
 30
0.0
 10
9.5949694668
 20
9.9207169822
 30
0.0
 10
9.6330200373
 20
9.9033979481
 30
0.0
 10
9.6703042137
 20
9.8842830701
 30
0.0
 10
9.7067322591
 20
9.8634184054
 30
0.0
 10
9.7422164955
 20
9.8408542111
 30
0.0
 10
9.7766715184
 20
9.8166448328
 30
0.0
 10
9.8100144095
 20
9.790848582
 30
0.0
 10
9.8421649233
 20
9.7635275761
 30
0.0
 10
9.873045681
 20
9.7347475937
 30
0.0
 10
9.9025823541
 20
9.7045779165
 30
0.0
 10
9.9307038424
 20
9.673091164
 30
0.0
 10
9.9573424426
 20
9.6403631195
 30
0.0
 10
9.9824340154
 20
9.606472553
 30
0.0
 10
10.0059181539
 20
9.5715010409
 30
0.0
 10
10.0277383094
 20
9.5355327544
 30
0.0
 10
10.0478419293
 20
9.4986542614
 30
0.0
 10
10.0661805824
 20
9.4609543192
 30
0.0
 10
10.0827100744
 20
9.4225236626
 30
0.0
 10
10.0973905529
 20
9.3834547889
 30
0.0
 10
10.1101866128
 20
9.3438417329
 30
0.0
 10
10.1210673746
 20
9.3037798681
 30
0.0
 10
10.1300066235
 20
9.2633655848
 30
0.0
 10
10.1369826476
 20
9.2226963647
 30
0.0
 10
10.1419787769
 20
9.1818695689
 30
0.0
 10
10.1449825916
 20
9.1409850618
 30
0.0
 10
10.1456533619
 20
9.1137063545
 30
0.0
 10
10.1456533619
 20
9.1000924555
 30
0.0
  0
SPLINE
  5
374
100
AcDbEntity
  8
0
100
AcDbSpline
 62
7
  6
CONTINUOUS
 70
0
 71
3
 72
25
 73
21
 74
0
 42
0.0000001
 43
0.0000001
 44
0.0000000001
 40
0.0
 40
0.0
 40
0.0
 40
0.0
 40
0.0637764164
 40
0.1273436353
 40
0.19070008
 40
0.253853617
 40
0.2853583667
 40
0.3168148662
 40
0.3795831367
 40
0.4421738129
 40
0.5045991443
 40
0.5668730588
 40
0.6290109586
 40
0.6910296128
 40
0.7529469921
 40
0.8147820893
 40
0.8765547289
 40
0.9074265475
 40
0.9382904681
 40
1.0
 40
1.0
 40
1.0
 40
1.0
 10
10.8479472887
 20
6.6786414835
 30
0.0
 10
10.8479472887
 20
6.6894878894
 30
0.0
 10
10.8484664463
 20
6.7111487799
 30
0.0
 10
10.8508096493
 20
6.743508455
 30
0.0
 10
10.8547110351
 20
6.775611234
 30
0.0
 10
10.8592568023
 20
6.8021093144
 30
0.0
 10
10.863663027
 20
6.8231020204
 30
0.0
 10
10.8685714491
 20
6.8439156744
 30
0.0
 10
10.8756562697
 20
6.8696392713
 30
0.0
 10
10.8856649137
 20
6.8999804548
 30
0.0
 10
10.8971516843
 20
6.9297038535
 30
0.0
 10
10.9100900422
 20
6.95874044
 30
0.0
 10
10.9244502916
 20
6.9870233518
 30
0.0
 10
10.9401992966
 20
7.0144872998
 30
0.0
 10
10.9573008526
 20
7.0410690473
 30
0.0
 10
10.9757152256
 20
7.0667068894
 30
0.0
 10
10.9921235082
 20
7.0872411382
 30
0.0
 10
11.0058599252
 20
7.1031347633
 30
0.0
 10
11.0199926933
 20
7.1186619087
 30
0.0
 10
11.031037833
 20
7.1298941503
 30
0.0
 10
11.0385863348
 20
7.1371854388
 30
0.0
  0
SPLINE
  5
375
100
AcDbEntity
  8
0
100
AcDbSpline
 62
7
  6
CONTINUOUS
 70
0
 71
3
 72
15
 73
11
 74
0
 42
0.0000001
 43
0.0000001
 44
0.0000000001
 40
0.0
 40
0.0
 40
0.0
 40
0.0
 40
0.1265610513
 40
0.2526465849
 40
0.3782613328
 40
0.5034224376
 40
0.6281486758
 40
0.7524658925
 40
0.8764045248
 40
1.0
 40
1.0
 40
1.0
 40
1.0
 10
11.3146322049
 20
7.0514245235
 30
0.0
 10
11.3146322049
 20
7.0624018265
 30
0.0
 10
11.3152302116
 20
7.0843200256
 30
0.0
 10
11.3179304102
 20
7.1170332842
 30
0.0
 10
11.3224243866
 20
7.1494273234
 30
0.0
 10
11.3286986035
 20
7.1814039106
 30
0.0
 10
11.3367345701
 20
7.2128678652
 30
0.0
 10
11.3465084506
 20
7.2437253154
 30
0.0
 10
11.3579905891
 20
7.2738827543
 30
0.0
 10
11.3667740819
 20
7.2934891464
 30
0.0
 10
11.3714375417
 20
7.3031417275
 30
0.0
  0
SPLINE
  5
376
100
AcDbEntity
  8
0
100
AcDbSpline
 62
7
  6
CONTINUOUS
 70
0
 71
3
 72
15
 73
11
 74
0
 42
0.0000001
 43
0.0000001
 44
0.0000000001
 40
0.0
 40
0.0
 40
0.0
 40
0.0
 40
0.12629123
 40
0.2522027024
 40
0.3777270322
 40
0.5028788274
 40
0.6276670782
 40
0.7521051189
 40
0.8762097505
 40
1.0
 40
1.0
 40
1.0
 40
1.0
 10
11.2276345145
 20
7.0453912025
 30
0.0
 10
11.2276345145
 20
7.0553863526
 30
0.0
 10
11.2280754445
 20
7.0753494673
 30
0.0
 10
11.2300650139
 20
7.105187363
 30
0.0
 10
11.233378356
 20
7.1348173496
 30
0.0
 10
11.2380086968
 20
7.164180215
 30
0.0
 10
11.2439472095
 20
7.193219039
 30
0.0
 10
11.2511823141
 20
7.2218770418
 30
0.0
 10
11.2596995614
 20
7.2500973925
 30
0.0
 10
11.2662301642
 20
7.2686066461
 30
0.0
 10
11.2697031096
 20
7.2777676525
 30
0.0
  0
SPLINE
  5
377
100
AcDbEntity
  8
0
100
AcDbSpline
 62
7
  6
CONTINUOUS
 70
0
 71
3
 72
73
 73
69
 74
0
 42
0.0000001
 43
0.0000001
 44
0.0000000001
 40
0.0
 40
0.0
 40
0.0
 40
0.0
 40
0.0155842187
 40
0.0233573351
 40
0.0311170504
 40
0.0465963334
 40
0.0620249262
 40
0.0697213
 40
0.077405684
 40
0.0927384813
 40
0.1080272848
 40
0.1232752985
 40
0.1384861436
 40
0.1536638274
 40
0.1688127039
 40
0.1839374303
 40
0.1990429191
 40
0.2141342867
 40
0.2292168003
 40
0.2442958215
 40
0.2593767492
 40
0.2744649624
 40
0.289565762
 40
0.3046843148
 40
0.3198255988
 40
0.3349943509
 40
0.3501950187
 40
0.3654317152
 40
0.3807081792
 40
0.3960277389
 40
0.4113932814
 40
0.4268072272
 40
0.4422715102
 40
0.4577875624
 40
0.4733563058
 40
0.4889781483
 40
0.504652985
 40
0.5203802045
 40
0.5361586996
 40
0.551986882
 40
0.5678627018
 40
0.5837836705
 40
0.5997468881
 40
0.6157490725
 40
0.6317865915
 40
0.6478554975
 40
0.6639515646
 40
0.6800703266
 40
0.6962071184
 40
0.712357117
 40
0.7285153847
 40
0.7446769117
 40
0.7608366596
 40
0.7769896055
 40
0.7931307852
 40
0.8092553375
 40
0.8253585467
 40
0.8414358846
 40
0.8574830507
 40
0.8734960118
 40
0.8894710388
 40
0.9054047423
 40
0.9212941098
 40
0.9371365144
 40
0.9529298298
 40
0.9686721679
 40
0.9843626594
 40
1.0
 40
1.0
 40
1.0
 40
1.0
 10
9.4192772375
 20
6.7356521021
 30
0.0
 10
9.4192772375
 20
6.7220844511
 30
0.0
 10
9.4187787359
 20
6.7017447793
 30
0.0
 10
9.41711088
 20
6.674703617
 30
0.0
 10
9.4147809782
 20
6.6478025936
 30
0.0
 10
9.410626127
 20
6.614381004
 30
0.0
 10
9.4048123883
 20
6.5812634196
 30
0.0
 10
9.3991779398
 20
6.5550366345
 30
0.0
 10
9.3929017565
 20
6.5290418438
 30
0.0
 10
9.383844031
 20
6.4969299467
 30
0.0
 10
9.371050709
 20
6.4590824787
 30
0.0
 10
9.3563716256
 20
6.4220392165
 30
0.0
 10
9.339842225
 20
6.3858901165
 30
0.0
 10
9.3215022611
 20
6.3507222002
 30
0.0
 10
9.3013959065
 20
6.316620343
 30
0.0
 10
9.2795715917
 20
6.2836668003
 30
0.0
 10
9.2560819051
 20
6.2519410788
 30
0.0
 10
9.2309834629
 20
6.2215197223
 30
0.0
 10
9.2043367714
 20
6.192476133
 30
0.0
 10
9.1762060984
 20
6.1648803713
 30
0.0
 10
9.1466593023
 20
6.1387989947
 30
0.0
 10
9.1157676608
 20
6.1142949006
 30
0.0
 10
9.0836056988
 20
6.0914271719
 30
0.0
 10
9.0502510059
 20
6.070250935
 30
0.0
 10
9.0157840475
 20
6.0508172252
 30
0.0
 10
8.9802879669
 20
6.0331728681
 30
0.0
 10
8.9438483926
 20
6.0173603461
 30
0.0
 10
8.9065532212
 20
6.0034177049
 30
0.0
 10
8.8684923983
 20
5.9913784749
 30
0.0
 10
8.8297577012
 20
5.9812715896
 30
0.0
 10
8.7904425169
 20
5.9731213197
 30
0.0
 10
8.7506416164
 20
5.9669472159
 30
0.0
 10
8.7104509264
 20
5.9627640684
 30
0.0
 10
8.6699673005
 20
5.9605818541
 30
0.0
 10
8.629288282
 20
5.9604057184
 30
0.0
 10
8.5885118678
 20
5.9622359809
 30
0.0
 10
8.5477362743
 20
5.9660681335
 30
0.0
 10
8.5070597025
 20
5.9718928543
 30
0.0
 10
8.4665801034
 20
5.9796960308
 30
0.0
 10
8.4263949453
 20
5.9894587978
 30
0.0
 10
8.3866009775
 20
6.0011575691
 30
0.0
 10
8.3472939947
 20
6.0147640926
 30
0.0
 10
8.3085686129
 20
6.030245538
 30
0.0
 10
8.2705180425
 20
6.0475645721
 30
0.0
 10
8.2332338661
 20
6.06667945
 30
0.0
 10
8.1968058206
 20
6.0875441147
 30
0.0
 10
8.1613215842
 20
6.1101083091
 30
0.0
 10
8.1268665614
 20
6.1343176873
 30
0.0
 10
8.0935236703
 20
6.1601139382
 30
0.0
 10
8.0613731564
 20
6.1874349441
 30
0.0
 10
8.0304923987
 20
6.2162149264
 30
0.0
 10
8.0009557256
 20
6.2463846037
 30
0.0
 10
7.9728342373
 20
6.2778713561
 30
0.0
 10
7.9461956372
 20
6.3105994006
 30
0.0
 10
7.9211040643
 20
6.3444899671
 30
0.0
 10
7.8976199259
 20
6.3794614793
 30
0.0
 10
7.8757997704
 20
6.4154297658
 30
0.0
 10
7.8556961504
 20
6.4523082587
 30
0.0
 10
7.8373574973
 20
6.490008201
 30
0.0
 10
7.8208280054
 20
6.5284388575
 30
0.0
 10
7.8061475268
 20
6.5675077313
 30
0.0
 10
7.793351467
 20
6.6071207873
 30
0.0
 10
7.7824707051
 20
6.647182652
 30
0.0
 10
7.7735314563
 20
6.6875969354
 30
0.0
 10
7.7665554322
 20
6.7282661555
 30
0.0
 10
7.7615593028
 20
6.7690929513
 30
0.0
 10
7.7585554881
 20
6.8099774583
 30
0.0
 10
7.7578847178
 20
6.8372561657
 30
0.0
 10
7.7578847178
 20
6.8508700646
 30
0.0
  0
SPLINE
  5
378
100
AcDbEntity
  8
0
100
AcDbSpline
 62
7
  6
CONTINUOUS
 70
0
 71
3
 72
39
 73
35
 74
0
 42
0.0000001
 43
0.0000001
 44
0.0000000001
 40
0.0
 40
0.0
 40
0.0
 40
0.0
 40
0.0322743283
 40
0.0644671078
 40
0.0965434017
 40
0.1284711899
 40
0.1602244108
 40
0.1917831014
 40
0.2231345502
 40
0.2542738168
 40
0.285204103
 40
0.3159367853
 40
0.346491125
 40
0.376893631
 40
0.407177084
 40
0.4373792492
 40
0.4675413296
 40
0.4977062336
 40
0.5279167493
 40
0.5582137251
 40
0.5886343568
 40
0.6192106713
 40
0.6499682774
 40
0.6809254336
 40
0.7120924559
 40
0.7434714713
 40
0.7750564984
 40
0.8068338309
 40
0.8387826774
 40
0.870876057
 40
0.9030817571
 40
0.9353638376
 40
0.9676830369
 40
1.0
 40
1.0
 40
1.0
 40
1.0
 10
6.928164447
 20
9.97068072
 30
0.0
 10
6.9256480094
 20
9.9738542092
 30
0.0
 10
6.920909097
 20
9.9804275581
 30
0.0
 10
6.9147492258
 20
9.9908790379
 30
0.0
 10
6.9096000834
 20
10.0018170599
 30
0.0
 10
6.9055122105
 20
10.0131357177
 30
0.0
 10
6.9025248929
 20
10.0247265881
 30
0.0
 10
6.9006672546
 20
10.0364783106
 30
0.0
 10
6.8999575204
 20
10.0482779523
 30
0.0
 10
6.9004029608
 20
10.0600119978
 30
0.0
 10
6.9019997423
 20
10.0715674374
 30
0.0
 10
6.9047329403
 20
10.0828328396
 30
0.0
 10
6.9085766316
 20
10.0936994277
 30
0.0
 10
6.9134941003
 20
10.104062145
 30
0.0
 10
6.9194381509
 20
10.1138207017
 30
0.0
 10
6.9263515373
 20
10.1228805901
 30
0.0
 10
6.9341675068
 20
10.1311540532
 30
0.0
 10
6.9428104584
 20
10.1385609874
 30
0.0
 10
6.9521967076
 20
10.1450297635
 30
0.0
 10
6.9622353422
 20
10.1504979506
 30
0.0
 10
6.9728291594
 20
10.1549129258
 30
0.0
 10
6.9838756587
 20
10.1582323698
 30
0.0
 10
6.9952680757
 20
10.1604246441
 30
0.0
 10
7.006896442
 20
10.1614690542
 30
0.0
 10
7.0186486584
 20
10.1613560021
 30
0.0
 10
7.0304115731
 20
10.1600870331
 30
0.0
 10
7.0420720568
 20
10.1576747836
 30
0.0
 10
7.0535180693
 20
10.1541428246
 30
0.0
 10
7.0646397098
 20
10.1495254303
 30
0.0
 10
7.0753302518
 20
10.1438671868
 30
0.0
 10
7.0854871031
 20
10.1372227161
 30
0.0
 10
7.0950129841
 20
10.1296556435
 30
0.0
 10
7.1038157687
 20
10.1212397705
 30
0.0
 10
7.1091503367
 20
10.1151117658
 30
0.0
 10
7.1116700986
 20
10.1119340844
 30
0.0
  0
SPLINE
  5
379
100
AcDbEntity
  8
0
100
AcDbSpline
 62
7
  6
CONTINUOUS
 70
0
 71
3
 72
51
 73
47
 74
0
 42
0.0000001
 43
0.0000001
 44
0.0000000001
 40
0.0
 40
0.0
 40
0.0
 40
0.0
 40
0.0310732515
 40
0.0623036961
 40
0.0936867933
 40
0.1252138194
 40
0.156873433
 40
0.1886514448
 40
0.2205312488
 40
0.2524941713
 40
0.2845198641
 40
0.3165867233
 40
0.3486723243
 40
0.38075387
 40
0.4128086445
 40
0.4448144641
 40
0.476750121
 40
0.5085958143
 40
0.5403335614
 40
0.5719475802
 40
0.603424637
 40
0.634754353
 40
0.6503641687
 40
0.6659346995
 40
0.6814655591
 40
0.6969565712
 40
0.7124077861
 40
0.7278194675
 40
0.7431921022
 40
0.7585263985
 40
0.7738232752
 40
0.7890838722
 40
0.8043095316
 40
0.8195017998
 40
0.83466242
 40
0.849793315
 40
0.8648965896
 40
0.8799745079
 40
0.8950294858
 40
0.9100640799
 40
0.9250809642
 40
0.9400829245
 40
0.9550728351
 40
0.9700536421
 40
0.9850283509
 40
1.0
 40
1.0
 40
1.0
 40
1.0
 10
10.8479472887
 20
6.6786414835
 30
0.0
 10
10.8479472887
 20
6.6618132396
 30
0.0
 10
10.8492026368
 20
6.6280586714
 30
0.0
 10
10.8548075054
 20
6.5775884065
 30
0.0
 10
10.8641073394
 20
6.5274145049
 30
0.0
 10
10.8770507574
 20
6.47781603
 30
0.0
 10
10.8935660991
 20
6.4290644148
 30
0.0
 10
10.9135623406
 20
6.3814274979
 30
0.0
 10
10.9369293138
 20
6.3351666237
 30
0.0
 10
10.9635384639
 20
6.290535648
 30
0.0
 10
10.9932435268
 20
6.2477794524
 30
0.0
 10
11.0258813351
 20
6.2071326569
 30
0.0
 10
11.0612726854
 20
6.16881833
 30
0.0
 10
11.0992232758
 20
6.1330467363
 30
0.0
 10
11.1395248259
 20
6.1000142466
 30
0.0
 10
11.1819561976
 20
6.0699022655
 30
0.0
 10
11.2262845832
 20
6.0428762574
 30
0.0
 10
11.2722668021
 20
6.0190848112
 30
0.0
 10
11.3196503947
 20
5.9986588136
 30
0.0
 10
11.3681758157
 20
5.9817107052
 30
0.0
 10
11.4175749044
 20
5.9683341997
 30
0.0
 10
11.4593007902
 20
5.9602142469
 30
0.0
 10
11.4928411432
 20
5.9555755915
 30
0.0
 10
11.5180159527
 20
5.9530298371
 30
0.0
 10
11.5432029516
 20
5.9514172174
 30
0.0
 10
11.5683679258
 20
5.9507399905
 30
0.0
 10
11.5934761543
 20
5.9509989342
 30
0.0
 10
11.6184931374
 20
5.9521939127
 30
0.0
 10
11.6433844617
 20
5.95432317
 30
0.0
 10
11.6681158989
 20
5.9573838035
 30
0.0
 10
11.6926534101
 20
5.9613717487
 30
0.0
 10
11.7169632748
 20
5.9662813378
 30
0.0
 10
11.7410120119
 20
5.9721060383
 30
0.0
 10
11.7647665587
 20
5.9788377342
 30
0.0
 10
11.7881942396
 20
5.9864671764
 30
0.0
 10
11.8112627709
 20
5.9949840169
 30
0.0
 10
11.8339404825
 20
6.0043763559
 30
0.0
 10
11.8561960922
 20
6.014631473
 30
0.0
 10
11.8779990134
 20
6.0257351654
 30
0.0
 10
11.8993192559
 20
6.03767215
 30
0.0
 10
11.9201273964
 20
6.0504261393
 30
0.0
 10
11.9403949165
 20
6.0639794139
 30
0.0
 10
11.9600937878
 20
6.0783134702
 30
0.0
 10
11.9791970495
 20
6.0934085966
 30
0.0
 10
11.9976780761
 20
6.1092436453
 30
0.0
 10
12.0095682094
 20
6.1202804351
 30
0.0
 10
12.0154000348
 20
6.1259135425
 30
0.0
  0
SPLINE
  5
37A
100
AcDbEntity
  8
0
100
AcDbSpline
 62
7
  6
CONTINUOUS
 70
0
 71
3
 72
51
 73
47
 74
0
 42
0.0000001
 43
0.0000001
 44
0.0000000001
 40
0.0
 40
0.0
 40
0.0
 40
0.0
 40
0.0310732515
 40
0.0623036961
 40
0.0936867933
 40
0.1252138194
 40
0.156873433
 40
0.1886514448
 40
0.2205312488
 40
0.2524941713
 40
0.2845198641
 40
0.3165867233
 40
0.3486723243
 40
0.38075387
 40
0.4128086445
 40
0.4448144641
 40
0.476750121
 40
0.5085958143
 40
0.5403335614
 40
0.5719475802
 40
0.603424637
 40
0.634754353
 40
0.6503641687
 40
0.6659346995
 40
0.6814655591
 40
0.6969565712
 40
0.7124077861
 40
0.7278194675
 40
0.7431921022
 40
0.7585263985
 40
0.7738232752
 40
0.7890838722
 40
0.8043095316
 40
0.8195017998
 40
0.83466242
 40
0.849793315
 40
0.8648965896
 40
0.8799745079
 40
0.8950294858
 40
0.9100640799
 40
0.9250809642
 40
0.9400829245
 40
0.9550728351
 40
0.9700536421
 40
0.9850283509
 40
1.0
 40
1.0
 40
1.0
 40
1.0
 10
8.6765457625
 20
9.2440433996
 30
0.0
 10
8.6765457625
 20
9.2272151557
 30
0.0
 10
8.6778011106
 20
9.1934605875
 30
0.0
 10
8.6834059792
 20
9.1429903226
 30
0.0
 10
8.6927058133
 20
9.092816421
 30
0.0
 10
8.7056492312
 20
9.0432179461
 30
0.0
 10
8.7221645729
 20
8.9944663309
 30
0.0
 10
8.7421608145
 20
8.946829414
 30
0.0
 10
8.7655277877
 20
8.9005685399
 30
0.0
 10
8.7921369377
 20
8.8559375641
 30
0.0
 10
8.8218420006
 20
8.8131813685
 30
0.0
 10
8.8544798089
 20
8.7725345731
 30
0.0
 10
8.8898711592
 20
8.7342202461
 30
0.0
 10
8.9278217497
 20
8.6984486524
 30
0.0
 10
8.9681232998
 20
8.6654161627
 30
0.0
 10
9.0105546715
 20
8.6353041816
 30
0.0
 10
9.054883057
 20
8.6082781735
 30
0.0
 10
9.1008652759
 20
8.5844867273
 30
0.0
 10
9.1482488685
 20
8.5640607297
 30
0.0
 10
9.1967742896
 20
8.5471126213
 30
0.0
 10
9.2461733782
 20
8.5337361158
 30
0.0
 10
9.287899264
 20
8.525616163
 30
0.0
 10
9.321439617
 20
8.5209775076
 30
0.0
 10
9.3466144265
 20
8.5184317532
 30
0.0
 10
9.3718014254
 20
8.5168191335
 30
0.0
 10
9.3969663996
 20
8.5161419066
 30
0.0
 10
9.4220746281
 20
8.5164008504
 30
0.0
 10
9.4470916112
 20
8.5175958288
 30
0.0
 10
9.4719829355
 20
8.5197250861
 30
0.0
 10
9.4967143727
 20
8.5227857196
 30
0.0
 10
9.5212518839
 20
8.5267736648
 30
0.0
 10
9.5455617486
 20
8.5316832539
 30
0.0
 10
9.5696104857
 20
8.5375079544
 30
0.0
 10
9.5933650325
 20
8.5442396503
 30
0.0
 10
9.6167927134
 20
8.5518690925
 30
0.0
 10
9.6398612447
 20
8.560385933
 30
0.0
 10
9.6625389563
 20
8.569778272
 30
0.0
 10
9.684794566
 20
8.5800333891
 30
0.0
 10
9.7065974872
 20
8.5911370815
 30
0.0
 10
9.7279177297
 20
8.6030740661
 30
0.0
 10
9.7487258702
 20
8.6158280554
 30
0.0
 10
9.7689933903
 20
8.62938133
 30
0.0
 10
9.7886922617
 20
8.6437153863
 30
0.0
 10
9.8077955234
 20
8.6588105128
 30
0.0
 10
9.8262765499
 20
8.6746455615
 30
0.0
 10
9.8381666833
 20
8.6856823512
 30
0.0
 10
9.8439985086
 20
8.6913154586
 30
0.0
  0
SPLINE
  5
37B
100
AcDbEntity
  8
0
100
AcDbSpline
 62
7
  6
CONTINUOUS
 70
0
 71
3
 72
18
 73
14
 74
0
 42
0.0000001
 43
0.0000001
 44
0.0000000001
 40
0.0
 40
0.0
 40
0.0
 40
0.0
 40
0.1480356372
 40
0.2876662502
 40
0.4195655771
 40
0.4828973127
 40
0.5446380375
 40
0.6638657774
 40
0.7785237916
 40
0.8345984481
 40
0.8900706527
 40
0.9451373023
 40
1.0
 40
1.0
 40
1.0
 40
1.0
 10
6.9689165451
 20
10.6950074081
 30
0.0
 10
6.9679736629
 20
10.6940966538
 30
0.0
 10
6.9661967092
 20
10.692268009
 30
0.0
 10
6.9638074753
 20
10.6894181595
 30
0.0
 10
6.9620937271
 20
10.6869930143
 30
0.0
 10
6.9609135209
 20
10.6850464563
 30
0.0
 10
6.959882805
 20
10.6831435845
 30
0.0
 10
6.958811721
 20
10.6807491641
 30
0.0
 10
6.9580296328
 20
10.6782968759
 30
0.0
 10
6.9575954877
 20
10.6763402646
 30
0.0
 10
6.9573644881
 20
10.6748820325
 30
0.0
 10
6.9572258814
 20
10.6734229967
 30
0.0
 10
6.9571950597
 20
10.6724492468
 30
0.0
 10
6.9571950645
 20
10.6719634153
 30
0.0
  0
SPLINE
  5
37C
100
AcDbEntity
  8
0
100
AcDbSpline
 62
7
  6
CONTINUOUS
 70
0
 71
3
 72
17
 73
13
 74
0
 42
0.0000001
 43
0.0000001
 44
0.0000000001
 40
0.0
 40
0.0
 40
0.0
 40
0.0
 40
0.0550852423
 40
0.111354406
 40
0.1687695843
 40
0.2272912727
 40
0.3474892042
 40
0.4716107805
 40
0.5992999648
 40
0.7301858563
 40
0.8638842393
 40
1.0
 40
1.0
 40
1.0
 40
1.0
 10
15.4200857313
 20
7.9121082102
 30
0.0
 10
15.4210997011
 20
7.9053237087
 30
0.0
 10
15.423066013
 20
7.8915962955
 30
0.0
 10
15.4258064058
 20
7.8707581515
 30
0.0
 10
15.4283674739
 20
7.8494660902
 30
0.0
 10
15.4315688503
 20
7.8202341661
 30
0.0
 10
15.4350941452
 20
7.7826832588
 30
0.0
 10
15.4385432977
 20
7.7364824367
 30
0.0
 10
15.4412365088
 20
7.688898313
 30
0.0
 10
15.4431649822
 20
7.6400836724
 30
0.0
 10
15.4443223622
 20
7.5901952493
 30
0.0
 10
15.4445753018
 20
7.5565942453
 30
0.0
 10
15.4445753018
 20
7.5396435307
 30
0.0
  0
SPLINE
  5
37D
100
AcDbEntity
  8
0
100
AcDbSpline
 62
7
  6
CONTINUOUS
 70
0
 71
3
 72
43
 73
39
 74
0
 42
0.0000001
 43
0.0000001
 44
0.0000000001
 40
0.0
 40
0.0
 40
0.0
 40
0.0
 40
0.0308130671
 40
0.0617556531
 40
0.0928248321
 40
0.1240158949
 40
0.155322334
 40
0.1867360111
 40
0.218247267
 40
0.249845079
 40
0.2815172228
 40
0.3132504506
 40
0.3450306785
 40
0.3768431825
 40
0.4086728004
 40
0.4405041385
 40
0.4723217796
 40
0.5041104922
 40
0.5358554367
 40
0.5675423696
 40
0.59915784
 40
0.6306893801
 40
0.6621256844
 40
0.6934567775
 40
0.7246741669
 40
0.7557709796
 40
0.7867420786
 40
0.8175841586
 40
0.8329581025
 40
0.8482994312
 40
0.8636082689
 40
0.878884873
 40
0.9093392862
 40
0.9396707912
 40
0.9547942612
 40
0.9698895492
 40
0.9849577313
 40
1.0
 40
1.0
 40
1.0
 40
1.0
 10
11.2276345145
 20
7.0453912025
 30
0.0
 10
11.2276345145
 20
7.0315060683
 30
0.0
 10
11.2284885831
 20
7.0036701156
 30
0.0
 10
11.2323080062
 20
6.9619913704
 30
0.0
 10
11.2386539239
 20
6.9204482345
 30
0.0
 10
11.2475023493
 20
6.8791983308
 30
0.0
 10
11.2588199667
 20
6.8383955142
 30
0.0
 10
11.2725642246
 20
6.7981926581
 30
0.0
 10
11.2886835201
 20
6.7587401758
 30
0.0
 10
11.3071173823
 20
6.7201857097
 30
0.0
 10
11.327796704
 20
6.6826735178
 30
0.0
 10
11.3506439986
 20
6.646343956
 30
0.0
 10
11.37557369
 20
6.6113329531
 30
0.0
 10
11.4024924314
 20
6.5777715075
 30
0.0
 10
11.4312994527
 20
6.5457852005
 30
0.0
 10
11.4618869356
 20
6.5154937302
 30
0.0
 10
11.4941404144
 20
6.4870104664
 30
0.0
 10
11.5279392011
 20
6.4604420291
 30
0.0
 10
11.5631568343
 20
6.4358878925
 30
0.0
 10
11.599661548
 20
6.4134400142
 30
0.0
 10
11.6373167606
 20
6.3931824927
 30
0.0
 10
11.6759815837
 20
6.375191254
 30
0.0
 10
11.7155113356
 20
6.3595337674
 30
0.0
 10
11.7557581105
 20
6.3462687925
 30
0.0
 10
11.7965712048
 20
6.3354461608
 30
0.0
 10
11.8377981284
 20
6.327106576
 30
0.0
 10
11.8792834899
 20
6.3212814981
 30
0.0
 10
11.9139811042
 20
6.318538026
 30
0.0
 10
11.9417088322
 20
6.317621993
 30
0.0
 10
11.9624517646
 20
6.317573303
 30
0.0
 10
11.9831425201
 20
6.3181625852
 30
0.0
 10
12.0106037277
 20
6.3197960298
 30
0.0
 10
12.0447106077
 20
6.3234240995
 30
0.0
 10
12.07845571
 20
6.3291699536
 30
0.0
 10
12.1051104139
 20
6.3350206272
 30
0.0
 10
12.1248981458
 20
6.3400262645
 30
0.0
 10
12.1444810635
 20
6.3456487243
 30
0.0
 10
12.1573991248
 20
6.3498084007
 30
0.0
 10
12.1638171592
 20
6.3519891839
 30
0.0
  0
SPLINE
  5
37E
100
AcDbEntity
  8
0
100
AcDbSpline
 62
7
  6
CONTINUOUS
 70
0
 71
3
 72
20
 73
16
 74
0
 42
0.0000001
 43
0.0000001
 44
0.0000000001
 40
0.0
 40
0.0
 40
0.0
 40
0.0
 40
0.0529053482
 40
0.107349923
 40
0.1632853691
 40
0.2206604553
 40
0.2794217981
 40
0.3395135536
 40
0.4008778897
 40
0.4634550263
 40
0.5271831926
 40
0.5919991152
 40
0.7246316204
 40
0.8608166229
 40
1.0
 40
1.0
 40
1.0
 40
1.0
 10
15.3217409684
 20
7.9190026996
 30
0.0
 10
15.3230199356
 20
7.912158298
 30
0.0
 10
15.3255008251
 20
7.8982487926
 30
0.0
 10
15.3289507051
 20
7.8770367742
 30
0.0
 10
15.3321796283
 20
7.8551951666
 30
0.0
 10
15.335184059
 20
7.8327482911
 30
0.0
 10
15.3379605641
 20
7.8097210563
 30
0.0
 10
15.3405060812
 20
7.7861390424
 30
0.0
 10
15.342817751
 20
7.762028443
 30
0.0
 10
15.3448929552
 20
7.7374160592
 30
0.0
 10
15.346729447
 20
7.7123292159
 30
0.0
 10
15.3488732829
 20
7.6780221506
 30
0.0
 10
15.3509288385
 20
7.6341575178
 30
0.0
 10
15.3523990248
 20
7.580477687
 30
0.0
 10
15.3527193909
 20
7.5442354982
 30
0.0
 10
15.3527193909
 20
7.5259175756
 30
0.0
  0
SPLINE
  5
37F
100
AcDbEntity
  8
0
100
AcDbSpline
 62
7
  6
CONTINUOUS
 70
0
 71
3
 72
73
 73
69
 74
0
 42
0.0000001
 43
0.0000001
 44
0.0000000001
 40
0.0
 40
0.0
 40
0.0
 40
0.0
 40
0.0155842187
 40
0.0233573351
 40
0.0311170504
 40
0.0465963334
 40
0.0620249262
 40
0.0697213
 40
0.077405684
 40
0.0927384813
 40
0.1080272848
 40
0.1232752985
 40
0.1384861436
 40
0.1536638274
 40
0.1688127039
 40
0.1839374303
 40
0.1990429191
 40
0.2141342867
 40
0.2292168003
 40
0.2442958215
 40
0.2593767492
 40
0.2744649624
 40
0.289565762
 40
0.3046843148
 40
0.3198255988
 40
0.3349943509
 40
0.3501950187
 40
0.3654317152
 40
0.3807081792
 40
0.3960277389
 40
0.4113932814
 40
0.4268072272
 40
0.4422715102
 40
0.4577875624
 40
0.4733563058
 40
0.4889781483
 40
0.504652985
 40
0.5203802045
 40
0.5361586996
 40
0.551986882
 40
0.5678627018
 40
0.5837836705
 40
0.5997468881
 40
0.6157490725
 40
0.6317865915
 40
0.6478554975
 40
0.6639515646
 40
0.6800703266
 40
0.6962071184
 40
0.712357117
 40
0.7285153847
 40
0.7446769117
 40
0.7608366596
 40
0.7769896055
 40
0.7931307852
 40
0.8092553375
 40
0.8253585467
 40
0.8414358846
 40
0.8574830507
 40
0.8734960118
 40
0.8894710388
 40
0.9054047423
 40
0.9212941098
 40
0.9371365144
 40
0.9529298298
 40
0.9686721679
 40
0.9843626594
 40
1.0
 40
1.0
 40
1.0
 40
1.0
 10
10.1456533619
 20
9.1000924555
 30
0.0
 10
10.1456533619
 20
9.0865248046
 30
0.0
 10
10.1451548603
 20
9.0661851328
 30
0.0
 10
10.1434870044
 20
9.0391439705
 30
0.0
 10
10.1411571026
 20
9.0122429471
 30
0.0
 10
10.1370022514
 20
8.9788213574
 30
0.0
 10
10.1311885127
 20
8.9457037731
 30
0.0
 10
10.1255540642
 20
8.919476988
 30
0.0
 10
10.1192778809
 20
8.8934821972
 30
0.0
 10
10.1102201554
 20
8.8613703002
 30
0.0
 10
10.0974268334
 20
8.8235228322
 30
0.0
 10
10.08274775
 20
8.78647957
 30
0.0
 10
10.0662183494
 20
8.7503304699
 30
0.0
 10
10.0478783855
 20
8.7151625537
 30
0.0
 10
10.0277720309
 20
8.6810606965
 30
0.0
 10
10.0059477161
 20
8.6481071538
 30
0.0
 10
9.9824580295
 20
8.6163814322
 30
0.0
 10
9.9573595873
 20
8.5859600758
 30
0.0
 10
9.9307128958
 20
8.5569164864
 30
0.0
 10
9.9025822228
 20
8.5293207248
 30
0.0
 10
9.8730354267
 20
8.5032393482
 30
0.0
 10
9.8421437852
 20
8.4787352541
 30
0.0
 10
9.8099818232
 20
8.4558675254
 30
0.0
 10
9.7766271303
 20
8.4346912885
 30
0.0
 10
9.7421601719
 20
8.4152575787
 30
0.0
 10
9.7066640913
 20
8.3976132216
 30
0.0
 10
9.670224517
 20
8.3818006996
 30
0.0
 10
9.6329293456
 20
8.3678580584
 30
0.0
 10
9.5948685227
 20
8.3558188284
 30
0.0
 10
9.5561338256
 20
8.3457119431
 30
0.0
 10
9.5168186413
 20
8.3375616732
 30
0.0
 10
9.4770177408
 20
8.3313875694
 30
0.0
 10
9.4368270508
 20
8.3272044219
 30
0.0
 10
9.3963434249
 20
8.3250222076
 30
0.0
 10
9.3556644064
 20
8.3248460719
 30
0.0
 10
9.3148879922
 20
8.3266763343
 30
0.0
 10
9.2741123987
 20
8.3305084869
 30
0.0
 10
9.2334358269
 20
8.3363332078
 30
0.0
 10
9.1929562278
 20
8.3441363843
 30
0.0
 10
9.1527710697
 20
8.3538991513
 30
0.0
 10
9.1129771019
 20
8.3655979226
 30
0.0
 10
9.0736701191
 20
8.3792044461
 30
0.0
 10
9.0349447373
 20
8.3946858915
 30
0.0
 10
8.9968941668
 20
8.4120049256
 30
0.0
 10
8.9596099905
 20
8.4311198035
 30
0.0
 10
8.923181945
 20
8.4519844682
 30
0.0
 10
8.8876977086
 20
8.4745486626
 30
0.0
 10
8.8532426858
 20
8.4987580408
 30
0.0
 10
8.8198997947
 20
8.5245542916
 30
0.0
 10
8.7877492808
 20
8.5518752976
 30
0.0
 10
8.7568685231
 20
8.5806552799
 30
0.0
 10
8.72733185
 20
8.6108249571
 30
0.0
 10
8.6992103617
 20
8.6423117096
 30
0.0
 10
8.6725717616
 20
8.6750397541
 30
0.0
 10
8.6474801887
 20
8.7089303206
 30
0.0
 10
8.6239960502
 20
8.7439018328
 30
0.0
 10
8.6021758947
 20
8.7798701192
 30
0.0
 10
8.5820722748
 20
8.8167486122
 30
0.0
 10
8.5637336217
 20
8.8544485545
 30
0.0
 10
8.5472041298
 20
8.892879211
 30
0.0
 10
8.5325236512
 20
8.9319480848
 30
0.0
 10
8.5197275914
 20
8.9715611408
 30
0.0
 10
8.5088468295
 20
9.0116230055
 30
0.0
 10
8.4999075807
 20
9.0520372889
 30
0.0
 10
8.4929315565
 20
9.092706509
 30
0.0
 10
8.4879354272
 20
9.1335333048
 30
0.0
 10
8.4849316125
 20
9.1744178118
 30
0.0
 10
8.4842608422
 20
9.2016965192
 30
0.0
 10
8.4842608422
 20
9.2153104181
 30
0.0
  0
SPLINE
  5
380
100
AcDbEntity
  8
0
100
AcDbSpline
 62
7
  6
CONTINUOUS
 70
0
 71
3
 72
18
 73
14
 74
0
 42
0.0000001
 43
0.0000001
 44
0.0000000001
 40
0.0
 40
0.0
 40
0.0
 40
0.0
 40
0.1480356372
 40
0.2876662502
 40
0.4195655771
 40
0.4828973127
 40
0.5446380375
 40
0.6638657774
 40
0.7785237916
 40
0.8345984481
 40
0.8900706527
 40
0.9451373023
 40
1.0
 40
1.0
 40
1.0
 40
1.0
 10
13.4908480282
 20
10.2427099235
 30
0.0
 10
13.489905146
 20
10.2417991692
 30
0.0
 10
13.4881281923
 20
10.2399705244
 30
0.0
 10
13.4857389584
 20
10.237120675
 30
0.0
 10
13.4840252102
 20
10.2346955298
 30
0.0
 10
13.482845004
 20
10.2327489718
 30
0.0
 10
13.4818142881
 20
10.2308460999
 30
0.0
 10
13.4807432041
 20
10.2284516795
 30
0.0
 10
13.4799611159
 20
10.2259993914
 30
0.0
 10
13.4795269708
 20
10.22404278
 30
0.0
 10
13.4792959712
 20
10.222584548
 30
0.0
 10
13.4791573645
 20
10.2211255121
 30
0.0
 10
13.4791265428
 20
10.2201517622
 30
0.0
 10
13.4791265476
 20
10.2196659307
 30
0.0
  0
SPLINE
  5
381
100
AcDbEntity
  8
0
100
AcDbSpline
 62
7
  6
CONTINUOUS
 70
0
 71
3
 72
17
 73
13
 74
0
 42
0.0000001
 43
0.0000001
 44
0.0000000001
 40
0.0
 40
0.0
 40
0.0
 40
0.0
 40
0.1514279186
 40
0.2935625345
 40
0.4270591064
 40
0.5527435526
 40
0.6716171815
 40
0.7848438883
 40
0.8397826256
 40
0.8938263402
 40
0.9471657245
 40
1.0
 40
1.0
 40
1.0
 40
1.0
 10
11.4810441062
 20
7.2121660863
 30
0.0
 10
11.4796305579
 20
7.2108007034
 30
0.0
 10
11.4768054627
 20
7.2082390955
 30
0.0
 10
11.4724320357
 20
7.2048253013
 30
0.0
 10
11.4680673918
 20
7.2019706546
 30
0.0
 10
11.4637197313
 20
7.1996788242
 30
0.0
 10
11.4593986463
 20
7.1979538785
 30
0.0
 10
11.4557918565
 20
7.1969816766
 30
0.0
 10
11.4529464911
 20
7.1965011318
 30
0.0
 10
11.4508491284
 20
7.1962866565
 30
0.0
 10
11.4487694896
 20
7.1962146986
 30
0.0
 10
11.4473910192
 20
7.1962619257
 30
0.0
 10
11.4467069584
 20
7.1963093941
 30
0.0
  0
SPLINE
  5
382
100
AcDbEntity
  8
0
100
AcDbSpline
 62
7
  6
CONTINUOUS
 70
0
 71
3
 72
59
 73
55
 74
0
 42
0.0000001
 43
0.0000001
 44
0.0000000001
 40
0.0
 40
0.0
 40
0.0
 40
0.0
 40
0.0026853875
 40
0.0053790891
 40
0.008089339
 40
0.0108242091
 40
0.0135915278
 40
0.0163988281
 40
0.0221599612
 40
0.0281622954
 40
0.034451753
 40
0.0410673672
 40
0.0480417309
 40
0.0554015447
 40
0.0631683895
 40
0.0713593564
 40
0.079987746
 40
0.0890635702
 40
0.0985940765
 40
0.1085841041
 40
0.1190364474
 40
0.1299521029
 40
0.1413305111
 40
0.1531697345
 40
0.1654666105
 40
0.1782168903
 40
0.1914153275
 40
0.2050557971
 40
0.2191313368
 40
0.2336342578
 40
0.2485561505
 40
0.263887994
 40
0.2796201342
 40
0.2957423961
 40
0.3122440407
 40
0.3291138806
 40
0.3463402216
 40
0.3639109818
 40
0.3818136215
 40
0.4185621798
 40
0.4564789439
 40
0.4954513254
 40
0.5353622163
 40
0.5760905802
 40
0.6175120189
 40
0.6594993243
 40
0.7019230188
 40
0.7446518888
 40
0.787553515
 40
0.8304947933
 40
0.8733424763
 40
0.9159636495
 40
0.9582263773
 40
1.0
 40
1.0
 40
1.0
 40
1.0
 10
15.0703088974
 20
6.4517307935
 30
0.0
 10
15.0713390017
 20
6.4516593602
 30
0.0
 10
15.0734070136
 20
6.4515757011
 30
0.0
 10
15.0765186678
 20
6.4516286132
 30
0.0
 10
15.0796413294
 20
6.4518598389
 30
0.0
 10
15.0827741107
 20
6.4522693023
 30
0.0
 10
15.0859164136
 20
6.4528568414
 30
0.0
 10
15.090153762
 20
6.4538860037
 30
0.0
 10
15.0954876391
 20
6.4556342261
 30
0.0
 10
15.1018544107
 20
6.4584239335
 30
0.0
 10
15.1082388932
 20
6.4619195726
 30
0.0
 10
15.1146361801
 20
6.4661167392
 30
0.0
 10
15.1210420997
 20
6.471011256
 30
0.0
 10
15.1274523227
 20
6.4765986053
 30
0.0
 10
15.1338623366
 20
6.4828741015
 30
0.0
 10
15.140267546
 20
6.4898325684
 30
0.0
 10
15.1466631262
 20
6.4974684321
 30
0.0
 10
15.1530442051
 20
6.505775544
 30
0.0
 10
15.1594057556
 20
6.5147472535
 30
0.0
 10
15.1657427399
 20
6.5243763212
 30
0.0
 10
15.1720500391
 20
6.5346549708
 30
0.0
 10
15.1783225455
 20
6.5455748525
 30
0.0
 10
15.1845551275
 20
6.5571270765
 30
0.0
 10
15.1907426738
 20
6.5693022046
 30
0.0
 10
15.1968800925
 20
6.5820902681
 30
0.0
 10
15.2029623135
 20
6.595480776
 30
0.0
 10
15.2089843199
 20
6.6094627232
 30
0.0
 10
15.2149411152
 20
6.6240246074
 30
0.0
 10
15.2208277839
 20
6.6391544318
 30
0.0
 10
15.2266394276
 20
6.6548397265
 30
0.0
 10
15.2323712533
 20
6.6710675491
 30
0.0
 10
15.2380184818
 20
6.6878245081
 30
0.0
 10
15.2435764601
 20
6.7050967631
 30
0.0
 10
15.2490405469
 20
6.7228700483
 30
0.0
 10
15.2544062454
 20
6.7411296743
 30
0.0
 10
15.2596690703
 20
6.7598605517
 30
0.0
 10
15.2648246904
 20
6.7790471893
 30
0.0
 10
15.2698688135
 20
6.7986737396
 30
0.0
 10
15.276497697
 20
6.8256420122
 30
0.0
 10
15.2844628335
 20
6.8603359448
 30
0.0
 10
15.2934310758
 20
6.9031038128
 30
0.0
 10
15.3018606366
 20
6.947219623
 30
0.0
 10
15.3097234914
 20
6.9925374243
 30
0.0
 10
15.316993488
 20
7.0389074352
 30
0.0
 10
15.3236464661
 20
7.0861763079
 30
0.0
 10
15.3296603259
 20
7.1341877103
 30
0.0
 10
15.3350151023
 20
7.1827828308
 30
0.0
 10
15.3396930299
 20
7.2318009144
 30
0.0
 10
15.3436785996
 20
7.2810797948
 30
0.0
 10
15.3469586128
 20
7.330456445
 30
0.0
 10
15.3495222187
 20
7.3797674874
 30
0.0
 10
15.3513609626
 20
7.4288498399
 30
0.0
 10
15.3524687927
 20
7.4775409489
 30
0.0
 10
15.3527193909
 20
7.5098548915
 30
0.0
 10
15.3527193909
 20
7.5259175756
 30
0.0
  0
SPLINE
  5
383
100
AcDbEntity
  8
0
100
AcDbSpline
 62
7
  6
CONTINUOUS
 70
0
 71
3
 72
43
 73
39
 74
0
 42
0.0000001
 43
0.0000001
 44
0.0000000001
 40
0.0
 40
0.0
 40
0.0
 40
0.0
 40
0.0308130671
 40
0.0617556531
 40
0.0928248321
 40
0.1240158949
 40
0.155322334
 40
0.1867360111
 40
0.218247267
 40
0.249845079
 40
0.2815172228
 40
0.3132504506
 40
0.3450306785
 40
0.3768431825
 40
0.4086728004
 40
0.4405041385
 40
0.4723217796
 40
0.5041104922
 40
0.5358554367
 40
0.5675423696
 40
0.59915784
 40
0.6306893801
 40
0.6621256844
 40
0.6934567775
 40
0.7246741669
 40
0.7557709796
 40
0.7867420786
 40
0.8175841586
 40
0.8329581025
 40
0.8482994312
 40
0.8636082689
 40
0.878884873
 40
0.9093392862
 40
0.9396707912
 40
0.9547942612
 40
0.9698895492
 40
0.9849577313
 40
1.0
 40
1.0
 40
1.0
 40
1.0
 10
9.0562329883
 20
9.6107931187
 30
0.0
 10
9.0562329883
 20
9.5969079845
 30
0.0
 10
9.0570870569
 20
9.5690720318
 30
0.0
 10
9.06090648
 20
9.5273932865
 30
0.0
 10
9.0672523977
 20
9.4858501506
 30
0.0
 10
9.0761008231
 20
9.4446002469
 30
0.0
 10
9.0874184405
 20
9.4037974303
 30
0.0
 10
9.1011626984
 20
9.3635945742
 30
0.0
 10
9.117281994
 20
9.3241420919
 30
0.0
 10
9.1357158561
 20
9.2855876259
 30
0.0
 10
9.1563951778
 20
9.2480754339
 30
0.0
 10
9.1792424724
 20
9.2117458721
 30
0.0
 10
9.2041721638
 20
9.1767348692
 30
0.0
 10
9.2310909052
 20
9.1431734236
 30
0.0
 10
9.2598979265
 20
9.1111871167
 30
0.0
 10
9.2904854094
 20
9.0808956463
 30
0.0
 10
9.3227388882
 20
9.0524123825
 30
0.0
 10
9.356537675
 20
9.0258439452
 30
0.0
 10
9.3917553081
 20
9.0012898087
 30
0.0
 10
9.4282600218
 20
8.9788419303
 30
0.0
 10
9.4659152345
 20
8.9585844089
 30
0.0
 10
9.5045800576
 20
8.9405931701
 30
0.0
 10
9.5441098094
 20
8.9249356835
 30
0.0
 10
9.5843565843
 20
8.9116707086
 30
0.0
 10
9.6251696787
 20
8.9008480769
 30
0.0
 10
9.6663966022
 20
8.8925084921
 30
0.0
 10
9.7078819637
 20
8.8866834142
 30
0.0
 10
9.742579578
 20
8.8839399421
 30
0.0
 10
9.770307306
 20
8.8830239091
 30
0.0
 10
9.7910502384
 20
8.8829752191
 30
0.0
 10
9.811740994
 20
8.8835645013
 30
0.0
 10
9.8392022015
 20
8.8851979459
 30
0.0
 10
9.8733090816
 20
8.8888260156
 30
0.0
 10
9.9070541838
 20
8.8945718697
 30
0.0
 10
9.9337088877
 20
8.9004225433
 30
0.0
 10
9.9534966197
 20
8.9054281806
 30
0.0
 10
9.9730795373
 20
8.9110506404
 30
0.0
 10
9.9859975986
 20
8.9152103168
 30
0.0
 10
9.992415633
 20
8.9173911
 30
0.0
  0
SPLINE
  5
384
100
AcDbEntity
  8
0
100
AcDbSpline
 62
7
  6
CONTINUOUS
 70
0
 71
3
 72
39
 73
35
 74
0
 42
0.0000001
 43
0.0000001
 44
0.0000000001
 40
0.0
 40
0.0
 40
0.0
 40
0.0
 40
0.0322743283
 40
0.0644671078
 40
0.0965434017
 40
0.1284711899
 40
0.1602244108
 40
0.1917831014
 40
0.2231345502
 40
0.2542738168
 40
0.285204103
 40
0.3159367853
 40
0.346491125
 40
0.376893631
 40
0.407177084
 40
0.4373792492
 40
0.4675413296
 40
0.4977062336
 40
0.5279167493
 40
0.5582137251
 40
0.5886343568
 40
0.6192106713
 40
0.6499682774
 40
0.6809254336
 40
0.7120924559
 40
0.7434714713
 40
0.7750564984
 40
0.8068338309
 40
0.8387826774
 40
0.870876057
 40
0.9030817571
 40
0.9353638376
 40
0.9676830369
 40
1.0
 40
1.0
 40
1.0
 40
1.0
 10
7.1116700986
 20
10.1119340844
 30
0.0
 10
7.1141865363
 20
10.1087605952
 30
0.0
 10
7.1189254487
 20
10.1021872463
 30
0.0
 10
7.1250853199
 20
10.0917357665
 30
0.0
 10
7.1302344622
 20
10.0807977445
 30
0.0
 10
7.1343223351
 20
10.0694790868
 30
0.0
 10
7.1373096528
 20
10.0578882163
 30
0.0
 10
7.1391672911
 20
10.0461364939
 30
0.0
 10
7.1398770252
 20
10.0343368521
 30
0.0
 10
7.1394315849
 20
10.0226028066
 30
0.0
 10
7.1378348033
 20
10.011047367
 30
0.0
 10
7.1351016054
 20
9.9997819648
 30
0.0
 10
7.1312579141
 20
9.9889153767
 30
0.0
 10
7.1263404454
 20
9.9785526594
 30
0.0
 10
7.1203963947
 20
9.9687941028
 30
0.0
 10
7.1134830084
 20
9.9597342143
 30
0.0
 10
7.1056670389
 20
9.9514607513
 30
0.0
 10
7.0970240872
 20
9.944053817
 30
0.0
 10
7.0876378381
 20
9.9375850409
 30
0.0
 10
7.0775992035
 20
9.9321168538
 30
0.0
 10
7.0670053862
 20
9.9277018786
 30
0.0
 10
7.0559588869
 20
9.9243824346
 30
0.0
 10
7.0445664699
 20
9.9221901603
 30
0.0
 10
7.0329381036
 20
9.9211457502
 30
0.0
 10
7.0211858872
 20
9.9212588023
 30
0.0
 10
7.0094229725
 20
9.9225277714
 30
0.0
 10
6.9977624888
 20
9.9249400208
 30
0.0
 10
6.9863164764
 20
9.9284719798
 30
0.0
 10
6.9751948358
 20
9.9330893741
 30
0.0
 10
6.9645042938
 20
9.9387476176
 30
0.0
 10
6.9543474425
 20
9.9453920883
 30
0.0
 10
6.9448215615
 20
9.9529591609
 30
0.0
 10
6.9360187769
 20
9.9613750339
 30
0.0
 10
6.9306842089
 20
9.9675030386
 30
0.0
 10
6.928164447
 20
9.97068072
 30
0.0
  0
SPLINE
  5
385
100
AcDbEntity
  8
0
100
AcDbSpline
 62
7
  6
CONTINUOUS
 70
0
 71
3
 72
43
 73
39
 74
0
 42
0.0000001
 43
0.0000001
 44
0.0000000001
 40
0.0
 40
0.0
 40
0.0
 40
0.0
 40
0.015003589
 40
0.0300303798
 40
0.0450819563
 40
0.0601597928
 40
0.0903954254
 40
0.1207508951
 40
0.1359779873
 40
0.1512376231
 40
0.1665303925
 40
0.1818567371
 40
0.2126073125
 40
0.2434941285
 40
0.2745157575
 40
0.3056686093
 40
0.3369470159
 40
0.3683433449
 40
0.3998481401
 40
0.4314502851
 40
0.4631371879
 40
0.4948949825
 40
0.5267087445
 40
0.5585627191
 40
0.5904405574
 40
0.6223255587
 40
0.6542009172
 40
0.6860499689
 40
0.7178564373
 40
0.7496046756
 40
0.7812799017
 40
0.8128684249
 40
0.8443578571
 40
0.8757373219
 40
0.9069976044
 40
0.9381314077
 40
0.9691332312
 40
1.0
 40
1.0
 40
1.0
 40
1.0
 10
10.0214824092
 20
9.0182564878
 30
0.0
 10
10.0157576414
 20
9.0157302379
 30
0.0
 10
10.0042130509
 20
9.0108666399
 30
0.0
 10
9.986647658
 20
9.0041516464
 30
0.0
 10
9.9688376573
 20
8.998018256
 30
0.0
 10
9.9447699719
 20
8.9906180044
 30
0.0
 10
9.914156131
 20
8.9828535876
 30
0.0
 10
9.8830361147
 20
8.9771140021
 30
0.0
 10
9.8578828559
 20
8.9737398249
 30
0.0
 10
9.838883487
 20
8.9718187046
 30
0.0
 10
9.8197905079
 20
8.9705122849
 30
0.0
 10
9.7942086449
 20
8.9695903503
 30
0.0
 10
9.7620886221
 20
8.969984665
 30
0.0
 10
9.7235307379
 20
8.9729221503
 30
0.0
 10
9.6850686809
 20
8.9783120892
 30
0.0
 10
9.6468601112
 20
8.9861323342
 30
0.0
 10
9.6090602645
 20
8.9963508088
 30
0.0
 10
9.5718230458
 20
9.0089257146
 30
0.0
 10
9.5352999458
 20
9.0238056863
 30
0.0
 10
9.4996395561
 20
9.0409300076
 30
0.0
 10
9.4649869374
 20
9.0602288592
 30
0.0
 10
9.4314830442
 20
9.0816236022
 30
0.0
 10
9.3992641547
 20
9.1050270985
 30
0.0
 10
9.3684613223
 20
9.1303440631
 30
0.0
 10
9.3391998468
 20
9.1574714502
 30
0.0
 10
9.3115987691
 20
9.1862988695
 30
0.0
 10
9.2857703907
 20
9.2167090326
 30
0.0
 10
9.2618198202
 20
9.2485782262
 30
0.0
 10
9.2398445484
 20
9.2817768118
 30
0.0
 10
9.2199340546
 20
9.3161697487
 30
0.0
 10
9.2021694427
 20
9.3516171372
 30
0.0
 10
9.1866231163
 20
9.3879747875
 30
0.0
 10
9.1733584751
 20
9.4250947832
 30
0.0
 10
9.1624296784
 20
9.4628261384
 30
0.0
 10
9.1538813728
 20
9.5010151812
 30
0.0
 10
9.1477486118
 20
9.5395070167
 30
0.0
 10
9.1440565279
 20
9.578142913
 30
0.0
 10
9.1432306787
 20
9.6039531631
 30
0.0
 10
9.1432306787
 20
9.6168264397
 30
0.0
  0
SPLINE
  5
386
100
AcDbEntity
  8
0
100
AcDbSpline
 62
7
  6
CONTINUOUS
 70
0
 71
3
 72
17
 73
13
 74
0
 42
0.0000001
 43
0.0000001
 44
0.0000000001
 40
0.0
 40
0.0
 40
0.0
 40
0.0
 40
0.0526076986
 40
0.1066589172
 40
0.1621320828
 40
0.2190035329
 40
0.3368370423
 40
0.4599429703
 40
0.5880807153
 40
0.7209903408
 40
0.8583944792
 40
1.0
 40
1.0
 40
1.0
 40
1.0
 10
11.8586029267
 20
6.9457495952
 30
0.0
 10
11.8600889044
 20
6.9493084542
 30
0.0
 10
11.8630441368
 20
6.9565479579
 30
0.0
 10
11.8673721164
 20
6.967618173
 30
0.0
 10
11.8716531281
 20
6.9790410733
 30
0.0
 10
11.8773625385
 20
6.9949204634
 30
0.0
 10
11.8843510155
 20
7.0156065827
 30
0.0
 10
11.8924130089
 20
7.041436599
 30
0.0
 10
11.9002268949
 20
7.0684949475
 30
0.0
 10
11.9077733922
 20
7.0967153302
 30
0.0
 10
11.9150338487
 20
7.1260286082
 30
0.0
 10
11.9196060695
 20
7.1459661914
 30
0.0
 10
11.9218445371
 20
7.1561029733
 30
0.0
  0
SPLINE
  5
387
100
AcDbEntity
  8
0
100
AcDbSpline
 62
7
  6
CONTINUOUS
 70
0
 71
3
 72
18
 73
14
 74
0
 42
0.0000001
 43
0.0000001
 44
0.0000000001
 40
0.0
 40
0.0
 40
0.0
 40
0.0
 40
0.0520901595
 40
0.1057069154
 40
0.1608264348
 40
0.2174225512
 40
0.2754676519
 40
0.3349317705
 40
0.4579884468
 40
0.5863255444
 40
0.7196510123
 40
0.8576526111
 40
1.0
 40
1.0
 40
1.0
 40
1.0
 10
11.8098121741
 20
6.982574512
 30
0.0
 10
11.8112920365
 20
6.9860748203
 30
0.0
 10
11.81423431
 20
6.9932038743
 30
0.0
 10
11.8185374863
 20
7.0041199977
 30
0.0
 10
11.8227918616
 20
7.0154072462
 30
0.0
 10
11.826994548
 20
7.0270578444
 30
0.0
 10
11.8311426039
 20
7.0390638547
 30
0.0
 10
11.8366597821
 20
7.055725242
 30
0.0
 10
11.8433874444
 20
7.0773857317
 30
0.0
 10
11.8511094197
 20
7.1043722864
 30
0.0
 10
11.8585481565
 20
7.1325673365
 30
0.0
 10
11.8656831171
 20
7.1618935098
 30
0.0
 10
11.8701584949
 20
7.1818522426
 30
0.0
 10
11.8723454567
 20
7.1920044366
 30
0.0
  0
SPLINE
  5
388
100
AcDbEntity
  8
0
100
AcDbSpline
 62
7
  6
CONTINUOUS
 70
0
 71
3
 72
73
 73
69
 74
0
 42
0.0000001
 43
0.0000001
 44
0.0000000001
 40
0.0
 40
0.0
 40
0.0
 40
0.0
 40
0.0155842187
 40
0.0233573351
 40
0.0311170504
 40
0.0465963334
 40
0.0620249262
 40
0.0697213
 40
0.077405684
 40
0.0927384813
 40
0.1080272848
 40
0.1232752985
 40
0.1384861436
 40
0.1536638274
 40
0.1688127039
 40
0.1839374303
 40
0.1990429191
 40
0.2141342867
 40
0.2292168003
 40
0.2442958215
 40
0.2593767492
 40
0.2744649624
 40
0.289565762
 40
0.3046843148
 40
0.3198255988
 40
0.3349943509
 40
0.3501950187
 40
0.3654317152
 40
0.3807081792
 40
0.3960277389
 40
0.4113932814
 40
0.4268072272
 40
0.4422715102
 40
0.4577875624
 40
0.4733563058
 40
0.4889781483
 40
0.504652985
 40
0.5203802045
 40
0.5361586996
 40
0.551986882
 40
0.5678627018
 40
0.5837836705
 40
0.5997468881
 40
0.6157490725
 40
0.6317865915
 40
0.6478554975
 40
0.6639515646
 40
0.6800703266
 40
0.6962071184
 40
0.712357117
 40
0.7285153847
 40
0.7446769117
 40
0.7608366596
 40
0.7769896055
 40
0.7931307852
 40
0.8092553375
 40
0.8253585467
 40
0.8414358846
 40
0.8574830507
 40
0.8734960118
 40
0.8894710388
 40
0.9054047423
 40
0.9212941098
 40
0.9371365144
 40
0.9529298298
 40
0.9686721679
 40
0.9843626594
 40
1.0
 40
1.0
 40
1.0
 40
1.0
 10
11.3820384928
 20
9.0143488555
 30
0.0
 10
11.3820384928
 20
9.0279165064
 30
0.0
 10
11.3825369944
 20
9.0482561782
 30
0.0
 10
11.3842048503
 20
9.0752973405
 30
0.0
 10
11.3865347521
 20
9.1021983639
 30
0.0
 10
11.3906896033
 20
9.1356199536
 30
0.0
 10
11.396503342
 20
9.1687375379
 30
0.0
 10
11.4021377905
 20
9.194964323
 30
0.0
 10
11.4084139738
 20
9.2209591138
 30
0.0
 10
11.4174716993
 20
9.2530710108
 30
0.0
 10
11.4302650213
 20
9.2909184788
 30
0.0
 10
11.4449441047
 20
9.3279617411
 30
0.0
 10
11.4614735053
 20
9.3641108411
 30
0.0
 10
11.4798134692
 20
9.3992787573
 30
0.0
 10
11.4999198238
 20
9.4333806145
 30
0.0
 10
11.5217441386
 20
9.4663341572
 30
0.0
 10
11.5452338252
 20
9.4980598788
 30
0.0
 10
11.5703322674
 20
9.5284812352
 30
0.0
 10
11.5969789589
 20
9.5575248246
 30
0.0
 10
11.6251096319
 20
9.5851205862
 30
0.0
 10
11.654656428
 20
9.6112019628
 30
0.0
 10
11.6855480695
 20
9.6357060569
 30
0.0
 10
11.7177100315
 20
9.6585737856
 30
0.0
 10
11.7510647244
 20
9.6797500225
 30
0.0
 10
11.7855316828
 20
9.6991837323
 30
0.0
 10
11.8210277634
 20
9.7168280894
 30
0.0
 10
11.8574673377
 20
9.7326406114
 30
0.0
 10
11.8947625091
 20
9.7465832526
 30
0.0
 10
11.932823332
 20
9.7586224826
 30
0.0
 10
11.9715580291
 20
9.7687293679
 30
0.0
 10
12.0108732134
 20
9.7768796378
 30
0.0
 10
12.0506741139
 20
9.7830537416
 30
0.0
 10
12.0908648039
 20
9.7872368891
 30
0.0
 10
12.1313484298
 20
9.7894191034
 30
0.0
 10
12.1720274483
 20
9.7895952391
 30
0.0
 10
12.2128038625
 20
9.7877649767
 30
0.0
 10
12.253579456
 20
9.7839328241
 30
0.0
 10
12.2942560278
 20
9.7781081032
 30
0.0
 10
12.3347356269
 20
9.7703049267
 30
0.0
 10
12.374920785
 20
9.7605421598
 30
0.0
 10
12.4147147528
 20
9.7488433884
 30
0.0
 10
12.4540217356
 20
9.7352368649
 30
0.0
 10
12.4927471173
 20
9.7197554195
 30
0.0
 10
12.5307976878
 20
9.7024363855
 30
0.0
 10
12.5680818642
 20
9.6833215075
 30
0.0
 10
12.6045099097
 20
9.6624568428
 30
0.0
 10
12.6399941461
 20
9.6398926484
 30
0.0
 10
12.6744491689
 20
9.6156832702
 30
0.0
 10
12.70779206
 20
9.5898870194
 30
0.0
 10
12.7399425739
 20
9.5625660135
 30
0.0
 10
12.7708233316
 20
9.5337860311
 30
0.0
 10
12.8003600047
 20
9.5036163539
 30
0.0
 10
12.828481493
 20
9.4721296014
 30
0.0
 10
12.8551200931
 20
9.4394015569
 30
0.0
 10
12.880211666
 20
9.4055109904
 30
0.0
 10
12.9036958044
 20
9.3705394782
 30
0.0
 10
12.9255159599
 20
9.3345711918
 30
0.0
 10
12.9456195799
 20
9.2976926988
 30
0.0
 10
12.963958233
 20
9.2599927565
 30
0.0
 10
12.9804877249
 20
9.2215621
 30
0.0
 10
12.9951682035
 20
9.1824932263
 30
0.0
 10
13.0079642633
 20
9.1428801702
 30
0.0
 10
13.0188450252
 20
9.1028183055
 30
0.0
 10
13.027784274
 20
9.0624040221
 30
0.0
 10
13.0347602981
 20
9.021734802
 30
0.0
 10
13.0397564275
 20
8.9809080062
 30
0.0
 10
13.0427602422
 20
8.9400234992
 30
0.0
 10
13.0434310125
 20
8.9127447919
 30
0.0
 10
13.0434310125
 20
8.8991308929
 30
0.0
  0
SPLINE
  5
389
100
AcDbEntity
  8
0
100
AcDbSpline
 62
7
  6
CONTINUOUS
 70
0
 71
3
 72
25
 73
21
 74
0
 42
0.0000001
 43
0.0000001
 44
0.0000000001
 40
0.0
 40
0.0
 40
0.0
 40
0.0
 40
0.0637764164
 40
0.1273436353
 40
0.19070008
 40
0.253853617
 40
0.2853583667
 40
0.3168148662
 40
0.3795831367
 40
0.4421738129
 40
0.5045991443
 40
0.5668730588
 40
0.6290109586
 40
0.6910296128
 40
0.7529469921
 40
0.8147820893
 40
0.8765547289
 40
0.9074265475
 40
0.9382904681
 40
1.0
 40
1.0
 40
1.0
 40
1.0
 10
7.9501696381
 20
6.8796030461
 30
0.0
 10
7.9501696381
 20
6.890449452
 30
0.0
 10
7.9506887958
 20
6.9121103425
 30
0.0
 10
7.9530319988
 20
6.9444700176
 30
0.0
 10
7.9569333845
 20
6.9765727966
 30
0.0
 10
7.9614791517
 20
7.003070877
 30
0.0
 10
7.9658853765
 20
7.0240635831
 30
0.0
 10
7.9707937985
 20
7.044877237
 30
0.0
 10
7.9778786191
 20
7.0706008339
 30
0.0
 10
7.9878872632
 20
7.1009420174
 30
0.0
 10
7.9993740337
 20
7.1306654161
 30
0.0
 10
8.0123123916
 20
7.1597020026
 30
0.0
 10
8.026672641
 20
7.1879849145
 30
0.0
 10
8.042421646
 20
7.2154488624
 30
0.0
 10
8.059523202
 20
7.2420306099
 30
0.0
 10
8.0779375751
 20
7.267668452
 30
0.0
 10
8.0943458577
 20
7.2882027009
 30
0.0
 10
8.1080822747
 20
7.3040963259
 30
0.0
 10
8.1222150427
 20
7.3196234713
 30
0.0
 10
8.1332601824
 20
7.3308557129
 30
0.0
 10
8.1408086842
 20
7.3381470014
 30
0.0
  0
SPLINE
  5
38A
100
AcDbEntity
  8
0
100
AcDbSpline
 62
7
  6
CONTINUOUS
 70
0
 71
3
 72
23
 73
19
 74
0
 42
0.0000001
 43
0.0000001
 44
0.0000000001
 40
0.0
 40
0.0
 40
0.0
 40
0.0
 40
0.052790178
 40
0.1058485708
 40
0.159439106
 40
0.2138170689
 40
0.2692259757
 40
0.3258947937
 40
0.3840355776
 40
0.4438431412
 40
0.505494423
 40
0.5691480749
 40
0.6349461492
 40
0.7030145764
 40
0.7734635595
 40
0.8463900174
 40
0.9218781797
 40
1.0
 40
1.0
 40
1.0
 40
1.0
 10
14.9319343075
 20
9.9070996181
 30
0.0
 10
14.9334685029
 20
9.906993225
 30
0.0
 10
14.9365379965
 20
9.9066660457
 30
0.0
 10
14.9411118006
 20
9.9058349352
 30
0.0
 10
14.9456583738
 20
9.9046633787
 30
0.0
 10
14.9501756153
 20
9.9031521734
 30
0.0
 10
14.9546619063
 20
9.9013020663
 30
0.0
 10
14.9591155898
 20
9.8991139404
 30
0.0
 10
14.9635352143
 20
9.8965889311
 30
0.0
 10
14.9679193205
 20
9.8937280928
 30
0.0
 10
14.9722664914
 20
9.8905325612
 30
0.0
 10
14.9765754444
 20
9.8870036626
 30
0.0
 10
14.9808448249
 20
9.8831426592
 30
0.0
 10
14.9850732863
 20
9.8789509031
 30
0.0
 10
14.989259585
 20
9.8744299305
 30
0.0
 10
14.9934023915
 20
9.8695812353
 30
0.0
 10
14.9975003158
 20
9.864406515
 30
0.0
 10
15.000155413
 20
9.8608031096
 30
0.0
 10
15.0014760057
 20
9.8589496043
 30
0.0
  0
SPLINE
  5
38B
100
AcDbEntity
  8
0
100
AcDbSpline
 62
7
  6
CONTINUOUS
 70
0
 71
3
 72
25
 73
21
 74
0
 42
0.0000001
 43
0.0000001
 44
0.0000000001
 40
0.0
 40
0.0
 40
0.0
 40
0.0
 40
0.0637764164
 40
0.1273436353
 40
0.19070008
 40
0.253853617
 40
0.2853583667
 40
0.3168148662
 40
0.3795831367
 40
0.4421738129
 40
0.5045991443
 40
0.5668730588
 40
0.6290109586
 40
0.6910296128
 40
0.7529469921
 40
0.8147820893
 40
0.8765547289
 40
0.9074265475
 40
0.9382904681
 40
1.0
 40
1.0
 40
1.0
 40
1.0
 10
8.6765457625
 20
9.2440433996
 30
0.0
 10
8.6765457625
 20
9.2548898055
 30
0.0
 10
8.6770649202
 20
9.276550696
 30
0.0
 10
8.6794081231
 20
9.3089103711
 30
0.0
 10
8.6833095089
 20
9.3410131501
 30
0.0
 10
8.6878552761
 20
9.3675112305
 30
0.0
 10
8.6922615009
 20
9.3885039365
 30
0.0
 10
8.6971699229
 20
9.4093175905
 30
0.0
 10
8.7042547435
 20
9.4350411874
 30
0.0
 10
8.7142633876
 20
9.4653823709
 30
0.0
 10
8.7257501581
 20
9.4951057696
 30
0.0
 10
8.738688516
 20
9.5241423561
 30
0.0
 10
8.7530487654
 20
9.552425268
 30
0.0
 10
8.7687977704
 20
9.5798892159
 30
0.0
 10
8.7858993264
 20
9.6064709634
 30
0.0
 10
8.8043136995
 20
9.6321088055
 30
0.0
 10
8.8207219821
 20
9.6526430543
 30
0.0
 10
8.834458399
 20
9.6685366794
 30
0.0
 10
8.8485911671
 20
9.6840638248
 30
0.0
 10
8.8596363068
 20
9.6952960664
 30
0.0
 10
8.8671848086
 20
9.7025873549
 30
0.0
  0
SPLINE
  5
38C
100
AcDbEntity
  8
0
100
AcDbSpline
 62
7
  6
CONTINUOUS
 70
0
 71
3
 72
43
 73
39
 74
0
 42
0.0000001
 43
0.0000001
 44
0.0000000001
 40
0.0
 40
0.0
 40
0.0
 40
0.0
 40
0.0308130671
 40
0.0617556531
 40
0.0928248321
 40
0.1240158949
 40
0.155322334
 40
0.1867360111
 40
0.218247267
 40
0.249845079
 40
0.2815172228
 40
0.3132504506
 40
0.3450306785
 40
0.3768431825
 40
0.4086728004
 40
0.4405041385
 40
0.4723217796
 40
0.5041104922
 40
0.5358554367
 40
0.5675423696
 40
0.59915784
 40
0.6306893801
 40
0.6621256844
 40
0.6934567775
 40
0.7246741669
 40
0.7557709796
 40
0.7867420786
 40
0.8175841586
 40
0.8329581025
 40
0.8482994312
 40
0.8636082689
 40
0.878884873
 40
0.9093392862
 40
0.9396707912
 40
0.9547942612
 40
0.9698895492
 40
0.9849577313
 40
1.0
 40
1.0
 40
1.0
 40
1.0
 10
8.3298568639
 20
7.2463527652
 30
0.0
 10
8.3298568639
 20
7.232467631
 30
0.0
 10
8.3307109326
 20
7.2046316783
 30
0.0
 10
8.3345303556
 20
7.162952933
 30
0.0
 10
8.3408762733
 20
7.1214097971
 30
0.0
 10
8.3497246987
 20
7.0801598934
 30
0.0
 10
8.3610423161
 20
7.0393570768
 30
0.0
 10
8.374786574
 20
6.9991542207
 30
0.0
 10
8.3909058696
 20
6.9597017384
 30
0.0
 10
8.4093397317
 20
6.9211472724
 30
0.0
 10
8.4300190534
 20
6.8836350804
 30
0.0
 10
8.452866348
 20
6.8473055186
 30
0.0
 10
8.4777960394
 20
6.8122945157
 30
0.0
 10
8.5047147808
 20
6.7787330701
 30
0.0
 10
8.5335218021
 20
6.7467467632
 30
0.0
 10
8.564109285
 20
6.7164552929
 30
0.0
 10
8.5963627638
 20
6.687972029
 30
0.0
 10
8.6301615506
 20
6.6614035918
 30
0.0
 10
8.6653791837
 20
6.6368494552
 30
0.0
 10
8.7018838974
 20
6.6144015768
 30
0.0
 10
8.7395391101
 20
6.5941440554
 30
0.0
 10
8.7782039332
 20
6.5761528166
 30
0.0
 10
8.817733685
 20
6.56049533
 30
0.0
 10
8.8579804599
 20
6.5472303552
 30
0.0
 10
8.8987935543
 20
6.5364077234
 30
0.0
 10
8.9400204778
 20
6.5280681386
 30
0.0
 10
8.9815058394
 20
6.5222430608
 30
0.0
 10
9.0162034537
 20
6.5194995886
 30
0.0
 10
9.0439311817
 20
6.5185835556
 30
0.0
 10
9.064674114
 20
6.5185348657
 30
0.0
 10
9.0853648696
 20
6.5191241479
 30
0.0
 10
9.1128260771
 20
6.5207575924
 30
0.0
 10
9.1469329572
 20
6.5243856621
 30
0.0
 10
9.1806780594
 20
6.5301315163
 30
0.0
 10
9.2073327633
 20
6.5359821899
 30
0.0
 10
9.2271204953
 20
6.5409878271
 30
0.0
 10
9.2467034129
 20
6.5466102869
 30
0.0
 10
9.2596214742
 20
6.5507699633
 30
0.0
 10
9.2660395086
 20
6.5529507465
 30
0.0
  0
SPLINE
  5
38D
100
AcDbEntity
  8
0
100
AcDbSpline
 62
7
  6
CONTINUOUS
 70
0
 71
3
 72
15
 73
11
 74
0
 42
0.0000001
 43
0.0000001
 44
0.0000000001
 40
0.0
 40
0.0
 40
0.0
 40
0.0
 40
0.1262907723
 40
0.2522008038
 40
0.3777248307
 40
0.5028766503
 40
0.6276652134
 40
0.7521023858
 40
0.876210432
 40
1.0
 40
1.0
 40
1.0
 40
1.0
 10
8.3298568639
 20
7.2463527652
 30
0.0
 10
8.3298568639
 20
7.2563398763
 30
0.0
 10
8.330297063
 20
7.276286853
 30
0.0
 10
8.3322834411
 20
7.3061007756
 30
0.0
 10
8.3355914253
 20
7.3357071863
 30
0.0
 10
8.340214273
 20
7.3650471254
 30
0.0
 10
8.346143253
 20
7.3940636145
 30
0.0
 10
8.3533667149
 20
7.4227003649
 30
0.0
 10
8.3618704936
 20
7.4509002627
 30
0.0
 10
8.3683906545
 20
7.4693967488
 30
0.0
 10
8.371858066
 20
7.4785514059
 30
0.0
  0
SPLINE
  5
38E
100
AcDbEntity
  8
0
100
AcDbSpline
 62
7
  6
CONTINUOUS
 70
0
 71
3
 72
73
 73
69
 74
0
 42
0.0000001
 43
0.0000001
 44
0.0000000001
 40
0.0
 40
0.0
 40
0.0
 40
0.0
 40
0.0155842187
 40
0.0233573351
 40
0.0311170504
 40
0.0465963334
 40
0.0620249262
 40
0.0697213
 40
0.077405684
 40
0.0927384813
 40
0.1080272848
 40
0.1232752985
 40
0.1384861436
 40
0.1536638274
 40
0.1688127039
 40
0.1839374303
 40
0.1990429191
 40
0.2141342867
 40
0.2292168003
 40
0.2442958215
 40
0.2593767492
 40
0.2744649624
 40
0.289565762
 40
0.3046843148
 40
0.3198255988
 40
0.3349943509
 40
0.3501950187
 40
0.3654317152
 40
0.3807081792
 40
0.3960277389
 40
0.4113932814
 40
0.4268072272
 40
0.4422715102
 40
0.4577875624
 40
0.4733563058
 40
0.4889781483
 40
0.504652985
 40
0.5203802045
 40
0.5361586996
 40
0.551986882
 40
0.5678627018
 40
0.5837836705
 40
0.5997468881
 40
0.6157490725
 40
0.6317865915
 40
0.6478554975
 40
0.6639515646
 40
0.6800703266
 40
0.6962071184
 40
0.712357117
 40
0.7285153847
 40
0.7446769117
 40
0.7608366596
 40
0.7769896055
 40
0.7931307852
 40
0.8092553375
 40
0.8253585467
 40
0.8414358846
 40
0.8574830507
 40
0.8734960118
 40
0.8894710388
 40
0.9054047423
 40
0.9212941098
 40
0.9371365144
 40
0.9529298298
 40
0.9686721679
 40
0.9843626594
 40
1.0
 40
1.0
 40
1.0
 40
1.0
 10
13.0434310125
 20
8.8991308929
 30
0.0
 10
13.0434310125
 20
8.885563242
 30
0.0
 10
13.0429325109
 20
8.8652235702
 30
0.0
 10
13.041264655
 20
8.8381824079
 30
0.0
 10
13.0389347532
 20
8.8112813844
 30
0.0
 10
13.0347799019
 20
8.7778597948
 30
0.0
 10
13.0289661633
 20
8.7447422105
 30
0.0
 10
13.0233317148
 20
8.7185154254
 30
0.0
 10
13.0170555315
 20
8.6925206346
 30
0.0
 10
13.007997806
 20
8.6604087376
 30
0.0
 10
12.9952044839
 20
8.6225612696
 30
0.0
 10
12.9805254005
 20
8.5855180073
 30
0.0
 10
12.9639959999
 20
8.5493689073
 30
0.0
 10
12.9456560361
 20
8.5142009911
 30
0.0
 10
12.9255496815
 20
8.4800991339
 30
0.0
 10
12.9037253667
 20
8.4471455912
 30
0.0
 10
12.8802356801
 20
8.4154198696
 30
0.0
 10
12.8551372379
 20
8.3849985132
 30
0.0
 10
12.8284905464
 20
8.3559549238
 30
0.0
 10
12.8003598734
 20
8.3283591621
 30
0.0
 10
12.7708130772
 20
8.3022777856
 30
0.0
 10
12.7399214357
 20
8.2777736915
 30
0.0
 10
12.7077594738
 20
8.2549059628
 30
0.0
 10
12.6744047808
 20
8.2337297259
 30
0.0
 10
12.6399378224
 20
8.214296016
 30
0.0
 10
12.6044417418
 20
8.196651659
 30
0.0
 10
12.5680021675
 20
8.180839137
 30
0.0
 10
12.5307069961
 20
8.1668964958
 30
0.0
 10
12.4926461732
 20
8.1548572658
 30
0.0
 10
12.4539114762
 20
8.1447503805
 30
0.0
 10
12.4145962919
 20
8.1366001106
 30
0.0
 10
12.3747953913
 20
8.1304260067
 30
0.0
 10
12.3346047014
 20
8.1262428593
 30
0.0
 10
12.2941210755
 20
8.124060645
 30
0.0
 10
12.2534420569
 20
8.1238845093
 30
0.0
 10
12.2126656427
 20
8.1257147717
 30
0.0
 10
12.1718900492
 20
8.1295469243
 30
0.0
 10
12.1312134775
 20
8.1353716452
 30
0.0
 10
12.0907338784
 20
8.1431748216
 30
0.0
 10
12.0505487203
 20
8.1529375886
 30
0.0
 10
12.0107547524
 20
8.16463636
 30
0.0
 10
11.9714477697
 20
8.1782428835
 30
0.0
 10
11.9327223879
 20
8.1937243289
 30
0.0
 10
11.8946718174
 20
8.2110433629
 30
0.0
 10
11.857387641
 20
8.2301582409
 30
0.0
 10
11.8209595955
 20
8.2510229056
 30
0.0
 10
11.7854753592
 20
8.2735871
 30
0.0
 10
11.7510203363
 20
8.2977964782
 30
0.0
 10
11.7176774452
 20
8.323592729
 30
0.0
 10
11.6855269314
 20
8.3509137349
 30
0.0
 10
11.6546461736
 20
8.3796937173
 30
0.0
 10
11.6251095006
 20
8.4098633945
 30
0.0
 10
11.5969880123
 20
8.441350147
 30
0.0
 10
11.5703494121
 20
8.4740781915
 30
0.0
 10
11.5452578393
 20
8.507968758
 30
0.0
 10
11.5217737008
 20
8.5429402702
 30
0.0
 10
11.4999535453
 20
8.5789085566
 30
0.0
 10
11.4798499254
 20
8.6157870496
 30
0.0
 10
11.4615112723
 20
8.6534869918
 30
0.0
 10
11.4449817803
 20
8.6919176484
 30
0.0
 10
11.4303013018
 20
8.7309865221
 30
0.0
 10
11.4175052419
 20
8.7705995781
 30
0.0
 10
11.4066244801
 20
8.8106614429
 30
0.0
 10
11.3976852312
 20
8.8510757262
 30
0.0
 10
11.3907092071
 20
8.8917449463
 30
0.0
 10
11.3857130777
 20
8.9325717422
 30
0.0
 10
11.3827092631
 20
8.9734562492
 30
0.0
 10
11.3820384928
 20
9.0007349565
 30
0.0
 10
11.3820384928
 20
9.0143488555
 30
0.0
  0
SPLINE
  5
38F
100
AcDbEntity
  8
0
100
AcDbSpline
 62
7
  6
CONTINUOUS
 70
0
 71
3
 72
25
 73
21
 74
0
 42
0.0000001
 43
0.0000001
 44
0.0000000001
 40
0.0
 40
0.0
 40
0.0
 40
0.0
 40
0.0637764164
 40
0.1273436353
 40
0.19070008
 40
0.253853617
 40
0.2853583667
 40
0.3168148662
 40
0.3795831367
 40
0.4421738129
 40
0.5045991443
 40
0.5668730588
 40
0.6290109586
 40
0.6910296128
 40
0.7529469921
 40
0.8147820893
 40
0.8765547289
 40
0.9074265475
 40
0.9382904681
 40
1.0
 40
1.0
 40
1.0
 40
1.0
 10
11.5743234131
 20
9.043081837
 30
0.0
 10
11.5743234131
 20
9.0539282429
 30
0.0
 10
11.5748425707
 20
9.0755891334
 30
0.0
 10
11.5771857737
 20
9.1079488085
 30
0.0
 10
11.5810871595
 20
9.1400515874
 30
0.0
 10
11.5856329267
 20
9.1665496679
 30
0.0
 10
11.5900391514
 20
9.1875423739
 30
0.0
 10
11.5949475735
 20
9.2083560279
 30
0.0
 10
11.6020323941
 20
9.2340796248
 30
0.0
 10
11.6120410381
 20
9.2644208083
 30
0.0
 10
11.6235278087
 20
9.294144207
 30
0.0
 10
11.6364661666
 20
9.3231807935
 30
0.0
 10
11.650826416
 20
9.3514637053
 30
0.0
 10
11.6665754209
 20
9.3789276533
 30
0.0
 10
11.683676977
 20
9.4055094008
 30
0.0
 10
11.70209135
 20
9.4311472429
 30
0.0
 10
11.7184996326
 20
9.4516814917
 30
0.0
 10
11.7322360496
 20
9.4675751168
 30
0.0
 10
11.7463688177
 20
9.4831022622
 30
0.0
 10
11.7574139574
 20
9.4943345038
 30
0.0
 10
11.7649624592
 20
9.5016257923
 30
0.0
  0
SPLINE
  5
390
100
AcDbEntity
  8
0
100
AcDbSpline
 62
7
  6
CONTINUOUS
 70
0
 71
3
 72
23
 73
19
 74
0
 42
0.0000001
 43
0.0000001
 44
0.0000000001
 40
0.0
 40
0.0
 40
0.0
 40
0.0
 40
0.0809721016
 40
0.1595351091
 40
0.235660606
 40
0.3093249809
 40
0.3805087447
 40
0.4491977128
 40
0.5153826048
 40
0.5790597452
 40
0.6402314636
 40
0.698906409
 40
0.7550997855
 40
0.8088351375
 40
0.860145442
 40
0.9090741672
 40
0.9556726056
 40
1.0
 40
1.0
 40
1.0
 40
1.0
 10
11.5371239126
 20
7.3093887891
 30
0.0
 10
11.5359436412
 20
7.3065792094
 30
0.0
 10
11.5335959906
 20
7.3010529307
 30
0.0
 10
11.5300498644
 20
7.2929233365
 30
0.0
 10
11.5265262233
 20
7.2850845161
 30
0.0
 10
11.5230201801
 20
7.2775429557
 30
0.0
 10
11.5195267028
 20
7.2703050629
 30
0.0
 10
11.5160420547
 20
7.2633765446
 30
0.0
 10
11.5125622073
 20
7.2567631656
 30
0.0
 10
11.5090842037
 20
7.2504701141
 30
0.0
 10
11.5056054824
 20
7.2445023312
 30
0.0
 10
11.5021237347
 20
7.2388646767
 30
0.0
 10
11.4986379321
 20
7.2335612723
 30
0.0
 10
11.4951467297
 20
7.2285964751
 30
0.0
 10
11.4916501047
 20
7.2239737884
 30
0.0
 10
11.4881481129
 20
7.2196967478
 30
0.0
 10
11.4846418677
 20
7.215768923
 30
0.0
 10
11.482244017
 20
7.2133251112
 30
0.0
 10
11.4810440979
 20
7.2121660783
 30
0.0
  0
SPLINE
  5
391
100
AcDbEntity
  8
0
100
AcDbSpline
 62
7
  6
CONTINUOUS
 70
0
 71
3
 72
43
 73
39
 74
0
 42
0.0000001
 43
0.0000001
 44
0.0000000001
 40
0.0
 40
0.0
 40
0.0
 40
0.0
 40
0.015003589
 40
0.0300303798
 40
0.0450819563
 40
0.0601597928
 40
0.0903954254
 40
0.1207508951
 40
0.1359779873
 40
0.1512376231
 40
0.1665303925
 40
0.1818567371
 40
0.2126073125
 40
0.2434941285
 40
0.2745157575
 40
0.3056686093
 40
0.3369470159
 40
0.3683433449
 40
0.3998481401
 40
0.4314502851
 40
0.4631371879
 40
0.4948949825
 40
0.5267087445
 40
0.5585627191
 40
0.5904405574
 40
0.6223255587
 40
0.6542009172
 40
0.6860499689
 40
0.7178564373
 40
0.7496046756
 40
0.7812799017
 40
0.8128684249
 40
0.8443578571
 40
0.8757373219
 40
0.9069976044
 40
0.9381314077
 40
0.9691332312
 40
1.0
 40
1.0
 40
1.0
 40
1.0
 10
12.1928839354
 20
6.4528545717
 30
0.0
 10
12.1871591676
 20
6.4503283218
 30
0.0
 10
12.175614577
 20
6.4454647238
 30
0.0
 10
12.1580491842
 20
6.4387497303
 30
0.0
 10
12.1402391835
 20
6.4326163399
 30
0.0
 10
12.1161714981
 20
6.4252160883
 30
0.0
 10
12.0855576572
 20
6.4174516714
 30
0.0
 10
12.0544376408
 20
6.411712086
 30
0.0
 10
12.0292843821
 20
6.4083379088
 30
0.0
 10
12.0102850131
 20
6.4064167885
 30
0.0
 10
11.991192034
 20
6.4051103688
 30
0.0
 10
11.9656101711
 20
6.4041884342
 30
0.0
 10
11.9334901483
 20
6.4045827489
 30
0.0
 10
11.8949322641
 20
6.4075202342
 30
0.0
 10
11.8564702071
 20
6.4129101731
 30
0.0
 10
11.8182616374
 20
6.4207304181
 30
0.0
 10
11.7804617907
 20
6.4309488927
 30
0.0
 10
11.743224572
 20
6.4435237985
 30
0.0
 10
11.706701472
 20
6.4584037701
 30
0.0
 10
11.6710410823
 20
6.4755280915
 30
0.0
 10
11.6363884636
 20
6.494826943
 30
0.0
 10
11.6028845704
 20
6.5162216861
 30
0.0
 10
11.5706656809
 20
6.5396251824
 30
0.0
 10
11.5398628485
 20
6.564942147
 30
0.0
 10
11.510601373
 20
6.5920695341
 30
0.0
 10
11.4830002953
 20
6.6208969534
 30
0.0
 10
11.4571719169
 20
6.6513071164
 30
0.0
 10
11.4332213464
 20
6.6831763101
 30
0.0
 10
11.4112460746
 20
6.7163748957
 30
0.0
 10
11.3913355808
 20
6.7507678326
 30
0.0
 10
11.3735709689
 20
6.7862152211
 30
0.0
 10
11.3580246424
 20
6.8225728714
 30
0.0
 10
11.3447600012
 20
6.8596928671
 30
0.0
 10
11.3338312045
 20
6.8974242223
 30
0.0
 10
11.325282899
 20
6.9356132651
 30
0.0
 10
11.319150138
 20
6.9741051006
 30
0.0
 10
11.315458054
 20
7.0127409969
 30
0.0
 10
11.3146322049
 20
7.038551247
 30
0.0
 10
11.3146322049
 20
7.0514245235
 30
0.0
  0
SPLINE
  5
392
100
AcDbEntity
  8
0
100
AcDbSpline
 62
7
  6
CONTINUOUS
 70
0
 71
3
 72
15
 73
11
 74
0
 42
0.0000001
 43
0.0000001
 44
0.0000000001
 40
0.0
 40
0.0
 40
0.0
 40
0.0
 40
0.123729291
 40
0.2478420637
 40
0.3723243888
 40
0.4971749818
 40
0.6223820865
 40
0.7479311834
 40
0.8738130109
 40
1.0
 40
1.0
 40
1.0
 40
1.0
 10
11.9540106389
 20
9.409831556
 30
0.0
 10
11.9540106389
 20
9.3997777665
 30
0.0
 10
11.9544580974
 20
9.3796362275
 30
0.0
 10
11.9564627541
 20
9.3494397231
 30
0.0
 10
11.9597982811
 20
9.3192689315
 30
0.0
 10
11.9644577474
 20
9.2891843268
 30
0.0
 10
11.9704321978
 20
9.2592447117
 30
0.0
 10
11.9777097274
 20
9.2295085478
 30
0.0
 10
11.9862759233
 20
9.2000354365
 30
0.0
 10
11.9928273246
 20
9.1806215748
 30
0.0
 10
11.9963108586
 20
9.1709779701
 30
0.0
  0
SPLINE
  5
393
100
AcDbEntity
  8
0
100
AcDbSpline
 62
7
  6
CONTINUOUS
 70
0
 71
3
 72
15
 73
11
 74
0
 42
0.0000001
 43
0.0000001
 44
0.0000000001
 40
0.0
 40
0.0
 40
0.0
 40
0.0
 40
0.12629123
 40
0.2522027024
 40
0.3777270322
 40
0.5028788274
 40
0.6276670782
 40
0.7521051189
 40
0.8762097505
 40
1.0
 40
1.0
 40
1.0
 40
1.0
 10
11.9540106389
 20
9.409831556
 30
0.0
 10
11.9540106389
 20
9.4198267061
 30
0.0
 10
11.9544515689
 20
9.4397898208
 30
0.0
 10
11.9564411383
 20
9.4696277165
 30
0.0
 10
11.9597544804
 20
9.4992577031
 30
0.0
 10
11.9643848212
 20
9.5286205684
 30
0.0
 10
11.9703233339
 20
9.5576593925
 30
0.0
 10
11.9775584385
 20
9.5863173953
 30
0.0
 10
11.9860756858
 20
9.6145377459
 30
0.0
 10
11.9926062886
 20
9.6330469996
 30
0.0
 10
11.996079234
 20
9.642208006
 30
0.0
  0
SPLINE
  5
394
100
AcDbEntity
  8
0
100
AcDbSpline
 62
7
  6
CONTINUOUS
 70
0
 71
3
 72
51
 73
47
 74
0
 42
0.0000001
 43
0.0000001
 44
0.0000000001
 40
0.0
 40
0.0
 40
0.0
 40
0.0
 40
0.0310732515
 40
0.0623036961
 40
0.0936867933
 40
0.1252138194
 40
0.156873433
 40
0.1886514448
 40
0.2205312488
 40
0.2524941713
 40
0.2845198641
 40
0.3165867233
 40
0.3486723243
 40
0.38075387
 40
0.4128086445
 40
0.4448144641
 40
0.476750121
 40
0.5085958143
 40
0.5403335614
 40
0.5719475802
 40
0.603424637
 40
0.634754353
 40
0.6503641687
 40
0.6659346995
 40
0.6814655591
 40
0.6969565712
 40
0.7124077861
 40
0.7278194675
 40
0.7431921022
 40
0.7585263985
 40
0.7738232752
 40
0.7890838722
 40
0.8043095316
 40
0.8195017998
 40
0.83466242
 40
0.849793315
 40
0.8648965896
 40
0.8799745079
 40
0.8950294858
 40
0.9100640799
 40
0.9250809642
 40
0.9400829245
 40
0.9550728351
 40
0.9700536421
 40
0.9850283509
 40
1.0
 40
1.0
 40
1.0
 40
1.0
 10
7.9501696381
 20
6.8796030461
 30
0.0
 10
7.9501696381
 20
6.8627748022
 30
0.0
 10
7.9514249862
 20
6.8290202341
 30
0.0
 10
7.9570298548
 20
6.7785499691
 30
0.0
 10
7.9663296889
 20
6.7283760675
 30
0.0
 10
7.9792731069
 20
6.6787775926
 30
0.0
 10
7.9957884485
 20
6.6300259774
 30
0.0
 10
8.0157846901
 20
6.5823890605
 30
0.0
 10
8.0391516633
 20
6.5361281864
 30
0.0
 10
8.0657608133
 20
6.4914972106
 30
0.0
 10
8.0954658762
 20
6.448741015
 30
0.0
 10
8.1281036845
 20
6.4080942196
 30
0.0
 10
8.1634950348
 20
6.3697798927
 30
0.0
 10
8.2014456253
 20
6.3340082989
 30
0.0
 10
8.2417471754
 20
6.3009758092
 30
0.0
 10
8.2841785471
 20
6.2708638281
 30
0.0
 10
8.3285069327
 20
6.24383782
 30
0.0
 10
8.3744891515
 20
6.2200463738
 30
0.0
 10
8.4218727441
 20
6.1996203762
 30
0.0
 10
8.4703981652
 20
6.1826722678
 30
0.0
 10
8.5197972538
 20
6.1692957623
 30
0.0
 10
8.5615231396
 20
6.1611758095
 30
0.0
 10
8.5950634926
 20
6.1565371542
 30
0.0
 10
8.6202383021
 20
6.1539913997
 30
0.0
 10
8.645425301
 20
6.1523787801
 30
0.0
 10
8.6705902752
 20
6.1517015531
 30
0.0
 10
8.6956985037
 20
6.1519604969
 30
0.0
 10
8.7207154868
 20
6.1531554753
 30
0.0
 10
8.7456068111
 20
6.1552847326
 30
0.0
 10
8.7703382483
 20
6.1583453661
 30
0.0
 10
8.7948757595
 20
6.1623333113
 30
0.0
 10
8.8191856242
 20
6.1672429005
 30
0.0
 10
8.8432343613
 20
6.1730676009
 30
0.0
 10
8.8669889081
 20
6.1797992968
 30
0.0
 10
8.890416589
 20
6.187428739
 30
0.0
 10
8.9134851203
 20
6.1959455795
 30
0.0
 10
8.936162832
 20
6.2053379185
 30
0.0
 10
8.9584184416
 20
6.2155930356
 30
0.0
 10
8.9802213628
 20
6.226696728
 30
0.0
 10
9.0015416053
 20
6.2386337126
 30
0.0
 10
9.0223497458
 20
6.2513877019
 30
0.0
 10
9.0426172659
 20
6.2649409765
 30
0.0
 10
9.0623161373
 20
6.2792750328
 30
0.0
 10
9.081419399
 20
6.2943701593
 30
0.0
 10
9.0999004255
 20
6.310205208
 30
0.0
 10
9.1117905589
 20
6.3212419977
 30
0.0
 10
9.1176223842
 20
6.3268751051
 30
0.0
  0
SPLINE
  5
395
100
AcDbEntity
  8
0
100
AcDbSpline
 62
7
  6
CONTINUOUS
 70
0
 71
3
 72
67
 73
63
 74
0
 42
0.0000001
 43
0.0000001
 44
0.0000000001
 40
0.0
 40
0.0
 40
0.0
 40
0.0
 40
0.0452100989
 40
0.0910008364
 40
0.1371883692
 40
0.183585715
 40
0.2300053249
 40
0.2762593961
 40
0.3221610018
 40
0.3675250301
 40
0.4121691589
 40
0.4559148351
 40
0.4985882708
 40
0.5194704045
 40
0.5400220161
 40
0.5602231578
 40
0.5800544325
 40
0.5994969435
 40
0.6185323721
 40
0.6371430433
 40
0.6553118814
 40
0.6730225883
 40
0.6902595554
 40
0.7070080243
 40
0.7232541088
 40
0.7389848235
 40
0.754188278
 40
0.7688536093
 40
0.782971248
 40
0.796532929
 40
0.809531877
 40
0.8219630437
 40
0.8338231942
 40
0.8451113554
 40
0.8558289813
 40
0.8659804821
 40
0.8755737161
 40
0.884620568
 40
0.8931378811
 40
0.9011482533
 40
0.9086813189
 40
0.9157749243
 40
0.9224764257
 40
0.9288438133
 40
0.9319246608
 40
0.9349487983
 40
0.9379264824
 40
0.9408684995
 40
0.943786083
 40
0.9466907733
 40
0.9495942751
 40
0.9525083127
 40
0.9554444684
 40
0.9584140433
 40
0.9614279368
 40
0.9644965161
 40
0.9676295467
 40
0.9708361557
 40
0.977501043
 40
0.9845526509
 40
0.9920393771
 40
1.0
 40
1.0
 40
1.0
 40
1.0
 10
15.4445753018
 20
7.5396435307
 30
0.0
 10
15.4445753018
 20
7.5196872815
 30
0.0
 10
15.4442193942
 20
7.4795176745
 30
0.0
 10
15.4426500217
 20
7.4189788002
 30
0.0
 10
15.4400477139
 20
7.357950856
 30
0.0
 10
15.4364235749
 20
7.2966970728
 30
0.0
 10
15.4317932345
 20
7.2354816591
 30
0.0
 10
15.4261766609
 20
7.1745685696
 30
0.0
 10
15.4195981338
 20
7.1142204666
 30
0.0
 10
15.4120861255
 20
7.054697566
 30
0.0
 10
15.4036731883
 20
6.9962564265
 30
0.0
 10
15.394395765
 20
6.9391491288
 30
0.0
 10
15.3859179518
 20
6.8925467089
 30
0.0
 10
15.3787227751
 20
6.8561241962
 30
0.0
 10
15.3731751583
 20
6.829488942
 30
0.0
 10
15.3674434826
 20
6.8033673867
 30
0.0
 10
15.3615339694
 20
6.7777876709
 30
0.0
 10
15.3554529914
 20
6.7527773842
 30
0.0
 10
15.3492071131
 20
6.7283634884
 30
0.0
 10
15.3428031342
 20
6.7045722963
 30
0.0
 10
15.3362479145
 20
6.6814294535
 30
0.0
 10
15.3295486164
 20
6.6589598855
 30
0.0
 10
15.3227124325
 20
6.6371877986
 30
0.0
 10
15.3157467799
 20
6.6161366295
 30
0.0
 10
15.3086592121
 20
6.5958290269
 30
0.0
 10
15.3014573374
 20
6.5762868388
 30
0.0
 10
15.2941490219
 20
6.557531048
 30
0.0
 10
15.2867420809
 20
6.5395818035
 30
0.0
 10
15.2792445702
 20
6.5224583336
 30
0.0
 10
15.2716645555
 20
6.5061789673
 30
0.0
 10
15.2640101617
 20
6.4907611019
 30
0.0
 10
15.2562896753
 20
6.476221134
 30
0.0
 10
15.2485112439
 20
6.4625745355
 30
0.0
 10
15.2406832204
 20
6.4498356941
 30
0.0
 10
15.2328137744
 20
6.4380180324
 30
0.0
 10
15.2249110857
 20
6.4271339074
 30
0.0
 10
15.2169832512
 20
6.417194603
 30
0.0
 10
15.209038038
 20
6.4082104783
 30
0.0
 10
15.2010831716
 20
6.400190772
 30
0.0
 10
15.193125786
 20
6.3931440262
 30
0.0
 10
15.1851729031
 20
6.3870779948
 30
0.0
 10
15.1772307901
 20
6.3820000101
 30
0.0
 10
15.1693067541
 20
6.3779176904
 30
0.0
 10
15.1626500261
 20
6.3753232031
 30
0.0
 10
15.1573638425
 20
6.3737751569
 30
0.0
 10
15.1534535986
 20
6.372878573
 30
0.0
 10
15.1495560147
 20
6.3722343642
 30
0.0
 10
15.1456721463
 20
6.3718428679
 30
0.0
 10
15.1418032372
 20
6.3717042737
 30
0.0
 10
15.1379505057
 20
6.3718186277
 30
0.0
 10
15.1341151895
 20
6.3721859712
 30
0.0
 10
15.1302985322
 20
6.372806209
 30
0.0
 10
15.1265017313
 20
6.3736790064
 30
0.0
 10
15.1227259547
 20
6.3748040179
 30
0.0
 10
15.1189723512
 20
6.3761808754
 30
0.0
 10
15.1152420036
 20
6.3778089686
 30
0.0
 10
15.1115358467
 20
6.3796877262
 30
0.0
 10
15.1065645447
 20
6.3825627857
 30
0.0
 10
15.1004053878
 20
6.386813973
 30
0.0
 10
15.0932283865
 20
6.3928397865
 30
0.0
 10
15.0861760444
 20
6.3998465364
 30
0.0
 10
15.0817038958
 20
6.4050021995
 30
0.0
 10
15.0794867296
 20
6.4077283196
 30
0.0
  0
SPLINE
  5
396
100
AcDbEntity
  8
0
100
AcDbSpline
 62
7
  6
CONTINUOUS
 70
0
 71
3
 72
15
 73
11
 74
0
 42
0.0000001
 43
0.0000001
 44
0.0000000001
 40
0.0
 40
0.0
 40
0.0
 40
0.0
 40
0.1265610513
 40
0.2526465849
 40
0.3782613328
 40
0.5034224376
 40
0.6281486758
 40
0.7524658925
 40
0.8764045248
 40
1.0
 40
1.0
 40
1.0
 40
1.0
 10
9.1432306787
 20
9.6168264397
 30
0.0
 10
9.1432306787
 20
9.6278037426
 30
0.0
 10
9.1438286854
 20
9.6497219417
 30
0.0
 10
9.146528884
 20
9.6824352003
 30
0.0
 10
9.1510228604
 20
9.7148292395
 30
0.0
 10
9.1572970774
 20
9.7468058267
 30
0.0
 10
9.1653330439
 20
9.7782697813
 30
0.0
 10
9.1751069244
 20
9.8091272315
 30
0.0
 10
9.186589063
 20
9.8392846704
 30
0.0
 10
9.1953725557
 20
9.8588910625
 30
0.0
 10
9.2000360155
 20
9.8685436437
 30
0.0
  0
SPLINE
  5
397
100
AcDbEntity
  8
0
100
AcDbSpline
 62
7
  6
CONTINUOUS
 70
0
 71
3
 72
11
 73
7
 74
0
 42
0.0000001
 43
0.0000001
 44
0.0000000001
 40
0.0
 40
0.0
 40
0.0
 40
0.0
 40
0.2430380211
 40
0.4912527204
 40
0.7438457691
 40
1.0
 40
1.0
 40
1.0
 40
1.0
 10
10.0164921842
 20
9.0385891442
 30
0.0
 10
10.0181456635
 20
9.047567259
 30
0.0
 10
10.0213267917
 20
9.0657447336
 30
0.0
 10
10.0256816507
 20
9.0933451551
 30
0.0
 10
10.029659814
 20
9.1215000009
 30
0.0
 10
10.0320374562
 20
9.1404622033
 30
0.0
 10
10.0331621073
 20
9.1500180302
 30
0.0
  0
SPLINE
  5
398
100
AcDbEntity
  8
0
100
AcDbSpline
 62
7
  6
CONTINUOUS
 70
0
 71
3
 72
73
 73
69
 74
0
 42
0.0000001
 43
0.0000001
 44
0.0000000001
 40
0.0
 40
0.0
 40
0.0
 40
0.0
 40
0.0155842187
 40
0.0233573351
 40
0.0311170504
 40
0.0465963334
 40
0.0620249262
 40
0.0697213
 40
0.077405684
 40
0.0927384813
 40
0.1080272848
 40
0.1232752985
 40
0.1384861436
 40
0.1536638274
 40
0.1688127039
 40
0.1839374303
 40
0.1990429191
 40
0.2141342867
 40
0.2292168003
 40
0.2442958215
 40
0.2593767492
 40
0.2744649624
 40
0.289565762
 40
0.3046843148
 40
0.3198255988
 40
0.3349943509
 40
0.3501950187
 40
0.3654317152
 40
0.3807081792
 40
0.3960277389
 40
0.4113932814
 40
0.4268072272
 40
0.4422715102
 40
0.4577875624
 40
0.4733563058
 40
0.4889781483
 40
0.504652985
 40
0.5203802045
 40
0.5361586996
 40
0.551986882
 40
0.5678627018
 40
0.5837836705
 40
0.5997468881
 40
0.6157490725
 40
0.6317865915
 40
0.6478554975
 40
0.6639515646
 40
0.6800703266
 40
0.6962071184
 40
0.712357117
 40
0.7285153847
 40
0.7446769117
 40
0.7608366596
 40
0.7769896055
 40
0.7931307852
 40
0.8092553375
 40
0.8253585467
 40
0.8414358846
 40
0.8574830507
 40
0.8734960118
 40
0.8894710388
 40
0.9054047423
 40
0.9212941098
 40
0.9371365144
 40
0.9529298298
 40
0.9686721679
 40
0.9843626594
 40
1.0
 40
1.0
 40
1.0
 40
1.0
 10
10.6556623684
 20
6.649908502
 30
0.0
 10
10.6556623684
 20
6.6634761529
 30
0.0
 10
10.65616087
 20
6.6838158247
 30
0.0
 10
10.6578287259
 20
6.710856987
 30
0.0
 10
10.6601586277
 20
6.7377580105
 30
0.0
 10
10.6643134789
 20
6.7711796001
 30
0.0
 10
10.6701272176
 20
6.8042971844
 30
0.0
 10
10.6757616661
 20
6.8305239695
 30
0.0
 10
10.6820378494
 20
6.8565187603
 30
0.0
 10
10.6910955749
 20
6.8886306573
 30
0.0
 10
10.7038888969
 20
6.9264781253
 30
0.0
 10
10.7185679803
 20
6.9635213876
 30
0.0
 10
10.7350973809
 20
6.9996704876
 30
0.0
 10
10.7534373448
 20
7.0348384038
 30
0.0
 10
10.7735436994
 20
7.0689402611
 30
0.0
 10
10.7953680142
 20
7.1018938037
 30
0.0
 10
10.8188577008
 20
7.1336195253
 30
0.0
 10
10.843956143
 20
7.1640408817
 30
0.0
 10
10.8706028345
 20
7.1930844711
 30
0.0
 10
10.8987335075
 20
7.2206802328
 30
0.0
 10
10.9282803036
 20
7.2467616093
 30
0.0
 10
10.9591719451
 20
7.2712657034
 30
0.0
 10
10.9913339071
 20
7.2941334321
 30
0.0
 10
11.0246886
 20
7.315309669
 30
0.0
 10
11.0591555584
 20
7.3347433789
 30
0.0
 10
11.094651639
 20
7.3523877359
 30
0.0
 10
11.1310912133
 20
7.3682002579
 30
0.0
 10
11.1683863847
 20
7.3821428991
 30
0.0
 10
11.2064472076
 20
7.3941821291
 30
0.0
 10
11.2451819047
 20
7.4042890144
 30
0.0
 10
11.284497089
 20
7.4124392843
 30
0.0
 10
11.3242979895
 20
7.4186133882
 30
0.0
 10
11.3644886795
 20
7.4227965356
 30
0.0
 10
11.4049723054
 20
7.4249787499
 30
0.0
 10
11.4456513239
 20
7.4251548857
 30
0.0
 10
11.4864277381
 20
7.4233246232
 30
0.0
 10
11.5272033316
 20
7.4194924706
 30
0.0
 10
11.5678799034
 20
7.4136677497
 30
0.0
 10
11.6083595025
 20
7.4058645733
 30
0.0
 10
11.6485446606
 20
7.3961018063
 30
0.0
 10
11.6883386284
 20
7.3844030349
 30
0.0
 10
11.7276456112
 20
7.3707965114
 30
0.0
 10
11.766370993
 20
7.355315066
 30
0.0
 10
11.8044215635
 20
7.337996032
 30
0.0
 10
11.8417057398
 20
7.318881154
 30
0.0
 10
11.8781337853
 20
7.2980164893
 30
0.0
 10
11.9136180217
 20
7.2754522949
 30
0.0
 10
11.9480730445
 20
7.2512429167
 30
0.0
 10
11.9814159356
 20
7.2254466659
 30
0.0
 10
12.0135664495
 20
7.19812566
 30
0.0
 10
12.0444472072
 20
7.1693456776
 30
0.0
 10
12.0739838803
 20
7.1391760004
 30
0.0
 10
12.1021053686
 20
7.1076892479
 30
0.0
 10
12.1287439687
 20
7.0749612034
 30
0.0
 10
12.1538355416
 20
7.0410706369
 30
0.0
 10
12.17731968
 20
7.0060991247
 30
0.0
 10
12.1991398356
 20
6.9701308383
 30
0.0
 10
12.2192434555
 20
6.9332523453
 30
0.0
 10
12.2375821086
 20
6.8955524031
 30
0.0
 10
12.2541116005
 20
6.8571217465
 30
0.0
 10
12.2687920791
 20
6.8180528728
 30
0.0
 10
12.2815881389
 20
6.7784398168
 30
0.0
 10
12.2924689008
 20
6.738377952
 30
0.0
 10
12.3014081496
 20
6.6979636687
 30
0.0
 10
12.3083841738
 20
6.6572944486
 30
0.0
 10
12.3133803031
 20
6.6164676527
 30
0.0
 10
12.3163841178
 20
6.5755831457
 30
0.0
 10
12.3170548881
 20
6.5483044384
 30
0.0
 10
12.3170548881
 20
6.5346905394
 30
0.0
  0
SPLINE
  5
399
100
AcDbEntity
  8
0
100
AcDbSpline
 62
7
  6
CONTINUOUS
 70
0
 71
3
 72
23
 73
19
 74
0
 42
0.0000001
 43
0.0000001
 44
0.0000000001
 40
0.0
 40
0.0
 40
0.0
 40
0.0
 40
0.0781691239
 40
0.1536976975
 40
0.2266579234
 40
0.2971334203
 40
0.3652213516
 40
0.4310322547
 40
0.4946916894
 40
0.5563421329
 40
0.6161427433
 40
0.6742704686
 40
0.730920822
 40
0.7863066268
 40
0.8406573579
 40
0.8942175326
 40
0.9472434512
 40
1.0
 40
1.0
 40
1.0
 40
1.0
 10
14.8692685764
 20
7.9501721119
 30
0.0
 10
14.8677011832
 20
7.9485107678
 30
0.0
 10
14.8645669034
 20
7.9452930984
 30
0.0
 10
14.8597826895
 20
7.9407116106
 30
0.0
 10
14.8549990159
 20
7.936460674
 30
0.0
 10
14.8502174307
 20
7.9325418726
 30
0.0
 10
14.8454394978
 20
7.9289564879
 30
0.0
 10
14.8406667115
 20
7.9257058179
 30
0.0
 10
14.8359005329
 20
7.9227911261
 30
0.0
 10
14.8311425197
 20
7.9202134496
 30
0.0
 10
14.8263941654
 20
7.9179738614
 30
0.0
 10
14.8216569824
 20
7.9160734198
 30
0.0
 10
14.8169326026
 20
7.9145129281
 30
0.0
 10
14.8122226463
 20
7.9132932391
 30
0.0
 10
14.8075288522
 20
7.9124151444
 30
0.0
 10
14.8028529631
 20
7.911879105
 30
0.0
 10
14.798197183
 20
7.9116855452
 30
0.0
 10
14.7951045902
 20
7.9117851537
 30
0.0
 10
14.7935667866
 20
7.911891797
 30
0.0
  0
SPLINE
  5
39A
100
AcDbEntity
  8
0
100
AcDbSpline
 62
7
  6
CONTINUOUS
 70
0
 71
3
 72
15
 73
11
 74
0
 42
0.0000001
 43
0.0000001
 44
0.0000000001
 40
0.0
 40
0.0
 40
0.0
 40
0.0
 40
0.12629123
 40
0.2522027024
 40
0.3777270322
 40
0.5028788274
 40
0.6276670782
 40
0.7521051189
 40
0.8762097505
 40
1.0
 40
1.0
 40
1.0
 40
1.0
 10
9.0562329883
 20
9.6107931187
 30
0.0
 10
9.0562329883
 20
9.6207882687
 30
0.0
 10
9.0566739183
 20
9.6407513834
 30
0.0
 10
9.0586634877
 20
9.6705892792
 30
0.0
 10
9.0619768298
 20
9.7002192657
 30
0.0
 10
9.0666071706
 20
9.7295821311
 30
0.0
 10
9.0725456833
 20
9.7586209551
 30
0.0
 10
9.0797807879
 20
9.7872789579
 30
0.0
 10
9.0882980352
 20
9.8154993086
 30
0.0
 10
9.0948286381
 20
9.8340085622
 30
0.0
 10
9.0983015834
 20
9.8431695687
 30
0.0
  0
SPLINE
  5
39B
100
AcDbEntity
  8
0
100
AcDbSpline
 62
7
  6
CONTINUOUS
 70
0
 71
3
 72
73
 73
69
 74
0
 42
0.0000001
 43
0.0000001
 44
0.0000000001
 40
0.0
 40
0.0
 40
0.0
 40
0.0
 40
0.0155842187
 40
0.0233573351
 40
0.0311170504
 40
0.0465963334
 40
0.0620249262
 40
0.0697213
 40
0.077405684
 40
0.0927384813
 40
0.1080272848
 40
0.1232752985
 40
0.1384861436
 40
0.1536638274
 40
0.1688127039
 40
0.1839374303
 40
0.1990429191
 40
0.2141342867
 40
0.2292168003
 40
0.2442958215
 40
0.2593767492
 40
0.2744649624
 40
0.289565762
 40
0.3046843148
 40
0.3198255988
 40
0.3349943509
 40
0.3501950187
 40
0.3654317152
 40
0.3807081792
 40
0.3960277389
 40
0.4113932814
 40
0.4268072272
 40
0.4422715102
 40
0.4577875624
 40
0.4733563058
 40
0.4889781483
 40
0.504652985
 40
0.5203802045
 40
0.5361586996
 40
0.551986882
 40
0.5678627018
 40
0.5837836705
 40
0.5997468881
 40
0.6157490725
 40
0.6317865915
 40
0.6478554975
 40
0.6639515646
 40
0.6800703266
 40
0.6962071184
 40
0.712357117
 40
0.7285153847
 40
0.7446769117
 40
0.7608366596
 40
0.7769896055
 40
0.7931307852
 40
0.8092553375
 40
0.8253585467
 40
0.8414358846
 40
0.8574830507
 40
0.8734960118
 40
0.8894710388
 40
0.9054047423
 40
0.9212941098
 40
0.9371365144
 40
0.9529298298
 40
0.9686721679
 40
0.9843626594
 40
1.0
 40
1.0
 40
1.0
 40
1.0
 10
12.3170548881
 20
6.5346905394
 30
0.0
 10
12.3170548881
 20
6.5211228885
 30
0.0
 10
12.3165563865
 20
6.5007832167
 30
0.0
 10
12.3148885306
 20
6.4737420544
 30
0.0
 10
12.3125586288
 20
6.446841031
 30
0.0
 10
12.3084037775
 20
6.4134194413
 30
0.0
 10
12.3025900389
 20
6.380301857
 30
0.0
 10
12.2969555904
 20
6.3540750719
 30
0.0
 10
12.2906794071
 20
6.3280802811
 30
0.0
 10
12.2816216816
 20
6.2959683841
 30
0.0
 10
12.2688283595
 20
6.2581209161
 30
0.0
 10
12.2541492762
 20
6.2210776538
 30
0.0
 10
12.2376198755
 20
6.1849285538
 30
0.0
 10
12.2192799117
 20
6.1497606376
 30
0.0
 10
12.1991735571
 20
6.1156587804
 30
0.0
 10
12.1773492423
 20
6.0827052377
 30
0.0
 10
12.1538595557
 20
6.0509795161
 30
0.0
 10
12.1287611135
 20
6.0205581597
 30
0.0
 10
12.102114422
 20
5.9915145703
 30
0.0
 10
12.073983749
 20
5.9639188087
 30
0.0
 10
12.0444369528
 20
5.9378374321
 30
0.0
 10
12.0135453114
 20
5.913333338
 30
0.0
 10
11.9813833494
 20
5.8904656093
 30
0.0
 10
11.9480286565
 20
5.8692893724
 30
0.0
 10
11.913561698
 20
5.8498556626
 30
0.0
 10
11.8780656174
 20
5.8322113055
 30
0.0
 10
11.8416260431
 20
5.8163987835
 30
0.0
 10
11.8043308718
 20
5.8024561423
 30
0.0
 10
11.7662700488
 20
5.7904169123
 30
0.0
 10
11.7275353518
 20
5.780310027
 30
0.0
 10
11.6882201675
 20
5.7721597571
 30
0.0
 10
11.648419267
 20
5.7659856533
 30
0.0
 10
11.608228577
 20
5.7618025058
 30
0.0
 10
11.5677449511
 20
5.7596202915
 30
0.0
 10
11.5270659325
 20
5.7594441558
 30
0.0
 10
11.4862895183
 20
5.7612744182
 30
0.0
 10
11.4455139248
 20
5.7651065708
 30
0.0
 10
11.4048373531
 20
5.7709312917
 30
0.0
 10
11.364357754
 20
5.7787344682
 30
0.0
 10
11.3241725959
 20
5.7884972351
 30
0.0
 10
11.284378628
 20
5.8001960065
 30
0.0
 10
11.2450716453
 20
5.81380253
 30
0.0
 10
11.2063462635
 20
5.8292839754
 30
0.0
 10
11.168295693
 20
5.8466030094
 30
0.0
 10
11.1310115166
 20
5.8657178874
 30
0.0
 10
11.0945834712
 20
5.8865825521
 30
0.0
 10
11.0590992348
 20
5.9091467465
 30
0.0
 10
11.0246442119
 20
5.9333561247
 30
0.0
 10
10.9913013208
 20
5.9591523755
 30
0.0
 10
10.959150807
 20
5.9864733814
 30
0.0
 10
10.9282700493
 20
6.0152533638
 30
0.0
 10
10.8987333762
 20
6.045423041
 30
0.0
 10
10.8706118879
 20
6.0769097935
 30
0.0
 10
10.8439732877
 20
6.109637838
 30
0.0
 10
10.8188817149
 20
6.1435284045
 30
0.0
 10
10.7953975764
 20
6.1784999167
 30
0.0
 10
10.7735774209
 20
6.2144682031
 30
0.0
 10
10.753473801
 20
6.2513466961
 30
0.0
 10
10.7351351479
 20
6.2890466384
 30
0.0
 10
10.7186056559
 20
6.3274772949
 30
0.0
 10
10.7039251774
 20
6.3665461687
 30
0.0
 10
10.6911291175
 20
6.4061592247
 30
0.0
 10
10.6802483557
 20
6.4462210894
 30
0.0
 10
10.6713091068
 20
6.4866353728
 30
0.0
 10
10.6643330827
 20
6.5273045929
 30
0.0
 10
10.6593369534
 20
6.5681313887
 30
0.0
 10
10.6563331387
 20
6.6090158957
 30
0.0
 10
10.6556623684
 20
6.6362946031
 30
0.0
 10
10.6556623684
 20
6.649908502
 30
0.0
  0
SPLINE
  5
39C
100
AcDbEntity
  8
0
100
AcDbSpline
 62
7
  6
CONTINUOUS
 70
0
 71
3
 72
73
 73
69
 74
0
 42
0.0000001
 43
0.0000001
 44
0.0000000001
 40
0.0
 40
0.0
 40
0.0
 40
0.0
 40
0.0155842187
 40
0.0233573351
 40
0.0311170504
 40
0.0465963334
 40
0.0620249262
 40
0.0697213
 40
0.077405684
 40
0.0927384813
 40
0.1080272848
 40
0.1232752985
 40
0.1384861436
 40
0.1536638274
 40
0.1688127039
 40
0.1839374303
 40
0.1990429191
 40
0.2141342867
 40
0.2292168003
 40
0.2442958215
 40
0.2593767492
 40
0.2744649624
 40
0.289565762
 40
0.3046843148
 40
0.3198255988
 40
0.3349943509
 40
0.3501950187
 40
0.3654317152
 40
0.3807081792
 40
0.3960277389
 40
0.4113932814
 40
0.4268072272
 40
0.4422715102
 40
0.4577875624
 40
0.4733563058
 40
0.4889781483
 40
0.504652985
 40
0.5203802045
 40
0.5361586996
 40
0.551986882
 40
0.5678627018
 40
0.5837836705
 40
0.5997468881
 40
0.6157490725
 40
0.6317865915
 40
0.6478554975
 40
0.6639515646
 40
0.6800703266
 40
0.6962071184
 40
0.712357117
 40
0.7285153847
 40
0.7446769117
 40
0.7608366596
 40
0.7769896055
 40
0.7931307852
 40
0.8092553375
 40
0.8253585467
 40
0.8414358846
 40
0.8574830507
 40
0.8734960118
 40
0.8894710388
 40
0.9054047423
 40
0.9212941098
 40
0.9371365144
 40
0.9529298298
 40
0.9686721679
 40
0.9843626594
 40
1.0
 40
1.0
 40
1.0
 40
1.0
 10
7.7578847178
 20
6.8508700646
 30
0.0
 10
7.7578847178
 20
6.8644377156
 30
0.0
 10
7.7583832194
 20
6.8847773874
 30
0.0
 10
7.7600510753
 20
6.9118185497
 30
0.0
 10
7.7623809771
 20
6.9387195731
 30
0.0
 10
7.7665358284
 20
6.9721411627
 30
0.0
 10
7.772349567
 20
7.005258747
 30
0.0
 10
7.7779840155
 20
7.0314855322
 30
0.0
 10
7.7842601988
 20
7.0574803229
 30
0.0
 10
7.7933179243
 20
7.0895922199
 30
0.0
 10
7.8061112464
 20
7.1274396879
 30
0.0
 10
7.8207903297
 20
7.1644829502
 30
0.0
 10
7.8373197304
 20
7.2006320502
 30
0.0
 10
7.8556596942
 20
7.2357999665
 30
0.0
 10
7.8757660488
 20
7.2699018237
 30
0.0
 10
7.8975903636
 20
7.3028553664
 30
0.0
 10
7.9210800502
 20
7.3345810879
 30
0.0
 10
7.9461784924
 20
7.3650024443
 30
0.0
 10
7.9728251839
 20
7.3940460337
 30
0.0
 10
8.0009558569
 20
7.4216417954
 30
0.0
 10
8.0305026531
 20
7.4477231719
 30
0.0
 10
8.0613942945
 20
7.4722272661
 30
0.0
 10
8.0935562565
 20
7.4950949947
 30
0.0
 10
8.1269109494
 20
7.5162712317
 30
0.0
 10
8.1613779079
 20
7.5357049415
 30
0.0
 10
8.1968739885
 20
7.5533492985
 30
0.0
 10
8.2333135628
 20
7.5691618206
 30
0.0
 10
8.2706087342
 20
7.5831044617
 30
0.0
 10
8.3086695571
 20
7.5951436917
 30
0.0
 10
8.3474042541
 20
7.605250577
 30
0.0
 10
8.3867194384
 20
7.6134008469
 30
0.0
 10
8.426520339
 20
7.6195749508
 30
0.0
 10
8.4667110289
 20
7.6237580983
 30
0.0
 10
8.5071946548
 20
7.6259403125
 30
0.0
 10
8.5478736734
 20
7.6261164483
 30
0.0
 10
8.5886500876
 20
7.6242861858
 30
0.0
 10
8.6294256811
 20
7.6204540332
 30
0.0
 10
8.6701022528
 20
7.6146293123
 30
0.0
 10
8.7105818519
 20
7.6068261359
 30
0.0
 10
8.75076701
 20
7.5970633689
 30
0.0
 10
8.7905609779
 20
7.5853645976
 30
0.0
 10
8.8298679606
 20
7.571758074
 30
0.0
 10
8.8685933424
 20
7.5562766287
 30
0.0
 10
8.9066439129
 20
7.5389575946
 30
0.0
 10
8.9439280893
 20
7.5198427166
 30
0.0
 10
8.9803561348
 20
7.498978052
 30
0.0
 10
9.0158403711
 20
7.4764138576
 30
0.0
 10
9.050295394
 20
7.4522044793
 30
0.0
 10
9.0836382851
 20
7.4264082285
 30
0.0
 10
9.1157887989
 20
7.3990872226
 30
0.0
 10
9.1466695567
 20
7.3703072402
 30
0.0
 10
9.1762062297
 20
7.340137563
 30
0.0
 10
9.204327718
 20
7.3086508105
 30
0.0
 10
9.2309663182
 20
7.275922766
 30
0.0
 10
9.256057891
 20
7.2420321995
 30
0.0
 10
9.2795420295
 20
7.2070606874
 30
0.0
 10
9.301362185
 20
7.1710924009
 30
0.0
 10
9.3214658049
 20
7.134213908
 30
0.0
 10
9.339804458
 20
7.0965139657
 30
0.0
 10
9.35633395
 20
7.0580833091
 30
0.0
 10
9.3710144285
 20
7.0190144354
 30
0.0
 10
9.3838104884
 20
6.9794013794
 30
0.0
 10
9.3946912502
 20
6.9393395146
 30
0.0
 10
9.4036304991
 20
6.8989252313
 30
0.0
 10
9.4106065232
 20
6.8582560112
 30
0.0
 10
9.4156026526
 20
6.8174292154
 30
0.0
 10
9.4186064672
 20
6.7765447083
 30
0.0
 10
9.4192772375
 20
6.749266001
 30
0.0
 10
9.4192772375
 20
6.7356521021
 30
0.0
  0
SPLINE
  5
39D
100
AcDbEntity
  8
0
100
AcDbSpline
 62
7
  6
CONTINUOUS
 70
0
 71
3
 72
51
 73
47
 74
0
 42
0.0000001
 43
0.0000001
 44
0.0000000001
 40
0.0
 40
0.0
 40
0.0
 40
0.0
 40
0.0310732515
 40
0.0623036961
 40
0.0936867933
 40
0.1252138194
 40
0.156873433
 40
0.1886514448
 40
0.2205312488
 40
0.2524941713
 40
0.2845198641
 40
0.3165867233
 40
0.3486723243
 40
0.38075387
 40
0.4128086445
 40
0.4448144641
 40
0.476750121
 40
0.5085958143
 40
0.5403335614
 40
0.5719475802
 40
0.603424637
 40
0.634754353
 40
0.6503641687
 40
0.6659346995
 40
0.6814655591
 40
0.6969565712
 40
0.7124077861
 40
0.7278194675
 40
0.7431921022
 40
0.7585263985
 40
0.7738232752
 40
0.7890838722
 40
0.8043095316
 40
0.8195017998
 40
0.83466242
 40
0.849793315
 40
0.8648965896
 40
0.8799745079
 40
0.8950294858
 40
0.9100640799
 40
0.9250809642
 40
0.9400829245
 40
0.9550728351
 40
0.9700536421
 40
0.9850283509
 40
1.0
 40
1.0
 40
1.0
 40
1.0
 10
11.5743234131
 20
9.043081837
 30
0.0
 10
11.5743234131
 20
9.0262535931
 30
0.0
 10
11.5755787612
 20
8.9924990249
 30
0.0
 10
11.5811836298
 20
8.94202876
 30
0.0
 10
11.5904834638
 20
8.8918548584
 30
0.0
 10
11.6034268818
 20
8.8422563835
 30
0.0
 10
11.6199422234
 20
8.7935047683
 30
0.0
 10
11.639938465
 20
8.7458678513
 30
0.0
 10
11.6633054382
 20
8.6996069772
 30
0.0
 10
11.6899145883
 20
8.6549760015
 30
0.0
 10
11.7196196512
 20
8.6122198059
 30
0.0
 10
11.7522574595
 20
8.5715730104
 30
0.0
 10
11.7876488098
 20
8.5332586835
 30
0.0
 10
11.8255994002
 20
8.4974870898
 30
0.0
 10
11.8659009503
 20
8.4644546001
 30
0.0
 10
11.908332322
 20
8.434342619
 30
0.0
 10
11.9526607076
 20
8.4073166109
 30
0.0
 10
11.9986429265
 20
8.3835251647
 30
0.0
 10
12.0460265191
 20
8.3630991671
 30
0.0
 10
12.0945519401
 20
8.3461510587
 30
0.0
 10
12.1439510287
 20
8.3327745532
 30
0.0
 10
12.1856769146
 20
8.3246546003
 30
0.0
 10
12.2192172675
 20
8.320015945
 30
0.0
 10
12.2443920771
 20
8.3174701905
 30
0.0
 10
12.269579076
 20
8.3158575709
 30
0.0
 10
12.2947440502
 20
8.315180344
 30
0.0
 10
12.3198522787
 20
8.3154392877
 30
0.0
 10
12.3448692617
 20
8.3166342662
 30
0.0
 10
12.369760586
 20
8.3187635235
 30
0.0
 10
12.3944920233
 20
8.321824157
 30
0.0
 10
12.4190295344
 20
8.3258121022
 30
0.0
 10
12.4433393992
 20
8.3307216913
 30
0.0
 10
12.4673881363
 20
8.3365463918
 30
0.0
 10
12.4911426831
 20
8.3432780877
 30
0.0
 10
12.5145703639
 20
8.3509075299
 30
0.0
 10
12.5376388953
 20
8.3594243704
 30
0.0
 10
12.5603166069
 20
8.3688167094
 30
0.0
 10
12.5825722166
 20
8.3790718265
 30
0.0
 10
12.6043751378
 20
8.3901755189
 30
0.0
 10
12.6256953802
 20
8.4021125035
 30
0.0
 10
12.6465035208
 20
8.4148664927
 30
0.0
 10
12.6667710409
 20
8.4284197674
 30
0.0
 10
12.6864699122
 20
8.4427538237
 30
0.0
 10
12.7055731739
 20
8.4578489501
 30
0.0
 10
12.7240542005
 20
8.4736839988
 30
0.0
 10
12.7359443338
 20
8.4847207886
 30
0.0
 10
12.7417761592
 20
8.490353896
 30
0.0
  0
SPLINE
  5
39E
100
AcDbEntity
  8
0
100
AcDbSpline
 62
7
  6
CONTINUOUS
 70
0
 71
3
 72
72
 73
68
 74
0
 42
0.0000001
 43
0.0000001
 44
0.0000000001
 40
0.0
 40
0.0
 40
0.0
 40
0.0
 40
0.0028080269
 40
0.0056357484
 40
0.0085023994
 40
0.0114263655
 40
0.0144248954
 40
0.0175138142
 40
0.0240150992
 40
0.0274548856
 40
0.0310331103
 40
0.0347582228
 40
0.038637415
 40
0.0426767077
 40
0.046881194
 40
0.0512550823
 40
0.0558017079
 40
0.0605237694
 40
0.0654233748
 40
0.075759731
 40
0.0868182127
 40
0.098598601
 40
0.1110954766
 40
0.1242989573
 40
0.1381953061
 40
0.1527676484
 40
0.1679961539
 40
0.1838584729
 40
0.2003300721
 40
0.2173842617
 40
0.2349925857
 40
0.2531249162
 40
0.2717495282
 40
0.2908334012
 40
0.3103422029
 40
0.3302404582
 40
0.3504917274
 40
0.3710585926
 40
0.4129848783
 40
0.4557069026
 40
0.4989035052
 40
0.542248869
 40
0.5854157291
 40
0.6280785651
 40
0.6699167822
 40
0.690429054
 40
0.7106188507
 40
0.7304489648
 40
0.7498830569
 40
0.7688859026
 40
0.7874234007
 40
0.8054626957
 40
0.82297243
 40
0.8399227074
 40
0.8562853711
 40
0.8720341902
 40
0.8871449021
 40
0.9015956586
 40
0.9153671668
 40
0.9284429885
 40
0.9408101529
 40
0.9524594887
 40
0.9633864448
 40
0.9735918993
 40
0.9830834872
 40
0.9918777842
 40
1.0
 40
1.0
 40
1.0
 40
1.0
 10
7.6451950335
 20
10.6719642158
 30
0.0
 10
7.6451950269
 20
10.6726324928
 30
0.0
 10
7.6451365021
 20
10.6739744572
 30
0.0
 10
7.6448734897
 20
10.6759831411
 30
0.0
 10
7.6444355204
 20
10.67798937
 30
0.0
 10
7.6438230623
 20
10.6799917251
 30
0.0
 10
7.6430365274
 20
10.6819892002
 30
0.0
 10
7.6417347867
 20
10.6846900513
 30
0.0
 10
7.6400952693
 20
10.6873344608
 30
0.0
 10
7.6381644696
 20
10.6899094154
 30
0.0
 10
7.6365186226
 20
10.691867767
 30
0.0
 10
7.6347034665
 20
10.6938153922
 30
0.0
 10
7.6327197883
 20
10.695751629
 30
0.0
 10
7.6305686833
 20
10.6976755612
 30
0.0
 10
7.6282511866
 20
10.6995862773
 30
0.0
 10
7.6257684378
 20
10.7014828381
 30
0.0
 10
7.6231217138
 20
10.7033643751
 30
0.0
 10
7.6203123113
 20
10.7052299858
 30
0.0
 10
7.6162791096
 20
10.707739788
 30
0.0
 10
7.610829939
 20
10.7108227279
 30
0.0
 10
7.6037789468
 20
10.7143805872
 30
0.0
 10
7.5961175263
 20
10.7178531859
 30
0.0
 10
7.5878609397
 20
10.721233521
 30
0.0
 10
7.5790254842
 20
10.7245148099
 30
0.0
 10
7.5696287993
 20
10.7276904703
 30
0.0
 10
7.5596896677
 20
10.7307540005
 30
0.0
 10
7.5492280444
 20
10.7336992006
 30
0.0
 10
7.5382649703
 20
10.7365200943
 30
0.0
 10
7.5268225192
 20
10.7392108833
 30
0.0
 10
7.5149237719
 20
10.7417661379
 30
0.0
 10
7.502592741
 20
10.7441806349
 30
0.0
 10
7.4898543256
 20
10.7464494323
 30
0.0
 10
7.4767342671
 20
10.7485679574
 30
0.0
 10
7.4632590817
 20
10.7505318564
 30
0.0
 10
7.4494560115
 20
10.7523371424
 30
0.0
 10
7.4353529769
 20
10.7539801626
 30
0.0
 10
7.4209784762
 20
10.7554575496
 30
0.0
 10
7.4013642829
 20
10.7572136908
 30
0.0
 10
7.3763829536
 20
10.7589673378
 30
0.0
 10
7.3459864765
 20
10.7603602043
 30
0.0
 10
7.3152279334
 20
10.7610431361
 30
0.0
 10
7.2843560306
 20
10.76101055
 30
0.0
 10
7.2536201616
 20
10.7602627287
 30
0.0
 10
7.2232688496
 20
10.7588057873
 30
0.0
 10
7.1983394388
 20
10.7569991797
 30
0.0
 10
7.1787778122
 20
10.7552012629
 30
0.0
 10
7.1644505431
 20
10.7536934938
 30
0.0
 10
7.1503999706
 20
10.7520207212
 30
0.0
 10
7.1366544901
 20
10.7501862793
 30
0.0
 10
7.1232419
 20
10.7481939468
 30
0.0
 10
7.1101893156
 20
10.7460477716
 30
0.0
 10
7.0975231198
 20
10.7437520919
 30
0.0
 10
7.0852688976
 20
10.7413116324
 30
0.0
 10
7.0734513972
 20
10.7387313279
 30
0.0
 10
7.0620944654
 20
10.7360164341
 30
0.0
 10
7.0512209941
 20
10.7331725213
 30
0.0
 10
7.0408528883
 20
10.7302053243
 30
0.0
 10
7.0310109854
 20
10.7271209199
 30
0.0
 10
7.0217150232
 20
10.7239255868
 30
0.0
 10
7.0129836083
 20
10.7206257485
 30
0.0
 10
7.0048341041
 20
10.7172281367
 30
0.0
 10
6.9972826443
 20
10.7137395301
 30
0.0
 10
6.9903440767
 20
10.7101667942
 30
0.0
 10
6.9840318827
 20
10.7065170254
 30
0.0
 10
6.9783579219
 20
10.702796798
 30
0.0
 10
6.9733336685
 20
10.6990132894
 30
0.0
 10
6.9703068575
 20
10.6963503469
 30
0.0
 10
6.9689165451
 20
10.6950074081
 30
0.0
  0
SPLINE
  5
39F
100
AcDbEntity
  8
0
100
AcDbSpline
 62
7
  6
CONTINUOUS
 70
0
 71
3
 72
72
 73
68
 74
0
 42
0.0000001
 43
0.0000001
 44
0.0000000001
 40
0.0
 40
0.0
 40
0.0
 40
0.0
 40
0.0028080269
 40
0.0056357484
 40
0.0085023994
 40
0.0114263655
 40
0.0144248954
 40
0.0175138142
 40
0.0240150992
 40
0.0274548856
 40
0.0310331103
 40
0.0347582228
 40
0.038637415
 40
0.0426767077
 40
0.046881194
 40
0.0512550823
 40
0.0558017079
 40
0.0605237694
 40
0.0654233748
 40
0.075759731
 40
0.0868182127
 40
0.098598601
 40
0.1110954766
 40
0.1242989573
 40
0.1381953061
 40
0.1527676484
 40
0.1679961539
 40
0.1838584729
 40
0.2003300721
 40
0.2173842617
 40
0.2349925857
 40
0.2531249162
 40
0.2717495282
 40
0.2908334012
 40
0.3103422029
 40
0.3302404582
 40
0.3504917274
 40
0.3710585926
 40
0.4129848783
 40
0.4557069026
 40
0.4989035052
 40
0.542248869
 40
0.5854157291
 40
0.6280785651
 40
0.6699167822
 40
0.690429054
 40
0.7106188507
 40
0.7304489648
 40
0.7498830569
 40
0.7688859026
 40
0.7874234007
 40
0.8054626957
 40
0.82297243
 40
0.8399227074
 40
0.8562853711
 40
0.8720341902
 40
0.8871449021
 40
0.9015956586
 40
0.9153671668
 40
0.9284429885
 40
0.9408101529
 40
0.9524594887
 40
0.9633864448
 40
0.9735918993
 40
0.9830834872
 40
0.9918777842
 40
1.0
 40
1.0
 40
1.0
 40
1.0
 10
14.1671265166
 20
10.2196667313
 30
0.0
 10
14.16712651
 20
10.2203350083
 30
0.0
 10
14.1670679852
 20
10.2216769726
 30
0.0
 10
14.1668049728
 20
10.2236856566
 30
0.0
 10
14.1663670035
 20
10.2256918854
 30
0.0
 10
14.1657545453
 20
10.2276942405
 30
0.0
 10
14.1649680105
 20
10.2296917157
 30
0.0
 10
14.1636662698
 20
10.2323925668
 30
0.0
 10
14.1620267523
 20
10.2350369763
 30
0.0
 10
14.1600959527
 20
10.2376119308
 30
0.0
 10
14.1584501057
 20
10.2395702824
 30
0.0
 10
14.1566349496
 20
10.2415179076
 30
0.0
 10
14.1546512714
 20
10.2434541444
 30
0.0
 10
14.1525001664
 20
10.2453780767
 30
0.0
 10
14.1501826697
 20
10.2472887928
 30
0.0
 10
14.1476999209
 20
10.2491853535
 30
0.0
 10
14.1450531969
 20
10.2510668905
 30
0.0
 10
14.1422437944
 20
10.2529325012
 30
0.0
 10
14.1382105927
 20
10.2554423034
 30
0.0
 10
14.1327614221
 20
10.2585252434
 30
0.0
 10
14.1257104299
 20
10.2620831026
 30
0.0
 10
14.1180490094
 20
10.2655557013
 30
0.0
 10
14.1097924228
 20
10.2689360364
 30
0.0
 10
14.1009569673
 20
10.2722173253
 30
0.0
 10
14.0915602824
 20
10.2753929857
 30
0.0
 10
14.0816211508
 20
10.2784565159
 30
0.0
 10
14.0711595275
 20
10.2814017161
 30
0.0
 10
14.0601964534
 20
10.2842226098
 30
0.0
 10
14.0487540023
 20
10.2869133988
 30
0.0
 10
14.036855255
 20
10.2894686533
 30
0.0
 10
14.0245242241
 20
10.2918831504
 30
0.0
 10
14.0117858087
 20
10.2941519477
 30
0.0
 10
13.9986657502
 20
10.2962704728
 30
0.0
 10
13.9851905648
 20
10.2982343718
 30
0.0
 10
13.9713874946
 20
10.3000396578
 30
0.0
 10
13.95728446
 20
10.301682678
 30
0.0
 10
13.9429099593
 20
10.3031600651
 30
0.0
 10
13.923295766
 20
10.3049162062
 30
0.0
 10
13.8983144367
 20
10.3066698532
 30
0.0
 10
13.8679179596
 20
10.3080627198
 30
0.0
 10
13.8371594165
 20
10.3087456515
 30
0.0
 10
13.8062875137
 20
10.3087130654
 30
0.0
 10
13.7755516447
 20
10.3079652441
 30
0.0
 10
13.7452003327
 20
10.3065083027
 30
0.0
 10
13.7202709219
 20
10.3047016951
 30
0.0
 10
13.7007092953
 20
10.3029037783
 30
0.0
 10
13.6863820262
 20
10.3013960092
 30
0.0
 10
13.6723314537
 20
10.2997232367
 30
0.0
 10
13.6585859732
 20
10.2978887948
 30
0.0
 10
13.6451733831
 20
10.2958964623
 30
0.0
 10
13.6321207987
 20
10.293750287
 30
0.0
 10
13.6194546029
 20
10.2914546073
 30
0.0
 10
13.6072003807
 20
10.2890141478
 30
0.0
 10
13.5953828803
 20
10.2864338434
 30
0.0
 10
13.5840259485
 20
10.2837189495
 30
0.0
 10
13.5731524772
 20
10.2808750367
 30
0.0
 10
13.5627843714
 20
10.2779078398
 30
0.0
 10
13.5529424685
 20
10.2748234353
 30
0.0
 10
13.5436465063
 20
10.2716281022
 30
0.0
 10
13.5349150914
 20
10.2683282639
 30
0.0
 10
13.5267655872
 20
10.2649306521
 30
0.0
 10
13.5192141274
 20
10.2614420456
 30
0.0
 10
13.5122755598
 20
10.2578693097
 30
0.0
 10
13.5059633658
 20
10.2542195409
 30
0.0
 10
13.500289405
 20
10.2504993134
 30
0.0
 10
13.4952651516
 20
10.2467158048
 30
0.0
 10
13.4922383406
 20
10.2440528623
 30
0.0
 10
13.4908480282
 20
10.2427099235
 30
0.0
  0
ENDSEC
  0
SECTION
  2
OBJECTS
  0
DICTIONARY
  5
C
100
AcDbDictionary
280
0
281
1
  3
ACAD_GROUP
350
D
  3
ACAD_MLINESTYLE
350
17
  3
ACAD_LAYOUT
350
1A
  3
ACAD_PLOTSETTINGS
350
19
  3
ACAD_PLOTSTYLENAME
350
E
  3
ACAD_IMAGE_DICT
350
       3A1
  3
ACAD_IMAGE_VARS
350
       3A2
  3
ACAD_TABLESTYLE
350
       3A3
  0
IMAGEDEF_REACTOR
  5
3A0
100
AcDbRasterImageDefReactor
 90
2
330
287
  0
DICTIONARY
  5
D
102
{ACAD_REACTORS
330
C
102
}
100
AcDbDictionary
280
0
281
1
  0
ACDBDICTIONARYWDFLT
  5
E
102
{ACAD_REACTORS
330
C
102
}
100
AcDbDictionary
281
1
  3
Normal
350
F
100
AcDbDictionaryWithDefault
340
F
  0
DICTIONARY
  5
3A1
330
C
100
AcDbDictionary
281
1
  3
E8C_assy_2_img_1
350
       3A6
  0
RASTERVARIABLES
  5
3A2
330
C
100
AcDbRasterVariables
 90
0
 70
0
 71
1
 72
5
  0
DICTIONARY
  5
17
102
{ACAD_REACTORS
330
C
102
}
100
AcDbDictionary
280
0
281
1
  3
Standard
350
18
  0
DICTIONARY
  5
3A3
330
C
100
AcDbDictionary
281
1
  3
Standard
350
       3A7
  3
Standard1
350
       3A8
  0
DICTIONARY
  5
19
102
{ACAD_REACTORS
330
C
102
}
100
AcDbDictionary
281
1
  0
DICTIONARY
  5
1A
102
{ACAD_REACTORS
330
C
102
}
100
AcDbDictionary
281
1
  3
Model
350
3A4
  3
Layout1
350
3A5
  0
ACDBPLACEHOLDER
  5
F
102
{ACAD_REACTORS
330
E
102
}
  0
MLINESTYLE
  5
18
102
{ACAD_REACTORS
330
17
102
}
100
AcDbMlineStyle
  2
STANDARD
 70
0
  3

 62
256
 51
90.0
 52
90.0
 71
2
 49
0.5
 62
256
  6
BYLAYER
 49
-0.5
 62
256
  6
BYLAYER
  0
LAYOUT
  5
3A4
102
{ACAD_REACTORS
330
1A
102
}
100
AcDbPlotSettings
  1

  2
none_device
  4
ANSI_C_(22.00_x_17.00_Inches)
  6

 40
0.0
 41
0.0
 42
0.0
 43
0.0
 44
558.8
 45
431.8
 46
0.0
 47
0.0
 48
0.0
 49
0.0
140
0.0
141
0.0
142
1.0
143
1.0
 70
1024
 72
0
 73
0
 74
0
  7

 75
0
147
1.0
148
0.0
149
0.0
100
AcDbLayout
  1
Model
 70
0
 71
0
 10
0.0
 20
0.0
 11
22.0
 21
17.0
 12
0.0
 22
0.0
 32
0.0
 14
0.0
 24
0.0
 34
0.0
 15
0.0
 25
0.0
 35
0.0
146
0.0
 13
0.0
 23
0.0
 33
0.0
 16
1.0
 26
0.0
 36
0.0
 17
0.0
 27
1.0
 37
0.0
 76
0
330
20C
345
0
346
0
  0
LAYOUT
  5
3A5
102
{ACAD_REACTORS
330
1A
102
}
100
AcDbPlotSettings
  1

  2
none_device
  4
ANSI_C_(22.00_x_17.00_Inches)
  6

 40
0.0
 41
0.0
 42
0.0
 43
0.0
 44
558.8
 45
431.8
 46
0.0
 47
0.0
 48
0.0
 49
0.0
140
0.0
141
0.0
142
1.0
143
1.0
 70
0
 72
0
 73
0
 74
0
  7

 75
0
147
1.0
148
0.0
149
0.0
100
AcDbLayout
  1
Layout1
 70
0
 71
1
 10
0.0
 20
0.0
 11
22.0
 21
17.0
 12
0.0
 22
0.0
 32
0.0
 14
0.0
 24
0.0
 34
0.0
 15
0.0
 25
0.0
 35
0.0
146
0.0
 13
0.0
 23
0.0
 33
0.0
 16
1.0
 26
0.0
 36
0.0
 17
0.0
 27
1.0
 37
0.0
 76
0
330
20D
345
0
346
0
  0
IMAGEDEF
  5
3A6
102
{ACAD_REACTORS
330
3A1
330
3A0
102
}
100
AcDbRasterImageDef
 90
0
  1
E8C_assy_2_img_1.png
 10
369.0
 20
92.0
 11
0.0066666667
 21
0.0066666667
280
1
281
0
  0
TABLESTYLE
  5
3A7
102
{ACAD_REACTORS
330
3A3
330
28A
330
28B
102
}
330
3A3
100
AcDbTableStyle
  3
Standard
 70
0
 71
0
 40
0.06
 41
0.06
280
1
281
1
  7
Standard
140
0.18
170
1
 62
0
 63
7
283
0
  7
Standard
140
0.18
170
1
 62
0
 63
7
283
0
  7
Standard
140
0.18
170
1
 62
0
 63
7
283
0
  0
TABLESTYLE
  5
3A8
102
{ACAD_REACTORS
330
3A3
330
289
102
}
330
3A3
100
AcDbTableStyle
  3
Standard1
 70
1
 71
0
 40
0.06
 41
0.06
280
1
281
1
  7
Standard
140
0.18
170
1
 62
0
 63
7
283
0
  7
Standard
140
0.18
170
1
 62
0
 63
7
283
0
  7
Standard
140
0.18
170
1
 62
0
 63
7
283
0
  0
ENDSEC
  0
EOF
