999
DXF file: E8B_assy_2.dxf
999
Pro/ENGINEER 2014200 by Parametric Technology Corporation
  0
SECTION
  2
HEADER
  9
$ACADVER
  1
AC1021
  9
$DWGCODEPAGE
  3
ANSI_1252
  9
$EXTMAX
 10
22.0
 20
17.0
 30
0.0
  9
$EXTMIN
 10
0.0
 20
0.0
 30
0.0
  9
$LIMMIN
 10
0.0
 20
0.0
  9
$LIMMAX
 10
22.0
 20
17.0
  9
$VIEWCTR
 10
11.0
 20
8.5
  9
$VIEWSIZE
 40
17.0
  9
$CLAYER
  8
0
  9
$LTSCALE
 40
1.21
  9
$CELTYPE
  6
BYLAYER
  9
$DIMSCALE
 40
1.0
  9
$DIMASZ
 40
0.1875
  9
$DIMEXO
 40
0.0625
  9
$DIMDLI
 40
0.836
  9
$DIMEXE
 40
0.125
  9
$DIMCEN
 40
0.198
  9
$DIMLFAC
 40
1.0
  9
$DIMBLK
  1
_FILLED
  9
$DIMTXT
 40
0.1
  9
$DIMTOL
 70
0
  9
$DIMLIM
 70
0
  9
$DIMTFAC
 40
1.0
  9
$DIMGAP
 40
0.09
  9
$DIMDSEP
 70
46
  9
$AUNITS
 70
0
  9
$PDMODE
 70
3
  9
$PDSIZE
 40
0.3125
  9
$HANDSEED
  5
38B
  9
$TILEMODE
 70
1
  9
$MEASUREMENT
 70
0
  9
$INSUNITS
 70
1
  0
ENDSEC
  0
SECTION
  2
CLASSES
  0
CLASS
  1
ACDBDICTIONARYWDFLT
  2
AcDbDictionaryWithDefault
  3
AutoCAD 2000
 90
0
 91
1
280
0
281
0
  0
CLASS
  1
ACDBPLACEHOLDER
  2
AcDbPlaceHolder
  3
AutoCAD 2000
 90
0
 91
1
280
0
281
0
  0
CLASS
  1
LAYOUT
  2
AcDbLayout
  3
AutoCAD 2000
 90
0
 91
0
280
0
281
0
  0
CLASS
  1
RASTERVARIABLES
  2
AcDbRasterVariables
  3
ISM
 90
0
 91
1
280
0
281
0
  0
CLASS
  1
IMAGEDEF
  2
AcDbRasterImageDef
  3
ISM
 90
0
 91
1
280
0
281
0
  0
CLASS
  1
IMAGEDEF_REACTOR
  2
AcDbRasterImageDefReactor
  3
ISM
 90
0
 91
1
280
0
281
0
  0
CLASS
  1
IMAGE
  2
AcDbRasterImage
  3
ISM
 90
127
 91
1
280
0
281
1
  0
CLASS
  1
TABLESTYLE
  2
AcDbTableStyle
  3
ObjectDBX Classes
 90
2047
 91
1
280
0
281
0
  0
CLASS
  1
ACAD_TABLE
  2
AcDbTable
  3
ObjectDBX Classes
 90
1025
 91
3
280
0
281
1
  0
ENDSEC
  0
SECTION
  2
TABLES
  0
TABLE
  2
VPORT
  5
8
100
AcDbSymbolTable
 70
2
  0
VPORT
  5
1F4
100
AcDbSymbolTableRecord
100
AcDbViewportTableRecord
  2
*ACTIVE
 70
0
 10
0.0
 20
0.0
 11
1.0
 21
1.0
 12
11.0
 22
8.5
 13
0.0
 23
0.0
 14
1.0
 24
1.0
 15
0.0
 25
0.0
 16
0.0
 26
0.0
 36
1.0
 17
0.0
 27
0.0
 37
0.0
 40
17.0
 41
1.2941176471
 42
50.0
 43
0.0
 44
0.0
 50
0.0
 51
0.0
 71
0
 72
100
 73
1
 74
1
 75
0
 76
0
 77
0
 78
0
  0
ENDTAB
  0
TABLE
  2
LTYPE
  5
5
100
AcDbSymbolTable
 70
6
  0
LTYPE
  5
14
100
AcDbSymbolTableRecord
100
AcDbLinetypeTableRecord
  2
BYBLOCK
 70
0
  3

 72
65
 73
0
 40
0.0
  0
LTYPE
  5
15
100
AcDbSymbolTableRecord
100
AcDbLinetypeTableRecord
  2
BYLAYER
 70
0
  3

 72
65
 73
0
 40
0.0
  0
LTYPE
  5
16
100
AcDbSymbolTableRecord
100
AcDbLinetypeTableRecord
  2
CONTINUOUS
 70
64
  3
Solid line
 72
65
 73
0
 40
0.0
  0
LTYPE
  5
1F5
100
AcDbSymbolTableRecord
100
AcDbLinetypeTableRecord
  2
CENTER
 70
64
  3
____ _ ____ _ ____ _ ____ _ ____ _ ____ _ ____
 72
65
 73
4
 40
0.6
 49
0.375
 74
0
 49
-0.075
 74
0
 49
0.075
 74
0
 49
-0.075
 74
0
  0
LTYPE
  5
1F6
100
AcDbSymbolTableRecord
100
AcDbLinetypeTableRecord
  2
HIDDEN
 70
64
  3
- - - - - - - - - - - - - - - - - - - -
 72
65
 73
2
 40
0.2
 49
0.1
 74
0
 49
-0.1
 74
0
  0
LTYPE
  5
1F7
100
AcDbSymbolTableRecord
100
AcDbLinetypeTableRecord
  2
PHANTOM
 70
64
  3
_____ _ _ _____ _ _ _____ _ _ _____
 72
65
 73
6
 40
0.8
 49
0.45
 74
0
 49
-0.05
 74
0
 49
0.1
 74
0
 49
-0.05
 74
0
 49
0.1
 74
0
 49
-0.05
 74
0
  0
LTYPE
  5
1F8
100
AcDbSymbolTableRecord
100
AcDbLinetypeTableRecord
  2
DOT
 70
64
  3
. . . . . . . . . . . . . . . . . . . .
 72
65
 73
2
 40
0.2
 49
0.1
 74
0
 49
-0.1
 74
0
  0
LTYPE
  5
1F9
100
AcDbSymbolTableRecord
100
AcDbLinetypeTableRecord
  2
DASHED
 70
64
  3
- - - - - - - - - - - - - - - - - - - -
 72
65
 73
2
 40
0.2
 49
0.1
 74
0
 49
-0.1
 74
0
  0
ENDTAB
  0
TABLE
  2
LAYER
  5
2
100
AcDbSymbolTable
 70
36
  0
LAYER
  5
10
100
AcDbSymbolTableRecord
100
AcDbLayerTableRecord
  2
0
 70
0
 62
7
  6
CONTINUOUS
370
-3
390
F
  0
LAYER
  5
1FA
100
AcDbSymbolTableRecord
100
AcDbLayerTableRecord
  2
DEFAULT_1
 70
0
 62
7
  6
CENTER
370
-3
390
F
  0
LAYER
  5
1FB
100
AcDbSymbolTableRecord
100
AcDbLayerTableRecord
  2
DEFAULT_2
 70
0
 62
8
  6
HIDDEN
370
-3
390
F
  0
LAYER
  5
1FC
100
AcDbSymbolTableRecord
100
AcDbLayerTableRecord
  2
DEFAULT_3
 70
0
 62
7
  6
PHANTOM
370
-3
390
F
  0
LAYER
  5
1FD
100
AcDbSymbolTableRecord
100
AcDbLayerTableRecord
  2
01___PRT_ALL_DTM_PLN
 70
0
 62
7
  6
CONTINUOUS
370
-3
390
F
  0
LAYER
  5
1FE
100
AcDbSymbolTableRecord
100
AcDbLayerTableRecord
  2
01___PRT_DEF_DTM_PLN
 70
0
 62
7
  6
CONTINUOUS
370
-3
390
F
  0
LAYER
  5
1FF
100
AcDbSymbolTableRecord
100
AcDbLayerTableRecord
  2
02___PRT_ALL_AXES
 70
0
 62
7
  6
CONTINUOUS
370
-3
390
F
  0
LAYER
  5
200
100
AcDbSymbolTableRecord
100
AcDbLayerTableRecord
  2
03___PRT_ALL_CURVES
 70
0
 62
7
  6
CONTINUOUS
370
-3
390
F
  0
LAYER
  5
201
100
AcDbSymbolTableRecord
100
AcDbLayerTableRecord
  2
04___PRT_ALL_DTM_PNT
 70
0
 62
7
  6
CONTINUOUS
370
-3
390
F
  0
LAYER
  5
202
100
AcDbSymbolTableRecord
100
AcDbLayerTableRecord
  2
05___PRT_ALL_DTM_CSYS
 70
0
 62
7
  6
CONTINUOUS
370
-3
390
F
  0
LAYER
  5
203
100
AcDbSymbolTableRecord
100
AcDbLayerTableRecord
  2
05___PRT_DEF_DTM_CSYS
 70
0
 62
7
  6
CONTINUOUS
370
-3
390
F
  0
LAYER
  5
204
100
AcDbSymbolTableRecord
100
AcDbLayerTableRecord
  2
06___PRT_ALL_SURFS
 70
0
 62
7
  6
CONTINUOUS
370
-3
390
F
  0
LAYER
  5
205
100
AcDbSymbolTableRecord
100
AcDbLayerTableRecord
  2
DATUM_PLANES
 70
0
 62
7
  6
CONTINUOUS
370
-3
390
F
  0
LAYER
  5
206
100
AcDbSymbolTableRecord
100
AcDbLayerTableRecord
  2
PORT_AREAS
 70
0
 62
7
  6
CONTINUOUS
370
-3
390
F
  0
LAYER
  5
207
100
AcDbSymbolTableRecord
100
AcDbLayerTableRecord
  2
SUNNBOMCOSMETIC
 70
0
 62
7
  6
CONTINUOUS
370
-3
390
F
  0
LAYER
  5
208
100
AcDbSymbolTableRecord
100
AcDbLayerTableRecord
  2
SUNNBOMSTAMPING
 70
0
 62
7
  6
CONTINUOUS
370
-3
390
F
  0
LAYER
  5
209
100
AcDbSymbolTableRecord
100
AcDbLayerTableRecord
  2
THREADS
 70
0
 62
7
  6
CONTINUOUS
370
-3
390
F
  0
ENDTAB
  0
TABLE
  2
STYLE
  5
3
100
AcDbSymbolTable
 70
1
  0
STYLE
  5
11
100
AcDbSymbolTableRecord
100
AcDbTextStyleTableRecord
  2
STANDARD
 70
0
 40
0.0
 41
0.8
 50
0.0
 71
0
 42
0.2
  3
txt
  4

  0
STYLE
  5
20A
100
AcDbSymbolTableRecord
100
AcDbTextStyleTableRecord
  2
TEXTSTYLE_1
 70
0
 40
0.0
 41
0.8
 50
0.0
 71
0
 42
0.2
  3
gdt
  4

  0
ENDTAB
  0
TABLE
  2
VIEW
  5
6
100
AcDbSymbolTable
 70
0
  0
ENDTAB
  0
TABLE
  2
UCS
  5
7
100
AcDbSymbolTable
 70
0
  0
ENDTAB
  0
TABLE
  2
APPID
  5
9
100
AcDbSymbolTable
 70
1
  0
APPID
  5
20B
100
AcDbSymbolTableRecord
100
AcDbRegAppTableRecord
  2
ACAD
 70
0
  0
ENDTAB
  0
TABLE
  2
BLOCK_RECORD
  5
1
100
AcDbSymbolTable
 70
0
  0
BLOCK_RECORD
  5
20C
100
AcDbSymbolTableRecord
100
AcDbBlockTableRecord
  2
*Model_Space
  0
BLOCK_RECORD
  5
20D
100
AcDbSymbolTableRecord
100
AcDbBlockTableRecord
  2
*Paper_Space
  0
BLOCK_RECORD
  5
20E
100
AcDbSymbolTableRecord
100
AcDbBlockTableRecord
  2
SUN_FIRST_THIRD_ANGLE_BL0
  0
BLOCK_RECORD
  5
20F
100
AcDbSymbolTableRecord
100
AcDbBlockTableRecord
  2
*T1
  0
BLOCK_RECORD
  5
210
100
AcDbSymbolTableRecord
100
AcDbBlockTableRecord
  2
*T2
  0
BLOCK_RECORD
  5
211
100
AcDbSymbolTableRecord
100
AcDbBlockTableRecord
  2
*T3
  0
ENDTAB
  0
TABLE
  2
DIMSTYLE
  5
A
100
AcDbSymbolTable
 70
1
100
AcDbDimStyleTable
 71
0
  0
DIMSTYLE
105
212
100
AcDbSymbolTableRecord
100
AcDbDimStyleTableRecord
  2
STANDARD
 70
0
  3

  4

 40
1.0
 41
0.1875
 42
0.0625
 43
0.38
 44
0.125
 45
0.0
 46
0.0
 47
0.001
 48
0.001
140
0.1
141
0.09
142
0.0
143
25.4
144
1.0
145
0.0
146
1.0
147
0.09
 71
0.0
 72
0.0
 73
1
 74
1
 75
0
 76
0
 77
0
 78
4
170
0
171
2
172
0
173
0
174
0
175
0
176
0
177
0
178
0
270
2
271
3
272
3
273
2
274
2
275
0
280
0
281
0
282
0
283
1
284
4
285
0
286
0
287
3
288
0
340
11
278
46
  0
ENDTAB
  0
ENDSEC
  0
SECTION
  2
BLOCKS
  0
BLOCK
  5
20
100
AcDbEntity
  8
0
100
AcDbBlockBegin
  2
*Model_Space
 70
0
 10
0.0
 20
0.0
 30
0.0
  3
*Model_Space
  1

  0
ENDBLK
  5
21
100
AcDbEntity
  8
0
100
AcDbBlockEnd
  0
BLOCK
  5
1C
100
AcDbEntity
  8
0
100
AcDbBlockBegin
  2
*Paper_Space
 70
0
 10
0.0
 20
0.0
 30
0.0
  3
*Paper_Space
  1

  0
ENDBLK
  5
1D
100
AcDbEntity
  8
0
100
AcDbBlockEnd
  0
BLOCK
  5
213
100
AcDbEntity
  8
0
100
AcDbBlockBegin
 62
2
  6
CONTINUOUS
  2
SUN_FIRST_THIRD_ANGLE_BL0
 70
64
 10
20.4816717061
 20
1.2289683772
  3
SUN_FIRST_THIRD_ANGLE_BL0
  1

  0
TEXT
  5
214
100
AcDbEntity
  8
0
100
AcDbText
 62
2
  6
CONTINUOUS
 10
19.4750896608
 20
1.4136269581
  7
STANDARD
 40
0.08
  1
FIRST ANGLE
 41
0.8
 72
0
100
AcDbText
  0
TEXT
  5
215
100
AcDbEntity
  8
0
100
AcDbText
 62
2
  6
CONTINUOUS
 10
20.7842537513
 20
1.4047600029
  7
STANDARD
 40
0.08
  1
THIRD ANGLE
 41
0.8
 72
0
100
AcDbText
  0
LINE
  5
216
100
AcDbEntity
  8
0
100
AcDbLine
 62
7
  6
CONTINUOUS
 10
19.4767170086
 20
1.1727031207
 11
19.6334271527
 21
1.1717972817
  0
LINE
  5
217
100
AcDbEntity
  8
0
100
AcDbLine
 62
7
  6
CONTINUOUS
 10
19.6596964832
 20
1.1717972817
 11
19.6950230232
 21
1.171593082
  0
LINE
  5
218
100
AcDbEntity
  8
0
100
AcDbLine
 62
7
  6
CONTINUOUS
 10
19.7194818561
 20
1.1708914427
 11
19.8852396156
 21
1.1699333054
  0
LINE
  5
219
100
AcDbEntity
  8
0
100
AcDbLine
 62
7
  6
CONTINUOUS
 10
19.4758111696
 20
1.2723454088
 11
19.88525039
 21
1.3511534004
  0
LINE
  5
21A
100
AcDbEntity
  8
0
100
AcDbLine
 62
7
  6
CONTINUOUS
 10
19.88525039
 20
1.3511534004
 11
19.8831348489
 21
0.9851647912
  0
LINE
  5
21B
100
AcDbEntity
  8
0
100
AcDbLine
 62
7
  6
CONTINUOUS
 10
19.8831348489
 20
0.9851647912
 11
19.4767170086
 21
1.0658141206
  0
LINE
  5
21C
100
AcDbEntity
  8
0
100
AcDbLine
 62
7
  6
CONTINUOUS
 10
19.4767170086
 20
1.0658141206
 11
19.4779056764
 21
1.2714536432
  0
CIRCLE
  5
21D
100
AcDbEntity
  8
0
100
AcDbCircle
 62
7
  6
CONTINUOUS
 10
20.2068232291
 20
1.1717972817
 40
0.175742101
  0
CIRCLE
  5
21E
100
AcDbEntity
  8
0
100
AcDbCircle
 62
7
  6
CONTINUOUS
 10
20.2068232291
 20
1.1717972817
 40
0.1005522074
  0
LINE
  5
21F
100
AcDbEntity
  8
0
100
AcDbLine
 62
7
  6
CONTINUOUS
 10
20.2077290681
 20
1.3756110529
 11
20.2071171714
 21
1.2379342989
  0
LINE
  5
220
100
AcDbEntity
  8
0
100
AcDbLine
 62
7
  6
CONTINUOUS
 10
20.2077290681
 20
1.2016899681
 11
20.2074674401
 21
1.1428236749
  0
LINE
  5
221
100
AcDbEntity
  8
0
100
AcDbLine
 62
7
  6
CONTINUOUS
 10
20.208634907
 20
1.101141841
 11
20.2080230104
 21
0.963465087
  0
LINE
  5
222
100
AcDbEntity
  8
0
100
AcDbLine
 62
7
  6
CONTINUOUS
 10
20.0066328138
 20
1.1745147986
 11
20.1443095678
 21
1.1739029019
  0
LINE
  5
223
100
AcDbEntity
  8
0
100
AcDbLine
 62
7
  6
CONTINUOUS
 10
20.1832714155
 20
1.1727031207
 11
20.238153505
 21
1.172335442
  0
LINE
  5
224
100
AcDbEntity
  8
0
100
AcDbLine
 62
7
  6
CONTINUOUS
 10
20.2756669918
 20
1.1717972817
 11
20.407916871
 21
1.1712095044
  0
CIRCLE
  5
225
100
AcDbEntity
  8
0
100
AcDbCircle
 62
7
  6
CONTINUOUS
 10
20.7509457401
 20
1.1693297793
 40
0.1722024983
  0
CIRCLE
  5
226
100
AcDbEntity
  8
0
100
AcDbCircle
 62
7
  6
CONTINUOUS
 10
20.7509457401
 20
1.1693297793
 40
0.0985164967
  0
LINE
  5
227
100
AcDbEntity
  8
0
100
AcDbLine
 62
7
  6
CONTINUOUS
 10
20.7169767782
 20
1.170462078
 11
20.7825395137
 21
1.1682766535
  0
LINE
  5
228
100
AcDbEntity
  8
0
100
AcDbLine
 62
7
  6
CONTINUOUS
 10
20.8177513651
 20
1.1693297793
 11
20.947965719
 21
1.1693297793
  0
LINE
  5
229
100
AcDbEntity
  8
0
100
AcDbLine
 62
7
  6
CONTINUOUS
 10
20.6875370113
 20
1.170462078
 11
20.5573226574
 21
1.170462078
  0
LINE
  5
22A
100
AcDbEntity
  8
0
100
AcDbLine
 62
7
  6
CONTINUOUS
 10
20.7486811426
 20
1.1987695462
 11
20.7486811426
 21
1.1432869085
  0
LINE
  5
22B
100
AcDbEntity
  8
0
100
AcDbLine
 62
7
  6
CONTINUOUS
 10
20.7498134414
 20
1.1059210505
 11
20.7498134414
 21
0.9757066966
  0
LINE
  5
22C
100
AcDbEntity
  8
0
100
AcDbLine
 62
7
  6
CONTINUOUS
 10
20.7486811426
 20
1.2338708068
 11
20.7486811426
 21
1.3640851607
  0
LINE
  5
22D
100
AcDbEntity
  8
0
100
AcDbLine
 62
7
  6
CONTINUOUS
 10
21.0702539817
 20
1.2701043662
 11
21.4790138229
 21
1.3448360823
  0
LINE
  5
22E
100
AcDbEntity
  8
0
100
AcDbLine
 62
7
  6
CONTINUOUS
 10
21.4790138229
 20
1.3448360823
 11
21.4790138229
 21
0.9779712941
  0
LINE
  5
22F
100
AcDbEntity
  8
0
100
AcDbLine
 62
7
  6
CONTINUOUS
 10
21.4790138229
 20
0.9779712941
 11
21.069121683
 21
1.0617614
  0
LINE
  5
230
100
AcDbEntity
  8
0
100
AcDbLine
 62
7
  6
CONTINUOUS
 10
21.0702539817
 20
1.2701043662
 11
21.069121683
 21
1.0617614
  0
LINE
  5
231
100
AcDbEntity
  8
0
100
AcDbLine
 62
7
  6
CONTINUOUS
 10
21.4790138229
 20
1.1693297793
 11
21.3159628059
 21
1.1693297793
  0
LINE
  5
232
100
AcDbEntity
  8
0
100
AcDbLine
 62
7
  6
CONTINUOUS
 10
21.2876553377
 20
1.1693297793
 11
21.2502894796
 21
1.1693297793
  0
LINE
  5
233
100
AcDbEntity
  8
0
100
AcDbLine
 62
7
  6
CONTINUOUS
 10
21.2208497126
 20
1.1659328831
 11
21.0713862804
 21
1.1659328831
  0
LINE
  5
234
100
AcDbEntity
  8
0
100
AcDbLine
 62
7
  6
CONTINUOUS
 10
20.4796138713
 20
1.5284908897
 11
20.4766766948
 21
0.9294458646
  0
ENDBLK
  5
235
100
AcDbEntity
  8
0
  6
BYBLOCK
 62
0
100
AcDbBlockEnd
  0
BLOCK
  5
236
100
AcDbEntity
  8
0
100
AcDbBlockBegin
  2
*T1
 70
1
 10
0.0
 20
0.0
  3
*T1
  1

  0
LINE
  5
237
100
AcDbEntity
  8
0
100
AcDbLine
 62
2
  6
CONTINUOUS
 10
9.275
 20
0.0
 11
-0.0
 21
0.0
  0
LINE
  5
238
100
AcDbEntity
  8
0
100
AcDbLine
 62
2
  6
CONTINUOUS
 10
9.275
 20
0.0
 11
9.275
 21
1.25
  0
LINE
  5
239
100
AcDbEntity
  8
0
100
AcDbLine
 62
2
  6
CONTINUOUS
 10
9.275
 20
0.625
 11
-0.0
 21
0.625
  0
LINE
  5
23A
100
AcDbEntity
  8
0
100
AcDbLine
 62
2
  6
CONTINUOUS
 10
9.275
 20
1.25
 11
-0.0
 21
1.25
  0
LINE
  5
23B
100
AcDbEntity
  8
0
100
AcDbLine
 62
2
  6
CONTINUOUS
 10
6.8
 20
0.0
 11
6.8
 21
1.25
  0
LINE
  5
23C
100
AcDbEntity
  8
0
100
AcDbLine
 62
2
  6
CONTINUOUS
 10
6.4
 20
0.0
 11
6.4
 21
0.625
  0
LINE
  5
23D
100
AcDbEntity
  8
0
100
AcDbLine
 62
2
  6
CONTINUOUS
 10
5.9
 20
0.0
 11
5.9
 21
0.625
  0
LINE
  5
23E
100
AcDbEntity
  8
0
100
AcDbLine
 62
2
  6
CONTINUOUS
 10
5.2
 20
0.0
 11
5.2
 21
0.625
  0
LINE
  5
23F
100
AcDbEntity
  8
0
100
AcDbLine
 62
2
  6
CONTINUOUS
 10
4.1
 20
0.0
 11
4.1
 21
1.25
  0
LINE
  5
240
100
AcDbEntity
  8
0
100
AcDbLine
 62
2
  6
CONTINUOUS
 10
-0.0
 20
0.0
 11
-0.0
 21
1.25
  0
MTEXT
  5
241
100
AcDbEntity
  8
0
100
AcDbMText
 62
2
  6
CONTINUOUS
  7
STANDARD
 71
2
 72
1
 10
6.6
 20
0.325
 30
0.0
 11
1.0
 21
0.0
 31
0.0
 44
0.9
  1
2
 40
0.125
 41
0.2
  0
MTEXT
  5
242
100
AcDbEntity
  8
0
100
AcDbMText
 62
2
  6
CONTINUOUS
  7
STANDARD
 71
2
 72
1
 10
6.15
 20
0.325
 30
0.0
 11
1.0
 21
0.0
 31
0.0
 44
0.9
  1
C
 40
0.125
 41
0.2
  0
MTEXT
  5
243
100
AcDbEntity
  8
0
100
AcDbMText
 62
2
  6
CONTINUOUS
  7
STANDARD
 71
2
 72
1
 10
5.55
 20
0.325
 30
0.0
 11
1.0
 21
0.0
 31
0.0
 44
0.9
  1
2.000
 40
0.125
 41
1.0
  0
MTEXT
  5
244
100
AcDbEntity
  8
0
100
AcDbMText
 62
2
  6
CONTINUOUS
  7
STANDARD
 71
2
 72
1
 10
4.65
 20
0.325
 30
0.0
 11
1.0
 21
0.0
 31
0.0
 44
0.9
  1
Oct-09-23
 40
0.125
 41
1.8
  0
MTEXT
  5
245
100
AcDbEntity
  8
0
100
AcDbMText
 62
2
  6
CONTINUOUS
  7
STANDARD
 71
2
 72
1
 10
2.05
 20
0.4625
 30
0.0
 11
1.0
 21
0.0
 31
0.0
 44
0.9
  1
T-11A Line mount\P2 cylinder sequence, with reverse checks
 40
0.125
 41
8.0
  0
MTEXT
  5
246
100
AcDbEntity
  8
0
100
AcDbMText
 62
2
  6
CONTINUOUS
  7
STANDARD
 71
1
 72
1
 10
6.45
 20
0.5625
 30
0.0
 11
1.0
 21
0.0
 31
0.0
 44
0.9
  1
SHEET
 40
0.06
 41
0.48
  0
MTEXT
  5
247
100
AcDbEntity
  8
0
100
AcDbMText
 62
2
  6
CONTINUOUS
  7
STANDARD
 71
1
 72
1
 10
5.95
 20
0.5625
 30
0.0
 11
1.0
 21
0.0
 31
0.0
 44
0.9
  1
DWG SIZE
 40
0.06
 41
0.768
  0
MTEXT
  5
248
100
AcDbEntity
  8
0
100
AcDbMText
 62
2
  6
CONTINUOUS
  7
STANDARD
 71
1
 72
1
 10
5.25
 20
0.5625
 30
0.0
 11
1.0
 21
0.0
 31
0.0
 44
0.9
  1
SCALE
 40
0.06
 41
0.48
  0
MTEXT
  5
249
100
AcDbEntity
  8
0
100
AcDbMText
 62
2
  6
CONTINUOUS
  7
STANDARD
 71
1
 72
1
 10
4.15
 20
0.5625
 30
0.0
 11
1.0
 21
0.0
 31
0.0
 44
0.9
  1
DATE
 40
0.06
 41
0.384
  0
MTEXT
  5
24A
100
AcDbEntity
  8
0
100
AcDbMText
 62
2
  6
CONTINUOUS
  7
STANDARD
 71
1
 72
1
 10
0.05
 20
0.5625
 30
0.0
 11
1.0
 21
0.0
 31
0.0
 44
0.9
  1
DESCRIPTION
 40
0.06
 41
1.056
  0
MTEXT
  5
24B
100
AcDbEntity
  8
0
100
AcDbMText
 62
2
  6
CONTINUOUS
  7
STANDARD
 71
2
 72
1
 10
5.45
 20
1.0375
 30
0.0
 11
1.0
 21
0.0
 31
0.0
 44
0.9
  1
ALL DIMENSIONS IN INCH\PVIEWS ARE THIRD ANGLE
 40
0.12
 41
4.224
  0
MTEXT
  5
24C
100
AcDbEntity
  8
0
100
AcDbMText
 62
2
  6
CONTINUOUS
  7
STANDARD
 71
2
 72
1
 10
2.05
 20
0.95
 30
0.0
 11
1.0
 21
0.0
 31
0.0
 44
0.9
  1
E8B
 40
0.125
 41
0.6
  0
MTEXT
  5
24D
100
AcDbEntity
  8
0
100
AcDbMText
 62
2
  6
CONTINUOUS
  7
STANDARD
 71
1
 72
1
 10
0.05
 20
1.1875
 30
0.0
 11
1.0
 21
0.0
 31
0.0
 44
0.9
  1
MODEL
 40
0.06
 41
0.48
  0
ENDBLK
  5
24E
100
AcDbEntity
  8
0
  6
BYBLOCK
 62
0
100
AcDbBlockEnd
  0
BLOCK
  5
24F
100
AcDbEntity
  8
0
100
AcDbBlockBegin
  2
*T2
 70
1
 10
0.0
 20
0.0
  3
*T2
  1

  0
LINE
  5
250
100
AcDbEntity
  8
0
100
AcDbLine
 62
2
  6
CONTINUOUS
 10
0.0
 20
0.0
 11
9.055
 21
0.0
  0
LINE
  5
251
100
AcDbEntity
  8
0
100
AcDbLine
 62
2
  6
CONTINUOUS
 10
0.0
 20
0.0
 11
0.0
 21
-2.594
  0
LINE
  5
252
100
AcDbEntity
  8
0
100
AcDbLine
 62
2
  6
CONTINUOUS
 10
0.0
 20
-0.344
 11
9.055
 21
-0.344
  0
LINE
  5
253
100
AcDbEntity
  8
0
100
AcDbLine
 62
2
  6
CONTINUOUS
 10
0.0
 20
-0.594
 11
9.055
 21
-0.594
  0
LINE
  5
254
100
AcDbEntity
  8
0
100
AcDbLine
 62
2
  6
CONTINUOUS
 10
0.0
 20
-0.844
 11
9.055
 21
-0.844
  0
LINE
  5
255
100
AcDbEntity
  8
0
100
AcDbLine
 62
2
  6
CONTINUOUS
 10
0.0
 20
-1.094
 11
9.055
 21
-1.094
  0
LINE
  5
256
100
AcDbEntity
  8
0
100
AcDbLine
 62
2
  6
CONTINUOUS
 10
0.0
 20
-1.344
 11
9.055
 21
-1.344
  0
LINE
  5
257
100
AcDbEntity
  8
0
100
AcDbLine
 62
2
  6
CONTINUOUS
 10
0.0
 20
-1.594
 11
9.055
 21
-1.594
  0
LINE
  5
258
100
AcDbEntity
  8
0
100
AcDbLine
 62
2
  6
CONTINUOUS
 10
0.0
 20
-1.844
 11
9.055
 21
-1.844
  0
LINE
  5
259
100
AcDbEntity
  8
0
100
AcDbLine
 62
2
  6
CONTINUOUS
 10
0.0
 20
-2.094
 11
9.055
 21
-2.094
  0
LINE
  5
25A
100
AcDbEntity
  8
0
100
AcDbLine
 62
2
  6
CONTINUOUS
 10
0.0
 20
-2.344
 11
9.055
 21
-2.344
  0
LINE
  5
25B
100
AcDbEntity
  8
0
100
AcDbLine
 62
2
  6
CONTINUOUS
 10
0.0
 20
-2.594
 11
9.055
 21
-2.594
  0
LINE
  5
25C
100
AcDbEntity
  8
0
100
AcDbLine
 62
2
  6
CONTINUOUS
 10
3.055
 20
0.0
 11
3.055
 21
-2.594
  0
LINE
  5
25D
100
AcDbEntity
  8
0
100
AcDbLine
 62
2
  6
CONTINUOUS
 10
9.055
 20
0.0
 11
9.055
 21
-2.594
  0
MTEXT
  5
25E
100
AcDbEntity
  8
0
100
AcDbMText
 62
2
  6
CONTINUOUS
  7
STANDARD
 71
2
 72
1
 10
1.5275
 20
-0.0995
 30
0.0
 11
1.0
 21
0.0
 31
0.0
 44
0.9
  1
Technical Data
 40
0.145
 41
3.248
  0
MTEXT
  5
25F
100
AcDbEntity
  8
0
100
AcDbMText
 62
2
  6
CONTINUOUS
  7
STANDARD
 71
2
 72
1
 10
4.555
 20
-0.0995
 30
0.0
 11
1.0
 21
0.0
 31
0.0
 44
0.9
  1
U.S. Units
 40
0.145
 41
2.32
  0
MTEXT
  5
260
100
AcDbEntity
  8
0
100
AcDbMText
 62
2
  6
CONTINUOUS
  7
STANDARD
 71
2
 72
1
 10
7.555
 20
-0.0995
 30
0.0
 11
1.0
 21
0.0
 31
0.0
 44
0.9
  1
Metric Units
 40
0.145
 41
2.784
  0
MTEXT
  5
261
100
AcDbEntity
  8
0
100
AcDbMText
 62
2
  6
CONTINUOUS
  7
STANDARD
 71
2
 72
1
 10
1.5275
 20
-0.4065
 30
0.0
 11
1.0
 21
0.0
 31
0.0
 44
0.9
  1
Cavity
 40
0.125
 41
1.2
  0
MTEXT
  5
262
100
AcDbEntity
  8
0
100
AcDbMText
 62
2
  6
CONTINUOUS
  7
STANDARD
 71
2
 72
1
 10
6.055
 20
-0.4065
 30
0.0
 11
1.0
 21
0.0
 31
0.0
 44
0.9
  1
T-11A
 40
0.125
 41
1.0
  0
MTEXT
  5
263
100
AcDbEntity
  8
0
100
AcDbMText
 62
2
  6
CONTINUOUS
  7
STANDARD
 71
2
 72
1
 10
1.5275
 20
-0.6565
 30
0.0
 11
1.0
 21
0.0
 31
0.0
 44
0.9
  1
Body Features
 40
0.125
 41
2.6
  0
MTEXT
  5
264
100
AcDbEntity
  8
0
100
AcDbMText
 62
2
  6
CONTINUOUS
  7
STANDARD
 71
2
 72
1
 10
6.055
 20
-0.6565
 30
0.0
 11
1.0
 21
0.0
 31
0.0
 44
0.9
  1
2 cylinder sequence, with reverse checks
 40
0.125
 41
8.0
  0
MTEXT
  5
265
100
AcDbEntity
  8
0
100
AcDbMText
 62
2
  6
CONTINUOUS
  7
STANDARD
 71
2
 72
1
 10
1.5275
 20
-0.9065
 30
0.0
 11
1.0
 21
0.0
 31
0.0
 44
0.9
  1
Body Type
 40
0.125
 41
1.8
  0
MTEXT
  5
266
100
AcDbEntity
  8
0
100
AcDbMText
 62
2
  6
CONTINUOUS
  7
STANDARD
 71
2
 72
1
 10
6.055
 20
-0.9065
 30
0.0
 11
1.0
 21
0.0
 31
0.0
 44
0.9
  1
Line mount
 40
0.125
 41
2.0
  0
MTEXT
  5
267
100
AcDbEntity
  8
0
100
AcDbMText
 62
2
  6
CONTINUOUS
  7
STANDARD
 71
2
 72
1
 10
1.5275
 20
-1.1565
 30
0.0
 11
1.0
 21
0.0
 31
0.0
 44
0.9
  1
Interface
 40
0.125
 41
1.8
  0
MTEXT
  5
268
100
AcDbEntity
  8
0
100
AcDbMText
 62
2
  6
CONTINUOUS
  7
STANDARD
 71
2
 72
1
 10
6.055
 20
-1.1565
 30
0.0
 11
1.0
 21
0.0
 31
0.0
 44
0.9
  1
None
 40
0.125
 41
0.8
  0
MTEXT
  5
269
100
AcDbEntity
  8
0
100
AcDbMText
 62
2
  6
CONTINUOUS
  7
STANDARD
 71
2
 72
1
 10
1.5275
 20
-1.4065
 30
0.0
 11
1.0
 21
0.0
 31
0.0
 44
0.9
  1
Open Cavity Quantity
 40
0.125
 41
4.0
  0
MTEXT
  5
26A
100
AcDbEntity
  8
0
100
AcDbMText
 62
2
  6
CONTINUOUS
  7
STANDARD
 71
2
 72
1
 10
6.055
 20
-1.4065
 30
0.0
 11
1.0
 21
0.0
 31
0.0
 44
0.9
  1
2
 40
0.125
 41
0.2
  0
MTEXT
  5
26B
100
AcDbEntity
  8
0
100
AcDbMText
 62
2
  6
CONTINUOUS
  7
STANDARD
 71
2
 72
1
 10
1.5275
 20
-1.6565
 30
0.0
 11
1.0
 21
0.0
 31
0.0
 44
0.9
  1
Weight
 40
0.125
 41
1.2
  0
MTEXT
  5
26C
100
AcDbEntity
  8
0
100
AcDbMText
 62
2
  6
CONTINUOUS
  7
STANDARD
 71
2
 72
1
 10
4.555
 20
-1.6565
 30
0.0
 11
1.0
 21
0.0
 31
0.0
 44
0.9
  1
2.293 lb.
 40
0.125
 41
1.8
  0
MTEXT
  5
26D
100
AcDbEntity
  8
0
100
AcDbMText
 62
2
  6
CONTINUOUS
  7
STANDARD
 71
2
 72
1
 10
7.555
 20
-1.6565
 30
0.0
 11
1.0
 21
0.0
 31
0.0
 44
0.9
  1
1,040 kg.
 40
0.125
 41
1.8
  0
MTEXT
  5
26E
100
AcDbEntity
  8
0
100
AcDbMText
 62
2
  6
CONTINUOUS
  7
STANDARD
 71
2
 72
1
 10
1.5275
 20
-1.9065
 30
0.0
 11
1.0
 21
0.0
 31
0.0
 44
0.9
  1
Mounting Hole Diameter
 40
0.125
 41
4.4
  0
MTEXT
  5
26F
100
AcDbEntity
  8
0
100
AcDbMText
 62
2
  6
CONTINUOUS
  7
STANDARD
 71
2
 72
1
 10
4.555
 20
-1.9065
 30
0.0
 11
1.0
 21
0.0
 31
0.0
 44
0.9
  1
.34 in.
 40
0.125
 41
1.4
  0
MTEXT
  5
270
100
AcDbEntity
  8
0
100
AcDbMText
 62
2
  6
CONTINUOUS
  7
STANDARD
 71
2
 72
1
 10
7.555
 20
-1.9065
 30
0.0
 11
1.0
 21
0.0
 31
0.0
 44
0.9
  1
8.6 mm
 40
0.125
 41
1.2
  0
MTEXT
  5
271
100
AcDbEntity
  8
0
100
AcDbMText
 62
2
  6
CONTINUOUS
  7
STANDARD
 71
2
 72
1
 10
1.5275
 20
-2.1565
 30
0.0
 11
1.0
 21
0.0
 31
0.0
 44
0.9
  1
Mounting Hole Depth
 40
0.125
 41
3.8
  0
MTEXT
  5
272
100
AcDbEntity
  8
0
100
AcDbMText
 62
2
  6
CONTINUOUS
  7
STANDARD
 71
2
 72
1
 10
6.055
 20
-2.1565
 30
0.0
 11
1.0
 21
0.0
 31
0.0
 44
0.9
  1
Through
 40
0.125
 41
1.4
  0
MTEXT
  5
273
100
AcDbEntity
  8
0
100
AcDbMText
 62
2
  6
CONTINUOUS
  7
STANDARD
 71
2
 72
1
 10
1.5275
 20
-2.4065
 30
0.0
 11
1.0
 21
0.0
 31
0.0
 44
0.9
  1
Mounting Hole Quantity
 40
0.125
 41
4.4
  0
MTEXT
  5
274
100
AcDbEntity
  8
0
100
AcDbMText
 62
2
  6
CONTINUOUS
  7
STANDARD
 71
2
 72
1
 10
6.055
 20
-2.4065
 30
0.0
 11
1.0
 21
0.0
 31
0.0
 44
0.9
  1
2
 40
0.125
 41
0.2
  0
ENDBLK
  5
275
100
AcDbEntity
  8
0
  6
BYBLOCK
 62
0
100
AcDbBlockEnd
  0
BLOCK
  5
276
100
AcDbEntity
  8
0
100
AcDbBlockBegin
  2
*T3
 70
1
 10
0.0
 20
0.0
  3
*T3
  1

  0
LINE
  5
277
100
AcDbEntity
  8
0
100
AcDbLine
 62
2
  6
CONTINUOUS
 10
0.0
 20
0.0
 11
4.6
 21
0.0
  0
LINE
  5
278
100
AcDbEntity
  8
0
100
AcDbLine
 62
2
  6
CONTINUOUS
 10
0.0
 20
0.0
 11
0.0
 21
-0.93775
  0
LINE
  5
279
100
AcDbEntity
  8
0
100
AcDbLine
 62
2
  6
CONTINUOUS
 10
0.0
 20
-0.34375
 11
4.6
 21
-0.34375
  0
LINE
  5
27A
100
AcDbEntity
  8
0
100
AcDbLine
 62
2
  6
CONTINUOUS
 10
0.0
 20
-0.68775
 11
4.6
 21
-0.68775
  0
LINE
  5
27B
100
AcDbEntity
  8
0
100
AcDbLine
 62
2
  6
CONTINUOUS
 10
0.0
 20
-0.93775
 11
4.6
 21
-0.93775
  0
LINE
  5
27C
100
AcDbEntity
  8
0
100
AcDbLine
 62
2
  6
CONTINUOUS
 10
1.3
 20
-0.34375
 11
1.3
 21
-0.93775
  0
LINE
  5
27D
100
AcDbEntity
  8
0
100
AcDbLine
 62
2
  6
CONTINUOUS
 10
3.3
 20
-0.34375
 11
3.3
 21
-0.93775
  0
LINE
  5
27E
100
AcDbEntity
  8
0
100
AcDbLine
 62
2
  6
CONTINUOUS
 10
4.6
 20
0.0
 11
4.6
 21
-0.93775
  0
MTEXT
  5
27F
100
AcDbEntity
  8
0
100
AcDbMText
 62
2
  6
CONTINUOUS
  7
STANDARD
 71
2
 72
1
 10
2.3
 20
-0.099375
 30
0.0
 11
1.0
 21
0.0
 31
0.0
 44
0.9
  1
Port Headings
 40
0.145
 41
3.016
  0
MTEXT
  5
280
100
AcDbEntity
  8
0
100
AcDbMText
 62
2
  6
CONTINUOUS
  7
STANDARD
 71
2
 72
1
 10
0.65
 20
-0.44325
 30
0.0
 11
1.0
 21
0.0
 31
0.0
 44
0.9
  1
Product
 40
0.145
 41
1.624
  0
MTEXT
  5
281
100
AcDbEntity
  8
0
100
AcDbMText
 62
2
  6
CONTINUOUS
  7
STANDARD
 71
2
 72
1
 10
2.3
 20
-0.44325
 30
0.0
 11
1.0
 21
0.0
 31
0.0
 44
0.9
  1
Port
 40
0.145
 41
0.928
  0
MTEXT
  5
282
100
AcDbEntity
  8
0
100
AcDbMText
 62
2
  6
CONTINUOUS
  7
STANDARD
 71
2
 72
1
 10
3.95
 20
-0.44325
 30
0.0
 11
1.0
 21
0.0
 31
0.0
 44
0.9
  1
Size
 40
0.145
 41
0.928
  0
MTEXT
  5
283
100
AcDbEntity
  8
0
100
AcDbMText
 62
2
  6
CONTINUOUS
  7
STANDARD
 71
2
 72
1
 10
0.65
 20
-0.75025
 30
0.0
 11
1.0
 21
0.0
 31
0.0
 44
0.9
  1
E8B
 40
0.125
 41
0.6
  0
MTEXT
  5
284
100
AcDbEntity
  8
0
100
AcDbMText
 62
2
  6
CONTINUOUS
  7
STANDARD
 71
2
 72
1
 10
2.3
 20
-0.75025
 30
0.0
 11
1.0
 21
0.0
 31
0.0
 44
0.9
  1
All Ports
 40
0.125
 41
1.8
  0
MTEXT
  5
285
100
AcDbEntity
  8
0
100
AcDbMText
 62
2
  6
CONTINUOUS
  7
STANDARD
 71
2
 72
1
 10
3.95
 20
-0.75025
 30
0.0
 11
1.0
 21
0.0
 31
0.0
 44
0.9
  1
3/8" NPTF
 40
0.125
 41
1.8
  0
ENDBLK
  5
286
100
AcDbEntity
  8
0
  6
BYBLOCK
 62
0
100
AcDbBlockEnd
  0
ENDSEC
  0
SECTION
  2
ENTITIES
  0
IMAGE
  5
287
100
AcDbEntity
  8
0
100
AcDbRasterImage
 62
7
  6
CONTINUOUS
 10
19.2297077316
 20
0.3094318264
 30
0.0
 11
0.0066666667
 21
0.0
 31
0.0
 12
0.0
 22
0.0066666667
 32
0.0
 13
369.0
 23
92.0
340
       388
 70
9
280
0
281
50
282
50
283
0
360
       382
 71
1
 91
2
 14
-0.5
 24
-0.5
 14
368.5
 24
91.5
  0
INSERT
  5
288
100
AcDbEntity
  8
0
100
AcDbBlockReference
 62
2
  6
CONTINUOUS
  2
SUN_FIRST_THIRD_ANGLE_BL0
 10
20.4816717061
 20
1.2289683772
  0
ACAD_TABLE
  5
289
100
AcDbEntity
  8
0
 62
2
  6
CONTINUOUS
100
AcDbBlockReference
  2
*T1
 10
12.42375
 20
0.30125
 30
0.0
100
AcDbTable
342
       38A
343
20F
 11
1.0
 21
0.0
 31
0.0
 90
6
 91
4
 92
6
 93
20
 94
0
 95
0
 96
0
 70
1
 41
0.0
141
0.525
141
0.1
141
0.525
141
0.1
142
4.1
142
1.1
142
0.7
142
0.5
142
0.4
142
2.475
171
1
172
0
173
0
174
0
175
1
176
1
 91
33
178
0
145
0.0
301
CELL_VALUE
 90
4
  1
T-11A Line mount\P2 cylinder sequence, with reverse checks
304
ACVALUE_END
170
2
140
0.125
171
1
172
0
173
0
174
0
175
1
176
1
 91
33
178
0
145
0.0
301
CELL_VALUE
 90
4
  1
Oct-09-23
304
ACVALUE_END
170
5
140
0.125
171
1
172
0
173
0
174
0
175
1
176
1
 91
33
178
0
145
0.0
301
CELL_VALUE
 90
4
  1
2.000
304
ACVALUE_END
170
5
140
0.125
171
1
172
0
173
0
174
0
175
1
176
1
 91
33
178
0
145
0.0
301
CELL_VALUE
 90
4
  1
C
304
ACVALUE_END
170
5
140
0.125
171
1
172
0
173
0
174
0
175
1
176
1
 91
33
178
0
145
0.0
301
CELL_VALUE
 90
4
  1
2
304
ACVALUE_END
170
5
140
0.125
171
1
172
0
173
0
174
0
175
1
176
1
 91
33
178
0
145
0.0
301
CELL_VALUE
 90
4
  1
 
304
ACVALUE_END
170
1
140
0.125
171
1
172
0
173
0
174
0
175
1
176
1
 91
33
178
0
145
0.0
301
CELL_VALUE
 90
4
  1
DESCRIPTION
304
ACVALUE_END
170
1
140
0.06
171
1
172
0
173
0
174
0
175
1
176
1
 91
33
178
0
145
0.0
301
CELL_VALUE
 90
4
  1
DATE
304
ACVALUE_END
170
1
140
0.06
171
1
172
0
173
0
174
0
175
1
176
1
 91
33
178
0
145
0.0
301
CELL_VALUE
 90
4
  1
SCALE
304
ACVALUE_END
170
1
140
0.06
171
1
172
0
173
0
174
0
175
1
176
1
 91
33
178
0
145
0.0
301
CELL_VALUE
 90
4
  1
DWG SIZE
304
ACVALUE_END
170
1
140
0.06
171
1
172
0
173
0
174
0
175
1
176
1
 91
33
178
0
145
0.0
301
CELL_VALUE
 90
4
  1
SHEET
304
ACVALUE_END
170
1
140
0.06
171
1
172
0
173
0
174
0
175
1
176
1
 91
33
178
0
145
0.0
301
CELL_VALUE
 90
4
  1
 
304
ACVALUE_END
170
1
140
0.125
171
1
172
0
173
0
174
0
175
1
176
1
 91
33
178
0
145
0.0
301
CELL_VALUE
 90
4
  1
E8B
304
ACVALUE_END
170
5
140
0.125
171
1
172
0
173
0
174
0
175
4
176
1
 91
33
178
0
145
0.0
301
CELL_VALUE
 90
4
  1
ALL DIMENSIONS IN INCH\PVIEWS ARE THIRD ANGLE
304
ACVALUE_END
170
5
140
0.12
171
1
172
0
173
1
174
0
175
1
176
1
 91
1
178
0
145
0.0
170
1
171
1
172
0
173
1
174
0
175
1
176
1
 91
1
178
0
145
0.0
170
1
171
1
172
0
173
1
174
0
175
1
176
1
 91
1
178
0
145
0.0
170
5
171
1
172
0
173
0
174
0
175
1
176
1
 91
33
178
0
145
0.0
301
CELL_VALUE
 90
4
  1
 
304
ACVALUE_END
170
1
140
0.125
171
1
172
0
173
0
174
0
175
1
176
1
 91
33
178
0
145
0.0
301
CELL_VALUE
 90
4
  1
MODEL
304
ACVALUE_END
170
1
140
0.06
171
1
172
0
173
0
174
0
175
1
176
1
 91
33
178
0
145
0.0
301
CELL_VALUE
 90
4
  1
 
304
ACVALUE_END
170
1
140
0.125
171
1
172
0
173
0
174
0
175
1
176
1
 91
33
178
0
145
0.0
301
CELL_VALUE
 90
4
  1
 
304
ACVALUE_END
170
1
140
0.125
171
1
172
0
173
0
174
0
175
1
176
1
 91
33
178
0
145
0.0
301
CELL_VALUE
 90
4
  1
 
304
ACVALUE_END
170
1
140
0.125
171
1
172
0
173
0
174
0
175
1
176
1
 91
33
178
0
145
0.0
301
CELL_VALUE
 90
4
  1
 
304
ACVALUE_END
170
1
140
0.125
171
1
172
0
173
0
174
0
175
1
176
1
 91
33
178
0
145
0.0
301
CELL_VALUE
 90
4
  1
 
304
ACVALUE_END
170
1
140
0.125
  0
ACAD_TABLE
  5
28A
100
AcDbEntity
  8
0
 62
2
  6
CONTINUOUS
100
AcDbBlockReference
  2
*T2
 10
12.4237499994
 20
16.47875
 30
0.0
100
AcDbTable
342
       389
343
210
 11
1.0
 21
0.0
 31
0.0
 90
22
 91
10
 92
3
 93
16
 94
0
 95
0
 96
0
 41
0.028
141
0.344
141
0.25
141
0.25
141
0.25
141
0.25
141
0.25
141
0.25
141
0.25
141
0.25
141
0.25
142
3.055
142
3.0
142
3.0
171
1
172
0
173
0
174
0
175
1
176
1
 91
33
178
0
145
0.0
301
CELL_VALUE
 90
4
  1
Technical Data
304
ACVALUE_END
170
5
140
0.145
171
1
172
0
173
0
174
0
175
1
176
1
 91
33
178
0
145
0.0
301
CELL_VALUE
 90
4
  1
U.S. Units
304
ACVALUE_END
170
5
140
0.145
171
1
172
0
173
0
174
0
175
1
176
1
 91
33
178
0
145
0.0
301
CELL_VALUE
 90
4
  1
Metric Units
304
ACVALUE_END
170
5
140
0.145
171
1
172
0
173
0
174
0
175
1
176
1
 91
33
178
0
145
0.0
301
CELL_VALUE
 90
4
  1
Cavity
304
ACVALUE_END
170
5
140
0.125
171
1
172
0
173
0
174
0
175
2
176
1
 91
33
178
0
145
0.0
301
CELL_VALUE
 90
4
  1
T-11A
304
ACVALUE_END
170
5
140
0.125
171
1
172
0
173
1
174
0
175
1
176
1
 91
1
178
0
145
0.0
170
1
171
1
172
0
173
0
174
0
175
1
176
1
 91
33
178
0
145
0.0
301
CELL_VALUE
 90
4
  1
Body Features
304
ACVALUE_END
170
5
140
0.125
171
1
172
0
173
0
174
0
175
2
176
1
 91
33
178
0
145
0.0
301
CELL_VALUE
 90
4
  1
2 cylinder sequence, with reverse checks
304
ACVALUE_END
170
5
140
0.125
171
1
172
0
173
1
174
0
175
1
176
1
 91
1
178
0
145
0.0
170
1
171
1
172
0
173
0
174
0
175
1
176
1
 91
33
178
0
145
0.0
301
CELL_VALUE
 90
4
  1
Body Type
304
ACVALUE_END
170
5
140
0.125
171
1
172
0
173
0
174
0
175
2
176
1
 91
33
178
0
145
0.0
301
CELL_VALUE
 90
4
  1
Line mount
304
ACVALUE_END
170
5
140
0.125
171
1
172
0
173
1
174
0
175
1
176
1
 91
1
178
0
145
0.0
170
1
171
1
172
0
173
0
174
0
175
1
176
1
 91
33
178
0
145
0.0
301
CELL_VALUE
 90
4
  1
Interface
304
ACVALUE_END
170
5
140
0.125
171
1
172
0
173
0
174
0
175
2
176
1
 91
33
178
0
145
0.0
301
CELL_VALUE
 90
4
  1
None
304
ACVALUE_END
170
5
140
0.125
171
1
172
0
173
1
174
0
175
1
176
1
 91
1
178
0
145
0.0
170
1
171
1
172
0
173
0
174
0
175
1
176
1
 91
33
178
0
145
0.0
301
CELL_VALUE
 90
4
  1
Open Cavity Quantity
304
ACVALUE_END
170
5
140
0.125
171
1
172
0
173
0
174
0
175
2
176
1
 91
33
178
0
145
0.0
301
CELL_VALUE
 90
4
  1
2
304
ACVALUE_END
170
5
140
0.125
171
1
172
0
173
1
174
0
175
1
176
1
 91
1
178
0
145
0.0
170
1
171
1
172
0
173
0
174
0
175
1
176
1
 91
33
178
0
145
0.0
301
CELL_VALUE
 90
4
  1
Weight
304
ACVALUE_END
170
5
140
0.125
171
1
172
0
173
0
174
0
175
1
176
1
 91
33
178
0
145
0.0
301
CELL_VALUE
 90
4
  1
2.293 lb.
304
ACVALUE_END
170
5
140
0.125
171
1
172
0
173
0
174
0
175
1
176
1
 91
33
178
0
145
0.0
301
CELL_VALUE
 90
4
  1
1,040 kg.
304
ACVALUE_END
170
5
140
0.125
171
1
172
0
173
0
174
0
175
1
176
1
 91
33
178
0
145
0.0
301
CELL_VALUE
 90
4
  1
Mounting Hole Diameter
304
ACVALUE_END
170
5
140
0.125
171
1
172
0
173
0
174
0
175
1
176
1
 91
33
178
0
145
0.0
301
CELL_VALUE
 90
4
  1
.34 in.
304
ACVALUE_END
170
5
140
0.125
171
1
172
0
173
0
174
0
175
1
176
1
 91
33
178
0
145
0.0
301
CELL_VALUE
 90
4
  1
8.6 mm
304
ACVALUE_END
170
5
140
0.125
171
1
172
0
173
0
174
0
175
1
176
1
 91
33
178
0
145
0.0
301
CELL_VALUE
 90
4
  1
Mounting Hole Depth
304
ACVALUE_END
170
5
140
0.125
171
1
172
0
173
0
174
0
175
2
176
1
 91
33
178
0
145
0.0
301
CELL_VALUE
 90
4
  1
Through
304
ACVALUE_END
170
5
140
0.125
171
1
172
0
173
1
174
0
175
1
176
1
 91
1
178
0
145
0.0
170
1
171
1
172
0
173
0
174
0
175
1
176
1
 91
33
178
0
145
0.0
301
CELL_VALUE
 90
4
  1
Mounting Hole Quantity
304
ACVALUE_END
170
5
140
0.125
171
1
172
0
173
0
174
0
175
2
176
1
 91
33
178
0
145
0.0
301
CELL_VALUE
 90
4
  1
2
304
ACVALUE_END
170
5
140
0.125
171
1
172
0
173
1
174
0
175
1
176
1
 91
1
178
0
145
0.0
170
1
  0
ACAD_TABLE
  5
28B
100
AcDbEntity
  8
0
 62
2
  6
CONTINUOUS
100
AcDbBlockReference
  2
*T3
 10
0.52125
 20
1.459
 30
0.0
100
AcDbTable
342
       389
343
211
 11
1.0
 21
0.0
 31
0.0
 90
22
 91
3
 92
3
 93
16
 94
0
 95
0
 96
0
 41
0.05
141
0.34375
141
0.344
141
0.25
142
1.3
142
2.0
142
1.3
171
1
172
0
173
0
174
0
175
3
176
1
 91
33
178
0
145
0.0
301
CELL_VALUE
 90
4
  1
Port Headings
304
ACVALUE_END
170
5
140
0.145
171
1
172
0
173
1
174
0
175
1
176
1
 91
1
178
0
145
0.0
170
1
171
1
172
0
173
1
174
0
175
1
176
1
 91
1
178
0
145
0.0
170
1
171
1
172
0
173
0
174
0
175
1
176
1
 91
33
178
0
145
0.0
301
CELL_VALUE
 90
4
  1
Product
304
ACVALUE_END
170
5
140
0.145
171
1
172
0
173
0
174
0
175
1
176
1
 91
33
178
0
145
0.0
301
CELL_VALUE
 90
4
  1
Port
304
ACVALUE_END
170
5
140
0.145
171
1
172
0
173
0
174
0
175
1
176
1
 91
33
178
0
145
0.0
301
CELL_VALUE
 90
4
  1
Size
304
ACVALUE_END
170
5
140
0.145
171
1
172
0
173
0
174
0
175
1
176
1
 91
33
178
0
145
0.0
301
CELL_VALUE
 90
4
  1
E8B
304
ACVALUE_END
170
5
140
0.125
171
1
172
0
173
0
174
0
175
1
176
1
 91
33
178
0
145
0.0
301
CELL_VALUE
 90
4
  1
All Ports
304
ACVALUE_END
170
5
140
0.125
171
1
172
0
173
0
174
0
175
1
176
1
 91
33
178
0
145
0.0
301
CELL_VALUE
 90
4
  1
3/8" NPTF
304
ACVALUE_END
170
5
140
0.125
  0
MTEXT
  5
28C
100
AcDbEntity
  8
0
100
AcDbMText
 62
2
  6
CONTINUOUS
  7
STANDARD
 71
1
 72
1
 10
0.52125
 20
5.75995
 30
0.0
 11
1.0
 21
0.0
 31
0.0
 44
0.6
  3
Notes\P \P1. Important: Carefully consider\P   the maximum system pressure. The\P   pressure rating of the manifold is\P   dependent on the manifold material,\P   with the port type/size a secondary\P   consideration. Manifolds\P   constructed of alu
  3
minum are not\P   rated for pressures higher than\P   3000 psi (210 bar), regardless of\P   the port type/size specified.\P2. This drawing is for reference\P   only. It is generated by an\P   automated process and does not fall\P   under Sun's docume
  1
nt control\P   process.
 40
0.1
 41
3.04
  0
LINE
  5
28D
100
AcDbEntity
  8
0
100
AcDbLine
 62
7
  6
CONTINUOUS
 10
0.30125
 20
0.30125
 11
0.30125
 21
16.69875
  0
LINE
  5
28E
100
AcDbEntity
  8
0
100
AcDbLine
 62
7
  6
CONTINUOUS
 10
0.30125
 20
0.30125
 11
21.69875
 21
0.30125
  0
LINE
  5
28F
100
AcDbEntity
  8
0
100
AcDbLine
 62
7
  6
CONTINUOUS
 10
0.30125
 20
16.69875
 11
21.69875
 21
16.69875
  0
LINE
  5
290
100
AcDbEntity
  8
0
100
AcDbLine
 62
7
  6
CONTINUOUS
 10
21.69875
 20
0.30125
 11
21.69875
 21
16.69875
  0
LINE
  5
291
100
AcDbEntity
  8
0
100
AcDbLine
 62
7
  6
CONTINUOUS
 10
6.2856928605
 20
7.2308565608
 11
6.2627277015
 21
7.2860324222
  0
LINE
  5
292
100
AcDbEntity
  8
0
100
AcDbLine
 62
7
  6
CONTINUOUS
 10
6.5379202569
 20
5.7281345201
 11
6.5379202569
 21
10.5577639377
  0
LINE
  5
293
100
AcDbEntity
  8
0
100
AcDbLine
 62
7
  6
CONTINUOUS
 10
6.5379202569
 20
10.5577639377
 11
7.8320144145
 21
11.8077629802
  0
LINE
  5
294
100
AcDbEntity
  8
0
100
AcDbLine
 62
7
  6
CONTINUOUS
 10
6.3852309328
 20
8.8480067843
 11
6.3691615125
 21
8.8207613269
  0
LINE
  5
295
100
AcDbEntity
  8
0
100
AcDbLine
 62
7
  6
CONTINUOUS
 10
14.2653273251
 20
5.1922370198
 11
6.5379202569
 21
5.7281345201
  0
LINE
  5
296
100
AcDbEntity
  8
0
100
AcDbLine
 62
4
  6
CONTINUOUS
 10
12.5459792657
 20
6.2580815178
 11
12.3141570588
 21
6.2017140028
  0
LINE
  5
297
100
AcDbEntity
  8
0
100
AcDbLine
 62
4
  6
CONTINUOUS
 10
9.5322904037
 20
6.5395259899
 11
9.7641126106
 21
6.4510046256
  0
LINE
  5
298
100
AcDbEntity
  8
0
100
AcDbLine
 62
4
  6
CONTINUOUS
 10
12.3721126105
 20
6.8062280647
 11
12.4300681623
 21
6.8166977214
  0
LINE
  5
299
100
AcDbEntity
  8
0
100
AcDbLine
 62
4
  6
CONTINUOUS
 10
12.5073422266
 20
6.4346276607
 11
12.4687052013
 21
6.4373071475
  0
LINE
  5
29A
100
AcDbEntity
  8
0
100
AcDbLine
 62
4
  6
CONTINUOUS
 10
9.7641126106
 20
6.6828268325
 11
9.5322904037
 21
6.6989037571
  0
LINE
  5
29B
100
AcDbEntity
  8
0
100
AcDbLine
 62
4
  6
CONTINUOUS
 10
9.5709274394
 20
6.8700909247
 11
9.5516089216
 21
6.8859195564
  0
LINE
  5
29C
100
AcDbEntity
  8
0
100
AcDbLine
 62
4
  6
CONTINUOUS
 10
9.7061570589
 20
6.9911127101
 11
9.744794098
 21
6.9594554465
  0
LINE
  5
29D
100
AcDbEntity
  8
0
100
AcDbLine
 62
4
  6
CONTINUOUS
 10
9.5516089216
 20
6.8859195564
 11
9.5322904037
 21
6.916237076
  0
LINE
  5
29E
100
AcDbEntity
  8
0
100
AcDbLine
 62
4
  6
CONTINUOUS
 10
9.7641126106
 20
6.4510046256
 11
9.5322904037
 21
6.3946371106
  0
LINE
  5
29F
100
AcDbEntity
  8
0
100
AcDbLine
 62
7
  6
CONTINUOUS
 10
6.5379202569
 20
7.0757439338
 11
6.3646163199
 21
7.0877626027
  0
LINE
  5
2A0
100
AcDbEntity
  8
0
100
AcDbLine
 62
7
  6
CONTINUOUS
 10
6.5379202569
 20
7.1054657914
 11
6.3380653474
 21
7.1193257765
  0
LINE
  5
2A1
100
AcDbEntity
  8
0
100
AcDbLine
 62
4
  6
CONTINUOUS
 10
9.6482015072
 20
7.0096208292
 11
9.7061570589
 21
6.9911127101
  0
LINE
  5
2A2
100
AcDbEntity
  8
0
100
AcDbLine
 62
4
  6
CONTINUOUS
 10
12.3141570588
 20
6.3466028821
 11
12.5459792657
 21
6.2580815178
  0
LINE
  5
2A3
100
AcDbEntity
  8
0
100
AcDbLine
 62
4
  6
CONTINUOUS
 10
9.744794098
 20
6.9594554465
 11
9.7641126106
 21
6.9291379273
  0
LINE
  5
2A4
100
AcDbEntity
  8
0
100
AcDbLine
 62
4
  6
CONTINUOUS
 10
9.5322904037
 20
6.916237076
 11
9.5322904037
 21
6.9452148519
  0
LINE
  5
2A5
100
AcDbEntity
  8
0
100
AcDbLine
 62
4
  6
CONTINUOUS
 10
9.609564475
 20
6.505189239
 11
9.609564475
 21
6.4182559114
  0
LINE
  5
2A6
100
AcDbEntity
  8
0
100
AcDbLine
 62
4
  6
CONTINUOUS
 10
9.7641126106
 20
6.9291379273
 11
9.7641126106
 21
6.9001601514
  0
LINE
  5
2A7
100
AcDbEntity
  8
0
100
AcDbLine
 62
7
  6
CONTINUOUS
 10
9.7897649374
 20
9.0685608197
 11
9.8940197429
 21
9.1692632348
  0
LINE
  5
2A8
100
AcDbEntity
  8
0
100
AcDbLine
 62
4
  6
CONTINUOUS
 10
9.5902459555
 20
6.9991511725
 11
9.6482015072
 21
7.0096208292
  0
LINE
  5
2A9
100
AcDbEntity
  8
0
100
AcDbLine
 62
7
  6
CONTINUOUS
 10
9.0150292722
 20
7.1785670528
 11
8.7792194315
 21
7.1949205208
  0
LINE
  5
2AA
100
AcDbEntity
  8
0
100
AcDbLine
 62
4
  6
CONTINUOUS
 10
12.3721126105
 20
6.5454280819
 11
12.3141570588
 21
6.563936201
  0
LINE
  5
2AB
100
AcDbEntity
  8
0
100
AcDbLine
 62
4
  6
CONTINUOUS
 10
12.4300681623
 20
6.8166977214
 11
12.488023714
 21
6.7981896023
  0
LINE
  5
2AC
100
AcDbEntity
  8
0
100
AcDbLine
 62
4
  6
CONTINUOUS
 10
10.266394066
 20
8.9227490512
 11
10.266394066
 21
8.8213268357
  0
LINE
  5
2AD
100
AcDbEntity
  8
0
100
AcDbLine
 62
4
  6
CONTINUOUS
 10
10.266394066
 20
9.2994601374
 11
10.266394066
 21
9.3284379132
  0
LINE
  5
2AE
100
AcDbEntity
  8
0
100
AcDbLine
 62
4
  6
CONTINUOUS
 10
10.266394066
 20
9.3284379132
 11
10.2857125838
 21
9.3560759453
  0
LINE
  5
2AF
100
AcDbEntity
  8
0
100
AcDbLine
 62
4
  6
CONTINUOUS
 10
10.4982162729
 20
9.2833832127
 11
10.4788977602
 21
9.2557451802
  0
LINE
  5
2B0
100
AcDbEntity
  8
0
100
AcDbLine
 62
4
  6
CONTINUOUS
 10
10.2857125838
 20
9.3560759453
 11
10.3243496177
 21
9.3823742338
  0
LINE
  5
2B1
100
AcDbEntity
  8
0
100
AcDbLine
 62
4
  6
CONTINUOUS
 10
10.4788977602
 20
9.2557451802
 11
10.4595792338
 21
9.2425960367
  0
LINE
  5
2B2
100
AcDbEntity
  8
0
100
AcDbLine
 62
7
  6
CONTINUOUS
 10
6.5379202569
 20
7.7192202702
 11
6.2250107221
 21
7.7409206202
  0
LINE
  5
2B3
100
AcDbEntity
  8
0
100
AcDbLine
 62
7
  6
CONTINUOUS
 10
6.5379202569
 20
7.8336391611
 11
6.2250107221
 21
7.855339511
  0
LINE
  5
2B4
100
AcDbEntity
  8
0
100
AcDbLine
 62
4
  6
CONTINUOUS
 10
10.4016236821
 20
8.9133708455
 11
10.4016236821
 21
8.81194863
  0
LINE
  5
2B5
100
AcDbEntity
  8
0
100
AcDbLine
 62
4
  6
CONTINUOUS
 10
10.4982162729
 20
9.3123609886
 11
10.4982162729
 21
9.2833832127
  0
LINE
  5
2B6
100
AcDbEntity
  8
0
100
AcDbLine
 62
4
  6
CONTINUOUS
 10
10.4982162729
 20
8.805249911
 11
10.4982162729
 21
8.9066721265
  0
LINE
  5
2B7
100
AcDbEntity
  8
0
100
AcDbLine
 62
7
  6
CONTINUOUS
 10
8.8016878316
 20
7.193362332
 11
8.738818811
 21
7.1348504914
  0
LINE
  5
2B8
100
AcDbEntity
  8
0
100
AcDbLine
 62
4
  6
CONTINUOUS
 10
10.3629866499
 20
8.7856503414
 11
10.4016236821
 21
8.81194863
  0
LINE
  5
2B9
100
AcDbEntity
  8
0
100
AcDbLine
 62
4
  6
CONTINUOUS
 10
10.4788977602
 20
8.7921007665
 11
10.4982162729
 21
8.805249911
  0
LINE
  5
2BA
100
AcDbEntity
  8
0
100
AcDbLine
 62
4
  6
CONTINUOUS
 10
14.4672060082
 20
8.194217412
 11
14.4516768787
 21
8.1937063117
  0
LINE
  5
2BB
100
AcDbEntity
  8
0
100
AcDbLine
 62
4
  6
CONTINUOUS
 10
12.4687052013
 20
6.4373071475
 11
12.4493866749
 21
6.4531357798
  0
LINE
  5
2BC
100
AcDbEntity
  8
0
100
AcDbLine
 62
4
  6
CONTINUOUS
 10
12.4107496427
 20
6.5137708188
 11
12.3721126105
 21
6.5454280819
  0
LINE
  5
2BD
100
AcDbEntity
  8
0
100
AcDbLine
 62
4
  6
CONTINUOUS
 10
12.5073422266
 20
6.5505387642
 11
12.5266607531
 21
6.5347101319
  0
LINE
  5
2BE
100
AcDbEntity
  8
0
100
AcDbLine
 62
4
  6
CONTINUOUS
 10
12.3527940945
 20
6.677167817
 11
12.3334755766
 21
6.6929964486
  0
LINE
  5
2BF
100
AcDbEntity
  8
0
100
AcDbLine
 62
4
  6
CONTINUOUS
 10
12.488023714
 20
6.7981896023
 11
12.5266607531
 21
6.7665323387
  0
LINE
  5
2C0
100
AcDbEntity
  8
0
100
AcDbLine
 62
4
  6
CONTINUOUS
 10
9.5322904037
 20
6.9452148519
 11
9.5516089216
 21
6.972852884
  0
LINE
  5
2C1
100
AcDbEntity
  8
0
100
AcDbLine
 62
4
  6
CONTINUOUS
 10
9.7641126106
 20
6.9001601514
 11
9.744794098
 21
6.8725221189
  0
LINE
  5
2C2
100
AcDbEntity
  8
0
100
AcDbLine
 62
7
  6
CONTINUOUS
 10
14.7250290486
 20
7.9603021229
 11
15.5070257213
 21
7.9060704694
  0
LINE
  5
2C3
100
AcDbEntity
  8
0
100
AcDbLine
 62
7
  6
CONTINUOUS
 10
6.5379202569
 20
8.6814791473
 11
6.3380653474
 21
8.6953391324
  0
LINE
  5
2C4
100
AcDbEntity
  8
0
100
AcDbLine
 62
7
  6
CONTINUOUS
 10
14.6444016646
 20
8.1850956337
 11
15.3112093662
 21
8.1388523626
  0
LINE
  5
2C5
100
AcDbEntity
  8
0
100
AcDbLine
 62
7
  6
CONTINUOUS
 10
6.5379202569
 20
8.7661761806
 11
6.3646163199
 21
8.7781948494
  0
LINE
  5
2C6
100
AcDbEntity
  8
0
100
AcDbLine
 62
7
  6
CONTINUOUS
 10
14.6299410997
 20
8.2693181772
 11
15.2958801551
 21
8.2231351469
  0
LINE
  5
2C7
100
AcDbEntity
  8
0
100
AcDbLine
 62
4
  6
CONTINUOUS
 10
10.266394066
 20
8.8213268357
 11
10.3050311016
 21
8.7896695723
  0
LINE
  5
2C8
100
AcDbEntity
  8
0
100
AcDbLine
 62
4
  6
CONTINUOUS
 10
10.4016236821
 20
8.81194863
 11
10.4209422085
 21
8.7961199977
  0
LINE
  5
2C9
100
AcDbEntity
  8
0
100
AcDbLine
 62
4
  6
CONTINUOUS
 10
10.2857125838
 20
9.2691426177
 11
10.266394066
 21
9.2994601374
  0
LINE
  5
2CA
100
AcDbEntity
  8
0
100
AcDbLine
 62
4
  6
CONTINUOUS
 10
10.4788977602
 20
9.3426785078
 11
10.4982162729
 21
9.3123609886
  0
LINE
  5
2CB
100
AcDbEntity
  8
0
100
AcDbLine
 62
4
  6
CONTINUOUS
 10
13.1834905001
 20
9.1647735833
 11
13.2414460518
 21
9.1752432401
  0
LINE
  5
2CC
100
AcDbEntity
  8
0
100
AcDbLine
 62
4
  6
CONTINUOUS
 10
14.4672060082
 20
8.8172395929
 11
14.4827351378
 21
8.8177506932
  0
LINE
  5
2CD
100
AcDbEntity
  8
0
100
AcDbLine
 62
4
  6
CONTINUOUS
 10
13.164171984
 20
8.5720689218
 11
13.2221275323
 21
8.5680496909
  0
LINE
  5
2CE
100
AcDbEntity
  8
0
100
AcDbLine
 62
4
  6
CONTINUOUS
 10
13.2800830909
 20
8.5785193472
 11
13.3380386426
 21
8.574500116
  0
LINE
  5
2CF
100
AcDbEntity
  8
0
100
AcDbLine
 62
4
  6
CONTINUOUS
 10
10.3050311016
 20
8.7896695723
 11
10.3629866499
 21
8.7856503414
  0
LINE
  5
2D0
100
AcDbEntity
  8
0
100
AcDbLine
 62
4
  6
CONTINUOUS
 10
10.4209422085
 20
8.7961199977
 11
10.4788977602
 21
8.7921007665
  0
LINE
  5
2D1
100
AcDbEntity
  8
0
100
AcDbLine
 62
4
  6
CONTINUOUS
 10
13.3573571552
 20
8.6890714761
 11
13.1255349484
 21
8.7051484007
  0
LINE
  5
2D2
100
AcDbEntity
  8
0
100
AcDbLine
 62
4
  6
CONTINUOUS
 10
10.4982162729
 20
8.9066721265
 11
10.266394066
 21
8.9227490512
  0
LINE
  5
2D3
100
AcDbEntity
  8
0
100
AcDbLine
 62
4
  6
CONTINUOUS
 10
10.3050311016
 20
9.253313986
 11
10.2857125838
 21
9.2691426177
  0
LINE
  5
2D4
100
AcDbEntity
  8
0
100
AcDbLine
 62
4
  6
CONTINUOUS
 10
10.4402607212
 20
9.3743357714
 11
10.4788977602
 21
9.3426785078
  0
LINE
  5
2D5
100
AcDbEntity
  8
0
100
AcDbLine
 62
4
  6
CONTINUOUS
 10
12.4493866749
 20
6.4531357798
 11
12.4107496427
 21
6.5137708188
  0
LINE
  5
2D6
100
AcDbEntity
  8
0
100
AcDbLine
 62
4
  6
CONTINUOUS
 10
12.3334755766
 20
6.6929964486
 11
12.3141570588
 21
6.7233139683
  0
LINE
  5
2D7
100
AcDbEntity
  8
0
100
AcDbLine
 62
4
  6
CONTINUOUS
 10
12.5266607531
 20
6.5347101319
 11
12.5459792657
 21
6.5043926126
  0
LINE
  5
2D8
100
AcDbEntity
  8
0
100
AcDbLine
 62
4
  6
CONTINUOUS
 10
12.5266607531
 20
6.7665323387
 11
12.5459792657
 21
6.7362148195
  0
LINE
  5
2D9
100
AcDbEntity
  8
0
100
AcDbLine
 62
4
  6
CONTINUOUS
 10
9.5516089216
 20
6.972852884
 11
9.5902459555
 21
6.9991511725
  0
LINE
  5
2DA
100
AcDbEntity
  8
0
100
AcDbLine
 62
4
  6
CONTINUOUS
 10
9.744794098
 20
6.8725221189
 11
9.7254755715
 21
6.8593729754
  0
LINE
  5
2DB
100
AcDbEntity
  8
0
100
AcDbLine
 62
4
  6
CONTINUOUS
 10
13.1448534662
 20
9.1384752948
 11
13.1834905001
 21
9.1647735833
  0
LINE
  5
2DC
100
AcDbEntity
  8
0
100
AcDbLine
 62
4
  6
CONTINUOUS
 10
13.3187201162
 20
8.7931731793
 11
13.2800830909
 21
8.7958526661
  0
LINE
  5
2DD
100
AcDbEntity
  8
0
100
AcDbLine
 62
4
  6
CONTINUOUS
 10
10.4982162729
 20
9.0660498938
 11
10.266394066
 21
9.0821268184
  0
LINE
  5
2DE
100
AcDbEntity
  8
0
100
AcDbLine
 62
4
  6
CONTINUOUS
 10
10.3823051694
 20
9.3928438905
 11
10.4402607212
 21
9.3743357714
  0
LINE
  5
2DF
100
AcDbEntity
  8
0
100
AcDbLine
 62
7
  6
CONTINUOUS
 10
14.2653273251
 20
10.0218664374
 11
15.5594214826
 21
11.2718654799
  0
LINE
  5
2E0
100
AcDbEntity
  8
0
100
AcDbLine
 62
4
  6
CONTINUOUS
 10
13.3380386426
 20
9.0381445298
 11
13.3187201162
 21
9.0249953862
  0
LINE
  5
2E1
100
AcDbEntity
  8
0
100
AcDbLine
 62
4
  6
CONTINUOUS
 10
13.3380386426
 20
8.8063223229
 11
13.3187201162
 21
8.7931731793
  0
LINE
  5
2E2
100
AcDbEntity
  8
0
100
AcDbLine
 62
4
  6
CONTINUOUS
 10
13.2221275323
 20
8.5680496909
 11
13.2607645644
 21
8.5943479795
  0
LINE
  5
2E3
100
AcDbEntity
  8
0
100
AcDbLine
 62
4
  6
CONTINUOUS
 10
10.3243496177
 20
9.3823742338
 11
10.3823051694
 21
9.3928438905
  0
LINE
  5
2E4
100
AcDbEntity
  8
0
100
AcDbLine
 62
7
  6
CONTINUOUS
 10
14.6317385118
 20
9.1130454841
 11
15.2958801551
 21
9.0669871047
  0
LINE
  5
2E5
100
AcDbEntity
  8
0
100
AcDbLine
 62
7
  6
CONTINUOUS
 10
14.6469084547
 20
9.2269530774
 11
15.3112093662
 21
9.1808836527
  0
LINE
  5
2E6
100
AcDbEntity
  8
0
100
AcDbLine
 62
4
  6
CONTINUOUS
 10
14.4982642673
 20
8.9341728969
 11
14.4361477491
 21
8.9466173838
  0
LINE
  5
2E7
100
AcDbEntity
  8
0
100
AcDbLine
 62
4
  6
CONTINUOUS
 10
13.1834905001
 20
8.9039736006
 11
13.1255349484
 21
8.9224817197
  0
LINE
  5
2E8
100
AcDbEntity
  8
0
100
AcDbLine
 62
4
  6
CONTINUOUS
 10
12.3141570588
 20
6.563936201
 11
12.3141570588
 21
6.4480250976
  0
LINE
  5
2E9
100
AcDbEntity
  8
0
100
AcDbLine
 62
4
  6
CONTINUOUS
 10
12.3141570588
 20
6.7233139683
 11
12.3141570588
 21
6.7522917441
  0
LINE
  5
2EA
100
AcDbEntity
  8
0
100
AcDbLine
 62
4
  6
CONTINUOUS
 10
12.3914311301
 20
6.3122661312
 11
12.3914311301
 21
6.2253328036
  0
LINE
  5
2EB
100
AcDbEntity
  8
0
100
AcDbLine
 62
4
  6
CONTINUOUS
 10
12.5459792657
 20
6.7362148195
 11
12.5459792657
 21
6.7072370436
  0
LINE
  5
2EC
100
AcDbEntity
  8
0
100
AcDbLine
 62
4
  6
CONTINUOUS
 10
12.5459792657
 20
6.5043926126
 11
12.5459792657
 21
6.4754148367
  0
LINE
  5
2ED
100
AcDbEntity
  8
0
100
AcDbLine
 62
4
  6
CONTINUOUS
 10
13.1255349484
 20
9.1108372627
 11
13.1448534662
 21
9.1384752948
  0
LINE
  5
2EE
100
AcDbEntity
  8
0
100
AcDbLine
 62
4
  6
CONTINUOUS
 10
13.3573571552
 20
9.0657825622
 11
13.3380386426
 21
9.0381445298
  0
LINE
  5
2EF
100
AcDbEntity
  8
0
100
AcDbLine
 62
4
  6
CONTINUOUS
 10
13.3380386426
 20
8.574500116
 11
13.3573571552
 21
8.5876492606
  0
LINE
  5
2F0
100
AcDbEntity
  8
0
100
AcDbLine
 62
7
  6
CONTINUOUS
 10
14.8330720437
 20
9.8386925637
 11
15.5070257213
 21
9.7919537174
  0
LINE
  5
2F1
100
AcDbEntity
  8
0
100
AcDbLine
 62
4
  6
CONTINUOUS
 10
13.2414460518
 20
9.1752432401
 11
13.2994016035
 21
9.156735121
  0
LINE
  5
2F2
100
AcDbEntity
  8
0
100
AcDbLine
 62
4
  6
CONTINUOUS
 10
13.1255349484
 20
8.6037261852
 11
13.164171984
 21
8.5720689218
  0
LINE
  5
2F3
100
AcDbEntity
  8
0
100
AcDbLine
 62
4
  6
CONTINUOUS
 10
13.2607645644
 20
8.5943479795
 11
13.2800830909
 21
8.5785193472
  0
LINE
  5
2F4
100
AcDbEntity
  8
0
100
AcDbLine
 62
4
  6
CONTINUOUS
 10
13.3573571552
 20
8.8339603554
 11
13.3380386426
 21
8.8063223229
  0
LINE
  5
2F5
100
AcDbEntity
  8
0
100
AcDbLine
 62
7
  6
CONTINUOUS
 10
14.8571988513
 20
9.8687592963
 11
15.5376841436
 21
9.821567481
  0
LINE
  5
2F6
100
AcDbEntity
  8
0
100
AcDbLine
 62
7
  6
CONTINUOUS
 10
6.5379202569
 20
10.5577639377
 11
14.2653273251
 21
10.0218664374
  0
LINE
  5
2F7
100
AcDbEntity
  8
0
100
AcDbLine
 62
4
  6
CONTINUOUS
 10
13.2800830909
 20
8.7958526661
 11
13.2607645644
 21
8.8116812984
  0
LINE
  5
2F8
100
AcDbEntity
  8
0
100
AcDbLine
 62
4
  6
CONTINUOUS
 10
13.2221275323
 20
8.8723163374
 11
13.1834905001
 21
8.9039736006
  0
LINE
  5
2F9
100
AcDbEntity
  8
0
100
AcDbLine
 62
4
  6
CONTINUOUS
 10
13.3187201162
 20
8.9090842828
 11
13.3380386426
 21
8.8932556505
  0
LINE
  5
2FA
100
AcDbEntity
  8
0
100
AcDbLine
 62
4
  6
CONTINUOUS
 10
13.164171984
 20
9.0357133356
 11
13.1448534662
 21
9.0515419673
  0
LINE
  5
2FB
100
AcDbEntity
  8
0
100
AcDbLine
 62
4
  6
CONTINUOUS
 10
13.2994016035
 20
9.156735121
 11
13.3380386426
 21
9.1250778574
  0
LINE
  5
2FC
100
AcDbEntity
  8
0
100
AcDbLine
 62
4
  6
CONTINUOUS
 10
13.1255349484
 20
8.9224817197
 11
13.1255349484
 21
8.8065706162
  0
LINE
  5
2FD
100
AcDbEntity
  8
0
100
AcDbLine
 62
4
  6
CONTINUOUS
 10
13.1255349484
 20
8.7051484007
 11
13.1255349484
 21
8.6037261852
  0
LINE
  5
2FE
100
AcDbEntity
  8
0
100
AcDbLine
 62
4
  6
CONTINUOUS
 10
13.1255349484
 20
9.0818594869
 11
13.1255349484
 21
9.1108372627
  0
LINE
  5
2FF
100
AcDbEntity
  8
0
100
AcDbLine
 62
4
  6
CONTINUOUS
 10
13.2607645644
 20
8.695770195
 11
13.2607645644
 21
8.5943479795
  0
LINE
  5
300
100
AcDbEntity
  8
0
100
AcDbLine
 62
4
  6
CONTINUOUS
 10
13.3573571552
 20
9.0947603381
 11
13.3573571552
 21
9.0657825622
  0
LINE
  5
301
100
AcDbEntity
  8
0
100
AcDbLine
 62
4
  6
CONTINUOUS
 10
13.3573571552
 20
8.8629381312
 11
13.3573571552
 21
8.8339603554
  0
LINE
  5
302
100
AcDbEntity
  8
0
100
AcDbLine
 62
4
  6
CONTINUOUS
 10
13.3573571552
 20
8.5876492606
 11
13.3573571552
 21
8.6890714761
  0
LINE
  5
303
100
AcDbEntity
  8
0
100
AcDbLine
 62
4
  6
CONTINUOUS
 10
12.3141570588
 20
6.7522917441
 11
12.3334755766
 21
6.7799297762
  0
LINE
  5
304
100
AcDbEntity
  8
0
100
AcDbLine
 62
4
  6
CONTINUOUS
 10
12.5459792657
 20
6.7072370436
 11
12.5266607531
 21
6.6795990112
  0
LINE
  5
305
100
AcDbEntity
  8
0
100
AcDbLine
 62
4
  6
CONTINUOUS
 10
14.4982642673
 20
8.7168395779
 11
14.4361477491
 21
8.6568396252
  0
LINE
  5
306
100
AcDbEntity
  8
0
100
AcDbLine
 62
4
  6
CONTINUOUS
 10
12.3334755766
 20
6.7799297762
 11
12.3721126105
 21
6.8062280647
  0
LINE
  5
307
100
AcDbEntity
  8
0
100
AcDbLine
 62
4
  6
CONTINUOUS
 10
12.5266607531
 20
6.6795990112
 11
12.5073422266
 21
6.6664498676
  0
LINE
  5
308
100
AcDbEntity
  8
0
100
AcDbLine
 62
4
  6
CONTINUOUS
 10
14.4982642673
 20
8.4850173711
 11
14.4361477491
 21
8.5409285218
  0
LINE
  5
309
100
AcDbEntity
  8
0
100
AcDbLine
 62
4
  6
CONTINUOUS
 10
13.2607645644
 20
8.8116812984
 11
13.2221275323
 21
8.8723163374
  0
LINE
  5
30A
100
AcDbEntity
  8
0
100
AcDbLine
 62
4
  6
CONTINUOUS
 10
13.1448534662
 20
9.0515419673
 11
13.1255349484
 21
9.0818594869
  0
LINE
  5
30B
100
AcDbEntity
  8
0
100
AcDbLine
 62
4
  6
CONTINUOUS
 10
13.3380386426
 20
8.8932556505
 11
13.3573571552
 21
8.8629381312
  0
LINE
  5
30C
100
AcDbEntity
  8
0
100
AcDbLine
 62
4
  6
CONTINUOUS
 10
13.3380386426
 20
9.1250778574
 11
13.3573571552
 21
9.0947603381
  0
LINE
  5
30D
100
AcDbEntity
  8
0
100
AcDbLine
 62
4
  6
CONTINUOUS
 10
12.5459792657
 20
6.4754148367
 11
12.5266607531
 21
6.4477768043
  0
LINE
  5
30E
100
AcDbEntity
  8
0
100
AcDbLine
 62
4
  6
CONTINUOUS
 10
12.5266607531
 20
6.4477768043
 11
12.5073422266
 21
6.4346276607
  0
LINE
  5
30F
100
AcDbEntity
  8
0
100
AcDbLine
 62
4
  6
CONTINUOUS
 10
14.4361477491
 20
8.9466173838
 11
14.4982642673
 21
9.0790617761
  0
LINE
  5
310
100
AcDbEntity
  8
0
100
AcDbLine
 62
4
  6
CONTINUOUS
 10
14.4516768787
 20
8.7877507168
 11
14.4672060082
 21
8.8172395929
  0
LINE
  5
311
100
AcDbEntity
  8
0
100
AcDbLine
 62
7
  6
CONTINUOUS
 10
7.8320144145
 20
11.8077629802
 11
15.5594214826
 21
11.2718654799
  0
LINE
  5
312
100
AcDbEntity
  8
0
100
AcDbLine
 62
4
  6
CONTINUOUS
 10
14.4516768787
 20
8.1937063117
 11
14.4413241244
 21
8.2126840943
  0
LINE
  5
313
100
AcDbEntity
  8
0
100
AcDbLine
 62
4
  6
CONTINUOUS
 10
14.487911514
 20
8.3591062752
 11
14.4930878906
 21
8.3496173835
  0
LINE
  5
314
100
AcDbEntity
  8
0
100
AcDbLine
 62
7
  6
CONTINUOUS
 10
14.2653273251
 20
10.0218664374
 11
14.2653273251
 21
5.1922370198
  0
LINE
  5
315
100
AcDbEntity
  8
0
100
AcDbLine
 62
4
  6
CONTINUOUS
 10
14.4361477491
 20
8.2366618753
 11
14.4361477491
 21
8.2656396511
  0
LINE
  5
316
100
AcDbEntity
  8
0
100
AcDbLine
 62
4
  6
CONTINUOUS
 10
14.4361477491
 20
8.6568396252
 11
14.4361477491
 21
8.7147951769
  0
LINE
  5
317
100
AcDbEntity
  8
0
100
AcDbLine
 62
4
  6
CONTINUOUS
 10
14.4775587606
 20
8.9431506879
 11
14.4775587606
 21
9.0300840155
  0
LINE
  5
318
100
AcDbEntity
  8
0
100
AcDbLine
 62
4
  6
CONTINUOUS
 10
14.4982642673
 20
8.7747951296
 11
14.4982642673
 21
8.7168395779
  0
LINE
  5
319
100
AcDbEntity
  8
0
100
AcDbLine
 62
4
  6
CONTINUOUS
 10
14.4982642673
 20
8.3256396038
 11
14.4982642673
 21
8.296661828
  0
LINE
  5
31A
100
AcDbEntity
  8
0
100
AcDbLine
 62
4
  6
CONTINUOUS
 10
14.4361477491
 20
8.7147951769
 11
14.4413241244
 21
8.7487729477
  0
LINE
  5
31B
100
AcDbEntity
  8
0
100
AcDbLine
 62
4
  6
CONTINUOUS
 10
14.4361477491
 20
8.2656396511
 11
14.4413241244
 21
8.2996174219
  0
LINE
  5
31C
100
AcDbEntity
  8
0
100
AcDbLine
 62
4
  6
CONTINUOUS
 10
14.4982642673
 20
8.296661828
 11
14.4930878906
 21
8.2626840559
  0
LINE
  5
31D
100
AcDbEntity
  8
0
100
AcDbLine
 62
4
  6
CONTINUOUS
 10
14.4413241244
 20
8.7487729477
 11
14.4516768787
 21
8.7877507168
  0
LINE
  5
31E
100
AcDbEntity
  8
0
100
AcDbLine
 62
4
  6
CONTINUOUS
 10
14.4413241244
 20
8.2996174219
 11
14.4465005034
 21
8.3191063082
  0
LINE
  5
31F
100
AcDbEntity
  8
0
100
AcDbLine
 62
4
  6
CONTINUOUS
 10
14.4930878906
 20
8.2626840559
 11
14.4827351378
 21
8.2237062881
  0
LINE
  5
320
100
AcDbEntity
  8
0
100
AcDbLine
 62
4
  6
CONTINUOUS
 10
14.4361477491
 20
8.4250174184
 11
14.4982642673
 21
8.6009284745
  0
LINE
  5
321
100
AcDbEntity
  8
0
100
AcDbLine
 62
4
  6
CONTINUOUS
 10
14.4827351378
 20
8.2237062881
 11
14.4672060082
 21
8.194217412
  0
LINE
  5
322
100
AcDbEntity
  8
0
100
AcDbLine
 62
4
  6
CONTINUOUS
 10
14.4827351378
 20
8.8177506932
 11
14.4930878906
 21
8.7987729093
  0
LINE
  5
323
100
AcDbEntity
  8
0
100
AcDbLine
 62
4
  6
CONTINUOUS
 10
14.4413241244
 20
8.2126840943
 11
14.4361477491
 21
8.2366618753
  0
LINE
  5
324
100
AcDbEntity
  8
0
100
AcDbLine
 62
4
  6
CONTINUOUS
 10
14.4930878906
 20
8.3496173835
 11
14.4982642673
 21
8.3256396038
  0
LINE
  5
325
100
AcDbEntity
  8
0
100
AcDbLine
 62
4
  6
CONTINUOUS
 10
14.4930878906
 20
8.7987729093
 11
14.4982642673
 21
8.7747951296
  0
LINE
  5
326
100
AcDbEntity
  8
0
100
AcDbLine
 62
7
  6
CONTINUOUS
 10
15.5977403918
 20
8.0290775707
 11
15.6308643652
 21
8.0852387633
  0
LINE
  5
327
100
AcDbEntity
  8
0
100
AcDbLine
 62
7
  6
CONTINUOUS
 10
15.5594214826
 20
11.2718654799
 11
15.5594214826
 21
9.8082520501
  0
LINE
  5
328
100
AcDbEntity
  8
0
100
AcDbLine
 62
7
  6
CONTINUOUS
 10
15.5594214826
 20
7.9678253
 11
15.5594214826
 21
6.4422360623
  0
LINE
  5
329
100
AcDbEntity
  8
0
100
AcDbLine
 62
7
  6
CONTINUOUS
 10
14.2653273251
 20
5.1922370198
 11
15.5594214826
 21
6.4422360623
  0
LINE
  5
32A
100
AcDbEntity
  8
0
100
AcDbLine
 62
7
  6
CONTINUOUS
 10
15.7239004043
 20
9.6521570206
 11
15.7372981762
 21
9.6199676679
  0
ARC
  5
32B
100
AcDbEntity
  8
0
100
AcDbCircle
 62
7
  6
CONTINUOUS
 10
9.8283126026
 20
7.7974741162
 40
3.6037664805
100
AcDbArc
 50
179.0799666396
 51
179.9967059793
  0
ARC
  5
32C
100
AcDbEntity
  8
0
100
AcDbCircle
 62
7
  6
CONTINUOUS
 10
9.6626160002
 20
7.7974401375
 40
3.4380698806
100
AcDbArc
 50
179.9959809667
 51
180.9419458577
  0
ARC
  5
32D
100
AcDbEntity
  8
0
100
AcDbCircle
 62
7
  6
CONTINUOUS
 10
10.9032071301
 20
7.3337730378
 40
1.0322546087
100
AcDbArc
 50
340.5926601237
 51
341.6059309465
  0
ARC
  5
32E
100
AcDbEntity
  8
0
100
AcDbCircle
 62
7
  6
CONTINUOUS
 10
10.8864383694
 20
7.3590412071
 40
0.998309968
100
AcDbArc
 50
340.8981793513
 51
341.9027114412
  0
SPLINE
  5
32F
100
AcDbEntity
  8
0
100
AcDbSpline
 62
7
  6
CONTINUOUS
 70
0
 71
3
 72
53
 73
49
 74
0
 42
0.0000001
 43
0.0000001
 44
0.0000000001
 40
0.0
 40
0.0
 40
0.0
 40
0.0
 40
0.0354700217
 40
0.071271944
 40
0.1073440507
 40
0.1436238259
 40
0.1800483496
 40
0.2165543815
 40
0.2530785008
 40
0.2895572468
 40
0.3259272586
 40
0.3621254156
 40
0.3980889757
 40
0.4337557202
 40
0.4690640885
 40
0.5039533278
 40
0.5383636313
 40
0.5722362854
 40
0.6055138211
 40
0.6381401576
 40
0.6541921204
 40
0.6700609679
 40
0.6857401537
 40
0.7012232497
 40
0.7165039484
 40
0.7315760705
 40
0.7464335755
 40
0.7610705611
 40
0.7754812701
 40
0.7896601032
 40
0.8036016223
 40
0.8173005545
 40
0.8307518049
 40
0.8439504676
 40
0.8568918278
 40
0.8695713734
 40
0.8819848128
 40
0.89412808
 40
0.905997346
 40
0.9175890392
 40
0.9288998608
 40
0.9399267965
 40
0.9506671395
 40
0.9611185188
 40
0.9712789164
 40
0.981146696
 40
0.9907206436
 40
1.0
 40
1.0
 40
1.0
 40
1.0
 10
6.189280797
 20
7.8317449379
 30
0.0
 10
6.189280797
 20
7.8437296326
 30
0.0
 10
6.1894203611
 20
7.8678113809
 30
0.0
 10
6.1900401518
 20
7.9040764641
 30
0.0
 10
6.1910703494
 20
7.9406059545
 30
0.0
 10
6.1925090595
 20
7.9773321393
 30
0.0
 10
6.1943536228
 20
8.0141869732
 30
0.0
 10
6.196600631
 20
8.0511021679
 30
0.0
 10
6.1992459189
 20
8.0880093285
 30
0.0
 10
6.2022845884
 20
8.1248400728
 30
0.0
 10
6.2057110036
 20
8.1615261614
 30
0.0
 10
6.209518809
 20
8.1979996238
 30
0.0
 10
6.2137009419
 20
8.2341928847
 30
0.0
 10
6.2182496362
 20
8.2700388905
 30
0.0
 10
6.223156452
 20
8.3054712328
 30
0.0
 10
6.2284122743
 20
8.3404242745
 30
0.0
 10
6.2340073429
 20
8.3748332658
 30
0.0
 10
6.2399312642
 20
8.4086344868
 30
0.0
 10
6.246173029
 20
8.4417652887
 30
0.0
 10
6.2516588471
 20
8.4689088394
 30
0.0
 10
6.2562009864
 20
8.4902401049
 30
0.0
 10
6.2596613137
 20
8.5059467907
 30
0.0
 10
6.2631921104
 20
8.5214407072
 30
0.0
 10
6.2667917436
 20
8.536714685
 30
0.0
 10
6.2704585432
 20
8.5517616464
 30
0.0
 10
6.27419081
 20
8.5665746217
 30
0.0
 10
6.2779868107
 20
8.5811467504
 30
0.0
 10
6.2818447846
 20
8.5954712836
 30
0.0
 10
6.2857629442
 20
8.6095415863
 30
0.0
 10
6.2897394705
 20
8.623351143
 30
0.0
 10
6.2937725179
 20
8.63689356
 30
0.0
 10
6.2978602171
 20
8.650162566
 30
0.0
 10
6.3020006722
 20
8.6631520178
 30
0.0
 10
6.3061919608
 20
8.6758559036
 30
0.0
 10
6.310432139
 20
8.6882683434
 30
0.0
 10
6.3147192421
 20
8.7003835922
 30
0.0
 10
6.3190512796
 20
8.7121960457
 30
0.0
 10
6.3234262418
 20
8.7237002404
 30
0.0
 10
6.3278421021
 20
8.7348908552
 30
0.0
 10
6.3322968127
 20
8.745762717
 30
0.0
 10
6.336788307
 20
8.7563108028
 30
0.0
 10
6.3413145051
 20
8.7665302395
 30
0.0
 10
6.3458733119
 20
8.7764163076
 30
0.0
 10
6.3504626154
 20
8.7859644483
 30
0.0
 10
6.3550802902
 20
8.7951702549
 30
0.0
 10
6.3597242133
 20
8.8040294991
 30
0.0
 10
6.3643922097
 20
8.8125380504
 30
0.0
 10
6.3675685531
 20
8.8180604852
 30
0.0
 10
6.3691613697
 20
8.8207610841
 30
0.0
  0
SPLINE
  5
330
100
AcDbEntity
  8
0
100
AcDbSpline
 62
7
  6
CONTINUOUS
 70
0
 71
3
 72
15
 73
11
 74
0
 42
0.0000001
 43
0.0000001
 44
0.0000000001
 40
0.0
 40
0.0
 40
0.0
 40
0.0
 40
0.1130134526
 40
0.2292354891
 40
0.3487879676
 40
0.4717828379
 40
0.598318796
 40
0.7284835129
 40
0.8623555254
 40
1.0
 40
1.0
 40
1.0
 40
1.0
 10
6.3646163199
 20
7.0877626027
 30
0.0
 10
6.3634567631
 20
7.0888028288
 30
0.0
 10
6.3611463596
 20
7.0909596525
 30
0.0
 10
6.3577551048
 20
7.0943688191
 30
0.0
 10
6.3543915679
 20
7.0979953443
 30
0.0
 10
6.3510565627
 20
7.1018383092
 30
0.0
 10
6.3477507843
 20
7.1058968516
 30
0.0
 10
6.3444749546
 20
7.1101700642
 30
0.0
 10
6.3412298336
 20
7.1146569218
 30
0.0
 10
6.339116973
 20
7.1177466132
 30
0.0
 10
6.3380653474
 20
7.1193257765
 30
0.0
  0
SPLINE
  5
331
100
AcDbEntity
  8
0
100
AcDbSpline
 62
7
  6
CONTINUOUS
 70
0
 71
3
 72
11
 73
7
 74
0
 42
0.0000001
 43
0.0000001
 44
0.0000000001
 40
0.0
 40
0.0
 40
0.0
 40
0.0
 40
0.2527935986
 40
0.5037865761
 40
0.7528844832
 40
1.0
 40
1.0
 40
1.0
 40
1.0
 10
6.3380653474
 20
7.1193257765
 30
0.0
 10
6.3332771744
 20
7.1285455433
 30
0.0
 10
6.3239003856
 20
7.1470059823
 30
0.0
 10
6.3104295917
 20
7.1748630123
 30
0.0
 10
6.2976464847
 20
7.2027860575
 30
0.0
 10
6.2895799256
 20
7.2215179698
 30
0.0
 10
6.2856773536
 20
7.2308938191
 30
0.0
  0
SPLINE
  5
332
100
AcDbEntity
  8
0
100
AcDbSpline
 62
7
  6
CONTINUOUS
 70
0
 71
3
 72
23
 73
19
 74
0
 42
0.0000001
 43
0.0000001
 44
0.0000000001
 40
0.0
 40
0.0
 40
0.0
 40
0.0
 40
0.054423514
 40
0.1090638306
 40
0.1641349447
 40
0.2198454629
 40
0.2763962046
 40
0.3339783868
 40
0.3927720233
 40
0.4529450965
 40
0.5146528071
 40
0.5780376187
 40
0.6432291757
 40
0.7103449222
 40
0.7794904284
 40
0.8507602809
 40
0.9242386036
 40
1.0
 40
1.0
 40
1.0
 40
1.0
 10
8.6870947096
 20
7.1120956297
 30
0.0
 10
8.6881468462
 20
7.1120226658
 30
0.0
 10
8.6902607385
 20
7.1119453792
 30
0.0
 10
8.6934422953
 20
7.112036403
 30
0.0
 10
8.696636332
 20
7.1123341626
 30
0.0
 10
8.6998416883
 20
7.1128385298
 30
0.0
 10
8.7030574621
 20
7.1135492385
 30
0.0
 10
8.7062827103
 20
7.1144660017
 30
0.0
 10
8.7095165485
 20
7.1155884307
 30
0.0
 10
8.7127580999
 20
7.1169161291
 30
0.0
 10
8.7160065264
 20
7.1184486187
 30
0.0
 10
8.7192609875
 20
7.1201854179
 30
0.0
 10
8.722520671
 20
7.1221259749
 30
0.0
 10
8.7257847519
 20
7.1242697298
 30
0.0
 10
8.7290524206
 20
7.1266160552
 30
0.0
 10
8.7323228627
 20
7.1291643171
 30
0.0
 10
8.735595222
 20
7.1319137704
 30
0.0
 10
8.7377441246
 20
7.1338502883
 30
0.0
 10
8.7388188491
 20
7.1348505283
 30
0.0
  0
SPLINE
  5
333
100
AcDbEntity
  8
0
100
AcDbSpline
 62
7
  6
CONTINUOUS
 70
0
 71
3
 72
23
 73
19
 74
0
 42
0.0000001
 43
0.0000001
 44
0.0000000001
 40
0.0
 40
0.0
 40
0.0
 40
0.0
 40
0.0475983087
 40
0.0967765629
 40
0.1476852236
 40
0.2004585287
 40
0.2552116565
 40
0.3120387067
 40
0.3710116439
 40
0.4321800173
 40
0.4955714033
 40
0.5611926193
 40
0.6290314175
 40
0.6990585138
 40
0.7712299145
 40
0.8454893448
 40
0.9217706317
 40
1.0
 40
1.0
 40
1.0
 40
1.0
 10
6.3852103177
 20
8.847971831
 30
0.0
 10
6.3868093454
 20
8.8506831085
 30
0.0
 10
6.3902186834
 20
8.8561038132
 30
0.0
 10
6.3958606134
 20
8.8640810438
 30
0.0
 10
6.4021182215
 20
8.8720255333
 30
0.0
 10
6.4089975051
 20
8.8799332213
 30
0.0
 10
6.4165014789
 20
8.8878006695
 30
0.0
 10
6.4246297175
 20
8.895624527
 30
0.0
 10
6.4333784553
 20
8.9034017278
 30
0.0
 10
6.442740626
 20
8.911129489
 30
0.0
 10
6.4527060177
 20
8.9188053804
 30
0.0
 10
6.4632615288
 20
8.9264273362
 30
0.0
 10
6.4743914781
 20
8.9339936804
 30
0.0
 10
6.4860779581
 20
8.9415031517
 30
0.0
 10
6.4983012272
 20
8.948954896
 30
0.0
 10
6.5110401364
 20
8.956348463
 30
0.0
 10
6.5242724488
 20
8.9636837555
 30
0.0
 10
6.5332971235
 20
8.9684765608
 30
0.0
 10
6.5378856033
 20
8.9708659339
 30
0.0
  0
SPLINE
  5
334
100
AcDbEntity
  8
0
100
AcDbSpline
 62
7
  6
CONTINUOUS
 70
0
 71
3
 72
39
 73
35
 74
0
 42
0.0000001
 43
0.0000001
 44
0.0000000001
 40
0.0
 40
0.0
 40
0.0
 40
0.0
 40
0.020705896
 40
0.0422069992
 40
0.064500326
 40
0.0875811462
 40
0.1114431524
 40
0.1360786007
 40
0.1614784371
 40
0.1876324038
 40
0.2145291301
 40
0.2421562144
 40
0.2705002944
 40
0.2995471085
 40
0.3292815523
 40
0.3596877294
 40
0.3907489969
 40
0.4224480095
 40
0.4547667563
 40
0.4876865961
 40
0.5211882928
 40
0.5552520438
 40
0.5898575113
 40
0.624983853
 40
0.6606097466
 40
0.6967134177
 40
0.7332726655
 40
0.7702648851
 40
0.8076670952
 40
0.8454559472
 40
0.8836078107
 40
0.9220985877
 40
0.9609042941
 40
1.0
 40
1.0
 40
1.0
 40
1.0
 10
6.2627276436
 20
7.2860325637
 30
0.0
 10
6.2612596087
 20
7.2895596525
 30
0.0
 10
6.2583626976
 20
7.2967893671
 30
0.0
 10
6.2542040711
 20
7.3079410224
 30
0.0
 10
6.2501529243
 20
7.3195970868
 30
0.0
 10
6.2462120581
 20
7.3317495614
 30
0.0
 10
6.2423841514
 20
7.3443902319
 30
0.0
 10
6.238671824
 20
7.3575105039
 30
0.0
 10
6.2350776158
 20
7.3711014584
 30
0.0
 10
6.2316039887
 20
7.3851538461
 30
0.0
 10
6.2282533235
 20
7.3996580977
 30
0.0
 10
6.2250279173
 20
7.4146043312
 30
0.0
 10
6.2219299825
 20
7.4299823583
 30
0.0
 10
6.2189616442
 20
7.4457816926
 30
0.0
 10
6.2161249385
 20
7.4619915563
 30
0.0
 10
6.2134218114
 20
7.4786008886
 30
0.0
 10
6.2108541173
 20
7.4955983539
 30
0.0
 10
6.2084236181
 20
7.5129723495
 30
0.0
 10
6.2061319813
 20
7.5307110145
 30
0.0
 10
6.2039807794
 20
7.5488022372
 30
0.0
 10
6.2019714886
 20
7.5672336637
 30
0.0
 10
6.2001054873
 20
7.5859927064
 30
0.0
 10
6.1983840557
 20
7.6050665528
 30
0.0
 10
6.1968083748
 20
7.6244421747
 30
0.0
 10
6.1953795258
 20
7.6441063372
 30
0.0
 10
6.1940984896
 20
7.6640456078
 30
0.0
 10
6.1929661453
 20
7.6842463653
 30
0.0
 10
6.1919832707
 20
7.7046948099
 30
0.0
 10
6.1911505407
 20
7.7253769698
 30
0.0
 10
6.1904685262
 20
7.7462787207
 30
0.0
 10
6.1899376984
 20
7.7673857646
 30
0.0
 10
6.1895584179
 20
7.7886837211
 30
0.0
 10
6.1893309529
 20
7.8101579809
 30
0.0
 10
6.189280797
 20
7.8245314676
 30
0.0
 10
6.189280797
 20
7.8317449379
 30
0.0
  0
SPLINE
  5
335
100
AcDbEntity
  8
0
100
AcDbSpline
 62
7
  6
CONTINUOUS
 70
0
 71
3
 72
56
 73
52
 74
0
 42
0.0000001
 43
0.0000001
 44
0.0000000001
 40
0.0
 40
0.0
 40
0.0
 40
0.0
 40
0.0494163628
 40
0.0977483452
 40
0.1449708375
 40
0.1910599789
 40
0.235993235
 40
0.2797494891
 40
0.322309141
 40
0.3636542193
 40
0.4037685061
 40
0.4426376792
 40
0.4802494751
 40
0.5165938791
 40
0.5516633559
 40
0.5854531116
 40
0.6018677764
 40
0.6179621227
 40
0.6337364857
 40
0.6491914116
 40
0.6643277168
 40
0.679146491
 40
0.6936490947
 40
0.7078372278
 40
0.7217128898
 40
0.7352784589
 40
0.7485366841
 40
0.7614907139
 40
0.7741441568
 40
0.786501061
 40
0.7985660079
 40
0.8103441022
 40
0.8218410317
 40
0.8330631196
 40
0.8440173296
 40
0.8547113628
 40
0.865153652
 40
0.8753534397
 40
0.8853208133
 40
0.8950667267
 40
0.9139389452
 40
0.9230955751
 40
0.9320839967
 40
0.9409199162
 40
0.9496199822
 40
0.9582017126
 40
0.96668345
 40
0.9750842538
 40
0.9834237934
 40
0.9917222177
 40
1.0
 40
1.0
 40
1.0
 40
1.0
 10
8.5622591903
 20
7.371048576
 30
0.0
 10
8.5630388355
 20
7.3661324475
 30
0.0
 10
8.5646355219
 20
7.3564166074
 30
0.0
 10
8.5671738374
 20
7.3420360782
 30
0.0
 10
8.5698276125
 20
7.3280173151
 30
0.0
 10
8.5725950693
 20
7.3143696652
 30
0.0
 10
8.575474358
 20
7.3011021966
 30
0.0
 10
8.5784635535
 20
7.2882237291
 30
0.0
 10
8.5815606587
 20
7.2757428184
 30
0.0
 10
8.5847636038
 20
7.2636677509
 30
0.0
 10
8.5880702496
 20
7.2520065385
 30
0.0
 10
8.59147839
 20
7.2407669105
 30
0.0
 10
8.5949857526
 20
7.2299563157
 30
0.0
 10
8.5985900063
 20
7.2195818907
 30
0.0
 10
8.6022887472
 20
7.2096505435
 30
0.0
 10
8.6054777123
 20
7.2016740241
 30
0.0
 10
8.6080770564
 20
7.1955224063
 30
0.0
 10
8.6100298564
 20
7.1910680634
 30
0.0
 10
8.6120044073
 20
7.1867293104
 30
0.0
 10
8.6140003952
 20
7.1825068634
 30
0.0
 10
8.6160174857
 20
7.1784014232
 30
0.0
 10
8.6180553424
 20
7.1744136686
 30
0.0
 10
8.6201136358
 20
7.1705442634
 30
0.0
 10
8.6221920168
 20
7.1667938445
 30
0.0
 10
8.6242901514
 20
7.1631630362
 30
0.0
 10
8.6264076894
 20
7.1596524372
 30
0.0
 10
8.6285442832
 20
7.1562626278
 30
0.0
 10
8.6306995881
 20
7.1529941715
 30
0.0
 10
8.632873243
 20
7.149847604
 30
0.0
 10
8.6350649039
 20
7.1468234514
 30
0.0
 10
8.6372742066
 20
7.1439222095
 30
0.0
 10
8.6395007968
 20
7.1411443606
 30
0.0
 10
8.6417443176
 20
7.1384903675
 30
0.0
 10
8.6440044008
 20
7.135960666
 30
0.0
 10
8.646280695
 20
7.1335556858
 30
0.0
 10
8.6485728249
 20
7.1312758232
 30
0.0
 10
8.650880439
 20
7.1291214635
 30
0.0
 10
8.6532031446
 20
7.1270929888
 30
0.0
 10
8.6555406583
 20
7.1251906835
 30
0.0
 10
8.6586428878
 20
7.1228483741
 30
0.0
 10
8.6618079985
 20
7.1207279384
 30
0.0
 10
8.6650303823
 20
7.1188502355
 30
0.0
 10
8.6674359431
 20
7.1175836751
 30
0.0
 10
8.6698539179
 20
7.1164451022
 30
0.0
 10
8.6722839462
 20
7.115434696
 30
0.0
 10
8.6747256071
 20
7.1145526885
 30
0.0
 10
8.6771784772
 20
7.1137992525
 30
0.0
 10
8.6796421169
 20
7.1131745552
 30
0.0
 10
8.6821161069
 20
7.1126787374
 30
0.0
 10
8.6845999045
 20
7.1123119007
 30
0.0
 10
8.6862629105
 20
7.1121533136
 30
0.0
 10
8.6870947096
 20
7.1120956297
 30
0.0
  0
SPLINE
  5
336
100
AcDbEntity
  8
0
100
AcDbSpline
 62
7
  6
CONTINUOUS
 70
0
 71
3
 72
44
 73
40
 74
0
 42
0.0000001
 43
0.0000001
 44
0.0000000001
 40
0.0
 40
0.0
 40
0.0
 40
0.0
 40
0.0484674404
 40
0.0958225191
 40
0.1420504875
 40
0.1871377517
 40
0.2310719079
 40
0.2738418581
 40
0.3154379215
 40
0.3558518973
 40
0.395077215
 40
0.4331091042
 40
0.4699447059
 40
0.5055832772
 40
0.5400264462
 40
0.573278411
 40
0.6053462388
 40
0.6362402429
 40
0.6659743237
 40
0.6945664196
 40
0.7220390631
 40
0.748419922
 40
0.7737424543
 40
0.7980466798
 40
0.8213799253
 40
0.8437976294
 40
0.8653641818
 40
0.8861536045
 40
0.9062500651
 40
0.9160693281
 40
0.9257516837
 40
0.9353105362
 40
0.9447598632
 40
0.9541141894
 40
0.9633885393
 40
0.9725983585
 40
0.9817594537
 40
0.9908879107
 40
1.0
 40
1.0
 40
1.0
 40
1.0
 10
8.6800751231
 20
7.3638842146
 30
0.0
 10
8.6807980959
 20
7.3606330237
 30
0.0
 10
8.6822659015
 20
7.3542137279
 30
0.0
 10
8.6845620995
 20
7.3447258863
 30
0.0
 10
8.6869263824
 20
7.3354943356
 30
0.0
 10
8.6893576071
 20
7.3265235091
 30
0.0
 10
8.6918546088
 20
7.3178176922
 30
0.0
 10
8.6944161899
 20
7.3093810473
 30
0.0
 10
8.6970411177
 20
7.3012176023
 30
0.0
 10
8.6997281357
 20
7.293331254
 30
0.0
 10
8.7024759593
 20
7.2857257642
 30
0.0
 10
8.7052832709
 20
7.2784047541
 30
0.0
 10
8.7081487319
 20
7.2713717077
 30
0.0
 10
8.7110709813
 20
7.2646299682
 30
0.0
 10
8.7140486279
 20
7.2581827318
 30
0.0
 10
8.7170802648
 20
7.2520330519
 30
0.0
 10
8.7201644702
 20
7.2461838369
 30
0.0
 10
8.7232997982
 20
7.2406378434
 30
0.0
 10
8.7264847953
 20
7.2353976817
 30
0.0
 10
8.729718004
 20
7.2304658176
 30
0.0
 10
8.7329979535
 20
7.2258445649
 30
0.0
 10
8.7363231766
 20
7.2215360961
 30
0.0
 10
8.7396922165
 20
7.2175424505
 30
0.0
 10
8.7431036133
 20
7.2138655313
 30
0.0
 10
8.7465559229
 20
7.2105071217
 30
0.0
 10
8.7500476957
 20
7.2074689155
 30
0.0
 10
8.7535775281
 20
7.204752483
 30
0.0
 10
8.7571437858
 20
7.2023594146
 30
0.0
 10
8.7601682132
 20
7.200622474
 30
0.0
 10
8.7626007362
 20
7.1994016839
 30
0.0
 10
8.7644189935
 20
7.1985746546
 30
0.0
 10
8.7662448073
 20
7.1978293235
 30
0.0
 10
8.7680779812
 20
7.1971657853
 30
0.0
 10
8.7699182831
 20
7.1965841426
 30
0.0
 10
8.7717654825
 20
7.1960844695
 30
0.0
 10
8.773619344
 20
7.195666846
 30
0.0
 10
8.7754796437
 20
7.1953313356
 30
0.0
 10
8.7773460929
 20
7.1950779818
 30
0.0
 10
8.7785948223
 20
7.1949638366
 30
0.0
 10
8.7792194904
 20
7.1949205172
 30
0.0
  0
SPLINE
  5
337
100
AcDbEntity
  8
0
100
AcDbSpline
 62
7
  6
CONTINUOUS
 70
0
 71
3
 72
11
 73
7
 74
0
 42
0.0000001
 43
0.0000001
 44
0.0000000001
 40
0.0
 40
0.0
 40
0.0
 40
0.0
 40
0.2597794222
 40
0.5131607124
 40
0.7599591931
 40
1.0
 40
1.0
 40
1.0
 40
1.0
 10
6.3380653474
 20
8.6953391324
 30
0.0
 10
6.3401723724
 20
8.7025735861
 30
0.0
 10
6.3444242165
 20
8.7168383996
 30
0.0
 10
6.3510018352
 20
8.7378778755
 30
0.0
 10
6.3576953736
 20
8.758279081
 30
0.0
 10
6.3622958569
 20
8.7716303959
 30
0.0
 10
6.3646163199
 20
8.7781948494
 30
0.0
  0
SPLINE
  5
338
100
AcDbEntity
  8
0
100
AcDbSpline
 62
7
  6
CONTINUOUS
 70
0
 71
3
 72
36
 73
32
 74
0
 42
0.0000001
 43
0.0000001
 44
0.0000000001
 40
0.0
 40
0.0
 40
0.0
 40
0.0
 40
0.0615612389
 40
0.0923780032
 40
0.1232201781
 40
0.1540890809
 40
0.1849860198
 40
0.2159122824
 40
0.2468691158
 40
0.2778577069
 40
0.3088791609
 40
0.3399344791
 40
0.3710245382
 40
0.4021500704
 40
0.4333116463
 40
0.4645096599
 40
0.4957443181
 40
0.5270156347
 40
0.5583234294
 40
0.5896673324
 40
0.621046793
 40
0.652461093
 40
0.6839093631
 40
0.7153906023
 40
0.7469036995
 40
0.7784474558
 40
0.810020606
 40
0.8416218396
 40
0.8732498202
 40
0.9365792905
 40
1.0
 40
1.0
 40
1.0
 40
1.0
 10
6.2250107221
 20
7.855339511
 30
0.0
 10
6.2228749633
 20
7.872808131
 30
0.0
 10
6.2199895854
 20
7.8990622223
 30
0.0
 10
6.2168393616
 20
7.9341471906
 30
0.0
 10
6.214838357
 20
7.960523547
 30
0.0
 10
6.2132152527
 20
7.9869488099
 30
0.0
 10
6.2119850613
 20
8.0134194312
 30
0.0
 10
6.2111623875
 20
8.0399310632
 30
0.0
 10
6.2107612159
 20
8.0664786958
 30
0.0
 10
6.2107947089
 20
8.0930566159
 30
0.0
 10
6.211274992
 20
8.1196584369
 30
0.0
 10
6.2122129378
 20
8.1462771355
 30
0.0
 10
6.21361796
 20
8.1729051126
 30
0.0
 10
6.2154978237
 20
8.1995342757
 30
0.0
 10
6.217858479
 20
8.2261561413
 30
0.0
 10
6.2207039266
 20
8.2527619547
 30
0.0
 10
6.2240361228
 20
8.279342823
 30
0.0
 10
6.2278549277
 20
8.3058898563
 30
0.0
 10
6.2321580967
 20
8.3323943137
 30
0.0
 10
6.2369413282
 20
8.3588477432
 30
0.0
 10
6.2421983524
 20
8.3852421136
 30
0.0
 10
6.2479210605
 20
8.4115699313
 30
0.0
 10
6.2540996686
 20
8.4378243384
 30
0.0
 10
6.2607229088
 20
8.4639991897
 30
0.0
 10
6.2677782362
 20
8.4900891053
 30
0.0
 10
6.2752520495
 20
8.516089506
 30
0.0
 10
6.283129906
 20
8.5419966028
 30
0.0
 10
6.2913967617
 20
8.5678074537
 30
0.0
 10
6.3029216048
 20
8.6021035807
 30
0.0
 10
6.3182225719
 20
8.6447216832
 30
0.0
 10
6.33131978
 20
8.6785104662
 30
0.0
 10
6.3380653474
 20
8.6953391324
 30
0.0
  0
SPLINE
  5
339
100
AcDbEntity
  8
0
100
AcDbSpline
 62
7
  6
CONTINUOUS
 70
0
 71
3
 72
23
 73
19
 74
0
 42
0.0000001
 43
0.0000001
 44
0.0000000001
 40
0.0
 40
0.0
 40
0.0
 40
0.0
 40
0.0596059336
 40
0.1193158728
 40
0.1791800872
 40
0.2392527071
 40
0.2995911495
 40
0.3602561044
 40
0.4213113774
 40
0.4828235654
 40
0.5448617836
 40
0.60749731
 40
0.6708031144
 40
0.7348534296
 40
0.799723278
 40
0.8654878765
 40
0.9322221039
 40
1.0
 40
1.0
 40
1.0
 40
1.0
 10
6.3646163199
 20
8.7781948494
 30
0.0
 10
6.3646695225
 20
8.7796547692
 30
0.0
 10
6.3648169827
 20
8.7825758386
 30
0.0
 10
6.3651643289
 20
8.7869542186
 30
0.0
 10
6.3656414568
 20
8.7913319336
 30
0.0
 10
6.3662518616
 20
8.7957086349
 30
0.0
 10
6.3669990416
 20
8.8000840121
 30
0.0
 10
6.3678864791
 20
8.8044577124
 30
0.0
 10
6.3689176337
 20
8.8088293611
 30
0.0
 10
6.3700959202
 20
8.813198559
 30
0.0
 10
6.3714246961
 20
8.8175648823
 30
0.0
 10
6.3729072511
 20
8.8219278822
 30
0.0
 10
6.3745467785
 20
8.8262870881
 30
0.0
 10
6.3763463639
 20
8.83064201
 30
0.0
 10
6.3783089725
 20
8.8349921304
 30
0.0
 10
6.3804374295
 20
8.8393369327
 30
0.0
 10
6.3827343568
 20
8.8436758227
 30
0.0
 10
6.3843664379
 20
8.8465409663
 30
0.0
 10
6.3852103177
 20
8.847971831
 30
0.0
  0
SPLINE
  5
33A
100
AcDbEntity
  8
0
100
AcDbSpline
 62
7
  6
CONTINUOUS
 70
0
 71
3
 72
36
 73
32
 74
0
 42
0.0000001
 43
0.0000001
 44
0.0000000001
 40
0.0
 40
0.0
 40
0.0
 40
0.0
 40
0.0669064708
 40
0.1331414625
 40
0.1660035828
 40
0.1986934498
 40
0.2312108846
 40
0.263556407
 40
0.2957312622
 40
0.3277374341
 40
0.3595776472
 40
0.3912553526
 40
0.4227747006
 40
0.4541404994
 40
0.4853581604
 40
0.5164336325
 40
0.5473733271
 40
0.5781840359
 40
0.608872845
 40
0.639447047
 40
0.6699140544
 40
0.7002813167
 40
0.7305562424
 40
0.7607461282
 40
0.7908580973
 40
0.8208990453
 40
0.8508755968
 40
0.8807940693
 40
0.9106604527
 40
0.9404803739
 40
1.0
 40
1.0
 40
1.0
 40
1.0
 10
6.2856773536
 20
7.2308938191
 30
0.0
 10
6.2812107397
 20
7.2416247679
 30
0.0
 10
6.2726201309
 20
7.2631044876
 30
0.0
 10
6.2627239767
 20
7.290197945
 30
0.0
 10
6.2553943063
 20
7.3118887898
 30
0.0
 10
6.2502099665
 20
7.3281189786
 30
0.0
 10
6.2453309101
 20
7.3443498558
 30
0.0
 10
6.2407629589
 20
7.3605781406
 30
0.0
 10
6.2365112374
 20
7.3768003627
 30
0.0
 10
6.2325800796
 20
7.3930129533
 30
0.0
 10
6.2289729756
 20
7.4092122635
 30
0.0
 10
6.2256925209
 20
7.4253946061
 30
0.0
 10
6.2227403802
 20
7.4415562941
 30
0.0
 10
6.2201172643
 20
7.4576936815
 30
0.0
 10
6.2178229222
 20
7.4738032036
 30
0.0
 10
6.2158561468
 20
7.4898814155
 30
0.0
 10
6.2142147967
 20
7.5059250292
 30
0.0
 10
6.2128958298
 20
7.5219309461
 30
0.0
 10
6.2118953511
 20
7.5378962857
 30
0.0
 10
6.2112086701
 20
7.5538184096
 30
0.0
 10
6.2108303677
 20
7.5696949393
 30
0.0
 10
6.2107543695
 20
7.5855237696
 30
0.0
 10
6.2109740234
 20
7.6013030756
 30
0.0
 10
6.211482181
 20
7.6170313149
 30
0.0
 10
6.2122712778
 20
7.6327072253
 30
0.0
 10
6.2133334128
 20
7.6483298159
 30
0.0
 10
6.214660427
 20
7.6638983646
 30
0.0
 10
6.2162439697
 20
7.6794123735
 30
0.0
 10
6.2180755894
 20
7.6948716702
 30
0.0
 10
6.2208352129
 20
7.7153967935
 30
0.0
 10
6.2232542563
 20
7.7307307661
 30
0.0
 10
6.2250107221
 20
7.7409206202
 30
0.0
  0
SPLINE
  5
33B
100
AcDbEntity
  8
0
100
AcDbSpline
 62
7
  6
CONTINUOUS
 70
0
 71
3
 72
27
 73
23
 74
0
 42
0.0000001
 43
0.0000001
 44
0.0000000001
 40
0.0
 40
0.0
 40
0.0
 40
0.0
 40
0.0636879539
 40
0.1271653574
 40
0.190434258
 40
0.253501197
 40
0.3163764605
 40
0.3790732973
 40
0.4416071553
 40
0.5039949636
 40
0.5662544882
 40
0.6284037918
 40
0.6594484668
 40
0.6904722889
 40
0.7214774292
 40
0.7524660293
 40
0.8143904829
 40
0.8762734233
 40
0.9072099794
 40
0.9381420043
 40
0.9690713862
 40
1.0
 40
1.0
 40
1.0
 40
1.0
 10
12.6512726952
 20
9.1477512036
 30
0.0
 10
12.6498617917
 20
9.1472476312
 30
0.0
 10
12.6470071672
 20
9.1463437
 30
0.0
 10
12.6426455494
 20
9.1453064062
 30
0.0
 10
12.6382334003
 20
9.1445960802
 30
0.0
 10
12.6337947337
 20
9.1442174072
 30
0.0
 10
12.6293535589
 20
9.1441729337
 30
0.0
 10
12.6249341838
 20
9.1444631741
 30
0.0
 10
12.6205609366
 20
9.1450865466
 30
0.0
 10
12.6162579585
 20
9.1460394344
 30
0.0
 10
12.6120492696
 20
9.1473160993
 30
0.0
 10
12.6086381848
 20
9.1486442371
 30
0.0
 10
12.6059805238
 20
9.1498598061
 30
0.0
 10
12.6040255789
 20
9.1508465358
 30
0.0
 10
12.6021111898
 20
9.1519070884
 30
0.0
 10
12.5996171848
 20
9.1534169326
 30
0.0
 10
12.5966131551
 20
9.155481288
 30
0.0
 10
12.5937777709
 20
9.1577698333
 30
0.0
 10
12.5916214375
 20
9.1597261158
 30
0.0
 10
12.5900619937
 20
9.1612542731
 30
0.0
 10
12.5885626487
 20
9.1628410937
 30
0.0
 10
12.5876044812
 20
9.1639366636
 30
0.0
 10
12.5871361619
 20
9.1644933893
 30
0.0
  0
SPLINE
  5
33C
100
AcDbEntity
  8
0
100
AcDbSpline
 62
7
  6
CONTINUOUS
 70
0
 71
3
 72
11
 73
7
 74
0
 42
0.0000001
 43
0.0000001
 44
0.0000000001
 40
0.0
 40
0.0
 40
0.0
 40
0.0
 40
0.2394749506
 40
0.485822197
 40
0.7392645615
 40
1.0
 40
1.0
 40
1.0
 40
1.0
 10
15.5070257213
 20
7.9060704694
 30
0.0
 10
15.5083196444
 20
7.9070273223
 30
0.0
 10
15.5109087386
 20
7.9090174472
 30
0.0
 10
15.5147409388
 20
7.9121802293
 30
0.0
 10
15.5185746701
 20
7.9155612279
 30
0.0
 10
15.5210946843
 20
7.9179261548
 30
0.0
 10
15.5223549325
 20
7.9191434611
 30
0.0
  0
SPLINE
  5
33D
100
AcDbEntity
  8
0
100
AcDbSpline
 62
7
  6
CONTINUOUS
 70
0
 71
3
 72
11
 73
7
 74
0
 42
0.0000001
 43
0.0000001
 44
0.0000000001
 40
0.0
 40
0.0
 40
0.0
 40
0.0
 40
0.2396605935
 40
0.4861361377
 40
0.7395476642
 40
1.0
 40
1.0
 40
1.0
 40
1.0
 10
15.5223549325
 20
7.9191434611
 30
0.0
 10
15.5236512883
 20
7.9203956448
 30
0.0
 10
15.5262433484
 20
7.9229747219
 30
0.0
 10
15.5300765315
 20
7.9270054532
 30
0.0
 10
15.5339078432
 20
7.9312510034
 30
0.0
 10
15.5364254725
 20
7.9341834511
 30
0.0
 10
15.5376841436
 20
7.935684233
 30
0.0
  0
SPLINE
  5
33E
100
AcDbEntity
  8
0
100
AcDbSpline
 62
7
  6
CONTINUOUS
 70
0
 71
3
 72
11
 73
7
 74
0
 42
0.0000001
 43
0.0000001
 44
0.0000000001
 40
0.0
 40
0.0
 40
0.0
 40
0.0
 40
0.2523402475
 40
0.5031675623
 40
0.7524100652
 40
1.0
 40
1.0
 40
1.0
 40
1.0
 10
15.5376841436
 20
7.935684233
 30
0.0
 10
15.5430113203
 20
7.9433638674
 30
0.0
 10
15.5535115772
 20
7.9587623161
 30
0.0
 10
15.5688154449
 20
7.9820544642
 30
0.0
 10
15.5835953657
 20
8.0054749292
 30
0.0
 10
15.5931104256
 20
8.0212279615
 30
0.0
 10
15.5977694171
 20
8.0291267847
 30
0.0
  0
SPLINE
  5
33F
100
AcDbEntity
  8
0
100
AcDbSpline
 62
7
  6
CONTINUOUS
 70
0
 71
3
 72
23
 73
19
 74
0
 42
0.0000001
 43
0.0000001
 44
0.0000000001
 40
0.0
 40
0.0
 40
0.0
 40
0.0
 40
0.0604022643
 40
0.1217033576
 40
0.1837746179
 40
0.2464852671
 40
0.3097027723
 40
0.3732932256
 40
0.4371217077
 40
0.5010526579
 40
0.5649502396
 40
0.6286787052
 40
0.6921027639
 40
0.755087947
 40
0.8175009758
 40
0.8792101328
 40
0.9400856327
 40
1.0
 40
1.0
 40
1.0
 40
1.0
 10
12.6718777927
 20
9.3024198783
 30
0.0
 10
12.6702310837
 20
9.292571683
 30
0.0
 10
12.6670486315
 20
9.27270585
 30
0.0
 10
12.6626370208
 20
9.2426478343
 30
0.0
 10
12.6585589016
 20
9.2121576972
 30
0.0
 10
12.6548235516
 20
9.1813045796
 30
0.0
 10
12.6514394481
 20
9.1501583541
 30
0.0
 10
12.6484142733
 20
9.1187895869
 30
0.0
 10
12.6457548925
 20
9.0872693432
 30
0.0
 10
12.6434673333
 20
9.0556690354
 30
0.0
 10
12.6415567837
 20
9.024060257
 30
0.0
 10
12.6400275639
 20
8.9925146214
 30
0.0
 10
12.6388831363
 20
8.9611035986
 30
0.0
 10
12.6381260757
 20
8.9298983504
 30
0.0
 10
12.6377580848
 20
8.8989695774
 30
0.0
 10
12.6377799711
 20
8.8683873245
 30
0.0
 10
12.638191658
 20
8.8382209451
 30
0.0
 10
12.6387299965
 20
8.8182600633
 30
0.0
 10
12.6390658404
 20
8.8083614931
 30
0.0
  0
SPLINE
  5
340
100
AcDbEntity
  8
0
100
AcDbSpline
 62
7
  6
CONTINUOUS
 70
0
 71
3
 72
91
 73
87
 74
0
 42
0.0000001
 43
0.0000001
 44
0.0000000001
 40
0.0
 40
0.0
 40
0.0
 40
0.0
 40
0.0048080603
 40
0.0097392102
 40
0.0147932383
 40
0.0199698132
 40
0.0252684781
 40
0.030688671
 40
0.0362297234
 40
0.04189087
 40
0.047671256
 40
0.0535699355
 40
0.059585887
 40
0.065718005
 40
0.0719651159
 40
0.078325972
 40
0.0847992602
 40
0.0913836048
 40
0.0980775656
 40
0.1048796485
 40
0.1117882979
 40
0.1188019097
 40
0.1331372289
 40
0.1478718627
 40
0.1629912164
 40
0.1784800071
 40
0.1943223135
 40
0.2105016194
 40
0.2270008554
 40
0.2438024385
 40
0.2608883084
 40
0.2782399646
 40
0.2958384992
 40
0.3136646323
 40
0.331698743
 40
0.3499209039
 40
0.3683109107
 40
0.3868483155
 40
0.4055124562
 40
0.4242824889
 40
0.4431374169
 40
0.4620561224
 40
0.481017397
 40
0.4999999711
 40
0.5189825453
 40
0.53794382
 40
0.556862526
 40
0.5757174542
 40
0.5944874874
 40
0.6131516288
 40
0.6316890346
 40
0.6500790425
 40
0.6683012045
 40
0.6863353165
 40
0.7041614505
 40
0.7217599865
 40
0.7391116439
 40
0.7561975158
 40
0.7729991008
 40
0.7894983391
 40
0.8056776469
 40
0.8215199553
 40
0.8370087478
 40
0.8521281034
 40
0.8668627397
 40
0.8811980616
 40
0.8882116747
 40
0.8951203257
 40
0.9019224091
 40
0.9086163722
 40
0.9152007171
 40
0.9216740078
 40
0.9280348644
 40
0.934281977
 40
0.9404140966
 40
0.9464300488
 40
0.9523287308
 40
0.9581091169
 40
0.9637702663
 40
0.9693113192
 40
0.9747315141
 40
0.9800301803
 40
0.9852067561
 40
0.9902607868
 40
0.9951919369
 40
1.0
 40
1.0
 40
1.0
 40
1.0
 10
15.6308642979
 20
8.0852386508
 30
0.0
 10
15.6321402914
 20
8.0874020776
 30
0.0
 10
15.6346866275
 20
8.0918070227
 30
0.0
 10
15.6384438896
 20
8.0985603578
 30
0.0
 10
15.6421861472
 20
8.1055412329
 30
0.0
 10
15.6459122585
 20
8.1127475449
 30
0.0
 10
15.6496211236
 20
8.120177151
 30
0.0
 10
15.6533116273
 20
8.1278278358
 30
0.0
 10
15.6569826697
 20
8.1356973168
 30
0.0
 10
15.6606331537
 20
8.1437832456
 30
0.0
 10
15.6642619835
 20
8.1520832098
 30
0.0
 10
15.6678680798
 20
8.1605947296
 30
0.0
 10
15.6714503557
 20
8.1693152649
 30
0.0
 10
15.6750077467
 20
8.178242209
 30
0.0
 10
15.6785391818
 20
8.1873728961
 30
0.0
 10
15.6820436075
 20
8.1967045969
 30
0.0
 10
15.6855199738
 20
8.2062345227
 30
0.0
 10
15.6889672376
 20
8.2159598252
 30
0.0
 10
15.6923843719
 20
8.2258775968
 30
0.0
 10
15.6957703453
 20
8.2359848717
 30
0.0
 10
15.6991241572
 20
8.2462786323
 30
0.0
 10
15.7035840545
 20
8.2603504233
 30
0.0
 10
15.7090671848
 20
8.2783858812
 30
0.0
 10
15.7154558706
 20
8.3005691091
 30
0.0
 10
15.7216926545
 20
8.3234207062
 30
0.0
 10
15.7277700505
 20
8.3469133218
 30
0.0
 10
15.7336807669
 20
8.3710188873
 30
0.0
 10
15.7394177121
 20
8.3957085798
 30
0.0
 10
15.7449740038
 20
8.4209528772
 30
0.0
 10
15.7503429772
 20
8.4467215892
 30
0.0
 10
15.7555181932
 20
8.4729838948
 30
0.0
 10
15.7604934453
 20
8.4997083797
 30
0.0
 10
15.7652627679
 20
8.5268630743
 30
0.0
 10
15.769820443
 20
8.5544154916
 30
0.0
 10
15.7741610072
 20
8.5823326672
 30
0.0
 10
15.7782792577
 20
8.6105811988
 30
0.0
 10
15.7821702588
 20
8.6391272866
 30
0.0
 10
15.7858293477
 20
8.6679367734
 30
0.0
 10
15.7892521399
 20
8.6969751864
 30
0.0
 10
15.7924345346
 20
8.7262077777
 30
0.0
 10
15.7953727197
 20
8.7555995665
 30
0.0
 10
15.7980631765
 20
8.7851153811
 30
0.0
 10
15.8005026832
 20
8.8147199008
 30
0.0
 10
15.8026883195
 20
8.844377699
 30
0.0
 10
15.8046174692
 20
8.8740532846
 30
0.0
 10
15.8062878242
 20
8.9037111456
 30
0.0
 10
15.8076973867
 20
8.9333157909
 30
0.0
 10
15.8088444719
 20
8.9628317936
 30
0.0
 10
15.8097277104
 20
8.9922238328
 30
0.0
 10
15.8103460493
 20
9.0214567364
 30
0.0
 10
15.8106987535
 20
9.0504955233
 30
0.0
 10
15.810785407
 20
9.0793054453
 30
0.0
 10
15.8106059127
 20
9.1078520285
 30
0.0
 10
15.8101604936
 20
9.1361011152
 30
0.0
 10
15.8094496915
 20
9.1640189045
 30
0.0
 10
15.8084743677
 20
9.1915719937
 30
0.0
 10
15.8072357013
 20
9.2187274178
 30
0.0
 10
15.8057351879
 20
9.2454526898
 30
0.0
 10
15.8039746379
 20
9.2717158393
 30
0.0
 10
15.8019561744
 20
9.2974854513
 30
0.0
 10
15.7996822309
 20
9.3227307044
 30
0.0
 10
15.7971555484
 20
9.3474214087
 30
0.0
 10
15.7943791722
 20
9.3715280386
 30
0.0
 10
15.79135645
 20
9.3950217881
 30
0.0
 10
15.7880910208
 20
9.4178745352
 30
0.0
 10
15.7851499346
 20
9.4364942184
 30
0.0
 10
15.7826751539
 20
9.4510469341
 30
0.0
 10
15.780774365
 20
9.4617051047
 30
0.0
 10
15.7788159777
 20
9.4721830144
 30
0.0
 10
15.7768005737
 20
9.4824775362
 30
0.0
 10
15.7747287557
 20
9.4925855905
 30
0.0
 10
15.7726011498
 20
9.5025041558
 30
0.0
 10
15.7704183866
 20
9.5122302667
 30
0.0
 10
15.7681811277
 20
9.5217610165
 30
0.0
 10
15.7658900372
 20
9.5310935567
 30
0.0
 10
15.7635458058
 20
9.5402250988
 30
0.0
 10
15.7611491347
 20
9.5491529149
 30
0.0
 10
15.7587007395
 20
9.5578743381
 30
0.0
 10
15.7562013589
 20
9.5663867647
 30
0.0
 10
15.7536517334
 20
9.5746876527
 30
0.0
 10
15.7510526347
 20
9.5827745257
 30
0.0
 10
15.7484048322
 20
9.5906449708
 30
0.0
 10
15.7457091243
 20
9.5982966398
 30
0.0
 10
15.7429663103
 20
9.6057272595
 30
0.0
 10
15.7401772204
 20
9.6129345875
 30
0.0
 10
15.7382633065
 20
9.6176488551
 30
0.0
 10
15.7372981599
 20
9.619967707
 30
0.0
  0
SPLINE
  5
341
100
AcDbEntity
  8
0
100
AcDbSpline
 62
7
  6
CONTINUOUS
 70
0
 71
3
 72
39
 73
35
 74
0
 42
0.0000001
 43
0.0000001
 44
0.0000000001
 40
0.0
 40
0.0
 40
0.0
 40
0.0
 40
0.0216079046
 40
0.0436791786
 40
0.0662464061
 40
0.0893405372
 40
0.1129906034
 40
0.1372234656
 40
0.162063601
 40
0.1875329225
 40
0.2136506471
 40
0.240433219
 40
0.2678942665
 40
0.2960445973
 40
0.324892228
 40
0.3544424416
 40
0.3846978934
 40
0.4156587385
 40
0.4473227758
 40
0.4796856079
 40
0.5127408105
 40
0.5464801181
 40
0.5808936196
 40
0.6159699475
 40
0.6516964637
 40
0.6880594401
 40
0.7250442361
 40
0.7626354701
 40
0.8008171733
 40
0.8395729352
 40
0.8788860374
 40
0.918739553
 40
0.9591165661
 40
1.0
 40
1.0
 40
1.0
 40
1.0
 10
15.72392381
 20
9.6521007841
 30
0.0
 10
15.7232165075
 20
9.6538003188
 30
0.0
 10
15.7217218578
 20
9.6572092018
 30
0.0
 10
15.7192683701
 20
9.6622930015
 30
0.0
 10
15.7165773844
 20
9.6673987963
 30
0.0
 10
15.7136461399
 20
9.6725259926
 30
0.0
 10
15.7104722786
 20
9.677674061
 30
0.0
 10
15.7070539335
 20
9.6828423785
 30
0.0
 10
15.7033897328
 20
9.6880302743
 30
0.0
 10
15.6994788252
 20
9.6932370219
 30
0.0
 10
15.695320891
 20
9.698461848
 30
0.0
 10
15.6909161447
 20
9.703703934
 30
0.0
 10
15.6862653352
 20
9.7089624232
 30
0.0
 10
15.6813697399
 20
9.7142364266
 30
0.0
 10
15.6762311543
 20
9.7195250287
 30
0.0
 10
15.6708518778
 20
9.7248272977
 30
0.0
 10
15.6652346877
 20
9.7301422903
 30
0.0
 10
15.6593828105
 20
9.7354690586
 30
0.0
 10
15.6532998912
 20
9.7408066578
 30
0.0
 10
15.6469899584
 20
9.7461541525
 30
0.0
 10
15.6404573892
 20
9.7515106238
 30
0.0
 10
15.6337068694
 20
9.7568751752
 30
0.0
 10
15.6267433511
 20
9.7622469364
 30
0.0
 10
15.619572013
 20
9.7676250681
 30
0.0
 10
15.6121982204
 20
9.7730087653
 30
0.0
 10
15.6046274874
 20
9.7783972614
 30
0.0
 10
15.5968654395
 20
9.7837898304
 30
0.0
 10
15.5889177769
 20
9.7891857874
 30
0.0
 10
15.5807902418
 20
9.7945844899
 30
0.0
 10
15.5724885881
 20
9.7999853384
 30
0.0
 10
15.5640185561
 20
9.8053877757
 30
0.0
 10
15.5553858386
 20
9.8107912912
 30
0.0
 10
15.5465960802
 20
9.8161954055
 30
0.0
 10
15.5406713394
 20
9.8197764454
 30
0.0
 10
15.5376841436
 20
9.821567481
 30
0.0
  0
SPLINE
  5
342
100
AcDbEntity
  8
0
100
AcDbSpline
 62
7
  6
CONTINUOUS
 70
0
 71
3
 72
11
 73
7
 74
0
 42
0.0000001
 43
0.0000001
 44
0.0000000001
 40
0.0
 40
0.0
 40
0.0
 40
0.0
 40
0.2396605935
 40
0.4861361377
 40
0.7395476642
 40
1.0
 40
1.0
 40
1.0
 40
1.0
 10
15.5223549325
 20
9.8084944893
 30
0.0
 10
15.5210585766
 20
9.8072423056
 30
0.0
 10
15.5184665165
 20
9.8046632286
 30
0.0
 10
15.5146333334
 20
9.8006324972
 30
0.0
 10
15.5108020217
 20
9.796386947
 30
0.0
 10
15.5082843925
 20
9.7934544993
 30
0.0
 10
15.5070257213
 20
9.7919537174
 30
0.0
  0
SPLINE
  5
343
100
AcDbEntity
  8
0
100
AcDbSpline
 62
7
  6
CONTINUOUS
 70
0
 71
3
 72
11
 73
7
 74
0
 42
0.0000001
 43
0.0000001
 44
0.0000000001
 40
0.0
 40
0.0
 40
0.0
 40
0.0
 40
0.2600920509
 40
0.5135755305
 40
0.7602686496
 40
1.0
 40
1.0
 40
1.0
 40
1.0
 10
15.2958801551
 20
8.2231351469
 30
0.0
 10
15.2970078904
 20
8.2157933092
 30
0.0
 10
15.2993281935
 20
8.2013103305
 30
0.0
 10
15.3030568916
 20
8.1799197395
 30
0.0
 10
15.3069864829
 20
8.1591566191
 30
0.0
 10
15.3097783299
 20
8.1455476016
 30
0.0
 10
15.3112093662
 20
8.1388523626
 30
0.0
  0
SPLINE
  5
344
100
AcDbEntity
  8
0
100
AcDbSpline
 62
7
  6
CONTINUOUS
 70
0
 71
3
 72
11
 73
7
 74
0
 42
0.0000001
 43
0.0000001
 44
0.0000000001
 40
0.0
 40
0.0
 40
0.0
 40
0.0
 40
0.2471507066
 40
0.4963425996
 40
0.7473636924
 40
1.0
 40
1.0
 40
1.0
 40
1.0
 10
15.3112093662
 20
9.1808836527
 30
0.0
 10
15.3097931716
 20
9.1715219739
 30
0.0
 10
15.3070275742
 20
9.1527093366
 30
0.0
 10
15.3030948724
 20
9.1243493717
 30
0.0
 10
15.299363228
 20
9.0957503117
 30
0.0
 10
15.2970186332
 20
9.0765982518
 30
0.0
 10
15.2958801551
 20
9.0669871047
 30
0.0
  0
SPLINE
  5
345
100
AcDbEntity
  8
0
100
AcDbSpline
 62
7
  6
CONTINUOUS
 70
0
 71
3
 72
11
 73
7
 74
0
 42
0.0000001
 43
0.0000001
 44
0.0000000001
 40
0.0
 40
0.0
 40
0.0
 40
0.0
 40
0.2394749506
 40
0.485822197
 40
0.7392645615
 40
1.0
 40
1.0
 40
1.0
 40
1.0
 10
15.5376841436
 20
9.821567481
 30
0.0
 10
15.5363902205
 20
9.8206106282
 30
0.0
 10
15.5338011263
 20
9.8186205033
 30
0.0
 10
15.5299689261
 20
9.8154577211
 30
0.0
 10
15.5261351948
 20
9.8120767225
 30
0.0
 10
15.5236151807
 20
9.8097117957
 30
0.0
 10
15.5223549325
 20
9.8084944893
 30
0.0
  0
SPLINE
  5
346
100
AcDbEntity
  8
0
100
AcDbSpline
 62
7
  6
CONTINUOUS
 70
0
 71
3
 72
23
 73
19
 74
0
 42
0.0000001
 43
0.0000001
 44
0.0000000001
 40
0.0
 40
0.0
 40
0.0
 40
0.0
 40
0.0634130869
 40
0.1268712247
 40
0.1903043562
 40
0.2536526709
 40
0.3168677835
 40
0.3799131485
 40
0.4427639643
 40
0.5054064867
 40
0.567837006
 40
0.6300604834
 40
0.692088906
 40
0.7539396046
 40
0.8156334161
 40
0.8771929905
 40
0.938641241
 40
1.0
 40
1.0
 40
1.0
 40
1.0
 10
12.6582010349
 20
9.2088844562
 30
0.0
 10
12.6565914183
 20
9.2082921018
 30
0.0
 10
12.6534144881
 20
9.2069848306
 30
0.0
 10
12.6488118722
 20
9.2046700729
 30
0.0
 10
12.6443995323
 20
9.2020131548
 30
0.0
 10
12.6402090706
 20
9.1990297901
 30
0.0
 10
12.6362702443
 20
9.1957374248
 30
0.0
 10
12.6326114254
 20
9.1921554756
 30
0.0
 10
12.6292593222
 20
9.1883053069
 30
0.0
 10
12.6262387942
 20
9.184210341
 30
0.0
 10
12.6235726485
 20
9.1798960577
 30
0.0
 10
12.6212813385
 20
9.1753900166
 30
0.0
 10
12.6193826581
 20
9.1707217862
 30
0.0
 10
12.6178914727
 20
9.1659227672
 30
0.0
 10
12.6168193691
 20
9.1610260349
 30
0.0
 10
12.616174526
 20
9.1560657862
 30
0.0
 10
12.6159614408
 20
9.1510777699
 30
0.0
 10
12.6161080131
 20
9.1477544708
 30
0.0
 10
12.6162529974
 20
9.1461012271
 30
0.0
  0
SPLINE
  5
347
100
AcDbEntity
  8
0
100
AcDbSpline
 62
7
  6
CONTINUOUS
 70
0
 71
3
 72
58
 73
54
 74
0
 42
0.0000001
 43
0.0000001
 44
0.0000000001
 40
0.0
 40
0.0
 40
0.0
 40
0.0
 40
0.0153119155
 40
0.0306257173
 40
0.0459426632
 40
0.0612640169
 40
0.0919172977
 40
0.1226037292
 40
0.1379666021
 40
0.1533418178
 40
0.1687307706
 40
0.1841348672
 40
0.1995555226
 40
0.2149941535
 40
0.2304521642
 40
0.2459309349
 40
0.2614318106
 40
0.2769560847
 40
0.2925049785
 40
0.308079625
 40
0.3236810525
 40
0.3393101607
 40
0.3549676988
 40
0.3706542491
 40
0.3863702065
 40
0.4021157553
 40
0.4178908507
 40
0.4336952053
 40
0.4495282705
 40
0.4653892204
 40
0.4971831554
 40
0.5290715009
 40
0.561036818
 40
0.5930567744
 40
0.6251043937
 40
0.6571485711
 40
0.6891548531
 40
0.7051355292
 40
0.7210928552
 40
0.7370221112
 40
0.7529186184
 40
0.7845887601
 40
0.8160751413
 40
0.831743085
 40
0.84735426
 40
0.8629058931
 40
0.8783957078
 40
0.9091765999
 40
0.9396972852
 40
0.9548645322
 40
0.9699691401
 40
0.9850133292
 40
1.0
 40
1.0
 40
1.0
 40
1.0
 10
12.5871361619
 20
9.1644933893
 30
0.0
 10
12.5865879422
 20
9.1651450986
 30
0.0
 10
12.5855206303
 20
9.1664734847
 30
0.0
 10
12.5840109502
 20
9.1685361053
 30
0.0
 10
12.5825952743
 20
9.1706650967
 30
0.0
 10
12.58083683
 20
9.1735866316
 30
0.0
 10
12.5788867198
 20
9.1773852273
 30
0.0
 10
12.5772852203
 20
9.1813459258
 30
0.0
 10
12.5762205854
 20
9.184593162
 30
0.0
 10
12.5755314195
 20
9.1870653246
 30
0.0
 10
12.5749534937
 20
9.1895681355
 30
0.0
 10
12.5744880235
 20
9.1920968606
 30
0.0
 10
12.5741360262
 20
9.1946466458
 30
0.0
 10
12.5738982884
 20
9.1972126214
 30
0.0
 10
12.5737753735
 20
9.1997898877
 30
0.0
 10
12.5737676048
 20
9.2023735314
 30
0.0
 10
12.5738750623
 20
9.2049586369
 30
0.0
 10
12.5740975918
 20
9.207540299
 30
0.0
 10
12.5744348047
 20
9.2101136328
 30
0.0
 10
12.5748860633
 20
9.212673788
 30
0.0
 10
12.5754504908
 20
9.2152159605
 30
0.0
 10
12.5761269799
 20
9.2177354022
 30
0.0
 10
12.5769141949
 20
9.2202274313
 30
0.0
 10
12.5778105618
 20
9.2226874476
 30
0.0
 10
12.578814288
 20
9.2251109389
 30
0.0
 10
12.5799233697
 20
9.2274934867
 30
0.0
 10
12.5811355972
 20
9.2298307809
 30
0.0
 10
12.5824485378
 20
9.2321186136
 30
0.0
 10
12.5838596197
 20
9.234352949
 30
0.0
 10
12.5858694475
 20
9.2372573213
 30
0.0
 10
12.5886135827
 20
9.2407346222
 30
0.0
 10
12.5922466812
 20
9.24462858
 30
0.0
 10
12.5961949753
 20
9.2482213886
 30
0.0
 10
12.6004278089
 20
9.2514884052
 30
0.0
 10
12.6049127971
 20
9.2544076369
 30
0.0
 10
12.609615493
 20
9.2569593197
 30
0.0
 10
12.6136890123
 20
9.2587663914
 30
0.0
 10
12.6170209865
 20
9.2600122192
 30
0.0
 10
12.6195505374
 20
9.2608447857
 30
0.0
 10
12.6221067965
 20
9.2615744581
 30
0.0
 10
12.6255395333
 20
9.2624073802
 30
0.0
 10
12.6298719298
 20
9.2631864025
 30
0.0
 10
12.6342406298
 20
9.263611099
 30
0.0
 10
12.6377302106
 20
9.2637345145
 30
0.0
 10
12.6403355932
 20
9.2637191378
 30
0.0
 10
12.6429282054
 20
9.2635959794
 30
0.0
 10
12.6463537978
 20
9.2632890888
 30
0.0
 10
12.6505806389
 20
9.2626392531
 30
0.0
 10
12.6547189017
 20
9.2616331744
 30
0.0
 10
12.6579457272
 20
9.2606201196
 30
0.0
 10
12.6603156189
 20
9.259759601
 30
0.0
 10
12.6626355432
 20
9.258798424
 30
0.0
 10
12.6641490097
 20
9.2580902727
 30
0.0
 10
12.6648958015
 20
9.257720019
 30
0.0
  0
SPLINE
  5
348
100
AcDbEntity
  8
0
100
AcDbSpline
 62
7
  6
CONTINUOUS
 70
0
 71
3
 72
49
 73
45
 74
0
 42
0.0000001
 43
0.0000001
 44
0.0000000001
 40
0.0
 40
0.0
 40
0.0
 40
0.0
 40
0.0470731633
 40
0.0924997698
 40
0.1362855027
 40
0.1784403553
 40
0.2189791703
 40
0.2579222657
 40
0.2952961279
 40
0.3311342316
 40
0.3654779909
 40
0.3983778365
 40
0.4298943676
 40
0.4600996075
 40
0.4890783026
 40
0.5169291564
 40
0.543765828
 40
0.5568460328
 40
0.5697225039
 40
0.5824138144
 40
0.5949394792
 40
0.6073198749
 40
0.6195761788
 40
0.6317302925
 40
0.6438047181
 40
0.6558224533
 40
0.6678068515
 40
0.6797814773
 40
0.6917699587
 40
0.7037958344
 40
0.7158824075
 40
0.7280525951
 40
0.7403288102
 40
0.752732831
 40
0.7652857013
 40
0.7780076619
 40
0.790918055
 40
0.8173721907
 40
0.8447889633
 40
0.8732884438
 40
0.9029754265
 40
0.9339401518
 40
0.9662601817
 40
1.0
 40
1.0
 40
1.0
 40
1.0
 10
15.7372981599
 20
9.619967707
 30
0.0
 10
15.7360561726
 20
9.6229516935
 30
0.0
 10
15.7335495086
 20
9.6287880857
 30
0.0
 10
15.7296461554
 20
9.6372938065
 30
0.0
 10
15.7256683538
 20
9.645390522
 30
0.0
 10
15.7216181767
 20
9.6530739784
 30
0.0
 10
15.7174976889
 20
9.6603402188
 30
0.0
 10
15.7133089827
 20
9.6671854945
 30
0.0
 10
15.7090541564
 20
9.6736062837
 30
0.0
 10
15.7047353112
 20
9.6795992817
 30
0.0
 10
15.7003545424
 20
9.6851613981
 30
0.0
 10
15.6959139396
 20
9.6902897489
 30
0.0
 10
15.6914155676
 20
9.694981641
 30
0.0
 10
15.6868614976
 20
9.6992345347
 30
0.0
 10
15.6822537116
 20
9.7030460721
 30
0.0
 10
15.6775944989
 20
9.7064138676
 30
0.0
 10
15.6736368823
 20
9.7088696878
 30
0.0
 10
15.6704518172
 20
9.7106019783
 30
0.0
 10
15.6680722435
 20
9.711778115
 30
0.0
 10
15.6656820039
 20
9.7128419506
 30
0.0
 10
15.6632813896
 20
9.7137933519
 30
0.0
 10
15.6608707309
 20
9.7146321621
 30
0.0
 10
15.6584503524
 20
9.7153582402
 30
0.0
 10
15.6560205936
 20
9.7159714804
 30
0.0
 10
15.6535817917
 20
9.7164717714
 30
0.0
 10
15.6511342937
 20
9.7168590332
 30
0.0
 10
15.64867845
 20
9.7171332101
 30
0.0
 10
15.6462146122
 20
9.7172942451
 30
0.0
 10
15.6437431364
 20
9.7173421275
 30
0.0
 10
15.6412643776
 20
9.7172768518
 30
0.0
 10
15.6387786917
 20
9.7170984282
 30
0.0
 10
15.6362864305
 20
9.7168069073
 30
0.0
 10
15.6337879467
 20
9.7164023337
 30
0.0
 10
15.6312835852
 20
9.7158847838
 30
0.0
 10
15.6287736975
 20
9.7152543592
 30
0.0
 10
15.6262585913
 20
9.7145111359
 30
0.0
 10
15.6228714511
 20
9.7133607557
 30
0.0
 10
15.6186194185
 20
9.7116317439
 30
0.0
 10
15.6135448232
 20
9.709124539
 30
0.0
 10
15.6084589142
 20
9.7061699592
 30
0.0
 10
15.6033643263
 20
9.7027700119
 30
0.0
 10
15.5982632861
 20
9.6989266793
 30
0.0
 10
15.5931583385
 20
9.6946422442
 30
0.0
 10
15.5898271415
 20
9.6915610565
 30
0.0
 10
15.5881608856
 20
9.6899515767
 30
0.0
  0
SPLINE
  5
349
100
AcDbEntity
  8
0
100
AcDbSpline
 62
7
  6
CONTINUOUS
 70
0
 71
3
 72
38
 73
34
 74
0
 42
0.0000001
 43
0.0000001
 44
0.0000000001
 40
0.0
 40
0.0
 40
0.0
 40
0.0
 40
0.0293462456
 40
0.0587365411
 40
0.0881778495
 40
0.1176777158
 40
0.147244278
 40
0.1768862212
 40
0.2066127297
 40
0.2364334109
 40
0.2663581986
 40
0.2963972328
 40
0.3265607184
 40
0.3568587675
 40
0.3873012301
 40
0.4178975169
 40
0.4486564248
 40
0.4795859706
 40
0.5106932413
 40
0.5419842696
 40
0.5734639394
 40
0.6051359245
 40
0.6370026629
 40
0.6690653641
 40
0.7013240494
 40
0.7337776197
 40
0.7992573287
 40
0.8322792044
 40
0.8654823827
 40
0.8988617575
 40
0.9324117817
 40
0.966126564
 40
1.0
 40
1.0
 40
1.0
 40
1.0
 10
15.5070257213
 20
9.7919537174
 30
0.0
 10
15.5072482238
 20
9.7855580395
 30
0.0
 10
15.5075848391
 20
9.7727530085
 30
0.0
 10
15.5077496246
 20
9.7535237351
 30
0.0
 10
15.5075593963
 20
9.7342610492
 30
0.0
 10
15.5069989187
 20
9.7149670498
 30
0.0
 10
15.5060531013
 20
9.6956441978
 30
0.0
 10
15.5047071607
 20
9.6762954551
 30
0.0
 10
15.5029468059
 20
9.6569242731
 30
0.0
 10
15.500758437
 20
9.6375346077
 30
0.0
 10
15.4981293549
 20
9.618130913
 30
0.0
 10
15.4950479748
 20
9.5987181236
 30
0.0
 10
15.4915040418
 20
9.5793016203
 30
0.0
 10
15.4874888319
 20
9.55988718
 30
0.0
 10
15.482995336
 20
9.5404809101
 30
0.0
 10
15.4780184168
 20
9.5210891678
 30
0.0
 10
15.4725549311
 20
9.5017184675
 30
0.0
 10
15.4666038119
 20
9.4823753797
 30
0.0
 10
15.4601661047
 20
9.4630664246
 30
0.0
 10
15.4532449594
 20
9.4437979637
 30
0.0
 10
15.4458455669
 20
9.4245760972
 30
0.0
 10
15.4379750563
 20
9.4054065727
 30
0.0
 10
15.4296423461
 20
9.3862946921
 30
0.0
 10
15.4208579905
 20
9.3672452837
 30
0.0
 10
15.4116338969
 20
9.3482625039
 30
0.0
 10
15.3987288769
 20
9.3229723948
 30
0.0
 10
15.3850326234
 20
9.2979052284
 30
0.0
 10
15.3706173677
 20
9.2730628742
 30
0.0
 10
15.3594085408
 20
9.2544564595
 30
0.0
 10
15.3478494614
 20
9.2359299352
 30
0.0
 10
15.3359559977
 20
9.2174834391
 30
0.0
 10
15.3237439952
 20
9.19911688
 30
0.0
 10
15.3154196143
 20
9.1869531276
 30
0.0
 10
15.3112093662
 20
9.1808836527
 30
0.0
  0
SPLINE
  5
34A
100
AcDbEntity
  8
0
100
AcDbSpline
 62
7
  6
CONTINUOUS
 70
0
 71
3
 72
36
 73
32
 74
0
 42
0.0000001
 43
0.0000001
 44
0.0000000001
 40
0.0
 40
0.0
 40
0.0
 40
0.0
 40
0.0635007802
 40
0.1269002289
 40
0.1585591923
 40
0.1901886259
 40
0.2217871205
 40
0.2533533021
 40
0.2848858535
 40
0.3163835367
 40
0.3478452158
 40
0.3792698811
 40
0.410656671
 40
0.4420048926
 40
0.4733140381
 40
0.5045837976
 40
0.5358140674
 40
0.567004953
 40
0.5981567671
 40
0.6292700207
 40
0.6603454113
 40
0.6913838053
 40
0.7223862182
 40
0.7533537927
 40
0.7842877761
 40
0.8151894958
 40
0.8460603359
 40
0.8769017169
 40
0.9077150739
 40
0.9385018445
 40
1.0
 40
1.0
 40
1.0
 40
1.0
 10
15.2958801551
 20
9.0669871047
 30
0.0
 10
15.3003190051
 20
9.0494654401
 30
0.0
 10
15.308788936
 20
9.0143469835
 30
0.0
 10
15.3182659643
 20
8.9702144364
 30
0.0
 10
15.3251113377
 20
8.934808003
 30
0.0
 10
15.3298600277
 20
8.9082186604
 30
0.0
 10
15.3342104843
 20
8.881587989
 30
0.0
 10
15.3381481945
 20
8.8549209607
 30
0.0
 10
15.3416593547
 20
8.8282233001
 30
0.0
 10
15.3447310994
 20
8.8015013951
 30
0.0
 10
15.3473517171
 20
8.774762278
 30
0.0
 10
15.3495108629
 20
8.7480135594
 30
0.0
 10
15.3511997576
 20
8.7212633491
 30
0.0
 10
15.352411366
 20
8.6945201525
 30
0.0
 10
15.3531405468
 20
8.6677927526
 30
0.0
 10
15.3533841646
 20
8.6410900762
 30
0.0
 10
15.3531411608
 20
8.6144210519
 30
0.0
 10
15.3524125817
 20
8.5877944655
 30
0.0
 10
15.3512015507
 20
8.5612188174
 30
0.0
 10
15.349513199
 20
8.53470219
 30
0.0
 10
15.3473545526
 20
8.50825213
 30
0.0
 10
15.3447343837
 20
8.4818755485
 30
0.0
 10
15.3416630324
 20
8.4555786431
 30
0.0
 10
15.3381522073
 20
8.4293668426
 30
0.0
 10
15.3342147735
 20
8.4032447754
 30
0.0
 10
15.3298645337
 20
8.3772162626
 30
0.0
 10
15.3251160116
 20
8.3512843189
 30
0.0
 10
15.3199842569
 20
8.3254512207
 30
0.0
 10
15.3144846163
 20
8.2997183981
 30
0.0
 10
15.3066852733
 20
8.2655573233
 30
0.0
 10
15.3003256399
 20
8.2400664103
 30
0.0
 10
15.2958801551
 20
8.2231351469
 30
0.0
  0
SPLINE
  5
34B
100
AcDbEntity
  8
0
100
AcDbSpline
 62
7
  6
CONTINUOUS
 70
0
 71
3
 72
39
 73
35
 74
0
 42
0.0000001
 43
0.0000001
 44
0.0000000001
 40
0.0
 40
0.0
 40
0.0
 40
0.0
 40
0.0456955419
 40
0.0905834148
 40
0.1346261228
 40
0.1777863341
 40
0.2200273954
 40
0.2613138611
 40
0.3016121232
 40
0.3408911018
 40
0.3791229973
 40
0.4162840877
 40
0.4523555537
 40
0.4873243001
 40
0.5211837449
 40
0.5539345441
 40
0.5855852136
 40
0.6161526124
 40
0.6456622523
 40
0.6741484013
 40
0.701653943
 40
0.7282299857
 40
0.7539352106
 40
0.7788349646
 40
0.8030001162
 40
0.8265057134
 40
0.8494294928
 40
0.8718503097
 40
0.8938465695
 40
0.9154947416
 40
0.9368680277
 40
0.9580352503
 40
0.979059986
 40
1.0
 40
1.0
 40
1.0
 40
1.0
 10
15.3112093662
 20
8.1388523626
 30
0.0
 10
15.3153933915
 20
8.1363437428
 30
0.0
 10
15.3236627783
 20
8.1313294606
 30
0.0
 10
15.3358709768
 20
8.1237438397
 30
0.0
 10
15.3477606825
 20
8.1161602407
 30
0.0
 10
15.3593161439
 20
8.1085800858
 30
0.0
 10
15.3705214953
 20
8.1010049475
 30
0.0
 10
15.3813608752
 20
8.0934365625
 30
0.0
 10
15.391818594
 20
8.0858768266
 30
0.0
 10
15.4018793149
 20
8.0783277885
 30
0.0
 10
15.4115282521
 20
8.0707916384
 30
0.0
 10
15.420751381
 20
8.0632706908
 30
0.0
 10
15.4295356557
 20
8.0557673636
 30
0.0
 10
15.4378692258
 20
8.048284151
 30
0.0
 10
15.4457416434
 20
8.0408235922
 30
0.0
 10
15.4531440545
 20
8.0333882373
 30
0.0
 10
15.4600693657
 20
8.0259806107
 30
0.0
 10
15.4665123782
 20
8.0186031754
 30
0.0
 10
15.4724698849
 20
8.0112582973
 30
0.0
 10
15.4779407266
 20
8.0039482164
 30
0.0
 10
15.4829257996
 20
7.9966750178
 30
0.0
 10
15.4874280223
 20
7.9894406124
 30
0.0
 10
15.4914522615
 20
7.982246722
 30
0.0
 10
15.4950052251
 20
7.9750948692
 30
0.0
 10
15.4980953245
 20
7.9679863713
 30
0.0
 10
15.5007325156
 20
7.9609223342
 30
0.0
 10
15.5029281217
 20
7.9539036473
 30
0.0
 10
15.5046946404
 20
7.9469309741
 30
0.0
 10
15.5060455454
 20
7.9400047468
 30
0.0
 10
15.5069950829
 20
7.9331251515
 30
0.0
 10
15.5075580717
 20
7.9262921498
 30
0.0
 10
15.5077496979
 20
7.9195053894
 30
0.0
 10
15.5075853629
 20
7.912764555
 30
0.0
 10
15.5072483157
 20
7.9082949115
 30
0.0
 10
15.5070257213
 20
7.9060704694
 30
0.0
  0
SPLINE
  5
34C
100
AcDbEntity
  8
0
100
AcDbSpline
 62
7
  6
CONTINUOUS
 70
0
 71
3
 72
153
 73
149
 74
0
 42
0.0000001
 43
0.0000001
 44
0.0000000001
 40
0.0
 40
0.0
 40
0.0
 40
0.0
 40
0.0020827402
 40
0.0042134583
 40
0.0063928236
 40
0.0086214633
 40
0.0108999661
 40
0.0132288565
 40
0.0156085793
 40
0.0180395232
 40
0.0205220232
 40
0.0230563651
 40
0.0256427905
 40
0.0282814909
 40
0.0309726197
 40
0.0337162893
 40
0.039361405
 40
0.0452171582
 40
0.0512832423
 40
0.0575589005
 40
0.0640429682
 40
0.0707339105
 40
0.0776298551
 40
0.0847286195
 40
0.0920277351
 40
0.0995244672
 40
0.1072158332
 40
0.1150986205
 40
0.1231694004
 40
0.131424541
 40
0.1398602183
 40
0.1484724269
 40
0.1572569903
 40
0.1662095704
 40
0.1753256756
 40
0.1846006673
 40
0.1940297678
 40
0.2036080679
 40
0.2133305334
 40
0.2231920109
 40
0.2331872342
 40
0.2433108289
 40
0.2535573194
 40
0.2639211341
 40
0.2743966108
 40
0.2849780015
 40
0.2956594774
 40
0.3064351342
 40
0.3172989972
 40
0.3392669995
 40
0.3615145881
 40
0.3839919209
 40
0.4066484887
 40
0.4294332633
 40
0.4522948494
 40
0.4751816305
 40
0.4980419184
 40
0.5208241006
 40
0.5434767886
 40
0.5659489663
 40
0.5881901386
 40
0.6101504827
 40
0.6210100578
 40
0.6317811246
 40
0.6424577121
 40
0.6530339199
 40
0.6635039233
 40
0.6738619782
 40
0.6841024262
 40
0.6942197007
 40
0.7042083317
 40
0.7140629502
 40
0.7237782949
 40
0.7333492181
 40
0.7427706916
 40
0.7520378131
 40
0.7611458124
 40
0.7700900577
 40
0.7788660639
 40
0.787469501
 40
0.7958962017
 40
0.8041421697
 40
0.8122035903
 40
0.8200768404
 40
0.827758502
 40
0.8352453743
 40
0.8425344874
 40
0.8496231191
 40
0.8565088138
 40
0.8631894039
 40
0.8696630339
 40
0.8759281876
 40
0.8819837197
 40
0.8878288937
 40
0.8934634269
 40
0.8962018134
 40
0.8988876675
 40
0.9015211084
 40
0.9041022902
 40
0.9066314122
 40
0.9091087181
 40
0.911534497
 40
0.9139090933
 40
0.9162329011
 40
0.9185063764
 40
0.9207300361
 40
0.9229044618
 40
0.9250303106
 40
0.9271083109
 40
0.9291392761
 40
0.9311241057
 40
0.9330637904
 40
0.9349594237
 40
0.9368121999
 40
0.9386234286
 40
0.9403945358
 40
0.9421270707
 40
0.9454827478
 40
0.9487060087
 40
0.9502736406
 40
0.9518148702
 40
0.9533322202
 40
0.954828351
 40
0.9563060495
 40
0.9577682193
 40
0.9592178676
 40
0.9606580865
 40
0.9620920358
 40
0.9635229202
 40
0.964953967
 40
0.966388402
 40
0.9678294267
 40
0.9692801945
 40
0.9707437904
 40
0.9722232117
 40
0.9737213505
 40
0.9752409824
 40
0.9767847528
 40
0.9783551722
 40
0.9815846908
 40
0.9849474367
 40
0.9884583814
 40
0.9902737196
 40
0.9921307387
 40
0.9940307449
 40
0.9959749389
 40
0.9979643819
 40
1.0
 40
1.0
 40
1.0
 40
1.0
 10
15.5881608856
 20
9.6899515767
 30
0.0
 10
15.5872399348
 20
9.6890620065
 30
0.0
 10
15.5853983108
 20
9.6872399942
 30
0.0
 10
15.5826674564
 20
9.6844131496
 30
0.0
 10
15.579937445
 20
9.6814620799
 30
0.0
 10
15.5772087302
 20
9.6783872733
 30
0.0
 10
15.5744817019
 20
9.6751891868
 30
0.0
 10
15.5717567629
 20
9.6718682859
 30
0.0
 10
15.5690343072
 20
9.6684250698
 30
0.0
 10
15.5663147495
 20
9.6648600526
 30
0.0
 10
15.5635984963
 20
9.6611737709
 30
0.0
 10
15.5608859491
 20
9.6573667792
 30
0.0
 10
15.5581775195
 20
9.6534396429
 30
0.0
 10
15.5554736067
 20
9.6493929559
 30
0.0
 10
15.5527746137
 20
9.6452273175
 30
0.0
 10
15.5491486889
 20
9.6394606703
 30
0.0
 10
15.5446344139
 20
9.6319554373
 30
0.0
 10
15.539293531
 20
9.6225676347
 30
0.0
 10
15.5339819705
 20
9.6127205059
 30
0.0
 10
15.5287029325
 20
9.6024199801
 30
0.0
 10
15.5234595772
 20
9.5916721965
 30
0.0
 10
15.5182550556
 20
9.5804835903
 30
0.0
 10
15.5130924974
 20
9.5688608613
 30
0.0
 10
15.50797501
 20
9.5568109762
 30
0.0
 10
15.5029056766
 20
9.5443411627
 30
0.0
 10
15.4978875516
 20
9.5314589061
 30
0.0
 10
15.4929236593
 20
9.5181719437
 30
0.0
 10
15.4880169927
 20
9.5044882589
 30
0.0
 10
15.4831705107
 20
9.4904160758
 30
0.0
 10
15.4783871369
 20
9.4759638543
 30
0.0
 10
15.4736697563
 20
9.4611402859
 30
0.0
 10
15.4690212136
 20
9.4459542877
 30
0.0
 10
15.4644443127
 20
9.4304149964
 30
0.0
 10
15.4599418144
 20
9.4145317619
 30
0.0
 10
15.4555164348
 20
9.3983141422
 30
0.0
 10
15.4511708433
 20
9.381771898
 30
0.0
 10
15.4469076603
 20
9.3649149871
 30
0.0
 10
15.4427294567
 20
9.3477535574
 30
0.0
 10
15.4386387524
 20
9.3302979401
 30
0.0
 10
15.4346380147
 20
9.312558644
 30
0.0
 10
15.4307296566
 20
9.2945463496
 30
0.0
 10
15.4269160341
 20
9.276271903
 30
0.0
 10
15.4231994466
 20
9.2577463083
 30
0.0
 10
15.4195821351
 20
9.2389807206
 30
0.0
 10
15.416066281
 20
9.2199864402
 30
0.0
 10
15.4126540039
 20
9.2007749046
 30
0.0
 10
15.4093473621
 20
9.181357686
 30
0.0
 10
15.4061483426
 20
9.1617464685
 30
0.0
 10
15.4020139009
 20
9.1352580469
 30
0.0
 10
15.3971320092
 20
9.1017490335
 30
0.0
 10
15.3917539939
 20
9.0611007667
 30
0.0
 10
15.3868479242
 20
9.0199664883
 30
0.0
 10
15.3824256426
 20
8.9784452946
 30
0.0
 10
15.3784978159
 20
8.9366371505
 30
0.0
 10
15.3750739176
 20
8.8946427333
 30
0.0
 10
15.3721622004
 20
8.8525631663
 30
0.0
 10
15.3697696728
 20
8.8104997805
 30
0.0
 10
15.3679020929
 20
8.768553866
 30
0.0
 10
15.3665639416
 20
8.7268264339
 30
0.0
 10
15.3657584178
 20
8.6854179487
 30
0.0
 10
15.3654874445
 20
8.6444281698
 30
0.0
 10
15.3657083765
 20
8.6105774135
 30
0.0
 10
15.3661558682
 20
8.5837821738
 30
0.0
 10
15.366623907
 20
8.5639257324
 30
0.0
 10
15.3672253006
 20
8.5442471755
 30
0.0
 10
15.3679596897
 20
8.5247583435
 30
0.0
 10
15.3688266283
 20
8.505470976
 30
0.0
 10
15.369825593
 20
8.4863966878
 30
0.0
 10
15.3709559795
 20
8.4675469657
 30
0.0
 10
15.3722171038
 20
8.4489331604
 30
0.0
 10
15.3736082031
 20
8.4305664802
 30
0.0
 10
15.3751284363
 20
8.4124579845
 30
0.0
 10
15.3767768849
 20
8.3946185772
 30
0.0
 10
15.3785525528
 20
8.3770589994
 30
0.0
 10
15.3804543658
 20
8.3597898225
 30
0.0
 10
15.3824811743
 20
8.3428214424
 30
0.0
 10
15.3846317529
 20
8.3261640735
 30
0.0
 10
15.3869048021
 20
8.3098277426
 30
0.0
 10
15.3892989484
 20
8.293822282
 30
0.0
 10
15.3918127439
 20
8.2781573229
 30
0.0
 10
15.3944446689
 20
8.2628422903
 30
0.0
 10
15.3971931325
 20
8.2478863971
 30
0.0
 10
15.4000564736
 20
8.2332986394
 30
0.0
 10
15.4030329626
 20
8.2190877892
 30
0.0
 10
15.4061208
 20
8.2052623888
 30
0.0
 10
15.4093181199
 20
8.1918307454
 30
0.0
 10
15.412622991
 20
8.1788009269
 30
0.0
 10
15.416033418
 20
8.1661807564
 30
0.0
 10
15.4195473437
 20
8.1539778065
 30
0.0
 10
15.4231626485
 20
8.1421993936
 30
0.0
 10
15.426877154
 20
8.130852571
 30
0.0
 10
15.4306886245
 20
8.1199441327
 30
0.0
 10
15.4345947745
 20
8.109480582
 30
0.0
 10
15.4385932514
 20
8.0994682207
 30
0.0
 10
15.4420321264
 20
8.0914309993
 30
0.0
 10
15.4448303208
 20
8.0852346473
 30
0.0
 10
15.4469306232
 20
8.0807480664
 30
0.0
 10
15.4490521796
 20
8.0763786837
 30
0.0
 10
15.4511946872
 20
8.0721271509
 30
0.0
 10
15.45335782
 20
8.0679941055
 30
0.0
 10
15.4555412536
 20
8.0639801655
 30
0.0
 10
15.4577446686
 20
8.060085935
 30
0.0
 10
15.4599677276
 20
8.0563119931
 30
0.0
 10
15.4622101082
 20
8.0526589082
 30
0.0
 10
15.4644714728
 20
8.049127225
 30
0.0
 10
15.4667514853
 20
8.0457174711
 30
0.0
 10
15.4690498148
 20
8.0424301603
 30
0.0
 10
15.471366113
 20
8.0392657791
 30
0.0
 10
15.4737000481
 20
8.0362248066
 30
0.0
 10
15.4760512721
 20
8.0333076954
 30
0.0
 10
15.4784194409
 20
8.0305148827
 30
0.0
 10
15.4808042153
 20
8.0278467928
 30
0.0
 10
15.4832052382
 20
8.0253038216
 30
0.0
 10
15.4856221742
 20
8.0228863587
 30
0.0
 10
15.4880546556
 20
8.0205947781
 30
0.0
 10
15.4905023762
 20
8.0184293914
 30
0.0
 10
15.493751041
 20
8.0157397606
 30
0.0
 10
15.4978506183
 20
8.0126822358
 30
0.0
 10
15.5020813379
 20
8.0099916711
 30
0.0
 10
15.5054878926
 20
8.0081056442
 30
0.0
 10
15.5080320102
 20
8.0068323349
 30
0.0
 10
15.5105883935
 20
8.0056875113
 30
0.0
 10
15.5131566825
 20
8.0046713464
 30
0.0
 10
15.5157364729
 20
8.0037840363
 30
0.0
 10
15.5183273631
 20
8.0030257531
 30
0.0
 10
15.5209289345
 20
8.0023966291
 30
0.0
 10
15.5235407692
 20
8.0018968023
 30
0.0
 10
15.526162435
 20
8.0015263568
 30
0.0
 10
15.5287934984
 20
8.0012853674
 30
0.0
 10
15.5314335205
 20
8.0011738826
 30
0.0
 10
15.5340820606
 20
8.001191904
 30
0.0
 10
15.5367386784
 20
8.0013394362
 30
0.0
 10
15.5394029359
 20
8.0016164257
 30
0.0
 10
15.5420743989
 20
8.0020228136
 30
0.0
 10
15.5447526355
 20
8.002558514
 30
0.0
 10
15.5474372273
 20
8.0032234048
 30
0.0
 10
15.5501277409
 20
8.0040173633
 30
0.0
 10
15.5528238074
 20
8.0049402434
 30
0.0
 10
15.5564589489
 20
8.0063554616
 30
0.0
 10
15.5610215169
 20
8.008458141
 30
0.0
 10
15.5664590076
 20
8.0114705524
 30
0.0
 10
15.5709482682
 20
8.0143732056
 30
0.0
 10
15.5745424491
 20
8.0169400333
 30
0.0
 10
15.5772701426
 20
8.0190134752
 30
0.0
 10
15.579999341
 20
8.021213361
 30
0.0
 10
15.582729696
 20
8.0235394078
 30
0.0
 10
15.5854607503
 20
8.0259912056
 30
0.0
 10
15.5872607714
 20
8.0276896134
 30
0.0
 10
15.5881608856
 20
8.0285590571
 30
0.0
  0
SPLINE
  5
34D
100
AcDbEntity
  8
0
100
AcDbSpline
 62
7
  6
CONTINUOUS
 70
0
 71
3
 72
22
 73
18
 74
0
 42
0.0000001
 43
0.0000001
 44
0.0000000001
 40
0.0
 40
0.0
 40
0.0
 40
0.0
 40
0.053053517
 40
0.1073085721
 40
0.1627816825
 40
0.2194883203
 40
0.2774430696
 40
0.3366589893
 40
0.3971471962
 40
0.4589173943
 40
0.5219780092
 40
0.5863362298
 40
0.6519982024
 40
0.7189688371
 40
0.7872520868
 40
0.8568509473
 40
1.0
 40
1.0
 40
1.0
 40
1.0
 10
15.5881608856
 20
8.0285590571
 30
0.0
 10
15.5890661853
 20
8.0294335095
 30
0.0
 10
15.5908765222
 20
8.0312238396
 30
0.0
 10
15.5935615052
 20
8.0340000536
 30
0.0
 10
15.5962456891
 20
8.036896369
 30
0.0
 10
15.5989286403
 20
8.0399123223
 30
0.0
 10
15.6016099882
 20
8.0430474783
 30
0.0
 10
15.6042893499
 20
8.0463013968
 30
0.0
 10
15.6069663511
 20
8.0496736059
 30
0.0
 10
15.6096405991
 20
8.0531636175
 30
0.0
 10
15.6123117048
 20
8.0567709254
 30
0.0
 10
15.6149792885
 20
8.0604950031
 30
0.0
 10
15.6176429582
 20
8.0643353171
 30
0.0
 10
15.6203023326
 20
8.0682913045
 30
0.0
 10
15.6229570351
 20
8.0723624047
 30
0.0
 10
15.6265232467
 20
8.0779959595
 30
0.0
 10
15.629138989
 20
8.0823134167
 30
0.0
 10
15.6308642979
 20
8.0852386508
 30
0.0
  0
SPLINE
  5
34E
100
AcDbEntity
  8
0
100
AcDbSpline
 62
7
  6
CONTINUOUS
 70
0
 71
3
 72
23
 73
19
 74
0
 42
0.0000001
 43
0.0000001
 44
0.0000000001
 40
0.0
 40
0.0
 40
0.0
 40
0.0
 40
0.0608743355
 40
0.1225123433
 40
0.1847996977
 40
0.2476205051
 40
0.3108575878
 40
0.3743927718
 40
0.4381071766
 40
0.5018814908
 40
0.5655962653
 40
0.6291321884
 40
0.6923703778
 40
0.7551926546
 40
0.8174818421
 40
0.8791220377
 40
0.9399989126
 40
1.0
 40
1.0
 40
1.0
 40
1.0
 10
12.6835358669
 20
9.2869874296
 30
0.0
 10
12.682018659
 20
9.2773498335
 30
0.0
 10
12.6790865639
 20
9.2579344306
 30
0.0
 10
12.6750183337
 20
9.2285967648
 30
0.0
 10
12.671258021
 20
9.1989035405
 30
0.0
 10
12.6678131638
 20
9.1689141156
 30
0.0
 10
12.6646906501
 20
9.1386883658
 30
0.0
 10
12.6618967265
 20
9.1082866612
 30
0.0
 10
12.6594369816
 20
9.0777697192
 30
0.0
 10
12.6573163277
 20
9.04719849
 30
0.0
 10
12.6555390032
 20
9.0166340321
 30
0.0
 10
12.6541085541
 20
8.9861373902
 30
0.0
 10
12.6530278289
 20
8.9557694745
 30
0.0
 10
12.6522989803
 20
8.925590934
 30
0.0
 10
12.6519234475
 20
8.8956620454
 30
0.0
 10
12.6519019651
 20
8.8660425615
 30
0.0
 10
12.6522345556
 20
8.8367916966
 30
0.0
 10
12.6526954934
 20
8.8174235393
 30
0.0
 10
12.6529863919
 20
8.8078116059
 30
0.0
  0
SPLINE
  5
34F
100
AcDbEntity
  8
0
100
AcDbSpline
 62
7
  6
CONTINUOUS
 70
0
 71
3
 72
18
 73
14
 74
0
 42
0.0000001
 43
0.0000001
 44
0.0000000001
 40
0.0
 40
0.0
 40
0.0
 40
0.0
 40
0.1480356372
 40
0.2876662502
 40
0.4195655771
 40
0.4828973127
 40
0.5446380375
 40
0.6638657774
 40
0.7785237916
 40
0.8345984481
 40
0.8900706527
 40
0.9451373023
 40
1.0
 40
1.0
 40
1.0
 40
1.0
 10
7.6344394788
 20
10.6489202231
 30
0.0
 10
7.635382361
 20
10.6498309773
 30
0.0
 10
7.6371593147
 20
10.6516596222
 30
0.0
 10
7.6395485486
 20
10.6545094716
 30
0.0
 10
7.6412622968
 20
10.6569346168
 30
0.0
 10
7.642442503
 20
10.6588811748
 30
0.0
 10
7.6434732189
 20
10.6607840467
 30
0.0
 10
7.6445443029
 20
10.6631784671
 30
0.0
 10
7.6453263911
 20
10.6656307552
 30
0.0
 10
7.6457605362
 20
10.6675873666
 30
0.0
 10
7.6459915358
 20
10.6690455986
 30
0.0
 10
7.6461301425
 20
10.6705046345
 30
0.0
 10
7.6461609642
 20
10.6714783843
 30
0.0
 10
7.6461609594
 20
10.6719642158
 30
0.0
  0
SPLINE
  5
350
100
AcDbEntity
  8
0
100
AcDbSpline
 62
7
  6
CONTINUOUS
 70
0
 71
3
 72
18
 73
14
 74
0
 42
0.0000001
 43
0.0000001
 44
0.0000000001
 40
0.0
 40
0.0
 40
0.0
 40
0.0
 40
0.1480356372
 40
0.2876662502
 40
0.4195655771
 40
0.4828973127
 40
0.5446380375
 40
0.6638657774
 40
0.7785237916
 40
0.8345984481
 40
0.8900706527
 40
0.9451373023
 40
1.0
 40
1.0
 40
1.0
 40
1.0
 10
14.1563709619
 20
10.1966227385
 30
0.0
 10
14.1573138441
 20
10.1975334928
 30
0.0
 10
14.1590907978
 20
10.1993621376
 30
0.0
 10
14.1614800317
 20
10.202211987
 30
0.0
 10
14.1631937799
 20
10.2046371322
 30
0.0
 10
14.1643739861
 20
10.2065836902
 30
0.0
 10
14.165404702
 20
10.2084865621
 30
0.0
 10
14.166475786
 20
10.2108809825
 30
0.0
 10
14.1672578742
 20
10.2133332706
 30
0.0
 10
14.1676920193
 20
10.215289882
 30
0.0
 10
14.1679230189
 20
10.216748114
 30
0.0
 10
14.1680616256
 20
10.2182071499
 30
0.0
 10
14.1680924473
 20
10.2191808998
 30
0.0
 10
14.1680924425
 20
10.2196667313
 30
0.0
  0
SPLINE
  5
351
100
AcDbEntity
  8
0
100
AcDbSpline
 62
7
  6
CONTINUOUS
 70
0
 71
3
 72
26
 73
22
 74
0
 42
0.0000001
 43
0.0000001
 44
0.0000000001
 40
0.0
 40
0.0
 40
0.0
 40
0.0
 40
0.064763614
 40
0.1303281264
 40
0.1964577444
 40
0.2629127684
 40
0.3294526685
 40
0.3958363032
 40
0.4618233107
 40
0.5271751411
 40
0.5916561891
 40
0.6550349124
 40
0.7170849725
 40
0.7775863937
 40
0.8363267544
 40
0.8649729325
 40
0.8931032394
 40
0.9206938694
 40
0.9477216316
 40
0.9741642016
 40
1.0
 40
1.0
 40
1.0
 40
1.0
 10
14.9610323509
 20
7.0716438659
 30
0.0
 10
14.9610323509
 20
7.0905223555
 30
0.0
 10
14.9613508204
 20
7.1285134836
 30
0.0
 10
14.962756673
 20
7.1857656512
 30
0.0
 10
14.9650888105
 20
7.2434811272
 30
0.0
 10
14.9683383209
 20
7.3014369195
 30
0.0
 10
14.9724926533
 20
7.3594091264
 30
0.0
 10
14.9775357693
 20
7.4171738558
 30
0.0
 10
14.9834481505
 20
7.4745079928
 30
0.0
 10
14.9902068968
 20
7.5311901058
 30
0.0
 10
14.9977858047
 20
7.587001304
 30
0.0
 10
15.0061554724
 20
7.641726072
 30
0.0
 10
15.0152833983
 20
7.6951531962
 30
0.0
 10
15.0251341391
 20
7.7470762989
 30
0.0
 10
15.0339856868
 20
7.7892701042
 30
0.0
 10
15.0414112531
 20
7.8221146761
 30
0.0
 10
15.0470902024
 20
7.8460434013
 30
0.0
 10
15.0529197631
 20
7.869449997
 30
0.0
 10
15.0588943981
 20
7.892311893
 30
0.0
 10
15.0650082298
 20
7.9146069668
 30
0.0
 10
15.0692230771
 20
7.9292520801
 30
0.0
 10
15.0713542527
 20
7.9364753387
 30
0.0
  0
SPLINE
  5
352
100
AcDbEntity
  8
0
100
AcDbSpline
 62
7
  6
CONTINUOUS
 70
0
 71
3
 72
59
 73
55
 74
0
 42
0.0000001
 43
0.0000001
 44
0.0000000001
 40
0.0
 40
0.0
 40
0.0
 40
0.0
 40
0.0417736767
 40
0.0840362765
 40
0.1266574811
 40
0.1695051262
 40
0.2124463914
 40
0.2553479967
 40
0.2980768488
 40
0.3405005256
 40
0.3824878146
 40
0.4239092383
 40
0.464637589
 40
0.5045484688
 40
0.5435208413
 40
0.5814375992
 40
0.6181861539
 40
0.6360888024
 40
0.6536595531
 40
0.6708859017
 40
0.6877557363
 40
0.7042573867
 40
0.720379648
 40
0.7361117919
 40
0.7514436399
 40
0.7663655339
 40
0.7808684645
 40
0.7949440033
 40
0.8085844873
 40
0.8217829218
 40
0.83453322
 40
0.8468300923
 40
0.8586693371
 40
0.8700477415
 40
0.8809634199
 40
0.8914157604
 40
0.9014058112
 40
0.9109363168
 40
0.9200121632
 40
0.9286405545
 40
0.9368315416
 40
0.9445983908
 40
0.9519582219
 40
0.9589325919
 40
0.9655482195
 40
0.9718376843
 40
0.9778400275
 40
0.9836011664
 40
0.9864084736
 40
0.9891757902
 40
0.9919106587
 40
0.9946209114
 40
0.9973146138
 40
1.0
 40
1.0
 40
1.0
 40
1.0
 10
14.6048976414
 20
8.659495899
 30
0.0
 10
14.6048976414
 20
8.6781517658
 30
0.0
 10
14.6051886928
 20
8.7156824358
 30
0.0
 10
14.6064753777
 20
8.7722342146
 30
0.0
 10
14.6086109588
 20
8.8292403586
 30
0.0
 10
14.6115884352
 20
8.8865121632
 30
0.0
 10
14.6153979677
 20
8.9438601442
 30
0.0
 10
14.6200269642
 20
9.0010945805
 30
0.0
 10
14.6254600902
 20
9.058026115
 30
0.0
 10
14.6316793353
 20
9.1144664054
 30
0.0
 10
14.638664065
 20
9.1702287438
 30
0.0
 10
14.6463910914
 20
9.2251286807
 30
0.0
 10
14.6548347471
 20
9.2789846463
 30
0.0
 10
14.6639669708
 20
9.3316185366
 30
0.0
 10
14.6737573902
 20
9.3828563896
 30
0.0
 10
14.684173451
 20
9.4325286935
 30
0.0
 10
14.6934244801
 20
9.4728236108
 30
0.0
 10
14.7011235028
 20
9.5041456442
 30
0.0
 10
14.7069819615
 20
9.5269407032
 30
0.0
 10
14.7129698832
 20
9.5492248325
 30
0.0
 10
14.7190823456
 20
9.5709796231
 30
0.0
 10
14.7253142675
 20
9.5921870859
 30
0.0
 10
14.731660476
 20
9.6128296932
 30
0.0
 10
14.7381157273
 20
9.6328903853
 30
0.0
 10
14.7446746357
 20
9.6523525938
 30
0.0
 10
14.7513318085
 20
9.6712002416
 30
0.0
 10
14.7580816672
 20
9.6894177799
 30
0.0
 10
14.7649186891
 20
9.7069901692
 30
0.0
 10
14.7718371249
 20
9.723902938
 30
0.0
 10
14.778831341
 20
9.7401421368
 30
0.0
 10
14.7858954445
 20
9.7556944273
 30
0.0
 10
14.7930237113
 20
9.7705470011
 30
0.0
 10
14.8002101389
 20
9.7846877062
 30
0.0
 10
14.8074489366
 20
9.7981049255
 30
0.0
 10
14.8147340375
 20
9.8107877429
 30
0.0
 10
14.8220596167
 20
9.8227257808
 30
0.0
 10
14.8294196048
 20
9.8339094005
 30
0.0
 10
14.836808193
 20
9.8443295055
 30
0.0
 10
14.8442193969
 20
9.8539777578
 30
0.0
 10
14.8516475053
 20
9.8628463582
 30
0.0
 10
14.8590867404
 20
9.870928244
 30
0.0
 10
14.8665316073
 20
9.878216861
 30
0.0
 10
14.8739766725
 20
9.8847062779
 30
0.0
 10
14.881416777
 20
9.8903909741
 30
0.0
 10
14.8888468258
 20
9.8952657769
 30
0.0
 10
14.8962620256
 20
9.8993257655
 30
0.0
 10
14.9036566384
 20
9.9025658931
 30
0.0
 10
14.9098516256
 20
9.9045963446
 30
0.0
 10
14.9147730381
 20
9.9057917293
 30
0.0
 10
14.9184226397
 20
9.9064741048
 30
0.0
 10
14.9220611775
 20
9.9069496569
 30
0.0
 10
14.9256879577
 20
9.9072182635
 30
0.0
 10
14.9293019584
 20
9.9072797595
 30
0.0
 10
14.9317038298
 20
9.907182586
 30
0.0
 10
14.9329002334
 20
9.9070996181
 30
0.0
  0
SPLINE
  5
353
100
AcDbEntity
  8
0
100
AcDbSpline
 62
7
  6
CONTINUOUS
 70
0
 71
3
 72
11
 73
7
 74
0
 42
0.0000001
 43
0.0000001
 44
0.0000000001
 40
0.0
 40
0.0
 40
0.0
 40
0.0
 40
0.2482743511
 40
0.4976701747
 40
0.7482477442
 40
1.0
 40
1.0
 40
1.0
 40
1.0
 10
9.8877289128
 20
9.0711381168
 30
0.0
 10
9.8796642051
 20
9.0701893162
 30
0.0
 10
9.8634520443
 20
9.068660833
 30
0.0
 10
9.8389999091
 20
9.0674727105
 30
0.0
 10
9.8144054706
 20
9.0673811596
 30
0.0
 10
9.7979829942
 20
9.0680473774
 30
0.0
 10
9.7897649374
 20
9.0685608197
 30
0.0
  0
SPLINE
  5
354
100
AcDbEntity
  8
0
100
AcDbSpline
 62
7
  6
CONTINUOUS
 70
0
 71
3
 72
9
 73
5
 74
0
 42
0.0000001
 43
0.0000001
 44
0.0000000001
 40
0.0
 40
0.0
 40
0.0
 40
0.0
 40
0.5085720597
 40
1.0
 40
1.0
 40
1.0
 40
1.0
 10
12.130160537
 20
9.4380462892
 30
0.0
 10
12.1334387156
 20
9.4543612616
 30
0.0
 10
12.141183842
 20
9.4861923862
 30
0.0
 10
12.1512738195
 20
9.5173502425
 30
0.0
 10
12.1567496341
 20
9.5324692533
 30
0.0
  0
SPLINE
  5
355
100
AcDbEntity
  8
0
100
AcDbSpline
 62
7
  6
CONTINUOUS
 70
0
 71
3
 72
35
 73
31
 74
0
 42
0.0000001
 43
0.0000001
 44
0.0000000001
 40
0.0
 40
0.0
 40
0.0
 40
0.0
 40
0.0638928011
 40
0.1278440432
 40
0.1598379804
 40
0.1918351014
 40
0.2238317211
 40
0.255824287
 40
0.2878087971
 40
0.3197807272
 40
0.3517351485
 40
0.3836661871
 40
0.4155671095
 40
0.4474302038
 40
0.4792465523
 40
0.5110061792
 40
0.5426978814
 40
0.574309299
 40
0.6058271315
 40
0.6372370673
 40
0.6685241364
 40
0.6996727688
 40
0.7306668363
 40
0.7614902918
 40
0.7921268236
 40
0.8225600978
 40
0.8527743832
 40
0.882753616
 40
0.9419370665
 40
1.0
 40
1.0
 40
1.0
 40
1.0
 10
12.3742593941
 20
8.8854656091
 30
0.0
 10
12.3623545662
 20
8.8924007898
 30
0.0
 10
12.3390375861
 20
8.9071628483
 30
0.0
 10
12.3113620486
 20
8.9277650576
 30
0.0
 10
12.2902194709
 20
8.9454984171
 30
0.0
 10
12.2748899244
 20
8.959414531
 30
0.0
 10
12.2601244915
 20
8.9739272168
 30
0.0
 10
12.2459549866
 20
8.9890188296
 30
0.0
 10
12.2324130614
 20
9.0046691243
 30
0.0
 10
12.2195291123
 20
9.020855036
 30
0.0
 10
12.2073328066
 20
9.0375510587
 30
0.0
 10
12.1958518658
 20
9.0547285218
 30
0.0
 10
12.1851119399
 20
9.0723557848
 30
0.0
 10
12.1751366264
 20
9.0903985296
 30
0.0
 10
12.1659460351
 20
9.1088193134
 30
0.0
 10
12.1575570569
 20
9.1275782113
 30
0.0
 10
12.1499831384
 20
9.1466331475
 30
0.0
 10
12.1432329698
 20
9.1659399057
 30
0.0
 10
12.1373111472
 20
9.1854530173
 30
0.0
 10
12.1322179629
 20
9.2051262354
 30
0.0
 10
12.1279484625
 20
9.2249128702
 30
0.0
 10
12.1244935659
 20
9.2447666643
 30
0.0
 10
12.1218399394
 20
9.2646422709
 30
0.0
 10
12.119969571
 20
9.2844956679
 30
0.0
 10
12.118861262
 20
9.304284807
 30
0.0
 10
12.1184902893
 20
9.3239698001
 30
0.0
 10
12.1188288175
 20
9.3435135441
 30
0.0
 10
12.120180502
 20
9.3692244655
 30
0.0
 10
12.1234659573
 20
9.4008259565
 30
0.0
 10
12.1276940909
 20
9.4257711801
 30
0.0
 10
12.130160537
 20
9.4380462892
 30
0.0
  0
SPLINE
  5
356
100
AcDbEntity
  8
0
100
AcDbSpline
 62
7
  6
CONTINUOUS
 70
0
 71
3
 72
23
 73
19
 74
0
 42
0.0000001
 43
0.0000001
 44
0.0000000001
 40
0.0
 40
0.0
 40
0.0
 40
0.0
 40
0.0607633992
 40
0.1217404448
 40
0.1829583635
 40
0.2444355751
 40
0.3061819552
 40
0.3681993289
 40
0.4304823382
 40
0.4930194335
 40
0.5557940912
 40
0.6187861356
 40
0.6819729179
 40
0.7453304732
 40
0.8088349044
 40
0.8724617989
 40
0.9361914819
 40
1.0
 40
1.0
 40
1.0
 40
1.0
 10
12.7752589668
 20
8.8200194608
 30
0.0
 10
12.7670388824
 20
8.8182028592
 30
0.0
 10
12.7504769008
 20
8.8149703651
 30
0.0
 10
12.7253817294
 20
8.811333837
 30
0.0
 10
12.7000415361
 20
8.8089020185
 30
0.0
 10
12.6745081813
 20
8.8076747164
 30
0.0
 10
12.6488347279
 20
8.8076503883
 30
0.0
 10
12.6230766212
 20
8.8088264752
 30
0.0
 10
12.5972911927
 20
8.8111993121
 30
0.0
 10
12.5715375398
 20
8.8147641588
 30
0.0
 10
12.5458762615
 20
8.819515232
 30
0.0
 10
12.5203692286
 20
8.8254457468
 30
0.0
 10
12.4950793768
 20
8.8325479225
 30
0.0
 10
12.470070474
 20
8.8408129984
 30
0.0
 10
12.4454072581
 20
8.8502311832
 30
0.0
 10
12.421154513
 20
8.8607916248
 30
0.0
 10
12.3973791947
 20
8.8724818606
 30
0.0
 10
12.3818980603
 20
8.8810156892
 30
0.0
 10
12.3742593941
 20
8.8854656091
 30
0.0
  0
SPLINE
  5
357
100
AcDbEntity
  8
0
100
AcDbSpline
 62
7
  6
CONTINUOUS
 70
0
 71
3
 72
45
 73
41
 74
0
 42
0.0000001
 43
0.0000001
 44
0.0000000001
 40
0.0
 40
0.0
 40
0.0
 40
0.0
 40
0.0149721381
 40
0.0299473346
 40
0.044928632
 40
0.0599190307
 40
0.0749214812
 40
0.0899388562
 40
0.1049739397
 40
0.1200294107
 40
0.1351078199
 40
0.150211588
 40
0.1653429773
 40
0.1805040913
 40
0.2109173718
 40
0.2414702801
 40
0.2721727304
 40
0.3030312331
 40
0.3340487993
 40
0.3652249271
 40
0.3965556655
 40
0.4280337497
 40
0.4596488009
 40
0.4913875843
 40
0.5232343171
 40
0.5551710159
 40
0.58717788
 40
0.6192337013
 40
0.6513162944
 40
0.6834029425
 40
0.7154708481
 40
0.7474975866
 40
0.7794615529
 40
0.8113423977
 40
0.8431214456
 40
0.8747820945
 40
0.9063101442
 40
0.9376942752
 40
0.9689257409
 40
1.0
 40
1.0
 40
1.0
 40
1.0
 10
8.9611924309
 20
9.5964224821
 30
0.0
 10
8.9658545695
 20
9.6009257664
 30
0.0
 10
8.9753599679
 20
9.6097488557
 30
0.0
 10
8.9901342134
 20
9.6224079534
 30
0.0
 10
9.0054059777
 20
9.634475437
 30
0.0
 10
9.0211538793
 20
9.6459345055
 30
0.0
 10
9.0373563227
 20
9.6567694764
 30
0.0
 10
9.0539910473
 20
9.6669653247
 30
0.0
 10
9.0710350634
 20
9.6765082056
 30
0.0
 10
9.0884650199
 20
9.6853847849
 30
0.0
 10
9.1062568547
 20
9.693583057
 30
0.0
 10
9.1243860475
 20
9.7010916028
 30
0.0
 10
9.1428279973
 20
9.7079002164
 30
0.0
 10
9.1678227717
 20
9.7160402284
 30
0.0
 10
9.1997348433
 20
9.7244184008
 30
0.0
 10
9.2388166224
 20
9.7315314477
 30
0.0
 10
9.2785178866
 20
9.7356780554
 30
0.0
 10
9.3186186714
 20
9.7368354079
 30
0.0
 10
9.3588988379
 20
9.7349978026
 30
0.0
 10
9.399136861
 20
9.7301757994
 30
0.0
 10
9.4391116858
 20
9.7223963698
 30
0.0
 10
9.4786037499
 20
9.7117026733
 30
0.0
 10
9.5173962317
 20
9.6981538522
 30
0.0
 10
9.555276205
 20
9.6818246554
 30
0.0
 10
9.5920357933
 20
9.6628050278
 30
0.0
 10
9.627473292
 20
9.6411996133
 30
0.0
 10
9.6613942602
 20
9.6171271834
 30
0.0
 10
9.6936125691
 20
9.5907199853
 30
0.0
 10
9.7239514327
 20
9.5621230474
 30
0.0
 10
9.752244358
 20
9.531493371
 30
0.0
 10
9.7783360403
 20
9.4989990686
 30
0.0
 10
9.8020832079
 20
9.4648184532
 30
0.0
 10
9.8233554008
 20
9.4291390743
 30
0.0
 10
9.842035676
 20
9.3921566927
 30
0.0
 10
9.8580212684
 20
9.3540742543
 30
0.0
 10
9.871224141
 20
9.3151007031
 30
0.0
 10
9.8815715258
 20
9.2754501458
 30
0.0
 10
9.8890061044
 20
9.235339571
 30
0.0
 10
9.8934868113
 20
9.1949920744
 30
0.0
 10
9.8944903732
 20
9.1680076281
 30
0.0
 10
9.8944903732
 20
9.154554611
 30
0.0
  0
SPLINE
  5
358
100
AcDbEntity
  8
0
100
AcDbSpline
 62
7
  6
CONTINUOUS
 70
0
 71
3
 72
24
 73
20
 74
0
 42
0.0000001
 43
0.0000001
 44
0.0000000001
 40
0.0
 40
0.0
 40
0.0
 40
0.0
 40
0.0617098353
 40
0.1234407738
 40
0.1852137086
 40
0.2470491059
 40
0.2779989826
 40
0.3089718424
 40
0.3709907986
 40
0.4331289968
 40
0.4954032096
 40
0.5578288482
 40
0.6204198348
 40
0.6831883877
 40
0.7461451742
 40
0.8092989976
 40
0.8726556328
 40
0.9362235592
 40
1.0
 40
1.0
 40
1.0
 40
1.0
 10
9.7420876225
 20
8.7879803387
 30
0.0
 10
9.7481221247
 20
8.7938092259
 30
0.0
 10
9.7598953947
 20
8.8057818865
 30
0.0
 10
9.7766115278
 20
8.8246287102
 30
0.0
 10
9.7923484908
 20
8.8443228081
 30
0.0
 10
9.8046128806
 20
8.8613981445
 30
0.0
 10
9.8138979156
 20
8.8754321162
 30
0.0
 10
9.8228347395
 20
8.8897198036
 30
0.0
 10
9.8333315916
 20
8.9080247702
 30
0.0
 10
9.8448114793
 20
8.9306347777
 30
0.0
 10
9.8551548825
 20
8.9538475852
 30
0.0
 10
9.8643377285
 20
8.9776093181
 30
0.0
 10
9.8723389901
 20
9.0018652454
 30
0.0
 10
9.8791402981
 20
9.0265594025
 30
0.0
 10
9.8847260098
 20
9.0516349047
 30
0.0
 10
9.8890831883
 20
9.077033783
 30
0.0
 10
9.8922021308
 20
9.1026980168
 30
0.0
 10
9.8940753236
 20
9.1285672794
 30
0.0
 10
9.8944903732
 20
9.1458836965
 30
0.0
 10
9.8944903732
 20
9.154554611
 30
0.0
  0
SPLINE
  5
359
100
AcDbEntity
  8
0
100
AcDbSpline
 62
7
  6
CONTINUOUS
 70
0
 71
3
 72
15
 73
11
 74
0
 42
0.0000001
 43
0.0000001
 44
0.0000000001
 40
0.0
 40
0.0
 40
0.0
 40
0.0
 40
0.1266094519
 40
0.2525280965
 40
0.3778672687
 40
0.5027416999
 40
0.6272697149
 40
0.7515730916
 40
0.8757751334
 40
1.0
 40
1.0
 40
1.0
 40
1.0
 10
9.7654323266
 20
9.5144295098
 30
0.0
 10
9.7580393412
 20
9.518931879
 30
0.0
 10
9.7434719819
 20
9.5282090328
 30
0.0
 10
9.7222733817
 20
9.5429876012
 30
0.0
 10
9.701827512
 20
9.5585980714
 30
0.0
 10
9.6821752177
 20
9.5750495341
 30
0.0
 10
9.6633610497
 20
9.5923497262
 30
0.0
 10
9.6454339764
 20
9.6105042235
 30
0.0
 10
9.6284482073
 20
9.6295144939
 30
0.0
 10
9.6177936336
 20
9.6427533575
 30
0.0
 10
9.6126464348
 20
9.6495089541
 30
0.0
  0
SPLINE
  5
35A
100
AcDbEntity
  8
0
100
AcDbSpline
 62
7
  6
CONTINUOUS
 70
0
 71
3
 72
45
 73
41
 74
0
 42
0.0000001
 43
0.0000001
 44
0.0000000001
 40
0.0
 40
0.0
 40
0.0
 40
0.0
 40
0.0149721381
 40
0.0299473346
 40
0.044928632
 40
0.0599190307
 40
0.0749214812
 40
0.0899388562
 40
0.1049739397
 40
0.1200294107
 40
0.1351078199
 40
0.150211588
 40
0.1653429773
 40
0.1805040913
 40
0.2109173718
 40
0.2414702801
 40
0.2721727304
 40
0.3030312331
 40
0.3340487993
 40
0.3652249271
 40
0.3965556655
 40
0.4280337497
 40
0.4596488009
 40
0.4913875843
 40
0.5232343171
 40
0.5551710159
 40
0.58717788
 40
0.6192337013
 40
0.6513162944
 40
0.6834029425
 40
0.7154708481
 40
0.7474975866
 40
0.7794615529
 40
0.8113423977
 40
0.8431214456
 40
0.8747820945
 40
0.9063101442
 40
0.9376942752
 40
0.9689257409
 40
1.0
 40
1.0
 40
1.0
 40
1.0
 10
11.8589700815
 20
9.3954609194
 30
0.0
 10
11.8636322201
 20
9.3999642038
 30
0.0
 10
11.8731376185
 20
9.408787293
 30
0.0
 10
11.887911864
 20
9.4214463908
 30
0.0
 10
11.9031836283
 20
9.4335138744
 30
0.0
 10
11.9189315298
 20
9.4449729429
 30
0.0
 10
11.9351339733
 20
9.4558079138
 30
0.0
 10
11.9517686978
 20
9.4660037621
 30
0.0
 10
11.968812714
 20
9.475546643
 30
0.0
 10
11.9862426704
 20
9.4844232223
 30
0.0
 10
12.0040345052
 20
9.4926214943
 30
0.0
 10
12.0221636981
 20
9.5001300402
 30
0.0
 10
12.0406056479
 20
9.5069386538
 30
0.0
 10
12.0656004222
 20
9.5150786658
 30
0.0
 10
12.0975124939
 20
9.5234568382
 30
0.0
 10
12.1365942729
 20
9.530569885
 30
0.0
 10
12.1762955371
 20
9.5347164928
 30
0.0
 10
12.216396322
 20
9.5358738453
 30
0.0
 10
12.2566764885
 20
9.53403624
 30
0.0
 10
12.2969145116
 20
9.5292142368
 30
0.0
 10
12.3368893363
 20
9.5214348071
 30
0.0
 10
12.3763814004
 20
9.5107411107
 30
0.0
 10
12.4151738823
 20
9.4971922896
 30
0.0
 10
12.4530538556
 20
9.4808630928
 30
0.0
 10
12.4898134438
 20
9.4618434652
 30
0.0
 10
12.5252509425
 20
9.4402380507
 30
0.0
 10
12.5591719108
 20
9.4161656208
 30
0.0
 10
12.5913902197
 20
9.3897584226
 30
0.0
 10
12.6217290833
 20
9.3611614848
 30
0.0
 10
12.6500220085
 20
9.3305318084
 30
0.0
 10
12.6761136909
 20
9.2980375059
 30
0.0
 10
12.6998608584
 20
9.2638568906
 30
0.0
 10
12.7211330513
 20
9.2281775117
 30
0.0
 10
12.7398133265
 20
9.1911951301
 30
0.0
 10
12.755798919
 20
9.1531126916
 30
0.0
 10
12.7690017915
 20
9.1141391405
 30
0.0
 10
12.7793491763
 20
9.0744885832
 30
0.0
 10
12.786783755
 20
9.0343780083
 30
0.0
 10
12.7912644619
 20
8.9940305118
 30
0.0
 10
12.7922680238
 20
8.9670460654
 30
0.0
 10
12.7922680238
 20
8.9535930484
 30
0.0
  0
SPLINE
  5
35B
100
AcDbEntity
  8
0
100
AcDbSpline
 62
7
  6
CONTINUOUS
 70
0
 71
3
 72
24
 73
20
 74
0
 42
0.0000001
 43
0.0000001
 44
0.0000000001
 40
0.0
 40
0.0
 40
0.0
 40
0.0
 40
0.0617098353
 40
0.1234407738
 40
0.1852137086
 40
0.2470491059
 40
0.2779989826
 40
0.3089718424
 40
0.3709907986
 40
0.4331289968
 40
0.4954032096
 40
0.5578288482
 40
0.6204198348
 40
0.6831883877
 40
0.7461451742
 40
0.8092989976
 40
0.8726556328
 40
0.9362235592
 40
1.0
 40
1.0
 40
1.0
 40
1.0
 10
12.639865273
 20
8.5870187761
 30
0.0
 10
12.6458997753
 20
8.5928476633
 30
0.0
 10
12.6576730452
 20
8.6048203238
 30
0.0
 10
12.6743891783
 20
8.6236671476
 30
0.0
 10
12.6901261414
 20
8.6433612455
 30
0.0
 10
12.7023905311
 20
8.6604365818
 30
0.0
 10
12.7116755662
 20
8.6744705536
 30
0.0
 10
12.7206123901
 20
8.688758241
 30
0.0
 10
12.7311092422
 20
8.7070632075
 30
0.0
 10
12.7425891299
 20
8.7296732151
 30
0.0
 10
12.7529325331
 20
8.7528860226
 30
0.0
 10
12.762115379
 20
8.7766477555
 30
0.0
 10
12.7701166406
 20
8.8009036828
 30
0.0
 10
12.7769179487
 20
8.8255978399
 30
0.0
 10
12.7825036604
 20
8.8506733421
 30
0.0
 10
12.7868608389
 20
8.8760722204
 30
0.0
 10
12.7899797814
 20
8.9017364542
 30
0.0
 10
12.7918529742
 20
8.9276057168
 30
0.0
 10
12.7922680238
 20
8.9449221339
 30
0.0
 10
12.7922680238
 20
8.9535930484
 30
0.0
  0
SPLINE
  5
35C
100
AcDbEntity
  8
0
100
AcDbSpline
 62
7
  6
CONTINUOUS
 70
0
 71
3
 72
45
 73
41
 74
0
 42
0.0000001
 43
0.0000001
 44
0.0000000001
 40
0.0
 40
0.0
 40
0.0
 40
0.0
 40
0.0149721381
 40
0.0299473346
 40
0.044928632
 40
0.0599190307
 40
0.0749214812
 40
0.0899388562
 40
0.1049739397
 40
0.1200294107
 40
0.1351078199
 40
0.150211588
 40
0.1653429773
 40
0.1805040913
 40
0.2109173718
 40
0.2414702801
 40
0.2721727304
 40
0.3030312331
 40
0.3340487993
 40
0.3652249271
 40
0.3965556655
 40
0.4280337497
 40
0.4596488009
 40
0.4913875843
 40
0.5232343171
 40
0.5551710159
 40
0.58717788
 40
0.6192337013
 40
0.6513162944
 40
0.6834029425
 40
0.7154708481
 40
0.7474975866
 40
0.7794615529
 40
0.8113423977
 40
0.8431214456
 40
0.8747820945
 40
0.9063101442
 40
0.9376942752
 40
0.9689257409
 40
1.0
 40
1.0
 40
1.0
 40
1.0
 10
11.1325939571
 20
7.0310205659
 30
0.0
 10
11.1372560957
 20
7.0355238503
 30
0.0
 10
11.1467614941
 20
7.0443469396
 30
0.0
 10
11.1615357396
 20
7.0570060373
 30
0.0
 10
11.1768075039
 20
7.0690735209
 30
0.0
 10
11.1925554054
 20
7.0805325894
 30
0.0
 10
11.2087578489
 20
7.0913675603
 30
0.0
 10
11.2253925734
 20
7.1015634086
 30
0.0
 10
11.2424365896
 20
7.1111062895
 30
0.0
 10
11.259866546
 20
7.1199828688
 30
0.0
 10
11.2776583809
 20
7.1281811408
 30
0.0
 10
11.2957875737
 20
7.1356896867
 30
0.0
 10
11.3142295235
 20
7.1424983003
 30
0.0
 10
11.3392242979
 20
7.1506383123
 30
0.0
 10
11.3711363695
 20
7.1590164847
 30
0.0
 10
11.4102181485
 20
7.1661295315
 30
0.0
 10
11.4499194127
 20
7.1702761393
 30
0.0
 10
11.4900201976
 20
7.1714334918
 30
0.0
 10
11.5303003641
 20
7.1695958865
 30
0.0
 10
11.5705383872
 20
7.1647738833
 30
0.0
 10
11.6105132119
 20
7.1569944536
 30
0.0
 10
11.650005276
 20
7.1463007572
 30
0.0
 10
11.6887977579
 20
7.1327519361
 30
0.0
 10
11.7266777312
 20
7.1164227393
 30
0.0
 10
11.7634373195
 20
7.0974031117
 30
0.0
 10
11.7988748181
 20
7.0757976972
 30
0.0
 10
11.8327957864
 20
7.0517252673
 30
0.0
 10
11.8650140953
 20
7.0253180692
 30
0.0
 10
11.8953529589
 20
6.9967211313
 30
0.0
 10
11.9236458842
 20
6.9660914549
 30
0.0
 10
11.9497375665
 20
6.9335971524
 30
0.0
 10
11.973484734
 20
6.8994165371
 30
0.0
 10
11.994756927
 20
6.8637371582
 30
0.0
 10
12.0134372021
 20
6.8267547766
 30
0.0
 10
12.0294227946
 20
6.7886723382
 30
0.0
 10
12.0426256671
 20
6.749698787
 30
0.0
 10
12.0529730519
 20
6.7100482297
 30
0.0
 10
12.0604076306
 20
6.6699376548
 30
0.0
 10
12.0648883375
 20
6.6295901583
 30
0.0
 10
12.0658918994
 20
6.602605712
 30
0.0
 10
12.0658918994
 20
6.5891526949
 30
0.0
  0
SPLINE
  5
35D
100
AcDbEntity
  8
0
100
AcDbSpline
 62
7
  6
CONTINUOUS
 70
0
 71
3
 72
24
 73
20
 74
0
 42
0.0000001
 43
0.0000001
 44
0.0000000001
 40
0.0
 40
0.0
 40
0.0
 40
0.0
 40
0.0617098353
 40
0.1234407738
 40
0.1852137086
 40
0.2470491059
 40
0.2779989826
 40
0.3089718424
 40
0.3709907986
 40
0.4331289968
 40
0.4954032096
 40
0.5578288482
 40
0.6204198348
 40
0.6831883877
 40
0.7461451742
 40
0.8092989976
 40
0.8726556328
 40
0.9362235592
 40
1.0
 40
1.0
 40
1.0
 40
1.0
 10
11.9134891486
 20
6.2225784226
 30
0.0
 10
11.9195236509
 20
6.2284073098
 30
0.0
 10
11.9312969208
 20
6.2403799704
 30
0.0
 10
11.9480130539
 20
6.2592267941
 30
0.0
 10
11.963750017
 20
6.278920892
 30
0.0
 10
11.9760144067
 20
6.2959962283
 30
0.0
 10
11.9852994418
 20
6.3100302001
 30
0.0
 10
11.9942362657
 20
6.3243178875
 30
0.0
 10
12.0047331178
 20
6.3426228541
 30
0.0
 10
12.0162130055
 20
6.3652328616
 30
0.0
 10
12.0265564087
 20
6.3884456691
 30
0.0
 10
12.0357392547
 20
6.412207402
 30
0.0
 10
12.0437405162
 20
6.4364633293
 30
0.0
 10
12.0505418243
 20
6.4611574864
 30
0.0
 10
12.056127536
 20
6.4862329886
 30
0.0
 10
12.0604847145
 20
6.5116318669
 30
0.0
 10
12.063603657
 20
6.5372961007
 30
0.0
 10
12.0654768498
 20
6.5631653633
 30
0.0
 10
12.0658918994
 20
6.5804817804
 30
0.0
 10
12.0658918994
 20
6.5891526949
 30
0.0
  0
SPLINE
  5
35E
100
AcDbEntity
  8
0
100
AcDbSpline
 62
7
  6
CONTINUOUS
 70
0
 71
3
 72
15
 73
11
 74
0
 42
0.0000001
 43
0.0000001
 44
0.0000000001
 40
0.0
 40
0.0
 40
0.0
 40
0.0
 40
0.1266094569
 40
0.2525281
 40
0.3778672676
 40
0.5027416998
 40
0.6272697177
 40
0.7515730935
 40
0.8757751353
 40
1.0
 40
1.0
 40
1.0
 40
1.0
 10
11.9368342355
 20
6.9490273607
 30
0.0
 10
11.9294412591
 20
6.9535297174
 30
0.0
 10
11.9148739171
 20
6.9628068449
 30
0.0
 10
11.89367534
 20
6.9775853707
 30
0.0
 10
11.8732294901
 20
6.9931957951
 30
0.0
 10
11.8535772111
 20
7.0096472091
 30
0.0
 10
11.834763054
 20
7.02694735
 30
0.0
 10
11.8168359867
 20
7.0451017934
 30
0.0
 10
11.7998502186
 20
7.0641120071
 30
0.0
 10
11.7891956421
 20
7.0773508316
 30
0.0
 10
11.7840484407
 20
7.0841064083
 30
0.0
  0
SPLINE
  5
35F
100
AcDbEntity
  8
0
100
AcDbSpline
 62
7
  6
CONTINUOUS
 70
0
 71
3
 72
45
 73
41
 74
0
 42
0.0000001
 43
0.0000001
 44
0.0000000001
 40
0.0
 40
0.0
 40
0.0
 40
0.0
 40
0.0149721381
 40
0.0299473346
 40
0.044928632
 40
0.0599190307
 40
0.0749214812
 40
0.0899388562
 40
0.1049739397
 40
0.1200294107
 40
0.1351078199
 40
0.150211588
 40
0.1653429773
 40
0.1805040913
 40
0.2109173718
 40
0.2414702801
 40
0.2721727304
 40
0.3030312331
 40
0.3340487993
 40
0.3652249271
 40
0.3965556655
 40
0.4280337497
 40
0.4596488009
 40
0.4913875843
 40
0.5232343171
 40
0.5551710159
 40
0.58717788
 40
0.6192337013
 40
0.6513162944
 40
0.6834029425
 40
0.7154708481
 40
0.7474975866
 40
0.7794615529
 40
0.8113423977
 40
0.8431214456
 40
0.8747820945
 40
0.9063101442
 40
0.9376942752
 40
0.9689257409
 40
1.0
 40
1.0
 40
1.0
 40
1.0
 10
8.2348163065
 20
7.2319821286
 30
0.0
 10
8.2394784451
 20
7.236485413
 30
0.0
 10
8.2489838436
 20
7.2453085022
 30
0.0
 10
8.263758089
 20
7.2579675999
 30
0.0
 10
8.2790298533
 20
7.2700350835
 30
0.0
 10
8.2947777549
 20
7.281494152
 30
0.0
 10
8.3109801984
 20
7.2923291229
 30
0.0
 10
8.3276149229
 20
7.3025249713
 30
0.0
 10
8.344658939
 20
7.3120678521
 30
0.0
 10
8.3620888955
 20
7.3209444314
 30
0.0
 10
8.3798807303
 20
7.3291427035
 30
0.0
 10
8.3980099231
 20
7.3366512493
 30
0.0
 10
8.4164518729
 20
7.3434598629
 30
0.0
 10
8.4414466473
 20
7.3515998749
 30
0.0
 10
8.4733587189
 20
7.3599780473
 30
0.0
 10
8.512440498
 20
7.3670910942
 30
0.0
 10
8.5521417622
 20
7.3712377019
 30
0.0
 10
8.592242547
 20
7.3723950544
 30
0.0
 10
8.6325227135
 20
7.3705574491
 30
0.0
 10
8.6727607367
 20
7.3657354459
 30
0.0
 10
8.7127355614
 20
7.3579560163
 30
0.0
 10
8.7522276255
 20
7.3472623198
 30
0.0
 10
8.7910201074
 20
7.3337134987
 30
0.0
 10
8.8289000806
 20
7.3173843019
 30
0.0
 10
8.8656596689
 20
7.2983646743
 30
0.0
 10
8.9010971676
 20
7.2767592598
 30
0.0
 10
8.9350181358
 20
7.25268683
 30
0.0
 10
8.9672364447
 20
7.2262796318
 30
0.0
 10
8.9975753083
 20
7.1976826939
 30
0.0
 10
9.0258682336
 20
7.1670530175
 30
0.0
 10
9.0519599159
 20
7.1345587151
 30
0.0
 10
9.0757070835
 20
7.1003780997
 30
0.0
 10
9.0969792764
 20
7.0646987208
 30
0.0
 10
9.1156595516
 20
7.0277163392
 30
0.0
 10
9.131645144
 20
6.9896339008
 30
0.0
 10
9.1448480166
 20
6.9506603496
 30
0.0
 10
9.1551954014
 20
6.9110097923
 30
0.0
 10
9.16262998
 20
6.8708992175
 30
0.0
 10
9.167110687
 20
6.8305517209
 30
0.0
 10
9.1681142488
 20
6.8035672746
 30
0.0
 10
9.1681142488
 20
6.7901142575
 30
0.0
  0
SPLINE
  5
360
100
AcDbEntity
  8
0
100
AcDbSpline
 62
7
  6
CONTINUOUS
 70
0
 71
3
 72
24
 73
20
 74
0
 42
0.0000001
 43
0.0000001
 44
0.0000000001
 40
0.0
 40
0.0
 40
0.0
 40
0.0
 40
0.0617098353
 40
0.1234407738
 40
0.1852137086
 40
0.2470491059
 40
0.2779989826
 40
0.3089718424
 40
0.3709907986
 40
0.4331289968
 40
0.4954032096
 40
0.5578288482
 40
0.6204198348
 40
0.6831883877
 40
0.7461451742
 40
0.8092989976
 40
0.8726556328
 40
0.9362235592
 40
1.0
 40
1.0
 40
1.0
 40
1.0
 10
9.0157114981
 20
6.4235399852
 30
0.0
 10
9.0217460004
 20
6.4293688724
 30
0.0
 10
9.0335192703
 20
6.441341533
 30
0.0
 10
9.0502354034
 20
6.4601883567
 30
0.0
 10
9.0659723664
 20
6.4798824547
 30
0.0
 10
9.0782367562
 20
6.496957791
 30
0.0
 10
9.0875217912
 20
6.5109917627
 30
0.0
 10
9.0964586151
 20
6.5252794501
 30
0.0
 10
9.1069554672
 20
6.5435844167
 30
0.0
 10
9.1184353549
 20
6.5661944242
 30
0.0
 10
9.1287787581
 20
6.5894072317
 30
0.0
 10
9.1379616041
 20
6.6131689647
 30
0.0
 10
9.1459628657
 20
6.637424892
 30
0.0
 10
9.1527641738
 20
6.662119049
 30
0.0
 10
9.1583498854
 20
6.6871945512
 30
0.0
 10
9.162707064
 20
6.7125934296
 30
0.0
 10
9.1658260065
 20
6.7382576634
 30
0.0
 10
9.1676991992
 20
6.7641269259
 30
0.0
 10
9.1681142488
 20
6.7814433431
 30
0.0
 10
9.1681142488
 20
6.7901142575
 30
0.0
  0
SPLINE
  5
361
100
AcDbEntity
  8
0
100
AcDbSpline
 62
7
  6
CONTINUOUS
 70
0
 71
3
 72
36
 73
32
 74
0
 42
0.0000001
 43
0.0000001
 44
0.0000000001
 40
0.0
 40
0.0
 40
0.0
 40
0.0
 40
0.0162143048
 40
0.0334273363
 40
0.0516716556
 40
0.0709707163
 40
0.0913401979
 40
0.1127892156
 40
0.13532147
 40
0.1589357362
 40
0.1836268569
 40
0.2093859311
 40
0.236200954
 40
0.2640570993
 40
0.2929369
 40
0.3228207324
 40
0.3536866939
 40
0.3855111001
 40
0.4182683916
 40
0.4519313784
 40
0.4864713931
 40
0.5218582276
 40
0.5580604815
 40
0.5950453717
 40
0.6327790535
 40
0.6712265605
 40
0.7103518611
 40
0.7501180517
 40
0.8314202535
 40
0.9148215003
 40
1.0
 40
1.0
 40
1.0
 40
1.0
 10
15.0804526555
 20
6.4077283196
 30
0.0
 10
15.0781233081
 20
6.410592372
 30
0.0
 10
15.0735171882
 20
6.416658208
 30
0.0
 10
15.0669483808
 20
6.4264246372
 30
0.0
 10
15.060523936
 20
6.4371146336
 30
0.0
 10
15.054250516
 20
6.4487169098
 30
0.0
 10
15.0481341851
 20
6.4612198578
 30
0.0
 10
15.0421811052
 20
6.4746106566
 30
0.0
 10
15.0363974691
 20
6.4888755935
 30
0.0
 10
15.0307891657
 20
6.503999907
 30
0.0
 10
15.0253621546
 20
6.5199679356
 30
0.0
 10
15.0201220685
 20
6.5367630478
 30
0.0
 10
15.0150744493
 20
6.5543677229
 30
0.0
 10
15.0102246576
 20
6.5727635541
 30
0.0
 10
15.0055777575
 20
6.5919312684
 30
0.0
 10
15.0011387584
 20
6.6118507699
 30
0.0
 10
14.9969122782
 20
6.6325011421
 30
0.0
 10
14.9929028621
 20
6.653860691
 30
0.0
 10
14.989114733
 20
6.6759069607
 30
0.0
 10
14.9855518977
 20
6.6986167632
 30
0.0
 10
14.9822181815
 20
6.7219662019
 30
0.0
 10
14.9791170517
 20
6.7459307027
 30
0.0
 10
14.976251872
 20
6.7704850316
 30
0.0
 10
14.9736256198
 20
6.7956033348
 30
0.0
 10
14.971241114
 20
6.821259158
 30
0.0
 10
14.9691008899
 20
6.8474254678
 30
0.0
 10
14.9672071639
 20
6.8740747215
 30
0.0
 10
14.9649974547
 20
6.9104814321
 30
0.0
 10
14.9628785625
 20
6.9569904589
 30
0.0
 10
14.9613628116
 20
7.0138667901
 30
0.0
 10
14.9610323509
 20
7.052250278
 30
0.0
 10
14.9610323509
 20
7.0716438659
 30
0.0
  0
SPLINE
  5
362
100
AcDbEntity
  8
0
100
AcDbSpline
 62
7
  6
CONTINUOUS
 70
0
 71
3
 72
11
 73
7
 74
0
 42
0.0000001
 43
0.0000001
 44
0.0000000001
 40
0.0
 40
0.0
 40
0.0
 40
0.0
 40
0.2579081487
 40
0.5091047379
 40
0.7557164262
 40
1.0
 40
1.0
 40
1.0
 40
1.0
 10
15.0498836886
 20
6.457630828
 30
0.0
 10
15.0516073087
 20
6.4567873491
 30
0.0
 10
15.0550840071
 20
6.4552684595
 30
0.0
 10
15.060432086
 20
6.4535054007
 30
0.0
 10
15.0658281304
 20
6.4522947406
 30
0.0
 10
15.069461612
 20
6.4518565319
 30
0.0
 10
15.0712748233
 20
6.4517307935
 30
0.0
  0
SPLINE
  5
363
100
AcDbEntity
  8
0
100
AcDbSpline
 62
7
  6
CONTINUOUS
 70
0
 71
3
 72
52
 73
48
 74
0
 42
0.0000001
 43
0.0000001
 44
0.0000000001
 40
0.0
 40
0.0
 40
0.0
 40
0.0
 40
0.0063158568
 40
0.0126706178
 40
0.0191024266
 40
0.0256479345
 40
0.0323417789
 40
0.0392160908
 40
0.0536138298
 40
0.0611945069
 40
0.0690562056
 40
0.0772172859
 40
0.0856936163
 40
0.094498959
 40
0.1036450353
 40
0.1131417384
 40
0.1229974561
 40
0.1332190303
 40
0.1438120572
 40
0.1547810415
 40
0.1661293353
 40
0.1778594655
 40
0.1899731041
 40
0.2024710934
 40
0.2153537091
 40
0.2286205088
 40
0.2422704818
 40
0.2563021821
 40
0.2707135511
 40
0.3006644045
 40
0.3320995118
 40
0.364988637
 40
0.399296387
 40
0.4349827261
 40
0.4720035166
 40
0.5103109065
 40
0.549853604
 40
0.5905771631
 40
0.632424299
 40
0.6753351168
 40
0.7192472758
 40
0.7640961515
 40
0.8098152405
 40
0.8563361104
 40
0.9035880427
 40
0.9515014724
 40
1.0
 40
1.0
 40
1.0
 40
1.0
 10
14.7945327125
 20
7.911891797
 30
0.0
 10
14.7928425239
 20
7.9120090079
 30
0.0
 10
14.7894597211
 20
7.91238248
 30
0.0
 10
14.7844234205
 20
7.9133559737
 30
0.0
 10
14.779420798
 20
7.9147427658
 30
0.0
 10
14.7744547467
 20
7.9165416504
 30
0.0
 10
14.7695272479
 20
7.9187516907
 30
0.0
 10
14.7629109395
 20
7.9222983618
 30
0.0
 10
14.7564742943
 20
7.9266400155
 30
0.0
 10
14.7502452729
 20
7.9316713316
 30
0.0
 10
14.7455402456
 20
7.9359133176
 30
0.0
 10
14.7408854929
 20
7.9405562108
 30
0.0
 10
14.7362821133
 20
7.9455982968
 30
0.0
 10
14.7317320444
 20
7.9510374488
 30
0.0
 10
14.7272369503
 20
7.9568714441
 30
0.0
 10
14.7227985083
 20
7.9630978651
 30
0.0
 10
14.7184185312
 20
7.9697142456
 30
0.0
 10
14.7140986721
 20
7.9767178589
 30
0.0
 10
14.7098406441
 20
7.9841058702
 30
0.0
 10
14.7056462175
 20
7.9918753117
 30
0.0
 10
14.7015169942
 20
8.0000229843
 30
0.0
 10
14.6974546972
 20
8.008545594
 30
0.0
 10
14.6934609929
 20
8.0174396678
 30
0.0
 10
14.6895374452
 20
8.0267015508
 30
0.0
 10
14.6856857365
 20
8.0363274801
 30
0.0
 10
14.6819074076
 20
8.0463135007
 30
0.0
 10
14.6782039951
 20
8.0566555105
 30
0.0
 10
14.6745770646
 20
8.0673492988
 30
0.0
 10
14.6697834752
 20
8.0822627416
 30
0.0
 10
14.6640075726
 20
8.1017612568
 30
0.0
 10
14.6574904863
 20
8.1261995384
 30
0.0
 10
14.6513122657
 20
8.1519290429
 30
0.0
 10
14.6454831821
 20
8.1789074339
 30
0.0
 10
14.6400129202
 20
8.2070904975
 30
0.0
 10
14.6349105904
 20
8.2364319121
 30
0.0
 10
14.6301847106
 20
8.2668834371
 30
0.0
 10
14.625843159
 20
8.2983949518
 30
0.0
 10
14.621893153
 20
8.3309145527
 30
0.0
 10
14.6183412767
 20
8.3643886608
 30
0.0
 10
14.6151934668
 20
8.3987621142
 30
0.0
 10
14.6124549676
 20
8.4339782342
 30
0.0
 10
14.6101303253
 20
8.4699789572
 30
0.0
 10
14.6082234264
 20
8.5067049239
 30
0.0
 10
14.6067374841
 20
8.5440954242
 30
0.0
 10
14.6056749144
 20
8.5820891943
 30
0.0
 10
14.6050375962
 20
8.620622981
 30
0.0
 10
14.6048976414
 20
8.6464860205
 30
0.0
 10
14.6048976414
 20
8.659495899
 30
0.0
  0
SPLINE
  5
364
100
AcDbEntity
  8
0
100
AcDbSpline
 62
7
  6
CONTINUOUS
 70
0
 71
3
 72
72
 73
68
 74
0
 42
0.0000001
 43
0.0000001
 44
0.0000000001
 40
0.0
 40
0.0
 40
0.0
 40
0.0
 40
0.0028080269
 40
0.0056357484
 40
0.0085023994
 40
0.0114263655
 40
0.0144248954
 40
0.0175138142
 40
0.0240150992
 40
0.0274548856
 40
0.0310331103
 40
0.0347582228
 40
0.038637415
 40
0.0426767077
 40
0.046881194
 40
0.0512550823
 40
0.0558017079
 40
0.0605237694
 40
0.0654233748
 40
0.075759731
 40
0.0868182127
 40
0.098598601
 40
0.1110954766
 40
0.1242989573
 40
0.1381953061
 40
0.1527676484
 40
0.1679961539
 40
0.1838584729
 40
0.2003300721
 40
0.2173842617
 40
0.2349925857
 40
0.2531249162
 40
0.2717495282
 40
0.2908334012
 40
0.3103422029
 40
0.3302404582
 40
0.3504917274
 40
0.3710585926
 40
0.4129848783
 40
0.4557069026
 40
0.4989035052
 40
0.542248869
 40
0.5854157291
 40
0.6280785651
 40
0.6699167822
 40
0.690429054
 40
0.7106188507
 40
0.7304489648
 40
0.7498830569
 40
0.7688859026
 40
0.7874234007
 40
0.8054626957
 40
0.82297243
 40
0.8399227074
 40
0.8562853711
 40
0.8720341902
 40
0.8871449021
 40
0.9015956586
 40
0.9153671668
 40
0.9284429885
 40
0.9408101529
 40
0.9524594887
 40
0.9633864448
 40
0.9735918993
 40
0.9830834872
 40
0.9918777842
 40
1.0
 40
1.0
 40
1.0
 40
1.0
 10
6.9581609904
 20
10.6719634153
 30
0.0
 10
6.958160997
 20
10.6712951383
 30
0.0
 10
6.9582195218
 20
10.669953174
 30
0.0
 10
6.9584825342
 20
10.66794449
 30
0.0
 10
6.9589205035
 20
10.6659382612
 30
0.0
 10
6.9595329616
 20
10.663935906
 30
0.0
 10
6.9603194965
 20
10.6619384309
 30
0.0
 10
6.9616212372
 20
10.6592375798
 30
0.0
 10
6.9632607546
 20
10.6565931703
 30
0.0
 10
6.9651915543
 20
10.6540182158
 30
0.0
 10
6.9668374013
 20
10.6520598641
 30
0.0
 10
6.9686525574
 20
10.6501122389
 30
0.0
 10
6.9706362356
 20
10.6481760022
 30
0.0
 10
6.9727873406
 20
10.6462520699
 30
0.0
 10
6.9751048373
 20
10.6443413538
 30
0.0
 10
6.9775875861
 20
10.6424447931
 30
0.0
 10
6.9802343101
 20
10.6405632561
 30
0.0
 10
6.9830437126
 20
10.6386976454
 30
0.0
 10
6.9870769143
 20
10.6361878432
 30
0.0
 10
6.9925260849
 20
10.6331049032
 30
0.0
 10
6.9995770771
 20
10.629547044
 30
0.0
 10
7.0072384976
 20
10.6260744453
 30
0.0
 10
7.0154950842
 20
10.6226941101
 30
0.0
 10
7.0243305397
 20
10.6194128212
 30
0.0
 10
7.0337272246
 20
10.6162371608
 30
0.0
 10
7.0436663562
 20
10.6131736307
 30
0.0
 10
7.0541279795
 20
10.6102284305
 30
0.0
 10
7.0650910536
 20
10.6074075368
 30
0.0
 10
7.0765335047
 20
10.6047167478
 30
0.0
 10
7.088432252
 20
10.6021614933
 30
0.0
 10
7.1007632829
 20
10.5997469962
 30
0.0
 10
7.1135016983
 20
10.5974781989
 30
0.0
 10
7.1266217568
 20
10.5953596737
 30
0.0
 10
7.1400969422
 20
10.5933957748
 30
0.0
 10
7.1539000124
 20
10.5915904888
 30
0.0
 10
7.168003047
 20
10.5899474686
 30
0.0
 10
7.1823775477
 20
10.5884700815
 30
0.0
 10
7.2019917409
 20
10.5867139404
 30
0.0
 10
7.2269730703
 20
10.5849602934
 30
0.0
 10
7.2573695474
 20
10.5835674268
 30
0.0
 10
7.2881280905
 20
10.5828844951
 30
0.0
 10
7.3189999933
 20
10.5829170812
 30
0.0
 10
7.3497358623
 20
10.5836649025
 30
0.0
 10
7.3800871743
 20
10.5851218438
 30
0.0
 10
7.4050165851
 20
10.5869284514
 30
0.0
 10
7.4245782117
 20
10.5887263682
 30
0.0
 10
7.4389054808
 20
10.5902341374
 30
0.0
 10
7.4529560533
 20
10.5919069099
 30
0.0
 10
7.4667015338
 20
10.5937413518
 30
0.0
 10
7.4801141239
 20
10.5957336843
 30
0.0
 10
7.4931667082
 20
10.5978798595
 30
0.0
 10
7.5058329041
 20
10.6001755393
 30
0.0
 10
7.5180871263
 20
10.6026159988
 30
0.0
 10
7.5299046267
 20
10.6051963032
 30
0.0
 10
7.5412615585
 20
10.6079111971
 30
0.0
 10
7.5521350298
 20
10.6107551099
 30
0.0
 10
7.5625031355
 20
10.6137223068
 30
0.0
 10
7.5723450385
 20
10.6168067113
 30
0.0
 10
7.5816410007
 20
10.6200020443
 30
0.0
 10
7.5903724156
 20
10.6233018827
 30
0.0
 10
7.5985219198
 20
10.6266994945
 30
0.0
 10
7.6060733795
 20
10.630188101
 30
0.0
 10
7.6130119472
 20
10.6337608369
 30
0.0
 10
7.6193241412
 20
10.6374106057
 30
0.0
 10
7.624998102
 20
10.6411308332
 30
0.0
 10
7.6300223554
 20
10.6449143418
 30
0.0
 10
7.6330491664
 20
10.6475772843
 30
0.0
 10
7.6344394788
 20
10.6489202231
 30
0.0
  0
SPLINE
  5
365
100
AcDbEntity
  8
0
100
AcDbSpline
 62
7
  6
CONTINUOUS
 70
0
 71
3
 72
72
 73
68
 74
0
 42
0.0000001
 43
0.0000001
 44
0.0000000001
 40
0.0
 40
0.0
 40
0.0
 40
0.0
 40
0.0028080269
 40
0.0056357484
 40
0.0085023994
 40
0.0114263655
 40
0.0144248954
 40
0.0175138142
 40
0.0240150992
 40
0.0274548856
 40
0.0310331103
 40
0.0347582228
 40
0.038637415
 40
0.0426767077
 40
0.046881194
 40
0.0512550823
 40
0.0558017079
 40
0.0605237694
 40
0.0654233748
 40
0.075759731
 40
0.0868182127
 40
0.098598601
 40
0.1110954766
 40
0.1242989573
 40
0.1381953061
 40
0.1527676484
 40
0.1679961539
 40
0.1838584729
 40
0.2003300721
 40
0.2173842617
 40
0.2349925857
 40
0.2531249162
 40
0.2717495282
 40
0.2908334012
 40
0.3103422029
 40
0.3302404582
 40
0.3504917274
 40
0.3710585926
 40
0.4129848783
 40
0.4557069026
 40
0.4989035052
 40
0.542248869
 40
0.5854157291
 40
0.6280785651
 40
0.6699167822
 40
0.690429054
 40
0.7106188507
 40
0.7304489648
 40
0.7498830569
 40
0.7688859026
 40
0.7874234007
 40
0.8054626957
 40
0.82297243
 40
0.8399227074
 40
0.8562853711
 40
0.8720341902
 40
0.8871449021
 40
0.9015956586
 40
0.9153671668
 40
0.9284429885
 40
0.9408101529
 40
0.9524594887
 40
0.9633864448
 40
0.9735918993
 40
0.9830834872
 40
0.9918777842
 40
1.0
 40
1.0
 40
1.0
 40
1.0
 10
13.4800924735
 20
10.2196659307
 30
0.0
 10
13.4800924801
 20
10.2189976537
 30
0.0
 10
13.4801510049
 20
10.2176556894
 30
0.0
 10
13.4804140173
 20
10.2156470055
 30
0.0
 10
13.4808519866
 20
10.2136407766
 30
0.0
 10
13.4814644447
 20
10.2116384215
 30
0.0
 10
13.4822509796
 20
10.2096409463
 30
0.0
 10
13.4835527203
 20
10.2069400953
 30
0.0
 10
13.4851922377
 20
10.2042956858
 30
0.0
 10
13.4871230374
 20
10.2017207312
 30
0.0
 10
13.4887688844
 20
10.1997623796
 30
0.0
 10
13.4905840405
 20
10.1978147544
 30
0.0
 10
13.4925677187
 20
10.1958785176
 30
0.0
 10
13.4947188237
 20
10.1939545853
 30
0.0
 10
13.4970363204
 20
10.1920438692
 30
0.0
 10
13.4995190692
 20
10.1901473085
 30
0.0
 10
13.5021657932
 20
10.1882657715
 30
0.0
 10
13.5049751957
 20
10.1864001608
 30
0.0
 10
13.5090083974
 20
10.1838903586
 30
0.0
 10
13.514457568
 20
10.1808074187
 30
0.0
 10
13.5215085602
 20
10.1772495594
 30
0.0
 10
13.5291699807
 20
10.1737769607
 30
0.0
 10
13.5374265672
 20
10.1703966256
 30
0.0
 10
13.5462620228
 20
10.1671153367
 30
0.0
 10
13.5556587077
 20
10.1639396763
 30
0.0
 10
13.5655978393
 20
10.1608761461
 30
0.0
 10
13.5760594626
 20
10.1579309459
 30
0.0
 10
13.5870225367
 20
10.1551100522
 30
0.0
 10
13.5984649878
 20
10.1524192632
 30
0.0
 10
13.6103637351
 20
10.1498640087
 30
0.0
 10
13.622694766
 20
10.1474495116
 30
0.0
 10
13.6354331814
 20
10.1451807143
 30
0.0
 10
13.6485532399
 20
10.1430621892
 30
0.0
 10
13.6620284253
 20
10.1410982902
 30
0.0
 10
13.6758314955
 20
10.1392930042
 30
0.0
 10
13.6899345301
 20
10.137649984
 30
0.0
 10
13.7043090308
 20
10.1361725969
 30
0.0
 10
13.723923224
 20
10.1344164558
 30
0.0
 10
13.7489045534
 20
10.1326628088
 30
0.0
 10
13.7793010305
 20
10.1312699422
 30
0.0
 10
13.8100595736
 20
10.1305870105
 30
0.0
 10
13.8409314764
 20
10.1306195966
 30
0.0
 10
13.8716673454
 20
10.1313674179
 30
0.0
 10
13.9020186574
 20
10.1328243593
 30
0.0
 10
13.9269480682
 20
10.1346309669
 30
0.0
 10
13.9465096948
 20
10.1364288837
 30
0.0
 10
13.9608369639
 20
10.1379366528
 30
0.0
 10
13.9748875364
 20
10.1396094254
 30
0.0
 10
13.9886330169
 20
10.1414438672
 30
0.0
 10
14.002045607
 20
10.1434361997
 30
0.0
 10
14.0150981913
 20
10.145582375
 30
0.0
 10
14.0277643872
 20
10.1478780547
 30
0.0
 10
14.0400186094
 20
10.1503185142
 30
0.0
 10
14.0518361098
 20
10.1528988186
 30
0.0
 10
14.0631930416
 20
10.1556137125
 30
0.0
 10
14.0740665129
 20
10.1584576253
 30
0.0
 10
14.0844346186
 20
10.1614248222
 30
0.0
 10
14.0942765216
 20
10.1645092267
 30
0.0
 10
14.1035724838
 20
10.1677045598
 30
0.0
 10
14.1123038987
 20
10.1710043981
 30
0.0
 10
14.1204534029
 20
10.1744020099
 30
0.0
 10
14.1280048626
 20
10.1778906164
 30
0.0
 10
14.1349434303
 20
10.1814633524
 30
0.0
 10
14.1412556243
 20
10.1851131211
 30
0.0
 10
14.1469295851
 20
10.1888333486
 30
0.0
 10
14.1519538385
 20
10.1926168572
 30
0.0
 10
14.1549806495
 20
10.1952797997
 30
0.0
 10
14.1563709619
 20
10.1966227385
 30
0.0
  0
SPLINE
  5
366
100
AcDbEntity
  8
0
100
AcDbSpline
 62
7
  6
CONTINUOUS
 70
0
 71
3
 72
39
 73
35
 74
0
 42
0.0000001
 43
0.0000001
 44
0.0000000001
 40
0.0
 40
0.0
 40
0.0
 40
0.0
 40
0.0322743283
 40
0.0644671078
 40
0.0965434017
 40
0.1284711899
 40
0.1602244108
 40
0.1917831014
 40
0.2231345502
 40
0.2542738168
 40
0.285204103
 40
0.3159367853
 40
0.346491125
 40
0.376893631
 40
0.407177084
 40
0.4373792492
 40
0.4675413296
 40
0.4977062336
 40
0.5279167493
 40
0.5582137251
 40
0.5886343568
 40
0.6192106713
 40
0.6499682774
 40
0.6809254336
 40
0.7120924559
 40
0.7434714713
 40
0.7750564984
 40
0.8068338309
 40
0.8387826774
 40
0.870876057
 40
0.9030817571
 40
0.9353638376
 40
0.9676830369
 40
1.0
 40
1.0
 40
1.0
 40
1.0
 10
6.9291303729
 20
9.97068072
 30
0.0
 10
6.9266139353
 20
9.9738542092
 30
0.0
 10
6.9218750229
 20
9.9804275581
 30
0.0
 10
6.9157151516
 20
9.9908790379
 30
0.0
 10
6.9105660093
 20
10.0018170599
 30
0.0
 10
6.9064781364
 20
10.0131357177
 30
0.0
 10
6.9034908188
 20
10.0247265881
 30
0.0
 10
6.9016331805
 20
10.0364783106
 30
0.0
 10
6.9009234463
 20
10.0482779523
 30
0.0
 10
6.9013688867
 20
10.0600119978
 30
0.0
 10
6.9029656682
 20
10.0715674374
 30
0.0
 10
6.9056988661
 20
10.0828328396
 30
0.0
 10
6.9095425575
 20
10.0936994277
 30
0.0
 10
6.9144600261
 20
10.104062145
 30
0.0
 10
6.9204040768
 20
10.1138207017
 30
0.0
 10
6.9273174632
 20
10.1228805901
 30
0.0
 10
6.9351334326
 20
10.1311540532
 30
0.0
 10
6.9437763843
 20
10.1385609874
 30
0.0
 10
6.9531626335
 20
10.1450297635
 30
0.0
 10
6.963201268
 20
10.1504979506
 30
0.0
 10
6.9737950853
 20
10.1549129258
 30
0.0
 10
6.9848415846
 20
10.1582323698
 30
0.0
 10
6.9962340016
 20
10.1604246441
 30
0.0
 10
7.0078623679
 20
10.1614690542
 30
0.0
 10
7.0196145843
 20
10.1613560021
 30
0.0
 10
7.031377499
 20
10.1600870331
 30
0.0
 10
7.0430379827
 20
10.1576747836
 30
0.0
 10
7.0544839952
 20
10.1541428246
 30
0.0
 10
7.0656056357
 20
10.1495254303
 30
0.0
 10
7.0762961777
 20
10.1438671868
 30
0.0
 10
7.086453029
 20
10.1372227161
 30
0.0
 10
7.09597891
 20
10.1296556435
 30
0.0
 10
7.1047816946
 20
10.1212397705
 30
0.0
 10
7.1101162626
 20
10.1151117658
 30
0.0
 10
7.1126360245
 20
10.1119340844
 30
0.0
  0
SPLINE
  5
367
100
AcDbEntity
  8
0
100
AcDbSpline
 62
7
  6
CONTINUOUS
 70
0
 71
3
 72
72
 73
68
 74
0
 42
0.0000001
 43
0.0000001
 44
0.0000000001
 40
0.0
 40
0.0
 40
0.0
 40
0.0
 40
0.0155841676
 40
0.0311159292
 40
0.0465951846
 40
0.0620238068
 40
0.0697201932
 40
0.077404584
 40
0.0927373976
 40
0.10802622
 40
0.1232742506
 40
0.1384851139
 40
0.1536628164
 40
0.1688117118
 40
0.1839364566
 40
0.1990419629
 40
0.2141333479
 40
0.2292158791
 40
0.2442949185
 40
0.2593758648
 40
0.2744640962
 40
0.2895649138
 40
0.3046834844
 40
0.3198247864
 40
0.3349935568
 40
0.3501942427
 40
0.3654309572
 40
0.3807074391
 40
0.3960270172
 40
0.4113925787
 40
0.4268065436
 40
0.4422708447
 40
0.4577869145
 40
0.4733556759
 40
0.4889775373
 40
0.5046523937
 40
0.5203796327
 40
0.5361581463
 40
0.5519863467
 40
0.5678621849
 40
0.583783173
 40
0.5997464103
 40
0.615748614
 40
0.6317861518
 40
0.6478550769
 40
0.6639511632
 40
0.6800699446
 40
0.6962067554
 40
0.7123567731
 40
0.7285150603
 40
0.7446766071
 40
0.7608363746
 40
0.7769893392
 40
0.7931305375
 40
0.809255109
 40
0.8253583382
 40
0.841435696
 40
0.8574828811
 40
0.8734958607
 40
0.8894709056
 40
0.9054046297
 40
0.9212940148
 40
0.9371364392
 40
0.9529297838
 40
0.9686720944
 40
0.9843627101
 40
1.0
 40
1.0
 40
1.0
 40
1.0
 10
8.6397749095
 20
9.2045924681
 30
0.0
 10
8.6397749095
 20
9.2156358555
 30
0.0
 10
8.6403153705
 20
9.2376893892
 30
0.0
 10
8.6427549605
 20
9.2706308372
 30
0.0
 10
8.6468165249
 20
9.3033013174
 30
0.0
 10
8.6515485978
 20
9.330257701
 30
0.0
 10
8.6561348313
 20
9.3516050516
 30
0.0
 10
8.6612432889
 20
9.3727636236
 30
0.0
 10
8.6686158983
 20
9.3989011976
 30
0.0
 10
8.6790290773
 20
9.4297072707
 30
0.0
 10
8.690977174
 20
9.4598587602
 30
0.0
 10
8.704431321
 20
9.4892824526
 30
0.0
 10
8.7193591784
 20
9.5179075123
 30
0.0
 10
8.7357248113
 20
9.5456648424
 30
0.0
 10
8.7534888072
 20
9.5724874818
 30
0.0
 10
8.7726083351
 20
9.5983107308
 30
0.0
 10
8.7930373028
 20
9.6230722954
 30
0.0
 10
8.8147264562
 20
9.6467124379
 30
0.0
 10
8.8376235002
 20
9.6691741207
 30
0.0
 10
8.8616732227
 20
9.6904031444
 30
0.0
 10
8.8868175902
 20
9.7103483274
 30
0.0
 10
8.9129959351
 20
9.7289615891
 30
0.0
 10
8.9401451019
 20
9.7461980628
 30
0.0
 10
8.9681995985
 20
9.7620162062
 30
0.0
 10
8.9970917585
 20
9.7763778897
 30
0.0
 10
9.02675188
 20
9.78924854
 30
0.0
 10
9.057108414
 20
9.8005972018
 30
0.0
 10
9.0880881502
 20
9.8103965839
 30
0.0
 10
9.119616389
 20
9.818623131
 30
0.0
 10
9.1516171223
 20
9.8252570685
 30
0.0
 10
9.1840132086
 20
9.8302824771
 30
0.0
 10
9.2167265609
 20
9.8336873544
 30
0.0
 10
9.2496783472
 20
9.8354635864
 30
0.0
 10
9.282789175
 20
9.8356069747
 30
0.0
 10
9.3159792811
 20
9.8341172419
 30
0.0
 10
9.3491687178
 20
9.830998032
 30
0.0
 10
9.3822775529
 20
9.8262569585
 30
0.0
 10
9.4152260609
 20
9.8199055253
 30
0.0
 10
9.4479349112
 20
9.8119590972
 30
0.0
 10
9.4803253563
 20
9.802436865
 30
0.0
 10
9.5123194137
 20
9.7913617905
 30
0.0
 10
9.5438400694
 20
9.7787606023
 30
0.0
 10
9.5748114603
 20
9.7646637059
 30
0.0
 10
9.605159045
 20
9.749105084
 30
0.0
 10
9.634809783
 20
9.7321222239
 30
0.0
 10
9.6636923024
 20
9.7137560214
 30
0.0
 10
9.6917370837
 20
9.6940507069
 30
0.0
 10
9.7188766443
 20
9.673053757
 30
0.0
 10
9.7450456711
 20
9.6508157342
 30
0.0
 10
9.7701811799
 20
9.6273901758
 30
0.0
 10
9.7942226625
 20
9.602833465
 30
0.0
 10
9.8171122306
 20
9.5772046988
 30
0.0
 10
9.8387947982
 20
9.5505655829
 30
0.0
 10
9.8592181746
 20
9.5229802421
 30
0.0
 10
9.8783331864
 20
9.4945150685
 30
0.0
 10
9.8960937964
 20
9.4652385661
 30
0.0
 10
9.9124572036
 20
9.4352211843
 30
0.0
 10
9.9273839943
 20
9.4045351752
 30
0.0
 10
9.9408382166
 20
9.3732544035
 30
0.0
 10
9.9527874462
 20
9.3414541592
 30
0.0
 10
9.9632028629
 20
9.3092109813
 30
0.0
 10
9.9720593119
 20
9.2766024899
 30
0.0
 10
9.9793354381
 20
9.2437071339
 30
0.0
 10
9.9850135691
 20
9.2106043014
 30
0.0
 10
9.9890802174
 20
9.1773731427
 30
0.0
 10
9.9915251502
 20
9.1440950604
 30
0.0
 10
9.9920711464
 20
9.1218914368
 30
0.0
 10
9.9920711464
 20
9.1108104055
 30
0.0
  0
SPLINE
  5
368
100
AcDbEntity
  8
0
100
AcDbSpline
 62
7
  6
CONTINUOUS
 70
0
 71
3
 72
18
 73
14
 74
0
 42
0.0000001
 43
0.0000001
 44
0.0000000001
 40
0.0
 40
0.0
 40
0.0
 40
0.0
 40
0.1480356372
 40
0.2876662502
 40
0.4195655771
 40
0.4828973127
 40
0.5446380375
 40
0.6638657774
 40
0.7785237916
 40
0.8345984481
 40
0.8900706527
 40
0.9451373023
 40
1.0
 40
1.0
 40
1.0
 40
1.0
 10
6.969882471
 20
10.6950074081
 30
0.0
 10
6.9689395888
 20
10.6940966538
 30
0.0
 10
6.967162635
 20
10.692268009
 30
0.0
 10
6.9647734012
 20
10.6894181595
 30
0.0
 10
6.963059653
 20
10.6869930143
 30
0.0
 10
6.9618794468
 20
10.6850464563
 30
0.0
 10
6.9608487308
 20
10.6831435845
 30
0.0
 10
6.9597776469
 20
10.6807491641
 30
0.0
 10
6.9589955587
 20
10.6782968759
 30
0.0
 10
6.9585614136
 20
10.6763402646
 30
0.0
 10
6.958330414
 20
10.6748820325
 30
0.0
 10
6.9581918073
 20
10.6734229967
 30
0.0
 10
6.9581609855
 20
10.6724492468
 30
0.0
 10
6.9581609904
 20
10.6719634153
 30
0.0
  0
SPLINE
  5
369
100
AcDbEntity
  8
0
100
AcDbSpline
 62
7
  6
CONTINUOUS
 70
0
 71
3
 72
24
 73
20
 74
0
 42
0.0000001
 43
0.0000001
 44
0.0000000001
 40
0.0
 40
0.0
 40
0.0
 40
0.0
 40
0.0637764408
 40
0.1273443672
 40
0.1907010024
 40
0.2538548258
 40
0.3168116123
 40
0.3795801652
 40
0.4421711518
 40
0.5045967904
 40
0.5668710032
 40
0.6290092014
 40
0.6910281576
 40
0.7220010174
 40
0.7529508941
 40
0.8147862914
 40
0.8765592262
 40
0.9382901647
 40
1.0
 40
1.0
 40
1.0
 40
1.0
 10
10.9801912063
 20
6.6644462937
 30
0.0
 10
10.9801912063
 20
6.6731172081
 30
0.0
 10
10.980606256
 20
6.6904336253
 30
0.0
 10
10.9824794487
 20
6.7163028878
 30
0.0
 10
10.9855983912
 20
6.7419671216
 30
0.0
 10
10.9899555697
 20
6.767366
 30
0.0
 10
10.9955412814
 20
6.7924415022
 30
0.0
 10
11.0023425895
 20
6.8171356592
 30
0.0
 10
11.0103438511
 20
6.8413915865
 30
0.0
 10
11.0195266971
 20
6.8651533194
 30
0.0
 10
11.0298701003
 20
6.888366127
 30
0.0
 10
11.041349988
 20
6.9109761345
 30
0.0
 10
11.05184684
 20
6.9292811011
 30
0.0
 10
11.060783664
 20
6.9435687885
 30
0.0
 10
11.070068699
 20
6.9576027602
 30
0.0
 10
11.0823330888
 20
6.9746780965
 30
0.0
 10
11.0980700518
 20
6.9943721945
 30
0.0
 10
11.1147861849
 20
7.0132190182
 30
0.0
 10
11.1265594548
 20
7.0251916788
 30
0.0
 10
11.1325939571
 20
7.0310205659
 30
0.0
  0
SPLINE
  5
36A
100
AcDbEntity
  8
0
100
AcDbSpline
 62
7
  6
CONTINUOUS
 70
0
 71
3
 72
17
 73
13
 74
0
 42
0.0000001
 43
0.0000001
 44
0.0000000001
 40
0.0
 40
0.0
 40
0.0
 40
0.0
 40
0.0550852423
 40
0.111354406
 40
0.1687695843
 40
0.2272912727
 40
0.3474892042
 40
0.4716107805
 40
0.5992999648
 40
0.7301858563
 40
0.8638842393
 40
1.0
 40
1.0
 40
1.0
 40
1.0
 10
15.4210516572
 20
7.9121082102
 30
0.0
 10
15.4220656269
 20
7.9053237087
 30
0.0
 10
15.4240319389
 20
7.8915962955
 30
0.0
 10
15.4267723317
 20
7.8707581515
 30
0.0
 10
15.4293333998
 20
7.8494660902
 30
0.0
 10
15.4325347762
 20
7.8202341661
 30
0.0
 10
15.4360600711
 20
7.7826832588
 30
0.0
 10
15.4395092236
 20
7.7364824367
 30
0.0
 10
15.4422024347
 20
7.688898313
 30
0.0
 10
15.4441309081
 20
7.6400836724
 30
0.0
 10
15.445288288
 20
7.5901952493
 30
0.0
 10
15.4455412276
 20
7.5565942453
 30
0.0
 10
15.4455412276
 20
7.5396435307
 30
0.0
  0
SPLINE
  5
36B
100
AcDbEntity
  8
0
100
AcDbSpline
 62
7
  6
CONTINUOUS
 70
0
 71
3
 72
20
 73
16
 74
0
 42
0.0000001
 43
0.0000001
 44
0.0000000001
 40
0.0
 40
0.0
 40
0.0
 40
0.0
 40
0.0529053482
 40
0.107349923
 40
0.1632853691
 40
0.2206604553
 40
0.2794217981
 40
0.3395135536
 40
0.4008778897
 40
0.4634550263
 40
0.5271831926
 40
0.5919991152
 40
0.7246316204
 40
0.8608166229
 40
1.0
 40
1.0
 40
1.0
 40
1.0
 10
15.3227068943
 20
7.9190026996
 30
0.0
 10
15.3239858615
 20
7.912158298
 30
0.0
 10
15.326466751
 20
7.8982487926
 30
0.0
 10
15.3299166309
 20
7.8770367742
 30
0.0
 10
15.3331455542
 20
7.8551951666
 30
0.0
 10
15.3361499848
 20
7.8327482911
 30
0.0
 10
15.33892649
 20
7.8097210563
 30
0.0
 10
15.3414720071
 20
7.7861390424
 30
0.0
 10
15.3437836769
 20
7.762028443
 30
0.0
 10
15.3458588811
 20
7.7374160592
 30
0.0
 10
15.3476953729
 20
7.7123292159
 30
0.0
 10
15.3498392088
 20
7.6780221506
 30
0.0
 10
15.3518947644
 20
7.6341575178
 30
0.0
 10
15.3533649507
 20
7.580477687
 30
0.0
 10
15.3536853168
 20
7.5442354982
 30
0.0
 10
15.3536853168
 20
7.5259175756
 30
0.0
  0
SPLINE
  5
36C
100
AcDbEntity
  8
0
100
AcDbSpline
 62
7
  6
CONTINUOUS
 70
0
 71
3
 72
45
 73
41
 74
0
 42
0.0000001
 43
0.0000001
 44
0.0000000001
 40
0.0
 40
0.0
 40
0.0
 40
0.0
 40
0.0310742591
 40
0.0623057248
 40
0.0936898558
 40
0.1252179055
 40
0.1568785544
 40
0.1886576023
 40
0.2205384471
 40
0.2525024134
 40
0.2845291519
 40
0.3165970575
 40
0.3486837056
 40
0.3807662987
 40
0.41282212
 40
0.4448289841
 40
0.4767656829
 40
0.5086124157
 40
0.5403511991
 40
0.5719662503
 40
0.6034443345
 40
0.6347750729
 40
0.6659512007
 40
0.6969687669
 40
0.7278272696
 40
0.7585297199
 40
0.7890826282
 40
0.8194959087
 40
0.8346570227
 40
0.849788412
 40
0.8648921801
 40
0.8799705893
 40
0.8950260603
 40
0.9100611438
 40
0.9250785188
 40
0.9400809693
 40
0.955071368
 40
0.9700526654
 40
0.9850278619
 40
1.0
 40
1.0
 40
1.0
 40
1.0
 10
10.9801912063
 20
6.6644462937
 30
0.0
 10
10.9801912063
 20
6.6509932766
 30
0.0
 10
10.9811947682
 20
6.6240088303
 30
0.0
 10
10.9856754752
 20
6.5836613337
 30
0.0
 10
10.9931100538
 20
6.5435507589
 30
0.0
 10
11.0034574386
 20
6.5039002016
 30
0.0
 10
11.0166603112
 20
6.4649266504
 30
0.0
 10
11.0326459036
 20
6.426844212
 30
0.0
 10
11.0513261788
 20
6.3898618304
 30
0.0
 10
11.0725983717
 20
6.3541824515
 30
0.0
 10
11.0963455392
 20
6.3200018361
 30
0.0
 10
11.1224372216
 20
6.2875075337
 30
0.0
 10
11.1507301469
 20
6.2568778573
 30
0.0
 10
11.1810690104
 20
6.2282809194
 30
0.0
 10
11.2132873193
 20
6.2018737212
 30
0.0
 10
11.2472082876
 20
6.1778012913
 30
0.0
 10
11.2826457863
 20
6.1561958769
 30
0.0
 10
11.3194053745
 20
6.1371762493
 30
0.0
 10
11.3572853478
 20
6.1208470525
 30
0.0
 10
11.3960778297
 20
6.1072982314
 30
0.0
 10
11.4355698938
 20
6.0966045349
 30
0.0
 10
11.4755447185
 20
6.0888251053
 30
0.0
 10
11.5157827416
 20
6.0840031021
 30
0.0
 10
11.5560629082
 20
6.0821654968
 30
0.0
 10
11.596163693
 20
6.0833228492
 30
0.0
 10
11.6358649572
 20
6.087469457
 30
0.0
 10
11.6749467362
 20
6.0945825039
 30
0.0
 10
11.7068588079
 20
6.1029606763
 30
0.0
 10
11.7318535822
 20
6.1111006883
 30
0.0
 10
11.7502955321
 20
6.1179093019
 30
0.0
 10
11.7684247249
 20
6.1254178477
 30
0.0
 10
11.7862165597
 20
6.1336161198
 30
0.0
 10
11.8036465161
 20
6.1424926991
 30
0.0
 10
11.8206905323
 20
6.1520355799
 30
0.0
 10
11.8373252568
 20
6.1622314283
 30
0.0
 10
11.8535277003
 20
6.1730663992
 30
0.0
 10
11.8692756019
 20
6.1845254677
 30
0.0
 10
11.8845473662
 20
6.1965929512
 30
0.0
 10
11.8993216116
 20
6.209252049
 30
0.0
 10
11.9088270101
 20
6.2180751382
 30
0.0
 10
11.9134891486
 20
6.2225784226
 30
0.0
  0
SPLINE
  5
36D
100
AcDbEntity
  8
0
100
AcDbSpline
 62
7
  6
CONTINUOUS
 70
0
 71
3
 72
39
 73
35
 74
0
 42
0.0000001
 43
0.0000001
 44
0.0000000001
 40
0.0
 40
0.0
 40
0.0
 40
0.0
 40
0.0322743283
 40
0.0644671078
 40
0.0965434017
 40
0.1284711899
 40
0.1602244108
 40
0.1917831014
 40
0.2231345502
 40
0.2542738168
 40
0.285204103
 40
0.3159367853
 40
0.346491125
 40
0.376893631
 40
0.407177084
 40
0.4373792492
 40
0.4675413296
 40
0.4977062336
 40
0.5279167493
 40
0.5582137251
 40
0.5886343568
 40
0.6192106713
 40
0.6499682774
 40
0.6809254336
 40
0.7120924559
 40
0.7434714713
 40
0.7750564984
 40
0.8068338309
 40
0.8387826774
 40
0.870876057
 40
0.9030817571
 40
0.9353638376
 40
0.9676830369
 40
1.0
 40
1.0
 40
1.0
 40
1.0
 10
7.1126360245
 20
10.1119340844
 30
0.0
 10
7.1151524622
 20
10.1087605952
 30
0.0
 10
7.1198913746
 20
10.1021872463
 30
0.0
 10
7.1260512458
 20
10.0917357665
 30
0.0
 10
7.1312003881
 20
10.0807977445
 30
0.0
 10
7.135288261
 20
10.0694790868
 30
0.0
 10
7.1382755786
 20
10.0578882163
 30
0.0
 10
7.140133217
 20
10.0461364939
 30
0.0
 10
7.1408429511
 20
10.0343368521
 30
0.0
 10
7.1403975108
 20
10.0226028066
 30
0.0
 10
7.1388007292
 20
10.011047367
 30
0.0
 10
7.1360675313
 20
9.9997819648
 30
0.0
 10
7.1322238399
 20
9.9889153767
 30
0.0
 10
7.1273063713
 20
9.9785526594
 30
0.0
 10
7.1213623206
 20
9.9687941028
 30
0.0
 10
7.1144489342
 20
9.9597342143
 30
0.0
 10
7.1066329648
 20
9.9514607513
 30
0.0
 10
7.0979900131
 20
9.944053817
 30
0.0
 10
7.088603764
 20
9.9375850409
 30
0.0
 10
7.0785651294
 20
9.9321168538
 30
0.0
 10
7.0679713121
 20
9.9277018786
 30
0.0
 10
7.0569248128
 20
9.9243824346
 30
0.0
 10
7.0455323958
 20
9.9221901603
 30
0.0
 10
7.0339040295
 20
9.9211457502
 30
0.0
 10
7.0221518131
 20
9.9212588023
 30
0.0
 10
7.0103888984
 20
9.9225277714
 30
0.0
 10
6.9987284147
 20
9.9249400208
 30
0.0
 10
6.9872824022
 20
9.9284719798
 30
0.0
 10
6.9761607617
 20
9.9330893741
 30
0.0
 10
6.9654702197
 20
9.9387476176
 30
0.0
 10
6.9553133684
 20
9.9453920883
 30
0.0
 10
6.9457874874
 20
9.9529591609
 30
0.0
 10
6.9369847028
 20
9.9613750339
 30
0.0
 10
6.9316501348
 20
9.9675030386
 30
0.0
 10
6.9291303729
 20
9.97068072
 30
0.0
  0
SPLINE
  5
36E
100
AcDbEntity
  8
0
100
AcDbSpline
 62
7
  6
CONTINUOUS
 70
0
 71
3
 72
72
 73
68
 74
0
 42
0.0000001
 43
0.0000001
 44
0.0000000001
 40
0.0
 40
0.0
 40
0.0
 40
0.0
 40
0.0155841676
 40
0.0311159292
 40
0.0465951846
 40
0.0620238068
 40
0.0697201932
 40
0.077404584
 40
0.0927373976
 40
0.10802622
 40
0.1232742506
 40
0.1384851139
 40
0.1536628164
 40
0.1688117118
 40
0.1839364566
 40
0.1990419629
 40
0.2141333479
 40
0.2292158791
 40
0.2442949185
 40
0.2593758648
 40
0.2744640962
 40
0.2895649138
 40
0.3046834844
 40
0.3198247864
 40
0.3349935568
 40
0.3501942427
 40
0.3654309572
 40
0.3807074391
 40
0.3960270172
 40
0.4113925787
 40
0.4268065436
 40
0.4422708447
 40
0.4577869145
 40
0.4733556759
 40
0.4889775373
 40
0.5046523937
 40
0.5203796327
 40
0.5361581463
 40
0.5519863467
 40
0.5678621849
 40
0.583783173
 40
0.5997464103
 40
0.615748614
 40
0.6317861518
 40
0.6478550769
 40
0.6639511632
 40
0.6800699446
 40
0.6962067554
 40
0.7123567731
 40
0.7285150603
 40
0.7446766071
 40
0.7608363746
 40
0.7769893392
 40
0.7931305375
 40
0.809255109
 40
0.8253583382
 40
0.841435696
 40
0.8574828811
 40
0.8734958607
 40
0.8894709056
 40
0.9054046297
 40
0.9212940148
 40
0.9371364392
 40
0.9529297838
 40
0.9686720944
 40
0.9843627101
 40
1.0
 40
1.0
 40
1.0
 40
1.0
 10
9.9920711464
 20
9.1108104055
 30
0.0
 10
9.9920711464
 20
9.0997670182
 30
0.0
 10
9.9915306854
 20
9.0777134844
 30
0.0
 10
9.9890910954
 20
9.0447720365
 30
0.0
 10
9.985029531
 20
9.0121015562
 30
0.0
 10
9.980297458
 20
8.9851451727
 30
0.0
 10
9.9757112246
 20
8.9637978221
 30
0.0
 10
9.9706027669
 20
8.9426392501
 30
0.0
 10
9.9632301575
 20
8.9165016761
 30
0.0
 10
9.9528169786
 20
8.8856956029
 30
0.0
 10
9.9408688819
 20
8.8555441135
 30
0.0
 10
9.9274147349
 20
8.826120421
 30
0.0
 10
9.9124868775
 20
8.7974953613
 30
0.0
 10
9.8961212446
 20
8.7697380312
 30
0.0
 10
9.8783572487
 20
8.7429153919
 30
0.0
 10
9.8592377208
 20
8.7170921428
 30
0.0
 10
9.8388087531
 20
8.6923305782
 30
0.0
 10
9.8171195997
 20
8.6686904358
 30
0.0
 10
9.7942225557
 20
8.6462287529
 30
0.0
 10
9.7701728332
 20
8.6249997293
 30
0.0
 10
9.7450284657
 20
8.6050545462
 30
0.0
 10
9.7188501208
 20
8.5864412846
 30
0.0
 10
9.691700954
 20
8.5692048108
 30
0.0
 10
9.6636464573
 20
8.5533866675
 30
0.0
 10
9.6347542974
 20
8.5390249839
 30
0.0
 10
9.6050941759
 20
8.5261543336
 30
0.0
 10
9.5747376419
 20
8.5148056719
 30
0.0
 10
9.5437579057
 20
8.5050062897
 30
0.0
 10
9.5122296669
 20
8.4967797427
 30
0.0
 10
9.4802289336
 20
8.4901458051
 30
0.0
 10
9.4478328473
 20
8.4851203965
 30
0.0
 10
9.4151194949
 20
8.4817155192
 30
0.0
 10
9.3821677087
 20
8.4799392872
 30
0.0
 10
9.3490568809
 20
8.4797958989
 30
0.0
 10
9.3158667748
 20
8.4812856317
 30
0.0
 10
9.2826773381
 20
8.4844048417
 30
0.0
 10
9.249568503
 20
8.4891459152
 30
0.0
 10
9.216619995
 20
8.4954973484
 30
0.0
 10
9.1839111447
 20
8.5034437765
 30
0.0
 10
9.1515206995
 20
8.5129660086
 30
0.0
 10
9.1195266422
 20
8.5240410831
 30
0.0
 10
9.0880059865
 20
8.5366422713
 30
0.0
 10
9.0570345956
 20
8.5507391678
 30
0.0
 10
9.0266870108
 20
8.5662977896
 30
0.0
 10
8.9970362729
 20
8.5832806497
 30
0.0
 10
8.9681537535
 20
8.6016468523
 30
0.0
 10
8.9401089722
 20
8.6213521667
 30
0.0
 10
8.9129694116
 20
8.6423491166
 30
0.0
 10
8.8868003847
 20
8.6645871394
 30
0.0
 10
8.861664876
 20
8.6880126979
 30
0.0
 10
8.8376233934
 20
8.7125694087
 30
0.0
 10
8.8147338253
 20
8.7381981748
 30
0.0
 10
8.7930512577
 20
8.7648372907
 30
0.0
 10
8.7726278813
 20
8.7924226315
 30
0.0
 10
8.7535128695
 20
8.8208878051
 30
0.0
 10
8.7357522595
 20
8.8501643075
 30
0.0
 10
8.7193888523
 20
8.8801816893
 30
0.0
 10
8.7044620616
 20
8.9108676984
 30
0.0
 10
8.6910078393
 20
8.9421484701
 30
0.0
 10
8.6790586097
 20
8.9739487144
 30
0.0
 10
8.668643193
 20
9.0061918924
 30
0.0
 10
8.659786744
 20
9.0388003838
 30
0.0
 10
8.6525106178
 20
9.0716957397
 30
0.0
 10
8.6468324868
 20
9.1047985722
 30
0.0
 10
8.6427658385
 20
9.1380297309
 30
0.0
 10
8.6403209057
 20
9.1713078133
 30
0.0
 10
8.6397749095
 20
9.1935114368
 30
0.0
 10
8.6397749095
 20
9.2045924681
 30
0.0
  0
SPLINE
  5
36F
100
AcDbEntity
  8
0
100
AcDbSpline
 62
7
  6
CONTINUOUS
 70
0
 71
3
 72
24
 73
20
 74
0
 42
0.0000001
 43
0.0000001
 44
0.0000000001
 40
0.0
 40
0.0
 40
0.0
 40
0.0
 40
0.0637764408
 40
0.1273443672
 40
0.1907010024
 40
0.2538548258
 40
0.3168116123
 40
0.3795801652
 40
0.4421711518
 40
0.5045967904
 40
0.5668710032
 40
0.6290092014
 40
0.6910281576
 40
0.7220010174
 40
0.7529508941
 40
0.8147862914
 40
0.8765592262
 40
0.9382901647
 40
1.0
 40
1.0
 40
1.0
 40
1.0
 10
8.0824135558
 20
6.8654078563
 30
0.0
 10
8.0824135558
 20
6.8740787708
 30
0.0
 10
8.0828286054
 20
6.8913951879
 30
0.0
 10
8.0847017981
 20
6.9172644505
 30
0.0
 10
8.0878207406
 20
6.9429286843
 30
0.0
 10
8.0921779192
 20
6.9683275626
 30
0.0
 10
8.0977636309
 20
6.9934030648
 30
0.0
 10
8.1045649389
 20
7.0180972219
 30
0.0
 10
8.1125662005
 20
7.0423531492
 30
0.0
 10
8.1217490465
 20
7.0661148821
 30
0.0
 10
8.1320924497
 20
7.0893276896
 30
0.0
 10
8.1435723374
 20
7.1119376971
 30
0.0
 10
8.1540691895
 20
7.1302426637
 30
0.0
 10
8.1630060134
 20
7.1445303511
 30
0.0
 10
8.1722910484
 20
7.1585643229
 30
0.0
 10
8.1845554382
 20
7.1756396592
 30
0.0
 10
8.2002924012
 20
7.1953337571
 30
0.0
 10
8.2170085343
 20
7.2141805808
 30
0.0
 10
8.2287818042
 20
7.2261532414
 30
0.0
 10
8.2348163065
 20
7.2319821286
 30
0.0
  0
SPLINE
  5
370
100
AcDbEntity
  8
0
100
AcDbSpline
 62
7
  6
CONTINUOUS
 70
0
 71
3
 72
59
 73
55
 74
0
 42
0.0000001
 43
0.0000001
 44
0.0000000001
 40
0.0
 40
0.0
 40
0.0
 40
0.0
 40
0.0026853875
 40
0.0053790891
 40
0.008089339
 40
0.0108242091
 40
0.0135915278
 40
0.0163988281
 40
0.0221599612
 40
0.0281622954
 40
0.034451753
 40
0.0410673672
 40
0.0480417309
 40
0.0554015447
 40
0.0631683895
 40
0.0713593564
 40
0.079987746
 40
0.0890635702
 40
0.0985940765
 40
0.1085841041
 40
0.1190364474
 40
0.1299521029
 40
0.1413305111
 40
0.1531697345
 40
0.1654666105
 40
0.1782168903
 40
0.1914153275
 40
0.2050557971
 40
0.2191313368
 40
0.2336342578
 40
0.2485561505
 40
0.263887994
 40
0.2796201342
 40
0.2957423961
 40
0.3122440407
 40
0.3291138806
 40
0.3463402216
 40
0.3639109818
 40
0.3818136215
 40
0.4185621798
 40
0.4564789439
 40
0.4954513254
 40
0.5353622163
 40
0.5760905802
 40
0.6175120189
 40
0.6594993243
 40
0.7019230188
 40
0.7446518888
 40
0.787553515
 40
0.8304947933
 40
0.8733424763
 40
0.9159636495
 40
0.9582263773
 40
1.0
 40
1.0
 40
1.0
 40
1.0
 10
15.0712748233
 20
6.4517307935
 30
0.0
 10
15.0723049276
 20
6.4516593602
 30
0.0
 10
15.0743729395
 20
6.4515757011
 30
0.0
 10
15.0774845936
 20
6.4516286132
 30
0.0
 10
15.0806072553
 20
6.4518598389
 30
0.0
 10
15.0837400366
 20
6.4522693023
 30
0.0
 10
15.0868823395
 20
6.4528568414
 30
0.0
 10
15.0911196879
 20
6.4538860037
 30
0.0
 10
15.096453565
 20
6.4556342261
 30
0.0
 10
15.1028203365
 20
6.4584239335
 30
0.0
 10
15.1092048191
 20
6.4619195726
 30
0.0
 10
15.115602106
 20
6.4661167392
 30
0.0
 10
15.1220080255
 20
6.471011256
 30
0.0
 10
15.1284182486
 20
6.4765986053
 30
0.0
 10
15.1348282625
 20
6.4828741015
 30
0.0
 10
15.1412334719
 20
6.4898325684
 30
0.0
 10
15.147629052
 20
6.4974684321
 30
0.0
 10
15.154010131
 20
6.505775544
 30
0.0
 10
15.1603716815
 20
6.5147472535
 30
0.0
 10
15.1667086658
 20
6.5243763212
 30
0.0
 10
15.1730159649
 20
6.5346549708
 30
0.0
 10
15.1792884714
 20
6.5455748525
 30
0.0
 10
15.1855210534
 20
6.5571270765
 30
0.0
 10
15.1917085997
 20
6.5693022046
 30
0.0
 10
15.1978460184
 20
6.5820902681
 30
0.0
 10
15.2039282393
 20
6.595480776
 30
0.0
 10
15.2099502458
 20
6.6094627232
 30
0.0
 10
15.2159070411
 20
6.6240246074
 30
0.0
 10
15.2217937097
 20
6.6391544318
 30
0.0
 10
15.2276053535
 20
6.6548397265
 30
0.0
 10
15.2333371792
 20
6.6710675491
 30
0.0
 10
15.2389844076
 20
6.6878245081
 30
0.0
 10
15.244542386
 20
6.7050967631
 30
0.0
 10
15.2500064728
 20
6.7228700483
 30
0.0
 10
15.2553721713
 20
6.7411296743
 30
0.0
 10
15.2606349962
 20
6.7598605517
 30
0.0
 10
15.2657906163
 20
6.7790471893
 30
0.0
 10
15.2708347394
 20
6.7986737396
 30
0.0
 10
15.2774636229
 20
6.8256420122
 30
0.0
 10
15.2854287594
 20
6.8603359448
 30
0.0
 10
15.2943970017
 20
6.9031038128
 30
0.0
 10
15.3028265625
 20
6.947219623
 30
0.0
 10
15.3106894173
 20
6.9925374243
 30
0.0
 10
15.3179594139
 20
7.0389074352
 30
0.0
 10
15.324612392
 20
7.0861763079
 30
0.0
 10
15.3306262518
 20
7.1341877103
 30
0.0
 10
15.3359810282
 20
7.1827828308
 30
0.0
 10
15.3406589557
 20
7.2318009144
 30
0.0
 10
15.3446445255
 20
7.2810797948
 30
0.0
 10
15.3479245387
 20
7.330456445
 30
0.0
 10
15.3504881446
 20
7.3797674874
 30
0.0
 10
15.3523268885
 20
7.4288498399
 30
0.0
 10
15.3534347186
 20
7.4775409489
 30
0.0
 10
15.3536853168
 20
7.5098548915
 30
0.0
 10
15.3536853168
 20
7.5259175756
 30
0.0
  0
SPLINE
  5
371
100
AcDbEntity
  8
0
100
AcDbSpline
 62
7
  6
CONTINUOUS
 70
0
 71
3
 72
18
 73
14
 74
0
 42
0.0000001
 43
0.0000001
 44
0.0000000001
 40
0.0
 40
0.0
 40
0.0
 40
0.0
 40
0.1480356372
 40
0.2876662502
 40
0.4195655771
 40
0.4828973127
 40
0.5446380375
 40
0.6638657774
 40
0.7785237916
 40
0.8345984481
 40
0.8900706527
 40
0.9451373023
 40
1.0
 40
1.0
 40
1.0
 40
1.0
 10
13.4918139541
 20
10.2427099235
 30
0.0
 10
13.4908710719
 20
10.2417991692
 30
0.0
 10
13.4890941181
 20
10.2399705244
 30
0.0
 10
13.4867048843
 20
10.237120675
 30
0.0
 10
13.4849911361
 20
10.2346955298
 30
0.0
 10
13.4838109299
 20
10.2327489718
 30
0.0
 10
13.4827802139
 20
10.2308460999
 30
0.0
 10
13.48170913
 20
10.2284516795
 30
0.0
 10
13.4809270418
 20
10.2259993914
 30
0.0
 10
13.4804928967
 20
10.22404278
 30
0.0
 10
13.4802618971
 20
10.222584548
 30
0.0
 10
13.4801232904
 20
10.2211255121
 30
0.0
 10
13.4800924686
 20
10.2201517622
 30
0.0
 10
13.4800924735
 20
10.2196659307
 30
0.0
  0
SPLINE
  5
372
100
AcDbEntity
  8
0
100
AcDbSpline
 62
7
  6
CONTINUOUS
 70
0
 71
3
 72
24
 73
20
 74
0
 42
0.0000001
 43
0.0000001
 44
0.0000000001
 40
0.0
 40
0.0
 40
0.0
 40
0.0
 40
0.0637764408
 40
0.1273443672
 40
0.1907010024
 40
0.2538548258
 40
0.3168116123
 40
0.3795801652
 40
0.4421711518
 40
0.5045967904
 40
0.5668710032
 40
0.6290092014
 40
0.6910281576
 40
0.7220010174
 40
0.7529508941
 40
0.8147862914
 40
0.8765592262
 40
0.9382901647
 40
1.0
 40
1.0
 40
1.0
 40
1.0
 10
8.8087896802
 20
9.2298482098
 30
0.0
 10
8.8087896802
 20
9.2385191242
 30
0.0
 10
8.8092047298
 20
9.2558355414
 30
0.0
 10
8.8110779225
 20
9.2817048039
 30
0.0
 10
8.814196865
 20
9.3073690377
 30
0.0
 10
8.8185540435
 20
9.3327679161
 30
0.0
 10
8.8241397552
 20
9.3578434183
 30
0.0
 10
8.8309410633
 20
9.3825375753
 30
0.0
 10
8.8389423249
 20
9.4067935026
 30
0.0
 10
8.8481251709
 20
9.4305552356
 30
0.0
 10
8.8584685741
 20
9.4537680431
 30
0.0
 10
8.8699484618
 20
9.4763780506
 30
0.0
 10
8.8804453138
 20
9.4946830172
 30
0.0
 10
8.8893821378
 20
9.5089707046
 30
0.0
 10
8.8986671728
 20
9.5230046763
 30
0.0
 10
8.9109315626
 20
9.5400800126
 30
0.0
 10
8.9266685256
 20
9.5597741106
 30
0.0
 10
8.9433846587
 20
9.5786209343
 30
0.0
 10
8.9551579286
 20
9.5905935949
 30
0.0
 10
8.9611924309
 20
9.5964224821
 30
0.0
  0
SPLINE
  5
373
100
AcDbEntity
  8
0
100
AcDbSpline
 62
7
  6
CONTINUOUS
 70
0
 71
3
 72
72
 73
68
 74
0
 42
0.0000001
 43
0.0000001
 44
0.0000000001
 40
0.0
 40
0.0
 40
0.0
 40
0.0
 40
0.0155841676
 40
0.0311159292
 40
0.0465951846
 40
0.0620238068
 40
0.0697201932
 40
0.077404584
 40
0.0927373976
 40
0.10802622
 40
0.1232742506
 40
0.1384851139
 40
0.1536628164
 40
0.1688117118
 40
0.1839364566
 40
0.1990419629
 40
0.2141333479
 40
0.2292158791
 40
0.2442949185
 40
0.2593758648
 40
0.2744640962
 40
0.2895649138
 40
0.3046834844
 40
0.3198247864
 40
0.3349935568
 40
0.3501942427
 40
0.3654309572
 40
0.3807074391
 40
0.3960270172
 40
0.4113925787
 40
0.4268065436
 40
0.4422708447
 40
0.4577869145
 40
0.4733556759
 40
0.4889775373
 40
0.5046523937
 40
0.5203796327
 40
0.5361581463
 40
0.5519863467
 40
0.5678621849
 40
0.583783173
 40
0.5997464103
 40
0.615748614
 40
0.6317861518
 40
0.6478550769
 40
0.6639511632
 40
0.6800699446
 40
0.6962067554
 40
0.7123567731
 40
0.7285150603
 40
0.7446766071
 40
0.7608363746
 40
0.7769893392
 40
0.7931305375
 40
0.809255109
 40
0.8253583382
 40
0.841435696
 40
0.8574828811
 40
0.8734958607
 40
0.8894709056
 40
0.9054046297
 40
0.9212940148
 40
0.9371364392
 40
0.9529297838
 40
0.9686720944
 40
0.9843627101
 40
1.0
 40
1.0
 40
1.0
 40
1.0
 10
7.9133987851
 20
6.8401521146
 30
0.0
 10
7.9133987851
 20
6.851195502
 30
0.0
 10
7.9139392461
 20
6.8732490358
 30
0.0
 10
7.9163788361
 20
6.9061904837
 30
0.0
 10
7.9204404005
 20
6.9388609639
 30
0.0
 10
7.9251724734
 20
6.9658173475
 30
0.0
 10
7.9297587069
 20
6.9871646981
 30
0.0
 10
7.9348671645
 20
7.0083232701
 30
0.0
 10
7.942239774
 20
7.0344608441
 30
0.0
 10
7.9526529529
 20
7.0652669172
 30
0.0
 10
7.9646010496
 20
7.0954184067
 30
0.0
 10
7.9780551966
 20
7.1248420991
 30
0.0
 10
7.992983054
 20
7.1534671588
 30
0.0
 10
8.0093486869
 20
7.1812244889
 30
0.0
 10
8.0271126828
 20
7.2080471283
 30
0.0
 10
8.0462322107
 20
7.2338703773
 30
0.0
 10
8.0666611784
 20
7.2586319419
 30
0.0
 10
8.0883503318
 20
7.2822720844
 30
0.0
 10
8.1112473758
 20
7.3047337672
 30
0.0
 10
8.1352970983
 20
7.3259627909
 30
0.0
 10
8.1604414658
 20
7.3459079739
 30
0.0
 10
8.1866198107
 20
7.3645212356
 30
0.0
 10
8.2137689775
 20
7.3817577093
 30
0.0
 10
8.2418234742
 20
7.3975758527
 30
0.0
 10
8.2707156341
 20
7.4119375362
 30
0.0
 10
8.3003757556
 20
7.4248081865
 30
0.0
 10
8.3307322896
 20
7.4361568483
 30
0.0
 10
8.3617120258
 20
7.4459562305
 30
0.0
 10
8.3932402646
 20
7.4541827775
 30
0.0
 10
8.4252409979
 20
7.460816715
 30
0.0
 10
8.4576370842
 20
7.4658421236
 30
0.0
 10
8.4903504366
 20
7.469247001
 30
0.0
 10
8.5233022228
 20
7.4710232329
 30
0.0
 10
8.5564130506
 20
7.4711666212
 30
0.0
 10
8.5896031567
 20
7.4696768884
 30
0.0
 10
8.6227925934
 20
7.4665576785
 30
0.0
 10
8.6559014285
 20
7.461816605
 30
0.0
 10
8.6888499365
 20
7.4554651718
 30
0.0
 10
8.7215587868
 20
7.4475187437
 30
0.0
 10
8.753949232
 20
7.4379965115
 30
0.0
 10
8.7859432893
 20
7.426921437
 30
0.0
 10
8.817463945
 20
7.4143202488
 30
0.0
 10
8.8484353359
 20
7.4002233524
 30
0.0
 10
8.8787829206
 20
7.3846647305
 30
0.0
 10
8.9084336586
 20
7.3676818705
 30
0.0
 10
8.937316178
 20
7.3493156679
 30
0.0
 10
8.9653609593
 20
7.3296103534
 30
0.0
 10
8.9925005199
 20
7.3086134035
 30
0.0
 10
9.0186695468
 20
7.2863753807
 30
0.0
 10
9.0438050555
 20
7.2629498223
 30
0.0
 10
9.0678465381
 20
7.2383931115
 30
0.0
 10
9.0907361062
 20
7.2127643453
 30
0.0
 10
9.1124186738
 20
7.1861252294
 30
0.0
 10
9.1328420502
 20
7.1585398886
 30
0.0
 10
9.151957062
 20
7.130074715
 30
0.0
 10
9.169717672
 20
7.1007982126
 30
0.0
 10
9.1860810792
 20
7.0707808308
 30
0.0
 10
9.2010078699
 20
7.0400948217
 30
0.0
 10
9.2144620922
 20
7.00881405
 30
0.0
 10
9.2264113218
 20
6.9770138057
 30
0.0
 10
9.2368267385
 20
6.9447706278
 30
0.0
 10
9.2456831875
 20
6.9121621364
 30
0.0
 10
9.2529593137
 20
6.8792667804
 30
0.0
 10
9.2586374447
 20
6.8461639479
 30
0.0
 10
9.262704093
 20
6.8129327892
 30
0.0
 10
9.2651490258
 20
6.7796547069
 30
0.0
 10
9.265695022
 20
6.7574510834
 30
0.0
 10
9.265695022
 20
6.7463700521
 30
0.0
  0
SPLINE
  5
374
100
AcDbEntity
  8
0
100
AcDbSpline
 62
7
  6
CONTINUOUS
 70
0
 71
3
 72
72
 73
68
 74
0
 42
0.0000001
 43
0.0000001
 44
0.0000000001
 40
0.0
 40
0.0
 40
0.0
 40
0.0
 40
0.0155841676
 40
0.0311159292
 40
0.0465951846
 40
0.0620238068
 40
0.0697201932
 40
0.077404584
 40
0.0927373976
 40
0.10802622
 40
0.1232742506
 40
0.1384851139
 40
0.1536628164
 40
0.1688117118
 40
0.1839364566
 40
0.1990419629
 40
0.2141333479
 40
0.2292158791
 40
0.2442949185
 40
0.2593758648
 40
0.2744640962
 40
0.2895649138
 40
0.3046834844
 40
0.3198247864
 40
0.3349935568
 40
0.3501942427
 40
0.3654309572
 40
0.3807074391
 40
0.3960270172
 40
0.4113925787
 40
0.4268065436
 40
0.4422708447
 40
0.4577869145
 40
0.4733556759
 40
0.4889775373
 40
0.5046523937
 40
0.5203796327
 40
0.5361581463
 40
0.5519863467
 40
0.5678621849
 40
0.583783173
 40
0.5997464103
 40
0.615748614
 40
0.6317861518
 40
0.6478550769
 40
0.6639511632
 40
0.6800699446
 40
0.6962067554
 40
0.7123567731
 40
0.7285150603
 40
0.7446766071
 40
0.7608363746
 40
0.7769893392
 40
0.7931305375
 40
0.809255109
 40
0.8253583382
 40
0.841435696
 40
0.8574828811
 40
0.8734958607
 40
0.8894709056
 40
0.9054046297
 40
0.9212940148
 40
0.9371364392
 40
0.9529297838
 40
0.9686720944
 40
0.9843627101
 40
1.0
 40
1.0
 40
1.0
 40
1.0
 10
11.53755256
 20
9.0036309055
 30
0.0
 10
11.53755256
 20
9.0146742929
 30
0.0
 10
11.5380930211
 20
9.0367278266
 30
0.0
 10
11.540532611
 20
9.0696692745
 30
0.0
 10
11.5445941754
 20
9.1023397548
 30
0.0
 10
11.5493262484
 20
9.1292961383
 30
0.0
 10
11.5539124819
 20
9.1506434889
 30
0.0
 10
11.5590209395
 20
9.171802061
 30
0.0
 10
11.5663935489
 20
9.1979396349
 30
0.0
 10
11.5768067279
 20
9.2287457081
 30
0.0
 10
11.5887548246
 20
9.2588971975
 30
0.0
 10
11.6022089716
 20
9.28832089
 30
0.0
 10
11.617136829
 20
9.3169459497
 30
0.0
 10
11.6335024619
 20
9.3447032798
 30
0.0
 10
11.6512664578
 20
9.3715259191
 30
0.0
 10
11.6703859857
 20
9.3973491682
 30
0.0
 10
11.6908149534
 20
9.4221107328
 30
0.0
 10
11.7125041067
 20
9.4457508752
 30
0.0
 10
11.7354011508
 20
9.4682125581
 30
0.0
 10
11.7594508732
 20
9.4894415817
 30
0.0
 10
11.7845952408
 20
9.5093867648
 30
0.0
 10
11.8107735857
 20
9.5280000264
 30
0.0
 10
11.8379227525
 20
9.5452365002
 30
0.0
 10
11.8659772491
 20
9.5610546435
 30
0.0
 10
11.8948694091
 20
9.5754163271
 30
0.0
 10
11.9245295306
 20
9.5882869774
 30
0.0
 10
11.9548860646
 20
9.5996356392
 30
0.0
 10
11.9858658007
 20
9.6094350213
 30
0.0
 10
12.0173940395
 20
9.6176615683
 30
0.0
 10
12.0493947729
 20
9.6242955059
 30
0.0
 10
12.0817908592
 20
9.6293209145
 30
0.0
 10
12.1145042115
 20
9.6327257918
 30
0.0
 10
12.1474559977
 20
9.6345020238
 30
0.0
 10
12.1805668256
 20
9.6346454121
 30
0.0
 10
12.2137569317
 20
9.6331556793
 30
0.0
 10
12.2469463684
 20
9.6300364693
 30
0.0
 10
12.2800552035
 20
9.6252953959
 30
0.0
 10
12.3130037115
 20
9.6189439626
 30
0.0
 10
12.3457125618
 20
9.6109975346
 30
0.0
 10
12.3781030069
 20
9.6014753024
 30
0.0
 10
12.4100970643
 20
9.5904002279
 30
0.0
 10
12.44161772
 20
9.5777990397
 30
0.0
 10
12.4725891109
 20
9.5637021432
 30
0.0
 10
12.5029366956
 20
9.5481435214
 30
0.0
 10
12.5325874336
 20
9.5311606613
 30
0.0
 10
12.561469953
 20
9.5127944587
 30
0.0
 10
12.5895147343
 20
9.4930891443
 30
0.0
 10
12.6166542949
 20
9.4720921944
 30
0.0
 10
12.6428233217
 20
9.4498541716
 30
0.0
 10
12.6679588305
 20
9.4264286131
 30
0.0
 10
12.6920003131
 20
9.4018719024
 30
0.0
 10
12.7148898812
 20
9.3762431362
 30
0.0
 10
12.7365724488
 20
9.3496040203
 30
0.0
 10
12.7569958251
 20
9.3220186795
 30
0.0
 10
12.776110837
 20
9.2935535059
 30
0.0
 10
12.793871447
 20
9.2642770035
 30
0.0
 10
12.8102348542
 20
9.2342596217
 30
0.0
 10
12.8251616449
 20
9.2035736126
 30
0.0
 10
12.8386158671
 20
9.1722928409
 30
0.0
 10
12.8505650967
 20
9.1404925966
 30
0.0
 10
12.8609805135
 20
9.1082494186
 30
0.0
 10
12.8698369624
 20
9.0756409272
 30
0.0
 10
12.8771130887
 20
9.0427455713
 30
0.0
 10
12.8827912196
 20
9.0096427388
 30
0.0
 10
12.886857868
 20
8.9764115801
 30
0.0
 10
12.8893028008
 20
8.9431334978
 30
0.0
 10
12.889848797
 20
8.9209298742
 30
0.0
 10
12.889848797
 20
8.9098488429
 30
0.0
  0
SPLINE
  5
375
100
AcDbEntity
  8
0
100
AcDbSpline
 62
7
  6
CONTINUOUS
 70
0
 71
3
 72
23
 73
19
 74
0
 42
0.0000001
 43
0.0000001
 44
0.0000000001
 40
0.0
 40
0.0
 40
0.0
 40
0.0
 40
0.052790178
 40
0.1058485708
 40
0.159439106
 40
0.2138170689
 40
0.2692259757
 40
0.3258947937
 40
0.3840355776
 40
0.4438431412
 40
0.505494423
 40
0.5691480749
 40
0.6349461492
 40
0.7030145764
 40
0.7734635595
 40
0.8463900174
 40
0.9218781797
 40
1.0
 40
1.0
 40
1.0
 40
1.0
 10
14.9329002334
 20
9.9070996181
 30
0.0
 10
14.9344344288
 20
9.906993225
 30
0.0
 10
14.9375039224
 20
9.9066660457
 30
0.0
 10
14.9420777265
 20
9.9058349352
 30
0.0
 10
14.9466242997
 20
9.9046633787
 30
0.0
 10
14.9511415412
 20
9.9031521734
 30
0.0
 10
14.9556278322
 20
9.9013020663
 30
0.0
 10
14.9600815157
 20
9.8991139404
 30
0.0
 10
14.9645011402
 20
9.8965889311
 30
0.0
 10
14.9688852464
 20
9.8937280928
 30
0.0
 10
14.9732324173
 20
9.8905325612
 30
0.0
 10
14.9775413703
 20
9.8870036626
 30
0.0
 10
14.9818107507
 20
9.8831426592
 30
0.0
 10
14.9860392122
 20
9.8789509031
 30
0.0
 10
14.9902255109
 20
9.8744299305
 30
0.0
 10
14.9943683173
 20
9.8695812353
 30
0.0
 10
14.9984662417
 20
9.864406515
 30
0.0
 10
15.0011213388
 20
9.8608031096
 30
0.0
 10
15.0024419316
 20
9.8589496043
 30
0.0
  0
SPLINE
  5
376
100
AcDbEntity
  8
0
100
AcDbSpline
 62
7
  6
CONTINUOUS
 70
0
 71
3
 72
45
 73
41
 74
0
 42
0.0000001
 43
0.0000001
 44
0.0000000001
 40
0.0
 40
0.0
 40
0.0
 40
0.0
 40
0.0310742591
 40
0.0623057248
 40
0.0936898558
 40
0.1252179055
 40
0.1568785544
 40
0.1886576023
 40
0.2205384471
 40
0.2525024134
 40
0.2845291519
 40
0.3165970575
 40
0.3486837056
 40
0.3807662987
 40
0.41282212
 40
0.4448289841
 40
0.4767656829
 40
0.5086124157
 40
0.5403511991
 40
0.5719662503
 40
0.6034443345
 40
0.6347750729
 40
0.6659512007
 40
0.6969687669
 40
0.7278272696
 40
0.7585297199
 40
0.7890826282
 40
0.8194959087
 40
0.8346570227
 40
0.849788412
 40
0.8648921801
 40
0.8799705893
 40
0.8950260603
 40
0.9100611438
 40
0.9250785188
 40
0.9400809693
 40
0.955071368
 40
0.9700526654
 40
0.9850278619
 40
1.0
 40
1.0
 40
1.0
 40
1.0
 10
8.8087896802
 20
9.2298482098
 30
0.0
 10
8.8087896802
 20
9.2163951927
 30
0.0
 10
8.809793242
 20
9.1894107464
 30
0.0
 10
8.814273949
 20
9.1490632498
 30
0.0
 10
8.8217085276
 20
9.108952675
 30
0.0
 10
8.8320559124
 20
9.0693021177
 30
0.0
 10
8.845258785
 20
9.0303285665
 30
0.0
 10
8.8612443774
 20
8.9922461281
 30
0.0
 10
8.8799246526
 20
8.9552637465
 30
0.0
 10
8.9011968455
 20
8.9195843676
 30
0.0
 10
8.9249440131
 20
8.8854037522
 30
0.0
 10
8.9510356954
 20
8.8529094498
 30
0.0
 10
8.9793286207
 20
8.8222797734
 30
0.0
 10
9.0096674843
 20
8.7936828355
 30
0.0
 10
9.0418857931
 20
8.7672756373
 30
0.0
 10
9.0758067614
 20
8.7432032075
 30
0.0
 10
9.1112442601
 20
8.721597793
 30
0.0
 10
9.1480038483
 20
8.7025781654
 30
0.0
 10
9.1858838216
 20
8.6862489686
 30
0.0
 10
9.2246763035
 20
8.6727001475
 30
0.0
 10
9.2641683676
 20
8.662006451
 30
0.0
 10
9.3041431923
 20
8.6542270214
 30
0.0
 10
9.3443812155
 20
8.6494050182
 30
0.0
 10
9.384661382
 20
8.6475674129
 30
0.0
 10
9.4247621668
 20
8.6487247654
 30
0.0
 10
9.464463431
 20
8.6528713731
 30
0.0
 10
9.50354521
 20
8.65998442
 30
0.0
 10
9.5354572817
 20
8.6683625924
 30
0.0
 10
9.5604520561
 20
8.6765026044
 30
0.0
 10
9.5788940059
 20
8.683311218
 30
0.0
 10
9.5970231987
 20
8.6908197638
 30
0.0
 10
9.6148150335
 20
8.6990180359
 30
0.0
 10
9.63224499
 20
8.7078946152
 30
0.0
 10
9.6492890061
 20
8.717437496
 30
0.0
 10
9.6659237306
 20
8.7276333444
 30
0.0
 10
9.6821261741
 20
8.7384683153
 30
0.0
 10
9.6978740757
 20
8.7499273838
 30
0.0
 10
9.71314584
 20
8.7619948674
 30
0.0
 10
9.7279200854
 20
8.7746539651
 30
0.0
 10
9.7374254839
 20
8.7834770543
 30
0.0
 10
9.7420876225
 20
8.7879803387
 30
0.0
  0
SPLINE
  5
377
100
AcDbEntity
  8
0
100
AcDbSpline
 62
7
  6
CONTINUOUS
 70
0
 71
3
 72
72
 73
68
 74
0
 42
0.0000001
 43
0.0000001
 44
0.0000000001
 40
0.0
 40
0.0
 40
0.0
 40
0.0
 40
0.0155841676
 40
0.0311159292
 40
0.0465951846
 40
0.0620238068
 40
0.0697201932
 40
0.077404584
 40
0.0927373976
 40
0.10802622
 40
0.1232742506
 40
0.1384851139
 40
0.1536628164
 40
0.1688117118
 40
0.1839364566
 40
0.1990419629
 40
0.2141333479
 40
0.2292158791
 40
0.2442949185
 40
0.2593758648
 40
0.2744640962
 40
0.2895649138
 40
0.3046834844
 40
0.3198247864
 40
0.3349935568
 40
0.3501942427
 40
0.3654309572
 40
0.3807074391
 40
0.3960270172
 40
0.4113925787
 40
0.4268065436
 40
0.4422708447
 40
0.4577869145
 40
0.4733556759
 40
0.4889775373
 40
0.5046523937
 40
0.5203796327
 40
0.5361581463
 40
0.5519863467
 40
0.5678621849
 40
0.583783173
 40
0.5997464103
 40
0.615748614
 40
0.6317861518
 40
0.6478550769
 40
0.6639511632
 40
0.6800699446
 40
0.6962067554
 40
0.7123567731
 40
0.7285150603
 40
0.7446766071
 40
0.7608363746
 40
0.7769893392
 40
0.7931305375
 40
0.809255109
 40
0.8253583382
 40
0.841435696
 40
0.8574828811
 40
0.8734958607
 40
0.8894709056
 40
0.9054046297
 40
0.9212940148
 40
0.9371364392
 40
0.9529297838
 40
0.9686720944
 40
0.9843627101
 40
1.0
 40
1.0
 40
1.0
 40
1.0
 10
10.8111764357
 20
6.639190552
 30
0.0
 10
10.8111764357
 20
6.6502339394
 30
0.0
 10
10.8117168967
 20
6.6722874731
 30
0.0
 10
10.8141564866
 20
6.705228921
 30
0.0
 10
10.818218051
 20
6.7378994013
 30
0.0
 10
10.822950124
 20
6.7648557849
 30
0.0
 10
10.8275363575
 20
6.7862031354
 30
0.0
 10
10.8326448151
 20
6.8073617075
 30
0.0
 10
10.8400174245
 20
6.8334992814
 30
0.0
 10
10.8504306035
 20
6.8643053546
 30
0.0
 10
10.8623787002
 20
6.894456844
 30
0.0
 10
10.8758328472
 20
6.9238805365
 30
0.0
 10
10.8907607046
 20
6.9525055962
 30
0.0
 10
10.9071263375
 20
6.9802629263
 30
0.0
 10
10.9248903334
 20
7.0070855657
 30
0.0
 10
10.9440098613
 20
7.0329088147
 30
0.0
 10
10.964438829
 20
7.0576703793
 30
0.0
 10
10.9861279824
 20
7.0813105218
 30
0.0
 10
11.0090250264
 20
7.1037722046
 30
0.0
 10
11.0330747488
 20
7.1250012283
 30
0.0
 10
11.0582191164
 20
7.1449464113
 30
0.0
 10
11.0843974613
 20
7.163559673
 30
0.0
 10
11.1115466281
 20
7.1807961467
 30
0.0
 10
11.1396011247
 20
7.1966142901
 30
0.0
 10
11.1684932847
 20
7.2109759736
 30
0.0
 10
11.1981534062
 20
7.2238466239
 30
0.0
 10
11.2285099402
 20
7.2351952857
 30
0.0
 10
11.2594896763
 20
7.2449946678
 30
0.0
 10
11.2910179152
 20
7.2532212149
 30
0.0
 10
11.3230186485
 20
7.2598551524
 30
0.0
 10
11.3554147348
 20
7.264880561
 30
0.0
 10
11.3881280871
 20
7.2682854383
 30
0.0
 10
11.4210798733
 20
7.2700616703
 30
0.0
 10
11.4541907012
 20
7.2702050586
 30
0.0
 10
11.4873808073
 20
7.2687153258
 30
0.0
 10
11.520570244
 20
7.2655961159
 30
0.0
 10
11.5536790791
 20
7.2608550424
 30
0.0
 10
11.5866275871
 20
7.2545036092
 30
0.0
 10
11.6193364374
 20
7.2465571811
 30
0.0
 10
11.6517268825
 20
7.2370349489
 30
0.0
 10
11.6837209399
 20
7.2259598744
 30
0.0
 10
11.7152415956
 20
7.2133586862
 30
0.0
 10
11.7462129865
 20
7.1992617898
 30
0.0
 10
11.7765605712
 20
7.1837031679
 30
0.0
 10
11.8062113092
 20
7.1667203078
 30
0.0
 10
11.8350938286
 20
7.1483541052
 30
0.0
 10
11.8631386099
 20
7.1286487908
 30
0.0
 10
11.8902781705
 20
7.1076518409
 30
0.0
 10
11.9164471973
 20
7.0854138181
 30
0.0
 10
11.9415827061
 20
7.0619882597
 30
0.0
 10
11.9656241887
 20
7.0374315489
 30
0.0
 10
11.9885137568
 20
7.0118027827
 30
0.0
 10
12.0101963244
 20
6.9851636668
 30
0.0
 10
12.0306197008
 20
6.957578326
 30
0.0
 10
12.0497347126
 20
6.9291131524
 30
0.0
 10
12.0674953226
 20
6.89983665
 30
0.0
 10
12.0838587298
 20
6.8698192682
 30
0.0
 10
12.0987855205
 20
6.8391332591
 30
0.0
 10
12.1122397427
 20
6.8078524874
 30
0.0
 10
12.1241889724
 20
6.7760522431
 30
0.0
 10
12.1346043891
 20
6.7438090651
 30
0.0
 10
12.143460838
 20
6.7112005738
 30
0.0
 10
12.1507369643
 20
6.6783052178
 30
0.0
 10
12.1564150953
 20
6.6452023853
 30
0.0
 10
12.1604817436
 20
6.6119712266
 30
0.0
 10
12.1629266764
 20
6.5786931443
 30
0.0
 10
12.1634726726
 20
6.5564895207
 30
0.0
 10
12.1634726726
 20
6.5454084894
 30
0.0
  0
SPLINE
  5
378
100
AcDbEntity
  8
0
100
AcDbSpline
 62
7
  6
CONTINUOUS
 70
0
 71
3
 72
72
 73
68
 74
0
 42
0.0000001
 43
0.0000001
 44
0.0000000001
 40
0.0
 40
0.0
 40
0.0
 40
0.0
 40
0.0155841676
 40
0.0311159292
 40
0.0465951846
 40
0.0620238068
 40
0.0697201932
 40
0.077404584
 40
0.0927373976
 40
0.10802622
 40
0.1232742506
 40
0.1384851139
 40
0.1536628164
 40
0.1688117118
 40
0.1839364566
 40
0.1990419629
 40
0.2141333479
 40
0.2292158791
 40
0.2442949185
 40
0.2593758648
 40
0.2744640962
 40
0.2895649138
 40
0.3046834844
 40
0.3198247864
 40
0.3349935568
 40
0.3501942427
 40
0.3654309572
 40
0.3807074391
 40
0.3960270172
 40
0.4113925787
 40
0.4268065436
 40
0.4422708447
 40
0.4577869145
 40
0.4733556759
 40
0.4889775373
 40
0.5046523937
 40
0.5203796327
 40
0.5361581463
 40
0.5519863467
 40
0.5678621849
 40
0.583783173
 40
0.5997464103
 40
0.615748614
 40
0.6317861518
 40
0.6478550769
 40
0.6639511632
 40
0.6800699446
 40
0.6962067554
 40
0.7123567731
 40
0.7285150603
 40
0.7446766071
 40
0.7608363746
 40
0.7769893392
 40
0.7931305375
 40
0.809255109
 40
0.8253583382
 40
0.841435696
 40
0.8574828811
 40
0.8734958607
 40
0.8894709056
 40
0.9054046297
 40
0.9212940148
 40
0.9371364392
 40
0.9529297838
 40
0.9686720944
 40
0.9843627101
 40
1.0
 40
1.0
 40
1.0
 40
1.0
 10
12.1634726726
 20
6.5454084894
 30
0.0
 10
12.1634726726
 20
6.5343651021
 30
0.0
 10
12.1629322115
 20
6.5123115683
 30
0.0
 10
12.1604926216
 20
6.4793701204
 30
0.0
 10
12.1564310572
 20
6.4466996401
 30
0.0
 10
12.1516989842
 20
6.4197432566
 30
0.0
 10
12.1471127507
 20
6.398395906
 30
0.0
 10
12.1420042931
 20
6.377237334
 30
0.0
 10
12.1346316837
 20
6.35109976
 30
0.0
 10
12.1242185047
 20
6.3202936868
 30
0.0
 10
12.112270408
 20
6.2901421974
 30
0.0
 10
12.098816261
 20
6.2607185049
 30
0.0
 10
12.0838884037
 20
6.2320934452
 30
0.0
 10
12.0675227707
 20
6.2043361151
 30
0.0
 10
12.0497587749
 20
6.1775134758
 30
0.0
 10
12.0306392469
 20
6.1516902267
 30
0.0
 10
12.0102102793
 20
6.1269286621
 30
0.0
 10
11.9885211259
 20
6.1032885197
 30
0.0
 10
11.9656240819
 20
6.0808268368
 30
0.0
 10
11.9415743594
 20
6.0595978132
 30
0.0
 10
11.9164299918
 20
6.0396526301
 30
0.0
 10
11.8902516469
 20
6.0210393685
 30
0.0
 10
11.8631024802
 20
6.0038028947
 30
0.0
 10
11.8350479835
 20
5.9879847514
 30
0.0
 10
11.8061558235
 20
5.9736230678
 30
0.0
 10
11.7764957021
 20
5.9607524175
 30
0.0
 10
11.7461391681
 20
5.9494037557
 30
0.0
 10
11.7151594319
 20
5.9396043736
 30
0.0
 10
11.6836311931
 20
5.9313778266
 30
0.0
 10
11.6516304597
 20
5.924743889
 30
0.0
 10
11.6192343735
 20
5.9197184804
 30
0.0
 10
11.5865210211
 20
5.9163136031
 30
0.0
 10
11.5535692349
 20
5.9145373711
 30
0.0
 10
11.520458407
 20
5.9143939828
 30
0.0
 10
11.487268301
 20
5.9158837156
 30
0.0
 10
11.4540788643
 20
5.9190029256
 30
0.0
 10
11.4209700291
 20
5.9237439991
 30
0.0
 10
11.3880215211
 20
5.9300954323
 30
0.0
 10
11.3553126708
 20
5.9380418603
 30
0.0
 10
11.3229222257
 20
5.9475640925
 30
0.0
 10
11.2909281684
 20
5.958639167
 30
0.0
 10
11.2594075127
 20
5.9712403552
 30
0.0
 10
11.2284361218
 20
5.9853372517
 30
0.0
 10
11.198088537
 20
6.0008958735
 30
0.0
 10
11.168437799
 20
6.0178787336
 30
0.0
 10
11.1395552797
 20
6.0362449362
 30
0.0
 10
11.1115104984
 20
6.0559502506
 30
0.0
 10
11.0843709377
 20
6.0769472005
 30
0.0
 10
11.0582019109
 20
6.0991852233
 30
0.0
 10
11.0330664022
 20
6.1226107818
 30
0.0
 10
11.0090249195
 20
6.1471674925
 30
0.0
 10
10.9861353515
 20
6.1727962587
 30
0.0
 10
10.9644527839
 20
6.1994353746
 30
0.0
 10
10.9440294075
 20
6.2270207154
 30
0.0
 10
10.9249143956
 20
6.255485889
 30
0.0
 10
10.9071537856
 20
6.2847623914
 30
0.0
 10
10.8907903785
 20
6.3147797732
 30
0.0
 10
10.8758635878
 20
6.3454657823
 30
0.0
 10
10.8624093655
 20
6.376746554
 30
0.0
 10
10.8504601359
 20
6.4085467983
 30
0.0
 10
10.8400447192
 20
6.4407899763
 30
0.0
 10
10.8311882702
 20
6.4733984677
 30
0.0
 10
10.823912144
 20
6.5062938236
 30
0.0
 10
10.818234013
 20
6.5393966561
 30
0.0
 10
10.8141673647
 20
6.5726278148
 30
0.0
 10
10.8117224318
 20
6.6059058971
 30
0.0
 10
10.8111764357
 20
6.6281095207
 30
0.0
 10
10.8111764357
 20
6.639190552
 30
0.0
  0
SPLINE
  5
379
100
AcDbEntity
  8
0
100
AcDbSpline
 62
7
  6
CONTINUOUS
 70
0
 71
3
 72
72
 73
68
 74
0
 42
0.0000001
 43
0.0000001
 44
0.0000000001
 40
0.0
 40
0.0
 40
0.0
 40
0.0
 40
0.0155841676
 40
0.0311159292
 40
0.0465951846
 40
0.0620238068
 40
0.0697201932
 40
0.077404584
 40
0.0927373976
 40
0.10802622
 40
0.1232742506
 40
0.1384851139
 40
0.1536628164
 40
0.1688117118
 40
0.1839364566
 40
0.1990419629
 40
0.2141333479
 40
0.2292158791
 40
0.2442949185
 40
0.2593758648
 40
0.2744640962
 40
0.2895649138
 40
0.3046834844
 40
0.3198247864
 40
0.3349935568
 40
0.3501942427
 40
0.3654309572
 40
0.3807074391
 40
0.3960270172
 40
0.4113925787
 40
0.4268065436
 40
0.4422708447
 40
0.4577869145
 40
0.4733556759
 40
0.4889775373
 40
0.5046523937
 40
0.5203796327
 40
0.5361581463
 40
0.5519863467
 40
0.5678621849
 40
0.583783173
 40
0.5997464103
 40
0.615748614
 40
0.6317861518
 40
0.6478550769
 40
0.6639511632
 40
0.6800699446
 40
0.6962067554
 40
0.7123567731
 40
0.7285150603
 40
0.7446766071
 40
0.7608363746
 40
0.7769893392
 40
0.7931305375
 40
0.809255109
 40
0.8253583382
 40
0.841435696
 40
0.8574828811
 40
0.8734958607
 40
0.8894709056
 40
0.9054046297
 40
0.9212940148
 40
0.9371364392
 40
0.9529297838
 40
0.9686720944
 40
0.9843627101
 40
1.0
 40
1.0
 40
1.0
 40
1.0
 10
9.265695022
 20
6.7463700521
 30
0.0
 10
9.265695022
 20
6.7353266647
 30
0.0
 10
9.265154561
 20
6.7132731309
 30
0.0
 10
9.262714971
 20
6.680331683
 30
0.0
 10
9.2586534066
 20
6.6476612027
 30
0.0
 10
9.2539213337
 20
6.6207048192
 30
0.0
 10
9.2493351002
 20
6.5993574686
 30
0.0
 10
9.2442266426
 20
6.5781988966
 30
0.0
 10
9.2368540332
 20
6.5520613226
 30
0.0
 10
9.2264408542
 20
6.5212552494
 30
0.0
 10
9.2144927575
 20
6.49110376
 30
0.0
 10
9.2010386105
 20
6.4616800676
 30
0.0
 10
9.1861107531
 20
6.4330550078
 30
0.0
 10
9.1697451202
 20
6.4052976777
 30
0.0
 10
9.1519811243
 20
6.3784750384
 30
0.0
 10
9.1328615964
 20
6.3526517894
 30
0.0
 10
9.1124326287
 20
6.3278902247
 30
0.0
 10
9.0907434753
 20
6.3042500823
 30
0.0
 10
9.0678464313
 20
6.2817883994
 30
0.0
 10
9.0437967088
 20
6.2605593758
 30
0.0
 10
9.0186523413
 20
6.2406141927
 30
0.0
 10
8.9924739964
 20
6.2220009311
 30
0.0
 10
8.9653248296
 20
6.2047644573
 30
0.0
 10
8.937270333
 20
6.188946314
 30
0.0
 10
8.908378173
 20
6.1745846304
 30
0.0
 10
8.8787180515
 20
6.1617139801
 30
0.0
 10
8.8483615175
 20
6.1503653184
 30
0.0
 10
8.8173817813
 20
6.1405659362
 30
0.0
 10
8.7858535425
 20
6.1323393892
 30
0.0
 10
8.7538528092
 20
6.1257054517
 30
0.0
 10
8.7214567229
 20
6.120680043
 30
0.0
 10
8.6887433705
 20
6.1172751657
 30
0.0
 10
8.6557915843
 20
6.1154989337
 30
0.0
 10
8.6226807565
 20
6.1153555455
 30
0.0
 10
8.5894906504
 20
6.1168452783
 30
0.0
 10
8.5563012137
 20
6.1199644882
 30
0.0
 10
8.5231923786
 20
6.1247055617
 30
0.0
 10
8.4902438706
 20
6.1310569949
 30
0.0
 10
8.4575350203
 20
6.139003423
 30
0.0
 10
8.4251445752
 20
6.1485256551
 30
0.0
 10
8.3931505178
 20
6.1596007296
 30
0.0
 10
8.3616298621
 20
6.1722019178
 30
0.0
 10
8.3306584712
 20
6.1862988143
 30
0.0
 10
8.3003108865
 20
6.2018574362
 30
0.0
 10
8.2706601485
 20
6.2188402962
 30
0.0
 10
8.2417776291
 20
6.2372064988
 30
0.0
 10
8.2137328478
 20
6.2569118132
 30
0.0
 10
8.1865932872
 20
6.2779087631
 30
0.0
 10
8.1604242604
 20
6.300146786
 30
0.0
 10
8.1352887516
 20
6.3235723444
 30
0.0
 10
8.111247269
 20
6.3481290552
 30
0.0
 10
8.0883577009
 20
6.3737578213
 30
0.0
 10
8.0666751333
 20
6.4003969372
 30
0.0
 10
8.0462517569
 20
6.427982278
 30
0.0
 10
8.0271367451
 20
6.4564474517
 30
0.0
 10
8.0093761351
 20
6.485723954
 30
0.0
 10
7.9930127279
 20
6.5157413358
 30
0.0
 10
7.9780859372
 20
6.546427345
 30
0.0
 10
7.9646317149
 20
6.5777081166
 30
0.0
 10
7.9526824853
 20
6.6095083609
 30
0.0
 10
7.9422670686
 20
6.6417515389
 30
0.0
 10
7.9334106196
 20
6.6743600303
 30
0.0
 10
7.9261344934
 20
6.7072553862
 30
0.0
 10
7.9204563624
 20
6.7403582187
 30
0.0
 10
7.9163897141
 20
6.7735893775
 30
0.0
 10
7.9139447813
 20
6.8068674598
 30
0.0
 10
7.9133987851
 20
6.8290710833
 30
0.0
 10
7.9133987851
 20
6.8401521146
 30
0.0
  0
SPLINE
  5
37A
100
AcDbEntity
  8
0
100
AcDbSpline
 62
7
  6
CONTINUOUS
 70
0
 71
3
 72
24
 73
20
 74
0
 42
0.0000001
 43
0.0000001
 44
0.0000000001
 40
0.0
 40
0.0
 40
0.0
 40
0.0
 40
0.0637764408
 40
0.1273443672
 40
0.1907010024
 40
0.2538548258
 40
0.3168116123
 40
0.3795801652
 40
0.4421711518
 40
0.5045967904
 40
0.5668710032
 40
0.6290092014
 40
0.6910281576
 40
0.7220010174
 40
0.7529508941
 40
0.8147862914
 40
0.8765592262
 40
0.9382901647
 40
1.0
 40
1.0
 40
1.0
 40
1.0
 10
11.7065673307
 20
9.0288866472
 30
0.0
 10
11.7065673307
 20
9.0375575616
 30
0.0
 10
11.7069823804
 20
9.0548739788
 30
0.0
 10
11.7088555731
 20
9.0807432413
 30
0.0
 10
11.7119745156
 20
9.1064074751
 30
0.0
 10
11.7163316941
 20
9.1318063535
 30
0.0
 10
11.7219174058
 20
9.1568818556
 30
0.0
 10
11.7287187139
 20
9.1815760127
 30
0.0
 10
11.7367199755
 20
9.20583194
 30
0.0
 10
11.7459028214
 20
9.2295936729
 30
0.0
 10
11.7562462246
 20
9.2528064804
 30
0.0
 10
11.7677261124
 20
9.275416488
 30
0.0
 10
11.7782229644
 20
9.2937214545
 30
0.0
 10
11.7871597884
 20
9.308009142
 30
0.0
 10
11.7964448234
 20
9.3220431137
 30
0.0
 10
11.8087092131
 20
9.33911845
 30
0.0
 10
11.8244461762
 20
9.358812548
 30
0.0
 10
11.8411623093
 20
9.3776593717
 30
0.0
 10
11.8529355792
 20
9.3896320322
 30
0.0
 10
11.8589700815
 20
9.3954609194
 30
0.0
  0
SPLINE
  5
37B
100
AcDbEntity
  8
0
100
AcDbSpline
 62
7
  6
CONTINUOUS
 70
0
 71
3
 72
72
 73
68
 74
0
 42
0.0000001
 43
0.0000001
 44
0.0000000001
 40
0.0
 40
0.0
 40
0.0
 40
0.0
 40
0.0155841676
 40
0.0311159292
 40
0.0465951846
 40
0.0620238068
 40
0.0697201932
 40
0.077404584
 40
0.0927373976
 40
0.10802622
 40
0.1232742506
 40
0.1384851139
 40
0.1536628164
 40
0.1688117118
 40
0.1839364566
 40
0.1990419629
 40
0.2141333479
 40
0.2292158791
 40
0.2442949185
 40
0.2593758648
 40
0.2744640962
 40
0.2895649138
 40
0.3046834844
 40
0.3198247864
 40
0.3349935568
 40
0.3501942427
 40
0.3654309572
 40
0.3807074391
 40
0.3960270172
 40
0.4113925787
 40
0.4268065436
 40
0.4422708447
 40
0.4577869145
 40
0.4733556759
 40
0.4889775373
 40
0.5046523937
 40
0.5203796327
 40
0.5361581463
 40
0.5519863467
 40
0.5678621849
 40
0.583783173
 40
0.5997464103
 40
0.615748614
 40
0.6317861518
 40
0.6478550769
 40
0.6639511632
 40
0.6800699446
 40
0.6962067554
 40
0.7123567731
 40
0.7285150603
 40
0.7446766071
 40
0.7608363746
 40
0.7769893392
 40
0.7931305375
 40
0.809255109
 40
0.8253583382
 40
0.841435696
 40
0.8574828811
 40
0.8734958607
 40
0.8894709056
 40
0.9054046297
 40
0.9212940148
 40
0.9371364392
 40
0.9529297838
 40
0.9686720944
 40
0.9843627101
 40
1.0
 40
1.0
 40
1.0
 40
1.0
 10
12.889848797
 20
8.9098488429
 30
0.0
 10
12.889848797
 20
8.8988054555
 30
0.0
 10
12.8893083359
 20
8.8767519218
 30
0.0
 10
12.886868746
 20
8.8438104739
 30
0.0
 10
12.8828071816
 20
8.8111399936
 30
0.0
 10
12.8780751086
 20
8.78418361
 30
0.0
 10
12.8734888751
 20
8.7628362595
 30
0.0
 10
12.8683804175
 20
8.7416776874
 30
0.0
 10
12.8610078081
 20
8.7155401135
 30
0.0
 10
12.8505946291
 20
8.6847340403
 30
0.0
 10
12.8386465324
 20
8.6545825509
 30
0.0
 10
12.8251923854
 20
8.6251588584
 30
0.0
 10
12.8102645281
 20
8.5965337987
 30
0.0
 10
12.7938988951
 20
8.5687764686
 30
0.0
 10
12.7761348992
 20
8.5419538292
 30
0.0
 10
12.7570153713
 20
8.5161305802
 30
0.0
 10
12.7365864037
 20
8.4913690156
 30
0.0
 10
12.7148972503
 20
8.4677288731
 30
0.0
 10
12.6920002063
 20
8.4452671903
 30
0.0
 10
12.6679504838
 20
8.4240381667
 30
0.0
 10
12.6428061162
 20
8.4040929836
 30
0.0
 10
12.6166277713
 20
8.385479722
 30
0.0
 10
12.5894786046
 20
8.3682432482
 30
0.0
 10
12.5614241079
 20
8.3524251049
 30
0.0
 10
12.5325319479
 20
8.3380634213
 30
0.0
 10
12.5028718265
 20
8.325192771
 30
0.0
 10
12.4725152924
 20
8.3138441092
 30
0.0
 10
12.4415355563
 20
8.3040447271
 30
0.0
 10
12.4100073175
 20
8.2958181801
 30
0.0
 10
12.3780065841
 20
8.2891842425
 30
0.0
 10
12.3456104979
 20
8.2841588339
 30
0.0
 10
12.3128971455
 20
8.2807539566
 30
0.0
 10
12.2799453593
 20
8.2789777246
 30
0.0
 10
12.2468345314
 20
8.2788343363
 30
0.0
 10
12.2136444254
 20
8.2803240691
 30
0.0
 10
12.1804549887
 20
8.283443279
 30
0.0
 10
12.1473461535
 20
8.2881843525
 30
0.0
 10
12.1143976455
 20
8.2945357857
 30
0.0
 10
12.0816887952
 20
8.3024822138
 30
0.0
 10
12.0492983501
 20
8.312004446
 30
0.0
 10
12.0173042927
 20
8.3230795205
 30
0.0
 10
11.9857836371
 20
8.3356807087
 30
0.0
 10
11.9548122461
 20
8.3497776052
 30
0.0
 10
11.9244646614
 20
8.365336227
 30
0.0
 10
11.8948139234
 20
8.3823190871
 30
0.0
 10
11.8659314041
 20
8.4006852897
 30
0.0
 10
11.8378866228
 20
8.4203906041
 30
0.0
 10
11.8107470621
 20
8.441387554
 30
0.0
 10
11.7845780353
 20
8.4636255768
 30
0.0
 10
11.7594425266
 20
8.4870511352
 30
0.0
 10
11.7354010439
 20
8.511607846
 30
0.0
 10
11.7125114759
 20
8.5372366122
 30
0.0
 10
11.6908289083
 20
8.5638757281
 30
0.0
 10
11.6704055319
 20
8.5914610689
 30
0.0
 10
11.65129052
 20
8.6199262425
 30
0.0
 10
11.63352991
 20
8.6492027449
 30
0.0
 10
11.6171665029
 20
8.6792201267
 30
0.0
 10
11.6022397122
 20
8.7099061358
 30
0.0
 10
11.5887854899
 20
8.7411869075
 30
0.0
 10
11.5768362603
 20
8.7729871518
 30
0.0
 10
11.5664208436
 20
8.8052303298
 30
0.0
 10
11.5575643946
 20
8.8378388211
 30
0.0
 10
11.5502882683
 20
8.8707341771
 30
0.0
 10
11.5446101374
 20
8.9038370096
 30
0.0
 10
11.540543489
 20
8.9370681683
 30
0.0
 10
11.5380985562
 20
8.9703462506
 30
0.0
 10
11.53755256
 20
8.9925498742
 30
0.0
 10
11.53755256
 20
9.0036309055
 30
0.0
  0
SPLINE
  5
37C
100
AcDbEntity
  8
0
100
AcDbSpline
 62
7
  6
CONTINUOUS
 70
0
 71
3
 72
67
 73
63
 74
0
 42
0.0000001
 43
0.0000001
 44
0.0000000001
 40
0.0
 40
0.0
 40
0.0
 40
0.0
 40
0.0452100989
 40
0.0910008364
 40
0.1371883692
 40
0.183585715
 40
0.2300053249
 40
0.2762593961
 40
0.3221610018
 40
0.3675250301
 40
0.4121691589
 40
0.4559148351
 40
0.4985882708
 40
0.5194704045
 40
0.5400220161
 40
0.5602231578
 40
0.5800544325
 40
0.5994969435
 40
0.6185323721
 40
0.6371430433
 40
0.6553118814
 40
0.6730225883
 40
0.6902595554
 40
0.7070080243
 40
0.7232541088
 40
0.7389848235
 40
0.754188278
 40
0.7688536093
 40
0.782971248
 40
0.796532929
 40
0.809531877
 40
0.8219630437
 40
0.8338231942
 40
0.8451113554
 40
0.8558289813
 40
0.8659804821
 40
0.8755737161
 40
0.884620568
 40
0.8931378811
 40
0.9011482533
 40
0.9086813189
 40
0.9157749243
 40
0.9224764257
 40
0.9288438133
 40
0.9319246608
 40
0.9349487983
 40
0.9379264824
 40
0.9408684995
 40
0.943786083
 40
0.9466907733
 40
0.9495942751
 40
0.9525083127
 40
0.9554444684
 40
0.9584140433
 40
0.9614279368
 40
0.9644965161
 40
0.9676295467
 40
0.9708361557
 40
0.977501043
 40
0.9845526509
 40
0.9920393771
 40
1.0
 40
1.0
 40
1.0
 40
1.0
 10
15.4455412276
 20
7.5396435307
 30
0.0
 10
15.4455412276
 20
7.5196872815
 30
0.0
 10
15.44518532
 20
7.4795176745
 30
0.0
 10
15.4436159476
 20
7.4189788002
 30
0.0
 10
15.4410136398
 20
7.357950856
 30
0.0
 10
15.4373895008
 20
7.2966970728
 30
0.0
 10
15.4327591604
 20
7.2354816591
 30
0.0
 10
15.4271425868
 20
7.1745685696
 30
0.0
 10
15.4205640597
 20
7.1142204666
 30
0.0
 10
15.4130520514
 20
7.054697566
 30
0.0
 10
15.4046391142
 20
6.9962564265
 30
0.0
 10
15.3953616908
 20
6.9391491288
 30
0.0
 10
15.3868838777
 20
6.8925467089
 30
0.0
 10
15.379688701
 20
6.8561241962
 30
0.0
 10
15.3741410842
 20
6.829488942
 30
0.0
 10
15.3684094085
 20
6.8033673867
 30
0.0
 10
15.3624998953
 20
6.7777876709
 30
0.0
 10
15.3564189173
 20
6.7527773842
 30
0.0
 10
15.350173039
 20
6.7283634884
 30
0.0
 10
15.3437690601
 20
6.7045722963
 30
0.0
 10
15.3372138404
 20
6.6814294535
 30
0.0
 10
15.3305145423
 20
6.6589598855
 30
0.0
 10
15.3236783584
 20
6.6371877986
 30
0.0
 10
15.3167127058
 20
6.6161366295
 30
0.0
 10
15.309625138
 20
6.5958290269
 30
0.0
 10
15.3024232633
 20
6.5762868388
 30
0.0
 10
15.2951149477
 20
6.557531048
 30
0.0
 10
15.2877080068
 20
6.5395818035
 30
0.0
 10
15.2802104961
 20
6.5224583336
 30
0.0
 10
15.2726304813
 20
6.5061789673
 30
0.0
 10
15.2649760875
 20
6.4907611019
 30
0.0
 10
15.2572556011
 20
6.476221134
 30
0.0
 10
15.2494771698
 20
6.4625745355
 30
0.0
 10
15.2416491463
 20
6.4498356941
 30
0.0
 10
15.2337797003
 20
6.4380180324
 30
0.0
 10
15.2258770116
 20
6.4271339074
 30
0.0
 10
15.217949177
 20
6.417194603
 30
0.0
 10
15.2100039639
 20
6.4082104783
 30
0.0
 10
15.2020490975
 20
6.400190772
 30
0.0
 10
15.1940917119
 20
6.3931440262
 30
0.0
 10
15.186138829
 20
6.3870779948
 30
0.0
 10
15.178196716
 20
6.3820000101
 30
0.0
 10
15.17027268
 20
6.3779176904
 30
0.0
 10
15.163615952
 20
6.3753232031
 30
0.0
 10
15.1583297684
 20
6.3737751569
 30
0.0
 10
15.1544195245
 20
6.372878573
 30
0.0
 10
15.1505219406
 20
6.3722343642
 30
0.0
 10
15.1466380722
 20
6.3718428679
 30
0.0
 10
15.1427691631
 20
6.3717042737
 30
0.0
 10
15.1389164316
 20
6.3718186277
 30
0.0
 10
15.1350811154
 20
6.3721859712
 30
0.0
 10
15.1312644581
 20
6.372806209
 30
0.0
 10
15.1274676572
 20
6.3736790064
 30
0.0
 10
15.1236918806
 20
6.3748040179
 30
0.0
 10
15.1199382771
 20
6.3761808754
 30
0.0
 10
15.1162079294
 20
6.3778089686
 30
0.0
 10
15.1125017726
 20
6.3796877262
 30
0.0
 10
15.1075304706
 20
6.3825627857
 30
0.0
 10
15.1013713136
 20
6.386813973
 30
0.0
 10
15.0941943124
 20
6.3928397865
 30
0.0
 10
15.0871419703
 20
6.3998465364
 30
0.0
 10
15.0826698217
 20
6.4050021995
 30
0.0
 10
15.0804526555
 20
6.4077283196
 30
0.0
  0
SPLINE
  5
37D
100
AcDbEntity
  8
0
100
AcDbSpline
 62
7
  6
CONTINUOUS
 70
0
 71
3
 72
45
 73
41
 74
0
 42
0.0000001
 43
0.0000001
 44
0.0000000001
 40
0.0
 40
0.0
 40
0.0
 40
0.0
 40
0.0310742591
 40
0.0623057248
 40
0.0936898558
 40
0.1252179055
 40
0.1568785544
 40
0.1886576023
 40
0.2205384471
 40
0.2525024134
 40
0.2845291519
 40
0.3165970575
 40
0.3486837056
 40
0.3807662987
 40
0.41282212
 40
0.4448289841
 40
0.4767656829
 40
0.5086124157
 40
0.5403511991
 40
0.5719662503
 40
0.6034443345
 40
0.6347750729
 40
0.6659512007
 40
0.6969687669
 40
0.7278272696
 40
0.7585297199
 40
0.7890826282
 40
0.8194959087
 40
0.8346570227
 40
0.849788412
 40
0.8648921801
 40
0.8799705893
 40
0.8950260603
 40
0.9100611438
 40
0.9250785188
 40
0.9400809693
 40
0.955071368
 40
0.9700526654
 40
0.9850278619
 40
1.0
 40
1.0
 40
1.0
 40
1.0
 10
8.0824135558
 20
6.8654078563
 30
0.0
 10
8.0824135558
 20
6.8519548392
 30
0.0
 10
8.0834171176
 20
6.8249703929
 30
0.0
 10
8.0878978246
 20
6.7846228963
 30
0.0
 10
8.0953324032
 20
6.7445123215
 30
0.0
 10
8.105679788
 20
6.7048617642
 30
0.0
 10
8.1188826606
 20
6.665888213
 30
0.0
 10
8.134868253
 20
6.6278057746
 30
0.0
 10
8.1535485282
 20
6.590823393
 30
0.0
 10
8.1748207211
 20
6.5551440141
 30
0.0
 10
8.1985678887
 20
6.5209633987
 30
0.0
 10
8.224659571
 20
6.4884690963
 30
0.0
 10
8.2529524963
 20
6.4578394199
 30
0.0
 10
8.2832913599
 20
6.429242482
 30
0.0
 10
8.3155096688
 20
6.4028352839
 30
0.0
 10
8.349430637
 20
6.378762854
 30
0.0
 10
8.3848681357
 20
6.3571574395
 30
0.0
 10
8.421627724
 20
6.3381378119
 30
0.0
 10
8.4595076972
 20
6.3218086151
 30
0.0
 10
8.4983001791
 20
6.308259794
 30
0.0
 10
8.5377922432
 20
6.2975660975
 30
0.0
 10
8.577767068
 20
6.2897866679
 30
0.0
 10
8.6180050911
 20
6.2849646647
 30
0.0
 10
8.6582852576
 20
6.2831270594
 30
0.0
 10
8.6983860424
 20
6.2842844119
 30
0.0
 10
8.7380873066
 20
6.2884310196
 30
0.0
 10
8.7771690857
 20
6.2955440665
 30
0.0
 10
8.8090811573
 20
6.3039222389
 30
0.0
 10
8.8340759317
 20
6.3120622509
 30
0.0
 10
8.8525178815
 20
6.3188708645
 30
0.0
 10
8.8706470743
 20
6.3263794104
 30
0.0
 10
8.8884389091
 20
6.3345776824
 30
0.0
 10
8.9058688656
 20
6.3434542617
 30
0.0
 10
8.9229128817
 20
6.3529971426
 30
0.0
 10
8.9395476063
 20
6.3631929909
 30
0.0
 10
8.9557500497
 20
6.3740279618
 30
0.0
 10
8.9714979513
 20
6.3854870303
 30
0.0
 10
8.9867697156
 20
6.3975545139
 30
0.0
 10
9.0015439611
 20
6.4102136116
 30
0.0
 10
9.0110493595
 20
6.4190367009
 30
0.0
 10
9.0157114981
 20
6.4235399852
 30
0.0
  0
SPLINE
  5
37E
100
AcDbEntity
  8
0
100
AcDbSpline
 62
7
  6
CONTINUOUS
 70
0
 71
3
 72
72
 73
68
 74
0
 42
0.0000001
 43
0.0000001
 44
0.0000000001
 40
0.0
 40
0.0
 40
0.0
 40
0.0
 40
0.0028080269
 40
0.0056357484
 40
0.0085023994
 40
0.0114263655
 40
0.0144248954
 40
0.0175138142
 40
0.0240150992
 40
0.0274548856
 40
0.0310331103
 40
0.0347582228
 40
0.038637415
 40
0.0426767077
 40
0.046881194
 40
0.0512550823
 40
0.0558017079
 40
0.0605237694
 40
0.0654233748
 40
0.075759731
 40
0.0868182127
 40
0.098598601
 40
0.1110954766
 40
0.1242989573
 40
0.1381953061
 40
0.1527676484
 40
0.1679961539
 40
0.1838584729
 40
0.2003300721
 40
0.2173842617
 40
0.2349925857
 40
0.2531249162
 40
0.2717495282
 40
0.2908334012
 40
0.3103422029
 40
0.3302404582
 40
0.3504917274
 40
0.3710585926
 40
0.4129848783
 40
0.4557069026
 40
0.4989035052
 40
0.542248869
 40
0.5854157291
 40
0.6280785651
 40
0.6699167822
 40
0.690429054
 40
0.7106188507
 40
0.7304489648
 40
0.7498830569
 40
0.7688859026
 40
0.7874234007
 40
0.8054626957
 40
0.82297243
 40
0.8399227074
 40
0.8562853711
 40
0.8720341902
 40
0.8871449021
 40
0.9015956586
 40
0.9153671668
 40
0.9284429885
 40
0.9408101529
 40
0.9524594887
 40
0.9633864448
 40
0.9735918993
 40
0.9830834872
 40
0.9918777842
 40
1.0
 40
1.0
 40
1.0
 40
1.0
 10
7.6461609594
 20
10.6719642158
 30
0.0
 10
7.6461609528
 20
10.6726324928
 30
0.0
 10
7.646102428
 20
10.6739744572
 30
0.0
 10
7.6458394156
 20
10.6759831411
 30
0.0
 10
7.6454014463
 20
10.67798937
 30
0.0
 10
7.6447889881
 20
10.6799917251
 30
0.0
 10
7.6440024532
 20
10.6819892002
 30
0.0
 10
7.6427007126
 20
10.6846900513
 30
0.0
 10
7.6410611951
 20
10.6873344608
 30
0.0
 10
7.6391303955
 20
10.6899094154
 30
0.0
 10
7.6374845485
 20
10.691867767
 30
0.0
 10
7.6356693924
 20
10.6938153922
 30
0.0
 10
7.6336857142
 20
10.695751629
 30
0.0
 10
7.6315346091
 20
10.6976755612
 30
0.0
 10
7.6292171125
 20
10.6995862773
 30
0.0
 10
7.6267343637
 20
10.7014828381
 30
0.0
 10
7.6240876397
 20
10.7033643751
 30
0.0
 10
7.6212782372
 20
10.7052299858
 30
0.0
 10
7.6172450354
 20
10.707739788
 30
0.0
 10
7.6117958649
 20
10.7108227279
 30
0.0
 10
7.6047448727
 20
10.7143805872
 30
0.0
 10
7.5970834521
 20
10.7178531859
 30
0.0
 10
7.5888268656
 20
10.721233521
 30
0.0
 10
7.5799914101
 20
10.7245148099
 30
0.0
 10
7.5705947252
 20
10.7276904703
 30
0.0
 10
7.5606555935
 20
10.7307540005
 30
0.0
 10
7.5501939702
 20
10.7336992006
 30
0.0
 10
7.5392308962
 20
10.7365200943
 30
0.0
 10
7.5277884451
 20
10.7392108833
 30
0.0
 10
7.5158896978
 20
10.7417661379
 30
0.0
 10
7.5035586669
 20
10.7441806349
 30
0.0
 10
7.4908202515
 20
10.7464494323
 30
0.0
 10
7.4777001929
 20
10.7485679574
 30
0.0
 10
7.4642250076
 20
10.7505318564
 30
0.0
 10
7.4504219373
 20
10.7523371424
 30
0.0
 10
7.4363189028
 20
10.7539801626
 30
0.0
 10
7.421944402
 20
10.7554575496
 30
0.0
 10
7.4023302088
 20
10.7572136908
 30
0.0
 10
7.3773488795
 20
10.7589673378
 30
0.0
 10
7.3469524024
 20
10.7603602043
 30
0.0
 10
7.3161938593
 20
10.7610431361
 30
0.0
 10
7.2853219564
 20
10.76101055
 30
0.0
 10
7.2545860875
 20
10.7602627287
 30
0.0
 10
7.2242347755
 20
10.7588057873
 30
0.0
 10
7.1993053647
 20
10.7569991797
 30
0.0
 10
7.1797437381
 20
10.7552012629
 30
0.0
 10
7.165416469
 20
10.7536934938
 30
0.0
 10
7.1513658965
 20
10.7520207212
 30
0.0
 10
7.137620416
 20
10.7501862793
 30
0.0
 10
7.1242078259
 20
10.7481939468
 30
0.0
 10
7.1111552415
 20
10.7460477716
 30
0.0
 10
7.0984890457
 20
10.7437520919
 30
0.0
 10
7.0862348235
 20
10.7413116324
 30
0.0
 10
7.0744173231
 20
10.7387313279
 30
0.0
 10
7.0630603913
 20
10.7360164341
 30
0.0
 10
7.0521869199
 20
10.7331725213
 30
0.0
 10
7.0418188142
 20
10.7302053243
 30
0.0
 10
7.0319769113
 20
10.7271209199
 30
0.0
 10
7.0226809491
 20
10.7239255868
 30
0.0
 10
7.0139495342
 20
10.7206257485
 30
0.0
 10
7.00580003
 20
10.7172281367
 30
0.0
 10
6.9982485702
 20
10.7137395301
 30
0.0
 10
6.9913100026
 20
10.7101667942
 30
0.0
 10
6.9849978086
 20
10.7065170254
 30
0.0
 10
6.9793238478
 20
10.702796798
 30
0.0
 10
6.9742995944
 20
10.6990132894
 30
0.0
 10
6.9712727834
 20
10.6963503469
 30
0.0
 10
6.969882471
 20
10.6950074081
 30
0.0
  0
SPLINE
  5
37F
100
AcDbEntity
  8
0
100
AcDbSpline
 62
7
  6
CONTINUOUS
 70
0
 71
3
 72
23
 73
19
 74
0
 42
0.0000001
 43
0.0000001
 44
0.0000000001
 40
0.0
 40
0.0
 40
0.0
 40
0.0
 40
0.0781691239
 40
0.1536976975
 40
0.2266579234
 40
0.2971334203
 40
0.3652213516
 40
0.4310322547
 40
0.4946916894
 40
0.5563421329
 40
0.6161427433
 40
0.6742704686
 40
0.730920822
 40
0.7863066268
 40
0.8406573579
 40
0.8942175326
 40
0.9472434512
 40
1.0
 40
1.0
 40
1.0
 40
1.0
 10
14.8702345023
 20
7.9501721119
 30
0.0
 10
14.8686671091
 20
7.9485107678
 30
0.0
 10
14.8655328293
 20
7.9452930984
 30
0.0
 10
14.8607486154
 20
7.9407116106
 30
0.0
 10
14.8559649418
 20
7.936460674
 30
0.0
 10
14.8511833566
 20
7.9325418726
 30
0.0
 10
14.8464054237
 20
7.9289564879
 30
0.0
 10
14.8416326374
 20
7.9257058179
 30
0.0
 10
14.8368664588
 20
7.9227911261
 30
0.0
 10
14.8321084455
 20
7.9202134496
 30
0.0
 10
14.8273600913
 20
7.9179738614
 30
0.0
 10
14.8226229083
 20
7.9160734198
 30
0.0
 10
14.8178985285
 20
7.9145129281
 30
0.0
 10
14.8131885722
 20
7.9132932391
 30
0.0
 10
14.808494778
 20
7.9124151444
 30
0.0
 10
14.803818889
 20
7.911879105
 30
0.0
 10
14.7991631089
 20
7.9116855452
 30
0.0
 10
14.796070516
 20
7.9117851537
 30
0.0
 10
14.7945327125
 20
7.911891797
 30
0.0
  0
SPLINE
  5
380
100
AcDbEntity
  8
0
100
AcDbSpline
 62
7
  6
CONTINUOUS
 70
0
 71
3
 72
72
 73
68
 74
0
 42
0.0000001
 43
0.0000001
 44
0.0000000001
 40
0.0
 40
0.0
 40
0.0
 40
0.0
 40
0.0028080269
 40
0.0056357484
 40
0.0085023994
 40
0.0114263655
 40
0.0144248954
 40
0.0175138142
 40
0.0240150992
 40
0.0274548856
 40
0.0310331103
 40
0.0347582228
 40
0.038637415
 40
0.0426767077
 40
0.046881194
 40
0.0512550823
 40
0.0558017079
 40
0.0605237694
 40
0.0654233748
 40
0.075759731
 40
0.0868182127
 40
0.098598601
 40
0.1110954766
 40
0.1242989573
 40
0.1381953061
 40
0.1527676484
 40
0.1679961539
 40
0.1838584729
 40
0.2003300721
 40
0.2173842617
 40
0.2349925857
 40
0.2531249162
 40
0.2717495282
 40
0.2908334012
 40
0.3103422029
 40
0.3302404582
 40
0.3504917274
 40
0.3710585926
 40
0.4129848783
 40
0.4557069026
 40
0.4989035052
 40
0.542248869
 40
0.5854157291
 40
0.6280785651
 40
0.6699167822
 40
0.690429054
 40
0.7106188507
 40
0.7304489648
 40
0.7498830569
 40
0.7688859026
 40
0.7874234007
 40
0.8054626957
 40
0.82297243
 40
0.8399227074
 40
0.8562853711
 40
0.8720341902
 40
0.8871449021
 40
0.9015956586
 40
0.9153671668
 40
0.9284429885
 40
0.9408101529
 40
0.9524594887
 40
0.9633864448
 40
0.9735918993
 40
0.9830834872
 40
0.9918777842
 40
1.0
 40
1.0
 40
1.0
 40
1.0
 10
14.1680924425
 20
10.2196667313
 30
0.0
 10
14.1680924359
 20
10.2203350083
 30
0.0
 10
14.1680339111
 20
10.2216769726
 30
0.0
 10
14.1677708987
 20
10.2236856566
 30
0.0
 10
14.1673329294
 20
10.2256918854
 30
0.0
 10
14.1667204712
 20
10.2276942405
 30
0.0
 10
14.1659339363
 20
10.2296917157
 30
0.0
 10
14.1646321957
 20
10.2323925668
 30
0.0
 10
14.1629926782
 20
10.2350369763
 30
0.0
 10
14.1610618786
 20
10.2376119308
 30
0.0
 10
14.1594160316
 20
10.2395702824
 30
0.0
 10
14.1576008755
 20
10.2415179076
 30
0.0
 10
14.1556171973
 20
10.2434541444
 30
0.0
 10
14.1534660922
 20
10.2453780767
 30
0.0
 10
14.1511485956
 20
10.2472887928
 30
0.0
 10
14.1486658468
 20
10.2491853535
 30
0.0
 10
14.1460191228
 20
10.2510668905
 30
0.0
 10
14.1432097203
 20
10.2529325012
 30
0.0
 10
14.1391765185
 20
10.2554423034
 30
0.0
 10
14.133727348
 20
10.2585252434
 30
0.0
 10
14.1266763557
 20
10.2620831026
 30
0.0
 10
14.1190149352
 20
10.2655557013
 30
0.0
 10
14.1107583487
 20
10.2689360364
 30
0.0
 10
14.1019228932
 20
10.2722173253
 30
0.0
 10
14.0925262083
 20
10.2753929857
 30
0.0
 10
14.0825870766
 20
10.2784565159
 30
0.0
 10
14.0721254533
 20
10.2814017161
 30
0.0
 10
14.0611623793
 20
10.2842226098
 30
0.0
 10
14.0497199282
 20
10.2869133988
 30
0.0
 10
14.0378211809
 20
10.2894686533
 30
0.0
 10
14.02549015
 20
10.2918831504
 30
0.0
 10
14.0127517346
 20
10.2941519477
 30
0.0
 10
13.999631676
 20
10.2962704728
 30
0.0
 10
13.9861564907
 20
10.2982343718
 30
0.0
 10
13.9723534204
 20
10.3000396578
 30
0.0
 10
13.9582503859
 20
10.301682678
 30
0.0
 10
13.9438758851
 20
10.3031600651
 30
0.0
 10
13.9242616919
 20
10.3049162062
 30
0.0
 10
13.8992803626
 20
10.3066698532
 30
0.0
 10
13.8688838855
 20
10.3080627198
 30
0.0
 10
13.8381253424
 20
10.3087456515
 30
0.0
 10
13.8072534395
 20
10.3087130654
 30
0.0
 10
13.7765175706
 20
10.3079652441
 30
0.0
 10
13.7461662586
 20
10.3065083027
 30
0.0
 10
13.7212368478
 20
10.3047016951
 30
0.0
 10
13.7016752212
 20
10.3029037783
 30
0.0
 10
13.6873479521
 20
10.3013960092
 30
0.0
 10
13.6732973796
 20
10.2997232367
 30
0.0
 10
13.6595518991
 20
10.2978887948
 30
0.0
 10
13.646139309
 20
10.2958964623
 30
0.0
 10
13.6330867246
 20
10.293750287
 30
0.0
 10
13.6204205288
 20
10.2914546073
 30
0.0
 10
13.6081663066
 20
10.2890141478
 30
0.0
 10
13.5963488062
 20
10.2864338434
 30
0.0
 10
13.5849918744
 20
10.2837189495
 30
0.0
 10
13.574118403
 20
10.2808750367
 30
0.0
 10
13.5637502973
 20
10.2779078398
 30
0.0
 10
13.5539083944
 20
10.2748234353
 30
0.0
 10
13.5446124322
 20
10.2716281022
 30
0.0
 10
13.5358810173
 20
10.2683282639
 30
0.0
 10
13.5277315131
 20
10.2649306521
 30
0.0
 10
13.5201800533
 20
10.2614420456
 30
0.0
 10
13.5132414857
 20
10.2578693097
 30
0.0
 10
13.5069292917
 20
10.2542195409
 30
0.0
 10
13.5012553309
 20
10.2504993134
 30
0.0
 10
13.4962310775
 20
10.2467158048
 30
0.0
 10
13.4932042665
 20
10.2440528623
 30
0.0
 10
13.4918139541
 20
10.2427099235
 30
0.0
  0
SPLINE
  5
381
100
AcDbEntity
  8
0
100
AcDbSpline
 62
7
  6
CONTINUOUS
 70
0
 71
3
 72
45
 73
41
 74
0
 42
0.0000001
 43
0.0000001
 44
0.0000000001
 40
0.0
 40
0.0
 40
0.0
 40
0.0
 40
0.0310742591
 40
0.0623057248
 40
0.0936898558
 40
0.1252179055
 40
0.1568785544
 40
0.1886576023
 40
0.2205384471
 40
0.2525024134
 40
0.2845291519
 40
0.3165970575
 40
0.3486837056
 40
0.3807662987
 40
0.41282212
 40
0.4448289841
 40
0.4767656829
 40
0.5086124157
 40
0.5403511991
 40
0.5719662503
 40
0.6034443345
 40
0.6347750729
 40
0.6659512007
 40
0.6969687669
 40
0.7278272696
 40
0.7585297199
 40
0.7890826282
 40
0.8194959087
 40
0.8346570227
 40
0.849788412
 40
0.8648921801
 40
0.8799705893
 40
0.8950260603
 40
0.9100611438
 40
0.9250785188
 40
0.9400809693
 40
0.955071368
 40
0.9700526654
 40
0.9850278619
 40
1.0
 40
1.0
 40
1.0
 40
1.0
 10
11.7065673307
 20
9.0288866472
 30
0.0
 10
11.7065673307
 20
9.0154336301
 30
0.0
 10
11.7075708926
 20
8.9884491838
 30
0.0
 10
11.7120515996
 20
8.9481016872
 30
0.0
 10
11.7194861782
 20
8.9079911124
 30
0.0
 10
11.729833563
 20
8.868340555
 30
0.0
 10
11.7430364356
 20
8.8293670039
 30
0.0
 10
11.759022028
 20
8.7912845654
 30
0.0
 10
11.7777023032
 20
8.7543021839
 30
0.0
 10
11.7989744961
 20
8.718622805
 30
0.0
 10
11.8227216636
 20
8.6844421896
 30
0.0
 10
11.848813346
 20
8.6519478872
 30
0.0
 10
11.8771062713
 20
8.6213182108
 30
0.0
 10
11.9074451348
 20
8.5927212729
 30
0.0
 10
11.9396634437
 20
8.5663140747
 30
0.0
 10
11.973584412
 20
8.5422416448
 30
0.0
 10
12.0090219107
 20
8.5206362304
 30
0.0
 10
12.0457814989
 20
8.5016166028
 30
0.0
 10
12.0836614722
 20
8.4852874059
 30
0.0
 10
12.1224539541
 20
8.4717385848
 30
0.0
 10
12.1619460182
 20
8.4610448884
 30
0.0
 10
12.2019208429
 20
8.4532654587
 30
0.0
 10
12.242158866
 20
8.4484434556
 30
0.0
 10
12.2824390325
 20
8.4466058503
 30
0.0
 10
12.3225398174
 20
8.4477632027
 30
0.0
 10
12.3622410816
 20
8.4519098105
 30
0.0
 10
12.4013228606
 20
8.4590228573
 30
0.0
 10
12.4332349323
 20
8.4674010298
 30
0.0
 10
12.4582297066
 20
8.4755410418
 30
0.0
 10
12.4766716565
 20
8.4823496554
 30
0.0
 10
12.4948008493
 20
8.4898582012
 30
0.0
 10
12.5125926841
 20
8.4980564733
 30
0.0
 10
12.5300226405
 20
8.5069330525
 30
0.0
 10
12.5470666567
 20
8.5164759334
 30
0.0
 10
12.5637013812
 20
8.5266717818
 30
0.0
 10
12.5799038247
 20
8.5375067527
 30
0.0
 10
12.5956517262
 20
8.5489658211
 30
0.0
 10
12.6109234906
 20
8.5610333047
 30
0.0
 10
12.625697736
 20
8.5736924025
 30
0.0
 10
12.6352031345
 20
8.5825154917
 30
0.0
 10
12.639865273
 20
8.5870187761
 30
0.0
  0
ENDSEC
  0
SECTION
  2
OBJECTS
  0
DICTIONARY
  5
C
100
AcDbDictionary
280
0
281
1
  3
ACAD_GROUP
350
D
  3
ACAD_MLINESTYLE
350
17
  3
ACAD_LAYOUT
350
1A
  3
ACAD_PLOTSETTINGS
350
19
  3
ACAD_PLOTSTYLENAME
350
E
  3
ACAD_IMAGE_DICT
350
       383
  3
ACAD_IMAGE_VARS
350
       384
  3
ACAD_TABLESTYLE
350
       385
  0
IMAGEDEF_REACTOR
  5
382
100
AcDbRasterImageDefReactor
 90
2
330
287
  0
DICTIONARY
  5
D
102
{ACAD_REACTORS
330
C
102
}
100
AcDbDictionary
280
0
281
1
  0
ACDBDICTIONARYWDFLT
  5
E
102
{ACAD_REACTORS
330
C
102
}
100
AcDbDictionary
281
1
  3
Normal
350
F
100
AcDbDictionaryWithDefault
340
F
  0
DICTIONARY
  5
383
330
C
100
AcDbDictionary
281
1
  3
E8B_assy_2_img_1
350
       388
  0
RASTERVARIABLES
  5
384
330
C
100
AcDbRasterVariables
 90
0
 70
0
 71
1
 72
5
  0
DICTIONARY
  5
17
102
{ACAD_REACTORS
330
C
102
}
100
AcDbDictionary
280
0
281
1
  3
Standard
350
18
  0
DICTIONARY
  5
385
330
C
100
AcDbDictionary
281
1
  3
Standard
350
       389
  3
Standard1
350
       38A
  0
DICTIONARY
  5
19
102
{ACAD_REACTORS
330
C
102
}
100
AcDbDictionary
281
1
  0
DICTIONARY
  5
1A
102
{ACAD_REACTORS
330
C
102
}
100
AcDbDictionary
281
1
  3
Model
350
386
  3
Layout1
350
387
  0
ACDBPLACEHOLDER
  5
F
102
{ACAD_REACTORS
330
E
102
}
  0
MLINESTYLE
  5
18
102
{ACAD_REACTORS
330
17
102
}
100
AcDbMlineStyle
  2
STANDARD
 70
0
  3

 62
256
 51
90.0
 52
90.0
 71
2
 49
0.5
 62
256
  6
BYLAYER
 49
-0.5
 62
256
  6
BYLAYER
  0
LAYOUT
  5
386
102
{ACAD_REACTORS
330
1A
102
}
100
AcDbPlotSettings
  1

  2
none_device
  4
ANSI_C_(22.00_x_17.00_Inches)
  6

 40
0.0
 41
0.0
 42
0.0
 43
0.0
 44
558.8
 45
431.8
 46
0.0
 47
0.0
 48
0.0
 49
0.0
140
0.0
141
0.0
142
1.0
143
1.0
 70
1024
 72
0
 73
0
 74
0
  7

 75
0
147
1.0
148
0.0
149
0.0
100
AcDbLayout
  1
Model
 70
0
 71
0
 10
0.0
 20
0.0
 11
22.0
 21
17.0
 12
0.0
 22
0.0
 32
0.0
 14
0.0
 24
0.0
 34
0.0
 15
0.0
 25
0.0
 35
0.0
146
0.0
 13
0.0
 23
0.0
 33
0.0
 16
1.0
 26
0.0
 36
0.0
 17
0.0
 27
1.0
 37
0.0
 76
0
330
20C
345
0
346
0
  0
LAYOUT
  5
387
102
{ACAD_REACTORS
330
1A
102
}
100
AcDbPlotSettings
  1

  2
none_device
  4
ANSI_C_(22.00_x_17.00_Inches)
  6

 40
0.0
 41
0.0
 42
0.0
 43
0.0
 44
558.8
 45
431.8
 46
0.0
 47
0.0
 48
0.0
 49
0.0
140
0.0
141
0.0
142
1.0
143
1.0
 70
0
 72
0
 73
0
 74
0
  7

 75
0
147
1.0
148
0.0
149
0.0
100
AcDbLayout
  1
Layout1
 70
0
 71
1
 10
0.0
 20
0.0
 11
22.0
 21
17.0
 12
0.0
 22
0.0
 32
0.0
 14
0.0
 24
0.0
 34
0.0
 15
0.0
 25
0.0
 35
0.0
146
0.0
 13
0.0
 23
0.0
 33
0.0
 16
1.0
 26
0.0
 36
0.0
 17
0.0
 27
1.0
 37
0.0
 76
0
330
20D
345
0
346
0
  0
IMAGEDEF
  5
388
102
{ACAD_REACTORS
330
383
330
382
102
}
100
AcDbRasterImageDef
 90
0
  1
E8B_assy_2_img_1.png
 10
369.0
 20
92.0
 11
0.0066666667
 21
0.0066666667
280
1
281
0
  0
TABLESTYLE
  5
389
102
{ACAD_REACTORS
330
385
330
28A
330
28B
102
}
330
385
100
AcDbTableStyle
  3
Standard
 70
0
 71
0
 40
0.06
 41
0.06
280
1
281
1
  7
Standard
140
0.18
170
1
 62
0
 63
7
283
0
  7
Standard
140
0.18
170
1
 62
0
 63
7
283
0
  7
Standard
140
0.18
170
1
 62
0
 63
7
283
0
  0
TABLESTYLE
  5
38A
102
{ACAD_REACTORS
330
385
330
289
102
}
330
385
100
AcDbTableStyle
  3
Standard1
 70
1
 71
0
 40
0.06
 41
0.06
280
1
281
1
  7
Standard
140
0.18
170
1
 62
0
 63
7
283
0
  7
Standard
140
0.18
170
1
 62
0
 63
7
283
0
  7
Standard
140
0.18
170
1
 62
0
 63
7
283
0
  0
ENDSEC
  0
EOF
