999
DXF file: E8A_assy_2.dxf
999
Pro/ENGINEER 2014200 by Parametric Technology Corporation
  0
SECTION
  2
HEADER
  9
$ACADVER
  1
AC1021
  9
$DWGCODEPAGE
  3
ANSI_1252
  9
$EXTMAX
 10
22.0
 20
17.0
 30
0.0
  9
$EXTMIN
 10
0.0
 20
0.0
 30
0.0
  9
$LIMMIN
 10
0.0
 20
0.0
  9
$LIMMAX
 10
22.0
 20
17.0
  9
$VIEWCTR
 10
11.0
 20
8.5
  9
$VIEWSIZE
 40
17.0
  9
$CLAYER
  8
0
  9
$LTSCALE
 40
1.21
  9
$CELTYPE
  6
BYLAYER
  9
$DIMSCALE
 40
1.0
  9
$DIMASZ
 40
0.1875
  9
$DIMEXO
 40
0.0625
  9
$DIMDLI
 40
0.836
  9
$DIMEXE
 40
0.125
  9
$DIMCEN
 40
0.198
  9
$DIMLFAC
 40
1.0
  9
$DIMBLK
  1
_FILLED
  9
$DIMTXT
 40
0.1
  9
$DIMTOL
 70
0
  9
$DIMLIM
 70
0
  9
$DIMTFAC
 40
1.0
  9
$DIMGAP
 40
0.09
  9
$DIMDSEP
 70
46
  9
$AUNITS
 70
0
  9
$PDMODE
 70
3
  9
$PDSIZE
 40
0.3125
  9
$HANDSEED
  5
380
  9
$TILEMODE
 70
1
  9
$MEASUREMENT
 70
0
  9
$INSUNITS
 70
1
  0
ENDSEC
  0
SECTION
  2
CLASSES
  0
CLASS
  1
ACDBDICTIONARYWDFLT
  2
AcDbDictionaryWithDefault
  3
AutoCAD 2000
 90
0
 91
1
280
0
281
0
  0
CLASS
  1
ACDBPLACEHOLDER
  2
AcDbPlaceHolder
  3
AutoCAD 2000
 90
0
 91
1
280
0
281
0
  0
CLASS
  1
LAYOUT
  2
AcDbLayout
  3
AutoCAD 2000
 90
0
 91
0
280
0
281
0
  0
CLASS
  1
RASTERVARIABLES
  2
AcDbRasterVariables
  3
ISM
 90
0
 91
1
280
0
281
0
  0
CLASS
  1
IMAGEDEF
  2
AcDbRasterImageDef
  3
ISM
 90
0
 91
1
280
0
281
0
  0
CLASS
  1
IMAGEDEF_REACTOR
  2
AcDbRasterImageDefReactor
  3
ISM
 90
0
 91
1
280
0
281
0
  0
CLASS
  1
IMAGE
  2
AcDbRasterImage
  3
ISM
 90
127
 91
1
280
0
281
1
  0
CLASS
  1
TABLESTYLE
  2
AcDbTableStyle
  3
ObjectDBX Classes
 90
2047
 91
1
280
0
281
0
  0
CLASS
  1
ACAD_TABLE
  2
AcDbTable
  3
ObjectDBX Classes
 90
1025
 91
3
280
0
281
1
  0
ENDSEC
  0
SECTION
  2
TABLES
  0
TABLE
  2
VPORT
  5
8
100
AcDbSymbolTable
 70
2
  0
VPORT
  5
1F4
100
AcDbSymbolTableRecord
100
AcDbViewportTableRecord
  2
*ACTIVE
 70
0
 10
0.0
 20
0.0
 11
1.0
 21
1.0
 12
11.0
 22
8.5
 13
0.0
 23
0.0
 14
1.0
 24
1.0
 15
0.0
 25
0.0
 16
0.0
 26
0.0
 36
1.0
 17
0.0
 27
0.0
 37
0.0
 40
17.0
 41
1.2941176471
 42
50.0
 43
0.0
 44
0.0
 50
0.0
 51
0.0
 71
0
 72
100
 73
1
 74
1
 75
0
 76
0
 77
0
 78
0
  0
ENDTAB
  0
TABLE
  2
LTYPE
  5
5
100
AcDbSymbolTable
 70
6
  0
LTYPE
  5
14
100
AcDbSymbolTableRecord
100
AcDbLinetypeTableRecord
  2
BYBLOCK
 70
0
  3

 72
65
 73
0
 40
0.0
  0
LTYPE
  5
15
100
AcDbSymbolTableRecord
100
AcDbLinetypeTableRecord
  2
BYLAYER
 70
0
  3

 72
65
 73
0
 40
0.0
  0
LTYPE
  5
16
100
AcDbSymbolTableRecord
100
AcDbLinetypeTableRecord
  2
CONTINUOUS
 70
64
  3
Solid line
 72
65
 73
0
 40
0.0
  0
LTYPE
  5
1F5
100
AcDbSymbolTableRecord
100
AcDbLinetypeTableRecord
  2
CENTER
 70
64
  3
____ _ ____ _ ____ _ ____ _ ____ _ ____ _ ____
 72
65
 73
4
 40
0.6
 49
0.375
 74
0
 49
-0.075
 74
0
 49
0.075
 74
0
 49
-0.075
 74
0
  0
LTYPE
  5
1F6
100
AcDbSymbolTableRecord
100
AcDbLinetypeTableRecord
  2
HIDDEN
 70
64
  3
- - - - - - - - - - - - - - - - - - - -
 72
65
 73
2
 40
0.2
 49
0.1
 74
0
 49
-0.1
 74
0
  0
LTYPE
  5
1F7
100
AcDbSymbolTableRecord
100
AcDbLinetypeTableRecord
  2
PHANTOM
 70
64
  3
_____ _ _ _____ _ _ _____ _ _ _____
 72
65
 73
6
 40
0.8
 49
0.45
 74
0
 49
-0.05
 74
0
 49
0.1
 74
0
 49
-0.05
 74
0
 49
0.1
 74
0
 49
-0.05
 74
0
  0
LTYPE
  5
1F8
100
AcDbSymbolTableRecord
100
AcDbLinetypeTableRecord
  2
DOT
 70
64
  3
. . . . . . . . . . . . . . . . . . . .
 72
65
 73
2
 40
0.2
 49
0.1
 74
0
 49
-0.1
 74
0
  0
LTYPE
  5
1F9
100
AcDbSymbolTableRecord
100
AcDbLinetypeTableRecord
  2
DASHED
 70
64
  3
- - - - - - - - - - - - - - - - - - - -
 72
65
 73
2
 40
0.2
 49
0.1
 74
0
 49
-0.1
 74
0
  0
ENDTAB
  0
TABLE
  2
LAYER
  5
2
100
AcDbSymbolTable
 70
36
  0
LAYER
  5
10
100
AcDbSymbolTableRecord
100
AcDbLayerTableRecord
  2
0
 70
0
 62
7
  6
CONTINUOUS
370
-3
390
F
  0
LAYER
  5
1FA
100
AcDbSymbolTableRecord
100
AcDbLayerTableRecord
  2
DEFAULT_1
 70
0
 62
7
  6
CENTER
370
-3
390
F
  0
LAYER
  5
1FB
100
AcDbSymbolTableRecord
100
AcDbLayerTableRecord
  2
DEFAULT_2
 70
0
 62
8
  6
HIDDEN
370
-3
390
F
  0
LAYER
  5
1FC
100
AcDbSymbolTableRecord
100
AcDbLayerTableRecord
  2
DEFAULT_3
 70
0
 62
7
  6
PHANTOM
370
-3
390
F
  0
LAYER
  5
1FD
100
AcDbSymbolTableRecord
100
AcDbLayerTableRecord
  2
01___PRT_ALL_DTM_PLN
 70
0
 62
7
  6
CONTINUOUS
370
-3
390
F
  0
LAYER
  5
1FE
100
AcDbSymbolTableRecord
100
AcDbLayerTableRecord
  2
01___PRT_DEF_DTM_PLN
 70
0
 62
7
  6
CONTINUOUS
370
-3
390
F
  0
LAYER
  5
1FF
100
AcDbSymbolTableRecord
100
AcDbLayerTableRecord
  2
02___PRT_ALL_AXES
 70
0
 62
7
  6
CONTINUOUS
370
-3
390
F
  0
LAYER
  5
200
100
AcDbSymbolTableRecord
100
AcDbLayerTableRecord
  2
03___PRT_ALL_CURVES
 70
0
 62
7
  6
CONTINUOUS
370
-3
390
F
  0
LAYER
  5
201
100
AcDbSymbolTableRecord
100
AcDbLayerTableRecord
  2
04___PRT_ALL_DTM_PNT
 70
0
 62
7
  6
CONTINUOUS
370
-3
390
F
  0
LAYER
  5
202
100
AcDbSymbolTableRecord
100
AcDbLayerTableRecord
  2
05___PRT_ALL_DTM_CSYS
 70
0
 62
7
  6
CONTINUOUS
370
-3
390
F
  0
LAYER
  5
203
100
AcDbSymbolTableRecord
100
AcDbLayerTableRecord
  2
05___PRT_DEF_DTM_CSYS
 70
0
 62
7
  6
CONTINUOUS
370
-3
390
F
  0
LAYER
  5
204
100
AcDbSymbolTableRecord
100
AcDbLayerTableRecord
  2
06___PRT_ALL_SURFS
 70
0
 62
7
  6
CONTINUOUS
370
-3
390
F
  0
LAYER
  5
205
100
AcDbSymbolTableRecord
100
AcDbLayerTableRecord
  2
DATUM_PLANES
 70
0
 62
7
  6
CONTINUOUS
370
-3
390
F
  0
LAYER
  5
206
100
AcDbSymbolTableRecord
100
AcDbLayerTableRecord
  2
PORT_AREAS
 70
0
 62
7
  6
CONTINUOUS
370
-3
390
F
  0
LAYER
  5
207
100
AcDbSymbolTableRecord
100
AcDbLayerTableRecord
  2
SUNNBOMCOSMETIC
 70
0
 62
7
  6
CONTINUOUS
370
-3
390
F
  0
LAYER
  5
208
100
AcDbSymbolTableRecord
100
AcDbLayerTableRecord
  2
SUNNBOMSTAMPING
 70
0
 62
7
  6
CONTINUOUS
370
-3
390
F
  0
LAYER
  5
209
100
AcDbSymbolTableRecord
100
AcDbLayerTableRecord
  2
THREADS
 70
0
 62
7
  6
CONTINUOUS
370
-3
390
F
  0
ENDTAB
  0
TABLE
  2
STYLE
  5
3
100
AcDbSymbolTable
 70
1
  0
STYLE
  5
11
100
AcDbSymbolTableRecord
100
AcDbTextStyleTableRecord
  2
STANDARD
 70
0
 40
0.0
 41
0.8
 50
0.0
 71
0
 42
0.2
  3
txt
  4

  0
STYLE
  5
20A
100
AcDbSymbolTableRecord
100
AcDbTextStyleTableRecord
  2
TEXTSTYLE_1
 70
0
 40
0.0
 41
0.8
 50
0.0
 71
0
 42
0.2
  3
gdt
  4

  0
ENDTAB
  0
TABLE
  2
VIEW
  5
6
100
AcDbSymbolTable
 70
0
  0
ENDTAB
  0
TABLE
  2
UCS
  5
7
100
AcDbSymbolTable
 70
0
  0
ENDTAB
  0
TABLE
  2
APPID
  5
9
100
AcDbSymbolTable
 70
1
  0
APPID
  5
20B
100
AcDbSymbolTableRecord
100
AcDbRegAppTableRecord
  2
ACAD
 70
0
  0
ENDTAB
  0
TABLE
  2
BLOCK_RECORD
  5
1
100
AcDbSymbolTable
 70
0
  0
BLOCK_RECORD
  5
20C
100
AcDbSymbolTableRecord
100
AcDbBlockTableRecord
  2
*Model_Space
  0
BLOCK_RECORD
  5
20D
100
AcDbSymbolTableRecord
100
AcDbBlockTableRecord
  2
*Paper_Space
  0
BLOCK_RECORD
  5
20E
100
AcDbSymbolTableRecord
100
AcDbBlockTableRecord
  2
SUN_FIRST_THIRD_ANGLE_BL0
  0
BLOCK_RECORD
  5
20F
100
AcDbSymbolTableRecord
100
AcDbBlockTableRecord
  2
*T1
  0
BLOCK_RECORD
  5
210
100
AcDbSymbolTableRecord
100
AcDbBlockTableRecord
  2
*T2
  0
BLOCK_RECORD
  5
211
100
AcDbSymbolTableRecord
100
AcDbBlockTableRecord
  2
*T3
  0
ENDTAB
  0
TABLE
  2
DIMSTYLE
  5
A
100
AcDbSymbolTable
 70
1
100
AcDbDimStyleTable
 71
0
  0
DIMSTYLE
105
212
100
AcDbSymbolTableRecord
100
AcDbDimStyleTableRecord
  2
STANDARD
 70
0
  3

  4

 40
1.0
 41
0.1875
 42
0.0625
 43
0.38
 44
0.125
 45
0.0
 46
0.0
 47
0.001
 48
0.001
140
0.1
141
0.09
142
0.0
143
25.4
144
1.0
145
0.0
146
1.0
147
0.09
 71
0.0
 72
0.0
 73
1
 74
1
 75
0
 76
0
 77
0
 78
4
170
0
171
2
172
0
173
0
174
0
175
0
176
0
177
0
178
0
270
2
271
3
272
3
273
2
274
2
275
0
280
0
281
0
282
0
283
1
284
4
285
0
286
0
287
3
288
0
340
11
278
46
  0
ENDTAB
  0
ENDSEC
  0
SECTION
  2
BLOCKS
  0
BLOCK
  5
20
100
AcDbEntity
  8
0
100
AcDbBlockBegin
  2
*Model_Space
 70
0
 10
0.0
 20
0.0
 30
0.0
  3
*Model_Space
  1

  0
ENDBLK
  5
21
100
AcDbEntity
  8
0
100
AcDbBlockEnd
  0
BLOCK
  5
1C
100
AcDbEntity
  8
0
100
AcDbBlockBegin
  2
*Paper_Space
 70
0
 10
0.0
 20
0.0
 30
0.0
  3
*Paper_Space
  1

  0
ENDBLK
  5
1D
100
AcDbEntity
  8
0
100
AcDbBlockEnd
  0
BLOCK
  5
213
100
AcDbEntity
  8
0
100
AcDbBlockBegin
 62
2
  6
CONTINUOUS
  2
SUN_FIRST_THIRD_ANGLE_BL0
 70
64
 10
20.4816717061
 20
1.2289683772
  3
SUN_FIRST_THIRD_ANGLE_BL0
  1

  0
TEXT
  5
214
100
AcDbEntity
  8
0
100
AcDbText
 62
2
  6
CONTINUOUS
 10
19.4750896608
 20
1.4136269581
  7
STANDARD
 40
0.08
  1
FIRST ANGLE
 41
0.8
 72
0
100
AcDbText
  0
TEXT
  5
215
100
AcDbEntity
  8
0
100
AcDbText
 62
2
  6
CONTINUOUS
 10
20.7842537513
 20
1.4047600029
  7
STANDARD
 40
0.08
  1
THIRD ANGLE
 41
0.8
 72
0
100
AcDbText
  0
LINE
  5
216
100
AcDbEntity
  8
0
100
AcDbLine
 62
7
  6
CONTINUOUS
 10
19.4767170086
 20
1.1727031207
 11
19.6334271527
 21
1.1717972817
  0
LINE
  5
217
100
AcDbEntity
  8
0
100
AcDbLine
 62
7
  6
CONTINUOUS
 10
19.6596964832
 20
1.1717972817
 11
19.6950230232
 21
1.171593082
  0
LINE
  5
218
100
AcDbEntity
  8
0
100
AcDbLine
 62
7
  6
CONTINUOUS
 10
19.7194818561
 20
1.1708914427
 11
19.8852396156
 21
1.1699333054
  0
LINE
  5
219
100
AcDbEntity
  8
0
100
AcDbLine
 62
7
  6
CONTINUOUS
 10
19.4758111696
 20
1.2723454088
 11
19.88525039
 21
1.3511534004
  0
LINE
  5
21A
100
AcDbEntity
  8
0
100
AcDbLine
 62
7
  6
CONTINUOUS
 10
19.88525039
 20
1.3511534004
 11
19.8831348489
 21
0.9851647912
  0
LINE
  5
21B
100
AcDbEntity
  8
0
100
AcDbLine
 62
7
  6
CONTINUOUS
 10
19.8831348489
 20
0.9851647912
 11
19.4767170086
 21
1.0658141206
  0
LINE
  5
21C
100
AcDbEntity
  8
0
100
AcDbLine
 62
7
  6
CONTINUOUS
 10
19.4767170086
 20
1.0658141206
 11
19.4779056764
 21
1.2714536432
  0
CIRCLE
  5
21D
100
AcDbEntity
  8
0
100
AcDbCircle
 62
7
  6
CONTINUOUS
 10
20.2068232291
 20
1.1717972817
 40
0.175742101
  0
CIRCLE
  5
21E
100
AcDbEntity
  8
0
100
AcDbCircle
 62
7
  6
CONTINUOUS
 10
20.2068232291
 20
1.1717972817
 40
0.1005522074
  0
LINE
  5
21F
100
AcDbEntity
  8
0
100
AcDbLine
 62
7
  6
CONTINUOUS
 10
20.2077290681
 20
1.3756110529
 11
20.2071171714
 21
1.2379342989
  0
LINE
  5
220
100
AcDbEntity
  8
0
100
AcDbLine
 62
7
  6
CONTINUOUS
 10
20.2077290681
 20
1.2016899681
 11
20.2074674401
 21
1.1428236749
  0
LINE
  5
221
100
AcDbEntity
  8
0
100
AcDbLine
 62
7
  6
CONTINUOUS
 10
20.208634907
 20
1.101141841
 11
20.2080230104
 21
0.963465087
  0
LINE
  5
222
100
AcDbEntity
  8
0
100
AcDbLine
 62
7
  6
CONTINUOUS
 10
20.0066328138
 20
1.1745147986
 11
20.1443095678
 21
1.1739029019
  0
LINE
  5
223
100
AcDbEntity
  8
0
100
AcDbLine
 62
7
  6
CONTINUOUS
 10
20.1832714155
 20
1.1727031207
 11
20.238153505
 21
1.172335442
  0
LINE
  5
224
100
AcDbEntity
  8
0
100
AcDbLine
 62
7
  6
CONTINUOUS
 10
20.2756669918
 20
1.1717972817
 11
20.407916871
 21
1.1712095044
  0
CIRCLE
  5
225
100
AcDbEntity
  8
0
100
AcDbCircle
 62
7
  6
CONTINUOUS
 10
20.7509457401
 20
1.1693297793
 40
0.1722024983
  0
CIRCLE
  5
226
100
AcDbEntity
  8
0
100
AcDbCircle
 62
7
  6
CONTINUOUS
 10
20.7509457401
 20
1.1693297793
 40
0.0985164967
  0
LINE
  5
227
100
AcDbEntity
  8
0
100
AcDbLine
 62
7
  6
CONTINUOUS
 10
20.7169767782
 20
1.170462078
 11
20.7825395137
 21
1.1682766535
  0
LINE
  5
228
100
AcDbEntity
  8
0
100
AcDbLine
 62
7
  6
CONTINUOUS
 10
20.8177513651
 20
1.1693297793
 11
20.947965719
 21
1.1693297793
  0
LINE
  5
229
100
AcDbEntity
  8
0
100
AcDbLine
 62
7
  6
CONTINUOUS
 10
20.6875370113
 20
1.170462078
 11
20.5573226574
 21
1.170462078
  0
LINE
  5
22A
100
AcDbEntity
  8
0
100
AcDbLine
 62
7
  6
CONTINUOUS
 10
20.7486811426
 20
1.1987695462
 11
20.7486811426
 21
1.1432869085
  0
LINE
  5
22B
100
AcDbEntity
  8
0
100
AcDbLine
 62
7
  6
CONTINUOUS
 10
20.7498134414
 20
1.1059210505
 11
20.7498134414
 21
0.9757066966
  0
LINE
  5
22C
100
AcDbEntity
  8
0
100
AcDbLine
 62
7
  6
CONTINUOUS
 10
20.7486811426
 20
1.2338708068
 11
20.7486811426
 21
1.3640851607
  0
LINE
  5
22D
100
AcDbEntity
  8
0
100
AcDbLine
 62
7
  6
CONTINUOUS
 10
21.0702539817
 20
1.2701043662
 11
21.4790138229
 21
1.3448360823
  0
LINE
  5
22E
100
AcDbEntity
  8
0
100
AcDbLine
 62
7
  6
CONTINUOUS
 10
21.4790138229
 20
1.3448360823
 11
21.4790138229
 21
0.9779712941
  0
LINE
  5
22F
100
AcDbEntity
  8
0
100
AcDbLine
 62
7
  6
CONTINUOUS
 10
21.4790138229
 20
0.9779712941
 11
21.069121683
 21
1.0617614
  0
LINE
  5
230
100
AcDbEntity
  8
0
100
AcDbLine
 62
7
  6
CONTINUOUS
 10
21.0702539817
 20
1.2701043662
 11
21.069121683
 21
1.0617614
  0
LINE
  5
231
100
AcDbEntity
  8
0
100
AcDbLine
 62
7
  6
CONTINUOUS
 10
21.4790138229
 20
1.1693297793
 11
21.3159628059
 21
1.1693297793
  0
LINE
  5
232
100
AcDbEntity
  8
0
100
AcDbLine
 62
7
  6
CONTINUOUS
 10
21.2876553377
 20
1.1693297793
 11
21.2502894796
 21
1.1693297793
  0
LINE
  5
233
100
AcDbEntity
  8
0
100
AcDbLine
 62
7
  6
CONTINUOUS
 10
21.2208497126
 20
1.1659328831
 11
21.0713862804
 21
1.1659328831
  0
LINE
  5
234
100
AcDbEntity
  8
0
100
AcDbLine
 62
7
  6
CONTINUOUS
 10
20.4796138713
 20
1.5284908897
 11
20.4766766948
 21
0.9294458646
  0
ENDBLK
  5
235
100
AcDbEntity
  8
0
  6
BYBLOCK
 62
0
100
AcDbBlockEnd
  0
BLOCK
  5
236
100
AcDbEntity
  8
0
100
AcDbBlockBegin
  2
*T1
 70
1
 10
0.0
 20
0.0
  3
*T1
  1

  0
LINE
  5
237
100
AcDbEntity
  8
0
100
AcDbLine
 62
2
  6
CONTINUOUS
 10
9.275
 20
0.0
 11
-0.0
 21
0.0
  0
LINE
  5
238
100
AcDbEntity
  8
0
100
AcDbLine
 62
2
  6
CONTINUOUS
 10
9.275
 20
0.0
 11
9.275
 21
1.25
  0
LINE
  5
239
100
AcDbEntity
  8
0
100
AcDbLine
 62
2
  6
CONTINUOUS
 10
9.275
 20
0.625
 11
-0.0
 21
0.625
  0
LINE
  5
23A
100
AcDbEntity
  8
0
100
AcDbLine
 62
2
  6
CONTINUOUS
 10
9.275
 20
1.25
 11
-0.0
 21
1.25
  0
LINE
  5
23B
100
AcDbEntity
  8
0
100
AcDbLine
 62
2
  6
CONTINUOUS
 10
6.8
 20
0.0
 11
6.8
 21
1.25
  0
LINE
  5
23C
100
AcDbEntity
  8
0
100
AcDbLine
 62
2
  6
CONTINUOUS
 10
6.4
 20
0.0
 11
6.4
 21
0.625
  0
LINE
  5
23D
100
AcDbEntity
  8
0
100
AcDbLine
 62
2
  6
CONTINUOUS
 10
5.9
 20
0.0
 11
5.9
 21
0.625
  0
LINE
  5
23E
100
AcDbEntity
  8
0
100
AcDbLine
 62
2
  6
CONTINUOUS
 10
5.2
 20
0.0
 11
5.2
 21
0.625
  0
LINE
  5
23F
100
AcDbEntity
  8
0
100
AcDbLine
 62
2
  6
CONTINUOUS
 10
4.1
 20
0.0
 11
4.1
 21
1.25
  0
LINE
  5
240
100
AcDbEntity
  8
0
100
AcDbLine
 62
2
  6
CONTINUOUS
 10
-0.0
 20
0.0
 11
-0.0
 21
1.25
  0
MTEXT
  5
241
100
AcDbEntity
  8
0
100
AcDbMText
 62
2
  6
CONTINUOUS
  7
STANDARD
 71
2
 72
1
 10
6.6
 20
0.325
 30
0.0
 11
1.0
 21
0.0
 31
0.0
 44
0.9
  1
2
 40
0.125
 41
0.2
  0
MTEXT
  5
242
100
AcDbEntity
  8
0
100
AcDbMText
 62
2
  6
CONTINUOUS
  7
STANDARD
 71
2
 72
1
 10
6.15
 20
0.325
 30
0.0
 11
1.0
 21
0.0
 31
0.0
 44
0.9
  1
C
 40
0.125
 41
0.2
  0
MTEXT
  5
243
100
AcDbEntity
  8
0
100
AcDbMText
 62
2
  6
CONTINUOUS
  7
STANDARD
 71
2
 72
1
 10
5.55
 20
0.325
 30
0.0
 11
1.0
 21
0.0
 31
0.0
 44
0.9
  1
2.000
 40
0.125
 41
1.0
  0
MTEXT
  5
244
100
AcDbEntity
  8
0
100
AcDbMText
 62
2
  6
CONTINUOUS
  7
STANDARD
 71
2
 72
1
 10
4.65
 20
0.325
 30
0.0
 11
1.0
 21
0.0
 31
0.0
 44
0.9
  1
Apr-16-21
 40
0.125
 41
1.8
  0
MTEXT
  5
245
100
AcDbEntity
  8
0
100
AcDbMText
 62
2
  6
CONTINUOUS
  7
STANDARD
 71
2
 72
1
 10
2.05
 20
0.4625
 30
0.0
 11
1.0
 21
0.0
 31
0.0
 44
0.9
  1
T-11A Line mount\P2 cylinder sequence, with reverse checks
 40
0.125
 41
8.0
  0
MTEXT
  5
246
100
AcDbEntity
  8
0
100
AcDbMText
 62
2
  6
CONTINUOUS
  7
STANDARD
 71
1
 72
1
 10
6.45
 20
0.5625
 30
0.0
 11
1.0
 21
0.0
 31
0.0
 44
0.9
  1
SHEET
 40
0.06
 41
0.48
  0
MTEXT
  5
247
100
AcDbEntity
  8
0
100
AcDbMText
 62
2
  6
CONTINUOUS
  7
STANDARD
 71
1
 72
1
 10
5.95
 20
0.5625
 30
0.0
 11
1.0
 21
0.0
 31
0.0
 44
0.9
  1
DWG SIZE
 40
0.06
 41
0.768
  0
MTEXT
  5
248
100
AcDbEntity
  8
0
100
AcDbMText
 62
2
  6
CONTINUOUS
  7
STANDARD
 71
1
 72
1
 10
5.25
 20
0.5625
 30
0.0
 11
1.0
 21
0.0
 31
0.0
 44
0.9
  1
SCALE
 40
0.06
 41
0.48
  0
MTEXT
  5
249
100
AcDbEntity
  8
0
100
AcDbMText
 62
2
  6
CONTINUOUS
  7
STANDARD
 71
1
 72
1
 10
4.15
 20
0.5625
 30
0.0
 11
1.0
 21
0.0
 31
0.0
 44
0.9
  1
DATE
 40
0.06
 41
0.384
  0
MTEXT
  5
24A
100
AcDbEntity
  8
0
100
AcDbMText
 62
2
  6
CONTINUOUS
  7
STANDARD
 71
1
 72
1
 10
0.05
 20
0.5625
 30
0.0
 11
1.0
 21
0.0
 31
0.0
 44
0.9
  1
DESCRIPTION
 40
0.06
 41
1.056
  0
MTEXT
  5
24B
100
AcDbEntity
  8
0
100
AcDbMText
 62
2
  6
CONTINUOUS
  7
STANDARD
 71
2
 72
1
 10
5.45
 20
1.0375
 30
0.0
 11
1.0
 21
0.0
 31
0.0
 44
0.9
  1
ALL DIMENSIONS IN INCH\PVIEWS ARE THIRD ANGLE
 40
0.12
 41
4.224
  0
MTEXT
  5
24C
100
AcDbEntity
  8
0
100
AcDbMText
 62
2
  6
CONTINUOUS
  7
STANDARD
 71
2
 72
1
 10
2.05
 20
0.95
 30
0.0
 11
1.0
 21
0.0
 31
0.0
 44
0.9
  1
E8A
 40
0.125
 41
0.6
  0
MTEXT
  5
24D
100
AcDbEntity
  8
0
100
AcDbMText
 62
2
  6
CONTINUOUS
  7
STANDARD
 71
1
 72
1
 10
0.05
 20
1.1875
 30
0.0
 11
1.0
 21
0.0
 31
0.0
 44
0.9
  1
MODEL
 40
0.06
 41
0.48
  0
ENDBLK
  5
24E
100
AcDbEntity
  8
0
  6
BYBLOCK
 62
0
100
AcDbBlockEnd
  0
BLOCK
  5
24F
100
AcDbEntity
  8
0
100
AcDbBlockBegin
  2
*T2
 70
1
 10
0.0
 20
0.0
  3
*T2
  1

  0
LINE
  5
250
100
AcDbEntity
  8
0
100
AcDbLine
 62
2
  6
CONTINUOUS
 10
0.0
 20
0.0
 11
9.055
 21
0.0
  0
LINE
  5
251
100
AcDbEntity
  8
0
100
AcDbLine
 62
2
  6
CONTINUOUS
 10
0.0
 20
0.0
 11
0.0
 21
-2.594
  0
LINE
  5
252
100
AcDbEntity
  8
0
100
AcDbLine
 62
2
  6
CONTINUOUS
 10
0.0
 20
-0.344
 11
9.055
 21
-0.344
  0
LINE
  5
253
100
AcDbEntity
  8
0
100
AcDbLine
 62
2
  6
CONTINUOUS
 10
0.0
 20
-0.594
 11
9.055
 21
-0.594
  0
LINE
  5
254
100
AcDbEntity
  8
0
100
AcDbLine
 62
2
  6
CONTINUOUS
 10
0.0
 20
-0.844
 11
9.055
 21
-0.844
  0
LINE
  5
255
100
AcDbEntity
  8
0
100
AcDbLine
 62
2
  6
CONTINUOUS
 10
0.0
 20
-1.094
 11
9.055
 21
-1.094
  0
LINE
  5
256
100
AcDbEntity
  8
0
100
AcDbLine
 62
2
  6
CONTINUOUS
 10
0.0
 20
-1.344
 11
9.055
 21
-1.344
  0
LINE
  5
257
100
AcDbEntity
  8
0
100
AcDbLine
 62
2
  6
CONTINUOUS
 10
0.0
 20
-1.594
 11
9.055
 21
-1.594
  0
LINE
  5
258
100
AcDbEntity
  8
0
100
AcDbLine
 62
2
  6
CONTINUOUS
 10
0.0
 20
-1.844
 11
9.055
 21
-1.844
  0
LINE
  5
259
100
AcDbEntity
  8
0
100
AcDbLine
 62
2
  6
CONTINUOUS
 10
0.0
 20
-2.094
 11
9.055
 21
-2.094
  0
LINE
  5
25A
100
AcDbEntity
  8
0
100
AcDbLine
 62
2
  6
CONTINUOUS
 10
0.0
 20
-2.344
 11
9.055
 21
-2.344
  0
LINE
  5
25B
100
AcDbEntity
  8
0
100
AcDbLine
 62
2
  6
CONTINUOUS
 10
0.0
 20
-2.594
 11
9.055
 21
-2.594
  0
LINE
  5
25C
100
AcDbEntity
  8
0
100
AcDbLine
 62
2
  6
CONTINUOUS
 10
3.055
 20
0.0
 11
3.055
 21
-2.594
  0
LINE
  5
25D
100
AcDbEntity
  8
0
100
AcDbLine
 62
2
  6
CONTINUOUS
 10
9.055
 20
0.0
 11
9.055
 21
-2.594
  0
MTEXT
  5
25E
100
AcDbEntity
  8
0
100
AcDbMText
 62
2
  6
CONTINUOUS
  7
STANDARD
 71
2
 72
1
 10
1.5275
 20
-0.0995
 30
0.0
 11
1.0
 21
0.0
 31
0.0
 44
0.9
  1
Technical Data
 40
0.145
 41
3.248
  0
MTEXT
  5
25F
100
AcDbEntity
  8
0
100
AcDbMText
 62
2
  6
CONTINUOUS
  7
STANDARD
 71
2
 72
1
 10
4.555
 20
-0.0995
 30
0.0
 11
1.0
 21
0.0
 31
0.0
 44
0.9
  1
U.S. Units
 40
0.145
 41
2.32
  0
MTEXT
  5
260
100
AcDbEntity
  8
0
100
AcDbMText
 62
2
  6
CONTINUOUS
  7
STANDARD
 71
2
 72
1
 10
7.555
 20
-0.0995
 30
0.0
 11
1.0
 21
0.0
 31
0.0
 44
0.9
  1
Metric Units
 40
0.145
 41
2.784
  0
MTEXT
  5
261
100
AcDbEntity
  8
0
100
AcDbMText
 62
2
  6
CONTINUOUS
  7
STANDARD
 71
2
 72
1
 10
1.5275
 20
-0.4065
 30
0.0
 11
1.0
 21
0.0
 31
0.0
 44
0.9
  1
Cavity
 40
0.125
 41
1.2
  0
MTEXT
  5
262
100
AcDbEntity
  8
0
100
AcDbMText
 62
2
  6
CONTINUOUS
  7
STANDARD
 71
2
 72
1
 10
6.055
 20
-0.4065
 30
0.0
 11
1.0
 21
0.0
 31
0.0
 44
0.9
  1
T-11A
 40
0.125
 41
1.0
  0
MTEXT
  5
263
100
AcDbEntity
  8
0
100
AcDbMText
 62
2
  6
CONTINUOUS
  7
STANDARD
 71
2
 72
1
 10
1.5275
 20
-0.6565
 30
0.0
 11
1.0
 21
0.0
 31
0.0
 44
0.9
  1
Body Features
 40
0.125
 41
2.6
  0
MTEXT
  5
264
100
AcDbEntity
  8
0
100
AcDbMText
 62
2
  6
CONTINUOUS
  7
STANDARD
 71
2
 72
1
 10
6.055
 20
-0.6565
 30
0.0
 11
1.0
 21
0.0
 31
0.0
 44
0.9
  1
2 cylinder sequence, with reverse checks
 40
0.125
 41
8.0
  0
MTEXT
  5
265
100
AcDbEntity
  8
0
100
AcDbMText
 62
2
  6
CONTINUOUS
  7
STANDARD
 71
2
 72
1
 10
1.5275
 20
-0.9065
 30
0.0
 11
1.0
 21
0.0
 31
0.0
 44
0.9
  1
Body Type
 40
0.125
 41
1.8
  0
MTEXT
  5
266
100
AcDbEntity
  8
0
100
AcDbMText
 62
2
  6
CONTINUOUS
  7
STANDARD
 71
2
 72
1
 10
6.055
 20
-0.9065
 30
0.0
 11
1.0
 21
0.0
 31
0.0
 44
0.9
  1
Line mount
 40
0.125
 41
2.0
  0
MTEXT
  5
267
100
AcDbEntity
  8
0
100
AcDbMText
 62
2
  6
CONTINUOUS
  7
STANDARD
 71
2
 72
1
 10
1.5275
 20
-1.1565
 30
0.0
 11
1.0
 21
0.0
 31
0.0
 44
0.9
  1
Interface
 40
0.125
 41
1.8
  0
MTEXT
  5
268
100
AcDbEntity
  8
0
100
AcDbMText
 62
2
  6
CONTINUOUS
  7
STANDARD
 71
2
 72
1
 10
6.055
 20
-1.1565
 30
0.0
 11
1.0
 21
0.0
 31
0.0
 44
0.9
  1
None
 40
0.125
 41
0.8
  0
MTEXT
  5
269
100
AcDbEntity
  8
0
100
AcDbMText
 62
2
  6
CONTINUOUS
  7
STANDARD
 71
2
 72
1
 10
1.5275
 20
-1.4065
 30
0.0
 11
1.0
 21
0.0
 31
0.0
 44
0.9
  1
Open Cavity Quantity
 40
0.125
 41
4.0
  0
MTEXT
  5
26A
100
AcDbEntity
  8
0
100
AcDbMText
 62
2
  6
CONTINUOUS
  7
STANDARD
 71
2
 72
1
 10
6.055
 20
-1.4065
 30
0.0
 11
1.0
 21
0.0
 31
0.0
 44
0.9
  1
2
 40
0.125
 41
0.2
  0
MTEXT
  5
26B
100
AcDbEntity
  8
0
100
AcDbMText
 62
2
  6
CONTINUOUS
  7
STANDARD
 71
2
 72
1
 10
1.5275
 20
-1.6565
 30
0.0
 11
1.0
 21
0.0
 31
0.0
 44
0.9
  1
Weight
 40
0.125
 41
1.2
  0
MTEXT
  5
26C
100
AcDbEntity
  8
0
100
AcDbMText
 62
2
  6
CONTINUOUS
  7
STANDARD
 71
2
 72
1
 10
4.555
 20
-1.6565
 30
0.0
 11
1.0
 21
0.0
 31
0.0
 44
0.9
  1
2.364 lb.
 40
0.125
 41
1.8
  0
MTEXT
  5
26D
100
AcDbEntity
  8
0
100
AcDbMText
 62
2
  6
CONTINUOUS
  7
STANDARD
 71
2
 72
1
 10
7.555
 20
-1.6565
 30
0.0
 11
1.0
 21
0.0
 31
0.0
 44
0.9
  1
1,072 kg.
 40
0.125
 41
1.8
  0
MTEXT
  5
26E
100
AcDbEntity
  8
0
100
AcDbMText
 62
2
  6
CONTINUOUS
  7
STANDARD
 71
2
 72
1
 10
1.5275
 20
-1.9065
 30
0.0
 11
1.0
 21
0.0
 31
0.0
 44
0.9
  1
Mounting Hole Diameter
 40
0.125
 41
4.4
  0
MTEXT
  5
26F
100
AcDbEntity
  8
0
100
AcDbMText
 62
2
  6
CONTINUOUS
  7
STANDARD
 71
2
 72
1
 10
4.555
 20
-1.9065
 30
0.0
 11
1.0
 21
0.0
 31
0.0
 44
0.9
  1
.34 in.
 40
0.125
 41
1.4
  0
MTEXT
  5
270
100
AcDbEntity
  8
0
100
AcDbMText
 62
2
  6
CONTINUOUS
  7
STANDARD
 71
2
 72
1
 10
7.555
 20
-1.9065
 30
0.0
 11
1.0
 21
0.0
 31
0.0
 44
0.9
  1
8.6 mm
 40
0.125
 41
1.2
  0
MTEXT
  5
271
100
AcDbEntity
  8
0
100
AcDbMText
 62
2
  6
CONTINUOUS
  7
STANDARD
 71
2
 72
1
 10
1.5275
 20
-2.1565
 30
0.0
 11
1.0
 21
0.0
 31
0.0
 44
0.9
  1
Mounting Hole Depth
 40
0.125
 41
3.8
  0
MTEXT
  5
272
100
AcDbEntity
  8
0
100
AcDbMText
 62
2
  6
CONTINUOUS
  7
STANDARD
 71
2
 72
1
 10
6.055
 20
-2.1565
 30
0.0
 11
1.0
 21
0.0
 31
0.0
 44
0.9
  1
Through
 40
0.125
 41
1.4
  0
MTEXT
  5
273
100
AcDbEntity
  8
0
100
AcDbMText
 62
2
  6
CONTINUOUS
  7
STANDARD
 71
2
 72
1
 10
1.5275
 20
-2.4065
 30
0.0
 11
1.0
 21
0.0
 31
0.0
 44
0.9
  1
Mounting Hole Quantity
 40
0.125
 41
4.4
  0
MTEXT
  5
274
100
AcDbEntity
  8
0
100
AcDbMText
 62
2
  6
CONTINUOUS
  7
STANDARD
 71
2
 72
1
 10
6.055
 20
-2.4065
 30
0.0
 11
1.0
 21
0.0
 31
0.0
 44
0.9
  1
2
 40
0.125
 41
0.2
  0
ENDBLK
  5
275
100
AcDbEntity
  8
0
  6
BYBLOCK
 62
0
100
AcDbBlockEnd
  0
BLOCK
  5
276
100
AcDbEntity
  8
0
100
AcDbBlockBegin
  2
*T3
 70
1
 10
0.0
 20
0.0
  3
*T3
  1

  0
LINE
  5
277
100
AcDbEntity
  8
0
100
AcDbLine
 62
2
  6
CONTINUOUS
 10
0.0
 20
0.0
 11
4.6
 21
0.0
  0
LINE
  5
278
100
AcDbEntity
  8
0
100
AcDbLine
 62
2
  6
CONTINUOUS
 10
0.0
 20
0.0
 11
0.0
 21
-0.93775
  0
LINE
  5
279
100
AcDbEntity
  8
0
100
AcDbLine
 62
2
  6
CONTINUOUS
 10
0.0
 20
-0.34375
 11
4.6
 21
-0.34375
  0
LINE
  5
27A
100
AcDbEntity
  8
0
100
AcDbLine
 62
2
  6
CONTINUOUS
 10
0.0
 20
-0.68775
 11
4.6
 21
-0.68775
  0
LINE
  5
27B
100
AcDbEntity
  8
0
100
AcDbLine
 62
2
  6
CONTINUOUS
 10
0.0
 20
-0.93775
 11
4.6
 21
-0.93775
  0
LINE
  5
27C
100
AcDbEntity
  8
0
100
AcDbLine
 62
2
  6
CONTINUOUS
 10
1.3
 20
-0.34375
 11
1.3
 21
-0.93775
  0
LINE
  5
27D
100
AcDbEntity
  8
0
100
AcDbLine
 62
2
  6
CONTINUOUS
 10
3.3
 20
-0.34375
 11
3.3
 21
-0.93775
  0
LINE
  5
27E
100
AcDbEntity
  8
0
100
AcDbLine
 62
2
  6
CONTINUOUS
 10
4.6
 20
0.0
 11
4.6
 21
-0.93775
  0
MTEXT
  5
27F
100
AcDbEntity
  8
0
100
AcDbMText
 62
2
  6
CONTINUOUS
  7
STANDARD
 71
2
 72
1
 10
2.3
 20
-0.099375
 30
0.0
 11
1.0
 21
0.0
 31
0.0
 44
0.9
  1
Port Headings
 40
0.145
 41
3.016
  0
MTEXT
  5
280
100
AcDbEntity
  8
0
100
AcDbMText
 62
2
  6
CONTINUOUS
  7
STANDARD
 71
2
 72
1
 10
0.65
 20
-0.44325
 30
0.0
 11
1.0
 21
0.0
 31
0.0
 44
0.9
  1
Product
 40
0.145
 41
1.624
  0
MTEXT
  5
281
100
AcDbEntity
  8
0
100
AcDbMText
 62
2
  6
CONTINUOUS
  7
STANDARD
 71
2
 72
1
 10
2.3
 20
-0.44325
 30
0.0
 11
1.0
 21
0.0
 31
0.0
 44
0.9
  1
Port
 40
0.145
 41
0.928
  0
MTEXT
  5
282
100
AcDbEntity
  8
0
100
AcDbMText
 62
2
  6
CONTINUOUS
  7
STANDARD
 71
2
 72
1
 10
3.95
 20
-0.44325
 30
0.0
 11
1.0
 21
0.0
 31
0.0
 44
0.9
  1
Size
 40
0.145
 41
0.928
  0
MTEXT
  5
283
100
AcDbEntity
  8
0
100
AcDbMText
 62
2
  6
CONTINUOUS
  7
STANDARD
 71
2
 72
1
 10
0.65
 20
-0.75025
 30
0.0
 11
1.0
 21
0.0
 31
0.0
 44
0.9
  1
E8A
 40
0.125
 41
0.6
  0
MTEXT
  5
284
100
AcDbEntity
  8
0
100
AcDbMText
 62
2
  6
CONTINUOUS
  7
STANDARD
 71
2
 72
1
 10
2.3
 20
-0.75025
 30
0.0
 11
1.0
 21
0.0
 31
0.0
 44
0.9
  1
All Ports
 40
0.125
 41
1.8
  0
MTEXT
  5
285
100
AcDbEntity
  8
0
100
AcDbMText
 62
2
  6
CONTINUOUS
  7
STANDARD
 71
2
 72
1
 10
3.95
 20
-0.75025
 30
0.0
 11
1.0
 21
0.0
 31
0.0
 44
0.9
  1
1/4" NPTF
 40
0.125
 41
1.8
  0
ENDBLK
  5
286
100
AcDbEntity
  8
0
  6
BYBLOCK
 62
0
100
AcDbBlockEnd
  0
ENDSEC
  0
SECTION
  2
ENTITIES
  0
IMAGE
  5
287
100
AcDbEntity
  8
0
100
AcDbRasterImage
 62
7
  6
CONTINUOUS
 10
19.2297077316
 20
0.3094318264
 30
0.0
 11
0.0066666667
 21
0.0
 31
0.0
 12
0.0
 22
0.0066666667
 32
0.0
 13
369.0
 23
92.0
340
       37D
 70
9
280
0
281
50
282
50
283
0
360
       377
 71
1
 91
2
 14
-0.5
 24
-0.5
 14
368.5
 24
91.5
  0
INSERT
  5
288
100
AcDbEntity
  8
0
100
AcDbBlockReference
 62
2
  6
CONTINUOUS
  2
SUN_FIRST_THIRD_ANGLE_BL0
 10
20.4816717061
 20
1.2289683772
  0
ACAD_TABLE
  5
289
100
AcDbEntity
  8
0
 62
2
  6
CONTINUOUS
100
AcDbBlockReference
  2
*T1
 10
12.42375
 20
0.30125
 30
0.0
100
AcDbTable
342
       37F
343
20F
 11
1.0
 21
0.0
 31
0.0
 90
6
 91
4
 92
6
 93
20
 94
0
 95
0
 96
0
 70
1
 41
0.0
141
0.525
141
0.1
141
0.525
141
0.1
142
4.1
142
1.1
142
0.7
142
0.5
142
0.4
142
2.475
171
1
172
0
173
0
174
0
175
1
176
1
 91
33
178
0
145
0.0
301
CELL_VALUE
 90
4
  1
T-11A Line mount\P2 cylinder sequence, with reverse checks
304
ACVALUE_END
170
2
140
0.125
171
1
172
0
173
0
174
0
175
1
176
1
 91
33
178
0
145
0.0
301
CELL_VALUE
 90
4
  1
Apr-16-21
304
ACVALUE_END
170
5
140
0.125
171
1
172
0
173
0
174
0
175
1
176
1
 91
33
178
0
145
0.0
301
CELL_VALUE
 90
4
  1
2.000
304
ACVALUE_END
170
5
140
0.125
171
1
172
0
173
0
174
0
175
1
176
1
 91
33
178
0
145
0.0
301
CELL_VALUE
 90
4
  1
C
304
ACVALUE_END
170
5
140
0.125
171
1
172
0
173
0
174
0
175
1
176
1
 91
33
178
0
145
0.0
301
CELL_VALUE
 90
4
  1
2
304
ACVALUE_END
170
5
140
0.125
171
1
172
0
173
0
174
0
175
1
176
1
 91
33
178
0
145
0.0
301
CELL_VALUE
 90
4
  1
 
304
ACVALUE_END
170
1
140
0.125
171
1
172
0
173
0
174
0
175
1
176
1
 91
33
178
0
145
0.0
301
CELL_VALUE
 90
4
  1
DESCRIPTION
304
ACVALUE_END
170
1
140
0.06
171
1
172
0
173
0
174
0
175
1
176
1
 91
33
178
0
145
0.0
301
CELL_VALUE
 90
4
  1
DATE
304
ACVALUE_END
170
1
140
0.06
171
1
172
0
173
0
174
0
175
1
176
1
 91
33
178
0
145
0.0
301
CELL_VALUE
 90
4
  1
SCALE
304
ACVALUE_END
170
1
140
0.06
171
1
172
0
173
0
174
0
175
1
176
1
 91
33
178
0
145
0.0
301
CELL_VALUE
 90
4
  1
DWG SIZE
304
ACVALUE_END
170
1
140
0.06
171
1
172
0
173
0
174
0
175
1
176
1
 91
33
178
0
145
0.0
301
CELL_VALUE
 90
4
  1
SHEET
304
ACVALUE_END
170
1
140
0.06
171
1
172
0
173
0
174
0
175
1
176
1
 91
33
178
0
145
0.0
301
CELL_VALUE
 90
4
  1
 
304
ACVALUE_END
170
1
140
0.125
171
1
172
0
173
0
174
0
175
1
176
1
 91
33
178
0
145
0.0
301
CELL_VALUE
 90
4
  1
E8A
304
ACVALUE_END
170
5
140
0.125
171
1
172
0
173
0
174
0
175
4
176
1
 91
33
178
0
145
0.0
301
CELL_VALUE
 90
4
  1
ALL DIMENSIONS IN INCH\PVIEWS ARE THIRD ANGLE
304
ACVALUE_END
170
5
140
0.12
171
1
172
0
173
1
174
0
175
1
176
1
 91
1
178
0
145
0.0
170
1
171
1
172
0
173
1
174
0
175
1
176
1
 91
1
178
0
145
0.0
170
1
171
1
172
0
173
1
174
0
175
1
176
1
 91
1
178
0
145
0.0
170
5
171
1
172
0
173
0
174
0
175
1
176
1
 91
33
178
0
145
0.0
301
CELL_VALUE
 90
4
  1
 
304
ACVALUE_END
170
1
140
0.125
171
1
172
0
173
0
174
0
175
1
176
1
 91
33
178
0
145
0.0
301
CELL_VALUE
 90
4
  1
MODEL
304
ACVALUE_END
170
1
140
0.06
171
1
172
0
173
0
174
0
175
1
176
1
 91
33
178
0
145
0.0
301
CELL_VALUE
 90
4
  1
 
304
ACVALUE_END
170
1
140
0.125
171
1
172
0
173
0
174
0
175
1
176
1
 91
33
178
0
145
0.0
301
CELL_VALUE
 90
4
  1
 
304
ACVALUE_END
170
1
140
0.125
171
1
172
0
173
0
174
0
175
1
176
1
 91
33
178
0
145
0.0
301
CELL_VALUE
 90
4
  1
 
304
ACVALUE_END
170
1
140
0.125
171
1
172
0
173
0
174
0
175
1
176
1
 91
33
178
0
145
0.0
301
CELL_VALUE
 90
4
  1
 
304
ACVALUE_END
170
1
140
0.125
171
1
172
0
173
0
174
0
175
1
176
1
 91
33
178
0
145
0.0
301
CELL_VALUE
 90
4
  1
 
304
ACVALUE_END
170
1
140
0.125
  0
ACAD_TABLE
  5
28A
100
AcDbEntity
  8
0
 62
2
  6
CONTINUOUS
100
AcDbBlockReference
  2
*T2
 10
12.4237499994
 20
16.47875
 30
0.0
100
AcDbTable
342
       37E
343
210
 11
1.0
 21
0.0
 31
0.0
 90
22
 91
10
 92
3
 93
16
 94
0
 95
0
 96
0
 41
0.028
141
0.344
141
0.25
141
0.25
141
0.25
141
0.25
141
0.25
141
0.25
141
0.25
141
0.25
141
0.25
142
3.055
142
3.0
142
3.0
171
1
172
0
173
0
174
0
175
1
176
1
 91
33
178
0
145
0.0
301
CELL_VALUE
 90
4
  1
Technical Data
304
ACVALUE_END
170
5
140
0.145
171
1
172
0
173
0
174
0
175
1
176
1
 91
33
178
0
145
0.0
301
CELL_VALUE
 90
4
  1
U.S. Units
304
ACVALUE_END
170
5
140
0.145
171
1
172
0
173
0
174
0
175
1
176
1
 91
33
178
0
145
0.0
301
CELL_VALUE
 90
4
  1
Metric Units
304
ACVALUE_END
170
5
140
0.145
171
1
172
0
173
0
174
0
175
1
176
1
 91
33
178
0
145
0.0
301
CELL_VALUE
 90
4
  1
Cavity
304
ACVALUE_END
170
5
140
0.125
171
1
172
0
173
0
174
0
175
2
176
1
 91
33
178
0
145
0.0
301
CELL_VALUE
 90
4
  1
T-11A
304
ACVALUE_END
170
5
140
0.125
171
1
172
0
173
1
174
0
175
1
176
1
 91
1
178
0
145
0.0
170
1
171
1
172
0
173
0
174
0
175
1
176
1
 91
33
178
0
145
0.0
301
CELL_VALUE
 90
4
  1
Body Features
304
ACVALUE_END
170
5
140
0.125
171
1
172
0
173
0
174
0
175
2
176
1
 91
33
178
0
145
0.0
301
CELL_VALUE
 90
4
  1
2 cylinder sequence, with reverse checks
304
ACVALUE_END
170
5
140
0.125
171
1
172
0
173
1
174
0
175
1
176
1
 91
1
178
0
145
0.0
170
1
171
1
172
0
173
0
174
0
175
1
176
1
 91
33
178
0
145
0.0
301
CELL_VALUE
 90
4
  1
Body Type
304
ACVALUE_END
170
5
140
0.125
171
1
172
0
173
0
174
0
175
2
176
1
 91
33
178
0
145
0.0
301
CELL_VALUE
 90
4
  1
Line mount
304
ACVALUE_END
170
5
140
0.125
171
1
172
0
173
1
174
0
175
1
176
1
 91
1
178
0
145
0.0
170
1
171
1
172
0
173
0
174
0
175
1
176
1
 91
33
178
0
145
0.0
301
CELL_VALUE
 90
4
  1
Interface
304
ACVALUE_END
170
5
140
0.125
171
1
172
0
173
0
174
0
175
2
176
1
 91
33
178
0
145
0.0
301
CELL_VALUE
 90
4
  1
None
304
ACVALUE_END
170
5
140
0.125
171
1
172
0
173
1
174
0
175
1
176
1
 91
1
178
0
145
0.0
170
1
171
1
172
0
173
0
174
0
175
1
176
1
 91
33
178
0
145
0.0
301
CELL_VALUE
 90
4
  1
Open Cavity Quantity
304
ACVALUE_END
170
5
140
0.125
171
1
172
0
173
0
174
0
175
2
176
1
 91
33
178
0
145
0.0
301
CELL_VALUE
 90
4
  1
2
304
ACVALUE_END
170
5
140
0.125
171
1
172
0
173
1
174
0
175
1
176
1
 91
1
178
0
145
0.0
170
1
171
1
172
0
173
0
174
0
175
1
176
1
 91
33
178
0
145
0.0
301
CELL_VALUE
 90
4
  1
Weight
304
ACVALUE_END
170
5
140
0.125
171
1
172
0
173
0
174
0
175
1
176
1
 91
33
178
0
145
0.0
301
CELL_VALUE
 90
4
  1
2.364 lb.
304
ACVALUE_END
170
5
140
0.125
171
1
172
0
173
0
174
0
175
1
176
1
 91
33
178
0
145
0.0
301
CELL_VALUE
 90
4
  1
1,072 kg.
304
ACVALUE_END
170
5
140
0.125
171
1
172
0
173
0
174
0
175
1
176
1
 91
33
178
0
145
0.0
301
CELL_VALUE
 90
4
  1
Mounting Hole Diameter
304
ACVALUE_END
170
5
140
0.125
171
1
172
0
173
0
174
0
175
1
176
1
 91
33
178
0
145
0.0
301
CELL_VALUE
 90
4
  1
.34 in.
304
ACVALUE_END
170
5
140
0.125
171
1
172
0
173
0
174
0
175
1
176
1
 91
33
178
0
145
0.0
301
CELL_VALUE
 90
4
  1
8.6 mm
304
ACVALUE_END
170
5
140
0.125
171
1
172
0
173
0
174
0
175
1
176
1
 91
33
178
0
145
0.0
301
CELL_VALUE
 90
4
  1
Mounting Hole Depth
304
ACVALUE_END
170
5
140
0.125
171
1
172
0
173
0
174
0
175
2
176
1
 91
33
178
0
145
0.0
301
CELL_VALUE
 90
4
  1
Through
304
ACVALUE_END
170
5
140
0.125
171
1
172
0
173
1
174
0
175
1
176
1
 91
1
178
0
145
0.0
170
1
171
1
172
0
173
0
174
0
175
1
176
1
 91
33
178
0
145
0.0
301
CELL_VALUE
 90
4
  1
Mounting Hole Quantity
304
ACVALUE_END
170
5
140
0.125
171
1
172
0
173
0
174
0
175
2
176
1
 91
33
178
0
145
0.0
301
CELL_VALUE
 90
4
  1
2
304
ACVALUE_END
170
5
140
0.125
171
1
172
0
173
1
174
0
175
1
176
1
 91
1
178
0
145
0.0
170
1
  0
ACAD_TABLE
  5
28B
100
AcDbEntity
  8
0
 62
2
  6
CONTINUOUS
100
AcDbBlockReference
  2
*T3
 10
0.52125
 20
1.459
 30
0.0
100
AcDbTable
342
       37E
343
211
 11
1.0
 21
0.0
 31
0.0
 90
22
 91
3
 92
3
 93
16
 94
0
 95
0
 96
0
 41
0.05
141
0.34375
141
0.344
141
0.25
142
1.3
142
2.0
142
1.3
171
1
172
0
173
0
174
0
175
3
176
1
 91
33
178
0
145
0.0
301
CELL_VALUE
 90
4
  1
Port Headings
304
ACVALUE_END
170
5
140
0.145
171
1
172
0
173
1
174
0
175
1
176
1
 91
1
178
0
145
0.0
170
1
171
1
172
0
173
1
174
0
175
1
176
1
 91
1
178
0
145
0.0
170
1
171
1
172
0
173
0
174
0
175
1
176
1
 91
33
178
0
145
0.0
301
CELL_VALUE
 90
4
  1
Product
304
ACVALUE_END
170
5
140
0.145
171
1
172
0
173
0
174
0
175
1
176
1
 91
33
178
0
145
0.0
301
CELL_VALUE
 90
4
  1
Port
304
ACVALUE_END
170
5
140
0.145
171
1
172
0
173
0
174
0
175
1
176
1
 91
33
178
0
145
0.0
301
CELL_VALUE
 90
4
  1
Size
304
ACVALUE_END
170
5
140
0.145
171
1
172
0
173
0
174
0
175
1
176
1
 91
33
178
0
145
0.0
301
CELL_VALUE
 90
4
  1
E8A
304
ACVALUE_END
170
5
140
0.125
171
1
172
0
173
0
174
0
175
1
176
1
 91
33
178
0
145
0.0
301
CELL_VALUE
 90
4
  1
All Ports
304
ACVALUE_END
170
5
140
0.125
171
1
172
0
173
0
174
0
175
1
176
1
 91
33
178
0
145
0.0
301
CELL_VALUE
 90
4
  1
1/4" NPTF
304
ACVALUE_END
170
5
140
0.125
  0
MTEXT
  5
28C
100
AcDbEntity
  8
0
100
AcDbMText
 62
2
  6
CONTINUOUS
  7
STANDARD
 71
1
 72
1
 10
0.52125
 20
5.75995
 30
0.0
 11
1.0
 21
0.0
 31
0.0
 44
0.6
  3
Notes\P \P1. Important: Carefully consider\P   the maximum system pressure. The\P   pressure rating of the manifold is\P   dependent on the manifold material,\P   with the port type/size a secondary\P   consideration. Manifolds\P   constructed of alu
  1
minum are not\P   rated for pressures higher than\P   3000 psi (210 bar), regardless of\P   the port type/size specified.
 40
0.1
 41
3.04
  0
LINE
  5
28D
100
AcDbEntity
  8
0
100
AcDbLine
 62
7
  6
CONTINUOUS
 10
0.30125
 20
0.30125
 11
0.30125
 21
16.69875
  0
LINE
  5
28E
100
AcDbEntity
  8
0
100
AcDbLine
 62
7
  6
CONTINUOUS
 10
0.30125
 20
0.30125
 11
21.69875
 21
0.30125
  0
LINE
  5
28F
100
AcDbEntity
  8
0
100
AcDbLine
 62
7
  6
CONTINUOUS
 10
0.30125
 20
16.69875
 11
21.69875
 21
16.69875
  0
LINE
  5
290
100
AcDbEntity
  8
0
100
AcDbLine
 62
7
  6
CONTINUOUS
 10
21.69875
 20
0.30125
 11
21.69875
 21
16.69875
  0
LINE
  5
291
100
AcDbEntity
  8
0
100
AcDbLine
 62
7
  6
CONTINUOUS
 10
6.2856928605
 20
7.2308565608
 11
6.2627277015
 21
7.2860324222
  0
LINE
  5
292
100
AcDbEntity
  8
0
100
AcDbLine
 62
7
  6
CONTINUOUS
 10
6.5379202569
 20
5.7281345201
 11
6.5379202569
 21
10.5577639377
  0
LINE
  5
293
100
AcDbEntity
  8
0
100
AcDbLine
 62
7
  6
CONTINUOUS
 10
6.5379202569
 20
10.5577639377
 11
7.8320144145
 21
11.8077629802
  0
LINE
  5
294
100
AcDbEntity
  8
0
100
AcDbLine
 62
7
  6
CONTINUOUS
 10
6.3852309328
 20
8.8480067843
 11
6.3691615125
 21
8.8207613269
  0
LINE
  5
295
100
AcDbEntity
  8
0
100
AcDbLine
 62
7
  6
CONTINUOUS
 10
14.2653273251
 20
5.1922370198
 11
6.5379202569
 21
5.7281345201
  0
LINE
  5
296
100
AcDbEntity
  8
0
100
AcDbLine
 62
4
  6
CONTINUOUS
 10
12.410749771
 20
6.1901857181
 11
12.1789275641
 21
6.1338182031
  0
LINE
  5
297
100
AcDbEntity
  8
0
100
AcDbLine
 62
4
  6
CONTINUOUS
 10
9.3391054113
 20
6.4756494176
 11
9.5709276181
 21
6.3871280533
  0
LINE
  5
298
100
AcDbEntity
  8
0
100
AcDbLine
 62
4
  6
CONTINUOUS
 10
9.3777424469
 20
6.8062143525
 11
9.3584239291
 21
6.8220429842
  0
LINE
  5
299
100
AcDbEntity
  8
0
100
AcDbLine
 62
4
  6
CONTINUOUS
 10
9.3584239291
 20
6.8220429842
 11
9.3391054113
 21
6.8523605038
  0
LINE
  5
29A
100
AcDbEntity
  8
0
100
AcDbLine
 62
4
  6
CONTINUOUS
 10
12.2368831158
 20
6.738332265
 11
12.2948386675
 21
6.7488019218
  0
LINE
  5
29B
100
AcDbEntity
  8
0
100
AcDbLine
 62
4
  6
CONTINUOUS
 10
12.3721127319
 20
6.366731861
 11
12.3334757066
 21
6.3694113478
  0
LINE
  5
29C
100
AcDbEntity
  8
0
100
AcDbLine
 62
4
  6
CONTINUOUS
 10
9.5709276181
 20
6.6189502602
 11
9.3391054113
 21
6.6350271849
  0
LINE
  5
29D
100
AcDbEntity
  8
0
100
AcDbLine
 62
4
  6
CONTINUOUS
 10
9.4550165147
 20
6.945744257
 11
9.5129720664
 21
6.9272361379
  0
LINE
  5
29E
100
AcDbEntity
  8
0
100
AcDbLine
 62
4
  6
CONTINUOUS
 10
9.5129720664
 20
6.9272361379
 11
9.5516091055
 21
6.8955788743
  0
LINE
  5
29F
100
AcDbEntity
  8
0
100
AcDbLine
 62
4
  6
CONTINUOUS
 10
9.5516091055
 20
6.8955788743
 11
9.5709276181
 21
6.865261355
  0
LINE
  5
2A0
100
AcDbEntity
  8
0
100
AcDbLine
 62
4
  6
CONTINUOUS
 10
9.3391054113
 20
6.8523605038
 11
9.3391054113
 21
6.8813382796
  0
LINE
  5
2A1
100
AcDbEntity
  8
0
100
AcDbLine
 62
4
  6
CONTINUOUS
 10
9.4163794825
 20
6.4413126667
 11
9.4163794825
 21
6.3543793392
  0
LINE
  5
2A2
100
AcDbEntity
  8
0
100
AcDbLine
 62
4
  6
CONTINUOUS
 10
9.5709276181
 20
6.3871280533
 11
9.3391054113
 21
6.3307605383
  0
LINE
  5
2A3
100
AcDbEntity
  8
0
100
AcDbLine
 62
7
  6
CONTINUOUS
 10
6.5379202569
 20
7.0757439338
 11
6.3646163199
 21
7.0877626027
  0
LINE
  5
2A4
100
AcDbEntity
  8
0
100
AcDbLine
 62
7
  6
CONTINUOUS
 10
6.5379202569
 20
7.1054657914
 11
6.3380653474
 21
7.1193257765
  0
LINE
  5
2A5
100
AcDbEntity
  8
0
100
AcDbLine
 62
4
  6
CONTINUOUS
 10
12.2368831158
 20
6.4775322823
 11
12.1789275641
 21
6.4960404014
  0
LINE
  5
2A6
100
AcDbEntity
  8
0
100
AcDbLine
 62
4
  6
CONTINUOUS
 10
12.1789275641
 20
6.2787070824
 11
12.410749771
 21
6.1901857181
  0
LINE
  5
2A7
100
AcDbEntity
  8
0
100
AcDbLine
 62
4
  6
CONTINUOUS
 10
9.5709276181
 20
6.865261355
 11
9.5709276181
 21
6.8362835791
  0
LINE
  5
2A8
100
AcDbEntity
  8
0
100
AcDbLine
 62
4
  6
CONTINUOUS
 10
10.111846072
 20
9.2425632416
 11
10.1311645898
 21
9.2702012737
  0
LINE
  5
2A9
100
AcDbEntity
  8
0
100
AcDbLine
 62
4
  6
CONTINUOUS
 10
10.1311645898
 20
9.2702012737
 11
10.1698016238
 21
9.2964995622
  0
LINE
  5
2AA
100
AcDbEntity
  8
0
100
AcDbLine
 62
4
  6
CONTINUOUS
 10
9.397060963
 20
6.9352746002
 11
9.4550165147
 21
6.945744257
  0
LINE
  5
2AB
100
AcDbEntity
  8
0
100
AcDbLine
 62
4
  6
CONTINUOUS
 10
12.2948386675
 20
6.7488019218
 11
12.3527942192
 21
6.7302938027
  0
LINE
  5
2AC
100
AcDbEntity
  8
0
100
AcDbLine
 62
4
  6
CONTINUOUS
 10
10.111846072
 20
8.8368743796
 11
10.111846072
 21
8.7354521641
  0
LINE
  5
2AD
100
AcDbEntity
  8
0
100
AcDbLine
 62
4
  6
CONTINUOUS
 10
10.111846072
 20
9.2135854658
 11
10.111846072
 21
9.2425632416
  0
LINE
  5
2AE
100
AcDbEntity
  8
0
100
AcDbLine
 62
4
  6
CONTINUOUS
 10
10.2470756881
 20
8.8274961739
 11
10.2470756881
 21
8.7260739584
  0
LINE
  5
2AF
100
AcDbEntity
  8
0
100
AcDbLine
 62
4
  6
CONTINUOUS
 10
10.3436682789
 20
9.1975085411
 11
10.3243497663
 21
9.1698705086
  0
LINE
  5
2B0
100
AcDbEntity
  8
0
100
AcDbLine
 62
4
  6
CONTINUOUS
 10
10.3243497663
 20
9.1698705086
 11
10.3050312398
 21
9.1567213651
  0
LINE
  5
2B1
100
AcDbEntity
  8
0
100
AcDbLine
 62
7
  6
CONTINUOUS
 10
6.5379202569
 20
7.7192202702
 11
6.2250107221
 21
7.7409206202
  0
LINE
  5
2B2
100
AcDbEntity
  8
0
100
AcDbLine
 62
7
  6
CONTINUOUS
 10
6.5379202569
 20
7.8336391611
 11
6.2250107221
 21
7.855339511
  0
LINE
  5
2B3
100
AcDbEntity
  8
0
100
AcDbLine
 62
4
  6
CONTINUOUS
 10
12.3334757066
 20
6.3694113478
 11
12.3141571802
 21
6.3852399801
  0
LINE
  5
2B4
100
AcDbEntity
  8
0
100
AcDbLine
 62
4
  6
CONTINUOUS
 10
12.275520148
 20
6.4458750191
 11
12.2368831158
 21
6.4775322823
  0
LINE
  5
2B5
100
AcDbEntity
  8
0
100
AcDbLine
 62
4
  6
CONTINUOUS
 10
10.3436682789
 20
9.226486317
 11
10.3436682789
 21
9.1975085411
  0
LINE
  5
2B6
100
AcDbEntity
  8
0
100
AcDbLine
 62
4
  6
CONTINUOUS
 10
10.3436682789
 20
8.7193752394
 11
10.3436682789
 21
8.820797455
  0
LINE
  5
2B7
100
AcDbEntity
  8
0
100
AcDbLine
 62
4
  6
CONTINUOUS
 10
9.3391054113
 20
6.8813382796
 11
9.3584239291
 21
6.9089763117
  0
LINE
  5
2B8
100
AcDbEntity
  8
0
100
AcDbLine
 62
4
  6
CONTINUOUS
 10
10.2084386559
 20
8.6997756698
 11
10.2470756881
 21
8.7260739584
  0
LINE
  5
2B9
100
AcDbEntity
  8
0
100
AcDbLine
 62
4
  6
CONTINUOUS
 10
10.3243497663
 20
8.7062260949
 11
10.3436682789
 21
8.7193752394
  0
LINE
  5
2BA
100
AcDbEntity
  8
0
100
AcDbLine
 62
4
  6
CONTINUOUS
 10
14.4672060082
 20
8.194217412
 11
14.4516768787
 21
8.1937063117
  0
LINE
  5
2BB
100
AcDbEntity
  8
0
100
AcDbLine
 62
4
  6
CONTINUOUS
 10
12.3721127319
 20
6.4826429645
 11
12.3914312583
 21
6.4668143322
  0
LINE
  5
2BC
100
AcDbEntity
  8
0
100
AcDbLine
 62
4
  6
CONTINUOUS
 10
12.2175645997
 20
6.6092720173
 11
12.1982460819
 21
6.625100649
  0
LINE
  5
2BD
100
AcDbEntity
  8
0
100
AcDbLine
 62
4
  6
CONTINUOUS
 10
12.3527942192
 20
6.7302938027
 11
12.3914312583
 21
6.6986365391
  0
LINE
  5
2BE
100
AcDbEntity
  8
0
100
AcDbLine
 62
4
  6
CONTINUOUS
 10
10.111846072
 20
8.7354521641
 11
10.1504831077
 21
8.7037949007
  0
LINE
  5
2BF
100
AcDbEntity
  8
0
100
AcDbLine
 62
4
  6
CONTINUOUS
 10
10.1311645898
 20
9.1832679461
 11
10.111846072
 21
9.2135854658
  0
LINE
  5
2C0
100
AcDbEntity
  8
0
100
AcDbLine
 62
4
  6
CONTINUOUS
 10
9.5709276181
 20
6.8362835791
 11
9.5516091055
 21
6.8086455467
  0
LINE
  5
2C1
100
AcDbEntity
  8
0
100
AcDbLine
 62
7
  6
CONTINUOUS
 10
14.7250290486
 20
7.9603021229
 11
15.5070257213
 21
7.9060704694
  0
LINE
  5
2C2
100
AcDbEntity
  8
0
100
AcDbLine
 62
7
  6
CONTINUOUS
 10
6.5379202569
 20
8.6814791473
 11
6.3380653474
 21
8.6953391324
  0
LINE
  5
2C3
100
AcDbEntity
  8
0
100
AcDbLine
 62
7
  6
CONTINUOUS
 10
14.6444016646
 20
8.1850956337
 11
15.3112093662
 21
8.1388523626
  0
LINE
  5
2C4
100
AcDbEntity
  8
0
100
AcDbLine
 62
7
  6
CONTINUOUS
 10
6.5379202569
 20
8.7661761806
 11
6.3646163199
 21
8.7781948494
  0
LINE
  5
2C5
100
AcDbEntity
  8
0
100
AcDbLine
 62
7
  6
CONTINUOUS
 10
14.6299410997
 20
8.2693181772
 11
15.2958801551
 21
8.2231351469
  0
LINE
  5
2C6
100
AcDbEntity
  8
0
100
AcDbLine
 62
4
  6
CONTINUOUS
 10
10.2470756881
 20
8.7260739584
 11
10.2663942145
 21
8.7102453261
  0
LINE
  5
2C7
100
AcDbEntity
  8
0
100
AcDbLine
 62
4
  6
CONTINUOUS
 10
10.1504831077
 20
9.1674393144
 11
10.1311645898
 21
9.1832679461
  0
LINE
  5
2C8
100
AcDbEntity
  8
0
100
AcDbLine
 62
4
  6
CONTINUOUS
 10
10.3243497663
 20
9.2568038362
 11
10.3436682789
 21
9.226486317
  0
LINE
  5
2C9
100
AcDbEntity
  8
0
100
AcDbLine
 62
4
  6
CONTINUOUS
 10
12.3141571802
 20
6.3852399801
 11
12.275520148
 21
6.4458750191
  0
LINE
  5
2CA
100
AcDbEntity
  8
0
100
AcDbLine
 62
4
  6
CONTINUOUS
 10
12.1982460819
 20
6.625100649
 11
12.1789275641
 21
6.6554181686
  0
LINE
  5
2CB
100
AcDbEntity
  8
0
100
AcDbLine
 62
4
  6
CONTINUOUS
 10
9.3584239291
 20
6.9089763117
 11
9.397060963
 21
6.9352746002
  0
LINE
  5
2CC
100
AcDbEntity
  8
0
100
AcDbLine
 62
4
  6
CONTINUOUS
 10
12.990305047
 20
9.1008969854
 11
13.0482605988
 21
9.1113666422
  0
LINE
  5
2CD
100
AcDbEntity
  8
0
100
AcDbLine
 62
4
  6
CONTINUOUS
 10
14.4672060082
 20
8.8172395929
 11
14.4827351378
 21
8.8177506932
  0
LINE
  5
2CE
100
AcDbEntity
  8
0
100
AcDbLine
 62
4
  6
CONTINUOUS
 10
10.1504831077
 20
8.7037949007
 11
10.2084386559
 21
8.6997756698
  0
LINE
  5
2CF
100
AcDbEntity
  8
0
100
AcDbLine
 62
4
  6
CONTINUOUS
 10
12.9709865309
 20
8.508192324
 11
13.0289420792
 21
8.504173093
  0
LINE
  5
2D0
100
AcDbEntity
  8
0
100
AcDbLine
 62
4
  6
CONTINUOUS
 10
10.2663942145
 20
8.7102453261
 11
10.3243497663
 21
8.7062260949
  0
LINE
  5
2D1
100
AcDbEntity
  8
0
100
AcDbLine
 62
4
  6
CONTINUOUS
 10
13.0868976378
 20
8.5146427493
 11
13.1448531896
 21
8.5106235182
  0
LINE
  5
2D2
100
AcDbEntity
  8
0
100
AcDbLine
 62
4
  6
CONTINUOUS
 10
13.1641717022
 20
8.6251948782
 11
12.9323494953
 21
8.6412718028
  0
LINE
  5
2D3
100
AcDbEntity
  8
0
100
AcDbLine
 62
4
  6
CONTINUOUS
 10
10.3436682789
 20
8.820797455
 11
10.111846072
 21
8.8368743796
  0
LINE
  5
2D4
100
AcDbEntity
  8
0
100
AcDbLine
 62
4
  6
CONTINUOUS
 10
13.1255346631
 20
8.7292965815
 11
13.0868976378
 21
8.7319760683
  0
LINE
  5
2D5
100
AcDbEntity
  8
0
100
AcDbLine
 62
4
  6
CONTINUOUS
 10
10.3436682789
 20
8.9801752222
 11
10.111846072
 21
8.9962521468
  0
LINE
  5
2D6
100
AcDbEntity
  8
0
100
AcDbLine
 62
4
  6
CONTINUOUS
 10
10.2857127272
 20
9.2884610998
 11
10.3243497663
 21
9.2568038362
  0
LINE
  5
2D7
100
AcDbEntity
  8
0
100
AcDbLine
 62
4
  6
CONTINUOUS
 10
12.3914312583
 20
6.4668143322
 11
12.410749771
 21
6.4364968129
  0
LINE
  5
2D8
100
AcDbEntity
  8
0
100
AcDbLine
 62
4
  6
CONTINUOUS
 10
12.3914312583
 20
6.6986365391
 11
12.410749771
 21
6.6683190198
  0
LINE
  5
2D9
100
AcDbEntity
  8
0
100
AcDbLine
 62
4
  6
CONTINUOUS
 10
9.5516091055
 20
6.8086455467
 11
9.5322905791
 21
6.7954964031
  0
LINE
  5
2DA
100
AcDbEntity
  8
0
100
AcDbLine
 62
4
  6
CONTINUOUS
 10
12.9516680131
 20
9.074598697
 11
12.990305047
 21
9.1008969854
  0
LINE
  5
2DB
100
AcDbEntity
  8
0
100
AcDbLine
 62
4
  6
CONTINUOUS
 10
13.1448531896
 20
8.9742679319
 11
13.1255346631
 21
8.9611187883
  0
LINE
  5
2DC
100
AcDbEntity
  8
0
100
AcDbLine
 62
4
  6
CONTINUOUS
 10
10.2277571755
 20
9.3069692189
 11
10.2857127272
 21
9.2884610998
  0
LINE
  5
2DD
100
AcDbEntity
  8
0
100
AcDbLine
 62
4
  6
CONTINUOUS
 10
12.1789275641
 20
6.4960404014
 11
12.1789275641
 21
6.3801292979
  0
LINE
  5
2DE
100
AcDbEntity
  8
0
100
AcDbLine
 62
4
  6
CONTINUOUS
 10
12.1789275641
 20
6.6554181686
 11
12.1789275641
 21
6.6843959444
  0
LINE
  5
2DF
100
AcDbEntity
  8
0
100
AcDbLine
 62
7
  6
CONTINUOUS
 10
14.2653273251
 20
10.0218664374
 11
15.5594214826
 21
11.2718654799
  0
LINE
  5
2E0
100
AcDbEntity
  8
0
100
AcDbLine
 62
4
  6
CONTINUOUS
 10
13.1448531896
 20
8.742445725
 11
13.1255346631
 21
8.7292965815
  0
LINE
  5
2E1
100
AcDbEntity
  8
0
100
AcDbLine
 62
4
  6
CONTINUOUS
 10
13.0289420792
 20
8.504173093
 11
13.0675791114
 21
8.5304713816
  0
LINE
  5
2E2
100
AcDbEntity
  8
0
100
AcDbLine
 62
4
  6
CONTINUOUS
 10
13.1448531896
 20
8.5106235182
 11
13.1641717022
 21
8.5237726627
  0
LINE
  5
2E3
100
AcDbEntity
  8
0
100
AcDbLine
 62
4
  6
CONTINUOUS
 10
10.1698016238
 20
9.2964995622
 11
10.2277571755
 21
9.3069692189
  0
LINE
  5
2E4
100
AcDbEntity
  8
0
100
AcDbLine
 62
7
  6
CONTINUOUS
 10
14.6317385118
 20
9.1130454841
 11
15.2958801551
 21
9.0669871047
  0
LINE
  5
2E5
100
AcDbEntity
  8
0
100
AcDbLine
 62
7
  6
CONTINUOUS
 10
14.6469084547
 20
9.2269530774
 11
15.3112093662
 21
9.1808836527
  0
LINE
  5
2E6
100
AcDbEntity
  8
0
100
AcDbLine
 62
4
  6
CONTINUOUS
 10
14.4982642673
 20
8.9341728969
 11
14.4361477491
 21
8.9466173838
  0
LINE
  5
2E7
100
AcDbEntity
  8
0
100
AcDbLine
 62
4
  6
CONTINUOUS
 10
12.990305047
 20
8.8400970027
 11
12.9323494953
 21
8.8586051218
  0
LINE
  5
2E8
100
AcDbEntity
  8
0
100
AcDbLine
 62
4
  6
CONTINUOUS
 10
13.0482605988
 20
9.1113666422
 11
13.1062161505
 21
9.0928585231
  0
LINE
  5
2E9
100
AcDbEntity
  8
0
100
AcDbLine
 62
4
  6
CONTINUOUS
 10
12.2562016354
 20
6.2443703315
 11
12.2562016354
 21
6.157437004
  0
LINE
  5
2EA
100
AcDbEntity
  8
0
100
AcDbLine
 62
4
  6
CONTINUOUS
 10
12.410749771
 20
6.6683190198
 11
12.410749771
 21
6.6393412439
  0
LINE
  5
2EB
100
AcDbEntity
  8
0
100
AcDbLine
 62
4
  6
CONTINUOUS
 10
12.410749771
 20
6.4364968129
 11
12.410749771
 21
6.4075190371
  0
LINE
  5
2EC
100
AcDbEntity
  8
0
100
AcDbLine
 62
4
  6
CONTINUOUS
 10
12.9323494953
 20
9.0469606649
 11
12.9516680131
 21
9.074598697
  0
LINE
  5
2ED
100
AcDbEntity
  8
0
100
AcDbLine
 62
4
  6
CONTINUOUS
 10
13.1641717022
 20
9.0019059643
 11
13.1448531896
 21
8.9742679319
  0
LINE
  5
2EE
100
AcDbEntity
  8
0
100
AcDbLine
 62
7
  6
CONTINUOUS
 10
14.8330720437
 20
9.8386925637
 11
15.5070257213
 21
9.7919537174
  0
LINE
  5
2EF
100
AcDbEntity
  8
0
100
AcDbLine
 62
4
  6
CONTINUOUS
 10
12.9323494953
 20
8.5398495873
 11
12.9709865309
 21
8.508192324
  0
LINE
  5
2F0
100
AcDbEntity
  8
0
100
AcDbLine
 62
4
  6
CONTINUOUS
 10
13.0675791114
 20
8.5304713816
 11
13.0868976378
 21
8.5146427493
  0
LINE
  5
2F1
100
AcDbEntity
  8
0
100
AcDbLine
 62
4
  6
CONTINUOUS
 10
13.0868976378
 20
8.7319760683
 11
13.0675791114
 21
8.7478047005
  0
LINE
  5
2F2
100
AcDbEntity
  8
0
100
AcDbLine
 62
4
  6
CONTINUOUS
 10
13.0289420792
 20
8.8084397395
 11
12.990305047
 21
8.8400970027
  0
LINE
  5
2F3
100
AcDbEntity
  8
0
100
AcDbLine
 62
4
  6
CONTINUOUS
 10
12.9323494953
 20
8.8586051218
 11
12.9323494953
 21
8.7426940183
  0
LINE
  5
2F4
100
AcDbEntity
  8
0
100
AcDbLine
 62
4
  6
CONTINUOUS
 10
12.9323494953
 20
8.6412718028
 11
12.9323494953
 21
8.5398495873
  0
LINE
  5
2F5
100
AcDbEntity
  8
0
100
AcDbLine
 62
4
  6
CONTINUOUS
 10
12.9323494953
 20
9.017982889
 11
12.9323494953
 21
9.0469606649
  0
LINE
  5
2F6
100
AcDbEntity
  8
0
100
AcDbLine
 62
4
  6
CONTINUOUS
 10
13.1641717022
 20
8.7700837575
 11
13.1448531896
 21
8.742445725
  0
LINE
  5
2F7
100
AcDbEntity
  8
0
100
AcDbLine
 62
7
  6
CONTINUOUS
 10
14.8571988513
 20
9.8687592963
 11
15.5376841436
 21
9.821567481
  0
LINE
  5
2F8
100
AcDbEntity
  8
0
100
AcDbLine
 62
7
  6
CONTINUOUS
 10
6.5379202569
 20
10.5577639377
 11
14.2653273251
 21
10.0218664374
  0
LINE
  5
2F9
100
AcDbEntity
  8
0
100
AcDbLine
 62
4
  6
CONTINUOUS
 10
13.1255346631
 20
8.8452076849
 11
13.1448531896
 21
8.8293790526
  0
LINE
  5
2FA
100
AcDbEntity
  8
0
100
AcDbLine
 62
4
  6
CONTINUOUS
 10
12.9709865309
 20
8.9718367377
 11
12.9516680131
 21
8.9876653694
  0
LINE
  5
2FB
100
AcDbEntity
  8
0
100
AcDbLine
 62
4
  6
CONTINUOUS
 10
13.1062161505
 20
9.0928585231
 11
13.1448531896
 21
9.0612012595
  0
LINE
  5
2FC
100
AcDbEntity
  8
0
100
AcDbLine
 62
4
  6
CONTINUOUS
 10
13.0675791114
 20
8.7478047005
 11
13.0289420792
 21
8.8084397395
  0
LINE
  5
2FD
100
AcDbEntity
  8
0
100
AcDbLine
 62
4
  6
CONTINUOUS
 10
12.9516680131
 20
8.9876653694
 11
12.9323494953
 21
9.017982889
  0
LINE
  5
2FE
100
AcDbEntity
  8
0
100
AcDbLine
 62
4
  6
CONTINUOUS
 10
13.1448531896
 20
8.8293790526
 11
13.1641717022
 21
8.7990615333
  0
LINE
  5
2FF
100
AcDbEntity
  8
0
100
AcDbLine
 62
4
  6
CONTINUOUS
 10
13.0675791114
 20
8.6318935971
 11
13.0675791114
 21
8.5304713816
  0
LINE
  5
300
100
AcDbEntity
  8
0
100
AcDbLine
 62
4
  6
CONTINUOUS
 10
13.1641717022
 20
9.0308837402
 11
13.1641717022
 21
9.0019059643
  0
LINE
  5
301
100
AcDbEntity
  8
0
100
AcDbLine
 62
4
  6
CONTINUOUS
 10
13.1641717022
 20
8.7990615333
 11
13.1641717022
 21
8.7700837575
  0
LINE
  5
302
100
AcDbEntity
  8
0
100
AcDbLine
 62
4
  6
CONTINUOUS
 10
13.1641717022
 20
8.5237726627
 11
13.1641717022
 21
8.6251948782
  0
LINE
  5
303
100
AcDbEntity
  8
0
100
AcDbLine
 62
4
  6
CONTINUOUS
 10
12.1789275641
 20
6.6843959444
 11
12.1982460819
 21
6.7120339765
  0
LINE
  5
304
100
AcDbEntity
  8
0
100
AcDbLine
 62
4
  6
CONTINUOUS
 10
12.410749771
 20
6.6393412439
 11
12.3914312583
 21
6.6117032115
  0
LINE
  5
305
100
AcDbEntity
  8
0
100
AcDbLine
 62
4
  6
CONTINUOUS
 10
12.410749771
 20
6.4075190371
 11
12.3914312583
 21
6.3798810046
  0
LINE
  5
306
100
AcDbEntity
  8
0
100
AcDbLine
 62
4
  6
CONTINUOUS
 10
14.4982642673
 20
8.7168395779
 11
14.4361477491
 21
8.6568396252
  0
LINE
  5
307
100
AcDbEntity
  8
0
100
AcDbLine
 62
4
  6
CONTINUOUS
 10
12.1982460819
 20
6.7120339765
 11
12.2368831158
 21
6.738332265
  0
LINE
  5
308
100
AcDbEntity
  8
0
100
AcDbLine
 62
4
  6
CONTINUOUS
 10
12.3914312583
 20
6.6117032115
 11
12.3721127319
 21
6.5985540679
  0
LINE
  5
309
100
AcDbEntity
  8
0
100
AcDbLine
 62
4
  6
CONTINUOUS
 10
14.4982642673
 20
8.4850173711
 11
14.4361477491
 21
8.5409285218
  0
LINE
  5
30A
100
AcDbEntity
  8
0
100
AcDbLine
 62
4
  6
CONTINUOUS
 10
13.1448531896
 20
9.0612012595
 11
13.1641717022
 21
9.0308837402
  0
LINE
  5
30B
100
AcDbEntity
  8
0
100
AcDbLine
 62
4
  6
CONTINUOUS
 10
12.3914312583
 20
6.3798810046
 11
12.3721127319
 21
6.366731861
  0
LINE
  5
30C
100
AcDbEntity
  8
0
100
AcDbLine
 62
4
  6
CONTINUOUS
 10
14.4361477491
 20
8.9466173838
 11
14.4982642673
 21
9.0790617761
  0
LINE
  5
30D
100
AcDbEntity
  8
0
100
AcDbLine
 62
4
  6
CONTINUOUS
 10
14.4516768787
 20
8.7877507168
 11
14.4672060082
 21
8.8172395929
  0
LINE
  5
30E
100
AcDbEntity
  8
0
100
AcDbLine
 62
7
  6
CONTINUOUS
 10
7.8320144145
 20
11.8077629802
 11
15.5594214826
 21
11.2718654799
  0
LINE
  5
30F
100
AcDbEntity
  8
0
100
AcDbLine
 62
4
  6
CONTINUOUS
 10
14.4516768787
 20
8.1937063117
 11
14.4413241244
 21
8.2126840943
  0
LINE
  5
310
100
AcDbEntity
  8
0
100
AcDbLine
 62
4
  6
CONTINUOUS
 10
14.487911514
 20
8.3591062752
 11
14.4930878906
 21
8.3496173835
  0
LINE
  5
311
100
AcDbEntity
  8
0
100
AcDbLine
 62
7
  6
CONTINUOUS
 10
14.2653273251
 20
10.0218664374
 11
14.2653273251
 21
5.1922370198
  0
LINE
  5
312
100
AcDbEntity
  8
0
100
AcDbLine
 62
4
  6
CONTINUOUS
 10
14.4361477491
 20
8.2366618753
 11
14.4361477491
 21
8.2656396511
  0
LINE
  5
313
100
AcDbEntity
  8
0
100
AcDbLine
 62
4
  6
CONTINUOUS
 10
14.4361477491
 20
8.6568396252
 11
14.4361477491
 21
8.7147951769
  0
LINE
  5
314
100
AcDbEntity
  8
0
100
AcDbLine
 62
4
  6
CONTINUOUS
 10
14.4775587606
 20
8.9431506879
 11
14.4775587606
 21
9.0300840155
  0
LINE
  5
315
100
AcDbEntity
  8
0
100
AcDbLine
 62
4
  6
CONTINUOUS
 10
14.4982642673
 20
8.7747951296
 11
14.4982642673
 21
8.7168395779
  0
LINE
  5
316
100
AcDbEntity
  8
0
100
AcDbLine
 62
4
  6
CONTINUOUS
 10
14.4982642673
 20
8.3256396038
 11
14.4982642673
 21
8.296661828
  0
LINE
  5
317
100
AcDbEntity
  8
0
100
AcDbLine
 62
4
  6
CONTINUOUS
 10
14.4361477491
 20
8.7147951769
 11
14.4413241244
 21
8.7487729477
  0
LINE
  5
318
100
AcDbEntity
  8
0
100
AcDbLine
 62
4
  6
CONTINUOUS
 10
14.4361477491
 20
8.2656396511
 11
14.4413241244
 21
8.2996174219
  0
LINE
  5
319
100
AcDbEntity
  8
0
100
AcDbLine
 62
4
  6
CONTINUOUS
 10
14.4982642673
 20
8.296661828
 11
14.4930878906
 21
8.2626840559
  0
LINE
  5
31A
100
AcDbEntity
  8
0
100
AcDbLine
 62
4
  6
CONTINUOUS
 10
14.4413241244
 20
8.7487729477
 11
14.4516768787
 21
8.7877507168
  0
LINE
  5
31B
100
AcDbEntity
  8
0
100
AcDbLine
 62
4
  6
CONTINUOUS
 10
14.4413241244
 20
8.2996174219
 11
14.4465005034
 21
8.3191063082
  0
LINE
  5
31C
100
AcDbEntity
  8
0
100
AcDbLine
 62
4
  6
CONTINUOUS
 10
14.4930878906
 20
8.2626840559
 11
14.4827351378
 21
8.2237062881
  0
LINE
  5
31D
100
AcDbEntity
  8
0
100
AcDbLine
 62
4
  6
CONTINUOUS
 10
14.4361477491
 20
8.4250174184
 11
14.4982642673
 21
8.6009284745
  0
LINE
  5
31E
100
AcDbEntity
  8
0
100
AcDbLine
 62
4
  6
CONTINUOUS
 10
14.4827351378
 20
8.2237062881
 11
14.4672060082
 21
8.194217412
  0
LINE
  5
31F
100
AcDbEntity
  8
0
100
AcDbLine
 62
4
  6
CONTINUOUS
 10
14.4827351378
 20
8.8177506932
 11
14.4930878906
 21
8.7987729093
  0
LINE
  5
320
100
AcDbEntity
  8
0
100
AcDbLine
 62
4
  6
CONTINUOUS
 10
14.4413241244
 20
8.2126840943
 11
14.4361477491
 21
8.2366618753
  0
LINE
  5
321
100
AcDbEntity
  8
0
100
AcDbLine
 62
4
  6
CONTINUOUS
 10
14.4930878906
 20
8.3496173835
 11
14.4982642673
 21
8.3256396038
  0
LINE
  5
322
100
AcDbEntity
  8
0
100
AcDbLine
 62
4
  6
CONTINUOUS
 10
14.4930878906
 20
8.7987729093
 11
14.4982642673
 21
8.7747951296
  0
LINE
  5
323
100
AcDbEntity
  8
0
100
AcDbLine
 62
7
  6
CONTINUOUS
 10
15.5977403918
 20
8.0290775707
 11
15.6308643652
 21
8.0852387633
  0
LINE
  5
324
100
AcDbEntity
  8
0
100
AcDbLine
 62
7
  6
CONTINUOUS
 10
15.5594214826
 20
11.2718654799
 11
15.5594214826
 21
9.8082520501
  0
LINE
  5
325
100
AcDbEntity
  8
0
100
AcDbLine
 62
7
  6
CONTINUOUS
 10
15.5594214826
 20
7.9678253
 11
15.5594214826
 21
6.4422360623
  0
LINE
  5
326
100
AcDbEntity
  8
0
100
AcDbLine
 62
7
  6
CONTINUOUS
 10
14.2653273251
 20
5.1922370198
 11
15.5594214826
 21
6.4422360623
  0
LINE
  5
327
100
AcDbEntity
  8
0
100
AcDbLine
 62
7
  6
CONTINUOUS
 10
15.7239004043
 20
9.6521570206
 11
15.7372981762
 21
9.6199676679
  0
ARC
  5
328
100
AcDbEntity
  8
0
100
AcDbCircle
 62
7
  6
CONTINUOUS
 10
9.8283126026
 20
7.7974741162
 40
3.6037664805
100
AcDbArc
 50
179.0799666396
 51
179.9967059793
  0
ARC
  5
329
100
AcDbEntity
  8
0
100
AcDbCircle
 62
7
  6
CONTINUOUS
 10
9.6626160002
 20
7.7974401375
 40
3.4380698806
100
AcDbArc
 50
179.9959809667
 51
180.9419458577
  0
ARC
  5
32A
100
AcDbEntity
  8
0
100
AcDbCircle
 62
7
  6
CONTINUOUS
 10
15.3292668521
 20
8.8758164938
 40
2.6773750002
100
AcDbArc
 50
177.289016579
 51
178.5457767364
  0
ARC
  5
32B
100
AcDbEntity
  8
0
100
AcDbCircle
 62
7
  6
CONTINUOUS
 10
15.266865505
 20
8.8811742993
 40
2.6291325567
100
AcDbArc
 50
176.0002698568
 51
178.6281707317
  0
ARC
  5
32C
100
AcDbEntity
  8
0
100
AcDbCircle
 62
7
  6
CONTINUOUS
 10
12.6306223386
 20
9.2010963424
 40
0.0568410797
100
AcDbArc
 50
220.0878112949
 51
253.5498633793
  0
SPLINE
  5
32D
100
AcDbEntity
  8
0
100
AcDbSpline
 62
7
  6
CONTINUOUS
 70
0
 71
3
 72
53
 73
49
 74
0
 42
0.0000001
 43
0.0000001
 44
0.0000000001
 40
0.0
 40
0.0
 40
0.0
 40
0.0
 40
0.0354700217
 40
0.071271944
 40
0.1073440507
 40
0.1436238259
 40
0.1800483496
 40
0.2165543815
 40
0.2530785008
 40
0.2895572468
 40
0.3259272586
 40
0.3621254156
 40
0.3980889757
 40
0.4337557202
 40
0.4690640885
 40
0.5039533278
 40
0.5383636313
 40
0.5722362854
 40
0.6055138211
 40
0.6381401576
 40
0.6541921204
 40
0.6700609679
 40
0.6857401537
 40
0.7012232497
 40
0.7165039484
 40
0.7315760705
 40
0.7464335755
 40
0.7610705611
 40
0.7754812701
 40
0.7896601032
 40
0.8036016223
 40
0.8173005545
 40
0.8307518049
 40
0.8439504676
 40
0.8568918278
 40
0.8695713734
 40
0.8819848128
 40
0.89412808
 40
0.905997346
 40
0.9175890392
 40
0.9288998608
 40
0.9399267965
 40
0.9506671395
 40
0.9611185188
 40
0.9712789164
 40
0.981146696
 40
0.9907206436
 40
1.0
 40
1.0
 40
1.0
 40
1.0
 10
6.189280797
 20
7.8317449379
 30
0.0
 10
6.189280797
 20
7.8437296326
 30
0.0
 10
6.1894203611
 20
7.8678113809
 30
0.0
 10
6.1900401518
 20
7.9040764641
 30
0.0
 10
6.1910703494
 20
7.9406059545
 30
0.0
 10
6.1925090595
 20
7.9773321393
 30
0.0
 10
6.1943536228
 20
8.0141869732
 30
0.0
 10
6.196600631
 20
8.0511021679
 30
0.0
 10
6.1992459189
 20
8.0880093285
 30
0.0
 10
6.2022845884
 20
8.1248400728
 30
0.0
 10
6.2057110036
 20
8.1615261614
 30
0.0
 10
6.209518809
 20
8.1979996238
 30
0.0
 10
6.2137009419
 20
8.2341928847
 30
0.0
 10
6.2182496362
 20
8.2700388905
 30
0.0
 10
6.223156452
 20
8.3054712328
 30
0.0
 10
6.2284122743
 20
8.3404242745
 30
0.0
 10
6.2340073429
 20
8.3748332658
 30
0.0
 10
6.2399312642
 20
8.4086344868
 30
0.0
 10
6.246173029
 20
8.4417652887
 30
0.0
 10
6.2516588471
 20
8.4689088394
 30
0.0
 10
6.2562009864
 20
8.4902401049
 30
0.0
 10
6.2596613137
 20
8.5059467907
 30
0.0
 10
6.2631921104
 20
8.5214407072
 30
0.0
 10
6.2667917436
 20
8.536714685
 30
0.0
 10
6.2704585432
 20
8.5517616464
 30
0.0
 10
6.27419081
 20
8.5665746217
 30
0.0
 10
6.2779868107
 20
8.5811467504
 30
0.0
 10
6.2818447846
 20
8.5954712836
 30
0.0
 10
6.2857629442
 20
8.6095415863
 30
0.0
 10
6.2897394705
 20
8.623351143
 30
0.0
 10
6.2937725179
 20
8.63689356
 30
0.0
 10
6.2978602171
 20
8.650162566
 30
0.0
 10
6.3020006722
 20
8.6631520178
 30
0.0
 10
6.3061919608
 20
8.6758559036
 30
0.0
 10
6.310432139
 20
8.6882683434
 30
0.0
 10
6.3147192421
 20
8.7003835922
 30
0.0
 10
6.3190512796
 20
8.7121960457
 30
0.0
 10
6.3234262418
 20
8.7237002404
 30
0.0
 10
6.3278421021
 20
8.7348908552
 30
0.0
 10
6.3322968127
 20
8.745762717
 30
0.0
 10
6.336788307
 20
8.7563108028
 30
0.0
 10
6.3413145051
 20
8.7665302395
 30
0.0
 10
6.3458733119
 20
8.7764163076
 30
0.0
 10
6.3504626154
 20
8.7859644483
 30
0.0
 10
6.3550802902
 20
8.7951702549
 30
0.0
 10
6.3597242133
 20
8.8040294991
 30
0.0
 10
6.3643922097
 20
8.8125380504
 30
0.0
 10
6.3675685531
 20
8.8180604852
 30
0.0
 10
6.3691613697
 20
8.8207610841
 30
0.0
  0
SPLINE
  5
32E
100
AcDbEntity
  8
0
100
AcDbSpline
 62
7
  6
CONTINUOUS
 70
0
 71
3
 72
15
 73
11
 74
0
 42
0.0000001
 43
0.0000001
 44
0.0000000001
 40
0.0
 40
0.0
 40
0.0
 40
0.0
 40
0.1130134526
 40
0.2292354891
 40
0.3487879676
 40
0.4717828379
 40
0.598318796
 40
0.7284835129
 40
0.8623555254
 40
1.0
 40
1.0
 40
1.0
 40
1.0
 10
6.3646163199
 20
7.0877626027
 30
0.0
 10
6.3634567631
 20
7.0888028288
 30
0.0
 10
6.3611463596
 20
7.0909596525
 30
0.0
 10
6.3577551048
 20
7.0943688191
 30
0.0
 10
6.3543915679
 20
7.0979953443
 30
0.0
 10
6.3510565627
 20
7.1018383092
 30
0.0
 10
6.3477507843
 20
7.1058968516
 30
0.0
 10
6.3444749546
 20
7.1101700642
 30
0.0
 10
6.3412298336
 20
7.1146569218
 30
0.0
 10
6.339116973
 20
7.1177466132
 30
0.0
 10
6.3380653474
 20
7.1193257765
 30
0.0
  0
SPLINE
  5
32F
100
AcDbEntity
  8
0
100
AcDbSpline
 62
7
  6
CONTINUOUS
 70
0
 71
3
 72
11
 73
7
 74
0
 42
0.0000001
 43
0.0000001
 44
0.0000000001
 40
0.0
 40
0.0
 40
0.0
 40
0.0
 40
0.2527935986
 40
0.5037865761
 40
0.7528844832
 40
1.0
 40
1.0
 40
1.0
 40
1.0
 10
6.3380653474
 20
7.1193257765
 30
0.0
 10
6.3332771744
 20
7.1285455433
 30
0.0
 10
6.3239003856
 20
7.1470059823
 30
0.0
 10
6.3104295917
 20
7.1748630123
 30
0.0
 10
6.2976464847
 20
7.2027860575
 30
0.0
 10
6.2895799256
 20
7.2215179698
 30
0.0
 10
6.2856773536
 20
7.2308938191
 30
0.0
  0
SPLINE
  5
330
100
AcDbEntity
  8
0
100
AcDbSpline
 62
7
  6
CONTINUOUS
 70
0
 71
3
 72
23
 73
19
 74
0
 42
0.0000001
 43
0.0000001
 44
0.0000000001
 40
0.0
 40
0.0
 40
0.0
 40
0.0
 40
0.0475983087
 40
0.0967765629
 40
0.1476852236
 40
0.2004585287
 40
0.2552116565
 40
0.3120387067
 40
0.3710116439
 40
0.4321800173
 40
0.4955714033
 40
0.5611926193
 40
0.6290314175
 40
0.6990585138
 40
0.7712299145
 40
0.8454893448
 40
0.9217706317
 40
1.0
 40
1.0
 40
1.0
 40
1.0
 10
6.3852103177
 20
8.847971831
 30
0.0
 10
6.3868093454
 20
8.8506831085
 30
0.0
 10
6.3902186834
 20
8.8561038132
 30
0.0
 10
6.3958606134
 20
8.8640810438
 30
0.0
 10
6.4021182215
 20
8.8720255333
 30
0.0
 10
6.4089975051
 20
8.8799332213
 30
0.0
 10
6.4165014789
 20
8.8878006695
 30
0.0
 10
6.4246297175
 20
8.895624527
 30
0.0
 10
6.4333784553
 20
8.9034017278
 30
0.0
 10
6.442740626
 20
8.911129489
 30
0.0
 10
6.4527060177
 20
8.9188053804
 30
0.0
 10
6.4632615288
 20
8.9264273362
 30
0.0
 10
6.4743914781
 20
8.9339936804
 30
0.0
 10
6.4860779581
 20
8.9415031517
 30
0.0
 10
6.4983012272
 20
8.948954896
 30
0.0
 10
6.5110401364
 20
8.956348463
 30
0.0
 10
6.5242724488
 20
8.9636837555
 30
0.0
 10
6.5332971235
 20
8.9684765608
 30
0.0
 10
6.5378856033
 20
8.9708659339
 30
0.0
  0
SPLINE
  5
331
100
AcDbEntity
  8
0
100
AcDbSpline
 62
7
  6
CONTINUOUS
 70
0
 71
3
 72
39
 73
35
 74
0
 42
0.0000001
 43
0.0000001
 44
0.0000000001
 40
0.0
 40
0.0
 40
0.0
 40
0.0
 40
0.020705896
 40
0.0422069992
 40
0.064500326
 40
0.0875811462
 40
0.1114431524
 40
0.1360786007
 40
0.1614784371
 40
0.1876324038
 40
0.2145291301
 40
0.2421562144
 40
0.2705002944
 40
0.2995471085
 40
0.3292815523
 40
0.3596877294
 40
0.3907489969
 40
0.4224480095
 40
0.4547667563
 40
0.4876865961
 40
0.5211882928
 40
0.5552520438
 40
0.5898575113
 40
0.624983853
 40
0.6606097466
 40
0.6967134177
 40
0.7332726655
 40
0.7702648851
 40
0.8076670952
 40
0.8454559472
 40
0.8836078107
 40
0.9220985877
 40
0.9609042941
 40
1.0
 40
1.0
 40
1.0
 40
1.0
 10
6.2627276436
 20
7.2860325637
 30
0.0
 10
6.2612596087
 20
7.2895596525
 30
0.0
 10
6.2583626976
 20
7.2967893671
 30
0.0
 10
6.2542040711
 20
7.3079410224
 30
0.0
 10
6.2501529243
 20
7.3195970868
 30
0.0
 10
6.2462120581
 20
7.3317495614
 30
0.0
 10
6.2423841514
 20
7.3443902319
 30
0.0
 10
6.238671824
 20
7.3575105039
 30
0.0
 10
6.2350776158
 20
7.3711014584
 30
0.0
 10
6.2316039887
 20
7.3851538461
 30
0.0
 10
6.2282533235
 20
7.3996580977
 30
0.0
 10
6.2250279173
 20
7.4146043312
 30
0.0
 10
6.2219299825
 20
7.4299823583
 30
0.0
 10
6.2189616442
 20
7.4457816926
 30
0.0
 10
6.2161249385
 20
7.4619915563
 30
0.0
 10
6.2134218114
 20
7.4786008886
 30
0.0
 10
6.2108541173
 20
7.4955983539
 30
0.0
 10
6.2084236181
 20
7.5129723495
 30
0.0
 10
6.2061319813
 20
7.5307110145
 30
0.0
 10
6.2039807794
 20
7.5488022372
 30
0.0
 10
6.2019714886
 20
7.5672336637
 30
0.0
 10
6.2001054873
 20
7.5859927064
 30
0.0
 10
6.1983840557
 20
7.6050665528
 30
0.0
 10
6.1968083748
 20
7.6244421747
 30
0.0
 10
6.1953795258
 20
7.6441063372
 30
0.0
 10
6.1940984896
 20
7.6640456078
 30
0.0
 10
6.1929661453
 20
7.6842463653
 30
0.0
 10
6.1919832707
 20
7.7046948099
 30
0.0
 10
6.1911505407
 20
7.7253769698
 30
0.0
 10
6.1904685262
 20
7.7462787207
 30
0.0
 10
6.1899376984
 20
7.7673857646
 30
0.0
 10
6.1895584179
 20
7.7886837211
 30
0.0
 10
6.1893309529
 20
7.8101579809
 30
0.0
 10
6.189280797
 20
7.8245314676
 30
0.0
 10
6.189280797
 20
7.8317449379
 30
0.0
  0
SPLINE
  5
332
100
AcDbEntity
  8
0
100
AcDbSpline
 62
7
  6
CONTINUOUS
 70
0
 71
3
 72
19
 73
15
 74
0
 42
0.0000001
 43
0.0000001
 44
0.0000000001
 40
0.0
 40
0.0
 40
0.0
 40
0.0
 40
0.1371201885
 40
0.2696923467
 40
0.3981929955
 40
0.5231524018
 40
0.5844947375
 40
0.645174482
 40
0.7052719184
 40
0.7648699874
 40
0.8240538933
 40
0.8829108032
 40
0.9415295176
 40
1.0
 40
1.0
 40
1.0
 40
1.0
 10
8.7510314885
 20
7.2067350581
 30
0.0
 10
8.7521040191
 20
7.2058859356
 30
0.0
 10
8.7542609886
 20
7.2042745812
 30
0.0
 10
8.7575852597
 20
7.2020949732
 30
0.0
 10
8.7609395169
 20
7.2001968741
 30
0.0
 10
8.7637762173
 20
7.1988422947
 30
0.0
 10
8.7660553311
 20
7.1979046214
 30
0.0
 10
8.7677606707
 20
7.1972764786
 30
0.0
 10
8.769472193
 20
7.1967192855
 30
0.0
 10
8.7711897342
 20
7.1962330886
 30
0.0
 10
8.7729131001
 20
7.1958179529
 30
0.0
 10
8.7746421153
 20
7.1954739358
 30
0.0
 10
8.7763765487
 20
7.1952010764
 30
0.0
 10
8.7775372862
 20
7.1950665207
 30
0.0
 10
8.7781179804
 20
7.1950111827
 30
0.0
  0
SPLINE
  5
333
100
AcDbEntity
  8
0
100
AcDbSpline
 62
7
  6
CONTINUOUS
 70
0
 71
3
 72
11
 73
7
 74
0
 42
0.0000001
 43
0.0000001
 44
0.0000000001
 40
0.0
 40
0.0
 40
0.0
 40
0.0
 40
0.2597794222
 40
0.5131607124
 40
0.7599591931
 40
1.0
 40
1.0
 40
1.0
 40
1.0
 10
6.3380653474
 20
8.6953391324
 30
0.0
 10
6.3401723724
 20
8.7025735861
 30
0.0
 10
6.3444242165
 20
8.7168383996
 30
0.0
 10
6.3510018352
 20
8.7378778755
 30
0.0
 10
6.3576953736
 20
8.758279081
 30
0.0
 10
6.3622958569
 20
8.7716303959
 30
0.0
 10
6.3646163199
 20
8.7781948494
 30
0.0
  0
SPLINE
  5
334
100
AcDbEntity
  8
0
100
AcDbSpline
 62
7
  6
CONTINUOUS
 70
0
 71
3
 72
36
 73
32
 74
0
 42
0.0000001
 43
0.0000001
 44
0.0000000001
 40
0.0
 40
0.0
 40
0.0
 40
0.0
 40
0.0615612389
 40
0.0923780032
 40
0.1232201781
 40
0.1540890809
 40
0.1849860198
 40
0.2159122824
 40
0.2468691158
 40
0.2778577069
 40
0.3088791609
 40
0.3399344791
 40
0.3710245382
 40
0.4021500704
 40
0.4333116463
 40
0.4645096599
 40
0.4957443181
 40
0.5270156347
 40
0.5583234294
 40
0.5896673324
 40
0.621046793
 40
0.652461093
 40
0.6839093631
 40
0.7153906023
 40
0.7469036995
 40
0.7784474558
 40
0.810020606
 40
0.8416218396
 40
0.8732498202
 40
0.9365792905
 40
1.0
 40
1.0
 40
1.0
 40
1.0
 10
6.2250107221
 20
7.855339511
 30
0.0
 10
6.2228749633
 20
7.872808131
 30
0.0
 10
6.2199895854
 20
7.8990622223
 30
0.0
 10
6.2168393616
 20
7.9341471906
 30
0.0
 10
6.214838357
 20
7.960523547
 30
0.0
 10
6.2132152527
 20
7.9869488099
 30
0.0
 10
6.2119850613
 20
8.0134194312
 30
0.0
 10
6.2111623875
 20
8.0399310632
 30
0.0
 10
6.2107612159
 20
8.0664786958
 30
0.0
 10
6.2107947089
 20
8.0930566159
 30
0.0
 10
6.211274992
 20
8.1196584369
 30
0.0
 10
6.2122129378
 20
8.1462771355
 30
0.0
 10
6.21361796
 20
8.1729051126
 30
0.0
 10
6.2154978237
 20
8.1995342757
 30
0.0
 10
6.217858479
 20
8.2261561413
 30
0.0
 10
6.2207039266
 20
8.2527619547
 30
0.0
 10
6.2240361228
 20
8.279342823
 30
0.0
 10
6.2278549277
 20
8.3058898563
 30
0.0
 10
6.2321580967
 20
8.3323943137
 30
0.0
 10
6.2369413282
 20
8.3588477432
 30
0.0
 10
6.2421983524
 20
8.3852421136
 30
0.0
 10
6.2479210605
 20
8.4115699313
 30
0.0
 10
6.2540996686
 20
8.4378243384
 30
0.0
 10
6.2607229088
 20
8.4639991897
 30
0.0
 10
6.2677782362
 20
8.4900891053
 30
0.0
 10
6.2752520495
 20
8.516089506
 30
0.0
 10
6.283129906
 20
8.5419966028
 30
0.0
 10
6.2913967617
 20
8.5678074537
 30
0.0
 10
6.3029216048
 20
8.6021035807
 30
0.0
 10
6.3182225719
 20
8.6447216832
 30
0.0
 10
6.33131978
 20
8.6785104662
 30
0.0
 10
6.3380653474
 20
8.6953391324
 30
0.0
  0
SPLINE
  5
335
100
AcDbEntity
  8
0
100
AcDbSpline
 62
7
  6
CONTINUOUS
 70
0
 71
3
 72
23
 73
19
 74
0
 42
0.0000001
 43
0.0000001
 44
0.0000000001
 40
0.0
 40
0.0
 40
0.0
 40
0.0
 40
0.0596059336
 40
0.1193158728
 40
0.1791800872
 40
0.2392527071
 40
0.2995911495
 40
0.3602561044
 40
0.4213113774
 40
0.4828235654
 40
0.5448617836
 40
0.60749731
 40
0.6708031144
 40
0.7348534296
 40
0.799723278
 40
0.8654878765
 40
0.9322221039
 40
1.0
 40
1.0
 40
1.0
 40
1.0
 10
6.3646163199
 20
8.7781948494
 30
0.0
 10
6.3646695225
 20
8.7796547692
 30
0.0
 10
6.3648169827
 20
8.7825758386
 30
0.0
 10
6.3651643289
 20
8.7869542186
 30
0.0
 10
6.3656414568
 20
8.7913319336
 30
0.0
 10
6.3662518616
 20
8.7957086349
 30
0.0
 10
6.3669990416
 20
8.8000840121
 30
0.0
 10
6.3678864791
 20
8.8044577124
 30
0.0
 10
6.3689176337
 20
8.8088293611
 30
0.0
 10
6.3700959202
 20
8.813198559
 30
0.0
 10
6.3714246961
 20
8.8175648823
 30
0.0
 10
6.3729072511
 20
8.8219278822
 30
0.0
 10
6.3745467785
 20
8.8262870881
 30
0.0
 10
6.3763463639
 20
8.83064201
 30
0.0
 10
6.3783089725
 20
8.8349921304
 30
0.0
 10
6.3804374295
 20
8.8393369327
 30
0.0
 10
6.3827343568
 20
8.8436758227
 30
0.0
 10
6.3843664379
 20
8.8465409663
 30
0.0
 10
6.3852103177
 20
8.847971831
 30
0.0
  0
SPLINE
  5
336
100
AcDbEntity
  8
0
100
AcDbSpline
 62
7
  6
CONTINUOUS
 70
0
 71
3
 72
36
 73
32
 74
0
 42
0.0000001
 43
0.0000001
 44
0.0000000001
 40
0.0
 40
0.0
 40
0.0
 40
0.0
 40
0.0669064708
 40
0.1331414625
 40
0.1660035828
 40
0.1986934498
 40
0.2312108846
 40
0.263556407
 40
0.2957312622
 40
0.3277374341
 40
0.3595776472
 40
0.3912553526
 40
0.4227747006
 40
0.4541404994
 40
0.4853581604
 40
0.5164336325
 40
0.5473733271
 40
0.5781840359
 40
0.608872845
 40
0.639447047
 40
0.6699140544
 40
0.7002813167
 40
0.7305562424
 40
0.7607461282
 40
0.7908580973
 40
0.8208990453
 40
0.8508755968
 40
0.8807940693
 40
0.9106604527
 40
0.9404803739
 40
1.0
 40
1.0
 40
1.0
 40
1.0
 10
6.2856773536
 20
7.2308938191
 30
0.0
 10
6.2812107397
 20
7.2416247679
 30
0.0
 10
6.2726201309
 20
7.2631044876
 30
0.0
 10
6.2627239767
 20
7.290197945
 30
0.0
 10
6.2553943063
 20
7.3118887898
 30
0.0
 10
6.2502099665
 20
7.3281189786
 30
0.0
 10
6.2453309101
 20
7.3443498558
 30
0.0
 10
6.2407629589
 20
7.3605781406
 30
0.0
 10
6.2365112374
 20
7.3768003627
 30
0.0
 10
6.2325800796
 20
7.3930129533
 30
0.0
 10
6.2289729756
 20
7.4092122635
 30
0.0
 10
6.2256925209
 20
7.4253946061
 30
0.0
 10
6.2227403802
 20
7.4415562941
 30
0.0
 10
6.2201172643
 20
7.4576936815
 30
0.0
 10
6.2178229222
 20
7.4738032036
 30
0.0
 10
6.2158561468
 20
7.4898814155
 30
0.0
 10
6.2142147967
 20
7.5059250292
 30
0.0
 10
6.2128958298
 20
7.5219309461
 30
0.0
 10
6.2118953511
 20
7.5378962857
 30
0.0
 10
6.2112086701
 20
7.5538184096
 30
0.0
 10
6.2108303677
 20
7.5696949393
 30
0.0
 10
6.2107543695
 20
7.5855237696
 30
0.0
 10
6.2109740234
 20
7.6013030756
 30
0.0
 10
6.211482181
 20
7.6170313149
 30
0.0
 10
6.2122712778
 20
7.6327072253
 30
0.0
 10
6.2133334128
 20
7.6483298159
 30
0.0
 10
6.214660427
 20
7.6638983646
 30
0.0
 10
6.2162439697
 20
7.6794123735
 30
0.0
 10
6.2180755894
 20
7.6948716702
 30
0.0
 10
6.2208352129
 20
7.7153967935
 30
0.0
 10
6.2232542563
 20
7.7307307661
 30
0.0
 10
6.2250107221
 20
7.7409206202
 30
0.0
  0
SPLINE
  5
337
100
AcDbEntity
  8
0
100
AcDbSpline
 62
7
  6
CONTINUOUS
 70
0
 71
3
 72
11
 73
7
 74
0
 42
0.0000001
 43
0.0000001
 44
0.0000000001
 40
0.0
 40
0.0
 40
0.0
 40
0.0
 40
0.2394749506
 40
0.485822197
 40
0.7392645615
 40
1.0
 40
1.0
 40
1.0
 40
1.0
 10
15.5070257213
 20
7.9060704694
 30
0.0
 10
15.5083196444
 20
7.9070273223
 30
0.0
 10
15.5109087386
 20
7.9090174472
 30
0.0
 10
15.5147409388
 20
7.9121802293
 30
0.0
 10
15.5185746701
 20
7.9155612279
 30
0.0
 10
15.5210946843
 20
7.9179261548
 30
0.0
 10
15.5223549325
 20
7.9191434611
 30
0.0
  0
SPLINE
  5
338
100
AcDbEntity
  8
0
100
AcDbSpline
 62
7
  6
CONTINUOUS
 70
0
 71
3
 72
11
 73
7
 74
0
 42
0.0000001
 43
0.0000001
 44
0.0000000001
 40
0.0
 40
0.0
 40
0.0
 40
0.0
 40
0.2396605935
 40
0.4861361377
 40
0.7395476642
 40
1.0
 40
1.0
 40
1.0
 40
1.0
 10
15.5223549325
 20
7.9191434611
 30
0.0
 10
15.5236512883
 20
7.9203956448
 30
0.0
 10
15.5262433484
 20
7.9229747219
 30
0.0
 10
15.5300765315
 20
7.9270054532
 30
0.0
 10
15.5339078432
 20
7.9312510034
 30
0.0
 10
15.5364254725
 20
7.9341834511
 30
0.0
 10
15.5376841436
 20
7.935684233
 30
0.0
  0
SPLINE
  5
339
100
AcDbEntity
  8
0
100
AcDbSpline
 62
7
  6
CONTINUOUS
 70
0
 71
3
 72
11
 73
7
 74
0
 42
0.0000001
 43
0.0000001
 44
0.0000000001
 40
0.0
 40
0.0
 40
0.0
 40
0.0
 40
0.2523402475
 40
0.5031675623
 40
0.7524100652
 40
1.0
 40
1.0
 40
1.0
 40
1.0
 10
15.5376841436
 20
7.935684233
 30
0.0
 10
15.5430113203
 20
7.9433638674
 30
0.0
 10
15.5535115772
 20
7.9587623161
 30
0.0
 10
15.5688154449
 20
7.9820544642
 30
0.0
 10
15.5835953657
 20
8.0054749292
 30
0.0
 10
15.5931104256
 20
8.0212279615
 30
0.0
 10
15.5977694171
 20
8.0291267847
 30
0.0
  0
SPLINE
  5
33A
100
AcDbEntity
  8
0
100
AcDbSpline
 62
7
  6
CONTINUOUS
 70
0
 71
3
 72
91
 73
87
 74
0
 42
0.0000001
 43
0.0000001
 44
0.0000000001
 40
0.0
 40
0.0
 40
0.0
 40
0.0
 40
0.0048080603
 40
0.0097392102
 40
0.0147932383
 40
0.0199698132
 40
0.0252684781
 40
0.030688671
 40
0.0362297234
 40
0.04189087
 40
0.047671256
 40
0.0535699355
 40
0.059585887
 40
0.065718005
 40
0.0719651159
 40
0.078325972
 40
0.0847992602
 40
0.0913836048
 40
0.0980775656
 40
0.1048796485
 40
0.1117882979
 40
0.1188019097
 40
0.1331372289
 40
0.1478718627
 40
0.1629912164
 40
0.1784800071
 40
0.1943223135
 40
0.2105016194
 40
0.2270008554
 40
0.2438024385
 40
0.2608883084
 40
0.2782399646
 40
0.2958384992
 40
0.3136646323
 40
0.331698743
 40
0.3499209039
 40
0.3683109107
 40
0.3868483155
 40
0.4055124562
 40
0.4242824889
 40
0.4431374169
 40
0.4620561224
 40
0.481017397
 40
0.4999999711
 40
0.5189825453
 40
0.53794382
 40
0.556862526
 40
0.5757174542
 40
0.5944874874
 40
0.6131516288
 40
0.6316890346
 40
0.6500790425
 40
0.6683012045
 40
0.6863353165
 40
0.7041614505
 40
0.7217599865
 40
0.7391116439
 40
0.7561975158
 40
0.7729991008
 40
0.7894983391
 40
0.8056776469
 40
0.8215199553
 40
0.8370087478
 40
0.8521281034
 40
0.8668627397
 40
0.8811980616
 40
0.8882116747
 40
0.8951203257
 40
0.9019224091
 40
0.9086163722
 40
0.9152007171
 40
0.9216740078
 40
0.9280348644
 40
0.934281977
 40
0.9404140966
 40
0.9464300488
 40
0.9523287308
 40
0.9581091169
 40
0.9637702663
 40
0.9693113192
 40
0.9747315141
 40
0.9800301803
 40
0.9852067561
 40
0.9902607868
 40
0.9951919369
 40
1.0
 40
1.0
 40
1.0
 40
1.0
 10
15.6308642979
 20
8.0852386508
 30
0.0
 10
15.6321402914
 20
8.0874020776
 30
0.0
 10
15.6346866275
 20
8.0918070227
 30
0.0
 10
15.6384438896
 20
8.0985603578
 30
0.0
 10
15.6421861472
 20
8.1055412329
 30
0.0
 10
15.6459122585
 20
8.1127475449
 30
0.0
 10
15.6496211236
 20
8.120177151
 30
0.0
 10
15.6533116273
 20
8.1278278358
 30
0.0
 10
15.6569826697
 20
8.1356973168
 30
0.0
 10
15.6606331537
 20
8.1437832456
 30
0.0
 10
15.6642619835
 20
8.1520832098
 30
0.0
 10
15.6678680798
 20
8.1605947296
 30
0.0
 10
15.6714503557
 20
8.1693152649
 30
0.0
 10
15.6750077467
 20
8.178242209
 30
0.0
 10
15.6785391818
 20
8.1873728961
 30
0.0
 10
15.6820436075
 20
8.1967045969
 30
0.0
 10
15.6855199738
 20
8.2062345227
 30
0.0
 10
15.6889672376
 20
8.2159598252
 30
0.0
 10
15.6923843719
 20
8.2258775968
 30
0.0
 10
15.6957703453
 20
8.2359848717
 30
0.0
 10
15.6991241572
 20
8.2462786323
 30
0.0
 10
15.7035840545
 20
8.2603504233
 30
0.0
 10
15.7090671848
 20
8.2783858812
 30
0.0
 10
15.7154558706
 20
8.3005691091
 30
0.0
 10
15.7216926545
 20
8.3234207062
 30
0.0
 10
15.7277700505
 20
8.3469133218
 30
0.0
 10
15.7336807669
 20
8.3710188873
 30
0.0
 10
15.7394177121
 20
8.3957085798
 30
0.0
 10
15.7449740038
 20
8.4209528772
 30
0.0
 10
15.7503429772
 20
8.4467215892
 30
0.0
 10
15.7555181932
 20
8.4729838948
 30
0.0
 10
15.7604934453
 20
8.4997083797
 30
0.0
 10
15.7652627679
 20
8.5268630743
 30
0.0
 10
15.769820443
 20
8.5544154916
 30
0.0
 10
15.7741610072
 20
8.5823326672
 30
0.0
 10
15.7782792577
 20
8.6105811988
 30
0.0
 10
15.7821702588
 20
8.6391272866
 30
0.0
 10
15.7858293477
 20
8.6679367734
 30
0.0
 10
15.7892521399
 20
8.6969751864
 30
0.0
 10
15.7924345346
 20
8.7262077777
 30
0.0
 10
15.7953727197
 20
8.7555995665
 30
0.0
 10
15.7980631765
 20
8.7851153811
 30
0.0
 10
15.8005026832
 20
8.8147199008
 30
0.0
 10
15.8026883195
 20
8.844377699
 30
0.0
 10
15.8046174692
 20
8.8740532846
 30
0.0
 10
15.8062878242
 20
8.9037111456
 30
0.0
 10
15.8076973867
 20
8.9333157909
 30
0.0
 10
15.8088444719
 20
8.9628317936
 30
0.0
 10
15.8097277104
 20
8.9922238328
 30
0.0
 10
15.8103460493
 20
9.0214567364
 30
0.0
 10
15.8106987535
 20
9.0504955233
 30
0.0
 10
15.810785407
 20
9.0793054453
 30
0.0
 10
15.8106059127
 20
9.1078520285
 30
0.0
 10
15.8101604936
 20
9.1361011152
 30
0.0
 10
15.8094496915
 20
9.1640189045
 30
0.0
 10
15.8084743677
 20
9.1915719937
 30
0.0
 10
15.8072357013
 20
9.2187274178
 30
0.0
 10
15.8057351879
 20
9.2454526898
 30
0.0
 10
15.8039746379
 20
9.2717158393
 30
0.0
 10
15.8019561744
 20
9.2974854513
 30
0.0
 10
15.7996822309
 20
9.3227307044
 30
0.0
 10
15.7971555484
 20
9.3474214087
 30
0.0
 10
15.7943791722
 20
9.3715280386
 30
0.0
 10
15.79135645
 20
9.3950217881
 30
0.0
 10
15.7880910208
 20
9.4178745352
 30
0.0
 10
15.7851499346
 20
9.4364942184
 30
0.0
 10
15.7826751539
 20
9.4510469341
 30
0.0
 10
15.780774365
 20
9.4617051047
 30
0.0
 10
15.7788159777
 20
9.4721830144
 30
0.0
 10
15.7768005737
 20
9.4824775362
 30
0.0
 10
15.7747287557
 20
9.4925855905
 30
0.0
 10
15.7726011498
 20
9.5025041558
 30
0.0
 10
15.7704183866
 20
9.5122302667
 30
0.0
 10
15.7681811277
 20
9.5217610165
 30
0.0
 10
15.7658900372
 20
9.5310935567
 30
0.0
 10
15.7635458058
 20
9.5402250988
 30
0.0
 10
15.7611491347
 20
9.5491529149
 30
0.0
 10
15.7587007395
 20
9.5578743381
 30
0.0
 10
15.7562013589
 20
9.5663867647
 30
0.0
 10
15.7536517334
 20
9.5746876527
 30
0.0
 10
15.7510526347
 20
9.5827745257
 30
0.0
 10
15.7484048322
 20
9.5906449708
 30
0.0
 10
15.7457091243
 20
9.5982966398
 30
0.0
 10
15.7429663103
 20
9.6057272595
 30
0.0
 10
15.7401772204
 20
9.6129345875
 30
0.0
 10
15.7382633065
 20
9.6176488551
 30
0.0
 10
15.7372981599
 20
9.619967707
 30
0.0
  0
SPLINE
  5
33B
100
AcDbEntity
  8
0
100
AcDbSpline
 62
7
  6
CONTINUOUS
 70
0
 71
3
 72
39
 73
35
 74
0
 42
0.0000001
 43
0.0000001
 44
0.0000000001
 40
0.0
 40
0.0
 40
0.0
 40
0.0
 40
0.0216079046
 40
0.0436791786
 40
0.0662464061
 40
0.0893405372
 40
0.1129906034
 40
0.1372234656
 40
0.162063601
 40
0.1875329225
 40
0.2136506471
 40
0.240433219
 40
0.2678942665
 40
0.2960445973
 40
0.324892228
 40
0.3544424416
 40
0.3846978934
 40
0.4156587385
 40
0.4473227758
 40
0.4796856079
 40
0.5127408105
 40
0.5464801181
 40
0.5808936196
 40
0.6159699475
 40
0.6516964637
 40
0.6880594401
 40
0.7250442361
 40
0.7626354701
 40
0.8008171733
 40
0.8395729352
 40
0.8788860374
 40
0.918739553
 40
0.9591165661
 40
1.0
 40
1.0
 40
1.0
 40
1.0
 10
15.72392381
 20
9.6521007841
 30
0.0
 10
15.7232165075
 20
9.6538003188
 30
0.0
 10
15.7217218578
 20
9.6572092018
 30
0.0
 10
15.7192683701
 20
9.6622930015
 30
0.0
 10
15.7165773844
 20
9.6673987963
 30
0.0
 10
15.7136461399
 20
9.6725259926
 30
0.0
 10
15.7104722786
 20
9.677674061
 30
0.0
 10
15.7070539335
 20
9.6828423785
 30
0.0
 10
15.7033897328
 20
9.6880302743
 30
0.0
 10
15.6994788252
 20
9.6932370219
 30
0.0
 10
15.695320891
 20
9.698461848
 30
0.0
 10
15.6909161447
 20
9.703703934
 30
0.0
 10
15.6862653352
 20
9.7089624232
 30
0.0
 10
15.6813697399
 20
9.7142364266
 30
0.0
 10
15.6762311543
 20
9.7195250287
 30
0.0
 10
15.6708518778
 20
9.7248272977
 30
0.0
 10
15.6652346877
 20
9.7301422903
 30
0.0
 10
15.6593828105
 20
9.7354690586
 30
0.0
 10
15.6532998912
 20
9.7408066578
 30
0.0
 10
15.6469899584
 20
9.7461541525
 30
0.0
 10
15.6404573892
 20
9.7515106238
 30
0.0
 10
15.6337068694
 20
9.7568751752
 30
0.0
 10
15.6267433511
 20
9.7622469364
 30
0.0
 10
15.619572013
 20
9.7676250681
 30
0.0
 10
15.6121982204
 20
9.7730087653
 30
0.0
 10
15.6046274874
 20
9.7783972614
 30
0.0
 10
15.5968654395
 20
9.7837898304
 30
0.0
 10
15.5889177769
 20
9.7891857874
 30
0.0
 10
15.5807902418
 20
9.7945844899
 30
0.0
 10
15.5724885881
 20
9.7999853384
 30
0.0
 10
15.5640185561
 20
9.8053877757
 30
0.0
 10
15.5553858386
 20
9.8107912912
 30
0.0
 10
15.5465960802
 20
9.8161954055
 30
0.0
 10
15.5406713394
 20
9.8197764454
 30
0.0
 10
15.5376841436
 20
9.821567481
 30
0.0
  0
SPLINE
  5
33C
100
AcDbEntity
  8
0
100
AcDbSpline
 62
7
  6
CONTINUOUS
 70
0
 71
3
 72
11
 73
7
 74
0
 42
0.0000001
 43
0.0000001
 44
0.0000000001
 40
0.0
 40
0.0
 40
0.0
 40
0.0
 40
0.2396605935
 40
0.4861361377
 40
0.7395476642
 40
1.0
 40
1.0
 40
1.0
 40
1.0
 10
15.5223549325
 20
9.8084944893
 30
0.0
 10
15.5210585766
 20
9.8072423056
 30
0.0
 10
15.5184665165
 20
9.8046632286
 30
0.0
 10
15.5146333334
 20
9.8006324972
 30
0.0
 10
15.5108020217
 20
9.796386947
 30
0.0
 10
15.5082843925
 20
9.7934544993
 30
0.0
 10
15.5070257213
 20
9.7919537174
 30
0.0
  0
SPLINE
  5
33D
100
AcDbEntity
  8
0
100
AcDbSpline
 62
7
  6
CONTINUOUS
 70
0
 71
3
 72
11
 73
7
 74
0
 42
0.0000001
 43
0.0000001
 44
0.0000000001
 40
0.0
 40
0.0
 40
0.0
 40
0.0
 40
0.2600920509
 40
0.5135755305
 40
0.7602686496
 40
1.0
 40
1.0
 40
1.0
 40
1.0
 10
15.2958801551
 20
8.2231351469
 30
0.0
 10
15.2970078904
 20
8.2157933092
 30
0.0
 10
15.2993281935
 20
8.2013103305
 30
0.0
 10
15.3030568916
 20
8.1799197395
 30
0.0
 10
15.3069864829
 20
8.1591566191
 30
0.0
 10
15.3097783299
 20
8.1455476016
 30
0.0
 10
15.3112093662
 20
8.1388523626
 30
0.0
  0
SPLINE
  5
33E
100
AcDbEntity
  8
0
100
AcDbSpline
 62
7
  6
CONTINUOUS
 70
0
 71
3
 72
11
 73
7
 74
0
 42
0.0000001
 43
0.0000001
 44
0.0000000001
 40
0.0
 40
0.0
 40
0.0
 40
0.0
 40
0.2471507066
 40
0.4963425996
 40
0.7473636924
 40
1.0
 40
1.0
 40
1.0
 40
1.0
 10
15.3112093662
 20
9.1808836527
 30
0.0
 10
15.3097931716
 20
9.1715219739
 30
0.0
 10
15.3070275742
 20
9.1527093366
 30
0.0
 10
15.3030948724
 20
9.1243493717
 30
0.0
 10
15.299363228
 20
9.0957503117
 30
0.0
 10
15.2970186332
 20
9.0765982518
 30
0.0
 10
15.2958801551
 20
9.0669871047
 30
0.0
  0
SPLINE
  5
33F
100
AcDbEntity
  8
0
100
AcDbSpline
 62
7
  6
CONTINUOUS
 70
0
 71
3
 72
11
 73
7
 74
0
 42
0.0000001
 43
0.0000001
 44
0.0000000001
 40
0.0
 40
0.0
 40
0.0
 40
0.0
 40
0.2394749506
 40
0.485822197
 40
0.7392645615
 40
1.0
 40
1.0
 40
1.0
 40
1.0
 10
15.5376841436
 20
9.821567481
 30
0.0
 10
15.5363902205
 20
9.8206106282
 30
0.0
 10
15.5338011263
 20
9.8186205033
 30
0.0
 10
15.5299689261
 20
9.8154577211
 30
0.0
 10
15.5261351948
 20
9.8120767225
 30
0.0
 10
15.5236151807
 20
9.8097117957
 30
0.0
 10
15.5223549325
 20
9.8084944893
 30
0.0
  0
SPLINE
  5
340
100
AcDbEntity
  8
0
100
AcDbSpline
 62
7
  6
CONTINUOUS
 70
0
 71
3
 72
23
 73
19
 74
0
 42
0.0000001
 43
0.0000001
 44
0.0000000001
 40
0.0
 40
0.0
 40
0.0
 40
0.0
 40
0.0621121012
 40
0.1242356741
 40
0.186378961
 40
0.2485502811
 40
0.3107580787
 40
0.3730109596
 40
0.4353177098
 40
0.4976872959
 40
0.5601288414
 40
0.6226515794
 40
0.6852647794
 40
0.747977647
 40
0.8107991988
 40
0.8737381127
 40
0.9368025568
 40
1.0
 40
1.0
 40
1.0
 40
1.0
 10
12.5871361619
 20
9.1644933893
 30
0.0
 10
12.5864398093
 20
9.1653211951
 30
0.0
 10
12.5850940198
 20
9.1670172002
 30
0.0
 10
12.5832240294
 20
9.1696724612
 30
0.0
 10
12.5815082302
 20
9.1724312149
 30
0.0
 10
12.5799521959
 20
9.1752847728
 30
0.0
 10
12.5785609263
 20
9.1782243082
 30
0.0
 10
12.5773389692
 20
9.1812407062
 30
0.0
 10
12.5762903616
 20
9.1843246342
 30
0.0
 10
12.5754186184
 20
9.187466555
 30
0.0
 10
12.5747267087
 20
9.1906567589
 30
0.0
 10
12.5742170363
 20
9.1938853933
 30
0.0
 10
12.5738914219
 20
9.1971424947
 30
0.0
 10
12.5737510871
 20
9.2004180282
 30
0.0
 10
12.5737966391
 20
9.2037019096
 30
0.0
 10
12.5740280743
 20
9.2069841007
 30
0.0
 10
12.574444725
 20
9.2102544381
 30
0.0
 10
12.574844767
 20
9.2124180998
 30
0.0
 10
12.575074971
 20
9.2134944026
 30
0.0
  0
SPLINE
  5
341
100
AcDbEntity
  8
0
100
AcDbSpline
 62
7
  6
CONTINUOUS
 70
0
 71
3
 72
49
 73
45
 74
0
 42
0.0000001
 43
0.0000001
 44
0.0000000001
 40
0.0
 40
0.0
 40
0.0
 40
0.0
 40
0.0470731633
 40
0.0924997698
 40
0.1362855027
 40
0.1784403553
 40
0.2189791703
 40
0.2579222657
 40
0.2952961279
 40
0.3311342316
 40
0.3654779909
 40
0.3983778365
 40
0.4298943676
 40
0.4600996075
 40
0.4890783026
 40
0.5169291564
 40
0.543765828
 40
0.5568460328
 40
0.5697225039
 40
0.5824138144
 40
0.5949394792
 40
0.6073198749
 40
0.6195761788
 40
0.6317302925
 40
0.6438047181
 40
0.6558224533
 40
0.6678068515
 40
0.6797814773
 40
0.6917699587
 40
0.7037958344
 40
0.7158824075
 40
0.7280525951
 40
0.7403288102
 40
0.752732831
 40
0.7652857013
 40
0.7780076619
 40
0.790918055
 40
0.8173721907
 40
0.8447889633
 40
0.8732884438
 40
0.9029754265
 40
0.9339401518
 40
0.9662601817
 40
1.0
 40
1.0
 40
1.0
 40
1.0
 10
15.7372981599
 20
9.619967707
 30
0.0
 10
15.7360561726
 20
9.6229516935
 30
0.0
 10
15.7335495086
 20
9.6287880857
 30
0.0
 10
15.7296461554
 20
9.6372938065
 30
0.0
 10
15.7256683538
 20
9.645390522
 30
0.0
 10
15.7216181767
 20
9.6530739784
 30
0.0
 10
15.7174976889
 20
9.6603402188
 30
0.0
 10
15.7133089827
 20
9.6671854945
 30
0.0
 10
15.7090541564
 20
9.6736062837
 30
0.0
 10
15.7047353112
 20
9.6795992817
 30
0.0
 10
15.7003545424
 20
9.6851613981
 30
0.0
 10
15.6959139396
 20
9.6902897489
 30
0.0
 10
15.6914155676
 20
9.694981641
 30
0.0
 10
15.6868614976
 20
9.6992345347
 30
0.0
 10
15.6822537116
 20
9.7030460721
 30
0.0
 10
15.6775944989
 20
9.7064138676
 30
0.0
 10
15.6736368823
 20
9.7088696878
 30
0.0
 10
15.6704518172
 20
9.7106019783
 30
0.0
 10
15.6680722435
 20
9.711778115
 30
0.0
 10
15.6656820039
 20
9.7128419506
 30
0.0
 10
15.6632813896
 20
9.7137933519
 30
0.0
 10
15.6608707309
 20
9.7146321621
 30
0.0
 10
15.6584503524
 20
9.7153582402
 30
0.0
 10
15.6560205936
 20
9.7159714804
 30
0.0
 10
15.6535817917
 20
9.7164717714
 30
0.0
 10
15.6511342937
 20
9.7168590332
 30
0.0
 10
15.64867845
 20
9.7171332101
 30
0.0
 10
15.6462146122
 20
9.7172942451
 30
0.0
 10
15.6437431364
 20
9.7173421275
 30
0.0
 10
15.6412643776
 20
9.7172768518
 30
0.0
 10
15.6387786917
 20
9.7170984282
 30
0.0
 10
15.6362864305
 20
9.7168069073
 30
0.0
 10
15.6337879467
 20
9.7164023337
 30
0.0
 10
15.6312835852
 20
9.7158847838
 30
0.0
 10
15.6287736975
 20
9.7152543592
 30
0.0
 10
15.6262585913
 20
9.7145111359
 30
0.0
 10
15.6228714511
 20
9.7133607557
 30
0.0
 10
15.6186194185
 20
9.7116317439
 30
0.0
 10
15.6135448232
 20
9.709124539
 30
0.0
 10
15.6084589142
 20
9.7061699592
 30
0.0
 10
15.6033643263
 20
9.7027700119
 30
0.0
 10
15.5982632861
 20
9.6989266793
 30
0.0
 10
15.5931583385
 20
9.6946422442
 30
0.0
 10
15.5898271415
 20
9.6915610565
 30
0.0
 10
15.5881608856
 20
9.6899515767
 30
0.0
  0
SPLINE
  5
342
100
AcDbEntity
  8
0
100
AcDbSpline
 62
7
  6
CONTINUOUS
 70
0
 71
3
 72
38
 73
34
 74
0
 42
0.0000001
 43
0.0000001
 44
0.0000000001
 40
0.0
 40
0.0
 40
0.0
 40
0.0
 40
0.0293462456
 40
0.0587365411
 40
0.0881778495
 40
0.1176777158
 40
0.147244278
 40
0.1768862212
 40
0.2066127297
 40
0.2364334109
 40
0.2663581986
 40
0.2963972328
 40
0.3265607184
 40
0.3568587675
 40
0.3873012301
 40
0.4178975169
 40
0.4486564248
 40
0.4795859706
 40
0.5106932413
 40
0.5419842696
 40
0.5734639394
 40
0.6051359245
 40
0.6370026629
 40
0.6690653641
 40
0.7013240494
 40
0.7337776197
 40
0.7992573287
 40
0.8322792044
 40
0.8654823827
 40
0.8988617575
 40
0.9324117817
 40
0.966126564
 40
1.0
 40
1.0
 40
1.0
 40
1.0
 10
15.5070257213
 20
9.7919537174
 30
0.0
 10
15.5072482238
 20
9.7855580395
 30
0.0
 10
15.5075848391
 20
9.7727530085
 30
0.0
 10
15.5077496246
 20
9.7535237351
 30
0.0
 10
15.5075593963
 20
9.7342610492
 30
0.0
 10
15.5069989187
 20
9.7149670498
 30
0.0
 10
15.5060531013
 20
9.6956441978
 30
0.0
 10
15.5047071607
 20
9.6762954551
 30
0.0
 10
15.5029468059
 20
9.6569242731
 30
0.0
 10
15.500758437
 20
9.6375346077
 30
0.0
 10
15.4981293549
 20
9.618130913
 30
0.0
 10
15.4950479748
 20
9.5987181236
 30
0.0
 10
15.4915040418
 20
9.5793016203
 30
0.0
 10
15.4874888319
 20
9.55988718
 30
0.0
 10
15.482995336
 20
9.5404809101
 30
0.0
 10
15.4780184168
 20
9.5210891678
 30
0.0
 10
15.4725549311
 20
9.5017184675
 30
0.0
 10
15.4666038119
 20
9.4823753797
 30
0.0
 10
15.4601661047
 20
9.4630664246
 30
0.0
 10
15.4532449594
 20
9.4437979637
 30
0.0
 10
15.4458455669
 20
9.4245760972
 30
0.0
 10
15.4379750563
 20
9.4054065727
 30
0.0
 10
15.4296423461
 20
9.3862946921
 30
0.0
 10
15.4208579905
 20
9.3672452837
 30
0.0
 10
15.4116338969
 20
9.3482625039
 30
0.0
 10
15.3987288769
 20
9.3229723948
 30
0.0
 10
15.3850326234
 20
9.2979052284
 30
0.0
 10
15.3706173677
 20
9.2730628742
 30
0.0
 10
15.3594085408
 20
9.2544564595
 30
0.0
 10
15.3478494614
 20
9.2359299352
 30
0.0
 10
15.3359559977
 20
9.2174834391
 30
0.0
 10
15.3237439952
 20
9.19911688
 30
0.0
 10
15.3154196143
 20
9.1869531276
 30
0.0
 10
15.3112093662
 20
9.1808836527
 30
0.0
  0
SPLINE
  5
343
100
AcDbEntity
  8
0
100
AcDbSpline
 62
7
  6
CONTINUOUS
 70
0
 71
3
 72
36
 73
32
 74
0
 42
0.0000001
 43
0.0000001
 44
0.0000000001
 40
0.0
 40
0.0
 40
0.0
 40
0.0
 40
0.0635007802
 40
0.1269002289
 40
0.1585591923
 40
0.1901886259
 40
0.2217871205
 40
0.2533533021
 40
0.2848858535
 40
0.3163835367
 40
0.3478452158
 40
0.3792698811
 40
0.410656671
 40
0.4420048926
 40
0.4733140381
 40
0.5045837976
 40
0.5358140674
 40
0.567004953
 40
0.5981567671
 40
0.6292700207
 40
0.6603454113
 40
0.6913838053
 40
0.7223862182
 40
0.7533537927
 40
0.7842877761
 40
0.8151894958
 40
0.8460603359
 40
0.8769017169
 40
0.9077150739
 40
0.9385018445
 40
1.0
 40
1.0
 40
1.0
 40
1.0
 10
15.2958801551
 20
9.0669871047
 30
0.0
 10
15.3003190051
 20
9.0494654401
 30
0.0
 10
15.308788936
 20
9.0143469835
 30
0.0
 10
15.3182659643
 20
8.9702144364
 30
0.0
 10
15.3251113377
 20
8.934808003
 30
0.0
 10
15.3298600277
 20
8.9082186604
 30
0.0
 10
15.3342104843
 20
8.881587989
 30
0.0
 10
15.3381481945
 20
8.8549209607
 30
0.0
 10
15.3416593547
 20
8.8282233001
 30
0.0
 10
15.3447310994
 20
8.8015013951
 30
0.0
 10
15.3473517171
 20
8.774762278
 30
0.0
 10
15.3495108629
 20
8.7480135594
 30
0.0
 10
15.3511997576
 20
8.7212633491
 30
0.0
 10
15.352411366
 20
8.6945201525
 30
0.0
 10
15.3531405468
 20
8.6677927526
 30
0.0
 10
15.3533841646
 20
8.6410900762
 30
0.0
 10
15.3531411608
 20
8.6144210519
 30
0.0
 10
15.3524125817
 20
8.5877944655
 30
0.0
 10
15.3512015507
 20
8.5612188174
 30
0.0
 10
15.349513199
 20
8.53470219
 30
0.0
 10
15.3473545526
 20
8.50825213
 30
0.0
 10
15.3447343837
 20
8.4818755485
 30
0.0
 10
15.3416630324
 20
8.4555786431
 30
0.0
 10
15.3381522073
 20
8.4293668426
 30
0.0
 10
15.3342147735
 20
8.4032447754
 30
0.0
 10
15.3298645337
 20
8.3772162626
 30
0.0
 10
15.3251160116
 20
8.3512843189
 30
0.0
 10
15.3199842569
 20
8.3254512207
 30
0.0
 10
15.3144846163
 20
8.2997183981
 30
0.0
 10
15.3066852733
 20
8.2655573233
 30
0.0
 10
15.3003256399
 20
8.2400664103
 30
0.0
 10
15.2958801551
 20
8.2231351469
 30
0.0
  0
SPLINE
  5
344
100
AcDbEntity
  8
0
100
AcDbSpline
 62
7
  6
CONTINUOUS
 70
0
 71
3
 72
39
 73
35
 74
0
 42
0.0000001
 43
0.0000001
 44
0.0000000001
 40
0.0
 40
0.0
 40
0.0
 40
0.0
 40
0.0456955419
 40
0.0905834148
 40
0.1346261228
 40
0.1777863341
 40
0.2200273954
 40
0.2613138611
 40
0.3016121232
 40
0.3408911018
 40
0.3791229973
 40
0.4162840877
 40
0.4523555537
 40
0.4873243001
 40
0.5211837449
 40
0.5539345441
 40
0.5855852136
 40
0.6161526124
 40
0.6456622523
 40
0.6741484013
 40
0.701653943
 40
0.7282299857
 40
0.7539352106
 40
0.7788349646
 40
0.8030001162
 40
0.8265057134
 40
0.8494294928
 40
0.8718503097
 40
0.8938465695
 40
0.9154947416
 40
0.9368680277
 40
0.9580352503
 40
0.979059986
 40
1.0
 40
1.0
 40
1.0
 40
1.0
 10
15.3112093662
 20
8.1388523626
 30
0.0
 10
15.3153933915
 20
8.1363437428
 30
0.0
 10
15.3236627783
 20
8.1313294606
 30
0.0
 10
15.3358709768
 20
8.1237438397
 30
0.0
 10
15.3477606825
 20
8.1161602407
 30
0.0
 10
15.3593161439
 20
8.1085800858
 30
0.0
 10
15.3705214953
 20
8.1010049475
 30
0.0
 10
15.3813608752
 20
8.0934365625
 30
0.0
 10
15.391818594
 20
8.0858768266
 30
0.0
 10
15.4018793149
 20
8.0783277885
 30
0.0
 10
15.4115282521
 20
8.0707916384
 30
0.0
 10
15.420751381
 20
8.0632706908
 30
0.0
 10
15.4295356557
 20
8.0557673636
 30
0.0
 10
15.4378692258
 20
8.048284151
 30
0.0
 10
15.4457416434
 20
8.0408235922
 30
0.0
 10
15.4531440545
 20
8.0333882373
 30
0.0
 10
15.4600693657
 20
8.0259806107
 30
0.0
 10
15.4665123782
 20
8.0186031754
 30
0.0
 10
15.4724698849
 20
8.0112582973
 30
0.0
 10
15.4779407266
 20
8.0039482164
 30
0.0
 10
15.4829257996
 20
7.9966750178
 30
0.0
 10
15.4874280223
 20
7.9894406124
 30
0.0
 10
15.4914522615
 20
7.982246722
 30
0.0
 10
15.4950052251
 20
7.9750948692
 30
0.0
 10
15.4980953245
 20
7.9679863713
 30
0.0
 10
15.5007325156
 20
7.9609223342
 30
0.0
 10
15.5029281217
 20
7.9539036473
 30
0.0
 10
15.5046946404
 20
7.9469309741
 30
0.0
 10
15.5060455454
 20
7.9400047468
 30
0.0
 10
15.5069950829
 20
7.9331251515
 30
0.0
 10
15.5075580717
 20
7.9262921498
 30
0.0
 10
15.5077496979
 20
7.9195053894
 30
0.0
 10
15.5075853629
 20
7.912764555
 30
0.0
 10
15.5072483157
 20
7.9082949115
 30
0.0
 10
15.5070257213
 20
7.9060704694
 30
0.0
  0
SPLINE
  5
345
100
AcDbEntity
  8
0
100
AcDbSpline
 62
7
  6
CONTINUOUS
 70
0
 71
3
 72
153
 73
149
 74
0
 42
0.0000001
 43
0.0000001
 44
0.0000000001
 40
0.0
 40
0.0
 40
0.0
 40
0.0
 40
0.0020827402
 40
0.0042134583
 40
0.0063928236
 40
0.0086214633
 40
0.0108999661
 40
0.0132288565
 40
0.0156085793
 40
0.0180395232
 40
0.0205220232
 40
0.0230563651
 40
0.0256427905
 40
0.0282814909
 40
0.0309726197
 40
0.0337162893
 40
0.039361405
 40
0.0452171582
 40
0.0512832423
 40
0.0575589005
 40
0.0640429682
 40
0.0707339105
 40
0.0776298551
 40
0.0847286195
 40
0.0920277351
 40
0.0995244672
 40
0.1072158332
 40
0.1150986205
 40
0.1231694004
 40
0.131424541
 40
0.1398602183
 40
0.1484724269
 40
0.1572569903
 40
0.1662095704
 40
0.1753256756
 40
0.1846006673
 40
0.1940297678
 40
0.2036080679
 40
0.2133305334
 40
0.2231920109
 40
0.2331872342
 40
0.2433108289
 40
0.2535573194
 40
0.2639211341
 40
0.2743966108
 40
0.2849780015
 40
0.2956594774
 40
0.3064351342
 40
0.3172989972
 40
0.3392669995
 40
0.3615145881
 40
0.3839919209
 40
0.4066484887
 40
0.4294332633
 40
0.4522948494
 40
0.4751816305
 40
0.4980419184
 40
0.5208241006
 40
0.5434767886
 40
0.5659489663
 40
0.5881901386
 40
0.6101504827
 40
0.6210100578
 40
0.6317811246
 40
0.6424577121
 40
0.6530339199
 40
0.6635039233
 40
0.6738619782
 40
0.6841024262
 40
0.6942197007
 40
0.7042083317
 40
0.7140629502
 40
0.7237782949
 40
0.7333492181
 40
0.7427706916
 40
0.7520378131
 40
0.7611458124
 40
0.7700900577
 40
0.7788660639
 40
0.787469501
 40
0.7958962017
 40
0.8041421697
 40
0.8122035903
 40
0.8200768404
 40
0.827758502
 40
0.8352453743
 40
0.8425344874
 40
0.8496231191
 40
0.8565088138
 40
0.8631894039
 40
0.8696630339
 40
0.8759281876
 40
0.8819837197
 40
0.8878288937
 40
0.8934634269
 40
0.8962018134
 40
0.8988876675
 40
0.9015211084
 40
0.9041022902
 40
0.9066314122
 40
0.9091087181
 40
0.911534497
 40
0.9139090933
 40
0.9162329011
 40
0.9185063764
 40
0.9207300361
 40
0.9229044618
 40
0.9250303106
 40
0.9271083109
 40
0.9291392761
 40
0.9311241057
 40
0.9330637904
 40
0.9349594237
 40
0.9368121999
 40
0.9386234286
 40
0.9403945358
 40
0.9421270707
 40
0.9454827478
 40
0.9487060087
 40
0.9502736406
 40
0.9518148702
 40
0.9533322202
 40
0.954828351
 40
0.9563060495
 40
0.9577682193
 40
0.9592178676
 40
0.9606580865
 40
0.9620920358
 40
0.9635229202
 40
0.964953967
 40
0.966388402
 40
0.9678294267
 40
0.9692801945
 40
0.9707437904
 40
0.9722232117
 40
0.9737213505
 40
0.9752409824
 40
0.9767847528
 40
0.9783551722
 40
0.9815846908
 40
0.9849474367
 40
0.9884583814
 40
0.9902737196
 40
0.9921307387
 40
0.9940307449
 40
0.9959749389
 40
0.9979643819
 40
1.0
 40
1.0
 40
1.0
 40
1.0
 10
15.5881608856
 20
9.6899515767
 30
0.0
 10
15.5872399348
 20
9.6890620065
 30
0.0
 10
15.5853983108
 20
9.6872399942
 30
0.0
 10
15.5826674564
 20
9.6844131496
 30
0.0
 10
15.579937445
 20
9.6814620799
 30
0.0
 10
15.5772087302
 20
9.6783872733
 30
0.0
 10
15.5744817019
 20
9.6751891868
 30
0.0
 10
15.5717567629
 20
9.6718682859
 30
0.0
 10
15.5690343072
 20
9.6684250698
 30
0.0
 10
15.5663147495
 20
9.6648600526
 30
0.0
 10
15.5635984963
 20
9.6611737709
 30
0.0
 10
15.5608859491
 20
9.6573667792
 30
0.0
 10
15.5581775195
 20
9.6534396429
 30
0.0
 10
15.5554736067
 20
9.6493929559
 30
0.0
 10
15.5527746137
 20
9.6452273175
 30
0.0
 10
15.5491486889
 20
9.6394606703
 30
0.0
 10
15.5446344139
 20
9.6319554373
 30
0.0
 10
15.539293531
 20
9.6225676347
 30
0.0
 10
15.5339819705
 20
9.6127205059
 30
0.0
 10
15.5287029325
 20
9.6024199801
 30
0.0
 10
15.5234595772
 20
9.5916721965
 30
0.0
 10
15.5182550556
 20
9.5804835903
 30
0.0
 10
15.5130924974
 20
9.5688608613
 30
0.0
 10
15.50797501
 20
9.5568109762
 30
0.0
 10
15.5029056766
 20
9.5443411627
 30
0.0
 10
15.4978875516
 20
9.5314589061
 30
0.0
 10
15.4929236593
 20
9.5181719437
 30
0.0
 10
15.4880169927
 20
9.5044882589
 30
0.0
 10
15.4831705107
 20
9.4904160758
 30
0.0
 10
15.4783871369
 20
9.4759638543
 30
0.0
 10
15.4736697563
 20
9.4611402859
 30
0.0
 10
15.4690212136
 20
9.4459542877
 30
0.0
 10
15.4644443127
 20
9.4304149964
 30
0.0
 10
15.4599418144
 20
9.4145317619
 30
0.0
 10
15.4555164348
 20
9.3983141422
 30
0.0
 10
15.4511708433
 20
9.381771898
 30
0.0
 10
15.4469076603
 20
9.3649149871
 30
0.0
 10
15.4427294567
 20
9.3477535574
 30
0.0
 10
15.4386387524
 20
9.3302979401
 30
0.0
 10
15.4346380147
 20
9.312558644
 30
0.0
 10
15.4307296566
 20
9.2945463496
 30
0.0
 10
15.4269160341
 20
9.276271903
 30
0.0
 10
15.4231994466
 20
9.2577463083
 30
0.0
 10
15.4195821351
 20
9.2389807206
 30
0.0
 10
15.416066281
 20
9.2199864402
 30
0.0
 10
15.4126540039
 20
9.2007749046
 30
0.0
 10
15.4093473621
 20
9.181357686
 30
0.0
 10
15.4061483426
 20
9.1617464685
 30
0.0
 10
15.4020139009
 20
9.1352580469
 30
0.0
 10
15.3971320092
 20
9.1017490335
 30
0.0
 10
15.3917539939
 20
9.0611007667
 30
0.0
 10
15.3868479242
 20
9.0199664883
 30
0.0
 10
15.3824256426
 20
8.9784452946
 30
0.0
 10
15.3784978159
 20
8.9366371505
 30
0.0
 10
15.3750739176
 20
8.8946427333
 30
0.0
 10
15.3721622004
 20
8.8525631663
 30
0.0
 10
15.3697696728
 20
8.8104997805
 30
0.0
 10
15.3679020929
 20
8.768553866
 30
0.0
 10
15.3665639416
 20
8.7268264339
 30
0.0
 10
15.3657584178
 20
8.6854179487
 30
0.0
 10
15.3654874445
 20
8.6444281698
 30
0.0
 10
15.3657083765
 20
8.6105774135
 30
0.0
 10
15.3661558682
 20
8.5837821738
 30
0.0
 10
15.366623907
 20
8.5639257324
 30
0.0
 10
15.3672253006
 20
8.5442471755
 30
0.0
 10
15.3679596897
 20
8.5247583435
 30
0.0
 10
15.3688266283
 20
8.505470976
 30
0.0
 10
15.369825593
 20
8.4863966878
 30
0.0
 10
15.3709559795
 20
8.4675469657
 30
0.0
 10
15.3722171038
 20
8.4489331604
 30
0.0
 10
15.3736082031
 20
8.4305664802
 30
0.0
 10
15.3751284363
 20
8.4124579845
 30
0.0
 10
15.3767768849
 20
8.3946185772
 30
0.0
 10
15.3785525528
 20
8.3770589994
 30
0.0
 10
15.3804543658
 20
8.3597898225
 30
0.0
 10
15.3824811743
 20
8.3428214424
 30
0.0
 10
15.3846317529
 20
8.3261640735
 30
0.0
 10
15.3869048021
 20
8.3098277426
 30
0.0
 10
15.3892989484
 20
8.293822282
 30
0.0
 10
15.3918127439
 20
8.2781573229
 30
0.0
 10
15.3944446689
 20
8.2628422903
 30
0.0
 10
15.3971931325
 20
8.2478863971
 30
0.0
 10
15.4000564736
 20
8.2332986394
 30
0.0
 10
15.4030329626
 20
8.2190877892
 30
0.0
 10
15.4061208
 20
8.2052623888
 30
0.0
 10
15.4093181199
 20
8.1918307454
 30
0.0
 10
15.412622991
 20
8.1788009269
 30
0.0
 10
15.416033418
 20
8.1661807564
 30
0.0
 10
15.4195473437
 20
8.1539778065
 30
0.0
 10
15.4231626485
 20
8.1421993936
 30
0.0
 10
15.426877154
 20
8.130852571
 30
0.0
 10
15.4306886245
 20
8.1199441327
 30
0.0
 10
15.4345947745
 20
8.109480582
 30
0.0
 10
15.4385932514
 20
8.0994682207
 30
0.0
 10
15.4420321264
 20
8.0914309993
 30
0.0
 10
15.4448303208
 20
8.0852346473
 30
0.0
 10
15.4469306232
 20
8.0807480664
 30
0.0
 10
15.4490521796
 20
8.0763786837
 30
0.0
 10
15.4511946872
 20
8.0721271509
 30
0.0
 10
15.45335782
 20
8.0679941055
 30
0.0
 10
15.4555412536
 20
8.0639801655
 30
0.0
 10
15.4577446686
 20
8.060085935
 30
0.0
 10
15.4599677276
 20
8.0563119931
 30
0.0
 10
15.4622101082
 20
8.0526589082
 30
0.0
 10
15.4644714728
 20
8.049127225
 30
0.0
 10
15.4667514853
 20
8.0457174711
 30
0.0
 10
15.4690498148
 20
8.0424301603
 30
0.0
 10
15.471366113
 20
8.0392657791
 30
0.0
 10
15.4737000481
 20
8.0362248066
 30
0.0
 10
15.4760512721
 20
8.0333076954
 30
0.0
 10
15.4784194409
 20
8.0305148827
 30
0.0
 10
15.4808042153
 20
8.0278467928
 30
0.0
 10
15.4832052382
 20
8.0253038216
 30
0.0
 10
15.4856221742
 20
8.0228863587
 30
0.0
 10
15.4880546556
 20
8.0205947781
 30
0.0
 10
15.4905023762
 20
8.0184293914
 30
0.0
 10
15.493751041
 20
8.0157397606
 30
0.0
 10
15.4978506183
 20
8.0126822358
 30
0.0
 10
15.5020813379
 20
8.0099916711
 30
0.0
 10
15.5054878926
 20
8.0081056442
 30
0.0
 10
15.5080320102
 20
8.0068323349
 30
0.0
 10
15.5105883935
 20
8.0056875113
 30
0.0
 10
15.5131566825
 20
8.0046713464
 30
0.0
 10
15.5157364729
 20
8.0037840363
 30
0.0
 10
15.5183273631
 20
8.0030257531
 30
0.0
 10
15.5209289345
 20
8.0023966291
 30
0.0
 10
15.5235407692
 20
8.0018968023
 30
0.0
 10
15.526162435
 20
8.0015263568
 30
0.0
 10
15.5287934984
 20
8.0012853674
 30
0.0
 10
15.5314335205
 20
8.0011738826
 30
0.0
 10
15.5340820606
 20
8.001191904
 30
0.0
 10
15.5367386784
 20
8.0013394362
 30
0.0
 10
15.5394029359
 20
8.0016164257
 30
0.0
 10
15.5420743989
 20
8.0020228136
 30
0.0
 10
15.5447526355
 20
8.002558514
 30
0.0
 10
15.5474372273
 20
8.0032234048
 30
0.0
 10
15.5501277409
 20
8.0040173633
 30
0.0
 10
15.5528238074
 20
8.0049402434
 30
0.0
 10
15.5564589489
 20
8.0063554616
 30
0.0
 10
15.5610215169
 20
8.008458141
 30
0.0
 10
15.5664590076
 20
8.0114705524
 30
0.0
 10
15.5709482682
 20
8.0143732056
 30
0.0
 10
15.5745424491
 20
8.0169400333
 30
0.0
 10
15.5772701426
 20
8.0190134752
 30
0.0
 10
15.579999341
 20
8.021213361
 30
0.0
 10
15.582729696
 20
8.0235394078
 30
0.0
 10
15.5854607503
 20
8.0259912056
 30
0.0
 10
15.5872607714
 20
8.0276896134
 30
0.0
 10
15.5881608856
 20
8.0285590571
 30
0.0
  0
SPLINE
  5
346
100
AcDbEntity
  8
0
100
AcDbSpline
 62
7
  6
CONTINUOUS
 70
0
 71
3
 72
22
 73
18
 74
0
 42
0.0000001
 43
0.0000001
 44
0.0000000001
 40
0.0
 40
0.0
 40
0.0
 40
0.0
 40
0.053053517
 40
0.1073085721
 40
0.1627816825
 40
0.2194883203
 40
0.2774430696
 40
0.3366589893
 40
0.3971471962
 40
0.4589173943
 40
0.5219780092
 40
0.5863362298
 40
0.6519982024
 40
0.7189688371
 40
0.7872520868
 40
0.8568509473
 40
1.0
 40
1.0
 40
1.0
 40
1.0
 10
15.5881608856
 20
8.0285590571
 30
0.0
 10
15.5890661853
 20
8.0294335095
 30
0.0
 10
15.5908765222
 20
8.0312238396
 30
0.0
 10
15.5935615052
 20
8.0340000536
 30
0.0
 10
15.5962456891
 20
8.036896369
 30
0.0
 10
15.5989286403
 20
8.0399123223
 30
0.0
 10
15.6016099882
 20
8.0430474783
 30
0.0
 10
15.6042893499
 20
8.0463013968
 30
0.0
 10
15.6069663511
 20
8.0496736059
 30
0.0
 10
15.6096405991
 20
8.0531636175
 30
0.0
 10
15.6123117048
 20
8.0567709254
 30
0.0
 10
15.6149792885
 20
8.0604950031
 30
0.0
 10
15.6176429582
 20
8.0643353171
 30
0.0
 10
15.6203023326
 20
8.0682913045
 30
0.0
 10
15.6229570351
 20
8.0723624047
 30
0.0
 10
15.6265232467
 20
8.0779959595
 30
0.0
 10
15.629138989
 20
8.0823134167
 30
0.0
 10
15.6308642979
 20
8.0852386508
 30
0.0
  0
SPLINE
  5
347
100
AcDbEntity
  8
0
100
AcDbSpline
 62
7
  6
CONTINUOUS
 70
0
 71
3
 72
18
 73
14
 74
0
 42
0.0000001
 43
0.0000001
 44
0.0000000001
 40
0.0
 40
0.0
 40
0.0
 40
0.0
 40
0.1480356372
 40
0.2876662502
 40
0.4195655771
 40
0.4828973127
 40
0.5446380375
 40
0.6638657774
 40
0.7785237916
 40
0.8345984481
 40
0.8900706527
 40
0.9451373023
 40
1.0
 40
1.0
 40
1.0
 40
1.0
 10
7.6344394788
 20
10.6489202231
 30
0.0
 10
7.635382361
 20
10.6498309773
 30
0.0
 10
7.6371593147
 20
10.6516596222
 30
0.0
 10
7.6395485486
 20
10.6545094716
 30
0.0
 10
7.6412622968
 20
10.6569346168
 30
0.0
 10
7.642442503
 20
10.6588811748
 30
0.0
 10
7.6434732189
 20
10.6607840467
 30
0.0
 10
7.6445443029
 20
10.6631784671
 30
0.0
 10
7.6453263911
 20
10.6656307552
 30
0.0
 10
7.6457605362
 20
10.6675873666
 30
0.0
 10
7.6459915358
 20
10.6690455986
 30
0.0
 10
7.6461301425
 20
10.6705046345
 30
0.0
 10
7.6461609642
 20
10.6714783843
 30
0.0
 10
7.6461609594
 20
10.6719642158
 30
0.0
  0
SPLINE
  5
348
100
AcDbEntity
  8
0
100
AcDbSpline
 62
7
  6
CONTINUOUS
 70
0
 71
3
 72
18
 73
14
 74
0
 42
0.0000001
 43
0.0000001
 44
0.0000000001
 40
0.0
 40
0.0
 40
0.0
 40
0.0
 40
0.1480356372
 40
0.2876662502
 40
0.4195655771
 40
0.4828973127
 40
0.5446380375
 40
0.6638657774
 40
0.7785237916
 40
0.8345984481
 40
0.8900706527
 40
0.9451373023
 40
1.0
 40
1.0
 40
1.0
 40
1.0
 10
14.1563709619
 20
10.1966227385
 30
0.0
 10
14.1573138441
 20
10.1975334928
 30
0.0
 10
14.1590907978
 20
10.1993621376
 30
0.0
 10
14.1614800317
 20
10.202211987
 30
0.0
 10
14.1631937799
 20
10.2046371322
 30
0.0
 10
14.1643739861
 20
10.2065836902
 30
0.0
 10
14.165404702
 20
10.2084865621
 30
0.0
 10
14.166475786
 20
10.2108809825
 30
0.0
 10
14.1672578742
 20
10.2133332706
 30
0.0
 10
14.1676920193
 20
10.215289882
 30
0.0
 10
14.1679230189
 20
10.216748114
 30
0.0
 10
14.1680616256
 20
10.2182071499
 30
0.0
 10
14.1680924473
 20
10.2191808998
 30
0.0
 10
14.1680924425
 20
10.2196667313
 30
0.0
  0
SPLINE
  5
349
100
AcDbEntity
  8
0
100
AcDbSpline
 62
7
  6
CONTINUOUS
 70
0
 71
3
 72
26
 73
22
 74
0
 42
0.0000001
 43
0.0000001
 44
0.0000000001
 40
0.0
 40
0.0
 40
0.0
 40
0.0
 40
0.064763614
 40
0.1303281264
 40
0.1964577444
 40
0.2629127684
 40
0.3294526685
 40
0.3958363032
 40
0.4618233107
 40
0.5271751411
 40
0.5916561891
 40
0.6550349124
 40
0.7170849725
 40
0.7775863937
 40
0.8363267544
 40
0.8649729325
 40
0.8931032394
 40
0.9206938694
 40
0.9477216316
 40
0.9741642016
 40
1.0
 40
1.0
 40
1.0
 40
1.0
 10
14.9610323509
 20
7.0716438659
 30
0.0
 10
14.9610323509
 20
7.0905223555
 30
0.0
 10
14.9613508204
 20
7.1285134836
 30
0.0
 10
14.962756673
 20
7.1857656512
 30
0.0
 10
14.9650888105
 20
7.2434811272
 30
0.0
 10
14.9683383209
 20
7.3014369195
 30
0.0
 10
14.9724926533
 20
7.3594091264
 30
0.0
 10
14.9775357693
 20
7.4171738558
 30
0.0
 10
14.9834481505
 20
7.4745079928
 30
0.0
 10
14.9902068968
 20
7.5311901058
 30
0.0
 10
14.9977858047
 20
7.587001304
 30
0.0
 10
15.0061554724
 20
7.641726072
 30
0.0
 10
15.0152833983
 20
7.6951531962
 30
0.0
 10
15.0251341391
 20
7.7470762989
 30
0.0
 10
15.0339856868
 20
7.7892701042
 30
0.0
 10
15.0414112531
 20
7.8221146761
 30
0.0
 10
15.0470902024
 20
7.8460434013
 30
0.0
 10
15.0529197631
 20
7.869449997
 30
0.0
 10
15.0588943981
 20
7.892311893
 30
0.0
 10
15.0650082298
 20
7.9146069668
 30
0.0
 10
15.0692230771
 20
7.9292520801
 30
0.0
 10
15.0713542527
 20
7.9364753387
 30
0.0
  0
SPLINE
  5
34A
100
AcDbEntity
  8
0
100
AcDbSpline
 62
7
  6
CONTINUOUS
 70
0
 71
3
 72
59
 73
55
 74
0
 42
0.0000001
 43
0.0000001
 44
0.0000000001
 40
0.0
 40
0.0
 40
0.0
 40
0.0
 40
0.0417736767
 40
0.0840362765
 40
0.1266574811
 40
0.1695051262
 40
0.2124463914
 40
0.2553479967
 40
0.2980768488
 40
0.3405005256
 40
0.3824878146
 40
0.4239092383
 40
0.464637589
 40
0.5045484688
 40
0.5435208413
 40
0.5814375992
 40
0.6181861539
 40
0.6360888024
 40
0.6536595531
 40
0.6708859017
 40
0.6877557363
 40
0.7042573867
 40
0.720379648
 40
0.7361117919
 40
0.7514436399
 40
0.7663655339
 40
0.7808684645
 40
0.7949440033
 40
0.8085844873
 40
0.8217829218
 40
0.83453322
 40
0.8468300923
 40
0.8586693371
 40
0.8700477415
 40
0.8809634199
 40
0.8914157604
 40
0.9014058112
 40
0.9109363168
 40
0.9200121632
 40
0.9286405545
 40
0.9368315416
 40
0.9445983908
 40
0.9519582219
 40
0.9589325919
 40
0.9655482195
 40
0.9718376843
 40
0.9778400275
 40
0.9836011664
 40
0.9864084736
 40
0.9891757902
 40
0.9919106587
 40
0.9946209114
 40
0.9973146138
 40
1.0
 40
1.0
 40
1.0
 40
1.0
 10
14.6048976414
 20
8.659495899
 30
0.0
 10
14.6048976414
 20
8.6781517658
 30
0.0
 10
14.6051886928
 20
8.7156824358
 30
0.0
 10
14.6064753777
 20
8.7722342146
 30
0.0
 10
14.6086109588
 20
8.8292403586
 30
0.0
 10
14.6115884352
 20
8.8865121632
 30
0.0
 10
14.6153979677
 20
8.9438601442
 30
0.0
 10
14.6200269642
 20
9.0010945805
 30
0.0
 10
14.6254600902
 20
9.058026115
 30
0.0
 10
14.6316793353
 20
9.1144664054
 30
0.0
 10
14.638664065
 20
9.1702287438
 30
0.0
 10
14.6463910914
 20
9.2251286807
 30
0.0
 10
14.6548347471
 20
9.2789846463
 30
0.0
 10
14.6639669708
 20
9.3316185366
 30
0.0
 10
14.6737573902
 20
9.3828563896
 30
0.0
 10
14.684173451
 20
9.4325286935
 30
0.0
 10
14.6934244801
 20
9.4728236108
 30
0.0
 10
14.7011235028
 20
9.5041456442
 30
0.0
 10
14.7069819615
 20
9.5269407032
 30
0.0
 10
14.7129698832
 20
9.5492248325
 30
0.0
 10
14.7190823456
 20
9.5709796231
 30
0.0
 10
14.7253142675
 20
9.5921870859
 30
0.0
 10
14.731660476
 20
9.6128296932
 30
0.0
 10
14.7381157273
 20
9.6328903853
 30
0.0
 10
14.7446746357
 20
9.6523525938
 30
0.0
 10
14.7513318085
 20
9.6712002416
 30
0.0
 10
14.7580816672
 20
9.6894177799
 30
0.0
 10
14.7649186891
 20
9.7069901692
 30
0.0
 10
14.7718371249
 20
9.723902938
 30
0.0
 10
14.778831341
 20
9.7401421368
 30
0.0
 10
14.7858954445
 20
9.7556944273
 30
0.0
 10
14.7930237113
 20
9.7705470011
 30
0.0
 10
14.8002101389
 20
9.7846877062
 30
0.0
 10
14.8074489366
 20
9.7981049255
 30
0.0
 10
14.8147340375
 20
9.8107877429
 30
0.0
 10
14.8220596167
 20
9.8227257808
 30
0.0
 10
14.8294196048
 20
9.8339094005
 30
0.0
 10
14.836808193
 20
9.8443295055
 30
0.0
 10
14.8442193969
 20
9.8539777578
 30
0.0
 10
14.8516475053
 20
9.8628463582
 30
0.0
 10
14.8590867404
 20
9.870928244
 30
0.0
 10
14.8665316073
 20
9.878216861
 30
0.0
 10
14.8739766725
 20
9.8847062779
 30
0.0
 10
14.881416777
 20
9.8903909741
 30
0.0
 10
14.8888468258
 20
9.8952657769
 30
0.0
 10
14.8962620256
 20
9.8993257655
 30
0.0
 10
14.9036566384
 20
9.9025658931
 30
0.0
 10
14.9098516256
 20
9.9045963446
 30
0.0
 10
14.9147730381
 20
9.9057917293
 30
0.0
 10
14.9184226397
 20
9.9064741048
 30
0.0
 10
14.9220611775
 20
9.9069496569
 30
0.0
 10
14.9256879577
 20
9.9072182635
 30
0.0
 10
14.9293019584
 20
9.9072797595
 30
0.0
 10
14.9317038298
 20
9.907182586
 30
0.0
 10
14.9329002334
 20
9.9070996181
 30
0.0
  0
SPLINE
  5
34B
100
AcDbEntity
  8
0
100
AcDbSpline
 62
7
  6
CONTINUOUS
 70
0
 71
3
 72
39
 73
35
 74
0
 42
0.0000001
 43
0.0000001
 44
0.0000000001
 40
0.0
 40
0.0
 40
0.0
 40
0.0
 40
0.0299424718
 40
0.0599093198
 40
0.0899243266
 40
0.120010106
 40
0.1501875648
 40
0.1804754165
 40
0.2108897607
 40
0.2414437369
 40
0.2721472605
 40
0.3030068425
 40
0.334025494
 40
0.3652027127
 40
0.3965345473
 40
0.4280137326
 40
0.45962989
 40
0.4913697849
 40
0.5232176333
 40
0.5551554507
 40
0.5871634353
 40
0.6192203782
 40
0.6513040938
 40
0.6833918644
 40
0.7154608918
 40
0.7474887503
 40
0.779453834
 40
0.811335794
 40
0.8431159528
 40
0.8747777127
 40
0.9063068642
 40
0.9376920823
 40
0.9689247084
 40
1.0
 40
1.0
 40
1.0
 40
1.0
 10
9.0584569565
 20
9.4957268415
 30
0.0
 10
9.0654577964
 20
9.5024891333
 30
0.0
 10
9.0800099681
 20
9.5154679716
 30
0.0
 10
9.1033248149
 20
9.5331493402
 30
0.0
 10
9.1280070795
 20
9.5489553317
 30
0.0
 10
9.153918848
 20
9.562797279
 30
0.0
 10
9.1809176592
 20
9.5745995607
 30
0.0
 10
9.2088545093
 20
9.5842973001
 30
0.0
 10
9.2375754497
 20
9.5918374372
 30
0.0
 10
9.2669222486
 20
9.597178806
 30
0.0
 10
9.2967333279
 20
9.6002923929
 30
0.0
 10
9.3268446433
 20
9.6011614586
 30
0.0
 10
9.3570905905
 20
9.5997816127
 30
0.0
 10
9.3873049095
 20
9.5961608166
 30
0.0
 10
9.417321591
 20
9.5903193224
 30
0.0
 10
9.4469757772
 20
9.5822895484
 30
0.0
 10
9.4761046554
 20
9.5721158902
 30
0.0
 10
9.5045483391
 20
9.5598544697
 30
0.0
 10
9.5321507331
 20
9.5455728229
 30
0.0
 10
9.5587603795
 20
9.5293495296
 30
0.0
 10
9.584231277
 20
9.5112737798
 30
0.0
 10
9.6084236715
 20
9.4914448867
 30
0.0
 10
9.6312048142
 20
9.4699717454
 30
0.0
 10
9.6524496816
 20
9.4469722397
 30
0.0
 10
9.6720416542
 20
9.4225726022
 30
0.0
 10
9.6898731503
 20
9.3969067272
 30
0.0
 10
9.7058462125
 20
9.3701154464
 30
0.0
 10
9.7198730374
 20
9.342345759
 30
0.0
 10
9.7318764665
 20
9.3137500543
 30
0.0
 10
9.7417903777
 20
9.2844852205
 30
0.0
 10
9.749560128
 20
9.2547120313
 30
0.0
 10
9.7551426855
 20
9.2245933979
 30
0.0
 10
9.7585071818
 20
9.1942968766
 30
0.0
 10
9.7592607495
 20
9.174034531
 30
0.0
 10
9.7592607495
 20
9.1639328173
 30
0.0
  0
SPLINE
  5
34C
100
AcDbEntity
  8
0
100
AcDbSpline
 62
7
  6
CONTINUOUS
 70
0
 71
3
 72
23
 73
19
 74
0
 42
0.0000001
 43
0.0000001
 44
0.0000000001
 40
0.0
 40
0.0
 40
0.0
 40
0.0
 40
0.0617101474
 40
0.1234413955
 40
0.1852146445
 40
0.2470503579
 40
0.3089683497
 40
0.3709876176
 40
0.4331261373
 40
0.4954006609
 40
0.5578266186
 40
0.6204179142
 40
0.683186758
 40
0.746144003
 40
0.8092979488
 40
0.8726547572
 40
0.9362240079
 40
1.0
 40
1.0
 40
1.0
 40
1.0
 10
9.6448230969
 20
8.8886759793
 30
0.0
 10
9.6493543446
 20
8.8930528282
 30
0.0
 10
9.6581947639
 20
8.9020429987
 30
0.0
 10
9.6707467119
 20
8.9161948346
 30
0.0
 10
9.6825635666
 20
8.9309830695
 30
0.0
 10
9.6936175216
 20
8.9463731964
 30
0.0
 10
9.703883279
 20
8.9623297829
 30
0.0
 10
9.7133371935
 20
8.9788159613
 30
0.0
 10
9.7219574075
 20
8.9957937584
 30
0.0
 10
9.7297240928
 20
9.0132239898
 30
0.0
 10
9.7366194445
 20
9.0310664243
 30
0.0
 10
9.7426275253
 20
9.0492799384
 30
0.0
 10
9.7477345247
 20
9.0678225477
 30
0.0
 10
9.751928756
 20
9.086651478
 30
0.0
 10
9.7552005714
 20
9.1057232029
 30
0.0
 10
9.7575425452
 20
9.1249942813
 30
0.0
 10
9.7589490603
 20
9.1444192545
 30
0.0
 10
9.7592607495
 20
9.1574219959
 30
0.0
 10
9.7592607495
 20
9.1639328173
 30
0.0
  0
SPLINE
  5
34D
100
AcDbEntity
  8
0
100
AcDbSpline
 62
7
  6
CONTINUOUS
 70
0
 71
3
 72
39
 73
35
 74
0
 42
0.0000001
 43
0.0000001
 44
0.0000000001
 40
0.0
 40
0.0
 40
0.0
 40
0.0
 40
0.0299424718
 40
0.0599093198
 40
0.0899243266
 40
0.120010106
 40
0.1501875648
 40
0.1804754165
 40
0.2108897607
 40
0.2414437369
 40
0.2721472605
 40
0.3030068425
 40
0.334025494
 40
0.3652027127
 40
0.3965345473
 40
0.4280137326
 40
0.45962989
 40
0.4913697849
 40
0.5232176333
 40
0.5551554507
 40
0.5871634353
 40
0.6192203782
 40
0.6513040938
 40
0.6833918644
 40
0.7154608918
 40
0.7474887503
 40
0.779453834
 40
0.811335794
 40
0.8431159528
 40
0.8747777127
 40
0.9063068642
 40
0.9376920823
 40
0.9689247084
 40
1.0
 40
1.0
 40
1.0
 40
1.0
 10
11.956234607
 20
9.2947652789
 30
0.0
 10
11.963235447
 20
9.3015275707
 30
0.0
 10
11.9777876187
 20
9.314506409
 30
0.0
 10
12.0011024655
 20
9.3321877776
 30
0.0
 10
12.0257847301
 20
9.3479937691
 30
0.0
 10
12.0516964986
 20
9.3618357164
 30
0.0
 10
12.0786953097
 20
9.3736379981
 30
0.0
 10
12.1066321598
 20
9.3833357375
 30
0.0
 10
12.1353531003
 20
9.3908758745
 30
0.0
 10
12.1646998991
 20
9.3962172434
 30
0.0
 10
12.1945109784
 20
9.3993308303
 30
0.0
 10
12.2246222939
 20
9.400199896
 30
0.0
 10
12.2548682411
 20
9.3988200501
 30
0.0
 10
12.2850825601
 20
9.3951992539
 30
0.0
 10
12.3150992415
 20
9.3893577597
 30
0.0
 10
12.3447534277
 20
9.3813279858
 30
0.0
 10
12.3738823059
 20
9.3711543275
 30
0.0
 10
12.4023259896
 20
9.358892907
 30
0.0
 10
12.4299283837
 20
9.3446112603
 30
0.0
 10
12.4565380301
 20
9.328387967
 30
0.0
 10
12.4820089276
 20
9.3103122172
 30
0.0
 10
12.5062013221
 20
9.2904833241
 30
0.0
 10
12.5289824648
 20
9.2690101827
 30
0.0
 10
12.5502273321
 20
9.2460106771
 30
0.0
 10
12.5698193047
 20
9.2216110396
 30
0.0
 10
12.5876508009
 20
9.1959451646
 30
0.0
 10
12.6036238631
 20
9.1691538838
 30
0.0
 10
12.617650688
 20
9.1413841963
 30
0.0
 10
12.6296541171
 20
9.1127884917
 30
0.0
 10
12.6395680283
 20
9.0835236579
 30
0.0
 10
12.6473377786
 20
9.0537504687
 30
0.0
 10
12.6529203361
 20
9.0236318353
 30
0.0
 10
12.6562848324
 20
8.993335314
 30
0.0
 10
12.6570384001
 20
8.9730729683
 30
0.0
 10
12.6570384001
 20
8.9629712546
 30
0.0
  0
SPLINE
  5
34E
100
AcDbEntity
  8
0
100
AcDbSpline
 62
7
  6
CONTINUOUS
 70
0
 71
3
 72
23
 73
19
 74
0
 42
0.0000001
 43
0.0000001
 44
0.0000000001
 40
0.0
 40
0.0
 40
0.0
 40
0.0
 40
0.0617101474
 40
0.1234413955
 40
0.1852146445
 40
0.2470503579
 40
0.3089683497
 40
0.3709876176
 40
0.4331261373
 40
0.4954006609
 40
0.5578266186
 40
0.6204179142
 40
0.683186758
 40
0.746144003
 40
0.8092979488
 40
0.8726547572
 40
0.9362240079
 40
1.0
 40
1.0
 40
1.0
 40
1.0
 10
12.5426007475
 20
8.6877144167
 30
0.0
 10
12.5471319951
 20
8.6920912656
 30
0.0
 10
12.5559724145
 20
8.7010814361
 30
0.0
 10
12.5685243624
 20
8.7152332719
 30
0.0
 10
12.5803412172
 20
8.7300215069
 30
0.0
 10
12.5913951721
 20
8.7454116338
 30
0.0
 10
12.6016609296
 20
8.7613682203
 30
0.0
 10
12.6111148441
 20
8.7778543987
 30
0.0
 10
12.6197350581
 20
8.7948321958
 30
0.0
 10
12.6275017434
 20
8.8122624272
 30
0.0
 10
12.6343970951
 20
8.8301048617
 30
0.0
 10
12.6404051759
 20
8.8483183758
 30
0.0
 10
12.6455121753
 20
8.8668609851
 30
0.0
 10
12.6497064066
 20
8.8856899154
 30
0.0
 10
12.6529782219
 20
8.9047616403
 30
0.0
 10
12.6553201957
 20
8.9240327187
 30
0.0
 10
12.6567267109
 20
8.9434576919
 30
0.0
 10
12.6570384001
 20
8.9564604332
 30
0.0
 10
12.6570384001
 20
8.9629712546
 30
0.0
  0
SPLINE
  5
34F
100
AcDbEntity
  8
0
100
AcDbSpline
 62
7
  6
CONTINUOUS
 70
0
 71
3
 72
39
 73
35
 74
0
 42
0.0000001
 43
0.0000001
 44
0.0000000001
 40
0.0
 40
0.0
 40
0.0
 40
0.0
 40
0.031173668
 40
0.0624144919
 40
0.0937259763
 40
0.1251089834
 40
0.1565620197
 40
0.1880816331
 40
0.2196627627
 40
0.251299117
 40
0.2829835146
 40
0.3147080513
 40
0.3464643609
 40
0.3782437541
 40
0.4100372368
 40
0.4418354533
 40
0.473628618
 40
0.5054063701
 40
0.5371576413
 40
0.5688704708
 40
0.6005318193
 40
0.6321275252
 40
0.6636423726
 40
0.695060093
 40
0.7263635183
 40
0.7575348094
 40
0.7885556857
 40
0.8194077936
 40
0.8500730768
 40
0.8805338564
 40
0.9107729145
 40
0.9407739387
 40
0.9705210407
 40
1.0
 40
1.0
 40
1.0
 40
1.0
 10
12.6563787605
 20
8.9437468028
 30
0.0
 10
12.649242043
 20
8.9436432942
 30
0.0
 10
12.6349446198
 20
8.9438242042
 30
0.0
 10
12.6135230592
 20
8.9452534304
 30
0.0
 10
12.5921609644
 20
8.9478365943
 30
0.0
 10
12.5709200659
 20
8.9515676099
 30
0.0
 10
12.5498622705
 20
8.9564384442
 30
0.0
 10
12.5290509157
 20
8.9624390241
 30
0.0
 10
12.5085503098
 20
8.9695571274
 30
0.0
 10
12.4884257113
 20
8.9777781887
 30
0.0
 10
12.4687431788
 20
8.9870850365
 30
0.0
 10
12.4495693696
 20
8.9974574968
 30
0.0
 10
12.4309712973
 20
9.0088720087
 30
0.0
 10
12.413016
 20
9.0213011803
 30
0.0
 10
12.3957701094
 20
9.0347132741
 30
0.0
 10
12.3792992985
 20
9.0490716828
 30
0.0
 10
12.3636674781
 20
9.0643343298
 30
0.0
 10
12.3489359402
 20
9.0804533059
 30
0.0
 10
12.3351623381
 20
9.0973745857
 30
0.0
 10
12.3223995223
 20
9.1150379088
 30
0.0
 10
12.3106943514
 20
9.1333769485
 30
0.0
 10
12.3000863498
 20
9.1523197063
 30
0.0
 10
12.2906065905
 20
9.1717893272
 30
0.0
 10
12.2822768012
 20
9.1917052085
 30
0.0
 10
12.2751087259
 20
9.2119843224
 30
0.0
 10
12.2691038113
 20
9.2325427087
 30
0.0
 10
12.2642532862
 20
9.253297058
 30
0.0
 10
12.2605384222
 20
9.2741662439
 30
0.0
 10
12.2579315433
 20
9.2950727773
 30
0.0
 10
12.2563970378
 20
9.315943929
 30
0.0
 10
12.2558926746
 20
9.3367125711
 30
0.0
 10
12.2563707186
 20
9.357317882
 30
0.0
 10
12.2577790577
 20
9.3777051444
 30
0.0
 10
12.2593091461
 20
9.3911838269
 30
0.0
 10
12.2602128607
 20
9.3978725026
 30
0.0
  0
SPLINE
  5
350
100
AcDbEntity
  8
0
100
AcDbSpline
 62
7
  6
CONTINUOUS
 70
0
 71
3
 72
39
 73
35
 74
0
 42
0.0000001
 43
0.0000001
 44
0.0000000001
 40
0.0
 40
0.0
 40
0.0
 40
0.0
 40
0.0299424718
 40
0.0599093198
 40
0.0899243266
 40
0.120010106
 40
0.1501875648
 40
0.1804754165
 40
0.2108897607
 40
0.2414437369
 40
0.2721472605
 40
0.3030068425
 40
0.334025494
 40
0.3652027127
 40
0.3965345473
 40
0.4280137326
 40
0.45962989
 40
0.4913697849
 40
0.5232176333
 40
0.5551554507
 40
0.5871634353
 40
0.6192203782
 40
0.6513040938
 40
0.6833918644
 40
0.7154608918
 40
0.7474887503
 40
0.779453834
 40
0.811335794
 40
0.8431159528
 40
0.8747777127
 40
0.9063068642
 40
0.9376920823
 40
0.9689247084
 40
1.0
 40
1.0
 40
1.0
 40
1.0
 10
11.2298584826
 20
6.9303249254
 30
0.0
 10
11.2368593226
 20
6.9370872172
 30
0.0
 10
11.2514114943
 20
6.9500660555
 30
0.0
 10
11.2747263411
 20
6.9677474241
 30
0.0
 10
11.2994086057
 20
6.9835534156
 30
0.0
 10
11.3253203742
 20
6.9973953629
 30
0.0
 10
11.3523191853
 20
7.0091976446
 30
0.0
 10
11.3802560355
 20
7.018895384
 30
0.0
 10
11.4089769759
 20
7.0264355211
 30
0.0
 10
11.4383237747
 20
7.0317768899
 30
0.0
 10
11.4681348541
 20
7.0348904768
 30
0.0
 10
11.4982461695
 20
7.0357595425
 30
0.0
 10
11.5284921167
 20
7.0343796966
 30
0.0
 10
11.5587064357
 20
7.0307589004
 30
0.0
 10
11.5887231172
 20
7.0249174063
 30
0.0
 10
11.6183773034
 20
7.0168876323
 30
0.0
 10
11.6475061816
 20
7.006713974
 30
0.0
 10
11.6759498652
 20
6.9944525535
 30
0.0
 10
11.7035522593
 20
6.9801709068
 30
0.0
 10
11.7301619057
 20
6.9639476135
 30
0.0
 10
11.7556328032
 20
6.9458718637
 30
0.0
 10
11.7798251977
 20
6.9260429706
 30
0.0
 10
11.8026063404
 20
6.9045698292
 30
0.0
 10
11.8238512077
 20
6.8815703236
 30
0.0
 10
11.8434431803
 20
6.8571706861
 30
0.0
 10
11.8612746765
 20
6.8315048111
 30
0.0
 10
11.8772477387
 20
6.8047135303
 30
0.0
 10
11.8912745636
 20
6.7769438429
 30
0.0
 10
11.9032779927
 20
6.7483481382
 30
0.0
 10
11.9131919039
 20
6.7190833044
 30
0.0
 10
11.9209616542
 20
6.6893101152
 30
0.0
 10
11.9265442117
 20
6.6591914818
 30
0.0
 10
11.929908708
 20
6.6288949605
 30
0.0
 10
11.9306622757
 20
6.6086326149
 30
0.0
 10
11.9306622757
 20
6.5985309011
 30
0.0
  0
SPLINE
  5
351
100
AcDbEntity
  8
0
100
AcDbSpline
 62
7
  6
CONTINUOUS
 70
0
 71
3
 72
23
 73
19
 74
0
 42
0.0000001
 43
0.0000001
 44
0.0000000001
 40
0.0
 40
0.0
 40
0.0
 40
0.0
 40
0.0617101474
 40
0.1234413955
 40
0.1852146445
 40
0.2470503579
 40
0.3089683497
 40
0.3709876176
 40
0.4331261373
 40
0.4954006609
 40
0.5578266186
 40
0.6204179142
 40
0.683186758
 40
0.746144003
 40
0.8092979488
 40
0.8726547572
 40
0.9362240079
 40
1.0
 40
1.0
 40
1.0
 40
1.0
 10
11.8162246231
 20
6.3232740632
 30
0.0
 10
11.8207558707
 20
6.3276509121
 30
0.0
 10
11.8295962901
 20
6.3366410826
 30
0.0
 10
11.842148238
 20
6.3507929185
 30
0.0
 10
11.8539650928
 20
6.3655811534
 30
0.0
 10
11.8650190477
 20
6.3809712803
 30
0.0
 10
11.8752848052
 20
6.3969278668
 30
0.0
 10
11.8847387197
 20
6.4134140452
 30
0.0
 10
11.8933589337
 20
6.4303918423
 30
0.0
 10
11.901125619
 20
6.4478220737
 30
0.0
 10
11.9080209707
 20
6.4656645082
 30
0.0
 10
11.9140290515
 20
6.4838780223
 30
0.0
 10
11.9191360509
 20
6.5024206316
 30
0.0
 10
11.9233302822
 20
6.5212495619
 30
0.0
 10
11.9266020975
 20
6.5403212868
 30
0.0
 10
11.9289440714
 20
6.5595923652
 30
0.0
 10
11.9303505865
 20
6.5790173384
 30
0.0
 10
11.9306622757
 20
6.5920200797
 30
0.0
 10
11.9306622757
 20
6.5985309011
 30
0.0
  0
SPLINE
  5
352
100
AcDbEntity
  8
0
100
AcDbSpline
 62
7
  6
CONTINUOUS
 70
0
 71
3
 72
39
 73
35
 74
0
 42
0.0000001
 43
0.0000001
 44
0.0000000001
 40
0.0
 40
0.0
 40
0.0
 40
0.0
 40
0.0299424718
 40
0.0599093198
 40
0.0899243266
 40
0.120010106
 40
0.1501875648
 40
0.1804754165
 40
0.2108897607
 40
0.2414437369
 40
0.2721472605
 40
0.3030068425
 40
0.334025494
 40
0.3652027127
 40
0.3965345473
 40
0.4280137326
 40
0.45962989
 40
0.4913697849
 40
0.5232176333
 40
0.5551554507
 40
0.5871634353
 40
0.6192203782
 40
0.6513040938
 40
0.6833918644
 40
0.7154608918
 40
0.7474887503
 40
0.779453834
 40
0.811335794
 40
0.8431159528
 40
0.8747777127
 40
0.9063068642
 40
0.9376920823
 40
0.9689247084
 40
1.0
 40
1.0
 40
1.0
 40
1.0
 10
8.3320808321
 20
7.131286488
 30
0.0
 10
8.339081672
 20
7.1380487798
 30
0.0
 10
8.3536338437
 20
7.1510276182
 30
0.0
 10
8.3769486905
 20
7.1687089867
 30
0.0
 10
8.4016309551
 20
7.1845149782
 30
0.0
 10
8.4275427237
 20
7.1983569255
 30
0.0
 10
8.4545415348
 20
7.2101592072
 30
0.0
 10
8.4824783849
 20
7.2198569466
 30
0.0
 10
8.5111993253
 20
7.2273970837
 30
0.0
 10
8.5405461242
 20
7.2327384525
 30
0.0
 10
8.5703572035
 20
7.2358520394
 30
0.0
 10
8.600468519
 20
7.2367211051
 30
0.0
 10
8.6307144661
 20
7.2353412593
 30
0.0
 10
8.6609287851
 20
7.2317204631
 30
0.0
 10
8.6909454666
 20
7.2258789689
 30
0.0
 10
8.7205996528
 20
7.2178491949
 30
0.0
 10
8.749728531
 20
7.2076755367
 30
0.0
 10
8.7781722147
 20
7.1954141162
 30
0.0
 10
8.8057746087
 20
7.1811324694
 30
0.0
 10
8.8323842551
 20
7.1649091761
 30
0.0
 10
8.8578551526
 20
7.1468334263
 30
0.0
 10
8.8820475471
 20
7.1270045332
 30
0.0
 10
8.9048286899
 20
7.1055313919
 30
0.0
 10
8.9260735572
 20
7.0825318863
 30
0.0
 10
8.9456655298
 20
7.0581322487
 30
0.0
 10
8.9634970259
 20
7.0324663738
 30
0.0
 10
8.9794700882
 20
7.0056750929
 30
0.0
 10
8.993496913
 20
6.9779054055
 30
0.0
 10
9.0055003421
 20
6.9493097008
 30
0.0
 10
9.0154142534
 20
6.920044867
 30
0.0
 10
9.0231840036
 20
6.8902716778
 30
0.0
 10
9.0287665612
 20
6.8601530444
 30
0.0
 10
9.0321310575
 20
6.8298565231
 30
0.0
 10
9.0328846251
 20
6.8095941775
 30
0.0
 10
9.0328846251
 20
6.7994924638
 30
0.0
  0
SPLINE
  5
353
100
AcDbEntity
  8
0
100
AcDbSpline
 62
7
  6
CONTINUOUS
 70
0
 71
3
 72
23
 73
19
 74
0
 42
0.0000001
 43
0.0000001
 44
0.0000000001
 40
0.0
 40
0.0
 40
0.0
 40
0.0
 40
0.0617101474
 40
0.1234413955
 40
0.1852146445
 40
0.2470503579
 40
0.3089683497
 40
0.3709876176
 40
0.4331261373
 40
0.4954006609
 40
0.5578266186
 40
0.6204179142
 40
0.683186758
 40
0.746144003
 40
0.8092979488
 40
0.8726547572
 40
0.9362240079
 40
1.0
 40
1.0
 40
1.0
 40
1.0
 10
8.9184469725
 20
6.5242356258
 30
0.0
 10
8.9229782202
 20
6.5286124747
 30
0.0
 10
8.9318186395
 20
6.5376026452
 30
0.0
 10
8.9443705875
 20
6.5517544811
 30
0.0
 10
8.9561874423
 20
6.5665427161
 30
0.0
 10
8.9672413972
 20
6.581932843
 30
0.0
 10
8.9775071547
 20
6.5978894295
 30
0.0
 10
8.9869610691
 20
6.6143756078
 30
0.0
 10
8.9955812831
 20
6.6313534049
 30
0.0
 10
9.0033479685
 20
6.6487836363
 30
0.0
 10
9.0102433202
 20
6.6666260708
 30
0.0
 10
9.0162514009
 20
6.6848395849
 30
0.0
 10
9.0213584003
 20
6.7033821943
 30
0.0
 10
9.0255526317
 20
6.7222111245
 30
0.0
 10
9.028824447
 20
6.7412828494
 30
0.0
 10
9.0311664208
 20
6.7605539278
 30
0.0
 10
9.0325729359
 20
6.779978901
 30
0.0
 10
9.0328846251
 20
6.7929816424
 30
0.0
 10
9.0328846251
 20
6.7994924638
 30
0.0
  0
SPLINE
  5
354
100
AcDbEntity
  8
0
100
AcDbSpline
 62
7
  6
CONTINUOUS
 70
0
 71
3
 72
21
 73
17
 74
0
 42
0.0000001
 43
0.0000001
 44
0.0000000001
 40
0.0
 40
0.0
 40
0.0
 40
0.0
 40
0.1082358974
 40
0.1642879912
 40
0.2215963394
 40
0.2801386479
 40
0.3398872443
 40
0.4008134378
 40
0.4628901697
 40
0.5903599367
 40
0.655784706
 40
0.7223179374
 40
0.7899746802
 40
0.8587795459
 40
0.928771933
 40
1.0
 40
1.0
 40
1.0
 40
1.0
 10
8.7821100048
 20
7.1466047695
 30
0.0
 10
8.7764239788
 20
7.1469986199
 30
0.0
 10
8.7678253143
 20
7.1482383541
 30
0.0
 10
8.7564891032
 20
7.1510251092
 30
0.0
 10
8.7478473141
 20
7.15374255
 30
0.0
 10
8.7392088368
 20
7.1570569898
 30
0.0
 10
8.7306120119
 20
7.1609641306
 30
0.0
 10
8.7220963733
 20
7.1654597573
 30
0.0
 10
8.7108072501
 20
7.1722917581
 30
0.0
 10
8.6999459593
 20
7.1802470026
 30
0.0
 10
8.6896609015
 20
7.1892473427
 30
0.0
 10
8.68216608
 20
7.1966270106
 30
0.0
 10
8.6750037143
 20
7.2045706511
 30
0.0
 10
8.6682181062
 20
7.2130734919
 30
0.0
 10
8.6618558464
 20
7.2221282045
 30
0.0
 10
8.6579626167
 20
7.2284710115
 30
0.0
 10
8.6561011383
 20
7.2317273384
 30
0.0
  0
SPLINE
  5
355
100
AcDbEntity
  8
0
100
AcDbSpline
 62
7
  6
CONTINUOUS
 70
0
 71
3
 72
36
 73
32
 74
0
 42
0.0000001
 43
0.0000001
 44
0.0000000001
 40
0.0
 40
0.0
 40
0.0
 40
0.0
 40
0.0162143048
 40
0.0334273363
 40
0.0516716556
 40
0.0709707163
 40
0.0913401979
 40
0.1127892156
 40
0.13532147
 40
0.1589357362
 40
0.1836268569
 40
0.2093859311
 40
0.236200954
 40
0.2640570993
 40
0.2929369
 40
0.3228207324
 40
0.3536866939
 40
0.3855111001
 40
0.4182683916
 40
0.4519313784
 40
0.4864713931
 40
0.5218582276
 40
0.5580604815
 40
0.5950453717
 40
0.6327790535
 40
0.6712265605
 40
0.7103518611
 40
0.7501180517
 40
0.8314202535
 40
0.9148215003
 40
1.0
 40
1.0
 40
1.0
 40
1.0
 10
15.0804526555
 20
6.4077283196
 30
0.0
 10
15.0781233081
 20
6.410592372
 30
0.0
 10
15.0735171882
 20
6.416658208
 30
0.0
 10
15.0669483808
 20
6.4264246372
 30
0.0
 10
15.060523936
 20
6.4371146336
 30
0.0
 10
15.054250516
 20
6.4487169098
 30
0.0
 10
15.0481341851
 20
6.4612198578
 30
0.0
 10
15.0421811052
 20
6.4746106566
 30
0.0
 10
15.0363974691
 20
6.4888755935
 30
0.0
 10
15.0307891657
 20
6.503999907
 30
0.0
 10
15.0253621546
 20
6.5199679356
 30
0.0
 10
15.0201220685
 20
6.5367630478
 30
0.0
 10
15.0150744493
 20
6.5543677229
 30
0.0
 10
15.0102246576
 20
6.5727635541
 30
0.0
 10
15.0055777575
 20
6.5919312684
 30
0.0
 10
15.0011387584
 20
6.6118507699
 30
0.0
 10
14.9969122782
 20
6.6325011421
 30
0.0
 10
14.9929028621
 20
6.653860691
 30
0.0
 10
14.989114733
 20
6.6759069607
 30
0.0
 10
14.9855518977
 20
6.6986167632
 30
0.0
 10
14.9822181815
 20
6.7219662019
 30
0.0
 10
14.9791170517
 20
6.7459307027
 30
0.0
 10
14.976251872
 20
6.7704850316
 30
0.0
 10
14.9736256198
 20
6.7956033348
 30
0.0
 10
14.971241114
 20
6.821259158
 30
0.0
 10
14.9691008899
 20
6.8474254678
 30
0.0
 10
14.9672071639
 20
6.8740747215
 30
0.0
 10
14.9649974547
 20
6.9104814321
 30
0.0
 10
14.9628785625
 20
6.9569904589
 30
0.0
 10
14.9613628116
 20
7.0138667901
 30
0.0
 10
14.9610323509
 20
7.052250278
 30
0.0
 10
14.9610323509
 20
7.0716438659
 30
0.0
  0
SPLINE
  5
356
100
AcDbEntity
  8
0
100
AcDbSpline
 62
7
  6
CONTINUOUS
 70
0
 71
3
 72
11
 73
7
 74
0
 42
0.0000001
 43
0.0000001
 44
0.0000000001
 40
0.0
 40
0.0
 40
0.0
 40
0.0
 40
0.2579081487
 40
0.5091047379
 40
0.7557164262
 40
1.0
 40
1.0
 40
1.0
 40
1.0
 10
15.0498836886
 20
6.457630828
 30
0.0
 10
15.0516073087
 20
6.4567873491
 30
0.0
 10
15.0550840071
 20
6.4552684595
 30
0.0
 10
15.060432086
 20
6.4535054007
 30
0.0
 10
15.0658281304
 20
6.4522947406
 30
0.0
 10
15.069461612
 20
6.4518565319
 30
0.0
 10
15.0712748233
 20
6.4517307935
 30
0.0
  0
SPLINE
  5
357
100
AcDbEntity
  8
0
100
AcDbSpline
 62
7
  6
CONTINUOUS
 70
0
 71
3
 72
52
 73
48
 74
0
 42
0.0000001
 43
0.0000001
 44
0.0000000001
 40
0.0
 40
0.0
 40
0.0
 40
0.0
 40
0.0063158568
 40
0.0126706178
 40
0.0191024266
 40
0.0256479345
 40
0.0323417789
 40
0.0392160908
 40
0.0536138298
 40
0.0611945069
 40
0.0690562056
 40
0.0772172859
 40
0.0856936163
 40
0.094498959
 40
0.1036450353
 40
0.1131417384
 40
0.1229974561
 40
0.1332190303
 40
0.1438120572
 40
0.1547810415
 40
0.1661293353
 40
0.1778594655
 40
0.1899731041
 40
0.2024710934
 40
0.2153537091
 40
0.2286205088
 40
0.2422704818
 40
0.2563021821
 40
0.2707135511
 40
0.3006644045
 40
0.3320995118
 40
0.364988637
 40
0.399296387
 40
0.4349827261
 40
0.4720035166
 40
0.5103109065
 40
0.549853604
 40
0.5905771631
 40
0.632424299
 40
0.6753351168
 40
0.7192472758
 40
0.7640961515
 40
0.8098152405
 40
0.8563361104
 40
0.9035880427
 40
0.9515014724
 40
1.0
 40
1.0
 40
1.0
 40
1.0
 10
14.7945327125
 20
7.911891797
 30
0.0
 10
14.7928425239
 20
7.9120090079
 30
0.0
 10
14.7894597211
 20
7.91238248
 30
0.0
 10
14.7844234205
 20
7.9133559737
 30
0.0
 10
14.779420798
 20
7.9147427658
 30
0.0
 10
14.7744547467
 20
7.9165416504
 30
0.0
 10
14.7695272479
 20
7.9187516907
 30
0.0
 10
14.7629109395
 20
7.9222983618
 30
0.0
 10
14.7564742943
 20
7.9266400155
 30
0.0
 10
14.7502452729
 20
7.9316713316
 30
0.0
 10
14.7455402456
 20
7.9359133176
 30
0.0
 10
14.7408854929
 20
7.9405562108
 30
0.0
 10
14.7362821133
 20
7.9455982968
 30
0.0
 10
14.7317320444
 20
7.9510374488
 30
0.0
 10
14.7272369503
 20
7.9568714441
 30
0.0
 10
14.7227985083
 20
7.9630978651
 30
0.0
 10
14.7184185312
 20
7.9697142456
 30
0.0
 10
14.7140986721
 20
7.9767178589
 30
0.0
 10
14.7098406441
 20
7.9841058702
 30
0.0
 10
14.7056462175
 20
7.9918753117
 30
0.0
 10
14.7015169942
 20
8.0000229843
 30
0.0
 10
14.6974546972
 20
8.008545594
 30
0.0
 10
14.6934609929
 20
8.0174396678
 30
0.0
 10
14.6895374452
 20
8.0267015508
 30
0.0
 10
14.6856857365
 20
8.0363274801
 30
0.0
 10
14.6819074076
 20
8.0463135007
 30
0.0
 10
14.6782039951
 20
8.0566555105
 30
0.0
 10
14.6745770646
 20
8.0673492988
 30
0.0
 10
14.6697834752
 20
8.0822627416
 30
0.0
 10
14.6640075726
 20
8.1017612568
 30
0.0
 10
14.6574904863
 20
8.1261995384
 30
0.0
 10
14.6513122657
 20
8.1519290429
 30
0.0
 10
14.6454831821
 20
8.1789074339
 30
0.0
 10
14.6400129202
 20
8.2070904975
 30
0.0
 10
14.6349105904
 20
8.2364319121
 30
0.0
 10
14.6301847106
 20
8.2668834371
 30
0.0
 10
14.625843159
 20
8.2983949518
 30
0.0
 10
14.621893153
 20
8.3309145527
 30
0.0
 10
14.6183412767
 20
8.3643886608
 30
0.0
 10
14.6151934668
 20
8.3987621142
 30
0.0
 10
14.6124549676
 20
8.4339782342
 30
0.0
 10
14.6101303253
 20
8.4699789572
 30
0.0
 10
14.6082234264
 20
8.5067049239
 30
0.0
 10
14.6067374841
 20
8.5440954242
 30
0.0
 10
14.6056749144
 20
8.5820891943
 30
0.0
 10
14.6050375962
 20
8.620622981
 30
0.0
 10
14.6048976414
 20
8.6464860205
 30
0.0
 10
14.6048976414
 20
8.659495899
 30
0.0
  0
SPLINE
  5
358
100
AcDbEntity
  8
0
100
AcDbSpline
 62
7
  6
CONTINUOUS
 70
0
 71
3
 72
72
 73
68
 74
0
 42
0.0000001
 43
0.0000001
 44
0.0000000001
 40
0.0
 40
0.0
 40
0.0
 40
0.0
 40
0.0028080269
 40
0.0056357484
 40
0.0085023994
 40
0.0114263655
 40
0.0144248954
 40
0.0175138142
 40
0.0240150992
 40
0.0274548856
 40
0.0310331103
 40
0.0347582228
 40
0.038637415
 40
0.0426767077
 40
0.046881194
 40
0.0512550823
 40
0.0558017079
 40
0.0605237694
 40
0.0654233748
 40
0.075759731
 40
0.0868182127
 40
0.098598601
 40
0.1110954766
 40
0.1242989573
 40
0.1381953061
 40
0.1527676484
 40
0.1679961539
 40
0.1838584729
 40
0.2003300721
 40
0.2173842617
 40
0.2349925857
 40
0.2531249162
 40
0.2717495282
 40
0.2908334012
 40
0.3103422029
 40
0.3302404582
 40
0.3504917274
 40
0.3710585926
 40
0.4129848783
 40
0.4557069026
 40
0.4989035052
 40
0.542248869
 40
0.5854157291
 40
0.6280785651
 40
0.6699167822
 40
0.690429054
 40
0.7106188507
 40
0.7304489648
 40
0.7498830569
 40
0.7688859026
 40
0.7874234007
 40
0.8054626957
 40
0.82297243
 40
0.8399227074
 40
0.8562853711
 40
0.8720341902
 40
0.8871449021
 40
0.9015956586
 40
0.9153671668
 40
0.9284429885
 40
0.9408101529
 40
0.9524594887
 40
0.9633864448
 40
0.9735918993
 40
0.9830834872
 40
0.9918777842
 40
1.0
 40
1.0
 40
1.0
 40
1.0
 10
6.9581609904
 20
10.6719634153
 30
0.0
 10
6.958160997
 20
10.6712951383
 30
0.0
 10
6.9582195218
 20
10.669953174
 30
0.0
 10
6.9584825342
 20
10.66794449
 30
0.0
 10
6.9589205035
 20
10.6659382612
 30
0.0
 10
6.9595329616
 20
10.663935906
 30
0.0
 10
6.9603194965
 20
10.6619384309
 30
0.0
 10
6.9616212372
 20
10.6592375798
 30
0.0
 10
6.9632607546
 20
10.6565931703
 30
0.0
 10
6.9651915543
 20
10.6540182158
 30
0.0
 10
6.9668374013
 20
10.6520598641
 30
0.0
 10
6.9686525574
 20
10.6501122389
 30
0.0
 10
6.9706362356
 20
10.6481760022
 30
0.0
 10
6.9727873406
 20
10.6462520699
 30
0.0
 10
6.9751048373
 20
10.6443413538
 30
0.0
 10
6.9775875861
 20
10.6424447931
 30
0.0
 10
6.9802343101
 20
10.6405632561
 30
0.0
 10
6.9830437126
 20
10.6386976454
 30
0.0
 10
6.9870769143
 20
10.6361878432
 30
0.0
 10
6.9925260849
 20
10.6331049032
 30
0.0
 10
6.9995770771
 20
10.629547044
 30
0.0
 10
7.0072384976
 20
10.6260744453
 30
0.0
 10
7.0154950842
 20
10.6226941101
 30
0.0
 10
7.0243305397
 20
10.6194128212
 30
0.0
 10
7.0337272246
 20
10.6162371608
 30
0.0
 10
7.0436663562
 20
10.6131736307
 30
0.0
 10
7.0541279795
 20
10.6102284305
 30
0.0
 10
7.0650910536
 20
10.6074075368
 30
0.0
 10
7.0765335047
 20
10.6047167478
 30
0.0
 10
7.088432252
 20
10.6021614933
 30
0.0
 10
7.1007632829
 20
10.5997469962
 30
0.0
 10
7.1135016983
 20
10.5974781989
 30
0.0
 10
7.1266217568
 20
10.5953596737
 30
0.0
 10
7.1400969422
 20
10.5933957748
 30
0.0
 10
7.1539000124
 20
10.5915904888
 30
0.0
 10
7.168003047
 20
10.5899474686
 30
0.0
 10
7.1823775477
 20
10.5884700815
 30
0.0
 10
7.2019917409
 20
10.5867139404
 30
0.0
 10
7.2269730703
 20
10.5849602934
 30
0.0
 10
7.2573695474
 20
10.5835674268
 30
0.0
 10
7.2881280905
 20
10.5828844951
 30
0.0
 10
7.3189999933
 20
10.5829170812
 30
0.0
 10
7.3497358623
 20
10.5836649025
 30
0.0
 10
7.3800871743
 20
10.5851218438
 30
0.0
 10
7.4050165851
 20
10.5869284514
 30
0.0
 10
7.4245782117
 20
10.5887263682
 30
0.0
 10
7.4389054808
 20
10.5902341374
 30
0.0
 10
7.4529560533
 20
10.5919069099
 30
0.0
 10
7.4667015338
 20
10.5937413518
 30
0.0
 10
7.4801141239
 20
10.5957336843
 30
0.0
 10
7.4931667082
 20
10.5978798595
 30
0.0
 10
7.5058329041
 20
10.6001755393
 30
0.0
 10
7.5180871263
 20
10.6026159988
 30
0.0
 10
7.5299046267
 20
10.6051963032
 30
0.0
 10
7.5412615585
 20
10.6079111971
 30
0.0
 10
7.5521350298
 20
10.6107551099
 30
0.0
 10
7.5625031355
 20
10.6137223068
 30
0.0
 10
7.5723450385
 20
10.6168067113
 30
0.0
 10
7.5816410007
 20
10.6200020443
 30
0.0
 10
7.5903724156
 20
10.6233018827
 30
0.0
 10
7.5985219198
 20
10.6266994945
 30
0.0
 10
7.6060733795
 20
10.630188101
 30
0.0
 10
7.6130119472
 20
10.6337608369
 30
0.0
 10
7.6193241412
 20
10.6374106057
 30
0.0
 10
7.624998102
 20
10.6411308332
 30
0.0
 10
7.6300223554
 20
10.6449143418
 30
0.0
 10
7.6330491664
 20
10.6475772843
 30
0.0
 10
7.6344394788
 20
10.6489202231
 30
0.0
  0
SPLINE
  5
359
100
AcDbEntity
  8
0
100
AcDbSpline
 62
7
  6
CONTINUOUS
 70
0
 71
3
 72
72
 73
68
 74
0
 42
0.0000001
 43
0.0000001
 44
0.0000000001
 40
0.0
 40
0.0
 40
0.0
 40
0.0
 40
0.0028080269
 40
0.0056357484
 40
0.0085023994
 40
0.0114263655
 40
0.0144248954
 40
0.0175138142
 40
0.0240150992
 40
0.0274548856
 40
0.0310331103
 40
0.0347582228
 40
0.038637415
 40
0.0426767077
 40
0.046881194
 40
0.0512550823
 40
0.0558017079
 40
0.0605237694
 40
0.0654233748
 40
0.075759731
 40
0.0868182127
 40
0.098598601
 40
0.1110954766
 40
0.1242989573
 40
0.1381953061
 40
0.1527676484
 40
0.1679961539
 40
0.1838584729
 40
0.2003300721
 40
0.2173842617
 40
0.2349925857
 40
0.2531249162
 40
0.2717495282
 40
0.2908334012
 40
0.3103422029
 40
0.3302404582
 40
0.3504917274
 40
0.3710585926
 40
0.4129848783
 40
0.4557069026
 40
0.4989035052
 40
0.542248869
 40
0.5854157291
 40
0.6280785651
 40
0.6699167822
 40
0.690429054
 40
0.7106188507
 40
0.7304489648
 40
0.7498830569
 40
0.7688859026
 40
0.7874234007
 40
0.8054626957
 40
0.82297243
 40
0.8399227074
 40
0.8562853711
 40
0.8720341902
 40
0.8871449021
 40
0.9015956586
 40
0.9153671668
 40
0.9284429885
 40
0.9408101529
 40
0.9524594887
 40
0.9633864448
 40
0.9735918993
 40
0.9830834872
 40
0.9918777842
 40
1.0
 40
1.0
 40
1.0
 40
1.0
 10
13.4800924735
 20
10.2196659307
 30
0.0
 10
13.4800924801
 20
10.2189976537
 30
0.0
 10
13.4801510049
 20
10.2176556894
 30
0.0
 10
13.4804140173
 20
10.2156470055
 30
0.0
 10
13.4808519866
 20
10.2136407766
 30
0.0
 10
13.4814644447
 20
10.2116384215
 30
0.0
 10
13.4822509796
 20
10.2096409463
 30
0.0
 10
13.4835527203
 20
10.2069400953
 30
0.0
 10
13.4851922377
 20
10.2042956858
 30
0.0
 10
13.4871230374
 20
10.2017207312
 30
0.0
 10
13.4887688844
 20
10.1997623796
 30
0.0
 10
13.4905840405
 20
10.1978147544
 30
0.0
 10
13.4925677187
 20
10.1958785176
 30
0.0
 10
13.4947188237
 20
10.1939545853
 30
0.0
 10
13.4970363204
 20
10.1920438692
 30
0.0
 10
13.4995190692
 20
10.1901473085
 30
0.0
 10
13.5021657932
 20
10.1882657715
 30
0.0
 10
13.5049751957
 20
10.1864001608
 30
0.0
 10
13.5090083974
 20
10.1838903586
 30
0.0
 10
13.514457568
 20
10.1808074187
 30
0.0
 10
13.5215085602
 20
10.1772495594
 30
0.0
 10
13.5291699807
 20
10.1737769607
 30
0.0
 10
13.5374265672
 20
10.1703966256
 30
0.0
 10
13.5462620228
 20
10.1671153367
 30
0.0
 10
13.5556587077
 20
10.1639396763
 30
0.0
 10
13.5655978393
 20
10.1608761461
 30
0.0
 10
13.5760594626
 20
10.1579309459
 30
0.0
 10
13.5870225367
 20
10.1551100522
 30
0.0
 10
13.5984649878
 20
10.1524192632
 30
0.0
 10
13.6103637351
 20
10.1498640087
 30
0.0
 10
13.622694766
 20
10.1474495116
 30
0.0
 10
13.6354331814
 20
10.1451807143
 30
0.0
 10
13.6485532399
 20
10.1430621892
 30
0.0
 10
13.6620284253
 20
10.1410982902
 30
0.0
 10
13.6758314955
 20
10.1392930042
 30
0.0
 10
13.6899345301
 20
10.137649984
 30
0.0
 10
13.7043090308
 20
10.1361725969
 30
0.0
 10
13.723923224
 20
10.1344164558
 30
0.0
 10
13.7489045534
 20
10.1326628088
 30
0.0
 10
13.7793010305
 20
10.1312699422
 30
0.0
 10
13.8100595736
 20
10.1305870105
 30
0.0
 10
13.8409314764
 20
10.1306195966
 30
0.0
 10
13.8716673454
 20
10.1313674179
 30
0.0
 10
13.9020186574
 20
10.1328243593
 30
0.0
 10
13.9269480682
 20
10.1346309669
 30
0.0
 10
13.9465096948
 20
10.1364288837
 30
0.0
 10
13.9608369639
 20
10.1379366528
 30
0.0
 10
13.9748875364
 20
10.1396094254
 30
0.0
 10
13.9886330169
 20
10.1414438672
 30
0.0
 10
14.002045607
 20
10.1434361997
 30
0.0
 10
14.0150981913
 20
10.145582375
 30
0.0
 10
14.0277643872
 20
10.1478780547
 30
0.0
 10
14.0400186094
 20
10.1503185142
 30
0.0
 10
14.0518361098
 20
10.1528988186
 30
0.0
 10
14.0631930416
 20
10.1556137125
 30
0.0
 10
14.0740665129
 20
10.1584576253
 30
0.0
 10
14.0844346186
 20
10.1614248222
 30
0.0
 10
14.0942765216
 20
10.1645092267
 30
0.0
 10
14.1035724838
 20
10.1677045598
 30
0.0
 10
14.1123038987
 20
10.1710043981
 30
0.0
 10
14.1204534029
 20
10.1744020099
 30
0.0
 10
14.1280048626
 20
10.1778906164
 30
0.0
 10
14.1349434303
 20
10.1814633524
 30
0.0
 10
14.1412556243
 20
10.1851131211
 30
0.0
 10
14.1469295851
 20
10.1888333486
 30
0.0
 10
14.1519538385
 20
10.1926168572
 30
0.0
 10
14.1549806495
 20
10.1952797997
 30
0.0
 10
14.1563709619
 20
10.1966227385
 30
0.0
  0
SPLINE
  5
35A
100
AcDbEntity
  8
0
100
AcDbSpline
 62
7
  6
CONTINUOUS
 70
0
 71
3
 72
39
 73
35
 74
0
 42
0.0000001
 43
0.0000001
 44
0.0000000001
 40
0.0
 40
0.0
 40
0.0
 40
0.0
 40
0.0310752916
 40
0.0623079177
 40
0.0936931358
 40
0.1252222873
 40
0.1568840472
 40
0.188664206
 40
0.220546166
 40
0.2525112497
 40
0.2845391082
 40
0.3166081356
 40
0.3486959062
 40
0.3807796218
 40
0.4128365647
 40
0.4448445493
 40
0.4767823667
 40
0.5086302151
 40
0.54037011
 40
0.5719862674
 40
0.6034654527
 40
0.6347972873
 40
0.665974506
 40
0.6969931575
 40
0.7278527395
 40
0.7585562631
 40
0.7891102393
 40
0.8195245835
 40
0.8498124352
 40
0.879989894
 40
0.9100756734
 40
0.9400906802
 40
0.9700575282
 40
1.0
 40
1.0
 40
1.0
 40
1.0
 10
11.11542083
 20
6.6550680874
 30
0.0
 10
11.11542083
 20
6.6449663737
 30
0.0
 10
11.1161743977
 20
6.6247040281
 30
0.0
 10
11.119538894
 20
6.5944075068
 30
0.0
 10
11.1251214516
 20
6.5642888734
 30
0.0
 10
11.1328912018
 20
6.5345156842
 30
0.0
 10
11.142805113
 20
6.5052508504
 30
0.0
 10
11.1548085422
 20
6.4766551457
 30
0.0
 10
11.168835367
 20
6.4488854583
 30
0.0
 10
11.1848084293
 20
6.4220941774
 30
0.0
 10
11.2026399254
 20
6.3964283025
 30
0.0
 10
11.222231898
 20
6.3720286649
 30
0.0
 10
11.2434767653
 20
6.3490291593
 30
0.0
 10
11.266257908
 20
6.3275560179
 30
0.0
 10
11.2904503026
 20
6.3077271249
 30
0.0
 10
11.3159212
 20
6.2896513751
 30
0.0
 10
11.3425308465
 20
6.2734280817
 30
0.0
 10
11.3701332405
 20
6.259146435
 30
0.0
 10
11.3985769242
 20
6.2468850145
 30
0.0
 10
11.4277058024
 20
6.2367113563
 30
0.0
 10
11.4573599886
 20
6.2286815823
 30
0.0
 10
11.48737667
 20
6.2228400881
 30
0.0
 10
11.5175909891
 20
6.2192192919
 30
0.0
 10
11.5478369362
 20
6.2178394461
 30
0.0
 10
11.5779482517
 20
6.2187085118
 30
0.0
 10
11.607759331
 20
6.2218220986
 30
0.0
 10
11.6371061299
 20
6.2271634675
 30
0.0
 10
11.6658270703
 20
6.2347036046
 30
0.0
 10
11.6937639204
 20
6.244401344
 30
0.0
 10
11.7207627315
 20
6.2562036257
 30
0.0
 10
11.7466745001
 20
6.270045573
 30
0.0
 10
11.7713567647
 20
6.2858515644
 30
0.0
 10
11.7946716114
 20
6.303532933
 30
0.0
 10
11.8092237831
 20
6.3165117714
 30
0.0
 10
11.8162246231
 20
6.3232740632
 30
0.0
  0
SPLINE
  5
35B
100
AcDbEntity
  8
0
100
AcDbSpline
 62
7
  6
CONTINUOUS
 70
0
 71
3
 72
71
 73
67
 74
0
 42
0.0000001
 43
0.0000001
 44
0.0000000001
 40
0.0
 40
0.0
 40
0.0
 40
0.0
 40
0.0155840917
 40
0.0311160094
 40
0.0465952358
 40
0.0620238788
 40
0.0774034546
 40
0.0927362798
 40
0.1080251228
 40
0.1232731729
 40
0.1384840557
 40
0.1536617763
 40
0.1688106891
 40
0.1839354524
 40
0.1990409783
 40
0.2141323825
 40
0.2292149318
 40
0.2442939889
 40
0.2593749537
 40
0.2744632043
 40
0.2895640406
 40
0.3046826296
 40
0.31982395
 40
0.3349927393
 40
0.3501934439
 40
0.3654301767
 40
0.3807066774
 40
0.3960262751
 40
0.4113918558
 40
0.4268058386
 40
0.4422701579
 40
0.4577862475
 40
0.4733550294
 40
0.4889769098
 40
0.5046517841
 40
0.5203790419
 40
0.5361575761
 40
0.5519857968
 40
0.5678616538
 40
0.5837826606
 40
0.5997459179
 40
0.6157481418
 40
0.6317856993
 40
0.6478546438
 40
0.6639507501
 40
0.6800695513
 40
0.6962063816
 40
0.7123564192
 40
0.7285147269
 40
0.7446762936
 40
0.7608360801
 40
0.7769890643
 40
0.7931302834
 40
0.8092548754
 40
0.8253581235
 40
0.8414355
 40
0.8574827056
 40
0.873495706
 40
0.8894707699
 40
0.9054045147
 40
0.9212939128
 40
0.9371363668
 40
0.9529297321
 40
0.9686720133
 40
0.9843627856
 40
1.0
 40
1.0
 40
1.0
 40
1.0
 10
8.7750045332
 20
9.1952142618
 30
0.0
 10
8.7750045332
 20
9.2040489178
 30
0.0
 10
8.7754369281
 20
9.2216917832
 30
0.0
 10
8.7773885504
 20
9.2480448702
 30
0.0
 10
8.7806378767
 20
9.2741815605
 30
0.0
 10
8.7851767461
 20
9.3000376639
 30
0.0
 10
8.7909945767
 20
9.3255513816
 30
0.0
 10
8.798077302
 20
9.3506610404
 30
0.0
 10
8.806407887
 20
9.3753061529
 30
0.0
 10
8.8159663232
 20
9.3994272894
 30
0.0
 10
8.8267296491
 20
9.4229662607
 30
0.0
 10
8.8386719665
 20
9.445866286
 30
0.0
 10
8.8517644791
 20
9.4680721456
 30
0.0
 10
8.8659756482
 20
9.4895302742
 30
0.0
 10
8.8812712532
 20
9.5101888883
 30
0.0
 10
8.8976144479
 20
9.5299981242
 30
0.0
 10
8.9149657861
 20
9.5489102229
 30
0.0
 10
8.9332834184
 20
9.5668795699
 30
0.0
 10
8.9525231747
 20
9.5838628132
 30
0.0
 10
8.9726386738
 20
9.5998189548
 30
0.0
 10
8.993581358
 20
9.6147095526
 30
0.0
 10
9.015300692
 20
9.6284987296
 30
0.0
 10
9.0377442838
 20
9.6411532537
 30
0.0
 10
9.0608580137
 20
9.652642597
 30
0.0
 10
9.0845861136
 20
9.6629391099
 30
0.0
 10
9.1088713379
 20
9.6720180451
 30
0.0
 10
9.133655122
 20
9.6798575667
 30
0.0
 10
9.1588777163
 20
9.6864387962
 30
0.0
 10
9.1844783084
 20
9.6917459189
 30
0.0
 10
9.2103951746
 20
9.6957662536
 30
0.0
 10
9.2365658529
 20
9.6984901812
 30
0.0
 10
9.2629272824
 20
9.6999111807
 30
0.0
 10
9.2894159462
 20
9.7000258574
 30
0.0
 10
9.3159680292
 20
9.69883405
 30
0.0
 10
9.3425195786
 20
9.6963387036
 30
0.0
 10
9.3690066514
 20
9.6925458778
 30
0.0
 10
9.3953654565
 20
9.6874647173
 30
0.0
 10
9.4215325313
 20
9.6811075501
 30
0.0
 10
9.4474448841
 20
9.6734897574
 30
0.0
 10
9.4730401378
 20
9.6646297235
 30
0.0
 10
9.4982566658
 20
9.6545487804
 30
0.0
 10
9.5230337724
 20
9.6432712486
 30
0.0
 10
9.5473118371
 20
9.6308243459
 30
0.0
 10
9.5710324309
 20
9.6172380645
 30
0.0
 10
9.5941384484
 20
9.6025451055
 30
0.0
 10
9.6165742674
 20
9.5867808457
 30
0.0
 10
9.6382859166
 20
9.5699832876
 30
0.0
 10
9.6592211466
 20
9.5521928795
 30
0.0
 10
9.6793295586
 20
9.533452437
 30
0.0
 10
9.6985627229
 20
9.5138070472
 30
0.0
 10
9.7168743747
 20
9.4933040336
 30
0.0
 10
9.7342204442
 20
9.4719927541
 30
0.0
 10
9.7505591653
 20
9.449924495
 30
0.0
 10
9.7658511577
 20
9.4271523436
 30
0.0
 10
9.7800596189
 20
9.4037311268
 30
0.0
 10
9.7931503504
 20
9.3797172262
 30
0.0
 10
9.8050918147
 20
9.355168434
 30
0.0
 10
9.8158551965
 20
9.330143817
 30
0.0
 10
9.8254145561
 20
9.3047036115
 30
0.0
 10
9.8337468703
 20
9.2789090672
 30
0.0
 10
9.8408320513
 20
9.2528222778
 30
0.0
 10
9.8466529703
 20
9.2265059936
 30
0.0
 10
9.8511954526
 20
9.2000237456
 30
0.0
 10
9.8544487913
 20
9.1734387698
 30
0.0
 10
9.8564047031
 20
9.1468163051
 30
0.0
 10
9.8568415227
 20
9.1290533831
 30
0.0
 10
9.8568415227
 20
9.1201886118
 30
0.0
  0
SPLINE
  5
35C
100
AcDbEntity
  8
0
100
AcDbSpline
 62
7
  6
CONTINUOUS
 70
0
 71
3
 72
23
 73
19
 74
0
 42
0.0000001
 43
0.0000001
 44
0.0000000001
 40
0.0
 40
0.0
 40
0.0
 40
0.0
 40
0.0637759921
 40
0.1273452428
 40
0.1907020512
 40
0.253855997
 40
0.316813242
 40
0.3795820858
 40
0.4421733814
 40
0.5045993391
 40
0.5668738627
 40
0.6290123824
 40
0.6910316503
 40
0.7529496421
 40
0.8147853555
 40
0.8765586045
 40
0.9382898526
 40
1.0
 40
1.0
 40
1.0
 40
1.0
 10
8.2176431795
 20
6.8560296501
 30
0.0
 10
8.2176431795
 20
6.8625404714
 30
0.0
 10
8.2179548687
 20
6.8755432128
 30
0.0
 10
8.2193613838
 20
6.894968186
 30
0.0
 10
8.2217033576
 20
6.9142392644
 30
0.0
 10
8.2249751729
 20
6.9333109893
 30
0.0
 10
8.2291694043
 20
6.9521399196
 30
0.0
 10
8.2342764037
 20
6.9706825289
 30
0.0
 10
8.2402844844
 20
6.988896043
 30
0.0
 10
8.2471798361
 20
7.0067384775
 30
0.0
 10
8.2549465215
 20
7.0241687089
 30
0.0
 10
8.2635667355
 20
7.041146506
 30
0.0
 10
8.27302065
 20
7.0576326844
 30
0.0
 10
8.2832864074
 20
7.0735892709
 30
0.0
 10
8.2943403623
 20
7.0889793978
 30
0.0
 10
8.3061572171
 20
7.1037676327
 30
0.0
 10
8.3187091651
 20
7.1179194686
 30
0.0
 10
8.3275495844
 20
7.1269096391
 30
0.0
 10
8.3320808321
 20
7.131286488
 30
0.0
  0
SPLINE
  5
35D
100
AcDbEntity
  8
0
100
AcDbSpline
 62
7
  6
CONTINUOUS
 70
0
 71
3
 72
18
 73
14
 74
0
 42
0.0000001
 43
0.0000001
 44
0.0000000001
 40
0.0
 40
0.0
 40
0.0
 40
0.0
 40
0.1480356372
 40
0.2876662502
 40
0.4195655771
 40
0.4828973127
 40
0.5446380375
 40
0.6638657774
 40
0.7785237916
 40
0.8345984481
 40
0.8900706527
 40
0.9451373023
 40
1.0
 40
1.0
 40
1.0
 40
1.0
 10
6.969882471
 20
10.6950074081
 30
0.0
 10
6.9689395888
 20
10.6940966538
 30
0.0
 10
6.967162635
 20
10.692268009
 30
0.0
 10
6.9647734012
 20
10.6894181595
 30
0.0
 10
6.963059653
 20
10.6869930143
 30
0.0
 10
6.9618794468
 20
10.6850464563
 30
0.0
 10
6.9608487308
 20
10.6831435845
 30
0.0
 10
6.9597776469
 20
10.6807491641
 30
0.0
 10
6.9589955587
 20
10.6782968759
 30
0.0
 10
6.9585614136
 20
10.6763402646
 30
0.0
 10
6.958330414
 20
10.6748820325
 30
0.0
 10
6.9581918073
 20
10.6734229967
 30
0.0
 10
6.9581609855
 20
10.6724492468
 30
0.0
 10
6.9581609904
 20
10.6719634153
 30
0.0
  0
SPLINE
  5
35E
100
AcDbEntity
  8
0
100
AcDbSpline
 62
7
  6
CONTINUOUS
 70
0
 71
3
 72
23
 73
19
 74
0
 42
0.0000001
 43
0.0000001
 44
0.0000000001
 40
0.0
 40
0.0
 40
0.0
 40
0.0
 40
0.0637759921
 40
0.1273452428
 40
0.1907020512
 40
0.253855997
 40
0.316813242
 40
0.3795820858
 40
0.4421733814
 40
0.5045993391
 40
0.5668738627
 40
0.6290123824
 40
0.6910316503
 40
0.7529496421
 40
0.8147853555
 40
0.8765586045
 40
0.9382898526
 40
1.0
 40
1.0
 40
1.0
 40
1.0
 10
8.9440193038
 20
9.2204700035
 30
0.0
 10
8.9440193038
 20
9.2269808249
 30
0.0
 10
8.944330993
 20
9.2399835663
 30
0.0
 10
8.9457375082
 20
9.2594085395
 30
0.0
 10
8.948079482
 20
9.2786796179
 30
0.0
 10
8.9513512973
 20
9.2977513428
 30
0.0
 10
8.9555455287
 20
9.316580273
 30
0.0
 10
8.9606525281
 20
9.3351228824
 30
0.0
 10
8.9666606088
 20
9.3533363965
 30
0.0
 10
8.9735559605
 20
9.371178831
 30
0.0
 10
8.9813226459
 20
9.3886090624
 30
0.0
 10
8.9899428598
 20
9.4055868595
 30
0.0
 10
8.9993967743
 20
9.4220730378
 30
0.0
 10
9.0096625318
 20
9.4380296243
 30
0.0
 10
9.0207164867
 20
9.4534197512
 30
0.0
 10
9.0325333415
 20
9.4682079862
 30
0.0
 10
9.0450852895
 20
9.4823598221
 30
0.0
 10
9.0539257088
 20
9.4913499926
 30
0.0
 10
9.0584569565
 20
9.4957268415
 30
0.0
  0
SPLINE
  5
35F
100
AcDbEntity
  8
0
100
AcDbSpline
 62
7
  6
CONTINUOUS
 70
0
 71
3
 72
71
 73
67
 74
0
 42
0.0000001
 43
0.0000001
 44
0.0000000001
 40
0.0
 40
0.0
 40
0.0
 40
0.0
 40
0.0155840917
 40
0.0311160094
 40
0.0465952358
 40
0.0620238788
 40
0.0774034546
 40
0.0927362798
 40
0.1080251228
 40
0.1232731729
 40
0.1384840557
 40
0.1536617763
 40
0.1688106891
 40
0.1839354524
 40
0.1990409783
 40
0.2141323825
 40
0.2292149318
 40
0.2442939889
 40
0.2593749537
 40
0.2744632043
 40
0.2895640406
 40
0.3046826296
 40
0.31982395
 40
0.3349927393
 40
0.3501934439
 40
0.3654301767
 40
0.3807066774
 40
0.3960262751
 40
0.4113918558
 40
0.4268058386
 40
0.4422701579
 40
0.4577862475
 40
0.4733550294
 40
0.4889769098
 40
0.5046517841
 40
0.5203790419
 40
0.5361575761
 40
0.5519857968
 40
0.5678616538
 40
0.5837826606
 40
0.5997459179
 40
0.6157481418
 40
0.6317856993
 40
0.6478546438
 40
0.6639507501
 40
0.6800695513
 40
0.6962063816
 40
0.7123564192
 40
0.7285147269
 40
0.7446762936
 40
0.7608360801
 40
0.7769890643
 40
0.7931302834
 40
0.8092548754
 40
0.8253581235
 40
0.8414355
 40
0.8574827056
 40
0.873495706
 40
0.8894707699
 40
0.9054045147
 40
0.9212939128
 40
0.9371363668
 40
0.9529297321
 40
0.9686720133
 40
0.9843627856
 40
1.0
 40
1.0
 40
1.0
 40
1.0
 10
9.8568415227
 20
9.1201886118
 30
0.0
 10
9.8568415227
 20
9.1113539558
 30
0.0
 10
9.8564091277
 20
9.0937110904
 30
0.0
 10
9.8544575055
 20
9.0673580034
 30
0.0
 10
9.8512081792
 20
9.0412213132
 30
0.0
 10
9.8466693098
 20
9.0153652098
 30
0.0
 10
9.8408514792
 20
8.989851492
 30
0.0
 10
9.8337687539
 20
8.9647418332
 30
0.0
 10
9.8254381689
 20
8.9400967208
 30
0.0
 10
9.8158797326
 20
8.9159755842
 30
0.0
 10
9.8051164068
 20
8.8924366129
 30
0.0
 10
9.7931740894
 20
8.8695365876
 30
0.0
 10
9.7800815768
 20
8.847330728
 30
0.0
 10
9.7658704077
 20
8.8258725994
 30
0.0
 10
9.7505748027
 20
8.8052139854
 30
0.0
 10
9.734231608
 20
8.7854047494
 30
0.0
 10
9.7168802698
 20
8.7664926508
 30
0.0
 10
9.6985626375
 20
8.7485233037
 30
0.0
 10
9.6793228812
 20
8.7315400604
 30
0.0
 10
9.6592073821
 20
8.7155839189
 30
0.0
 10
9.6382646979
 20
8.7006933211
 30
0.0
 10
9.6165453639
 20
8.686904144
 30
0.0
 10
9.5941017721
 20
8.67424962
 30
0.0
 10
9.5709880422
 20
8.6627602766
 30
0.0
 10
9.5472599423
 20
8.6524637638
 30
0.0
 10
9.522974718
 20
8.6433848286
 30
0.0
 10
9.4981909338
 20
8.635545307
 30
0.0
 10
9.4729683395
 20
8.6289640775
 30
0.0
 10
9.4473677475
 20
8.6236569547
 30
0.0
 10
9.4214508813
 20
8.6196366201
 30
0.0
 10
9.3952802029
 20
8.6169126925
 30
0.0
 10
9.3689187735
 20
8.615491693
 30
0.0
 10
9.3424301097
 20
8.6153770162
 30
0.0
 10
9.3158780267
 20
8.6165688236
 30
0.0
 10
9.2893264773
 20
8.6190641701
 30
0.0
 10
9.2628394045
 20
8.6228569958
 30
0.0
 10
9.2364805994
 20
8.6279381563
 30
0.0
 10
9.2103135246
 20
8.6342953235
 30
0.0
 10
9.1844011718
 20
8.6419131162
 30
0.0
 10
9.1588059181
 20
8.6507731501
 30
0.0
 10
9.1335893901
 20
8.6608540932
 30
0.0
 10
9.1088122835
 20
8.672131625
 30
0.0
 10
9.0845342187
 20
8.6845785278
 30
0.0
 10
9.060813625
 20
8.6981648092
 30
0.0
 10
9.0377076075
 20
8.7128577681
 30
0.0
 10
9.0152717885
 20
8.7286220279
 30
0.0
 10
8.9935601393
 20
8.745419586
 30
0.0
 10
8.9726249093
 20
8.7632099941
 30
0.0
 10
8.9525164973
 20
8.7819504366
 30
0.0
 10
8.933283333
 20
8.8015958265
 30
0.0
 10
8.9149716812
 20
8.82209884
 30
0.0
 10
8.8976256117
 20
8.8434101196
 30
0.0
 10
8.8812868906
 20
8.8654783786
 30
0.0
 10
8.8659948982
 20
8.88825053
 30
0.0
 10
8.851786437
 20
8.9116717468
 30
0.0
 10
8.8386957055
 20
8.9356856474
 30
0.0
 10
8.8267542412
 20
8.9602344397
 30
0.0
 10
8.8159908594
 20
8.9852590566
 30
0.0
 10
8.8064314998
 20
9.0106992622
 30
0.0
 10
8.7980991856
 20
9.0364938065
 30
0.0
 10
8.7910140046
 20
9.0625805958
 30
0.0
 10
8.7851930856
 20
9.08889688
 30
0.0
 10
8.7806506033
 20
9.1153791281
 30
0.0
 10
8.7773972645
 20
9.1419641039
 30
0.0
 10
8.7754413528
 20
9.1685865686
 30
0.0
 10
8.7750045332
 20
9.1863494905
 30
0.0
 10
8.7750045332
 20
9.1952142618
 30
0.0
  0
SPLINE
  5
360
100
AcDbEntity
  8
0
100
AcDbSpline
 62
7
  6
CONTINUOUS
 70
0
 71
3
 72
18
 73
14
 74
0
 42
0.0000001
 43
0.0000001
 44
0.0000000001
 40
0.0
 40
0.0
 40
0.0
 40
0.0
 40
0.1480356372
 40
0.2876662502
 40
0.4195655771
 40
0.4828973127
 40
0.5446380375
 40
0.6638657774
 40
0.7785237916
 40
0.8345984481
 40
0.8900706527
 40
0.9451373023
 40
1.0
 40
1.0
 40
1.0
 40
1.0
 10
13.4918139541
 20
10.2427099235
 30
0.0
 10
13.4908710719
 20
10.2417991692
 30
0.0
 10
13.4890941181
 20
10.2399705244
 30
0.0
 10
13.4867048843
 20
10.237120675
 30
0.0
 10
13.4849911361
 20
10.2346955298
 30
0.0
 10
13.4838109299
 20
10.2327489718
 30
0.0
 10
13.4827802139
 20
10.2308460999
 30
0.0
 10
13.48170913
 20
10.2284516795
 30
0.0
 10
13.4809270418
 20
10.2259993914
 30
0.0
 10
13.4804928967
 20
10.22404278
 30
0.0
 10
13.4802618971
 20
10.222584548
 30
0.0
 10
13.4801232904
 20
10.2211255121
 30
0.0
 10
13.4800924686
 20
10.2201517622
 30
0.0
 10
13.4800924735
 20
10.2196659307
 30
0.0
  0
SPLINE
  5
361
100
AcDbEntity
  8
0
100
AcDbSpline
 62
7
  6
CONTINUOUS
 70
0
 71
3
 72
71
 73
67
 74
0
 42
0.0000001
 43
0.0000001
 44
0.0000000001
 40
0.0
 40
0.0
 40
0.0
 40
0.0
 40
0.0155840917
 40
0.0311160094
 40
0.0465952358
 40
0.0620238788
 40
0.0774034546
 40
0.0927362798
 40
0.1080251228
 40
0.1232731729
 40
0.1384840557
 40
0.1536617763
 40
0.1688106891
 40
0.1839354524
 40
0.1990409783
 40
0.2141323825
 40
0.2292149318
 40
0.2442939889
 40
0.2593749537
 40
0.2744632043
 40
0.2895640406
 40
0.3046826296
 40
0.31982395
 40
0.3349927393
 40
0.3501934439
 40
0.3654301767
 40
0.3807066774
 40
0.3960262751
 40
0.4113918558
 40
0.4268058386
 40
0.4422701579
 40
0.4577862475
 40
0.4733550294
 40
0.4889769098
 40
0.5046517841
 40
0.5203790419
 40
0.5361575761
 40
0.5519857968
 40
0.5678616538
 40
0.5837826606
 40
0.5997459179
 40
0.6157481418
 40
0.6317856993
 40
0.6478546438
 40
0.6639507501
 40
0.6800695513
 40
0.6962063816
 40
0.7123564192
 40
0.7285147269
 40
0.7446762936
 40
0.7608360801
 40
0.7769890643
 40
0.7931302834
 40
0.8092548754
 40
0.8253581235
 40
0.8414355
 40
0.8574827056
 40
0.873495706
 40
0.8894707699
 40
0.9054045147
 40
0.9212939128
 40
0.9371363668
 40
0.9529297321
 40
0.9686720133
 40
0.9843627856
 40
1.0
 40
1.0
 40
1.0
 40
1.0
 10
8.0486284088
 20
6.8307739084
 30
0.0
 10
8.0486284088
 20
6.8396085643
 30
0.0
 10
8.0490608038
 20
6.8572514298
 30
0.0
 10
8.051012426
 20
6.8836045167
 30
0.0
 10
8.0542617523
 20
6.909741207
 30
0.0
 10
8.0588006217
 20
6.9355973104
 30
0.0
 10
8.0646184523
 20
6.9611110282
 30
0.0
 10
8.0717011776
 20
6.9862206869
 30
0.0
 10
8.0800317626
 20
7.0108657994
 30
0.0
 10
8.0895901989
 20
7.0349869359
 30
0.0
 10
8.1003535247
 20
7.0585259072
 30
0.0
 10
8.1122958421
 20
7.0814259326
 30
0.0
 10
8.1253883547
 20
7.1036317922
 30
0.0
 10
8.1395995238
 20
7.1250899207
 30
0.0
 10
8.1548951288
 20
7.1457485348
 30
0.0
 10
8.1712383235
 20
7.1655577707
 30
0.0
 10
8.1885896617
 20
7.1844698694
 30
0.0
 10
8.206907294
 20
7.2024392164
 30
0.0
 10
8.2261470503
 20
7.2194224597
 30
0.0
 10
8.2462625494
 20
7.2353786013
 30
0.0
 10
8.2672052336
 20
7.2502691991
 30
0.0
 10
8.2889245676
 20
7.2640583761
 30
0.0
 10
8.3113681594
 20
7.2767129002
 30
0.0
 10
8.3344818893
 20
7.2882022435
 30
0.0
 10
8.3582099892
 20
7.2984987564
 30
0.0
 10
8.3824952135
 20
7.3075776916
 30
0.0
 10
8.4072789977
 20
7.3154172132
 30
0.0
 10
8.432501592
 20
7.3219984427
 30
0.0
 10
8.458102184
 20
7.3273055654
 30
0.0
 10
8.4840190502
 20
7.3313259001
 30
0.0
 10
8.5101897286
 20
7.3340498277
 30
0.0
 10
8.536551158
 20
7.3354708272
 30
0.0
 10
8.5630398218
 20
7.3355855039
 30
0.0
 10
8.5895919048
 20
7.3343936965
 30
0.0
 10
8.6161434542
 20
7.3318983501
 30
0.0
 10
8.642630527
 20
7.3281055243
 30
0.0
 10
8.6689893321
 20
7.3230243639
 30
0.0
 10
8.6951564069
 20
7.3166671967
 30
0.0
 10
8.7210687597
 20
7.3090494039
 30
0.0
 10
8.7466640134
 20
7.30018937
 30
0.0
 10
8.7718805414
 20
7.2901084269
 30
0.0
 10
8.796657648
 20
7.2788308951
 30
0.0
 10
8.8209357128
 20
7.2663839924
 30
0.0
 10
8.8446563065
 20
7.252797711
 30
0.0
 10
8.867762324
 20
7.2381047521
 30
0.0
 10
8.890198143
 20
7.2223404922
 30
0.0
 10
8.9119097922
 20
7.2055429341
 30
0.0
 10
8.9328450222
 20
7.1877525261
 30
0.0
 10
8.9529534342
 20
7.1690120835
 30
0.0
 10
8.9721865985
 20
7.1493666937
 30
0.0
 10
8.9904982503
 20
7.1288636801
 30
0.0
 10
9.0078443198
 20
7.1075524006
 30
0.0
 10
9.0241830409
 20
7.0854841416
 30
0.0
 10
9.0394750333
 20
7.0627119901
 30
0.0
 10
9.0536834945
 20
7.0392907733
 30
0.0
 10
9.066774226
 20
7.0152768728
 30
0.0
 10
9.0787156903
 20
6.9907280805
 30
0.0
 10
9.0894790721
 20
6.9657034635
 30
0.0
 10
9.0990384317
 20
6.940263258
 30
0.0
 10
9.1073707459
 20
6.9144687137
 30
0.0
 10
9.1144559269
 20
6.8883819243
 30
0.0
 10
9.1202768459
 20
6.8620656401
 30
0.0
 10
9.1248193282
 20
6.8355833921
 30
0.0
 10
9.128072667
 20
6.8089984163
 30
0.0
 10
9.1300285787
 20
6.7823759516
 30
0.0
 10
9.1304653983
 20
6.7646130296
 30
0.0
 10
9.1304653983
 20
6.7557482583
 30
0.0
  0
SPLINE
  5
362
100
AcDbEntity
  8
0
100
AcDbSpline
 62
7
  6
CONTINUOUS
 70
0
 71
3
 72
71
 73
67
 74
0
 42
0.0000001
 43
0.0000001
 44
0.0000000001
 40
0.0
 40
0.0
 40
0.0
 40
0.0
 40
0.0155840917
 40
0.0311160094
 40
0.0465952358
 40
0.0620238788
 40
0.0774034546
 40
0.0927362798
 40
0.1080251228
 40
0.1232731729
 40
0.1384840557
 40
0.1536617763
 40
0.1688106891
 40
0.1839354524
 40
0.1990409783
 40
0.2141323825
 40
0.2292149318
 40
0.2442939889
 40
0.2593749537
 40
0.2744632043
 40
0.2895640406
 40
0.3046826296
 40
0.31982395
 40
0.3349927393
 40
0.3501934439
 40
0.3654301767
 40
0.3807066774
 40
0.3960262751
 40
0.4113918558
 40
0.4268058386
 40
0.4422701579
 40
0.4577862475
 40
0.4733550294
 40
0.4889769098
 40
0.5046517841
 40
0.5203790419
 40
0.5361575761
 40
0.5519857968
 40
0.5678616538
 40
0.5837826606
 40
0.5997459179
 40
0.6157481418
 40
0.6317856993
 40
0.6478546438
 40
0.6639507501
 40
0.6800695513
 40
0.6962063816
 40
0.7123564192
 40
0.7285147269
 40
0.7446762936
 40
0.7608360801
 40
0.7769890643
 40
0.7931302834
 40
0.8092548754
 40
0.8253581235
 40
0.8414355
 40
0.8574827056
 40
0.873495706
 40
0.8894707699
 40
0.9054045147
 40
0.9212939128
 40
0.9371363668
 40
0.9529297321
 40
0.9686720133
 40
0.9843627856
 40
1.0
 40
1.0
 40
1.0
 40
1.0
 10
11.6727821837
 20
8.9942526992
 30
0.0
 10
11.6727821837
 20
9.0030873552
 30
0.0
 10
11.6732145787
 20
9.0207302206
 30
0.0
 10
11.675166201
 20
9.0470833076
 30
0.0
 10
11.6784155273
 20
9.0732199978
 30
0.0
 10
11.6829543967
 20
9.0990761013
 30
0.0
 10
11.6887722272
 20
9.124589819
 30
0.0
 10
11.6958549525
 20
9.1496994778
 30
0.0
 10
11.7041855376
 20
9.1743445902
 30
0.0
 10
11.7137439738
 20
9.1984657268
 30
0.0
 10
11.7245072997
 20
9.2220046981
 30
0.0
 10
11.7364496171
 20
9.2449047234
 30
0.0
 10
11.7495421297
 20
9.267110583
 30
0.0
 10
11.7637532988
 20
9.2885687116
 30
0.0
 10
11.7790489038
 20
9.3092273256
 30
0.0
 10
11.7953920985
 20
9.3290365616
 30
0.0
 10
11.8127434366
 20
9.3479486602
 30
0.0
 10
11.831061069
 20
9.3659180073
 30
0.0
 10
11.8503008253
 20
9.3829012506
 30
0.0
 10
11.8704163244
 20
9.3988573922
 30
0.0
 10
11.8913590086
 20
9.4137479899
 30
0.0
 10
11.9130783426
 20
9.427537167
 30
0.0
 10
11.9355219344
 20
9.4401916911
 30
0.0
 10
11.9586356642
 20
9.4516810344
 30
0.0
 10
11.9823637642
 20
9.4619775473
 30
0.0
 10
12.0066489885
 20
9.4710564824
 30
0.0
 10
12.0314327726
 20
9.478896004
 30
0.0
 10
12.0566553669
 20
9.4854772335
 30
0.0
 10
12.082255959
 20
9.4907843563
 30
0.0
 10
12.1081728252
 20
9.494804691
 30
0.0
 10
12.1343435035
 20
9.4975286185
 30
0.0
 10
12.160704933
 20
9.498949618
 30
0.0
 10
12.1871935968
 20
9.4990642948
 30
0.0
 10
12.2137456798
 20
9.4978724874
 30
0.0
 10
12.2402972292
 20
9.4953771409
 30
0.0
 10
12.2667843019
 20
9.4915843152
 30
0.0
 10
12.2931431071
 20
9.4865031547
 30
0.0
 10
12.3193101819
 20
9.4801459875
 30
0.0
 10
12.3452225347
 20
9.4725281948
 30
0.0
 10
12.3708177884
 20
9.4636681609
 30
0.0
 10
12.3960343163
 20
9.4535872178
 30
0.0
 10
12.4208114229
 20
9.442309686
 30
0.0
 10
12.4450894877
 20
9.4298627833
 30
0.0
 10
12.4688100815
 20
9.4162765019
 30
0.0
 10
12.491916099
 20
9.4015835429
 30
0.0
 10
12.514351918
 20
9.3858192831
 30
0.0
 10
12.5360635672
 20
9.369021725
 30
0.0
 10
12.5569987972
 20
9.3512313169
 30
0.0
 10
12.5771072091
 20
9.3324908744
 30
0.0
 10
12.5963403734
 20
9.3128454846
 30
0.0
 10
12.6146520252
 20
9.292342471
 30
0.0
 10
12.6319980947
 20
9.2710311915
 30
0.0
 10
12.6483368159
 20
9.2489629324
 30
0.0
 10
12.6636288082
 20
9.226190781
 30
0.0
 10
12.6778372695
 20
9.2027695642
 30
0.0
 10
12.690928001
 20
9.1787556636
 30
0.0
 10
12.7028694653
 20
9.1542068713
 30
0.0
 10
12.713632847
 20
9.1291822544
 30
0.0
 10
12.7231922066
 20
9.1037420489
 30
0.0
 10
12.7315245209
 20
9.0779475046
 30
0.0
 10
12.7386097019
 20
9.0518607152
 30
0.0
 10
12.7444306208
 20
9.025544431
 30
0.0
 10
12.7489731031
 20
8.9990621829
 30
0.0
 10
12.7522264419
 20
8.9724772071
 30
0.0
 10
12.7541823537
 20
8.9458547424
 30
0.0
 10
12.7546191733
 20
8.9280918205
 30
0.0
 10
12.7546191733
 20
8.9192270492
 30
0.0
  0
SPLINE
  5
363
100
AcDbEntity
  8
0
100
AcDbSpline
 62
7
  6
CONTINUOUS
 70
0
 71
3
 72
17
 73
13
 74
0
 42
0.0000001
 43
0.0000001
 44
0.0000000001
 40
0.0
 40
0.0
 40
0.0
 40
0.0
 40
0.0550852423
 40
0.111354406
 40
0.1687695843
 40
0.2272912727
 40
0.3474892042
 40
0.4716107805
 40
0.5992999648
 40
0.7301858563
 40
0.8638842393
 40
1.0
 40
1.0
 40
1.0
 40
1.0
 10
15.4210516572
 20
7.9121082102
 30
0.0
 10
15.4220656269
 20
7.9053237087
 30
0.0
 10
15.4240319389
 20
7.8915962955
 30
0.0
 10
15.4267723317
 20
7.8707581515
 30
0.0
 10
15.4293333998
 20
7.8494660902
 30
0.0
 10
15.4325347762
 20
7.8202341661
 30
0.0
 10
15.4360600711
 20
7.7826832588
 30
0.0
 10
15.4395092236
 20
7.7364824367
 30
0.0
 10
15.4422024347
 20
7.688898313
 30
0.0
 10
15.4441309081
 20
7.6400836724
 30
0.0
 10
15.445288288
 20
7.5901952493
 30
0.0
 10
15.4455412276
 20
7.5565942453
 30
0.0
 10
15.4455412276
 20
7.5396435307
 30
0.0
  0
SPLINE
  5
364
100
AcDbEntity
  8
0
100
AcDbSpline
 62
7
  6
CONTINUOUS
 70
0
 71
3
 72
20
 73
16
 74
0
 42
0.0000001
 43
0.0000001
 44
0.0000000001
 40
0.0
 40
0.0
 40
0.0
 40
0.0
 40
0.0529053482
 40
0.107349923
 40
0.1632853691
 40
0.2206604553
 40
0.2794217981
 40
0.3395135536
 40
0.4008778897
 40
0.4634550263
 40
0.5271831926
 40
0.5919991152
 40
0.7246316204
 40
0.8608166229
 40
1.0
 40
1.0
 40
1.0
 40
1.0
 10
15.3227068943
 20
7.9190026996
 30
0.0
 10
15.3239858615
 20
7.912158298
 30
0.0
 10
15.326466751
 20
7.8982487926
 30
0.0
 10
15.3299166309
 20
7.8770367742
 30
0.0
 10
15.3331455542
 20
7.8551951666
 30
0.0
 10
15.3361499848
 20
7.8327482911
 30
0.0
 10
15.33892649
 20
7.8097210563
 30
0.0
 10
15.3414720071
 20
7.7861390424
 30
0.0
 10
15.3437836769
 20
7.762028443
 30
0.0
 10
15.3458588811
 20
7.7374160592
 30
0.0
 10
15.3476953729
 20
7.7123292159
 30
0.0
 10
15.3498392088
 20
7.6780221506
 30
0.0
 10
15.3518947644
 20
7.6341575178
 30
0.0
 10
15.3533649507
 20
7.580477687
 30
0.0
 10
15.3536853168
 20
7.5442354982
 30
0.0
 10
15.3536853168
 20
7.5259175756
 30
0.0
  0
SPLINE
  5
365
100
AcDbEntity
  8
0
100
AcDbSpline
 62
7
  6
CONTINUOUS
 70
0
 71
3
 72
71
 73
67
 74
0
 42
0.0000001
 43
0.0000001
 44
0.0000000001
 40
0.0
 40
0.0
 40
0.0
 40
0.0
 40
0.0155840917
 40
0.0311160094
 40
0.0465952358
 40
0.0620238788
 40
0.0774034546
 40
0.0927362798
 40
0.1080251228
 40
0.1232731729
 40
0.1384840557
 40
0.1536617763
 40
0.1688106891
 40
0.1839354524
 40
0.1990409783
 40
0.2141323825
 40
0.2292149318
 40
0.2442939889
 40
0.2593749537
 40
0.2744632043
 40
0.2895640406
 40
0.3046826296
 40
0.31982395
 40
0.3349927393
 40
0.3501934439
 40
0.3654301767
 40
0.3807066774
 40
0.3960262751
 40
0.4113918558
 40
0.4268058386
 40
0.4422701579
 40
0.4577862475
 40
0.4733550294
 40
0.4889769098
 40
0.5046517841
 40
0.5203790419
 40
0.5361575761
 40
0.5519857968
 40
0.5678616538
 40
0.5837826606
 40
0.5997459179
 40
0.6157481418
 40
0.6317856993
 40
0.6478546438
 40
0.6639507501
 40
0.6800695513
 40
0.6962063816
 40
0.7123564192
 40
0.7285147269
 40
0.7446762936
 40
0.7608360801
 40
0.7769890643
 40
0.7931302834
 40
0.8092548754
 40
0.8253581235
 40
0.8414355
 40
0.8574827056
 40
0.873495706
 40
0.8894707699
 40
0.9054045147
 40
0.9212939128
 40
0.9371363668
 40
0.9529297321
 40
0.9686720133
 40
0.9843627856
 40
1.0
 40
1.0
 40
1.0
 40
1.0
 10
9.1304653983
 20
6.7557482583
 30
0.0
 10
9.1304653983
 20
6.7469136024
 30
0.0
 10
9.1300330034
 20
6.7292707369
 30
0.0
 10
9.1280813811
 20
6.70291765
 30
0.0
 10
9.1248320548
 20
6.6767809597
 30
0.0
 10
9.1202931854
 20
6.6509248563
 30
0.0
 10
9.1144753548
 20
6.6254111385
 30
0.0
 10
9.1073926295
 20
6.6003014798
 30
0.0
 10
9.0990620445
 20
6.5756563673
 30
0.0
 10
9.0895036083
 20
6.5515352308
 30
0.0
 10
9.0787402824
 20
6.5279962594
 30
0.0
 10
9.066797965
 20
6.5050962341
 30
0.0
 10
9.0537054524
 20
6.4828903745
 30
0.0
 10
9.0394942833
 20
6.461432246
 30
0.0
 10
9.0241986783
 20
6.4407736319
 30
0.0
 10
9.0078554836
 20
6.4209643959
 30
0.0
 10
8.9905041454
 20
6.4020522973
 30
0.0
 10
8.9721865131
 20
6.3840829502
 30
0.0
 10
8.9529467568
 20
6.3670997069
 30
0.0
 10
8.9328312577
 20
6.3511435654
 30
0.0
 10
8.9118885735
 20
6.3362529676
 30
0.0
 10
8.8901692395
 20
6.3224637906
 30
0.0
 10
8.8677256477
 20
6.3098092665
 30
0.0
 10
8.8446119178
 20
6.2983199232
 30
0.0
 10
8.8208838179
 20
6.2880234103
 30
0.0
 10
8.7965985936
 20
6.2789444751
 30
0.0
 10
8.7718148095
 20
6.2711049535
 30
0.0
 10
8.7465922152
 20
6.264523724
 30
0.0
 10
8.7209916231
 20
6.2592166012
 30
0.0
 10
8.6950747569
 20
6.2551962666
 30
0.0
 10
8.6689040785
 20
6.252472339
 30
0.0
 10
8.6425426491
 20
6.2510513395
 30
0.0
 10
8.6160539853
 20
6.2509366627
 30
0.0
 10
8.5895019023
 20
6.2521284702
 30
0.0
 10
8.5629503529
 20
6.2546238166
 30
0.0
 10
8.5364632801
 20
6.2584166423
 30
0.0
 10
8.510104475
 20
6.2634978028
 30
0.0
 10
8.4839374002
 20
6.26985497
 30
0.0
 10
8.4580250474
 20
6.2774727628
 30
0.0
 10
8.4324297937
 20
6.2863327966
 30
0.0
 10
8.4072132657
 20
6.2964137398
 30
0.0
 10
8.3824361591
 20
6.3076912716
 30
0.0
 10
8.3581580944
 20
6.3201381743
 30
0.0
 10
8.3344375006
 20
6.3337244557
 30
0.0
 10
8.3113314831
 20
6.3484174146
 30
0.0
 10
8.2888956641
 20
6.3641816744
 30
0.0
 10
8.2671840149
 20
6.3809792325
 30
0.0
 10
8.2462487849
 20
6.3987696406
 30
0.0
 10
8.2261403729
 20
6.4175100831
 30
0.0
 10
8.2069072086
 20
6.437155473
 30
0.0
 10
8.1885955568
 20
6.4576584866
 30
0.0
 10
8.1712494873
 20
6.4789697661
 30
0.0
 10
8.1549107662
 20
6.5010380251
 30
0.0
 10
8.1396187738
 20
6.5238101765
 30
0.0
 10
8.1254103126
 20
6.5472313933
 30
0.0
 10
8.1123195811
 20
6.5712452939
 30
0.0
 10
8.1003781168
 20
6.5957940862
 30
0.0
 10
8.089614735
 20
6.6208187031
 30
0.0
 10
8.0800553754
 20
6.6462589087
 30
0.0
 10
8.0717230612
 20
6.672053453
 30
0.0
 10
8.0646378802
 20
6.6981402423
 30
0.0
 10
8.0588169612
 20
6.7244565265
 30
0.0
 10
8.0542744789
 20
6.7509387746
 30
0.0
 10
8.0510211401
 20
6.7775237504
 30
0.0
 10
8.0490652284
 20
6.8041462151
 30
0.0
 10
8.0486284088
 20
6.821909137
 30
0.0
 10
8.0486284088
 20
6.8307739084
 30
0.0
  0
SPLINE
  5
366
100
AcDbEntity
  8
0
100
AcDbSpline
 62
7
  6
CONTINUOUS
 70
0
 71
3
 72
39
 73
35
 74
0
 42
0.0000001
 43
0.0000001
 44
0.0000000001
 40
0.0
 40
0.0
 40
0.0
 40
0.0
 40
0.0310752916
 40
0.0623079177
 40
0.0936931358
 40
0.1252222873
 40
0.1568840472
 40
0.188664206
 40
0.220546166
 40
0.2525112497
 40
0.2845391082
 40
0.3166081356
 40
0.3486959062
 40
0.3807796218
 40
0.4128365647
 40
0.4448445493
 40
0.4767823667
 40
0.5086302151
 40
0.54037011
 40
0.5719862674
 40
0.6034654527
 40
0.6347972873
 40
0.665974506
 40
0.6969931575
 40
0.7278527395
 40
0.7585562631
 40
0.7891102393
 40
0.8195245835
 40
0.8498124352
 40
0.879989894
 40
0.9100756734
 40
0.9400906802
 40
0.9700575282
 40
1.0
 40
1.0
 40
1.0
 40
1.0
 10
8.9440193038
 20
9.2204700035
 30
0.0
 10
8.9440193038
 20
9.2103682898
 30
0.0
 10
8.9447728715
 20
9.1901059442
 30
0.0
 10
8.9481373678
 20
9.1598094229
 30
0.0
 10
8.9537199254
 20
9.1296907895
 30
0.0
 10
8.9614896756
 20
9.0999176003
 30
0.0
 10
8.9714035869
 20
9.0706527665
 30
0.0
 10
8.983407016
 20
9.0420570618
 30
0.0
 10
8.9974338408
 20
9.0142873744
 30
0.0
 10
9.0134069031
 20
8.9874960935
 30
0.0
 10
9.0312383992
 20
8.9618302186
 30
0.0
 10
9.0508303718
 20
8.937430581
 30
0.0
 10
9.0720752391
 20
8.9144310754
 30
0.0
 10
9.0948563819
 20
8.8929579341
 30
0.0
 10
9.1190487764
 20
8.873129041
 30
0.0
 10
9.1445196738
 20
8.8550532912
 30
0.0
 10
9.1711293203
 20
8.8388299979
 30
0.0
 10
9.1987317143
 20
8.8245483511
 30
0.0
 10
9.227175398
 20
8.8122869306
 30
0.0
 10
9.2563042762
 20
8.8021132724
 30
0.0
 10
9.2859584624
 20
8.7940834984
 30
0.0
 10
9.3159751439
 20
8.7882420042
 30
0.0
 10
9.3461894629
 20
8.784621208
 30
0.0
 10
9.37643541
 20
8.7832413622
 30
0.0
 10
9.4065467255
 20
8.7841104279
 30
0.0
 10
9.4363578048
 20
8.7872240148
 30
0.0
 10
9.4657046037
 20
8.7925653836
 30
0.0
 10
9.4944255441
 20
8.8001055207
 30
0.0
 10
9.5223623942
 20
8.8098032601
 30
0.0
 10
9.5493612053
 20
8.8216055418
 30
0.0
 10
9.5752729739
 20
8.8354474891
 30
0.0
 10
9.5999552385
 20
8.8512534806
 30
0.0
 10
9.6232700853
 20
8.8689348492
 30
0.0
 10
9.637822257
 20
8.8819136875
 30
0.0
 10
9.6448230969
 20
8.8886759793
 30
0.0
  0
SPLINE
  5
367
100
AcDbEntity
  8
0
100
AcDbSpline
 62
7
  6
CONTINUOUS
 70
0
 71
3
 72
59
 73
55
 74
0
 42
0.0000001
 43
0.0000001
 44
0.0000000001
 40
0.0
 40
0.0
 40
0.0
 40
0.0
 40
0.0026853875
 40
0.0053790891
 40
0.008089339
 40
0.0108242091
 40
0.0135915278
 40
0.0163988281
 40
0.0221599612
 40
0.0281622954
 40
0.034451753
 40
0.0410673672
 40
0.0480417309
 40
0.0554015447
 40
0.0631683895
 40
0.0713593564
 40
0.079987746
 40
0.0890635702
 40
0.0985940765
 40
0.1085841041
 40
0.1190364474
 40
0.1299521029
 40
0.1413305111
 40
0.1531697345
 40
0.1654666105
 40
0.1782168903
 40
0.1914153275
 40
0.2050557971
 40
0.2191313368
 40
0.2336342578
 40
0.2485561505
 40
0.263887994
 40
0.2796201342
 40
0.2957423961
 40
0.3122440407
 40
0.3291138806
 40
0.3463402216
 40
0.3639109818
 40
0.3818136215
 40
0.4185621798
 40
0.4564789439
 40
0.4954513254
 40
0.5353622163
 40
0.5760905802
 40
0.6175120189
 40
0.6594993243
 40
0.7019230188
 40
0.7446518888
 40
0.787553515
 40
0.8304947933
 40
0.8733424763
 40
0.9159636495
 40
0.9582263773
 40
1.0
 40
1.0
 40
1.0
 40
1.0
 10
15.0712748233
 20
6.4517307935
 30
0.0
 10
15.0723049276
 20
6.4516593602
 30
0.0
 10
15.0743729395
 20
6.4515757011
 30
0.0
 10
15.0774845936
 20
6.4516286132
 30
0.0
 10
15.0806072553
 20
6.4518598389
 30
0.0
 10
15.0837400366
 20
6.4522693023
 30
0.0
 10
15.0868823395
 20
6.4528568414
 30
0.0
 10
15.0911196879
 20
6.4538860037
 30
0.0
 10
15.096453565
 20
6.4556342261
 30
0.0
 10
15.1028203365
 20
6.4584239335
 30
0.0
 10
15.1092048191
 20
6.4619195726
 30
0.0
 10
15.115602106
 20
6.4661167392
 30
0.0
 10
15.1220080255
 20
6.471011256
 30
0.0
 10
15.1284182486
 20
6.4765986053
 30
0.0
 10
15.1348282625
 20
6.4828741015
 30
0.0
 10
15.1412334719
 20
6.4898325684
 30
0.0
 10
15.147629052
 20
6.4974684321
 30
0.0
 10
15.154010131
 20
6.505775544
 30
0.0
 10
15.1603716815
 20
6.5147472535
 30
0.0
 10
15.1667086658
 20
6.5243763212
 30
0.0
 10
15.1730159649
 20
6.5346549708
 30
0.0
 10
15.1792884714
 20
6.5455748525
 30
0.0
 10
15.1855210534
 20
6.5571270765
 30
0.0
 10
15.1917085997
 20
6.5693022046
 30
0.0
 10
15.1978460184
 20
6.5820902681
 30
0.0
 10
15.2039282393
 20
6.595480776
 30
0.0
 10
15.2099502458
 20
6.6094627232
 30
0.0
 10
15.2159070411
 20
6.6240246074
 30
0.0
 10
15.2217937097
 20
6.6391544318
 30
0.0
 10
15.2276053535
 20
6.6548397265
 30
0.0
 10
15.2333371792
 20
6.6710675491
 30
0.0
 10
15.2389844076
 20
6.6878245081
 30
0.0
 10
15.244542386
 20
6.7050967631
 30
0.0
 10
15.2500064728
 20
6.7228700483
 30
0.0
 10
15.2553721713
 20
6.7411296743
 30
0.0
 10
15.2606349962
 20
6.7598605517
 30
0.0
 10
15.2657906163
 20
6.7790471893
 30
0.0
 10
15.2708347394
 20
6.7986737396
 30
0.0
 10
15.2774636229
 20
6.8256420122
 30
0.0
 10
15.2854287594
 20
6.8603359448
 30
0.0
 10
15.2943970017
 20
6.9031038128
 30
0.0
 10
15.3028265625
 20
6.947219623
 30
0.0
 10
15.3106894173
 20
6.9925374243
 30
0.0
 10
15.3179594139
 20
7.0389074352
 30
0.0
 10
15.324612392
 20
7.0861763079
 30
0.0
 10
15.3306262518
 20
7.1341877103
 30
0.0
 10
15.3359810282
 20
7.1827828308
 30
0.0
 10
15.3406589557
 20
7.2318009144
 30
0.0
 10
15.3446445255
 20
7.2810797948
 30
0.0
 10
15.3479245387
 20
7.330456445
 30
0.0
 10
15.3504881446
 20
7.3797674874
 30
0.0
 10
15.3523268885
 20
7.4288498399
 30
0.0
 10
15.3534347186
 20
7.4775409489
 30
0.0
 10
15.3536853168
 20
7.5098548915
 30
0.0
 10
15.3536853168
 20
7.5259175756
 30
0.0
  0
SPLINE
  5
368
100
AcDbEntity
  8
0
100
AcDbSpline
 62
7
  6
CONTINUOUS
 70
0
 71
3
 72
71
 73
67
 74
0
 42
0.0000001
 43
0.0000001
 44
0.0000000001
 40
0.0
 40
0.0
 40
0.0
 40
0.0
 40
0.0155840917
 40
0.0311160094
 40
0.0465952358
 40
0.0620238788
 40
0.0774034546
 40
0.0927362798
 40
0.1080251228
 40
0.1232731729
 40
0.1384840557
 40
0.1536617763
 40
0.1688106891
 40
0.1839354524
 40
0.1990409783
 40
0.2141323825
 40
0.2292149318
 40
0.2442939889
 40
0.2593749537
 40
0.2744632043
 40
0.2895640406
 40
0.3046826296
 40
0.31982395
 40
0.3349927393
 40
0.3501934439
 40
0.3654301767
 40
0.3807066774
 40
0.3960262751
 40
0.4113918558
 40
0.4268058386
 40
0.4422701579
 40
0.4577862475
 40
0.4733550294
 40
0.4889769098
 40
0.5046517841
 40
0.5203790419
 40
0.5361575761
 40
0.5519857968
 40
0.5678616538
 40
0.5837826606
 40
0.5997459179
 40
0.6157481418
 40
0.6317856993
 40
0.6478546438
 40
0.6639507501
 40
0.6800695513
 40
0.6962063816
 40
0.7123564192
 40
0.7285147269
 40
0.7446762936
 40
0.7608360801
 40
0.7769890643
 40
0.7931302834
 40
0.8092548754
 40
0.8253581235
 40
0.8414355
 40
0.8574827056
 40
0.873495706
 40
0.8894707699
 40
0.9054045147
 40
0.9212939128
 40
0.9371363668
 40
0.9529297321
 40
0.9686720133
 40
0.9843627856
 40
1.0
 40
1.0
 40
1.0
 40
1.0
 10
10.9464060593
 20
6.6298123457
 30
0.0
 10
10.9464060593
 20
6.6386470017
 30
0.0
 10
10.9468384543
 20
6.6562898671
 30
0.0
 10
10.9487900766
 20
6.6826429541
 30
0.0
 10
10.9520394029
 20
6.7087796443
 30
0.0
 10
10.9565782723
 20
6.7346357478
 30
0.0
 10
10.9623961028
 20
6.7601494655
 30
0.0
 10
10.9694788281
 20
6.7852591243
 30
0.0
 10
10.9778094132
 20
6.8099042367
 30
0.0
 10
10.9873678494
 20
6.8340253733
 30
0.0
 10
10.9981311753
 20
6.8575643446
 30
0.0
 10
11.0100734927
 20
6.8804643699
 30
0.0
 10
11.0231660053
 20
6.9026702295
 30
0.0
 10
11.0373771744
 20
6.9241283581
 30
0.0
 10
11.0526727794
 20
6.9447869721
 30
0.0
 10
11.0690159741
 20
6.9645962081
 30
0.0
 10
11.0863673123
 20
6.9835083068
 30
0.0
 10
11.1046849446
 20
7.0014776538
 30
0.0
 10
11.1239247009
 20
7.0184608971
 30
0.0
 10
11.1440402
 20
7.0344170387
 30
0.0
 10
11.1649828842
 20
7.0493076365
 30
0.0
 10
11.1867022182
 20
7.0630968135
 30
0.0
 10
11.20914581
 20
7.0757513376
 30
0.0
 10
11.2322595399
 20
7.0872406809
 30
0.0
 10
11.2559876398
 20
7.0975371938
 30
0.0
 10
11.2802728641
 20
7.1066161289
 30
0.0
 10
11.3050566482
 20
7.1144556506
 30
0.0
 10
11.3302792425
 20
7.1210368801
 30
0.0
 10
11.3558798346
 20
7.1263440028
 30
0.0
 10
11.3817967008
 20
7.1303643375
 30
0.0
 10
11.4079673791
 20
7.133088265
 30
0.0
 10
11.4343288086
 20
7.1345092646
 30
0.0
 10
11.4608174724
 20
7.1346239413
 30
0.0
 10
11.4873695554
 20
7.1334321339
 30
0.0
 10
11.5139211048
 20
7.1309367875
 30
0.0
 10
11.5404081775
 20
7.1271439617
 30
0.0
 10
11.5667669827
 20
7.1220628012
 30
0.0
 10
11.5929340575
 20
7.115705634
 30
0.0
 10
11.6188464103
 20
7.1080878413
 30
0.0
 10
11.644441664
 20
7.0992278074
 30
0.0
 10
11.6696581919
 20
7.0891468643
 30
0.0
 10
11.6944352985
 20
7.0778693325
 30
0.0
 10
11.7187133633
 20
7.0654224298
 30
0.0
 10
11.7424339571
 20
7.0518361484
 30
0.0
 10
11.7655399746
 20
7.0371431894
 30
0.0
 10
11.7879757936
 20
7.0213789296
 30
0.0
 10
11.8096874428
 20
7.0045813715
 30
0.0
 10
11.8306226728
 20
6.9867909634
 30
0.0
 10
11.8507310848
 20
6.9680505209
 30
0.0
 10
11.869964249
 20
6.9484051311
 30
0.0
 10
11.8882759008
 20
6.9279021175
 30
0.0
 10
11.9056219703
 20
6.906590838
 30
0.0
 10
11.9219606915
 20
6.8845225789
 30
0.0
 10
11.9372526838
 20
6.8617504275
 30
0.0
 10
11.9514611451
 20
6.8383292107
 30
0.0
 10
11.9645518766
 20
6.8143153101
 30
0.0
 10
11.9764933409
 20
6.7897665179
 30
0.0
 10
11.9872567227
 20
6.7647419009
 30
0.0
 10
11.9968160822
 20
6.7393016954
 30
0.0
 10
12.0051483965
 20
6.7135071511
 30
0.0
 10
12.0122335775
 20
6.6874203617
 30
0.0
 10
12.0180544964
 20
6.6611040775
 30
0.0
 10
12.0225969787
 20
6.6346218295
 30
0.0
 10
12.0258503175
 20
6.6080368536
 30
0.0
 10
12.0278062293
 20
6.581414389
 30
0.0
 10
12.0282430489
 20
6.563651467
 30
0.0
 10
12.0282430489
 20
6.5547866957
 30
0.0
  0
SPLINE
  5
369
100
AcDbEntity
  8
0
100
AcDbSpline
 62
7
  6
CONTINUOUS
 70
0
 71
3
 72
71
 73
67
 74
0
 42
0.0000001
 43
0.0000001
 44
0.0000000001
 40
0.0
 40
0.0
 40
0.0
 40
0.0
 40
0.0155840917
 40
0.0311160094
 40
0.0465952358
 40
0.0620238788
 40
0.0774034546
 40
0.0927362798
 40
0.1080251228
 40
0.1232731729
 40
0.1384840557
 40
0.1536617763
 40
0.1688106891
 40
0.1839354524
 40
0.1990409783
 40
0.2141323825
 40
0.2292149318
 40
0.2442939889
 40
0.2593749537
 40
0.2744632043
 40
0.2895640406
 40
0.3046826296
 40
0.31982395
 40
0.3349927393
 40
0.3501934439
 40
0.3654301767
 40
0.3807066774
 40
0.3960262751
 40
0.4113918558
 40
0.4268058386
 40
0.4422701579
 40
0.4577862475
 40
0.4733550294
 40
0.4889769098
 40
0.5046517841
 40
0.5203790419
 40
0.5361575761
 40
0.5519857968
 40
0.5678616538
 40
0.5837826606
 40
0.5997459179
 40
0.6157481418
 40
0.6317856993
 40
0.6478546438
 40
0.6639507501
 40
0.6800695513
 40
0.6962063816
 40
0.7123564192
 40
0.7285147269
 40
0.7446762936
 40
0.7608360801
 40
0.7769890643
 40
0.7931302834
 40
0.8092548754
 40
0.8253581235
 40
0.8414355
 40
0.8574827056
 40
0.873495706
 40
0.8894707699
 40
0.9054045147
 40
0.9212939128
 40
0.9371363668
 40
0.9529297321
 40
0.9686720133
 40
0.9843627856
 40
1.0
 40
1.0
 40
1.0
 40
1.0
 10
12.0282430489
 20
6.5547866957
 30
0.0
 10
12.0282430489
 20
6.5459520397
 30
0.0
 10
12.0278106539
 20
6.5283091743
 30
0.0
 10
12.0258590317
 20
6.5019560873
 30
0.0
 10
12.0226097053
 20
6.4758193971
 30
0.0
 10
12.018070836
 20
6.4499632937
 30
0.0
 10
12.0122530054
 20
6.4244495759
 30
0.0
 10
12.0051702801
 20
6.3993399171
 30
0.0
 10
11.996839695
 20
6.3746948047
 30
0.0
 10
11.9872812588
 20
6.3505736681
 30
0.0
 10
11.9765179329
 20
6.3270346968
 30
0.0
 10
11.9645756155
 20
6.3041346715
 30
0.0
 10
11.951483103
 20
6.2819288119
 30
0.0
 10
11.9372719338
 20
6.2604706833
 30
0.0
 10
11.9219763289
 20
6.2398120693
 30
0.0
 10
11.9056331342
 20
6.2200028333
 30
0.0
 10
11.888281796
 20
6.2010907347
 30
0.0
 10
11.8699641637
 20
6.1831213876
 30
0.0
 10
11.8507244074
 20
6.1661381443
 30
0.0
 10
11.8306089083
 20
6.1501820027
 30
0.0
 10
11.8096662241
 20
6.135291405
 30
0.0
 10
11.78794689
 20
6.1215022279
 30
0.0
 10
11.7655032983
 20
6.1088477039
 30
0.0
 10
11.7423895684
 20
6.0973583605
 30
0.0
 10
11.7186614684
 20
6.0870618476
 30
0.0
 10
11.6943762442
 20
6.0779829125
 30
0.0
 10
11.66959246
 20
6.0701433909
 30
0.0
 10
11.6443698657
 20
6.0635621614
 30
0.0
 10
11.6187692736
 20
6.0582550386
 30
0.0
 10
11.5928524074
 20
6.0542347039
 30
0.0
 10
11.5666817291
 20
6.0515107764
 30
0.0
 10
11.5403202997
 20
6.0500897769
 30
0.0
 10
11.5138316358
 20
6.0499751001
 30
0.0
 10
11.4872795529
 20
6.0511669075
 30
0.0
 10
11.4607280035
 20
6.053662254
 30
0.0
 10
11.4342409307
 20
6.0574550797
 30
0.0
 10
11.4078821256
 20
6.0625362402
 30
0.0
 10
11.3817150508
 20
6.0688934074
 30
0.0
 10
11.355802698
 20
6.0765112001
 30
0.0
 10
11.3302074442
 20
6.085371234
 30
0.0
 10
11.3049909163
 20
6.0954521771
 30
0.0
 10
11.2802138097
 20
6.1067297089
 30
0.0
 10
11.2559357449
 20
6.1191766116
 30
0.0
 10
11.2322151512
 20
6.1327628931
 30
0.0
 10
11.2091091337
 20
6.147455852
 30
0.0
 10
11.1866733147
 20
6.1632201118
 30
0.0
 10
11.1649616654
 20
6.1800176699
 30
0.0
 10
11.1440264354
 20
6.197808078
 30
0.0
 10
11.1239180235
 20
6.2165485205
 30
0.0
 10
11.1046848592
 20
6.2361939104
 30
0.0
 10
11.0863732074
 20
6.2566969239
 30
0.0
 10
11.0690271379
 20
6.2780082034
 30
0.0
 10
11.0526884167
 20
6.3000764625
 30
0.0
 10
11.0373964244
 20
6.3228486139
 30
0.0
 10
11.0231879632
 20
6.3462698307
 30
0.0
 10
11.0100972316
 20
6.3702837313
 30
0.0
 10
10.9981557674
 20
6.3948325236
 30
0.0
 10
10.9873923856
 20
6.4198571405
 30
0.0
 10
10.977833026
 20
6.445297346
 30
0.0
 10
10.9695007117
 20
6.4710918903
 30
0.0
 10
10.9624155307
 20
6.4971786797
 30
0.0
 10
10.9565946118
 20
6.5234949639
 30
0.0
 10
10.9520521295
 20
6.549977212
 30
0.0
 10
10.9487987907
 20
6.5765621878
 30
0.0
 10
10.9468428789
 20
6.6031846525
 30
0.0
 10
10.9464060593
 20
6.6209475744
 30
0.0
 10
10.9464060593
 20
6.6298123457
 30
0.0
  0
SPLINE
  5
36A
100
AcDbEntity
  8
0
100
AcDbSpline
 62
7
  6
CONTINUOUS
 70
0
 71
3
 72
71
 73
67
 74
0
 42
0.0000001
 43
0.0000001
 44
0.0000000001
 40
0.0
 40
0.0
 40
0.0
 40
0.0
 40
0.0155840917
 40
0.0311160094
 40
0.0465952358
 40
0.0620238788
 40
0.0774034546
 40
0.0927362798
 40
0.1080251228
 40
0.1232731729
 40
0.1384840557
 40
0.1536617763
 40
0.1688106891
 40
0.1839354524
 40
0.1990409783
 40
0.2141323825
 40
0.2292149318
 40
0.2442939889
 40
0.2593749537
 40
0.2744632043
 40
0.2895640406
 40
0.3046826296
 40
0.31982395
 40
0.3349927393
 40
0.3501934439
 40
0.3654301767
 40
0.3807066774
 40
0.3960262751
 40
0.4113918558
 40
0.4268058386
 40
0.4422701579
 40
0.4577862475
 40
0.4733550294
 40
0.4889769098
 40
0.5046517841
 40
0.5203790419
 40
0.5361575761
 40
0.5519857968
 40
0.5678616538
 40
0.5837826606
 40
0.5997459179
 40
0.6157481418
 40
0.6317856993
 40
0.6478546438
 40
0.6639507501
 40
0.6800695513
 40
0.6962063816
 40
0.7123564192
 40
0.7285147269
 40
0.7446762936
 40
0.7608360801
 40
0.7769890643
 40
0.7931302834
 40
0.8092548754
 40
0.8253581235
 40
0.8414355
 40
0.8574827056
 40
0.873495706
 40
0.8894707699
 40
0.9054045147
 40
0.9212939128
 40
0.9371363668
 40
0.9529297321
 40
0.9686720133
 40
0.9843627856
 40
1.0
 40
1.0
 40
1.0
 40
1.0
 10
12.7546191733
 20
8.9192270492
 30
0.0
 10
12.7546191733
 20
8.9103923932
 30
0.0
 10
12.7541867783
 20
8.8927495278
 30
0.0
 10
12.7522351561
 20
8.8663964408
 30
0.0
 10
12.7489858297
 20
8.8402597506
 30
0.0
 10
12.7444469603
 20
8.8144036471
 30
0.0
 10
12.7386291298
 20
8.7888899294
 30
0.0
 10
12.7315464045
 20
8.7637802706
 30
0.0
 10
12.7232158194
 20
8.7391351582
 30
0.0
 10
12.7136573832
 20
8.7150140216
 30
0.0
 10
12.7028940573
 20
8.6914750503
 30
0.0
 10
12.6909517399
 20
8.668575025
 30
0.0
 10
12.6778592274
 20
8.6463691654
 30
0.0
 10
12.6636480582
 20
8.6249110368
 30
0.0
 10
12.6483524533
 20
8.6042524228
 30
0.0
 10
12.6320092586
 20
8.5844431868
 30
0.0
 10
12.6146579204
 20
8.5655310882
 30
0.0
 10
12.5963402881
 20
8.5475617411
 30
0.0
 10
12.5771005317
 20
8.5305784978
 30
0.0
 10
12.5569850327
 20
8.5146223562
 30
0.0
 10
12.5360423485
 20
8.4997317585
 30
0.0
 10
12.5143230144
 20
8.4859425814
 30
0.0
 10
12.4918794227
 20
8.4732880573
 30
0.0
 10
12.4687656928
 20
8.461798714
 30
0.0
 10
12.4450375928
 20
8.4515022011
 30
0.0
 10
12.4207523685
 20
8.442423266
 30
0.0
 10
12.3959685844
 20
8.4345837443
 30
0.0
 10
12.3707459901
 20
8.4280025148
 30
0.0
 10
12.345145398
 20
8.4226953921
 30
0.0
 10
12.3192285318
 20
8.4186750574
 30
0.0
 10
12.2930578535
 20
8.4159511299
 30
0.0
 10
12.2666964241
 20
8.4145301303
 30
0.0
 10
12.2402077602
 20
8.4144154536
 30
0.0
 10
12.2136556772
 20
8.415607261
 30
0.0
 10
12.1871041278
 20
8.4181026074
 30
0.0
 10
12.1606170551
 20
8.4218954332
 30
0.0
 10
12.13425825
 20
8.4269765937
 30
0.0
 10
12.1080911752
 20
8.4333337609
 30
0.0
 10
12.0821788223
 20
8.4409515536
 30
0.0
 10
12.0565835686
 20
8.4498115875
 30
0.0
 10
12.0313670407
 20
8.4598925306
 30
0.0
 10
12.0065899341
 20
8.4711700624
 30
0.0
 10
11.9823118693
 20
8.4836169651
 30
0.0
 10
11.9585912756
 20
8.4972032465
 30
0.0
 10
11.9354852581
 20
8.5118962055
 30
0.0
 10
11.9130494391
 20
8.5276604653
 30
0.0
 10
11.8913377898
 20
8.5444580234
 30
0.0
 10
11.8704025598
 20
8.5622484315
 30
0.0
 10
11.8502941479
 20
8.580988874
 30
0.0
 10
11.8310609836
 20
8.6006342638
 30
0.0
 10
11.8127493318
 20
8.6211372774
 30
0.0
 10
11.7954032623
 20
8.6424485569
 30
0.0
 10
11.7790645411
 20
8.664516816
 30
0.0
 10
11.7637725488
 20
8.6872889674
 30
0.0
 10
11.7495640876
 20
8.7107101842
 30
0.0
 10
11.736473356
 20
8.7347240848
 30
0.0
 10
11.7245318917
 20
8.759272877
 30
0.0
 10
11.71376851
 20
8.784297494
 30
0.0
 10
11.7042091504
 20
8.8097376995
 30
0.0
 10
11.6958768361
 20
8.8355322438
 30
0.0
 10
11.6887916551
 20
8.8616190332
 30
0.0
 10
11.6829707362
 20
8.8879353174
 30
0.0
 10
11.6784282539
 20
8.9144175654
 30
0.0
 10
11.6751749151
 20
8.9410025413
 30
0.0
 10
11.6732190033
 20
8.967625006
 30
0.0
 10
11.6727821837
 20
8.9853879279
 30
0.0
 10
11.6727821837
 20
8.9942526992
 30
0.0
  0
SPLINE
  5
36B
100
AcDbEntity
  8
0
100
AcDbSpline
 62
7
  6
CONTINUOUS
 70
0
 71
3
 72
23
 73
19
 74
0
 42
0.0000001
 43
0.0000001
 44
0.0000000001
 40
0.0
 40
0.0
 40
0.0
 40
0.0
 40
0.052790178
 40
0.1058485708
 40
0.159439106
 40
0.2138170689
 40
0.2692259757
 40
0.3258947937
 40
0.3840355776
 40
0.4438431412
 40
0.505494423
 40
0.5691480749
 40
0.6349461492
 40
0.7030145764
 40
0.7734635595
 40
0.8463900174
 40
0.9218781797
 40
1.0
 40
1.0
 40
1.0
 40
1.0
 10
14.9329002334
 20
9.9070996181
 30
0.0
 10
14.9344344288
 20
9.906993225
 30
0.0
 10
14.9375039224
 20
9.9066660457
 30
0.0
 10
14.9420777265
 20
9.9058349352
 30
0.0
 10
14.9466242997
 20
9.9046633787
 30
0.0
 10
14.9511415412
 20
9.9031521734
 30
0.0
 10
14.9556278322
 20
9.9013020663
 30
0.0
 10
14.9600815157
 20
9.8991139404
 30
0.0
 10
14.9645011402
 20
9.8965889311
 30
0.0
 10
14.9688852464
 20
9.8937280928
 30
0.0
 10
14.9732324173
 20
9.8905325612
 30
0.0
 10
14.9775413703
 20
9.8870036626
 30
0.0
 10
14.9818107507
 20
9.8831426592
 30
0.0
 10
14.9860392122
 20
9.8789509031
 30
0.0
 10
14.9902255109
 20
9.8744299305
 30
0.0
 10
14.9943683173
 20
9.8695812353
 30
0.0
 10
14.9984662417
 20
9.864406515
 30
0.0
 10
15.0011213388
 20
9.8608031096
 30
0.0
 10
15.0024419316
 20
9.8589496043
 30
0.0
  0
SPLINE
  5
36C
100
AcDbEntity
  8
0
100
AcDbSpline
 62
7
  6
CONTINUOUS
 70
0
 71
3
 72
39
 73
35
 74
0
 42
0.0000001
 43
0.0000001
 44
0.0000000001
 40
0.0
 40
0.0
 40
0.0
 40
0.0
 40
0.0310752916
 40
0.0623079177
 40
0.0936931358
 40
0.1252222873
 40
0.1568840472
 40
0.188664206
 40
0.220546166
 40
0.2525112497
 40
0.2845391082
 40
0.3166081356
 40
0.3486959062
 40
0.3807796218
 40
0.4128365647
 40
0.4448445493
 40
0.4767823667
 40
0.5086302151
 40
0.54037011
 40
0.5719862674
 40
0.6034654527
 40
0.6347972873
 40
0.665974506
 40
0.6969931575
 40
0.7278527395
 40
0.7585562631
 40
0.7891102393
 40
0.8195245835
 40
0.8498124352
 40
0.879989894
 40
0.9100756734
 40
0.9400906802
 40
0.9700575282
 40
1.0
 40
1.0
 40
1.0
 40
1.0
 10
8.2176431795
 20
6.8560296501
 30
0.0
 10
8.2176431795
 20
6.8459279363
 30
0.0
 10
8.2183967471
 20
6.8256655907
 30
0.0
 10
8.2217612434
 20
6.7953690694
 30
0.0
 10
8.227343801
 20
6.765250436
 30
0.0
 10
8.2351135512
 20
6.7354772468
 30
0.0
 10
8.2450274625
 20
6.706212413
 30
0.0
 10
8.2570308916
 20
6.6776167083
 30
0.0
 10
8.2710577165
 20
6.6498470209
 30
0.0
 10
8.2870307787
 20
6.6230557401
 30
0.0
 10
8.3048622748
 20
6.5973898651
 30
0.0
 10
8.3244542474
 20
6.5729902276
 30
0.0
 10
8.3456991147
 20
6.5499907219
 30
0.0
 10
8.3684802575
 20
6.5285175806
 30
0.0
 10
8.392672652
 20
6.5086886875
 30
0.0
 10
8.4181435495
 20
6.4906129377
 30
0.0
 10
8.4447531959
 20
6.4743896444
 30
0.0
 10
8.4723555899
 20
6.4601079976
 30
0.0
 10
8.5007992736
 20
6.4478465771
 30
0.0
 10
8.5299281518
 20
6.4376729189
 30
0.0
 10
8.559582338
 20
6.4296431449
 30
0.0
 10
8.5895990195
 20
6.4238016507
 30
0.0
 10
8.6198133385
 20
6.4201808546
 30
0.0
 10
8.6500592857
 20
6.4188010087
 30
0.0
 10
8.6801706011
 20
6.4196700744
 30
0.0
 10
8.7099816804
 20
6.4227836613
 30
0.0
 10
8.7393284793
 20
6.4281250301
 30
0.0
 10
8.7680494197
 20
6.4356651672
 30
0.0
 10
8.7959862698
 20
6.4453629066
 30
0.0
 10
8.8229850809
 20
6.4571651883
 30
0.0
 10
8.8488968495
 20
6.4710071356
 30
0.0
 10
8.8735791141
 20
6.4868131271
 30
0.0
 10
8.8968939609
 20
6.5044944957
 30
0.0
 10
8.9114461326
 20
6.517473334
 30
0.0
 10
8.9184469725
 20
6.5242356258
 30
0.0
  0
SPLINE
  5
36D
100
AcDbEntity
  8
0
100
AcDbSpline
 62
7
  6
CONTINUOUS
 70
0
 71
3
 72
23
 73
19
 74
0
 42
0.0000001
 43
0.0000001
 44
0.0000000001
 40
0.0
 40
0.0
 40
0.0
 40
0.0
 40
0.0637759921
 40
0.1273452428
 40
0.1907020512
 40
0.253855997
 40
0.316813242
 40
0.3795820858
 40
0.4421733814
 40
0.5045993391
 40
0.5668738627
 40
0.6290123824
 40
0.6910316503
 40
0.7529496421
 40
0.8147853555
 40
0.8765586045
 40
0.9382898526
 40
1.0
 40
1.0
 40
1.0
 40
1.0
 10
11.8417969544
 20
9.0195084409
 30
0.0
 10
11.8417969544
 20
9.0260192623
 30
0.0
 10
11.8421086436
 20
9.0390220036
 30
0.0
 10
11.8435151588
 20
9.0584469769
 30
0.0
 10
11.8458571326
 20
9.0777180553
 30
0.0
 10
11.8491289479
 20
9.0967897801
 30
0.0
 10
11.8533231793
 20
9.1156187104
 30
0.0
 10
11.8584301786
 20
9.1341613198
 30
0.0
 10
11.8644382594
 20
9.1523748338
 30
0.0
 10
11.8713336111
 20
9.1702172684
 30
0.0
 10
11.8791002964
 20
9.1876474998
 30
0.0
 10
11.8877205104
 20
9.2046252969
 30
0.0
 10
11.8971744249
 20
9.2211114752
 30
0.0
 10
11.9074401824
 20
9.2370680617
 30
0.0
 10
11.9184941373
 20
9.2524581886
 30
0.0
 10
11.9303109921
 20
9.2672464236
 30
0.0
 10
11.9428629401
 20
9.2813982595
 30
0.0
 10
11.9517033594
 20
9.29038843
 30
0.0
 10
11.956234607
 20
9.2947652789
 30
0.0
  0
SPLINE
  5
36E
100
AcDbEntity
  8
0
100
AcDbSpline
 62
7
  6
CONTINUOUS
 70
0
 71
3
 72
15
 73
11
 74
0
 42
0.0000001
 43
0.0000001
 44
0.0000000001
 40
0.0
 40
0.0
 40
0.0
 40
0.0
 40
0.1204263542
 40
0.240986737
 40
0.3624055766
 40
0.4852907875
 40
0.6101512264
 40
0.7373762627
 40
0.8672608673
 40
1.0
 40
1.0
 40
1.0
 40
1.0
 10
8.8382615002
 20
7.160257831
 30
0.0
 10
8.8363048084
 20
7.1589331252
 30
0.0
 10
8.8322631719
 20
7.1564632114
 30
0.0
 10
8.8258697784
 20
7.1533286616
 30
0.0
 10
8.8191731154
 20
7.150769943
 30
0.0
 10
8.8121975774
 20
7.1487850514
 30
0.0
 10
8.8049686883
 20
7.1473718306
 30
0.0
 10
8.7975140493
 20
7.1465258717
 30
0.0
 10
8.7898631684
 20
7.1462431392
 30
0.0
 10
8.7847083144
 20
7.1464247941
 30
0.0
 10
8.7821100048
 20
7.1466047695
 30
0.0
  0
SPLINE
  5
36F
100
AcDbEntity
  8
0
100
AcDbSpline
 62
7
  6
CONTINUOUS
 70
0
 71
3
 72
39
 73
35
 74
0
 42
0.0000001
 43
0.0000001
 44
0.0000000001
 40
0.0
 40
0.0
 40
0.0
 40
0.0
 40
0.0310752916
 40
0.0623079177
 40
0.0936931358
 40
0.1252222873
 40
0.1568840472
 40
0.188664206
 40
0.220546166
 40
0.2525112497
 40
0.2845391082
 40
0.3166081356
 40
0.3486959062
 40
0.3807796218
 40
0.4128365647
 40
0.4448445493
 40
0.4767823667
 40
0.5086302151
 40
0.54037011
 40
0.5719862674
 40
0.6034654527
 40
0.6347972873
 40
0.665974506
 40
0.6969931575
 40
0.7278527395
 40
0.7585562631
 40
0.7891102393
 40
0.8195245835
 40
0.8498124352
 40
0.879989894
 40
0.9100756734
 40
0.9400906802
 40
0.9700575282
 40
1.0
 40
1.0
 40
1.0
 40
1.0
 10
11.8417969544
 20
9.0195084409
 30
0.0
 10
11.8417969544
 20
9.0094067272
 30
0.0
 10
11.8425505221
 20
8.9891443816
 30
0.0
 10
11.8459150184
 20
8.9588478602
 30
0.0
 10
11.8514975759
 20
8.9287292269
 30
0.0
 10
11.8592673262
 20
8.8989560377
 30
0.0
 10
11.8691812374
 20
8.8696912039
 30
0.0
 10
11.8811846666
 20
8.8410954992
 30
0.0
 10
11.8952114914
 20
8.8133258117
 30
0.0
 10
11.9111845536
 20
8.7865345309
 30
0.0
 10
11.9290160498
 20
8.760868656
 30
0.0
 10
11.9486080224
 20
8.7364690184
 30
0.0
 10
11.9698528897
 20
8.7134695128
 30
0.0
 10
11.9926340324
 20
8.6919963714
 30
0.0
 10
12.016826427
 20
8.6721674783
 30
0.0
 10
12.0422973244
 20
8.6540917285
 30
0.0
 10
12.0689069709
 20
8.6378684352
 30
0.0
 10
12.0965093649
 20
8.6235867885
 30
0.0
 10
12.1249530486
 20
8.611325368
 30
0.0
 10
12.1540819268
 20
8.6011517098
 30
0.0
 10
12.183736113
 20
8.5931219358
 30
0.0
 10
12.2137527944
 20
8.5872804416
 30
0.0
 10
12.2439671135
 20
8.5836596454
 30
0.0
 10
12.2742130606
 20
8.5822797996
 30
0.0
 10
12.3043243761
 20
8.5831488653
 30
0.0
 10
12.3341354554
 20
8.5862624521
 30
0.0
 10
12.3634822543
 20
8.591603821
 30
0.0
 10
12.3922031947
 20
8.599143958
 30
0.0
 10
12.4201400448
 20
8.6088416974
 30
0.0
 10
12.4471388559
 20
8.6206439792
 30
0.0
 10
12.4730506245
 20
8.6344859264
 30
0.0
 10
12.4977328891
 20
8.6502919179
 30
0.0
 10
12.5210477358
 20
8.6679732865
 30
0.0
 10
12.5355999075
 20
8.6809521249
 30
0.0
 10
12.5426007475
 20
8.6877144167
 30
0.0
  0
SPLINE
  5
370
100
AcDbEntity
  8
0
100
AcDbSpline
 62
7
  6
CONTINUOUS
 70
0
 71
3
 72
67
 73
63
 74
0
 42
0.0000001
 43
0.0000001
 44
0.0000000001
 40
0.0
 40
0.0
 40
0.0
 40
0.0
 40
0.0452100989
 40
0.0910008364
 40
0.1371883692
 40
0.183585715
 40
0.2300053249
 40
0.2762593961
 40
0.3221610018
 40
0.3675250301
 40
0.4121691589
 40
0.4559148351
 40
0.4985882708
 40
0.5194704045
 40
0.5400220161
 40
0.5602231578
 40
0.5800544325
 40
0.5994969435
 40
0.6185323721
 40
0.6371430433
 40
0.6553118814
 40
0.6730225883
 40
0.6902595554
 40
0.7070080243
 40
0.7232541088
 40
0.7389848235
 40
0.754188278
 40
0.7688536093
 40
0.782971248
 40
0.796532929
 40
0.809531877
 40
0.8219630437
 40
0.8338231942
 40
0.8451113554
 40
0.8558289813
 40
0.8659804821
 40
0.8755737161
 40
0.884620568
 40
0.8931378811
 40
0.9011482533
 40
0.9086813189
 40
0.9157749243
 40
0.9224764257
 40
0.9288438133
 40
0.9319246608
 40
0.9349487983
 40
0.9379264824
 40
0.9408684995
 40
0.943786083
 40
0.9466907733
 40
0.9495942751
 40
0.9525083127
 40
0.9554444684
 40
0.9584140433
 40
0.9614279368
 40
0.9644965161
 40
0.9676295467
 40
0.9708361557
 40
0.977501043
 40
0.9845526509
 40
0.9920393771
 40
1.0
 40
1.0
 40
1.0
 40
1.0
 10
15.4455412276
 20
7.5396435307
 30
0.0
 10
15.4455412276
 20
7.5196872815
 30
0.0
 10
15.44518532
 20
7.4795176745
 30
0.0
 10
15.4436159476
 20
7.4189788002
 30
0.0
 10
15.4410136398
 20
7.357950856
 30
0.0
 10
15.4373895008
 20
7.2966970728
 30
0.0
 10
15.4327591604
 20
7.2354816591
 30
0.0
 10
15.4271425868
 20
7.1745685696
 30
0.0
 10
15.4205640597
 20
7.1142204666
 30
0.0
 10
15.4130520514
 20
7.054697566
 30
0.0
 10
15.4046391142
 20
6.9962564265
 30
0.0
 10
15.3953616908
 20
6.9391491288
 30
0.0
 10
15.3868838777
 20
6.8925467089
 30
0.0
 10
15.379688701
 20
6.8561241962
 30
0.0
 10
15.3741410842
 20
6.829488942
 30
0.0
 10
15.3684094085
 20
6.8033673867
 30
0.0
 10
15.3624998953
 20
6.7777876709
 30
0.0
 10
15.3564189173
 20
6.7527773842
 30
0.0
 10
15.350173039
 20
6.7283634884
 30
0.0
 10
15.3437690601
 20
6.7045722963
 30
0.0
 10
15.3372138404
 20
6.6814294535
 30
0.0
 10
15.3305145423
 20
6.6589598855
 30
0.0
 10
15.3236783584
 20
6.6371877986
 30
0.0
 10
15.3167127058
 20
6.6161366295
 30
0.0
 10
15.309625138
 20
6.5958290269
 30
0.0
 10
15.3024232633
 20
6.5762868388
 30
0.0
 10
15.2951149477
 20
6.557531048
 30
0.0
 10
15.2877080068
 20
6.5395818035
 30
0.0
 10
15.2802104961
 20
6.5224583336
 30
0.0
 10
15.2726304813
 20
6.5061789673
 30
0.0
 10
15.2649760875
 20
6.4907611019
 30
0.0
 10
15.2572556011
 20
6.476221134
 30
0.0
 10
15.2494771698
 20
6.4625745355
 30
0.0
 10
15.2416491463
 20
6.4498356941
 30
0.0
 10
15.2337797003
 20
6.4380180324
 30
0.0
 10
15.2258770116
 20
6.4271339074
 30
0.0
 10
15.217949177
 20
6.417194603
 30
0.0
 10
15.2100039639
 20
6.4082104783
 30
0.0
 10
15.2020490975
 20
6.400190772
 30
0.0
 10
15.1940917119
 20
6.3931440262
 30
0.0
 10
15.186138829
 20
6.3870779948
 30
0.0
 10
15.178196716
 20
6.3820000101
 30
0.0
 10
15.17027268
 20
6.3779176904
 30
0.0
 10
15.163615952
 20
6.3753232031
 30
0.0
 10
15.1583297684
 20
6.3737751569
 30
0.0
 10
15.1544195245
 20
6.372878573
 30
0.0
 10
15.1505219406
 20
6.3722343642
 30
0.0
 10
15.1466380722
 20
6.3718428679
 30
0.0
 10
15.1427691631
 20
6.3717042737
 30
0.0
 10
15.1389164316
 20
6.3718186277
 30
0.0
 10
15.1350811154
 20
6.3721859712
 30
0.0
 10
15.1312644581
 20
6.372806209
 30
0.0
 10
15.1274676572
 20
6.3736790064
 30
0.0
 10
15.1236918806
 20
6.3748040179
 30
0.0
 10
15.1199382771
 20
6.3761808754
 30
0.0
 10
15.1162079294
 20
6.3778089686
 30
0.0
 10
15.1125017726
 20
6.3796877262
 30
0.0
 10
15.1075304706
 20
6.3825627857
 30
0.0
 10
15.1013713136
 20
6.386813973
 30
0.0
 10
15.0941943124
 20
6.3928397865
 30
0.0
 10
15.0871419703
 20
6.3998465364
 30
0.0
 10
15.0826698217
 20
6.4050021995
 30
0.0
 10
15.0804526555
 20
6.4077283196
 30
0.0
  0
SPLINE
  5
371
100
AcDbEntity
  8
0
100
AcDbSpline
 62
7
  6
CONTINUOUS
 70
0
 71
3
 72
23
 73
19
 74
0
 42
0.0000001
 43
0.0000001
 44
0.0000000001
 40
0.0
 40
0.0
 40
0.0
 40
0.0
 40
0.0781691239
 40
0.1536976975
 40
0.2266579234
 40
0.2971334203
 40
0.3652213516
 40
0.4310322547
 40
0.4946916894
 40
0.5563421329
 40
0.6161427433
 40
0.6742704686
 40
0.730920822
 40
0.7863066268
 40
0.8406573579
 40
0.8942175326
 40
0.9472434512
 40
1.0
 40
1.0
 40
1.0
 40
1.0
 10
14.8702345023
 20
7.9501721119
 30
0.0
 10
14.8686671091
 20
7.9485107678
 30
0.0
 10
14.8655328293
 20
7.9452930984
 30
0.0
 10
14.8607486154
 20
7.9407116106
 30
0.0
 10
14.8559649418
 20
7.936460674
 30
0.0
 10
14.8511833566
 20
7.9325418726
 30
0.0
 10
14.8464054237
 20
7.9289564879
 30
0.0
 10
14.8416326374
 20
7.9257058179
 30
0.0
 10
14.8368664588
 20
7.9227911261
 30
0.0
 10
14.8321084455
 20
7.9202134496
 30
0.0
 10
14.8273600913
 20
7.9179738614
 30
0.0
 10
14.8226229083
 20
7.9160734198
 30
0.0
 10
14.8178985285
 20
7.9145129281
 30
0.0
 10
14.8131885722
 20
7.9132932391
 30
0.0
 10
14.808494778
 20
7.9124151444
 30
0.0
 10
14.803818889
 20
7.911879105
 30
0.0
 10
14.7991631089
 20
7.9116855452
 30
0.0
 10
14.796070516
 20
7.9117851537
 30
0.0
 10
14.7945327125
 20
7.911891797
 30
0.0
  0
SPLINE
  5
372
100
AcDbEntity
  8
0
100
AcDbSpline
 62
7
  6
CONTINUOUS
 70
0
 71
3
 72
39
 73
35
 74
0
 42
0.0000001
 43
0.0000001
 44
0.0000000001
 40
0.0
 40
0.0
 40
0.0
 40
0.0
 40
0.0322743283
 40
0.0644671078
 40
0.0965434017
 40
0.1284711899
 40
0.1602244108
 40
0.1917831014
 40
0.2231345502
 40
0.2542738168
 40
0.285204103
 40
0.3159367853
 40
0.346491125
 40
0.376893631
 40
0.407177084
 40
0.4373792492
 40
0.4675413296
 40
0.4977062336
 40
0.5279167493
 40
0.5582137251
 40
0.5886343568
 40
0.6192106713
 40
0.6499682774
 40
0.6809254336
 40
0.7120924559
 40
0.7434714713
 40
0.7750564984
 40
0.8068338309
 40
0.8387826774
 40
0.870876057
 40
0.9030817571
 40
0.9353638376
 40
0.9676830369
 40
1.0
 40
1.0
 40
1.0
 40
1.0
 10
6.9291303729
 20
9.97068072
 30
0.0
 10
6.9266139353
 20
9.9738542092
 30
0.0
 10
6.9218750229
 20
9.9804275581
 30
0.0
 10
6.9157151516
 20
9.9908790379
 30
0.0
 10
6.9105660093
 20
10.0018170599
 30
0.0
 10
6.9064781364
 20
10.0131357177
 30
0.0
 10
6.9034908188
 20
10.0247265881
 30
0.0
 10
6.9016331805
 20
10.0364783106
 30
0.0
 10
6.9009234463
 20
10.0482779523
 30
0.0
 10
6.9013688867
 20
10.0600119978
 30
0.0
 10
6.9029656682
 20
10.0715674374
 30
0.0
 10
6.9056988661
 20
10.0828328396
 30
0.0
 10
6.9095425575
 20
10.0936994277
 30
0.0
 10
6.9144600261
 20
10.104062145
 30
0.0
 10
6.9204040768
 20
10.1138207017
 30
0.0
 10
6.9273174632
 20
10.1228805901
 30
0.0
 10
6.9351334326
 20
10.1311540532
 30
0.0
 10
6.9437763843
 20
10.1385609874
 30
0.0
 10
6.9531626335
 20
10.1450297635
 30
0.0
 10
6.963201268
 20
10.1504979506
 30
0.0
 10
6.9737950853
 20
10.1549129258
 30
0.0
 10
6.9848415846
 20
10.1582323698
 30
0.0
 10
6.9962340016
 20
10.1604246441
 30
0.0
 10
7.0078623679
 20
10.1614690542
 30
0.0
 10
7.0196145843
 20
10.1613560021
 30
0.0
 10
7.031377499
 20
10.1600870331
 30
0.0
 10
7.0430379827
 20
10.1576747836
 30
0.0
 10
7.0544839952
 20
10.1541428246
 30
0.0
 10
7.0656056357
 20
10.1495254303
 30
0.0
 10
7.0762961777
 20
10.1438671868
 30
0.0
 10
7.086453029
 20
10.1372227161
 30
0.0
 10
7.09597891
 20
10.1296556435
 30
0.0
 10
7.1047816946
 20
10.1212397705
 30
0.0
 10
7.1101162626
 20
10.1151117658
 30
0.0
 10
7.1126360245
 20
10.1119340844
 30
0.0
  0
SPLINE
  5
373
100
AcDbEntity
  8
0
100
AcDbSpline
 62
7
  6
CONTINUOUS
 70
0
 71
3
 72
72
 73
68
 74
0
 42
0.0000001
 43
0.0000001
 44
0.0000000001
 40
0.0
 40
0.0
 40
0.0
 40
0.0
 40
0.0028080269
 40
0.0056357484
 40
0.0085023994
 40
0.0114263655
 40
0.0144248954
 40
0.0175138142
 40
0.0240150992
 40
0.0274548856
 40
0.0310331103
 40
0.0347582228
 40
0.038637415
 40
0.0426767077
 40
0.046881194
 40
0.0512550823
 40
0.0558017079
 40
0.0605237694
 40
0.0654233748
 40
0.075759731
 40
0.0868182127
 40
0.098598601
 40
0.1110954766
 40
0.1242989573
 40
0.1381953061
 40
0.1527676484
 40
0.1679961539
 40
0.1838584729
 40
0.2003300721
 40
0.2173842617
 40
0.2349925857
 40
0.2531249162
 40
0.2717495282
 40
0.2908334012
 40
0.3103422029
 40
0.3302404582
 40
0.3504917274
 40
0.3710585926
 40
0.4129848783
 40
0.4557069026
 40
0.4989035052
 40
0.542248869
 40
0.5854157291
 40
0.6280785651
 40
0.6699167822
 40
0.690429054
 40
0.7106188507
 40
0.7304489648
 40
0.7498830569
 40
0.7688859026
 40
0.7874234007
 40
0.8054626957
 40
0.82297243
 40
0.8399227074
 40
0.8562853711
 40
0.8720341902
 40
0.8871449021
 40
0.9015956586
 40
0.9153671668
 40
0.9284429885
 40
0.9408101529
 40
0.9524594887
 40
0.9633864448
 40
0.9735918993
 40
0.9830834872
 40
0.9918777842
 40
1.0
 40
1.0
 40
1.0
 40
1.0
 10
7.6461609594
 20
10.6719642158
 30
0.0
 10
7.6461609528
 20
10.6726324928
 30
0.0
 10
7.646102428
 20
10.6739744572
 30
0.0
 10
7.6458394156
 20
10.6759831411
 30
0.0
 10
7.6454014463
 20
10.67798937
 30
0.0
 10
7.6447889881
 20
10.6799917251
 30
0.0
 10
7.6440024532
 20
10.6819892002
 30
0.0
 10
7.6427007126
 20
10.6846900513
 30
0.0
 10
7.6410611951
 20
10.6873344608
 30
0.0
 10
7.6391303955
 20
10.6899094154
 30
0.0
 10
7.6374845485
 20
10.691867767
 30
0.0
 10
7.6356693924
 20
10.6938153922
 30
0.0
 10
7.6336857142
 20
10.695751629
 30
0.0
 10
7.6315346091
 20
10.6976755612
 30
0.0
 10
7.6292171125
 20
10.6995862773
 30
0.0
 10
7.6267343637
 20
10.7014828381
 30
0.0
 10
7.6240876397
 20
10.7033643751
 30
0.0
 10
7.6212782372
 20
10.7052299858
 30
0.0
 10
7.6172450354
 20
10.707739788
 30
0.0
 10
7.6117958649
 20
10.7108227279
 30
0.0
 10
7.6047448727
 20
10.7143805872
 30
0.0
 10
7.5970834521
 20
10.7178531859
 30
0.0
 10
7.5888268656
 20
10.721233521
 30
0.0
 10
7.5799914101
 20
10.7245148099
 30
0.0
 10
7.5705947252
 20
10.7276904703
 30
0.0
 10
7.5606555935
 20
10.7307540005
 30
0.0
 10
7.5501939702
 20
10.7336992006
 30
0.0
 10
7.5392308962
 20
10.7365200943
 30
0.0
 10
7.5277884451
 20
10.7392108833
 30
0.0
 10
7.5158896978
 20
10.7417661379
 30
0.0
 10
7.5035586669
 20
10.7441806349
 30
0.0
 10
7.4908202515
 20
10.7464494323
 30
0.0
 10
7.4777001929
 20
10.7485679574
 30
0.0
 10
7.4642250076
 20
10.7505318564
 30
0.0
 10
7.4504219373
 20
10.7523371424
 30
0.0
 10
7.4363189028
 20
10.7539801626
 30
0.0
 10
7.421944402
 20
10.7554575496
 30
0.0
 10
7.4023302088
 20
10.7572136908
 30
0.0
 10
7.3773488795
 20
10.7589673378
 30
0.0
 10
7.3469524024
 20
10.7603602043
 30
0.0
 10
7.3161938593
 20
10.7610431361
 30
0.0
 10
7.2853219564
 20
10.76101055
 30
0.0
 10
7.2545860875
 20
10.7602627287
 30
0.0
 10
7.2242347755
 20
10.7588057873
 30
0.0
 10
7.1993053647
 20
10.7569991797
 30
0.0
 10
7.1797437381
 20
10.7552012629
 30
0.0
 10
7.165416469
 20
10.7536934938
 30
0.0
 10
7.1513658965
 20
10.7520207212
 30
0.0
 10
7.137620416
 20
10.7501862793
 30
0.0
 10
7.1242078259
 20
10.7481939468
 30
0.0
 10
7.1111552415
 20
10.7460477716
 30
0.0
 10
7.0984890457
 20
10.7437520919
 30
0.0
 10
7.0862348235
 20
10.7413116324
 30
0.0
 10
7.0744173231
 20
10.7387313279
 30
0.0
 10
7.0630603913
 20
10.7360164341
 30
0.0
 10
7.0521869199
 20
10.7331725213
 30
0.0
 10
7.0418188142
 20
10.7302053243
 30
0.0
 10
7.0319769113
 20
10.7271209199
 30
0.0
 10
7.0226809491
 20
10.7239255868
 30
0.0
 10
7.0139495342
 20
10.7206257485
 30
0.0
 10
7.00580003
 20
10.7172281367
 30
0.0
 10
6.9982485702
 20
10.7137395301
 30
0.0
 10
6.9913100026
 20
10.7101667942
 30
0.0
 10
6.9849978086
 20
10.7065170254
 30
0.0
 10
6.9793238478
 20
10.702796798
 30
0.0
 10
6.9742995944
 20
10.6990132894
 30
0.0
 10
6.9712727834
 20
10.6963503469
 30
0.0
 10
6.969882471
 20
10.6950074081
 30
0.0
  0
SPLINE
  5
374
100
AcDbEntity
  8
0
100
AcDbSpline
 62
7
  6
CONTINUOUS
 70
0
 71
3
 72
72
 73
68
 74
0
 42
0.0000001
 43
0.0000001
 44
0.0000000001
 40
0.0
 40
0.0
 40
0.0
 40
0.0
 40
0.0028080269
 40
0.0056357484
 40
0.0085023994
 40
0.0114263655
 40
0.0144248954
 40
0.0175138142
 40
0.0240150992
 40
0.0274548856
 40
0.0310331103
 40
0.0347582228
 40
0.038637415
 40
0.0426767077
 40
0.046881194
 40
0.0512550823
 40
0.0558017079
 40
0.0605237694
 40
0.0654233748
 40
0.075759731
 40
0.0868182127
 40
0.098598601
 40
0.1110954766
 40
0.1242989573
 40
0.1381953061
 40
0.1527676484
 40
0.1679961539
 40
0.1838584729
 40
0.2003300721
 40
0.2173842617
 40
0.2349925857
 40
0.2531249162
 40
0.2717495282
 40
0.2908334012
 40
0.3103422029
 40
0.3302404582
 40
0.3504917274
 40
0.3710585926
 40
0.4129848783
 40
0.4557069026
 40
0.4989035052
 40
0.542248869
 40
0.5854157291
 40
0.6280785651
 40
0.6699167822
 40
0.690429054
 40
0.7106188507
 40
0.7304489648
 40
0.7498830569
 40
0.7688859026
 40
0.7874234007
 40
0.8054626957
 40
0.82297243
 40
0.8399227074
 40
0.8562853711
 40
0.8720341902
 40
0.8871449021
 40
0.9015956586
 40
0.9153671668
 40
0.9284429885
 40
0.9408101529
 40
0.9524594887
 40
0.9633864448
 40
0.9735918993
 40
0.9830834872
 40
0.9918777842
 40
1.0
 40
1.0
 40
1.0
 40
1.0
 10
14.1680924425
 20
10.2196667313
 30
0.0
 10
14.1680924359
 20
10.2203350083
 30
0.0
 10
14.1680339111
 20
10.2216769726
 30
0.0
 10
14.1677708987
 20
10.2236856566
 30
0.0
 10
14.1673329294
 20
10.2256918854
 30
0.0
 10
14.1667204712
 20
10.2276942405
 30
0.0
 10
14.1659339363
 20
10.2296917157
 30
0.0
 10
14.1646321957
 20
10.2323925668
 30
0.0
 10
14.1629926782
 20
10.2350369763
 30
0.0
 10
14.1610618786
 20
10.2376119308
 30
0.0
 10
14.1594160316
 20
10.2395702824
 30
0.0
 10
14.1576008755
 20
10.2415179076
 30
0.0
 10
14.1556171973
 20
10.2434541444
 30
0.0
 10
14.1534660922
 20
10.2453780767
 30
0.0
 10
14.1511485956
 20
10.2472887928
 30
0.0
 10
14.1486658468
 20
10.2491853535
 30
0.0
 10
14.1460191228
 20
10.2510668905
 30
0.0
 10
14.1432097203
 20
10.2529325012
 30
0.0
 10
14.1391765185
 20
10.2554423034
 30
0.0
 10
14.133727348
 20
10.2585252434
 30
0.0
 10
14.1266763557
 20
10.2620831026
 30
0.0
 10
14.1190149352
 20
10.2655557013
 30
0.0
 10
14.1107583487
 20
10.2689360364
 30
0.0
 10
14.1019228932
 20
10.2722173253
 30
0.0
 10
14.0925262083
 20
10.2753929857
 30
0.0
 10
14.0825870766
 20
10.2784565159
 30
0.0
 10
14.0721254533
 20
10.2814017161
 30
0.0
 10
14.0611623793
 20
10.2842226098
 30
0.0
 10
14.0497199282
 20
10.2869133988
 30
0.0
 10
14.0378211809
 20
10.2894686533
 30
0.0
 10
14.02549015
 20
10.2918831504
 30
0.0
 10
14.0127517346
 20
10.2941519477
 30
0.0
 10
13.999631676
 20
10.2962704728
 30
0.0
 10
13.9861564907
 20
10.2982343718
 30
0.0
 10
13.9723534204
 20
10.3000396578
 30
0.0
 10
13.9582503859
 20
10.301682678
 30
0.0
 10
13.9438758851
 20
10.3031600651
 30
0.0
 10
13.9242616919
 20
10.3049162062
 30
0.0
 10
13.8992803626
 20
10.3066698532
 30
0.0
 10
13.8688838855
 20
10.3080627198
 30
0.0
 10
13.8381253424
 20
10.3087456515
 30
0.0
 10
13.8072534395
 20
10.3087130654
 30
0.0
 10
13.7765175706
 20
10.3079652441
 30
0.0
 10
13.7461662586
 20
10.3065083027
 30
0.0
 10
13.7212368478
 20
10.3047016951
 30
0.0
 10
13.7016752212
 20
10.3029037783
 30
0.0
 10
13.6873479521
 20
10.3013960092
 30
0.0
 10
13.6732973796
 20
10.2997232367
 30
0.0
 10
13.6595518991
 20
10.2978887948
 30
0.0
 10
13.646139309
 20
10.2958964623
 30
0.0
 10
13.6330867246
 20
10.293750287
 30
0.0
 10
13.6204205288
 20
10.2914546073
 30
0.0
 10
13.6081663066
 20
10.2890141478
 30
0.0
 10
13.5963488062
 20
10.2864338434
 30
0.0
 10
13.5849918744
 20
10.2837189495
 30
0.0
 10
13.574118403
 20
10.2808750367
 30
0.0
 10
13.5637502973
 20
10.2779078398
 30
0.0
 10
13.5539083944
 20
10.2748234353
 30
0.0
 10
13.5446124322
 20
10.2716281022
 30
0.0
 10
13.5358810173
 20
10.2683282639
 30
0.0
 10
13.5277315131
 20
10.2649306521
 30
0.0
 10
13.5201800533
 20
10.2614420456
 30
0.0
 10
13.5132414857
 20
10.2578693097
 30
0.0
 10
13.5069292917
 20
10.2542195409
 30
0.0
 10
13.5012553309
 20
10.2504993134
 30
0.0
 10
13.4962310775
 20
10.2467158048
 30
0.0
 10
13.4932042665
 20
10.2440528623
 30
0.0
 10
13.4918139541
 20
10.2427099235
 30
0.0
  0
SPLINE
  5
375
100
AcDbEntity
  8
0
100
AcDbSpline
 62
7
  6
CONTINUOUS
 70
0
 71
3
 72
23
 73
19
 74
0
 42
0.0000001
 43
0.0000001
 44
0.0000000001
 40
0.0
 40
0.0
 40
0.0
 40
0.0
 40
0.0637759921
 40
0.1273452428
 40
0.1907020512
 40
0.253855997
 40
0.316813242
 40
0.3795820858
 40
0.4421733814
 40
0.5045993391
 40
0.5668738627
 40
0.6290123824
 40
0.6910316503
 40
0.7529496421
 40
0.8147853555
 40
0.8765586045
 40
0.9382898526
 40
1.0
 40
1.0
 40
1.0
 40
1.0
 10
11.11542083
 20
6.6550680874
 30
0.0
 10
11.11542083
 20
6.6615789088
 30
0.0
 10
11.1157325192
 20
6.6745816502
 30
0.0
 10
11.1171390344
 20
6.6940066234
 30
0.0
 10
11.1194810082
 20
6.7132777018
 30
0.0
 10
11.1227528235
 20
6.7323494267
 30
0.0
 10
11.1269470549
 20
6.7511783569
 30
0.0
 10
11.1320540543
 20
6.7697209663
 30
0.0
 10
11.138062135
 20
6.7879344803
 30
0.0
 10
11.1449574867
 20
6.8057769149
 30
0.0
 10
11.152724172
 20
6.8232071463
 30
0.0
 10
11.161344386
 20
6.8401849434
 30
0.0
 10
11.1707983005
 20
6.8566711217
 30
0.0
 10
11.181064058
 20
6.8726277082
 30
0.0
 10
11.1921180129
 20
6.8880178351
 30
0.0
 10
11.2039348677
 20
6.9028060701
 30
0.0
 10
11.2164868157
 20
6.916957906
 30
0.0
 10
11.225327235
 20
6.9259480765
 30
0.0
 10
11.2298584826
 20
6.9303249254
 30
0.0
  0
SPLINE
  5
376
100
AcDbEntity
  8
0
100
AcDbSpline
 62
7
  6
CONTINUOUS
 70
0
 71
3
 72
39
 73
35
 74
0
 42
0.0000001
 43
0.0000001
 44
0.0000000001
 40
0.0
 40
0.0
 40
0.0
 40
0.0
 40
0.0322743283
 40
0.0644671078
 40
0.0965434017
 40
0.1284711899
 40
0.1602244108
 40
0.1917831014
 40
0.2231345502
 40
0.2542738168
 40
0.285204103
 40
0.3159367853
 40
0.346491125
 40
0.376893631
 40
0.407177084
 40
0.4373792492
 40
0.4675413296
 40
0.4977062336
 40
0.5279167493
 40
0.5582137251
 40
0.5886343568
 40
0.6192106713
 40
0.6499682774
 40
0.6809254336
 40
0.7120924559
 40
0.7434714713
 40
0.7750564984
 40
0.8068338309
 40
0.8387826774
 40
0.870876057
 40
0.9030817571
 40
0.9353638376
 40
0.9676830369
 40
1.0
 40
1.0
 40
1.0
 40
1.0
 10
7.1126360245
 20
10.1119340844
 30
0.0
 10
7.1151524622
 20
10.1087605952
 30
0.0
 10
7.1198913746
 20
10.1021872463
 30
0.0
 10
7.1260512458
 20
10.0917357665
 30
0.0
 10
7.1312003881
 20
10.0807977445
 30
0.0
 10
7.135288261
 20
10.0694790868
 30
0.0
 10
7.1382755786
 20
10.0578882163
 30
0.0
 10
7.140133217
 20
10.0461364939
 30
0.0
 10
7.1408429511
 20
10.0343368521
 30
0.0
 10
7.1403975108
 20
10.0226028066
 30
0.0
 10
7.1388007292
 20
10.011047367
 30
0.0
 10
7.1360675313
 20
9.9997819648
 30
0.0
 10
7.1322238399
 20
9.9889153767
 30
0.0
 10
7.1273063713
 20
9.9785526594
 30
0.0
 10
7.1213623206
 20
9.9687941028
 30
0.0
 10
7.1144489342
 20
9.9597342143
 30
0.0
 10
7.1066329648
 20
9.9514607513
 30
0.0
 10
7.0979900131
 20
9.944053817
 30
0.0
 10
7.088603764
 20
9.9375850409
 30
0.0
 10
7.0785651294
 20
9.9321168538
 30
0.0
 10
7.0679713121
 20
9.9277018786
 30
0.0
 10
7.0569248128
 20
9.9243824346
 30
0.0
 10
7.0455323958
 20
9.9221901603
 30
0.0
 10
7.0339040295
 20
9.9211457502
 30
0.0
 10
7.0221518131
 20
9.9212588023
 30
0.0
 10
7.0103888984
 20
9.9225277714
 30
0.0
 10
6.9987284147
 20
9.9249400208
 30
0.0
 10
6.9872824022
 20
9.9284719798
 30
0.0
 10
6.9761607617
 20
9.9330893741
 30
0.0
 10
6.9654702197
 20
9.9387476176
 30
0.0
 10
6.9553133684
 20
9.9453920883
 30
0.0
 10
6.9457874874
 20
9.9529591609
 30
0.0
 10
6.9369847028
 20
9.9613750339
 30
0.0
 10
6.9316501348
 20
9.9675030386
 30
0.0
 10
6.9291303729
 20
9.97068072
 30
0.0
  0
ENDSEC
  0
SECTION
  2
OBJECTS
  0
DICTIONARY
  5
C
100
AcDbDictionary
280
0
281
1
  3
ACAD_GROUP
350
D
  3
ACAD_MLINESTYLE
350
17
  3
ACAD_LAYOUT
350
1A
  3
ACAD_PLOTSETTINGS
350
19
  3
ACAD_PLOTSTYLENAME
350
E
  3
ACAD_IMAGE_DICT
350
       378
  3
ACAD_IMAGE_VARS
350
       379
  3
ACAD_TABLESTYLE
350
       37A
  0
IMAGEDEF_REACTOR
  5
377
100
AcDbRasterImageDefReactor
 90
2
330
287
  0
DICTIONARY
  5
D
102
{ACAD_REACTORS
330
C
102
}
100
AcDbDictionary
280
0
281
1
  0
ACDBDICTIONARYWDFLT
  5
E
102
{ACAD_REACTORS
330
C
102
}
100
AcDbDictionary
281
1
  3
Normal
350
F
100
AcDbDictionaryWithDefault
340
F
  0
DICTIONARY
  5
378
330
C
100
AcDbDictionary
281
1
  3
E8A_assy_2_img_1
350
       37D
  0
RASTERVARIABLES
  5
379
330
C
100
AcDbRasterVariables
 90
0
 70
0
 71
1
 72
5
  0
DICTIONARY
  5
17
102
{ACAD_REACTORS
330
C
102
}
100
AcDbDictionary
280
0
281
1
  3
Standard
350
18
  0
DICTIONARY
  5
37A
330
C
100
AcDbDictionary
281
1
  3
Standard
350
       37E
  3
Standard1
350
       37F
  0
DICTIONARY
  5
19
102
{ACAD_REACTORS
330
C
102
}
100
AcDbDictionary
281
1
  0
DICTIONARY
  5
1A
102
{ACAD_REACTORS
330
C
102
}
100
AcDbDictionary
281
1
  3
Model
350
37B
  3
Layout1
350
37C
  0
ACDBPLACEHOLDER
  5
F
102
{ACAD_REACTORS
330
E
102
}
  0
MLINESTYLE
  5
18
102
{ACAD_REACTORS
330
17
102
}
100
AcDbMlineStyle
  2
STANDARD
 70
0
  3

 62
256
 51
90.0
 52
90.0
 71
2
 49
0.5
 62
256
  6
BYLAYER
 49
-0.5
 62
256
  6
BYLAYER
  0
LAYOUT
  5
37B
102
{ACAD_REACTORS
330
1A
102
}
100
AcDbPlotSettings
  1

  2
none_device
  4
ANSI_C_(22.00_x_17.00_Inches)
  6

 40
0.0
 41
0.0
 42
0.0
 43
0.0
 44
558.8
 45
431.8
 46
0.0
 47
0.0
 48
0.0
 49
0.0
140
0.0
141
0.0
142
1.0
143
1.0
 70
1024
 72
0
 73
0
 74
0
  7

 75
0
147
1.0
148
0.0
149
0.0
100
AcDbLayout
  1
Model
 70
0
 71
0
 10
0.0
 20
0.0
 11
22.0
 21
17.0
 12
0.0
 22
0.0
 32
0.0
 14
0.0
 24
0.0
 34
0.0
 15
0.0
 25
0.0
 35
0.0
146
0.0
 13
0.0
 23
0.0
 33
0.0
 16
1.0
 26
0.0
 36
0.0
 17
0.0
 27
1.0
 37
0.0
 76
0
330
20C
345
0
346
0
  0
LAYOUT
  5
37C
102
{ACAD_REACTORS
330
1A
102
}
100
AcDbPlotSettings
  1

  2
none_device
  4
ANSI_C_(22.00_x_17.00_Inches)
  6

 40
0.0
 41
0.0
 42
0.0
 43
0.0
 44
558.8
 45
431.8
 46
0.0
 47
0.0
 48
0.0
 49
0.0
140
0.0
141
0.0
142
1.0
143
1.0
 70
0
 72
0
 73
0
 74
0
  7

 75
0
147
1.0
148
0.0
149
0.0
100
AcDbLayout
  1
Layout1
 70
0
 71
1
 10
0.0
 20
0.0
 11
22.0
 21
17.0
 12
0.0
 22
0.0
 32
0.0
 14
0.0
 24
0.0
 34
0.0
 15
0.0
 25
0.0
 35
0.0
146
0.0
 13
0.0
 23
0.0
 33
0.0
 16
1.0
 26
0.0
 36
0.0
 17
0.0
 27
1.0
 37
0.0
 76
0
330
20D
345
0
346
0
  0
IMAGEDEF
  5
37D
102
{ACAD_REACTORS
330
378
330
377
102
}
100
AcDbRasterImageDef
 90
0
  1
E8A_assy_2_img_1.png
 10
369.0
 20
92.0
 11
0.0066666667
 21
0.0066666667
280
1
281
0
  0
TABLESTYLE
  5
37E
102
{ACAD_REACTORS
330
37A
330
28A
330
28B
102
}
330
37A
100
AcDbTableStyle
  3
Standard
 70
0
 71
0
 40
0.06
 41
0.06
280
1
281
1
  7
Standard
140
0.18
170
1
 62
0
 63
7
283
0
  7
Standard
140
0.18
170
1
 62
0
 63
7
283
0
  7
Standard
140
0.18
170
1
 62
0
 63
7
283
0
  0
TABLESTYLE
  5
37F
102
{ACAD_REACTORS
330
37A
330
289
102
}
330
37A
100
AcDbTableStyle
  3
Standard1
 70
1
 71
0
 40
0.06
 41
0.06
280
1
281
1
  7
Standard
140
0.18
170
1
 62
0
 63
7
283
0
  7
Standard
140
0.18
170
1
 62
0
 63
7
283
0
  7
Standard
140
0.18
170
1
 62
0
 63
7
283
0
  0
ENDSEC
  0
EOF
