999
DXF file: E7U_assy_2.dxf
999
Pro/ENGINEER 2014200 by Parametric Technology Corporation
  0
SECTION
  2
HEADER
  9
$ACADVER
  1
AC1021
  9
$DWGCODEPAGE
  3
ANSI_1252
  9
$EXTMAX
 10
22.0
 20
17.0
 30
0.0
  9
$EXTMIN
 10
0.0
 20
0.0
 30
0.0
  9
$LIMMIN
 10
0.0
 20
0.0
  9
$LIMMAX
 10
22.0
 20
17.0
  9
$VIEWCTR
 10
11.0
 20
8.5
  9
$VIEWSIZE
 40
17.0
  9
$CLAYER
  8
0
  9
$LTSCALE
 40
1.21
  9
$CELTYPE
  6
BYLAYER
  9
$DIMSCALE
 40
1.0
  9
$DIMASZ
 40
0.1875
  9
$DIMEXO
 40
0.0625
  9
$DIMDLI
 40
0.836
  9
$DIMEXE
 40
0.125
  9
$DIMCEN
 40
0.198
  9
$DIMLFAC
 40
1.0
  9
$DIMBLK
  1
_FILLED
  9
$DIMTXT
 40
0.1
  9
$DIMTOL
 70
0
  9
$DIMLIM
 70
0
  9
$DIMTFAC
 40
1.0
  9
$DIMGAP
 40
0.09
  9
$DIMDSEP
 70
46
  9
$AUNITS
 70
0
  9
$PDMODE
 70
3
  9
$PDSIZE
 40
0.3125
  9
$HANDSEED
  5
3C0
  9
$TILEMODE
 70
1
  9
$MEASUREMENT
 70
0
  9
$INSUNITS
 70
1
  0
ENDSEC
  0
SECTION
  2
CLASSES
  0
CLASS
  1
ACDBDICTIONARYWDFLT
  2
AcDbDictionaryWithDefault
  3
AutoCAD 2000
 90
0
 91
1
280
0
281
0
  0
CLASS
  1
ACDBPLACEHOLDER
  2
AcDbPlaceHolder
  3
AutoCAD 2000
 90
0
 91
1
280
0
281
0
  0
CLASS
  1
LAYOUT
  2
AcDbLayout
  3
AutoCAD 2000
 90
0
 91
0
280
0
281
0
  0
CLASS
  1
RASTERVARIABLES
  2
AcDbRasterVariables
  3
ISM
 90
0
 91
1
280
0
281
0
  0
CLASS
  1
IMAGEDEF
  2
AcDbRasterImageDef
  3
ISM
 90
0
 91
1
280
0
281
0
  0
CLASS
  1
IMAGEDEF_REACTOR
  2
AcDbRasterImageDefReactor
  3
ISM
 90
0
 91
1
280
0
281
0
  0
CLASS
  1
IMAGE
  2
AcDbRasterImage
  3
ISM
 90
127
 91
1
280
0
281
1
  0
CLASS
  1
TABLESTYLE
  2
AcDbTableStyle
  3
ObjectDBX Classes
 90
2047
 91
1
280
0
281
0
  0
CLASS
  1
ACAD_TABLE
  2
AcDbTable
  3
ObjectDBX Classes
 90
1025
 91
3
280
0
281
1
  0
ENDSEC
  0
SECTION
  2
TABLES
  0
TABLE
  2
VPORT
  5
8
100
AcDbSymbolTable
 70
2
  0
VPORT
  5
1F4
100
AcDbSymbolTableRecord
100
AcDbViewportTableRecord
  2
*ACTIVE
 70
0
 10
0.0
 20
0.0
 11
1.0
 21
1.0
 12
11.0
 22
8.5
 13
0.0
 23
0.0
 14
1.0
 24
1.0
 15
0.0
 25
0.0
 16
0.0
 26
0.0
 36
1.0
 17
0.0
 27
0.0
 37
0.0
 40
17.0
 41
1.2941176471
 42
50.0
 43
0.0
 44
0.0
 50
0.0
 51
0.0
 71
0
 72
100
 73
1
 74
1
 75
0
 76
0
 77
0
 78
0
  0
ENDTAB
  0
TABLE
  2
LTYPE
  5
5
100
AcDbSymbolTable
 70
6
  0
LTYPE
  5
14
100
AcDbSymbolTableRecord
100
AcDbLinetypeTableRecord
  2
BYBLOCK
 70
0
  3

 72
65
 73
0
 40
0.0
  0
LTYPE
  5
15
100
AcDbSymbolTableRecord
100
AcDbLinetypeTableRecord
  2
BYLAYER
 70
0
  3

 72
65
 73
0
 40
0.0
  0
LTYPE
  5
16
100
AcDbSymbolTableRecord
100
AcDbLinetypeTableRecord
  2
CONTINUOUS
 70
64
  3
Solid line
 72
65
 73
0
 40
0.0
  0
LTYPE
  5
1F5
100
AcDbSymbolTableRecord
100
AcDbLinetypeTableRecord
  2
CENTER
 70
64
  3
____ _ ____ _ ____ _ ____ _ ____ _ ____ _ ____
 72
65
 73
4
 40
0.6
 49
0.375
 74
0
 49
-0.075
 74
0
 49
0.075
 74
0
 49
-0.075
 74
0
  0
LTYPE
  5
1F6
100
AcDbSymbolTableRecord
100
AcDbLinetypeTableRecord
  2
HIDDEN
 70
64
  3
- - - - - - - - - - - - - - - - - - - -
 72
65
 73
2
 40
0.2
 49
0.1
 74
0
 49
-0.1
 74
0
  0
LTYPE
  5
1F7
100
AcDbSymbolTableRecord
100
AcDbLinetypeTableRecord
  2
PHANTOM
 70
64
  3
_____ _ _ _____ _ _ _____ _ _ _____
 72
65
 73
6
 40
0.8
 49
0.45
 74
0
 49
-0.05
 74
0
 49
0.1
 74
0
 49
-0.05
 74
0
 49
0.1
 74
0
 49
-0.05
 74
0
  0
LTYPE
  5
1F8
100
AcDbSymbolTableRecord
100
AcDbLinetypeTableRecord
  2
DOT
 70
64
  3
. . . . . . . . . . . . . . . . . . . .
 72
65
 73
2
 40
0.2
 49
0.1
 74
0
 49
-0.1
 74
0
  0
LTYPE
  5
1F9
100
AcDbSymbolTableRecord
100
AcDbLinetypeTableRecord
  2
DASHED
 70
64
  3
- - - - - - - - - - - - - - - - - - - -
 72
65
 73
2
 40
0.2
 49
0.1
 74
0
 49
-0.1
 74
0
  0
ENDTAB
  0
TABLE
  2
LAYER
  5
2
100
AcDbSymbolTable
 70
36
  0
LAYER
  5
10
100
AcDbSymbolTableRecord
100
AcDbLayerTableRecord
  2
0
 70
0
 62
7
  6
CONTINUOUS
370
-3
390
F
  0
LAYER
  5
1FA
100
AcDbSymbolTableRecord
100
AcDbLayerTableRecord
  2
DEFAULT_1
 70
0
 62
7
  6
CENTER
370
-3
390
F
  0
LAYER
  5
1FB
100
AcDbSymbolTableRecord
100
AcDbLayerTableRecord
  2
DEFAULT_2
 70
0
 62
8
  6
HIDDEN
370
-3
390
F
  0
LAYER
  5
1FC
100
AcDbSymbolTableRecord
100
AcDbLayerTableRecord
  2
DEFAULT_3
 70
0
 62
7
  6
PHANTOM
370
-3
390
F
  0
LAYER
  5
1FD
100
AcDbSymbolTableRecord
100
AcDbLayerTableRecord
  2
01___PRT_ALL_DTM_PLN
 70
0
 62
7
  6
CONTINUOUS
370
-3
390
F
  0
LAYER
  5
1FE
100
AcDbSymbolTableRecord
100
AcDbLayerTableRecord
  2
01___PRT_DEF_DTM_PLN
 70
0
 62
7
  6
CONTINUOUS
370
-3
390
F
  0
LAYER
  5
1FF
100
AcDbSymbolTableRecord
100
AcDbLayerTableRecord
  2
02___PRT_ALL_AXES
 70
0
 62
7
  6
CONTINUOUS
370
-3
390
F
  0
LAYER
  5
200
100
AcDbSymbolTableRecord
100
AcDbLayerTableRecord
  2
03___PRT_ALL_CURVES
 70
0
 62
7
  6
CONTINUOUS
370
-3
390
F
  0
LAYER
  5
201
100
AcDbSymbolTableRecord
100
AcDbLayerTableRecord
  2
04___PRT_ALL_DTM_PNT
 70
0
 62
7
  6
CONTINUOUS
370
-3
390
F
  0
LAYER
  5
202
100
AcDbSymbolTableRecord
100
AcDbLayerTableRecord
  2
05___PRT_ALL_DTM_CSYS
 70
0
 62
7
  6
CONTINUOUS
370
-3
390
F
  0
LAYER
  5
203
100
AcDbSymbolTableRecord
100
AcDbLayerTableRecord
  2
05___PRT_DEF_DTM_CSYS
 70
0
 62
7
  6
CONTINUOUS
370
-3
390
F
  0
LAYER
  5
204
100
AcDbSymbolTableRecord
100
AcDbLayerTableRecord
  2
06___PRT_ALL_SURFS
 70
0
 62
7
  6
CONTINUOUS
370
-3
390
F
  0
LAYER
  5
205
100
AcDbSymbolTableRecord
100
AcDbLayerTableRecord
  2
DATUM_PLANES
 70
0
 62
7
  6
CONTINUOUS
370
-3
390
F
  0
LAYER
  5
206
100
AcDbSymbolTableRecord
100
AcDbLayerTableRecord
  2
PORT_AREAS
 70
0
 62
7
  6
CONTINUOUS
370
-3
390
F
  0
LAYER
  5
207
100
AcDbSymbolTableRecord
100
AcDbLayerTableRecord
  2
SUNNBOMCOSMETIC
 70
0
 62
7
  6
CONTINUOUS
370
-3
390
F
  0
LAYER
  5
208
100
AcDbSymbolTableRecord
100
AcDbLayerTableRecord
  2
SUNNBOMSTAMPING
 70
0
 62
7
  6
CONTINUOUS
370
-3
390
F
  0
LAYER
  5
209
100
AcDbSymbolTableRecord
100
AcDbLayerTableRecord
  2
THREADS
 70
0
 62
7
  6
CONTINUOUS
370
-3
390
F
  0
ENDTAB
  0
TABLE
  2
STYLE
  5
3
100
AcDbSymbolTable
 70
1
  0
STYLE
  5
11
100
AcDbSymbolTableRecord
100
AcDbTextStyleTableRecord
  2
STANDARD
 70
0
 40
0.0
 41
0.8
 50
0.0
 71
0
 42
0.2
  3
txt
  4

  0
STYLE
  5
20A
100
AcDbSymbolTableRecord
100
AcDbTextStyleTableRecord
  2
TEXTSTYLE_1
 70
0
 40
0.0
 41
0.8
 50
0.0
 71
0
 42
0.2
  3
gdt
  4

  0
ENDTAB
  0
TABLE
  2
VIEW
  5
6
100
AcDbSymbolTable
 70
0
  0
ENDTAB
  0
TABLE
  2
UCS
  5
7
100
AcDbSymbolTable
 70
0
  0
ENDTAB
  0
TABLE
  2
APPID
  5
9
100
AcDbSymbolTable
 70
1
  0
APPID
  5
20B
100
AcDbSymbolTableRecord
100
AcDbRegAppTableRecord
  2
ACAD
 70
0
  0
ENDTAB
  0
TABLE
  2
BLOCK_RECORD
  5
1
100
AcDbSymbolTable
 70
0
  0
BLOCK_RECORD
  5
20C
100
AcDbSymbolTableRecord
100
AcDbBlockTableRecord
  2
*Model_Space
  0
BLOCK_RECORD
  5
20D
100
AcDbSymbolTableRecord
100
AcDbBlockTableRecord
  2
*Paper_Space
  0
BLOCK_RECORD
  5
20E
100
AcDbSymbolTableRecord
100
AcDbBlockTableRecord
  2
SUN_FIRST_THIRD_ANGLE_BL0
  0
BLOCK_RECORD
  5
20F
100
AcDbSymbolTableRecord
100
AcDbBlockTableRecord
  2
*T1
  0
BLOCK_RECORD
  5
210
100
AcDbSymbolTableRecord
100
AcDbBlockTableRecord
  2
*T2
  0
BLOCK_RECORD
  5
211
100
AcDbSymbolTableRecord
100
AcDbBlockTableRecord
  2
*T3
  0
ENDTAB
  0
TABLE
  2
DIMSTYLE
  5
A
100
AcDbSymbolTable
 70
1
100
AcDbDimStyleTable
 71
0
  0
DIMSTYLE
105
212
100
AcDbSymbolTableRecord
100
AcDbDimStyleTableRecord
  2
STANDARD
 70
0
  3

  4

 40
1.0
 41
0.1875
 42
0.0625
 43
0.38
 44
0.125
 45
0.0
 46
0.0
 47
0.001
 48
0.001
140
0.1
141
0.09
142
0.0
143
25.4
144
1.0
145
0.0
146
1.0
147
0.09
 71
0.0
 72
0.0
 73
1
 74
1
 75
0
 76
0
 77
0
 78
4
170
0
171
2
172
0
173
0
174
0
175
0
176
0
177
0
178
0
270
2
271
3
272
3
273
2
274
2
275
0
280
0
281
0
282
0
283
1
284
4
285
0
286
0
287
3
288
0
340
11
278
46
  0
ENDTAB
  0
ENDSEC
  0
SECTION
  2
BLOCKS
  0
BLOCK
  5
20
100
AcDbEntity
  8
0
100
AcDbBlockBegin
  2
*Model_Space
 70
0
 10
0.0
 20
0.0
 30
0.0
  3
*Model_Space
  1

  0
ENDBLK
  5
21
100
AcDbEntity
  8
0
100
AcDbBlockEnd
  0
BLOCK
  5
1C
100
AcDbEntity
  8
0
100
AcDbBlockBegin
  2
*Paper_Space
 70
0
 10
0.0
 20
0.0
 30
0.0
  3
*Paper_Space
  1

  0
ENDBLK
  5
1D
100
AcDbEntity
  8
0
100
AcDbBlockEnd
  0
BLOCK
  5
213
100
AcDbEntity
  8
0
100
AcDbBlockBegin
 62
2
  6
CONTINUOUS
  2
SUN_FIRST_THIRD_ANGLE_BL0
 70
64
 10
20.4816717061
 20
1.2289683772
  3
SUN_FIRST_THIRD_ANGLE_BL0
  1

  0
TEXT
  5
214
100
AcDbEntity
  8
0
100
AcDbText
 62
2
  6
CONTINUOUS
 10
19.4750896608
 20
1.4136269581
  7
STANDARD
 40
0.08
  1
FIRST ANGLE
 41
0.8
 72
0
100
AcDbText
  0
TEXT
  5
215
100
AcDbEntity
  8
0
100
AcDbText
 62
2
  6
CONTINUOUS
 10
20.7842537513
 20
1.4047600029
  7
STANDARD
 40
0.08
  1
THIRD ANGLE
 41
0.8
 72
0
100
AcDbText
  0
LINE
  5
216
100
AcDbEntity
  8
0
100
AcDbLine
 62
7
  6
CONTINUOUS
 10
19.4767170086
 20
1.1727031207
 11
19.6334271527
 21
1.1717972817
  0
LINE
  5
217
100
AcDbEntity
  8
0
100
AcDbLine
 62
7
  6
CONTINUOUS
 10
19.6596964832
 20
1.1717972817
 11
19.6950230232
 21
1.171593082
  0
LINE
  5
218
100
AcDbEntity
  8
0
100
AcDbLine
 62
7
  6
CONTINUOUS
 10
19.7194818561
 20
1.1708914427
 11
19.8852396156
 21
1.1699333054
  0
LINE
  5
219
100
AcDbEntity
  8
0
100
AcDbLine
 62
7
  6
CONTINUOUS
 10
19.4758111696
 20
1.2723454088
 11
19.88525039
 21
1.3511534004
  0
LINE
  5
21A
100
AcDbEntity
  8
0
100
AcDbLine
 62
7
  6
CONTINUOUS
 10
19.88525039
 20
1.3511534004
 11
19.8831348489
 21
0.9851647912
  0
LINE
  5
21B
100
AcDbEntity
  8
0
100
AcDbLine
 62
7
  6
CONTINUOUS
 10
19.8831348489
 20
0.9851647912
 11
19.4767170086
 21
1.0658141206
  0
LINE
  5
21C
100
AcDbEntity
  8
0
100
AcDbLine
 62
7
  6
CONTINUOUS
 10
19.4767170086
 20
1.0658141206
 11
19.4779056764
 21
1.2714536432
  0
CIRCLE
  5
21D
100
AcDbEntity
  8
0
100
AcDbCircle
 62
7
  6
CONTINUOUS
 10
20.2068232291
 20
1.1717972817
 40
0.175742101
  0
CIRCLE
  5
21E
100
AcDbEntity
  8
0
100
AcDbCircle
 62
7
  6
CONTINUOUS
 10
20.2068232291
 20
1.1717972817
 40
0.1005522074
  0
LINE
  5
21F
100
AcDbEntity
  8
0
100
AcDbLine
 62
7
  6
CONTINUOUS
 10
20.2077290681
 20
1.3756110529
 11
20.2071171714
 21
1.2379342989
  0
LINE
  5
220
100
AcDbEntity
  8
0
100
AcDbLine
 62
7
  6
CONTINUOUS
 10
20.2077290681
 20
1.2016899681
 11
20.2074674401
 21
1.1428236749
  0
LINE
  5
221
100
AcDbEntity
  8
0
100
AcDbLine
 62
7
  6
CONTINUOUS
 10
20.208634907
 20
1.101141841
 11
20.2080230104
 21
0.963465087
  0
LINE
  5
222
100
AcDbEntity
  8
0
100
AcDbLine
 62
7
  6
CONTINUOUS
 10
20.0066328138
 20
1.1745147986
 11
20.1443095678
 21
1.1739029019
  0
LINE
  5
223
100
AcDbEntity
  8
0
100
AcDbLine
 62
7
  6
CONTINUOUS
 10
20.1832714155
 20
1.1727031207
 11
20.238153505
 21
1.172335442
  0
LINE
  5
224
100
AcDbEntity
  8
0
100
AcDbLine
 62
7
  6
CONTINUOUS
 10
20.2756669918
 20
1.1717972817
 11
20.407916871
 21
1.1712095044
  0
CIRCLE
  5
225
100
AcDbEntity
  8
0
100
AcDbCircle
 62
7
  6
CONTINUOUS
 10
20.7509457401
 20
1.1693297793
 40
0.1722024983
  0
CIRCLE
  5
226
100
AcDbEntity
  8
0
100
AcDbCircle
 62
7
  6
CONTINUOUS
 10
20.7509457401
 20
1.1693297793
 40
0.0985164967
  0
LINE
  5
227
100
AcDbEntity
  8
0
100
AcDbLine
 62
7
  6
CONTINUOUS
 10
20.7169767782
 20
1.170462078
 11
20.7825395137
 21
1.1682766535
  0
LINE
  5
228
100
AcDbEntity
  8
0
100
AcDbLine
 62
7
  6
CONTINUOUS
 10
20.8177513651
 20
1.1693297793
 11
20.947965719
 21
1.1693297793
  0
LINE
  5
229
100
AcDbEntity
  8
0
100
AcDbLine
 62
7
  6
CONTINUOUS
 10
20.6875370113
 20
1.170462078
 11
20.5573226574
 21
1.170462078
  0
LINE
  5
22A
100
AcDbEntity
  8
0
100
AcDbLine
 62
7
  6
CONTINUOUS
 10
20.7486811426
 20
1.1987695462
 11
20.7486811426
 21
1.1432869085
  0
LINE
  5
22B
100
AcDbEntity
  8
0
100
AcDbLine
 62
7
  6
CONTINUOUS
 10
20.7498134414
 20
1.1059210505
 11
20.7498134414
 21
0.9757066966
  0
LINE
  5
22C
100
AcDbEntity
  8
0
100
AcDbLine
 62
7
  6
CONTINUOUS
 10
20.7486811426
 20
1.2338708068
 11
20.7486811426
 21
1.3640851607
  0
LINE
  5
22D
100
AcDbEntity
  8
0
100
AcDbLine
 62
7
  6
CONTINUOUS
 10
21.0702539817
 20
1.2701043662
 11
21.4790138229
 21
1.3448360823
  0
LINE
  5
22E
100
AcDbEntity
  8
0
100
AcDbLine
 62
7
  6
CONTINUOUS
 10
21.4790138229
 20
1.3448360823
 11
21.4790138229
 21
0.9779712941
  0
LINE
  5
22F
100
AcDbEntity
  8
0
100
AcDbLine
 62
7
  6
CONTINUOUS
 10
21.4790138229
 20
0.9779712941
 11
21.069121683
 21
1.0617614
  0
LINE
  5
230
100
AcDbEntity
  8
0
100
AcDbLine
 62
7
  6
CONTINUOUS
 10
21.0702539817
 20
1.2701043662
 11
21.069121683
 21
1.0617614
  0
LINE
  5
231
100
AcDbEntity
  8
0
100
AcDbLine
 62
7
  6
CONTINUOUS
 10
21.4790138229
 20
1.1693297793
 11
21.3159628059
 21
1.1693297793
  0
LINE
  5
232
100
AcDbEntity
  8
0
100
AcDbLine
 62
7
  6
CONTINUOUS
 10
21.2876553377
 20
1.1693297793
 11
21.2502894796
 21
1.1693297793
  0
LINE
  5
233
100
AcDbEntity
  8
0
100
AcDbLine
 62
7
  6
CONTINUOUS
 10
21.2208497126
 20
1.1659328831
 11
21.0713862804
 21
1.1659328831
  0
LINE
  5
234
100
AcDbEntity
  8
0
100
AcDbLine
 62
7
  6
CONTINUOUS
 10
20.4796138713
 20
1.5284908897
 11
20.4766766948
 21
0.9294458646
  0
ENDBLK
  5
235
100
AcDbEntity
  8
0
  6
BYBLOCK
 62
0
100
AcDbBlockEnd
  0
BLOCK
  5
236
100
AcDbEntity
  8
0
100
AcDbBlockBegin
  2
*T1
 70
1
 10
0.0
 20
0.0
  3
*T1
  1

  0
LINE
  5
237
100
AcDbEntity
  8
0
100
AcDbLine
 62
2
  6
CONTINUOUS
 10
9.275
 20
0.0
 11
-0.0
 21
0.0
  0
LINE
  5
238
100
AcDbEntity
  8
0
100
AcDbLine
 62
2
  6
CONTINUOUS
 10
9.275
 20
0.0
 11
9.275
 21
1.25
  0
LINE
  5
239
100
AcDbEntity
  8
0
100
AcDbLine
 62
2
  6
CONTINUOUS
 10
9.275
 20
0.625
 11
-0.0
 21
0.625
  0
LINE
  5
23A
100
AcDbEntity
  8
0
100
AcDbLine
 62
2
  6
CONTINUOUS
 10
9.275
 20
1.25
 11
-0.0
 21
1.25
  0
LINE
  5
23B
100
AcDbEntity
  8
0
100
AcDbLine
 62
2
  6
CONTINUOUS
 10
6.8
 20
0.0
 11
6.8
 21
1.25
  0
LINE
  5
23C
100
AcDbEntity
  8
0
100
AcDbLine
 62
2
  6
CONTINUOUS
 10
6.4
 20
0.0
 11
6.4
 21
0.625
  0
LINE
  5
23D
100
AcDbEntity
  8
0
100
AcDbLine
 62
2
  6
CONTINUOUS
 10
5.9
 20
0.0
 11
5.9
 21
0.625
  0
LINE
  5
23E
100
AcDbEntity
  8
0
100
AcDbLine
 62
2
  6
CONTINUOUS
 10
5.2
 20
0.0
 11
5.2
 21
0.625
  0
LINE
  5
23F
100
AcDbEntity
  8
0
100
AcDbLine
 62
2
  6
CONTINUOUS
 10
4.1
 20
0.0
 11
4.1
 21
1.25
  0
LINE
  5
240
100
AcDbEntity
  8
0
100
AcDbLine
 62
2
  6
CONTINUOUS
 10
-0.0
 20
0.0
 11
-0.0
 21
1.25
  0
MTEXT
  5
241
100
AcDbEntity
  8
0
100
AcDbMText
 62
2
  6
CONTINUOUS
  7
STANDARD
 71
2
 72
1
 10
6.6
 20
0.325
 30
0.0
 11
1.0
 21
0.0
 31
0.0
 44
0.9
  1
2
 40
0.125
 41
0.2
  0
MTEXT
  5
242
100
AcDbEntity
  8
0
100
AcDbMText
 62
2
  6
CONTINUOUS
  7
STANDARD
 71
2
 72
1
 10
6.15
 20
0.325
 30
0.0
 11
1.0
 21
0.0
 31
0.0
 44
0.9
  1
C
 40
0.125
 41
0.2
  0
MTEXT
  5
243
100
AcDbEntity
  8
0
100
AcDbMText
 62
2
  6
CONTINUOUS
  7
STANDARD
 71
2
 72
1
 10
5.55
 20
0.325
 30
0.0
 11
1.0
 21
0.0
 31
0.0
 44
0.9
  1
1.000
 40
0.125
 41
1.0
  0
MTEXT
  5
244
100
AcDbEntity
  8
0
100
AcDbMText
 62
2
  6
CONTINUOUS
  7
STANDARD
 71
2
 72
1
 10
4.65
 20
0.325
 30
0.0
 11
1.0
 21
0.0
 31
0.0
 44
0.9
  1
Jan-24-23
 40
0.125
 41
1.8
  0
MTEXT
  5
245
100
AcDbEntity
  8
0
100
AcDbMText
 62
2
  6
CONTINUOUS
  7
STANDARD
 71
2
 72
1
 10
2.05
 20
0.4625
 30
0.0
 11
1.0
 21
0.0
 31
0.0
 44
0.9
  1
T-11A Line mount\PThrough port 1 with reverse flow check
 40
0.125
 41
7.6
  0
MTEXT
  5
246
100
AcDbEntity
  8
0
100
AcDbMText
 62
2
  6
CONTINUOUS
  7
STANDARD
 71
1
 72
1
 10
6.45
 20
0.5625
 30
0.0
 11
1.0
 21
0.0
 31
0.0
 44
0.9
  1
SHEET
 40
0.06
 41
0.48
  0
MTEXT
  5
247
100
AcDbEntity
  8
0
100
AcDbMText
 62
2
  6
CONTINUOUS
  7
STANDARD
 71
1
 72
1
 10
5.95
 20
0.5625
 30
0.0
 11
1.0
 21
0.0
 31
0.0
 44
0.9
  1
DWG SIZE
 40
0.06
 41
0.768
  0
MTEXT
  5
248
100
AcDbEntity
  8
0
100
AcDbMText
 62
2
  6
CONTINUOUS
  7
STANDARD
 71
1
 72
1
 10
5.25
 20
0.5625
 30
0.0
 11
1.0
 21
0.0
 31
0.0
 44
0.9
  1
SCALE
 40
0.06
 41
0.48
  0
MTEXT
  5
249
100
AcDbEntity
  8
0
100
AcDbMText
 62
2
  6
CONTINUOUS
  7
STANDARD
 71
1
 72
1
 10
4.15
 20
0.5625
 30
0.0
 11
1.0
 21
0.0
 31
0.0
 44
0.9
  1
DATE
 40
0.06
 41
0.384
  0
MTEXT
  5
24A
100
AcDbEntity
  8
0
100
AcDbMText
 62
2
  6
CONTINUOUS
  7
STANDARD
 71
1
 72
1
 10
0.05
 20
0.5625
 30
0.0
 11
1.0
 21
0.0
 31
0.0
 44
0.9
  1
DESCRIPTION
 40
0.06
 41
1.056
  0
MTEXT
  5
24B
100
AcDbEntity
  8
0
100
AcDbMText
 62
2
  6
CONTINUOUS
  7
STANDARD
 71
2
 72
1
 10
5.45
 20
1.0375
 30
0.0
 11
1.0
 21
0.0
 31
0.0
 44
0.9
  1
ALL DIMENSIONS IN INCH\PVIEWS ARE THIRD ANGLE
 40
0.12
 41
4.224
  0
MTEXT
  5
24C
100
AcDbEntity
  8
0
100
AcDbMText
 62
2
  6
CONTINUOUS
  7
STANDARD
 71
2
 72
1
 10
2.05
 20
0.95
 30
0.0
 11
1.0
 21
0.0
 31
0.0
 44
0.9
  1
E7U
 40
0.125
 41
0.6
  0
MTEXT
  5
24D
100
AcDbEntity
  8
0
100
AcDbMText
 62
2
  6
CONTINUOUS
  7
STANDARD
 71
1
 72
1
 10
0.05
 20
1.1875
 30
0.0
 11
1.0
 21
0.0
 31
0.0
 44
0.9
  1
MODEL
 40
0.06
 41
0.48
  0
ENDBLK
  5
24E
100
AcDbEntity
  8
0
  6
BYBLOCK
 62
0
100
AcDbBlockEnd
  0
BLOCK
  5
24F
100
AcDbEntity
  8
0
100
AcDbBlockBegin
  2
*T2
 70
1
 10
0.0
 20
0.0
  3
*T2
  1

  0
LINE
  5
250
100
AcDbEntity
  8
0
100
AcDbLine
 62
2
  6
CONTINUOUS
 10
0.0
 20
0.0
 11
9.055
 21
0.0
  0
LINE
  5
251
100
AcDbEntity
  8
0
100
AcDbLine
 62
2
  6
CONTINUOUS
 10
0.0
 20
0.0
 11
0.0
 21
-2.844
  0
LINE
  5
252
100
AcDbEntity
  8
0
100
AcDbLine
 62
2
  6
CONTINUOUS
 10
0.0
 20
-0.344
 11
9.055
 21
-0.344
  0
LINE
  5
253
100
AcDbEntity
  8
0
100
AcDbLine
 62
2
  6
CONTINUOUS
 10
0.0
 20
-0.594
 11
9.055
 21
-0.594
  0
LINE
  5
254
100
AcDbEntity
  8
0
100
AcDbLine
 62
2
  6
CONTINUOUS
 10
0.0
 20
-0.844
 11
9.055
 21
-0.844
  0
LINE
  5
255
100
AcDbEntity
  8
0
100
AcDbLine
 62
2
  6
CONTINUOUS
 10
0.0
 20
-1.094
 11
9.055
 21
-1.094
  0
LINE
  5
256
100
AcDbEntity
  8
0
100
AcDbLine
 62
2
  6
CONTINUOUS
 10
0.0
 20
-1.344
 11
9.055
 21
-1.344
  0
LINE
  5
257
100
AcDbEntity
  8
0
100
AcDbLine
 62
2
  6
CONTINUOUS
 10
0.0
 20
-1.594
 11
9.055
 21
-1.594
  0
LINE
  5
258
100
AcDbEntity
  8
0
100
AcDbLine
 62
2
  6
CONTINUOUS
 10
0.0
 20
-1.844
 11
9.055
 21
-1.844
  0
LINE
  5
259
100
AcDbEntity
  8
0
100
AcDbLine
 62
2
  6
CONTINUOUS
 10
0.0
 20
-2.094
 11
9.055
 21
-2.094
  0
LINE
  5
25A
100
AcDbEntity
  8
0
100
AcDbLine
 62
2
  6
CONTINUOUS
 10
0.0
 20
-2.344
 11
9.055
 21
-2.344
  0
LINE
  5
25B
100
AcDbEntity
  8
0
100
AcDbLine
 62
2
  6
CONTINUOUS
 10
0.0
 20
-2.594
 11
9.055
 21
-2.594
  0
LINE
  5
25C
100
AcDbEntity
  8
0
100
AcDbLine
 62
2
  6
CONTINUOUS
 10
0.0
 20
-2.844
 11
9.055
 21
-2.844
  0
LINE
  5
25D
100
AcDbEntity
  8
0
100
AcDbLine
 62
2
  6
CONTINUOUS
 10
3.055
 20
0.0
 11
3.055
 21
-2.844
  0
LINE
  5
25E
100
AcDbEntity
  8
0
100
AcDbLine
 62
2
  6
CONTINUOUS
 10
9.055
 20
0.0
 11
9.055
 21
-2.844
  0
MTEXT
  5
25F
100
AcDbEntity
  8
0
100
AcDbMText
 62
2
  6
CONTINUOUS
  7
STANDARD
 71
2
 72
1
 10
1.5275
 20
-0.0995
 30
0.0
 11
1.0
 21
0.0
 31
0.0
 44
0.9
  1
Technical Data
 40
0.145
 41
3.248
  0
MTEXT
  5
260
100
AcDbEntity
  8
0
100
AcDbMText
 62
2
  6
CONTINUOUS
  7
STANDARD
 71
2
 72
1
 10
4.555
 20
-0.0995
 30
0.0
 11
1.0
 21
0.0
 31
0.0
 44
0.9
  1
U.S. Units
 40
0.145
 41
2.32
  0
MTEXT
  5
261
100
AcDbEntity
  8
0
100
AcDbMText
 62
2
  6
CONTINUOUS
  7
STANDARD
 71
2
 72
1
 10
7.555
 20
-0.0995
 30
0.0
 11
1.0
 21
0.0
 31
0.0
 44
0.9
  1
Metric Units
 40
0.145
 41
2.784
  0
MTEXT
  5
262
100
AcDbEntity
  8
0
100
AcDbMText
 62
2
  6
CONTINUOUS
  7
STANDARD
 71
2
 72
1
 10
1.5275
 20
-0.4065
 30
0.0
 11
1.0
 21
0.0
 31
0.0
 44
0.9
  1
Cavity
 40
0.125
 41
1.2
  0
MTEXT
  5
263
100
AcDbEntity
  8
0
100
AcDbMText
 62
2
  6
CONTINUOUS
  7
STANDARD
 71
2
 72
1
 10
6.055
 20
-0.4065
 30
0.0
 11
1.0
 21
0.0
 31
0.0
 44
0.9
  1
T-11A
 40
0.125
 41
1.0
  0
MTEXT
  5
264
100
AcDbEntity
  8
0
100
AcDbMText
 62
2
  6
CONTINUOUS
  7
STANDARD
 71
2
 72
1
 10
1.5275
 20
-0.6565
 30
0.0
 11
1.0
 21
0.0
 31
0.0
 44
0.9
  1
Body Features
 40
0.125
 41
2.6
  0
MTEXT
  5
265
100
AcDbEntity
  8
0
100
AcDbMText
 62
2
  6
CONTINUOUS
  7
STANDARD
 71
2
 72
1
 10
6.055
 20
-0.6565
 30
0.0
 11
1.0
 21
0.0
 31
0.0
 44
0.9
  1
Through port 1 with reverse flow check
 40
0.125
 41
7.6
  0
MTEXT
  5
266
100
AcDbEntity
  8
0
100
AcDbMText
 62
2
  6
CONTINUOUS
  7
STANDARD
 71
2
 72
1
 10
1.5275
 20
-0.9065
 30
0.0
 11
1.0
 21
0.0
 31
0.0
 44
0.9
  1
Body Type
 40
0.125
 41
1.8
  0
MTEXT
  5
267
100
AcDbEntity
  8
0
100
AcDbMText
 62
2
  6
CONTINUOUS
  7
STANDARD
 71
2
 72
1
 10
6.055
 20
-0.9065
 30
0.0
 11
1.0
 21
0.0
 31
0.0
 44
0.9
  1
Line mount
 40
0.125
 41
2.0
  0
MTEXT
  5
268
100
AcDbEntity
  8
0
100
AcDbMText
 62
2
  6
CONTINUOUS
  7
STANDARD
 71
2
 72
1
 10
1.5275
 20
-1.1565
 30
0.0
 11
1.0
 21
0.0
 31
0.0
 44
0.9
  1
Interface
 40
0.125
 41
1.8
  0
MTEXT
  5
269
100
AcDbEntity
  8
0
100
AcDbMText
 62
2
  6
CONTINUOUS
  7
STANDARD
 71
2
 72
1
 10
6.055
 20
-1.1565
 30
0.0
 11
1.0
 21
0.0
 31
0.0
 44
0.9
  1
None
 40
0.125
 41
0.8
  0
MTEXT
  5
26A
100
AcDbEntity
  8
0
100
AcDbMText
 62
2
  6
CONTINUOUS
  7
STANDARD
 71
2
 72
1
 10
1.5275
 20
-1.4065
 30
0.0
 11
1.0
 21
0.0
 31
0.0
 44
0.9
  1
Open Cavity Quantity
 40
0.125
 41
4.0
  0
MTEXT
  5
26B
100
AcDbEntity
  8
0
100
AcDbMText
 62
2
  6
CONTINUOUS
  7
STANDARD
 71
2
 72
1
 10
6.055
 20
-1.4065
 30
0.0
 11
1.0
 21
0.0
 31
0.0
 44
0.9
  1
1
 40
0.125
 41
0.2
  0
MTEXT
  5
26C
100
AcDbEntity
  8
0
100
AcDbMText
 62
2
  6
CONTINUOUS
  7
STANDARD
 71
2
 72
1
 10
1.5275
 20
-1.6565
 30
0.0
 11
1.0
 21
0.0
 31
0.0
 44
0.9
  1
Weight
 40
0.125
 41
1.2
  0
MTEXT
  5
26D
100
AcDbEntity
  8
0
100
AcDbMText
 62
2
  6
CONTINUOUS
  7
STANDARD
 71
2
 72
1
 10
4.555
 20
-1.6565
 30
0.0
 11
1.0
 21
0.0
 31
0.0
 44
0.9
  1
1.974 lb.
 40
0.125
 41
1.8
  0
MTEXT
  5
26E
100
AcDbEntity
  8
0
100
AcDbMText
 62
2
  6
CONTINUOUS
  7
STANDARD
 71
2
 72
1
 10
7.555
 20
-1.6565
 30
0.0
 11
1.0
 21
0.0
 31
0.0
 44
0.9
  1
0,896 kg.
 40
0.125
 41
1.8
  0
MTEXT
  5
26F
100
AcDbEntity
  8
0
100
AcDbMText
 62
2
  6
CONTINUOUS
  7
STANDARD
 71
2
 72
1
 10
1.5275
 20
-1.9065
 30
0.0
 11
1.0
 21
0.0
 31
0.0
 44
0.9
  1
Mounting Hole Thread
 40
0.125
 41
4.0
  0
MTEXT
  5
270
100
AcDbEntity
  8
0
100
AcDbMText
 62
2
  6
CONTINUOUS
  7
STANDARD
 71
2
 72
1
 10
6.055
 20
-1.9065
 30
0.0
 11
1.0
 21
0.0
 31
0.0
 44
0.9
  1
M10x1.5 - 6H
 40
0.125
 41
2.4
  0
MTEXT
  5
271
100
AcDbEntity
  8
0
100
AcDbMText
 62
2
  6
CONTINUOUS
  7
STANDARD
 71
2
 72
1
 10
1.5275
 20
-2.1565
 30
0.0
 11
1.0
 21
0.0
 31
0.0
 44
0.9
  1
Mounting Hole Depth
 40
0.125
 41
3.8
  0
MTEXT
  5
272
100
AcDbEntity
  8
0
100
AcDbMText
 62
2
  6
CONTINUOUS
  7
STANDARD
 71
2
 72
1
 10
4.555
 20
-2.1565
 30
0.0
 11
1.0
 21
0.0
 31
0.0
 44
0.9
  1
.62 in.
 40
0.125
 41
1.4
  0
MTEXT
  5
273
100
AcDbEntity
  8
0
100
AcDbMText
 62
2
  6
CONTINUOUS
  7
STANDARD
 71
2
 72
1
 10
7.555
 20
-2.1565
 30
0.0
 11
1.0
 21
0.0
 31
0.0
 44
0.9
  1
15,7 mm
 40
0.125
 41
1.4
  0
MTEXT
  5
274
100
AcDbEntity
  8
0
100
AcDbMText
 62
2
  6
CONTINUOUS
  7
STANDARD
 71
2
 72
1
 10
1.5275
 20
-2.4065
 30
0.0
 11
1.0
 21
0.0
 31
0.0
 44
0.9
  1
Mounting Hole Quantity
 40
0.125
 41
4.4
  0
MTEXT
  5
275
100
AcDbEntity
  8
0
100
AcDbMText
 62
2
  6
CONTINUOUS
  7
STANDARD
 71
2
 72
1
 10
6.055
 20
-2.4065
 30
0.0
 11
1.0
 21
0.0
 31
0.0
 44
0.9
  1
2
 40
0.125
 41
0.2
  0
MTEXT
  5
276
100
AcDbEntity
  8
0
100
AcDbMText
 62
2
  6
CONTINUOUS
  7
STANDARD
 71
2
 72
1
 10
1.5275
 20
-2.6565
 30
0.0
 11
1.0
 21
0.0
 31
0.0
 44
0.9
  1
Includes integral cartridge(s)
 40
0.125
 41
6.0
  0
MTEXT
  5
277
100
AcDbEntity
  8
0
100
AcDbMText
 62
2
  6
CONTINUOUS
  7
STANDARD
 71
2
 72
1
 10
6.055
 20
-2.6565
 30
0.0
 11
1.0
 21
0.0
 31
0.0
 44
0.9
  1
Yes (see Included Components)
 40
0.125
 41
5.8
  0
ENDBLK
  5
278
100
AcDbEntity
  8
0
  6
BYBLOCK
 62
0
100
AcDbBlockEnd
  0
BLOCK
  5
279
100
AcDbEntity
  8
0
100
AcDbBlockBegin
  2
*T3
 70
1
 10
0.0
 20
0.0
  3
*T3
  1

  0
LINE
  5
27A
100
AcDbEntity
  8
0
100
AcDbLine
 62
2
  6
CONTINUOUS
 10
0.0
 20
0.0
 11
4.6
 21
0.0
  0
LINE
  5
27B
100
AcDbEntity
  8
0
100
AcDbLine
 62
2
  6
CONTINUOUS
 10
0.0
 20
0.0
 11
0.0
 21
-1.43775
  0
LINE
  5
27C
100
AcDbEntity
  8
0
100
AcDbLine
 62
2
  6
CONTINUOUS
 10
0.0
 20
-0.34375
 11
4.6
 21
-0.34375
  0
LINE
  5
27D
100
AcDbEntity
  8
0
100
AcDbLine
 62
2
  6
CONTINUOUS
 10
0.0
 20
-0.68775
 11
4.6
 21
-0.68775
  0
LINE
  5
27E
100
AcDbEntity
  8
0
100
AcDbLine
 62
2
  6
CONTINUOUS
 10
0.0
 20
-0.93775
 11
4.6
 21
-0.93775
  0
LINE
  5
27F
100
AcDbEntity
  8
0
100
AcDbLine
 62
2
  6
CONTINUOUS
 10
0.0
 20
-1.18775
 11
4.6
 21
-1.18775
  0
LINE
  5
280
100
AcDbEntity
  8
0
100
AcDbLine
 62
2
  6
CONTINUOUS
 10
0.0
 20
-1.43775
 11
4.6
 21
-1.43775
  0
LINE
  5
281
100
AcDbEntity
  8
0
100
AcDbLine
 62
2
  6
CONTINUOUS
 10
1.3
 20
-0.34375
 11
1.3
 21
-1.43775
  0
LINE
  5
282
100
AcDbEntity
  8
0
100
AcDbLine
 62
2
  6
CONTINUOUS
 10
3.3
 20
-0.34375
 11
3.3
 21
-1.43775
  0
LINE
  5
283
100
AcDbEntity
  8
0
100
AcDbLine
 62
2
  6
CONTINUOUS
 10
4.6
 20
0.0
 11
4.6
 21
-1.43775
  0
MTEXT
  5
284
100
AcDbEntity
  8
0
100
AcDbMText
 62
2
  6
CONTINUOUS
  7
STANDARD
 71
2
 72
1
 10
2.3
 20
-0.099375
 30
0.0
 11
1.0
 21
0.0
 31
0.0
 44
0.9
  1
Port Headings
 40
0.145
 41
3.016
  0
MTEXT
  5
285
100
AcDbEntity
  8
0
100
AcDbMText
 62
2
  6
CONTINUOUS
  7
STANDARD
 71
2
 72
1
 10
0.65
 20
-0.44325
 30
0.0
 11
1.0
 21
0.0
 31
0.0
 44
0.9
  1
Product
 40
0.145
 41
1.624
  0
MTEXT
  5
286
100
AcDbEntity
  8
0
100
AcDbMText
 62
2
  6
CONTINUOUS
  7
STANDARD
 71
2
 72
1
 10
2.3
 20
-0.44325
 30
0.0
 11
1.0
 21
0.0
 31
0.0
 44
0.9
  1
Port
 40
0.145
 41
0.928
  0
MTEXT
  5
287
100
AcDbEntity
  8
0
100
AcDbMText
 62
2
  6
CONTINUOUS
  7
STANDARD
 71
2
 72
1
 10
3.95
 20
-0.44325
 30
0.0
 11
1.0
 21
0.0
 31
0.0
 44
0.9
  1
Size
 40
0.145
 41
0.928
  0
MTEXT
  5
288
100
AcDbEntity
  8
0
100
AcDbMText
 62
2
  6
CONTINUOUS
  7
STANDARD
 71
2
 72
1
 10
0.65
 20
-0.75025
 30
0.0
 11
1.0
 21
0.0
 31
0.0
 44
0.9
  1
E7U
 40
0.125
 41
0.6
  0
MTEXT
  5
289
100
AcDbEntity
  8
0
100
AcDbMText
 62
2
  6
CONTINUOUS
  7
STANDARD
 71
2
 72
1
 10
2.3
 20
-0.75025
 30
0.0
 11
1.0
 21
0.0
 31
0.0
 44
0.9
  1
Ports 1 &  2
 40
0.125
 41
2.4
  0
MTEXT
  5
28A
100
AcDbEntity
  8
0
100
AcDbMText
 62
2
  6
CONTINUOUS
  7
STANDARD
 71
2
 72
1
 10
3.95
 20
-0.75025
 30
0.0
 11
1.0
 21
0.0
 31
0.0
 44
0.9
  1
3/8" BSPP
 40
0.125
 41
1.8
  0
MTEXT
  5
28B
100
AcDbEntity
  8
0
100
AcDbMText
 62
2
  6
CONTINUOUS
  7
STANDARD
 71
2
 72
1
 10
0.65
 20
-1.00025
 30
0.0
 11
1.0
 21
0.0
 31
0.0
 44
0.9
  1
E7U
 40
0.125
 41
0.6
  0
MTEXT
  5
28C
100
AcDbEntity
  8
0
100
AcDbMText
 62
2
  6
CONTINUOUS
  7
STANDARD
 71
2
 72
1
 10
2.3
 20
-1.00025
 30
0.0
 11
1.0
 21
0.0
 31
0.0
 44
0.9
  1
Port 3
 40
0.125
 41
1.2
  0
MTEXT
  5
28D
100
AcDbEntity
  8
0
100
AcDbMText
 62
2
  6
CONTINUOUS
  7
STANDARD
 71
2
 72
1
 10
3.95
 20
-1.00025
 30
0.0
 11
1.0
 21
0.0
 31
0.0
 44
0.9
  1
1/4" BSPP
 40
0.125
 41
1.8
  0
MTEXT
  5
28E
100
AcDbEntity
  8
0
100
AcDbMText
 62
2
  6
CONTINUOUS
  7
STANDARD
 71
2
 72
1
 10
0.65
 20
-1.25025
 30
0.0
 11
1.0
 21
0.0
 31
0.0
 44
0.9
  1
E7U
 40
0.125
 41
0.6
  0
MTEXT
  5
28F
100
AcDbEntity
  8
0
100
AcDbMText
 62
2
  6
CONTINUOUS
  7
STANDARD
 71
2
 72
1
 10
2.3
 20
-1.25025
 30
0.0
 11
1.0
 21
0.0
 31
0.0
 44
0.9
  1
Gage Port
 40
0.125
 41
1.8
  0
MTEXT
  5
290
100
AcDbEntity
  8
0
100
AcDbMText
 62
2
  6
CONTINUOUS
  7
STANDARD
 71
2
 72
1
 10
3.95
 20
-1.25025
 30
0.0
 11
1.0
 21
0.0
 31
0.0
 44
0.9
  1
1/4" BSPP
 40
0.125
 41
1.8
  0
ENDBLK
  5
291
100
AcDbEntity
  8
0
  6
BYBLOCK
 62
0
100
AcDbBlockEnd
  0
ENDSEC
  0
SECTION
  2
ENTITIES
  0
IMAGE
  5
292
100
AcDbEntity
  8
0
100
AcDbRasterImage
 62
7
  6
CONTINUOUS
 10
19.2297077316
 20
0.3094318264
 30
0.0
 11
0.0066666667
 21
0.0
 31
0.0
 12
0.0
 22
0.0066666667
 32
0.0
 13
369.0
 23
92.0
340
       3BD
 70
9
280
0
281
50
282
50
283
0
360
       3B7
 71
1
 91
2
 14
-0.5
 24
-0.5
 14
368.5
 24
91.5
  0
INSERT
  5
293
100
AcDbEntity
  8
0
100
AcDbBlockReference
 62
2
  6
CONTINUOUS
  2
SUN_FIRST_THIRD_ANGLE_BL0
 10
20.4816717061
 20
1.2289683772
  0
ACAD_TABLE
  5
294
100
AcDbEntity
  8
0
 62
2
  6
CONTINUOUS
100
AcDbBlockReference
  2
*T1
 10
12.42375
 20
0.30125
 30
0.0
100
AcDbTable
342
       3BF
343
20F
 11
1.0
 21
0.0
 31
0.0
 90
6
 91
4
 92
6
 93
20
 94
0
 95
0
 96
0
 70
1
 41
0.0
141
0.525
141
0.1
141
0.525
141
0.1
142
4.1
142
1.1
142
0.7
142
0.5
142
0.4
142
2.475
171
1
172
0
173
0
174
0
175
1
176
1
 91
33
178
0
145
0.0
301
CELL_VALUE
 90
4
  1
T-11A Line mount\PThrough port 1 with reverse flow check
304
ACVALUE_END
170
2
140
0.125
171
1
172
0
173
0
174
0
175
1
176
1
 91
33
178
0
145
0.0
301
CELL_VALUE
 90
4
  1
Jan-24-23
304
ACVALUE_END
170
5
140
0.125
171
1
172
0
173
0
174
0
175
1
176
1
 91
33
178
0
145
0.0
301
CELL_VALUE
 90
4
  1
1.000
304
ACVALUE_END
170
5
140
0.125
171
1
172
0
173
0
174
0
175
1
176
1
 91
33
178
0
145
0.0
301
CELL_VALUE
 90
4
  1
C
304
ACVALUE_END
170
5
140
0.125
171
1
172
0
173
0
174
0
175
1
176
1
 91
33
178
0
145
0.0
301
CELL_VALUE
 90
4
  1
2
304
ACVALUE_END
170
5
140
0.125
171
1
172
0
173
0
174
0
175
1
176
1
 91
33
178
0
145
0.0
301
CELL_VALUE
 90
4
  1
 
304
ACVALUE_END
170
1
140
0.125
171
1
172
0
173
0
174
0
175
1
176
1
 91
33
178
0
145
0.0
301
CELL_VALUE
 90
4
  1
DESCRIPTION
304
ACVALUE_END
170
1
140
0.06
171
1
172
0
173
0
174
0
175
1
176
1
 91
33
178
0
145
0.0
301
CELL_VALUE
 90
4
  1
DATE
304
ACVALUE_END
170
1
140
0.06
171
1
172
0
173
0
174
0
175
1
176
1
 91
33
178
0
145
0.0
301
CELL_VALUE
 90
4
  1
SCALE
304
ACVALUE_END
170
1
140
0.06
171
1
172
0
173
0
174
0
175
1
176
1
 91
33
178
0
145
0.0
301
CELL_VALUE
 90
4
  1
DWG SIZE
304
ACVALUE_END
170
1
140
0.06
171
1
172
0
173
0
174
0
175
1
176
1
 91
33
178
0
145
0.0
301
CELL_VALUE
 90
4
  1
SHEET
304
ACVALUE_END
170
1
140
0.06
171
1
172
0
173
0
174
0
175
1
176
1
 91
33
178
0
145
0.0
301
CELL_VALUE
 90
4
  1
 
304
ACVALUE_END
170
1
140
0.125
171
1
172
0
173
0
174
0
175
1
176
1
 91
33
178
0
145
0.0
301
CELL_VALUE
 90
4
  1
E7U
304
ACVALUE_END
170
5
140
0.125
171
1
172
0
173
0
174
0
175
4
176
1
 91
33
178
0
145
0.0
301
CELL_VALUE
 90
4
  1
ALL DIMENSIONS IN INCH\PVIEWS ARE THIRD ANGLE
304
ACVALUE_END
170
5
140
0.12
171
1
172
0
173
1
174
0
175
1
176
1
 91
1
178
0
145
0.0
170
1
171
1
172
0
173
1
174
0
175
1
176
1
 91
1
178
0
145
0.0
170
1
171
1
172
0
173
1
174
0
175
1
176
1
 91
1
178
0
145
0.0
170
5
171
1
172
0
173
0
174
0
175
1
176
1
 91
33
178
0
145
0.0
301
CELL_VALUE
 90
4
  1
 
304
ACVALUE_END
170
1
140
0.125
171
1
172
0
173
0
174
0
175
1
176
1
 91
33
178
0
145
0.0
301
CELL_VALUE
 90
4
  1
MODEL
304
ACVALUE_END
170
1
140
0.06
171
1
172
0
173
0
174
0
175
1
176
1
 91
33
178
0
145
0.0
301
CELL_VALUE
 90
4
  1
 
304
ACVALUE_END
170
1
140
0.125
171
1
172
0
173
0
174
0
175
1
176
1
 91
33
178
0
145
0.0
301
CELL_VALUE
 90
4
  1
 
304
ACVALUE_END
170
1
140
0.125
171
1
172
0
173
0
174
0
175
1
176
1
 91
33
178
0
145
0.0
301
CELL_VALUE
 90
4
  1
 
304
ACVALUE_END
170
1
140
0.125
171
1
172
0
173
0
174
0
175
1
176
1
 91
33
178
0
145
0.0
301
CELL_VALUE
 90
4
  1
 
304
ACVALUE_END
170
1
140
0.125
171
1
172
0
173
0
174
0
175
1
176
1
 91
33
178
0
145
0.0
301
CELL_VALUE
 90
4
  1
 
304
ACVALUE_END
170
1
140
0.125
  0
ACAD_TABLE
  5
295
100
AcDbEntity
  8
0
 62
2
  6
CONTINUOUS
100
AcDbBlockReference
  2
*T2
 10
12.4237499994
 20
16.47875
 30
0.0
100
AcDbTable
342
       3BE
343
210
 11
1.0
 21
0.0
 31
0.0
 90
22
 91
11
 92
3
 93
16
 94
0
 95
0
 96
0
 41
0.028
141
0.344
141
0.25
141
0.25
141
0.25
141
0.25
141
0.25
141
0.25
141
0.25
141
0.25
141
0.25
141
0.25
142
3.055
142
3.0
142
3.0
171
1
172
0
173
0
174
0
175
1
176
1
 91
33
178
0
145
0.0
301
CELL_VALUE
 90
4
  1
Technical Data
304
ACVALUE_END
170
5
140
0.145
171
1
172
0
173
0
174
0
175
1
176
1
 91
33
178
0
145
0.0
301
CELL_VALUE
 90
4
  1
U.S. Units
304
ACVALUE_END
170
5
140
0.145
171
1
172
0
173
0
174
0
175
1
176
1
 91
33
178
0
145
0.0
301
CELL_VALUE
 90
4
  1
Metric Units
304
ACVALUE_END
170
5
140
0.145
171
1
172
0
173
0
174
0
175
1
176
1
 91
33
178
0
145
0.0
301
CELL_VALUE
 90
4
  1
Cavity
304
ACVALUE_END
170
5
140
0.125
171
1
172
0
173
0
174
0
175
2
176
1
 91
33
178
0
145
0.0
301
CELL_VALUE
 90
4
  1
T-11A
304
ACVALUE_END
170
5
140
0.125
171
1
172
0
173
1
174
0
175
1
176
1
 91
1
178
0
145
0.0
170
1
171
1
172
0
173
0
174
0
175
1
176
1
 91
33
178
0
145
0.0
301
CELL_VALUE
 90
4
  1
Body Features
304
ACVALUE_END
170
5
140
0.125
171
1
172
0
173
0
174
0
175
2
176
1
 91
33
178
0
145
0.0
301
CELL_VALUE
 90
4
  1
Through port 1 with reverse flow check
304
ACVALUE_END
170
5
140
0.125
171
1
172
0
173
1
174
0
175
1
176
1
 91
1
178
0
145
0.0
170
1
171
1
172
0
173
0
174
0
175
1
176
1
 91
33
178
0
145
0.0
301
CELL_VALUE
 90
4
  1
Body Type
304
ACVALUE_END
170
5
140
0.125
171
1
172
0
173
0
174
0
175
2
176
1
 91
33
178
0
145
0.0
301
CELL_VALUE
 90
4
  1
Line mount
304
ACVALUE_END
170
5
140
0.125
171
1
172
0
173
1
174
0
175
1
176
1
 91
1
178
0
145
0.0
170
1
171
1
172
0
173
0
174
0
175
1
176
1
 91
33
178
0
145
0.0
301
CELL_VALUE
 90
4
  1
Interface
304
ACVALUE_END
170
5
140
0.125
171
1
172
0
173
0
174
0
175
2
176
1
 91
33
178
0
145
0.0
301
CELL_VALUE
 90
4
  1
None
304
ACVALUE_END
170
5
140
0.125
171
1
172
0
173
1
174
0
175
1
176
1
 91
1
178
0
145
0.0
170
1
171
1
172
0
173
0
174
0
175
1
176
1
 91
33
178
0
145
0.0
301
CELL_VALUE
 90
4
  1
Open Cavity Quantity
304
ACVALUE_END
170
5
140
0.125
171
1
172
0
173
0
174
0
175
2
176
1
 91
33
178
0
145
0.0
301
CELL_VALUE
 90
4
  1
1
304
ACVALUE_END
170
5
140
0.125
171
1
172
0
173
1
174
0
175
1
176
1
 91
1
178
0
145
0.0
170
1
171
1
172
0
173
0
174
0
175
1
176
1
 91
33
178
0
145
0.0
301
CELL_VALUE
 90
4
  1
Weight
304
ACVALUE_END
170
5
140
0.125
171
1
172
0
173
0
174
0
175
1
176
1
 91
33
178
0
145
0.0
301
CELL_VALUE
 90
4
  1
1.974 lb.
304
ACVALUE_END
170
5
140
0.125
171
1
172
0
173
0
174
0
175
1
176
1
 91
33
178
0
145
0.0
301
CELL_VALUE
 90
4
  1
0,896 kg.
304
ACVALUE_END
170
5
140
0.125
171
1
172
0
173
0
174
0
175
1
176
1
 91
33
178
0
145
0.0
301
CELL_VALUE
 90
4
  1
Mounting Hole Thread
304
ACVALUE_END
170
5
140
0.125
171
1
172
0
173
0
174
0
175
2
176
1
 91
33
178
0
145
0.0
301
CELL_VALUE
 90
4
  1
M10x1.5 - 6H
304
ACVALUE_END
170
5
140
0.125
171
1
172
0
173
1
174
0
175
1
176
1
 91
1
178
0
145
0.0
170
1
171
1
172
0
173
0
174
0
175
1
176
1
 91
33
178
0
145
0.0
301
CELL_VALUE
 90
4
  1
Mounting Hole Depth
304
ACVALUE_END
170
5
140
0.125
171
1
172
0
173
0
174
0
175
1
176
1
 91
33
178
0
145
0.0
301
CELL_VALUE
 90
4
  1
.62 in.
304
ACVALUE_END
170
5
140
0.125
171
1
172
0
173
0
174
0
175
1
176
1
 91
33
178
0
145
0.0
301
CELL_VALUE
 90
4
  1
15,7 mm
304
ACVALUE_END
170
5
140
0.125
171
1
172
0
173
0
174
0
175
1
176
1
 91
33
178
0
145
0.0
301
CELL_VALUE
 90
4
  1
Mounting Hole Quantity
304
ACVALUE_END
170
5
140
0.125
171
1
172
0
173
0
174
0
175
2
176
1
 91
33
178
0
145
0.0
301
CELL_VALUE
 90
4
  1
2
304
ACVALUE_END
170
5
140
0.125
171
1
172
0
173
1
174
0
175
1
176
1
 91
1
178
0
145
0.0
170
1
171
1
172
0
173
0
174
0
175
1
176
1
 91
33
178
0
145
0.0
301
CELL_VALUE
 90
4
  1
Includes integral cartridge(s)
304
ACVALUE_END
170
5
140
0.125
171
1
172
0
173
0
174
0
175
2
176
1
 91
33
178
0
145
0.0
301
CELL_VALUE
 90
4
  1
Yes (see Included Components)
304
ACVALUE_END
170
5
140
0.125
171
1
172
0
173
1
174
0
175
1
176
1
 91
1
178
0
145
0.0
170
1
  0
ACAD_TABLE
  5
296
100
AcDbEntity
  8
0
 62
2
  6
CONTINUOUS
100
AcDbBlockReference
  2
*T3
 10
0.52125
 20
1.959
 30
0.0
100
AcDbTable
342
       3BE
343
211
 11
1.0
 21
0.0
 31
0.0
 90
22
 91
5
 92
3
 93
16
 94
0
 95
0
 96
0
 41
0.05
141
0.34375
141
0.344
141
0.25
141
0.25
141
0.25
142
1.3
142
2.0
142
1.3
171
1
172
0
173
0
174
0
175
3
176
1
 91
33
178
0
145
0.0
301
CELL_VALUE
 90
4
  1
Port Headings
304
ACVALUE_END
170
5
140
0.145
171
1
172
0
173
1
174
0
175
1
176
1
 91
1
178
0
145
0.0
170
1
171
1
172
0
173
1
174
0
175
1
176
1
 91
1
178
0
145
0.0
170
1
171
1
172
0
173
0
174
0
175
1
176
1
 91
33
178
0
145
0.0
301
CELL_VALUE
 90
4
  1
Product
304
ACVALUE_END
170
5
140
0.145
171
1
172
0
173
0
174
0
175
1
176
1
 91
33
178
0
145
0.0
301
CELL_VALUE
 90
4
  1
Port
304
ACVALUE_END
170
5
140
0.145
171
1
172
0
173
0
174
0
175
1
176
1
 91
33
178
0
145
0.0
301
CELL_VALUE
 90
4
  1
Size
304
ACVALUE_END
170
5
140
0.145
171
1
172
0
173
0
174
0
175
1
176
1
 91
33
178
0
145
0.0
301
CELL_VALUE
 90
4
  1
E7U
304
ACVALUE_END
170
5
140
0.125
171
1
172
0
173
0
174
0
175
1
176
1
 91
33
178
0
145
0.0
301
CELL_VALUE
 90
4
  1
Ports 1 &  2
304
ACVALUE_END
170
5
140
0.125
171
1
172
0
173
0
174
0
175
1
176
1
 91
33
178
0
145
0.0
301
CELL_VALUE
 90
4
  1
3/8" BSPP
304
ACVALUE_END
170
5
140
0.125
171
1
172
0
173
0
174
0
175
1
176
1
 91
33
178
0
145
0.0
301
CELL_VALUE
 90
4
  1
E7U
304
ACVALUE_END
170
5
140
0.125
171
1
172
0
173
0
174
0
175
1
176
1
 91
33
178
0
145
0.0
301
CELL_VALUE
 90
4
  1
Port 3
304
ACVALUE_END
170
5
140
0.125
171
1
172
0
173
0
174
0
175
1
176
1
 91
33
178
0
145
0.0
301
CELL_VALUE
 90
4
  1
1/4" BSPP
304
ACVALUE_END
170
5
140
0.125
171
1
172
0
173
0
174
0
175
1
176
1
 91
33
178
0
145
0.0
301
CELL_VALUE
 90
4
  1
E7U
304
ACVALUE_END
170
5
140
0.125
171
1
172
0
173
0
174
0
175
1
176
1
 91
33
178
0
145
0.0
301
CELL_VALUE
 90
4
  1
Gage Port
304
ACVALUE_END
170
5
140
0.125
171
1
172
0
173
0
174
0
175
1
176
1
 91
33
178
0
145
0.0
301
CELL_VALUE
 90
4
  1
1/4" BSPP
304
ACVALUE_END
170
5
140
0.125
  0
MTEXT
  5
297
100
AcDbEntity
  8
0
100
AcDbMText
 62
2
  6
CONTINUOUS
  7
STANDARD
 71
1
 72
1
 10
0.52125
 20
5.75995
 30
0.0
 11
1.0
 21
0.0
 31
0.0
 44
0.6
  3
Notes\P \P1. Important: Carefully consider\P   the maximum system pressure. The\P   pressure rating of the manifold is\P   dependent on the manifold material,\P   with the port type/size a secondary\P   consideration. Manifolds\P   constructed of alu
  1
minum are not\P   rated for pressures higher than\P   3000 psi (210 bar), regardless of\P   the port type/size specified.
 40
0.1
 41
3.04
  0
LINE
  5
298
100
AcDbEntity
  8
0
100
AcDbLine
 62
7
  6
CONTINUOUS
 10
0.30125
 20
0.30125
 11
0.30125
 21
16.69875
  0
LINE
  5
299
100
AcDbEntity
  8
0
100
AcDbLine
 62
7
  6
CONTINUOUS
 10
0.30125
 20
0.30125
 11
21.69875
 21
0.30125
  0
LINE
  5
29A
100
AcDbEntity
  8
0
100
AcDbLine
 62
7
  6
CONTINUOUS
 10
0.30125
 20
16.69875
 11
21.69875
 21
16.69875
  0
LINE
  5
29B
100
AcDbEntity
  8
0
100
AcDbLine
 62
7
  6
CONTINUOUS
 10
21.69875
 20
0.30125
 11
21.69875
 21
16.69875
  0
LINE
  5
29C
100
AcDbEntity
  8
0
100
AcDbLine
 62
7
  6
CONTINUOUS
 10
10.116116185
 20
10.7414587126
 11
9.4690691062
 21
10.1164591913
  0
LINE
  5
29D
100
AcDbEntity
  8
0
100
AcDbLine
 62
7
  6
CONTINUOUS
 10
10.8953201634
 20
6.3306033474
 11
10.9204825729
 21
6.3181735989
  0
LINE
  5
29E
100
AcDbEntity
  8
0
100
AcDbLine
 62
7
  6
CONTINUOUS
 10
9.4690691062
 20
6.8564593345
 11
11.883883815
 21
6.6889913656
  0
LINE
  5
29F
100
AcDbEntity
  8
0
100
AcDbLine
 62
7
  6
CONTINUOUS
 10
9.4690691062
 20
6.8564593345
 11
9.4690691062
 21
10.1164591913
  0
LINE
  5
2A0
100
AcDbEntity
  8
0
100
AcDbLine
 62
4
  6
CONTINUOUS
 10
11.7530008917
 20
7.2370547973
 11
11.7385120037
 21
7.2380596051
  0
LINE
  5
2A1
100
AcDbEntity
  8
0
100
AcDbLine
 62
4
  6
CONTINUOUS
 10
11.7457564477
 20
7.295512753
 11
11.7747342236
 21
7.2935031374
  0
LINE
  5
2A2
100
AcDbEntity
  8
0
100
AcDbLine
 62
4
  6
CONTINUOUS
 10
11.7385120037
 20
7.3539707086
 11
11.7530008917
 21
7.3529659008
  0
LINE
  5
2A3
100
AcDbEntity
  8
0
100
AcDbLine
 62
4
  6
CONTINUOUS
 10
10.1548764862
 20
9.0691649966
 11
10.1476320422
 21
9.0600081442
  0
LINE
  5
2A4
100
AcDbEntity
  8
0
100
AcDbLine
 62
4
  6
CONTINUOUS
 10
10.1621209301
 20
9.010707041
 11
10.1476320422
 21
8.9923933318
  0
LINE
  5
2A5
100
AcDbEntity
  8
0
100
AcDbLine
 62
4
  6
CONTINUOUS
 10
10.7558203462
 20
9.6512015897
 11
10.7696192882
 21
9.6640435703
  0
LINE
  5
2A6
100
AcDbEntity
  8
0
100
AcDbLine
 62
4
  6
CONTINUOUS
 10
10.7903177005
 20
9.5660155408
 11
10.8041166411
 21
9.578857523
  0
LINE
  5
2A7
100
AcDbEntity
  8
0
100
AcDbLine
 62
4
  6
CONTINUOUS
 10
10.1041653784
 20
9.0920003434
 11
10.1186542664
 21
9.100654792
  0
LINE
  5
2A8
100
AcDbEntity
  8
0
100
AcDbLine
 62
4
  6
CONTINUOUS
 10
10.1476320422
 20
9.0600081442
 11
10.1331431543
 21
9.0513536888
  0
LINE
  5
2A9
100
AcDbEntity
  8
0
100
AcDbLine
 62
4
  6
CONTINUOUS
 10
11.1881871854
 20
9.6005184338
 11
11.2019861202
 21
9.6064609475
  0
LINE
  5
2AA
100
AcDbEntity
  8
0
100
AcDbLine
 62
4
  6
CONTINUOUS
 10
10.1548764862
 20
9.0788242529
 11
10.1548764862
 21
9.0691649966
  0
LINE
  5
2AB
100
AcDbEntity
  8
0
100
AcDbLine
 62
4
  6
CONTINUOUS
 10
10.1621209301
 20
9.0203663008
 11
10.1621209301
 21
9.010707041
  0
LINE
  5
2AC
100
AcDbEntity
  8
0
100
AcDbLine
 62
4
  6
CONTINUOUS
 10
10.8662118823
 20
9.5607522614
 11
10.8800108171
 21
9.573594244
  0
LINE
  5
2AD
100
AcDbEntity
  8
0
100
AcDbLine
 62
4
  6
CONTINUOUS
 10
10.1476320422
 20
8.9923933318
 11
10.1331431543
 21
8.9837388807
  0
LINE
  5
2AE
100
AcDbEntity
  8
0
100
AcDbLine
 62
4
  6
CONTINUOUS
 10
11.3192771353
 20
9.5569299634
 11
11.3330760701
 21
9.5628724743
  0
LINE
  5
2AF
100
AcDbEntity
  8
0
100
AcDbLine
 62
4
  6
CONTINUOUS
 10
10.4543134854
 20
8.1114508625
 11
10.4543134854
 21
7.9955397591
  0
LINE
  5
2B0
100
AcDbEntity
  8
0
100
AcDbLine
 62
4
  6
CONTINUOUS
 10
10.8432136098
 20
9.129520404
 11
10.8064164321
 21
9.1136737066
  0
LINE
  5
2B1
100
AcDbEntity
  8
0
100
AcDbLine
 62
4
  6
CONTINUOUS
 10
11.7385120037
 20
7.2380596051
 11
11.7240231158
 21
7.2487236718
  0
LINE
  5
2B2
100
AcDbEntity
  8
0
100
AcDbLine
 62
7
  6
CONTINUOUS
 10
11.883883815
 20
9.9489912225
 11
12.5309308938
 21
10.5739907437
  0
LINE
  5
2B3
100
AcDbEntity
  8
0
100
AcDbLine
 62
4
  6
CONTINUOUS
 10
10.9099084893
 20
9.0788986255
 11
10.8961095487
 21
9.0660566433
  0
LINE
  5
2B4
100
AcDbEntity
  8
0
100
AcDbLine
 62
4
  6
CONTINUOUS
 10
11.5561589341
 20
9.5749995063
 11
11.5630583785
 21
9.5814205014
  0
LINE
  5
2B5
100
AcDbEntity
  8
0
100
AcDbLine
 62
4
  6
CONTINUOUS
 10
11.6182542099
 20
9.5706931843
 11
11.6251536543
 21
9.5771141794
  0
LINE
  5
2B6
100
AcDbEntity
  8
0
100
AcDbLine
 62
4
  6
CONTINUOUS
 10
11.2905292724
 20
9.2512072401
 11
11.3043282187
 21
9.2640492219
  0
LINE
  5
2B7
100
AcDbEntity
  8
0
100
AcDbLine
 62
4
  6
CONTINUOUS
 10
11.7530008917
 20
7.3529659008
 11
11.7674897796
 21
7.3423018367
  0
LINE
  5
2B8
100
AcDbEntity
  8
0
100
AcDbLine
 62
4
  6
CONTINUOUS
 10
10.1041653784
 20
8.9954077552
 11
10.0969209345
 21
9.005569418
  0
LINE
  5
2B9
100
AcDbEntity
  8
0
100
AcDbLine
 62
4
  6
CONTINUOUS
 10
10.1476320422
 20
9.0406896247
 11
10.1621209301
 21
9.0203663008
  0
LINE
  5
2BA
100
AcDbEntity
  8
0
100
AcDbLine
 62
4
  6
CONTINUOUS
 10
10.1476320422
 20
9.0889859201
 11
10.1548764862
 21
9.0788242529
  0
LINE
  5
2BB
100
AcDbEntity
  8
0
100
AcDbLine
 62
4
  6
CONTINUOUS
 10
10.7558203462
 20
9.6374026491
 11
10.7558203462
 21
9.6512015897
  0
LINE
  5
2BC
100
AcDbEntity
  8
0
100
AcDbLine
 62
4
  6
CONTINUOUS
 10
10.8041166411
 20
9.578857523
 11
10.8041166411
 21
9.592656465
  0
LINE
  5
2BD
100
AcDbEntity
  8
0
100
AcDbLine
 62
7
  6
CONTINUOUS
 10
10.8222335363
 20
6.7626170625
 11
10.8222335363
 21
6.3774341462
  0
LINE
  5
2BE
100
AcDbEntity
  8
0
100
AcDbLine
 62
4
  6
CONTINUOUS
 10
10.8317145222
 20
9.6597372512
 11
10.8317145222
 21
9.5769436035
  0
LINE
  5
2BF
100
AcDbEntity
  8
0
100
AcDbLine
 62
7
  6
CONTINUOUS
 10
10.8375627728
 20
6.7615539763
 11
10.8375627728
 21
6.3626272662
  0
LINE
  5
2C0
100
AcDbEntity
  8
0
100
AcDbLine
 62
4
  6
CONTINUOUS
 10
10.9490054904
 20
9.0623882972
 11
10.9766033716
 21
9.1570669675
  0
LINE
  5
2C1
100
AcDbEntity
  8
0
100
AcDbLine
 62
4
  6
CONTINUOUS
 10
11.1421907053
 20
9.5186148293
 11
11.169788575
 21
9.6086938549
  0
LINE
  5
2C2
100
AcDbEntity
  8
0
100
AcDbLine
 62
4
  6
CONTINUOUS
 10
11.6527515239
 20
9.506205552
 11
11.6596509683
 21
9.5126265449
  0
LINE
  5
2C3
100
AcDbEntity
  8
0
100
AcDbLine
 62
4
  6
CONTINUOUS
 10
11.2594816966
 20
9.1236503484
 11
11.2732806314
 21
9.1364923296
  0
LINE
  5
2C4
100
AcDbEntity
  8
0
100
AcDbLine
 62
4
  6
CONTINUOUS
 10
11.3399754907
 20
9.1180680848
 11
11.3537744255
 21
9.130910066
  0
LINE
  5
2C5
100
AcDbEntity
  8
0
100
AcDbLine
 62
4
  6
CONTINUOUS
 10
11.6090548348
 20
9.0580105443
 11
11.57225766
 21
9.0421638482
  0
LINE
  5
2C6
100
AcDbEntity
  8
0
100
AcDbLine
 62
4
  6
CONTINUOUS
 10
10.8616122001
 20
9.0684490425
 11
10.8616122001
 21
9.1650416323
  0
LINE
  5
2C7
100
AcDbEntity
  8
0
100
AcDbLine
 62
4
  6
CONTINUOUS
 10
10.8800108171
 20
9.573594244
 11
10.8800108171
 21
9.6563878918
  0
LINE
  5
2C8
100
AcDbEntity
  8
0
100
AcDbLine
 62
4
  6
CONTINUOUS
 10
10.9076086983
 20
9.5578813825
 11
10.9076086983
 21
9.6544739723
  0
LINE
  5
2C9
100
AcDbEntity
  8
0
100
AcDbLine
 62
4
  6
CONTINUOUS
 10
10.9099084893
 20
9.1478933327
 11
10.9099084893
 21
9.0788986255
  0
LINE
  5
2CA
100
AcDbEntity
  8
0
100
AcDbLine
 62
4
  6
CONTINUOUS
 10
10.9559049932
 20
9.554532023
 11
10.9559049932
 21
9.6511246128
  0
LINE
  5
2CB
100
AcDbEntity
  8
0
100
AcDbLine
 62
4
  6
CONTINUOUS
 10
11.2284340427
 20
9.3521061487
 11
11.2008361557
 21
9.2574274788
  0
LINE
  5
2CC
100
AcDbEntity
  8
0
100
AcDbLine
 62
4
  6
CONTINUOUS
 10
11.3882717856
 20
9.0457240182
 11
11.3744728508
 21
9.0328820356
  0
LINE
  5
2CD
100
AcDbEntity
  8
0
100
AcDbLine
 62
4
  6
CONTINUOUS
 10
11.4641659501
 20
9.04046074
 11
11.4503670153
 21
9.0276187574
  0
LINE
  5
2CE
100
AcDbEntity
  8
0
100
AcDbLine
 62
4
  6
CONTINUOUS
 10
10.1186542664
 20
8.9847436885
 11
10.1041653784
 21
8.9954077552
  0
LINE
  5
2CF
100
AcDbEntity
  8
0
100
AcDbLine
 62
4
  6
CONTINUOUS
 10
10.1331431543
 20
9.0513536888
 11
10.1476320422
 21
9.0406896247
  0
LINE
  5
2D0
100
AcDbEntity
  8
0
100
AcDbLine
 62
4
  6
CONTINUOUS
 10
10.1331431543
 20
9.0996499842
 11
10.1476320422
 21
9.0889859201
  0
LINE
  5
2D1
100
AcDbEntity
  8
0
100
AcDbLine
 62
4
  6
CONTINUOUS
 10
11.7240231158
 20
7.2487236718
 11
11.7095342279
 21
7.2690469966
  0
LINE
  5
2D2
100
AcDbEntity
  8
0
100
AcDbLine
 62
4
  6
CONTINUOUS
 10
11.7674897796
 20
7.3423018367
 11
11.7747342236
 21
7.3321401696
  0
LINE
  5
2D3
100
AcDbEntity
  8
0
100
AcDbLine
 62
4
  6
CONTINUOUS
 10
11.0593970266
 20
9.0547326182
 11
11.0593970266
 21
9.151325208
  0
LINE
  5
2D4
100
AcDbEntity
  8
0
100
AcDbLine
 62
4
  6
CONTINUOUS
 10
11.0593970504
 20
9.5473548245
 11
11.0593970504
 21
9.6439474143
  0
LINE
  5
2D5
100
AcDbEntity
  8
0
100
AcDbLine
 62
4
  6
CONTINUOUS
 10
11.1007938778
 20
9.6065791802
 11
11.1007938778
 21
9.5444839448
  0
LINE
  5
2D6
100
AcDbEntity
  8
0
100
AcDbLine
 62
4
  6
CONTINUOUS
 10
11.1111430391
 20
9.2636477176
 11
11.1111430391
 21
9.3602403074
  0
LINE
  5
2D7
100
AcDbEntity
  8
0
100
AcDbLine
 62
4
  6
CONTINUOUS
 10
11.1145927889
 20
9.0509047791
 11
11.1145927889
 21
9.1474973689
  0
LINE
  5
2D8
100
AcDbEntity
  8
0
100
AcDbLine
 62
7
  6
CONTINUOUS
 10
11.1464340764
 20
6.7032848174
 11
11.1464340764
 21
6.2826855916
  0
LINE
  5
2D9
100
AcDbEntity
  8
0
100
AcDbLine
 62
4
  6
CONTINUOUS
 10
11.1801377478
 20
9.3347570943
 11
11.1801377478
 21
9.3554555081
  0
LINE
  5
2DA
100
AcDbEntity
  8
0
100
AcDbLine
 62
4
  6
CONTINUOUS
 10
11.1881871854
 20
9.5453226693
 11
11.1881871854
 21
9.6005184338
  0
LINE
  5
2DB
100
AcDbEntity
  8
0
100
AcDbLine
 62
7
  6
CONTINUOUS
 10
11.2036435218
 20
6.6993173289
 11
11.2036435218
 21
6.2787181031
  0
LINE
  5
2DC
100
AcDbEntity
  8
0
100
AcDbLine
 62
4
  6
CONTINUOUS
 10
11.5216615741
 20
9.6118892607
 11
11.5193617593
 21
9.6051492802
  0
LINE
  5
2DD
100
AcDbEntity
  8
0
100
AcDbLine
 62
4
  6
CONTINUOUS
 10
11.7022897839
 20
8.5735492817
 11
11.7602453356
 21
8.5695300505
  0
LINE
  5
2DE
100
AcDbEntity
  8
0
100
AcDbLine
 62
4
  6
CONTINUOUS
 10
10.9766033716
 20
9.1570669675
 11
11.0042012643
 21
9.0585604573
  0
LINE
  5
2DF
100
AcDbEntity
  8
0
100
AcDbLine
 62
4
  6
CONTINUOUS
 10
11.2295839899
 20
9.6321449099
 11
11.2295839899
 21
9.5355523201
  0
LINE
  5
2E0
100
AcDbEntity
  8
0
100
AcDbLine
 62
4
  6
CONTINUOUS
 10
11.2560319238
 20
9.3501922291
 11
11.2560319238
 21
9.2673985813
  0
LINE
  5
2E1
100
AcDbEntity
  8
0
100
AcDbLine
 62
4
  6
CONTINUOUS
 10
11.2571819056
 20
9.5336383982
 11
11.2571819056
 21
9.6026331068
  0
LINE
  5
2E2
100
AcDbEntity
  8
0
100
AcDbLine
 62
4
  6
CONTINUOUS
 10
11.2594816966
 20
9.0546556412
 11
11.2594816966
 21
9.1236503484
  0
LINE
  5
2E3
100
AcDbEntity
  8
0
100
AcDbLine
 62
4
  6
CONTINUOUS
 10
11.2893794048
 20
9.5935007295
 11
11.2893794048
 21
9.5797017889
  0
LINE
  5
2E4
100
AcDbEntity
  8
0
100
AcDbLine
 62
4
  6
CONTINUOUS
 10
11.3043282187
 20
9.2640492219
 11
11.3043282187
 21
9.3468428697
  0
LINE
  5
2E5
100
AcDbEntity
  8
0
100
AcDbLine
 62
4
  6
CONTINUOUS
 10
11.3192771353
 20
9.5362315504
 11
11.3192771353
 21
9.5569299634
  0
LINE
  5
2E6
100
AcDbEntity
  8
0
100
AcDbLine
 62
4
  6
CONTINUOUS
 10
11.3399754907
 20
9.0490733776
 11
11.3399754907
 21
9.1180680848
  0
LINE
  5
2E7
100
AcDbEntity
  8
0
100
AcDbLine
 62
4
  6
CONTINUOUS
 10
11.3606739398
 20
9.5264612012
 11
11.3606739398
 21
9.5816569693
  0
LINE
  5
2E8
100
AcDbEntity
  8
0
100
AcDbLine
 62
7
  6
CONTINUOUS
 10
12.1927717878
 20
9.2587766369
 11
12.1919525395
 21
9.2579998593
  0
LINE
  5
2E9
100
AcDbEntity
  8
0
100
AcDbLine
 62
4
  6
CONTINUOUS
 10
11.7095342279
 20
8.6792987249
 11
11.7240231158
 21
8.6879531734
  0
LINE
  5
2EA
100
AcDbEntity
  8
0
100
AcDbLine
 62
4
  6
CONTINUOUS
 10
11.7530008917
 20
8.6376472625
 11
11.7240231158
 21
8.620338362
  0
LINE
  5
2EB
100
AcDbEntity
  8
0
100
AcDbLine
 62
4
  6
CONTINUOUS
 10
11.7240231158
 20
8.6879531734
 11
11.7385120037
 21
8.6869483657
  0
LINE
  5
2EC
100
AcDbEntity
  8
0
100
AcDbLine
 62
4
  6
CONTINUOUS
 10
10.8961095487
 20
9.162649233
 11
10.9099084893
 21
9.1478933327
  0
LINE
  5
2ED
100
AcDbEntity
  8
0
100
AcDbLine
 62
4
  6
CONTINUOUS
 10
11.3882718094
 20
9.5935419911
 11
11.3882718094
 21
9.5314467535
  0
LINE
  5
2EE
100
AcDbEntity
  8
0
100
AcDbLine
 62
4
  6
CONTINUOUS
 10
11.3882717856
 20
9.1147187254
 11
11.3882717856
 21
9.0457240182
  0
LINE
  5
2EF
100
AcDbEntity
  8
0
100
AcDbLine
 62
4
  6
CONTINUOUS
 10
11.4158696552
 20
9.0300111574
 11
11.4158696552
 21
9.1266037472
  0
LINE
  5
2F0
100
AcDbEntity
  8
0
100
AcDbLine
 62
4
  6
CONTINUOUS
 10
11.4296686599
 20
9.5216764012
 11
11.4296686599
 21
9.5906711098
  0
LINE
  5
2F1
100
AcDbEntity
  8
0
100
AcDbLine
 62
4
  6
CONTINUOUS
 10
11.4572665295
 20
9.5266619534
 11
11.4572665295
 21
9.6163550722
  0
LINE
  5
2F2
100
AcDbEntity
  8
0
100
AcDbLine
 62
4
  6
CONTINUOUS
 10
11.4641659501
 20
9.1094554472
 11
11.4641659501
 21
9.04046074
  0
LINE
  5
2F3
100
AcDbEntity
  8
0
100
AcDbLine
 62
4
  6
CONTINUOUS
 10
11.5032629859
 20
9.0239504094
 11
11.5032629859
 21
9.1205429992
  0
LINE
  5
2F4
100
AcDbEntity
  8
0
100
AcDbLine
 62
4
  6
CONTINUOUS
 10
11.5193617593
 20
9.5154561636
 11
11.5193617593
 21
9.5844508722
  0
LINE
  5
2F5
100
AcDbEntity
  8
0
100
AcDbLine
 62
4
  6
CONTINUOUS
 10
11.5193617593
 20
9.6051492802
 11
11.5193617593
 21
9.6120487534
  0
LINE
  5
2F6
100
AcDbEntity
  8
0
100
AcDbLine
 62
4
  6
CONTINUOUS
 10
11.5561589341
 20
9.5198037419
 11
11.5561589341
 21
9.5749995063
  0
LINE
  5
2F7
100
AcDbEntity
  8
0
100
AcDbLine
 62
4
  6
CONTINUOUS
 10
11.7022897839
 20
8.6701418656
 11
11.7095342279
 21
8.6792987249
  0
LINE
  5
2F8
100
AcDbEntity
  8
0
100
AcDbLine
 62
4
  6
CONTINUOUS
 10
11.7240231158
 20
8.620338362
 11
11.7095342279
 21
8.6020246537
  0
LINE
  5
2F9
100
AcDbEntity
  8
0
100
AcDbLine
 62
4
  6
CONTINUOUS
 10
11.7602453356
 20
8.6468041218
 11
11.7530008917
 21
8.6376472625
  0
LINE
  5
2FA
100
AcDbEntity
  8
0
100
AcDbLine
 62
4
  6
CONTINUOUS
 10
10.1331431543
 20
8.9837388807
 11
10.1186542664
 21
8.9847436885
  0
LINE
  5
2FB
100
AcDbEntity
  8
0
100
AcDbLine
 62
4
  6
CONTINUOUS
 10
10.1186542664
 20
9.0523584966
 11
10.1331431543
 21
9.0513536888
  0
LINE
  5
2FC
100
AcDbEntity
  8
0
100
AcDbLine
 62
4
  6
CONTINUOUS
 10
10.1186542664
 20
9.100654792
 11
10.1331431543
 21
9.0996499842
  0
LINE
  5
2FD
100
AcDbEntity
  8
0
100
AcDbLine
 62
4
  6
CONTINUOUS
 10
11.4503670153
 20
9.0276187574
 11
11.4158696552
 21
9.0300111574
  0
LINE
  5
2FE
100
AcDbEntity
  8
0
100
AcDbLine
 62
4
  6
CONTINUOUS
 10
11.3744728508
 20
9.0328820356
 11
11.3537744255
 21
9.0343174762
  0
LINE
  5
2FF
100
AcDbEntity
  8
0
100
AcDbLine
 62
4
  6
CONTINUOUS
 10
11.300878501
 20
9.0379858211
 11
11.2732806314
 21
9.0398997398
  0
LINE
  5
300
100
AcDbEntity
  8
0
100
AcDbLine
 62
4
  6
CONTINUOUS
 10
10.8961095487
 20
9.0660566433
 11
10.8616122001
 21
9.0684490425
  0
LINE
  5
301
100
AcDbEntity
  8
0
100
AcDbLine
 62
4
  6
CONTINUOUS
 10
11.1145927889
 20
9.0509047791
 11
11.1559896164
 21
9.0480338994
  0
LINE
  5
302
100
AcDbEntity
  8
0
100
AcDbLine
 62
4
  6
CONTINUOUS
 10
11.5032629859
 20
9.0239504094
 11
11.5446597903
 21
9.0210795312
  0
LINE
  5
303
100
AcDbEntity
  8
0
100
AcDbLine
 62
4
  6
CONTINUOUS
 10
10.8064164321
 20
9.1136737066
 11
10.8432136098
 21
9.0927232248
  0
LINE
  5
304
100
AcDbEntity
  8
0
100
AcDbLine
 62
4
  6
CONTINUOUS
 10
10.7558203462
 20
9.5753074114
 11
10.7627198172
 21
9.5679294605
  0
LINE
  5
305
100
AcDbEntity
  8
0
100
AcDbLine
 62
4
  6
CONTINUOUS
 10
10.9076086983
 20
9.6544739723
 11
10.9559049932
 21
9.554532023
  0
LINE
  5
306
100
AcDbEntity
  8
0
100
AcDbLine
 62
4
  6
CONTINUOUS
 10
11.1283917705
 20
9.611564733
 11
11.1490901958
 21
9.5411345837
  0
LINE
  5
307
100
AcDbEntity
  8
0
100
AcDbLine
 62
4
  6
CONTINUOUS
 10
11.7095342279
 20
7.2690469966
 11
11.7022897839
 21
7.2985271763
  0
LINE
  5
308
100
AcDbEntity
  8
0
100
AcDbLine
 62
4
  6
CONTINUOUS
 10
11.6182542099
 20
9.5499947734
 11
11.6182542099
 21
9.5706931843
  0
LINE
  5
309
100
AcDbEntity
  8
0
100
AcDbLine
 62
7
  6
CONTINUOUS
 10
11.6255694507
 20
6.7069055276
 11
11.6255694507
 21
6.3079788174
  0
LINE
  5
30A
100
AcDbEntity
  8
0
100
AcDbLine
 62
4
  6
CONTINUOUS
 10
11.6596509683
 20
9.5126265449
 11
11.6596509683
 21
9.5333249579
  0
LINE
  5
30B
100
AcDbEntity
  8
0
100
AcDbLine
 62
7
  6
CONTINUOUS
 10
11.6674496597
 20
6.7040011253
 11
11.6674496597
 21
6.318818209
  0
LINE
  5
30C
100
AcDbEntity
  8
0
100
AcDbLine
 62
4
  6
CONTINUOUS
 10
11.7095342279
 20
8.6020246537
 11
11.7022897839
 21
8.5735492817
  0
LINE
  5
30D
100
AcDbEntity
  8
0
100
AcDbLine
 62
4
  6
CONTINUOUS
 10
10.9582047842
 20
9.0893482081
 11
10.995001959
 21
9.0867963153
  0
LINE
  5
30E
100
AcDbEntity
  8
0
100
AcDbLine
 62
4
  6
CONTINUOUS
 10
11.5308608555
 20
9.0772322587
 11
11.5032629859
 21
9.0791461774
  0
LINE
  5
30F
100
AcDbEntity
  8
0
100
AcDbLine
 62
4
  6
CONTINUOUS
 10
11.1421906815
 20
9.1041866268
 11
11.1145927889
 21
9.1061005472
  0
LINE
  5
310
100
AcDbEntity
  8
0
100
AcDbLine
 62
4
  6
CONTINUOUS
 10
10.8616122001
 20
9.1650416323
 11
10.8961095487
 21
9.162649233
  0
LINE
  5
311
100
AcDbEntity
  8
0
100
AcDbLine
 62
4
  6
CONTINUOUS
 10
11.0317991339
 20
9.1532391284
 11
11.0869948962
 21
9.1494112892
  0
LINE
  5
312
100
AcDbEntity
  8
0
100
AcDbLine
 62
4
  6
CONTINUOUS
 10
11.1145927889
 20
9.1474973689
 11
11.1559896164
 21
9.1446264891
  0
LINE
  5
313
100
AcDbEntity
  8
0
100
AcDbLine
 62
4
  6
CONTINUOUS
 10
11.2732806314
 20
9.1364923296
 11
11.300878501
 21
9.1345784109
  0
LINE
  5
314
100
AcDbEntity
  8
0
100
AcDbLine
 62
4
  6
CONTINUOUS
 10
11.3537744255
 20
9.130910066
 11
11.3744728508
 21
9.1294746254
  0
LINE
  5
315
100
AcDbEntity
  8
0
100
AcDbLine
 62
4
  6
CONTINUOUS
 10
11.4158696552
 20
9.1266037472
 11
11.4503670153
 21
9.1242113472
  0
LINE
  5
316
100
AcDbEntity
  8
0
100
AcDbLine
 62
4
  6
CONTINUOUS
 10
11.5032629859
 20
9.1205429992
 11
11.5446597903
 21
9.117672121
  0
LINE
  5
317
100
AcDbEntity
  8
0
100
AcDbLine
 62
4
  6
CONTINUOUS
 10
11.7385120037
 20
8.6869483657
 11
11.7530008917
 21
8.6762843015
  0
LINE
  5
318
100
AcDbEntity
  8
0
100
AcDbLine
 62
4
  6
CONTINUOUS
 10
10.8041166411
 20
9.592656465
 11
10.7558203462
 21
9.6374026491
  0
LINE
  5
319
100
AcDbEntity
  8
0
100
AcDbLine
 62
4
  6
CONTINUOUS
 10
11.2732806314
 20
9.0398997398
 11
11.2594816966
 21
9.0546556412
  0
LINE
  5
31A
100
AcDbEntity
  8
0
100
AcDbLine
 62
4
  6
CONTINUOUS
 10
10.8317145222
 20
9.5769436035
 11
10.8455134628
 21
9.5621877017
  0
LINE
  5
31B
100
AcDbEntity
  8
0
100
AcDbLine
 62
4
  6
CONTINUOUS
 10
11.3537744255
 20
9.0343174762
 11
11.3399754907
 21
9.0490733776
  0
LINE
  5
31C
100
AcDbEntity
  8
0
100
AcDbLine
 62
4
  6
CONTINUOUS
 10
10.7972171708
 20
9.6621296507
 11
10.8041166411
 21
9.6547516976
  0
LINE
  5
31D
100
AcDbEntity
  8
0
100
AcDbLine
 62
4
  6
CONTINUOUS
 10
11.3744728508
 20
9.1294746254
 11
11.3882717856
 21
9.1147187254
  0
LINE
  5
31E
100
AcDbEntity
  8
0
100
AcDbLine
 62
4
  6
CONTINUOUS
 10
11.2560319238
 20
9.2673985813
 11
11.2698308701
 21
9.2526426791
  0
LINE
  5
31F
100
AcDbEntity
  8
0
100
AcDbLine
 62
4
  6
CONTINUOUS
 10
11.7530008917
 20
8.6762843015
 11
11.7602453356
 21
8.6661226344
  0
LINE
  5
320
100
AcDbEntity
  8
0
100
AcDbLine
 62
4
  6
CONTINUOUS
 10
11.7602453356
 20
8.6661226344
 11
11.7602453356
 21
8.6468041218
  0
LINE
  5
321
100
AcDbEntity
  8
0
100
AcDbLine
 62
4
  6
CONTINUOUS
 10
11.7747342236
 20
7.2935031374
 11
11.7747342236
 21
7.2548661035
  0
LINE
  5
322
100
AcDbEntity
  8
0
100
AcDbLine
 62
7
  6
CONTINUOUS
 10
11.780504285
 20
6.6961607604
 11
11.780504285
 21
6.4280205978
  0
LINE
  5
323
100
AcDbEntity
  8
0
100
AcDbLine
 62
7
  6
CONTINUOUS
 10
11.883883815
 20
6.6889913656
 11
11.883883815
 21
9.9489912225
  0
LINE
  5
324
100
AcDbEntity
  8
0
100
AcDbLine
 62
4
  6
CONTINUOUS
 10
11.1111430391
 20
9.2636477176
 11
11.1525398637
 21
9.2607768381
  0
LINE
  5
325
100
AcDbEntity
  8
0
100
AcDbLine
 62
4
  6
CONTINUOUS
 10
11.2698308701
 20
9.2526426791
 11
11.2905292724
 21
9.2512072401
  0
LINE
  5
326
100
AcDbEntity
  8
0
100
AcDbLine
 62
4
  6
CONTINUOUS
 10
11.1387409231
 20
9.3169295659
 11
11.1111430391
 21
9.3188434857
  0
LINE
  5
327
100
AcDbEntity
  8
0
100
AcDbLine
 62
4
  6
CONTINUOUS
 10
11.1111430391
 20
9.3602403074
 11
11.1525398637
 21
9.3573694278
  0
LINE
  5
328
100
AcDbEntity
  8
0
100
AcDbLine
 62
4
  6
CONTINUOUS
 10
11.1801377478
 20
9.3554555081
 11
11.2284340427
 21
9.3521061487
  0
LINE
  5
329
100
AcDbEntity
  8
0
100
AcDbLine
 62
4
  6
CONTINUOUS
 10
11.57225766
 20
9.0789610274
 11
11.6090548348
 21
9.0580105443
  0
LINE
  5
32A
100
AcDbEntity
  8
0
100
AcDbLine
 62
4
  6
CONTINUOUS
 10
11.4503670153
 20
9.1242113472
 11
11.4641659501
 21
9.1094554472
  0
LINE
  5
32B
100
AcDbEntity
  8
0
100
AcDbLine
 62
4
  6
CONTINUOUS
 10
11.0938944104
 20
9.6139571331
 11
11.1007938778
 21
9.6065791802
  0
LINE
  5
32C
100
AcDbEntity
  8
0
100
AcDbLine
 62
4
  6
CONTINUOUS
 10
11.2847797752
 20
9.6007191881
 11
11.2893794048
 21
9.5935007295
  0
LINE
  5
32D
100
AcDbEntity
  8
0
100
AcDbLine
 62
4
  6
CONTINUOUS
 10
11.3606739398
 20
9.5816569693
 11
11.3537744954
 21
9.595934388
  0
LINE
  5
32E
100
AcDbEntity
  8
0
100
AcDbLine
 62
4
  6
CONTINUOUS
 10
11.7022897839
 20
7.2985271763
 11
11.7095342279
 21
7.3270025483
  0
LINE
  5
32F
100
AcDbEntity
  8
0
100
AcDbLine
 62
4
  6
CONTINUOUS
 10
11.1283917705
 20
9.5195717887
 11
11.1421907053
 21
9.5186148293
  0
LINE
  5
330
100
AcDbEntity
  8
0
100
AcDbLine
 62
4
  6
CONTINUOUS
 10
11.5906563403
 20
9.5105118676
 11
11.5630583785
 21
9.5124257928
  0
LINE
  5
331
100
AcDbEntity
  8
0
100
AcDbLine
 62
4
  6
CONTINUOUS
 10
11.4779649548
 20
9.5183270417
 11
11.46416602
 21
9.5192840011
  0
LINE
  5
332
100
AcDbEntity
  8
0
100
AcDbLine
 62
4
  6
CONTINUOUS
 10
11.3606739398
 20
9.5264612012
 11
11.3330760701
 21
9.52837512
  0
LINE
  5
333
100
AcDbEntity
  8
0
100
AcDbLine
 62
4
  6
CONTINUOUS
 10
11.2295839899
 20
9.5355523201
 11
11.2019861202
 21
9.5374662389
  0
LINE
  5
334
100
AcDbEntity
  8
0
100
AcDbLine
 62
4
  6
CONTINUOUS
 10
10.7627198172
 20
9.5679294605
 11
10.7903177005
 21
9.5660155408
  0
LINE
  5
335
100
AcDbEntity
  8
0
100
AcDbLine
 62
4
  6
CONTINUOUS
 10
10.8455134628
 20
9.5621877017
 11
10.8662118823
 21
9.5607522614
  0
LINE
  5
336
100
AcDbEntity
  8
0
100
AcDbLine
 62
4
  6
CONTINUOUS
 10
11.3951712998
 20
9.5240688012
 11
11.4296686599
 21
9.5216764012
  0
LINE
  5
337
100
AcDbEntity
  8
0
100
AcDbLine
 62
4
  6
CONTINUOUS
 10
11.6251536543
 20
9.5081194707
 11
11.6527515239
 21
9.506205552
  0
LINE
  5
338
100
AcDbEntity
  8
0
100
AcDbLine
 62
4
  6
CONTINUOUS
 10
11.3330760701
 20
9.5628724743
 11
11.3606739398
 21
9.5609585556
  0
LINE
  5
339
100
AcDbEntity
  8
0
100
AcDbLine
 62
4
  6
CONTINUOUS
 10
11.2019861202
 20
9.5374662389
 11
11.1881871854
 21
9.5453226693
  0
LINE
  5
33A
100
AcDbEntity
  8
0
100
AcDbLine
 62
4
  6
CONTINUOUS
 10
11.3330760701
 20
9.52837512
 11
11.3192771353
 21
9.5362315504
  0
LINE
  5
33B
100
AcDbEntity
  8
0
100
AcDbLine
 62
4
  6
CONTINUOUS
 10
11.3882718094
 20
9.5314467535
 11
11.3951712998
 21
9.5240688012
  0
LINE
  5
33C
100
AcDbEntity
  8
0
100
AcDbLine
 62
4
  6
CONTINUOUS
 10
11.46416602
 20
9.5192840011
 11
11.4572665295
 21
9.5266619534
  0
LINE
  5
33D
100
AcDbEntity
  8
0
100
AcDbLine
 62
4
  6
CONTINUOUS
 10
11.5630583785
 20
9.5124257928
 11
11.5561589341
 21
9.5198037419
  0
LINE
  5
33E
100
AcDbEntity
  8
0
100
AcDbLine
 62
4
  6
CONTINUOUS
 10
11.7095342279
 20
7.3270025483
 11
11.7240231158
 21
7.34531626
  0
LINE
  5
33F
100
AcDbEntity
  8
0
100
AcDbLine
 62
7
  6
CONTINUOUS
 10
12.1926006895
 20
7.8628514855
 11
12.1919525395
 21
7.8622369576
  0
LINE
  5
340
100
AcDbEntity
  8
0
100
AcDbLine
 62
4
  6
CONTINUOUS
 10
11.3537744954
 20
9.595934388
 11
11.3192771353
 21
9.598326788
  0
LINE
  5
341
100
AcDbEntity
  8
0
100
AcDbLine
 62
4
  6
CONTINUOUS
 10
11.0593970504
 20
9.6163495331
 11
11.0938944104
 21
9.6139571331
  0
LINE
  5
342
100
AcDbEntity
  8
0
100
AcDbLine
 62
4
  6
CONTINUOUS
 10
11.2019861202
 20
9.6064609475
 11
11.2295839899
 21
9.6045470288
  0
LINE
  5
343
100
AcDbEntity
  8
0
100
AcDbLine
 62
4
  6
CONTINUOUS
 10
11.2571819056
 20
9.6026331068
 11
11.2847797752
 21
9.6007191881
  0
LINE
  5
344
100
AcDbEntity
  8
0
100
AcDbLine
 62
4
  6
CONTINUOUS
 10
11.5630583785
 20
9.5814205014
 11
11.5906563403
 21
9.5795065762
  0
LINE
  5
345
100
AcDbEntity
  8
0
100
AcDbLine
 62
4
  6
CONTINUOUS
 10
11.6251536543
 20
9.5771141794
 11
11.6527515239
 21
9.5752002606
  0
LINE
  5
346
100
AcDbEntity
  8
0
100
AcDbLine
 62
4
  6
CONTINUOUS
 10
10.7696192882
 20
9.6640435703
 11
10.7972171708
 21
9.6621296507
  0
LINE
  5
347
100
AcDbEntity
  8
0
100
AcDbLine
 62
4
  6
CONTINUOUS
 10
11.5193617593
 20
9.6120487534
 11
11.5216615741
 21
9.6118892607
  0
LINE
  5
348
100
AcDbEntity
  8
0
100
AcDbLine
 62
4
  6
CONTINUOUS
 10
11.6527515239
 20
9.5384030829
 11
11.6251536543
 21
9.5449166485
  0
LINE
  5
349
100
AcDbEntity
  8
0
100
AcDbLine
 62
4
  6
CONTINUOUS
 10
11.6251536543
 20
9.5449166485
 11
11.6182542099
 21
9.5499947734
  0
LINE
  5
34A
100
AcDbEntity
  8
0
100
AcDbLine
 62
4
  6
CONTINUOUS
 10
11.6596509683
 20
9.5333249579
 11
11.6527515239
 21
9.5384030829
  0
LINE
  5
34B
100
AcDbEntity
  8
0
100
AcDbLine
 62
4
  6
CONTINUOUS
 10
11.6182542099
 20
9.5154974198
 11
11.6251536543
 21
9.5081194707
  0
LINE
  5
34C
100
AcDbEntity
  8
0
100
AcDbLine
 62
4
  6
CONTINUOUS
 10
11.6527515239
 20
9.5752002606
 11
11.6596509683
 21
9.5678223094
  0
LINE
  5
34D
100
AcDbEntity
  8
0
100
AcDbLine
 62
4
  6
CONTINUOUS
 10
11.7747342236
 20
7.2548661035
 11
11.7674897796
 21
7.2457092485
  0
LINE
  5
34E
100
AcDbEntity
  8
0
100
AcDbLine
 62
4
  6
CONTINUOUS
 10
11.7240231158
 20
7.34531626
 11
11.7385120037
 21
7.3539707086
  0
LINE
  5
34F
100
AcDbEntity
  8
0
100
AcDbLine
 62
4
  6
CONTINUOUS
 10
11.7674897796
 20
7.2457092485
 11
11.7530008917
 21
7.2370547973
  0
LINE
  5
350
100
AcDbEntity
  8
0
100
AcDbLine
 62
7
  6
CONTINUOUS
 10
12.5309308938
 20
7.3139908868
 11
12.5309308938
 21
10.5739907437
  0
LINE
  5
351
100
AcDbEntity
  8
0
100
AcDbLine
 62
7
  6
CONTINUOUS
 10
9.4690691062
 20
10.1164591913
 11
11.883883815
 21
9.9489912225
  0
LINE
  5
352
100
AcDbEntity
  8
0
100
AcDbLine
 62
7
  6
CONTINUOUS
 10
11.883883815
 20
6.6889913656
 11
12.5309308938
 21
7.3139908868
  0
LINE
  5
353
100
AcDbEntity
  8
0
100
AcDbLine
 62
7
  6
CONTINUOUS
 10
12.5309308938
 20
10.5739907437
 11
10.116116185
 21
10.7414587126
  0
LINE
  5
354
100
AcDbEntity
  8
0
100
AcDbLine
 62
7
  6
CONTINUOUS
 10
11.6985794805
 20
6.326237457
 11
11.6822552484
 21
6.3181735989
  0
ARC
  5
355
100
AcDbEntity
  8
0
100
AcDbCircle
 62
7
  6
CONTINUOUS
 10
11.2962313945
 20
8.0334973196
 40
1.7572201379
100
AcDbArc
 50
266.0376720963
 51
266.9796885983
  0
ARC
  5
356
100
AcDbEntity
  8
0
100
AcDbCircle
 62
7
  6
CONTINUOUS
 10
11.2955231375
 20
8.4424877831
 40
1.7455901856
100
AcDbArc
 50
266.0345339438
 51
266.9828267507
  0
ARC
  5
357
100
AcDbEntity
  8
0
100
AcDbCircle
 62
7
  6
CONTINUOUS
 10
11.2910475949
 20
8.3780539173
 40
1.6810010731
100
AcDbArc
 50
265.0648462661
 51
266.0348369885
  0
ARC
  5
358
100
AcDbEntity
  8
0
100
AcDbCircle
 62
7
  6
CONTINUOUS
 10
11.2910475949
 20
7.9574546915
 40
1.6810010731
100
AcDbArc
 50
265.0648462661
 51
266.0348369885
  0
ARC
  5
359
100
AcDbEntity
  8
0
100
AcDbCircle
 62
7
  6
CONTINUOUS
 10
10.3989347762
 20
6.7239440399
 40
0.9546416061
100
AcDbArc
 50
86.0387388224
 51
87.0784880121
  0
ARC
  5
35A
100
AcDbEntity
  8
0
100
AcDbCircle
 62
7
  6
CONTINUOUS
 10
10.7634631383
 20
7.9882060387
 40
0.4603243409
100
AcDbArc
 50
266.0303873705
 51
266.7121335354
  0
ARC
  5
35B
100
AcDbEntity
  8
0
100
AcDbCircle
 62
7
  6
CONTINUOUS
 10
10.2962080102
 20
9.8094383003
 40
0.1644925794
100
AcDbArc
 50
266.0493109134
 51
274.7434378792
  0
ARC
  5
35C
100
AcDbEntity
  8
0
100
AcDbCircle
 62
7
  6
CONTINUOUS
 10
12.1775951599
 20
9.2170579324
 40
0.0190272897
100
AcDbArc
 50
86.0666590646
 51
96.8902592654
  0
ARC
  5
35D
100
AcDbEntity
  8
0
100
AcDbCircle
 62
7
  6
CONTINUOUS
 10
12.1387168946
 20
8.6564540032
 40
0.0190222684
100
AcDbArc
 50
255.3340835031
 51
265.9998373142
  0
ARC
  5
35E
100
AcDbEntity
  8
0
100
AcDbCircle
 62
7
  6
CONTINUOUS
 10
12.1477372393
 20
7.3885458755
 40
0.0147419602
100
AcDbArc
 50
259.7519897449
 51
266.0296694813
  0
ARC
  5
35F
100
AcDbEntity
  8
0
100
AcDbCircle
 62
7
  6
CONTINUOUS
 10
12.1782138979
 20
7.8280079839
 40
0.014740421
100
AcDbArc
 50
86.0355316284
 51
92.3469483513
  0
SPLINE
  5
360
100
AcDbEntity
  8
0
100
AcDbSpline
 62
7
  6
CONTINUOUS
 70
0
 71
3
 72
35
 73
31
 74
0
 42
0.0000001
 43
0.0000001
 44
0.0000000001
 40
0.0
 40
0.0
 40
0.0
 40
0.0
 40
0.0771687072
 40
0.1531494139
 40
0.2277565133
 40
0.3008088448
 40
0.3366971149
 40
0.3721312295
 40
0.4070901622
 40
0.4415533103
 40
0.4755005215
 40
0.5089121171
 40
0.5417689218
 40
0.5740522916
 40
0.6057441404
 40
0.6368269731
 40
0.6672839194
 40
0.6970987673
 40
0.7262560052
 40
0.7547408645
 40
0.7825393627
 40
0.8096383557
 40
0.8360255949
 40
0.8616897889
 40
0.8866206776
 40
0.9108091152
 40
0.9342471609
 40
0.9569281872
 40
0.9788470036
 40
1.0
 40
1.0
 40
1.0
 40
1.0
 10
11.1900768131
 20
6.2623244778
 30
0.0
 10
11.1829750261
 20
6.2628169884
 30
0.0
 10
11.1688874751
 20
6.2638941581
 30
0.0
 10
11.1479629645
 20
6.2658027938
 30
0.0
 10
11.1274473184
 20
6.2679880058
 30
0.0
 10
11.110639752
 20
6.2700465164
 30
0.0
 10
11.0974409379
 20
6.2718299415
 30
0.0
 10
11.087736066
 20
6.2732249375
 30
0.0
 10
11.0781736325
 20
6.2746842854
 30
0.0
 10
11.0687600047
 20
6.2762070156
 30
0.0
 10
11.0595014587
 20
6.2777921093
 30
0.0
 10
11.0504041648
 20
6.2794385081
 30
0.0
 10
11.0414741855
 20
6.2811451116
 30
0.0
 10
11.0327174713
 20
6.2829107794
 30
0.0
 10
11.0241398566
 20
6.2847343315
 30
0.0
 10
11.0157470558
 20
6.2866145495
 30
0.0
 10
11.0075446597
 20
6.2885501768
 30
0.0
 10
10.9995381311
 20
6.2905399202
 30
0.0
 10
10.9917328014
 20
6.2925824501
 30
0.0
 10
10.9841338665
 20
6.2946764015
 30
0.0
 10
10.9767463832
 20
6.2968203753
 30
0.0
 10
10.9695752664
 20
6.2990129393
 30
0.0
 10
10.962625285
 20
6.3012526292
 30
0.0
 10
10.9559010586
 20
6.3035379497
 30
0.0
 10
10.9494070546
 20
6.3058673758
 30
0.0
 10
10.9431475825
 20
6.3082393544
 30
0.0
 10
10.9371267973
 20
6.3106523031
 30
0.0
 10
10.9313486746
 20
6.3131046222
 30
0.0
 10
10.9258170849
 20
6.3155946602
 30
0.0
 10
10.9222321968
 20
6.3173093187
 30
0.0
 10
10.920482644
 20
6.3181735639
 30
0.0
  0
SPLINE
  5
361
100
AcDbEntity
  8
0
100
AcDbSpline
 62
7
  6
CONTINUOUS
 70
0
 71
3
 72
15
 73
11
 74
0
 42
0.0000001
 43
0.0000001
 44
0.0000000001
 40
0.0
 40
0.0
 40
0.0
 40
0.0
 40
0.1371474631
 40
0.2706769339
 40
0.4006484844
 40
0.5271347234
 40
0.6502164733
 40
0.7699845532
 40
0.8865418828
 40
1.0
 40
1.0
 40
1.0
 40
1.0
 10
10.8375627728
 20
6.3626272662
 30
0.0
 10
10.8367907078
 20
6.3632254526
 30
0.0
 10
10.8352810763
 20
6.3644244425
 30
0.0
 10
10.8330929678
 20
6.3662560136
 30
0.0
 10
10.8310122145
 20
6.36809603
 30
0.0
 10
10.8290393162
 20
6.3699440622
 30
0.0
 10
10.827174715
 20
6.371799704
 30
0.0
 10
10.8254188315
 20
6.3736625628
 30
0.0
 10
10.8237721088
 20
6.3755321868
 30
0.0
 10
10.8227336414
 20
6.376799536
 30
0.0
 10
10.8222335363
 20
6.3774341462
 30
0.0
  0
SPLINE
  5
362
100
AcDbEntity
  8
0
100
AcDbSpline
 62
7
  6
CONTINUOUS
 70
0
 71
3
 72
34
 73
30
 74
0
 42
0.0000001
 43
0.0000001
 44
0.0000000001
 40
0.0
 40
0.0
 40
0.0
 40
0.0
 40
0.0809734182
 40
0.1598888656
 40
0.1985328866
 40
0.236611827
 40
0.2741092697
 40
0.3110092465
 40
0.347296387
 40
0.3829560761
 40
0.417974626
 40
0.4523394606
 40
0.4860392999
 40
0.5190643495
 40
0.5514064909
 40
0.5830594704
 40
0.6140190885
 40
0.6442833733
 40
0.6738527336
 40
0.7027300949
 40
0.7309210133
 40
0.7584337611
 40
0.7852793888
 40
0.8114717392
 40
0.861960419
 40
0.9100690898
 40
0.9560013248
 40
0.9782274084
 40
1.0
 40
1.0
 40
1.0
 40
1.0
 10
11.780504285
 20
6.4280205978
 30
0.0
 10
11.7788560977
 20
6.4248424094
 30
0.0
 10
11.7755568338
 20
6.4185898875
 30
0.0
 10
11.7713352212
 20
6.4108933005
 30
0.0
 10
11.767943462
 20
6.4049057854
 30
0.0
 10
11.7654120846
 20
6.4005358149
 30
0.0
 10
11.7628755526
 20
6.3962582363
 30
0.0
 10
11.7603339944
 20
6.3920760629
 30
0.0
 10
11.7577875706
 20
6.3879922868
 30
0.0
 10
11.7552364653
 20
6.3840098608
 30
0.0
 10
11.7526808892
 20
6.3801316793
 30
0.0
 10
11.7501210798
 20
6.3763605569
 30
0.0
 10
11.7475573005
 20
6.3726992085
 30
0.0
 10
11.7449898405
 20
6.3691502272
 30
0.0
 10
11.7424190134
 20
6.3657160632
 30
0.0
 10
11.7398451558
 20
6.3623990015
 30
0.0
 10
11.7372686263
 20
6.3592011405
 30
0.0
 10
11.7346898036
 20
6.3561243714
 30
0.0
 10
11.7321090829
 20
6.3531703604
 30
0.0
 10
11.7295268744
 20
6.350340533
 30
0.0
 10
11.7269435963
 20
6.3476360554
 30
0.0
 10
11.7243596874
 20
6.3450578393
 30
0.0
 10
11.7217755453
 20
6.3426064721
 30
0.0
 10
11.7183720518
 20
6.3395451447
 30
0.0
 10
11.7141190376
 20
6.3360250782
 30
0.0
 10
11.7089555669
 20
6.3322535564
 30
0.0
 10
11.7046116732
 20
6.3294965336
 30
0.0
 10
11.701146416
 20
6.3275452948
 30
0.0
 10
11.6994179228
 20
6.3266515929
 30
0.0
 10
11.6985548205
 20
6.3262252758
 30
0.0
  0
SPLINE
  5
363
100
AcDbEntity
  8
0
100
AcDbSpline
 62
7
  6
CONTINUOUS
 70
0
 71
3
 72
48
 73
44
 74
0
 42
0.0000001
 43
0.0000001
 44
0.0000000001
 40
0.0
 40
0.0
 40
0.0
 40
0.0
 40
0.00954104
 40
0.0193653464
 40
0.0294719709
 40
0.039859557
 40
0.0505263736
 40
0.0614703488
 40
0.0726890873
 40
0.084179891
 40
0.0959397856
 40
0.1079655343
 40
0.1202536475
 40
0.1328004052
 40
0.1456018694
 40
0.158653887
 40
0.171952108
 40
0.1854919969
 40
0.1992688342
 40
0.2132777281
 40
0.2419710459
 40
0.2715299775
 40
0.3019099632
 40
0.3330643406
 40
0.3649445344
 40
0.3975002191
 40
0.4306794733
 40
0.464428937
 40
0.4986939493
 40
0.5334186921
 40
0.5685463286
 40
0.6040191343
 40
0.6397786331
 40
0.6757657282
 40
0.7119208309
 40
0.748183993
 40
0.7844950341
 40
0.8207936714
 40
0.8570196492
 40
0.8931128676
 40
0.9290135142
 40
0.964662127
 40
1.0
 40
1.0
 40
1.0
 40
1.0
 10
11.6822551732
 20
6.3181735621
 30
0.0
 10
11.6808308664
 20
6.3174699821
 30
0.0
 10
11.6779251435
 20
6.3160717631
 30
0.0
 10
11.6734630581
 20
6.3140290632
 30
0.0
 10
11.6688355213
 20
6.3120111412
 30
0.0
 10
11.6640446058
 20
6.3100189036
 30
0.0
 10
11.6590924264
 20
6.3080532304
 30
0.0
 10
11.6539811786
 20
6.3061149972
 30
0.0
 10
11.6487131275
 20
6.3042050662
 30
0.0
 10
11.6432906102
 20
6.3023242857
 30
0.0
 10
11.6377160325
 20
6.3004734932
 30
0.0
 10
11.6319918682
 20
6.298653514
 30
0.0
 10
11.6261206592
 20
6.2968651568
 30
0.0
 10
11.6201050131
 20
6.2951092183
 30
0.0
 10
11.6139476014
 20
6.293386482
 30
0.0
 10
11.6076511602
 20
6.2916977142
 30
0.0
 10
11.6012184874
 20
6.2900436666
 30
0.0
 10
11.5946524425
 20
6.2884250787
 30
0.0
 10
11.5879559394
 20
6.2868426658
 30
0.0
 10
11.5787842076
 20
6.2847654231
 30
0.0
 10
11.5670139482
 20
6.2822677634
 30
0.0
 10
11.5525274601
 20
6.2794491966
 30
0.0
 10
11.5375943232
 20
6.2767909557
 30
0.0
 10
11.5222411033
 20
6.2742977908
 30
0.0
 10
11.5064950724
 20
6.271974162
 30
0.0
 10
11.4903842202
 20
6.2698242251
 30
0.0
 10
11.4739371869
 20
6.2678518218
 30
0.0
 10
11.4571832155
 20
6.2660604795
 30
0.0
 10
11.4401520977
 20
6.2644533988
 30
0.0
 10
11.4228741215
 20
6.2630334509
 30
0.0
 10
11.4053800155
 20
6.2618031746
 30
0.0
 10
11.387700895
 20
6.2607647657
 30
0.0
 10
11.3698682057
 20
6.2599200802
 30
0.0
 10
11.3519136674
 20
6.2592706273
 30
0.0
 10
11.3338692176
 20
6.2588175655
 30
0.0
 10
11.3157669545
 20
6.2585617058
 30
0.0
 10
11.2976390793
 20
6.2585035039
 30
0.0
 10
11.279517839
 20
6.2586430637
 30
0.0
 10
11.2614354682
 20
6.2589801372
 30
0.0
 10
11.243424134
 20
6.2595141205
 30
0.0
 10
11.2255158762
 20
6.260244062
 30
0.0
 10
11.2077425656
 20
6.2611686545
 30
0.0
 10
11.1959465619
 20
6.2619174093
 30
0.0
 10
11.1900768131
 20
6.2623244778
 30
0.0
  0
SPLINE
  5
364
100
AcDbEntity
  8
0
100
AcDbSpline
 62
7
  6
CONTINUOUS
 70
0
 71
3
 72
11
 73
7
 74
0
 42
0.0000001
 43
0.0000001
 44
0.0000000001
 40
0.0
 40
0.0
 40
0.0
 40
0.0
 40
0.2469574617
 40
0.4960103647
 40
0.7470602108
 40
1.0
 40
1.0
 40
1.0
 40
1.0
 10
10.8953435735
 20
6.3305917839
 30
0.0
 10
10.8904659759
 20
6.3330013603
 30
0.0
 10
10.8807320939
 20
6.3379688617
 30
0.0
 10
10.8662570051
 20
6.3458020776
 30
0.0
 10
10.8518463846
 20
6.3540222911
 30
0.0
 10
10.8423174337
 20
6.3597218389
 30
0.0
 10
10.8375627728
 20
6.3626272662
 30
0.0
  0
SPLINE
  5
365
100
AcDbEntity
  8
0
100
AcDbSpline
 62
7
  6
CONTINUOUS
 70
0
 71
3
 72
11
 73
7
 74
0
 42
0.0000001
 43
0.0000001
 44
0.0000000001
 40
0.0
 40
0.0
 40
0.0
 40
0.0
 40
0.239978672
 40
0.4867532021
 40
0.7401536949
 40
1.0
 40
1.0
 40
1.0
 40
1.0
 10
11.6674496597
 20
6.318818209
 30
0.0
 10
11.6641276467
 20
6.3178473401
 30
0.0
 10
11.6573730388
 20
6.3159341959
 30
0.0
 10
11.6470583161
 20
6.3131846808
 30
0.0
 10
11.6364264412
 20
6.3105171688
 30
0.0
 10
11.6292222333
 20
6.3088160704
 30
0.0
 10
11.6255694507
 20
6.3079788174
 30
0.0
  0
SPLINE
  5
366
100
AcDbEntity
  8
0
100
AcDbSpline
 62
7
  6
CONTINUOUS
 70
0
 71
3
 72
34
 73
30
 74
0
 42
0.0000001
 43
0.0000001
 44
0.0000000001
 40
0.0
 40
0.0
 40
0.0
 40
0.0
 40
0.0634866499
 40
0.1268757617
 40
0.1901559488
 40
0.2217524835
 40
0.2533175613
 40
0.2848498219
 40
0.3163479752
 40
0.3478108244
 40
0.37923729
 40
0.410626433
 40
0.4419774759
 40
0.4732898202
 40
0.5045630611
 40
0.5357969968
 40
0.5669916332
 40
0.5981471839
 40
0.6292640629
 40
0.6603428743
 40
0.6913843958
 40
0.7223895607
 40
0.7533594367
 40
0.7842952036
 40
0.8151981295
 40
0.8460695479
 40
0.8769108365
 40
0.9385071607
 40
1.0
 40
1.0
 40
1.0
 40
1.0
 10
11.6255694507
 20
6.3079788174
 30
0.0
 10
11.6169622807
 20
6.305162416
 30
0.0
 10
11.5996961361
 20
6.2997299099
 30
0.0
 10
11.5736229089
 20
6.2922381017
 30
0.0
 10
11.5517593811
 20
6.2865964672
 30
0.0
 10
11.5341988485
 20
6.282477045
 30
0.0
 10
11.5210018662
 20
6.2795929732
 30
0.0
 10
11.5077748025
 20
6.276920097
 30
0.0
 10
11.4945203756
 20
6.2744650291
 30
0.0
 10
11.4812417033
 20
6.2722338435
 30
0.0
 10
11.4679422301
 20
6.2702319508
 30
0.0
 10
11.4546257067
 20
6.2684640009
 30
0.0
 10
11.4412961416
 20
6.2669337891
 30
0.0
 10
11.4279577477
 20
6.2656441781
 30
0.0
 10
11.4146148794
 20
6.2645970377
 30
0.0
 10
11.4012719639
 20
6.2637932039
 30
0.0
 10
11.3879334299
 20
6.263232461
 30
0.0
 10
11.3746036355
 20
6.2629135493
 30
0.0
 10
11.3612867997
 20
6.2628341959
 30
0.0
 10
11.347986939
 20
6.2629911666
 30
0.0
 10
11.3347078129
 20
6.2633803359
 30
0.0
 10
11.3214528783
 20
6.2639967737
 30
0.0
 10
11.308225256
 20
6.2648348422
 30
0.0
 10
11.2950277047
 20
6.2658883007
 30
0.0
 10
11.2818626191
 20
6.2671504122
 30
0.0
 10
11.268731989
 20
6.26861406
 30
0.0
 10
11.2512809487
 20
6.2708233592
 30
0.0
 10
11.2295585741
 20
6.2740510163
 30
0.0
 10
11.2122635182
 20
6.2770931043
 30
0.0
 10
11.2036435218
 20
6.2787181031
 30
0.0
  0
SPLINE
  5
367
100
AcDbEntity
  8
0
100
AcDbSpline
 62
7
  6
CONTINUOUS
 70
0
 71
3
 72
11
 73
7
 74
0
 42
0.0000001
 43
0.0000001
 44
0.0000000001
 40
0.0
 40
0.0
 40
0.0
 40
0.0
 40
0.2494623999
 40
0.4993144581
 40
0.7495081039
 40
1.0
 40
1.0
 40
1.0
 40
1.0
 10
11.2743553291
 20
6.7312860635
 30
0.0
 10
11.2683290788
 20
6.7289700042
 30
0.0
 10
11.2563403001
 20
6.724141803
 30
0.0
 10
11.2385670896
 20
6.7163667463
 30
0.0
 10
11.2209886915
 20
6.7080986327
 30
0.0
 10
11.2094044596
 20
6.7022898938
 30
0.0
 10
11.2036435218
 20
6.6993173289
 30
0.0
  0
SPLINE
  5
368
100
AcDbEntity
  8
0
100
AcDbSpline
 62
7
  6
CONTINUOUS
 70
0
 71
3
 72
32
 73
28
 74
0
 42
0.0000001
 43
0.0000001
 44
0.0000000001
 40
0.0
 40
0.0
 40
0.0
 40
0.0
 40
0.0595062425
 40
0.1191900351
 40
0.1790935976
 40
0.209143445
 40
0.2392663649
 40
0.2694689329
 40
0.2997579244
 40
0.330140265
 40
0.360622973
 40
0.3912130942
 40
0.4219176307
 40
0.4527434644
 40
0.4836972776
 40
0.5147854729
 40
0.5460140938
 40
0.5773887495
 40
0.6089145454
 40
0.6405960221
 40
0.6724371045
 40
0.7044410622
 40
0.736610483
 40
0.8014501593
 40
0.8669656327
 40
0.9331532561
 40
1.0
 40
1.0
 40
1.0
 40
1.0
 10
11.1464340764
 20
6.2826855916
 30
0.0
 10
11.1413151497
 20
6.2822073209
 30
0.0
 10
11.1310480281
 20
6.2813918275
 30
0.0
 10
11.1155914503
 20
6.2806251613
 30
0.0
 10
11.1026626473
 20
6.2803929172
 30
0.0
 10
11.0922881365
 20
6.2804660855
 30
0.0
 10
11.0844817598
 20
6.2806547237
 30
0.0
 10
11.0766592394
 20
6.2809808279
 30
0.0
 10
11.0688213974
 20
6.2814479793
 30
0.0
 10
11.0609692091
 20
6.2820595631
 30
0.0
 10
11.0531037592
 20
6.2828187242
 30
0.0
 10
11.0452262496
 20
6.2837283315
 30
0.0
 10
11.0373379913
 20
6.2847909418
 30
0.0
 10
11.0294403968
 20
6.2860087651
 30
0.0
 10
11.0215349698
 20
6.2873836341
 30
0.0
 10
11.0136232925
 20
6.2889169772
 30
0.0
 10
11.005707011
 20
6.2906097964
 30
0.0
 10
10.9977878193
 20
6.2924626511
 30
0.0
 10
10.9898674421
 20
6.2944756477
 30
0.0
 10
10.9819476135
 20
6.296648438
 30
0.0
 10
10.9740300698
 20
6.2989802166
 30
0.0
 10
10.966116489
 20
6.3014697532
 30
0.0
 10
10.9555454055
 20
6.3050063071
 30
0.0
 10
10.9423494732
 20
6.3098152634
 30
0.0
 10
10.9265975732
 20
6.3161658813
 30
0.0
 10
10.910897799
 20
6.3230852938
 30
0.0
 10
10.9005216207
 20
6.3280337828
 30
0.0
 10
10.8953435735
 20
6.3305917839
 30
0.0
  0
SPLINE
  5
369
100
AcDbEntity
  8
0
100
AcDbSpline
 62
7
  6
CONTINUOUS
 70
0
 71
3
 72
11
 73
7
 74
0
 42
0.0000001
 43
0.0000001
 44
0.0000000001
 40
0.0
 40
0.0
 40
0.0
 40
0.0
 40
0.2539476412
 40
0.5054096887
 40
0.7541675181
 40
1.0
 40
1.0
 40
1.0
 40
1.0
 10
11.1464340764
 20
6.7032848174
 30
0.0
 10
11.1422338659
 20
6.7069345255
 30
0.0
 10
11.1337917977
 20
6.7141037591
 30
0.0
 10
11.1209293073
 20
6.724481218
 30
0.0
 10
11.1079244918
 20
6.7343894843
 30
0.0
 10
11.0991048797
 20
6.7406909115
 30
0.0
 10
11.0946694261
 20
6.7437473233
 30
0.0
  0
SPLINE
  5
36A
100
AcDbEntity
  8
0
100
AcDbSpline
 62
7
  6
CONTINUOUS
 70
0
 71
3
 72
15
 73
11
 74
0
 42
0.0000001
 43
0.0000001
 44
0.0000000001
 40
0.0
 40
0.0
 40
0.0
 40
0.0
 40
0.1340154839
 40
0.2644677344
 40
0.3918674984
 40
0.5167200291
 40
0.6395140936
 40
0.7607124623
 40
0.8807443015
 40
1.0
 40
1.0
 40
1.0
 40
1.0
 10
11.6985548205
 20
6.3262252758
 30
0.0
 10
11.6972628893
 20
6.3255871447
 30
0.0
 10
11.6946780202
 20
6.3243978113
 30
0.0
 10
11.6907535142
 20
6.3228584305
 30
0.0
 10
11.6868394445
 20
6.3215810814
 30
0.0
 10
11.6829368815
 20
6.3205565298
 30
0.0
 10
11.6790465682
 20
6.3197749132
 30
0.0
 10
11.6751690858
 20
6.3192260262
 30
0.0
 10
11.6713050112
 20
6.3188994496
 30
0.0
 10
11.6687318905
 20
6.3188227717
 30
0.0
 10
11.6674496597
 20
6.318818209
 30
0.0
  0
SPLINE
  5
36B
100
AcDbEntity
  8
0
100
AcDbSpline
 62
7
  6
CONTINUOUS
 70
0
 71
3
 72
33
 73
29
 74
0
 42
0.0000001
 43
0.0000001
 44
0.0000000001
 40
0.0
 40
0.0
 40
0.0
 40
0.0
 40
0.0845018879
 40
0.1673006947
 40
0.2480793749
 40
0.3265296559
 40
0.4023569432
 40
0.4752811983
 40
0.5105725315
 40
0.5450410489
 40
0.5786569493
 40
0.6113918338
 40
0.6432188773
 40
0.6741127503
 40
0.7040500174
 40
0.7330090191
 40
0.7609702172
 40
0.7879163572
 40
0.8138325728
 40
0.8387069143
 40
0.8625303685
 40
0.8852975233
 40
0.907006901
 40
0.9276615333
 40
0.9472698654
 40
0.9658463673
 40
0.9834129366
 40
1.0
 40
1.0
 40
1.0
 40
1.0
 10
10.2754279224
 20
10.2703420433
 30
0.0
 10
10.2657607013
 20
10.2710124674
 30
0.0
 10
10.2466323686
 20
10.2725094749
 30
0.0
 10
10.2183144283
 20
10.2752545055
 30
0.0
 10
10.1907441026
 20
10.2784674658
 30
0.0
 10
10.1640371035
 20
10.2821347209
 30
0.0
 10
10.1383056464
 20
10.2862406925
 30
0.0
 10
10.1175450487
 20
10.2900537141
 30
0.0
 10
10.101511297
 20
10.2933197806
 30
0.0
 10
10.0899272697
 20
10.2958410144
 30
0.0
 10
10.0786652538
 20
10.2984579741
 30
0.0
 10
10.0677370562
 20
10.3011679312
 30
0.0
 10
10.0571541431
 20
10.3039679948
 30
0.0
 10
10.0469276148
 20
10.3068552493
 30
0.0
 10
10.0370681842
 20
10.3098266132
 30
0.0
 10
10.0275861784
 20
10.3128789786
 30
0.0
 10
10.0184915169
 20
10.316009125
 30
0.0
 10
10.0097936992
 20
10.3192137403
 30
0.0
 10
10.0015018078
 20
10.3224894927
 30
0.0
 10
9.9936244664
 20
10.3258329023
 30
0.0
 10
9.9861698675
 20
10.3292405124
 30
0.0
 10
9.9791457251
 20
10.3327087546
 30
0.0
 10
9.9725592846
 20
10.3362340357
 30
0.0
 10
9.9664173185
 20
10.339812778
 30
0.0
 10
9.9607261018
 20
10.343441291
 30
0.0
 10
9.9554913767
 20
10.3471160883
 30
0.0
 10
9.9507186673
 20
10.3508333292
 30
0.0
 10
9.9477651884
 20
10.353409853
 30
0.0
 10
9.9463727154
 20
10.3547057019
 30
0.0
  0
SPLINE
  5
36C
100
AcDbEntity
  8
0
100
AcDbSpline
 62
7
  6
CONTINUOUS
 70
0
 71
3
 72
46
 73
42
 74
0
 42
0.0000001
 43
0.0000001
 44
0.0000000001
 40
0.0
 40
0.0
 40
0.0
 40
0.0
 40
0.031143804
 40
0.0624406641
 40
0.0938846266
 40
0.1254660369
 40
0.1571726773
 40
0.188989797
 40
0.2209004514
 40
0.2528858567
 40
0.2849257707
 40
0.3169988946
 40
0.3490832879
 40
0.3811567922
 40
0.4131974593
 40
0.4451839758
 40
0.4770960786
 40
0.5089149549
 40
0.5406236259
 40
0.5722072995
 40
0.6036536882
 40
0.6349532936
 40
0.6660996371
 40
0.6970894354
 40
0.727922722
 40
0.7586028953
 40
0.7891366922
 40
0.8043544294
 40
0.8195395762
 40
0.8346938584
 40
0.8498191748
 40
0.8649175902
 40
0.8799913269
 40
0.8950427481
 40
0.9100743467
 40
0.9250887336
 40
0.940088619
 40
0.9550767983
 40
0.9700561375
 40
0.9850295542
 40
1.0
 40
1.0
 40
1.0
 40
1.0
 10
10.0727727834
 20
10.0465802509
 30
0.0
 10
10.0831510664
 20
10.0458605145
 30
0.0
 10
10.1039136768
 20
10.0436578522
 30
0.0
 10
10.1348058649
 20
10.0381092969
 30
0.0
 10
10.1653671728
 20
10.0303374465
 30
0.0
 10
10.1954325365
 20
10.0203840575
 30
0.0
 10
10.2248422412
 20
10.0083025023
 30
0.0
 10
10.2534394079
 20
9.9941574249
 30
0.0
 10
10.2810716753
 20
9.9780243693
 30
0.0
 10
10.3075918178
 20
9.959989509
 30
0.0
 10
10.3328585471
 20
9.9401490861
 30
0.0
 10
10.3567372014
 20
9.9186088805
 30
0.0
 10
10.3791005494
 20
9.8954837583
 30
0.0
 10
10.399829409
 20
9.8708969888
 30
0.0
 10
10.418813227
 20
9.8449795674
 30
0.0
 10
10.4359507691
 20
9.8178696127
 30
0.0
 10
10.4511506058
 20
9.7897115846
 30
0.0
 10
10.4643315301
 20
9.760655498
 30
0.0
 10
10.4754231065
 20
9.7308561983
 30
0.0
 10
10.4843660057
 20
9.7004725116
 30
0.0
 10
10.4911122381
 20
9.6696663894
 30
0.0
 10
10.4956255404
 20
9.6386021065
 30
0.0
 10
10.4978815379
 20
9.6074453384
 30
0.0
 10
10.4978678275
 20
9.5763624169
 30
0.0
 10
10.4955840213
 20
9.5455189792
 30
0.0
 10
10.4910423378
 20
9.5150808813
 30
0.0
 10
10.4853882202
 20
9.4901566849
 30
0.0
 10
10.4797643282
 20
9.4705896744
 30
0.0
 10
10.475007097
 20
9.4561304956
 30
0.0
 10
10.4697127071
 20
9.4418923862
 30
0.0
 10
10.4638881275
 20
9.4278941132
 30
0.0
 10
10.4575411529
 20
9.4141544524
 30
0.0
 10
10.4506802859
 20
9.4006917264
 30
0.0
 10
10.4433146403
 20
9.3875239535
 30
0.0
 10
10.4354540635
 20
9.3746687243
 30
0.0
 10
10.4271090839
 20
9.3621431997
 30
0.0
 10
10.4182907986
 20
9.3499641436
 30
0.0
 10
10.4090110182
 20
9.3381478394
 30
0.0
 10
10.3992821075
 20
9.3267099994
 30
0.0
 10
10.3891172385
 20
9.3156661565
 30
0.0
 10
10.3820583184
 20
9.3085753264
 30
0.0
 10
10.3784615467
 20
9.3051011082
 30
0.0
  0
SPLINE
  5
36D
100
AcDbEntity
  8
0
100
AcDbSpline
 62
7
  6
CONTINUOUS
 70
0
 71
3
 72
48
 73
44
 74
0
 42
0.0000001
 43
0.0000001
 44
0.0000000001
 40
0.0
 40
0.0
 40
0.0
 40
0.0
 40
0.0311434631
 40
0.0624399956
 40
0.0938836138
 40
0.1254646847
 40
0.1571709829
 40
0.1889877595
 40
0.22089807
 40
0.2528831302
 40
0.2849226987
 40
0.3169954772
 40
0.3490795248
 40
0.3811526835
 40
0.413193006
 40
0.4451791789
 40
0.4770909382
 40
0.5089094729
 40
0.5406178044
 40
0.5722011384
 40
0.6036471904
 40
0.6349464615
 40
0.6660924706
 40
0.6970819377
 40
0.7279148953
 40
0.7432762698
 40
0.7586000727
 40
0.7738872515
 40
0.789138954
 40
0.8043565275
 40
0.819541513
 40
0.8346956329
 40
0.8498207866
 40
0.8649190411
 40
0.8799926163
 40
0.8950438755
 40
0.9100753135
 40
0.9250895394
 40
0.9400892632
 40
0.9550772817
 40
0.9700564603
 40
0.9850297153
 40
1.0
 40
1.0
 40
1.0
 40
1.0
 10
10.4349949897
 20
7.9727313542
 30
0.0
 10
10.4461988083
 20
7.9719543668
 30
0.0
 10
10.4686129757
 20
7.969576493
 30
0.0
 10
10.501962475
 20
7.9635865883
 30
0.0
 10
10.5349547747
 20
7.9551965266
 30
0.0
 10
10.5674116778
 20
7.9444514019
 30
0.0
 10
10.5991607757
 20
7.9314088395
 30
0.0
 10
10.630032696
 20
7.9161385967
 30
0.0
 10
10.6598629662
 20
7.8987222476
 30
0.0
 10
10.688492662
 20
7.8792528339
 30
0.0
 10
10.7157692261
 20
7.8578342101
 30
0.0
 10
10.7415473075
 20
7.8345806038
 30
0.0
 10
10.7656895701
 20
7.8096160278
 30
0.0
 10
10.7880673007
 20
7.7830735098
 30
0.0
 10
10.808561194
 20
7.755094505
 30
0.0
 10
10.8270619787
 20
7.7258281221
 30
0.0
 10
10.8434708818
 20
7.6954302698
 30
0.0
 10
10.8577003002
 20
7.6640629353
 30
0.0
 10
10.8696742069
 20
7.631893276
 30
0.0
 10
10.8793284673
 20
7.5990927291
 30
0.0
 10
10.886611355
 20
7.5658361351
 30
0.0
 10
10.8914837375
 20
7.5323009105
 30
0.0
 10
10.8939191627
 20
7.4986655932
 30
0.0
 10
10.8939045011
 20
7.4651108938
 30
0.0
 10
10.891847061
 20
7.4373258334
 30
0.0
 10
10.8889785784
 20
7.4153235908
 30
0.0
 10
10.8862234252
 20
7.3989718227
 30
0.0
 10
10.8828656852
 20
7.3827736697
 30
0.0
 10
10.8789097733
 20
7.3667504901
 30
0.0
 10
10.8743609962
 20
7.3509237596
 30
0.0
 10
10.8692254352
 20
7.335314594
 30
0.0
 10
10.863509892
 20
7.3199438693
 30
0.0
 10
10.8572220168
 20
7.3048321135
 30
0.0
 10
10.8503702221
 20
7.289999508
 30
0.0
 10
10.8429636085
 20
7.2754658931
 30
0.0
 10
10.8350120813
 20
7.2612506839
 30
0.0
 10
10.8265262828
 20
7.2473728603
 30
0.0
 10
10.8175175062
 20
7.2338509937
 30
0.0
 10
10.8079977893
 20
7.2207031464
 30
0.0
 10
10.7979798929
 20
7.2079468845
 30
0.0
 10
10.7874771043
 20
7.195599219
 30
0.0
 10
10.7765036873
 20
7.1836768852
 30
0.0
 10
10.7688832981
 20
7.1760219863
 30
0.0
 10
10.7650004255
 20
7.1722714091
 30
0.0
  0
SPLINE
  5
36E
100
AcDbEntity
  8
0
100
AcDbSpline
 62
7
  6
CONTINUOUS
 70
0
 71
3
 72
19
 73
15
 74
0
 42
0.0000001
 43
0.0000001
 44
0.0000000001
 40
0.0
 40
0.0
 40
0.0
 40
0.0
 40
0.150460937
 40
0.2916987357
 40
0.424419542
 40
0.4878837275
 40
0.5495802504
 40
0.6682271673
 40
0.7255606103
 40
0.7817998831
 40
0.8371466721
 40
0.8918135967
 40
0.94602219
 40
1.0
 40
1.0
 40
1.0
 40
1.0
 10
12.2074073544
 20
9.3921576879
 30
0.0
 10
12.2087502256
 20
9.393454802
 30
0.0
 10
12.2114341209
 20
9.3958885569
 30
0.0
 10
12.2155898737
 20
9.3991318144
 30
0.0
 10
12.219100061
 20
9.4014256266
 30
0.0
 10
12.2218992109
 20
9.4029789302
 30
0.0
 10
12.2246157813
 20
9.4043124744
 30
0.0
 10
12.2273641582
 20
9.405402527
 30
0.0
 10
12.2301279977
 20
9.4062227966
 30
0.0
 10
12.2321715051
 20
9.4066956049
 30
0.0
 10
12.2342082098
 20
9.4070326013
 30
0.0
 10
12.236237574
 20
9.4072336191
 30
0.0
 10
12.238258777
 20
9.4072985805
 30
0.0
 10
12.2396016069
 20
9.4072510898
 30
0.0
 10
12.240269799
 20
9.4072047505
 30
0.0
  0
SPLINE
  5
36F
100
AcDbEntity
  8
0
100
AcDbSpline
 62
7
  6
CONTINUOUS
 70
0
 71
3
 72
18
 73
14
 74
0
 42
0.0000001
 43
0.0000001
 44
0.0000000001
 40
0.0
 40
0.0
 40
0.0
 40
0.0
 40
0.1504686872
 40
0.2917143508
 40
0.4244422581
 40
0.4879097286
 40
0.549609416
 40
0.6682625881
 40
0.7817882869
 40
0.8371380068
 40
0.8918078217
 40
0.9460192903
 40
1.0
 40
1.0
 40
1.0
 40
1.0
 10
12.2074073544
 20
8.0302021922
 30
0.0
 10
12.2086512823
 20
8.0314037344
 30
0.0
 10
12.2111374364
 20
8.0336581717
 30
0.0
 10
12.2149869909
 20
8.0366624707
 30
0.0
 10
12.218238582
 20
8.0387872762
 30
0.0
 10
12.2208314503
 20
8.0402261233
 30
0.0
 10
12.2233480347
 20
8.0414614303
 30
0.0
 10
12.2264945665
 20
8.0427096551
 30
0.0
 10
12.2296970655
 20
8.0435614564
 30
0.0
 10
12.2322335408
 20
8.043981066
 30
0.0
 10
12.2341134213
 20
8.0441672835
 30
0.0
 10
12.2359856953
 20
8.0442274354
 30
0.0
 10
12.237229589
 20
8.0441834364
 30
0.0
 10
12.2378485497
 20
8.0441405091
 30
0.0
  0
SPLINE
  5
370
100
AcDbEntity
  8
0
100
AcDbSpline
 62
7
  6
CONTINUOUS
 70
0
 71
3
 72
19
 73
15
 74
0
 42
0.0000001
 43
0.0000001
 44
0.0000000001
 40
0.0
 40
0.0
 40
0.0
 40
0.0
 40
0.0621839758
 40
0.1251521346
 40
0.1886073017
 40
0.2522844709
 40
0.3159716559
 40
0.3795162957
 40
0.50581716
 40
0.5685074671
 40
0.6308826399
 40
0.7547540573
 40
0.8776872474
 40
1.0
 40
1.0
 40
1.0
 40
1.0
 10
10.7315960828
 20
7.5289860592
 30
0.0
 10
10.7279775876
 20
7.5292370027
 30
0.0
 10
10.72070057
 20
7.5298265266
 30
0.0
 10
10.709756855
 20
7.5309605098
 30
0.0
 10
10.6987546357
 20
7.5323490329
 30
0.0
 10
10.6877450524
 20
7.5339914823
 30
0.0
 10
10.6767710567
 20
7.535888938
 30
0.0
 10
10.6622621889
 20
7.5387565133
 30
0.0
 10
10.6479198376
 20
7.5421496893
 30
0.0
 10
10.6337987682
 20
7.5461022176
 30
0.0
 10
10.6199300156
 20
7.5504089705
 30
0.0
 10
10.6029469415
 20
7.5565129587
 30
0.0
 10
10.5831761658
 20
7.5650748168
 30
0.0
 10
10.5704578697
 20
7.5716551752
 30
0.0
 10
10.5642473066
 20
7.5751665703
 30
0.0
  0
SPLINE
  5
371
100
AcDbEntity
  8
0
100
AcDbSpline
 62
7
  6
CONTINUOUS
 70
0
 71
3
 72
11
 73
7
 74
0
 42
0.0000001
 43
0.0000001
 44
0.0000000001
 40
0.0
 40
0.0
 40
0.0
 40
0.0
 40
0.2603446635
 40
0.5119386596
 40
0.7575066291
 40
1.0
 40
1.0
 40
1.0
 40
1.0
 10
9.9689601275
 20
10.3383521456
 30
0.0
 10
9.9684440106
 20
10.3394478706
 30
0.0
 10
9.9675312136
 20
10.3416528355
 30
0.0
 10
9.9665313667
 20
10.3450392316
 30
0.0
 10
9.9659303114
 20
10.3484347223
 30
0.0
 10
9.9657963282
 20
10.3507074979
 30
0.0
 10
9.9657963239
 20
10.3518356424
 30
0.0
  0
SPLINE
  5
372
100
AcDbEntity
  8
0
100
AcDbSpline
 62
7
  6
CONTINUOUS
 70
0
 71
3
 72
46
 73
42
 74
0
 42
0.0000001
 43
0.0000001
 44
0.0000000001
 40
0.0
 40
0.0
 40
0.0
 40
0.0
 40
0.007273983
 40
0.0148705064
 40
0.022798022
 40
0.0310633147
 40
0.0396715192
 40
0.0486265007
 40
0.0579308425
 40
0.0675861042
 40
0.0775928807
 40
0.0879508871
 40
0.098659129
 40
0.1097158298
 40
0.1211186815
 40
0.1328646936
 40
0.1573711414
 40
0.1832026044
 40
0.210318804
 40
0.2386735246
 40
0.268215301
 40
0.2988879846
 40
0.3306312228
 40
0.3633808755
 40
0.3970693828
 40
0.4316261023
 40
0.4669776235
 40
0.5030480612
 40
0.5397593352
 40
0.5770314397
 40
0.614782706
 40
0.6529300597
 40
0.6913892733
 40
0.730075218
 40
0.7689021107
 40
0.8077837764
 40
0.8466338414
 40
0.885366163
 40
0.9238945305
 40
0.962134293
 40
1.0
 40
1.0
 40
1.0
 40
1.0
 10
10.8462193347
 20
10.3547051526
 30
0.0
 10
10.8451792755
 20
10.3537372723
 30
0.0
 10
10.8430052122
 20
10.3518094914
 30
0.0
 10
10.8395483373
 20
10.3490008163
 30
0.0
 10
10.8358281858
 20
10.346214962
 30
0.0
 10
10.8318469896
 20
10.3434536539
 30
0.0
 10
10.827607075
 20
10.3407183761
 30
0.0
 10
10.823110898
 20
10.3380107669
 30
0.0
 10
10.8183611053
 20
10.3353323567
 30
0.0
 10
10.8133604729
 20
10.3326847309
 30
0.0
 10
10.8081119395
 20
10.3300694452
 30
0.0
 10
10.8026186002
 20
10.32748802
 30
0.0
 10
10.796883683
 20
10.3249420176
 30
0.0
 10
10.7909105886
 20
10.3224329032
 30
0.0
 10
10.7847028274
 20
10.3199621952
 30
0.0
 10
10.775994375
 20
10.3166745161
 30
0.0
 10
10.7645421391
 20
10.3126814
 30
0.0
 10
10.750112532
 20
10.3081306831
 30
0.0
 10
10.7348422221
 20
10.303766625
 30
0.0
 10
10.7187674192
 20
10.2995996698
 30
0.0
 10
10.7019261068
 20
10.2956398084
 30
0.0
 10
10.6843581987
 20
10.291896535
 30
0.0
 10
10.6661053575
 20
10.2883788254
 30
0.0
 10
10.6472109093
 20
10.2850951132
 30
0.0
 10
10.6277197288
 20
10.2820532684
 30
0.0
 10
10.6076781291
 20
10.2792605783
 30
0.0
 10
10.5871337465
 20
10.2767237318
 30
0.0
 10
10.5661354237
 20
10.2744488034
 30
0.0
 10
10.5447330919
 20
10.2724412391
 30
0.0
 10
10.5229776498
 20
10.2707058441
 30
0.0
 10
10.5009208418
 20
10.2692467714
 30
0.0
 10
10.4786151336
 20
10.2680675125
 30
0.0
 10
10.4561135867
 20
10.2671708894
 30
0.0
 10
10.4334697317
 20
10.2665590468
 30
0.0
 10
10.4107374377
 20
10.2662334465
 30
0.0
 10
10.3879707916
 20
10.2661948691
 30
0.0
 10
10.3652239397
 20
10.2664434017
 30
0.0
 10
10.3425510461
 20
10.2669784598
 30
0.0
 10
10.32000594
 20
10.2677987474
 30
0.0
 10
10.2976424231
 20
10.2689023242
 30
0.0
 10
10.2828060806
 20
10.2698303663
 30
0.0
 10
10.2754279224
 20
10.2703420433
 30
0.0
  0
SPLINE
  5
373
100
AcDbEntity
  8
0
100
AcDbSpline
 62
7
  6
CONTINUOUS
 70
0
 71
3
 72
11
 73
7
 74
0
 42
0.0000001
 43
0.0000001
 44
0.0000000001
 40
0.0
 40
0.0
 40
0.0
 40
0.0
 40
0.2602032612
 40
0.511774046
 40
0.7574024852
 40
1.0
 40
1.0
 40
1.0
 40
1.0
 10
10.8236791835
 20
10.3384515796
 30
0.0
 10
10.8241878213
 20
10.3395395779
 30
0.0
 10
10.8250872918
 20
10.3417288715
 30
0.0
 10
10.8260722676
 20
10.3450901242
 30
0.0
 10
10.8266643341
 20
10.3484602422
 30
0.0
 10
10.826796326
 20
10.3507158838
 30
0.0
 10
10.8267963217
 20
10.3518356424
 30
0.0
  0
SPLINE
  5
374
100
AcDbEntity
  8
0
100
AcDbSpline
 62
7
  6
CONTINUOUS
 70
0
 71
3
 72
24
 73
20
 74
0
 42
0.0000001
 43
0.0000001
 44
0.0000000001
 40
0.0
 40
0.0
 40
0.0
 40
0.0
 40
0.0616478686
 40
0.1233187641
 40
0.1850354561
 40
0.2468202038
 40
0.2777476126
 40
0.3087000175
 40
0.3706843912
 40
0.43279813
 40
0.4950591137
 40
0.5574836211
 40
0.6200861608
 40
0.6828793526
 40
0.7458737331
 40
0.8090779103
 40
0.8724977887
 40
0.9361382808
 40
1.0
 40
1.0
 40
1.0
 40
1.0
 10
9.7670840201
 20
9.938044616
 30
0.0
 10
9.7720217298
 20
9.9428140821
 30
0.0
 10
9.78215768
 20
9.9520910863
 30
0.0
 10
9.7980906685
 20
9.9651720544
 30
0.0
 10
9.8147152835
 20
9.9773882433
 30
0.0
 10
9.829106331
 20
9.9868191312
 30
0.0
 10
9.8409189778
 20
9.9939004401
 30
0.0
 10
9.8529356925
 20
10.0006750268
 30
0.0
 10
9.8683112563
 20
10.0085504153
 30
0.0
 10
9.8872667002
 20
10.0170216144
 30
0.0
 10
9.9066890959
 20
10.0244974072
 30
0.0
 10
9.9265291855
 20
10.0309588275
 30
0.0
 10
9.9467370785
 20
10.0363897047
 30
0.0
 10
9.9672618479
 20
10.0407763962
 30
0.0
 10
9.9880518364
 20
10.0441079327
 30
0.0
 10
10.00905462
 20
10.0463759511
 30
0.0
 10
10.0302175757
 20
10.0475748487
 30
0.0
 10
10.0514866684
 20
10.0477016293
 30
0.0
 10
10.0656782506
 20
10.0470722584
 30
0.0
 10
10.0727727834
 20
10.0465802509
 30
0.0
  0
SPLINE
  5
375
100
AcDbEntity
  8
0
100
AcDbSpline
 62
7
  6
CONTINUOUS
 70
0
 71
3
 72
23
 73
19
 74
0
 42
0.0000001
 43
0.0000001
 44
0.0000000001
 40
0.0
 40
0.0
 40
0.0
 40
0.0
 40
0.0616482106
 40
0.123319444
 40
0.1850364734
 40
0.2468215626
 40
0.3086962119
 40
0.3706809251
 40
0.4327950031
 40
0.4950563302
 40
0.5574811826
 40
0.6200840855
 40
0.6828775753
 40
0.7458723551
 40
0.8090769809
 40
0.8724965648
 40
0.9361390258
 40
1.0
 40
1.0
 40
1.0
 40
1.0
 10
9.9214129961
 20
9.8020976789
 30
0.0
 10
9.9240501797
 20
9.804645004
 30
0.0
 10
9.9294637123
 20
9.8095997517
 30
0.0
 10
9.9379733483
 20
9.8165861408
 30
0.0
 10
9.9468525002
 20
9.8231107483
 30
0.0
 10
9.956078496
 20
9.8291568459
 30
0.0
 10
9.965628177
 20
9.8347092664
 30
0.0
 10
9.9754774386
 20
9.8397540391
 30
0.0
 10
9.9856014637
 20
9.8442784872
 30
0.0
 10
9.9959747459
 20
9.848271226
 30
0.0
 10
10.0065711592
 20
9.8517221996
 30
0.0
 10
10.0173639987
 20
9.8546227642
 30
0.0
 10
10.0283260792
 20
9.856965662
 30
0.0
 10
10.0394298165
 20
9.8587450102
 30
0.0
 10
10.0506471734
 20
9.8599563069
 30
0.0
 10
10.0619501657
 20
9.8605966557
 30
0.0
 10
10.0733097754
 20
9.8606643237
 30
0.0
 10
10.0808893937
 20
9.8603282081
 30
0.0
 10
10.0846784499
 20
9.8600654361
 30
0.0
  0
SPLINE
  5
376
100
AcDbEntity
  8
0
100
AcDbSpline
 62
7
  6
CONTINUOUS
 70
0
 71
3
 72
41
 73
37
 74
0
 42
0.0000001
 43
0.0000001
 44
0.0000000001
 40
0.0
 40
0.0
 40
0.0
 40
0.0
 40
0.0299390219
 40
0.059901714
 40
0.089911187
 40
0.1199894485
 40
0.1501568949
 40
0.1804318493
 40
0.2108301609
 40
0.2413648728
 40
0.272045965
 40
0.3028801764
 40
0.3338709045
 40
0.3650181821
 40
0.396318727
 40
0.4277660593
 40
0.4593506796
 40
0.4910603016
 40
0.5228801323
 40
0.5547931918
 40
0.5867806682
 40
0.6188222973
 40
0.6508967648
 40
0.6829821217
 40
0.715056209
 40
0.7310844894
 40
0.7471017679
 40
0.7790881331
 40
0.8109997454
 40
0.8269239678
 40
0.8428226015
 40
0.8745301998
 40
0.9061125375
 40
0.937557485
 40
0.9688552819
 40
1.0
 40
1.0
 40
1.0
 40
1.0
 10
10.2479439036
 20
9.4640480281
 30
0.0
 10
10.2517855568
 20
9.4677587821
 30
0.0
 10
10.2591841759
 20
9.4754878976
 30
0.0
 10
10.2693452632
 20
9.4879194023
 30
0.0
 10
10.2785200804
 20
9.5011270134
 30
0.0
 10
10.2866586643
 20
9.5150390825
 30
0.0
 10
10.2937178192
 20
9.5295813362
 30
0.0
 10
10.2996598494
 20
9.5446758428
 30
0.0
 10
10.304453156
 20
9.5602418292
 30
0.0
 10
10.3080722893
 20
9.5761960171
 30
0.0
 10
10.3104981029
 20
9.5924531023
 30
0.0
 10
10.3117178372
 20
9.6089262068
 30
0.0
 10
10.3117251781
 20
9.625527345
 30
0.0
 10
10.310520282
 20
9.6421678912
 30
0.0
 10
10.3081097672
 20
9.6587590501
 30
0.0
 10
10.3045066676
 20
9.6752123254
 30
0.0
 10
10.299730358
 20
9.6914399857
 30
0.0
 10
10.2938064471
 20
9.7073555266
 30
0.0
 10
10.2867666369
 20
9.7228741252
 30
0.0
 10
10.278648556
 20
9.7379130843
 30
0.0
 10
10.2694955466
 20
9.7523922762
 30
0.0
 10
10.2593564796
 20
9.7662345286
 30
0.0
 10
10.2482853266
 20
9.7793661666
 30
0.0
 10
10.2363415061
 20
9.7917168927
 30
0.0
 10
10.2257101725
 20
9.8013070147
 30
0.0
 10
10.2168336429
 20
9.8085252158
 30
0.0
 10
10.2077280643
 20
9.8154264208
 30
0.0
 10
10.1959290645
 20
9.8234503733
 30
0.0
 10
10.1836208574
 20
9.8306363658
 30
0.0
 10
10.1735157715
 20
9.8358533472
 30
0.0
 10
10.1632688936
 20
9.8407013513
 30
0.0
 10
10.1501897094
 20
9.8460743826
 30
0.0
 10
10.1341323453
 20
9.8513902618
 30
0.0
 10
10.1178097456
 20
9.8555411813
 30
0.0
 10
10.101310521
 20
9.8585046116
 30
0.0
 10
10.0902213947
 20
9.8596810316
 30
0.0
 10
10.0846784499
 20
9.8600654361
 30
0.0
  0
SPLINE
  5
377
100
AcDbEntity
  8
0
100
AcDbSpline
 62
7
  6
CONTINUOUS
 70
0
 71
3
 72
31
 73
27
 74
0
 42
0.0000001
 43
0.0000001
 44
0.0000000001
 40
0.0
 40
0.0
 40
0.0
 40
0.0
 40
0.0619075544
 40
0.0932656344
 40
0.1248302653
 40
0.18838547
 40
0.2522429818
 40
0.3161092529
 40
0.3797637268
 40
0.44306396
 40
0.5059400823
 40
0.5683835572
 40
0.5994632126
 40
0.6304533718
 40
0.6613647303
 40
0.692209415
 40
0.7230007643
 40
0.7537529445
 40
0.7844803951
 40
0.815197536
 40
0.8459184269
 40
0.876656423
 40
0.9074237876
 40
0.9382306222
 40
0.9690878624
 40
1.0
 40
1.0
 40
1.0
 40
1.0
 10
10.1149793899
 20
9.855931366
 30
0.0
 10
10.1147948954
 20
9.8497848745
 30
0.0
 10
10.1149358256
 20
9.84050623
 30
0.0
 10
10.1159214295
 20
9.8281435716
 30
0.0
 10
10.1174512074
 20
9.815670568
 30
0.0
 10
10.1203610199
 20
9.8001296742
 30
0.0
 10
10.1253927379
 20
9.7817865693
 30
0.0
 10
10.1319240495
 20
9.7639108761
 30
0.0
 10
10.1399019806
 20
9.7466926955
 30
0.0
 10
10.1492740662
 20
9.7303033919
 30
0.0
 10
10.1599873479
 20
9.7149031372
 30
0.0
 10
10.1700074221
 20
9.7029986773
 30
0.0
 10
10.178634172
 20
9.694130537
 30
0.0
 10
10.1853930007
 20
9.6878305
 30
0.0
 10
10.1924402315
 20
9.6818910345
 30
0.0
 10
10.199765553
 20
9.6763304146
 30
0.0
 10
10.2073571415
 20
9.6711670269
 30
0.0
 10
10.215201714
 20
9.6664189188
 30
0.0
 10
10.2232842493
 20
9.6621036161
 30
0.0
 10
10.2315878917
 20
9.658237857
 30
0.0
 10
10.2400938986
 20
9.6548373304
 30
0.0
 10
10.2487816455
 20
9.6519163743
 30
0.0
 10
10.2576285485
 20
9.6494876656
 30
0.0
 10
10.2666105672
 20
9.6475616784
 30
0.0
 10
10.2757014366
 20
9.646146986
 30
0.0
 10
10.2818116792
 20
9.6455490313
 30
0.0
 10
10.2848748158
 20
9.645336602
 30
0.0
  0
SPLINE
  5
378
100
AcDbEntity
  8
0
100
AcDbSpline
 62
7
  6
CONTINUOUS
 70
0
 71
3
 72
25
 73
21
 74
0
 42
0.0000001
 43
0.0000001
 44
0.0000000001
 40
0.0
 40
0.0
 40
0.0
 40
0.0
 40
0.0616475282
 40
0.0924812782
 40
0.1233236452
 40
0.1850399949
 40
0.2468243989
 40
0.277751634
 40
0.3087038677
 40
0.3706878948
 40
0.4328012861
 40
0.4950619216
 40
0.5574860801
 40
0.6200882709
 40
0.6828811113
 40
0.7458751472
 40
0.8090789555
 40
0.8724985283
 40
0.936138578
 40
1.0
 40
1.0
 40
1.0
 40
1.0
 10
10.104989554
 20
7.8555617101
 30
0.0
 10
10.1103200424
 20
7.8607105806
 30
0.0
 10
10.1185266144
 20
7.8682217092
 30
0.0
 10
10.1298587045
 20
7.8777832471
 30
0.0
 10
10.1414502082
 20
7.8870424441
 30
0.0
 10
10.1564098315
 20
7.8980352062
 30
0.0
 10
10.1719455028
 20
7.9082162015
 30
0.0
 10
10.1846978205
 20
7.9158608514
 30
0.0
 10
10.19767043
 20
7.923174339
 30
0.0
 10
10.2142690724
 20
7.9316762213
 30
0.0
 10
10.2347323665
 20
7.9408213028
 30
0.0
 10
10.2556997586
 20
7.948891798
 30
0.0
 10
10.2771180733
 20
7.9558672273
 30
0.0
 10
10.2989334509
 20
7.9617301338
 30
0.0
 10
10.3210909139
 20
7.9664657907
 30
0.0
 10
10.343534693
 20
7.9700623518
 30
0.0
 10
10.3662082009
 20
7.9725107973
 30
0.0
 10
10.389054612
 20
7.9738050637
 30
0.0
 10
10.4120156119
 20
7.9739419378
 30
0.0
 10
10.4273360969
 20
7.9732625003
 30
0.0
 10
10.4349949897
 20
7.9727313542
 30
0.0
  0
SPLINE
  5
379
100
AcDbEntity
  8
0
100
AcDbSpline
 62
7
  6
CONTINUOUS
 70
0
 71
3
 72
23
 73
19
 74
0
 42
0.0000001
 43
0.0000001
 44
0.0000000001
 40
0.0
 40
0.0
 40
0.0
 40
0.0
 40
0.0616482097
 40
0.123319447
 40
0.1850364789
 40
0.2468215645
 40
0.3086962086
 40
0.3706809238
 40
0.4327950069
 40
0.4950563354
 40
0.5574811816
 40
0.620084074
 40
0.6828775998
 40
0.7458723259
 40
0.8090769666
 40
0.8724967557
 40
0.9361385685
 40
1.0
 40
1.0
 40
1.0
 40
1.0
 10
10.2397707709
 20
7.7424429186
 30
0.0
 10
10.243137396
 20
7.745694815
 30
0.0
 10
10.250048264
 20
7.7520200513
 30
0.0
 10
10.2609116344
 20
7.7609388422
 30
0.0
 10
10.2722467313
 20
7.7692681161
 30
0.0
 10
10.284024606
 20
7.7769865252
 30
0.0
 10
10.2962156762
 20
7.7840747404
 30
0.0
 10
10.3087891949
 20
7.7905148906
 30
0.0
 10
10.3217134897
 20
7.7962907682
 30
0.0
 10
10.3349559854
 20
7.8013878607
 30
0.0
 10
10.3484833158
 20
7.8057933716
 30
0.0
 10
10.3622614059
 20
7.8094962378
 30
0.0
 10
10.376255551
 20
7.8124871648
 30
0.0
 10
10.3904305368
 20
7.8147586578
 30
0.0
 10
10.4047505787
 20
7.8163050028
 30
0.0
 10
10.4191798985
 20
7.8171224616
 30
0.0
 10
10.4336815289
 20
7.8172088687
 30
0.0
 10
10.4433576226
 20
7.816779771
 30
0.0
 10
10.4481947503
 20
7.816444315
 30
0.0
  0
SPLINE
  5
37A
100
AcDbEntity
  8
0
100
AcDbSpline
 62
7
  6
CONTINUOUS
 70
0
 71
3
 72
39
 73
35
 74
0
 42
0.0000001
 43
0.0000001
 44
0.0000000001
 40
0.0
 40
0.0
 40
0.0
 40
0.0
 40
0.0299393048
 40
0.0599022805
 40
0.0899120376
 40
0.1199905841
 40
0.1501583161
 40
0.1804335571
 40
0.2108321567
 40
0.2413671582
 40
0.2720485418
 40
0.3028830453
 40
0.333874066
 40
0.3650216372
 40
0.3963224773
 40
0.427770107
 40
0.459355027
 40
0.4910649499
 40
0.5228850821
 40
0.5547984438
 40
0.586786223
 40
0.6188281554
 40
0.6509029263
 40
0.6829885863
 40
0.7150629767
 40
0.747104156
 40
0.7790908247
 40
0.8110027395
 40
0.8428211156
 40
0.8745290113
 40
0.906111652
 40
0.937556897
 40
0.9688549576
 40
1.0
 40
1.0
 40
1.0
 40
1.0
 10
10.6566187298
 20
7.3108901814
 30
0.0
 10
10.6615229791
 20
7.3156273025
 30
0.0
 10
10.670968015
 20
7.3254942688
 30
0.0
 10
10.6839396239
 20
7.3413642673
 30
0.0
 10
10.6956521531
 20
7.3582250506
 30
0.0
 10
10.7060418341
 20
7.3759851392
 30
0.0
 10
10.715053523
 20
7.3945497176
 30
0.0
 10
10.7226390978
 20
7.413819299
 30
0.0
 10
10.7287582169
 20
7.4336907702
 30
0.0
 10
10.7333783833
 20
7.4540578202
 30
0.0
 10
10.7364751554
 20
7.4748115483
 30
0.0
 10
10.7380322544
 20
7.4958410441
 30
0.0
 10
10.738041625
 20
7.517033986
 30
0.0
 10
10.7365034677
 20
7.5382772364
 30
0.0
 10
10.7334262258
 20
7.5594574405
 30
0.0
 10
10.7288265294
 20
7.580461623
 30
0.0
 10
10.7227291094
 20
7.6011777847
 30
0.0
 10
10.7151666655
 20
7.6214954954
 30
0.0
 10
10.7061796721
 20
7.6413064715
 30
0.0
 10
10.6958161637
 20
7.6605051446
 30
0.0
 10
10.6841314788
 20
7.6789892161
 30
0.0
 10
10.6711879651
 20
7.6966601939
 30
0.0
 10
10.6570546553
 20
7.7134239141
 30
0.0
 10
10.6418069092
 20
7.729191046
 30
0.0
 10
10.6255260006
 20
7.7438775525
 30
0.0
 10
10.6082986909
 20
7.7574051337
 30
0.0
 10
10.5902167725
 20
7.7697016406
 30
0.0
 10
10.5713765827
 20
7.7807014542
 30
0.0
 10
10.5518785108
 20
7.790345838
 30
0.0
 10
10.5318264313
 20
7.798583256
 30
0.0
 10
10.5113273056
 20
7.8053696598
 30
0.0
 10
10.4904900463
 20
7.8106686539
 30
0.0
 10
10.4694271822
 20
7.814451776
 30
0.0
 10
10.4552708569
 20
7.8159535854
 30
0.0
 10
10.4481947503
 20
7.816444315
 30
0.0
  0
SPLINE
  5
37B
100
AcDbEntity
  8
0
100
AcDbSpline
 62
7
  6
CONTINUOUS
 70
0
 71
3
 72
86
 73
82
 74
0
 42
0.0000001
 43
0.0000001
 44
0.0000000001
 40
0.0
 40
0.0
 40
0.0
 40
0.0
 40
0.0027164229
 40
0.0054532199
 40
0.0082302803
 40
0.0110665652
 40
0.0139797601
 40
0.0169860612
 40
0.0201000083
 40
0.0233345154
 40
0.0267008552
 40
0.0302087911
 40
0.0338666949
 40
0.0376816386
 40
0.0416596027
 40
0.0458055094
 40
0.0501234214
 40
0.0546165986
 40
0.0592875859
 40
0.0641383491
 40
0.0691702497
 40
0.0743842108
 40
0.0797806815
 40
0.0853597253
 40
0.0911210701
 40
0.0970640767
 40
0.1094907819
 40
0.1226299857
 40
0.1364676026
 40
0.1509863633
 40
0.166166208
 40
0.1819846021
 40
0.1984167887
 40
0.2154360082
 40
0.2330136911
 40
0.2511196222
 40
0.2697220861
 40
0.2887880011
 40
0.3082830385
 40
0.3281717446
 40
0.3484176561
 40
0.3689834073
 40
0.3898308346
 40
0.4109210783
 40
0.4322146819
 40
0.4536716962
 40
0.4969136001
 40
0.5403217884
 40
0.5835689461
 40
0.6050305436
 40
0.6263300209
 40
0.6474274143
 40
0.6682832501
 40
0.6888586484
 40
0.7091154216
 40
0.7290161766
 40
0.7485244187
 40
0.7676046599
 40
0.7862225346
 40
0.8043449193
 40
0.8219400528
 40
0.8389776685
 40
0.8554291414
 40
0.8712676506
 40
0.8864683732
 40
0.9010086996
 40
0.9148684857
 40
0.9280303658
 40
0.9404801448
 40
0.9464347977
 40
0.952207837
 40
0.9577986052
 40
0.9632068066
 40
0.9684324934
 40
0.9734760794
 40
0.9783384382
 40
0.9830208843
 40
0.9875254058
 40
0.9918546018
 40
0.9960115767
 40
1.0
 40
1.0
 40
1.0
 40
1.0
 10
12.1745449098
 20
8.459481036
 30
0.0
 10
12.1736583808
 20
8.4595425171
 30
0.0
 10
12.1718832153
 20
8.4597461985
 30
0.0
 10
12.1692430603
 20
8.4602911792
 30
0.0
 10
12.1666228641
 20
8.4610755997
 30
0.0
 10
12.1640244884
 20
8.4620986676
 30
0.0
 10
12.1614492662
 20
8.4633594631
 30
0.0
 10
12.1588985461
 20
8.4648570462
 30
0.0
 10
12.1563734613
 20
8.4665902859
 30
0.0
 10
12.1538751782
 20
8.4685581448
 30
0.0
 10
12.151404745
 20
8.4707594326
 30
0.0
 10
12.1489632332
 20
8.4731929584
 30
0.0
 10
12.1465517315
 20
8.4758574684
 30
0.0
 10
12.1441712632
 20
8.4787515774
 30
0.0
 10
12.1418229642
 20
8.4818738831
 30
0.0
 10
12.1395078669
 20
8.4852228082
 30
0.0
 10
12.1372270894
 20
8.4887967235
 30
0.0
 10
12.1349817164
 20
8.4925938665
 30
0.0
 10
12.1327728051
 20
8.4966123568
 30
0.0
 10
12.1306014778
 20
8.5008502292
 30
0.0
 10
12.128468748
 20
8.5053053674
 30
0.0
 10
12.1263757131
 20
8.509975578
 30
0.0
 10
12.1243233875
 20
8.5148585329
 30
0.0
 10
12.1223127974
 20
8.5199518008
 30
0.0
 10
12.1203449507
 20
8.5252528562
 30
0.0
 10
12.1177406526
 20
8.5327056471
 30
0.0
 10
12.1146088788
 20
8.5425286519
 30
0.0
 10
12.1110900508
 20
8.5549316356
 30
0.0
 10
12.1077638995
 20
8.568094612
 30
0.0
 10
12.1046371585
 20
8.5819912323
 30
0.0
 10
12.1017161847
 20
8.5965938137
 30
0.0
 10
12.0990069214
 20
8.6118731457
 30
0.0
 10
12.0965148819
 20
8.6277986326
 30
0.0
 10
12.0942451361
 20
8.6443383436
 30
0.0
 10
12.0922023038
 20
8.6614590921
 30
0.0
 10
12.0903905436
 20
8.6791265074
 30
0.0
 10
12.0888135448
 20
8.6973051067
 30
0.0
 10
12.0874745211
 20
8.7159583674
 30
0.0
 10
12.0863761989
 20
8.7350488014
 30
0.0
 10
12.0855208156
 20
8.7545380333
 30
0.0
 10
12.0849101174
 20
8.7743868815
 30
0.0
 10
12.0845453556
 20
8.7945554373
 30
0.0
 10
12.0844272831
 20
8.8150031487
 30
0.0
 10
12.0845561609
 20
8.835688887
 30
0.0
 10
12.0849317218
 20
8.8565710854
 30
0.0
 10
12.0857625911
 20
8.8846911606
 30
0.0
 10
12.0874123302
 20
8.9200224468
 30
0.0
 10
12.090344927
 20
8.96241945
 30
0.0
 10
12.0935755465
 20
8.9976446126
 30
0.0
 10
12.0966244846
 20
9.0256164222
 30
0.0
 10
12.099127961
 20
9.0463572147
 30
0.0
 10
12.1018488105
 20
9.0668707092
 30
0.0
 10
12.1047815729
 20
9.0871156841
 30
0.0
 10
12.1079203259
 20
9.1070514218
 30
0.0
 10
12.1112587399
 20
9.1266378411
 30
0.0
 10
12.1147900794
 20
9.1458355636
 30
0.0
 10
12.1185072189
 20
9.164605997
 30
0.0
 10
12.1224026574
 20
9.1829114129
 30
0.0
 10
12.1264685304
 20
9.2007150276
 30
0.0
 10
12.1306966245
 20
9.2179810778
 30
0.0
 10
12.1350783983
 20
9.2346748934
 30
0.0
 10
12.1396049983
 20
9.2507629675
 30
0.0
 10
12.1442672774
 20
9.2662130277
 30
0.0
 10
12.1490558155
 20
9.2809941056
 30
0.0
 10
12.1539609353
 20
9.2950766151
 30
0.0
 10
12.1589727258
 20
9.3084323987
 30
0.0
 10
12.1640810761
 20
9.3210348655
 30
0.0
 10
12.1692756848
 20
9.3328587973
 30
0.0
 10
12.1737313561
 20
9.3421772575
 30
0.0
 10
12.1773379891
 20
9.3492170445
 30
0.0
 10
12.1800178153
 20
9.3542092359
 30
0.0
 10
12.1827113749
 20
9.3589898867
 30
0.0
 10
12.1854173322
 20
9.363556626
 30
0.0
 10
12.1881343286
 20
9.3679071847
 30
0.0
 10
12.1908610428
 20
9.3720393814
 30
0.0
 10
12.1935960675
 20
9.3759511813
 30
0.0
 10
12.1963381084
 20
9.3796406344
 30
0.0
 10
12.1990858219
 20
9.3831059595
 30
0.0
 10
12.2018379341
 20
9.3863454637
 30
0.0
 10
12.2045929686
 20
9.3893573881
 30
0.0
 10
12.2064688824
 20
9.3912511935
 30
0.0
 10
12.2074073544
 20
9.3921576879
 30
0.0
  0
SPLINE
  5
37C
100
AcDbEntity
  8
0
100
AcDbSpline
 62
7
  6
CONTINUOUS
 70
0
 71
3
 72
59
 73
55
 74
0
 42
0.0000001
 43
0.0000001
 44
0.0000000001
 40
0.0
 40
0.0
 40
0.0
 40
0.0
 40
0.0075208311
 40
0.0156241766
 40
0.0243311007
 40
0.0336549386
 40
0.0436028077
 40
0.0541768317
 40
0.0653749453
 40
0.0771915599
 40
0.08961816
 40
0.10264364
 40
0.1162546046
 40
0.1304357049
 40
0.1451697937
 40
0.1604380695
 40
0.1762203028
 40
0.1924949219
 40
0.2092390877
 40
0.2264288677
 40
0.2440392968
 40
0.2620444227
 40
0.2991300734
 40
0.337463055
 40
0.3768093382
 40
0.4169265582
 40
0.4575661491
 40
0.4984753803
 40
0.5393993789
 40
0.5800831581
 40
0.6202736296
 40
0.6597216473
 40
0.6981840261
 40
0.7354256484
 40
0.7535183302
 40
0.7712224299
 40
0.7885118037
 40
0.8053612647
 40
0.8217466086
 40
0.8376447426
 40
0.8530338123
 40
0.8678932395
 40
0.8822038834
 40
0.8959482262
 40
0.9091104572
 40
0.9216767058
 40
0.9336353451
 40
0.9449771968
 40
0.955695942
 40
0.9657887114
 40
0.9752565152
 40
0.9841051685
 40
0.9923468893
 40
1.0
 40
1.0
 40
1.0
 40
1.0
 10
12.1479891829
 20
8.6130457672
 30
0.0
 10
12.1469340798
 20
8.614343081
 30
0.0
 10
12.1448552022
 20
8.6171312831
 30
0.0
 10
12.1419296711
 20
8.6216859559
 30
0.0
 10
12.1390876744
 20
8.6267578404
 30
0.0
 10
12.1363337176
 20
8.6323386222
 30
0.0
 10
12.1336719469
 20
8.6384196133
 30
0.0
 10
12.1311066628
 20
8.6449910742
 30
0.0
 10
12.1286420344
 20
8.6520424103
 30
0.0
 10
12.1262821075
 20
8.6595621445
 30
0.0
 10
12.1240308181
 20
8.6675379857
 30
0.0
 10
12.121891927
 20
8.6759568358
 30
0.0
 10
12.119868994
 20
8.6848048213
 30
0.0
 10
12.1179654222
 20
8.6940673381
 30
0.0
 10
12.1161844121
 20
8.7037290705
 30
0.0
 10
12.1145289342
 20
8.713774018
 30
0.0
 10
12.1130017769
 20
8.7241855362
 30
0.0
 10
12.1116055134
 20
8.7349463606
 30
0.0
 10
12.1103424692
 20
8.7460386354
 30
0.0
 10
12.1092147766
 20
8.7574439453
 30
0.0
 10
12.1082243184
 20
8.7691433722
 30
0.0
 10
12.1070776948
 20
8.7852676606
 30
0.0
 10
12.1060086443
 20
8.8060146168
 30
0.0
 10
12.105305009
 20
8.831524287
 30
0.0
 10
12.1051734817
 20
8.8577173148
 30
0.0
 10
12.1056150862
 20
8.8844197317
 30
0.0
 10
12.1066270605
 20
8.9114543101
 30
0.0
 10
12.1082027825
 20
8.9386415397
 30
0.0
 10
12.1103318048
 20
8.9658008977
 30
0.0
 10
12.112999972
 20
8.9927520466
 30
0.0
 10
12.1161894981
 20
9.019316039
 30
0.0
 10
12.1198790409
 20
9.0453165848
 30
0.0
 10
12.1240439448
 20
9.0705810099
 30
0.0
 10
12.127923875
 20
9.0910743237
 30
0.0
 10
12.1312526561
 20
9.1069694786
 30
0.0
 10
12.1338259031
 20
9.1184892863
 30
0.0
 10
12.1364954848
 20
9.1297032054
 30
0.0
 10
12.1392569579
 20
9.1405926361
 30
0.0
 10
12.1421057197
 20
9.1511394987
 30
0.0
 10
12.1450370236
 20
9.1613262951
 30
0.0
 10
12.1480459617
 20
9.171136139
 30
0.0
 10
12.1511275215
 20
9.1805527726
 30
0.0
 10
12.1542765699
 20
9.1895606035
 30
0.0
 10
12.1574878363
 20
9.198144744
 30
0.0
 10
12.1607559748
 20
9.2062910202
 30
0.0
 10
12.1640755574
 20
9.2139860072
 30
0.0
 10
12.1674410506
 20
9.221217074
 30
0.0
 10
12.170846889
 20
9.2279723883
 30
0.0
 10
12.1742874832
 20
9.2342409497
 30
0.0
 10
12.1777572212
 20
9.2400126398
 30
0.0
 10
12.18125049
 20
9.2452781784
 30
0.0
 10
12.1847619702
 20
9.2500293866
 30
0.0
 10
12.1882860024
 20
9.2542583597
 30
0.0
 10
12.1907286449
 20
9.2568176678
 30
0.0
 10
12.1919525395
 20
9.2579998593
 30
0.0
  0
SPLINE
  5
37D
100
AcDbEntity
  8
0
100
AcDbSpline
 62
7
  6
CONTINUOUS
 70
0
 71
3
 72
84
 73
80
 74
0
 42
0.0000001
 43
0.0000001
 44
0.0000000001
 40
0.0
 40
0.0
 40
0.0
 40
0.0
 40
0.0027164264
 40
0.0054532293
 40
0.008230295
 40
0.0110665896
 40
0.0139797932
 40
0.0169861044
 40
0.0201000661
 40
0.0233345812
 40
0.0267009392
 40
0.0302088856
 40
0.0338668056
 40
0.037681768
 40
0.0416597414
 40
0.0458056718
 40
0.050123593
 40
0.0546167913
 40
0.0592877975
 40
0.0641385717
 40
0.0691704988
 40
0.074384467
 40
0.0797809628
 40
0.0853600226
 40
0.0911213815
 40
0.0970644148
 40
0.1094911534
 40
0.122630387
 40
0.136468035
 40
0.1509868331
 40
0.1661667198
 40
0.1819851503
 40
0.1984173662
 40
0.2154366132
 40
0.2330143274
 40
0.2511202956
 40
0.2697227959
 40
0.2887887406
 40
0.3082838034
 40
0.3281725359
 40
0.3484184777
 40
0.3689842604
 40
0.3898317162
 40
0.4109219843
 40
0.4536719359
 40
0.4969138893
 40
0.5403221212
 40
0.5835693222
 40
0.6263297187
 40
0.6474271304
 40
0.6682829869
 40
0.6888584043
 40
0.7091151927
 40
0.7290159604
 40
0.748524216
 40
0.7676044742
 40
0.7862223676
 40
0.8043447661
 40
0.8219399096
 40
0.838977535
 40
0.8554290199
 40
0.8712675451
 40
0.8864682815
 40
0.9010086172
 40
0.9148684112
 40
0.9280303001
 40
0.9404800906
 40
0.946434749
 40
0.9522077946
 40
0.957798564
 40
0.9632067735
 40
0.9684324641
 40
0.9734760551
 40
0.9783384155
 40
0.983020862
 40
0.9875253935
 40
0.9918546029
 40
0.9960115831
 40
1.0
 40
1.0
 40
1.0
 40
1.0
 10
12.1769661591
 20
7.1662490978
 30
0.0
 10
12.1761449538
 20
7.1663060515
 30
0.0
 10
12.1745005904
 20
7.1664947345
 30
0.0
 10
12.1720549791
 20
7.1669995869
 30
0.0
 10
12.1696278482
 20
7.1677262098
 30
0.0
 10
12.1672209396
 20
7.1686739225
 30
0.0
 10
12.1648354714
 20
7.1698418273
 30
0.0
 10
12.1624727004
 20
7.1712290763
 30
0.0
 10
12.1601336852
 20
7.1728346279
 30
0.0
 10
12.1578194779
 20
7.1746574886
 30
0.0
 10
12.155531092
 20
7.1766966028
 30
0.0
 10
12.1532694755
 20
7.178950822
 30
0.0
 10
12.1510356692
 20
7.1814190166
 30
0.0
 10
12.1488306135
 20
7.184099893
 30
0.0
 10
12.1466553377
 20
7.1869921393
 30
0.0
 10
12.1445108454
 20
7.1900943226
 30
0.0
 10
12.1423981149
 20
7.1934049018
 30
0.0
 10
12.1403182017
 20
7.1969222718
 30
0.0
 10
12.1382720576
 20
7.2006446751
 30
0.0
 10
12.1362607165
 20
7.2045702911
 30
0.0
 10
12.134285154
 20
7.2086971716
 30
0.0
 10
12.1323463301
 20
7.2130232666
 30
0.0
 10
12.1304452442
 20
7.2175464387
 30
0.0
 10
12.1285828026
 20
7.222264422
 30
0.0
 10
12.1267599548
 20
7.2271748824
 30
0.0
 10
12.1243475678
 20
7.2340785368
 30
0.0
 10
12.1214465565
 20
7.2431777533
 30
0.0
 10
12.1181870176
 20
7.2546668442
 30
0.0
 10
12.1151059559
 20
7.2668599277
 30
0.0
 10
12.1122096146
 20
7.2797326006
 30
0.0
 10
12.1095038817
 20
7.2932592172
 30
0.0
 10
12.1069942566
 20
7.3074127142
 30
0.0
 10
12.104685846
 20
7.3221647488
 30
0.0
 10
12.1025833489
 20
7.3374857461
 30
0.0
 10
12.1006910466
 20
7.3533449693
 30
0.0
 10
12.0990127942
 20
7.3697105807
 30
0.0
 10
12.097552005
 20
7.3865497086
 30
0.0
 10
12.0963116521
 20
7.4038285182
 30
0.0
 10
12.0952942621
 20
7.4215122844
 30
0.0
 10
12.0945019103
 20
7.4395654627
 30
0.0
 10
12.0939362165
 20
7.4579517621
 30
0.0
 10
12.0935983439
 20
7.476634206
 30
0.0
 10
12.0934889665
 20
7.4955752562
 30
0.0
 10
12.0936489238
 20
7.5212387704
 30
0.0
 10
12.0944250184
 20
7.5536825321
 30
0.0
 10
12.0962540681
 20
7.5928561111
 30
0.0
 10
12.0989705975
 20
7.632129333
 30
0.0
 10
12.1025527757
 20
7.6711864148
 30
0.0
 10
12.1062514131
 20
7.7034349669
 30
0.0
 10
12.1096268362
 20
7.7288839815
 30
0.0
 10
12.1123435126
 20
7.747637224
 30
0.0
 10
12.1152509849
 20
7.7661039943
 30
0.0
 10
12.1183434135
 20
7.7842471883
 30
0.0
 10
12.1216145507
 20
7.8020303237
 30
0.0
 10
12.1250577966
 20
7.819417656
 30
0.0
 10
12.1286662009
 20
7.8363742383
 30
0.0
 10
12.1324324799
 20
7.8528659953
 30
0.0
 10
12.1363490299
 20
7.8688597958
 30
0.0
 10
12.1404079361
 20
7.8843235241
 30
0.0
 10
12.1446009968
 20
7.8992261448
 30
0.0
 10
12.1489197382
 20
7.9135377662
 30
0.0
 10
12.1533554325
 20
7.9272297018
 30
0.0
 10
12.1578991197
 20
7.9402745422
 30
0.0
 10
12.1625416191
 20
7.9526462027
 30
0.0
 10
12.1672735628
 20
7.9643200536
 30
0.0
 10
12.1720854089
 20
7.9752727371
 30
0.0
 10
12.1762127641
 20
7.9839045667
 30
0.0
 10
12.1795536442
 20
7.9904256275
 30
0.0
 10
12.1820360051
 20
7.9950499703
 30
0.0
 10
12.1845310946
 20
7.9994783569
 30
0.0
 10
12.1870376602
 20
8.0037085981
 30
0.0
 10
12.1895544593
 20
8.0077385846
 30
0.0
 10
12.1920802545
 20
8.0115663004
 30
0.0
 10
12.1946137469
 20
8.0151898592
 30
0.0
 10
12.1971537425
 20
8.0186074538
 30
0.0
 10
12.1996989921
 20
8.0218174404
 30
0.0
 10
12.2022483208
 20
8.0248182441
 30
0.0
 10
12.2048003508
 20
8.0276082355
 30
0.0
 10
12.2065380358
 20
8.0293624948
 30
0.0
 10
12.2074073544
 20
8.0302021922
 30
0.0
  0
SPLINE
  5
37E
100
AcDbEntity
  8
0
100
AcDbSpline
 62
7
  6
CONTINUOUS
 70
0
 71
3
 72
58
 73
54
 74
0
 42
0.0000001
 43
0.0000001
 44
0.0000000001
 40
0.0
 40
0.0
 40
0.0
 40
0.0
 40
0.0075207316
 40
0.0156240154
 40
0.0243308441
 40
0.0336545885
 40
0.0436023967
 40
0.0541763293
 40
0.0653743668
 40
0.0771909241
 40
0.0896174474
 40
0.1026428707
 40
0.1162537836
 40
0.1304348295
 40
0.1451688775
 40
0.1604371108
 40
0.1762193149
 40
0.192493906
 40
0.2092380423
 40
0.2264278164
 40
0.2440382293
 40
0.2620433425
 40
0.2991290016
 40
0.3374620136
 40
0.3768083309
 40
0.4169256089
 40
0.4575652772
 40
0.498474595
 40
0.5393986926
 40
0.5800825786
 40
0.6202731659
 40
0.6597213038
 40
0.6981838101
 40
0.7354255563
 40
0.771221655
 40
0.7885111024
 40
0.8053606191
 40
0.8217460097
 40
0.8376442201
 40
0.8530333336
 40
0.8678928049
 40
0.8822035224
 40
0.8959478967
 40
0.9091101695
 40
0.9216764813
 40
0.9336351439
 40
0.9449770313
 40
0.9556958254
 40
0.9657886213
 40
0.9752564319
 40
0.9841051206
 40
0.9923469282
 40
1.0
 40
1.0
 40
1.0
 40
1.0
 10
12.1571759872
 20
7.3520488668
 30
0.0
 10
12.1563413565
 20
7.353075081
 30
0.0
 10
12.1546968331
 20
7.3552806112
 30
0.0
 10
12.152382616
 20
7.3588835175
 30
0.0
 10
12.1501344396
 20
7.3628955395
 30
0.0
 10
12.1479559129
 20
7.3673101307
 30
0.0
 10
12.145850329
 20
7.3721204207
 30
0.0
 10
12.1438210458
 20
7.3773186891
 30
0.0
 10
12.1418713959
 20
7.3828965666
 30
0.0
 10
12.1400045771
 20
7.388844974
 30
0.0
 10
12.1382236801
 20
7.3951541826
 30
0.0
 10
12.1365317062
 20
7.4018138361
 30
0.0
 10
12.1349314587
 20
7.4088129591
 30
0.0
 10
12.1334256269
 20
7.4161399976
 30
0.0
 10
12.1320167531
 20
7.4237828371
 30
0.0
 10
12.1307071754
 20
7.4317288208
 30
0.0
 10
12.1294991101
 20
7.4399647821
 30
0.0
 10
12.1283945869
 20
7.4484770627
 30
0.0
 10
12.1273954403
 20
7.4572515394
 30
0.0
 10
12.1265033753
 20
7.4662736446
 30
0.0
 10
12.1257198596
 20
7.4755284119
 30
0.0
 10
12.1248128038
 20
7.4882834469
 30
0.0
 10
12.1239671154
 20
7.5046952299
 30
0.0
 10
12.1234104862
 20
7.5248745433
 30
0.0
 10
12.12330641
 20
7.5455944326
 30
0.0
 10
12.1236557164
 20
7.5667172806
 30
0.0
 10
12.1244562204
 20
7.5881028927
 30
0.0
 10
12.1257026657
 20
7.6096092666
 30
0.0
 10
12.1273868017
 20
7.6310935989
 30
0.0
 10
12.1294974343
 20
7.6524132307
 30
0.0
 10
12.1320204809
 20
7.6734266174
 30
0.0
 10
12.1349390763
 20
7.6939942634
 30
0.0
 10
12.1382336758
 20
7.7139797232
 30
0.0
 10
12.1418822326
 20
7.7332503119
 30
0.0
 10
12.14523478
 20
7.7487817526
 30
0.0
 10
12.1480834097
 20
7.7607481395
 30
0.0
 10
12.1502678774
 20
7.7693622084
 30
0.0
 10
12.1525213823
 20
7.7777052814
 30
0.0
 10
12.1548401683
 20
7.7857635308
 30
0.0
 10
12.1572203834
 20
7.7935235877
 30
0.0
 10
12.1596580452
 20
7.8009725971
 30
0.0
 10
12.162149076
 20
7.8080982291
 30
0.0
 10
12.1646893468
 20
7.8148886944
 30
0.0
 10
12.1672745984
 20
7.8213327898
 30
0.0
 10
12.1699005322
 20
7.8274198993
 30
0.0
 10
12.1725628056
 20
7.833140016
 30
0.0
 10
12.1752569805
 20
7.8384837943
 30
0.0
 10
12.1779786456
 20
7.8434425322
 30
0.0
 10
12.1807233813
 20
7.8480082067
 30
0.0
 10
12.1834867107
 20
7.8521735024
 30
0.0
 10
12.1862644618
 20
7.8559319429
 30
0.0
 10
12.1890521477
 20
7.859277256
 30
0.0
 10
12.1909843886
 20
7.8613017955
 30
0.0
 10
12.1919525395
 20
7.8622369576
 30
0.0
  0
SPLINE
  5
37F
100
AcDbEntity
  8
0
100
AcDbSpline
 62
7
  6
CONTINUOUS
 70
0
 71
3
 72
23
 73
19
 74
0
 42
0.0000001
 43
0.0000001
 44
0.0000000001
 40
0.0
 40
0.0
 40
0.0
 40
0.0
 40
0.0661392774
 40
0.1321143156
 40
0.19795376
 40
0.2636629363
 40
0.3292212544
 40
0.3945801671
 40
0.4596604693
 40
0.5243481398
 40
0.5884890404
 40
0.6518839839
 40
0.7142849497
 40
0.7753961336
 40
0.8348820997
 40
0.8923832559
 40
0.9475366186
 40
1.0
 40
1.0
 40
1.0
 40
1.0
 10
10.4252784354
 20
7.8170288101
 30
0.0
 10
10.4243681375
 20
7.8104089159
 30
0.0
 10
10.4230821761
 20
7.7971059558
 30
0.0
 10
10.4227738533
 20
7.7770877827
 30
0.0
 10
10.4240883647
 20
7.7571524869
 30
0.0
 10
10.4270204725
 20
7.7374328433
 30
0.0
 10
10.4315578186
 20
7.7180688754
 30
0.0
 10
10.4376788068
 20
7.6992118799
 30
0.0
 10
10.4453483749
 20
7.6810244282
 30
0.0
 10
10.4545121925
 20
7.6636801404
 30
0.0
 10
10.4650892809
 20
7.647361081
 30
0.0
 10
10.4769645014
 20
7.6322525571
 30
0.0
 10
10.4899814471
 20
7.6185339481
 30
0.0
 10
10.5039389089
 20
7.6063659888
 30
0.0
 10
10.5185930327
 20
7.5958767239
 30
0.0
 10
10.5336666859
 20
7.5871469459
 30
0.0
 10
10.5488621344
 20
7.5802033769
 30
0.0
 10
10.5591579194
 20
7.5766475399
 30
0.0
 10
10.5642473066
 20
7.5751665703
 30
0.0
  0
SPLINE
  5
380
100
AcDbEntity
  8
0
100
AcDbSpline
 62
7
  6
CONTINUOUS
 70
0
 71
3
 72
81
 73
77
 74
0
 42
0.0000001
 43
0.0000001
 44
0.0000000001
 40
0.0
 40
0.0
 40
0.0
 40
0.0
 40
0.0039265969
 40
0.0080153213
 40
0.0122696421
 40
0.0166924926
 40
0.0212863518
 40
0.0260531663
 40
0.0309942425
 40
0.0361104541
 40
0.0414022712
 40
0.0468697881
 40
0.0525128166
 40
0.0583308053
 40
0.0704878107
 40
0.0833319863
 40
0.0968505465
 40
0.1110277198
 40
0.1258451092
 40
0.1412819794
 40
0.1573155145
 40
0.1739210212
 40
0.1910721019
 40
0.2087407976
 40
0.2268977225
 40
0.2455121993
 40
0.2645523737
 40
0.2839853198
 40
0.3037771356
 40
0.3238930436
 40
0.3442974932
 40
0.3649542529
 40
0.4068762245
 40
0.4493595769
 40
0.4920990469
 40
0.5347870221
 40
0.5771163665
 40
0.5980517321
 40
0.6187839141
 40
0.6392759139
 40
0.6594912933
 40
0.6793942639
 40
0.6989497806
 40
0.718123645
 40
0.7368825983
 40
0.7551944177
 40
0.7730280207
 40
0.7903535805
 40
0.8071426575
 40
0.8233683217
 40
0.8390052944
 40
0.8540301135
 40
0.8684213314
 40
0.8821597546
 40
0.8952287055
 40
0.9076143594
 40
0.919306174
 40
0.9248899059
 40
0.930298042
 40
0.9355304608
 40
0.9405873795
 40
0.9454694318
 40
0.9501776195
 40
0.9547134671
 40
0.9590790005
 40
0.963276832
 40
0.9673102807
 40
0.9711833694
 40
0.974901018
 40
0.978469083
 40
0.9818944848
 40
0.9883482352
 40
0.9913997823
 40
0.9943494344
 40
0.9972110504
 40
1.0
 40
1.0
 40
1.0
 40
1.0
 10
12.1919525395
 20
8.4755998936
 30
0.0
 10
12.1928690097
 20
8.4764851359
 30
0.0
 10
12.1947009984
 20
8.4783326918
 30
0.0
 10
12.1973928534
 20
8.4812675678
 30
0.0
 10
12.200081999
 20
8.4844197749
 30
0.0
 10
12.2027670321
 20
8.4877876781
 30
0.0
 10
12.2054467729
 20
8.4913696896
 30
0.0
 10
12.20811996
 20
8.49516417
 30
0.0
 10
12.2107853918
 20
8.4991693142
 30
0.0
 10
12.2134417723
 20
8.5033832327
 30
0.0
 10
12.2160878332
 20
8.5078039206
 30
0.0
 10
12.2187223416
 20
8.5124292636
 30
0.0
 10
12.2213440235
 20
8.5172570855
 30
0.0
 10
12.2248726283
 20
8.5240610396
 30
0.0
 10
12.2292341929
 20
8.5330631534
 30
0.0
 10
12.234323453
 20
8.544481981
 30
0.0
 10
12.2393321697
 20
8.5566483034
 30
0.0
 10
12.2442507013
 20
8.5695388854
 30
0.0
 10
12.2490695777
 20
8.5831292321
 30
0.0
 10
12.2537795141
 20
8.5973933997
 30
0.0
 10
12.2583714279
 20
8.6123041337
 30
0.0
 10
12.2628364618
 20
8.6278329112
 30
0.0
 10
12.2671660007
 20
8.6439500051
 30
0.0
 10
12.2713516936
 20
8.6606245374
 30
0.0
 10
12.2753854743
 20
8.6778245429
 30
0.0
 10
12.2792595674
 20
8.6955170381
 30
0.0
 10
12.2829665065
 20
8.7136680892
 30
0.0
 10
12.2864991453
 20
8.732242875
 30
0.0
 10
12.2898506806
 20
8.7512057546
 30
0.0
 10
12.2930146551
 20
8.7705203257
 30
0.0
 10
12.2959850029
 20
8.7901495435
 30
0.0
 10
12.2996976751
 20
8.8168212357
 30
0.0
 10
12.3038079224
 20
8.8506688428
 30
0.0
 10
12.3078642422
 20
8.8917311708
 30
0.0
 10
12.3110370168
 20
8.9331206063
 30
0.0
 10
12.3133018488
 20
8.974519446
 30
0.0
 10
12.3144223962
 20
9.0088863388
 30
0.0
 10
12.3148466139
 20
9.036140818
 30
0.0
 10
12.3149279672
 20
9.0563121201
 30
0.0
 10
12.3147735981
 20
9.0762493423
 30
0.0
 10
12.314383799
 20
9.0959142431
 30
0.0
 10
12.3137593391
 20
9.1152690655
 30
0.0
 10
12.3129014324
 20
9.134276661
 30
0.0
 10
12.3118117536
 20
9.1529005515
 30
0.0
 10
12.3104924242
 20
9.1711050027
 30
0.0
 10
12.3089460083
 20
9.1888550897
 30
0.0
 10
12.3071755082
 20
9.2061167646
 30
0.0
 10
12.3051843586
 20
9.2228569274
 30
0.0
 10
12.3029764309
 20
9.2390434951
 30
0.0
 10
12.3005560151
 20
9.2546454645
 30
0.0
 10
12.2979278117
 20
9.2696329709
 30
0.0
 10
12.2950969214
 20
9.2839773488
 30
0.0
 10
12.2920688346
 20
9.2976512064
 30
0.0
 10
12.2888494282
 20
9.3106284675
 30
0.0
 10
12.2854449364
 20
9.3228845111
 30
0.0
 10
12.2818619264
 20
9.3343959467
 30
0.0
 10
12.2786862408
 20
9.3434846813
 30
0.0
 10
12.276053757
 20
9.3503592622
 30
0.0
 10
12.2740694001
 20
9.355236267
 30
0.0
 10
12.2720456814
 20
9.3599113832
 30
0.0
 10
12.2699835169
 20
9.3643823904
 30
0.0
 10
12.2678839319
 20
9.3686471817
 30
0.0
 10
12.2657478643
 20
9.372703722
 30
0.0
 10
12.2635763494
 20
9.3765501088
 30
0.0
 10
12.2613703894
 20
9.3801845287
 30
0.0
 10
12.2591309702
 20
9.3836052579
 30
0.0
 10
12.2568591636
 20
9.38681071
 30
0.0
 10
12.2545559138
 20
9.389799364
 30
0.0
 10
12.2522223395
 20
9.3925697609
 30
0.0
 10
12.249859206
 20
9.3951208133
 30
0.0
 10
12.2467330366
 20
9.3981668852
 30
0.0
 10
12.2434898622
 20
9.40084854
 30
0.0
 10
12.240133645
 20
9.4031051392
 30
0.0
 10
12.2376387679
 20
9.4045411133
 30
0.0
 10
12.2351209637
 20
9.405750861
 30
0.0
 10
12.233408689
 20
9.4064134229
 30
0.0
 10
12.2325517857
 20
9.4067046015
 30
0.0
  0
SPLINE
  5
381
100
AcDbEntity
  8
0
100
AcDbSpline
 62
7
  6
CONTINUOUS
 70
0
 71
3
 72
15
 73
11
 74
0
 42
0.0000001
 43
0.0000001
 44
0.0000000001
 40
0.0
 40
0.0
 40
0.0
 40
0.0
 40
0.1457213483
 40
0.2845991187
 40
0.4169826454
 40
0.5433126665
 40
0.664117082
 40
0.7800117701
 40
0.8917048522
 40
1.0
 40
1.0
 40
1.0
 40
1.0
 10
12.1919525395
 20
8.4755998936
 30
0.0
 10
12.1909238225
 20
8.4746062292
 30
0.0
 10
12.188867276
 20
8.4727137244
 30
0.0
 10
12.1857074344
 20
8.470109295
 30
0.0
 10
12.1825503831
 20
8.4678110996
 30
0.0
 10
12.1793981174
 20
8.4658209355
 30
0.0
 10
12.1762523546
 20
8.4641403964
 30
0.0
 10
12.1731147992
 20
8.4627709361
 30
0.0
 10
12.1699877655
 20
8.4617141728
 30
0.0
 10
12.1678837389
 20
8.4612125132
 30
0.0
 10
12.166838959
 20
8.4610169977
 30
0.0
  0
SPLINE
  5
382
100
AcDbEntity
  8
0
100
AcDbSpline
 62
7
  6
CONTINUOUS
 70
0
 71
3
 72
23
 73
19
 74
0
 42
0.0000001
 43
0.0000001
 44
0.0000000001
 40
0.0
 40
0.0
 40
0.0
 40
0.0
 40
0.0755963493
 40
0.1466389404
 40
0.2134644447
 40
0.2765130444
 40
0.3363250756
 40
0.3935451244
 40
0.4489211068
 40
0.5032859965
 40
0.5575238004
 40
0.612525131
 40
0.6691411996
 40
0.728147006
 40
0.7902177883
 40
0.855922422
 40
0.9257258939
 40
1.0
 40
1.0
 40
1.0
 40
1.0
 10
12.1919525395
 20
8.6108295173
 30
0.0
 10
12.1910214761
 20
8.6099301791
 30
0.0
 10
12.1891605872
 20
8.6082409467
 30
0.0
 10
12.1862806752
 20
8.6059842417
 30
0.0
 10
12.1834041407
 20
8.6040889293
 30
0.0
 10
12.180533625
 20
8.6025578747
 30
0.0
 10
12.1776715346
 20
8.6013938172
 30
0.0
 10
12.1748208023
 20
8.6005996726
 30
0.0
 10
12.1719851828
 20
8.6001781734
 30
0.0
 10
12.1691693943
 20
8.6001313944
 30
0.0
 10
12.166378842
 20
8.60045993
 30
0.0
 10
12.1636189558
 20
8.6011629167
 30
0.0
 10
12.1608943862
 20
8.6022378613
 30
0.0
 10
12.1582087952
 20
8.6036817425
 30
0.0
 10
12.1555648474
 20
8.6054911601
 30
0.0
 10
12.1529647232
 20
8.6076630423
 30
0.0
 10
12.1504104905
 20
8.6101941407
 30
0.0
 10
12.1487916716
 20
8.6120590583
 30
0.0
 10
12.1479891829
 20
8.6130457672
 30
0.0
  0
SPLINE
  5
383
100
AcDbEntity
  8
0
100
AcDbSpline
 62
7
  6
CONTINUOUS
 70
0
 71
3
 72
46
 73
42
 74
0
 42
0.0000001
 43
0.0000001
 44
0.0000000001
 40
0.0
 40
0.0
 40
0.0
 40
0.0
 40
0.0064812122
 40
0.0130000076
 40
0.0195932715
 40
0.0262965408
 40
0.0331434334
 40
0.0401653198
 40
0.0548395295
 40
0.062548329
 40
0.0705311576
 40
0.0788062809
 40
0.0873896937
 40
0.0962951371
 40
0.1055344775
 40
0.1151178306
 40
0.1250536192
 40
0.1353489474
 40
0.1460095935
 40
0.1684422289
 40
0.192378937
 40
0.2178311543
 40
0.2447990338
 40
0.273273407
 40
0.3032372166
 40
0.3346665149
 40
0.367531378
 40
0.4017966883
 40
0.4374226543
 40
0.4743652015
 40
0.5125764803
 40
0.5520052144
 40
0.5925969097
 40
0.6342941429
 40
0.6770368797
 40
0.7207626459
 40
0.7654066226
 40
0.810902145
 40
0.8571804972
 40
0.9041708165
 40
1.0
 40
1.0
 40
1.0
 40
1.0
 10
10.8267963217
 20
10.3518356424
 30
0.0
 10
10.8267963188
 20
10.35259582
 30
0.0
 10
10.8267358643
 20
10.354121263
 30
0.0
 10
10.8264642326
 20
10.356405476
 30
0.0
 10
10.826011736
 20
10.3586874714
 30
0.0
 10
10.8253787305
 20
10.3609659064
 30
0.0
 10
10.8245656691
 20
10.3632398928
 30
0.0
 10
10.8232228099
 20
10.3663089035
 30
0.0
 10
10.8215279295
 20
10.3693246272
 30
0.0
 10
10.8195246028
 20
10.3722707141
 30
0.0
 10
10.8178203082
 20
10.3745079818
 30
0.0
 10
10.81594003
 20
10.3767351193
 30
0.0
 10
10.8138844268
 20
10.3789514775
 30
0.0
 10
10.8116544531
 20
10.3811561795
 30
0.0
 10
10.809251017
 20
10.3833483733
 30
0.0
 10
10.8066751065
 20
10.3855271763
 30
0.0
 10
10.8039278174
 20
10.3876917586
 30
0.0
 10
10.8010102537
 20
10.3898412524
 30
0.0
 10
10.7968233741
 20
10.3927351751
 30
0.0
 10
10.7911601162
 20
10.3963012307
 30
0.0
 10
10.7838176257
 20
10.4004361577
 30
0.0
 10
10.7758290006
 20
10.4044900505
 30
0.0
 10
10.7672074176
 20
10.4084562695
 30
0.0
 10
10.757966877
 20
10.4123283156
 30
0.0
 10
10.7481225608
 20
10.4160997429
 30
0.0
 10
10.7376907036
 20
10.4197642658
 30
0.0
 10
10.7266885784
 20
10.4233157576
 30
0.0
 10
10.7151344356
 20
10.4267482538
 30
0.0
 10
10.7030474789
 20
10.4300559775
 30
0.0
 10
10.6904478359
 20
10.4332333818
 30
0.0
 10
10.6773565056
 20
10.4362751246
 30
0.0
 10
10.6637953176
 20
10.4391760791
 30
0.0
 10
10.6497869055
 20
10.4419313691
 30
0.0
 10
10.6353546633
 20
10.4445363704
 30
0.0
 10
10.6205226944
 20
10.4469866988
 30
0.0
 10
10.6053157825
 20
10.4492782237
 30
0.0
 10
10.5897593321
 20
10.4514071106
 30
0.0
 10
10.5738793596
 20
10.4533697725
 30
0.0
 10
10.5577024213
 20
10.455162919
 30
0.0
 10
10.5356297571
 20
10.4573378199
 30
0.0
 10
10.5189306474
 20
10.4586829484
 30
0.0
 10
10.5077178298
 20
10.45946056
 30
0.0
  0
SPLINE
  5
384
100
AcDbEntity
  8
0
100
AcDbSpline
 62
7
  6
CONTINUOUS
 70
0
 71
3
 72
18
 73
14
 74
0
 42
0.0000001
 43
0.0000001
 44
0.0000000001
 40
0.0
 40
0.0
 40
0.0
 40
0.0
 40
0.1504654776
 40
0.2917138659
 40
0.4244431221
 40
0.4879103299
 40
0.5496094336
 40
0.6682621302
 40
0.7817883943
 40
0.837138095
 40
0.8918079579
 40
0.9460193786
 40
1.0
 40
1.0
 40
1.0
 40
1.0
 10
12.1581451336
 20
8.6469814748
 30
0.0
 10
12.1572970242
 20
8.646162264
 30
0.0
 10
12.1556019223
 20
8.6446251714
 30
0.0
 10
12.1529772553
 20
8.6425767699
 30
0.0
 10
12.1507602448
 20
8.6411280387
 30
0.0
 10
12.1489923947
 20
8.640146998
 30
0.0
 10
12.1472765624
 20
8.6393047493
 30
0.0
 10
12.1451312101
 20
8.6384537153
 30
0.0
 10
12.1429477127
 20
8.6378728972
 30
0.0
 10
12.1412183002
 20
8.6375868198
 30
0.0
 10
12.1399365748
 20
8.6374598286
 30
0.0
 10
12.1386600326
 20
8.6374187964
 30
0.0
 10
12.1378119297
 20
8.637448806
 30
0.0
 10
12.1373899144
 20
8.6374780758
 30
0.0
  0
SPLINE
  5
385
100
AcDbEntity
  8
0
100
AcDbSpline
 62
7
  6
CONTINUOUS
 70
0
 71
3
 72
89
 73
85
 74
0
 42
0.0000001
 43
0.0000001
 44
0.0000000001
 40
0.0
 40
0.0
 40
0.0
 40
0.0
 40
0.0042067176
 40
0.0086075182
 40
0.0132068565
 40
0.0180083985
 40
0.0230151352
 40
0.0282292892
 40
0.0336521953
 40
0.0392846142
 40
0.0451267332
 40
0.0511782523
 40
0.057438473
 40
0.0639062088
 40
0.0774574128
 40
0.0918164972
 40
0.1069629166
 40
0.1228721915
 40
0.1395164005
 40
0.1568645628
 40
0.1748829647
 40
0.1935354495
 40
0.2127836562
 40
0.2325872325
 40
0.252904022
 40
0.2736902421
 40
0.2949006664
 40
0.3164887887
 40
0.3384069787
 40
0.3606066331
 40
0.40565106
 40
0.4512204319
 40
0.4969061584
 40
0.5422983178
 40
0.5647574504
 40
0.5869912584
 40
0.6089502156
 40
0.6305856006
 40
0.6518496429
 40
0.6726956743
 40
0.6930782846
 40
0.7129534877
 40
0.7322789019
 40
0.7510139201
 40
0.7691198994
 40
0.78656037
 40
0.8033012735
 40
0.819311249
 40
0.834561942
 40
0.8490283811
 40
0.8626894539
 40
0.8692128564
 40
0.8755291186
 40
0.8816369571
 40
0.8875355418
 40
0.8932244566
 40
0.8987037418
 40
0.9039740412
 40
0.9090365263
 40
0.9138931207
 40
0.9185464931
 40
0.923000184
 40
0.9272587984
 40
0.931328027
 40
0.935214951
 40
0.9389281193
 40
0.9424777833
 40
0.9458761287
 40
0.9491373679
 40
0.9522779789
 40
0.9553166713
 40
0.9582743545
 40
0.9611739017
 40
0.9640397036
 40
0.966897109
 40
0.9697717021
 40
0.9726885815
 40
0.9756716761
 40
0.978743233
 40
0.9852253708
 40
0.9886742922
 40
0.992279072
 40
0.9960512271
 40
1.0
 40
1.0
 40
1.0
 40
1.0
 10
12.1919525395
 20
8.6108295173
 30
0.0
 10
12.1926759685
 20
8.6115282961
 30
0.0
 10
12.1941218697
 20
8.6129939779
 30
0.0
 10
12.1962412416
 20
8.6153358811
 30
0.0
 10
12.1983579375
 20
8.6178685196
 30
0.0
 10
12.2004705996
 20
8.6205902635
 30
0.0
 10
12.2025780761
 20
8.6234995259
 30
0.0
 10
12.2046791321
 20
8.6265946471
 30
0.0
 10
12.2067725945
 20
8.6298737932
 30
0.0
 10
12.2088571811
 20
8.6333350434
 30
0.0
 10
12.2109316686
 20
8.6369763402
 30
0.0
 10
12.2129948379
 20
8.6407955226
 30
0.0
 10
12.2150454485
 20
8.6447903446
 30
0.0
 10
12.2178042347
 20
8.6504358795
 30
0.0
 10
12.2212049993
 20
8.6579210061
 30
0.0
 10
12.2251558284
 20
8.6674290209
 30
0.0
 10
12.2290280483
 20
8.6775750609
 30
0.0
 10
12.2328123547
 20
8.6883349672
 30
0.0
 10
12.2364996417
 20
8.6996832262
 30
0.0
 10
12.2400810339
 20
8.7115928167
 30
0.0
 10
12.243547913
 20
8.72403535
 30
0.0
 10
12.2468919342
 20
8.7369811329
 30
0.0
 10
12.25010505
 20
8.7503992519
 30
0.0
 10
12.2531795283
 20
8.7642576479
 30
0.0
 10
12.2561079731
 20
8.7785231932
 30
0.0
 10
12.2588833474
 20
8.7931617719
 30
0.0
 10
12.2614989835
 20
8.8081383703
 30
0.0
 10
12.2639485906
 20
8.8234171532
 30
0.0
 10
12.26622631
 20
8.8389615911
 30
0.0
 10
12.2690402151
 20
8.8600937958
 30
0.0
 10
12.2720847204
 20
8.8868976618
 30
0.0
 10
12.2749609808
 20
8.9193621821
 30
0.0
 10
12.2770496873
 20
8.9519701638
 30
0.0
 10
12.2781213185
 20
8.9790981404
 30
0.0
 10
12.2785654024
 20
9.0006329111
 30
0.0
 10
12.2786903113
 20
9.0165689979
 30
0.0
 10
12.2786080221
 20
9.0323083983
 30
0.0
 10
12.2783187328
 20
9.0478134766
 30
0.0
 10
12.277823163
 20
9.0630471239
 30
0.0
 10
12.2771225224
 20
9.0779728938
 30
0.0
 10
12.2762185158
 20
9.0925550778
 30
0.0
 10
12.2751133385
 20
9.1067587983
 30
0.0
 10
12.2738096793
 20
9.1205500948
 30
0.0
 10
12.2723107055
 20
9.1338960069
 30
0.0
 10
12.2706200569
 20
9.1467646533
 30
0.0
 10
12.2687418371
 20
9.1591253098
 30
0.0
 10
12.2666806022
 20
9.1709484972
 30
0.0
 10
12.264441357
 20
9.1822060458
 30
0.0
 10
12.2620295409
 20
9.1928712346
 30
0.0
 10
12.2594509796
 20
9.2029186486
 30
0.0
 10
12.2571342243
 20
9.2108748613
 30
0.0
 10
12.2551953732
 20
9.2169074638
 30
0.0
 10
12.2537258556
 20
9.2211930748
 30
0.0
 10
12.2522194198
 20
9.2253071314
 30
0.0
 10
12.2506769661
 20
9.2292472024
 30
0.0
 10
12.2490994214
 20
9.2330109548
 30
0.0
 10
12.2474876862
 20
9.2365961536
 30
0.0
 10
12.2458427596
 20
9.2400007001
 30
0.0
 10
12.2441655548
 20
9.2432225749
 30
0.0
 10
12.2424570779
 20
9.2462598998
 30
0.0
 10
12.2407183071
 20
9.2491108996
 30
0.0
 10
12.2389501975
 20
9.2517738934
 30
0.0
 10
12.2371537853
 20
9.2542473579
 30
0.0
 10
12.2353299911
 20
9.2565298117
 30
0.0
 10
12.2334798282
 20
9.2586199355
 30
0.0
 10
12.2316042411
 20
9.2605164684
 30
0.0
 10
12.2297041568
 20
9.2622182062
 30
0.0
 10
12.2277805673
 20
9.2637240799
 30
0.0
 10
12.2258343765
 20
9.2650329459
 30
0.0
 10
12.2238666369
 20
9.2661438148
 30
0.0
 10
12.2218784186
 20
9.2670556481
 30
0.0
 10
12.2198709459
 20
9.2677674673
 30
0.0
 10
12.217845634
 20
9.2682784989
 30
0.0
 10
12.2158040286
 20
9.2685879944
 30
0.0
 10
12.2137478544
 20
9.2686956662
 30
0.0
 10
12.2116788495
 20
9.2686013914
 30
0.0
 10
12.209598768
 20
9.2683054316
 30
0.0
 10
12.2075090676
 20
9.2678082827
 30
0.0
 10
12.2046617687
 20
9.2668614086
 30
0.0
 10
12.2018442754
 20
9.2655135823
 30
0.0
 10
12.199082736
 20
9.2638234844
 30
0.0
 10
12.1969646322
 20
9.2623324491
 30
0.0
 10
12.1948446311
 20
9.2606456117
 30
0.0
 10
12.1934629247
 20
9.2594199462
 30
0.0
 10
12.1927717881
 20
9.2587767412
 30
0.0
  0
SPLINE
  5
386
100
AcDbEntity
  8
0
100
AcDbSpline
 62
7
  6
CONTINUOUS
 70
0
 71
3
 72
71
 73
67
 74
0
 42
0.0000001
 43
0.0000001
 44
0.0000000001
 40
0.0
 40
0.0
 40
0.0
 40
0.0
 40
0.0081437796
 40
0.0169764944
 40
0.0265203572
 40
0.036788946
 40
0.0477874262
 40
0.0595147139
 40
0.0719646374
 40
0.0851266892
 40
0.0989866515
 40
0.1135271529
 40
0.1287280704
 40
0.1445667873
 40
0.1610184588
 40
0.1780562784
 40
0.1956516403
 40
0.2137742567
 40
0.2323923599
 40
0.2514728407
 40
0.2709813306
 40
0.2908823304
 40
0.331714196
 40
0.3736671919
 40
0.4164280894
 40
0.4596757878
 40
0.5030845187
 40
0.5463269661
 40
0.5890774011
 40
0.6310148392
 40
0.6718261955
 40
0.6917151494
 40
0.7112104217
 40
0.7302765759
 40
0.7488792807
 40
0.7669854333
 40
0.7845633329
 40
0.8015827708
 40
0.8180151583
 40
0.8338337398
 40
0.8490137809
 40
0.8635327339
 40
0.8773705134
 40
0.8905098736
 40
0.9029367398
 40
0.9146406912
 40
0.9256156748
 40
0.9358608589
 40
0.9407116707
 40
0.9453827353
 40
0.9498759528
 40
0.9541939198
 40
0.9583398901
 40
0.962317885
 40
0.9661328882
 40
0.9697908358
 40
0.9732988084
 40
0.9766651979
 40
0.9798997406
 40
0.9830137253
 40
0.9860200664
 40
0.9889332967
 40
0.9917696143
 40
0.9945467127
 40
0.9972835433
 40
1.0
 40
1.0
 40
1.0
 40
1.0
 10
12.1581451336
 20
8.6469814748
 30
0.0
 10
12.1593553647
 20
8.6481504683
 30
0.0
 10
12.1617695323
 20
8.6507012081
 30
0.0
 10
12.1652385103
 20
8.6549476139
 30
0.0
 10
12.1686925781
 20
8.6597577941
 30
0.0
 10
12.1721250687
 20
8.6651221703
 30
0.0
 10
12.1755296217
 20
8.6710307284
 30
0.0
 10
12.1788995807
 20
8.6774719818
 30
0.0
 10
12.182228295
 20
8.6844333614
 30
0.0
 10
12.1855090997
 20
8.6919011693
 30
0.0
 10
12.1887354239
 20
8.699860606
 30
0.0
 10
12.19190077
 20
8.7082958414
 30
0.0
 10
12.1949987389
 20
8.7171900589
 30
0.0
 10
12.1980230743
 20
8.7265254801
 30
0.0
 10
12.2009676746
 20
8.7362834105
 30
0.0
 10
12.2038265845
 20
8.7464442967
 30
0.0
 10
12.2065940163
 20
8.7569877614
 30
0.0
 10
12.2092643895
 20
8.7678926376
 30
0.0
 10
12.2118323134
 20
8.7791370264
 30
0.0
 10
12.2142925861
 20
8.7906983393
 30
0.0
 10
12.2166402656
 20
8.8025533614
 30
0.0
 10
12.2196395924
 20
8.8188592114
 30
0.0
 10
12.2230650274
 20
8.8397997352
 30
0.0
 10
12.2266240533
 20
8.8654963352
 30
0.0
 10
12.2296369189
 20
8.8917651354
 30
0.0
 10
12.2320793076
 20
8.9183950483
 30
0.0
 10
12.2339314743
 20
8.9451722302
 30
0.0
 10
12.23517857
 20
8.9718815673
 30
0.0
 10
12.2358106597
 20
8.9983085639
 30
0.0
 10
12.2358228086
 20
9.0242408448
 30
0.0
 10
12.235312363
 20
9.0454436038
 30
0.0
 10
12.2345858748
 20
9.0619976198
 30
0.0
 10
12.2338921784
 20
9.0740547467
 30
0.0
 10
12.2330464838
 20
9.0858357504
 30
0.0
 10
12.2320504884
 20
9.0973169734
 30
0.0
 10
12.2309062154
 20
9.1084753405
 30
0.0
 10
12.2296160039
 20
9.1192884444
 30
0.0
 10
12.2281824839
 20
9.1297345779
 30
0.0
 10
12.2266085624
 20
9.139792778
 30
0.0
 10
12.2248974438
 20
9.1494428803
 30
0.0
 10
12.2230526209
 20
9.1586655638
 30
0.0
 10
12.221077843
 20
9.1674423848
 30
0.0
 10
12.2189771092
 20
9.1757558226
 30
0.0
 10
12.2167546923
 20
9.1835893453
 30
0.0
 10
12.2144150886
 20
9.190927416
 30
0.0
 10
12.2119629736
 20
9.1977556249
 30
0.0
 10
12.209403237
 20
9.2040604341
 30
0.0
 10
12.2071452705
 20
9.2089537801
 30
0.0
 10
12.2052827399
 20
9.212589053
 30
0.0
 10
12.2038876433
 20
9.2151270591
 30
0.0
 10
12.2024695014
 20
9.2175252461
 30
0.0
 10
12.2010290097
 20
9.2197824549
 30
0.0
 10
12.1995668584
 20
9.2218975749
 30
0.0
 10
12.1980837
 20
9.223869542
 30
0.0
 10
12.1965802622
 20
9.2256974106
 30
0.0
 10
12.1950572055
 20
9.2273802579
 30
0.0
 10
12.1935151897
 20
9.2289172122
 30
0.0
 10
12.1919549274
 20
9.2303075106
 30
0.0
 10
12.1903770574
 20
9.2315503609
 30
0.0
 10
12.1887822669
 20
9.2326450366
 30
0.0
 10
12.1871712886
 20
9.2335908831
 30
0.0
 10
12.1855448323
 20
9.2343871753
 30
0.0
 10
12.1839037486
 20
9.2350333109
 30
0.0
 10
12.1822488932
 20
9.2355287519
 30
0.0
 10
12.1805814232
 20
9.2358729402
 30
0.0
 10
12.1794602656
 20
9.2360015699
 30
0.0
 10
12.1789003528
 20
9.2360404039
 30
0.0
  0
SPLINE
  5
387
100
AcDbEntity
  8
0
100
AcDbSpline
 62
7
  6
CONTINUOUS
 70
0
 71
3
 72
46
 73
42
 74
0
 42
0.0000001
 43
0.0000001
 44
0.0000000001
 40
0.0
 40
0.0
 40
0.0
 40
0.0
 40
0.031143804
 40
0.0624406641
 40
0.0938846266
 40
0.1254660369
 40
0.1571726773
 40
0.188989797
 40
0.2209004514
 40
0.2528858567
 40
0.2849257707
 40
0.3169988946
 40
0.3490832879
 40
0.3811567922
 40
0.4131974593
 40
0.4451839758
 40
0.4770960786
 40
0.5089149549
 40
0.5406236259
 40
0.5722072995
 40
0.6036536882
 40
0.6349532936
 40
0.6660996371
 40
0.6970894354
 40
0.727922722
 40
0.7586028953
 40
0.7891366922
 40
0.8043544294
 40
0.8195395762
 40
0.8346938584
 40
0.8498191748
 40
0.8649175902
 40
0.8799913269
 40
0.8950427481
 40
0.9100743467
 40
0.9250887336
 40
0.940088619
 40
0.9550767983
 40
0.9700561375
 40
0.9850295542
 40
1.0
 40
1.0
 40
1.0
 40
1.0
 10
10.0727727834
 20
9.1965654734
 30
0.0
 10
10.0623945005
 20
9.1972852097
 30
0.0
 10
10.0416318901
 20
9.1994878721
 30
0.0
 10
10.0107397019
 20
9.2050364274
 30
0.0
 10
9.9801783941
 20
9.2128082778
 30
0.0
 10
9.9501130303
 20
9.2227616667
 30
0.0
 10
9.9207033257
 20
9.2348432219
 30
0.0
 10
9.8921061589
 20
9.2489882994
 30
0.0
 10
9.8644738916
 20
9.2651213549
 30
0.0
 10
9.837953749
 20
9.2831562152
 30
0.0
 10
9.8126870197
 20
9.3029966382
 30
0.0
 10
9.7888083654
 20
9.3245368437
 30
0.0
 10
9.7664450174
 20
9.3476619659
 30
0.0
 10
9.7457161578
 20
9.3722487354
 30
0.0
 10
9.7267323399
 20
9.3981661568
 30
0.0
 10
9.7095947978
 20
9.4252761115
 30
0.0
 10
9.6943949611
 20
9.4534341397
 30
0.0
 10
9.6812140368
 20
9.4824902262
 30
0.0
 10
9.6701224603
 20
9.5122895259
 30
0.0
 10
9.6611795611
 20
9.5426732126
 30
0.0
 10
9.6544333288
 20
9.5734793348
 30
0.0
 10
9.6499200264
 20
9.6045436177
 30
0.0
 10
9.6476640289
 20
9.6357003859
 30
0.0
 10
9.6476777394
 20
9.6667833073
 30
0.0
 10
9.6499615455
 20
9.697626745
 30
0.0
 10
9.654503229
 20
9.7280648429
 30
0.0
 10
9.6601573466
 20
9.7529890393
 30
0.0
 10
9.6657812386
 20
9.7725560498
 30
0.0
 10
9.6705384699
 20
9.7870152286
 30
0.0
 10
9.6758328598
 20
9.801253338
 30
0.0
 10
9.6816574394
 20
9.815251611
 30
0.0
 10
9.6880044139
 20
9.8289912718
 30
0.0
 10
9.694865281
 20
9.8424539979
 30
0.0
 10
9.7022309265
 20
9.8556217708
 30
0.0
 10
9.7100915033
 20
9.8684769999
 30
0.0
 10
9.718436483
 20
9.8810025246
 30
0.0
 10
9.7272547683
 20
9.8931815806
 30
0.0
 10
9.7365345487
 20
9.9049978848
 30
0.0
 10
9.7462634594
 20
9.9164357248
 30
0.0
 10
9.7564283283
 20
9.9274795677
 30
0.0
 10
9.7634872484
 20
9.9345703978
 30
0.0
 10
9.7670840201
 20
9.938044616
 30
0.0
  0
SPLINE
  5
388
100
AcDbEntity
  8
0
100
AcDbSpline
 62
7
  6
CONTINUOUS
 70
0
 71
3
 72
19
 73
15
 74
0
 42
0.0000001
 43
0.0000001
 44
0.0000000001
 40
0.0
 40
0.0
 40
0.0
 40
0.0
 40
0.150460937
 40
0.2916987357
 40
0.424419542
 40
0.4878837275
 40
0.5495802504
 40
0.6682271673
 40
0.7255606103
 40
0.7817998831
 40
0.8371466721
 40
0.8918135967
 40
0.94602219
 40
1.0
 40
1.0
 40
1.0
 40
1.0
 10
12.2074073544
 20
8.4745280986
 30
0.0
 10
12.2060644832
 20
8.4732309846
 30
0.0
 10
12.2033805879
 20
8.4707972297
 30
0.0
 10
12.1992248351
 20
8.4675539721
 30
0.0
 10
12.1957146478
 20
8.4652601599
 30
0.0
 10
12.1929154979
 20
8.4637068563
 30
0.0
 10
12.1901989275
 20
8.4623733121
 30
0.0
 10
12.1874505506
 20
8.4612832595
 30
0.0
 10
12.1846867111
 20
8.4604629899
 30
0.0
 10
12.1826432037
 20
8.4599901816
 30
0.0
 10
12.180606499
 20
8.4596531852
 30
0.0
 10
12.1785771348
 20
8.4594521674
 30
0.0
 10
12.1765559318
 20
8.4593872061
 30
0.0
 10
12.1752131019
 20
8.4594346967
 30
0.0
 10
12.1745449098
 20
8.459481036
 30
0.0
  0
SPLINE
  5
389
100
AcDbEntity
  8
0
100
AcDbSpline
 62
7
  6
CONTINUOUS
 70
0
 71
3
 72
79
 73
75
 74
0
 42
0.0000001
 43
0.0000001
 44
0.0000000001
 40
0.0
 40
0.0
 40
0.0
 40
0.0
 40
0.0039210665
 40
0.0080037018
 40
0.0122513545
 40
0.0166669328
 40
0.021252899
 40
0.0260112006
 40
0.0309431514
 40
0.0360496178
 40
0.041331081
 40
0.0467876322
 40
0.0582244054
 40
0.0703553633
 40
0.0831712702
 40
0.0966594674
 40
0.1108043225
 40
0.1255875792
 40
0.1409886676
 40
0.1569849517
 40
0.1735519287
 40
0.1906633889
 40
0.2082915654
 40
0.2264072849
 40
0.24498009
 40
0.2639783484
 40
0.2833693478
 40
0.30311941
 40
0.3231939923
 40
0.3435577798
 40
0.364174771
 40
0.4060207999
 40
0.4484345498
 40
0.4911125596
 40
0.5337489628
 40
0.5760382666
 40
0.6176781545
 40
0.6381620051
 40
0.6583730024
 40
0.6782755083
 40
0.697834615
 40
0.7170162353
 40
0.7357872035
 40
0.7541153861
 40
0.7719697752
 40
0.7893205941
 40
0.8061394152
 40
0.8223993044
 40
0.8380749632
 40
0.8531428777
 40
0.867581504
 40
0.8813714964
 40
0.8944959922
 40
0.9069409229
 40
0.9186954227
 40
0.9243116332
 40
0.9297529355
 40
0.9350191138
 40
0.9401103276
 40
0.945027096
 40
0.9497703157
 40
0.9543413944
 40
0.958742197
 40
0.9629751886
 40
0.9670434886
 40
0.9709509018
 40
0.9747021078
 40
0.978302669
 40
0.9817591934
 40
0.9882696763
 40
0.991345897
 40
0.994317184
 40
0.9971969192
 40
1.0
 40
1.0
 40
1.0
 40
1.0
 10
12.1919525395
 20
7.1812592097
 30
0.0
 10
12.1927996507
 20
7.1820774564
 30
0.0
 10
12.1944929998
 20
7.1837850376
 30
0.0
 10
12.1969812562
 20
7.1864972737
 30
0.0
 10
12.1994670259
 20
7.1894099875
 30
0.0
 10
12.2019490059
 20
7.192521675
 30
0.0
 10
12.2044261132
 20
7.1958308676
 30
0.0
 10
12.2068971859
 20
7.1993360609
 30
0.0
 10
12.2093611178
 20
7.2030355981
 30
0.0
 10
12.2118167224
 20
7.2069277352
 30
0.0
 10
12.2142628387
 20
7.2110106391
 30
0.0
 10
12.217561953
 20
7.2167972739
 30
0.0
 10
12.2216457524
 20
7.2245022455
 30
0.0
 10
12.2264163916
 20
7.2343366601
 30
0.0
 10
12.2311218674
 20
7.2448807982
 30
0.0
 10
12.2357531835
 20
7.2561146485
 30
0.0
 10
12.2403014767
 20
7.2680170324
 30
0.0
 10
12.24475803
 20
7.2805653691
 30
0.0
 10
12.2491142917
 20
7.2937358207
 30
0.0
 10
12.2533618958
 20
7.3075033284
 30
0.0
 10
12.2574926802
 20
7.3218416717
 30
0.0
 10
12.2614987099
 20
7.3367235144
 30
0.0
 10
12.2653722971
 20
7.3521204612
 30
0.0
 10
12.2691060047
 20
7.3680031221
 30
0.0
 10
12.2726926646
 20
7.384341173
 30
0.0
 10
12.2761253887
 20
7.4011034109
 30
0.0
 10
12.2793975946
 20
7.4182578101
 30
0.0
 10
12.2825030095
 20
7.4357715915
 30
0.0
 10
12.2854356721
 20
7.4536112795
 30
0.0
 10
12.2881899799
 20
7.471742805
 30
0.0
 10
12.2916343744
 20
7.4963822176
 30
0.0
 10
12.2954509652
 20
7.5276547902
 30
0.0
 10
12.2992233994
 20
7.5655987764
 30
0.0
 10
12.3021815591
 20
7.6038530821
 30
0.0
 10
12.3043028782
 20
7.6421254792
 30
0.0
 10
12.3055711409
 20
7.6801236038
 30
0.0
 10
12.3059112482
 20
7.7114871249
 30
0.0
 10
12.3057424919
 20
7.7362177549
 30
0.0
 10
12.3053993474
 20
7.7544164914
 30
0.0
 10
12.3048396928
 20
7.7723319586
 30
0.0
 10
12.3040645958
 20
7.7899299432
 30
0.0
 10
12.3030755626
 20
7.8071768044
 30
0.0
 10
12.3018745032
 20
7.8240395874
 30
0.0
 10
12.3004637479
 20
7.8404860777
 30
0.0
 10
12.298846027
 20
7.856484865
 30
0.0
 10
12.2970244689
 20
7.8720053993
 30
0.0
 10
12.2950025907
 20
7.887018054
 30
0.0
 10
12.2927843037
 20
7.9014941906
 30
0.0
 10
12.2903739022
 20
7.9154062174
 30
0.0
 10
12.2877760469
 20
7.9287276397
 30
0.0
 10
12.2849957567
 20
7.9414331195
 30
0.0
 10
12.2820383943
 20
7.9534985177
 30
0.0
 10
12.2789096694
 20
7.9649010303
 30
0.0
 10
12.275615593
 20
7.9756189856
 30
0.0
 10
12.2726953644
 20
7.9840874574
 30
0.0
 10
12.2702740765
 20
7.990497813
 30
0.0
 10
12.2684483502
 20
7.9950487333
 30
0.0
 10
12.2665860924
 20
7.9994139109
 30
0.0
 10
12.264688181
 20
8.0035912919
 30
0.0
 10
12.2627555295
 20
8.0075789069
 30
0.0
 10
12.260789005
 20
8.011374861
 30
0.0
 10
12.2587895733
 20
8.0149773873
 30
0.0
 10
12.2567581269
 20
8.0183847808
 30
0.0
 10
12.2546956015
 20
8.0215954457
 30
0.0
 10
12.2526029663
 20
8.0246078906
 30
0.0
 10
12.2504810908
 20
8.0274206908
 30
0.0
 10
12.2483310181
 20
8.0300324927
 30
0.0
 10
12.246153445
 20
8.03244226
 30
0.0
 10
12.2432726438
 20
8.035326172
 30
0.0
 10
12.2402838147
 20
8.0378759391
 30
0.0
 10
12.2371889372
 20
8.0400364126
 30
0.0
 10
12.2348886341
 20
8.0414189236
 30
0.0
 10
12.2325669005
 20
8.0425929959
 30
0.0
 10
12.2309866624
 20
8.043243979
 30
0.0
 10
12.2301956539
 20
8.043532414
 30
0.0
  0
SPLINE
  5
38A
100
AcDbEntity
  8
0
100
AcDbSpline
 62
7
  6
CONTINUOUS
 70
0
 71
3
 72
17
 73
13
 74
0
 42
0.0000001
 43
0.0000001
 44
0.0000000001
 40
0.0
 40
0.0
 40
0.0
 40
0.0
 40
0.0524234241
 40
0.1069411481
 40
0.163406012
 40
0.2216518469
 40
0.3427649473
 40
0.4688468141
 40
0.5985781732
 40
0.7308689973
 40
0.8648844488
 40
1.0
 40
1.0
 40
1.0
 40
1.0
 10
10.5750965269
 20
7.5694327532
 30
0.0
 10
10.5762555103
 20
7.5706565026
 30
0.0
 10
10.5786387965
 20
7.5731349665
 30
0.0
 10
10.5823416241
 20
7.5768622532
 30
0.0
 10
10.5862422591
 20
7.5806558433
 30
0.0
 10
10.5917703051
 20
7.5858454824
 30
0.0
 10
10.5991102884
 20
7.5923727608
 30
0.0
 10
10.6084362257
 20
7.6001147075
 30
0.0
 10
10.6182813528
 20
7.6077839998
 30
0.0
 10
10.6285396164
 20
7.615329483
 30
0.0
 10
10.6391188554
 20
7.6227237623
 30
0.0
 10
10.6463142439
 20
7.627530971
 30
0.0
 10
10.6499481999
 20
7.6299112321
 30
0.0
  0
SPLINE
  5
38B
100
AcDbEntity
  8
0
100
AcDbSpline
 62
7
  6
CONTINUOUS
 70
0
 71
3
 72
15
 73
11
 74
0
 42
0.0000001
 43
0.0000001
 44
0.0000000001
 40
0.0
 40
0.0
 40
0.0
 40
0.0
 40
0.145315653
 40
0.2839590883
 40
0.4162598291
 40
0.5426317656
 40
0.6635711563
 40
0.7796555759
 40
0.8915480831
 40
1.0
 40
1.0
 40
1.0
 40
1.0
 10
12.1919525395
 20
7.1812592097
 30
0.0
 10
12.1910207819
 20
7.1803592009
 30
0.0
 10
12.1891580324
 20
7.1786431976
 30
0.0
 10
12.1862975364
 20
7.1762764207
 30
0.0
 10
12.1834394849
 20
7.1741805102
 30
0.0
 10
12.1805856176
 20
7.1723570438
 30
0.0
 10
12.1777374468
 20
7.1708073725
 30
0.0
 10
12.1748964264
 20
7.1695327693
 30
0.0
 10
12.1720645646
 20
7.1685345623
 30
0.0
 10
12.1701581881
 20
7.1680476834
 30
0.0
 10
12.1692111277
 20
7.1678532213
 30
0.0
  0
SPLINE
  5
38C
100
AcDbEntity
  8
0
100
AcDbSpline
 62
7
  6
CONTINUOUS
 70
0
 71
3
 72
23
 73
19
 74
0
 42
0.0000001
 43
0.0000001
 44
0.0000000001
 40
0.0
 40
0.0
 40
0.0
 40
0.0
 40
0.0755957668
 40
0.1466392768
 40
0.213465616
 40
0.2765144371
 40
0.3363265454
 40
0.3935471053
 40
0.4489233774
 40
0.5032884899
 40
0.5575264287
 40
0.6125277193
 40
0.6691437645
 40
0.7281492125
 40
0.7902196994
 40
0.8559237551
 40
0.9257265947
 40
1.0
 40
1.0
 40
1.0
 40
1.0
 10
12.1919525395
 20
7.3502962393
 30
0.0
 10
12.1912160447
 20
7.3495848399
 30
0.0
 10
12.1897440156
 20
7.3482486056
 30
0.0
 10
12.1874659115
 20
7.3464634588
 30
0.0
 10
12.1851904616
 20
7.3449641903
 30
0.0
 10
12.182919791
 20
7.3437530472
 30
0.0
 10
12.1806557737
 20
7.3428322491
 30
0.0
 10
12.178400757
 20
7.3422040004
 30
0.0
 10
12.1761576786
 20
7.3418705866
 30
0.0
 10
12.1739302932
 20
7.3418335157
 30
0.0
 10
12.1717228751
 20
7.3420934049
 30
0.0
 10
12.1695396985
 20
7.3426494137
 30
0.0
 10
12.1673844805
 20
7.3434997218
 30
0.0
 10
12.1652600687
 20
7.3446418094
 30
0.0
 10
12.163168622
 20
7.3460730873
 30
0.0
 10
12.1611118215
 20
7.3477910572
 30
0.0
 10
12.1590913334
 20
7.3497931899
 30
0.0
 10
12.1578107807
 20
7.351268361
 30
0.0
 10
12.1571759872
 20
7.3520488668
 30
0.0
  0
SPLINE
  5
38D
100
AcDbEntity
  8
0
100
AcDbSpline
 62
7
  6
CONTINUOUS
 70
0
 71
3
 72
16
 73
12
 74
0
 42
0.0000001
 43
0.0000001
 44
0.0000000001
 40
0.0
 40
0.0
 40
0.0
 40
0.0
 40
0.1504815401
 40
0.2917481174
 40
0.4244944817
 40
0.4879692635
 40
0.5496755268
 40
0.6683417309
 40
0.7818818905
 40
0.8918563508
 40
1.0
 40
1.0
 40
1.0
 40
1.0
 10
12.162974763
 20
7.3812836315
 30
0.0
 10
12.1623104192
 20
7.3806419246
 30
0.0
 10
12.1609825882
 20
7.3794378765
 30
0.0
 10
12.1589266011
 20
7.3778332865
 30
0.0
 10
12.1571899332
 20
7.3766984367
 30
0.0
 10
12.1558051058
 20
7.3759299556
 30
0.0
 10
12.154461064
 20
7.3752701872
 30
0.0
 10
12.1527804096
 20
7.3746035643
 30
0.0
 10
12.1507456288
 20
7.3740621714
 30
0.0
 10
12.1487223347
 20
7.3737918642
 30
0.0
 10
12.1473787027
 20
7.3737933687
 30
0.0
 10
12.1467165075
 20
7.3738392954
 30
0.0
  0
SPLINE
  5
38E
100
AcDbEntity
  8
0
100
AcDbSpline
 62
7
  6
CONTINUOUS
 70
0
 71
3
 72
83
 73
79
 74
0
 42
0.0000001
 43
0.0000001
 44
0.0000000001
 40
0.0
 40
0.0
 40
0.0
 40
0.0
 40
0.004206686
 40
0.0086075082
 40
0.0132069072
 40
0.0180085021
 40
0.0230152514
 40
0.0282294055
 40
0.0336523383
 40
0.0392847728
 40
0.051177718
 40
0.0639051113
 40
0.0774563636
 40
0.0918154955
 40
0.1069619829
 40
0.1228713384
 40
0.1395156159
 40
0.1568638361
 40
0.1748823077
 40
0.1935348794
 40
0.2127831722
 40
0.2325868262
 40
0.252903693
 40
0.2736900023
 40
0.2949005184
 40
0.3164887307
 40
0.3606058098
 40
0.4056504273
 40
0.4512199961
 40
0.49690592
 40
0.5422982826
 40
0.5869905025
 40
0.6089495643
 40
0.6305850538
 40
0.6518491901
 40
0.6726953123
 40
0.6930780201
 40
0.7129533274
 40
0.7322788349
 40
0.75101394
 40
0.7691200085
 40
0.7865605714
 40
0.803301561
 40
0.8193116182
 40
0.8345623962
 40
0.8490289203
 40
0.8626900634
 40
0.8755291895
 40
0.8875349507
 40
0.8932239001
 40
0.8987032311
 40
0.903973542
 40
0.9090360804
 40
0.9138926941
 40
0.9185460914
 40
0.9229998295
 40
0.9272584484
 40
0.9313277214
 40
0.9352146661
 40
0.9389278505
 40
0.9424775549
 40
0.9458759053
 40
0.9491371744
 40
0.9522778052
 40
0.9553165094
 40
0.9582742162
 40
0.9611737745
 40
0.9640395908
 40
0.9668970066
 40
0.9697716116
 40
0.9726884995
 40
0.9756716127
 40
0.978743176
 40
0.9852252998
 40
0.9886742369
 40
0.9922790689
 40
0.9960512545
 40
1.0
 40
1.0
 40
1.0
 40
1.0
 10
12.1919525395
 20
7.3502962393
 30
0.0
 10
12.1925247972
 20
7.3508489979
 30
0.0
 10
12.1936685613
 20
7.3520084125
 30
0.0
 10
12.1953450761
 20
7.3538609623
 30
0.0
 10
12.197019493
 20
7.3558643967
 30
0.0
 10
12.1986907068
 20
7.3580174289
 30
0.0
 10
12.2003578172
 20
7.3603187834
 30
0.0
 10
12.2020198394
 20
7.362767157
 30
0.0
 10
12.2036758648
 20
7.3653611085
 30
0.0
 10
12.2059152881
 20
7.3690795435
 30
0.0
 10
12.2086854607
 20
7.3740885662
 30
0.0
 10
12.2119125472
 20
7.3805486625
 30
0.0
 10
12.2150925345
 20
7.3875476499
 30
0.0
 10
12.2182178192
 20
7.3950689613
 30
0.0
 10
12.2212809162
 20
7.4030949137
 30
0.0
 10
12.2242744662
 20
7.4116064856
 30
0.0
 10
12.2271912744
 20
7.4205834591
 30
0.0
 10
12.2300243195
 20
7.4300044672
 30
0.0
 10
12.2327667771
 20
7.439847059
 30
0.0
 10
12.2354120434
 20
7.4500877491
 30
0.0
 10
12.2379537593
 20
7.4607020775
 30
0.0
 10
12.2403858099
 20
7.4716646804
 30
0.0
 10
12.2427023454
 20
7.4829493562
 30
0.0
 10
12.2448977851
 20
7.4945291169
 30
0.0
 10
12.2469668836
 20
7.506376282
 30
0.0
 10
12.2495692322
 20
7.5226081428
 30
0.0
 10
12.252464366
 20
7.5433563144
 30
0.0
 10
12.2553406899
 20
7.5686782857
 30
0.0
 10
12.2576159084
 20
7.5943592404
 30
0.0
 10
12.2592682118
 20
7.6201536674
 30
0.0
 10
12.2602817984
 20
7.6458149687
 30
0.0
 10
12.2605881535
 20
7.6670065202
 30
0.0
 10
12.2605009181
 20
7.6837047082
 30
0.0
 10
12.2602720714
 20
7.6959699315
 30
0.0
 10
12.2598800558
 20
7.7080204219
 30
0.0
 10
12.2593258169
 20
7.7198273718
 30
0.0
 10
12.258610711
 20
7.7313625321
 30
0.0
 10
12.2577364739
 20
7.7425983133
 30
0.0
 10
12.2567052231
 20
7.7535078477
 30
0.0
 10
12.255519469
 20
7.7640650619
 30
0.0
 10
12.2541820933
 20
7.7742447392
 30
0.0
 10
12.2526963427
 20
7.7840225763
 30
0.0
 10
12.2510658165
 20
7.7933752499
 30
0.0
 10
12.2492944763
 20
7.8022804841
 30
0.0
 10
12.2473866237
 20
7.8107171176
 30
0.0
 10
12.2453468809
 20
7.8186651336
 30
0.0
 10
12.2431801676
 20
7.8261058024
 30
0.0
 10
12.2408916899
 20
7.8330214881
 30
0.0
 10
12.2388527301
 20
7.8384268073
 30
0.0
 10
12.2371583457
 20
7.8424694778
 30
0.0
 10
12.2358833928
 20
7.8453055435
 30
0.0
 10
12.2345821664
 20
7.8479986893
 30
0.0
 10
12.2332554436
 20
7.8505473506
 30
0.0
 10
12.2319039541
 20
7.8529500123
 30
0.0
 10
12.2305285034
 20
7.8552052825
 30
0.0
 10
12.2291298728
 20
7.8573118486
 30
0.0
 10
12.227708805
 20
7.8592684594
 30
0.0
 10
12.2262661244
 20
7.8610740025
 30
0.0
 10
12.2248025594
 20
7.8627273886
 30
0.0
 10
12.2233188752
 20
7.8642276252
 30
0.0
 10
12.2218158493
 20
7.8655738087
 30
0.0
 10
12.2202941806
 20
7.866765001
 30
0.0
 10
12.2187546729
 20
7.8678003973
 30
0.0
 10
12.217198104
 20
7.8686791561
 30
0.0
 10
12.215625326
 20
7.8694004408
 30
0.0
 10
12.2140373394
 20
7.8699635651
 30
0.0
 10
12.2124352185
 20
7.8703677891
 30
0.0
 10
12.2108202234
 20
7.8706126367
 30
0.0
 10
12.2091936979
 20
7.8706978297
 30
0.0
 10
12.2075570258
 20
7.8706232381
 30
0.0
 10
12.205911584
 20
7.8703891553
 30
0.0
 10
12.2042585419
 20
7.8699958744
 30
0.0
 10
12.2020062037
 20
7.8692468788
 30
0.0
 10
12.1997774453
 20
7.8681806997
 30
0.0
 10
12.1975929375
 20
7.8668437712
 30
0.0
 10
12.1959174157
 20
7.8656642897
 30
0.0
 10
12.1942403971
 20
7.8643299295
 30
0.0
 10
12.1931474053
 20
7.863360383
 30
0.0
 10
12.1926006897
 20
7.8628515871
 30
0.0
  0
SPLINE
  5
38F
100
AcDbEntity
  8
0
100
AcDbSpline
 62
7
  6
CONTINUOUS
 70
0
 71
3
 72
64
 73
60
 74
0
 42
0.0000001
 43
0.0000001
 44
0.0000000001
 40
0.0
 40
0.0
 40
0.0
 40
0.0
 40
0.0081438225
 40
0.0169767329
 40
0.0265207112
 40
0.0367894254
 40
0.0477880522
 40
0.0595154814
 40
0.0719655878
 40
0.0851278048
 40
0.0989879293
 40
0.1135286419
 40
0.1287297598
 40
0.1445686607
 40
0.161020561
 40
0.1780586131
 40
0.1956541848
 40
0.2137770432
 40
0.2323953996
 40
0.2514761184
 40
0.2709848629
 40
0.2908861283
 40
0.3317185223
 40
0.3736720652
 40
0.4164335211
 40
0.4596817842
 40
0.5030910807
 40
0.5463340889
 40
0.589085086
 40
0.6310230706
 40
0.6718349506
 40
0.7112187893
 40
0.7302851809
 40
0.7488881287
 40
0.766994527
 40
0.784572648
 40
0.8015923073
 40
0.8180249135
 40
0.8338436972
 40
0.8490239403
 40
0.8635430796
 40
0.8773810344
 40
0.8905205778
 40
0.9029476025
 40
0.9146516917
 40
0.9256268362
 40
0.9358721574
 40
0.9453931212
 40
0.9542031594
 40
0.9623256124
 40
0.9697965425
 40
0.9766683085
 40
0.9830135138
 40
0.9860198807
 40
0.9889331503
 40
0.9917695126
 40
0.9945466408
 40
0.9972835084
 40
1.0
 40
1.0
 40
1.0
 40
1.0
 10
12.162974763
 20
7.3812836315
 30
0.0
 10
12.16392277
 20
7.3821993359
 30
0.0
 10
12.1658138642
 20
7.3841974226
 30
0.0
 10
12.16853124
 20
7.3875237672
 30
0.0
 10
12.1712369344
 20
7.3912917491
 30
0.0
 10
12.1739257058
 20
7.3954938492
 30
0.0
 10
12.1765926123
 20
7.4001222125
 30
0.0
 10
12.1792324191
 20
7.4051678605
 30
0.0
 10
12.1818399005
 20
7.4106209471
 30
0.0
 10
12.1844098682
 20
7.4164707272
 30
0.0
 10
12.1869371634
 20
7.4227056156
 30
0.0
 10
12.1894166749
 20
7.4293132212
 30
0.0
 10
12.1918434164
 20
7.4362803586
 30
0.0
 10
12.194212489
 20
7.443593101
 30
0.0
 10
12.1965190862
 20
7.4512368155
 30
0.0
 10
12.1987585609
 20
7.4591961784
 30
0.0
 10
12.2009263919
 20
7.4674552227
 30
0.0
 10
12.2030181811
 20
7.4759973759
 30
0.0
 10
12.2050297163
 20
7.4848054824
 30
0.0
 10
12.2069569359
 20
7.4938618429
 30
0.0
 10
12.2087959509
 20
7.5031482763
 30
0.0
 10
12.2111454193
 20
7.5159211932
 30
0.0
 10
12.2138286812
 20
7.532324603
 30
0.0
 10
12.2166165834
 20
7.552453606
 30
0.0
 10
12.2189766613
 20
7.5730308329
 30
0.0
 10
12.2208898632
 20
7.5938909322
 30
0.0
 10
12.2223407338
 20
7.6148663886
 30
0.0
 10
12.2233176187
 20
7.63578871
 30
0.0
 10
12.2238127519
 20
7.6564898324
 30
0.0
 10
12.2238223061
 20
7.6768035416
 30
0.0
 10
12.2233463735
 20
7.6965666233
 30
0.0
 10
12.2225403724
 20
7.7126137201
 30
0.0
 10
12.2216474949
 20
7.7250528064
 30
0.0
 10
12.2208672863
 20
7.7340464401
 30
0.0
 10
12.2199709471
 20
7.7427871595
 30
0.0
 10
12.2189602761
 20
7.7512574245
 30
0.0
 10
12.2178373529
 20
7.7594402282
 30
0.0
 10
12.2166044499
 20
7.7673191521
 30
0.0
 10
12.2152640708
 20
7.774878399
 30
0.0
 10
12.2138189622
 20
7.7821028345
 30
0.0
 10
12.2122720519
 20
7.7889780099
 30
0.0
 10
12.2106264737
 20
7.7954902032
 30
0.0
 10
12.2088855863
 20
7.8016264624
 30
0.0
 10
12.2070528956
 20
7.8073746245
 30
0.0
 10
12.2051320667
 20
7.8127233585
 30
0.0
 10
12.2031269382
 20
7.8176622197
 30
0.0
 10
12.2010414036
 20
7.8221816614
 30
0.0
 10
12.1988793843
 20
7.8262730676
 30
0.0
 10
12.1966447612
 20
7.8299288121
 30
0.0
 10
12.1943412296
 20
7.8331421363
 30
0.0
 10
12.1919718677
 20
7.8359071511
 30
0.0
 10
12.1895399527
 20
7.8382180786
 30
0.0
 10
12.1874251168
 20
7.8397885022
 30
0.0
 10
12.1857119328
 20
7.8407943136
 30
0.0
 10
12.1844378521
 20
7.8414180912
 30
0.0
 10
12.1831523516
 20
7.8419242522
 30
0.0
 10
12.1818560364
 20
7.8423123175
 30
0.0
 10
12.1805498563
 20
7.8425819406
 30
0.0
 10
12.1796716169
 20
7.8426827137
 30
0.0
 10
12.1792330186
 20
7.8427131328
 30
0.0
  0
SPLINE
  5
390
100
AcDbEntity
  8
0
100
AcDbSpline
 62
7
  6
CONTINUOUS
 70
0
 71
3
 72
23
 73
19
 74
0
 42
0.0000001
 43
0.0000001
 44
0.0000000001
 40
0.0
 40
0.0
 40
0.0
 40
0.0
 40
0.0638483323
 40
0.12747966
 40
0.1908938826
 40
0.2540960897
 40
0.3170916659
 40
0.3798888139
 40
0.4424974965
 40
0.5049296786
 40
0.5671991288
 40
0.6293213144
 40
0.691313248
 40
0.7531933183
 40
0.8149811033
 40
0.8766971665
 40
0.9383628405
 40
1.0
 40
1.0
 40
1.0
 40
1.0
 10
10.0769138849
 20
9.2005654705
 30
0.0
 10
10.083884695
 20
9.2000820432
 30
0.0
 10
10.0978287354
 20
9.199457584
 30
0.0
 10
10.118728057
 20
9.1995545825
 30
0.0
 10
10.1395267126
 20
9.2006866286
 30
0.0
 10
10.1601733975
 20
9.2028509496
 30
0.0
 10
10.1806182059
 20
9.2060424127
 30
0.0
 10
10.2008113589
 20
9.2102532699
 30
0.0
 10
10.2207037936
 20
9.2154733602
 30
0.0
 10
10.240247137
 20
9.2216900368
 30
0.0
 10
10.2593938648
 20
9.2288882386
 30
0.0
 10
10.2780974112
 20
9.2370505041
 30
0.0
 10
10.2963122806
 20
9.2461570183
 30
0.0
 10
10.3139941744
 20
9.2561856767
 30
0.0
 10
10.3311000377
 20
9.2671120801
 30
0.0
 10
10.3475883999
 20
9.2789098102
 30
0.0
 10
10.3634186005
 20
9.2915496849
 30
0.0
 10
10.3735100963
 20
9.3005194586
 30
0.0
 10
10.3784317565
 20
9.30513247
 30
0.0
  0
SPLINE
  5
391
100
AcDbEntity
  8
0
100
AcDbSpline
 62
7
  6
CONTINUOUS
 70
0
 71
3
 72
44
 73
40
 74
0
 42
0.0000001
 43
0.0000001
 44
0.0000000001
 40
0.0
 40
0.0
 40
0.0
 40
0.0
 40
0.0311358011
 40
0.062423718
 40
0.093857935
 40
0.1254289284
 40
0.1571246968
 40
0.1889307294
 40
0.2208303533
 40
0.2528050784
 40
0.2848349649
 40
0.3168990165
 40
0.3489755845
 40
0.3810427818
 40
0.4130788999
 40
0.4450628226
 40
0.4769744345
 40
0.5087950133
 40
0.5405076028
 40
0.5720973607
 40
0.6035518785
 40
0.6348614552
 40
0.6660193297
 40
0.6970218652
 40
0.7278686691
 40
0.7585626474
 40
0.7891099953
 40
0.8195201112
 40
0.8498054305
 40
0.8649087099
 40
0.8799867199
 40
0.8950417506
 40
0.9100762215
 40
0.9250926738
 40
0.9400937522
 40
0.955082189
 40
0.9700607927
 40
0.9850324282
 40
1.0
 40
1.0
 40
1.0
 40
1.0
 10
10.0769138849
 20
9.2005654705
 30
0.0
 10
10.0665979454
 20
9.2012808833
 30
0.0
 10
10.0459601307
 20
9.2034657342
 30
0.0
 10
10.0152510903
 20
9.2089609065
 30
0.0
 10
9.9848670214
 20
9.2166532118
 30
0.0
 10
9.9549700645
 20
9.2265018192
 30
0.0
 10
9.9257171611
 20
9.2384545696
 30
0.0
 10
9.8972624858
 20
9.2524482547
 30
0.0
 10
9.869755819
 20
9.2684090079
 30
0.0
 10
9.8433419994
 20
9.2862526432
 30
0.0
 10
9.8181600606
 20
9.3058850496
 30
0.0
 10
9.79434258
 20
9.32720277
 30
0.0
 10
9.7720149933
 20
9.3500935315
 30
0.0
 10
9.7512948692
 20
9.3744367574
 30
0.0
 10
9.7322913428
 20
9.4001042564
 30
0.0
 10
9.7151045819
 20
9.4269609075
 30
0.0
 10
9.6998252075
 20
9.4548653171
 30
0.0
 10
9.6865338
 20
9.4836705569
 30
0.0
 10
9.675300553
 20
9.5132249683
 30
0.0
 10
9.666184887
 20
9.5433729293
 30
0.0
 10
9.6592350424
 20
9.5739556386
 30
0.0
 10
9.6544879167
 20
9.6048119772
 30
0.0
 10
9.6519688817
 20
9.6357793373
 30
0.0
 10
9.6516915384
 20
9.6666944466
 30
0.0
 10
9.6536576871
 20
9.6973942694
 30
0.0
 10
9.6578573054
 20
9.7277167273
 30
0.0
 10
9.6642687509
 20
9.7575020072
 30
0.0
 10
9.6728579782
 20
9.7865917138
 30
0.0
 10
9.6818031172
 20
9.8101512555
 30
0.0
 10
9.6899965907
 20
9.828490123
 30
0.0
 10
9.6966473825
 20
9.8419658589
 30
0.0
 10
9.7037999409
 20
9.8551558953
 30
0.0
 10
9.7114449467
 20
9.8680430645
 30
0.0
 10
9.7195722322
 20
9.8806103119
 30
0.0
 10
9.7281711214
 20
9.8928410441
 30
0.0
 10
9.7372302581
 20
9.9047190812
 30
0.0
 10
9.7467376957
 20
9.9162288334
 30
0.0
 10
9.7566807224
 20
9.9273548538
 30
0.0
 10
9.7635920457
 20
9.9345076214
 30
0.0
 10
9.7671151412
 20
9.9380145335
 30
0.0
  0
SPLINE
  5
392
100
AcDbEntity
  8
0
100
AcDbSpline
 62
7
  6
CONTINUOUS
 70
0
 71
3
 72
71
 73
67
 74
0
 42
0.0000001
 43
0.0000001
 44
0.0000000001
 40
0.0
 40
0.0
 40
0.0
 40
0.0
 40
0.0156746002
 40
0.0314022758
 40
0.0471806259
 40
0.0630088902
 40
0.0788847489
 40
0.0948057503
 40
0.1107690093
 40
0.1267712315
 40
0.1428087904
 40
0.1588777358
 40
0.1749738409
 40
0.1910926413
 40
0.2072294726
 40
0.2233795111
 40
0.2395378178
 40
0.2556993836
 40
0.2718591711
 40
0.2880121562
 40
0.3041533743
 40
0.3202779653
 40
0.3363812144
 40
0.3524585921
 40
0.3685057967
 40
0.3845187956
 40
0.4004938614
 40
0.4164276045
 40
0.4323170078
 40
0.4481594602
 40
0.463952782
 40
0.4796952469
 40
0.4953856024
 40
0.5110230902
 40
0.526607457
 40
0.5421389601
 40
0.5576183687
 40
0.5730469661
 40
0.5884265411
 40
0.6037593736
 40
0.6190482146
 40
0.6342962646
 40
0.649507146
 40
0.6646848671
 40
0.6798337814
 40
0.6949585445
 40
0.7100640692
 40
0.7251554729
 40
0.7402380233
 40
0.7553170813
 40
0.7703980453
 40
0.7854862948
 40
0.8005871314
 40
0.8157057217
 40
0.8308470423
 40
0.8460158302
 40
0.8612165342
 40
0.8764532683
 40
0.8917297692
 40
0.9070493689
 40
0.9224149423
 40
0.9378289259
 40
0.9532932909
 40
0.9688091978
 40
0.9843783954
 40
1.0
 40
1.0
 40
1.0
 40
1.0
 10
10.0769138849
 20
9.3696025001
 30
0.0
 10
10.0727189946
 20
9.3698934167
 30
0.0
 10
10.0643278615
 20
9.3706820426
 30
0.0
 10
10.0517940519
 20
9.3724768052
 30
0.0
 10
10.0393205555
 20
9.3748813337
 30
0.0
 10
10.0269379671
 20
9.3778895877
 30
0.0
 10
10.014675859
 20
9.3814944512
 30
0.0
 10
10.0025638284
 20
9.3856871655
 30
0.0
 10
9.9906310066
 20
9.3904576065
 30
0.0
 10
9.9789061175
 20
9.395794278
 30
0.0
 10
9.9674173892
 20
9.4016843293
 30
0.0
 10
9.9561924751
 20
9.4081135695
 30
0.0
 10
9.945258381
 20
9.4150664916
 30
0.0
 10
9.9346414202
 20
9.4225263485
 30
0.0
 10
9.9243671515
 20
9.4304751862
 30
0.0
 10
9.9144603127
 20
9.4388938752
 30
0.0
 10
9.9049447339
 20
9.4477621292
 30
0.0
 10
9.8958433151
 20
9.4570585971
 30
0.0
 10
9.8871779679
 20
9.4667609061
 30
0.0
 10
9.8789695695
 20
9.4768457164
 30
0.0
 10
9.8712378678
 20
9.487288742
 30
0.0
 10
9.8640014713
 20
9.4980648437
 30
0.0
 10
9.8572778077
 20
9.5091480885
 30
0.0
 10
9.8510830908
 20
9.5205118124
 30
0.0
 10
9.8454322377
 20
9.5321286601
 30
0.0
 10
9.8403388508
 20
9.5439706653
 30
0.0
 10
9.835815207
 20
9.5560093268
 30
0.0
 10
9.8318722316
 20
9.5682156736
 30
0.0
 10
9.828519443
 20
9.5805603227
 30
0.0
 10
9.8257649153
 20
9.5930135507
 30
0.0
 10
9.8236153026
 20
9.6055453773
 30
0.0
 10
9.8220758177
 20
9.6181256309
 30
0.0
 10
9.8211502131
 20
9.6307240182
 30
0.0
 10
9.8208407235
 20
9.6433101954
 30
0.0
 10
9.8211481188
 20
9.6558538482
 30
0.0
 10
9.8220716944
 20
9.6683247596
 30
0.0
 10
9.8236092797
 20
9.6806928794
 30
0.0
 10
9.8257571835
 20
9.6929284038
 30
0.0
 10
9.8285102497
 20
9.7050018463
 30
0.0
 10
9.8318618756
 20
9.7168841044
 30
0.0
 10
9.8358040329
 20
9.7285465234
 30
0.0
 10
9.8403272402
 20
9.7399609815
 30
0.0
 10
9.8454206007
 20
9.7510999576
 30
0.0
 10
9.851071857
 20
9.7619365867
 30
0.0
 10
9.8572674166
 20
9.7724447204
 30
0.0
 10
9.8639923621
 20
9.7825990022
 30
0.0
 10
9.8712304682
 20
9.7923749469
 30
0.0
 10
9.8789642865
 20
9.8017489721
 30
0.0
 10
9.8871751782
 20
9.8106984571
 30
0.0
 10
9.8958433556
 20
9.8192017974
 30
0.0
 10
9.9049478937
 20
9.8272384978
 30
0.0
 10
9.9144668261
 20
9.8347891821
 30
0.0
 10
9.9243771928
 20
9.8418356414
 30
0.0
 10
9.934655098
 20
9.8483608692
 30
0.0
 10
9.9452757362
 20
9.8543491528
 30
0.0
 10
9.95621348
 20
9.8597860788
 30
0.0
 10
9.9674419473
 20
9.8646585553
 30
0.0
 10
9.9789340636
 20
9.868954836
 30
0.0
 10
9.9906621113
 20
9.8726645904
 30
0.0
 10
10.0025978031
 20
9.8757789169
 30
0.0
 10
10.0147123617
 20
9.8782903446
 30
0.0
 10
10.0269766072
 20
9.8801928377
 30
0.0
 10
10.0393608961
 20
9.8814817967
 30
0.0
 10
10.0518356388
 20
9.8821542668
 30
0.0
 10
10.0643701983
 20
9.882208511
 30
0.0
 10
10.0727331775
 20
9.8818331514
 30
0.0
 10
10.0769138849
 20
9.8815432184
 30
0.0
  0
SPLINE
  5
393
100
AcDbEntity
  8
0
100
AcDbSpline
 62
7
  6
CONTINUOUS
 70
0
 71
3
 72
41
 73
37
 74
0
 42
0.0000001
 43
0.0000001
 44
0.0000000001
 40
0.0
 40
0.0
 40
0.0
 40
0.0
 40
0.0311447181
 40
0.062442515
 40
0.0938874625
 40
0.1254698002
 40
0.1571773985
 40
0.1730760322
 40
0.1890002546
 40
0.2209118669
 40
0.2528982321
 40
0.2689155106
 40
0.284943791
 40
0.3170178783
 40
0.3491032352
 40
0.3811777027
 40
0.4132193318
 40
0.4452068082
 40
0.4771198677
 40
0.5089396984
 40
0.5406493204
 40
0.5722339407
 40
0.603681273
 40
0.6349818179
 40
0.6661290955
 40
0.6971198236
 40
0.727954035
 40
0.7586351272
 40
0.7891698391
 40
0.8195681507
 40
0.8498431051
 40
0.8800105515
 40
0.910088813
 40
0.940098286
 40
0.9700609781
 40
1.0
 40
1.0
 40
1.0
 40
1.0
 10
10.0846784499
 20
9.4060802709
 30
0.0
 10
10.079135505
 20
9.4064646754
 30
0.0
 10
10.0680463787
 20
9.4076410954
 30
0.0
 10
10.0515471541
 20
9.4106045257
 30
0.0
 10
10.0352245544
 20
9.4147554452
 30
0.0
 10
10.0191671903
 20
9.4200713244
 30
0.0
 10
10.0060880061
 20
9.4254443557
 30
0.0
 10
9.9958411282
 20
9.4302923598
 30
0.0
 10
9.9857360423
 20
9.4355093411
 30
0.0
 10
9.9734278352
 20
9.4426953337
 30
0.0
 10
9.9616288355
 20
9.4507192862
 30
0.0
 10
9.9525232569
 20
9.4576204912
 30
0.0
 10
9.9436467273
 20
9.4648386923
 30
0.0
 10
9.9330153936
 20
9.4744288143
 30
0.0
 10
9.9210715731
 20
9.4867795404
 30
0.0
 10
9.9100004202
 20
9.4999111784
 30
0.0
 10
9.8998613532
 20
9.5137534308
 30
0.0
 10
9.8907083438
 20
9.5282326227
 30
0.0
 10
9.8825902628
 20
9.5432715818
 30
0.0
 10
9.8755504526
 20
9.5587901804
 30
0.0
 10
9.8696265417
 20
9.5747057213
 30
0.0
 10
9.8648502322
 20
9.5909333816
 30
0.0
 10
9.8612471325
 20
9.6073866569
 30
0.0
 10
9.8588366177
 20
9.6239778158
 30
0.0
 10
9.8576317217
 20
9.640618362
 30
0.0
 10
9.8576390625
 20
9.6572195002
 30
0.0
 10
9.8588587968
 20
9.6736926047
 30
0.0
 10
9.8612846104
 20
9.6899496899
 30
0.0
 10
9.8649037437
 20
9.7059038778
 30
0.0
 10
9.8696970504
 20
9.7214698642
 30
0.0
 10
9.8756390805
 20
9.7365643708
 30
0.0
 10
9.8826982355
 20
9.7511066245
 30
0.0
 10
9.8908368193
 20
9.7650186936
 30
0.0
 10
9.9000116365
 20
9.7782263047
 30
0.0
 10
9.9101727238
 20
9.7906578094
 30
0.0
 10
9.9175713429
 20
9.7983869249
 30
0.0
 10
9.9214129961
 20
9.8020976789
 30
0.0
  0
SPLINE
  5
394
100
AcDbEntity
  8
0
100
AcDbSpline
 62
7
  6
CONTINUOUS
 70
0
 71
3
 72
39
 73
35
 74
0
 42
0.0000001
 43
0.0000001
 44
0.0000000001
 40
0.0
 40
0.0
 40
0.0
 40
0.0
 40
0.0309324727
 40
0.0619967609
 40
0.0931878544
 40
0.1245001527
 40
0.1559254253
 40
0.1874540998
 40
0.2190749565
 40
0.250775469
 40
0.2825419441
 40
0.3143597422
 40
0.3462134874
 40
0.3780872913
 40
0.4099649794
 40
0.4418303224
 40
0.4736672663
 40
0.505460162
 40
0.5371939904
 40
0.5688545803
 40
0.600428819
 40
0.6319048504
 40
0.6632722597
 40
0.6945222417
 40
0.7256477499
 40
0.756643623
 40
0.787506687
 40
0.8182358299
 40
0.8488320461
 40
0.8792984478
 40
0.9096402426
 40
0.9398646744
 40
0.9699809284
 40
1.0
 40
1.0
 40
1.0
 40
1.0
 10
10.2289503139
 20
9.591317678
 30
0.0
 10
10.2251542215
 20
9.5915809379
 30
0.0
 10
10.2175602995
 20
9.5923469408
 30
0.0
 10
10.2062407622
 20
9.5942021654
 30
0.0
 10
10.1950104727
 20
9.5967589344
 30
0.0
 10
10.1839142296
 20
9.6000070068
 30
0.0
 10
10.1729954719
 20
9.6039336235
 30
0.0
 10
10.1622971843
 20
9.6085232559
 30
0.0
 10
10.1518614083
 20
9.6137578302
 30
0.0
 10
10.1417291687
 20
9.6196167211
 30
0.0
 10
10.1319402913
 20
9.6260768657
 30
0.0
 10
10.1225332525
 20
9.6331128416
 30
0.0
 10
10.113545029
 20
9.6406969704
 30
0.0
 10
10.1050109531
 20
9.6487994247
 30
0.0
 10
10.0969645759
 20
9.6573883451
 30
0.0
 10
10.0894375345
 20
9.6664299633
 30
0.0
 10
10.082459429
 20
9.6758887348
 30
0.0
 10
10.0760577076
 20
9.685727478
 30
0.0
 10
10.0702575591
 20
9.6959075193
 30
0.0
 10
10.0650818145
 20
9.7063888437
 30
0.0
 10
10.0605508577
 20
9.7171302504
 30
0.0
 10
10.0566825449
 20
9.7280895135
 30
0.0
 10
10.0534921349
 20
9.7392235465
 30
0.0
 10
10.0509922284
 20
9.7504885692
 30
0.0
 10
10.0491927176
 20
9.7618402791
 30
0.0
 10
10.0481007461
 20
9.7732340229
 30
0.0
 10
10.0477206797
 20
9.784624971
 30
0.0
 10
10.0480540863
 20
9.7959682933
 30
0.0
 10
10.0490997251
 20
9.8072193298
 30
0.0
 10
10.0508535587
 20
9.8183337841
 30
0.0
 10
10.0533087339
 20
9.8292678295
 30
0.0
 10
10.0564557253
 20
9.8399785336
 30
0.0
 10
10.0602819262
 20
9.850423094
 30
0.0
 10
10.0632806289
 20
9.8571926738
 30
0.0
 10
10.0648873943
 20
9.8605176429
 30
0.0
  0
SPLINE
  5
395
100
AcDbEntity
  8
0
100
AcDbSpline
 62
7
  6
CONTINUOUS
 70
0
 71
3
 72
39
 73
35
 74
0
 42
0.0000001
 43
0.0000001
 44
0.0000000001
 40
0.0
 40
0.0
 40
0.0
 40
0.0
 40
0.0308543313
 40
0.0618327495
 40
0.0929305123
 40
0.1241432587
 40
0.1554639095
 40
0.1868844477
 40
0.2183953831
 40
0.2499861028
 40
0.2816449543
 40
0.3133594169
 40
0.3451162629
 40
0.3769017292
 40
0.4087016925
 40
0.4405018472
 40
0.4722878852
 40
0.5040456758
 40
0.5357614439
 40
0.5674219452
 40
0.5990146375
 40
0.6305278458
 40
0.6619509174
 40
0.6932743683
 40
0.7244900173
 40
0.7555911062
 40
0.7865724051
 40
0.8174302998
 40
0.8481628606
 40
0.8787698897
 40
0.9092529457
 40
0.9396153419
 40
0.9698621206
 40
1.0
 40
1.0
 40
1.0
 40
1.0
 10
10.2218524306
 20
9.5385801694
 30
0.0
 10
10.2173782241
 20
9.5388904566
 30
0.0
 10
10.2084279526
 20
9.5397764225
 30
0.0
 10
10.1950785516
 20
9.5418887276
 30
0.0
 10
10.1818221983
 20
9.5447799394
 30
0.0
 10
10.1687057075
 20
9.5484397616
 30
0.0
 10
10.155774481
 20
9.5528555165
 30
0.0
 10
10.1430735699
 20
9.5580117373
 30
0.0
 10
10.1306471306
 20
9.56389047
 30
0.0
 10
10.1185383859
 20
9.5704712201
 30
0.0
 10
10.106789447
 20
9.5777310718
 30
0.0
 10
10.0954411731
 20
9.5856447467
 30
0.0
 10
10.0845330275
 20
9.5941846963
 30
0.0
 10
10.0741029446
 20
9.6033212014
 30
0.0
 10
10.0641871983
 20
9.6130224735
 30
0.0
 10
10.0548202773
 20
9.6232547655
 30
0.0
 10
10.046034766
 20
9.6339824875
 30
0.0
 10
10.0378612323
 20
9.64516833
 30
0.0
 10
10.0303281214
 20
9.6567733924
 30
0.0
 10
10.0234616584
 20
9.6687573172
 30
0.0
 10
10.0172857505
 20
9.6810784259
 30
0.0
 10
10.0118219092
 20
9.6936938674
 30
0.0
 10
10.0070891764
 20
9.7065597648
 30
0.0
 10
10.003104058
 20
9.7196313677
 30
0.0
 10
9.9998804665
 20
9.7328632052
 30
0.0
 10
9.997429672
 20
9.746209243
 30
0.0
 10
9.9957602618
 20
9.7596230414
 30
0.0
 10
9.9948781111
 20
9.7730579169
 30
0.0
 10
9.9947863554
 20
9.7864670975
 30
0.0
 10
9.9954853813
 20
9.7998039056
 30
0.0
 10
9.9969728071
 20
9.8130218462
 30
0.0
 10
9.9992435737
 20
9.8260750404
 30
0.0
 10
10.0022896388
 20
9.838917375
 30
0.0
 10
10.0048350336
 20
9.8473244553
 30
0.0
 10
10.0062330901
 20
9.8514761941
 30
0.0
  0
SPLINE
  5
396
100
AcDbEntity
  8
0
100
AcDbSpline
 62
7
  6
CONTINUOUS
 70
0
 71
3
 72
48
 73
44
 74
0
 42
0.0000001
 43
0.0000001
 44
0.0000000001
 40
0.0
 40
0.0
 40
0.0
 40
0.0
 40
0.0311434631
 40
0.0624399956
 40
0.0938836138
 40
0.1254646847
 40
0.1571709829
 40
0.1889877595
 40
0.22089807
 40
0.2528831302
 40
0.2849226987
 40
0.3169954772
 40
0.3490795248
 40
0.3811526835
 40
0.413193006
 40
0.4451791789
 40
0.4770909382
 40
0.5089094729
 40
0.5406178044
 40
0.5722011384
 40
0.6036471904
 40
0.6349464615
 40
0.6660924706
 40
0.6970819377
 40
0.7279148953
 40
0.7432762698
 40
0.7586000727
 40
0.7738872515
 40
0.789138954
 40
0.8043565275
 40
0.819541513
 40
0.8346956329
 40
0.8498207866
 40
0.8649190411
 40
0.8799926163
 40
0.8950438755
 40
0.9100753135
 40
0.9250895394
 40
0.9400892632
 40
0.9550772817
 40
0.9700564603
 40
0.9850297153
 40
1.0
 40
1.0
 40
1.0
 40
1.0
 10
10.4349949897
 20
7.0551017649
 30
0.0
 10
10.4237911712
 20
7.0558787523
 30
0.0
 10
10.4013770038
 20
7.0582566262
 30
0.0
 10
10.3680275045
 20
7.0642465308
 30
0.0
 10
10.3350352048
 20
7.0726365925
 30
0.0
 10
10.3025783016
 20
7.0833817172
 30
0.0
 10
10.2708292038
 20
7.0964242797
 30
0.0
 10
10.2399572834
 20
7.1116945224
 30
0.0
 10
10.2101270133
 20
7.1291108715
 30
0.0
 10
10.1814973175
 20
7.1485802853
 30
0.0
 10
10.1542207534
 20
7.169998909
 30
0.0
 10
10.128442672
 20
7.1932525153
 30
0.0
 10
10.1043004094
 20
7.2182170913
 30
0.0
 10
10.0819226788
 20
7.2447596093
 30
0.0
 10
10.0614287855
 20
7.2727386141
 30
0.0
 10
10.0429280007
 20
7.3020049971
 30
0.0
 10
10.0265190977
 20
7.3324028493
 30
0.0
 10
10.0122896793
 20
7.3637701838
 30
0.0
 10
10.0003157726
 20
7.3959398431
 30
0.0
 10
9.9906615122
 20
7.42874039
 30
0.0
 10
9.9833786245
 20
7.461996984
 30
0.0
 10
9.978506242
 20
7.4955322086
 30
0.0
 10
9.9760708167
 20
7.529167526
 30
0.0
 10
9.9760854784
 20
7.5627222253
 30
0.0
 10
9.9781429185
 20
7.5905072857
 30
0.0
 10
9.981011401
 20
7.6125095284
 30
0.0
 10
9.9837665543
 20
7.6288612964
 30
0.0
 10
9.9871242943
 20
7.6450594494
 30
0.0
 10
9.9910802062
 20
7.661082629
 30
0.0
 10
9.9956289833
 20
7.6769093595
 30
0.0
 10
10.0007645442
 20
7.6925185251
 30
0.0
 10
10.0064800875
 20
7.7078892498
 30
0.0
 10
10.0127679627
 20
7.7230010056
 30
0.0
 10
10.0196197574
 20
7.7378336111
 30
0.0
 10
10.027026371
 20
7.752367226
 30
0.0
 10
10.0349778981
 20
7.7665824352
 30
0.0
 10
10.0434636967
 20
7.7804602588
 30
0.0
 10
10.0524724733
 20
7.7939821255
 30
0.0
 10
10.0619921902
 20
7.8071299727
 30
0.0
 10
10.0720100866
 20
7.8198862346
 30
0.0
 10
10.0825128752
 20
7.8322339002
 30
0.0
 10
10.0934862922
 20
7.8441562339
 30
0.0
 10
10.1011066813
 20
7.8518111328
 30
0.0
 10
10.104989554
 20
7.8555617101
 30
0.0
  0
SPLINE
  5
397
100
AcDbEntity
  8
0
100
AcDbSpline
 62
7
  6
CONTINUOUS
 70
0
 71
3
 72
24
 73
20
 74
0
 42
0.0000001
 43
0.0000001
 44
0.0000000001
 40
0.0
 40
0.0
 40
0.0
 40
0.0
 40
0.0616478686
 40
0.1233187641
 40
0.1850354561
 40
0.2468202038
 40
0.2777476126
 40
0.3087000175
 40
0.3706843912
 40
0.43279813
 40
0.4950591137
 40
0.5574836211
 40
0.6200861608
 40
0.6828793526
 40
0.7458737331
 40
0.8090779103
 40
0.8724977887
 40
0.9361382808
 40
1.0
 40
1.0
 40
1.0
 40
1.0
 10
10.3784615467
 20
9.3051011082
 30
0.0
 10
10.373523837
 20
9.3003316421
 30
0.0
 10
10.3633878869
 20
9.291054638
 30
0.0
 10
10.3474548983
 20
9.2779736698
 30
0.0
 10
10.3308302834
 20
9.2657574809
 30
0.0
 10
10.3164392358
 20
9.256326593
 30
0.0
 10
10.304626589
 20
9.2492452841
 30
0.0
 10
10.2926098743
 20
9.2424706974
 30
0.0
 10
10.2772343105
 20
9.234595309
 30
0.0
 10
10.2582788666
 20
9.2261241099
 30
0.0
 10
10.2388564709
 20
9.218648317
 30
0.0
 10
10.2190163813
 20
9.2121868967
 30
0.0
 10
10.1988084883
 20
9.2067560196
 30
0.0
 10
10.1782837189
 20
9.202369328
 30
0.0
 10
10.1574937304
 20
9.1990377915
 30
0.0
 10
10.1364909468
 20
9.1967697732
 30
0.0
 10
10.1153279912
 20
9.1955708755
 30
0.0
 10
10.0940588985
 20
9.1954440949
 30
0.0
 10
10.0798673162
 20
9.1960734658
 30
0.0
 10
10.0727727834
 20
9.1965654734
 30
0.0
  0
SPLINE
  5
398
100
AcDbEntity
  8
0
100
AcDbSpline
 62
7
  6
CONTINUOUS
 70
0
 71
3
 72
15
 73
11
 74
0
 42
0.0000001
 43
0.0000001
 44
0.0000000001
 40
0.0
 40
0.0
 40
0.0
 40
0.0
 40
0.1234669212
 40
0.247306935
 40
0.3715605742
 40
0.4962620435
 40
0.621439777
 40
0.7471128864
 40
0.8732994587
 40
1.0
 40
1.0
 40
1.0
 40
1.0
 10
10.3112693531
 20
9.6053978764
 30
0.0
 10
10.3080938843
 20
9.6039977325
 30
0.0
 10
10.3016441715
 20
9.6013907387
 30
0.0
 10
10.2917317619
 20
9.5980814014
 30
0.0
 10
10.2816008472
 20
9.5953784563
 30
0.0
 10
10.2712871648
 20
9.5932914594
 30
0.0
 10
10.2608265484
 20
9.591827604
 30
0.0
 10
10.2502552272
 20
9.5909918645
 30
0.0
 10
10.2396105374
 20
9.5907871809
 30
0.0
 10
10.2325031196
 20
9.5910712901
 30
0.0
 10
10.2289503139
 20
9.591317678
 30
0.0
  0
SPLINE
  5
399
100
AcDbEntity
  8
0
100
AcDbSpline
 62
7
  6
CONTINUOUS
 70
0
 71
3
 72
71
 73
67
 74
0
 42
0.0000001
 43
0.0000001
 44
0.0000000001
 40
0.0
 40
0.0
 40
0.0
 40
0.0
 40
0.0156216046
 40
0.0311908022
 40
0.0467067091
 40
0.0621710741
 40
0.0775850577
 40
0.0929506311
 40
0.1082702308
 40
0.1235467317
 40
0.1387834658
 40
0.1539841698
 40
0.1691529577
 40
0.1842942783
 40
0.1994128686
 40
0.2145137052
 40
0.2296019547
 40
0.2446829187
 40
0.2597619767
 40
0.2748445271
 40
0.2899359308
 40
0.3050414555
 40
0.3201662186
 40
0.3353151329
 40
0.350492854
 40
0.3657037354
 40
0.3809517854
 40
0.3962406264
 40
0.4115734589
 40
0.4269530339
 40
0.4423816313
 40
0.4578610399
 40
0.473392543
 40
0.4889769098
 40
0.5046143976
 40
0.5203047531
 40
0.536047218
 40
0.5518405398
 40
0.5676829922
 40
0.5835723955
 40
0.5995061386
 40
0.6154812044
 40
0.6314942033
 40
0.6475414079
 40
0.6636187856
 40
0.6797220347
 40
0.6958466257
 40
0.7119878438
 40
0.7281408289
 40
0.7443006164
 40
0.7604621822
 40
0.7766204889
 40
0.7927705274
 40
0.8089073587
 40
0.8250261591
 40
0.8411222642
 40
0.8571912096
 40
0.8732287685
 40
0.8892309907
 40
0.9051942497
 40
0.9211152511
 40
0.9369911098
 40
0.9528193741
 40
0.9685977242
 40
0.9843253998
 40
1.0
 40
1.0
 40
1.0
 40
1.0
 10
10.0769138849
 20
9.3696025001
 30
0.0
 10
10.0810945924
 20
9.3693125671
 30
0.0
 10
10.0894575715
 20
9.3689372075
 30
0.0
 10
10.101992131
 20
9.3689914517
 30
0.0
 10
10.1144668738
 20
9.3696639218
 30
0.0
 10
10.1268511627
 20
9.3709528807
 30
0.0
 10
10.1391154081
 20
9.3728553739
 30
0.0
 10
10.1512299667
 20
9.3753668016
 30
0.0
 10
10.1631656585
 20
9.3784811281
 30
0.0
 10
10.1748937062
 20
9.3821908824
 30
0.0
 10
10.1863858226
 20
9.3864871632
 30
0.0
 10
10.1976142899
 20
9.3913596397
 30
0.0
 10
10.2085520336
 20
9.3967965657
 30
0.0
 10
10.2191726718
 20
9.4027848493
 30
0.0
 10
10.229450577
 20
9.4093100771
 30
0.0
 10
10.2393609437
 20
9.4163565364
 30
0.0
 10
10.2488798762
 20
9.4239072206
 30
0.0
 10
10.2579844142
 20
9.4319439211
 30
0.0
 10
10.2666525917
 20
9.4404472614
 30
0.0
 10
10.2748634833
 20
9.4493967464
 30
0.0
 10
10.2825973016
 20
9.4587707716
 30
0.0
 10
10.2898354077
 20
9.4685467163
 30
0.0
 10
10.2965603532
 20
9.4787009981
 30
0.0
 10
10.3027559128
 20
9.4892091318
 30
0.0
 10
10.3084071691
 20
9.5000457608
 30
0.0
 10
10.3135005297
 20
9.511184737
 30
0.0
 10
10.318023737
 20
9.522599195
 30
0.0
 10
10.3219658942
 20
9.5342616141
 30
0.0
 10
10.3253175201
 20
9.5461438721
 30
0.0
 10
10.3280705863
 20
9.5582173147
 30
0.0
 10
10.3302184901
 20
9.5704528391
 30
0.0
 10
10.3317560754
 20
9.5828209589
 30
0.0
 10
10.332679651
 20
9.5952918703
 30
0.0
 10
10.3329870463
 20
9.6078355231
 30
0.0
 10
10.3326775568
 20
9.6204217003
 30
0.0
 10
10.3317519521
 20
9.6330200876
 30
0.0
 10
10.3302124672
 20
9.6456003412
 30
0.0
 10
10.3280628545
 20
9.6581321678
 30
0.0
 10
10.3253083268
 20
9.6705853958
 30
0.0
 10
10.3219555383
 20
9.6829300449
 30
0.0
 10
10.3180125628
 20
9.6951363916
 30
0.0
 10
10.3134889191
 20
9.7071750532
 30
0.0
 10
10.3083955321
 20
9.7190170584
 30
0.0
 10
10.302744679
 20
9.7306339061
 30
0.0
 10
10.2965499621
 20
9.74199763
 30
0.0
 10
10.2898262985
 20
9.7530808747
 30
0.0
 10
10.282589902
 20
9.7638569765
 30
0.0
 10
10.2748582004
 20
9.7743000021
 30
0.0
 10
10.2666498019
 20
9.7843848124
 30
0.0
 10
10.2579844547
 20
9.7940871214
 30
0.0
 10
10.2488830359
 20
9.8033835893
 30
0.0
 10
10.2393674572
 20
9.8122518432
 30
0.0
 10
10.2294606184
 20
9.8206705323
 30
0.0
 10
10.2191863496
 20
9.82861937
 30
0.0
 10
10.2085693889
 20
9.8360792269
 30
0.0
 10
10.1976352947
 20
9.843032149
 30
0.0
 10
10.1864103806
 20
9.8494613891
 30
0.0
 10
10.1749216524
 20
9.8553514405
 30
0.0
 10
10.1631967632
 20
9.860688112
 30
0.0
 10
10.1512639415
 20
9.865458553
 30
0.0
 10
10.1391519108
 20
9.8696512673
 30
0.0
 10
10.1268898027
 20
9.8732561308
 30
0.0
 10
10.1145072143
 20
9.8762643848
 30
0.0
 10
10.102033718
 20
9.8786689133
 30
0.0
 10
10.0894999084
 20
9.8804636759
 30
0.0
 10
10.0811087752
 20
9.8812523017
 30
0.0
 10
10.0769138849
 20
9.8815432184
 30
0.0
  0
SPLINE
  5
39A
100
AcDbEntity
  8
0
100
AcDbSpline
 62
7
  6
CONTINUOUS
 70
0
 71
3
 72
25
 73
21
 74
0
 42
0.0000001
 43
0.0000001
 44
0.0000000001
 40
0.0
 40
0.0
 40
0.0
 40
0.0
 40
0.0616475282
 40
0.0924812782
 40
0.1233236452
 40
0.1850399949
 40
0.2468243989
 40
0.277751634
 40
0.3087038677
 40
0.3706878948
 40
0.4328012861
 40
0.4950619216
 40
0.5574860801
 40
0.6200882709
 40
0.6828811113
 40
0.7458751472
 40
0.8090789555
 40
0.8724985283
 40
0.936138578
 40
1.0
 40
1.0
 40
1.0
 40
1.0
 10
10.7650004255
 20
7.1722714091
 30
0.0
 10
10.7596699371
 20
7.1671225385
 30
0.0
 10
10.751463365
 20
7.1596114099
 30
0.0
 10
10.740131275
 20
7.150049872
 30
0.0
 10
10.7285397713
 20
7.140790675
 30
0.0
 10
10.713580148
 20
7.129797913
 30
0.0
 10
10.6980444766
 20
7.1196169176
 30
0.0
 10
10.685292159
 20
7.1119722677
 30
0.0
 10
10.6723195495
 20
7.1046587801
 30
0.0
 10
10.6557209071
 20
7.0961568979
 30
0.0
 10
10.635257613
 20
7.0870118163
 30
0.0
 10
10.6142902208
 20
7.0789413211
 30
0.0
 10
10.5928719062
 20
7.0719658918
 30
0.0
 10
10.5710565286
 20
7.0661029853
 30
0.0
 10
10.5488990656
 20
7.0613673285
 30
0.0
 10
10.5264552865
 20
7.0577707673
 30
0.0
 10
10.5037817786
 20
7.0553223219
 30
0.0
 10
10.4809353675
 20
7.0540280554
 30
0.0
 10
10.4579743676
 20
7.0538911813
 30
0.0
 10
10.4426538826
 20
7.0545706189
 30
0.0
 10
10.4349949897
 20
7.0551017649
 30
0.0
  0
SPLINE
  5
39B
100
AcDbEntity
  8
0
100
AcDbSpline
 62
7
  6
CONTINUOUS
 70
0
 71
3
 72
15
 73
11
 74
0
 42
0.0000001
 43
0.0000001
 44
0.0000000001
 40
0.0
 40
0.0
 40
0.0
 40
0.0
 40
0.1234146483
 40
0.2472051949
 40
0.3714195023
 40
0.496098397
 40
0.6212750148
 40
0.7469745234
 40
0.8732133695
 40
1.0
 40
1.0
 40
1.0
 40
1.0
 10
10.7246770464
 20
7.420874735
 30
0.0
 10
10.7197125621
 20
7.4185104056
 30
0.0
 10
10.7096086957
 20
7.4141021206
 30
0.0
 10
10.6940286591
 20
7.408490457
 30
0.0
 10
10.6780611731
 20
7.4038907787
 30
0.0
 10
10.6617693867
 20
7.4003213324
 30
0.0
 10
10.6452166746
 20
7.3977958153
 30
0.0
 10
10.6284674244
 20
7.3963240166
 30
0.0
 10
10.6115877498
 20
7.3959114853
 30
0.0
 10
10.6003137999
 20
7.3963428627
 30
0.0
 10
10.5946783551
 20
7.3967336821
 30
0.0
  0
SPLINE
  5
39C
100
AcDbEntity
  8
0
100
AcDbSpline
 62
7
  6
CONTINUOUS
 70
0
 71
3
 72
23
 73
19
 74
0
 42
0.0000001
 43
0.0000001
 44
0.0000000001
 40
0.0
 40
0.0
 40
0.0
 40
0.0
 40
0.0638609742
 40
0.1275034352
 40
0.1909230191
 40
0.2541276449
 40
0.3171224247
 40
0.3799159145
 40
0.4425188174
 40
0.5049436698
 40
0.5672049969
 40
0.6293190749
 40
0.6913037881
 40
0.7531784374
 40
0.8149635266
 40
0.876680556
 40
0.9383517894
 40
1.0
 40
1.0
 40
1.0
 40
1.0
 10
10.0846784499
 20
9.4060802709
 30
0.0
 10
10.0884675061
 20
9.4058174989
 30
0.0
 10
10.0960471244
 20
9.4054813833
 30
0.0
 10
10.107406734
 20
9.4055490513
 30
0.0
 10
10.1187097264
 20
9.4061894001
 30
0.0
 10
10.1299270832
 20
9.4074006967
 30
0.0
 10
10.1410308205
 20
9.409180045
 30
0.0
 10
10.1519929011
 20
9.4115229428
 30
0.0
 10
10.1627857405
 20
9.4144235074
 30
0.0
 10
10.1733821538
 20
9.417874481
 30
0.0
 10
10.1837554361
 20
9.4218672197
 30
0.0
 10
10.1938794612
 20
9.4263916679
 30
0.0
 10
10.2037287227
 20
9.4314364406
 30
0.0
 10
10.2132784037
 20
9.4369888611
 30
0.0
 10
10.2225043995
 20
9.4430349587
 30
0.0
 10
10.2313835514
 20
9.4495595662
 30
0.0
 10
10.2398931874
 20
9.4565459553
 30
0.0
 10
10.24530672
 20
9.461500703
 30
0.0
 10
10.2479439036
 20
9.4640480281
 30
0.0
  0
SPLINE
  5
39D
100
AcDbEntity
  8
0
100
AcDbSpline
 62
7
  6
CONTINUOUS
 70
0
 71
3
 72
15
 73
11
 74
0
 42
0.0000001
 43
0.0000001
 44
0.0000000001
 40
0.0
 40
0.0
 40
0.0
 40
0.0
 40
0.1246457793
 40
0.2485548696
 40
0.3722145893
 40
0.4960619237
 40
0.6204749406
 40
0.74576995
 40
0.8722131847
 40
1.0
 40
1.0
 40
1.0
 40
1.0
 10
10.7240814861
 20
7.5959262898
 30
0.0
 10
10.7203252837
 20
7.5975416336
 30
0.0
 10
10.7129323109
 20
7.6009938174
 30
0.0
 10
10.7021815089
 20
7.6067945973
 30
0.0
 10
10.6917828644
 20
7.6131545617
 30
0.0
 10
10.6817059127
 20
7.620040726
 30
0.0
 10
10.6719232844
 20
7.6274274114
 30
0.0
 10
10.6624127036
 20
7.6352948282
 30
0.0
 10
10.6531576716
 20
7.64362682
 30
0.0
 10
10.6471835965
 20
7.6494492156
 30
0.0
 10
10.644236913
 20
7.6524306016
 30
0.0
  0
SPLINE
  5
39E
100
AcDbEntity
  8
0
100
AcDbSpline
 62
7
  6
CONTINUOUS
 70
0
 71
3
 72
11
 73
7
 74
0
 42
0.0000001
 43
0.0000001
 44
0.0000000001
 40
0.0
 40
0.0
 40
0.0
 40
0.0
 40
0.2522347022
 40
0.5029338439
 40
0.7521563242
 40
1.0
 40
1.0
 40
1.0
 40
1.0
 10
10.2218524306
 20
9.5385801694
 30
0.0
 10
10.2284997203
 20
9.5381191783
 30
0.0
 10
10.2418016323
 20
9.5377795736
 30
0.0
 10
10.2616569869
 20
9.5390382466
 30
0.0
 10
10.2812049619
 20
9.5420560134
 30
0.0
 10
10.2939674944
 20
9.5452352148
 30
0.0
 10
10.3002409985
 20
9.5471086439
 30
0.0
  0
SPLINE
  5
39F
100
AcDbEntity
  8
0
100
AcDbSpline
 62
7
  6
CONTINUOUS
 70
0
 71
3
 72
24
 73
20
 74
0
 42
0.0000001
 43
0.0000001
 44
0.0000000001
 40
0.0
 40
0.0
 40
0.0
 40
0.0
 40
0.0638490882
 40
0.1274807
 40
0.1908950954
 40
0.2540971377
 40
0.317092336
 40
0.3798888963
 40
0.4424968285
 40
0.5049281454
 40
0.5671966695
 40
0.6293179274
 40
0.6913089943
 40
0.7222640826
 40
0.7531936504
 40
0.8149808901
 40
0.8766966711
 40
0.9383623942
 40
1.0
 40
1.0
 40
1.0
 40
1.0
 10
10.4391360912
 20
7.059101762
 30
0.0
 10
10.4466712749
 20
7.0585791953
 30
0.0
 10
10.4617442435
 20
7.0579046607
 30
0.0
 10
10.4843355137
 20
7.0580117197
 30
0.0
 10
10.5068176718
 20
7.0592390815
 30
0.0
 10
10.5291351385
 20
7.0615837572
 30
0.0
 10
10.551233808
 20
7.0650401548
 30
0.0
 10
10.5730597395
 20
7.0695998682
 30
0.0
 10
10.5945597677
 20
7.075251865
 30
0.0
 10
10.6156814498
 20
7.0819824022
 30
0.0
 10
10.6363733789
 20
7.0897751787
 30
0.0
 10
10.656584765
 20
7.0986110565
 30
0.0
 10
10.6729949554
 20
7.1068301465
 30
0.0
 10
10.6858309679
 20
7.1139033342
 30
0.0
 10
10.6984562135
 20
7.1212986094
 30
0.0
 10
10.7138517882
 20
7.1311512472
 30
0.0
 10
10.7316626917
 20
7.143920503
 30
0.0
 10
10.7487606843
 20
7.1576008387
 30
0.0
 10
10.7596586935
 20
7.1673084876
 30
0.0
 10
10.7649732552
 20
7.1723008643
 30
0.0
  0
SPLINE
  5
3A0
100
AcDbEntity
  8
0
100
AcDbSpline
 62
7
  6
CONTINUOUS
 70
0
 71
3
 72
46
 73
42
 74
0
 42
0.0000001
 43
0.0000001
 44
0.0000000001
 40
0.0
 40
0.0
 40
0.0
 40
0.0
 40
0.0311360737
 40
0.0624243431
 40
0.0938589563
 40
0.125430401
 40
0.1571266513
 40
0.1889331808
 40
0.2208332973
 40
0.2528084886
 40
0.2848387932
 40
0.3169031931
 40
0.3489800185
 40
0.3810473625
 40
0.4130834985
 40
0.4450672969
 40
0.4769786317
 40
0.5087987729
 40
0.5405107625
 40
0.572099764
 40
0.6035533755
 40
0.6348619098
 40
0.6660186292
 40
0.6970199214
 40
0.7278654223
 40
0.7585580764
 40
0.7891041187
 40
0.8043276851
 40
0.8195183984
 40
0.8346779122
 40
0.8498080531
 40
0.8649108169
 40
0.8799883548
 40
0.8950429597
 40
0.9100770595
 40
0.9250931997
 40
0.9400940281
 40
0.9550822837
 40
0.9700607789
 40
0.9850323811
 40
1.0
 40
1.0
 40
1.0
 40
1.0
 10
10.4391360912
 20
7.059101762
 30
0.0
 10
10.4279946257
 20
7.0598744253
 30
0.0
 10
10.4057052741
 20
7.0622344824
 30
0.0
 10
10.3725389508
 20
7.0681709884
 30
0.0
 10
10.3397239137
 20
7.0764814736
 30
0.0
 10
10.3074354372
 20
7.0871217849
 30
0.0
 10
10.275843155
 20
7.1000355029
 30
0.0
 10
10.2451137231
 20
7.1151542892
 30
0.0
 10
10.2154090527
 20
7.1323982898
 30
0.0
 10
10.1868856699
 20
7.1516764271
 30
0.0
 10
10.1596938506
 20
7.1728869498
 30
0.0
 10
10.1339769088
 20
7.1959180179
 30
0.0
 10
10.1098703707
 20
7.2206481875
 30
0.0
 10
10.0875012772
 20
7.2469470775
 30
0.0
 10
10.0669875961
 20
7.2746761113
 30
0.0
 10
10.0484375325
 20
7.3036891667
 30
0.0
 10
10.0319489395
 20
7.3338333399
 30
0.0
 10
10.0176089092
 20
7.3649498027
 30
0.0
 10
10.0054932507
 20
7.3968745804
 30
0.0
 10
9.99566603
 20
7.4294393931
 30
0.0
 10
9.9881793559
 20
7.462472581
 30
0.0
 10
9.9830730528
 20
7.4957999573
 30
0.0
 10
9.9803743554
 20
7.5292457441
 30
0.0
 10
9.9800978503
 20
7.5626333736
 30
0.0
 10
9.9822455226
 20
7.59578691
 30
0.0
 10
9.9868060162
 20
7.6285300536
 30
0.0
 10
9.9926052535
 20
7.6553648532
 30
0.0
 10
9.9984228621
 20
7.6764470658
 30
0.0
 10
10.003363679
 20
7.6920336909
 30
0.0
 10
10.008880016
 20
7.7073902259
 30
0.0
 10
10.0149646848
 20
7.7224966533
 30
0.0
 10
10.0216095864
 20
7.7373329573
 30
0.0
 10
10.0288059755
 20
7.7518795466
 30
0.0
 10
10.0365443842
 20
7.7661171737
 30
0.0
 10
10.0448145413
 20
7.7800270541
 30
0.0
 10
10.0536055511
 20
7.7935907903
 30
0.0
 10
10.0629058312
 20
7.8067904425
 30
0.0
 10
10.0727030311
 20
7.8196085841
 30
0.0
 10
10.0829842974
 20
7.8320283168
 30
0.0
 10
10.0937358409
 20
7.8440329774
 30
0.0
 10
10.1012086099
 20
7.8517499225
 30
0.0
 10
10.1050177978
 20
7.8555332473
 30
0.0
  0
SPLINE
  5
3A1
100
AcDbEntity
  8
0
100
AcDbSpline
 62
7
  6
CONTINUOUS
 70
0
 71
3
 72
71
 73
67
 74
0
 42
0.0000001
 43
0.0000001
 44
0.0000000001
 40
0.0
 40
0.0
 40
0.0
 40
0.0
 40
0.0156746951
 40
0.0314022331
 40
0.0471806321
 40
0.0630088952
 40
0.0788847436
 40
0.0948057516
 40
0.1107690095
 40
0.1267712322
 40
0.14280879
 40
0.1588777348
 40
0.1749738409
 40
0.1910926421
 40
0.2072294728
 40
0.2233795103
 40
0.2395378174
 40
0.2556993841
 40
0.2718591714
 40
0.2880121558
 40
0.304153374
 40
0.3202779653
 40
0.3363812143
 40
0.3524585919
 40
0.3685057968
 40
0.3845187959
 40
0.4004938609
 40
0.4164276037
 40
0.432317008
 40
0.4481594611
 40
0.4639527821
 40
0.4796952457
 40
0.4953856016
 40
0.5110230909
 40
0.526607458
 40
0.5421389596
 40
0.5576183676
 40
0.5730469657
 40
0.5884265418
 40
0.603759374
 40
0.6190482142
 40
0.6342962641
 40
0.6495071459
 40
0.6646848671
 40
0.6798337811
 40
0.6949585445
 40
0.7100640694
 40
0.7251554729
 40
0.7402380227
 40
0.7553170806
 40
0.7703980454
 40
0.7854862954
 40
0.8005871315
 40
0.8157057208
 40
0.8308470413
 40
0.8460158304
 40
0.861216535
 40
0.8764532684
 40
0.8917297685
 40
0.9070493664
 40
0.922414947
 40
0.9378289216
 40
0.9532932848
 40
0.9688092399
 40
0.9843783001
 40
1.0
 40
1.0
 40
1.0
 40
1.0
 10
10.4391360912
 20
7.1943313857
 30
0.0
 10
10.4338330846
 20
7.1946991505
 30
0.0
 10
10.4232254386
 20
7.1956960781
 30
0.0
 10
10.4073808121
 20
7.1979649495
 30
0.0
 10
10.3916124583
 20
7.2010046225
 30
0.0
 10
10.3759589876
 20
7.2048075238
 30
0.0
 10
10.360457831
 20
7.2093646047
 30
0.0
 10
10.345146393
 20
7.2146648156
 30
0.0
 10
10.330061507
 20
7.2206953844
 30
0.0
 10
10.3152394843
 20
7.2274417567
 30
0.0
 10
10.3007159973
 20
7.2348876683
 30
0.0
 10
10.2865260013
 20
7.24301518
 30
0.0
 10
10.2727036528
 20
7.2518047198
 30
0.0
 10
10.2592822217
 20
7.2612351203
 30
0.0
 10
10.2462940034
 20
7.2712836606
 30
0.0
 10
10.2337702549
 20
7.2819261429
 30
0.0
 10
10.2217411185
 20
7.2931369459
 30
0.0
 10
10.2102355518
 20
7.3048890861
 30
0.0
 10
10.1992812585
 20
7.3171542813
 30
0.0
 10
10.1889046012
 20
7.329903001
 30
0.0
 10
10.1791305568
 20
7.343104557
 30
0.0
 10
10.1699826583
 20
7.3567271758
 30
0.0
 10
10.1614829378
 20
7.3707380734
 30
0.0
 10
10.1536518786
 20
7.3851035347
 30
0.0
 10
10.1465083432
 20
7.3997889819
 30
0.0
 10
10.1400695365
 20
7.4147590655
 30
0.0
 10
10.134350977
 20
7.4299777539
 30
0.0
 10
10.1293664563
 20
7.4454084169
 30
0.0
 10
10.1251280098
 20
7.4610139131
 30
0.0
 10
10.1216458753
 20
7.4767566747
 30
0.0
 10
10.1189284554
 20
7.4925987973
 30
0.0
 10
10.1169823225
 20
7.508502137
 30
0.0
 10
10.1158121985
 20
7.5244283988
 30
0.0
 10
10.1154209441
 20
7.5403392275
 30
0.0
 10
10.115809551
 20
7.5561962982
 30
0.0
 10
10.1169771102
 20
7.5719614103
 30
0.0
 10
10.1189208417
 20
7.5875965809
 30
0.0
 10
10.1216361011
 20
7.6030641338
 30
0.0
 10
10.1251163878
 20
7.6183267896
 30
0.0
 10
10.1293533649
 20
7.6333477529
 30
0.0
 10
10.1343368514
 20
7.6480908087
 30
0.0
 10
10.1400548589
 20
7.6625204101
 30
0.0
 10
10.1464936321
 20
7.6766017593
 30
0.0
 10
10.1536376773
 20
7.6903008922
 30
0.0
 10
10.1614698019
 20
7.7035847581
 30
0.0
 10
10.1699711427
 20
7.7164213067
 30
0.0
 10
10.1791212025
 20
7.728779576
 30
0.0
 10
10.1888979228
 20
7.7406297533
 30
0.0
 10
10.1992777319
 20
7.75194325
 30
0.0
 10
10.210235603
 20
7.7626927697
 30
0.0
 10
10.221745113
 20
7.7728523739
 30
0.0
 10
10.2337784889
 20
7.7823975686
 30
0.0
 10
10.2463066968
 20
7.7913053438
 30
0.0
 10
10.2592995123
 20
7.7995542277
 30
0.0
 10
10.2727255929
 20
7.8071243392
 30
0.0
 10
10.2865525552
 20
7.8139974305
 30
0.0
 10
10.3007470419
 20
7.8201569562
 30
0.0
 10
10.3152748117
 20
7.8255881011
 30
0.0
 10
10.3301008282
 20
7.8302778059
 30
0.0
 10
10.3451893433
 20
7.8342147963
 30
0.0
 10
10.3605039759
 20
7.8373896065
 30
0.0
 10
10.3760078335
 20
7.8397946341
 30
0.0
 10
10.3916634556
 20
7.8414240857
 30
0.0
 10
10.407433383
 20
7.8422741793
 30
0.0
 10
10.4232789603
 20
7.8423427729
 30
0.0
 10
10.4338510137
 20
7.841868249
 30
0.0
 10
10.4391360912
 20
7.8415017277
 30
0.0
  0
SPLINE
  5
3A2
100
AcDbEntity
  8
0
100
AcDbSpline
 62
7
  6
CONTINUOUS
 70
0
 71
3
 72
39
 73
35
 74
0
 42
0.0000001
 43
0.0000001
 44
0.0000000001
 40
0.0
 40
0.0
 40
0.0
 40
0.0
 40
0.0311450424
 40
0.062443103
 40
0.093888348
 40
0.1254709887
 40
0.1571788844
 40
0.1889972605
 40
0.2209091753
 40
0.252895844
 40
0.2849370233
 40
0.3170114137
 40
0.3490970737
 40
0.3811718446
 40
0.413213777
 40
0.4452015562
 40
0.4771149179
 40
0.5089350501
 40
0.540644973
 40
0.572229893
 40
0.6036775227
 40
0.6349783628
 40
0.666125934
 40
0.6971169547
 40
0.7279514582
 40
0.7586328418
 40
0.7891678433
 40
0.8195664429
 40
0.8498416839
 40
0.8800094159
 40
0.9100879624
 40
0.9400977195
 40
0.9700606952
 40
1.0
 40
1.0
 40
1.0
 40
1.0
 10
10.4481947503
 20
7.2368887849
 30
0.0
 10
10.4411186437
 20
7.2373795146
 30
0.0
 10
10.4269623185
 20
7.238881324
 30
0.0
 10
10.4058994543
 20
7.2426644461
 30
0.0
 10
10.385062195
 20
7.2479634402
 30
0.0
 10
10.3645630694
 20
7.254749844
 30
0.0
 10
10.3445109899
 20
7.262987262
 30
0.0
 10
10.325012918
 20
7.2726316458
 30
0.0
 10
10.3061727282
 20
7.2836314594
 30
0.0
 10
10.2880908098
 20
7.2959279662
 30
0.0
 10
10.2708635001
 20
7.3094555475
 30
0.0
 10
10.2545825915
 20
7.3241420539
 30
0.0
 10
10.2393348454
 20
7.3399091859
 30
0.0
 10
10.2252015355
 20
7.3566729061
 30
0.0
 10
10.2122580219
 20
7.3743438839
 30
0.0
 10
10.200573337
 20
7.3928279554
 30
0.0
 10
10.1902098286
 20
7.4120266284
 30
0.0
 10
10.1812228352
 20
7.4318376045
 30
0.0
 10
10.1736603913
 20
7.4521553153
 30
0.0
 10
10.1675629713
 20
7.4728714769
 30
0.0
 10
10.1629632749
 20
7.4938756595
 30
0.0
 10
10.159886033
 20
7.5150558635
 30
0.0
 10
10.1583478757
 20
7.5362991139
 30
0.0
 10
10.1583572463
 20
7.5574920558
 30
0.0
 10
10.1599143453
 20
7.5785215516
 30
0.0
 10
10.1630111174
 20
7.5992752798
 30
0.0
 10
10.1676312837
 20
7.6196423298
 30
0.0
 10
10.1737504029
 20
7.639513801
 30
0.0
 10
10.1813359777
 20
7.6587833824
 30
0.0
 10
10.1903476666
 20
7.6773479608
 30
0.0
 10
10.2007373476
 20
7.6951080494
 30
0.0
 10
10.2124498767
 20
7.7119688327
 30
0.0
 10
10.2254214857
 20
7.7278388312
 30
0.0
 10
10.2348665216
 20
7.7377057974
 30
0.0
 10
10.2397707709
 20
7.7424429186
 30
0.0
  0
SPLINE
  5
3A3
100
AcDbEntity
  8
0
100
AcDbSpline
 62
7
  6
CONTINUOUS
 70
0
 71
3
 72
42
 73
38
 74
0
 42
0.0000001
 43
0.0000001
 44
0.0000000001
 40
0.0
 40
0.0
 40
0.0
 40
0.0
 40
0.030950188
 40
0.0464774893
 40
0.0620372708
 40
0.0932494662
 40
0.124584051
 40
0.1560327876
 40
0.1875856277
 40
0.2192309696
 40
0.2509558177
 40
0.2827459956
 40
0.3145863606
 40
0.3464610324
 40
0.3783536282
 40
0.4102475033
 40
0.4421259943
 40
0.4739726627
 40
0.5057715355
 40
0.5375073423
 40
0.5691657438
 40
0.6007335511
 40
0.632198932
 40
0.663551602
 40
0.694782997
 40
0.7258864241
 40
0.7568571881
 40
0.7876926912
 40
0.8183925009
 40
0.8489583864
 40
0.8641942749
 40
0.8793983571
 40
0.9097104691
 40
0.9399069839
 40
0.9549670886
 40
0.9700022758
 40
1.0
 40
1.0
 40
1.0
 40
1.0
 10
10.5946783551
 20
7.3967336821
 30
0.0
 10
10.5889125597
 20
7.3971335414
 30
0.0
 10
10.5802700123
 20
7.3980090243
 30
0.0
 10
10.5688104371
 20
7.3997171561
 30
0.0
 10
10.557361267
 20
7.401791076
 30
0.0
 10
10.5431363656
 20
7.4050603964
 30
0.0
 10
10.5262943262
 20
7.4100427471
 30
0.0
 10
10.5097288351
 20
7.4160683835
 30
0.0
 10
10.4935071854
 20
7.4231128298
 30
0.0
 10
10.4776947625
 20
7.4311475825
 30
0.0
 10
10.4623554322
 20
7.4401401342
 30
0.0
 10
10.44755111
 20
7.4500541262
 30
0.0
 10
10.4333415615
 20
7.4608494903
 30
0.0
 10
10.4197841498
 20
7.4724826106
 30
0.0
 10
10.4069336096
 20
7.484906499
 30
0.0
 10
10.3948418273
 20
7.4980709829
 30
0.0
 10
10.3835576331
 20
7.5119229071
 30
0.0
 10
10.3731266051
 20
7.5264063465
 30
0.0
 10
10.3635908867
 20
7.54146283
 30
0.0
 10
10.3549890172
 20
7.5570315748
 30
0.0
 10
10.3473557772
 20
7.5730497294
 30
0.0
 10
10.3407220479
 20
7.5894526253
 30
0.0
 10
10.3351146871
 20
7.606174035
 30
0.0
 10
10.33055642
 20
7.6231464379
 30
0.0
 10
10.3270657463
 20
7.6403012864
 30
0.0
 10
10.3246568659
 20
7.657569294
 30
0.0
 10
10.3233396112
 20
7.6748806595
 30
0.0
 10
10.323119438
 20
7.6921655436
 30
0.0
 10
10.323997274
 20
7.7093536156
 30
0.0
 10
10.3256429942
 20
7.7235553295
 30
0.0
 10
10.3275042736
 20
7.7347962608
 30
0.0
 10
10.3297213908
 20
7.7459241532
 30
0.0
 10
10.3331629454
 20
7.7596486285
 30
0.0
 10
10.3374936194
 20
7.7730909073
 30
0.0
 10
10.3414768486
 20
7.7836237101
 30
0.0
 10
10.3457942943
 20
7.7939832891
 30
0.0
 10
10.349417847
 20
7.8015812219
 30
0.0
 10
10.3519981485
 20
7.8065533433
 30
0.0
  0
SPLINE
  5
3A4
100
AcDbEntity
  8
0
100
AcDbSpline
 62
7
  6
CONTINUOUS
 70
0
 71
3
 72
86
 73
82
 74
0
 42
0.0000001
 43
0.0000001
 44
0.0000000001
 40
0.0
 40
0.0
 40
0.0
 40
0.0
 40
0.0027164229
 40
0.0054532199
 40
0.0082302803
 40
0.0110665652
 40
0.0139797601
 40
0.0169860612
 40
0.0201000083
 40
0.0233345154
 40
0.0267008552
 40
0.0302087911
 40
0.0338666949
 40
0.0376816386
 40
0.0416596027
 40
0.0458055094
 40
0.0501234214
 40
0.0546165986
 40
0.0592875859
 40
0.0641383491
 40
0.0691702497
 40
0.0743842108
 40
0.0797806815
 40
0.0853597253
 40
0.0911210701
 40
0.0970640767
 40
0.1094907819
 40
0.1226299857
 40
0.1364676026
 40
0.1509863633
 40
0.166166208
 40
0.1819846021
 40
0.1984167887
 40
0.2154360082
 40
0.2330136911
 40
0.2511196222
 40
0.2697220861
 40
0.2887880011
 40
0.3082830385
 40
0.3281717446
 40
0.3484176561
 40
0.3689834073
 40
0.3898308346
 40
0.4109210783
 40
0.4322146819
 40
0.4536716962
 40
0.4969136001
 40
0.5403217884
 40
0.5835689461
 40
0.6050305436
 40
0.6263300209
 40
0.6474274143
 40
0.6682832501
 40
0.6888586484
 40
0.7091154216
 40
0.7290161766
 40
0.7485244187
 40
0.7676046599
 40
0.7862225346
 40
0.8043449193
 40
0.8219400528
 40
0.8389776685
 40
0.8554291414
 40
0.8712676506
 40
0.8864683732
 40
0.9010086996
 40
0.9148684857
 40
0.9280303658
 40
0.9404801448
 40
0.9464347977
 40
0.952207837
 40
0.9577986052
 40
0.9632068066
 40
0.9684324934
 40
0.9734760794
 40
0.9783384382
 40
0.9830208843
 40
0.9875254058
 40
0.9918546018
 40
0.9960115767
 40
1.0
 40
1.0
 40
1.0
 40
1.0
 10
12.240269799
 20
9.4072047505
 30
0.0
 10
12.241156328
 20
9.4071432695
 30
0.0
 10
12.2429314935
 20
9.406939588
 30
0.0
 10
12.2455716485
 20
9.4063946073
 30
0.0
 10
12.2481918447
 20
9.4056101868
 30
0.0
 10
12.2507902204
 20
9.4045871189
 30
0.0
 10
12.2533654427
 20
9.4033263235
 30
0.0
 10
12.2559161627
 20
9.4018287403
 30
0.0
 10
12.2584412475
 20
9.4000955007
 30
0.0
 10
12.2609395306
 20
9.3981276417
 30
0.0
 10
12.2634099638
 20
9.3959263539
 30
0.0
 10
12.2658514756
 20
9.3934928281
 30
0.0
 10
12.2682629773
 20
9.3908283182
 30
0.0
 10
12.2706434457
 20
9.3879342091
 30
0.0
 10
12.2729917446
 20
9.3848119035
 30
0.0
 10
12.2753068419
 20
9.3814629783
 30
0.0
 10
12.2775876194
 20
9.377889063
 30
0.0
 10
12.2798329924
 20
9.37409192
 30
0.0
 10
12.2820419037
 20
9.3700734297
 30
0.0
 10
12.284213231
 20
9.3658355574
 30
0.0
 10
12.2863459609
 20
9.3613804192
 30
0.0
 10
12.2884389957
 20
9.3567102086
 30
0.0
 10
12.2904913213
 20
9.3518272536
 30
0.0
 10
12.2925019114
 20
9.3467339857
 30
0.0
 10
12.2944697581
 20
9.3414329304
 30
0.0
 10
12.2970740562
 20
9.3339801394
 30
0.0
 10
12.30020583
 20
9.3241571347
 30
0.0
 10
12.303724658
 20
9.311754151
 30
0.0
 10
12.3070508093
 20
9.2985911745
 30
0.0
 10
12.3101775503
 20
9.2846945542
 30
0.0
 10
12.3130985241
 20
9.2700919728
 30
0.0
 10
12.3158077874
 20
9.2548126409
 30
0.0
 10
12.3182998269
 20
9.2388871539
 30
0.0
 10
12.3205695727
 20
9.2223474429
 30
0.0
 10
12.322612405
 20
9.2052266944
 30
0.0
 10
12.3244241652
 20
9.1875592792
 30
0.0
 10
12.326001164
 20
9.1693806798
 30
0.0
 10
12.3273401877
 20
9.1507274191
 30
0.0
 10
12.3284385099
 20
9.1316369852
 30
0.0
 10
12.3292938932
 20
9.1121477532
 30
0.0
 10
12.3299045914
 20
9.092298905
 30
0.0
 10
12.3302693532
 20
9.0721303492
 30
0.0
 10
12.3303874257
 20
9.0516826378
 30
0.0
 10
12.3302585479
 20
9.0309968996
 30
0.0
 10
12.329882987
 20
9.0101147011
 30
0.0
 10
12.3290521177
 20
8.981994626
 30
0.0
 10
12.3274023786
 20
8.9466633397
 30
0.0
 10
12.3244697818
 20
8.9042663365
 30
0.0
 10
12.3212391623
 20
8.8690411739
 30
0.0
 10
12.3181902242
 20
8.8410693644
 30
0.0
 10
12.3156867478
 20
8.8203285718
 30
0.0
 10
12.3129658984
 20
8.7998150774
 30
0.0
 10
12.3100331359
 20
8.7795701024
 30
0.0
 10
12.3068943829
 20
8.7596343647
 30
0.0
 10
12.3035559689
 20
8.7400479454
 30
0.0
 10
12.3000246294
 20
8.7208502229
 30
0.0
 10
12.2963074899
 20
8.7020797895
 30
0.0
 10
12.2924120514
 20
8.6837743736
 30
0.0
 10
12.2883461784
 20
8.6659707589
 30
0.0
 10
12.2841180843
 20
8.6487047087
 30
0.0
 10
12.2797363105
 20
8.6320108931
 30
0.0
 10
12.2752097105
 20
8.615922819
 30
0.0
 10
12.2705474314
 20
8.6004727588
 30
0.0
 10
12.2657588933
 20
8.5856916809
 30
0.0
 10
12.2608537735
 20
8.5716091714
 30
0.0
 10
12.255841983
 20
8.5582533879
 30
0.0
 10
12.2507336327
 20
8.5456509211
 30
0.0
 10
12.245539024
 20
8.5338269892
 30
0.0
 10
12.2410833527
 20
8.5245085291
 30
0.0
 10
12.2374767197
 20
8.517468742
 30
0.0
 10
12.2347968935
 20
8.5124765506
 30
0.0
 10
12.2321033339
 20
8.5076958998
 30
0.0
 10
12.2293973766
 20
8.5031291606
 30
0.0
 10
12.2266803802
 20
8.4987786018
 30
0.0
 10
12.223953666
 20
8.4946464052
 30
0.0
 10
12.2212186413
 20
8.4907346052
 30
0.0
 10
12.2184766004
 20
8.4870451521
 30
0.0
 10
12.2157288869
 20
8.483579827
 30
0.0
 10
12.2129767747
 20
8.4803403228
 30
0.0
 10
12.2102217402
 20
8.4773283985
 30
0.0
 10
12.2083458264
 20
8.475434593
 30
0.0
 10
12.2074073544
 20
8.4745280986
 30
0.0
  0
SPLINE
  5
3A5
100
AcDbEntity
  8
0
100
AcDbSpline
 62
7
  6
CONTINUOUS
 70
0
 71
3
 72
18
 73
14
 74
0
 42
0.0000001
 43
0.0000001
 44
0.0000000001
 40
0.0
 40
0.0
 40
0.0
 40
0.0
 40
0.1504686872
 40
0.2917143508
 40
0.4244422581
 40
0.4879097286
 40
0.549609416
 40
0.6682625881
 40
0.7817882869
 40
0.8371380068
 40
0.8918078217
 40
0.9460192903
 40
1.0
 40
1.0
 40
1.0
 40
1.0
 10
12.2074073544
 20
7.1801874147
 30
0.0
 10
12.2061634265
 20
7.1789858725
 30
0.0
 10
12.2036772725
 20
7.1767314351
 30
0.0
 10
12.1998277179
 20
7.1737271362
 30
0.0
 10
12.1965761268
 20
7.1716023307
 30
0.0
 10
12.1939832585
 20
7.1701634836
 30
0.0
 10
12.1914666741
 20
7.1689281766
 30
0.0
 10
12.1883201423
 20
7.1676799518
 30
0.0
 10
12.1851176433
 20
7.1668281505
 30
0.0
 10
12.182581168
 20
7.1664085408
 30
0.0
 10
12.1807012875
 20
7.1662223234
 30
0.0
 10
12.1788290135
 20
7.1661621714
 30
0.0
 10
12.1775851198
 20
7.1662061705
 30
0.0
 10
12.1769661591
 20
7.1662490978
 30
0.0
  0
SPLINE
  5
3A6
100
AcDbEntity
  8
0
100
AcDbSpline
 62
7
  6
CONTINUOUS
 70
0
 71
3
 72
42
 73
38
 74
0
 42
0.0000001
 43
0.0000001
 44
0.0000000001
 40
0.0
 40
0.0
 40
0.0
 40
0.0
 40
0.0309100383
 40
0.0464157567
 40
0.0619528783
 40
0.0931172307
 40
0.1244008752
 40
0.1557961623
 40
0.1872938863
 40
0.2188833608
 40
0.2505526092
 40
0.2822885335
 40
0.3140771077
 40
0.3459035758
 40
0.3777526591
 40
0.4096087676
 40
0.4414562147
 40
0.4732794328
 40
0.5050631881
 40
0.5367927913
 40
0.5684543039
 40
0.6000347367
 40
0.6315222388
 40
0.6629062738
 40
0.6941777833
 40
0.7253293315
 40
0.7563552321
 40
0.7872516525
 40
0.8180166935
 40
0.8486504427
 40
0.8639205349
 40
0.8791587573
 40
0.9095382227
 40
0.939798665
 40
0.9548886114
 40
0.9699519373
 40
1.0
 40
1.0
 40
1.0
 40
1.0
 10
10.5918392018
 20
7.3756386786
 30
0.0
 10
10.5858674351
 20
7.3760528221
 30
0.0
 10
10.576916029
 20
7.3769510272
 30
0.0
 10
10.5650438111
 20
7.3786923165
 30
0.0
 10
10.5531809621
 20
7.3808013022
 30
0.0
 10
10.5384367912
 20
7.3841182254
 30
0.0
 10
10.5209665634
 20
7.3891645659
 30
0.0
 10
10.5037661097
 20
7.3952619662
 30
0.0
 10
10.4869012123
 20
7.4023870953
 30
0.0
 10
10.4704358624
 20
7.4105128229
 30
0.0
 10
10.454432664
 20
7.4196081983
 30
0.0
 10
10.4389524254
 20
7.4296386044
 30
0.0
 10
10.4240539762
 20
7.440565878
 30
0.0
 10
10.4097939332
 20
7.452348458
 30
0.0
 10
10.3962264908
 20
7.4649415413
 30
0.0
 10
10.3834032151
 20
7.4782972525
 30
0.0
 10
10.3713728499
 20
7.4923648245
 30
0.0
 10
10.3601811327
 20
7.5070907903
 30
0.0
 10
10.349870622
 20
7.5224191846
 30
0.0
 10
10.3404805361
 20
7.538291755
 30
0.0
 10
10.3320466052
 20
7.5546481814
 30
0.0
 10
10.3246009357
 20
7.5714263034
 30
0.0
 10
10.3181718883
 20
7.5885623543
 30
0.0
 10
10.3127839706
 20
7.6059912021
 30
0.0
 10
10.3084577425
 20
7.6236465908
 30
0.0
 10
10.3052097393
 20
7.6414614042
 30
0.0
 10
10.3030523997
 20
7.6593678665
 30
0.0
 10
10.3019940449
 20
7.6772979896
 30
0.0
 10
10.3020387397
 20
7.6951831183
 30
0.0
 10
10.302996376
 20
7.7100105478
 30
0.0
 10
10.3043132999
 20
7.7217796909
 30
0.0
 10
10.3059919547
 20
7.7334529744
 30
0.0
 10
10.308769939
 20
7.7478933417
 30
0.0
 10
10.3124525569
 20
7.7621003955
 30
0.0
 10
10.3159296654
 20
7.7732735675
 30
0.0
 10
10.319750318
 20
7.784289989
 30
0.0
 10
10.3230114071
 20
7.7924035524
 30
0.0
 10
10.325355938
 20
7.797729527
 30
0.0
  0
SPLINE
  5
3A7
100
AcDbEntity
  8
0
100
AcDbSpline
 62
7
  6
CONTINUOUS
 70
0
 71
3
 72
21
 73
17
 74
0
 42
0.0000001
 43
0.0000001
 44
0.0000000001
 40
0.0
 40
0.0
 40
0.0
 40
0.0
 40
0.0490591678
 40
0.1005081866
 40
0.1542627484
 40
0.2102246022
 40
0.2682717707
 40
0.3282658175
 40
0.3900553198
 40
0.4534790876
 40
0.518369912
 40
0.5845586148
 40
0.6518776498
 40
0.720163914
 40
0.8590183433
 40
1.0
 40
1.0
 40
1.0
 40
1.0
 10
10.644236913
 20
7.6524306016
 30
0.0
 10
10.6431126065
 20
7.6544412465
 30
0.0
 10
10.6407760475
 20
7.6585419559
 30
0.0
 10
10.6371201704
 20
7.664795411
 30
0.0
 10
10.633254738
 20
7.6713015391
 30
0.0
 10
10.6292080652
 20
7.6780602756
 30
0.0
 10
10.6250101013
 20
7.6850699141
 30
0.0
 10
10.6206922726
 20
7.6923267187
 30
0.0
 10
10.6162869055
 20
7.6998251069
 30
0.0
 10
10.6118268228
 20
7.7075577652
 30
0.0
 10
10.6073448323
 20
7.7155157849
 30
0.0
 10
10.6028731984
 20
7.7236888324
 30
0.0
 10
10.5984432757
 20
7.7320654886
 30
0.0
 10
10.5926001142
 20
7.7435529064
 30
0.0
 10
10.5855745089
 20
7.7583169733
 30
0.0
 10
10.5804134138
 20
7.7704063263
 30
0.0
 10
10.5779526794
 20
7.7765519753
 30
0.0
  0
LINE
  5
3A8
100
AcDbEntity
  8
0
100
AcDbLine
 62
7
  6
CONTINUOUS
 10
10.6499481999
 20
7.6299112321
 11
10.644236913
 21
7.6524306016
  0
SPLINE
  5
3A9
100
AcDbEntity
  8
0
100
AcDbSpline
 62
7
  6
CONTINUOUS
 70
0
 71
3
 72
84
 73
80
 74
0
 42
0.0000001
 43
0.0000001
 44
0.0000000001
 40
0.0
 40
0.0
 40
0.0
 40
0.0
 40
0.0027164264
 40
0.0054532293
 40
0.008230295
 40
0.0110665896
 40
0.0139797932
 40
0.0169861044
 40
0.0201000661
 40
0.0233345812
 40
0.0267009392
 40
0.0302088856
 40
0.0338668056
 40
0.037681768
 40
0.0416597414
 40
0.0458056718
 40
0.050123593
 40
0.0546167913
 40
0.0592877975
 40
0.0641385717
 40
0.0691704988
 40
0.074384467
 40
0.0797809628
 40
0.0853600226
 40
0.0911213815
 40
0.0970644148
 40
0.1094911534
 40
0.122630387
 40
0.136468035
 40
0.1509868331
 40
0.1661667198
 40
0.1819851503
 40
0.1984173662
 40
0.2154366132
 40
0.2330143274
 40
0.2511202956
 40
0.2697227959
 40
0.2887887406
 40
0.3082838034
 40
0.3281725359
 40
0.3484184777
 40
0.3689842604
 40
0.3898317162
 40
0.4109219843
 40
0.4536719359
 40
0.4969138893
 40
0.5403221212
 40
0.5835693222
 40
0.6263297187
 40
0.6474271304
 40
0.6682829869
 40
0.6888584043
 40
0.7091151927
 40
0.7290159604
 40
0.748524216
 40
0.7676044742
 40
0.7862223676
 40
0.8043447661
 40
0.8219399096
 40
0.838977535
 40
0.8554290199
 40
0.8712675451
 40
0.8864682815
 40
0.9010086172
 40
0.9148684112
 40
0.9280303001
 40
0.9404800906
 40
0.946434749
 40
0.9522077946
 40
0.957798564
 40
0.9632067735
 40
0.9684324641
 40
0.9734760551
 40
0.9783384155
 40
0.983020862
 40
0.9875253935
 40
0.9918546029
 40
0.9960115831
 40
1.0
 40
1.0
 40
1.0
 40
1.0
 10
12.2378485497
 20
8.0441405091
 30
0.0
 10
12.238669755
 20
8.0440835554
 30
0.0
 10
12.2403141184
 20
8.0438948724
 30
0.0
 10
12.2427597297
 20
8.0433900199
 30
0.0
 10
12.2451868606
 20
8.042663397
 30
0.0
 10
12.2475937692
 20
8.0417156843
 30
0.0
 10
12.2499792374
 20
8.0405477796
 30
0.0
 10
12.2523420084
 20
8.0391605305
 30
0.0
 10
12.2546810236
 20
8.0375549789
 30
0.0
 10
12.2569952309
 20
8.0357321183
 30
0.0
 10
12.2592836168
 20
8.033693004
 30
0.0
 10
12.2615452333
 20
8.0314387849
 30
0.0
 10
12.2637790396
 20
8.0289705902
 30
0.0
 10
12.2659840953
 20
8.0262897139
 30
0.0
 10
12.2681593711
 20
8.0233974675
 30
0.0
 10
12.2703038634
 20
8.0202952842
 30
0.0
 10
12.2724165939
 20
8.016984705
 30
0.0
 10
12.2744965071
 20
8.0134673351
 30
0.0
 10
12.2765426512
 20
8.0097449318
 30
0.0
 10
12.2785539923
 20
8.0058193157
 30
0.0
 10
12.2805295548
 20
8.0016924353
 30
0.0
 10
12.2824683787
 20
7.9973663402
 30
0.0
 10
12.2843694646
 20
7.9928431681
 30
0.0
 10
12.2862319062
 20
7.9881251849
 30
0.0
 10
12.288054754
 20
7.9832147244
 30
0.0
 10
12.290467141
 20
7.97631107
 30
0.0
 10
12.2933681523
 20
7.9672118536
 30
0.0
 10
12.2966276912
 20
7.9557227626
 30
0.0
 10
12.2997087529
 20
7.9435296791
 30
0.0
 10
12.3026050942
 20
7.9306570063
 30
0.0
 10
12.3053108271
 20
7.9171303896
 30
0.0
 10
12.3078204523
 20
7.9029768926
 30
0.0
 10
12.3101288628
 20
7.8882248581
 30
0.0
 10
12.3122313599
 20
7.8729038608
 30
0.0
 10
12.3141236622
 20
7.8570446376
 30
0.0
 10
12.3158019146
 20
7.8406790261
 30
0.0
 10
12.3172627038
 20
7.8238398982
 30
0.0
 10
12.3185030567
 20
7.8065610887
 30
0.0
 10
12.3195204467
 20
7.7888773224
 30
0.0
 10
12.3203127985
 20
7.7708241442
 30
0.0
 10
12.3208784923
 20
7.7524378447
 30
0.0
 10
12.321216365
 20
7.7337554009
 30
0.0
 10
12.3213257423
 20
7.7148143507
 30
0.0
 10
12.321165785
 20
7.6891508364
 30
0.0
 10
12.3203896904
 20
7.6567070747
 30
0.0
 10
12.3185606407
 20
7.6175334957
 30
0.0
 10
12.3158441113
 20
7.5782602739
 30
0.0
 10
12.3122619331
 20
7.5392031921
 30
0.0
 10
12.3085632957
 20
7.5069546399
 30
0.0
 10
12.3051878726
 20
7.4815056253
 30
0.0
 10
12.3024711962
 20
7.4627523829
 30
0.0
 10
12.2995637239
 20
7.4442856126
 30
0.0
 10
12.2964712953
 20
7.4261424186
 30
0.0
 10
12.2932001581
 20
7.4083592832
 30
0.0
 10
12.2897569122
 20
7.3909719508
 30
0.0
 10
12.2861485079
 20
7.3740153685
 30
0.0
 10
12.2823822289
 20
7.3575236115
 30
0.0
 10
12.278465679
 20
7.3415298111
 30
0.0
 10
12.2744067727
 20
7.3260660828
 30
0.0
 10
12.270213712
 20
7.311163462
 30
0.0
 10
12.2658949706
 20
7.2968518407
 30
0.0
 10
12.2614592763
 20
7.2831599051
 30
0.0
 10
12.2569155891
 20
7.2701150646
 30
0.0
 10
12.2522730897
 20
7.2577434042
 30
0.0
 10
12.247541146
 20
7.2460695533
 30
0.0
 10
12.2427292999
 20
7.2351168698
 30
0.0
 10
12.2386019447
 20
7.2264850401
 30
0.0
 10
12.2352610646
 20
7.2199639794
 30
0.0
 10
12.2327787037
 20
7.2153396365
 30
0.0
 10
12.2302836142
 20
7.2109112499
 30
0.0
 10
12.2277770486
 20
7.2066810088
 30
0.0
 10
12.2252602495
 20
7.2026510222
 30
0.0
 10
12.2227344543
 20
7.1988233064
 30
0.0
 10
12.2202009619
 20
7.1951997477
 30
0.0
 10
12.2176609663
 20
7.1917821531
 30
0.0
 10
12.2151157167
 20
7.1885721664
 30
0.0
 10
12.212566388
 20
7.1855713628
 30
0.0
 10
12.210014358
 20
7.1827813713
 30
0.0
 10
12.208276673
 20
7.181027112
 30
0.0
 10
12.2074073544
 20
7.1801874147
 30
0.0
  0
SPLINE
  5
3AA
100
AcDbEntity
  8
0
100
AcDbSpline
 62
7
  6
CONTINUOUS
 70
0
 71
3
 72
71
 73
67
 74
0
 42
0.0000001
 43
0.0000001
 44
0.0000000001
 40
0.0
 40
0.0
 40
0.0
 40
0.0
 40
0.0156216999
 40
0.0311907601
 40
0.0467067152
 40
0.0621710784
 40
0.077585053
 40
0.0929506336
 40
0.1082702315
 40
0.1235467316
 40
0.138783465
 40
0.1539841696
 40
0.1691529587
 40
0.1842942792
 40
0.1994128685
 40
0.2145137046
 40
0.2296019546
 40
0.2446829194
 40
0.2597619773
 40
0.2748445271
 40
0.2899359306
 40
0.3050414555
 40
0.3201662189
 40
0.3353151329
 40
0.3504928541
 40
0.3657037359
 40
0.3809517858
 40
0.396240626
 40
0.4115734582
 40
0.4269530343
 40
0.4423816324
 40
0.4578610404
 40
0.473392542
 40
0.4889769091
 40
0.5046143984
 40
0.5203047543
 40
0.5360472179
 40
0.5518405389
 40
0.567682992
 40
0.5835723963
 40
0.5995061391
 40
0.6154812041
 40
0.6314942032
 40
0.6475414081
 40
0.6636187857
 40
0.6797220347
 40
0.695846626
 40
0.7119878442
 40
0.7281408286
 40
0.7443006159
 40
0.7604621826
 40
0.7766204897
 40
0.7927705272
 40
0.8089073579
 40
0.8250261591
 40
0.8411222652
 40
0.85719121
 40
0.8732287678
 40
0.8892309905
 40
0.9051942484
 40
0.9211152564
 40
0.9369911048
 40
0.9528193679
 40
0.9685977669
 40
0.9843253049
 40
1.0
 40
1.0
 40
1.0
 40
1.0
 10
10.4391360912
 20
7.1943313857
 30
0.0
 10
10.4444211688
 20
7.1939648643
 30
0.0
 10
10.4549932222
 20
7.1934903405
 30
0.0
 10
10.4708387995
 20
7.1935589341
 30
0.0
 10
10.4866087269
 20
7.1944090277
 30
0.0
 10
10.502264349
 20
7.1960384792
 30
0.0
 10
10.5177682065
 20
7.1984435069
 30
0.0
 10
10.5330828392
 20
7.2016183171
 30
0.0
 10
10.5481713542
 20
7.2055553075
 30
0.0
 10
10.5629973708
 20
7.2102450122
 30
0.0
 10
10.5775251406
 20
7.2156761572
 30
0.0
 10
10.5917196273
 20
7.2218356828
 30
0.0
 10
10.6055465896
 20
7.2287087742
 30
0.0
 10
10.6189726701
 20
7.2362788857
 30
0.0
 10
10.6319654857
 20
7.2445277695
 30
0.0
 10
10.6444936936
 20
7.2534355448
 30
0.0
 10
10.6565270695
 20
7.2629807395
 30
0.0
 10
10.6680365795
 20
7.2731403437
 30
0.0
 10
10.6789944506
 20
7.2838898633
 30
0.0
 10
10.6893742597
 20
7.2952033601
 30
0.0
 10
10.6991509799
 20
7.3070535374
 30
0.0
 10
10.7083010397
 20
7.3194118066
 30
0.0
 10
10.7168023806
 20
7.3322483553
 30
0.0
 10
10.7246345051
 20
7.3455322211
 30
0.0
 10
10.7317785503
 20
7.359231354
 30
0.0
 10
10.7382173236
 20
7.3733127032
 30
0.0
 10
10.7439353311
 20
7.3877423047
 30
0.0
 10
10.7489188176
 20
7.4024853605
 30
0.0
 10
10.7531557947
 20
7.4175063238
 30
0.0
 10
10.7566360814
 20
7.4327689796
 30
0.0
 10
10.7593513408
 20
7.4482365325
 30
0.0
 10
10.7612950723
 20
7.4638717031
 30
0.0
 10
10.7624626315
 20
7.4796368152
 30
0.0
 10
10.7628512383
 20
7.4954938859
 30
0.0
 10
10.7624599839
 20
7.5114047146
 30
0.0
 10
10.76128986
 20
7.5273309764
 30
0.0
 10
10.7593437271
 20
7.543234316
 30
0.0
 10
10.7566263072
 20
7.5590764386
 30
0.0
 10
10.7531441727
 20
7.5748192003
 30
0.0
 10
10.7489057262
 20
7.5904246965
 30
0.0
 10
10.7439212055
 20
7.6058553595
 30
0.0
 10
10.738202646
 20
7.6210740479
 30
0.0
 10
10.7317638393
 20
7.6360441315
 30
0.0
 10
10.7246203039
 20
7.6507295787
 30
0.0
 10
10.7167892447
 20
7.66509504
 30
0.0
 10
10.7082895242
 20
7.6791059376
 30
0.0
 10
10.6991416257
 20
7.6927285564
 30
0.0
 10
10.6893675813
 20
7.7059301123
 30
0.0
 10
10.6789909239
 20
7.7186788321
 30
0.0
 10
10.6680366306
 20
7.7309440273
 30
0.0
 10
10.656531064
 20
7.7426961675
 30
0.0
 10
10.6445019276
 20
7.7539069704
 30
0.0
 10
10.6319781791
 20
7.7645494528
 30
0.0
 10
10.6189899608
 20
7.7745979931
 30
0.0
 10
10.6055685297
 20
7.7840283936
 30
0.0
 10
10.5917461812
 20
7.7928179333
 30
0.0
 10
10.5775561851
 20
7.8009454451
 30
0.0
 10
10.5630326981
 20
7.8083913567
 30
0.0
 10
10.5482106755
 20
7.815137729
 30
0.0
 10
10.5331257895
 20
7.8211682978
 30
0.0
 10
10.5178143514
 20
7.8264685087
 30
0.0
 10
10.5023131948
 20
7.8310255896
 30
0.0
 10
10.4866597242
 20
7.8348284909
 30
0.0
 10
10.4708913704
 20
7.8378681638
 30
0.0
 10
10.4550467439
 20
7.8401370352
 30
0.0
 10
10.4444390979
 20
7.8411339629
 30
0.0
 10
10.4391360912
 20
7.8415017277
 30
0.0
  0
SPLINE
  5
3AB
100
AcDbEntity
  8
0
100
AcDbSpline
 62
7
  6
CONTINUOUS
 70
0
 71
3
 72
62
 73
58
 74
0
 42
0.0000001
 43
0.0000001
 44
0.0000000001
 40
0.0
 40
0.0
 40
0.0
 40
0.0
 40
0.0082489206
 40
0.0160246221
 40
0.0233634771
 40
0.0303108478
 40
0.0369219422
 40
0.0432623294
 40
0.0463556364
 40
0.0494103258
 40
0.0524370832
 40
0.0554469316
 40
0.0584510923
 40
0.0614608576
 40
0.0644874523
 40
0.0675418923
 40
0.0706348737
 40
0.0737766601
 40
0.0802425573
 40
0.0870130053
 40
0.0941484028
 40
0.1016989858
 40
0.1097055145
 40
0.1182003745
 40
0.1272088017
 40
0.1367498552
 40
0.1468375252
 40
0.1574814315
 40
0.1686875356
 40
0.1804587368
 40
0.1927951892
 40
0.2056948176
 40
0.219153478
 40
0.2331652573
 40
0.2477226991
 40
0.2628168568
 40
0.2784375774
 40
0.2945734837
 40
0.3112121464
 40
0.3283401791
 40
0.3459432266
 40
0.3640061589
 40
0.3825130067
 40
0.4207903261
 40
0.460634682
 40
0.5018952114
 40
0.5444128098
 40
0.5880212799
 40
0.6325484203
 40
0.6778170771
 40
0.7236461561
 40
0.7698516149
 40
0.8162474444
 40
0.8626466242
 40
0.9088622395
 40
0.9547078426
 40
1.0
 40
1.0
 40
1.0
 40
1.0
 10
9.9463727154
 20
10.3547057019
 30
0.0
 10
9.9450416269
 20
10.3559444256
 30
0.0
 10
9.9425287396
 20
10.3584312731
 30
0.0
 10
9.9391324534
 20
10.3623089633
 30
0.0
 10
9.9362283009
 20
10.3662169861
 30
0.0
 10
9.9338203076
 20
10.370152034
 30
0.0
 10
9.9319124604
 20
10.3741103254
 30
0.0
 10
9.9307329129
 20
10.377453606
 30
0.0
 10
9.9300522348
 20
10.3801224054
 30
0.0
 10
9.9296720524
 20
10.3821100765
 30
0.0
 10
9.9294183958
 20
10.3840992584
 30
0.0
 10
9.9292912974
 20
10.3860893908
 30
0.0
 10
9.9292908149
 20
10.388079837
 30
0.0
 10
9.929416986
 20
10.3900699721
 30
0.0
 10
9.9296697421
 20
10.3920591716
 30
0.0
 10
9.9300489364
 20
10.3940468124
 30
0.0
 10
9.9305544706
 20
10.3960323477
 30
0.0
 10
9.9314046138
 20
10.3987011887
 30
0.0
 10
9.9327966044
 20
10.4020409846
 30
0.0
 10
9.934953155
 20
10.4059880135
 30
0.0
 10
9.9376078755
 20
10.4099100987
 30
0.0
 10
9.9407568155
 20
10.4138034952
 30
0.0
 10
9.9443960499
 20
10.4176651321
 30
0.0
 10
9.9485214553
 20
10.4214916944
 30
0.0
 10
9.9531286598
 20
10.4252797066
 30
0.0
 10
9.9582128084
 20
10.429025649
 30
0.0
 10
9.9637686439
 20
10.4327258099
 30
0.0
 10
9.9697903673
 20
10.4363764713
 30
0.0
 10
9.9762716716
 20
10.439973883
 30
0.0
 10
9.9832057511
 20
10.4435142396
 30
0.0
 10
9.9905852549
 20
10.4469938407
 30
0.0
 10
9.9984023587
 20
10.4504089349
 30
0.0
 10
10.0066487249
 20
10.4537558781
 30
0.0
 10
10.0153155395
 20
10.4570310752
 30
0.0
 10
10.024393526
 20
10.4602309621
 30
0.0
 10
10.0338729368
 20
10.4633521193
 30
0.0
 10
10.0437435931
 20
10.4663911336
 30
0.0
 10
10.0539948752
 20
10.4693447328
 30
0.0
 10
10.0646157477
 20
10.4722097187
 30
0.0
 10
10.0755947733
 20
10.4749829647
 30
0.0
 10
10.086920112
 20
10.4776614915
 30
0.0
 10
10.0985795692
 20
10.4802423874
 30
0.0
 10
10.1147358997
 20
10.483587203
 30
0.0
 10
10.1356771452
 20
10.4874922712
 30
0.0
 10
10.1616567291
 20
10.4916966144
 30
0.0
 10
10.1886489256
 20
10.4954517739
 30
0.0
 10
10.2165372463
 20
10.4987413698
 30
0.0
 10
10.2452014671
 20
10.5015510234
 30
0.0
 10
10.27451791
 20
10.5038684763
 30
0.0
 10
10.3043600637
 20
10.5056836171
 30
0.0
 10
10.3345991203
 20
10.5069885287
 30
0.0
 10
10.3651045426
 20
10.5077775195
 30
0.0
 10
10.395744631
 20
10.5080471463
 30
0.0
 10
10.4263871093
 20
10.5077962417
 30
0.0
 10
10.4568996516
 20
10.507025889
 30
0.0
 10
10.4871504877
 20
10.5057394732
 30
0.0
 10
10.50720492
 20
10.5045325909
 30
0.0
 10
10.5171647232
 20
10.5038418762
 30
0.0
  0
SPLINE
  5
3AC
100
AcDbEntity
  8
0
100
AcDbSpline
 62
7
  6
CONTINUOUS
 70
0
 71
3
 72
23
 73
19
 74
0
 42
0.0000001
 43
0.0000001
 44
0.0000000001
 40
0.0
 40
0.0
 40
0.0
 40
0.0
 40
0.0638614315
 40
0.1275032443
 40
0.1909230334
 40
0.2541276741
 40
0.3171224002
 40
0.379915926
 40
0.4425188184
 40
0.5049436646
 40
0.5672049931
 40
0.6293190762
 40
0.6913037914
 40
0.7531784355
 40
0.8149635211
 40
0.876680553
 40
0.9383517903
 40
1.0
 40
1.0
 40
1.0
 40
1.0
 10
10.4481947503
 20
7.2368887849
 30
0.0
 10
10.4530318781
 20
7.236553329
 30
0.0
 10
10.4627079717
 20
7.2361242313
 30
0.0
 10
10.4772096022
 20
7.2362106383
 30
0.0
 10
10.4916389219
 20
7.2370280972
 30
0.0
 10
10.5059589639
 20
7.2385744421
 30
0.0
 10
10.5201339497
 20
7.2408459352
 30
0.0
 10
10.5341280948
 20
7.2438368622
 30
0.0
 10
10.5479061849
 20
7.2475397284
 30
0.0
 10
10.5614335152
 20
7.2519452392
 30
0.0
 10
10.5746760109
 20
7.2570423318
 30
0.0
 10
10.5876003058
 20
7.2628182093
 30
0.0
 10
10.6001738245
 20
7.2692583595
 30
0.0
 10
10.6123648947
 20
7.2763465747
 30
0.0
 10
10.6241427694
 20
7.2840649839
 30
0.0
 10
10.6354778663
 20
7.2923942578
 30
0.0
 10
10.6463412367
 20
7.3013130487
 30
0.0
 10
10.6532521047
 20
7.3076382849
 30
0.0
 10
10.6566187298
 20
7.3108901814
 30
0.0
  0
SPLINE
  5
3AD
100
AcDbEntity
  8
0
100
AcDbSpline
 62
7
  6
CONTINUOUS
 70
0
 71
3
 72
53
 73
49
 74
0
 42
0.0000001
 43
0.0000001
 44
0.0000000001
 40
0.0
 40
0.0
 40
0.0
 40
0.0
 40
0.0055575358
 40
0.011177956
 40
0.0169218929
 40
0.0228457725
 40
0.029000554
 40
0.035430949
 40
0.0421754072
 40
0.049266247
 40
0.0567303126
 40
0.0645894103
 40
0.0728611106
 40
0.0815591386
 40
0.090694095
 40
0.1002736988
 40
0.1103033831
 40
0.1207863988
 40
0.1317243026
 40
0.1431169581
 40
0.1549629446
 40
0.1672594886
 40
0.1800028167
 40
0.1931880432
 40
0.2068094834
 40
0.2208605141
 40
0.2353338579
 40
0.2502214288
 40
0.2655145942
 40
0.2812040135
 40
0.3137310911
 40
0.3477184295
 40
0.3830735502
 40
0.4196973681
 40
0.4574849444
 40
0.496326165
 40
0.5361063668
 40
0.5767069288
 40
0.6180058371
 40
0.6598782328
 40
0.7021969483
 40
0.7448330351
 40
0.7876562859
 40
0.8305357554
 40
0.8733402739
 40
0.9159389748
 40
0.958201786
 40
1.0
 40
1.0
 40
1.0
 40
1.0
 10
9.9657963239
 20
10.3518356424
 30
0.0
 10
9.9657963198
 20
10.3529006156
 30
0.0
 10
9.9659155864
 20
10.3550444641
 30
0.0
 10
9.9664506987
 20
10.3582488044
 30
0.0
 10
9.9673412875
 20
10.3614459819
 30
0.0
 10
9.9685854926
 20
10.3646323252
 30
0.0
 10
9.9701813836
 20
10.367805203
 30
0.0
 10
9.9721267049
 20
10.3709622421
 30
0.0
 10
9.9744193415
 20
10.374101209
 30
0.0
 10
9.9770569563
 20
10.3772200606
 30
0.0
 10
9.9800372685
 20
10.3803166224
 30
0.0
 10
9.9833577125
 20
10.3833888181
 30
0.0
 10
9.9870156465
 20
10.3864343765
 30
0.0
 10
9.9910080937
 20
10.3894511217
 30
0.0
 10
9.9953319173
 20
10.3924366976
 30
0.0
 10
9.9999836348
 20
10.395388866
 30
0.0
 10
10.0049595628
 20
10.3983052381
 30
0.0
 10
10.0102556841
 20
10.4011835621
 30
0.0
 10
10.0158677628
 20
10.4040214618
 30
0.0
 10
10.0217912486
 20
10.4068167088
 30
0.0
 10
10.0280213664
 20
10.4095669705
 30
0.0
 10
10.0345530471
 20
10.4122700672
 30
0.0
 10
10.0413809961
 20
10.4149237307
 30
0.0
 10
10.0484996444
 20
10.4175258469
 30
0.0
 10
10.0559032004
 20
10.4200742265
 30
0.0
 10
10.0635856156
 20
10.4225668335
 30
0.0
 10
10.0715406249
 20
10.425001569
 30
0.0
 10
10.0797617203
 20
10.4273764803
 30
0.0
 10
10.088242195
 20
10.4296895858
 30
0.0
 10
10.1000280076
 20
10.4327253114
 30
0.0
 10
10.1153615938
 20
10.4363422435
 30
0.0
 10
10.1344670111
 20
10.4403569003
 30
0.0
 10
10.154429842
 20
10.4440830452
 30
0.0
 10
10.1751847352
 20
10.447508365
 30
0.0
 10
10.1966638561
 20
10.4506215171
 30
0.0
 10
10.2187969142
 20
10.4534122056
 30
0.0
 10
10.2415114611
 20
10.4558712027
 30
0.0
 10
10.2647331176
 20
10.4579903814
 30
0.0
 10
10.2883858278
 20
10.4597627403
 30
0.0
 10
10.3123921106
 20
10.4611824253
 30
0.0
 10
10.3366733171
 20
10.4622447486
 30
0.0
 10
10.361149891
 20
10.4629462027
 30
0.0
 10
10.3857416309
 20
10.4632844723
 30
0.0
 10
10.4103679573
 20
10.4632584405
 30
0.0
 10
10.43494817
 20
10.4628681938
 30
0.0
 10
10.4594017462
 20
10.4621150187
 30
0.0
 10
10.4836484822
 20
10.4610014067
 30
0.0
 10
10.4997273608
 20
10.4600147009
 30
0.0
 10
10.5077178298
 20
10.45946056
 30
0.0
  0
SPLINE
  5
3AE
100
AcDbEntity
  8
0
100
AcDbSpline
 62
7
  6
CONTINUOUS
 70
0
 71
3
 72
11
 73
7
 74
0
 42
0.0000001
 43
0.0000001
 44
0.0000000001
 40
0.0
 40
0.0
 40
0.0
 40
0.0
 40
0.2370409923
 40
0.483163378
 40
0.7377131975
 40
1.0
 40
1.0
 40
1.0
 40
1.0
 10
10.1189690168
 20
9.8077566302
 30
0.0
 10
10.1252015086
 20
9.8091152397
 30
0.0
 10
10.1379387628
 20
9.8117326583
 30
0.0
 10
10.1574678344
 20
9.8153069852
 30
0.0
 10
10.1777355334
 20
9.818595552
 30
0.0
 10
10.1915048528
 20
9.820562966
 30
0.0
 10
10.1985006588
 20
9.8214995901
 30
0.0
  0
SPLINE
  5
3AF
100
AcDbEntity
  8
0
100
AcDbSpline
 62
7
  6
CONTINUOUS
 70
0
 71
3
 72
55
 73
51
 74
0
 42
0.0000001
 43
0.0000001
 44
0.0000000001
 40
0.0
 40
0.0
 40
0.0
 40
0.0
 40
0.0528987923
 40
0.1050252447
 40
0.1562616162
 40
0.2064949455
 40
0.2556141677
 40
0.3035122725
 40
0.3500860349
 40
0.3952367117
 40
0.4388704592
 40
0.4808988931
 40
0.5212396918
 40
0.5598172953
 40
0.5965637214
 40
0.6314195591
 40
0.6481232272
 40
0.6643365125
 40
0.6800550856
 40
0.6952753162
 40
0.7099946017
 40
0.7242112683
 40
0.7379247876
 40
0.7511358803
 40
0.7638465891
 40
0.776060606
 40
0.7877832444
 40
0.7990219431
 40
0.8097862519
 40
0.8200884083
 40
0.8299434749
 40
0.8393698842
 40
0.8483897976
 40
0.8570295393
 40
0.8732865042
 40
0.8809916405
 40
0.8884709119
 40
0.8957755199
 40
0.9029607929
 40
0.9100851613
 40
0.9172086928
 40
0.9243914839
 40
0.931692015
 40
0.9391657507
 40
0.9468639634
 40
0.9631035924
 40
0.9717332373
 40
0.9807422332
 40
0.990157064
 40
1.0
 40
1.0
 40
1.0
 40
1.0
 10
10.5171647232
 20
10.5038418762
 30
0.0
 10
10.5245416196
 20
10.5033302867
 30
0.0
 10
10.5391810463
 20
10.5022154458
 30
0.0
 10
10.5609368403
 20
10.5002522133
 30
0.0
 10
10.5822915228
 20
10.498013822
 30
0.0
 10
10.6031929257
 20
10.4955058032
 30
0.0
 10
10.6235902413
 20
10.4927342802
 30
0.0
 10
10.6434337635
 20
10.48970607
 30
0.0
 10
10.6626752062
 20
10.4864285984
 30
0.0
 10
10.6812677489
 20
10.4829099156
 30
0.0
 10
10.6991661802
 20
10.4791586624
 30
0.0
 10
10.7163270126
 20
10.4751840538
 30
0.0
 10
10.7327085792
 20
10.4709958538
 30
0.0
 10
10.7482712216
 20
10.4666043505
 30
0.0
 10
10.7629771401
 20
10.4620203203
 30
0.0
 10
10.7746486551
 20
10.4579941604
 30
0.0
 10
10.7835232791
 20
10.4546771955
 30
0.0
 10
10.7898485882
 20
10.452183686
 30
0.0
 10
10.7959341645
 20
10.4496506232
 30
0.0
 10
10.8017763211
 20
10.4470794784
 30
0.0
 10
10.8073715305
 20
10.4444718528
 30
0.0
 10
10.8127164094
 20
10.4418293047
 30
0.0
 10
10.817807734
 20
10.4391534317
 30
0.0
 10
10.8226424481
 20
10.4364458612
 30
0.0
 10
10.8272176329
 20
10.4337081779
 30
0.0
 10
10.8315305705
 20
10.430942062
 30
0.0
 10
10.835578652
 20
10.4281490831
 30
0.0
 10
10.8393594959
 20
10.4253309394
 30
0.0
 10
10.8428708123
 20
10.4224891899
 30
0.0
 10
10.846110528
 20
10.4196255109
 30
0.0
 10
10.8490766916
 20
10.416741425
 30
0.0
 10
10.8517674244
 20
10.4138386579
 30
0.0
 10
10.854181315
 20
10.4109183048
 30
0.0
 10
10.8569710798
 20
10.4070825734
 30
0.0
 10
10.8592835236
 20
10.4031328157
 30
0.0
 10
10.8610349468
 20
10.399097115
 30
0.0
 10
10.8620411765
 20
10.3961145471
 30
0.0
 10
10.862761992
 20
10.3931250075
 30
0.0
 10
10.8631964778
 20
10.3901305065
 30
0.0
 10
10.8633440369
 20
10.387133483
 30
0.0
 10
10.8632044421
 20
10.3841364221
 30
0.0
 10
10.8627778723
 20
10.3811418238
 30
0.0
 10
10.8620650185
 20
10.3781521059
 30
0.0
 10
10.8610666338
 20
10.3751693299
 30
0.0
 10
10.8593260368
 20
10.3711334745
 30
0.0
 10
10.8570239785
 20
10.3671831322
 30
0.0
 10
10.8542442233
 20
10.3633467569
 30
0.0
 10
10.8518380288
 20
10.3604259249
 30
0.0
 10
10.8491550033
 20
10.3575227116
 30
0.0
 10
10.8472265828
 20
10.3556424989
 30
0.0
 10
10.8462193347
 20
10.3547051526
 30
0.0
  0
SPLINE
  5
3B0
100
AcDbEntity
  8
0
100
AcDbSpline
 62
7
  6
CONTINUOUS
 70
0
 71
3
 72
11
 73
7
 74
0
 42
0.0000001
 43
0.0000001
 44
0.0000000001
 40
0.0
 40
0.0
 40
0.0
 40
0.0
 40
0.2354524032
 40
0.4811253927
 40
0.7362479765
 40
1.0
 40
1.0
 40
1.0
 40
1.0
 10
10.1198779926
 20
9.8035163396
 30
0.0
 10
10.1263554118
 20
9.8049974128
 30
0.0
 10
10.1396329282
 20
9.8078445311
 30
0.0
 10
10.1600496242
 20
9.8117081552
 30
0.0
 10
10.1813352789
 20
9.8152453899
 30
0.0
 10
10.1958281037
 20
9.8173446013
 30
0.0
 10
10.2032043979
 20
9.8183404732
 30
0.0
  0
SPLINE
  5
3B1
100
AcDbEntity
  8
0
100
AcDbSpline
 62
7
  6
CONTINUOUS
 70
0
 71
3
 72
15
 73
11
 74
0
 42
0.0000001
 43
0.0000001
 44
0.0000000001
 40
0.0
 40
0.0
 40
0.0
 40
0.0
 40
0.126591165
 40
0.2527058305
 40
0.3783441182
 40
0.5035201729
 40
0.628248939
 40
0.7525528762
 40
0.8764591152
 40
1.0
 40
1.0
 40
1.0
 40
1.0
 10
10.5918392018
 20
7.3756386786
 30
0.0
 10
10.5971085303
 20
7.3752732495
 30
0.0
 10
10.6076494655
 20
7.3748293002
 30
0.0
 10
10.6234420889
 20
7.3750302368
 30
0.0
 10
10.639141195
 20
7.3760987266
 30
0.0
 10
10.6546991655
 20
7.3780315469
 30
0.0
 10
10.6700697152
 20
7.3808230501
 30
0.0
 10
10.685206983
 20
7.3844649711
 30
0.0
 10
10.700065108
 20
7.3889462517
 30
0.0
 10
10.7097697119
 20
7.3924899541
 30
0.0
 10
10.7145588144
 20
7.3943966676
 30
0.0
  0
SPLINE
  5
3B2
100
AcDbEntity
  8
0
100
AcDbSpline
 62
7
  6
CONTINUOUS
 70
0
 71
3
 72
14
 73
10
 74
0
 42
0.0000001
 43
0.0000001
 44
0.0000000001
 40
0.0
 40
0.0
 40
0.0
 40
0.0
 40
0.1147918705
 40
0.2327886164
 40
0.3538536222
 40
0.4778439774
 40
0.6046107492
 40
0.7339999581
 40
1.0
 40
1.0
 40
1.0
 40
1.0
 10
10.1251334424
 20
9.7835227744
 30
0.0
 10
10.1289573733
 20
9.7844069945
 30
0.0
 10
10.1367270734
 20
9.7861354798
 30
0.0
 10
10.1485766993
 20
9.788579204
 30
0.0
 10
10.1607699439
 20
9.7909071983
 30
0.0
 10
10.1732898599
 20
9.793116195
 30
0.0
 10
10.1861191407
 20
9.7952031637
 30
0.0
 10
10.2037761328
 20
9.7978433917
 30
0.0
 10
10.2171828141
 20
9.7995932468
 30
0.0
 10
10.2262138039
 20
9.8006684044
 30
0.0
  0
SPLINE
  5
3B3
100
AcDbEntity
  8
0
100
AcDbSpline
 62
7
  6
CONTINUOUS
 70
0
 71
3
 72
11
 73
7
 74
0
 42
0.0000001
 43
0.0000001
 44
0.0000000001
 40
0.0
 40
0.0
 40
0.0
 40
0.0
 40
0.2424176063
 40
0.4903999537
 40
0.7431873754
 40
1.0
 40
1.0
 40
1.0
 40
1.0
 10
10.2157467547
 20
9.6662575985
 30
0.0
 10
10.2228810583
 20
9.667171577
 30
0.0
 10
10.2373308997
 20
9.6688865094
 30
0.0
 10
10.2592708875
 20
9.6711027321
 30
0.0
 10
10.2816704728
 20
9.6729870707
 30
0.0
 10
10.2967565326
 20
9.6740107723
 30
0.0
 10
10.3043625633
 20
9.6744672377
 30
0.0
  0
SPLINE
  5
3B4
100
AcDbEntity
  8
0
100
AcDbSpline
 62
7
  6
CONTINUOUS
 70
0
 71
3
 72
30
 73
26
 74
0
 42
0.0000001
 43
0.0000001
 44
0.0000000001
 40
0.0
 40
0.0
 40
0.0
 40
0.0
 40
0.0170712432
 40
0.0351130672
 40
0.0541467415
 40
0.0741886729
 40
0.0952495172
 40
0.1173339049
 40
0.1404421546
 40
0.1645707271
 40
0.1897126914
 40
0.2158580406
 40
0.2429940295
 40
0.2711055708
 40
0.3001752403
 40
0.3301837634
 40
0.3929286672
 40
0.4591531906
 40
0.5286444133
 40
0.6011690199
 40
0.6764759093
 40
0.7542983245
 40
0.8343562222
 40
0.9163571346
 40
1.0
 40
1.0
 40
1.0
 40
1.0
 10
10.6499481999
 20
7.6299112321
 30
0.0
 10
10.6491137651
 20
7.6306252783
 30
0.0
 10
10.6473545877
 20
7.632044395
 30
0.0
 10
10.64453563
 20
7.6340928733
 30
0.0
 10
10.6414674721
 20
7.6361170052
 30
0.0
 10
10.6381533202
 20
7.6381147803
 30
0.0
 10
10.6345963331
 20
7.6400843058
 30
0.0
 10
10.6308000087
 20
7.6420236791
 30
0.0
 10
10.6267680902
 20
7.6439309519
 30
0.0
 10
10.6225045806
 20
7.6458042441
 30
0.0
 10
10.6180137113
 20
7.647641681
 30
0.0
 10
10.6132999544
 20
7.6494414156
 30
0.0
 10
10.6083680169
 20
7.6512016511
 30
0.0
 10
10.6032228285
 20
7.6529205919
 30
0.0
 10
10.5978695355
 20
7.6545965511
 30
0.0
 10
10.5903493337
 20
7.6568043896
 30
0.0
 10
10.5804640005
 20
7.6594353044
 30
0.0
 10
10.5680319964
 20
7.6623504219
 30
0.0
 10
10.5549099333
 20
7.6650567512
 30
0.0
 10
10.5411504756
 20
7.6675432877
 30
0.0
 10
10.5268087511
 20
7.6697998954
 30
0.0
 10
10.5119423235
 20
7.6718173953
 30
0.0
 10
10.4966109034
 20
7.673587571
 30
0.0
 10
10.4808761283
 20
7.675103236
 30
0.0
 10
10.4702514224
 20
7.6759327142
 30
0.0
 10
10.4648833131
 20
7.6763049939
 30
0.0
  0
SPLINE
  5
3B5
100
AcDbEntity
  8
0
100
AcDbSpline
 62
4
  6
CONTINUOUS
 70
0
 71
3
 72
605
 73
601
 74
0
 42
0.0000001
 43
0.0000001
 44
0.0000000001
 40
0.0
 40
0.0
 40
0.0
 40
0.0
 40
0.0078125
 40
0.015625
 40
0.0234375
 40
0.03125
 40
0.03515625
 40
0.0390625
 40
0.04296875
 40
0.046875
 40
0.05078125
 40
0.052734375
 40
0.0546875
 40
0.056640625
 40
0.0576171875
 40
0.05859375
 40
0.0595703125
 40
0.060546875
 40
0.0610351562
 40
0.0615234375
 40
0.0617675781
 40
0.0620117188
 40
0.0622558594
 40
0.0623779297
 40
0.0624389648
 40
0.0625
 40
0.0625610352
 40
0.0626220703
 40
0.0627441406
 40
0.0629882812
 40
0.0632324219
 40
0.0634765625
 40
0.0639648438
 40
0.064453125
 40
0.0654296875
 40
0.06640625
 40
0.0673828125
 40
0.068359375
 40
0.0703125
 40
0.072265625
 40
0.07421875
 40
0.078125
 40
0.08203125
 40
0.0859375
 40
0.09375
 40
0.1015625
 40
0.10546875
 40
0.109375
 40
0.11328125
 40
0.115234375
 40
0.1171875
 40
0.119140625
 40
0.1201171875
 40
0.12109375
 40
0.1220703125
 40
0.123046875
 40
0.1235351562
 40
0.1240234375
 40
0.1242675781
 40
0.1245117188
 40
0.1247558594
 40
0.1248779297
 40
0.1249389648
 40
0.125
 40
0.1250610352
 40
0.1251220703
 40
0.1252441406
 40
0.1254882812
 40
0.1257324219
 40
0.1259765625
 40
0.1264648438
 40
0.126953125
 40
0.1279296875
 40
0.12890625
 40
0.1298828125
 40
0.130859375
 40
0.1328125
 40
0.134765625
 40
0.13671875
 40
0.140625
 40
0.14453125
 40
0.1484375
 40
0.15625
 40
0.1640625
 40
0.16796875
 40
0.171875
 40
0.17578125
 40
0.177734375
 40
0.1796875
 40
0.181640625
 40
0.1826171875
 40
0.18359375
 40
0.1845703125
 40
0.185546875
 40
0.1860351562
 40
0.1865234375
 40
0.1867675781
 40
0.1870117188
 40
0.1872558594
 40
0.1873779297
 40
0.1874389648
 40
0.1875
 40
0.1875610352
 40
0.1876220703
 40
0.1877441406
 40
0.1879882812
 40
0.1882324219
 40
0.1884765625
 40
0.1889648438
 40
0.189453125
 40
0.1904296875
 40
0.19140625
 40
0.1923828125
 40
0.193359375
 40
0.1953125
 40
0.197265625
 40
0.19921875
 40
0.203125
 40
0.20703125
 40
0.2109375
 40
0.21484375
 40
0.21875
 40
0.22265625
 40
0.2265625
 40
0.23046875
 40
0.234375
 40
0.23828125
 40
0.240234375
 40
0.2421875
 40
0.244140625
 40
0.2451171875
 40
0.24609375
 40
0.2470703125
 40
0.248046875
 40
0.2485351562
 40
0.2490234375
 40
0.2492675781
 40
0.2495117188
 40
0.2497558594
 40
0.2498779297
 40
0.2499389648
 40
0.25
 40
0.2500610352
 40
0.2501220703
 40
0.2502441406
 40
0.2504882812
 40
0.2507324219
 40
0.2509765625
 40
0.2514648438
 40
0.251953125
 40
0.2529296875
 40
0.25390625
 40
0.2548828125
 40
0.255859375
 40
0.2578125
 40
0.259765625
 40
0.26171875
 40
0.265625
 40
0.26953125
 40
0.2734375
 40
0.28125
 40
0.2890625
 40
0.29296875
 40
0.296875
 40
0.30078125
 40
0.302734375
 40
0.3046875
 40
0.306640625
 40
0.3076171875
 40
0.30859375
 40
0.3095703125
 40
0.310546875
 40
0.3110351562
 40
0.3115234375
 40
0.3117675781
 40
0.3120117188
 40
0.3122558594
 40
0.3123779297
 40
0.3124389648
 40
0.3125
 40
0.3125610352
 40
0.3126220703
 40
0.3127441406
 40
0.3129882812
 40
0.3132324219
 40
0.3134765625
 40
0.3139648438
 40
0.314453125
 40
0.3154296875
 40
0.31640625
 40
0.3173828125
 40
0.318359375
 40
0.3203125
 40
0.322265625
 40
0.32421875
 40
0.328125
 40
0.33203125
 40
0.3359375
 40
0.34375
 40
0.3515625
 40
0.35546875
 40
0.359375
 40
0.36328125
 40
0.365234375
 40
0.3671875
 40
0.369140625
 40
0.3701171875
 40
0.37109375
 40
0.3720703125
 40
0.373046875
 40
0.3735351562
 40
0.3740234375
 40
0.3742675781
 40
0.3745117188
 40
0.3747558594
 40
0.3748779297
 40
0.3749389648
 40
0.375
 40
0.3750610352
 40
0.3751220703
 40
0.3752441406
 40
0.3754882812
 40
0.3757324219
 40
0.3759765625
 40
0.3764648438
 40
0.376953125
 40
0.3779296875
 40
0.37890625
 40
0.3798828125
 40
0.380859375
 40
0.3828125
 40
0.384765625
 40
0.38671875
 40
0.390625
 40
0.39453125
 40
0.3984375
 40
0.40625
 40
0.41015625
 40
0.4140625
 40
0.41796875
 40
0.421875
 40
0.42578125
 40
0.427734375
 40
0.4296875
 40
0.431640625
 40
0.4326171875
 40
0.43359375
 40
0.4345703125
 40
0.435546875
 40
0.4360351562
 40
0.4365234375
 40
0.4367675781
 40
0.4370117188
 40
0.4372558594
 40
0.4373779297
 40
0.4374389648
 40
0.4375
 40
0.4375610352
 40
0.4376220703
 40
0.4377441406
 40
0.4379882812
 40
0.4382324219
 40
0.4384765625
 40
0.4389648438
 40
0.439453125
 40
0.4404296875
 40
0.44140625
 40
0.4423828125
 40
0.443359375
 40
0.4453125
 40
0.447265625
 40
0.44921875
 40
0.453125
 40
0.45703125
 40
0.4609375
 40
0.46484375
 40
0.46875
 40
0.47265625
 40
0.4765625
 40
0.48046875
 40
0.484375
 40
0.48828125
 40
0.490234375
 40
0.4921875
 40
0.494140625
 40
0.4951171875
 40
0.49609375
 40
0.4970703125
 40
0.498046875
 40
0.4985351562
 40
0.4990234375
 40
0.4992675781
 40
0.4995117188
 40
0.4997558594
 40
0.4998779297
 40
0.4999389648
 40
0.5
 40
0.5000610352
 40
0.5001220703
 40
0.5002441406
 40
0.5004882812
 40
0.5007324219
 40
0.5009765625
 40
0.5014648438
 40
0.501953125
 40
0.5029296875
 40
0.50390625
 40
0.5048828125
 40
0.505859375
 40
0.5078125
 40
0.509765625
 40
0.51171875
 40
0.515625
 40
0.51953125
 40
0.5234375
 40
0.52734375
 40
0.53125
 40
0.5390625
 40
0.54296875
 40
0.546875
 40
0.55078125
 40
0.552734375
 40
0.5546875
 40
0.556640625
 40
0.5576171875
 40
0.55859375
 40
0.5595703125
 40
0.560546875
 40
0.5610351562
 40
0.5615234375
 40
0.5617675781
 40
0.5620117188
 40
0.5622558594
 40
0.5623779297
 40
0.5624389648
 40
0.5625
 40
0.5625610352
 40
0.5626220703
 40
0.5627441406
 40
0.5629882812
 40
0.5632324219
 40
0.5634765625
 40
0.5639648438
 40
0.564453125
 40
0.5654296875
 40
0.56640625
 40
0.5673828125
 40
0.568359375
 40
0.5703125
 40
0.572265625
 40
0.57421875
 40
0.578125
 40
0.58203125
 40
0.5859375
 40
0.58984375
 40
0.59375
 40
0.59765625
 40
0.6015625
 40
0.60546875
 40
0.609375
 40
0.61328125
 40
0.615234375
 40
0.6171875
 40
0.619140625
 40
0.6201171875
 40
0.62109375
 40
0.6220703125
 40
0.623046875
 40
0.6235351562
 40
0.6240234375
 40
0.6242675781
 40
0.6245117188
 40
0.6247558594
 40
0.6248779297
 40
0.6249389648
 40
0.625
 40
0.6250610352
 40
0.6251220703
 40
0.6252441406
 40
0.6254882812
 40
0.6257324219
 40
0.6259765625
 40
0.6264648438
 40
0.626953125
 40
0.6279296875
 40
0.62890625
 40
0.6298828125
 40
0.630859375
 40
0.6328125
 40
0.634765625
 40
0.63671875
 40
0.640625
 40
0.64453125
 40
0.6484375
 40
0.65234375
 40
0.65625
 40
0.66015625
 40
0.6640625
 40
0.66796875
 40
0.671875
 40
0.67578125
 40
0.677734375
 40
0.6796875
 40
0.681640625
 40
0.6826171875
 40
0.68359375
 40
0.6845703125
 40
0.685546875
 40
0.6860351562
 40
0.6865234375
 40
0.6867675781
 40
0.6870117188
 40
0.6872558594
 40
0.6873779297
 40
0.6874389648
 40
0.6875
 40
0.6875610352
 40
0.6876220703
 40
0.6877441406
 40
0.6879882812
 40
0.6882324219
 40
0.6884765625
 40
0.6889648438
 40
0.689453125
 40
0.6904296875
 40
0.69140625
 40
0.6923828125
 40
0.693359375
 40
0.6953125
 40
0.697265625
 40
0.69921875
 40
0.703125
 40
0.70703125
 40
0.7109375
 40
0.71484375
 40
0.71875
 40
0.72265625
 40
0.7265625
 40
0.73046875
 40
0.734375
 40
0.73828125
 40
0.740234375
 40
0.7421875
 40
0.744140625
 40
0.7451171875
 40
0.74609375
 40
0.7470703125
 40
0.748046875
 40
0.7485351562
 40
0.7490234375
 40
0.7492675781
 40
0.7495117188
 40
0.7497558594
 40
0.7498779297
 40
0.7499389648
 40
0.75
 40
0.7500610352
 40
0.7501220703
 40
0.7502441406
 40
0.7504882812
 40
0.7507324219
 40
0.7509765625
 40
0.7514648438
 40
0.751953125
 40
0.7529296875
 40
0.75390625
 40
0.7548828125
 40
0.755859375
 40
0.7578125
 40
0.759765625
 40
0.76171875
 40
0.765625
 40
0.76953125
 40
0.7734375
 40
0.77734375
 40
0.78125
 40
0.78515625
 40
0.7890625
 40
0.79296875
 40
0.796875
 40
0.80078125
 40
0.802734375
 40
0.8046875
 40
0.806640625
 40
0.8076171875
 40
0.80859375
 40
0.8095703125
 40
0.810546875
 40
0.8110351562
 40
0.8115234375
 40
0.8117675781
 40
0.8120117188
 40
0.8122558594
 40
0.8123779297
 40
0.8124389648
 40
0.8125
 40
0.8125610352
 40
0.8126220703
 40
0.8127441406
 40
0.8129882812
 40
0.8132324219
 40
0.8134765625
 40
0.8139648438
 40
0.814453125
 40
0.8154296875
 40
0.81640625
 40
0.8173828125
 40
0.818359375
 40
0.8203125
 40
0.822265625
 40
0.82421875
 40
0.828125
 40
0.83203125
 40
0.8359375
 40
0.83984375
 40
0.84375
 40
0.84765625
 40
0.8515625
 40
0.85546875
 40
0.859375
 40
0.86328125
 40
0.865234375
 40
0.8671875
 40
0.869140625
 40
0.8701171875
 40
0.87109375
 40
0.8720703125
 40
0.873046875
 40
0.8735351562
 40
0.8740234375
 40
0.8742675781
 40
0.8745117188
 40
0.8747558594
 40
0.8748779297
 40
0.8749389648
 40
0.875
 40
0.8750610352
 40
0.8751220703
 40
0.8752441406
 40
0.8754882812
 40
0.8757324219
 40
0.8759765625
 40
0.8764648438
 40
0.876953125
 40
0.8779296875
 40
0.87890625
 40
0.8798828125
 40
0.880859375
 40
0.8828125
 40
0.884765625
 40
0.88671875
 40
0.890625
 40
0.89453125
 40
0.8984375
 40
0.90234375
 40
0.90625
 40
0.91015625
 40
0.9140625
 40
0.91796875
 40
0.921875
 40
0.92578125
 40
0.927734375
 40
0.9296875
 40
0.931640625
 40
0.9326171875
 40
0.93359375
 40
0.9345703125
 40
0.935546875
 40
0.9360351562
 40
0.9365234375
 40
0.9367675781
 40
0.9370117188
 40
0.9372558594
 40
0.9373779297
 40
0.9374389648
 40
0.9375
 40
0.9375610352
 40
0.9376220703
 40
0.9377441406
 40
0.9379882812
 40
0.9382324219
 40
0.9384765625
 40
0.9389648438
 40
0.939453125
 40
0.9404296875
 40
0.94140625
 40
0.9423828125
 40
0.943359375
 40
0.9453125
 40
0.947265625
 40
0.94921875
 40
0.953125
 40
0.95703125
 40
0.9609375
 40
0.96484375
 40
0.96875
 40
0.9765625
 40
0.984375
 40
0.9921875
 40
1.0
 40
1.0
 40
1.0
 40
1.0
 10
10.691931221
 20
9.6211349612
 30
0.0
 10
10.6920592259
 20
9.6198205894
 30
0.0
 10
10.6923152356
 20
9.6171918459
 30
0.0
 10
10.6926992502
 20
9.6132487306
 30
0.0
 10
10.6930832648
 20
9.6093056153
 30
0.0
 10
10.693403277
 20
9.6060196859
 30
0.0
 10
10.6936592867
 20
9.6033909424
 30
0.0
 10
10.693851294
 20
9.6014193847
 30
0.0
 10
10.6940433013
 20
9.5994478271
 30
0.0
 10
10.6942353086
 20
9.5974762694
 30
0.0
 10
10.6943953147
 20
9.5958333047
 30
0.0
 10
10.6945233195
 20
9.594518933
 30
0.0
 10
10.6946193232
 20
9.5935331541
 30
0.0
 10
10.6946993262
 20
9.5927116718
 30
0.0
 10
10.6947633287
 20
9.5920544859
 30
0.0
 10
10.6948113303
 20
9.5915615965
 30
0.0
 10
10.6948593329
 20
9.5910687072
 30
0.0
 10
10.694899332
 20
9.5906579657
 30
0.0
 10
10.6949313381
 20
9.5903293734
 30
0.0
 10
10.6949513265
 20
9.5901240012
 30
0.0
 10
10.6949673525
 20
9.589959708
 30
0.0
 10
10.6949792753
 20
9.5898364756
 30
0.0
 10
10.6949895188
 20
9.5897338216
 30
0.0
 10
10.6949960851
 20
9.5896618861
 30
0.0
 10
10.6950007805
 20
9.5896209014
 30
0.0
 10
10.6950016448
 20
9.589589821
 30
0.0
 10
10.6950126667
 20
9.5895600475
 30
0.0
 10
10.6950238195
 20
9.5895198936
 30
0.0
 10
10.6950449876
 20
9.5894498367
 30
0.0
 10
10.6950743647
 20
9.5893496443
 30
0.0
 10
10.6951099867
 20
9.589229461
 30
0.0
 10
10.6951573536
 20
9.5890691999
 30
0.0
 10
10.6952166065
 20
9.5888688793
 30
0.0
 10
10.6953113864
 20
9.5885483632
 30
0.0
 10
10.6954298697
 20
9.5881477191
 30
0.0
 10
10.695572046
 20
9.5876669457
 30
0.0
 10
10.6957142233
 20
9.5871861724
 30
0.0
 10
10.6959037927
 20
9.5865451414
 30
0.0
 10
10.6961407546
 20
9.5857438526
 30
0.0
 10
10.6964251087
 20
9.584782306
 30
0.0
 10
10.6968042477
 20
9.5835002439
 30
0.0
 10
10.6972781713
 20
9.5818976663
 30
0.0
 10
10.6978468797
 20
9.5799745732
 30
0.0
 10
10.6986051576
 20
9.577410449
 30
0.0
 10
10.6995530049
 20
9.5742052938
 30
0.0
 10
10.7005008522
 20
9.5710001386
 30
0.0
 10
10.7012591301
 20
9.5684360144
 30
0.0
 10
10.7018278385
 20
9.5665129213
 30
0.0
 10
10.7023017621
 20
9.5649103436
 30
0.0
 10
10.702680901
 20
9.5636282816
 30
0.0
 10
10.7029652553
 20
9.562666735
 30
0.0
 10
10.7032022171
 20
9.5618654462
 30
0.0
 10
10.7033917866
 20
9.5612244152
 30
0.0
 10
10.7035339635
 20
9.5607436418
 30
0.0
 10
10.7036761413
 20
9.5602628688
 30
0.0
 10
10.70379462
 20
9.5598622236
 30
0.0
 10
10.7038894093
 20
9.5595417096
 30
0.0
 10
10.7039486381
 20
9.5593413834
 30
0.0
 10
10.7039960544
 20
9.5591811339
 30
0.0
 10
10.7040315255
 20
9.5590609155
 30
0.0
 10
10.7040613748
 20
9.5589608329
 30
0.0
 10
10.7040816999
 20
9.5588905799
 30
0.0
 10
10.7040942034
 20
9.5588507402
 30
0.0
 10
10.7041010764
 20
9.5588200017
 30
0.0
 10
10.704117523
 20
9.5587925453
 30
0.0
 10
10.7041361124
 20
9.5587547919
 30
0.0
 10
10.7041701997
 20
9.5586892569
 30
0.0
 10
10.7042180824
 20
9.5585953565
 30
0.0
 10
10.7042758899
 20
9.5584827954
 30
0.0
 10
10.7043528449
 20
9.5583326723
 30
0.0
 10
10.7044490803
 20
9.5581450327
 30
0.0
 10
10.7046030336
 20
9.5578448014
 30
0.0
 10
10.7047954833
 20
9.557469515
 30
0.0
 10
10.7050264194
 20
9.5570191701
 30
0.0
 10
10.7052573565
 20
9.5565688255
 30
0.0
 10
10.7055652723
 20
9.5559683659
 30
0.0
 10
10.7059501672
 20
9.5552177915
 30
0.0
 10
10.7064120409
 20
9.5543171022
 30
0.0
 10
10.7070278726
 20
9.5531161832
 30
0.0
 10
10.7077976623
 20
9.5516150343
 30
0.0
 10
10.7087214098
 20
9.5498136557
 30
0.0
 10
10.7099530733
 20
9.5474118176
 30
0.0
 10
10.7114926525
 20
9.54440952
 30
0.0
 10
10.7130322318
 20
9.5414072223
 30
0.0
 10
10.7142638952
 20
9.5390053842
 30
0.0
 10
10.7151876428
 20
9.5372040056
 30
0.0
 10
10.7159574324
 20
9.5357028567
 30
0.0
 10
10.7165732641
 20
9.5345019377
 30
0.0
 10
10.7170351379
 20
9.5336012484
 30
0.0
 10
10.7174200327
 20
9.5328506739
 30
0.0
 10
10.7177279486
 20
9.5322502144
 30
0.0
 10
10.7179588853
 20
9.5317998697
 30
0.0
 10
10.7181898229
 20
9.5313495254
 30
0.0
 10
10.7183822681
 20
9.5309742371
 30
0.0
 10
10.7185362305
 20
9.5306740095
 30
0.0
 10
10.7186324429
 20
9.5304863605
 30
0.0
 10
10.7187094451
 20
9.5303362567
 30
0.0
 10
10.7187671082
 20
9.5302236368
 30
0.0
 10
10.7188154425
 20
9.5301299206
 30
0.0
 10
10.7188487237
 20
9.5300640568
 30
0.0
 10
10.7188686047
 20
9.5300268302
 30
0.0
 10
10.7188810839
 20
9.5299977556
 30
0.0
 10
10.7189028577
 20
9.5299730945
 30
0.0
 10
10.7189286473
 20
9.5299386736
 30
0.0
 10
10.7189752897
 20
9.5298791544
 30
0.0
 10
10.719041132
 20
9.5297937518
 30
0.0
 10
10.7191204808
 20
9.5296914293
 30
0.0
 10
10.7192261611
 20
9.5295549431
 30
0.0
 10
10.7193583018
 20
9.5293843547
 30
0.0
 10
10.7195697045
 20
9.5291114024
 30
0.0
 10
10.7198339656
 20
9.5287702157
 30
0.0
 10
10.7201510756
 20
9.5283607902
 30
0.0
 10
10.7204681864
 20
9.527951365
 30
0.0
 10
10.7208910006
 20
9.5274054647
 30
0.0
 10
10.7214195184
 20
9.5267230893
 30
0.0
 10
10.7220537398
 20
9.5259042388
 30
0.0
 10
10.7228993682
 20
9.5248124382
 30
0.0
 10
10.7239564038
 20
9.5234476874
 30
0.0
 10
10.7252248465
 20
9.5218099864
 30
0.0
 10
10.7264932892
 20
9.5201722855
 30
0.0
 10
10.7277617319
 20
9.5185345845
 30
0.0
 10
10.7290301746
 20
9.5168968836
 30
0.0
 10
10.7302986174
 20
9.5152591826
 30
0.0
 10
10.7315670601
 20
9.5136214817
 30
0.0
 10
10.7328355028
 20
9.5119837807
 30
0.0
 10
10.7341039455
 20
9.5103460798
 30
0.0
 10
10.7351609811
 20
9.508981329
 30
0.0
 10
10.7360066095
 20
9.5078895283
 30
0.0
 10
10.7366408309
 20
9.5070706779
 30
0.0
 10
10.7371693487
 20
9.5063883024
 30
0.0
 10
10.7375921629
 20
9.5058424022
 30
0.0
 10
10.7379092735
 20
9.5054329768
 30
0.0
 10
10.7382263847
 20
9.5050235521
 30
0.0
 10
10.738490642
 20
9.5046823626
 30
0.0
 10
10.7387020523
 20
9.5044094161
 30
0.0
 10
10.7388341735
 20
9.504238813
 30
0.0
 10
10.7389398941
 20
9.504102357
 30
0.0
 10
10.7390191198
 20
9.5039999423
 30
0.0
 10
10.7390853471
 20
9.5039148282
 30
0.0
 10
10.7391313021
 20
9.5038547939
 30
0.0
 10
10.7391581932
 20
9.5038211982
 30
0.0
 10
10.7391765837
 20
9.5037940026
 30
0.0
 10
10.7392017697
 20
9.5037744472
 30
0.0
 10
10.7392329807
 20
9.5037457084
 30
0.0
 10
10.7392887043
 20
9.503696657
 30
0.0
 10
10.7393677321
 20
9.5036259346
 30
0.0
 10
10.7394628125
 20
9.5035413455
 30
0.0
 10
10.7395895002
 20
9.503428463
 30
0.0
 10
10.7397478893
 20
9.5032873931
 30
0.0
 10
10.7400012953
 20
9.5030616627
 30
0.0
 10
10.7403180585
 20
9.5027795061
 30
0.0
 10
10.740698172
 20
9.5024409154
 30
0.0
 10
10.741078286
 20
9.5021023255
 30
0.0
 10
10.7415851046
 20
9.5016508719
 30
0.0
 10
10.7422186279
 20
9.5010865551
 30
0.0
 10
10.7429788558
 20
9.5004093749
 30
0.0
 10
10.7439924929
 20
9.4995064679
 30
0.0
 10
10.7452595394
 20
9.4983778342
 30
0.0
 10
10.7467799952
 20
9.4970234738
 30
0.0
 10
10.7488072696
 20
9.4952176599
 30
0.0
 10
10.7513413626
 20
9.4929603925
 30
0.0
 10
10.7538754556
 20
9.4907031251
 30
0.0
 10
10.7559027299
 20
9.4888973112
 30
0.0
 10
10.7574231857
 20
9.4875429508
 30
0.0
 10
10.7586902322
 20
9.4864143171
 30
0.0
 10
10.7597038694
 20
9.4855114102
 30
0.0
 10
10.7604640973
 20
9.4848342299
 30
0.0
 10
10.7610976205
 20
9.4842699131
 30
0.0
 10
10.7616044392
 20
9.4838184597
 30
0.0
 10
10.761984553
 20
9.4834798694
 30
0.0
 10
10.7623646674
 20
9.4831412799
 30
0.0
 10
10.7626814276
 20
9.4828591195
 30
0.0
 10
10.7629348397
 20
9.4826333967
 30
0.0
 10
10.7630932135
 20
9.4824923075
 30
0.0
 10
10.7632199325
 20
9.4823794647
 30
0.0
 10
10.763314917
 20
9.4822947544
 30
0.0
 10
10.7633942452
 20
9.4822244112
 30
0.0
 10
10.7634494324
 20
9.4821746829
 30
0.0
 10
10.7634815029
 20
9.4821470287
 30
0.0
 10
10.7635040488
 20
9.4821241416
 30
0.0
 10
10.763532355
 20
9.4821094596
 30
0.0
 10
10.7635680874
 20
9.4820870215
 30
0.0
 10
10.7636315552
 20
9.4820490885
 30
0.0
 10
10.7637217341
 20
9.4819942012
 30
0.0
 10
10.7638301583
 20
9.4819286349
 30
0.0
 10
10.7639746506
 20
9.4818411089
 30
0.0
 10
10.7641552911
 20
9.4817317371
 30
0.0
 10
10.764444302
 20
9.4815567223
 30
0.0
 10
10.7648055703
 20
9.4813379606
 30
0.0
 10
10.7652390902
 20
9.4810754437
 30
0.0
 10
10.7656726107
 20
9.4808129275
 30
0.0
 10
10.7662506378
 20
9.4804629057
 30
0.0
 10
10.7669731717
 20
9.4800253786
 30
0.0
 10
10.7678402124
 20
9.4795003459
 30
0.0
 10
10.7689962667
 20
9.4788003024
 30
0.0
 10
10.7704413345
 20
9.4779252481
 30
0.0
 10
10.772175416
 20
9.4768751828
 30
0.0
 10
10.7744875245
 20
9.4754750958
 30
0.0
 10
10.7773776602
 20
9.473724987
 30
0.0
 10
10.7802677959
 20
9.4719748783
 30
0.0
 10
10.7825799045
 20
9.4705747913
 30
0.0
 10
10.7843139859
 20
9.469524726
 30
0.0
 10
10.7857590538
 20
9.4686496716
 30
0.0
 10
10.786915108
 20
9.4679496281
 30
0.0
 10
10.7877821488
 20
9.4674245955
 30
0.0
 10
10.7885046827
 20
9.4669870683
 30
0.0
 10
10.7890827098
 20
9.4666370466
 30
0.0
 10
10.7895162301
 20
9.4663745301
 30
0.0
 10
10.7899497508
 20
9.4661120145
 30
0.0
 10
10.7903110168
 20
9.4658932487
 30
0.0
 10
10.7906000323
 20
9.4657182423
 30
0.0
 10
10.7907806609
 20
9.4656088492
 30
0.0
 10
10.7909251776
 20
9.465521367
 30
0.0
 10
10.7910335273
 20
9.4654556669
 30
0.0
 10
10.7911239393
 20
9.4654011982
 30
0.0
 10
10.791186991
 20
9.4653625179
 30
0.0
 10
10.7912233901
 20
9.4653412771
 30
0.0
 10
10.7912496484
 20
9.4653229177
 30
0.0
 10
10.791279886
 20
9.4653138421
 30
0.0
 10
10.7913188148
 20
9.465298503
 30
0.0
 10
10.7913875868
 20
9.4652731683
 30
0.0
 10
10.7914854945
 20
9.4652361871
 30
0.0
 10
10.7916031285
 20
9.4651921472
 30
0.0
 10
10.7917599232
 20
9.4651333095
 30
0.0
 10
10.791955934
 20
9.4650598028
 30
0.0
 10
10.7922695415
 20
9.4649421694
 30
0.0
 10
10.7926615542
 20
9.4647951355
 30
0.0
 10
10.793131968
 20
9.4646186914
 30
0.0
 10
10.7936023822
 20
9.4644422483
 30
0.0
 10
10.7942296009
 20
9.4642069904
 30
0.0
 10
10.7950136245
 20
9.4639129182
 30
0.0
 10
10.7959544527
 20
9.4635600315
 30
0.0
 10
10.7972088903
 20
9.4630895158
 30
0.0
 10
10.7987769373
 20
9.4625013713
 30
0.0
 10
10.8006585938
 20
9.4617955979
 30
0.0
 10
10.803167469
 20
9.4608545667
 30
0.0
 10
10.8056763442
 20
9.4599135355
 30
0.0
 10
10.8081852195
 20
9.4589725042
 30
0.0
 10
10.8100668759
 20
9.4582667308
 30
0.0
 10
10.8119485324
 20
9.4575609574
 30
0.0
 10
10.8138301888
 20
9.456855184
 30
0.0
 10
10.8153982358
 20
9.4562670394
 30
0.0
 10
10.8166526734
 20
9.4557965238
 30
0.0
 10
10.8175935017
 20
9.4554436371
 30
0.0
 10
10.8183775252
 20
9.4551495648
 30
0.0
 10
10.819004744
 20
9.4549143071
 30
0.0
 10
10.819475158
 20
9.4547378635
 30
0.0
 10
10.8199455724
 20
9.4545614209
 30
0.0
 10
10.8203375834
 20
9.4544143825
 30
0.0
 10
10.8206511943
 20
9.4542967583
 30
0.0
 10
10.8208471965
 20
9.4542232281
 30
0.0
 10
10.8210040087
 20
9.4541644386
 30
0.0
 10
10.8211215893
 20
9.4541202517
 30
0.0
 10
10.8212196639
 20
9.4540837306
 30
0.0
 10
10.821288138
 20
9.4540575745
 30
0.0
 10
10.8213275442
 20
9.4540435514
 30
0.0
 10
10.8213563152
 20
9.4540304334
 30
0.0
 10
10.8213880819
 20
9.4540272565
 30
0.0
 10
10.8214293925
 20
9.4540195531
 30
0.0
 10
10.8215021729
 20
9.4540076877
 30
0.0
 10
10.8216058904
 20
9.4539898924
 30
0.0
 10
10.8217304603
 20
9.4539688996
 30
0.0
 10
10.8218965154
 20
9.453940783
 30
0.0
 10
10.8221040974
 20
9.4539056805
 30
0.0
 10
10.8224362213
 20
9.4538494922
 30
0.0
 10
10.8228513787
 20
9.4537792652
 30
0.0
 10
10.8233495664
 20
9.4536949892
 30
0.0
 10
10.8238477545
 20
9.4536107142
 30
0.0
 10
10.8245120051
 20
9.4534983472
 30
0.0
 10
10.8253423184
 20
9.4533578885
 30
0.0
 10
10.8263386944
 20
9.453189338
 30
0.0
 10
10.8276671957
 20
9.4529646041
 30
0.0
 10
10.8293278224
 20
9.4526836867
 30
0.0
 10
10.8313205743
 20
9.4523465857
 30
0.0
 10
10.8333133263
 20
9.4520094848
 30
0.0
 10
10.8353060783
 20
9.4516723839
 30
0.0
 10
10.8372988302
 20
9.451335283
 30
0.0
 10
10.8392915822
 20
9.4509981821
 30
0.0
 10
10.8412843342
 20
9.4506610812
 30
0.0
 10
10.8432770861
 20
9.4503239803
 30
0.0
 10
10.8452698381
 20
9.4499868794
 30
0.0
 10
10.8469304647
 20
9.449705962
 30
0.0
 10
10.848258966
 20
9.449481228
 30
0.0
 10
10.849255342
 20
9.4493126776
 30
0.0
 10
10.8500856554
 20
9.4491722188
 30
0.0
 10
10.850749906
 20
9.4490598519
 30
0.0
 10
10.851248094
 20
9.4489755765
 30
0.0
 10
10.8517462819
 20
9.4488913021
 30
0.0
 10
10.8521614388
 20
9.4488210702
 30
0.0
 10
10.8524935637
 20
9.4487648918
 30
0.0
 10
10.8527011432
 20
9.4487297642
 30
0.0
 10
10.8528672035
 20
9.448701699
 30
0.0
 10
10.8529917576
 20
9.4486805491
 30
0.0
 10
10.8530955245
 20
9.4486632456
 30
0.0
 10
10.8531682167
 20
9.4486505023
 30
0.0
 10
10.8532096686
 20
9.4486442054
 30
0.0
 10
10.8532410011
 20
9.4486367082
 30
0.0
 10
10.8532714029
 20
9.4486398163
 30
0.0
 10
10.8533122633
 20
9.4486402613
 30
0.0
 10
10.8533836178
 20
9.4486427634
 30
0.0
 10
10.8534856318
 20
9.4486454368
 30
0.0
 10
10.8536080148
 20
9.4486490306
 30
0.0
 10
10.853771204
 20
9.4486536876
 30
0.0
 10
10.8539751864
 20
9.448659555
 30
0.0
 10
10.8543015605
 20
9.4486689171
 30
0.0
 10
10.8547095273
 20
9.4486806285
 30
0.0
 10
10.8551990879
 20
9.4486946784
 30
0.0
 10
10.8556886483
 20
9.4487087293
 30
0.0
 10
10.8563413956
 20
9.4487274634
 30
0.0
 10
10.8571573298
 20
9.4487508813
 30
0.0
 10
10.8581364507
 20
9.4487789827
 30
0.0
 10
10.8594419453
 20
9.4488164512
 30
0.0
 10
10.8610738135
 20
9.4488632868
 30
0.0
 10
10.8630320554
 20
9.4489194896
 30
0.0
 10
10.8649902973
 20
9.4489756923
 30
0.0
 10
10.8669485392
 20
9.4490318951
 30
0.0
 10
10.8695595284
 20
9.4491068321
 30
0.0
 10
10.8721705176
 20
9.4491817691
 30
0.0
 10
10.8747815068
 20
9.4492567061
 30
0.0
 10
10.8767397487
 20
9.4493129089
 30
0.0
 10
10.878371617
 20
9.4493597445
 30
0.0
 10
10.8796771116
 20
9.449397213
 30
0.0
 10
10.8806562325
 20
9.4494253144
 30
0.0
 10
10.8814721666
 20
9.4494487322
 30
0.0
 10
10.8821249139
 20
9.4494674665
 30
0.0
 10
10.8826144744
 20
9.449481517
 30
0.0
 10
10.8831040348
 20
9.4494955685
 30
0.0
 10
10.8835120023
 20
9.449507275
 30
0.0
 10
10.883838375
 20
9.449516647
 30
0.0
 10
10.884042361
 20
9.4495224889
 30
0.0
 10
10.8842055428
 20
9.4495271983
 30
0.0
 10
10.8843279483
 20
9.4495306322
 30
0.0
 10
10.8844298919
 20
9.4495338058
 30
0.0
 10
10.8845013721
 20
9.449535415
 30
0.0
 10
10.8845420311
 20
9.4495372907
 30
0.0
 10
10.8845730515
 20
9.4495360038
 30
0.0
 10
10.8846020607
 20
9.4495450138
 30
0.0
 10
10.8846414411
 20
9.4495534356
 30
0.0
 10
10.8847100301
 20
9.449569847
 30
0.0
 10
10.8848081851
 20
9.4495924171
 30
0.0
 10
10.8849258981
 20
9.4496198756
 30
0.0
 10
10.8850828742
 20
9.4496563562
 30
0.0
 10
10.8852790856
 20
9.4497020018
 30
0.0
 10
10.8855930287
 20
9.4497750096
 30
0.0
 10
10.885985456
 20
9.449866278
 30
0.0
 10
10.8864563694
 20
9.4499757964
 30
0.0
 10
10.8869272826
 20
9.4500853157
 30
0.0
 10
10.887555167
 20
9.4502313412
 30
0.0
 10
10.8883400225
 20
9.4504138732
 30
0.0
 10
10.889281849
 20
9.4506329114
 30
0.0
 10
10.8905376177
 20
9.4509249625
 30
0.0
 10
10.8921073286
 20
9.4512900264
 30
0.0
 10
10.8939909817
 20
9.451728103
 30
0.0
 10
10.8958746347
 20
9.4521661796
 30
0.0
 10
10.8977582878
 20
9.4526042562
 30
0.0
 10
10.8996419409
 20
9.4530423328
 30
0.0
 10
10.901525594
 20
9.4534804094
 30
0.0
 10
10.903409247
 20
9.453918486
 30
0.0
 10
10.9052929001
 20
9.4543565626
 30
0.0
 10
10.9071765532
 20
9.4547946392
 30
0.0
 10
10.9087462641
 20
9.4551597031
 30
0.0
 10
10.9100020328
 20
9.4554517541
 30
0.0
 10
10.9109438593
 20
9.4556707924
 30
0.0
 10
10.9117287148
 20
9.4558533243
 30
0.0
 10
10.9123565991
 20
9.4559993499
 30
0.0
 10
10.9128275124
 20
9.4561088689
 30
0.0
 10
10.9132984254
 20
9.4562183888
 30
0.0
 10
10.9136908541
 20
9.4563096524
 30
0.0
 10
10.9140047944
 20
9.4563826699
 30
0.0
 10
10.914201013
 20
9.4564282909
 30
0.0
 10
10.9143579742
 20
9.4564648219
 30
0.0
 10
10.9144757327
 20
9.4564921264
 30
0.0
 10
10.9145737452
 20
9.4565151785
 30
0.0
 10
10.9146425887
 20
9.4565307294
 30
0.0
 10
10.9146815613
 20
9.4565405301
 30
0.0
 10
10.9147118231
 20
9.4565453045
 30
0.0
 10
10.914738139
 20
9.456559926
 30
0.0
 10
10.9147746032
 20
9.4565759866
 30
0.0
 10
10.9148377743
 20
9.456605693
 30
0.0
 10
10.9149283539
 20
9.456647294
 30
0.0
 10
10.915036906
 20
9.4566975733
 30
0.0
 10
10.9151816923
 20
9.4567644874
 30
0.0
 10
10.9153626579
 20
9.4568481727
 30
0.0
 10
10.9156522126
 20
9.4569820454
 30
0.0
 10
10.9160141526
 20
9.4571493944
 30
0.0
 10
10.916448482
 20
9.4573502098
 30
0.0
 10
10.916882811
 20
9.457551026
 30
0.0
 10
10.9174619166
 20
9.4578187807
 30
0.0
 10
10.9181857984
 20
9.4581534742
 30
0.0
 10
10.9190544567
 20
9.4585551063
 30
0.0
 10
10.9202126677
 20
9.4590906158
 30
0.0
 10
10.9216604314
 20
9.4597600027
 30
0.0
 10
10.9233977479
 20
9.4605632669
 30
0.0
 10
10.9251350644
 20
9.4613665312
 30
0.0
 10
10.9268723809
 20
9.4621697954
 30
0.0
 10
10.9286096973
 20
9.4629730597
 30
0.0
 10
10.9303470138
 20
9.4637763239
 30
0.0
 10
10.9320843303
 20
9.4645795882
 30
0.0
 10
10.9338216468
 20
9.4653828524
 30
0.0
 10
10.9355589633
 20
9.4661861167
 30
0.0
 10
10.937006727
 20
9.4668555036
 30
0.0
 10
10.938164938
 20
9.4673910131
 30
0.0
 10
10.9390335962
 20
9.4677926452
 30
0.0
 10
10.9397574781
 20
9.4681273386
 30
0.0
 10
10.9403365836
 20
9.4683950934
 30
0.0
 10
10.9407709128
 20
9.4685959093
 30
0.0
 10
10.9412052416
 20
9.4687967261
 30
0.0
 10
10.9415671837
 20
9.4689640706
 30
0.0
 10
10.941856734
 20
9.4690979525
 30
0.0
 10
10.9420377106
 20
9.4691816141
 30
0.0
 10
10.9421824743
 20
9.469248577
 30
0.0
 10
10.9422910953
 20
9.4692987072
 30
0.0
 10
10.9423814595
 20
9.4693407747
 30
0.0
 10
10.9424450153
 20
9.4693696483
 30
0.0
 10
10.9424808631
 20
9.4693870433
 30
0.0
 10
10.9425090722
 20
9.4693975662
 30
0.0
 10
10.9425322233
 20
9.4694177344
 30
0.0
 10
10.9425648557
 20
9.469441261
 30
0.0
 10
10.9426211403
 20
9.469484
 30
0.0
 10
10.9427019766
 20
9.4695442363
 30
0.0
 10
10.9427987963
 20
9.4696168706
 30
0.0
 10
10.9429279535
 20
9.4697135938
 30
0.0
 10
10.943089378
 20
9.4698345397
 30
0.0
 10
10.9433476694
 20
9.4700280298
 30
0.0
 10
10.9436705295
 20
9.4702699005
 30
0.0
 10
10.9440579635
 20
9.4705601418
 30
0.0
 10
10.9444453969
 20
9.4708503841
 30
0.0
 10
10.944961975
 20
9.4712373735
 30
0.0
 10
10.9456076975
 20
9.4717211103
 30
0.0
 10
10.9463825646
 20
9.4723015944
 30
0.0
 10
10.9474157207
 20
9.4730755733
 30
0.0
 10
10.9487071658
 20
9.4740430468
 30
0.0
 10
10.9502569
 20
9.4752040151
 30
0.0
 10
10.9518066341
 20
9.4763649834
 30
0.0
 10
10.9533563683
 20
9.4775259516
 30
0.0
 10
10.9549061024
 20
9.4786869199
 30
0.0
 10
10.9564558366
 20
9.4798478882
 30
0.0
 10
10.9580055707
 20
9.4810088565
 30
0.0
 10
10.9595553049
 20
9.4821698248
 30
0.0
 10
10.961105039
 20
9.483330793
 30
0.0
 10
10.9623964842
 20
9.4842982666
 30
0.0
 10
10.9634296403
 20
9.4850722454
 30
0.0
 10
10.9642045073
 20
9.4856527296
 30
0.0
 10
10.9648502299
 20
9.4861364663
 30
0.0
 10
10.9653668079
 20
9.4865234558
 30
0.0
 10
10.9657542416
 20
9.4868136977
 30
0.0
 10
10.9661416745
 20
9.4871039404
 30
0.0
 10
10.9664645377
 20
9.487345807
 30
0.0
 10
10.9667228229
 20
9.4875393053
 30
0.0
 10
10.9668842634
 20
9.4876602305
 30
0.0
 10
10.9670133876
 20
9.4877569963
 30
0.0
 10
10.967110308
 20
9.4878295005
 30
0.0
 10
10.9671908292
 20
9.4878901437
 30
0.0
 10
10.9672476765
 20
9.4879321563
 30
0.0
 10
10.9672794074
 20
9.4879568468
 30
0.0
 10
10.9673053275
 20
9.4879734398
 30
0.0
 10
10.9673231363
 20
9.4879973908
 30
0.0
 10
10.9673497106
 20
9.4880267588
 30
0.0
 10
10.9673948975
 20
9.4880793487
 30
0.0
 10
10.9674601394
 20
9.4881538519
 30
0.0
 10
10.9675381346
 20
9.4882435234
 30
0.0
 10
10.9676422313
 20
9.4883629919
 30
0.0
 10
10.9677723168
 20
9.4885123595
 30
0.0
 10
10.9679804735
 20
9.4887513299
 30
0.0
 10
10.9682406625
 20
9.4890500489
 30
0.0
 10
10.9685528922
 20
9.4894085092
 30
0.0
 10
10.9688651212
 20
9.4897669701
 30
0.0
 10
10.9692814267
 20
9.4902449178
 30
0.0
 10
10.9698018086
 20
9.4908423524
 30
0.0
 10
10.9704262668
 20
9.491559274
 30
0.0
 10
10.9712588778
 20
9.4925151694
 30
0.0
 10
10.9722996415
 20
9.4937100387
 30
0.0
 10
10.973548558
 20
9.4951438818
 30
0.0
 10
10.9747974744
 20
9.4965777249
 30
0.0
 10
10.9760463909
 20
9.4980115681
 30
0.0
 10
10.9772953073
 20
9.4994454112
 30
0.0
 10
10.9785442238
 20
9.5008792544
 30
0.0
 10
10.9797931403
 20
9.5023130975
 30
0.0
 10
10.9810420567
 20
9.5037469406
 30
0.0
 10
10.9822909732
 20
9.5051807838
 30
0.0
 10
10.9833317369
 20
9.506375653
 30
0.0
 10
10.9841643479
 20
9.5073315485
 30
0.0
 10
10.9847888061
 20
9.50804847
 30
0.0
 10
10.985309188
 20
9.5086459047
 30
0.0
 10
10.9857254934
 20
9.5091238524
 30
0.0
 10
10.9860377227
 20
9.5094823131
 30
0.0
 10
10.9863499512
 20
9.5098407743
 30
0.0
 10
10.9866101441
 20
9.5101394902
 30
0.0
 10
10.9868182928
 20
9.5103784671
 30
0.0
 10
10.9869483987
 20
9.510527818
 30
0.0
 10
10.9870524535
 20
9.5106473208
 30
0.0
 10
10.9871305766
 20
9.5107368874
 30
0.0
 10
10.9871954184
 20
9.5108117188
 30
0.0
 10
10.9872413195
 20
9.5108637228
 30
0.0
 10
10.9872667495
 20
9.5108940297
 30
0.0
 10
10.9872880732
 20
9.5109150968
 30
0.0
 10
10.9873007921
 20
9.510942521
 30
0.0
 10
10.9873207521
 20
9.5109768691
 30
0.0
 10
10.9873542836
 20
9.5110380115
 30
0.0
 10
10.987402917
 20
9.5111248177
 30
0.0
 10
10.9874609641
 20
9.5112292162
 30
0.0
 10
10.9875384695
 20
9.5113683336
 30
0.0
 10
10.9876353138
 20
9.5115422579
 30
0.0
 10
10.9877902856
 20
9.5118205214
 30
0.0
 10
10.9879839933
 20
9.512168356
 30
0.0
 10
10.9882164455
 20
9.5125857553
 30
0.0
 10
10.9884488969
 20
9.5130031552
 30
0.0
 10
10.9887588324
 20
9.5135596882
 30
0.0
 10
10.9891462516
 20
9.5142553546
 30
0.0
 10
10.9896111548
 20
9.5150901541
 30
0.0
 10
10.9902310257
 20
9.5162032202
 30
0.0
 10
10.9910058642
 20
9.5175945528
 30
0.0
 10
10.9919356705
 20
9.519264152
 30
0.0
 10
10.9928654768
 20
9.5209337511
 30
0.0
 10
10.9937952831
 20
9.5226033502
 30
0.0
 10
10.9947250894
 20
9.5242729494
 30
0.0
 10
10.9956548957
 20
9.5259425485
 30
0.0
 10
10.996584702
 20
9.5276121476
 30
0.0
 10
10.9975145083
 20
9.5292817468
 30
0.0
 10
10.9984443146
 20
9.5309513459
 30
0.0
 10
10.9992191532
 20
9.5323426785
 30
0.0
 10
10.9998390241
 20
9.5334557446
 30
0.0
 10
11.0003039272
 20
9.5342905442
 30
0.0
 10
11.0006913466
 20
9.5349862105
 30
0.0
 10
11.0010012819
 20
9.5355427436
 30
0.0
 10
11.0012337337
 20
9.5359601432
 30
0.0
 10
11.0014661845
 20
9.5363775434
 30
0.0
 10
11.0016598964
 20
9.5367253754
 30
0.0
 10
11.0018148596
 20
9.5370036442
 30
0.0
 10
11.0019117261
 20
9.5371775551
 30
0.0
 10
11.001989186
 20
9.5373167
 30
0.0
 10
11.002047372
 20
9.5374210144
 30
0.0
 10
11.0020955706
 20
9.5375080838
 30
0.0
 10
11.0021298782
 20
9.5375687563
 30
0.0
 10
11.0021485948
 20
9.5376038574
 30
0.0
 10
11.0021651331
 20
9.5376289687
 30
0.0
 10
11.0021721118
 20
9.5376587224
 30
0.0
 10
11.0021847512
 20
9.5376967746
 30
0.0
 10
11.0022053165
 20
9.5377641205
 30
0.0
 10
11.0022355078
 20
9.5378599344
 30
0.0
 10
11.0022713897
 20
9.5379750799
 30
0.0
 10
11.0023193536
 20
9.5381285484
 30
0.0
 10
11.002379267
 20
9.5383204041
 30
0.0
 10
11.0024751516
 20
9.538627362
 30
0.0
 10
11.0025949993
 20
9.5390110632
 30
0.0
 10
11.0027388201
 20
9.539471503
 30
0.0
 10
11.0028826399
 20
9.5399319433
 30
0.0
 10
11.0030744
 20
9.5405458634
 30
0.0
 10
11.0033141
 20
9.5413132637
 30
0.0
 10
11.0036017401
 20
9.542234144
 30
0.0
 10
11.0039852602
 20
9.5434619844
 30
0.0
 10
11.0044646603
 20
9.5449967849
 30
0.0
 10
11.0050399404
 20
9.5468385456
 30
0.0
 10
11.0056152205
 20
9.5486803062
 30
0.0
 10
11.0061905006
 20
9.5505220668
 30
0.0
 10
11.0067657807
 20
9.5523638274
 30
0.0
 10
11.0073410608
 20
9.5542055881
 30
0.0
 10
11.0079163409
 20
9.5560473487
 30
0.0
 10
11.008491621
 20
9.5578891093
 30
0.0
 10
11.0090669011
 20
9.5597308699
 30
0.0
 10
11.0095463012
 20
9.5612656704
 30
0.0
 10
11.0099298212
 20
9.5624935109
 30
0.0
 10
11.0102174613
 20
9.5634143912
 30
0.0
 10
11.0104571614
 20
9.5641817914
 30
0.0
 10
11.0106489213
 20
9.5647957116
 30
0.0
 10
11.0107927415
 20
9.5652561517
 30
0.0
 10
11.0109365608
 20
9.5657165922
 30
0.0
 10
11.0110564132
 20
9.5661002914
 30
0.0
 10
11.0111522884
 20
9.5664072533
 30
0.0
 10
11.0112122258
 20
9.5665990989
 30
0.0
 10
11.0112601404
 20
9.5667525882
 30
0.0
 10
11.011296173
 20
9.5668676699
 30
0.0
 10
11.0113258926
 20
9.5669636835
 30
0.0
 10
11.0113473
 20
9.5670306729
 30
0.0
 10
11.0113585902
 20
9.5670692962
 30
0.0
 10
11.011369713
 20
9.5670972958
 30
0.0
 10
11.0113706868
 20
9.5671289949
 30
0.0
 10
11.0113755254
 20
9.56716997
 30
0.0
 10
11.0113823435
 20
9.5672422776
 30
0.0
 10
11.0113929459
 20
9.5673452598
 30
0.0
 10
11.0114052997
 20
9.5674689731
 30
0.0
 10
11.0114219004
 20
9.567633877
 30
0.0
 10
11.0114426071
 20
9.5678400231
 30
0.0
 10
11.0114757624
 20
9.5681698478
 30
0.0
 10
11.0115171982
 20
9.5685821318
 30
0.0
 10
11.0115669247
 20
9.5690768712
 30
0.0
 10
11.0116166503
 20
9.569571611
 30
0.0
 10
11.0116829514
 20
9.5702312639
 30
0.0
 10
11.0117658277
 20
9.5710558302
 30
0.0
 10
11.0118652792
 20
9.5720453096
 30
0.0
 10
11.0119978813
 20
9.5733646155
 30
0.0
 10
11.0121636338
 20
9.5750137479
 30
0.0
 10
11.0123625369
 20
9.5769927068
 30
0.0
 10
11.01256144
 20
9.5789716656
 30
0.0
 10
11.0127603431
 20
9.5809506245
 30
0.0
 10
11.0130255472
 20
9.5835892363
 30
0.0
 10
11.0133570524
 20
9.5868875011
 30
0.0
 10
11.0137548586
 20
9.5908454189
 30
0.0
 10
11.0141526647
 20
9.5948033366
 30
0.0
 10
11.0144178689
 20
9.5974419484
 30
0.0
 10
11.0145504709
 20
9.5987612543
 30
0.0
  0
SPLINE
  5
3B6
100
AcDbEntity
  8
0
100
AcDbSpline
 62
4
  6
CONTINUOUS
 70
0
 71
3
 72
605
 73
601
 74
0
 42
0.0000001
 43
0.0000001
 44
0.0000000001
 40
0.0
 40
0.0
 40
0.0
 40
0.0
 40
0.0078125
 40
0.015625
 40
0.0234375
 40
0.03125
 40
0.03515625
 40
0.0390625
 40
0.04296875
 40
0.046875
 40
0.05078125
 40
0.052734375
 40
0.0546875
 40
0.056640625
 40
0.0576171875
 40
0.05859375
 40
0.0595703125
 40
0.060546875
 40
0.0610351562
 40
0.0615234375
 40
0.0617675781
 40
0.0620117188
 40
0.0622558594
 40
0.0623779297
 40
0.0624389648
 40
0.0625
 40
0.0625610352
 40
0.0626220703
 40
0.0627441406
 40
0.0629882812
 40
0.0632324219
 40
0.0634765625
 40
0.0639648438
 40
0.064453125
 40
0.0654296875
 40
0.06640625
 40
0.0673828125
 40
0.068359375
 40
0.0703125
 40
0.072265625
 40
0.07421875
 40
0.078125
 40
0.08203125
 40
0.0859375
 40
0.09375
 40
0.1015625
 40
0.10546875
 40
0.109375
 40
0.11328125
 40
0.115234375
 40
0.1171875
 40
0.119140625
 40
0.1201171875
 40
0.12109375
 40
0.1220703125
 40
0.123046875
 40
0.1235351562
 40
0.1240234375
 40
0.1242675781
 40
0.1245117188
 40
0.1247558594
 40
0.1248779297
 40
0.1249389648
 40
0.125
 40
0.1250610352
 40
0.1251220703
 40
0.1252441406
 40
0.1254882812
 40
0.1257324219
 40
0.1259765625
 40
0.1264648438
 40
0.126953125
 40
0.1279296875
 40
0.12890625
 40
0.1298828125
 40
0.130859375
 40
0.1328125
 40
0.134765625
 40
0.13671875
 40
0.140625
 40
0.14453125
 40
0.1484375
 40
0.15625
 40
0.1640625
 40
0.16796875
 40
0.171875
 40
0.17578125
 40
0.177734375
 40
0.1796875
 40
0.181640625
 40
0.1826171875
 40
0.18359375
 40
0.1845703125
 40
0.185546875
 40
0.1860351562
 40
0.1865234375
 40
0.1867675781
 40
0.1870117188
 40
0.1872558594
 40
0.1873779297
 40
0.1874389648
 40
0.1875
 40
0.1875610352
 40
0.1876220703
 40
0.1877441406
 40
0.1879882812
 40
0.1882324219
 40
0.1884765625
 40
0.1889648438
 40
0.189453125
 40
0.1904296875
 40
0.19140625
 40
0.1923828125
 40
0.193359375
 40
0.1953125
 40
0.197265625
 40
0.19921875
 40
0.203125
 40
0.20703125
 40
0.2109375
 40
0.21484375
 40
0.21875
 40
0.22265625
 40
0.2265625
 40
0.23046875
 40
0.234375
 40
0.23828125
 40
0.240234375
 40
0.2421875
 40
0.244140625
 40
0.2451171875
 40
0.24609375
 40
0.2470703125
 40
0.248046875
 40
0.2485351562
 40
0.2490234375
 40
0.2492675781
 40
0.2495117188
 40
0.2497558594
 40
0.2498779297
 40
0.2499389648
 40
0.25
 40
0.2500610352
 40
0.2501220703
 40
0.2502441406
 40
0.2504882812
 40
0.2507324219
 40
0.2509765625
 40
0.2514648438
 40
0.251953125
 40
0.2529296875
 40
0.25390625
 40
0.2548828125
 40
0.255859375
 40
0.2578125
 40
0.259765625
 40
0.26171875
 40
0.265625
 40
0.26953125
 40
0.2734375
 40
0.28125
 40
0.2890625
 40
0.29296875
 40
0.296875
 40
0.30078125
 40
0.302734375
 40
0.3046875
 40
0.306640625
 40
0.3076171875
 40
0.30859375
 40
0.3095703125
 40
0.310546875
 40
0.3110351562
 40
0.3115234375
 40
0.3117675781
 40
0.3120117188
 40
0.3122558594
 40
0.3123779297
 40
0.3124389648
 40
0.3125
 40
0.3125610352
 40
0.3126220703
 40
0.3127441406
 40
0.3129882812
 40
0.3132324219
 40
0.3134765625
 40
0.3139648438
 40
0.314453125
 40
0.3154296875
 40
0.31640625
 40
0.3173828125
 40
0.318359375
 40
0.3203125
 40
0.322265625
 40
0.32421875
 40
0.328125
 40
0.33203125
 40
0.3359375
 40
0.34375
 40
0.3515625
 40
0.35546875
 40
0.359375
 40
0.36328125
 40
0.365234375
 40
0.3671875
 40
0.369140625
 40
0.3701171875
 40
0.37109375
 40
0.3720703125
 40
0.373046875
 40
0.3735351562
 40
0.3740234375
 40
0.3742675781
 40
0.3745117188
 40
0.3747558594
 40
0.3748779297
 40
0.3749389648
 40
0.375
 40
0.3750610352
 40
0.3751220703
 40
0.3752441406
 40
0.3754882812
 40
0.3757324219
 40
0.3759765625
 40
0.3764648438
 40
0.376953125
 40
0.3779296875
 40
0.37890625
 40
0.3798828125
 40
0.380859375
 40
0.3828125
 40
0.384765625
 40
0.38671875
 40
0.390625
 40
0.39453125
 40
0.3984375
 40
0.40625
 40
0.41015625
 40
0.4140625
 40
0.41796875
 40
0.421875
 40
0.42578125
 40
0.427734375
 40
0.4296875
 40
0.431640625
 40
0.4326171875
 40
0.43359375
 40
0.4345703125
 40
0.435546875
 40
0.4360351562
 40
0.4365234375
 40
0.4367675781
 40
0.4370117188
 40
0.4372558594
 40
0.4373779297
 40
0.4374389648
 40
0.4375
 40
0.4375610352
 40
0.4376220703
 40
0.4377441406
 40
0.4379882812
 40
0.4382324219
 40
0.4384765625
 40
0.4389648438
 40
0.439453125
 40
0.4404296875
 40
0.44140625
 40
0.4423828125
 40
0.443359375
 40
0.4453125
 40
0.447265625
 40
0.44921875
 40
0.453125
 40
0.45703125
 40
0.4609375
 40
0.46484375
 40
0.46875
 40
0.47265625
 40
0.4765625
 40
0.48046875
 40
0.484375
 40
0.48828125
 40
0.490234375
 40
0.4921875
 40
0.494140625
 40
0.4951171875
 40
0.49609375
 40
0.4970703125
 40
0.498046875
 40
0.4985351562
 40
0.4990234375
 40
0.4992675781
 40
0.4995117188
 40
0.4997558594
 40
0.4998779297
 40
0.4999389648
 40
0.5
 40
0.5000610352
 40
0.5001220703
 40
0.5002441406
 40
0.5004882812
 40
0.5007324219
 40
0.5009765625
 40
0.5014648438
 40
0.501953125
 40
0.5029296875
 40
0.50390625
 40
0.5048828125
 40
0.505859375
 40
0.5078125
 40
0.509765625
 40
0.51171875
 40
0.515625
 40
0.51953125
 40
0.5234375
 40
0.52734375
 40
0.53125
 40
0.5390625
 40
0.54296875
 40
0.546875
 40
0.55078125
 40
0.552734375
 40
0.5546875
 40
0.556640625
 40
0.5576171875
 40
0.55859375
 40
0.5595703125
 40
0.560546875
 40
0.5610351562
 40
0.5615234375
 40
0.5617675781
 40
0.5620117188
 40
0.5622558594
 40
0.5623779297
 40
0.5624389648
 40
0.5625
 40
0.5625610352
 40
0.5626220703
 40
0.5627441406
 40
0.5629882812
 40
0.5632324219
 40
0.5634765625
 40
0.5639648438
 40
0.564453125
 40
0.5654296875
 40
0.56640625
 40
0.5673828125
 40
0.568359375
 40
0.5703125
 40
0.572265625
 40
0.57421875
 40
0.578125
 40
0.58203125
 40
0.5859375
 40
0.58984375
 40
0.59375
 40
0.59765625
 40
0.6015625
 40
0.60546875
 40
0.609375
 40
0.61328125
 40
0.615234375
 40
0.6171875
 40
0.619140625
 40
0.6201171875
 40
0.62109375
 40
0.6220703125
 40
0.623046875
 40
0.6235351562
 40
0.6240234375
 40
0.6242675781
 40
0.6245117188
 40
0.6247558594
 40
0.6248779297
 40
0.6249389648
 40
0.625
 40
0.6250610352
 40
0.6251220703
 40
0.6252441406
 40
0.6254882812
 40
0.6257324219
 40
0.6259765625
 40
0.6264648438
 40
0.626953125
 40
0.6279296875
 40
0.62890625
 40
0.6298828125
 40
0.630859375
 40
0.6328125
 40
0.634765625
 40
0.63671875
 40
0.640625
 40
0.64453125
 40
0.6484375
 40
0.65234375
 40
0.65625
 40
0.66015625
 40
0.6640625
 40
0.66796875
 40
0.671875
 40
0.67578125
 40
0.677734375
 40
0.6796875
 40
0.681640625
 40
0.6826171875
 40
0.68359375
 40
0.6845703125
 40
0.685546875
 40
0.6860351562
 40
0.6865234375
 40
0.6867675781
 40
0.6870117188
 40
0.6872558594
 40
0.6873779297
 40
0.6874389648
 40
0.6875
 40
0.6875610352
 40
0.6876220703
 40
0.6877441406
 40
0.6879882812
 40
0.6882324219
 40
0.6884765625
 40
0.6889648438
 40
0.689453125
 40
0.6904296875
 40
0.69140625
 40
0.6923828125
 40
0.693359375
 40
0.6953125
 40
0.697265625
 40
0.69921875
 40
0.703125
 40
0.70703125
 40
0.7109375
 40
0.71484375
 40
0.71875
 40
0.72265625
 40
0.7265625
 40
0.73046875
 40
0.734375
 40
0.73828125
 40
0.740234375
 40
0.7421875
 40
0.744140625
 40
0.7451171875
 40
0.74609375
 40
0.7470703125
 40
0.748046875
 40
0.7485351562
 40
0.7490234375
 40
0.7492675781
 40
0.7495117188
 40
0.7497558594
 40
0.7498779297
 40
0.7499389648
 40
0.75
 40
0.7500610352
 40
0.7501220703
 40
0.7502441406
 40
0.7504882812
 40
0.7507324219
 40
0.7509765625
 40
0.7514648438
 40
0.751953125
 40
0.7529296875
 40
0.75390625
 40
0.7548828125
 40
0.755859375
 40
0.7578125
 40
0.759765625
 40
0.76171875
 40
0.765625
 40
0.76953125
 40
0.7734375
 40
0.77734375
 40
0.78125
 40
0.78515625
 40
0.7890625
 40
0.79296875
 40
0.796875
 40
0.80078125
 40
0.802734375
 40
0.8046875
 40
0.806640625
 40
0.8076171875
 40
0.80859375
 40
0.8095703125
 40
0.810546875
 40
0.8110351562
 40
0.8115234375
 40
0.8117675781
 40
0.8120117188
 40
0.8122558594
 40
0.8123779297
 40
0.8124389648
 40
0.8125
 40
0.8125610352
 40
0.8126220703
 40
0.8127441406
 40
0.8129882812
 40
0.8132324219
 40
0.8134765625
 40
0.8139648438
 40
0.814453125
 40
0.8154296875
 40
0.81640625
 40
0.8173828125
 40
0.818359375
 40
0.8203125
 40
0.822265625
 40
0.82421875
 40
0.828125
 40
0.83203125
 40
0.8359375
 40
0.83984375
 40
0.84375
 40
0.84765625
 40
0.8515625
 40
0.85546875
 40
0.859375
 40
0.86328125
 40
0.865234375
 40
0.8671875
 40
0.869140625
 40
0.8701171875
 40
0.87109375
 40
0.8720703125
 40
0.873046875
 40
0.8735351562
 40
0.8740234375
 40
0.8742675781
 40
0.8745117188
 40
0.8747558594
 40
0.8748779297
 40
0.8749389648
 40
0.875
 40
0.8750610352
 40
0.8751220703
 40
0.8752441406
 40
0.8754882812
 40
0.8757324219
 40
0.8759765625
 40
0.8764648438
 40
0.876953125
 40
0.8779296875
 40
0.87890625
 40
0.8798828125
 40
0.880859375
 40
0.8828125
 40
0.884765625
 40
0.88671875
 40
0.890625
 40
0.89453125
 40
0.8984375
 40
0.90234375
 40
0.90625
 40
0.91015625
 40
0.9140625
 40
0.91796875
 40
0.921875
 40
0.92578125
 40
0.927734375
 40
0.9296875
 40
0.931640625
 40
0.9326171875
 40
0.93359375
 40
0.9345703125
 40
0.935546875
 40
0.9360351562
 40
0.9365234375
 40
0.9367675781
 40
0.9370117188
 40
0.9372558594
 40
0.9373779297
 40
0.9374389648
 40
0.9375
 40
0.9375610352
 40
0.9376220703
 40
0.9377441406
 40
0.9379882812
 40
0.9382324219
 40
0.9384765625
 40
0.9389648438
 40
0.939453125
 40
0.9404296875
 40
0.94140625
 40
0.9423828125
 40
0.943359375
 40
0.9453125
 40
0.947265625
 40
0.94921875
 40
0.953125
 40
0.95703125
 40
0.9609375
 40
0.96484375
 40
0.96875
 40
0.9765625
 40
0.984375
 40
0.9921875
 40
1.0
 40
1.0
 40
1.0
 40
1.0
 10
11.0145504709
 20
9.5987612402
 30
0.0
 10
11.014422466
 20
9.600075612
 30
0.0
 10
11.0141664563
 20
9.6027043555
 30
0.0
 10
11.0137824417
 20
9.6066474708
 30
0.0
 10
11.0133984271
 20
9.6105905861
 30
0.0
 10
11.013078415
 20
9.6138765155
 30
0.0
 10
11.0128224052
 20
9.6165052591
 30
0.0
 10
11.0126303979
 20
9.6184768167
 30
0.0
 10
11.0124383906
 20
9.6204483744
 30
0.0
 10
11.0122463834
 20
9.622419932
 30
0.0
 10
11.0120863773
 20
9.6240628967
 30
0.0
 10
11.0119583724
 20
9.6253772685
 30
0.0
 10
11.0118623688
 20
9.6263630473
 30
0.0
 10
11.0117823657
 20
9.6271845297
 30
0.0
 10
11.0117183632
 20
9.6278417155
 30
0.0
 10
11.0116703616
 20
9.628334605
 30
0.0
 10
11.011622359
 20
9.6288274943
 30
0.0
 10
11.0115823599
 20
9.6292382358
 30
0.0
 10
11.0115503538
 20
9.6295668281
 30
0.0
 10
11.0115303654
 20
9.6297722003
 30
0.0
 10
11.0115143394
 20
9.6299364935
 30
0.0
 10
11.0115024166
 20
9.6300597258
 30
0.0
 10
11.0114921732
 20
9.6301623798
 30
0.0
 10
11.0114856069
 20
9.6302343154
 30
0.0
 10
11.0114809114
 20
9.6302753
 30
0.0
 10
11.0114800471
 20
9.6303063804
 30
0.0
 10
11.0114690252
 20
9.630336154
 30
0.0
 10
11.0114578724
 20
9.6303763079
 30
0.0
 10
11.0114367043
 20
9.6304463648
 30
0.0
 10
11.0114073272
 20
9.6305465572
 30
0.0
 10
11.0113717052
 20
9.6306667405
 30
0.0
 10
11.0113243383
 20
9.6308270015
 30
0.0
 10
11.0112650854
 20
9.6310273221
 30
0.0
 10
11.0111703056
 20
9.6313478383
 30
0.0
 10
11.0110518223
 20
9.6317484824
 30
0.0
 10
11.0109096459
 20
9.6322292558
 30
0.0
 10
11.0107674686
 20
9.632710029
 30
0.0
 10
11.0105778992
 20
9.6333510601
 30
0.0
 10
11.0103409374
 20
9.6341523489
 30
0.0
 10
11.0100565832
 20
9.6351138954
 30
0.0
 10
11.0096774443
 20
9.6363959575
 30
0.0
 10
11.0092035206
 20
9.6379985351
 30
0.0
 10
11.0086348122
 20
9.6399216283
 30
0.0
 10
11.0078765344
 20
9.6424857524
 30
0.0
 10
11.006928687
 20
9.6456909077
 30
0.0
 10
11.0059808397
 20
9.6488960629
 30
0.0
 10
11.0052225619
 20
9.6514601871
 30
0.0
 10
11.0046538535
 20
9.6533832802
 30
0.0
 10
11.0041799298
 20
9.6549858578
 30
0.0
 10
11.0038007909
 20
9.6562679199
 30
0.0
 10
11.0035164367
 20
9.6572294665
 30
0.0
 10
11.0032794749
 20
9.6580307553
 30
0.0
 10
11.0030899053
 20
9.6586717863
 30
0.0
 10
11.0029477284
 20
9.6591525596
 30
0.0
 10
11.0028055506
 20
9.6596333327
 30
0.0
 10
11.002687072
 20
9.6600339779
 30
0.0
 10
11.0025922826
 20
9.6603544918
 30
0.0
 10
11.0025330539
 20
9.660554818
 30
0.0
 10
11.0024856375
 20
9.6607150675
 30
0.0
 10
11.0024501665
 20
9.660835286
 30
0.0
 10
11.0024203171
 20
9.6609353685
 30
0.0
 10
11.002399992
 20
9.6610056215
 30
0.0
 10
11.0023874885
 20
9.6610454613
 30
0.0
 10
11.0023806155
 20
9.6610761997
 30
0.0
 10
11.0023641689
 20
9.6611036562
 30
0.0
 10
11.0023455795
 20
9.6611414095
 30
0.0
 10
11.0023114922
 20
9.6612069446
 30
0.0
 10
11.0022636095
 20
9.6613008449
 30
0.0
 10
11.002205802
 20
9.661413406
 30
0.0
 10
11.002128847
 20
9.6615635291
 30
0.0
 10
11.0020326117
 20
9.6617511687
 30
0.0
 10
11.0018786583
 20
9.6620514
 30
0.0
 10
11.0016862087
 20
9.6624266865
 30
0.0
 10
11.0014552725
 20
9.6628770314
 30
0.0
 10
11.0012243354
 20
9.663327376
 30
0.0
 10
11.0009164196
 20
9.6639278355
 30
0.0
 10
11.0005315248
 20
9.6646784099
 30
0.0
 10
11.000069651
 20
9.6655790992
 30
0.0
 10
10.9994538193
 20
9.6667800183
 30
0.0
 10
10.9986840297
 20
9.6682811671
 30
0.0
 10
10.9977602821
 20
9.6700825457
 30
0.0
 10
10.9965286187
 20
9.6724843838
 30
0.0
 10
10.9949890394
 20
9.6754866815
 30
0.0
 10
10.9934494601
 20
9.6784889792
 30
0.0
 10
10.9922177967
 20
9.6808908173
 30
0.0
 10
10.9912940492
 20
9.6826921959
 30
0.0
 10
10.9905242595
 20
9.6841933447
 30
0.0
 10
10.9899084278
 20
9.6853942638
 30
0.0
 10
10.989446554
 20
9.6862949531
 30
0.0
 10
10.9890616592
 20
9.6870455275
 30
0.0
 10
10.9887537433
 20
9.687645987
 30
0.0
 10
10.9885228066
 20
9.6880963317
 30
0.0
 10
10.988291869
 20
9.6885466761
 30
0.0
 10
10.9880994238
 20
9.6889219643
 30
0.0
 10
10.9879454614
 20
9.689222192
 30
0.0
 10
10.9878492491
 20
9.6894098409
 30
0.0
 10
10.9877722468
 20
9.6895599448
 30
0.0
 10
10.9877145837
 20
9.6896725647
 30
0.0
 10
10.9876662494
 20
9.6897662809
 30
0.0
 10
10.9876329682
 20
9.6898321447
 30
0.0
 10
10.9876130872
 20
9.6898693713
 30
0.0
 10
10.987600608
 20
9.6898984458
 30
0.0
 10
10.9875788342
 20
9.6899231069
 30
0.0
 10
10.9875530446
 20
9.6899575278
 30
0.0
 10
10.9875064022
 20
9.6900170471
 30
0.0
 10
10.9874405599
 20
9.6901024496
 30
0.0
 10
10.9873612112
 20
9.6902047722
 30
0.0
 10
10.9872555309
 20
9.6903412583
 30
0.0
 10
10.9871233901
 20
9.6905118468
 30
0.0
 10
10.9869119874
 20
9.6907847991
 30
0.0
 10
10.9866477263
 20
9.6911259857
 30
0.0
 10
10.9863306164
 20
9.6915354113
 30
0.0
 10
10.9860135055
 20
9.6919448364
 30
0.0
 10
10.9855906913
 20
9.6924907368
 30
0.0
 10
10.9850621735
 20
9.6931731122
 30
0.0
 10
10.9844279522
 20
9.6939919626
 30
0.0
 10
10.9835823237
 20
9.6950837633
 30
0.0
 10
10.9825252881
 20
9.6964485141
 30
0.0
 10
10.9812568454
 20
9.698086215
 30
0.0
 10
10.9799884027
 20
9.699723916
 30
0.0
 10
10.97871996
 20
9.7013616169
 30
0.0
 10
10.9774515173
 20
9.7029993179
 30
0.0
 10
10.9761830746
 20
9.7046370188
 30
0.0
 10
10.9749146319
 20
9.7062747198
 30
0.0
 10
10.9736461892
 20
9.7079124207
 30
0.0
 10
10.9723777465
 20
9.7095501217
 30
0.0
 10
10.9713207109
 20
9.7109148725
 30
0.0
 10
10.9704750824
 20
9.7120066731
 30
0.0
 10
10.969840861
 20
9.7128255236
 30
0.0
 10
10.9693123433
 20
9.713507899
 30
0.0
 10
10.968889529
 20
9.7140537993
 30
0.0
 10
10.9685724184
 20
9.7144632247
 30
0.0
 10
10.9682553073
 20
9.7148726493
 30
0.0
 10
10.96799105
 20
9.7152138388
 30
0.0
 10
10.9677796396
 20
9.7154867853
 30
0.0
 10
10.9676475184
 20
9.7156573885
 30
0.0
 10
10.9675417979
 20
9.7157938444
 30
0.0
 10
10.9674625722
 20
9.7158962592
 30
0.0
 10
10.9673963448
 20
9.7159813733
 30
0.0
 10
10.9673503898
 20
9.7160414075
 30
0.0
 10
10.9673234988
 20
9.7160750033
 30
0.0
 10
10.9673051082
 20
9.7161021988
 30
0.0
 10
10.9672799222
 20
9.7161217542
 30
0.0
 10
10.9672487112
 20
9.7161504931
 30
0.0
 10
10.9671929876
 20
9.7161995444
 30
0.0
 10
10.9671139599
 20
9.7162702669
 30
0.0
 10
10.9670188794
 20
9.7163548559
 30
0.0
 10
10.9668921918
 20
9.7164677384
 30
0.0
 10
10.9667338027
 20
9.7166088083
 30
0.0
 10
10.9664803966
 20
9.7168345387
 30
0.0
 10
10.9661636334
 20
9.7171166954
 30
0.0
 10
10.96578352
 20
9.717455286
 30
0.0
 10
10.9654034059
 20
9.717793876
 30
0.0
 10
10.9648965873
 20
9.7182453295
 30
0.0
 10
10.9642630641
 20
9.7188096463
 30
0.0
 10
10.9635028362
 20
9.7194868266
 30
0.0
 10
10.962489199
 20
9.7203897335
 30
0.0
 10
10.9612221525
 20
9.7215183672
 30
0.0
 10
10.9597016967
 20
9.7228727276
 30
0.0
 10
10.9576744223
 20
9.7246785415
 30
0.0
 10
10.9551403293
 20
9.7269358089
 30
0.0
 10
10.9526062364
 20
9.7291930763
 30
0.0
 10
10.950578962
 20
9.7309988902
 30
0.0
 10
10.9490585062
 20
9.7323532506
 30
0.0
 10
10.9477914597
 20
9.7334818843
 30
0.0
 10
10.9467778225
 20
9.7343847913
 30
0.0
 10
10.9460175946
 20
9.7350619715
 30
0.0
 10
10.9453840714
 20
9.7356262884
 30
0.0
 10
10.9448772528
 20
9.7360777418
 30
0.0
 10
10.9444971389
 20
9.7364163321
 30
0.0
 10
10.9441170246
 20
9.7367549216
 30
0.0
 10
10.9438002643
 20
9.7370370819
 30
0.0
 10
10.9435468522
 20
9.7372628047
 30
0.0
 10
10.9433884784
 20
9.7374038939
 30
0.0
 10
10.9432617594
 20
9.7375167368
 30
0.0
 10
10.9431667749
 20
9.737601447
 30
0.0
 10
10.9430874467
 20
9.7376717903
 30
0.0
 10
10.9430322595
 20
9.7377215186
 30
0.0
 10
10.943000189
 20
9.7377491727
 30
0.0
 10
10.9429776431
 20
9.7377720599
 30
0.0
 10
10.9429493369
 20
9.7377867419
 30
0.0
 10
10.9429136045
 20
9.7378091799
 30
0.0
 10
10.9428501367
 20
9.737847113
 30
0.0
 10
10.9427599578
 20
9.7379020003
 30
0.0
 10
10.9426515336
 20
9.7379675666
 30
0.0
 10
10.9425070413
 20
9.7380550926
 30
0.0
 10
10.9423264008
 20
9.7381644643
 30
0.0
 10
10.94203739
 20
9.7383394791
 30
0.0
 10
10.9416761217
 20
9.7385582408
 30
0.0
 10
10.9412426017
 20
9.7388207577
 30
0.0
 10
10.9408090813
 20
9.7390832739
 30
0.0
 10
10.9402310542
 20
9.7394332957
 30
0.0
 10
10.9395085202
 20
9.7398708229
 30
0.0
 10
10.9386414795
 20
9.7403958555
 30
0.0
 10
10.9374854252
 20
9.741095899
 30
0.0
 10
10.9360403574
 20
9.7419709534
 30
0.0
 10
10.934306276
 20
9.7430210186
 30
0.0
 10
10.9319941674
 20
9.7444211056
 30
0.0
 10
10.9291040317
 20
9.7461712144
 30
0.0
 10
10.926213896
 20
9.7479213232
 30
0.0
 10
10.9239017874
 20
9.7493214102
 30
0.0
 10
10.922167706
 20
9.7503714754
 30
0.0
 10
10.9207226382
 20
9.7512465298
 30
0.0
 10
10.9195665839
 20
9.7519465733
 30
0.0
 10
10.9186995432
 20
9.7524716059
 30
0.0
 10
10.9179770093
 20
9.7529091331
 30
0.0
 10
10.9173989821
 20
9.7532591548
 30
0.0
 10
10.9169654618
 20
9.7535216713
 30
0.0
 10
10.9165319412
 20
9.7537841869
 30
0.0
 10
10.9161706751
 20
9.7540029527
 30
0.0
 10
10.9158816597
 20
9.7541779591
 30
0.0
 10
10.915701031
 20
9.7542873523
 30
0.0
 10
10.9155565143
 20
9.7543748345
 30
0.0
 10
10.9154481646
 20
9.7544405346
 30
0.0
 10
10.9153577527
 20
9.7544950033
 30
0.0
 10
10.9152947009
 20
9.7545336835
 30
0.0
 10
10.9152583019
 20
9.7545549244
 30
0.0
 10
10.9152320435
 20
9.7545732837
 30
0.0
 10
10.9152018059
 20
9.7545823594
 30
0.0
 10
10.9151628772
 20
9.7545976985
 30
0.0
 10
10.9150941051
 20
9.7546230332
 30
0.0
 10
10.9149961974
 20
9.7546600144
 30
0.0
 10
10.9148785634
 20
9.7547040542
 30
0.0
 10
10.9147217687
 20
9.7547628919
 30
0.0
 10
10.914525758
 20
9.7548363986
 30
0.0
 10
10.9142121505
 20
9.754954032
 30
0.0
 10
10.9138201378
 20
9.7551010659
 30
0.0
 10
10.913349724
 20
9.75527751
 30
0.0
 10
10.9128793098
 20
9.7554539532
 30
0.0
 10
10.912252091
 20
9.755689211
 30
0.0
 10
10.9114680675
 20
9.7559832833
 30
0.0
 10
10.9105272393
 20
9.75633617
 30
0.0
 10
10.9092728016
 20
9.7568066856
 30
0.0
 10
10.9077047546
 20
9.7573948301
 30
0.0
 10
10.9058230982
 20
9.7581006035
 30
0.0
 10
10.9033142229
 20
9.7590416348
 30
0.0
 10
10.9008053477
 20
9.759982666
 30
0.0
 10
10.8982964724
 20
9.7609236972
 30
0.0
 10
10.896414816
 20
9.7616294706
 30
0.0
 10
10.8945331596
 20
9.7623352441
 30
0.0
 10
10.8926515031
 20
9.7630410175
 30
0.0
 10
10.8910834561
 20
9.763629162
 30
0.0
 10
10.8898290185
 20
9.7640996776
 30
0.0
 10
10.8888881903
 20
9.7644525643
 30
0.0
 10
10.8881041668
 20
9.7647466366
 30
0.0
 10
10.8874769479
 20
9.7649818943
 30
0.0
 10
10.8870065339
 20
9.7651583379
 30
0.0
 10
10.8865361196
 20
9.7653347805
 30
0.0
 10
10.8861441085
 20
9.765481819
 30
0.0
 10
10.8858304977
 20
9.7655994431
 30
0.0
 10
10.8856344954
 20
9.7656729733
 30
0.0
 10
10.8854776832
 20
9.7657317629
 30
0.0
 10
10.8853601026
 20
9.7657759497
 30
0.0
 10
10.885262028
 20
9.7658124709
 30
0.0
 10
10.8851935539
 20
9.7658386269
 30
0.0
 10
10.8851541477
 20
9.76585265
 30
0.0
 10
10.8851253767
 20
9.765865768
 30
0.0
 10
10.88509361
 20
9.7658689449
 30
0.0
 10
10.8850522994
 20
9.7658766484
 30
0.0
 10
10.884979519
 20
9.7658885138
 30
0.0
 10
10.8848758016
 20
9.765906309
 30
0.0
 10
10.8847512317
 20
9.7659273018
 30
0.0
 10
10.8845851765
 20
9.7659554184
 30
0.0
 10
10.8843775945
 20
9.765990521
 30
0.0
 10
10.8840454706
 20
9.7660467092
 30
0.0
 10
10.8836303133
 20
9.7661169362
 30
0.0
 10
10.8831321255
 20
9.7662012122
 30
0.0
 10
10.8826339374
 20
9.7662854873
 30
0.0
 10
10.8819696868
 20
9.7663978543
 30
0.0
 10
10.8811393735
 20
9.766538313
 30
0.0
 10
10.8801429975
 20
9.7667068634
 30
0.0
 10
10.8788144962
 20
9.7669315974
 30
0.0
 10
10.8771538695
 20
9.7672125148
 30
0.0
 10
10.8751611176
 20
9.7675496157
 30
0.0
 10
10.8731683656
 20
9.7678867166
 30
0.0
 10
10.8711756137
 20
9.7682238175
 30
0.0
 10
10.8691828617
 20
9.7685609184
 30
0.0
 10
10.8671901097
 20
9.7688980193
 30
0.0
 10
10.8651973578
 20
9.7692351202
 30
0.0
 10
10.8632046058
 20
9.7695722211
 30
0.0
 10
10.8612118538
 20
9.769909322
 30
0.0
 10
10.8595512272
 20
9.7701902395
 30
0.0
 10
10.8582227259
 20
9.7704149734
 30
0.0
 10
10.8572263499
 20
9.7705835239
 30
0.0
 10
10.8563960366
 20
9.7707239826
 30
0.0
 10
10.8557317859
 20
9.7708363495
 30
0.0
 10
10.8552335979
 20
9.7709206249
 30
0.0
 10
10.85473541
 20
9.7710048994
 30
0.0
 10
10.8543202531
 20
9.7710751312
 30
0.0
 10
10.8539881282
 20
9.7711313096
 30
0.0
 10
10.8537805488
 20
9.7711664372
 30
0.0
 10
10.8536144884
 20
9.7711945024
 30
0.0
 10
10.8534899343
 20
9.7712156523
 30
0.0
 10
10.8533861674
 20
9.7712329559
 30
0.0
 10
10.8533134753
 20
9.7712456991
 30
0.0
 10
10.8532720233
 20
9.7712519961
 30
0.0
 10
10.8532406909
 20
9.7712594932
 30
0.0
 10
10.853210289
 20
9.7712563851
 30
0.0
 10
10.8531694286
 20
9.7712559402
 30
0.0
 10
10.8530980741
 20
9.771253438
 30
0.0
 10
10.8529960601
 20
9.7712507646
 30
0.0
 10
10.8528736771
 20
9.7712471708
 30
0.0
 10
10.8527104879
 20
9.7712425138
 30
0.0
 10
10.8525065055
 20
9.7712366464
 30
0.0
 10
10.8521801314
 20
9.7712272844
 30
0.0
 10
10.8517721646
 20
9.771215573
 30
0.0
 10
10.8512826041
 20
9.7712015231
 30
0.0
 10
10.8507930436
 20
9.7711874722
 30
0.0
 10
10.8501402963
 20
9.771168738
 30
0.0
 10
10.8493243622
 20
9.7711453201
 30
0.0
 10
10.8483452412
 20
9.7711172188
 30
0.0
 10
10.8470397466
 20
9.7710797503
 30
0.0
 10
10.8454078784
 20
9.7710329146
 30
0.0
 10
10.8434496365
 20
9.7709767119
 30
0.0
 10
10.8414913946
 20
9.7709205091
 30
0.0
 10
10.8395331527
 20
9.7708643064
 30
0.0
 10
10.8369221635
 20
9.7707893693
 30
0.0
 10
10.8343111743
 20
9.7707144323
 30
0.0
 10
10.8317001851
 20
9.7706394953
 30
0.0
 10
10.8297419432
 20
9.7705832926
 30
0.0
 10
10.828110075
 20
9.7705364569
 30
0.0
 10
10.8268045804
 20
9.7704989884
 30
0.0
 10
10.8258254594
 20
9.770470887
 30
0.0
 10
10.8250095253
 20
9.7704474692
 30
0.0
 10
10.824356778
 20
9.7704287349
 30
0.0
 10
10.8238672175
 20
9.7704146844
 30
0.0
 10
10.8233776572
 20
9.770400633
 30
0.0
 10
10.8229696896
 20
9.7703889265
 30
0.0
 10
10.8226433169
 20
9.7703795544
 30
0.0
 10
10.822439331
 20
9.7703737125
 30
0.0
 10
10.8222761492
 20
9.7703690032
 30
0.0
 10
10.8221537437
 20
9.7703655693
 30
0.0
 10
10.8220518
 20
9.7703623956
 30
0.0
 10
10.8219803199
 20
9.7703607865
 30
0.0
 10
10.8219396608
 20
9.7703589107
 30
0.0
 10
10.8219086404
 20
9.7703601977
 30
0.0
 10
10.8218796312
 20
9.7703511876
 30
0.0
 10
10.8218402508
 20
9.7703427659
 30
0.0
 10
10.8217716619
 20
9.7703263544
 30
0.0
 10
10.8216735068
 20
9.7703037844
 30
0.0
 10
10.8215557939
 20
9.7702763258
 30
0.0
 10
10.8213988177
 20
9.7702398452
 30
0.0
 10
10.8212026063
 20
9.7701941997
 30
0.0
 10
10.8208886632
 20
9.7701211918
 30
0.0
 10
10.8204962359
 20
9.7700299234
 30
0.0
 10
10.8200253225
 20
9.7699204051
 30
0.0
 10
10.8195544093
 20
9.7698108857
 30
0.0
 10
10.8189265249
 20
9.7696648602
 30
0.0
 10
10.8181416695
 20
9.7694823283
 30
0.0
 10
10.8171998429
 20
9.76926329
 30
0.0
 10
10.8159440742
 20
9.7689712389
 30
0.0
 10
10.8143743633
 20
9.7686061751
 30
0.0
 10
10.8124907103
 20
9.7681680985
 30
0.0
 10
10.8106070572
 20
9.7677300219
 30
0.0
 10
10.8087234041
 20
9.7672919453
 30
0.0
 10
10.806839751
 20
9.7668538687
 30
0.0
 10
10.804956098
 20
9.766415792
 30
0.0
 10
10.8030724449
 20
9.7659777154
 30
0.0
 10
10.8011887918
 20
9.7655396388
 30
0.0
 10
10.7993051388
 20
9.7651015622
 30
0.0
 10
10.7977354279
 20
9.7647364984
 30
0.0
 10
10.7964796592
 20
9.7644444473
 30
0.0
 10
10.7955378326
 20
9.764225409
 30
0.0
 10
10.7947529772
 20
9.7640428771
 30
0.0
 10
10.7941250928
 20
9.7638968515
 30
0.0
 10
10.7936541795
 20
9.7637873326
 30
0.0
 10
10.7931832665
 20
9.7636778127
 30
0.0
 10
10.7927908379
 20
9.763586549
 30
0.0
 10
10.7924768976
 20
9.7635135315
 30
0.0
 10
10.7922806789
 20
9.7634679106
 30
0.0
 10
10.7921237177
 20
9.7634313795
 30
0.0
 10
10.7920059592
 20
9.7634040751
 30
0.0
 10
10.7919079467
 20
9.7633810229
 30
0.0
 10
10.7918391033
 20
9.7633654721
 30
0.0
 10
10.7918001306
 20
9.7633556714
 30
0.0
 10
10.7917698688
 20
9.763350897
 30
0.0
 10
10.7917435529
 20
9.7633362754
 30
0.0
 10
10.7917070887
 20
9.7633202148
 30
0.0
 10
10.7916439177
 20
9.7632905085
 30
0.0
 10
10.791553338
 20
9.7632489074
 30
0.0
 10
10.7914447859
 20
9.7631986281
 30
0.0
 10
10.7912999996
 20
9.7631317141
 30
0.0
 10
10.791119034
 20
9.7630480287
 30
0.0
 10
10.7908294794
 20
9.762914156
 30
0.0
 10
10.7904675393
 20
9.762746807
 30
0.0
 10
10.7900332099
 20
9.7625459917
 30
0.0
 10
10.7895988809
 20
9.7623451754
 30
0.0
 10
10.7890197754
 20
9.7620774207
 30
0.0
 10
10.7882958935
 20
9.7617427273
 30
0.0
 10
10.7874272353
 20
9.7613410952
 30
0.0
 10
10.7862690243
 20
9.7608055857
 30
0.0
 10
10.7848212605
 20
9.7601361988
 30
0.0
 10
10.783083944
 20
9.7593329345
 30
0.0
 10
10.7813466276
 20
9.7585296703
 30
0.0
 10
10.7796093111
 20
9.757726406
 30
0.0
 10
10.7778719946
 20
9.7569231418
 30
0.0
 10
10.7761346781
 20
9.7561198775
 30
0.0
 10
10.7743973616
 20
9.7553166133
 30
0.0
 10
10.7726600451
 20
9.754513349
 30
0.0
 10
10.7709227286
 20
9.7537100847
 30
0.0
 10
10.7694749649
 20
9.7530406979
 30
0.0
 10
10.7683167539
 20
9.7525051884
 30
0.0
 10
10.7674480957
 20
9.7521035562
 30
0.0
 10
10.7667242138
 20
9.7517688628
 30
0.0
 10
10.7661451083
 20
9.751501108
 30
0.0
 10
10.7657107791
 20
9.7513002921
 30
0.0
 10
10.7652764504
 20
9.7510994753
 30
0.0
 10
10.7649145082
 20
9.7509321309
 30
0.0
 10
10.7646249579
 20
9.7507982489
 30
0.0
 10
10.7644439813
 20
9.7507145873
 30
0.0
 10
10.7642992176
 20
9.7506476245
 30
0.0
 10
10.7641905966
 20
9.7505974942
 30
0.0
 10
10.7641002324
 20
9.7505554267
 30
0.0
 10
10.7640366767
 20
9.7505265531
 30
0.0
 10
10.7640008288
 20
9.7505091582
 30
0.0
 10
10.7639726197
 20
9.7504986353
 30
0.0
 10
10.7639494686
 20
9.7504784671
 30
0.0
 10
10.7639168363
 20
9.7504549405
 30
0.0
 10
10.7638605516
 20
9.7504122014
 30
0.0
 10
10.7637797153
 20
9.7503519652
 30
0.0
 10
10.7636828956
 20
9.7502793309
 30
0.0
 10
10.7635537384
 20
9.7501826077
 30
0.0
 10
10.7633923139
 20
9.7500616617
 30
0.0
 10
10.7631340225
 20
9.7498681716
 30
0.0
 10
10.7628111624
 20
9.7496263009
 30
0.0
 10
10.7624237285
 20
9.7493360596
 30
0.0
 10
10.762036295
 20
9.7490458173
 30
0.0
 10
10.761519717
 20
9.748658828
 30
0.0
 10
10.7608739944
 20
9.7481750912
 30
0.0
 10
10.7600991273
 20
9.747594607
 30
0.0
 10
10.7590659712
 20
9.7468206282
 30
0.0
 10
10.7577745261
 20
9.7458531546
 30
0.0
 10
10.7562247919
 20
9.7446921863
 30
0.0
 10
10.7546750578
 20
9.7435312181
 30
0.0
 10
10.7531253236
 20
9.7423702498
 30
0.0
 10
10.7515755895
 20
9.7412092815
 30
0.0
 10
10.7500258553
 20
9.7400483132
 30
0.0
 10
10.7484761212
 20
9.738887345
 30
0.0
 10
10.746926387
 20
9.7377263767
 30
0.0
 10
10.7453766529
 20
9.7365654084
 30
0.0
 10
10.7440852078
 20
9.7355979348
 30
0.0
 10
10.7430520517
 20
9.734823956
 30
0.0
 10
10.7422771846
 20
9.7342434719
 30
0.0
 10
10.741631462
 20
9.7337597351
 30
0.0
 10
10.741114884
 20
9.7333727456
 30
0.0
 10
10.7407274503
 20
9.7330825037
 30
0.0
 10
10.7403400174
 20
9.7327922611
 30
0.0
 10
10.7400171542
 20
9.7325503944
 30
0.0
 10
10.7397588691
 20
9.7323568962
 30
0.0
 10
10.7395974285
 20
9.732235971
 30
0.0
 10
10.7394683043
 20
9.7321392052
 30
0.0
 10
10.7393713839
 20
9.7320667009
 30
0.0
 10
10.7392908627
 20
9.7320060577
 30
0.0
 10
10.7392340154
 20
9.7319640451
 30
0.0
 10
10.7392022846
 20
9.7319393546
 30
0.0
 10
10.7391763644
 20
9.7319227616
 30
0.0
 10
10.7391585556
 20
9.7318988107
 30
0.0
 10
10.7391319813
 20
9.7318694426
 30
0.0
 10
10.7390867944
 20
9.7318168527
 30
0.0
 10
10.7390215526
 20
9.7317423495
 30
0.0
 10
10.7389435573
 20
9.731652678
 30
0.0
 10
10.7388394607
 20
9.7315332095
 30
0.0
 10
10.7387093751
 20
9.7313838419
 30
0.0
 10
10.7385012184
 20
9.7311448716
 30
0.0
 10
10.7382410294
 20
9.7308461525
 30
0.0
 10
10.7379287997
 20
9.7304876923
 30
0.0
 10
10.7376165707
 20
9.7301292314
 30
0.0
 10
10.7372002652
 20
9.7296512837
 30
0.0
 10
10.7366798834
 20
9.729053849
 30
0.0
 10
10.7360554251
 20
9.7283369275
 30
0.0
 10
10.7352228142
 20
9.727381032
 30
0.0
 10
10.7341820504
 20
9.7261861628
 30
0.0
 10
10.732933134
 20
9.7247523196
 30
0.0
 10
10.7316842175
 20
9.7233184765
 30
0.0
 10
10.730435301
 20
9.7218846334
 30
0.0
 10
10.7291863846
 20
9.7204507902
 30
0.0
 10
10.7279374681
 20
9.7190169471
 30
0.0
 10
10.7266885517
 20
9.717583104
 30
0.0
 10
10.7254396352
 20
9.7161492608
 30
0.0
 10
10.7241907187
 20
9.7147154177
 30
0.0
 10
10.723149955
 20
9.7135205484
 30
0.0
 10
10.722317344
 20
9.712564653
 30
0.0
 10
10.7216928858
 20
9.7118477314
 30
0.0
 10
10.7211725039
 20
9.7112502968
 30
0.0
 10
10.7207561985
 20
9.710772349
 30
0.0
 10
10.7204439692
 20
9.7104138884
 30
0.0
 10
10.7201317407
 20
9.7100554271
 30
0.0
 10
10.7198715478
 20
9.7097567113
 30
0.0
 10
10.7196633992
 20
9.7095177344
 30
0.0
 10
10.7195332932
 20
9.7093683835
 30
0.0
 10
10.7194292384
 20
9.7092488806
 30
0.0
 10
10.7193511153
 20
9.7091593141
 30
0.0
 10
10.7192862735
 20
9.7090844826
 30
0.0
 10
10.7192403724
 20
9.7090324787
 30
0.0
 10
10.7192149424
 20
9.7090021718
 30
0.0
 10
10.7191936188
 20
9.7089811047
 30
0.0
 10
10.7191808998
 20
9.7089536805
 30
0.0
 10
10.7191609398
 20
9.7089193323
 30
0.0
 10
10.7191274083
 20
9.7088581899
 30
0.0
 10
10.7190787749
 20
9.7087713838
 30
0.0
 10
10.7190207279
 20
9.7086669852
 30
0.0
 10
10.7189432225
 20
9.7085278679
 30
0.0
 10
10.7188463781
 20
9.7083539435
 30
0.0
 10
10.7186914063
 20
9.7080756801
 30
0.0
 10
10.7184976987
 20
9.7077278454
 30
0.0
 10
10.7182652464
 20
9.7073104461
 30
0.0
 10
10.718032795
 20
9.7068930462
 30
0.0
 10
10.7177228596
 20
9.7063365132
 30
0.0
 10
10.7173354403
 20
9.7056408469
 30
0.0
 10
10.7168705371
 20
9.7048060473
 30
0.0
 10
10.7162506663
 20
9.7036929812
 30
0.0
 10
10.7154758277
 20
9.7023016486
 30
0.0
 10
10.7145460214
 20
9.7006320495
 30
0.0
 10
10.7136162151
 20
9.6989624503
 30
0.0
 10
10.7126864088
 20
9.6972928512
 30
0.0
 10
10.7117566025
 20
9.6956232521
 30
0.0
 10
10.7108267962
 20
9.6939536529
 30
0.0
 10
10.7098969899
 20
9.6922840538
 30
0.0
 10
10.7089671836
 20
9.6906144547
 30
0.0
 10
10.7080373773
 20
9.6889448555
 30
0.0
 10
10.7072625387
 20
9.6875535229
 30
0.0
 10
10.7066426678
 20
9.6864404568
 30
0.0
 10
10.7061777647
 20
9.6856056573
 30
0.0
 10
10.7057903454
 20
9.684909991
 30
0.0
 10
10.70548041
 20
9.6843534579
 30
0.0
 10
10.7052479582
 20
9.6839360582
 30
0.0
 10
10.7050155074
 20
9.6835186581
 30
0.0
 10
10.7048217955
 20
9.683170826
 30
0.0
 10
10.7046668324
 20
9.6828925573
 30
0.0
 10
10.7045699659
 20
9.6827186463
 30
0.0
 10
10.7044925059
 20
9.6825795015
 30
0.0
 10
10.7044343199
 20
9.682475187
 30
0.0
 10
10.7043861213
 20
9.6823881176
 30
0.0
 10
10.7043518137
 20
9.6823274452
 30
0.0
 10
10.7043330971
 20
9.6822923441
 30
0.0
 10
10.7043165588
 20
9.6822672327
 30
0.0
 10
10.7043095802
 20
9.6822374791
 30
0.0
 10
10.7042969408
 20
9.6821994268
 30
0.0
 10
10.7042763754
 20
9.682132081
 30
0.0
 10
10.7042461841
 20
9.6820362671
 30
0.0
 10
10.7042103022
 20
9.6819211215
 30
0.0
 10
10.7041623383
 20
9.6817676531
 30
0.0
 10
10.704102425
 20
9.6815757973
 30
0.0
 10
10.7040065404
 20
9.6812688395
 30
0.0
 10
10.7038866926
 20
9.6808851382
 30
0.0
 10
10.7037428718
 20
9.6804246984
 30
0.0
 10
10.703599052
 20
9.6799642582
 30
0.0
 10
10.7034072919
 20
9.679350338
 30
0.0
 10
10.7031675919
 20
9.6785829377
 30
0.0
 10
10.7028799518
 20
9.6776620574
 30
0.0
 10
10.7024964318
 20
9.676434217
 30
0.0
 10
10.7020170317
 20
9.6748994165
 30
0.0
 10
10.7014417516
 20
9.6730576559
 30
0.0
 10
10.7008664715
 20
9.6712158953
 30
0.0
 10
10.7002911914
 20
9.6693741346
 30
0.0
 10
10.6997159113
 20
9.667532374
 30
0.0
 10
10.6991406312
 20
9.6656906134
 30
0.0
 10
10.6985653511
 20
9.6638488528
 30
0.0
 10
10.697990071
 20
9.6620070921
 30
0.0
 10
10.6974147908
 20
9.6601653315
 30
0.0
 10
10.6969353908
 20
9.658630531
 30
0.0
 10
10.6965518707
 20
9.6574026906
 30
0.0
 10
10.6962642306
 20
9.6564818103
 30
0.0
 10
10.6960245306
 20
9.65571441
 30
0.0
 10
10.6958327706
 20
9.6551004898
 30
0.0
 10
10.6956889504
 20
9.6546400497
 30
0.0
 10
10.6955451311
 20
9.6541796093
 30
0.0
 10
10.6954252787
 20
9.65379591
 30
0.0
 10
10.6953294036
 20
9.6534889481
 30
0.0
 10
10.6952694662
 20
9.6532971026
 30
0.0
 10
10.6952215516
 20
9.6531436133
 30
0.0
 10
10.6951855189
 20
9.6530285315
 30
0.0
 10
10.6951557993
 20
9.652932518
 30
0.0
 10
10.695134392
 20
9.6528655285
 30
0.0
 10
10.6951231017
 20
9.6528269052
 30
0.0
 10
10.695111979
 20
9.6527989056
 30
0.0
 10
10.6951110051
 20
9.6527672065
 30
0.0
 10
10.6951061665
 20
9.6527262314
 30
0.0
 10
10.6950993485
 20
9.6526539238
 30
0.0
 10
10.695088746
 20
9.6525509416
 30
0.0
 10
10.6950763922
 20
9.6524272284
 30
0.0
 10
10.6950597916
 20
9.6522623244
 30
0.0
 10
10.6950390849
 20
9.6520561783
 30
0.0
 10
10.6950059295
 20
9.6517263536
 30
0.0
 10
10.6949644937
 20
9.6513140697
 30
0.0
 10
10.6949147672
 20
9.6508193302
 30
0.0
 10
10.6948650416
 20
9.6503245904
 30
0.0
 10
10.6947987405
 20
9.6496649375
 30
0.0
 10
10.6947158643
 20
9.6488403713
 30
0.0
 10
10.6946164127
 20
9.6478508919
 30
0.0
 10
10.6944838107
 20
9.6465315859
 30
0.0
 10
10.6943180581
 20
9.6448824536
 30
0.0
 10
10.694119155
 20
9.6429034947
 30
0.0
 10
10.6939202519
 20
9.6409245358
 30
0.0
 10
10.6937213488
 20
9.6389455769
 30
0.0
 10
10.6934561447
 20
9.6363069651
 30
0.0
 10
10.6931246395
 20
9.6330087003
 30
0.0
 10
10.6927268334
 20
9.6290507826
 30
0.0
 10
10.6923290272
 20
9.6250928648
 30
0.0
 10
10.6920638231
 20
9.622454253
 30
0.0
 10
10.691931221
 20
9.6211349471
 30
0.0
  0
ENDSEC
  0
SECTION
  2
OBJECTS
  0
DICTIONARY
  5
C
100
AcDbDictionary
280
0
281
1
  3
ACAD_GROUP
350
D
  3
ACAD_MLINESTYLE
350
17
  3
ACAD_LAYOUT
350
1A
  3
ACAD_PLOTSETTINGS
350
19
  3
ACAD_PLOTSTYLENAME
350
E
  3
ACAD_IMAGE_DICT
350
       3B8
  3
ACAD_IMAGE_VARS
350
       3B9
  3
ACAD_TABLESTYLE
350
       3BA
  0
IMAGEDEF_REACTOR
  5
3B7
100
AcDbRasterImageDefReactor
 90
2
330
292
  0
DICTIONARY
  5
D
102
{ACAD_REACTORS
330
C
102
}
100
AcDbDictionary
280
0
281
1
  0
ACDBDICTIONARYWDFLT
  5
E
102
{ACAD_REACTORS
330
C
102
}
100
AcDbDictionary
281
1
  3
Normal
350
F
100
AcDbDictionaryWithDefault
340
F
  0
DICTIONARY
  5
3B8
330
C
100
AcDbDictionary
281
1
  3
E7U_assy_2_img_1
350
       3BD
  0
RASTERVARIABLES
  5
3B9
330
C
100
AcDbRasterVariables
 90
0
 70
0
 71
1
 72
5
  0
DICTIONARY
  5
17
102
{ACAD_REACTORS
330
C
102
}
100
AcDbDictionary
280
0
281
1
  3
Standard
350
18
  0
DICTIONARY
  5
3BA
330
C
100
AcDbDictionary
281
1
  3
Standard
350
       3BE
  3
Standard1
350
       3BF
  0
DICTIONARY
  5
19
102
{ACAD_REACTORS
330
C
102
}
100
AcDbDictionary
281
1
  0
DICTIONARY
  5
1A
102
{ACAD_REACTORS
330
C
102
}
100
AcDbDictionary
281
1
  3
Model
350
3BB
  3
Layout1
350
3BC
  0
ACDBPLACEHOLDER
  5
F
102
{ACAD_REACTORS
330
E
102
}
  0
MLINESTYLE
  5
18
102
{ACAD_REACTORS
330
17
102
}
100
AcDbMlineStyle
  2
STANDARD
 70
0
  3

 62
256
 51
90.0
 52
90.0
 71
2
 49
0.5
 62
256
  6
BYLAYER
 49
-0.5
 62
256
  6
BYLAYER
  0
LAYOUT
  5
3BB
102
{ACAD_REACTORS
330
1A
102
}
100
AcDbPlotSettings
  1

  2
none_device
  4
ANSI_C_(22.00_x_17.00_Inches)
  6

 40
0.0
 41
0.0
 42
0.0
 43
0.0
 44
558.8
 45
431.8
 46
0.0
 47
0.0
 48
0.0
 49
0.0
140
0.0
141
0.0
142
1.0
143
1.0
 70
1024
 72
0
 73
0
 74
0
  7

 75
0
147
1.0
148
0.0
149
0.0
100
AcDbLayout
  1
Model
 70
0
 71
0
 10
0.0
 20
0.0
 11
22.0
 21
17.0
 12
0.0
 22
0.0
 32
0.0
 14
0.0
 24
0.0
 34
0.0
 15
0.0
 25
0.0
 35
0.0
146
0.0
 13
0.0
 23
0.0
 33
0.0
 16
1.0
 26
0.0
 36
0.0
 17
0.0
 27
1.0
 37
0.0
 76
0
330
20C
345
0
346
0
  0
LAYOUT
  5
3BC
102
{ACAD_REACTORS
330
1A
102
}
100
AcDbPlotSettings
  1

  2
none_device
  4
ANSI_C_(22.00_x_17.00_Inches)
  6

 40
0.0
 41
0.0
 42
0.0
 43
0.0
 44
558.8
 45
431.8
 46
0.0
 47
0.0
 48
0.0
 49
0.0
140
0.0
141
0.0
142
1.0
143
1.0
 70
0
 72
0
 73
0
 74
0
  7

 75
0
147
1.0
148
0.0
149
0.0
100
AcDbLayout
  1
Layout1
 70
0
 71
1
 10
0.0
 20
0.0
 11
22.0
 21
17.0
 12
0.0
 22
0.0
 32
0.0
 14
0.0
 24
0.0
 34
0.0
 15
0.0
 25
0.0
 35
0.0
146
0.0
 13
0.0
 23
0.0
 33
0.0
 16
1.0
 26
0.0
 36
0.0
 17
0.0
 27
1.0
 37
0.0
 76
0
330
20D
345
0
346
0
  0
IMAGEDEF
  5
3BD
102
{ACAD_REACTORS
330
3B8
330
3B7
102
}
100
AcDbRasterImageDef
 90
0
  1
E7U_assy_2_img_1.png
 10
369.0
 20
92.0
 11
0.0066666667
 21
0.0066666667
280
1
281
0
  0
TABLESTYLE
  5
3BE
102
{ACAD_REACTORS
330
3BA
330
295
330
296
102
}
330
3BA
100
AcDbTableStyle
  3
Standard
 70
0
 71
0
 40
0.06
 41
0.06
280
1
281
1
  7
Standard
140
0.18
170
1
 62
0
 63
7
283
0
  7
Standard
140
0.18
170
1
 62
0
 63
7
283
0
  7
Standard
140
0.18
170
1
 62
0
 63
7
283
0
  0
TABLESTYLE
  5
3BF
102
{ACAD_REACTORS
330
3BA
330
294
102
}
330
3BA
100
AcDbTableStyle
  3
Standard1
 70
1
 71
0
 40
0.06
 41
0.06
280
1
281
1
  7
Standard
140
0.18
170
1
 62
0
 63
7
283
0
  7
Standard
140
0.18
170
1
 62
0
 63
7
283
0
  7
Standard
140
0.18
170
1
 62
0
 63
7
283
0
  0
ENDSEC
  0
EOF
