999
DXF file: E7J_assy_2.dxf
999
Pro/ENGINEER 2014200 by Parametric Technology Corporation
  0
SECTION
  2
HEADER
  9
$ACADVER
  1
AC1021
  9
$DWGCODEPAGE
  3
ANSI_1252
  9
$EXTMAX
 10
22.0
 20
17.0
 30
0.0
  9
$EXTMIN
 10
0.0
 20
0.0
 30
0.0
  9
$LIMMIN
 10
0.0
 20
0.0
  9
$LIMMAX
 10
22.0
 20
17.0
  9
$VIEWCTR
 10
11.0
 20
8.5
  9
$VIEWSIZE
 40
17.0
  9
$CLAYER
  8
0
  9
$LTSCALE
 40
1.21
  9
$CELTYPE
  6
BYLAYER
  9
$DIMSCALE
 40
1.0
  9
$DIMASZ
 40
0.1875
  9
$DIMEXO
 40
0.0625
  9
$DIMDLI
 40
0.836
  9
$DIMEXE
 40
0.125
  9
$DIMCEN
 40
0.198
  9
$DIMLFAC
 40
1.0
  9
$DIMBLK
  1
_FILLED
  9
$DIMTXT
 40
0.1
  9
$DIMTOL
 70
0
  9
$DIMLIM
 70
0
  9
$DIMTFAC
 40
1.0
  9
$DIMGAP
 40
0.09
  9
$DIMDSEP
 70
46
  9
$AUNITS
 70
0
  9
$PDMODE
 70
3
  9
$PDSIZE
 40
0.3125
  9
$HANDSEED
  5
3AE
  9
$TILEMODE
 70
1
  9
$MEASUREMENT
 70
0
  9
$INSUNITS
 70
1
  0
ENDSEC
  0
SECTION
  2
CLASSES
  0
CLASS
  1
ACDBDICTIONARYWDFLT
  2
AcDbDictionaryWithDefault
  3
AutoCAD 2000
 90
0
 91
1
280
0
281
0
  0
CLASS
  1
ACDBPLACEHOLDER
  2
AcDbPlaceHolder
  3
AutoCAD 2000
 90
0
 91
1
280
0
281
0
  0
CLASS
  1
LAYOUT
  2
AcDbLayout
  3
AutoCAD 2000
 90
0
 91
0
280
0
281
0
  0
CLASS
  1
RASTERVARIABLES
  2
AcDbRasterVariables
  3
ISM
 90
0
 91
1
280
0
281
0
  0
CLASS
  1
IMAGEDEF
  2
AcDbRasterImageDef
  3
ISM
 90
0
 91
1
280
0
281
0
  0
CLASS
  1
IMAGEDEF_REACTOR
  2
AcDbRasterImageDefReactor
  3
ISM
 90
0
 91
1
280
0
281
0
  0
CLASS
  1
IMAGE
  2
AcDbRasterImage
  3
ISM
 90
127
 91
1
280
0
281
1
  0
CLASS
  1
TABLESTYLE
  2
AcDbTableStyle
  3
ObjectDBX Classes
 90
2047
 91
1
280
0
281
0
  0
CLASS
  1
ACAD_TABLE
  2
AcDbTable
  3
ObjectDBX Classes
 90
1025
 91
3
280
0
281
1
  0
ENDSEC
  0
SECTION
  2
TABLES
  0
TABLE
  2
VPORT
  5
8
100
AcDbSymbolTable
 70
2
  0
VPORT
  5
1F4
100
AcDbSymbolTableRecord
100
AcDbViewportTableRecord
  2
*ACTIVE
 70
0
 10
0.0
 20
0.0
 11
1.0
 21
1.0
 12
11.0
 22
8.5
 13
0.0
 23
0.0
 14
1.0
 24
1.0
 15
0.0
 25
0.0
 16
0.0
 26
0.0
 36
1.0
 17
0.0
 27
0.0
 37
0.0
 40
17.0
 41
1.2941176471
 42
50.0
 43
0.0
 44
0.0
 50
0.0
 51
0.0
 71
0
 72
100
 73
1
 74
1
 75
0
 76
0
 77
0
 78
0
  0
ENDTAB
  0
TABLE
  2
LTYPE
  5
5
100
AcDbSymbolTable
 70
6
  0
LTYPE
  5
14
100
AcDbSymbolTableRecord
100
AcDbLinetypeTableRecord
  2
BYBLOCK
 70
0
  3

 72
65
 73
0
 40
0.0
  0
LTYPE
  5
15
100
AcDbSymbolTableRecord
100
AcDbLinetypeTableRecord
  2
BYLAYER
 70
0
  3

 72
65
 73
0
 40
0.0
  0
LTYPE
  5
16
100
AcDbSymbolTableRecord
100
AcDbLinetypeTableRecord
  2
CONTINUOUS
 70
64
  3
Solid line
 72
65
 73
0
 40
0.0
  0
LTYPE
  5
1F5
100
AcDbSymbolTableRecord
100
AcDbLinetypeTableRecord
  2
CENTER
 70
64
  3
____ _ ____ _ ____ _ ____ _ ____ _ ____ _ ____
 72
65
 73
4
 40
0.6
 49
0.375
 74
0
 49
-0.075
 74
0
 49
0.075
 74
0
 49
-0.075
 74
0
  0
LTYPE
  5
1F6
100
AcDbSymbolTableRecord
100
AcDbLinetypeTableRecord
  2
HIDDEN
 70
64
  3
- - - - - - - - - - - - - - - - - - - -
 72
65
 73
2
 40
0.2
 49
0.1
 74
0
 49
-0.1
 74
0
  0
LTYPE
  5
1F7
100
AcDbSymbolTableRecord
100
AcDbLinetypeTableRecord
  2
PHANTOM
 70
64
  3
_____ _ _ _____ _ _ _____ _ _ _____
 72
65
 73
6
 40
0.8
 49
0.45
 74
0
 49
-0.05
 74
0
 49
0.1
 74
0
 49
-0.05
 74
0
 49
0.1
 74
0
 49
-0.05
 74
0
  0
LTYPE
  5
1F8
100
AcDbSymbolTableRecord
100
AcDbLinetypeTableRecord
  2
DOT
 70
64
  3
. . . . . . . . . . . . . . . . . . . .
 72
65
 73
2
 40
0.2
 49
0.1
 74
0
 49
-0.1
 74
0
  0
LTYPE
  5
1F9
100
AcDbSymbolTableRecord
100
AcDbLinetypeTableRecord
  2
DASHED
 70
64
  3
- - - - - - - - - - - - - - - - - - - -
 72
65
 73
2
 40
0.2
 49
0.1
 74
0
 49
-0.1
 74
0
  0
ENDTAB
  0
TABLE
  2
LAYER
  5
2
100
AcDbSymbolTable
 70
36
  0
LAYER
  5
10
100
AcDbSymbolTableRecord
100
AcDbLayerTableRecord
  2
0
 70
0
 62
7
  6
CONTINUOUS
370
-3
390
F
  0
LAYER
  5
1FA
100
AcDbSymbolTableRecord
100
AcDbLayerTableRecord
  2
DEFAULT_1
 70
0
 62
7
  6
CENTER
370
-3
390
F
  0
LAYER
  5
1FB
100
AcDbSymbolTableRecord
100
AcDbLayerTableRecord
  2
DEFAULT_2
 70
0
 62
8
  6
HIDDEN
370
-3
390
F
  0
LAYER
  5
1FC
100
AcDbSymbolTableRecord
100
AcDbLayerTableRecord
  2
DEFAULT_3
 70
0
 62
7
  6
PHANTOM
370
-3
390
F
  0
LAYER
  5
1FD
100
AcDbSymbolTableRecord
100
AcDbLayerTableRecord
  2
01___PRT_ALL_DTM_PLN
 70
0
 62
7
  6
CONTINUOUS
370
-3
390
F
  0
LAYER
  5
1FE
100
AcDbSymbolTableRecord
100
AcDbLayerTableRecord
  2
01___PRT_DEF_DTM_PLN
 70
0
 62
7
  6
CONTINUOUS
370
-3
390
F
  0
LAYER
  5
1FF
100
AcDbSymbolTableRecord
100
AcDbLayerTableRecord
  2
02___PRT_ALL_AXES
 70
0
 62
7
  6
CONTINUOUS
370
-3
390
F
  0
LAYER
  5
200
100
AcDbSymbolTableRecord
100
AcDbLayerTableRecord
  2
03___PRT_ALL_CURVES
 70
0
 62
7
  6
CONTINUOUS
370
-3
390
F
  0
LAYER
  5
201
100
AcDbSymbolTableRecord
100
AcDbLayerTableRecord
  2
04___PRT_ALL_DTM_PNT
 70
0
 62
7
  6
CONTINUOUS
370
-3
390
F
  0
LAYER
  5
202
100
AcDbSymbolTableRecord
100
AcDbLayerTableRecord
  2
05___PRT_ALL_DTM_CSYS
 70
0
 62
7
  6
CONTINUOUS
370
-3
390
F
  0
LAYER
  5
203
100
AcDbSymbolTableRecord
100
AcDbLayerTableRecord
  2
05___PRT_DEF_DTM_CSYS
 70
0
 62
7
  6
CONTINUOUS
370
-3
390
F
  0
LAYER
  5
204
100
AcDbSymbolTableRecord
100
AcDbLayerTableRecord
  2
06___PRT_ALL_SURFS
 70
0
 62
7
  6
CONTINUOUS
370
-3
390
F
  0
LAYER
  5
205
100
AcDbSymbolTableRecord
100
AcDbLayerTableRecord
  2
DATUM_PLANES
 70
0
 62
7
  6
CONTINUOUS
370
-3
390
F
  0
LAYER
  5
206
100
AcDbSymbolTableRecord
100
AcDbLayerTableRecord
  2
PORT_AREAS
 70
0
 62
7
  6
CONTINUOUS
370
-3
390
F
  0
LAYER
  5
207
100
AcDbSymbolTableRecord
100
AcDbLayerTableRecord
  2
SUNNBOMCOSMETIC
 70
0
 62
7
  6
CONTINUOUS
370
-3
390
F
  0
LAYER
  5
208
100
AcDbSymbolTableRecord
100
AcDbLayerTableRecord
  2
SUNNBOMSTAMPING
 70
0
 62
7
  6
CONTINUOUS
370
-3
390
F
  0
LAYER
  5
209
100
AcDbSymbolTableRecord
100
AcDbLayerTableRecord
  2
THREADS
 70
0
 62
7
  6
CONTINUOUS
370
-3
390
F
  0
ENDTAB
  0
TABLE
  2
STYLE
  5
3
100
AcDbSymbolTable
 70
1
  0
STYLE
  5
11
100
AcDbSymbolTableRecord
100
AcDbTextStyleTableRecord
  2
STANDARD
 70
0
 40
0.0
 41
0.8
 50
0.0
 71
0
 42
0.2
  3
txt
  4

  0
STYLE
  5
20A
100
AcDbSymbolTableRecord
100
AcDbTextStyleTableRecord
  2
TEXTSTYLE_1
 70
0
 40
0.0
 41
0.8
 50
0.0
 71
0
 42
0.2
  3
gdt
  4

  0
ENDTAB
  0
TABLE
  2
VIEW
  5
6
100
AcDbSymbolTable
 70
0
  0
ENDTAB
  0
TABLE
  2
UCS
  5
7
100
AcDbSymbolTable
 70
0
  0
ENDTAB
  0
TABLE
  2
APPID
  5
9
100
AcDbSymbolTable
 70
1
  0
APPID
  5
20B
100
AcDbSymbolTableRecord
100
AcDbRegAppTableRecord
  2
ACAD
 70
0
  0
ENDTAB
  0
TABLE
  2
BLOCK_RECORD
  5
1
100
AcDbSymbolTable
 70
0
  0
BLOCK_RECORD
  5
20C
100
AcDbSymbolTableRecord
100
AcDbBlockTableRecord
  2
*Model_Space
  0
BLOCK_RECORD
  5
20D
100
AcDbSymbolTableRecord
100
AcDbBlockTableRecord
  2
*Paper_Space
  0
BLOCK_RECORD
  5
20E
100
AcDbSymbolTableRecord
100
AcDbBlockTableRecord
  2
SUN_FIRST_THIRD_ANGLE_BL0
  0
BLOCK_RECORD
  5
20F
100
AcDbSymbolTableRecord
100
AcDbBlockTableRecord
  2
*T1
  0
BLOCK_RECORD
  5
210
100
AcDbSymbolTableRecord
100
AcDbBlockTableRecord
  2
*T2
  0
BLOCK_RECORD
  5
211
100
AcDbSymbolTableRecord
100
AcDbBlockTableRecord
  2
*T3
  0
ENDTAB
  0
TABLE
  2
DIMSTYLE
  5
A
100
AcDbSymbolTable
 70
1
100
AcDbDimStyleTable
 71
0
  0
DIMSTYLE
105
212
100
AcDbSymbolTableRecord
100
AcDbDimStyleTableRecord
  2
STANDARD
 70
0
  3

  4

 40
1.0
 41
0.1875
 42
0.0625
 43
0.38
 44
0.125
 45
0.0
 46
0.0
 47
0.001
 48
0.001
140
0.1
141
0.09
142
0.0
143
25.4
144
1.0
145
0.0
146
1.0
147
0.09
 71
0.0
 72
0.0
 73
1
 74
1
 75
0
 76
0
 77
0
 78
4
170
0
171
2
172
0
173
0
174
0
175
0
176
0
177
0
178
0
270
2
271
3
272
3
273
2
274
2
275
0
280
0
281
0
282
0
283
1
284
4
285
0
286
0
287
3
288
0
340
11
278
46
  0
ENDTAB
  0
ENDSEC
  0
SECTION
  2
BLOCKS
  0
BLOCK
  5
20
100
AcDbEntity
  8
0
100
AcDbBlockBegin
  2
*Model_Space
 70
0
 10
0.0
 20
0.0
 30
0.0
  3
*Model_Space
  1

  0
ENDBLK
  5
21
100
AcDbEntity
  8
0
100
AcDbBlockEnd
  0
BLOCK
  5
1C
100
AcDbEntity
  8
0
100
AcDbBlockBegin
  2
*Paper_Space
 70
0
 10
0.0
 20
0.0
 30
0.0
  3
*Paper_Space
  1

  0
ENDBLK
  5
1D
100
AcDbEntity
  8
0
100
AcDbBlockEnd
  0
BLOCK
  5
213
100
AcDbEntity
  8
0
100
AcDbBlockBegin
 62
2
  6
CONTINUOUS
  2
SUN_FIRST_THIRD_ANGLE_BL0
 70
64
 10
20.4816717061
 20
1.2289683772
  3
SUN_FIRST_THIRD_ANGLE_BL0
  1

  0
TEXT
  5
214
100
AcDbEntity
  8
0
100
AcDbText
 62
2
  6
CONTINUOUS
 10
19.4750896608
 20
1.4136269581
  7
STANDARD
 40
0.08
  1
FIRST ANGLE
 41
0.8
 72
0
100
AcDbText
  0
TEXT
  5
215
100
AcDbEntity
  8
0
100
AcDbText
 62
2
  6
CONTINUOUS
 10
20.7842537513
 20
1.4047600029
  7
STANDARD
 40
0.08
  1
THIRD ANGLE
 41
0.8
 72
0
100
AcDbText
  0
LINE
  5
216
100
AcDbEntity
  8
0
100
AcDbLine
 62
7
  6
CONTINUOUS
 10
19.4767170086
 20
1.1727031207
 11
19.6334271527
 21
1.1717972817
  0
LINE
  5
217
100
AcDbEntity
  8
0
100
AcDbLine
 62
7
  6
CONTINUOUS
 10
19.6596964832
 20
1.1717972817
 11
19.6950230232
 21
1.171593082
  0
LINE
  5
218
100
AcDbEntity
  8
0
100
AcDbLine
 62
7
  6
CONTINUOUS
 10
19.7194818561
 20
1.1708914427
 11
19.8852396156
 21
1.1699333054
  0
LINE
  5
219
100
AcDbEntity
  8
0
100
AcDbLine
 62
7
  6
CONTINUOUS
 10
19.4758111696
 20
1.2723454088
 11
19.88525039
 21
1.3511534004
  0
LINE
  5
21A
100
AcDbEntity
  8
0
100
AcDbLine
 62
7
  6
CONTINUOUS
 10
19.88525039
 20
1.3511534004
 11
19.8831348489
 21
0.9851647912
  0
LINE
  5
21B
100
AcDbEntity
  8
0
100
AcDbLine
 62
7
  6
CONTINUOUS
 10
19.8831348489
 20
0.9851647912
 11
19.4767170086
 21
1.0658141206
  0
LINE
  5
21C
100
AcDbEntity
  8
0
100
AcDbLine
 62
7
  6
CONTINUOUS
 10
19.4767170086
 20
1.0658141206
 11
19.4779056764
 21
1.2714536432
  0
CIRCLE
  5
21D
100
AcDbEntity
  8
0
100
AcDbCircle
 62
7
  6
CONTINUOUS
 10
20.2068232291
 20
1.1717972817
 40
0.175742101
  0
CIRCLE
  5
21E
100
AcDbEntity
  8
0
100
AcDbCircle
 62
7
  6
CONTINUOUS
 10
20.2068232291
 20
1.1717972817
 40
0.1005522074
  0
LINE
  5
21F
100
AcDbEntity
  8
0
100
AcDbLine
 62
7
  6
CONTINUOUS
 10
20.2077290681
 20
1.3756110529
 11
20.2071171714
 21
1.2379342989
  0
LINE
  5
220
100
AcDbEntity
  8
0
100
AcDbLine
 62
7
  6
CONTINUOUS
 10
20.2077290681
 20
1.2016899681
 11
20.2074674401
 21
1.1428236749
  0
LINE
  5
221
100
AcDbEntity
  8
0
100
AcDbLine
 62
7
  6
CONTINUOUS
 10
20.208634907
 20
1.101141841
 11
20.2080230104
 21
0.963465087
  0
LINE
  5
222
100
AcDbEntity
  8
0
100
AcDbLine
 62
7
  6
CONTINUOUS
 10
20.0066328138
 20
1.1745147986
 11
20.1443095678
 21
1.1739029019
  0
LINE
  5
223
100
AcDbEntity
  8
0
100
AcDbLine
 62
7
  6
CONTINUOUS
 10
20.1832714155
 20
1.1727031207
 11
20.238153505
 21
1.172335442
  0
LINE
  5
224
100
AcDbEntity
  8
0
100
AcDbLine
 62
7
  6
CONTINUOUS
 10
20.2756669918
 20
1.1717972817
 11
20.407916871
 21
1.1712095044
  0
CIRCLE
  5
225
100
AcDbEntity
  8
0
100
AcDbCircle
 62
7
  6
CONTINUOUS
 10
20.7509457401
 20
1.1693297793
 40
0.1722024983
  0
CIRCLE
  5
226
100
AcDbEntity
  8
0
100
AcDbCircle
 62
7
  6
CONTINUOUS
 10
20.7509457401
 20
1.1693297793
 40
0.0985164967
  0
LINE
  5
227
100
AcDbEntity
  8
0
100
AcDbLine
 62
7
  6
CONTINUOUS
 10
20.7169767782
 20
1.170462078
 11
20.7825395137
 21
1.1682766535
  0
LINE
  5
228
100
AcDbEntity
  8
0
100
AcDbLine
 62
7
  6
CONTINUOUS
 10
20.8177513651
 20
1.1693297793
 11
20.947965719
 21
1.1693297793
  0
LINE
  5
229
100
AcDbEntity
  8
0
100
AcDbLine
 62
7
  6
CONTINUOUS
 10
20.6875370113
 20
1.170462078
 11
20.5573226574
 21
1.170462078
  0
LINE
  5
22A
100
AcDbEntity
  8
0
100
AcDbLine
 62
7
  6
CONTINUOUS
 10
20.7486811426
 20
1.1987695462
 11
20.7486811426
 21
1.1432869085
  0
LINE
  5
22B
100
AcDbEntity
  8
0
100
AcDbLine
 62
7
  6
CONTINUOUS
 10
20.7498134414
 20
1.1059210505
 11
20.7498134414
 21
0.9757066966
  0
LINE
  5
22C
100
AcDbEntity
  8
0
100
AcDbLine
 62
7
  6
CONTINUOUS
 10
20.7486811426
 20
1.2338708068
 11
20.7486811426
 21
1.3640851607
  0
LINE
  5
22D
100
AcDbEntity
  8
0
100
AcDbLine
 62
7
  6
CONTINUOUS
 10
21.0702539817
 20
1.2701043662
 11
21.4790138229
 21
1.3448360823
  0
LINE
  5
22E
100
AcDbEntity
  8
0
100
AcDbLine
 62
7
  6
CONTINUOUS
 10
21.4790138229
 20
1.3448360823
 11
21.4790138229
 21
0.9779712941
  0
LINE
  5
22F
100
AcDbEntity
  8
0
100
AcDbLine
 62
7
  6
CONTINUOUS
 10
21.4790138229
 20
0.9779712941
 11
21.069121683
 21
1.0617614
  0
LINE
  5
230
100
AcDbEntity
  8
0
100
AcDbLine
 62
7
  6
CONTINUOUS
 10
21.0702539817
 20
1.2701043662
 11
21.069121683
 21
1.0617614
  0
LINE
  5
231
100
AcDbEntity
  8
0
100
AcDbLine
 62
7
  6
CONTINUOUS
 10
21.4790138229
 20
1.1693297793
 11
21.3159628059
 21
1.1693297793
  0
LINE
  5
232
100
AcDbEntity
  8
0
100
AcDbLine
 62
7
  6
CONTINUOUS
 10
21.2876553377
 20
1.1693297793
 11
21.2502894796
 21
1.1693297793
  0
LINE
  5
233
100
AcDbEntity
  8
0
100
AcDbLine
 62
7
  6
CONTINUOUS
 10
21.2208497126
 20
1.1659328831
 11
21.0713862804
 21
1.1659328831
  0
LINE
  5
234
100
AcDbEntity
  8
0
100
AcDbLine
 62
7
  6
CONTINUOUS
 10
20.4796138713
 20
1.5284908897
 11
20.4766766948
 21
0.9294458646
  0
ENDBLK
  5
235
100
AcDbEntity
  8
0
  6
BYBLOCK
 62
0
100
AcDbBlockEnd
  0
BLOCK
  5
236
100
AcDbEntity
  8
0
100
AcDbBlockBegin
  2
*T1
 70
1
 10
0.0
 20
0.0
  3
*T1
  1

  0
LINE
  5
237
100
AcDbEntity
  8
0
100
AcDbLine
 62
2
  6
CONTINUOUS
 10
9.275
 20
0.0
 11
-0.0
 21
0.0
  0
LINE
  5
238
100
AcDbEntity
  8
0
100
AcDbLine
 62
2
  6
CONTINUOUS
 10
9.275
 20
0.0
 11
9.275
 21
1.25
  0
LINE
  5
239
100
AcDbEntity
  8
0
100
AcDbLine
 62
2
  6
CONTINUOUS
 10
9.275
 20
0.625
 11
-0.0
 21
0.625
  0
LINE
  5
23A
100
AcDbEntity
  8
0
100
AcDbLine
 62
2
  6
CONTINUOUS
 10
9.275
 20
1.25
 11
-0.0
 21
1.25
  0
LINE
  5
23B
100
AcDbEntity
  8
0
100
AcDbLine
 62
2
  6
CONTINUOUS
 10
6.8
 20
0.0
 11
6.8
 21
1.25
  0
LINE
  5
23C
100
AcDbEntity
  8
0
100
AcDbLine
 62
2
  6
CONTINUOUS
 10
6.4
 20
0.0
 11
6.4
 21
0.625
  0
LINE
  5
23D
100
AcDbEntity
  8
0
100
AcDbLine
 62
2
  6
CONTINUOUS
 10
5.9
 20
0.0
 11
5.9
 21
0.625
  0
LINE
  5
23E
100
AcDbEntity
  8
0
100
AcDbLine
 62
2
  6
CONTINUOUS
 10
5.2
 20
0.0
 11
5.2
 21
0.625
  0
LINE
  5
23F
100
AcDbEntity
  8
0
100
AcDbLine
 62
2
  6
CONTINUOUS
 10
4.1
 20
0.0
 11
4.1
 21
1.25
  0
LINE
  5
240
100
AcDbEntity
  8
0
100
AcDbLine
 62
2
  6
CONTINUOUS
 10
-0.0
 20
0.0
 11
-0.0
 21
1.25
  0
MTEXT
  5
241
100
AcDbEntity
  8
0
100
AcDbMText
 62
2
  6
CONTINUOUS
  7
STANDARD
 71
2
 72
1
 10
6.6
 20
0.325
 30
0.0
 11
1.0
 21
0.0
 31
0.0
 44
0.9
  1
2
 40
0.125
 41
0.2
  0
MTEXT
  5
242
100
AcDbEntity
  8
0
100
AcDbMText
 62
2
  6
CONTINUOUS
  7
STANDARD
 71
2
 72
1
 10
6.15
 20
0.325
 30
0.0
 11
1.0
 21
0.0
 31
0.0
 44
0.9
  1
C
 40
0.125
 41
0.2
  0
MTEXT
  5
243
100
AcDbEntity
  8
0
100
AcDbMText
 62
2
  6
CONTINUOUS
  7
STANDARD
 71
2
 72
1
 10
5.55
 20
0.325
 30
0.0
 11
1.0
 21
0.0
 31
0.0
 44
0.9
  1
1.000
 40
0.125
 41
1.0
  0
MTEXT
  5
244
100
AcDbEntity
  8
0
100
AcDbMText
 62
2
  6
CONTINUOUS
  7
STANDARD
 71
2
 72
1
 10
4.65
 20
0.325
 30
0.0
 11
1.0
 21
0.0
 31
0.0
 44
0.9
  1
Jan-04-24
 40
0.125
 41
1.8
  0
MTEXT
  5
245
100
AcDbEntity
  8
0
100
AcDbMText
 62
2
  6
CONTINUOUS
  7
STANDARD
 71
2
 72
1
 10
2.05
 20
0.4625
 30
0.0
 11
1.0
 21
0.0
 31
0.0
 44
0.9
  1
T-11A Line mount\PThrough port 1 with reverse flow check
 40
0.125
 41
7.6
  0
MTEXT
  5
246
100
AcDbEntity
  8
0
100
AcDbMText
 62
2
  6
CONTINUOUS
  7
STANDARD
 71
1
 72
1
 10
6.45
 20
0.5625
 30
0.0
 11
1.0
 21
0.0
 31
0.0
 44
0.9
  1
SHEET
 40
0.06
 41
0.48
  0
MTEXT
  5
247
100
AcDbEntity
  8
0
100
AcDbMText
 62
2
  6
CONTINUOUS
  7
STANDARD
 71
1
 72
1
 10
5.95
 20
0.5625
 30
0.0
 11
1.0
 21
0.0
 31
0.0
 44
0.9
  1
DWG SIZE
 40
0.06
 41
0.768
  0
MTEXT
  5
248
100
AcDbEntity
  8
0
100
AcDbMText
 62
2
  6
CONTINUOUS
  7
STANDARD
 71
1
 72
1
 10
5.25
 20
0.5625
 30
0.0
 11
1.0
 21
0.0
 31
0.0
 44
0.9
  1
SCALE
 40
0.06
 41
0.48
  0
MTEXT
  5
249
100
AcDbEntity
  8
0
100
AcDbMText
 62
2
  6
CONTINUOUS
  7
STANDARD
 71
1
 72
1
 10
4.15
 20
0.5625
 30
0.0
 11
1.0
 21
0.0
 31
0.0
 44
0.9
  1
DATE
 40
0.06
 41
0.384
  0
MTEXT
  5
24A
100
AcDbEntity
  8
0
100
AcDbMText
 62
2
  6
CONTINUOUS
  7
STANDARD
 71
1
 72
1
 10
0.05
 20
0.5625
 30
0.0
 11
1.0
 21
0.0
 31
0.0
 44
0.9
  1
DESCRIPTION
 40
0.06
 41
1.056
  0
MTEXT
  5
24B
100
AcDbEntity
  8
0
100
AcDbMText
 62
2
  6
CONTINUOUS
  7
STANDARD
 71
2
 72
1
 10
5.45
 20
1.0375
 30
0.0
 11
1.0
 21
0.0
 31
0.0
 44
0.9
  1
ALL DIMENSIONS IN INCH\PVIEWS ARE THIRD ANGLE
 40
0.12
 41
4.224
  0
MTEXT
  5
24C
100
AcDbEntity
  8
0
100
AcDbMText
 62
2
  6
CONTINUOUS
  7
STANDARD
 71
2
 72
1
 10
2.05
 20
0.95
 30
0.0
 11
1.0
 21
0.0
 31
0.0
 44
0.9
  1
E7J
 40
0.125
 41
0.6
  0
MTEXT
  5
24D
100
AcDbEntity
  8
0
100
AcDbMText
 62
2
  6
CONTINUOUS
  7
STANDARD
 71
1
 72
1
 10
0.05
 20
1.1875
 30
0.0
 11
1.0
 21
0.0
 31
0.0
 44
0.9
  1
MODEL
 40
0.06
 41
0.48
  0
ENDBLK
  5
24E
100
AcDbEntity
  8
0
  6
BYBLOCK
 62
0
100
AcDbBlockEnd
  0
BLOCK
  5
24F
100
AcDbEntity
  8
0
100
AcDbBlockBegin
  2
*T2
 70
1
 10
0.0
 20
0.0
  3
*T2
  1

  0
LINE
  5
250
100
AcDbEntity
  8
0
100
AcDbLine
 62
2
  6
CONTINUOUS
 10
0.0
 20
0.0
 11
9.055
 21
0.0
  0
LINE
  5
251
100
AcDbEntity
  8
0
100
AcDbLine
 62
2
  6
CONTINUOUS
 10
0.0
 20
0.0
 11
0.0
 21
-2.844
  0
LINE
  5
252
100
AcDbEntity
  8
0
100
AcDbLine
 62
2
  6
CONTINUOUS
 10
0.0
 20
-0.344
 11
9.055
 21
-0.344
  0
LINE
  5
253
100
AcDbEntity
  8
0
100
AcDbLine
 62
2
  6
CONTINUOUS
 10
0.0
 20
-0.594
 11
9.055
 21
-0.594
  0
LINE
  5
254
100
AcDbEntity
  8
0
100
AcDbLine
 62
2
  6
CONTINUOUS
 10
0.0
 20
-0.844
 11
9.055
 21
-0.844
  0
LINE
  5
255
100
AcDbEntity
  8
0
100
AcDbLine
 62
2
  6
CONTINUOUS
 10
0.0
 20
-1.094
 11
9.055
 21
-1.094
  0
LINE
  5
256
100
AcDbEntity
  8
0
100
AcDbLine
 62
2
  6
CONTINUOUS
 10
0.0
 20
-1.344
 11
9.055
 21
-1.344
  0
LINE
  5
257
100
AcDbEntity
  8
0
100
AcDbLine
 62
2
  6
CONTINUOUS
 10
0.0
 20
-1.594
 11
9.055
 21
-1.594
  0
LINE
  5
258
100
AcDbEntity
  8
0
100
AcDbLine
 62
2
  6
CONTINUOUS
 10
0.0
 20
-1.844
 11
9.055
 21
-1.844
  0
LINE
  5
259
100
AcDbEntity
  8
0
100
AcDbLine
 62
2
  6
CONTINUOUS
 10
0.0
 20
-2.094
 11
9.055
 21
-2.094
  0
LINE
  5
25A
100
AcDbEntity
  8
0
100
AcDbLine
 62
2
  6
CONTINUOUS
 10
0.0
 20
-2.344
 11
9.055
 21
-2.344
  0
LINE
  5
25B
100
AcDbEntity
  8
0
100
AcDbLine
 62
2
  6
CONTINUOUS
 10
0.0
 20
-2.594
 11
9.055
 21
-2.594
  0
LINE
  5
25C
100
AcDbEntity
  8
0
100
AcDbLine
 62
2
  6
CONTINUOUS
 10
0.0
 20
-2.844
 11
9.055
 21
-2.844
  0
LINE
  5
25D
100
AcDbEntity
  8
0
100
AcDbLine
 62
2
  6
CONTINUOUS
 10
3.055
 20
0.0
 11
3.055
 21
-2.844
  0
LINE
  5
25E
100
AcDbEntity
  8
0
100
AcDbLine
 62
2
  6
CONTINUOUS
 10
9.055
 20
0.0
 11
9.055
 21
-2.844
  0
MTEXT
  5
25F
100
AcDbEntity
  8
0
100
AcDbMText
 62
2
  6
CONTINUOUS
  7
STANDARD
 71
2
 72
1
 10
1.5275
 20
-0.0995
 30
0.0
 11
1.0
 21
0.0
 31
0.0
 44
0.9
  1
Technical Data
 40
0.145
 41
3.248
  0
MTEXT
  5
260
100
AcDbEntity
  8
0
100
AcDbMText
 62
2
  6
CONTINUOUS
  7
STANDARD
 71
2
 72
1
 10
4.555
 20
-0.0995
 30
0.0
 11
1.0
 21
0.0
 31
0.0
 44
0.9
  1
U.S. Units
 40
0.145
 41
2.32
  0
MTEXT
  5
261
100
AcDbEntity
  8
0
100
AcDbMText
 62
2
  6
CONTINUOUS
  7
STANDARD
 71
2
 72
1
 10
7.555
 20
-0.0995
 30
0.0
 11
1.0
 21
0.0
 31
0.0
 44
0.9
  1
Metric Units
 40
0.145
 41
2.784
  0
MTEXT
  5
262
100
AcDbEntity
  8
0
100
AcDbMText
 62
2
  6
CONTINUOUS
  7
STANDARD
 71
2
 72
1
 10
1.5275
 20
-0.4065
 30
0.0
 11
1.0
 21
0.0
 31
0.0
 44
0.9
  1
Cavity
 40
0.125
 41
1.2
  0
MTEXT
  5
263
100
AcDbEntity
  8
0
100
AcDbMText
 62
2
  6
CONTINUOUS
  7
STANDARD
 71
2
 72
1
 10
6.055
 20
-0.4065
 30
0.0
 11
1.0
 21
0.0
 31
0.0
 44
0.9
  1
T-11A
 40
0.125
 41
1.0
  0
MTEXT
  5
264
100
AcDbEntity
  8
0
100
AcDbMText
 62
2
  6
CONTINUOUS
  7
STANDARD
 71
2
 72
1
 10
1.5275
 20
-0.6565
 30
0.0
 11
1.0
 21
0.0
 31
0.0
 44
0.9
  1
Body Features
 40
0.125
 41
2.6
  0
MTEXT
  5
265
100
AcDbEntity
  8
0
100
AcDbMText
 62
2
  6
CONTINUOUS
  7
STANDARD
 71
2
 72
1
 10
6.055
 20
-0.6565
 30
0.0
 11
1.0
 21
0.0
 31
0.0
 44
0.9
  1
Through port 1 with reverse flow check
 40
0.125
 41
7.6
  0
MTEXT
  5
266
100
AcDbEntity
  8
0
100
AcDbMText
 62
2
  6
CONTINUOUS
  7
STANDARD
 71
2
 72
1
 10
1.5275
 20
-0.9065
 30
0.0
 11
1.0
 21
0.0
 31
0.0
 44
0.9
  1
Body Type
 40
0.125
 41
1.8
  0
MTEXT
  5
267
100
AcDbEntity
  8
0
100
AcDbMText
 62
2
  6
CONTINUOUS
  7
STANDARD
 71
2
 72
1
 10
6.055
 20
-0.9065
 30
0.0
 11
1.0
 21
0.0
 31
0.0
 44
0.9
  1
Line mount
 40
0.125
 41
2.0
  0
MTEXT
  5
268
100
AcDbEntity
  8
0
100
AcDbMText
 62
2
  6
CONTINUOUS
  7
STANDARD
 71
2
 72
1
 10
1.5275
 20
-1.1565
 30
0.0
 11
1.0
 21
0.0
 31
0.0
 44
0.9
  1
Interface
 40
0.125
 41
1.8
  0
MTEXT
  5
269
100
AcDbEntity
  8
0
100
AcDbMText
 62
2
  6
CONTINUOUS
  7
STANDARD
 71
2
 72
1
 10
6.055
 20
-1.1565
 30
0.0
 11
1.0
 21
0.0
 31
0.0
 44
0.9
  1
None
 40
0.125
 41
0.8
  0
MTEXT
  5
26A
100
AcDbEntity
  8
0
100
AcDbMText
 62
2
  6
CONTINUOUS
  7
STANDARD
 71
2
 72
1
 10
1.5275
 20
-1.4065
 30
0.0
 11
1.0
 21
0.0
 31
0.0
 44
0.9
  1
Open Cavity Quantity
 40
0.125
 41
4.0
  0
MTEXT
  5
26B
100
AcDbEntity
  8
0
100
AcDbMText
 62
2
  6
CONTINUOUS
  7
STANDARD
 71
2
 72
1
 10
6.055
 20
-1.4065
 30
0.0
 11
1.0
 21
0.0
 31
0.0
 44
0.9
  1
1
 40
0.125
 41
0.2
  0
MTEXT
  5
26C
100
AcDbEntity
  8
0
100
AcDbMText
 62
2
  6
CONTINUOUS
  7
STANDARD
 71
2
 72
1
 10
1.5275
 20
-1.6565
 30
0.0
 11
1.0
 21
0.0
 31
0.0
 44
0.9
  1
Weight
 40
0.125
 41
1.2
  0
MTEXT
  5
26D
100
AcDbEntity
  8
0
100
AcDbMText
 62
2
  6
CONTINUOUS
  7
STANDARD
 71
2
 72
1
 10
4.555
 20
-1.6565
 30
0.0
 11
1.0
 21
0.0
 31
0.0
 44
0.9
  1
1.934 lb.
 40
0.125
 41
1.8
  0
MTEXT
  5
26E
100
AcDbEntity
  8
0
100
AcDbMText
 62
2
  6
CONTINUOUS
  7
STANDARD
 71
2
 72
1
 10
7.555
 20
-1.6565
 30
0.0
 11
1.0
 21
0.0
 31
0.0
 44
0.9
  1
0,877 kg.
 40
0.125
 41
1.8
  0
MTEXT
  5
26F
100
AcDbEntity
  8
0
100
AcDbMText
 62
2
  6
CONTINUOUS
  7
STANDARD
 71
2
 72
1
 10
1.5275
 20
-1.9065
 30
0.0
 11
1.0
 21
0.0
 31
0.0
 44
0.9
  1
Mounting Hole Thread
 40
0.125
 41
4.0
  0
MTEXT
  5
270
100
AcDbEntity
  8
0
100
AcDbMText
 62
2
  6
CONTINUOUS
  7
STANDARD
 71
2
 72
1
 10
4.555
 20
-1.9065
 30
0.0
 11
1.0
 21
0.0
 31
0.0
 44
0.9
  1
.375-16 UNC - 2B in.
 40
0.125
 41
4.0
  0
MTEXT
  5
271
100
AcDbEntity
  8
0
100
AcDbMText
 62
2
  6
CONTINUOUS
  7
STANDARD
 71
2
 72
1
 10
1.5275
 20
-2.1565
 30
0.0
 11
1.0
 21
0.0
 31
0.0
 44
0.9
  1
Mounting Hole Depth
 40
0.125
 41
3.8
  0
MTEXT
  5
272
100
AcDbEntity
  8
0
100
AcDbMText
 62
2
  6
CONTINUOUS
  7
STANDARD
 71
2
 72
1
 10
4.555
 20
-2.1565
 30
0.0
 11
1.0
 21
0.0
 31
0.0
 44
0.9
  1
.62 in.
 40
0.125
 41
1.4
  0
MTEXT
  5
273
100
AcDbEntity
  8
0
100
AcDbMText
 62
2
  6
CONTINUOUS
  7
STANDARD
 71
2
 72
1
 10
7.555
 20
-2.1565
 30
0.0
 11
1.0
 21
0.0
 31
0.0
 44
0.9
  1
15,7 mm
 40
0.125
 41
1.4
  0
MTEXT
  5
274
100
AcDbEntity
  8
0
100
AcDbMText
 62
2
  6
CONTINUOUS
  7
STANDARD
 71
2
 72
1
 10
1.5275
 20
-2.4065
 30
0.0
 11
1.0
 21
0.0
 31
0.0
 44
0.9
  1
Mounting Hole Quantity
 40
0.125
 41
4.4
  0
MTEXT
  5
275
100
AcDbEntity
  8
0
100
AcDbMText
 62
2
  6
CONTINUOUS
  7
STANDARD
 71
2
 72
1
 10
6.055
 20
-2.4065
 30
0.0
 11
1.0
 21
0.0
 31
0.0
 44
0.9
  1
2
 40
0.125
 41
0.2
  0
MTEXT
  5
276
100
AcDbEntity
  8
0
100
AcDbMText
 62
2
  6
CONTINUOUS
  7
STANDARD
 71
2
 72
1
 10
1.5275
 20
-2.6565
 30
0.0
 11
1.0
 21
0.0
 31
0.0
 44
0.9
  1
Includes integral cartridge(s)
 40
0.125
 41
6.0
  0
MTEXT
  5
277
100
AcDbEntity
  8
0
100
AcDbMText
 62
2
  6
CONTINUOUS
  7
STANDARD
 71
2
 72
1
 10
6.055
 20
-2.6565
 30
0.0
 11
1.0
 21
0.0
 31
0.0
 44
0.9
  1
Yes (see Included Components)
 40
0.125
 41
5.8
  0
ENDBLK
  5
278
100
AcDbEntity
  8
0
  6
BYBLOCK
 62
0
100
AcDbBlockEnd
  0
BLOCK
  5
279
100
AcDbEntity
  8
0
100
AcDbBlockBegin
  2
*T3
 70
1
 10
0.0
 20
0.0
  3
*T3
  1

  0
LINE
  5
27A
100
AcDbEntity
  8
0
100
AcDbLine
 62
2
  6
CONTINUOUS
 10
0.0
 20
0.0
 11
4.6
 21
0.0
  0
LINE
  5
27B
100
AcDbEntity
  8
0
100
AcDbLine
 62
2
  6
CONTINUOUS
 10
0.0
 20
0.0
 11
0.0
 21
-1.43775
  0
LINE
  5
27C
100
AcDbEntity
  8
0
100
AcDbLine
 62
2
  6
CONTINUOUS
 10
0.0
 20
-0.34375
 11
4.6
 21
-0.34375
  0
LINE
  5
27D
100
AcDbEntity
  8
0
100
AcDbLine
 62
2
  6
CONTINUOUS
 10
0.0
 20
-0.68775
 11
4.6
 21
-0.68775
  0
LINE
  5
27E
100
AcDbEntity
  8
0
100
AcDbLine
 62
2
  6
CONTINUOUS
 10
0.0
 20
-0.93775
 11
4.6
 21
-0.93775
  0
LINE
  5
27F
100
AcDbEntity
  8
0
100
AcDbLine
 62
2
  6
CONTINUOUS
 10
0.0
 20
-1.18775
 11
4.6
 21
-1.18775
  0
LINE
  5
280
100
AcDbEntity
  8
0
100
AcDbLine
 62
2
  6
CONTINUOUS
 10
0.0
 20
-1.43775
 11
4.6
 21
-1.43775
  0
LINE
  5
281
100
AcDbEntity
  8
0
100
AcDbLine
 62
2
  6
CONTINUOUS
 10
1.3
 20
-0.34375
 11
1.3
 21
-1.43775
  0
LINE
  5
282
100
AcDbEntity
  8
0
100
AcDbLine
 62
2
  6
CONTINUOUS
 10
3.3
 20
-0.34375
 11
3.3
 21
-1.43775
  0
LINE
  5
283
100
AcDbEntity
  8
0
100
AcDbLine
 62
2
  6
CONTINUOUS
 10
4.6
 20
0.0
 11
4.6
 21
-1.43775
  0
MTEXT
  5
284
100
AcDbEntity
  8
0
100
AcDbMText
 62
2
  6
CONTINUOUS
  7
STANDARD
 71
2
 72
1
 10
2.3
 20
-0.099375
 30
0.0
 11
1.0
 21
0.0
 31
0.0
 44
0.9
  1
Port Headings
 40
0.145
 41
3.016
  0
MTEXT
  5
285
100
AcDbEntity
  8
0
100
AcDbMText
 62
2
  6
CONTINUOUS
  7
STANDARD
 71
2
 72
1
 10
0.65
 20
-0.44325
 30
0.0
 11
1.0
 21
0.0
 31
0.0
 44
0.9
  1
Product
 40
0.145
 41
1.624
  0
MTEXT
  5
286
100
AcDbEntity
  8
0
100
AcDbMText
 62
2
  6
CONTINUOUS
  7
STANDARD
 71
2
 72
1
 10
2.3
 20
-0.44325
 30
0.0
 11
1.0
 21
0.0
 31
0.0
 44
0.9
  1
Port
 40
0.145
 41
0.928
  0
MTEXT
  5
287
100
AcDbEntity
  8
0
100
AcDbMText
 62
2
  6
CONTINUOUS
  7
STANDARD
 71
2
 72
1
 10
3.95
 20
-0.44325
 30
0.0
 11
1.0
 21
0.0
 31
0.0
 44
0.9
  1
Size
 40
0.145
 41
0.928
  0
MTEXT
  5
288
100
AcDbEntity
  8
0
100
AcDbMText
 62
2
  6
CONTINUOUS
  7
STANDARD
 71
2
 72
1
 10
0.65
 20
-0.75025
 30
0.0
 11
1.0
 21
0.0
 31
0.0
 44
0.9
  1
E7J
 40
0.125
 41
0.6
  0
MTEXT
  5
289
100
AcDbEntity
  8
0
100
AcDbMText
 62
2
  6
CONTINUOUS
  7
STANDARD
 71
2
 72
1
 10
2.3
 20
-0.75025
 30
0.0
 11
1.0
 21
0.0
 31
0.0
 44
0.9
  1
Ports 1 &  2
 40
0.125
 41
2.4
  0
MTEXT
  5
28A
100
AcDbEntity
  8
0
100
AcDbMText
 62
2
  6
CONTINUOUS
  7
STANDARD
 71
2
 72
1
 10
3.95
 20
-0.75025
 30
0.0
 11
1.0
 21
0.0
 31
0.0
 44
0.9
  1
SAE 8
 40
0.125
 41
1.0
  0
MTEXT
  5
28B
100
AcDbEntity
  8
0
100
AcDbMText
 62
2
  6
CONTINUOUS
  7
STANDARD
 71
2
 72
1
 10
0.65
 20
-1.00025
 30
0.0
 11
1.0
 21
0.0
 31
0.0
 44
0.9
  1
E7J
 40
0.125
 41
0.6
  0
MTEXT
  5
28C
100
AcDbEntity
  8
0
100
AcDbMText
 62
2
  6
CONTINUOUS
  7
STANDARD
 71
2
 72
1
 10
2.3
 20
-1.00025
 30
0.0
 11
1.0
 21
0.0
 31
0.0
 44
0.9
  1
Port 3
 40
0.125
 41
1.2
  0
MTEXT
  5
28D
100
AcDbEntity
  8
0
100
AcDbMText
 62
2
  6
CONTINUOUS
  7
STANDARD
 71
2
 72
1
 10
3.95
 20
-1.00025
 30
0.0
 11
1.0
 21
0.0
 31
0.0
 44
0.9
  1
SAE 6
 40
0.125
 41
1.0
  0
MTEXT
  5
28E
100
AcDbEntity
  8
0
100
AcDbMText
 62
2
  6
CONTINUOUS
  7
STANDARD
 71
2
 72
1
 10
0.65
 20
-1.25025
 30
0.0
 11
1.0
 21
0.0
 31
0.0
 44
0.9
  1
E7J
 40
0.125
 41
0.6
  0
MTEXT
  5
28F
100
AcDbEntity
  8
0
100
AcDbMText
 62
2
  6
CONTINUOUS
  7
STANDARD
 71
2
 72
1
 10
2.3
 20
-1.25025
 30
0.0
 11
1.0
 21
0.0
 31
0.0
 44
0.9
  1
Gage Port
 40
0.125
 41
1.8
  0
MTEXT
  5
290
100
AcDbEntity
  8
0
100
AcDbMText
 62
2
  6
CONTINUOUS
  7
STANDARD
 71
2
 72
1
 10
3.95
 20
-1.25025
 30
0.0
 11
1.0
 21
0.0
 31
0.0
 44
0.9
  1
1/4" NPTF
 40
0.125
 41
1.8
  0
ENDBLK
  5
291
100
AcDbEntity
  8
0
  6
BYBLOCK
 62
0
100
AcDbBlockEnd
  0
ENDSEC
  0
SECTION
  2
ENTITIES
  0
IMAGE
  5
292
100
AcDbEntity
  8
0
100
AcDbRasterImage
 62
7
  6
CONTINUOUS
 10
19.2297077316
 20
0.3094318264
 30
0.0
 11
0.0066666667
 21
0.0
 31
0.0
 12
0.0
 22
0.0066666667
 32
0.0
 13
369.0
 23
92.0
340
       3AB
 70
9
280
0
281
50
282
50
283
0
360
       3A5
 71
1
 91
2
 14
-0.5
 24
-0.5
 14
368.5
 24
91.5
  0
INSERT
  5
293
100
AcDbEntity
  8
0
100
AcDbBlockReference
 62
2
  6
CONTINUOUS
  2
SUN_FIRST_THIRD_ANGLE_BL0
 10
20.4816717061
 20
1.2289683772
  0
ACAD_TABLE
  5
294
100
AcDbEntity
  8
0
 62
2
  6
CONTINUOUS
100
AcDbBlockReference
  2
*T1
 10
12.42375
 20
0.30125
 30
0.0
100
AcDbTable
342
       3AD
343
20F
 11
1.0
 21
0.0
 31
0.0
 90
6
 91
4
 92
6
 93
20
 94
0
 95
0
 96
0
 70
1
 41
0.0
141
0.525
141
0.1
141
0.525
141
0.1
142
4.1
142
1.1
142
0.7
142
0.5
142
0.4
142
2.475
171
1
172
0
173
0
174
0
175
1
176
1
 91
33
178
0
145
0.0
301
CELL_VALUE
 90
4
  1
T-11A Line mount\PThrough port 1 with reverse flow check
304
ACVALUE_END
170
2
140
0.125
171
1
172
0
173
0
174
0
175
1
176
1
 91
33
178
0
145
0.0
301
CELL_VALUE
 90
4
  1
Jan-04-24
304
ACVALUE_END
170
5
140
0.125
171
1
172
0
173
0
174
0
175
1
176
1
 91
33
178
0
145
0.0
301
CELL_VALUE
 90
4
  1
1.000
304
ACVALUE_END
170
5
140
0.125
171
1
172
0
173
0
174
0
175
1
176
1
 91
33
178
0
145
0.0
301
CELL_VALUE
 90
4
  1
C
304
ACVALUE_END
170
5
140
0.125
171
1
172
0
173
0
174
0
175
1
176
1
 91
33
178
0
145
0.0
301
CELL_VALUE
 90
4
  1
2
304
ACVALUE_END
170
5
140
0.125
171
1
172
0
173
0
174
0
175
1
176
1
 91
33
178
0
145
0.0
301
CELL_VALUE
 90
4
  1
 
304
ACVALUE_END
170
1
140
0.125
171
1
172
0
173
0
174
0
175
1
176
1
 91
33
178
0
145
0.0
301
CELL_VALUE
 90
4
  1
DESCRIPTION
304
ACVALUE_END
170
1
140
0.06
171
1
172
0
173
0
174
0
175
1
176
1
 91
33
178
0
145
0.0
301
CELL_VALUE
 90
4
  1
DATE
304
ACVALUE_END
170
1
140
0.06
171
1
172
0
173
0
174
0
175
1
176
1
 91
33
178
0
145
0.0
301
CELL_VALUE
 90
4
  1
SCALE
304
ACVALUE_END
170
1
140
0.06
171
1
172
0
173
0
174
0
175
1
176
1
 91
33
178
0
145
0.0
301
CELL_VALUE
 90
4
  1
DWG SIZE
304
ACVALUE_END
170
1
140
0.06
171
1
172
0
173
0
174
0
175
1
176
1
 91
33
178
0
145
0.0
301
CELL_VALUE
 90
4
  1
SHEET
304
ACVALUE_END
170
1
140
0.06
171
1
172
0
173
0
174
0
175
1
176
1
 91
33
178
0
145
0.0
301
CELL_VALUE
 90
4
  1
 
304
ACVALUE_END
170
1
140
0.125
171
1
172
0
173
0
174
0
175
1
176
1
 91
33
178
0
145
0.0
301
CELL_VALUE
 90
4
  1
E7J
304
ACVALUE_END
170
5
140
0.125
171
1
172
0
173
0
174
0
175
4
176
1
 91
33
178
0
145
0.0
301
CELL_VALUE
 90
4
  1
ALL DIMENSIONS IN INCH\PVIEWS ARE THIRD ANGLE
304
ACVALUE_END
170
5
140
0.12
171
1
172
0
173
1
174
0
175
1
176
1
 91
1
178
0
145
0.0
170
1
171
1
172
0
173
1
174
0
175
1
176
1
 91
1
178
0
145
0.0
170
1
171
1
172
0
173
1
174
0
175
1
176
1
 91
1
178
0
145
0.0
170
5
171
1
172
0
173
0
174
0
175
1
176
1
 91
33
178
0
145
0.0
301
CELL_VALUE
 90
4
  1
 
304
ACVALUE_END
170
1
140
0.125
171
1
172
0
173
0
174
0
175
1
176
1
 91
33
178
0
145
0.0
301
CELL_VALUE
 90
4
  1
MODEL
304
ACVALUE_END
170
1
140
0.06
171
1
172
0
173
0
174
0
175
1
176
1
 91
33
178
0
145
0.0
301
CELL_VALUE
 90
4
  1
 
304
ACVALUE_END
170
1
140
0.125
171
1
172
0
173
0
174
0
175
1
176
1
 91
33
178
0
145
0.0
301
CELL_VALUE
 90
4
  1
 
304
ACVALUE_END
170
1
140
0.125
171
1
172
0
173
0
174
0
175
1
176
1
 91
33
178
0
145
0.0
301
CELL_VALUE
 90
4
  1
 
304
ACVALUE_END
170
1
140
0.125
171
1
172
0
173
0
174
0
175
1
176
1
 91
33
178
0
145
0.0
301
CELL_VALUE
 90
4
  1
 
304
ACVALUE_END
170
1
140
0.125
171
1
172
0
173
0
174
0
175
1
176
1
 91
33
178
0
145
0.0
301
CELL_VALUE
 90
4
  1
 
304
ACVALUE_END
170
1
140
0.125
  0
ACAD_TABLE
  5
295
100
AcDbEntity
  8
0
 62
2
  6
CONTINUOUS
100
AcDbBlockReference
  2
*T2
 10
12.4237499994
 20
16.47875
 30
0.0
100
AcDbTable
342
       3AC
343
210
 11
1.0
 21
0.0
 31
0.0
 90
22
 91
11
 92
3
 93
16
 94
0
 95
0
 96
0
 41
0.028
141
0.344
141
0.25
141
0.25
141
0.25
141
0.25
141
0.25
141
0.25
141
0.25
141
0.25
141
0.25
141
0.25
142
3.055
142
3.0
142
3.0
171
1
172
0
173
0
174
0
175
1
176
1
 91
33
178
0
145
0.0
301
CELL_VALUE
 90
4
  1
Technical Data
304
ACVALUE_END
170
5
140
0.145
171
1
172
0
173
0
174
0
175
1
176
1
 91
33
178
0
145
0.0
301
CELL_VALUE
 90
4
  1
U.S. Units
304
ACVALUE_END
170
5
140
0.145
171
1
172
0
173
0
174
0
175
1
176
1
 91
33
178
0
145
0.0
301
CELL_VALUE
 90
4
  1
Metric Units
304
ACVALUE_END
170
5
140
0.145
171
1
172
0
173
0
174
0
175
1
176
1
 91
33
178
0
145
0.0
301
CELL_VALUE
 90
4
  1
Cavity
304
ACVALUE_END
170
5
140
0.125
171
1
172
0
173
0
174
0
175
2
176
1
 91
33
178
0
145
0.0
301
CELL_VALUE
 90
4
  1
T-11A
304
ACVALUE_END
170
5
140
0.125
171
1
172
0
173
1
174
0
175
1
176
1
 91
1
178
0
145
0.0
170
1
171
1
172
0
173
0
174
0
175
1
176
1
 91
33
178
0
145
0.0
301
CELL_VALUE
 90
4
  1
Body Features
304
ACVALUE_END
170
5
140
0.125
171
1
172
0
173
0
174
0
175
2
176
1
 91
33
178
0
145
0.0
301
CELL_VALUE
 90
4
  1
Through port 1 with reverse flow check
304
ACVALUE_END
170
5
140
0.125
171
1
172
0
173
1
174
0
175
1
176
1
 91
1
178
0
145
0.0
170
1
171
1
172
0
173
0
174
0
175
1
176
1
 91
33
178
0
145
0.0
301
CELL_VALUE
 90
4
  1
Body Type
304
ACVALUE_END
170
5
140
0.125
171
1
172
0
173
0
174
0
175
2
176
1
 91
33
178
0
145
0.0
301
CELL_VALUE
 90
4
  1
Line mount
304
ACVALUE_END
170
5
140
0.125
171
1
172
0
173
1
174
0
175
1
176
1
 91
1
178
0
145
0.0
170
1
171
1
172
0
173
0
174
0
175
1
176
1
 91
33
178
0
145
0.0
301
CELL_VALUE
 90
4
  1
Interface
304
ACVALUE_END
170
5
140
0.125
171
1
172
0
173
0
174
0
175
2
176
1
 91
33
178
0
145
0.0
301
CELL_VALUE
 90
4
  1
None
304
ACVALUE_END
170
5
140
0.125
171
1
172
0
173
1
174
0
175
1
176
1
 91
1
178
0
145
0.0
170
1
171
1
172
0
173
0
174
0
175
1
176
1
 91
33
178
0
145
0.0
301
CELL_VALUE
 90
4
  1
Open Cavity Quantity
304
ACVALUE_END
170
5
140
0.125
171
1
172
0
173
0
174
0
175
2
176
1
 91
33
178
0
145
0.0
301
CELL_VALUE
 90
4
  1
1
304
ACVALUE_END
170
5
140
0.125
171
1
172
0
173
1
174
0
175
1
176
1
 91
1
178
0
145
0.0
170
1
171
1
172
0
173
0
174
0
175
1
176
1
 91
33
178
0
145
0.0
301
CELL_VALUE
 90
4
  1
Weight
304
ACVALUE_END
170
5
140
0.125
171
1
172
0
173
0
174
0
175
1
176
1
 91
33
178
0
145
0.0
301
CELL_VALUE
 90
4
  1
1.934 lb.
304
ACVALUE_END
170
5
140
0.125
171
1
172
0
173
0
174
0
175
1
176
1
 91
33
178
0
145
0.0
301
CELL_VALUE
 90
4
  1
0,877 kg.
304
ACVALUE_END
170
5
140
0.125
171
1
172
0
173
0
174
0
175
1
176
1
 91
33
178
0
145
0.0
301
CELL_VALUE
 90
4
  1
Mounting Hole Thread
304
ACVALUE_END
170
5
140
0.125
171
1
172
0
173
0
174
0
175
1
176
1
 91
33
178
0
145
0.0
301
CELL_VALUE
 90
4
  1
.375-16 UNC - 2B in.
304
ACVALUE_END
170
5
140
0.125
171
1
172
0
173
0
174
0
175
1
176
1
 91
33
178
0
145
0.0
301
CELL_VALUE
 90
4
  1
 
304
ACVALUE_END
170
5
140
0.125
171
1
172
0
173
0
174
0
175
1
176
1
 91
33
178
0
145
0.0
301
CELL_VALUE
 90
4
  1
Mounting Hole Depth
304
ACVALUE_END
170
5
140
0.125
171
1
172
0
173
0
174
0
175
1
176
1
 91
33
178
0
145
0.0
301
CELL_VALUE
 90
4
  1
.62 in.
304
ACVALUE_END
170
5
140
0.125
171
1
172
0
173
0
174
0
175
1
176
1
 91
33
178
0
145
0.0
301
CELL_VALUE
 90
4
  1
15,7 mm
304
ACVALUE_END
170
5
140
0.125
171
1
172
0
173
0
174
0
175
1
176
1
 91
33
178
0
145
0.0
301
CELL_VALUE
 90
4
  1
Mounting Hole Quantity
304
ACVALUE_END
170
5
140
0.125
171
1
172
0
173
0
174
0
175
2
176
1
 91
33
178
0
145
0.0
301
CELL_VALUE
 90
4
  1
2
304
ACVALUE_END
170
5
140
0.125
171
1
172
0
173
1
174
0
175
1
176
1
 91
1
178
0
145
0.0
170
1
171
1
172
0
173
0
174
0
175
1
176
1
 91
33
178
0
145
0.0
301
CELL_VALUE
 90
4
  1
Includes integral cartridge(s)
304
ACVALUE_END
170
5
140
0.125
171
1
172
0
173
0
174
0
175
2
176
1
 91
33
178
0
145
0.0
301
CELL_VALUE
 90
4
  1
Yes (see Included Components)
304
ACVALUE_END
170
5
140
0.125
171
1
172
0
173
1
174
0
175
1
176
1
 91
1
178
0
145
0.0
170
1
  0
ACAD_TABLE
  5
296
100
AcDbEntity
  8
0
 62
2
  6
CONTINUOUS
100
AcDbBlockReference
  2
*T3
 10
0.52125
 20
1.959
 30
0.0
100
AcDbTable
342
       3AC
343
211
 11
1.0
 21
0.0
 31
0.0
 90
22
 91
5
 92
3
 93
16
 94
0
 95
0
 96
0
 41
0.05
141
0.34375
141
0.344
141
0.25
141
0.25
141
0.25
142
1.3
142
2.0
142
1.3
171
1
172
0
173
0
174
0
175
3
176
1
 91
33
178
0
145
0.0
301
CELL_VALUE
 90
4
  1
Port Headings
304
ACVALUE_END
170
5
140
0.145
171
1
172
0
173
1
174
0
175
1
176
1
 91
1
178
0
145
0.0
170
1
171
1
172
0
173
1
174
0
175
1
176
1
 91
1
178
0
145
0.0
170
1
171
1
172
0
173
0
174
0
175
1
176
1
 91
33
178
0
145
0.0
301
CELL_VALUE
 90
4
  1
Product
304
ACVALUE_END
170
5
140
0.145
171
1
172
0
173
0
174
0
175
1
176
1
 91
33
178
0
145
0.0
301
CELL_VALUE
 90
4
  1
Port
304
ACVALUE_END
170
5
140
0.145
171
1
172
0
173
0
174
0
175
1
176
1
 91
33
178
0
145
0.0
301
CELL_VALUE
 90
4
  1
Size
304
ACVALUE_END
170
5
140
0.145
171
1
172
0
173
0
174
0
175
1
176
1
 91
33
178
0
145
0.0
301
CELL_VALUE
 90
4
  1
E7J
304
ACVALUE_END
170
5
140
0.125
171
1
172
0
173
0
174
0
175
1
176
1
 91
33
178
0
145
0.0
301
CELL_VALUE
 90
4
  1
Ports 1 &  2
304
ACVALUE_END
170
5
140
0.125
171
1
172
0
173
0
174
0
175
1
176
1
 91
33
178
0
145
0.0
301
CELL_VALUE
 90
4
  1
SAE 8
304
ACVALUE_END
170
5
140
0.125
171
1
172
0
173
0
174
0
175
1
176
1
 91
33
178
0
145
0.0
301
CELL_VALUE
 90
4
  1
E7J
304
ACVALUE_END
170
5
140
0.125
171
1
172
0
173
0
174
0
175
1
176
1
 91
33
178
0
145
0.0
301
CELL_VALUE
 90
4
  1
Port 3
304
ACVALUE_END
170
5
140
0.125
171
1
172
0
173
0
174
0
175
1
176
1
 91
33
178
0
145
0.0
301
CELL_VALUE
 90
4
  1
SAE 6
304
ACVALUE_END
170
5
140
0.125
171
1
172
0
173
0
174
0
175
1
176
1
 91
33
178
0
145
0.0
301
CELL_VALUE
 90
4
  1
E7J
304
ACVALUE_END
170
5
140
0.125
171
1
172
0
173
0
174
0
175
1
176
1
 91
33
178
0
145
0.0
301
CELL_VALUE
 90
4
  1
Gage Port
304
ACVALUE_END
170
5
140
0.125
171
1
172
0
173
0
174
0
175
1
176
1
 91
33
178
0
145
0.0
301
CELL_VALUE
 90
4
  1
1/4" NPTF
304
ACVALUE_END
170
5
140
0.125
  0
MTEXT
  5
297
100
AcDbEntity
  8
0
100
AcDbMText
 62
2
  6
CONTINUOUS
  7
STANDARD
 71
1
 72
1
 10
0.52125
 20
5.75995
 30
0.0
 11
1.0
 21
0.0
 31
0.0
 44
0.6
  3
Notes\P \P1. Important: Carefully consider\P   the maximum system pressure. The\P   pressure rating of the manifold is\P   dependent on the manifold material,\P   with the port type/size a secondary\P   consideration. Manifolds\P   constructed of alu
  3
minum are not\P   rated for pressures higher than\P   3000 psi (210 bar), regardless of\P   the port type/size specified.\P2. This drawing is for reference\P   only. It is generated by an\P   automated process and does not fall\P   under Sun's docume
  1
nt control\P   process.
 40
0.1
 41
3.04
  0
LINE
  5
298
100
AcDbEntity
  8
0
100
AcDbLine
 62
7
  6
CONTINUOUS
 10
0.30125
 20
0.30125
 11
0.30125
 21
16.69875
  0
LINE
  5
299
100
AcDbEntity
  8
0
100
AcDbLine
 62
7
  6
CONTINUOUS
 10
0.30125
 20
0.30125
 11
21.69875
 21
0.30125
  0
LINE
  5
29A
100
AcDbEntity
  8
0
100
AcDbLine
 62
7
  6
CONTINUOUS
 10
0.30125
 20
16.69875
 11
21.69875
 21
16.69875
  0
LINE
  5
29B
100
AcDbEntity
  8
0
100
AcDbLine
 62
7
  6
CONTINUOUS
 10
21.69875
 20
0.30125
 11
21.69875
 21
16.69875
  0
LINE
  5
29C
100
AcDbEntity
  8
0
100
AcDbLine
 62
7
  6
CONTINUOUS
 10
10.116116185
 20
10.7414587126
 11
9.4690691062
 21
10.1164591913
  0
LINE
  5
29D
100
AcDbEntity
  8
0
100
AcDbLine
 62
7
  6
CONTINUOUS
 10
10.8953201634
 20
6.3306033474
 11
10.9204825729
 21
6.3181735989
  0
LINE
  5
29E
100
AcDbEntity
  8
0
100
AcDbLine
 62
7
  6
CONTINUOUS
 10
9.9291681396
 20
10.084551215
 11
9.9374503424
 21
10.0925512091
  0
LINE
  5
29F
100
AcDbEntity
  8
0
100
AcDbLine
 62
7
  6
CONTINUOUS
 10
10.2163774272
 20
10.0646331833
 11
10.22465963
 21
10.0726331773
  0
LINE
  5
2A0
100
AcDbEntity
  8
0
100
AcDbLine
 62
7
  6
CONTINUOUS
 10
9.4690691062
 20
6.8564593345
 11
11.883883815
 21
6.6889913656
  0
LINE
  5
2A1
100
AcDbEntity
  8
0
100
AcDbLine
 62
7
  6
CONTINUOUS
 10
9.4690691062
 20
6.8564593345
 11
9.4690691062
 21
10.1164591913
  0
LINE
  5
2A2
100
AcDbEntity
  8
0
100
AcDbLine
 62
4
  6
CONTINUOUS
 10
11.7530008917
 20
7.2370547973
 11
11.7385120037
 21
7.2380596051
  0
LINE
  5
2A3
100
AcDbEntity
  8
0
100
AcDbLine
 62
4
  6
CONTINUOUS
 10
11.7457564477
 20
7.295512753
 11
11.7747342236
 21
7.2935031374
  0
LINE
  5
2A4
100
AcDbEntity
  8
0
100
AcDbLine
 62
4
  6
CONTINUOUS
 10
11.7385120037
 20
7.3539707086
 11
11.7530008917
 21
7.3529659008
  0
LINE
  5
2A5
100
AcDbEntity
  8
0
100
AcDbLine
 62
4
  6
CONTINUOUS
 10
10.1548764862
 20
9.0498464974
 11
10.1476320422
 21
9.040689645
  0
LINE
  5
2A6
100
AcDbEntity
  8
0
100
AcDbLine
 62
4
  6
CONTINUOUS
 10
10.1621209301
 20
8.9913885418
 11
10.1476320422
 21
8.9730748326
  0
LINE
  5
2A7
100
AcDbEntity
  8
0
100
AcDbLine
 62
4
  6
CONTINUOUS
 10
10.1041653784
 20
9.0726818442
 11
10.1186542664
 21
9.0813362927
  0
LINE
  5
2A8
100
AcDbEntity
  8
0
100
AcDbLine
 62
4
  6
CONTINUOUS
 10
10.1476320422
 20
9.040689645
 11
10.1331431543
 21
9.0320351895
  0
LINE
  5
2A9
100
AcDbEntity
  8
0
100
AcDbLine
 62
4
  6
CONTINUOUS
 10
10.1548764862
 20
9.0595057537
 11
10.1548764862
 21
9.0498464974
  0
LINE
  5
2AA
100
AcDbEntity
  8
0
100
AcDbLine
 62
4
  6
CONTINUOUS
 10
10.1621209301
 20
9.0010478015
 11
10.1621209301
 21
8.9913885418
  0
LINE
  5
2AB
100
AcDbEntity
  8
0
100
AcDbLine
 62
4
  6
CONTINUOUS
 10
10.1476320422
 20
8.9730748326
 11
10.1331431543
 21
8.9644203815
  0
LINE
  5
2AC
100
AcDbEntity
  8
0
100
AcDbLine
 62
4
  6
CONTINUOUS
 10
10.4543134854
 20
8.3239545845
 11
10.4543134854
 21
8.2080434811
  0
LINE
  5
2AD
100
AcDbEntity
  8
0
100
AcDbLine
 62
4
  6
CONTINUOUS
 10
10.7703092183
 20
9.0383517317
 11
10.7261526057
 21
9.0193356952
  0
LINE
  5
2AE
100
AcDbEntity
  8
0
100
AcDbLine
 62
7
  6
CONTINUOUS
 10
10.4297164337
 20
7.9138217925
 11
10.4432771925
 21
7.9131165364
  0
LINE
  5
2AF
100
AcDbEntity
  8
0
100
AcDbLine
 62
4
  6
CONTINUOUS
 10
11.7385120037
 20
7.2380596051
 11
11.7240231158
 21
7.2487236718
  0
LINE
  5
2B0
100
AcDbEntity
  8
0
100
AcDbLine
 62
4
  6
CONTINUOUS
 10
10.6581238228
 20
9.6814350653
 11
10.6581238228
 21
9.6234795122
  0
LINE
  5
2B1
100
AcDbEntity
  8
0
100
AcDbLine
 62
7
  6
CONTINUOUS
 10
11.883883815
 20
9.9489912225
 11
12.5309308938
 21
10.5739907437
  0
LINE
  5
2B2
100
AcDbEntity
  8
0
100
AcDbLine
 62
4
  6
CONTINUOUS
 10
10.8503430724
 20
8.9776055984
 11
10.833784344
 21
8.96219522
  0
LINE
  5
2B3
100
AcDbEntity
  8
0
100
AcDbLine
 62
4
  6
CONTINUOUS
 10
11.7530008917
 20
7.3529659008
 11
11.7674897796
 21
7.3423018367
  0
LINE
  5
2B4
100
AcDbEntity
  8
0
100
AcDbLine
 62
4
  6
CONTINUOUS
 10
10.1041653784
 20
8.976089256
 11
10.0969209345
 21
8.9862509188
  0
LINE
  5
2B5
100
AcDbEntity
  8
0
100
AcDbLine
 62
4
  6
CONTINUOUS
 10
10.1476320422
 20
9.0213711254
 11
10.1621209301
 21
9.0010478015
  0
LINE
  5
2B6
100
AcDbEntity
  8
0
100
AcDbLine
 62
4
  6
CONTINUOUS
 10
10.1476320422
 20
9.0696674208
 11
10.1548764862
 21
9.0595057537
  0
LINE
  5
2B7
100
AcDbEntity
  8
0
100
AcDbLine
 62
4
  6
CONTINUOUS
 10
10.7160793758
 20
9.619460281
 11
10.7160793758
 21
9.561504728
  0
LINE
  5
2B8
100
AcDbEntity
  8
0
100
AcDbLine
 62
4
  6
CONTINUOUS
 10
10.7450571523
 20
9.5594951123
 11
10.7450571523
 21
9.6754062184
  0
LINE
  5
2B9
100
AcDbEntity
  8
0
100
AcDbLine
 62
4
  6
CONTINUOUS
 10
10.7923875263
 20
8.965066099
 11
10.7923875263
 21
9.0809772051
  0
LINE
  5
2BA
100
AcDbEntity
  8
0
100
AcDbLine
 62
4
  6
CONTINUOUS
 10
10.8030127053
 20
9.6713869871
 11
10.8030127053
 21
9.5554758811
  0
LINE
  5
2BB
100
AcDbEntity
  8
0
100
AcDbLine
 62
7
  6
CONTINUOUS
 10
10.8222335363
 20
6.7626170625
 11
10.8222335363
 21
6.3774341462
  0
LINE
  5
2BC
100
AcDbEntity
  8
0
100
AcDbLine
 62
4
  6
CONTINUOUS
 10
10.8319904818
 20
9.6693773715
 11
10.8319904818
 21
9.5534662655
  0
LINE
  5
2BD
100
AcDbEntity
  8
0
100
AcDbLine
 62
7
  6
CONTINUOUS
 10
10.8375627728
 20
6.7615539763
 11
10.8375627728
 21
6.3626272662
  0
LINE
  5
2BE
100
AcDbEntity
  8
0
100
AcDbLine
 62
4
  6
CONTINUOUS
 10
10.8972594732
 20
8.9577932048
 11
10.93037693
 21
9.0714076074
  0
LINE
  5
2BF
100
AcDbEntity
  8
0
100
AcDbLine
 62
4
  6
CONTINUOUS
 10
11.2988086621
 20
9.1849501072
 11
11.3153673837
 21
9.2003604862
  0
LINE
  5
2C0
100
AcDbEntity
  8
0
100
AcDbLine
 62
4
  6
CONTINUOUS
 10
11.269830915
 20
9.0313076652
 11
11.2863896365
 21
9.0467180424
  0
LINE
  5
2C1
100
AcDbEntity
  8
0
100
AcDbLine
 62
4
  6
CONTINUOUS
 10
10.8503430724
 20
9.0603992458
 11
10.8503430724
 21
8.9776055984
  0
LINE
  5
2C2
100
AcDbEntity
  8
0
100
AcDbLine
 62
4
  6
CONTINUOUS
 10
10.8899460348
 20
9.6653581402
 11
10.8899460348
 21
9.5494470342
  0
LINE
  5
2C3
100
AcDbEntity
  8
0
100
AcDbLine
 62
4
  6
CONTINUOUS
 10
11.0058571408
 20
9.5414085717
 11
11.0058571408
 21
9.6573196777
  0
LINE
  5
2C4
100
AcDbEntity
  8
0
100
AcDbLine
 62
4
  6
CONTINUOUS
 10
11.2408531091
 20
9.3048804445
 11
11.2077356453
 21
9.1912660424
  0
LINE
  5
2C5
100
AcDbEntity
  8
0
100
AcDbLine
 62
4
  6
CONTINUOUS
 10
11.3664234665
 20
9.024608949
 11
11.382982188
 21
9.0400193262
  0
LINE
  5
2C6
100
AcDbEntity
  8
0
100
AcDbLine
 62
4
  6
CONTINUOUS
 10
11.4243790195
 20
8.9377960703
 11
11.407820298
 21
8.9223856914
  0
LINE
  5
2C7
100
AcDbEntity
  8
0
100
AcDbLine
 62
4
  6
CONTINUOUS
 10
11.6893186746
 20
8.9525399014
 11
11.6451620654
 21
8.9335238664
  0
LINE
  5
2C8
100
AcDbEntity
  8
0
100
AcDbLine
 62
4
  6
CONTINUOUS
 10
10.1186542664
 20
8.9654251893
 11
10.1041653784
 21
8.976089256
  0
LINE
  5
2C9
100
AcDbEntity
  8
0
100
AcDbLine
 62
4
  6
CONTINUOUS
 10
10.1331431543
 20
9.0320351895
 11
10.1476320422
 21
9.0213711254
  0
LINE
  5
2CA
100
AcDbEntity
  8
0
100
AcDbLine
 62
4
  6
CONTINUOUS
 10
10.1331431543
 20
9.0803314849
 11
10.1476320422
 21
9.0696674208
  0
LINE
  5
2CB
100
AcDbEntity
  8
0
100
AcDbLine
 62
4
  6
CONTINUOUS
 10
11.7240231158
 20
7.2487236718
 11
11.7095342279
 21
7.2690469966
  0
LINE
  5
2CC
100
AcDbEntity
  8
0
100
AcDbLine
 62
4
  6
CONTINUOUS
 10
11.7674897796
 20
7.3423018367
 11
11.7747342236
 21
7.3321401696
  0
LINE
  5
2CD
100
AcDbEntity
  8
0
100
AcDbLine
 62
4
  6
CONTINUOUS
 10
11.0297293145
 20
8.9486063901
 11
11.0297293145
 21
9.0645174962
  0
LINE
  5
2CE
100
AcDbEntity
  8
0
100
AcDbLine
 62
4
  6
CONTINUOUS
 10
11.0638126939
 20
9.5373893405
 11
11.0638126939
 21
9.5953448935
  0
LINE
  5
2CF
100
AcDbEntity
  8
0
100
AcDbLine
 62
4
  6
CONTINUOUS
 10
11.0959642283
 20
8.9440129833
 11
11.0959642283
 21
9.0599240893
  0
LINE
  5
2D0
100
AcDbEntity
  8
0
100
AcDbLine
 62
4
  6
CONTINUOUS
 10
11.100103907
 20
9.1987303288
 11
11.100103907
 21
9.3146414348
  0
LINE
  5
2D1
100
AcDbEntity
  8
0
100
AcDbLine
 62
4
  6
CONTINUOUS
 10
11.1111430621
 20
9.5341069683
 11
11.1111430621
 21
9.5920625213
  0
LINE
  5
2D2
100
AcDbEntity
  8
0
100
AcDbLine
 62
7
  6
CONTINUOUS
 10
11.1464340764
 20
6.7032848174
 11
11.1464340764
 21
6.2826855916
  0
LINE
  5
2D3
100
AcDbEntity
  8
0
100
AcDbLine
 62
4
  6
CONTINUOUS
 10
11.1690986152
 20
9.58804329
 11
11.1690986152
 21
9.472132184
  0
LINE
  5
2D4
100
AcDbEntity
  8
0
100
AcDbLine
 62
4
  6
CONTINUOUS
 10
11.1828975561
 20
9.2840615796
 11
11.1828975561
 21
9.3088996758
  0
LINE
  5
2D5
100
AcDbEntity
  8
0
100
AcDbLine
 62
7
  6
CONTINUOUS
 10
11.2036435218
 20
6.6993173289
 11
11.2036435218
 21
6.2787181031
  0
LINE
  5
2D6
100
AcDbEntity
  8
0
100
AcDbLine
 62
4
  6
CONTINUOUS
 10
11.5154520156
 20
8.9314801366
 11
11.498893294
 21
8.9160697576
  0
LINE
  5
2D7
100
AcDbEntity
  8
0
100
AcDbLine
 62
4
  6
CONTINUOUS
 10
11.7022897839
 20
8.5735492817
 11
11.7602453356
 21
8.5695300505
  0
LINE
  5
2D8
100
AcDbEntity
  8
0
100
AcDbLine
 62
4
  6
CONTINUOUS
 10
10.93037693
 20
9.0714076074
 11
10.9634944008
 21
8.953199797
  0
LINE
  5
2D9
100
AcDbEntity
  8
0
100
AcDbLine
 62
4
  6
CONTINUOUS
 10
11.2077356505
 20
9.5274082495
 11
11.2077356505
 21
9.5853638025
  0
LINE
  5
2DA
100
AcDbEntity
  8
0
100
AcDbLine
 62
4
  6
CONTINUOUS
 10
11.2656912035
 20
9.6393001243
 11
11.2656912035
 21
9.5233890183
  0
LINE
  5
2DB
100
AcDbEntity
  8
0
100
AcDbLine
 62
4
  6
CONTINUOUS
 10
11.269830915
 20
8.9485140178
 11
11.269830915
 21
9.0313076652
  0
LINE
  5
2DC
100
AcDbEntity
  8
0
100
AcDbLine
 62
4
  6
CONTINUOUS
 10
11.3043282388
 20
9.5786650838
 11
11.3043282388
 21
9.5207095308
  0
LINE
  5
2DD
100
AcDbEntity
  8
0
100
AcDbLine
 62
4
  6
CONTINUOUS
 10
11.3153673837
 20
9.2003604862
 11
11.3153673837
 21
9.299712862
  0
LINE
  5
2DE
100
AcDbEntity
  8
0
100
AcDbLine
 62
4
  6
CONTINUOUS
 10
11.3664234665
 20
8.9418153016
 11
11.3664234665
 21
9.024608949
  0
LINE
  5
2DF
100
AcDbEntity
  8
0
100
AcDbLine
 62
4
  6
CONTINUOUS
 10
11.7095342279
 20
8.6792987249
 11
11.7240231158
 21
8.6879531734
  0
LINE
  5
2E0
100
AcDbEntity
  8
0
100
AcDbLine
 62
4
  6
CONTINUOUS
 10
11.7530008917
 20
8.6376472625
 11
11.7240231158
 21
8.620338362
  0
LINE
  5
2E1
100
AcDbEntity
  8
0
100
AcDbLine
 62
4
  6
CONTINUOUS
 10
11.7240231158
 20
8.6879531734
 11
11.7385120037
 21
8.6869483657
  0
LINE
  5
2E2
100
AcDbEntity
  8
0
100
AcDbLine
 62
4
  6
CONTINUOUS
 10
10.7261526057
 20
9.0193356952
 11
10.7703092183
 21
8.9941951174
  0
LINE
  5
2E3
100
AcDbEntity
  8
0
100
AcDbLine
 62
4
  6
CONTINUOUS
 10
10.833784344
 20
9.078106326
 11
10.8503430724
 21
9.0603992458
  0
LINE
  5
2E4
100
AcDbEntity
  8
0
100
AcDbLine
 62
4
  6
CONTINUOUS
 10
11.4009208272
 20
9.514010812
 11
11.4009208272
 21
9.5526478473
  0
LINE
  5
2E5
100
AcDbEntity
  8
0
100
AcDbLine
 62
4
  6
CONTINUOUS
 10
11.4243790195
 20
9.0205897177
 11
11.4243790195
 21
8.9377960703
  0
LINE
  5
2E6
100
AcDbEntity
  8
0
100
AcDbLine
 62
4
  6
CONTINUOUS
 10
11.4574964626
 20
8.9189406377
 11
11.4574964626
 21
9.0348517437
  0
LINE
  5
2E7
100
AcDbEntity
  8
0
100
AcDbLine
 62
4
  6
CONTINUOUS
 10
11.4588763802
 20
9.5679471338
 11
11.4588763802
 21
9.5099915808
  0
LINE
  5
2E8
100
AcDbEntity
  8
0
100
AcDbLine
 62
4
  6
CONTINUOUS
 10
11.4975134156
 20
9.5652676463
 11
11.4975134156
 21
9.5073120933
  0
LINE
  5
2E9
100
AcDbEntity
  8
0
100
AcDbLine
 62
4
  6
CONTINUOUS
 10
11.5154520156
 20
9.014273784
 11
11.5154520156
 21
8.9314801366
  0
LINE
  5
2EA
100
AcDbEntity
  8
0
100
AcDbLine
 62
4
  6
CONTINUOUS
 10
11.5554689686
 20
9.503292862
 11
11.5554689686
 21
9.561248415
  0
LINE
  5
2EB
100
AcDbEntity
  8
0
100
AcDbLine
 62
4
  6
CONTINUOUS
 10
11.5623684577
 20
8.9116677401
 11
11.5623684577
 21
9.0275788461
  0
LINE
  5
2EC
100
AcDbEntity
  8
0
100
AcDbLine
 62
4
  6
CONTINUOUS
 10
11.7022897839
 20
8.6701418656
 11
11.7095342279
 21
8.6792987249
  0
LINE
  5
2ED
100
AcDbEntity
  8
0
100
AcDbLine
 62
4
  6
CONTINUOUS
 10
11.7240231158
 20
8.620338362
 11
11.7095342279
 21
8.6020246537
  0
LINE
  5
2EE
100
AcDbEntity
  8
0
100
AcDbLine
 62
4
  6
CONTINUOUS
 10
11.7602453356
 20
8.6468041218
 11
11.7530008917
 21
8.6376472625
  0
LINE
  5
2EF
100
AcDbEntity
  8
0
100
AcDbLine
 62
4
  6
CONTINUOUS
 10
10.1331431543
 20
8.9644203815
 11
10.1186542664
 21
8.9654251893
  0
LINE
  5
2F0
100
AcDbEntity
  8
0
100
AcDbLine
 62
4
  6
CONTINUOUS
 10
11.498893294
 20
8.9160697576
 11
11.4574964626
 21
8.9189406377
  0
LINE
  5
2F1
100
AcDbEntity
  8
0
100
AcDbLine
 62
4
  6
CONTINUOUS
 10
11.407820298
 20
8.9223856914
 11
11.382982188
 21
8.9241082201
  0
LINE
  5
2F2
100
AcDbEntity
  8
0
100
AcDbLine
 62
4
  6
CONTINUOUS
 10
11.3195070796
 20
8.9285102339
 11
11.2863896365
 21
8.9308069363
  0
LINE
  5
2F3
100
AcDbEntity
  8
0
100
AcDbLine
 62
4
  6
CONTINUOUS
 10
10.833784344
 20
8.96219522
 11
10.7923875263
 21
8.965066099
  0
LINE
  5
2F4
100
AcDbEntity
  8
0
100
AcDbLine
 62
4
  6
CONTINUOUS
 10
11.0959642283
 20
8.9440129833
 11
11.1456404206
 21
8.9405679276
  0
LINE
  5
2F5
100
AcDbEntity
  8
0
100
AcDbLine
 62
4
  6
CONTINUOUS
 10
11.5623684577
 20
8.9116677401
 11
11.6120446224
 21
8.9082226864
  0
LINE
  5
2F6
100
AcDbEntity
  8
0
100
AcDbLine
 62
4
  6
CONTINUOUS
 10
10.1186542664
 20
9.0330399973
 11
10.1331431543
 21
9.0320351895
  0
LINE
  5
2F7
100
AcDbEntity
  8
0
100
AcDbLine
 62
4
  6
CONTINUOUS
 10
10.9082986255
 20
8.9901450974
 11
10.9524552346
 21
8.9870828261
  0
LINE
  5
2F8
100
AcDbEntity
  8
0
100
AcDbLine
 62
4
  6
CONTINUOUS
 10
11.5954859008
 20
8.9756059583
 11
11.5623684577
 21
8.9779026608
  0
LINE
  5
2F9
100
AcDbEntity
  8
0
100
AcDbLine
 62
4
  6
CONTINUOUS
 10
11.129081699
 20
9.0079511996
 11
11.0959642283
 21
9.0102479039
  0
LINE
  5
2FA
100
AcDbEntity
  8
0
100
AcDbLine
 62
4
  6
CONTINUOUS
 10
10.1186542664
 20
9.0813362927
 11
10.1331431543
 21
9.0803314849
  0
LINE
  5
2FB
100
AcDbEntity
  8
0
100
AcDbLine
 62
4
  6
CONTINUOUS
 10
10.7923875263
 20
9.0809772051
 11
10.833784344
 21
9.078106326
  0
LINE
  5
2FC
100
AcDbEntity
  8
0
100
AcDbLine
 62
4
  6
CONTINUOUS
 10
10.9966118438
 20
9.0668142005
 11
11.0628467576
 21
9.0622207937
  0
LINE
  5
2FD
100
AcDbEntity
  8
0
100
AcDbLine
 62
4
  6
CONTINUOUS
 10
11.0959642283
 20
9.0599240893
 11
11.1456404206
 21
9.0564790336
  0
LINE
  5
2FE
100
AcDbEntity
  8
0
100
AcDbLine
 62
4
  6
CONTINUOUS
 10
11.2863896365
 20
9.0467180424
 11
11.3195070796
 21
9.0444213399
  0
LINE
  5
2FF
100
AcDbEntity
  8
0
100
AcDbLine
 62
4
  6
CONTINUOUS
 10
11.382982188
 20
9.0400193262
 11
11.407820298
 21
9.0382967974
  0
LINE
  5
300
100
AcDbEntity
  8
0
100
AcDbLine
 62
4
  6
CONTINUOUS
 10
11.4574964626
 20
9.0348517437
 11
11.498893294
 21
9.0319808637
  0
LINE
  5
301
100
AcDbEntity
  8
0
100
AcDbLine
 62
4
  6
CONTINUOUS
 10
11.5623684577
 20
9.0275788461
 11
11.6120446224
 21
9.0241337924
  0
LINE
  5
302
100
AcDbEntity
  8
0
100
AcDbLine
 62
4
  6
CONTINUOUS
 10
11.2863896365
 20
8.9308069363
 11
11.269830915
 21
8.9485140178
  0
LINE
  5
303
100
AcDbEntity
  8
0
100
AcDbLine
 62
4
  6
CONTINUOUS
 10
11.7095342279
 20
7.2690469966
 11
11.7022897839
 21
7.2985271763
  0
LINE
  5
304
100
AcDbEntity
  8
0
100
AcDbLine
 62
4
  6
CONTINUOUS
 10
11.5941060039
 20
9.5006133745
 11
11.5941060039
 21
9.6165244805
  0
LINE
  5
305
100
AcDbEntity
  8
0
100
AcDbLine
 62
7
  6
CONTINUOUS
 10
11.6255694507
 20
6.7069055276
 11
11.6255694507
 21
6.3079788174
  0
LINE
  5
306
100
AcDbEntity
  8
0
100
AcDbLine
 62
4
  6
CONTINUOUS
 10
11.6327430392
 20
9.497933887
 11
11.6327430392
 21
9.55588944
  0
LINE
  5
307
100
AcDbEntity
  8
0
100
AcDbLine
 62
7
  6
CONTINUOUS
 10
11.6674496597
 20
6.7040011253
 11
11.6674496597
 21
6.318818209
  0
LINE
  5
308
100
AcDbEntity
  8
0
100
AcDbLine
 62
4
  6
CONTINUOUS
 10
11.6713800746
 20
9.5532099525
 11
11.6713800746
 21
9.4952543995
  0
LINE
  5
309
100
AcDbEntity
  8
0
100
AcDbLine
 62
4
  6
CONTINUOUS
 10
11.7095342279
 20
8.6020246537
 11
11.7022897839
 21
8.5735492817
  0
LINE
  5
30A
100
AcDbEntity
  8
0
100
AcDbLine
 62
4
  6
CONTINUOUS
 10
11.100103907
 20
9.1987303288
 11
11.1497800958
 21
9.1952852734
  0
LINE
  5
30B
100
AcDbEntity
  8
0
100
AcDbLine
 62
4
  6
CONTINUOUS
 10
11.273970566
 20
9.1866726351
 11
11.2988086621
 21
9.1849501072
  0
LINE
  5
30C
100
AcDbEntity
  8
0
100
AcDbLine
 62
4
  6
CONTINUOUS
 10
11.6451620654
 20
8.9776804807
 11
11.6893186746
 21
8.9525399014
  0
LINE
  5
30D
100
AcDbEntity
  8
0
100
AcDbLine
 62
4
  6
CONTINUOUS
 10
11.7385120037
 20
8.6869483657
 11
11.7530008917
 21
8.6762843015
  0
LINE
  5
30E
100
AcDbEntity
  8
0
100
AcDbLine
 62
4
  6
CONTINUOUS
 10
11.382982188
 20
8.9241082201
 11
11.3664234665
 21
8.9418153016
  0
LINE
  5
30F
100
AcDbEntity
  8
0
100
AcDbLine
 62
4
  6
CONTINUOUS
 10
11.407820298
 20
9.0382967974
 11
11.4243790195
 21
9.0205897177
  0
LINE
  5
310
100
AcDbEntity
  8
0
100
AcDbLine
 62
4
  6
CONTINUOUS
 10
11.498893294
 20
9.0319808637
 11
11.5154520156
 21
9.014273784
  0
LINE
  5
311
100
AcDbEntity
  8
0
100
AcDbLine
 62
4
  6
CONTINUOUS
 10
11.7530008917
 20
8.6762843015
 11
11.7602453356
 21
8.6661226344
  0
LINE
  5
312
100
AcDbEntity
  8
0
100
AcDbLine
 62
4
  6
CONTINUOUS
 10
11.7602453356
 20
8.6661226344
 11
11.7602453356
 21
8.6468041218
  0
LINE
  5
313
100
AcDbEntity
  8
0
100
AcDbLine
 62
4
  6
CONTINUOUS
 10
11.7679726629
 20
9.5465112338
 11
11.7679726629
 21
9.5175334572
  0
LINE
  5
314
100
AcDbEntity
  8
0
100
AcDbLine
 62
4
  6
CONTINUOUS
 10
11.7747342236
 20
7.2935031374
 11
11.7747342236
 21
7.2548661035
  0
LINE
  5
315
100
AcDbEntity
  8
0
100
AcDbLine
 62
7
  6
CONTINUOUS
 10
11.780504285
 20
6.6961607604
 11
11.780504285
 21
6.4280205978
  0
LINE
  5
316
100
AcDbEntity
  8
0
100
AcDbLine
 62
4
  6
CONTINUOUS
 10
11.825928216
 20
9.513514226
 11
11.825928216
 21
9.4845364495
  0
LINE
  5
317
100
AcDbEntity
  8
0
100
AcDbLine
 62
7
  6
CONTINUOUS
 10
11.883883815
 20
6.6889913656
 11
11.883883815
 21
9.9489912225
  0
LINE
  5
318
100
AcDbEntity
  8
0
100
AcDbLine
 62
4
  6
CONTINUOUS
 10
11.1332213673
 20
9.2626685458
 11
11.100103907
 21
9.2649652495
  0
LINE
  5
319
100
AcDbEntity
  8
0
100
AcDbLine
 62
4
  6
CONTINUOUS
 10
11.100103907
 20
9.3146414348
 11
11.1497800958
 21
9.3111963794
  0
LINE
  5
31A
100
AcDbEntity
  8
0
100
AcDbLine
 62
4
  6
CONTINUOUS
 10
11.1828975561
 20
9.3088996758
 11
11.2408531091
 21
9.3048804445
  0
LINE
  5
31B
100
AcDbEntity
  8
0
100
AcDbLine
 62
4
  6
CONTINUOUS
 10
11.7022897839
 20
7.2985271763
 11
11.7095342279
 21
7.3270025483
  0
LINE
  5
31C
100
AcDbEntity
  8
0
100
AcDbLine
 62
4
  6
CONTINUOUS
 10
11.1690986152
 20
9.472132184
 11
11.1304615798
 21
9.4748116715
  0
LINE
  5
31D
100
AcDbEntity
  8
0
100
AcDbLine
 62
4
  6
CONTINUOUS
 10
11.825928216
 20
9.4845364495
 11
11.7679726629
 21
9.4885556807
  0
LINE
  5
31E
100
AcDbEntity
  8
0
100
AcDbLine
 62
4
  6
CONTINUOUS
 10
11.4588763802
 20
9.5099915808
 11
11.4009208272
 21
9.514010812
  0
LINE
  5
31F
100
AcDbEntity
  8
0
100
AcDbLine
 62
4
  6
CONTINUOUS
 10
11.2656912035
 20
9.5233890183
 11
11.2077356505
 21
9.5274082495
  0
LINE
  5
320
100
AcDbEntity
  8
0
100
AcDbLine
 62
4
  6
CONTINUOUS
 10
11.1690986152
 20
9.530087737
 11
11.1111430621
 21
9.5341069683
  0
LINE
  5
321
100
AcDbEntity
  8
0
100
AcDbLine
 62
4
  6
CONTINUOUS
 10
10.8030127053
 20
9.5554758811
 11
10.7450571523
 21
9.5594951123
  0
LINE
  5
322
100
AcDbEntity
  8
0
100
AcDbLine
 62
4
  6
CONTINUOUS
 10
10.7160793758
 20
9.561504728
 11
10.6581238228
 21
9.5655239592
  0
LINE
  5
323
100
AcDbEntity
  8
0
100
AcDbLine
 62
4
  6
CONTINUOUS
 10
11.4975134156
 20
9.5073120933
 11
11.5554689686
 21
9.503292862
  0
LINE
  5
324
100
AcDbEntity
  8
0
100
AcDbLine
 62
4
  6
CONTINUOUS
 10
11.6713800746
 20
9.4952543995
 11
11.7293356276
 21
9.4912351682
  0
LINE
  5
325
100
AcDbEntity
  8
0
100
AcDbLine
 62
4
  6
CONTINUOUS
 10
11.7679726629
 20
9.5175334572
 11
11.825928216
 21
9.513514226
  0
LINE
  5
326
100
AcDbEntity
  8
0
100
AcDbLine
 62
4
  6
CONTINUOUS
 10
11.4009208272
 20
9.5526478473
 11
11.4588763802
 21
9.5486286161
  0
LINE
  5
327
100
AcDbEntity
  8
0
100
AcDbLine
 62
4
  6
CONTINUOUS
 10
11.4588763802
 20
9.5679471338
 11
11.4202393449
 21
9.5706266213
  0
LINE
  5
328
100
AcDbEntity
  8
0
100
AcDbLine
 62
4
  6
CONTINUOUS
 10
11.0638126939
 20
9.5953448935
 11
11.0058571408
 21
9.5993641247
  0
LINE
  5
329
100
AcDbEntity
  8
0
100
AcDbLine
 62
4
  6
CONTINUOUS
 10
10.6581238228
 20
9.6234795122
 11
10.7160793758
 21
9.619460281
  0
LINE
  5
32A
100
AcDbEntity
  8
0
100
AcDbLine
 62
4
  6
CONTINUOUS
 10
11.2077356505
 20
9.5853638025
 11
11.2656912035
 21
9.5813445713
  0
LINE
  5
32B
100
AcDbEntity
  8
0
100
AcDbLine
 62
4
  6
CONTINUOUS
 10
11.3043282388
 20
9.5786650838
 11
11.3622837919
 21
9.5746458525
  0
LINE
  5
32C
100
AcDbEntity
  8
0
100
AcDbLine
 62
4
  6
CONTINUOUS
 10
11.6713800746
 20
9.5532099525
 11
11.7293356276
 21
9.5491907213
  0
LINE
  5
32D
100
AcDbEntity
  8
0
100
AcDbLine
 62
4
  6
CONTINUOUS
 10
11.7679726629
 20
9.5465112338
 11
11.825928216
 21
9.5424920025
  0
LINE
  5
32E
100
AcDbEntity
  8
0
100
AcDbLine
 62
4
  6
CONTINUOUS
 10
11.7095342279
 20
7.3270025483
 11
11.7240231158
 21
7.34531626
  0
LINE
  5
32F
100
AcDbEntity
  8
0
100
AcDbLine
 62
7
  6
CONTINUOUS
 10
12.2074073544
 20
7.8756540508
 11
12.2080921283
 21
7.8763033184
  0
LINE
  5
330
100
AcDbEntity
  8
0
100
AcDbLine
 62
4
  6
CONTINUOUS
 10
11.6254985951
 20
9.5853696204
 11
11.6399874834
 21
9.5843648126
  0
LINE
  5
331
100
AcDbEntity
  8
0
100
AcDbLine
 62
4
  6
CONTINUOUS
 10
10.7160793758
 20
9.677415834
 11
10.6581238228
 21
9.6814350653
  0
LINE
  5
332
100
AcDbEntity
  8
0
100
AcDbLine
 62
4
  6
CONTINUOUS
 10
10.8319904818
 20
9.6693773715
 11
10.8899460348
 21
9.6653581402
  0
LINE
  5
333
100
AcDbEntity
  8
0
100
AcDbLine
 62
4
  6
CONTINUOUS
 10
11.7747342236
 20
7.2548661035
 11
11.7674897796
 21
7.2457092485
  0
LINE
  5
334
100
AcDbEntity
  8
0
100
AcDbLine
 62
4
  6
CONTINUOUS
 10
11.7240231158
 20
7.34531626
 11
11.7385120037
 21
7.3539707086
  0
LINE
  5
335
100
AcDbEntity
  8
0
100
AcDbLine
 62
4
  6
CONTINUOUS
 10
11.7674897796
 20
7.2457092485
 11
11.7530008917
 21
7.2370547973
  0
LINE
  5
336
100
AcDbEntity
  8
0
100
AcDbLine
 62
7
  6
CONTINUOUS
 10
12.5309308938
 20
7.3139908868
 11
12.5309308938
 21
10.5739907437
  0
LINE
  5
337
100
AcDbEntity
  8
0
100
AcDbLine
 62
7
  6
CONTINUOUS
 10
9.4690691062
 20
10.1164591913
 11
9.9291681396
 21
10.084551215
  0
LINE
  5
338
100
AcDbEntity
  8
0
100
AcDbLine
 62
7
  6
CONTINUOUS
 10
10.2163774272
 20
10.0646331833
 11
11.883883815
 21
9.9489912225
  0
LINE
  5
339
100
AcDbEntity
  8
0
100
AcDbLine
 62
7
  6
CONTINUOUS
 10
10.22465963
 20
10.0726331773
 11
9.9374503424
 21
10.0925512091
  0
LINE
  5
33A
100
AcDbEntity
  8
0
100
AcDbLine
 62
7
  6
CONTINUOUS
 10
11.883883815
 20
6.6889913656
 11
12.5309308938
 21
7.3139908868
  0
LINE
  5
33B
100
AcDbEntity
  8
0
100
AcDbLine
 62
7
  6
CONTINUOUS
 10
12.5309308938
 20
10.5739907437
 11
10.116116185
 21
10.7414587126
  0
LINE
  5
33C
100
AcDbEntity
  8
0
100
AcDbLine
 62
7
  6
CONTINUOUS
 10
11.6985794805
 20
6.326237457
 11
11.6822552484
 21
6.3181735989
  0
ARC
  5
33D
100
AcDbEntity
  8
0
100
AcDbCircle
 62
7
  6
CONTINUOUS
 10
11.2962313945
 20
8.0334973196
 40
1.7572201379
100
AcDbArc
 50
266.0376720963
 51
266.9796885983
  0
ARC
  5
33E
100
AcDbEntity
  8
0
100
AcDbCircle
 62
7
  6
CONTINUOUS
 10
11.2955231375
 20
8.4424877831
 40
1.7455901856
100
AcDbArc
 50
266.0345339438
 51
266.9828267507
  0
ARC
  5
33F
100
AcDbEntity
  8
0
100
AcDbCircle
 62
7
  6
CONTINUOUS
 10
11.2910475949
 20
8.3780539173
 40
1.6810010731
100
AcDbArc
 50
265.0648462661
 51
266.0348369885
  0
ARC
  5
340
100
AcDbEntity
  8
0
100
AcDbCircle
 62
7
  6
CONTINUOUS
 10
11.2910475949
 20
7.9574546915
 40
1.6810010731
100
AcDbArc
 50
265.0648462661
 51
266.0348369885
  0
ARC
  5
341
100
AcDbEntity
  8
0
100
AcDbCircle
 62
7
  6
CONTINUOUS
 10
10.3902550975
 20
7.576810142
 40
0.5136806066
100
AcDbArc
 50
134.6018650607
 51
135.2913935544
  0
ARC
  5
342
100
AcDbEntity
  8
0
100
AcDbCircle
 62
7
  6
CONTINUOUS
 10
10.4963893323
 20
7.4669290986
 40
0.5135505298
100
AcDbArc
 50
312.723237615
 51
313.2987016903
  0
ARC
  5
343
100
AcDbEntity
  8
0
100
AcDbCircle
 62
7
  6
CONTINUOUS
 10
10.703147798
 20
7.9947850486
 40
0.4960200318
100
AcDbArc
 50
276.4092881981
 51
282.6796832832
  0
ARC
  5
344
100
AcDbEntity
  8
0
100
AcDbCircle
 62
7
  6
CONTINUOUS
 10
10.0368582014
 20
9.6753312509
 40
0.4283825057
100
AcDbArc
 50
134.8502279087
 51
135.5468431757
  0
ARC
  5
345
100
AcDbEntity
  8
0
100
AcDbCircle
 62
7
  6
CONTINUOUS
 10
10.1252598428
 20
9.5838101221
 40
0.428373765
100
AcDbArc
 50
312.4671154976
 51
313.4725190952
  0
ARC
  5
346
100
AcDbEntity
  8
0
100
AcDbCircle
 62
7
  6
CONTINUOUS
 10
10.4466508323
 20
7.553378825
 40
0.3596388152
100
AcDbArc
 50
90.1949595685
 51
90.5384246388
  0
SPLINE
  5
347
100
AcDbEntity
  8
0
100
AcDbSpline
 62
7
  6
CONTINUOUS
 70
0
 71
3
 72
35
 73
31
 74
0
 42
0.0000001
 43
0.0000001
 44
0.0000000001
 40
0.0
 40
0.0
 40
0.0
 40
0.0
 40
0.0771687072
 40
0.1531494139
 40
0.2277565133
 40
0.3008088448
 40
0.3366971149
 40
0.3721312295
 40
0.4070901622
 40
0.4415533103
 40
0.4755005215
 40
0.5089121171
 40
0.5417689218
 40
0.5740522916
 40
0.6057441404
 40
0.6368269731
 40
0.6672839194
 40
0.6970987673
 40
0.7262560052
 40
0.7547408645
 40
0.7825393627
 40
0.8096383557
 40
0.8360255949
 40
0.8616897889
 40
0.8866206776
 40
0.9108091152
 40
0.9342471609
 40
0.9569281872
 40
0.9788470036
 40
1.0
 40
1.0
 40
1.0
 40
1.0
 10
11.1900768131
 20
6.2623244778
 30
0.0
 10
11.1829750261
 20
6.2628169884
 30
0.0
 10
11.1688874751
 20
6.2638941581
 30
0.0
 10
11.1479629645
 20
6.2658027938
 30
0.0
 10
11.1274473184
 20
6.2679880058
 30
0.0
 10
11.110639752
 20
6.2700465164
 30
0.0
 10
11.0974409379
 20
6.2718299415
 30
0.0
 10
11.087736066
 20
6.2732249375
 30
0.0
 10
11.0781736325
 20
6.2746842854
 30
0.0
 10
11.0687600047
 20
6.2762070156
 30
0.0
 10
11.0595014587
 20
6.2777921093
 30
0.0
 10
11.0504041648
 20
6.2794385081
 30
0.0
 10
11.0414741855
 20
6.2811451116
 30
0.0
 10
11.0327174713
 20
6.2829107794
 30
0.0
 10
11.0241398566
 20
6.2847343315
 30
0.0
 10
11.0157470558
 20
6.2866145495
 30
0.0
 10
11.0075446597
 20
6.2885501768
 30
0.0
 10
10.9995381311
 20
6.2905399202
 30
0.0
 10
10.9917328014
 20
6.2925824501
 30
0.0
 10
10.9841338665
 20
6.2946764015
 30
0.0
 10
10.9767463832
 20
6.2968203753
 30
0.0
 10
10.9695752664
 20
6.2990129393
 30
0.0
 10
10.962625285
 20
6.3012526292
 30
0.0
 10
10.9559010586
 20
6.3035379497
 30
0.0
 10
10.9494070546
 20
6.3058673758
 30
0.0
 10
10.9431475825
 20
6.3082393544
 30
0.0
 10
10.9371267973
 20
6.3106523031
 30
0.0
 10
10.9313486746
 20
6.3131046222
 30
0.0
 10
10.9258170849
 20
6.3155946602
 30
0.0
 10
10.9222321968
 20
6.3173093187
 30
0.0
 10
10.920482644
 20
6.3181735639
 30
0.0
  0
SPLINE
  5
348
100
AcDbEntity
  8
0
100
AcDbSpline
 62
7
  6
CONTINUOUS
 70
0
 71
3
 72
15
 73
11
 74
0
 42
0.0000001
 43
0.0000001
 44
0.0000000001
 40
0.0
 40
0.0
 40
0.0
 40
0.0
 40
0.1371474631
 40
0.2706769339
 40
0.4006484844
 40
0.5271347234
 40
0.6502164733
 40
0.7699845532
 40
0.8865418828
 40
1.0
 40
1.0
 40
1.0
 40
1.0
 10
10.8375627728
 20
6.3626272662
 30
0.0
 10
10.8367907078
 20
6.3632254526
 30
0.0
 10
10.8352810763
 20
6.3644244425
 30
0.0
 10
10.8330929678
 20
6.3662560136
 30
0.0
 10
10.8310122145
 20
6.36809603
 30
0.0
 10
10.8290393162
 20
6.3699440622
 30
0.0
 10
10.827174715
 20
6.371799704
 30
0.0
 10
10.8254188315
 20
6.3736625628
 30
0.0
 10
10.8237721088
 20
6.3755321868
 30
0.0
 10
10.8227336414
 20
6.376799536
 30
0.0
 10
10.8222335363
 20
6.3774341462
 30
0.0
  0
SPLINE
  5
349
100
AcDbEntity
  8
0
100
AcDbSpline
 62
7
  6
CONTINUOUS
 70
0
 71
3
 72
34
 73
30
 74
0
 42
0.0000001
 43
0.0000001
 44
0.0000000001
 40
0.0
 40
0.0
 40
0.0
 40
0.0
 40
0.0809734182
 40
0.1598888656
 40
0.1985328866
 40
0.236611827
 40
0.2741092697
 40
0.3110092465
 40
0.347296387
 40
0.3829560761
 40
0.417974626
 40
0.4523394606
 40
0.4860392999
 40
0.5190643495
 40
0.5514064909
 40
0.5830594704
 40
0.6140190885
 40
0.6442833733
 40
0.6738527336
 40
0.7027300949
 40
0.7309210133
 40
0.7584337611
 40
0.7852793888
 40
0.8114717392
 40
0.861960419
 40
0.9100690898
 40
0.9560013248
 40
0.9782274084
 40
1.0
 40
1.0
 40
1.0
 40
1.0
 10
11.780504285
 20
6.4280205978
 30
0.0
 10
11.7788560977
 20
6.4248424094
 30
0.0
 10
11.7755568338
 20
6.4185898875
 30
0.0
 10
11.7713352212
 20
6.4108933005
 30
0.0
 10
11.767943462
 20
6.4049057854
 30
0.0
 10
11.7654120846
 20
6.4005358149
 30
0.0
 10
11.7628755526
 20
6.3962582363
 30
0.0
 10
11.7603339944
 20
6.3920760629
 30
0.0
 10
11.7577875706
 20
6.3879922868
 30
0.0
 10
11.7552364653
 20
6.3840098608
 30
0.0
 10
11.7526808892
 20
6.3801316793
 30
0.0
 10
11.7501210798
 20
6.3763605569
 30
0.0
 10
11.7475573005
 20
6.3726992085
 30
0.0
 10
11.7449898405
 20
6.3691502272
 30
0.0
 10
11.7424190134
 20
6.3657160632
 30
0.0
 10
11.7398451558
 20
6.3623990015
 30
0.0
 10
11.7372686263
 20
6.3592011405
 30
0.0
 10
11.7346898036
 20
6.3561243714
 30
0.0
 10
11.7321090829
 20
6.3531703604
 30
0.0
 10
11.7295268744
 20
6.350340533
 30
0.0
 10
11.7269435963
 20
6.3476360554
 30
0.0
 10
11.7243596874
 20
6.3450578393
 30
0.0
 10
11.7217755453
 20
6.3426064721
 30
0.0
 10
11.7183720518
 20
6.3395451447
 30
0.0
 10
11.7141190376
 20
6.3360250782
 30
0.0
 10
11.7089555669
 20
6.3322535564
 30
0.0
 10
11.7046116732
 20
6.3294965336
 30
0.0
 10
11.701146416
 20
6.3275452948
 30
0.0
 10
11.6994179228
 20
6.3266515929
 30
0.0
 10
11.6985548205
 20
6.3262252758
 30
0.0
  0
SPLINE
  5
34A
100
AcDbEntity
  8
0
100
AcDbSpline
 62
7
  6
CONTINUOUS
 70
0
 71
3
 72
48
 73
44
 74
0
 42
0.0000001
 43
0.0000001
 44
0.0000000001
 40
0.0
 40
0.0
 40
0.0
 40
0.0
 40
0.00954104
 40
0.0193653464
 40
0.0294719709
 40
0.039859557
 40
0.0505263736
 40
0.0614703488
 40
0.0726890873
 40
0.084179891
 40
0.0959397856
 40
0.1079655343
 40
0.1202536475
 40
0.1328004052
 40
0.1456018694
 40
0.158653887
 40
0.171952108
 40
0.1854919969
 40
0.1992688342
 40
0.2132777281
 40
0.2419710459
 40
0.2715299775
 40
0.3019099632
 40
0.3330643406
 40
0.3649445344
 40
0.3975002191
 40
0.4306794733
 40
0.464428937
 40
0.4986939493
 40
0.5334186921
 40
0.5685463286
 40
0.6040191343
 40
0.6397786331
 40
0.6757657282
 40
0.7119208309
 40
0.748183993
 40
0.7844950341
 40
0.8207936714
 40
0.8570196492
 40
0.8931128676
 40
0.9290135142
 40
0.964662127
 40
1.0
 40
1.0
 40
1.0
 40
1.0
 10
11.6822551732
 20
6.3181735621
 30
0.0
 10
11.6808308664
 20
6.3174699821
 30
0.0
 10
11.6779251435
 20
6.3160717631
 30
0.0
 10
11.6734630581
 20
6.3140290632
 30
0.0
 10
11.6688355213
 20
6.3120111412
 30
0.0
 10
11.6640446058
 20
6.3100189036
 30
0.0
 10
11.6590924264
 20
6.3080532304
 30
0.0
 10
11.6539811786
 20
6.3061149972
 30
0.0
 10
11.6487131275
 20
6.3042050662
 30
0.0
 10
11.6432906102
 20
6.3023242857
 30
0.0
 10
11.6377160325
 20
6.3004734932
 30
0.0
 10
11.6319918682
 20
6.298653514
 30
0.0
 10
11.6261206592
 20
6.2968651568
 30
0.0
 10
11.6201050131
 20
6.2951092183
 30
0.0
 10
11.6139476014
 20
6.293386482
 30
0.0
 10
11.6076511602
 20
6.2916977142
 30
0.0
 10
11.6012184874
 20
6.2900436666
 30
0.0
 10
11.5946524425
 20
6.2884250787
 30
0.0
 10
11.5879559394
 20
6.2868426658
 30
0.0
 10
11.5787842076
 20
6.2847654231
 30
0.0
 10
11.5670139482
 20
6.2822677634
 30
0.0
 10
11.5525274601
 20
6.2794491966
 30
0.0
 10
11.5375943232
 20
6.2767909557
 30
0.0
 10
11.5222411033
 20
6.2742977908
 30
0.0
 10
11.5064950724
 20
6.271974162
 30
0.0
 10
11.4903842202
 20
6.2698242251
 30
0.0
 10
11.4739371869
 20
6.2678518218
 30
0.0
 10
11.4571832155
 20
6.2660604795
 30
0.0
 10
11.4401520977
 20
6.2644533988
 30
0.0
 10
11.4228741215
 20
6.2630334509
 30
0.0
 10
11.4053800155
 20
6.2618031746
 30
0.0
 10
11.387700895
 20
6.2607647657
 30
0.0
 10
11.3698682057
 20
6.2599200802
 30
0.0
 10
11.3519136674
 20
6.2592706273
 30
0.0
 10
11.3338692176
 20
6.2588175655
 30
0.0
 10
11.3157669545
 20
6.2585617058
 30
0.0
 10
11.2976390793
 20
6.2585035039
 30
0.0
 10
11.279517839
 20
6.2586430637
 30
0.0
 10
11.2614354682
 20
6.2589801372
 30
0.0
 10
11.243424134
 20
6.2595141205
 30
0.0
 10
11.2255158762
 20
6.260244062
 30
0.0
 10
11.2077425656
 20
6.2611686545
 30
0.0
 10
11.1959465619
 20
6.2619174093
 30
0.0
 10
11.1900768131
 20
6.2623244778
 30
0.0
  0
SPLINE
  5
34B
100
AcDbEntity
  8
0
100
AcDbSpline
 62
7
  6
CONTINUOUS
 70
0
 71
3
 72
11
 73
7
 74
0
 42
0.0000001
 43
0.0000001
 44
0.0000000001
 40
0.0
 40
0.0
 40
0.0
 40
0.0
 40
0.2469574617
 40
0.4960103647
 40
0.7470602108
 40
1.0
 40
1.0
 40
1.0
 40
1.0
 10
10.8953435735
 20
6.3305917839
 30
0.0
 10
10.8904659759
 20
6.3330013603
 30
0.0
 10
10.8807320939
 20
6.3379688617
 30
0.0
 10
10.8662570051
 20
6.3458020776
 30
0.0
 10
10.8518463846
 20
6.3540222911
 30
0.0
 10
10.8423174337
 20
6.3597218389
 30
0.0
 10
10.8375627728
 20
6.3626272662
 30
0.0
  0
SPLINE
  5
34C
100
AcDbEntity
  8
0
100
AcDbSpline
 62
7
  6
CONTINUOUS
 70
0
 71
3
 72
11
 73
7
 74
0
 42
0.0000001
 43
0.0000001
 44
0.0000000001
 40
0.0
 40
0.0
 40
0.0
 40
0.0
 40
0.239978672
 40
0.4867532021
 40
0.7401536949
 40
1.0
 40
1.0
 40
1.0
 40
1.0
 10
11.6674496597
 20
6.318818209
 30
0.0
 10
11.6641276467
 20
6.3178473401
 30
0.0
 10
11.6573730388
 20
6.3159341959
 30
0.0
 10
11.6470583161
 20
6.3131846808
 30
0.0
 10
11.6364264412
 20
6.3105171688
 30
0.0
 10
11.6292222333
 20
6.3088160704
 30
0.0
 10
11.6255694507
 20
6.3079788174
 30
0.0
  0
SPLINE
  5
34D
100
AcDbEntity
  8
0
100
AcDbSpline
 62
7
  6
CONTINUOUS
 70
0
 71
3
 72
34
 73
30
 74
0
 42
0.0000001
 43
0.0000001
 44
0.0000000001
 40
0.0
 40
0.0
 40
0.0
 40
0.0
 40
0.0634866499
 40
0.1268757617
 40
0.1901559488
 40
0.2217524835
 40
0.2533175613
 40
0.2848498219
 40
0.3163479752
 40
0.3478108244
 40
0.37923729
 40
0.410626433
 40
0.4419774759
 40
0.4732898202
 40
0.5045630611
 40
0.5357969968
 40
0.5669916332
 40
0.5981471839
 40
0.6292640629
 40
0.6603428743
 40
0.6913843958
 40
0.7223895607
 40
0.7533594367
 40
0.7842952036
 40
0.8151981295
 40
0.8460695479
 40
0.8769108365
 40
0.9385071607
 40
1.0
 40
1.0
 40
1.0
 40
1.0
 10
11.6255694507
 20
6.3079788174
 30
0.0
 10
11.6169622807
 20
6.305162416
 30
0.0
 10
11.5996961361
 20
6.2997299099
 30
0.0
 10
11.5736229089
 20
6.2922381017
 30
0.0
 10
11.5517593811
 20
6.2865964672
 30
0.0
 10
11.5341988485
 20
6.282477045
 30
0.0
 10
11.5210018662
 20
6.2795929732
 30
0.0
 10
11.5077748025
 20
6.276920097
 30
0.0
 10
11.4945203756
 20
6.2744650291
 30
0.0
 10
11.4812417033
 20
6.2722338435
 30
0.0
 10
11.4679422301
 20
6.2702319508
 30
0.0
 10
11.4546257067
 20
6.2684640009
 30
0.0
 10
11.4412961416
 20
6.2669337891
 30
0.0
 10
11.4279577477
 20
6.2656441781
 30
0.0
 10
11.4146148794
 20
6.2645970377
 30
0.0
 10
11.4012719639
 20
6.2637932039
 30
0.0
 10
11.3879334299
 20
6.263232461
 30
0.0
 10
11.3746036355
 20
6.2629135493
 30
0.0
 10
11.3612867997
 20
6.2628341959
 30
0.0
 10
11.347986939
 20
6.2629911666
 30
0.0
 10
11.3347078129
 20
6.2633803359
 30
0.0
 10
11.3214528783
 20
6.2639967737
 30
0.0
 10
11.308225256
 20
6.2648348422
 30
0.0
 10
11.2950277047
 20
6.2658883007
 30
0.0
 10
11.2818626191
 20
6.2671504122
 30
0.0
 10
11.268731989
 20
6.26861406
 30
0.0
 10
11.2512809487
 20
6.2708233592
 30
0.0
 10
11.2295585741
 20
6.2740510163
 30
0.0
 10
11.2122635182
 20
6.2770931043
 30
0.0
 10
11.2036435218
 20
6.2787181031
 30
0.0
  0
SPLINE
  5
34E
100
AcDbEntity
  8
0
100
AcDbSpline
 62
7
  6
CONTINUOUS
 70
0
 71
3
 72
11
 73
7
 74
0
 42
0.0000001
 43
0.0000001
 44
0.0000000001
 40
0.0
 40
0.0
 40
0.0
 40
0.0
 40
0.2494623999
 40
0.4993144581
 40
0.7495081039
 40
1.0
 40
1.0
 40
1.0
 40
1.0
 10
11.2743553291
 20
6.7312860635
 30
0.0
 10
11.2683290788
 20
6.7289700042
 30
0.0
 10
11.2563403001
 20
6.724141803
 30
0.0
 10
11.2385670896
 20
6.7163667463
 30
0.0
 10
11.2209886915
 20
6.7080986327
 30
0.0
 10
11.2094044596
 20
6.7022898938
 30
0.0
 10
11.2036435218
 20
6.6993173289
 30
0.0
  0
SPLINE
  5
34F
100
AcDbEntity
  8
0
100
AcDbSpline
 62
7
  6
CONTINUOUS
 70
0
 71
3
 72
32
 73
28
 74
0
 42
0.0000001
 43
0.0000001
 44
0.0000000001
 40
0.0
 40
0.0
 40
0.0
 40
0.0
 40
0.0595062425
 40
0.1191900351
 40
0.1790935976
 40
0.209143445
 40
0.2392663649
 40
0.2694689329
 40
0.2997579244
 40
0.330140265
 40
0.360622973
 40
0.3912130942
 40
0.4219176307
 40
0.4527434644
 40
0.4836972776
 40
0.5147854729
 40
0.5460140938
 40
0.5773887495
 40
0.6089145454
 40
0.6405960221
 40
0.6724371045
 40
0.7044410622
 40
0.736610483
 40
0.8014501593
 40
0.8669656327
 40
0.9331532561
 40
1.0
 40
1.0
 40
1.0
 40
1.0
 10
11.1464340764
 20
6.2826855916
 30
0.0
 10
11.1413151497
 20
6.2822073209
 30
0.0
 10
11.1310480281
 20
6.2813918275
 30
0.0
 10
11.1155914503
 20
6.2806251613
 30
0.0
 10
11.1026626473
 20
6.2803929172
 30
0.0
 10
11.0922881365
 20
6.2804660855
 30
0.0
 10
11.0844817598
 20
6.2806547237
 30
0.0
 10
11.0766592394
 20
6.2809808279
 30
0.0
 10
11.0688213974
 20
6.2814479793
 30
0.0
 10
11.0609692091
 20
6.2820595631
 30
0.0
 10
11.0531037592
 20
6.2828187242
 30
0.0
 10
11.0452262496
 20
6.2837283315
 30
0.0
 10
11.0373379913
 20
6.2847909418
 30
0.0
 10
11.0294403968
 20
6.2860087651
 30
0.0
 10
11.0215349698
 20
6.2873836341
 30
0.0
 10
11.0136232925
 20
6.2889169772
 30
0.0
 10
11.005707011
 20
6.2906097964
 30
0.0
 10
10.9977878193
 20
6.2924626511
 30
0.0
 10
10.9898674421
 20
6.2944756477
 30
0.0
 10
10.9819476135
 20
6.296648438
 30
0.0
 10
10.9740300698
 20
6.2989802166
 30
0.0
 10
10.966116489
 20
6.3014697532
 30
0.0
 10
10.9555454055
 20
6.3050063071
 30
0.0
 10
10.9423494732
 20
6.3098152634
 30
0.0
 10
10.9265975732
 20
6.3161658813
 30
0.0
 10
10.910897799
 20
6.3230852938
 30
0.0
 10
10.9005216207
 20
6.3280337828
 30
0.0
 10
10.8953435735
 20
6.3305917839
 30
0.0
  0
SPLINE
  5
350
100
AcDbEntity
  8
0
100
AcDbSpline
 62
7
  6
CONTINUOUS
 70
0
 71
3
 72
11
 73
7
 74
0
 42
0.0000001
 43
0.0000001
 44
0.0000000001
 40
0.0
 40
0.0
 40
0.0
 40
0.0
 40
0.2539476412
 40
0.5054096887
 40
0.7541675181
 40
1.0
 40
1.0
 40
1.0
 40
1.0
 10
11.1464340764
 20
6.7032848174
 30
0.0
 10
11.1422338659
 20
6.7069345255
 30
0.0
 10
11.1337917977
 20
6.7141037591
 30
0.0
 10
11.1209293073
 20
6.724481218
 30
0.0
 10
11.1079244918
 20
6.7343894843
 30
0.0
 10
11.0991048797
 20
6.7406909115
 30
0.0
 10
11.0946694261
 20
6.7437473233
 30
0.0
  0
SPLINE
  5
351
100
AcDbEntity
  8
0
100
AcDbSpline
 62
7
  6
CONTINUOUS
 70
0
 71
3
 72
15
 73
11
 74
0
 42
0.0000001
 43
0.0000001
 44
0.0000000001
 40
0.0
 40
0.0
 40
0.0
 40
0.0
 40
0.1340154839
 40
0.2644677344
 40
0.3918674984
 40
0.5167200291
 40
0.6395140936
 40
0.7607124623
 40
0.8807443015
 40
1.0
 40
1.0
 40
1.0
 40
1.0
 10
11.6985548205
 20
6.3262252758
 30
0.0
 10
11.6972628893
 20
6.3255871447
 30
0.0
 10
11.6946780202
 20
6.3243978113
 30
0.0
 10
11.6907535142
 20
6.3228584305
 30
0.0
 10
11.6868394445
 20
6.3215810814
 30
0.0
 10
11.6829368815
 20
6.3205565298
 30
0.0
 10
11.6790465682
 20
6.3197749132
 30
0.0
 10
11.6751690858
 20
6.3192260262
 30
0.0
 10
11.6713050112
 20
6.3188994496
 30
0.0
 10
11.6687318905
 20
6.3188227717
 30
0.0
 10
11.6674496597
 20
6.318818209
 30
0.0
  0
SPLINE
  5
352
100
AcDbEntity
  8
0
100
AcDbSpline
 62
7
  6
CONTINUOUS
 70
0
 71
3
 72
33
 73
29
 74
0
 42
0.0000001
 43
0.0000001
 44
0.0000000001
 40
0.0
 40
0.0
 40
0.0
 40
0.0
 40
0.0845018879
 40
0.1673006947
 40
0.2480793749
 40
0.3265296559
 40
0.4023569432
 40
0.4752811983
 40
0.5105725315
 40
0.5450410489
 40
0.5786569493
 40
0.6113918338
 40
0.6432188773
 40
0.6741127503
 40
0.7040500174
 40
0.7330090191
 40
0.7609702172
 40
0.7879163572
 40
0.8138325728
 40
0.8387069143
 40
0.8625303685
 40
0.8852975233
 40
0.907006901
 40
0.9276615333
 40
0.9472698654
 40
0.9658463673
 40
0.9834129366
 40
1.0
 40
1.0
 40
1.0
 40
1.0
 10
10.2754279224
 20
10.2703420433
 30
0.0
 10
10.2657607013
 20
10.2710124674
 30
0.0
 10
10.2466323686
 20
10.2725094749
 30
0.0
 10
10.2183144283
 20
10.2752545055
 30
0.0
 10
10.1907441026
 20
10.2784674658
 30
0.0
 10
10.1640371035
 20
10.2821347209
 30
0.0
 10
10.1383056464
 20
10.2862406925
 30
0.0
 10
10.1175450487
 20
10.2900537141
 30
0.0
 10
10.101511297
 20
10.2933197806
 30
0.0
 10
10.0899272697
 20
10.2958410144
 30
0.0
 10
10.0786652538
 20
10.2984579741
 30
0.0
 10
10.0677370562
 20
10.3011679312
 30
0.0
 10
10.0571541431
 20
10.3039679948
 30
0.0
 10
10.0469276148
 20
10.3068552493
 30
0.0
 10
10.0370681842
 20
10.3098266132
 30
0.0
 10
10.0275861784
 20
10.3128789786
 30
0.0
 10
10.0184915169
 20
10.316009125
 30
0.0
 10
10.0097936992
 20
10.3192137403
 30
0.0
 10
10.0015018078
 20
10.3224894927
 30
0.0
 10
9.9936244664
 20
10.3258329023
 30
0.0
 10
9.9861698675
 20
10.3292405124
 30
0.0
 10
9.9791457251
 20
10.3327087546
 30
0.0
 10
9.9725592846
 20
10.3362340357
 30
0.0
 10
9.9664173185
 20
10.339812778
 30
0.0
 10
9.9607261018
 20
10.343441291
 30
0.0
 10
9.9554913767
 20
10.3471160883
 30
0.0
 10
9.9507186673
 20
10.3508333292
 30
0.0
 10
9.9477651884
 20
10.353409853
 30
0.0
 10
9.9463727154
 20
10.3547057019
 30
0.0
  0
SPLINE
  5
353
100
AcDbEntity
  8
0
100
AcDbSpline
 62
7
  6
CONTINUOUS
 70
0
 71
3
 72
51
 73
47
 74
0
 42
0.0000001
 43
0.0000001
 44
0.0000000001
 40
0.0
 40
0.0
 40
0.0
 40
0.0
 40
0.0311429623
 40
0.0624390393
 40
0.0938821581
 40
0.1254627405
 40
0.1571685478
 40
0.1889848322
 40
0.2208946479
 40
0.2528792128
 40
0.2849182853
 40
0.3169905665
 40
0.3490741169
 40
0.3811467786
 40
0.413186604
 40
0.4451722806
 40
0.4770835444
 40
0.5089015852
 40
0.5406094235
 40
0.5721922667
 40
0.6036378301
 40
0.6349366131
 40
0.6505313541
 40
0.6660872357
 40
0.6816039492
 40
0.6970813947
 40
0.7125196809
 40
0.727919126
 40
0.7432802612
 40
0.7586038263
 40
0.7738907665
 40
0.789142231
 40
0.8043595683
 40
0.8195443173
 40
0.8346982008
 40
0.8498231194
 40
0.8649211391
 40
0.8799944797
 40
0.8950455049
 40
0.9100767091
 40
0.9250907018
 40
0.9400901927
 40
0.9550779784
 40
0.9700569243
 40
0.9850299475
 40
1.0
 40
1.0
 40
1.0
 40
1.0
 10
10.4349949897
 20
8.0838128308
 30
0.0
 10
10.4489113128
 20
8.0828477306
 30
0.0
 10
10.4767520904
 20
8.0798941516
 30
0.0
 10
10.5181757108
 20
8.072454076
 30
0.0
 10
10.559155646
 20
8.0620326905
 30
0.0
 10
10.5994705617
 20
8.0486861206
 30
0.0
 10
10.6389063112
 20
8.0324858719
 30
0.0
 10
10.6772524904
 20
8.0135185691
 30
0.0
 10
10.7143048687
 20
7.9918856459
 30
0.0
 10
10.7498659614
 20
7.9677025265
 30
0.0
 10
10.7837463396
 20
7.9410983152
 30
0.0
 10
10.8157654553
 20
7.9122148716
 30
0.0
 10
10.8457526678
 20
7.8812061825
 30
0.0
 10
10.8735481857
 20
7.8482375622
 30
0.0
 10
10.8990037478
 20
7.81348465
 30
0.0
 10
10.9219836618
 20
7.7771326827
 30
0.0
 10
10.9423652323
 20
7.7393753167
 30
0.0
 10
10.9600396619
 20
7.7004137344
 30
0.0
 10
10.9749124798
 20
7.6604556585
 30
0.0
 10
10.9869040712
 20
7.6197136405
 30
0.0
 10
10.9959501275
 20
7.5784063519
 30
0.0
 10
11.0009998675
 20
7.5436482805
 30
0.0
 10
11.0035203335
 20
7.5157843147
 30
0.0
 10
11.0046495404
 20
7.4949065117
 30
0.0
 10
11.0050180136
 20
7.4740542232
 30
0.0
 10
11.0046253327
 20
7.4532549532
 30
0.0
 10
11.0034719698
 20
7.4325365654
 30
0.0
 10
11.0015594325
 20
7.4119267063
 30
0.0
 10
10.9988902945
 20
7.3914529037
 30
0.0
 10
10.9954681043
 20
7.3711424986
 30
0.0
 10
10.99129738
 20
7.3510226268
 30
0.0
 10
10.9863836997
 20
7.3311201607
 30
0.0
 10
10.9807336295
 20
7.3114616811
 30
0.0
 10
10.9743546775
 20
7.2920734572
 30
0.0
 10
10.967255339
 20
7.2729813983
 30
0.0
 10
10.9594451182
 20
7.2542110012
 30
0.0
 10
10.9509344312
 20
7.235787347
 30
0.0
 10
10.9417346033
 20
7.2177350713
 30
0.0
 10
10.931857944
 20
7.2000782853
 30
0.0
 10
10.9213176508
 20
7.1828405762
 30
0.0
 10
10.9101277746
 20
7.1660449977
 30
0.0
 10
10.8983032531
 20
7.149713994
 30
0.0
 10
10.8858599282
 20
7.1338693916
 30
0.0
 10
10.8728143364
 20
7.1185322941
 30
0.0
 10
10.8591841701
 20
7.1037235069
 30
0.0
 10
10.8497188056
 20
7.0942153432
 30
0.0
 10
10.844895862
 20
7.0895567324
 30
0.0
  0
SPLINE
  5
354
100
AcDbEntity
  8
0
100
AcDbSpline
 62
7
  6
CONTINUOUS
 70
0
 71
3
 72
18
 73
14
 74
0
 42
0.0000001
 43
0.0000001
 44
0.0000000001
 40
0.0
 40
0.0
 40
0.0
 40
0.0
 40
0.150467608
 40
0.291710008
 40
0.4244359371
 40
0.549562455
 40
0.6682139939
 40
0.7255497488
 40
0.7817912909
 40
0.8371402503
 40
0.8918093826
 40
0.9460201179
 40
1.0
 40
1.0
 40
1.0
 40
1.0
 10
12.2074073544
 20
9.5032391645
 30
0.0
 10
12.2090753379
 20
9.5048503129
 30
0.0
 10
12.2124089365
 20
9.507873242
 30
0.0
 10
12.2175709869
 20
9.5119018111
 30
0.0
 10
12.2227269743
 20
9.5152711031
 30
0.0
 10
12.2278715603
 20
9.5179755878
 30
0.0
 10
12.2321955283
 20
9.5196905364
 30
0.0
 10
12.2356285678
 20
9.5207094561
 30
0.0
 10
12.2381667791
 20
9.5212967471
 30
0.0
 10
12.2406965696
 20
9.5217153243
 30
0.0
 10
12.2432172305
 20
9.5219650399
 30
0.0
 10
12.2457277593
 20
9.5220457637
 30
0.0
 10
12.2473956824
 20
9.5219867711
 30
0.0
 10
12.2482256408
 20
9.5219292169
 30
0.0
  0
SPLINE
  5
355
100
AcDbEntity
  8
0
100
AcDbSpline
 62
7
  6
CONTINUOUS
 70
0
 71
3
 72
15
 73
11
 74
0
 42
0.0000001
 43
0.0000001
 44
0.0000000001
 40
0.0
 40
0.0
 40
0.0
 40
0.0
 40
0.1240448756
 40
0.2483720197
 40
0.3729796042
 40
0.4978713315
 40
0.6230359682
 40
0.7484592084
 40
0.8741214637
 40
1.0
 40
1.0
 40
1.0
 40
1.0
 10
10.2848748158
 20
9.645336602
 30
0.0
 10
10.288140647
 20
9.6451101159
 30
0.0
 10
10.2946951233
 20
9.6448539922
 30
0.0
 10
10.3045418635
 20
9.6450598937
 30
0.0
 10
10.3143814961
 20
9.6458526316
 30
0.0
 10
10.3241791217
 20
9.6472259787
 30
0.0
 10
10.3339012994
 20
9.6491709092
 30
0.0
 10
10.3435154627
 20
9.651675656
 30
0.0
 10
10.3529899941
 20
9.6547260522
 30
0.0
 10
10.3591893966
 20
9.6571112983
 30
0.0
 10
10.3622559288
 20
9.6583889962
 30
0.0
  0
SPLINE
  5
356
100
AcDbEntity
  8
0
100
AcDbSpline
 62
7
  6
CONTINUOUS
 70
0
 71
3
 72
11
 73
7
 74
0
 42
0.0000001
 43
0.0000001
 44
0.0000000001
 40
0.0
 40
0.0
 40
0.0
 40
0.0
 40
0.2561709177
 40
0.5089424132
 40
0.7572511643
 40
1.0
 40
1.0
 40
1.0
 40
1.0
 10
10.4852263784
 20
7.5454454215
 30
0.0
 10
10.4885065764
 20
7.5448642918
 30
0.0
 10
10.4950438539
 20
7.543821125
 30
0.0
 10
10.5048215281
 20
7.5426313323
 30
0.0
 10
10.5144655511
 20
7.541851037
 30
0.0
 10
10.520849777
 20
7.5416171681
 30
0.0
 10
10.5240062849
 20
7.541579289
 30
0.0
  0
SPLINE
  5
357
100
AcDbEntity
  8
0
100
AcDbSpline
 62
7
  6
CONTINUOUS
 70
0
 71
3
 72
39
 73
35
 74
0
 42
0.0000001
 43
0.0000001
 44
0.0000000001
 40
0.0
 40
0.0
 40
0.0
 40
0.0
 40
0.0317440058
 40
0.0635828615
 40
0.095504217
 40
0.1274937813
 40
0.1595365946
 40
0.1916168233
 40
0.2237181061
 40
0.2558237722
 40
0.2879170873
 40
0.3199814969
 40
0.3520008685
 40
0.383959728
 40
0.4158434909
 40
0.447638684
 40
0.4793331545
 40
0.5109162636
 40
0.5423790633
 40
0.5737144513
 40
0.6049173031
 40
0.6359845778
 40
0.6669153928
 40
0.6977110657
 40
0.7283751226
 40
0.7589132675
 40
0.7893333155
 40
0.8196450859
 40
0.8498602565
 40
0.8799921798
 40
0.9100556649
 40
0.9400667274
 40
0.9700423131
 40
1.0
 40
1.0
 40
1.0
 40
1.0
 10
10.2163774272
 20
10.0646331833
 30
0.0
 10
10.225979932
 20
10.060923306
 30
0.0
 10
10.2449923078
 20
10.0529046556
 30
0.0
 10
10.2727662567
 20
10.0391601272
 30
0.0
 10
10.2997351058
 20
10.0237331499
 30
0.0
 10
10.3257889694
 20
10.0066863337
 30
0.0
 10
10.3508233538
 20
9.9880882787
 30
0.0
 10
10.3747374269
 20
9.9680138964
 30
0.0
 10
10.3974349759
 20
9.9465440035
 30
0.0
 10
10.4188246498
 20
9.9237650329
 30
0.0
 10
10.4388203586
 20
9.8997686691
 30
0.0
 10
10.457341603
 20
9.8746514832
 30
0.0
 10
10.474313799
 20
9.8485145479
 30
0.0
 10
10.4896685757
 20
9.8214630347
 30
0.0
 10
10.5033440473
 20
9.7936057947
 30
0.0
 10
10.5152850783
 20
9.7650549323
 30
0.0
 10
10.5254434933
 20
9.7359253501
 30
0.0
 10
10.5337782677
 20
9.7063342903
 30
0.0
 10
10.5402556946
 20
9.6764008693
 30
0.0
 10
10.5448495229
 20
9.6462456037
 30
0.0
 10
10.5475410636
 20
9.61598993
 30
0.0
 10
10.5483192891
 20
9.5857557222
 30
0.0
 10
10.5471808698
 20
9.5556648013
 30
0.0
 10
10.5441301891
 20
9.5258384485
 30
0.0
 10
10.5391793346
 20
9.4963969198
 30
0.0
 10
10.532348058
 20
9.4674589624
 30
0.0
 10
10.5236637023
 20
9.439141337
 30
0.0
 10
10.5131611158
 20
9.411558336
 30
0.0
 10
10.5008825191
 20
9.3848213284
 30
0.0
 10
10.4868772963
 20
9.3590382682
 30
0.0
 10
10.4712019501
 20
9.3343133947
 30
0.0
 10
10.45391933
 20
9.3107462665
 30
0.0
 10
10.4351004181
 20
9.288433346
 30
0.0
 10
10.4215764273
 20
9.2744498285
 30
0.0
 10
10.4145889125
 20
9.2677003896
 30
0.0
  0
SPLINE
  5
358
100
AcDbEntity
  8
0
100
AcDbSpline
 62
7
  6
CONTINUOUS
 70
0
 71
3
 72
23
 73
19
 74
0
 42
0.0000001
 43
0.0000001
 44
0.0000000001
 40
0.0
 40
0.0
 40
0.0
 40
0.0
 40
0.0620994044
 40
0.1243544638
 40
0.1867462535
 40
0.2492543383
 40
0.311857007
 40
0.3745315157
 40
0.4372543388
 40
0.5000014268
 40
0.5627484675
 40
0.6254711491
 40
0.6881454237
 40
0.7507477685
 40
0.8132554432
 40
0.8756467412
 40
0.9379012333
 40
1.0
 40
1.0
 40
1.0
 40
1.0
 10
10.5913491934
 20
7.8630723554
 30
0.0
 10
10.5934650603
 20
7.8573840999
 30
0.0
 10
10.5980013085
 20
7.8461021127
 30
0.0
 10
10.6056846424
 20
7.8295387354
 30
0.0
 10
10.6142338543
 20
7.8133595179
 30
0.0
 10
10.6236230893
 20
7.7976135301
 30
0.0
 10
10.6338242614
 20
7.7823477581
 30
0.0
 10
10.6448067838
 20
7.7676079609
 30
0.0
 10
10.6565377549
 20
7.7534382671
 30
0.0
 10
10.6689820313
 20
7.739881115
 30
0.0
 10
10.6821023388
 20
7.7269771074
 30
0.0
 10
10.695859383
 20
7.7147648954
 30
0.0
 10
10.7102119616
 20
7.7032810635
 30
0.0
 10
10.7251171061
 20
7.6925600139
 30
0.0
 10
10.7405301388
 20
7.6826338918
 30
0.0
 10
10.7564050693
 20
7.673532384
 30
0.0
 10
10.7726937493
 20
7.6652830243
 30
0.0
 10
10.7838126446
 20
7.6603608202
 30
0.0
 10
10.789424572
 20
7.6580502666
 30
0.0
  0
SPLINE
  5
359
100
AcDbEntity
  8
0
100
AcDbSpline
 62
7
  6
CONTINUOUS
 70
0
 71
3
 72
11
 73
7
 74
0
 42
0.0000001
 43
0.0000001
 44
0.0000000001
 40
0.0
 40
0.0
 40
0.0
 40
0.0
 40
0.2603446635
 40
0.5119386596
 40
0.7575066291
 40
1.0
 40
1.0
 40
1.0
 40
1.0
 10
9.9689601275
 20
10.3383521456
 30
0.0
 10
9.9684440106
 20
10.3394478706
 30
0.0
 10
9.9675312136
 20
10.3416528355
 30
0.0
 10
9.9665313667
 20
10.3450392316
 30
0.0
 10
9.9659303114
 20
10.3484347223
 30
0.0
 10
9.9657963282
 20
10.3507074979
 30
0.0
 10
9.9657963239
 20
10.3518356424
 30
0.0
  0
SPLINE
  5
35A
100
AcDbEntity
  8
0
100
AcDbSpline
 62
7
  6
CONTINUOUS
 70
0
 71
3
 72
46
 73
42
 74
0
 42
0.0000001
 43
0.0000001
 44
0.0000000001
 40
0.0
 40
0.0
 40
0.0
 40
0.0
 40
0.007273983
 40
0.0148705064
 40
0.022798022
 40
0.0310633147
 40
0.0396715192
 40
0.0486265007
 40
0.0579308425
 40
0.0675861042
 40
0.0775928807
 40
0.0879508871
 40
0.098659129
 40
0.1097158298
 40
0.1211186815
 40
0.1328646936
 40
0.1573711414
 40
0.1832026044
 40
0.210318804
 40
0.2386735246
 40
0.268215301
 40
0.2988879846
 40
0.3306312228
 40
0.3633808755
 40
0.3970693828
 40
0.4316261023
 40
0.4669776235
 40
0.5030480612
 40
0.5397593352
 40
0.5770314397
 40
0.614782706
 40
0.6529300597
 40
0.6913892733
 40
0.730075218
 40
0.7689021107
 40
0.8077837764
 40
0.8466338414
 40
0.885366163
 40
0.9238945305
 40
0.962134293
 40
1.0
 40
1.0
 40
1.0
 40
1.0
 10
10.8462193347
 20
10.3547051526
 30
0.0
 10
10.8451792755
 20
10.3537372723
 30
0.0
 10
10.8430052122
 20
10.3518094914
 30
0.0
 10
10.8395483373
 20
10.3490008163
 30
0.0
 10
10.8358281858
 20
10.346214962
 30
0.0
 10
10.8318469896
 20
10.3434536539
 30
0.0
 10
10.827607075
 20
10.3407183761
 30
0.0
 10
10.823110898
 20
10.3380107669
 30
0.0
 10
10.8183611053
 20
10.3353323567
 30
0.0
 10
10.8133604729
 20
10.3326847309
 30
0.0
 10
10.8081119395
 20
10.3300694452
 30
0.0
 10
10.8026186002
 20
10.32748802
 30
0.0
 10
10.796883683
 20
10.3249420176
 30
0.0
 10
10.7909105886
 20
10.3224329032
 30
0.0
 10
10.7847028274
 20
10.3199621952
 30
0.0
 10
10.775994375
 20
10.3166745161
 30
0.0
 10
10.7645421391
 20
10.3126814
 30
0.0
 10
10.750112532
 20
10.3081306831
 30
0.0
 10
10.7348422221
 20
10.303766625
 30
0.0
 10
10.7187674192
 20
10.2995996698
 30
0.0
 10
10.7019261068
 20
10.2956398084
 30
0.0
 10
10.6843581987
 20
10.291896535
 30
0.0
 10
10.6661053575
 20
10.2883788254
 30
0.0
 10
10.6472109093
 20
10.2850951132
 30
0.0
 10
10.6277197288
 20
10.2820532684
 30
0.0
 10
10.6076781291
 20
10.2792605783
 30
0.0
 10
10.5871337465
 20
10.2767237318
 30
0.0
 10
10.5661354237
 20
10.2744488034
 30
0.0
 10
10.5447330919
 20
10.2724412391
 30
0.0
 10
10.5229776498
 20
10.2707058441
 30
0.0
 10
10.5009208418
 20
10.2692467714
 30
0.0
 10
10.4786151336
 20
10.2680675125
 30
0.0
 10
10.4561135867
 20
10.2671708894
 30
0.0
 10
10.4334697317
 20
10.2665590468
 30
0.0
 10
10.4107374377
 20
10.2662334465
 30
0.0
 10
10.3879707916
 20
10.2661948691
 30
0.0
 10
10.3652239397
 20
10.2664434017
 30
0.0
 10
10.3425510461
 20
10.2669784598
 30
0.0
 10
10.32000594
 20
10.2677987474
 30
0.0
 10
10.2976424231
 20
10.2689023242
 30
0.0
 10
10.2828060806
 20
10.2698303663
 30
0.0
 10
10.2754279224
 20
10.2703420433
 30
0.0
  0
SPLINE
  5
35B
100
AcDbEntity
  8
0
100
AcDbSpline
 62
7
  6
CONTINUOUS
 70
0
 71
3
 72
11
 73
7
 74
0
 42
0.0000001
 43
0.0000001
 44
0.0000000001
 40
0.0
 40
0.0
 40
0.0
 40
0.0
 40
0.2602032612
 40
0.511774046
 40
0.7574024852
 40
1.0
 40
1.0
 40
1.0
 40
1.0
 10
10.8236791835
 20
10.3384515796
 30
0.0
 10
10.8241878213
 20
10.3395395779
 30
0.0
 10
10.8250872918
 20
10.3417288715
 30
0.0
 10
10.8260722676
 20
10.3450901242
 30
0.0
 10
10.8266643341
 20
10.3484602422
 30
0.0
 10
10.826796326
 20
10.3507158838
 30
0.0
 10
10.8267963217
 20
10.3518356424
 30
0.0
  0
SPLINE
  5
35C
100
AcDbEntity
  8
0
100
AcDbSpline
 62
7
  6
CONTINUOUS
 70
0
 71
3
 72
15
 73
11
 74
0
 42
0.0000001
 43
0.0000001
 44
0.0000000001
 40
0.0
 40
0.0
 40
0.0
 40
0.0
 40
0.1242940668
 40
0.2486588779
 40
0.3731639675
 40
0.4978765076
 40
0.6228600663
 40
0.7481740552
 40
0.8738710597
 40
1.0
 40
1.0
 40
1.0
 40
1.0
 10
9.7309580697
 20
9.97544671
 30
0.0
 10
9.7377775468
 20
9.9820338061
 30
0.0
 10
9.7518627139
 20
9.9947624904
 30
0.0
 10
9.7742175003
 20
10.0124167923
 30
0.0
 10
9.7977197431
 20
10.0285705642
 30
0.0
 10
9.8222778482
 20
10.0431606014
 30
0.0
 10
9.8477975485
 20
10.0561311914
 30
0.0
 10
9.8741809513
 20
10.0674325287
 30
0.0
 10
9.9013251382
 20
10.0770210482
 30
0.0
 10
9.9198289838
 20
10.0822384265
 30
0.0
 10
9.9291681396
 20
10.084551215
 30
0.0
  0
SPLINE
  5
35D
100
AcDbEntity
  8
0
100
AcDbSpline
 62
7
  6
CONTINUOUS
 70
0
 71
3
 72
11
 73
7
 74
0
 42
0.0000001
 43
0.0000001
 44
0.0000000001
 40
0.0
 40
0.0
 40
0.0
 40
0.0
 40
0.248599519
 40
0.4981188875
 40
0.7485849461
 40
1.0
 40
1.0
 40
1.0
 40
1.0
 10
10.0162052837
 20
9.9254110759
 30
0.0
 10
10.0215317064
 20
9.926227296
 30
0.0
 10
10.0322526252
 20
9.9275628204
 30
0.0
 10
10.048449124
 20
9.9286689256
 30
0.0
 10
10.0647429662
 20
9.9288785296
 30
0.0
 10
10.0756184165
 20
9.9284209816
 30
0.0
 10
10.0810549862
 20
9.9280439542
 30
0.0
  0
SPLINE
  5
35E
100
AcDbEntity
  8
0
100
AcDbSpline
 62
7
  6
CONTINUOUS
 70
0
 71
3
 72
23
 73
19
 74
0
 42
0.0000001
 43
0.0000001
 44
0.0000000001
 40
0.0
 40
0.0
 40
0.0
 40
0.0
 40
0.0616482066
 40
0.1233194398
 40
0.1850364729
 40
0.2468215638
 40
0.3086962099
 40
0.3706809215
 40
0.4327950013
 40
0.4950563319
 40
0.5574811817
 40
0.6200840805
 40
0.6828775834
 40
0.7458723398
 40
0.8090769807
 40
0.8724966303
 40
0.9361388571
 40
1.0
 40
1.0
 40
1.0
 40
1.0
 10
9.9399509551
 20
9.8471153652
 30
0.0
 10
9.9428069631
 20
9.8498740698
 30
0.0
 10
9.9486697111
 20
9.8552399479
 30
0.0
 10
9.9578854535
 20
9.862806073
 30
0.0
 10
9.9675013858
 20
9.8698720861
 30
0.0
 10
9.9774929534
 20
9.8764198652
 30
0.0
 10
9.9878350524
 20
9.8824330215
 30
0.0
 10
9.9985015887
 20
9.8878964112
 30
0.0
 10
10.0094656913
 20
9.8927962964
 30
0.0
 10
10.0206997404
 20
9.8971203348
 30
0.0
 10
10.0321754297
 20
9.9008576669
 30
0.0
 10
10.0438638438
 20
9.9039989235
 30
0.0
 10
10.0557355429
 20
9.9065362325
 30
0.0
 10
10.0677606552
 20
9.9084632241
 30
0.0
 10
10.0799088177
 20
9.909775033
 30
0.0
 10
10.092149708
 20
9.9104685159
 30
0.0
 10
10.1044519236
 20
9.9105418058
 30
0.0
 10
10.1126604846
 20
9.9101777954
 30
0.0
 10
10.1167639627
 20
9.9098932182
 30
0.0
  0
SPLINE
  5
35F
100
AcDbEntity
  8
0
100
AcDbSpline
 62
7
  6
CONTINUOUS
 70
0
 71
3
 72
39
 73
35
 74
0
 42
0.0000001
 43
0.0000001
 44
0.0000000001
 40
0.0
 40
0.0
 40
0.0
 40
0.0
 40
0.030312495
 40
0.0607375584
 40
0.0912778088
 40
0.1219344586
 40
0.1527073148
 40
0.1835947972
 40
0.2145939723
 40
0.245700603
 40
0.2769092111
 40
0.3082131517
 40
0.3396046998
 40
0.3710751456
 40
0.4026148995
 40
0.4342136038
 40
0.4658602516
 40
0.4975433107
 40
0.5292508516
 40
0.5609706789
 40
0.5926904638
 40
0.624397878
 40
0.6560807276
 40
0.6877270855
 40
0.7193254231
 40
0.750864737
 40
0.7823346749
 40
0.8137256504
 40
0.845028969
 40
0.8762368805
 40
0.9073428504
 40
0.9383411236
 40
0.9692281206
 40
1.0
 40
1.0
 40
1.0
 40
1.0
 10
10.3744682573
 20
9.5545103918
 30
0.0
 10
10.3754702773
 20
9.5598143863
 30
0.0
 10
10.3771789391
 20
9.5705010312
 30
0.0
 10
10.3788461687
 20
9.586677353
 30
0.0
 10
10.3796177869
 20
9.6029828386
 30
0.0
 10
10.3794914083
 20
9.6193677798
 30
0.0
 10
10.3784675053
 20
9.6357830839
 30
0.0
 10
10.3765492057
 20
9.6521793483
 30
0.0
 10
10.3737423376
 20
9.6685072983
 30
0.0
 10
10.3700553915
 20
9.6847178558
 30
0.0
 10
10.3654994986
 20
9.7007623068
 30
0.0
 10
10.3600883956
 20
9.7165924411
 30
0.0
 10
10.3538383828
 20
9.7321606969
 30
0.0
 10
10.3467682751
 20
9.7474203026
 30
0.0
 10
10.3388993455
 20
9.7623254157
 30
0.0
 10
10.3302552609
 20
9.7768312594
 30
0.0
 10
10.3208620127
 20
9.7908942573
 30
0.0
 10
10.3107478413
 20
9.8044721652
 30
0.0
 10
10.2999431472
 20
9.8175241947
 30
0.0
 10
10.2884804004
 20
9.8300111357
 30
0.0
 10
10.2763940431
 20
9.8418954727
 30
0.0
 10
10.2637203874
 20
9.853141497
 30
0.0
 10
10.2504975068
 20
9.863715413
 30
0.0
 10
10.2367651224
 20
9.8735854398
 30
0.0
 10
10.2225644845
 20
9.8827219052
 30
0.0
 10
10.2079382503
 20
9.8910973361
 30
0.0
 10
10.1929303582
 20
9.8986865433
 30
0.0
 10
10.1775858928
 20
9.9054666976
 30
0.0
 10
10.1619509573
 20
9.9114173828
 30
0.0
 10
10.1460725053
 20
9.9165207006
 30
0.0
 10
10.1299983198
 20
9.920761218
 30
0.0
 10
10.1137764657
 20
9.9241262418
 30
0.0
 10
10.0974564193
 20
9.9266054383
 30
0.0
 10
10.0865214748
 20
9.9276648519
 30
0.0
 10
10.0810549862
 20
9.9280439542
 30
0.0
  0
SPLINE
  5
360
100
AcDbEntity
  8
0
100
AcDbSpline
 62
7
  6
CONTINUOUS
 70
0
 71
3
 72
39
 73
35
 74
0
 42
0.0000001
 43
0.0000001
 44
0.0000000001
 40
0.0
 40
0.0
 40
0.0
 40
0.0
 40
0.0299393046
 40
0.0599022798
 40
0.0899120362
 40
0.1199905823
 40
0.1501583143
 40
0.1804335559
 40
0.2108321562
 40
0.2413671583
 40
0.2720485416
 40
0.3028830449
 40
0.3338740655
 40
0.3650216366
 40
0.3963224767
 40
0.4277701061
 40
0.4593550258
 40
0.491064949
 40
0.5228850818
 40
0.554798444
 40
0.5867862231
 40
0.618828155
 40
0.6509029254
 40
0.6829885856
 40
0.7150629765
 40
0.7471041564
 40
0.7790908249
 40
0.8110027394
 40
0.8428211144
 40
0.8745290121
 40
0.9061116491
 40
0.937556897
 40
0.9688549736
 40
1.0
 40
1.0
 40
1.0
 40
1.0
 10
10.2935769703
 20
9.4810147966
 30
0.0
 10
10.2977373906
 20
9.4850334727
 30
0.0
 10
10.3057499475
 20
9.4934039296
 30
0.0
 10
10.316754186
 20
9.5068669875
 30
0.0
 10
10.3266903231
 20
9.5211705448
 30
0.0
 10
10.3355042415
 20
9.5362370166
 30
0.0
 10
10.3431491616
 20
9.5519859653
 30
0.0
 10
10.3495842569
 20
9.5683329942
 30
0.0
 10
10.354775303
 20
9.585190628
 30
0.0
 10
10.35869474
 20
9.6024686763
 30
0.0
 10
10.3613218365
 20
9.6200747553
 30
0.0
 10
10.3626427769
 20
9.6379147773
 30
0.0
 10
10.3626507264
 20
9.6558934562
 30
0.0
 10
10.3613458547
 20
9.6739148134
 30
0.0
 10
10.3587353262
 20
9.6918826861
 30
0.0
 10
10.3548332535
 20
9.7097012345
 30
0.0
 10
10.349660616
 20
9.7272754469
 30
0.0
 10
10.3432451441
 20
9.7445116389
 30
0.0
 10
10.3356211748
 20
9.7613179491
 30
0.0
 10
10.3268294589
 20
9.7776048202
 30
0.0
 10
10.3169169452
 20
9.7932854702
 30
0.0
 10
10.3059365304
 20
9.8082763485
 30
0.0
 10
10.2939467791
 20
9.8224975761
 30
0.0
 10
10.2810116143
 20
9.835873366
 30
0.0
 10
10.26719998
 20
9.8483324229
 30
0.0
 10
10.2525854766
 20
9.8598083186
 30
0.0
 10
10.2372459774
 20
9.8702398475
 30
0.0
 10
10.221263213
 20
9.8795713491
 30
0.0
 10
10.2047223498
 20
9.8877530034
 30
0.0
 10
10.1877115043
 20
9.8947410827
 30
0.0
 10
10.1703214142
 20
9.9004982202
 30
0.0
 10
10.1526444699
 20
9.9049935353
 30
0.0
 10
10.1347761392
 20
9.9082028813
 30
0.0
 10
10.1227668567
 20
9.9094769161
 30
0.0
 10
10.1167639627
 20
9.9098932182
 30
0.0
  0
SPLINE
  5
361
100
AcDbEntity
  8
0
100
AcDbSpline
 62
7
  6
CONTINUOUS
 70
0
 71
3
 72
37
 73
33
 74
0
 42
0.0000001
 43
0.0000001
 44
0.0000000001
 40
0.0
 40
0.0
 40
0.0
 40
0.0
 40
0.0287807955
 40
0.0580386169
 40
0.0877788289
 40
0.1179903953
 40
0.1796845104
 40
0.2110967267
 40
0.2428011963
 40
0.2747339486
 40
0.3068304899
 40
0.3390289867
 40
0.3712728713
 40
0.4356869033
 40
0.467802561
 40
0.4998151637
 40
0.5317081427
 40
0.5634722045
 40
0.5951045398
 40
0.6266080566
 40
0.6579905746
 40
0.6892639956
 40
0.720443556
 40
0.7515470191
 40
0.782593965
 40
0.8136049723
 40
0.8446008295
 40
0.8756017307
 40
0.9066266478
 40
0.9376922088
 40
0.9688131431
 40
1.0
 40
1.0
 40
1.0
 40
1.0
 10
10.1242841118
 20
9.9091489822
 30
0.0
 10
10.1231965073
 20
9.9059497978
 30
0.0
 10
10.1212044913
 20
9.8994281706
 30
0.0
 10
10.1187917341
 20
9.8894031191
 30
0.0
 10
10.1169392079
 20
9.8790883414
 30
0.0
 10
10.1152152026
 20
9.8649050378
 30
0.0
 10
10.1146670543
 20
9.8504038093
 30
0.0
 10
10.1152562229
 20
9.8357577364
 30
0.0
 10
10.1162760672
 20
9.8246399413
 30
0.0
 10
10.1178662597
 20
9.8135087409
 30
0.0
 10
10.1200195029
 20
9.802413575
 30
0.0
 10
10.1227269006
 20
9.7914024935
 30
0.0
 10
10.1270591698
 20
9.776903023
 30
0.0
 10
10.1324558468
 20
9.7627483825
 30
0.0
 10
10.138879082
 20
9.7490866805
 30
0.0
 10
10.1441906972
 20
9.7391371239
 30
0.0
 10
10.1499886724
 20
9.7295113183
 30
0.0
 10
10.1562619541
 20
9.7202417965
 30
0.0
 10
10.1629991103
 20
9.7113608116
 30
0.0
 10
10.1701883299
 20
9.7028999919
 30
0.0
 10
10.1778169439
 20
9.6948908222
 30
0.0
 10
10.1858709913
 20
9.6873647691
 30
0.0
 10
10.1943347003
 20
9.6803533287
 30
0.0
 10
10.2031899723
 20
9.6738878945
 30
0.0
 10
10.2124158836
 20
9.6679994911
 30
0.0
 10
10.2219882391
 20
9.6627183341
 30
0.0
 10
10.2318792157
 20
9.6580732724
 30
0.0
 10
10.2420571724
 20
9.6540910711
 30
0.0
 10
10.2524865224
 20
9.650795724
 30
0.0
 10
10.2631282327
 20
9.6482075425
 30
0.0
 10
10.2739390577
 20
9.6463427215
 30
0.0
 10
10.2812221025
 20
9.6455899185
 30
0.0
 10
10.2848748158
 20
9.645336602
 30
0.0
  0
SPLINE
  5
362
100
AcDbEntity
  8
0
100
AcDbSpline
 62
7
  6
CONTINUOUS
 70
0
 71
3
 72
27
 73
23
 74
0
 42
0.0000001
 43
0.0000001
 44
0.0000000001
 40
0.0
 40
0.0
 40
0.0
 40
0.0
 40
0.0616468919
 40
0.092480324
 40
0.1233223738
 40
0.1850380873
 40
0.2468218549
 40
0.2777487728
 40
0.3087006876
 40
0.3706840776
 40
0.4327968309
 40
0.4950568274
 40
0.5574803452
 40
0.6200818953
 40
0.6828740866
 40
0.7143476821
 40
0.745872711
 40
0.809075826
 40
0.8724948563
 40
0.9042889874
 40
0.9361391032
 40
1.0
 40
1.0
 40
1.0
 40
1.0
 10
10.0250941175
 20
7.9382763867
 30
0.0
 10
10.0317151377
 20
7.944671808
 30
0.0
 10
10.0419085796
 20
7.9540013629
 30
0.0
 10
10.0559841857
 20
7.9658777953
 30
0.0
 10
10.0703820755
 20
7.9773786088
 30
0.0
 10
10.0889634675
 20
7.9910327477
 30
0.0
 10
10.1082603962
 20
8.0036785513
 30
0.0
 10
10.1241000828
 20
8.013174
 30
0.0
 10
10.1402134219
 20
8.022258064
 30
0.0
 10
10.1608306458
 20
8.0328182688
 30
0.0
 10
10.1862481803
 20
8.0441773771
 30
0.0
 10
10.2122918263
 20
8.0542017403
 30
0.0
 10
10.2388956603
 20
8.062865936
 30
0.0
 10
10.2659923235
 20
8.0701482026
 30
0.0
 10
10.2889102775
 20
8.0750463467
 30
0.0
 10
10.3074190393
 20
8.0782585743
 30
0.0
 10
10.3260651101
 20
8.0810022976
 30
0.0
 10
10.349554779
 20
8.0835389319
 30
0.0
 10
10.3731830951
 20
8.0848774241
 30
0.0
 10
10.3921553022
 20
8.0852312727
 30
0.0
 10
10.4111959872
 20
8.0851060972
 30
0.0
 10
10.4254818371
 20
8.0844725702
 30
0.0
 10
10.4349949897
 20
8.0838128308
 30
0.0
  0
SPLINE
  5
363
100
AcDbEntity
  8
0
100
AcDbSpline
 62
7
  6
CONTINUOUS
 70
0
 71
3
 72
23
 73
19
 74
0
 42
0.0000001
 43
0.0000001
 44
0.0000000001
 40
0.0
 40
0.0
 40
0.0
 40
0.0
 40
0.0616482073
 40
0.123319441
 40
0.1850364722
 40
0.2468215609
 40
0.3086962089
 40
0.3706809247
 40
0.4327950044
 40
0.4950563302
 40
0.5574811788
 40
0.6200840686
 40
0.6828776081
 40
0.745872322
 40
0.8090769389
 40
0.8724968681
 40
0.9361383341
 40
1.0
 40
1.0
 40
1.0
 40
1.0
 10
10.2399602857
 20
7.8051907469
 30
0.0
 10
10.24383189
 20
7.8089304426
 30
0.0
 10
10.2517794201
 20
7.8162044299
 30
0.0
 10
10.2642722794
 20
7.8264610565
 30
0.0
 10
10.2773076343
 20
7.8360397311
 30
0.0
 10
10.2908521861
 20
7.8449159091
 30
0.0
 10
10.3048719237
 20
7.8530673469
 30
0.0
 10
10.3193314776
 20
7.8604735049
 30
0.0
 10
10.3341944144
 20
7.8671157674
 30
0.0
 10
10.3494232801
 20
7.8729774344
 30
0.0
 10
10.364979708
 20
7.8780437778
 30
0.0
 10
10.3808245132
 20
7.8823020733
 30
0.0
 10
10.3969177831
 20
7.8857416246
 30
0.0
 10
10.4132190143
 20
7.888353843
 30
0.0
 10
10.4296870708
 20
7.8901321502
 30
0.0
 10
10.4462807688
 20
7.8910722182
 30
0.0
 10
10.4629576462
 20
7.8911715999
 30
0.0
 10
10.4740851439
 20
7.8906781295
 30
0.0
 10
10.4796478612
 20
7.8902923537
 30
0.0
  0
SPLINE
  5
364
100
AcDbEntity
  8
0
100
AcDbSpline
 62
7
  6
CONTINUOUS
 70
0
 71
3
 72
39
 73
35
 74
0
 42
0.0000001
 43
0.0000001
 44
0.0000000001
 40
0.0
 40
0.0
 40
0.0
 40
0.0
 40
0.0306003587
 40
0.0613041702
 40
0.0921099493
 40
0.1230152489
 40
0.1540166922
 40
0.1851100117
 40
0.2162900962
 40
0.2475510437
 40
0.2788862223
 40
0.3102883355
 40
0.341749491
 40
0.3732612737
 40
0.4048148221
 40
0.4364009073
 40
0.4680100163
 40
0.4996324356
 40
0.5312583368
 40
0.5628778609
 40
0.594481204
 40
0.6260587024
 40
0.6576009179
 40
0.6890987217
 40
0.7205433756
 40
0.7519266107
 40
0.7832407013
 40
0.8144785393
 40
0.8456337047
 40
0.8767004945
 40
0.9076741561
 40
0.9385503155
 40
0.9693267409
 40
1.0
 40
1.0
 40
1.0
 40
1.0
 10
10.8344771754
 20
7.4947870767
 30
0.0
 10
10.8344771699
 20
7.5011983156
 30
0.0
 10
10.8341612877
 20
7.5140446521
 30
0.0
 10
10.8327466471
 20
7.5332983989
 30
0.0
 10
10.830393844
 20
7.5525249157
 30
0.0
 10
10.8271085877
 20
7.5716772924
 30
0.0
 10
10.8228988277
 20
7.59070958
 30
0.0
 10
10.817774734
 20
7.6095759131
 30
0.0
 10
10.8117486703
 20
7.6282308836
 30
0.0
 10
10.8048351775
 20
7.6466295824
 30
0.0
 10
10.7970509337
 20
7.6647277263
 30
0.0
 10
10.7884147051
 20
7.6824817559
 30
0.0
 10
10.7789473022
 20
7.6998489411
 30
0.0
 10
10.7686715307
 20
7.7167874824
 30
0.0
 10
10.7576121359
 20
7.7332566098
 30
0.0
 10
10.7457957469
 20
7.7492166826
 30
0.0
 10
10.7332508222
 20
7.7646292918
 30
0.0
 10
10.7200075666
 20
7.7794573434
 30
0.0
 10
10.706097861
 20
7.7936651477
 30
0.0
 10
10.6915551859
 20
7.8072185038
 30
0.0
 10
10.6764145423
 20
7.8200847819
 30
0.0
 10
10.6607123669
 20
7.832232999
 30
0.0
 10
10.6444864548
 20
7.8436339073
 30
0.0
 10
10.6277758607
 20
7.8542600555
 30
0.0
 10
10.610620803
 20
7.864085852
 30
0.0
 10
10.5930625687
 20
7.873087625
 30
0.0
 10
10.5751434158
 20
7.8812436809
 30
0.0
 10
10.5569064697
 20
7.888534355
 30
0.0
 10
10.5383956332
 20
7.8949420571
 30
0.0
 10
10.5196554423
 20
7.9004513613
 30
0.0
 10
10.5007310997
 20
7.9050489061
 30
0.0
 10
10.4816678939
 20
7.9087237182
 30
0.0
 10
10.4625124595
 20
7.911466693
 30
0.0
 10
10.4496883066
 20
7.9126719242
 30
0.0
 10
10.4432771925
 20
7.9131165364
 30
0.0
  0
SPLINE
  5
365
100
AcDbEntity
  8
0
100
AcDbSpline
 62
7
  6
CONTINUOUS
 70
0
 71
3
 72
41
 73
37
 74
0
 42
0.0000001
 43
0.0000001
 44
0.0000000001
 40
0.0
 40
0.0
 40
0.0
 40
0.0
 40
0.014970866
 40
0.0299447017
 40
0.0449244602
 40
0.0599130602
 40
0.0899224727
 40
0.1200006743
 40
0.150168061
 40
0.1804429554
 40
0.2108412063
 40
0.2413758571
 40
0.2720568886
 40
0.3028910387
 40
0.3338817042
 40
0.3650289182
 40
0.3963293995
 40
0.4277766691
 40
0.4593612267
 40
0.4910707855
 40
0.5228905526
 40
0.5548035487
 40
0.5867909615
 40
0.6188325264
 40
0.6509069292
 40
0.6829922214
 40
0.7150662442
 40
0.7471070561
 40
0.7790933575
 40
0.8110049062
 40
0.8428229184
 40
0.8745304488
 40
0.9061127329
 40
0.9375576077
 40
0.9688553095
 40
1.0
 40
1.0
 40
1.0
 40
1.0
 10
10.7193354368
 20
7.3089051009
 30
0.0
 10
10.7221556306
 20
7.3116292085
 30
0.0
 10
10.727690494
 20
7.3171890521
 30
0.0
 10
10.7356606374
 20
7.3258484169
 30
0.0
 10
10.7432891053
 20
7.3348168171
 30
0.0
 10
10.7529934735
 20
7.3471736512
 30
0.0
 10
10.7642241395
 20
7.3633405036
 30
0.0
 10
10.7761719503
 20
7.3837642123
 30
0.0
 10
10.7865354713
 20
7.4051135878
 30
0.0
 10
10.795258851
 20
7.4272735813
 30
0.0
 10
10.8022958425
 20
7.4501257811
 30
0.0
 10
10.807609041
 20
7.4735478843
 30
0.0
 10
10.8111703315
 20
7.497414672
 30
0.0
 10
10.8129609928
 20
7.5215985923
 30
0.0
 10
10.812971769
 20
7.5459704756
 30
0.0
 10
10.8112028903
 20
7.5704002138
 30
0.0
 10
10.8076640612
 20
7.5947574487
 30
0.0
 10
10.8023744007
 20
7.6189122567
 30
0.0
 10
10.7953623686
 20
7.6427358426
 30
0.0
 10
10.7866655654
 20
7.6661012123
 30
0.0
 10
10.776330532
 20
7.688883839
 30
0.0
 10
10.764412496
 20
7.710962313
 30
0.0
 10
10.7509750939
 20
7.7322189864
 30
0.0
 10
10.7360900472
 20
7.7525406061
 30
0.0
 10
10.719836749
 20
7.7718188907
 30
0.0
 10
10.7023018522
 20
7.7899511035
 30
0.0
 10
10.6835788078
 20
7.8068405873
 30
0.0
 10
10.6637673933
 20
7.8223972955
 30
0.0
 10
10.6429731816
 20
7.8365382696
 30
0.0
 10
10.6213069641
 20
7.8491880561
 30
0.0
 10
10.5988841881
 20
7.8602791106
 30
0.0
 10
10.5758242967
 20
7.8697521457
 30
0.0
 10
10.5522503009
 20
7.8775565015
 30
0.0
 10
10.5282874534
 20
7.883650343
 30
0.0
 10
10.5040651605
 20
7.8880009322
 30
0.0
 10
10.4877853852
 20
7.8897280145
 30
0.0
 10
10.4796478612
 20
7.8902923537
 30
0.0
  0
SPLINE
  5
366
100
AcDbEntity
  8
0
100
AcDbSpline
 62
7
  6
CONTINUOUS
 70
0
 71
3
 72
91
 73
87
 74
0
 42
0.0000001
 43
0.0000001
 44
0.0000000001
 40
0.0
 40
0.0
 40
0.0
 40
0.0
 40
0.0027164146
 40
0.005453202
 40
0.008230252
 40
0.0110665198
 40
0.0139797053
 40
0.0169859824
 40
0.0200999174
 40
0.023334401
 40
0.0267007187
 40
0.0302086385
 40
0.0338665091
 40
0.0376814414
 40
0.0416593691
 40
0.0458052582
 40
0.0501231421
 40
0.0546162891
 40
0.0592872586
 40
0.064137982
 40
0.0691698666
 40
0.0743837897
 40
0.079780237
 40
0.0853592528
 40
0.0911205635
 40
0.0970635488
 40
0.1031872988
 40
0.1094906474
 40
0.1226297881
 40
0.1364673429
 40
0.1509860432
 40
0.166165828
 40
0.1819841602
 40
0.1984162836
 40
0.2154354412
 40
0.2330130641
 40
0.2511189358
 40
0.2697213391
 40
0.2887871904
 40
0.3082821639
 40
0.3281708096
 40
0.3484166635
 40
0.368982358
 40
0.3898297276
 40
0.4109199118
 40
0.4322134566
 40
0.4536704139
 40
0.4752504412
 40
0.4969128994
 40
0.5186169519
 40
0.5403216628
 40
0.5619860952
 40
0.5835694083
 40
0.6050309559
 40
0.6263303839
 40
0.6474277291
 40
0.6682835187
 40
0.688858872
 40
0.7091156002
 40
0.7290163102
 40
0.7485245085
 40
0.7676047097
 40
0.7862225487
 40
0.8043448976
 40
0.8219399925
 40
0.8389775679
 40
0.8554290014
 40
0.8712674776
 40
0.8864681732
 40
0.9010084737
 40
0.9148682315
 40
0.9280300795
 40
0.9343449284
 40
0.9404802779
 40
0.9464349254
 40
0.952207944
 40
0.9577987094
 40
0.9632068925
 40
0.9684325652
 40
0.9734761403
 40
0.9783384919
 40
0.9830209404
 40
0.9875254382
 40
0.9918545985
 40
0.9960115586
 40
1.0
 40
1.0
 40
1.0
 40
1.0
 10
12.166589068
 20
8.3447565696
 30
0.0
 10
12.1654879051
 20
8.3448329308
 30
0.0
 10
12.1632829584
 20
8.3450858827
 30
0.0
 10
12.1600036027
 20
8.3457627853
 30
0.0
 10
12.1567490449
 20
8.3467371039
 30
0.0
 10
12.1535215676
 20
8.348007801
 30
0.0
 10
12.1503228891
 20
8.3495738588
 30
0.0
 10
12.147154594
 20
8.3514339455
 30
0.0
 10
12.1440181906
 20
8.3535868186
 30
0.0
 10
12.1409150416
 20
8.3560310638
 30
0.0
 10
12.1378464954
 20
8.35876527
 30
0.0
 10
12.1348138934
 20
8.3617879553
 30
0.0
 10
12.1318185177
 20
8.3650975107
 30
0.0
 10
12.1288617562
 20
8.3686923011
 30
0.0
 10
12.1259448821
 20
8.3725704895
 30
0.0
 10
12.1230693045
 20
8.3767301989
 30
0.0
 10
12.1202363249
 20
8.3811693521
 30
0.0
 10
12.1174473215
 20
8.3858857805
 30
0.0
 10
12.1147036359
 20
8.3908771566
 30
0.0
 10
12.1120065844
 20
8.3961410106
 30
0.0
 10
12.1093575315
 20
8.4016747516
 30
0.0
 10
12.1067577328
 20
8.4074756199
 30
0.0
 10
12.1042085357
 20
8.4135407501
 30
0.0
 10
12.1017111598
 20
8.4198671099
 30
0.0
 10
12.099266889
 20
8.4264515554
 30
0.0
 10
12.0968769351
 20
8.4332907928
 30
0.0
 10
12.0945424732
 20
8.4403814149
 30
0.0
 10
12.0914628192
 20
8.4503036646
 30
0.0
 10
12.0877712963
 20
8.4633157607
 30
0.0
 10
12.0836398439
 20
8.4796654085
 30
0.0
 10
12.079756093
 20
8.4969264913
 30
0.0
 10
12.0761279241
 20
8.5150644073
 30
0.0
 10
12.0727627217
 20
8.5340429338
 30
0.0
 10
12.0696673329
 20
8.5538240508
 30
0.0
 10
12.0668480577
 20
8.5743681034
 30
0.0
 10
12.0643106343
 20
8.5956338697
 30
0.0
 10
12.0620602277
 20
8.6175786566
 30
0.0
 10
12.0601014194
 20
8.6401583884
 30
0.0
 10
12.0584381983
 20
8.6633276997
 30
0.0
 10
12.0570739531
 20
8.687040028
 30
0.0
 10
12.0560114665
 20
8.7112477098
 30
0.0
 10
12.0552529073
 20
8.7359020773
 30
0.0
 10
12.0547998284
 20
8.7609535584
 30
0.0
 10
12.0546531646
 20
8.7863517781
 30
0.0
 10
12.0548132306
 20
8.8120456615
 30
0.0
 10
12.0552797212
 20
8.837983536
 30
0.0
 10
12.0560517116
 20
8.8641132366
 30
0.0
 10
12.0571276598
 20
8.8903822104
 30
0.0
 10
12.0585054098
 20
8.9167376229
 30
0.0
 10
12.0601821936
 20
8.9431264651
 30
0.0
 10
12.0621546395
 20
8.9694956607
 30
0.0
 10
12.0644187786
 20
8.9957921733
 30
0.0
 10
12.0669700529
 20
9.0219631136
 30
0.0
 10
12.0698033243
 20
9.0479558457
 30
0.0
 10
12.0729128852
 20
9.0737180931
 30
0.0
 10
12.0762924697
 20
9.0991980445
 30
0.0
 10
12.0799352653
 20
9.1243444591
 30
0.0
 10
12.0838339257
 20
9.1491067709
 30
0.0
 10
12.087980587
 20
9.1734351908
 30
0.0
 10
12.0923668835
 20
9.1972808075
 30
0.0
 10
12.0969839637
 20
9.2205956864
 30
0.0
 10
12.1018225085
 20
9.2433329673
 30
0.0
 10
12.1068727492
 20
9.2654469601
 30
0.0
 10
12.1121244876
 20
9.2868932396
 30
0.0
 10
12.117567115
 20
9.3076287385
 30
0.0
 10
12.1231896333
 20
9.327611839
 30
0.0
 10
12.12898068
 20
9.3468024577
 30
0.0
 10
12.1349285513
 20
9.3651621378
 30
0.0
 10
12.141021227
 20
9.3826541125
 30
0.0
 10
12.1472464026
 20
9.3992434642
 30
0.0
 10
12.1535915083
 20
9.4148969444
 30
0.0
 10
12.1590409321
 20
9.4273012194
 30
0.0
 10
12.1634586199
 20
9.4367249341
 30
0.0
 10
12.1667481297
 20
9.4434418395
 30
0.0
 10
12.1700580142
 20
9.4499023174
 30
0.0
 10
12.1733866431
 20
9.4561031429
 30
0.0
 10
12.1767323195
 20
9.4620412282
 30
0.0
 10
12.1800934145
 20
9.4677135999
 30
0.0
 10
12.1834682066
 20
9.4731174576
 30
0.0
 10
12.1868550728
 20
9.478250089
 30
0.0
 10
12.1902522771
 20
9.4831089609
 30
0.0
 10
12.1936581779
 20
9.4876916606
 30
0.0
 10
12.1970711285
 20
9.4919959515
 30
0.0
 10
12.2004895258
 20
9.4960197528
 30
0.0
 10
12.2039115715
 20
9.499760882
 30
0.0
 10
12.2062416643
 20
9.5021131943
 30
0.0
 10
12.2074073544
 20
9.5032391645
 30
0.0
  0
SPLINE
  5
367
100
AcDbEntity
  8
0
100
AcDbSpline
 62
7
  6
CONTINUOUS
 70
0
 71
3
 72
78
 73
74
 74
0
 42
0.0000001
 43
0.0000001
 44
0.0000000001
 40
0.0
 40
0.0
 40
0.0
 40
0.0
 40
0.0027966493
 40
0.0056682021
 40
0.0116913231
 40
0.0148721515
 40
0.0181792687
 40
0.0216219023
 40
0.0252079504
 40
0.0289441896
 40
0.032836314
 40
0.0368890703
 40
0.0411064178
 40
0.0454915166
 40
0.0500469073
 40
0.0547745577
 40
0.0596758685
 40
0.0647518381
 40
0.0700030116
 40
0.0810307655
 40
0.0927574002
 40
0.1051759979
 40
0.1182758382
 40
0.132042943
 40
0.1464605257
 40
0.1615093221
 40
0.1771678358
 40
0.193412564
 40
0.2102182129
 40
0.2275578587
 40
0.2454030706
 40
0.2637240415
 40
0.2824897301
 40
0.3016679683
 40
0.3212255498
 40
0.3411283305
 40
0.3613413433
 40
0.3818288877
 40
0.4234809086
 40
0.4657881558
 40
0.5084476299
 40
0.551153105
 40
0.5935979354
 40
0.6354778631
 40
0.656112597
 40
0.6764945252
 40
0.696587546
 40
0.7163562337
 40
0.7357659357
 40
0.7547828844
 40
0.7733742778
 40
0.7915083747
 40
0.80915461
 40
0.8262837295
 40
0.8428678905
 40
0.8588807896
 40
0.8742978235
 40
0.8890962884
 40
0.9032555546
 40
0.9167572978
 40
0.9295858042
 40
0.9417283685
 40
0.9531757164
 40
0.9586371621
 40
0.9639232487
 40
0.9690340572
 40
0.973970079
 40
0.9787321628
 40
0.9833216477
 40
0.9877404899
 40
0.9919911414
 40
0.9960764945
 40
1.0
 40
1.0
 40
1.0
 40
1.0
 10
12.1415569175
 20
8.5329097257
 30
0.0
 10
12.1408276935
 20
8.5331675498
 30
0.0
 10
12.1393706837
 20
8.533751543
 30
0.0
 10
12.1364699524
 20
8.5351857677
 30
0.0
 10
12.1336499384
 20
8.5369986404
 30
0.0
 10
12.1309278199
 20
8.5391367108
 30
0.0
 10
12.1288710384
 20
8.5409593544
 30
0.0
 10
12.1268379137
 20
8.5429705387
 30
0.0
 10
12.1248289555
 20
8.5451693929
 30
0.0
 10
12.1228451433
 20
8.5475548424
 30
0.0
 10
12.1208872976
 20
8.5501257515
 30
0.0
 10
12.1189562639
 20
8.5528808926
 30
0.0
 10
12.117052953
 20
8.5558190015
 30
0.0
 10
12.1151781845
 20
8.5589386731
 30
0.0
 10
12.1133328354
 20
8.5622384526
 30
0.0
 10
12.1115177804
 20
8.5657167965
 30
0.0
 10
12.1097338307
 20
8.5693720466
 30
0.0
 10
12.1079818428
 20
8.5732025001
 30
0.0
 10
12.1056514825
 20
8.5786298599
 30
0.0
 10
12.1028332379
 20
8.5858469632
 30
0.0
 10
12.0996446013
 20
8.5950393252
 30
0.0
 10
12.0966023399
 20
8.6048824664
 30
0.0
 10
12.093712288
 20
8.6153576911
 30
0.0
 10
12.0909800003
 20
8.6264452385
 30
0.0
 10
12.0884107556
 20
8.6381240588
 30
0.0
 10
12.086009532
 20
8.6503719484
 30
0.0
 10
12.0837809791
 20
8.663165568
 30
0.0
 10
12.0817294062
 20
8.6764805035
 30
0.0
 10
12.0798587884
 20
8.690291326
 30
0.0
 10
12.0781727569
 20
8.7045716449
 30
0.0
 10
12.0766745792
 20
8.7192941534
 30
0.0
 10
12.075367151
 20
8.7344306839
 30
0.0
 10
12.0742530062
 20
8.7499522712
 30
0.0
 10
12.0733343114
 20
8.7658292091
 30
0.0
 10
12.0726128494
 20
8.7820311047
 30
0.0
 10
12.07209002
 20
8.7985269275
 30
0.0
 10
12.0717668223
 20
8.8152851154
 30
0.0
 10
12.071602117
 20
8.8380609618
 30
0.0
 10
12.0719044889
 20
8.8669487032
 30
0.0
 10
12.0730606785
 20
8.9019509566
 30
0.0
 10
12.0750037166
 20
8.9372101885
 30
0.0
 10
12.0777187161
 20
8.9724565458
 30
0.0
 10
12.0811849444
 20
9.0074202726
 30
0.0
 10
12.0846941741
 20
9.0362384613
 30
0.0
 10
12.0878624287
 20
9.0589453826
 30
0.0
 10
12.0903964906
 20
9.0756556655
 30
0.0
 10
12.0930951281
 20
9.0920974795
 30
0.0
 10
12.0959531828
 20
9.1082393614
 30
0.0
 10
12.0989651628
 20
9.1240503974
 30
0.0
 10
12.1021252739
 20
9.1395003237
 30
0.0
 10
12.1054274403
 20
9.1545595701
 30
0.0
 10
12.1088653159
 20
9.169199316
 30
0.0
 10
12.1124322951
 20
9.1833915524
 30
0.0
 10
12.1161215088
 20
9.1971091431
 30
0.0
 10
12.1199258576
 20
9.2103258716
 30
0.0
 10
12.1238380236
 20
9.2230164882
 30
0.0
 10
12.1278504858
 20
9.2351567696
 30
0.0
 10
12.1319555156
 20
9.2467235771
 30
0.0
 10
12.1361452181
 20
9.2576949036
 30
0.0
 10
12.1404115449
 20
9.268049895
 30
0.0
 10
12.1447463301
 20
9.2777689826
 30
0.0
 10
12.1491412624
 20
9.2868336875
 30
0.0
 10
12.1529035623
 20
9.2939354826
 30
0.0
 10
12.1559430046
 20
9.2992689842
 30
0.0
 10
12.1581965852
 20
9.3030320525
 30
0.0
 10
12.1604589316
 20
9.3066192053
 30
0.0
 10
12.1627289489
 20
9.3100287604
 30
0.0
 10
12.1650055659
 20
9.3132590985
 30
0.0
 10
12.1672877537
 20
9.316308699
 30
0.0
 10
12.1695744433
 20
9.3191761764
 30
0.0
 10
12.1718646373
 20
9.3218601622
 30
0.0
 10
12.1741571139
 20
9.3243592691
 30
0.0
 10
12.1757172541
 20
9.3259325887
 30
0.0
 10
12.1764977254
 20
9.3266864661
 30
0.0
  0
SPLINE
  5
368
100
AcDbEntity
  8
0
100
AcDbSpline
 62
7
  6
CONTINUOUS
 70
0
 71
3
 72
15
 73
11
 74
0
 42
0.0000001
 43
0.0000001
 44
0.0000000001
 40
0.0
 40
0.0
 40
0.0
 40
0.0
 40
0.108441033
 40
0.2203202389
 40
0.3363917414
 40
0.457322038
 40
0.5836915292
 40
0.7159988585
 40
0.8546582553
 40
1.0
 40
1.0
 40
1.0
 40
1.0
 10
12.1974619659
 20
9.3390325789
 30
0.0
 10
12.1965889718
 20
9.3388543787
 30
0.0
 10
12.1948316338
 20
9.3384075391
 30
0.0
 10
12.1922210919
 20
9.3374898419
 30
0.0
 10
12.1896020751
 20
9.336316966
 30
0.0
 10
12.18697646
 20
9.3348900908
 30
0.0
 10
12.1843455662
 20
9.3332104235
 30
0.0
 10
12.181710811
 20
9.3312791927
 30
0.0
 10
12.1790738001
 20
9.3290978826
 30
0.0
 10
12.1773566502
 20
9.3275161238
 30
0.0
 10
12.1764977254
 20
9.3266864661
 30
0.0
  0
SPLINE
  5
369
100
AcDbEntity
  8
0
100
AcDbSpline
 62
7
  6
CONTINUOUS
 70
0
 71
3
 72
59
 73
55
 74
0
 42
0.0000001
 43
0.0000001
 44
0.0000000001
 40
0.0
 40
0.0
 40
0.0
 40
0.0
 40
0.0075208079
 40
0.0156241398
 40
0.0243310606
 40
0.0336548722
 40
0.0436027282
 40
0.0541767519
 40
0.0653748386
 40
0.0771914416
 40
0.0896180444
 40
0.1026434986
 40
0.1162544536
 40
0.1304355591
 40
0.1451696243
 40
0.1604378928
 40
0.1762201332
 40
0.1924947318
 40
0.2092388927
 40
0.2264286809
 40
0.2440390934
 40
0.2620442168
 40
0.2991298639
 40
0.3374628535
 40
0.3768091312
 40
0.4169263555
 40
0.4575659562
 40
0.4984751951
 40
0.5393992035
 40
0.5800829926
 40
0.620273482
 40
0.659721512
 40
0.6981838999
 40
0.7354255455
 40
0.7535182257
 40
0.7712223393
 40
0.7885117232
 40
0.8053611821
 40
0.8217465396
 40
0.8376446832
 40
0.8530337507
 40
0.8678931903
 40
0.8822038429
 40
0.8959481837
 40
0.9091104254
 40
0.9216766811
 40
0.9336353194
 40
0.9449771786
 40
0.9556959294
 40
0.9657887016
 40
0.9752565037
 40
0.9841051608
 40
0.9923469048
 40
1.0
 40
1.0
 40
1.0
 40
1.0
 10
12.1706619334
 20
7.3365878623
 30
0.0
 10
12.1697800575
 20
7.3376721802
 30
0.0
 10
12.1680424795
 20
7.3400026033
 30
0.0
 10
12.1655972578
 20
7.3438094857
 30
0.0
 10
12.1632218629
 20
7.3480486674
 30
0.0
 10
12.1609200362
 20
7.3527131876
 30
0.0
 10
12.1586952702
 20
7.3577957994
 30
0.0
 10
12.1565511578
 20
7.3632883591
 30
0.0
 10
12.1544911577
 20
7.3691820024
 30
0.0
 10
12.152518679
 20
7.3754671471
 30
0.0
 10
12.1506370099
 20
7.3821335181
 30
0.0
 10
12.148849268
 20
7.3891701609
 30
0.0
 10
12.1471584556
 20
7.3965654874
 30
0.0
 10
12.1455674162
 20
7.4043072898
 30
0.0
 10
12.144078799
 20
7.4123827622
 30
0.0
 10
12.1426951133
 20
7.420778536
 30
0.0
 10
12.1414186889
 20
7.4294806991
 30
0.0
 10
12.1402516515
 20
7.4384748178
 30
0.0
 10
12.1391959699
 20
7.4477459712
 30
0.0
 10
12.1382534266
 20
7.4572787675
 30
0.0
 10
12.1374255696
 20
7.4670573918
 30
0.0
 10
12.136467197
 20
7.4805344074
 30
0.0
 10
12.1355736554
 20
7.4978751503
 30
0.0
 10
12.1349855464
 20
7.5191966697
 30
0.0
 10
12.1348756005
 20
7.541089355
 30
0.0
 10
12.1352447002
 20
7.5634077991
 30
0.0
 10
12.136090533
 20
7.5860038729
 30
0.0
 10
12.1374075439
 20
7.6087275375
 30
0.0
 10
12.1391870241
 20
7.6314279062
 30
0.0
 10
12.1414171383
 20
7.6539542505
 30
0.0
 10
12.1440830025
 20
7.6761570032
 30
0.0
 10
12.1471667995
 20
7.6978888145
 30
0.0
 10
12.1506479195
 20
7.7190053603
 30
0.0
 10
12.1538908363
 20
7.7361341115
 30
0.0
 10
12.1566731098
 20
7.7494196217
 30
0.0
 10
12.158823879
 20
7.7590481249
 30
0.0
 10
12.1610551703
 20
7.7684209591
 30
0.0
 10
12.1633632733
 20
7.7775225774
 30
0.0
 10
12.1657443243
 20
7.7863378723
 30
0.0
 10
12.1681943687
 20
7.7948522156
 30
0.0
 10
12.1707093078
 20
7.8030514919
 30
0.0
 10
12.1732849369
 20
7.8109221173
 30
0.0
 10
12.1759169772
 20
7.8184510562
 30
0.0
 10
12.1786010261
 20
7.8256258632
 30
0.0
 10
12.1813326023
 20
7.8324346966
 30
0.0
 10
12.184107179
 20
7.8388663324
 30
0.0
 10
12.1869201333
 20
7.8449102112
 30
0.0
 10
12.1897668025
 20
7.8505564487
 30
0.0
 10
12.1926425239
 20
7.8557958476
 30
0.0
 10
12.1955426076
 20
7.8606199469
 30
0.0
 10
12.1984623521
 20
7.8650209981
 30
0.0
 10
12.201397324
 20
7.8689921619
 30
0.0
 10
12.2043427883
 20
7.872526826
 30
0.0
 10
12.2063843996
 20
7.8746659523
 30
0.0
 10
12.2074073544
 20
7.8756540508
 30
0.0
  0
SPLINE
  5
36A
100
AcDbEntity
  8
0
100
AcDbSpline
 62
7
  6
CONTINUOUS
 70
0
 71
3
 72
13
 73
9
 74
0
 42
0.0000001
 43
0.0000001
 44
0.0000000001
 40
0.0
 40
0.0
 40
0.0
 40
0.0
 40
0.2504318209
 40
0.5000059645
 40
0.6247430664
 40
0.7495667515
 40
0.8746040865
 40
1.0
 40
1.0
 40
1.0
 40
1.0
 10
10.6749068004
 20
7.4999672711
 30
0.0
 10
10.6617774001
 20
7.5008786595
 30
0.0
 10
10.6356293758
 20
7.5038822131
 30
0.0
 10
10.6034674577
 20
7.5107686697
 30
0.0
 10
10.578315711
 20
7.5182543369
 30
0.0
 10
10.5597718849
 20
7.5248951151
 30
0.0
 10
10.5416065337
 20
7.5325992185
 30
0.0
 10
10.5298119695
 20
7.5384613471
 30
0.0
 10
10.5240062849
 20
7.541579289
 30
0.0
  0
SPLINE
  5
36B
100
AcDbEntity
  8
0
100
AcDbSpline
 62
7
  6
CONTINUOUS
 70
0
 71
3
 72
28
 73
24
 74
0
 42
0.0000001
 43
0.0000001
 44
0.0000000001
 40
0.0
 40
0.0
 40
0.0
 40
0.0
 40
0.0313369125
 40
0.0626394456
 40
0.0939221038
 40
0.125198048
 40
0.1877632821
 40
0.250418967
 40
0.3132074379
 40
0.3761424331
 40
0.43921223
 40
0.5023833798
 40
0.5656036932
 40
0.6288028744
 40
0.6918895987
 40
0.75474519
 40
0.8172141765
 40
0.8482499065
 40
0.8791080318
 40
0.9097535514
 40
0.9401466149
 40
0.9702452141
 40
1.0
 40
1.0
 40
1.0
 40
1.0
 10
10.3825207725
 20
7.8825670351
 30
0.0
 10
10.3812434584
 20
7.8788335882
 30
0.0
 10
10.3788362184
 20
7.8713199119
 30
0.0
 10
10.3756705852
 20
7.8599219785
 30
0.0
 10
10.3729535707
 20
7.8484163958
 30
0.0
 10
10.3699300814
 20
7.8329504954
 30
0.0
 10
10.3672742043
 20
7.8134029224
 30
0.0
 10
10.3658913397
 20
7.7897470019
 30
0.0
 10
10.3663106753
 20
7.7660073298
 30
0.0
 10
10.3685310993
 20
7.7423158233
 30
0.0
 10
10.3725505294
 20
7.7188131969
 30
0.0
 10
10.3783651876
 20
7.6956515669
 30
0.0
 10
10.3859672467
 20
7.6729953622
 30
0.0
 10
10.3953408329
 20
7.651023128
 30
0.0
 10
10.4064562642
 20
7.6299284701
 30
0.0
 10
10.4192598185
 20
7.6099218593
 30
0.0
 10
10.4312944541
 20
7.594303577
 30
0.0
 10
10.441673429
 20
7.5825715034
 30
0.0
 10
10.4497886307
 20
7.5742035057
 30
0.0
 10
10.4582245884
 20
7.5662769171
 30
0.0
 10
10.4669514055
 20
7.5588177993
 30
0.0
 10
10.4759342986
 20
7.5518510809
 30
0.0
 10
10.4821074632
 20
7.5475214785
 30
0.0
 10
10.4852263784
 20
7.5454454215
 30
0.0
  0
SPLINE
  5
36C
100
AcDbEntity
  8
0
100
AcDbSpline
 62
7
  6
CONTINUOUS
 70
0
 71
3
 72
71
 73
67
 74
0
 42
0.0000001
 43
0.0000001
 44
0.0000000001
 40
0.0
 40
0.0
 40
0.0
 40
0.0
 40
0.0156744891
 40
0.0314011565
 40
0.0471782319
 40
0.0630046529
 40
0.0788782371
 40
0.0947966317
 40
0.1107570105
 40
0.1267561896
 40
0.142790644
 40
0.1588565394
 40
0.17494977
 40
0.1910659934
 40
0.2072006691
 40
0.2233490984
 40
0.2395064656
 40
0.2556678793
 40
0.2718284136
 40
0.2879831498
 40
0.3041272183
 40
0.3202558401
 40
0.336364369
 40
0.3524483312
 40
0.3685034642
 40
0.3845257547
 40
0.4005114745
 40
0.4164572155
 40
0.4323599228
 40
0.4482169238
 40
0.4640259548
 40
0.4797851853
 40
0.4954932382
 40
0.5111492075
 40
0.526752672
 40
0.5423037033
 40
0.55780287
 40
0.573251237
 40
0.58865036
 40
0.6040022761
 40
0.6193094886
 40
0.6345749453
 40
0.6498020135
 40
0.6649944481
 40
0.680156357
 40
0.6952921613
 40
0.7104065518
 40
0.7255044415
 40
0.7405909152
 40
0.7556711765
 40
0.770750494
 40
0.7858341458
 40
0.8009273649
 40
0.8160352847
 40
0.8311628855
 40
0.8463149433
 40
0.8614959808
 40
0.8767102225
 40
0.891961554
 40
0.9072534837
 40
0.9225891155
 40
0.9379711086
 40
0.9534016712
 40
0.9688825705
 40
0.9844148293
 40
1.0
 40
1.0
 40
1.0
 40
1.0
 10
10.4432771925
 20
7.1307165708
 30
0.0
 10
10.4369369401
 20
7.1311562688
 30
0.0
 10
10.4242545585
 20
7.1323447181
 30
0.0
 10
10.4053094879
 20
7.1350420555
 30
0.0
 10
10.3864536203
 20
7.1386509475
 30
0.0
 10
10.3677320836
 20
7.1431626354
 30
0.0
 10
10.3491886882
 20
7.1485665968
 30
0.0
 10
10.3308671859
 20
7.1548500124
 30
0.0
 10
10.3128106906
 20
7.1619980884
 30
0.0
 10
10.2950617154
 20
7.1699939519
 30
0.0
 10
10.2776620401
 20
7.178818748
 30
0.0
 10
10.260652623
 20
7.1884516768
 30
0.0
 10
10.2440735039
 20
7.1988700416
 30
0.0
 10
10.2279637114
 20
7.210049303
 30
0.0
 10
10.212361173
 20
7.221963136
 30
0.0
 10
10.1973026133
 20
7.2345834759
 30
0.0
 10
10.1828234775
 20
7.2478806004
 30
0.0
 10
10.1689578499
 20
7.2618231993
 30
0.0
 10
10.1557383747
 20
7.2763784479
 30
0.0
 10
10.1431961795
 20
7.2915120826
 30
0.0
 10
10.1313608047
 20
7.307188482
 30
0.0
 10
10.1202601168
 20
7.3233707379
 30
0.0
 10
10.1099202558
 20
7.3400207541
 30
0.0
 10
10.1003655766
 20
7.3570993361
 30
0.0
 10
10.0916185916
 20
7.3745662821
 30
0.0
 10
10.083699918
 20
7.3923804763
 30
0.0
 10
10.0766282317
 20
7.410499985
 30
0.0
 10
10.0704202037
 20
7.4288821479
 30
0.0
 10
10.0650904746
 20
7.4474836855
 30
0.0
 10
10.0606516238
 20
7.4662608009
 30
0.0
 10
10.0571141399
 20
7.4851692812
 30
0.0
 10
10.0544863943
 20
7.5041645999
 30
0.0
 10
10.0527746248
 20
7.5232020209
 30
0.0
 10
10.0519828987
 20
7.5422367019
 30
0.0
 10
10.052113117
 20
7.5612238029
 30
0.0
 10
10.0531650146
 20
7.5801185907
 30
0.0
 10
10.0551361588
 20
7.5988765429
 30
0.0
 10
10.0580219534
 20
7.617453452
 30
0.0
 10
10.0618156517
 20
7.6358055278
 30
0.0
 10
10.0665083508
 20
7.6538895058
 30
0.0
 10
10.0720890241
 20
7.6716627486
 30
0.0
 10
10.0785445534
 20
7.6890833446
 30
0.0
 10
10.0858597566
 20
7.7061102069
 30
0.0
 10
10.094017422
 20
7.7227031701
 30
0.0
 10
10.1029983507
 20
7.7388230842
 30
0.0
 10
10.112781383
 20
7.754431918
 30
0.0
 10
10.1233434595
 20
7.7694928464
 30
0.0
 10
10.1346596813
 20
7.7839703345
 30
0.0
 10
10.1467033676
 20
7.7978302218
 30
0.0
 10
10.1594461177
 20
7.8110398045
 30
0.0
 10
10.1728578803
 20
7.8235679105
 30
0.0
 10
10.1869070115
 20
7.8353849887
 30
0.0
 10
10.2015603591
 20
7.8464631739
 30
0.0
 10
10.2167833476
 20
7.8567763464
 30
0.0
 10
10.2325400589
 20
7.8663001943
 30
0.0
 10
10.2487933182
 20
7.8750122713
 30
0.0
 10
10.2655047825
 20
7.8828920458
 30
0.0
 10
10.282635025
 20
7.8899209664
 30
0.0
 10
10.3001436337
 20
7.8960824982
 30
0.0
 10
10.3179893136
 20
7.9013621543
 30
0.0
 10
10.3361299776
 20
7.905747524
 30
0.0
 10
10.3545228633
 20
7.9092283101
 30
0.0
 10
10.3731245831
 20
7.9117963524
 30
0.0
 10
10.391891374
 20
7.9134455971
 30
0.0
 10
10.4107786716
 20
7.9141723432
 30
0.0
 10
10.4234009604
 20
7.9140407747
 30
0.0
 10
10.429716432
 20
7.9138218431
 30
0.0
  0
SPLINE
  5
36D
100
AcDbEntity
  8
0
100
AcDbSpline
 62
7
  6
CONTINUOUS
 70
0
 71
3
 72
71
 73
67
 74
0
 42
0.0000001
 43
0.0000001
 44
0.0000000001
 40
0.0
 40
0.0
 40
0.0
 40
0.0
 40
0.0156735462
 40
0.0313986437
 40
0.0471733871
 40
0.0629968802
 40
0.0788669884
 40
0.0947814507
 40
0.110737555
 40
0.1267322346
 40
0.1427620996
 40
0.1588234576
 40
0.1749123512
 40
0.1910245908
 40
0.2071557919
 40
0.2233014129
 40
0.2394567929
 40
0.2556171891
 40
0.2717778169
 40
0.2879338901
 40
0.3040806609
 40
0.3202134585
 40
0.3363277277
 40
0.3524190666
 40
0.3684832658
 40
0.384516344
 40
0.4005145828
 40
0.4164745588
 40
0.4323931746
 40
0.4482676897
 40
0.4640957471
 40
0.4798753957
 40
0.4956051116
 40
0.5112838145
 40
0.5269108837
 40
0.5424861681
 40
0.5580099918
 40
0.5734831546
 40
0.58890693
 40
0.6042830579
 40
0.6196137337
 40
0.6349015906
 40
0.6501496769
 40
0.6653614296
 40
0.6805406442
 40
0.6956914403
 40
0.7108182214
 40
0.7259256326
 40
0.7410185139
 40
0.756101852
 40
0.7711807308
 40
0.7862602802
 40
0.8013456233
 40
0.816441824
 40
0.8315538357
 40
0.8466864515
 40
0.8618442572
 40
0.8770315864
 40
0.8922524779
 40
0.9075106375
 40
0.9228094021
 40
0.9381517177
 40
0.953540092
 40
0.9689766272
 40
0.984462938
 40
1.0
 40
1.0
 40
1.0
 40
1.0
 10
10.471747264
 20
7.1866866464
 30
0.0
 10
10.4659516566
 20
7.1870885731
 30
0.0
 10
10.4543587344
 20
7.188170931
 30
0.0
 10
10.43703951
 20
7.1906188195
 30
0.0
 10
10.4197995237
 20
7.193888405
 30
0.0
 10
10.4026789136
 20
7.197971938
 30
0.0
 10
10.3857165918
 20
7.2028601873
 30
0.0
 10
10.3689514716
 20
7.2085418868
 30
0.0
 10
10.3524218916
 20
7.2150040164
 30
0.0
 10
10.3361656773
 20
7.2222317521
 30
0.0
 10
10.3202200227
 20
7.2302085296
 30
0.0
 10
10.3046214127
 20
7.2389160805
 30
0.0
 10
10.2894055438
 20
7.2483344736
 30
0.0
 10
10.2746072285
 20
7.2584421394
 30
0.0
 10
10.2602603187
 20
7.2692159278
 30
0.0
 10
10.2463976378
 20
7.2806311758
 30
0.0
 10
10.233050905
 20
7.2926617585
 30
0.0
 10
10.2202506674
 20
7.3052801515
 30
0.0
 10
10.2080262176
 20
7.3184574797
 30
0.0
 10
10.1964055206
 20
7.3321635804
 30
0.0
 10
10.1854151683
 20
7.3463670908
 30
0.0
 10
10.1750803161
 20
7.3610355137
 30
0.0
 10
10.1654246291
 20
7.3761352932
 30
0.0
 10
10.1564702207
 20
7.391631884
 30
0.0
 10
10.1482375833
 20
7.4074898223
 30
0.0
 10
10.1407455679
 20
7.4236728237
 30
0.0
 10
10.1340113383
 20
7.4401438611
 30
0.0
 10
10.1280503335
 20
7.456865249
 30
0.0
 10
10.1228762317
 20
7.4737987274
 30
0.0
 10
10.1185008888
 20
7.4909055408
 30
0.0
 10
10.1149343415
 20
7.5081465384
 30
0.0
 10
10.1121847839
 20
7.5254822608
 30
0.0
 10
10.1102585479
 20
7.5428730283
 30
0.0
 10
10.1091600924
 20
7.5602790302
 30
0.0
 10
10.1088919586
 20
7.5776604139
 30
0.0
 10
10.1094547892
 20
7.5949773807
 30
0.0
 10
10.1108473324
 20
7.6121902745
 30
0.0
 10
10.1130664417
 20
7.6292596709
 30
0.0
 10
10.1161070872
 20
7.6461464655
 30
0.0
 10
10.1199623372
 20
7.6628119684
 30
0.0
 10
10.1246233857
 20
7.6792179942
 30
0.0
 10
10.1300795876
 20
7.6953269453
 30
0.0
 10
10.1363184767
 20
7.711101898
 30
0.0
 10
10.1433257989
 20
7.726506684
 30
0.0
 10
10.1510855227
 20
7.7415059827
 30
0.0
 10
10.1595798744
 20
7.7560654078
 30
0.0
 10
10.1687894017
 20
7.7701515754
 30
0.0
 10
10.1786930109
 20
7.7837321829
 30
0.0
 10
10.1892680191
 20
7.7967760799
 30
0.0
 10
10.2004901948
 20
7.8092533481
 30
0.0
 10
10.2123338018
 20
7.8211353852
 30
0.0
 10
10.2247716841
 20
7.8323949509
 30
0.0
 10
10.2377753236
 20
7.843006232
 30
0.0
 10
10.2513149072
 20
7.8529449
 30
0.0
 10
10.2653593918
 20
7.8621881688
 30
0.0
 10
10.2798765617
 20
7.8707148735
 30
0.0
 10
10.2948331241
 20
7.8785054913
 30
0.0
 10
10.3101947847
 20
7.8855421875
 30
0.0
 10
10.3259263252
 20
7.8918088549
 30
0.0
 10
10.3419916851
 20
7.8972911463
 30
0.0
 10
10.3583540312
 20
7.9019765432
 30
0.0
 10
10.3749758673
 20
7.9058543466
 30
0.0
 10
10.3918190693
 20
7.9089157204
 30
0.0
 10
10.4088451907
 20
7.9111536752
 30
0.0
 10
10.426014646
 20
7.9125630969
 30
0.0
 10
10.4375125702
 20
7.9129476397
 30
0.0
 10
10.4432712545
 20
7.9130017606
 30
0.0
  0
SPLINE
  5
36E
100
AcDbEntity
  8
0
100
AcDbSpline
 62
7
  6
CONTINUOUS
 70
0
 71
3
 72
62
 73
58
 74
0
 42
0.0000001
 43
0.0000001
 44
0.0000000001
 40
0.0
 40
0.0
 40
0.0
 40
0.0
 40
0.0082489206
 40
0.0160246221
 40
0.0233634771
 40
0.0303108478
 40
0.0369219422
 40
0.0432623294
 40
0.0463556364
 40
0.0494103258
 40
0.0524370832
 40
0.0554469316
 40
0.0584510923
 40
0.0614608576
 40
0.0644874523
 40
0.0675418923
 40
0.0706348737
 40
0.0737766601
 40
0.0802425573
 40
0.0870130053
 40
0.0941484028
 40
0.1016989858
 40
0.1097055145
 40
0.1182003745
 40
0.1272088017
 40
0.1367498552
 40
0.1468375252
 40
0.1574814315
 40
0.1686875356
 40
0.1804587368
 40
0.1927951892
 40
0.2056948176
 40
0.219153478
 40
0.2331652573
 40
0.2477226991
 40
0.2628168568
 40
0.2784375774
 40
0.2945734837
 40
0.3112121464
 40
0.3283401791
 40
0.3459432266
 40
0.3640061589
 40
0.3825130067
 40
0.4207903261
 40
0.460634682
 40
0.5018952114
 40
0.5444128098
 40
0.5880212799
 40
0.6325484203
 40
0.6778170771
 40
0.7236461561
 40
0.7698516149
 40
0.8162474444
 40
0.8626466242
 40
0.9088622395
 40
0.9547078426
 40
1.0
 40
1.0
 40
1.0
 40
1.0
 10
9.9463727154
 20
10.3547057019
 30
0.0
 10
9.9450416269
 20
10.3559444256
 30
0.0
 10
9.9425287396
 20
10.3584312731
 30
0.0
 10
9.9391324534
 20
10.3623089633
 30
0.0
 10
9.9362283009
 20
10.3662169861
 30
0.0
 10
9.9338203076
 20
10.370152034
 30
0.0
 10
9.9319124604
 20
10.3741103254
 30
0.0
 10
9.9307329129
 20
10.377453606
 30
0.0
 10
9.9300522348
 20
10.3801224054
 30
0.0
 10
9.9296720524
 20
10.3821100765
 30
0.0
 10
9.9294183958
 20
10.3840992584
 30
0.0
 10
9.9292912974
 20
10.3860893908
 30
0.0
 10
9.9292908149
 20
10.388079837
 30
0.0
 10
9.929416986
 20
10.3900699721
 30
0.0
 10
9.9296697421
 20
10.3920591716
 30
0.0
 10
9.9300489364
 20
10.3940468124
 30
0.0
 10
9.9305544706
 20
10.3960323477
 30
0.0
 10
9.9314046138
 20
10.3987011887
 30
0.0
 10
9.9327966044
 20
10.4020409846
 30
0.0
 10
9.934953155
 20
10.4059880135
 30
0.0
 10
9.9376078755
 20
10.4099100987
 30
0.0
 10
9.9407568155
 20
10.4138034952
 30
0.0
 10
9.9443960499
 20
10.4176651321
 30
0.0
 10
9.9485214553
 20
10.4214916944
 30
0.0
 10
9.9531286598
 20
10.4252797066
 30
0.0
 10
9.9582128084
 20
10.429025649
 30
0.0
 10
9.9637686439
 20
10.4327258099
 30
0.0
 10
9.9697903673
 20
10.4363764713
 30
0.0
 10
9.9762716716
 20
10.439973883
 30
0.0
 10
9.9832057511
 20
10.4435142396
 30
0.0
 10
9.9905852549
 20
10.4469938407
 30
0.0
 10
9.9984023587
 20
10.4504089349
 30
0.0
 10
10.0066487249
 20
10.4537558781
 30
0.0
 10
10.0153155395
 20
10.4570310752
 30
0.0
 10
10.024393526
 20
10.4602309621
 30
0.0
 10
10.0338729368
 20
10.4633521193
 30
0.0
 10
10.0437435931
 20
10.4663911336
 30
0.0
 10
10.0539948752
 20
10.4693447328
 30
0.0
 10
10.0646157477
 20
10.4722097187
 30
0.0
 10
10.0755947733
 20
10.4749829647
 30
0.0
 10
10.086920112
 20
10.4776614915
 30
0.0
 10
10.0985795692
 20
10.4802423874
 30
0.0
 10
10.1147358997
 20
10.483587203
 30
0.0
 10
10.1356771452
 20
10.4874922712
 30
0.0
 10
10.1616567291
 20
10.4916966144
 30
0.0
 10
10.1886489256
 20
10.4954517739
 30
0.0
 10
10.2165372463
 20
10.4987413698
 30
0.0
 10
10.2452014671
 20
10.5015510234
 30
0.0
 10
10.27451791
 20
10.5038684763
 30
0.0
 10
10.3043600637
 20
10.5056836171
 30
0.0
 10
10.3345991203
 20
10.5069885287
 30
0.0
 10
10.3651045426
 20
10.5077775195
 30
0.0
 10
10.395744631
 20
10.5080471463
 30
0.0
 10
10.4263871093
 20
10.5077962417
 30
0.0
 10
10.4568996516
 20
10.507025889
 30
0.0
 10
10.4871504877
 20
10.5057394732
 30
0.0
 10
10.50720492
 20
10.5045325909
 30
0.0
 10
10.5171647232
 20
10.5038418762
 30
0.0
  0
SPLINE
  5
36F
100
AcDbEntity
  8
0
100
AcDbSpline
 62
7
  6
CONTINUOUS
 70
0
 71
3
 72
41
 73
37
 74
0
 42
0.0000001
 43
0.0000001
 44
0.0000000001
 40
0.0
 40
0.0
 40
0.0
 40
0.0
 40
0.0311446905
 40
0.0624423923
 40
0.0938872671
 40
0.1254695512
 40
0.1571770816
 40
0.1889950938
 40
0.2209066425
 40
0.2528929439
 40
0.2849337558
 40
0.3170077786
 40
0.3490930708
 40
0.3811674736
 40
0.4132090385
 40
0.4451964513
 40
0.4771094474
 40
0.5089292145
 40
0.5406387733
 40
0.5722233309
 40
0.6036706005
 40
0.6349710818
 40
0.6661182958
 40
0.6971089613
 40
0.7279431114
 40
0.7586241429
 40
0.7891587937
 40
0.8195570446
 40
0.849831939
 40
0.8799993257
 40
0.9100775273
 40
0.9400869398
 40
0.9550755398
 40
0.9700552983
 40
0.985029134
 40
1.0
 40
1.0
 40
1.0
 40
1.0
 10
10.4796478612
 20
7.2238034941
 30
0.0
 10
10.4715103373
 20
7.2243678333
 30
0.0
 10
10.4552305619
 20
7.2260949156
 30
0.0
 10
10.431008269
 20
7.2304455048
 30
0.0
 10
10.4070454216
 20
7.2365393464
 30
0.0
 10
10.3834714258
 20
7.2443437022
 30
0.0
 10
10.3604115343
 20
7.2538167372
 30
0.0
 10
10.3379887584
 20
7.2649077918
 30
0.0
 10
10.3163225408
 20
7.2775575782
 30
0.0
 10
10.2955283292
 20
7.2916985524
 30
0.0
 10
10.2757169147
 20
7.3072552606
 30
0.0
 10
10.2569938703
 20
7.3241447443
 30
0.0
 10
10.2394589735
 20
7.3422769572
 30
0.0
 10
10.2232056753
 20
7.3615552417
 30
0.0
 10
10.2083206286
 20
7.3818768614
 30
0.0
 10
10.1948832265
 20
7.4031335349
 30
0.0
 10
10.1829651905
 20
7.4252120089
 30
0.0
 10
10.172630157
 20
7.4479946355
 30
0.0
 10
10.1639333539
 20
7.4713600053
 30
0.0
 10
10.1569213218
 20
7.4951835911
 30
0.0
 10
10.1516316613
 20
7.5193383991
 30
0.0
 10
10.1480928322
 20
7.5436956341
 30
0.0
 10
10.1463239535
 20
7.5681253723
 30
0.0
 10
10.1463347297
 20
7.5924972556
 30
0.0
 10
10.148125391
 20
7.6166811759
 30
0.0
 10
10.1516866814
 20
7.6405479636
 30
0.0
 10
10.15699988
 20
7.6639700667
 30
0.0
 10
10.1640368715
 20
7.6868222666
 30
0.0
 10
10.1727602512
 20
7.70898226
 30
0.0
 10
10.1831237721
 20
7.7303316356
 30
0.0
 10
10.195071583
 20
7.7507553442
 30
0.0
 10
10.206302249
 20
7.7669221967
 30
0.0
 10
10.2160066172
 20
7.7792790308
 30
0.0
 10
10.2236350851
 20
7.7882474309
 30
0.0
 10
10.2316052285
 20
7.7969067957
 30
0.0
 10
10.2371400919
 20
7.8024666393
 30
0.0
 10
10.2399602857
 20
7.8051907469
 30
0.0
  0
SPLINE
  5
370
100
AcDbEntity
  8
0
100
AcDbSpline
 62
7
  6
CONTINUOUS
 70
0
 71
3
 72
53
 73
49
 74
0
 42
0.0000001
 43
0.0000001
 44
0.0000000001
 40
0.0
 40
0.0
 40
0.0
 40
0.0
 40
0.0055575358
 40
0.011177956
 40
0.0169218929
 40
0.0228457725
 40
0.029000554
 40
0.035430949
 40
0.0421754072
 40
0.049266247
 40
0.0567303126
 40
0.0645894103
 40
0.0728611106
 40
0.0815591386
 40
0.090694095
 40
0.1002736988
 40
0.1103033831
 40
0.1207863988
 40
0.1317243026
 40
0.1431169581
 40
0.1549629446
 40
0.1672594886
 40
0.1800028167
 40
0.1931880432
 40
0.2068094834
 40
0.2208605141
 40
0.2353338579
 40
0.2502214288
 40
0.2655145942
 40
0.2812040135
 40
0.3137310911
 40
0.3477184295
 40
0.3830735502
 40
0.4196973681
 40
0.4574849444
 40
0.496326165
 40
0.5361063668
 40
0.5767069288
 40
0.6180058371
 40
0.6598782328
 40
0.7021969483
 40
0.7448330351
 40
0.7876562859
 40
0.8305357554
 40
0.8733402739
 40
0.9159389748
 40
0.958201786
 40
1.0
 40
1.0
 40
1.0
 40
1.0
 10
9.9657963239
 20
10.3518356424
 30
0.0
 10
9.9657963198
 20
10.3529006156
 30
0.0
 10
9.9659155864
 20
10.3550444641
 30
0.0
 10
9.9664506987
 20
10.3582488044
 30
0.0
 10
9.9673412875
 20
10.3614459819
 30
0.0
 10
9.9685854926
 20
10.3646323252
 30
0.0
 10
9.9701813836
 20
10.367805203
 30
0.0
 10
9.9721267049
 20
10.3709622421
 30
0.0
 10
9.9744193415
 20
10.374101209
 30
0.0
 10
9.9770569563
 20
10.3772200606
 30
0.0
 10
9.9800372685
 20
10.3803166224
 30
0.0
 10
9.9833577125
 20
10.3833888181
 30
0.0
 10
9.9870156465
 20
10.3864343765
 30
0.0
 10
9.9910080937
 20
10.3894511217
 30
0.0
 10
9.9953319173
 20
10.3924366976
 30
0.0
 10
9.9999836348
 20
10.395388866
 30
0.0
 10
10.0049595628
 20
10.3983052381
 30
0.0
 10
10.0102556841
 20
10.4011835621
 30
0.0
 10
10.0158677628
 20
10.4040214618
 30
0.0
 10
10.0217912486
 20
10.4068167088
 30
0.0
 10
10.0280213664
 20
10.4095669705
 30
0.0
 10
10.0345530471
 20
10.4122700672
 30
0.0
 10
10.0413809961
 20
10.4149237307
 30
0.0
 10
10.0484996444
 20
10.4175258469
 30
0.0
 10
10.0559032004
 20
10.4200742265
 30
0.0
 10
10.0635856156
 20
10.4225668335
 30
0.0
 10
10.0715406249
 20
10.425001569
 30
0.0
 10
10.0797617203
 20
10.4273764803
 30
0.0
 10
10.088242195
 20
10.4296895858
 30
0.0
 10
10.1000280076
 20
10.4327253114
 30
0.0
 10
10.1153615938
 20
10.4363422435
 30
0.0
 10
10.1344670111
 20
10.4403569003
 30
0.0
 10
10.154429842
 20
10.4440830452
 30
0.0
 10
10.1751847352
 20
10.447508365
 30
0.0
 10
10.1966638561
 20
10.4506215171
 30
0.0
 10
10.2187969142
 20
10.4534122056
 30
0.0
 10
10.2415114611
 20
10.4558712027
 30
0.0
 10
10.2647331176
 20
10.4579903814
 30
0.0
 10
10.2883858278
 20
10.4597627403
 30
0.0
 10
10.3123921106
 20
10.4611824253
 30
0.0
 10
10.3366733171
 20
10.4622447486
 30
0.0
 10
10.361149891
 20
10.4629462027
 30
0.0
 10
10.3857416309
 20
10.4632844723
 30
0.0
 10
10.4103679573
 20
10.4632584405
 30
0.0
 10
10.43494817
 20
10.4628681938
 30
0.0
 10
10.4594017462
 20
10.4621150187
 30
0.0
 10
10.4836484822
 20
10.4610014067
 30
0.0
 10
10.4997273608
 20
10.4600147009
 30
0.0
 10
10.5077178298
 20
10.45946056
 30
0.0
  0
SPLINE
  5
371
100
AcDbEntity
  8
0
100
AcDbSpline
 62
7
  6
CONTINUOUS
 70
0
 71
3
 72
15
 73
11
 74
0
 42
0.0000001
 43
0.0000001
 44
0.0000000001
 40
0.0
 40
0.0
 40
0.0
 40
0.0
 40
0.112322152
 40
0.2289139134
 40
0.3494708756
 40
0.4736717433
 40
0.6011802302
 40
0.7316468193
 40
0.864710427
 40
1.0
 40
1.0
 40
1.0
 40
1.0
 10
10.1189690168
 20
9.8077566302
 30
0.0
 10
10.1251470065
 20
9.8091033589
 30
0.0
 10
10.1377707334
 20
9.8116988175
 30
0.0
 10
10.1571227364
 20
9.815246236
 30
0.0
 10
10.1772018772
 20
9.8185129454
 30
0.0
 10
10.1979470571
 20
9.8214888903
 30
0.0
 10
10.2192953026
 20
9.8241649486
 30
0.0
 10
10.2411817539
 20
9.8265329114
 30
0.0
 10
10.2635398268
 20
9.8285855188
 30
0.0
 10
10.2786037307
 20
9.829731074
 30
0.0
 10
10.286201944
 20
9.8302512961
 30
0.0
  0
SPLINE
  5
372
100
AcDbEntity
  8
0
100
AcDbSpline
 62
7
  6
CONTINUOUS
 70
0
 71
3
 72
15
 73
11
 74
0
 42
0.0000001
 43
0.0000001
 44
0.0000000001
 40
0.0
 40
0.0
 40
0.0
 40
0.0
 40
0.1112482015
 40
0.2271376353
 40
0.3473356727
 40
0.4714890723
 40
0.5992263908
 40
0.7301601973
 40
0.8638891536
 40
1.0
 40
1.0
 40
1.0
 40
1.0
 10
10.1198779926
 20
9.8035163396
 30
0.0
 10
10.126072112
 20
9.8049326358
 30
0.0
 10
10.1387566907
 20
9.8076604284
 30
0.0
 10
10.1582447573
 20
9.8113793102
 30
0.0
 10
10.1785351981
 20
9.8148001264
 30
0.0
 10
10.1995595688
 20
9.8179111958
 30
0.0
 10
10.2212471296
 20
9.8207019318
 30
0.0
 10
10.2435248343
 20
9.8231628339
 30
0.0
 10
10.2663175453
 20
9.8252855285
 30
0.0
 10
10.2816854217
 20
9.8264612297
 30
0.0
 10
10.2894412474
 20
9.8269926967
 30
0.0
  0
SPLINE
  5
373
100
AcDbEntity
  8
0
100
AcDbSpline
 62
7
  6
CONTINUOUS
 70
0
 71
3
 72
39
 73
35
 74
0
 42
0.0000001
 43
0.0000001
 44
0.0000000001
 40
0.0
 40
0.0
 40
0.0
 40
0.0
 40
0.031947825
 40
0.0637877465
 40
0.095519278
 40
0.1271452215
 40
0.1586681268
 40
0.1900920692
 40
0.221421968
 40
0.2526637309
 40
0.2838241651
 40
0.3149109163
 40
0.3459323978
 40
0.3768977054
 40
0.4078165267
 40
0.438699041
 40
0.4695558144
 40
0.5003976877
 40
0.5312356614
 40
0.5620807777
 40
0.5929440022
 40
0.6238361064
 40
0.6547675538
 40
0.6857483901
 40
0.7167881394
 40
0.7478957064
 40
0.7790792868
 40
0.8103462872
 40
0.8417032541
 40
0.8731558151
 40
0.9047086312
 40
0.9363653585
 40
0.9681286222
 40
1.0
 40
1.0
 40
1.0
 40
1.0
 10
10.4432771925
 20
7.1307165708
 30
0.0
 10
10.4496666382
 20
7.1302734612
 30
0.0
 10
10.4624477741
 20
7.1296997754
 30
0.0
 10
10.4816043806
 20
7.1297827159
 30
0.0
 10
10.5006695074
 20
7.130810432
 30
0.0
 10
10.5195964722
 20
7.1327803795
 30
0.0
 10
10.5383399481
 20
7.1356879574
 30
0.0
 10
10.5568546646
 20
7.1395261557
 30
0.0
 10
10.5750960155
 20
7.1442857996
 30
0.0
 10
10.5930200137
 20
7.1499554513
 30
0.0
 10
10.6105834417
 20
7.1565214786
 30
0.0
 10
10.627743943
 20
7.163968087
 30
0.0
 10
10.6444601277
 20
7.1722773546
 30
0.0
 10
10.6606916716
 20
7.1814292764
 30
0.0
 10
10.6763994146
 20
7.1914018111
 30
0.0
 10
10.6915454575
 20
7.2021709303
 30
0.0
 10
10.7060932643
 20
7.213710667
 30
0.0
 10
10.7200077413
 20
7.2259931934
 30
0.0
 10
10.7332553244
 20
7.2389888869
 30
0.0
 10
10.7458040596
 20
7.2526664019
 30
0.0
 10
10.7576236816
 20
7.266992746
 30
0.0
 10
10.7686856849
 20
7.2819333609
 30
0.0
 10
10.7789634084
 20
7.2974521972
 30
0.0
 10
10.7884320904
 20
7.3135118111
 30
0.0
 10
10.7970689244
 20
7.330073459
 30
0.0
 10
10.8048531143
 20
7.3470971909
 30
0.0
 10
10.8117659239
 20
7.3645419473
 30
0.0
 10
10.8177907188
 20
7.3823656602
 30
0.0
 10
10.8229130153
 20
7.4005253472
 30
0.0
 10
10.8271205188
 20
7.4189772345
 30
0.0
 10
10.8304031379
 20
7.4376767994
 30
0.0
 10
10.8327530105
 20
7.4565791337
 30
0.0
 10
10.8341645202
 20
7.4756380856
 30
0.0
 10
10.8344771808
 20
7.4883976105
 30
0.0
 10
10.8344771754
 20
7.4947870767
 30
0.0
  0
SPLINE
  5
374
100
AcDbEntity
  8
0
100
AcDbSpline
 62
7
  6
CONTINUOUS
 70
0
 71
3
 72
15
 73
11
 74
0
 42
0.0000001
 43
0.0000001
 44
0.0000000001
 40
0.0
 40
0.0
 40
0.0
 40
0.0
 40
0.1103752696
 40
0.2257718132
 40
0.3457976836
 40
0.4700348292
 40
0.5980424088
 40
0.7293598274
 40
0.863509585
 40
1.0
 40
1.0
 40
1.0
 40
1.0
 10
10.1251334424
 20
9.7835227744
 30
0.0
 10
10.1316806497
 20
9.7850367065
 30
0.0
 10
10.1451175538
 20
9.7879427947
 30
0.0
 10
10.1658028159
 20
9.7918716806
 30
0.0
 10
10.1874064385
 20
9.7954561978
 30
0.0
 10
10.2098422924
 20
9.7986818473
 30
0.0
 10
10.2330211518
 20
9.8015356329
 30
0.0
 10
10.2568507305
 20
9.8040060518
 30
0.0
 10
10.2812360195
 20
9.8060831528
 30
0.0
 10
10.2976770048
 20
9.8071918903
 30
0.0
 10
10.3059725529
 20
9.8076805629
 30
0.0
  0
SPLINE
  5
375
100
AcDbEntity
  8
0
100
AcDbSpline
 62
7
  6
CONTINUOUS
 70
0
 71
3
 72
14
 73
10
 74
0
 42
0.0000001
 43
0.0000001
 44
0.0000000001
 40
0.0
 40
0.0
 40
0.0
 40
0.0
 40
0.1188267098
 40
0.2399066261
 40
0.3630012931
 40
0.4878667525
 40
0.6142542423
 40
0.7419109577
 40
1.0
 40
1.0
 40
1.0
 40
1.0
 10
10.2157467547
 20
9.6662575985
 30
0.0
 10
10.2214603213
 20
9.6669895658
 30
0.0
 10
10.2330069515
 20
9.6683815524
 30
0.0
 10
10.2505059522
 20
9.6702402914
 30
0.0
 10
10.2683202243
 20
9.6718867188
 30
0.0
 10
10.2864111911
 20
9.6733172411
 30
0.0
 10
10.3047398157
 20
9.674528776
 30
0.0
 10
10.3295311539
 20
9.67585333
 30
0.0
 10
10.3482218267
 20
9.6765027889
 30
0.0
 10
10.3607297679
 20
9.676786773
 30
0.0
  0
SPLINE
  5
376
100
AcDbEntity
  8
0
100
AcDbSpline
 62
7
  6
CONTINUOUS
 70
0
 71
3
 72
39
 73
35
 74
0
 42
0.0000001
 43
0.0000001
 44
0.0000000001
 40
0.0
 40
0.0
 40
0.0
 40
0.0
 40
0.0319667003
 40
0.0638285665
 40
0.0955845571
 40
0.1272376005
 40
0.1587899229
 40
0.1902452756
 40
0.2216082032
 40
0.2528841451
 40
0.2840793958
 40
0.3152010293
 40
0.3462568453
 40
0.3772552955
 40
0.408205405
 40
0.4391166835
 40
0.4699990312
 40
0.5008626395
 40
0.531717889
 40
0.5625752458
 40
0.5934451554
 40
0.6243379365
 40
0.6552636758
 40
0.6862321261
 40
0.7172526115
 40
0.7483339367
 40
0.779484302
 40
0.8107112252
 40
0.8420214718
 40
0.8734209951
 40
0.9049148879
 40
0.9365073412
 40
0.968201612
 40
1.0
 40
1.0
 40
1.0
 40
1.0
 10
10.471747264
 20
7.1866866464
 30
0.0
 10
10.4775147966
 20
7.1862866666
 30
0.0
 10
10.4890518312
 20
7.1857613647
 30
0.0
 10
10.5063452006
 20
7.1858023395
 30
0.0
 10
10.5235603308
 20
7.1866735327
 30
0.0
 10
10.5406572231
 20
7.1883728533
 30
0.0
 10
10.5575971204
 20
7.1908965702
 30
0.0
 10
10.5743412337
 20
7.194238923
 30
0.0
 10
10.5908513417
 20
7.1983923205
 30
0.0
 10
10.6070897226
 20
7.2033473016
 30
0.0
 10
10.6230192745
 20
7.2090925787
 30
0.0
 10
10.6386035939
 20
7.2156150629
 30
0.0
 10
10.653807056
 20
7.2228998928
 30
0.0
 10
10.6685949106
 20
7.2309304415
 30
0.0
 10
10.6829333596
 20
7.2396883689
 30
0.0
 10
10.6967896267
 20
7.2491536764
 30
0.0
 10
10.7101320345
 20
7.2593047471
 30
0.0
 10
10.7229300727
 20
7.2701184001
 30
0.0
 10
10.7351544853
 20
7.2815699227
 30
0.0
 10
10.7467773396
 20
7.2936331318
 30
0.0
 10
10.7577720751
 20
7.3062804519
 30
0.0
 10
10.7681135677
 20
7.319482973
 30
0.0
 10
10.7777781825
 20
7.3332105205
 30
0.0
 10
10.7867438415
 20
7.3474317125
 30
0.0
 10
10.7949900863
 20
7.3621140302
 30
0.0
 10
10.8024980991
 20
7.3772239098
 30
0.0
 10
10.8092507499
 20
7.3927268155
 30
0.0
 10
10.815232631
 20
7.4085873209
 30
0.0
 10
10.8204300998
 20
7.4247691806
 30
0.0
 10
10.8248313326
 20
7.4412354249
 30
0.0
 10
10.8284263171
 20
7.4579483981
 30
0.0
 10
10.8312068833
 20
7.474870064
 30
0.0
 10
10.8331667019
 20
7.4919612577
 30
0.0
 10
10.8339218948
 20
7.5034247288
 30
0.0
 10
10.8341621982
 20
7.509170651
 30
0.0
  0
SPLINE
  5
377
100
AcDbEntity
  8
0
100
AcDbSpline
 62
7
  6
CONTINUOUS
 70
0
 71
3
 72
23
 73
19
 74
0
 42
0.0000001
 43
0.0000001
 44
0.0000000001
 40
0.0
 40
0.0
 40
0.0
 40
0.0
 40
0.0638616659
 40
0.1275031319
 40
0.1909230611
 40
0.254127678
 40
0.3171223919
 40
0.3799159314
 40
0.4425188212
 40
0.5049436698
 40
0.5672049956
 40
0.6293190753
 40
0.6913037911
 40
0.7531784391
 40
0.8149635278
 40
0.876680559
 40
0.9383517927
 40
1.0
 40
1.0
 40
1.0
 40
1.0
 10
10.4796478612
 20
7.2238034941
 30
0.0
 10
10.4852105785
 20
7.2234177183
 30
0.0
 10
10.4963380763
 20
7.2229242479
 30
0.0
 10
10.5130149536
 20
7.2230236296
 30
0.0
 10
10.5296086517
 20
7.2239636976
 30
0.0
 10
10.5460767082
 20
7.2257420048
 30
0.0
 10
10.5623779393
 20
7.2283542232
 30
0.0
 10
10.5784712093
 20
7.2317937745
 30
0.0
 10
10.5943160145
 20
7.23605207
 30
0.0
 10
10.6098724424
 20
7.2411184135
 30
0.0
 10
10.6251013081
 20
7.2469800804
 30
0.0
 10
10.6399642449
 20
7.2536223429
 30
0.0
 10
10.6544237988
 20
7.2610285009
 30
0.0
 10
10.6684435364
 20
7.2691799387
 30
0.0
 10
10.6819880882
 20
7.2780561167
 30
0.0
 10
10.6950234431
 20
7.2876347914
 30
0.0
 10
10.7075163024
 20
7.2978914179
 30
0.0
 10
10.7154638324
 20
7.3051654052
 30
0.0
 10
10.7193354368
 20
7.3089051009
 30
0.0
  0
SPLINE
  5
378
100
AcDbEntity
  8
0
100
AcDbSpline
 62
7
  6
CONTINUOUS
 70
0
 71
3
 72
55
 73
51
 74
0
 42
0.0000001
 43
0.0000001
 44
0.0000000001
 40
0.0
 40
0.0
 40
0.0
 40
0.0
 40
0.0528987923
 40
0.1050252447
 40
0.1562616162
 40
0.2064949455
 40
0.2556141677
 40
0.3035122725
 40
0.3500860349
 40
0.3952367117
 40
0.4388704592
 40
0.4808988931
 40
0.5212396918
 40
0.5598172953
 40
0.5965637214
 40
0.6314195591
 40
0.6481232272
 40
0.6643365125
 40
0.6800550856
 40
0.6952753162
 40
0.7099946017
 40
0.7242112683
 40
0.7379247876
 40
0.7511358803
 40
0.7638465891
 40
0.776060606
 40
0.7877832444
 40
0.7990219431
 40
0.8097862519
 40
0.8200884083
 40
0.8299434749
 40
0.8393698842
 40
0.8483897976
 40
0.8570295393
 40
0.8732865042
 40
0.8809916405
 40
0.8884709119
 40
0.8957755199
 40
0.9029607929
 40
0.9100851613
 40
0.9172086928
 40
0.9243914839
 40
0.931692015
 40
0.9391657507
 40
0.9468639634
 40
0.9631035924
 40
0.9717332373
 40
0.9807422332
 40
0.990157064
 40
1.0
 40
1.0
 40
1.0
 40
1.0
 10
10.5171647232
 20
10.5038418762
 30
0.0
 10
10.5245416196
 20
10.5033302867
 30
0.0
 10
10.5391810463
 20
10.5022154458
 30
0.0
 10
10.5609368403
 20
10.5002522133
 30
0.0
 10
10.5822915228
 20
10.498013822
 30
0.0
 10
10.6031929257
 20
10.4955058032
 30
0.0
 10
10.6235902413
 20
10.4927342802
 30
0.0
 10
10.6434337635
 20
10.48970607
 30
0.0
 10
10.6626752062
 20
10.4864285984
 30
0.0
 10
10.6812677489
 20
10.4829099156
 30
0.0
 10
10.6991661802
 20
10.4791586624
 30
0.0
 10
10.7163270126
 20
10.4751840538
 30
0.0
 10
10.7327085792
 20
10.4709958538
 30
0.0
 10
10.7482712216
 20
10.4666043505
 30
0.0
 10
10.7629771401
 20
10.4620203203
 30
0.0
 10
10.7746486551
 20
10.4579941604
 30
0.0
 10
10.7835232791
 20
10.4546771955
 30
0.0
 10
10.7898485882
 20
10.452183686
 30
0.0
 10
10.7959341645
 20
10.4496506232
 30
0.0
 10
10.8017763211
 20
10.4470794784
 30
0.0
 10
10.8073715305
 20
10.4444718528
 30
0.0
 10
10.8127164094
 20
10.4418293047
 30
0.0
 10
10.817807734
 20
10.4391534317
 30
0.0
 10
10.8226424481
 20
10.4364458612
 30
0.0
 10
10.8272176329
 20
10.4337081779
 30
0.0
 10
10.8315305705
 20
10.430942062
 30
0.0
 10
10.835578652
 20
10.4281490831
 30
0.0
 10
10.8393594959
 20
10.4253309394
 30
0.0
 10
10.8428708123
 20
10.4224891899
 30
0.0
 10
10.846110528
 20
10.4196255109
 30
0.0
 10
10.8490766916
 20
10.416741425
 30
0.0
 10
10.8517674244
 20
10.4138386579
 30
0.0
 10
10.854181315
 20
10.4109183048
 30
0.0
 10
10.8569710798
 20
10.4070825734
 30
0.0
 10
10.8592835236
 20
10.4031328157
 30
0.0
 10
10.8610349468
 20
10.399097115
 30
0.0
 10
10.8620411765
 20
10.3961145471
 30
0.0
 10
10.862761992
 20
10.3931250075
 30
0.0
 10
10.8631964778
 20
10.3901305065
 30
0.0
 10
10.8633440369
 20
10.387133483
 30
0.0
 10
10.8632044421
 20
10.3841364221
 30
0.0
 10
10.8627778723
 20
10.3811418238
 30
0.0
 10
10.8620650185
 20
10.3781521059
 30
0.0
 10
10.8610666338
 20
10.3751693299
 30
0.0
 10
10.8593260368
 20
10.3711334745
 30
0.0
 10
10.8570239785
 20
10.3671831322
 30
0.0
 10
10.8542442233
 20
10.3633467569
 30
0.0
 10
10.8518380288
 20
10.3604259249
 30
0.0
 10
10.8491550033
 20
10.3575227116
 30
0.0
 10
10.8472265828
 20
10.3556424989
 30
0.0
 10
10.8462193347
 20
10.3547051526
 30
0.0
  0
SPLINE
  5
379
100
AcDbEntity
  8
0
100
AcDbSpline
 62
7
  6
CONTINUOUS
 70
0
 71
3
 72
46
 73
42
 74
0
 42
0.0000001
 43
0.0000001
 44
0.0000000001
 40
0.0
 40
0.0
 40
0.0
 40
0.0
 40
0.0064812122
 40
0.0130000076
 40
0.0195932715
 40
0.0262965408
 40
0.0331434334
 40
0.0401653198
 40
0.0548395295
 40
0.062548329
 40
0.0705311576
 40
0.0788062809
 40
0.0873896937
 40
0.0962951371
 40
0.1055344775
 40
0.1151178306
 40
0.1250536192
 40
0.1353489474
 40
0.1460095935
 40
0.1684422289
 40
0.192378937
 40
0.2178311543
 40
0.2447990338
 40
0.273273407
 40
0.3032372166
 40
0.3346665149
 40
0.367531378
 40
0.4017966883
 40
0.4374226543
 40
0.4743652015
 40
0.5125764803
 40
0.5520052144
 40
0.5925969097
 40
0.6342941429
 40
0.6770368797
 40
0.7207626459
 40
0.7654066226
 40
0.810902145
 40
0.8571804972
 40
0.9041708165
 40
1.0
 40
1.0
 40
1.0
 40
1.0
 10
10.8267963217
 20
10.3518356424
 30
0.0
 10
10.8267963188
 20
10.35259582
 30
0.0
 10
10.8267358643
 20
10.354121263
 30
0.0
 10
10.8264642326
 20
10.356405476
 30
0.0
 10
10.826011736
 20
10.3586874714
 30
0.0
 10
10.8253787305
 20
10.3609659064
 30
0.0
 10
10.8245656691
 20
10.3632398928
 30
0.0
 10
10.8232228099
 20
10.3663089035
 30
0.0
 10
10.8215279295
 20
10.3693246272
 30
0.0
 10
10.8195246028
 20
10.3722707141
 30
0.0
 10
10.8178203082
 20
10.3745079818
 30
0.0
 10
10.81594003
 20
10.3767351193
 30
0.0
 10
10.8138844268
 20
10.3789514775
 30
0.0
 10
10.8116544531
 20
10.3811561795
 30
0.0
 10
10.809251017
 20
10.3833483733
 30
0.0
 10
10.8066751065
 20
10.3855271763
 30
0.0
 10
10.8039278174
 20
10.3876917586
 30
0.0
 10
10.8010102537
 20
10.3898412524
 30
0.0
 10
10.7968233741
 20
10.3927351751
 30
0.0
 10
10.7911601162
 20
10.3963012307
 30
0.0
 10
10.7838176257
 20
10.4004361577
 30
0.0
 10
10.7758290006
 20
10.4044900505
 30
0.0
 10
10.7672074176
 20
10.4084562695
 30
0.0
 10
10.757966877
 20
10.4123283156
 30
0.0
 10
10.7481225608
 20
10.4160997429
 30
0.0
 10
10.7376907036
 20
10.4197642658
 30
0.0
 10
10.7266885784
 20
10.4233157576
 30
0.0
 10
10.7151344356
 20
10.4267482538
 30
0.0
 10
10.7030474789
 20
10.4300559775
 30
0.0
 10
10.6904478359
 20
10.4332333818
 30
0.0
 10
10.6773565056
 20
10.4362751246
 30
0.0
 10
10.6637953176
 20
10.4391760791
 30
0.0
 10
10.6497869055
 20
10.4419313691
 30
0.0
 10
10.6353546633
 20
10.4445363704
 30
0.0
 10
10.6205226944
 20
10.4469866988
 30
0.0
 10
10.6053157825
 20
10.4492782237
 30
0.0
 10
10.5897593321
 20
10.4514071106
 30
0.0
 10
10.5738793596
 20
10.4533697725
 30
0.0
 10
10.5577024213
 20
10.455162919
 30
0.0
 10
10.5356297571
 20
10.4573378199
 30
0.0
 10
10.5189306474
 20
10.4586829484
 30
0.0
 10
10.5077178298
 20
10.45946056
 30
0.0
  0
SPLINE
  5
37A
100
AcDbEntity
  8
0
100
AcDbSpline
 62
7
  6
CONTINUOUS
 70
0
 71
3
 72
16
 73
12
 74
0
 42
0.0000001
 43
0.0000001
 44
0.0000000001
 40
0.0
 40
0.0
 40
0.0
 40
0.0
 40
0.1085983664
 40
0.1643071835
 40
0.2210331304
 40
0.3377526083
 40
0.45922202
 40
0.5858455892
 40
0.7179871942
 40
0.8559598144
 40
1.0
 40
1.0
 40
1.0
 40
1.0
 10
10.7585185291
 20
7.5018652233
 30
0.0
 10
10.7518110121
 20
7.5042023688
 30
0.0
 10
10.7418144695
 20
7.5081928654
 30
0.0
 10
10.728736068
 20
7.5143596732
 30
0.0
 10
10.7154390409
 20
7.5212838119
 30
0.0
 10
10.6988570096
 20
7.5311760415
 30
0.0
 10
10.6792764382
 20
7.5448449096
 30
0.0
 10
10.6598750433
 20
7.5604328327
 30
0.0
 10
10.6407125102
 20
7.5779552904
 30
0.0
 10
10.6218614351
 20
7.5974296131
 30
0.0
 10
10.6098221208
 20
7.6114200592
 30
0.0
 10
10.6038772843
 20
7.6187287546
 30
0.0
  0
SPLINE
  5
37B
100
AcDbEntity
  8
0
100
AcDbSpline
 62
7
  6
CONTINUOUS
 70
0
 71
3
 72
84
 73
80
 74
0
 42
0.0000001
 43
0.0000001
 44
0.0000000001
 40
0.0
 40
0.0
 40
0.0
 40
0.0
 40
0.0038900711
 40
0.0079384671
 40
0.0121485517
 40
0.016523196
 40
0.0210648294
 40
0.0257753409
 40
0.0306560174
 40
0.0357077488
 40
0.0409310156
 40
0.0463259695
 40
0.0518924526
 40
0.0576299774
 40
0.0635378383
 40
0.0696150414
 40
0.0822721501
 40
0.0955897357
 40
0.109552921
 40
0.1241443013
 40
0.1393442271
 40
0.1551310304
 40
0.1714812222
 40
0.188369665
 40
0.2057697185
 40
0.2236533693
 40
0.2419913474
 40
0.260753231
 40
0.2799075531
 40
0.2994219011
 40
0.3192630096
 40
0.3393968492
 40
0.3597887131
 40
0.380403302
 40
0.4012048129
 40
0.4432227384
 40
0.4855498032
 40
0.5278899008
 40
0.5699468146
 40
0.5907774501
 40
0.6114275005
 40
0.6318610846
 40
0.6520428114
 40
0.6719378639
 40
0.6915120844
 40
0.7107320631
 40
0.7295652318
 40
0.7479799549
 40
0.7659456229
 40
0.7834327536
 40
0.800413099
 40
0.816859765
 40
0.8327473437
 40
0.8480520512
 40
0.8627518884
 40
0.8768268306
 40
0.8902590523
 40
0.9030332082
 40
0.9151367728
 40
0.9209342848
 40
0.9265609575
 40
0.9320162545
 40
0.9372998816
 40
0.9424118707
 40
0.9473526024
 40
0.9521228014
 40
0.9567236584
 40
0.9611567853
 40
0.9654243511
 40
0.9695291031
 40
0.9734744361
 40
0.9772645259
 40
0.9809043448
 40
0.9843998469
 40
0.987758014
 40
0.9909869951
 40
0.9940962274
 40
0.9970964843
 40
1.0
 40
1.0
 40
1.0
 40
1.0
 10
12.1764977254
 20
8.365590212
 30
0.0
 10
12.1776197845
 20
8.3666740379
 30
0.0
 10
12.1798627671
 20
8.3689346846
 30
0.0
 10
12.1831594791
 20
8.3725231904
 30
0.0
 10
12.1864529518
 20
8.3763741736
 30
0.0
 10
12.1897415397
 20
8.380485691
 30
0.0
 10
12.1930238259
 20
8.384855875
 30
0.0
 10
12.1962983164
 20
8.3894827674
 30
0.0
 10
12.1995635722
 20
8.3943642256
 30
0.0
 10
12.2028180322
 20
8.3994980178
 30
0.0
 10
12.206060222
 20
8.4048817544
 30
0.0
 10
12.2092886417
 20
8.410512952
 30
0.0
 10
12.2125017775
 20
8.4163890158
 30
0.0
 10
12.2156981717
 20
8.4225072086
 30
0.0
 10
12.218876312
 20
8.4288647156
 30
0.0
 10
12.2231454858
 20
8.4377776373
 30
0.0
 10
12.2284166883
 20
8.4495032127
 30
0.0
 10
12.2345634255
 20
8.4642950424
 30
0.0
 10
12.2406027182
 20
8.479965226
 30
0.0
 10
12.246523256
 20
8.4964846217
 30
0.0
 10
12.2523139465
 20
8.5138226415
 30
0.0
 10
12.2579639351
 20
8.5319470698
 30
0.0
 10
12.2634626317
 20
8.5508242042
 30
0.0
 10
12.2687997274
 20
8.5704189088
 30
0.0
 10
12.2739652171
 20
8.5906946922
 30
0.0
 10
12.2789494188
 20
8.6116137771
 30
0.0
 10
12.2837429899
 20
8.6331371716
 30
0.0
 10
12.2883369519
 20
8.6552247425
 30
0.0
 10
12.2927227022
 20
8.6778352937
 30
0.0
 10
12.2968920287
 20
8.7009266485
 30
0.0
 10
12.3008371253
 20
8.7244557276
 30
0.0
 10
12.3045506083
 20
8.7483786339
 30
0.0
 10
12.3080255198
 20
8.7726507188
 30
0.0
 10
12.3112553882
 20
8.7972267196
 30
0.0
 10
12.3152401624
 20
8.8304486275
 30
0.0
 10
12.3195619761
 20
8.8723970627
 30
0.0
 10
12.3236709154
 20
8.923038876
 30
0.0
 10
12.3266888079
 20
8.9737730632
 30
0.0
 10
12.3282810243
 20
9.015946026
 30
0.0
 10
12.3289868763
 20
9.0494401523
 30
0.0
 10
12.3292303282
 20
9.0742689207
 30
0.0
 10
12.3291891542
 20
9.098838605
 30
0.0
 10
12.328863426
 20
9.1231033902
 30
0.0
 10
12.3282537755
 20
9.1470179855
 30
0.0
 10
12.3273613597
 20
9.1705377676
 30
0.0
 10
12.326187867
 20
9.193618851
 30
0.0
 10
12.3247355192
 20
9.2162181766
 30
0.0
 10
12.323007062
 20
9.2382935921
 30
0.0
 10
12.3210057596
 20
9.25980393
 30
0.0
 10
12.3187353896
 20
9.2807090848
 30
0.0
 10
12.3162002354
 20
9.3009700908
 30
0.0
 10
12.3134050799
 20
9.3205492007
 30
0.0
 10
12.3103552016
 20
9.3394099623
 30
0.0
 10
12.3070563577
 20
9.3575172877
 30
0.0
 10
12.3035147727
 20
9.3748375292
 30
0.0
 10
12.2997371248
 20
9.3913385263
 30
0.0
 10
12.295730528
 20
9.4069897603
 30
0.0
 10
12.2915025131
 20
9.4217621482
 30
0.0
 10
12.2877493774
 20
9.4334799228
 30
0.0
 10
12.2846333901
 20
9.4423863333
 30
0.0
 10
12.2822795492
 20
9.4487335113
 30
0.0
 10
12.279876434
 20
9.4548412848
 30
0.0
 10
12.2774251085
 20
9.460706831
 30
0.0
 10
12.2749267151
 20
9.466327435
 30
0.0
 10
12.2723824312
 20
9.4717005124
 30
0.0
 10
12.2697933779
 20
9.4768235708
 30
0.0
 10
12.2671607943
 20
9.481694275
 30
0.0
 10
12.2644858284
 20
9.4863103722
 30
0.0
 10
12.2617697086
 20
9.4906697566
 30
0.0
 10
12.2590136526
 20
9.49477044
 30
0.0
 10
12.2562188363
 20
9.4986105237
 30
0.0
 10
12.2533865297
 20
9.5021882829
 30
0.0
 10
12.2505178805
 20
9.5055020288
 30
0.0
 10
12.2476141401
 20
9.5085502471
 30
0.0
 10
12.2446764817
 20
9.5113314799
 30
0.0
 10
12.2417061055
 20
9.5138443308
 30
0.0
 10
12.2387041868
 20
9.5160875844
 30
0.0
 10
12.2356721388
 20
9.5180598155
 30
0.0
 10
12.2336002412
 20
9.5192105674
 30
0.0
 10
12.2325617648
 20
9.5197372349
 30
0.0
  0
SPLINE
  5
37C
100
AcDbEntity
  8
0
100
AcDbSpline
 62
7
  6
CONTINUOUS
 70
0
 71
3
 72
15
 73
11
 74
0
 42
0.0000001
 43
0.0000001
 44
0.0000000001
 40
0.0
 40
0.0
 40
0.0
 40
0.0
 40
0.1419816654
 40
0.278595296
 40
0.410044345
 40
0.536574793
 40
0.6584794438
 40
0.7760922473
 40
0.8897912072
 40
1.0
 40
1.0
 40
1.0
 40
1.0
 10
12.1764977254
 20
8.365590212
 30
0.0
 10
12.1754687115
 20
8.3645962609
 30
0.0
 10
12.1734112716
 20
8.3626850289
 30
0.0
 10
12.1702652182
 20
8.3600045767
 30
0.0
 10
12.1671211573
 20
8.3575680869
 30
0.0
 10
12.1639804338
 20
8.3553768149
 30
0.0
 10
12.160844288
 20
8.3534317066
 30
0.0
 10
12.1577137892
 20
8.3517337141
 30
0.0
 10
12.1545903942
 20
8.3502837391
 30
0.0
 10
12.1524832856
 20
8.349471319
 30
0.0
 10
12.1514334729
 20
8.3491092053
 30
0.0
  0
SPLINE
  5
37D
100
AcDbEntity
  8
0
100
AcDbSpline
 62
7
  6
CONTINUOUS
 70
0
 71
3
 72
23
 73
19
 74
0
 42
0.0000001
 43
0.0000001
 44
0.0000000001
 40
0.0
 40
0.0
 40
0.0
 40
0.0
 40
0.0781363634
 40
0.1532312145
 40
0.2254044137
 40
0.2948000444
 40
0.3615918227
 40
0.425978862
 40
0.488187118
 40
0.5484703241
 40
0.6071102923
 40
0.6644171419
 40
0.7207254262
 40
0.7763893711
 40
0.8317768817
 40
0.8872617001
 40
0.9432155646
 40
1.0
 40
1.0
 40
1.0
 40
1.0
 10
12.1764977254
 20
8.5442865005
 30
0.0
 10
12.1757702338
 20
8.5435837975
 30
0.0
 10
12.1743156763
 20
8.542234185
 30
0.0
 10
12.1720901649
 20
8.5403456896
 30
0.0
 10
12.1698661254
 20
8.5386350489
 30
0.0
 10
12.1676445597
 20
8.5371032468
 30
0.0
 10
12.1654264057
 20
8.5357509835
 30
0.0
 10
12.1632125073
 20
8.5345789766
 30
0.0
 10
12.161003763
 20
8.5335878823
 30
0.0
 10
12.1588011324
 20
8.5327782933
 30
0.0
 10
12.1566055868
 20
8.5321508782
 30
0.0
 10
12.1544182072
 20
8.5317061211
 30
0.0
 10
12.1522401269
 20
8.5314444286
 30
0.0
 10
12.1500725479
 20
8.531366172
 30
0.0
 10
12.1479167545
 20
8.5314714091
 30
0.0
 10
12.1457739826
 20
8.5317601432
 30
0.0
 10
12.1436456737
 20
8.532232122
 30
0.0
 10
12.1422499352
 20
8.5326647026
 30
0.0
 10
12.1415569175
 20
8.5329097257
 30
0.0
  0
SPLINE
  5
37E
100
AcDbEntity
  8
0
100
AcDbSpline
 62
7
  6
CONTINUOUS
 70
0
 71
3
 72
11
 73
7
 74
0
 42
0.0000001
 43
0.0000001
 44
0.0000000001
 40
0.0
 40
0.0
 40
0.0
 40
0.0
 40
0.252234585
 40
0.5038969318
 40
0.7536053571
 40
1.0
 40
1.0
 40
1.0
 40
1.0
 10
10.3843966911
 20
7.6785728494
 30
0.0
 10
10.3911678017
 20
7.6786516193
 30
0.0
 10
10.4046966019
 20
7.6786746019
 30
0.0
 10
10.4249260952
 20
7.6783079709
 30
0.0
 10
10.44498755
 20
7.677542482
 30
0.0
 10
10.4582843748
 20
7.6767626318
 30
0.0
 10
10.4648833131
 20
7.6763049939
 30
0.0
  0
SPLINE
  5
37F
100
AcDbEntity
  8
0
100
AcDbSpline
 62
7
  6
CONTINUOUS
 70
0
 71
3
 72
14
 73
10
 74
0
 42
0.0000001
 43
0.0000001
 44
0.0000000001
 40
0.0
 40
0.0
 40
0.0
 40
0.0
 40
0.1115960352
 40
0.2274530169
 40
0.3473544483
 40
0.4710805477
 40
0.5984138935
 40
0.7291435255
 40
1.0
 40
1.0
 40
1.0
 40
1.0
 10
10.5275591348
 20
7.5397875205
 30
0.0
 10
10.5281834316
 20
7.5408476287
 30
0.0
 10
10.5294354623
 20
7.5430203664
 30
0.0
 10
10.531299523
 20
7.5463655033
 30
0.0
 10
10.533191336
 20
7.5498479661
 30
0.0
 10
10.5351163072
 20
7.553456228
 30
0.0
 10
10.5370797459
 20
7.5571791964
 30
0.0
 10
10.5397876615
 20
7.5623432754
 30
0.0
 10
10.5418425214
 20
7.5662647558
 30
0.0
 10
10.5432367145
 20
7.5689053117
 30
0.0
  0
SPLINE
  5
380
100
AcDbEntity
  8
0
100
AcDbSpline
 62
7
  6
CONTINUOUS
 70
0
 71
3
 72
85
 73
81
 74
0
 42
0.0000001
 43
0.0000001
 44
0.0000000001
 40
0.0
 40
0.0
 40
0.0
 40
0.0
 40
0.0040523015
 40
0.0082800489
 40
0.0126871091
 40
0.0172767088
 40
0.0220515382
 40
0.0270136769
 40
0.0321644652
 40
0.0375047407
 40
0.0430348848
 40
0.0487548409
 40
0.0546642381
 40
0.0607622928
 40
0.0735193811
 40
0.0870148027
 40
0.1012328019
 40
0.1161542559
 40
0.1317570782
 40
0.1480165551
 40
0.1649056363
 40
0.1823951659
 40
0.2004540778
 40
0.2190495565
 40
0.2381472068
 40
0.2577112073
 40
0.2777044432
 40
0.2980886303
 40
0.3188244294
 40
0.3398715782
 40
0.3611890083
 40
0.3827349565
 40
0.4263417812
 40
0.4703490114
 40
0.5144087942
 40
0.5581727434
 40
0.5798360128
 40
0.6012962287
 40
0.6225112594
 40
0.6434396051
 40
0.6640405056
 40
0.6842740525
 40
0.7041013073
 40
0.7234844345
 40
0.7423868195
 40
0.7607731934
 40
0.7786097701
 40
0.7958644037
 40
0.8125067657
 40
0.828508514
 40
0.8438435
 40
0.8584880145
 40
0.8724210992
 40
0.8856249155
 40
0.8980851854
 40
0.904033427
 40
0.909792385
 40
0.9153615468
 40
0.9207408324
 40
0.9259305068
 40
0.9309313327
 40
0.9357445819
 40
0.9403720585
 40
0.944816278
 40
0.9490804273
 40
0.9531685533
 40
0.9570856524
 40
0.9608377435
 40
0.9644321096
 40
0.9678773368
 40
0.9711835297
 40
0.9774235376
 40
0.9803901424
 40
0.983275319
 40
0.9860978022
 40
0.9888777378
 40
0.9916362827
 40
0.9943951391
 40
0.9971759967
 40
1.0
 40
1.0
 40
1.0
 40
1.0
 10
12.1764977254
 20
8.5442865005
 30
0.0
 10
12.1773175962
 20
8.5450784349
 30
0.0
 10
12.1789563958
 20
8.5467346628
 30
0.0
 10
12.1813619626
 20
8.5493720264
 30
0.0
 10
12.1837648676
 20
8.5522128255
 30
0.0
 10
12.1861637319
 20
8.5552554448
 30
0.0
 10
12.1885574032
 20
8.5584983075
 30
0.0
 10
12.1909446429
 20
8.5619397869
 30
0.0
 10
12.1933242741
 20
8.5655780865
 30
0.0
 10
12.1956950291
 20
8.5694113206
 30
0.0
 10
12.1980556574
 20
8.5734374892
 30
0.0
 10
12.2004049563
 20
8.5776544749
 30
0.0
 10
12.2027416736
 20
8.5820600983
 30
0.0
 10
12.2058862851
 20
8.5882764785
 30
0.0
 10
12.2097689886
 20
8.596508819
 30
0.0
 10
12.2142914729
 20
8.6069579242
 30
0.0
 10
12.2187350613
 20
8.6180989364
 30
0.0
 10
12.2230903473
 20
8.6299084807
 30
0.0
 10
12.2273481115
 20
8.6423618898
 30
0.0
 10
12.2314993344
 20
8.6554330367
 30
0.0
 10
12.2355352155
 20
8.6690944759
 30
0.0
 10
12.2394471977
 20
8.6833174904
 30
0.0
 10
12.2432269831
 20
8.6980721594
 30
0.0
 10
12.2468665639
 20
8.7133274183
 30
0.0
 10
12.2503582311
 20
8.7290511322
 30
0.0
 10
12.2536945886
 20
8.7452101706
 30
0.0
 10
12.2568685695
 20
8.76177048
 30
0.0
 10
12.2598734496
 20
8.7786971519
 30
0.0
 10
12.2627028752
 20
8.7959544979
 30
0.0
 10
12.2653508549
 20
8.8135061193
 30
0.0
 10
12.267811811
 20
8.8313150294
 30
0.0
 10
12.2708487004
 20
8.8554487776
 30
0.0
 10
12.2741367091
 20
8.8859814252
 30
0.0
 10
12.2772499529
 20
8.9228926667
 30
0.0
 10
12.2795198456
 20
8.9599096275
 30
0.0
 10
12.2806968547
 20
8.9906882523
 30
0.0
 10
12.2811979
 20
9.0151245433
 30
0.0
 10
12.281351873
 20
9.0332224124
 30
0.0
 10
12.2812850555
 20
9.0511140732
 30
0.0
 10
12.2809975879
 20
9.0687618225
 30
0.0
 10
12.2804901
 20
9.0861284349
 30
0.0
 10
12.2797636804
 20
9.1031772894
 30
0.0
 10
12.2788198817
 20
9.1198724368
 30
0.0
 10
12.2776607279
 20
9.1361786826
 30
0.0
 10
12.2762886993
 20
9.1520616613
 30
0.0
 10
12.2747067279
 20
9.167487906
 30
0.0
 10
12.2729181903
 20
9.1824249204
 30
0.0
 10
12.2709269034
 20
9.1968412558
 30
0.0
 10
12.2687371264
 20
9.2107065837
 30
0.0
 10
12.2663535379
 20
9.22399176
 30
0.0
 10
12.2637812282
 20
9.2366688933
 30
0.0
 10
12.2610256815
 20
9.2487113935
 30
0.0
 10
12.2580927729
 20
9.2600941197
 30
0.0
 10
12.2549887357
 20
9.2707931971
 30
0.0
 10
12.252223817
 20
9.2792470429
 30
0.0
 10
12.2499238911
 20
9.2856447634
 30
0.0
 10
12.2481870235
 20
9.2901839218
 30
0.0
 10
12.2464123817
 20
9.2945361062
 30
0.0
 10
12.2446009215
 20
9.2986990651
 30
0.0
 10
12.2427535534
 20
9.3026706162
 30
0.0
 10
12.2408712479
 20
9.3064486973
 30
0.0
 10
12.2389549963
 20
9.3100313571
 30
0.0
 10
12.2370057325
 20
9.3134167201
 30
0.0
 10
12.2350244984
 20
9.3166030623
 30
0.0
 10
12.2330122485
 20
9.3195887231
 30
0.0
 10
12.2309699796
 20
9.3223721645
 30
0.0
 10
12.2288987191
 20
9.3249519643
 30
0.0
 10
12.226799369
 20
9.3273267552
 30
0.0
 10
12.2246730566
 20
9.3294952644
 30
0.0
 10
12.2225203841
 20
9.3314564927
 30
0.0
 10
12.2196724416
 20
9.3337486944
 30
0.0
 10
12.2167160153
 20
9.3356853823
 30
0.0
 10
12.2136694363
 20
9.3372047901
 30
0.0
 10
12.2114015289
 20
9.3381129448
 30
0.0
 10
12.2091141216
 20
9.3388075904
 30
0.0
 10
12.2068085601
 20
9.3392881709
 30
0.0
 10
12.2044864558
 20
9.339554061
 30
0.0
 10
12.2021494317
 20
9.3396050871
 30
0.0
 10
12.1997993921
 20
9.3394412857
 30
0.0
 10
12.1982402923
 20
9.339191455
 30
0.0
 10
12.1974619659
 20
9.3390325789
 30
0.0
  0
SPLINE
  5
381
100
AcDbEntity
  8
0
100
AcDbSpline
 62
7
  6
CONTINUOUS
 70
0
 71
3
 72
51
 73
47
 74
0
 42
0.0000001
 43
0.0000001
 44
0.0000000001
 40
0.0
 40
0.0
 40
0.0
 40
0.0
 40
0.0103086877
 40
0.0210704676
 40
0.0322802399
 40
0.0439316924
 40
0.0560173473
 40
0.0685287966
 40
0.0814566261
 40
0.0947906743
 40
0.1085199221
 40
0.1226327001
 40
0.1371166329
 40
0.151958741
 40
0.1826621704
 40
0.2146289112
 40
0.2477367159
 40
0.2818568025
 40
0.3168547678
 40
0.3525914482
 40
0.3889237459
 40
0.4257054342
 40
0.462787949
 40
0.5000211717
 40
0.5372542078
 40
0.574336163
 40
0.6111169213
 40
0.6474479232
 40
0.6831829488
 40
0.7181789094
 40
0.7522966526
 40
0.7854017889
 40
0.8173655523
 40
0.8480657114
 40
0.8629060728
 40
0.8773882065
 40
0.8914991067
 40
0.9052264337
 40
0.9185584894
 40
0.931484287
 40
0.9439936479
 40
0.9560771722
 40
0.9677264599
 40
0.9789340216
 40
0.9896935771
 40
1.0
 40
1.0
 40
1.0
 40
1.0
 10
12.0941043162
 20
8.6142691155
 30
0.0
 10
12.0951603799
 20
8.6162872244
 30
0.0
 10
12.0972599561
 20
8.6204432164
 30
0.0
 10
12.1003121085
 20
8.6268902958
 30
0.0
 10
12.1033319905
 20
8.6336785983
 30
0.0
 10
12.1063162831
 20
8.6408007848
 30
0.0
 10
12.1092618053
 20
8.6482492213
 30
0.0
 10
12.1121653211
 20
8.6560159034
 30
0.0
 10
12.1150237352
 20
8.6640924652
 30
0.0
 10
12.1178339038
 20
8.6724702134
 30
0.0
 10
12.1205928218
 20
8.6811401129
 30
0.0
 10
12.1232974664
 20
8.6900928142
 30
0.0
 10
12.1259449404
 20
8.6993186654
 30
0.0
 10
12.1294342199
 20
8.7121154424
 30
0.0
 10
12.133623016
 20
8.7287237059
 30
0.0
 10
12.1383228413
 20
8.7493592887
 30
0.0
 10
12.1427304558
 20
8.7708304062
 30
0.0
 10
12.1468266879
 20
8.7930443376
 30
0.0
 10
12.1505937089
 20
8.8159052548
 30
0.0
 10
12.1540151431
 20
8.8393144554
 30
0.0
 10
12.1570761268
 20
8.8631708531
 30
0.0
 10
12.1597633737
 20
8.8873714067
 30
0.0
 10
12.1620652301
 20
8.911811575
 30
0.0
 10
12.163971725
 20
8.9363857718
 30
0.0
 10
12.1654746121
 20
8.9609878268
 30
0.0
 10
12.1665674069
 20
8.9855114478
 30
0.0
 10
12.167245415
 20
9.0098506842
 30
0.0
 10
12.1675057527
 20
9.0339003894
 30
0.0
 10
12.1673473604
 20
9.0575566781
 30
0.0
 10
12.1667710108
 20
9.0807173853
 30
0.0
 10
12.1657793026
 20
9.103282499
 30
0.0
 10
12.1643766714
 20
9.1251546552
 30
0.0
 10
12.1625693092
 20
9.1462393821
 30
0.0
 10
12.1607123406
 20
9.1632649985
 30
0.0
 10
12.1590222296
 20
9.1764193191
 30
0.0
 10
12.157673141
 20
9.1859210247
 30
0.0
 10
12.156229716
 20
9.1951600374
 30
0.0
 10
12.1546935254
 20
9.2041263982
 30
0.0
 10
12.1530662394
 20
9.212810432
 30
0.0
 10
12.1513496176
 20
9.2212027769
 30
0.0
 10
12.1495455519
 20
9.2292943901
 30
0.0
 10
12.1476559647
 20
9.2370765606
 30
0.0
 10
12.1456829591
 20
9.2445409157
 30
0.0
 10
12.1436286152
 20
9.2516794553
 30
0.0
 10
12.1414952377
 20
9.2584844576
 30
0.0
 10
12.1399891698
 20
9.2628893433
 30
0.0
 10
12.1392216584
 20
9.2650333306
 30
0.0
  0
SPLINE
  5
382
100
AcDbEntity
  8
0
100
AcDbSpline
 62
7
  6
CONTINUOUS
 70
0
 71
3
 72
18
 73
14
 74
0
 42
0.0000001
 43
0.0000001
 44
0.0000000001
 40
0.0
 40
0.0
 40
0.0
 40
0.0
 40
0.150467608
 40
0.291710008
 40
0.4244359371
 40
0.549562455
 40
0.6682139939
 40
0.7255497488
 40
0.7817912909
 40
0.8371402503
 40
0.8918093826
 40
0.9460201179
 40
1.0
 40
1.0
 40
1.0
 40
1.0
 10
12.2074073544
 20
8.363446622
 30
0.0
 10
12.2057393709
 20
8.3618354736
 30
0.0
 10
12.2024057723
 20
8.3588125445
 30
0.0
 10
12.1972437219
 20
8.3547839754
 30
0.0
 10
12.1920877345
 20
8.3514146834
 30
0.0
 10
12.1869431485
 20
8.3487101987
 30
0.0
 10
12.1826191805
 20
8.3469952502
 30
0.0
 10
12.179186141
 20
8.3459763304
 30
0.0
 10
12.1766479297
 20
8.3453890395
 30
0.0
 10
12.1741181392
 20
8.3449704622
 30
0.0
 10
12.1715974783
 20
8.3447207466
 30
0.0
 10
12.1690869495
 20
8.3446400228
 30
0.0
 10
12.1674190264
 20
8.3446990154
 30
0.0
 10
12.166589068
 20
8.3447565696
 30
0.0
  0
SPLINE
  5
383
100
AcDbEntity
  8
0
100
AcDbSpline
 62
7
  6
CONTINUOUS
 70
0
 71
3
 72
39
 73
35
 74
0
 42
0.0000001
 43
0.0000001
 44
0.0000000001
 40
0.0
 40
0.0
 40
0.0
 40
0.0
 40
0.0248516718
 40
0.0508785803
 40
0.0780238769
 40
0.1062259306
 40
0.1354188324
 40
0.1655328354
 40
0.19649475
 40
0.228228317
 40
0.2606545532
 40
0.2936920778
 40
0.327257428
 40
0.3612653661
 40
0.395629181
 40
0.4302609844
 40
0.4650720094
 40
0.4999729049
 40
0.5348740281
 40
0.5696857356
 40
0.6043186744
 40
0.6386840743
 40
0.6726940412
 40
0.7062618569
 40
0.7393022754
 40
0.7717318243
 40
0.8034691116
 40
0.8344351414
 40
0.8645536407
 40
0.8937514031
 40
0.9219586614
 40
0.9491094861
 40
0.9751422236
 40
1.0
 40
1.0
 40
1.0
 40
1.0
 10
12.0805961949
 20
8.6851346182
 30
0.0
 10
12.0820255222
 20
8.6891743025
 30
0.0
 10
12.0848372258
 20
8.6974855789
 30
0.0
 10
12.0888347253
 20
8.7103325632
 30
0.0
 10
12.09270154
 20
8.7238214745
 30
0.0
 10
12.0964269743
 20
8.7379153826
 30
0.0
 10
12.1000007709
 20
8.752575839
 30
0.0
 10
12.1034130803
 20
8.7677627665
 30
0.0
 10
12.1066545079
 20
8.7834346379
 30
0.0
 10
12.1097161313
 20
8.7995485781
 30
0.0
 10
12.112589527
 20
8.8160604908
 30
0.0
 10
12.115266792
 20
8.8329251809
 30
0.0
 10
12.1177405656
 20
8.8500964797
 30
0.0
 10
12.1200040489
 20
8.867527373
 30
0.0
 10
12.1220510226
 20
8.8851701305
 30
0.0
 10
12.1238758665
 20
8.9029764374
 30
0.0
 10
12.1254735738
 20
8.920897528
 30
0.0
 10
12.1268397633
 20
8.9388843214
 30
0.0
 10
12.1279706913
 20
8.956887556
 30
0.0
 10
12.1288632625
 20
8.9748579252
 30
0.0
 10
12.129515038
 20
8.9927462121
 30
0.0
 10
12.129924242
 20
9.0105034257
 30
0.0
 10
12.1300897678
 20
9.0280809354
 30
0.0
 10
12.130011183
 20
9.0454306063
 30
0.0
 10
12.1296887284
 20
9.0625049323
 30
0.0
 10
12.1291233181
 20
9.0792571664
 30
0.0
 10
12.1283165375
 20
9.0956414505
 30
0.0
 10
12.1272706393
 20
9.1116129425
 30
0.0
 10
12.1259885389
 20
9.1271279401
 30
0.0
 10
12.1244738053
 20
9.1421440099
 30
0.0
 10
12.1227306578
 20
9.1566200911
 30
0.0
 10
12.1207639451
 20
9.1705166791
 30
0.0
 10
12.1185791602
 20
9.1837957126
 30
0.0
 10
12.1169423738
 20
9.1924177785
 30
0.0
 10
12.1160847223
 20
9.1966172405
 30
0.0
  0
SPLINE
  5
384
100
AcDbEntity
  8
0
100
AcDbSpline
 62
7
  6
CONTINUOUS
 70
0
 71
3
 72
53
 73
49
 74
0
 42
0.0000001
 43
0.0000001
 44
0.0000000001
 40
0.0
 40
0.0
 40
0.0
 40
0.0
 40
0.0083901661
 40
0.0173439498
 40
0.0268686935
 40
0.0369669647
 40
0.0476378642
 40
0.0588775821
 40
0.0706796536
 40
0.0830354893
 40
0.0959344068
 40
0.109364142
 40
0.1233107386
 40
0.1377589302
 40
0.1526921245
 40
0.1680925514
 40
0.200217984
 40
0.233974145
 40
0.2691853768
 40
0.3056645326
 40
0.343214818
 40
0.3816315076
 40
0.4207035882
 40
0.4602153562
 40
0.4999479908
 40
0.5396811126
 40
0.5791943391
 40
0.6182688398
 40
0.6566888941
 40
0.6942434642
 40
0.7307277928
 40
0.7659450455
 40
0.7997080279
 40
0.8318410299
 40
0.84724551
 40
0.8621829052
 40
0.8766354646
 40
0.8905865563
 40
0.9040209255
 40
0.9169245893
 40
0.9292852689
 40
0.941092279
 40
0.9523369944
 40
0.9630129549
 40
0.973116262
 40
0.982646074
 40
0.9916049845
 40
1.0
 40
1.0
 40
1.0
 40
1.0
 10
12.1445167703
 20
7.4101200109
 30
0.0
 10
12.1452393569
 20
7.4110039968
 30
0.0
 10
12.1466789145
 20
7.4128760503
 30
0.0
 10
12.1487597853
 20
7.4158839789
 30
0.0
 10
12.1508288405
 20
7.4191779585
 30
0.0
 10
12.1528830601
 20
7.4227531686
 30
0.0
 10
12.1549194839
 20
7.4266045069
 30
0.0
 10
12.1569351225
 20
7.4307263847
 30
0.0
 10
12.1589270493
 20
7.4351128036
 30
0.0
 10
12.1608922781
 20
7.4397573669
 30
0.0
 10
12.1628279505
 20
7.4446532577
 30
0.0
 10
12.164731151
 20
7.4497932953
 30
0.0
 10
12.1665990942
 20
7.4551699127
 30
0.0
 10
12.1684289793
 20
7.4607751919
 30
0.0
 10
12.1702181177
 20
7.4666008742
 30
0.0
 10
12.1725790134
 20
7.4747661824
 30
0.0
 10
12.1754002446
 20
7.4854630615
 30
0.0
 10
12.1785373342
 20
7.498858927
 30
0.0
 10
12.1814531195
 20
7.5129102356
 30
0.0
 10
12.1841302066
 20
7.5275340008
 30
0.0
 10
12.1865526086
 20
7.542643942
 30
0.0
 10
12.1887058878
 20
7.558150808
 30
0.0
 10
12.1905772238
 20
7.5739629789
 30
0.0
 10
12.1921554908
 20
7.5899870017
 30
0.0
 10
12.1934313203
 20
7.6061281562
 30
0.0
 10
12.194397157
 20
7.622291021
 30
0.0
 10
12.1950473047
 20
7.6383800442
 30
0.0
 10
12.1953779583
 20
7.6543001164
 30
0.0
 10
12.1953872288
 20
7.6699571377
 30
0.0
 10
12.1950751581
 20
7.6852585873
 30
0.0
 10
12.1944437172
 20
7.7001140645
 30
0.0
 10
12.1934968211
 20
7.7144358944
 30
0.0
 10
12.1922402346
 20
7.7281394687
 30
0.0
 10
12.1909236898
 20
7.7391260416
 30
0.0
 10
12.1897133933
 20
7.7475413773
 30
0.0
 10
12.1887461671
 20
7.753560098
 30
0.0
 10
12.1877081564
 20
7.7593662269
 30
0.0
 10
12.1866008657
 20
7.7649512104
 30
0.0
 10
12.1854259896
 20
7.770306817
 30
0.0
 10
12.1841852327
 20
7.775425164
 30
0.0
 10
12.1828804913
 20
7.7802987338
 30
0.0
 10
12.1815136636
 20
7.7849203786
 30
0.0
 10
12.180086805
 20
7.7892833447
 30
0.0
 10
12.1786020093
 20
7.7933812834
 30
0.0
 10
12.1770614455
 20
7.7972082429
 30
0.0
 10
12.1754673533
 20
7.8007587749
 30
0.0
 10
12.1738220298
 20
7.8040276484
 30
0.0
 10
12.1726549756
 20
7.8060822275
 30
0.0
 10
12.1720614863
 20
7.8070583629
 30
0.0
  0
SPLINE
  5
385
100
AcDbEntity
  8
0
100
AcDbSpline
 62
7
  6
CONTINUOUS
 70
0
 71
3
 72
13
 73
9
 74
0
 42
0.0000001
 43
0.0000001
 44
0.0000000001
 40
0.0
 40
0.0
 40
0.0
 40
0.0
 40
0.2757293155
 40
0.534719961
 40
0.6577287326
 40
0.7763173319
 40
0.8904240705
 40
1.0
 40
1.0
 40
1.0
 40
1.0
 10
10.5432367145
 20
7.5689053117
 30
0.0
 10
10.5422726389
 20
7.5660067583
 30
0.0
 10
10.5403213119
 20
7.5604122949
 30
0.0
 10
10.5376913533
 20
7.5536149546
 30
0.0
 10
10.5355395093
 20
7.5485033034
 30
0.0
 10
10.5339356613
 20
7.5449034267
 30
0.0
 10
10.5323156105
 20
7.541474715
 30
0.0
 10
10.5312031146
 20
7.5392600441
 30
0.0
 10
10.5306437481
 20
7.5381826575
 30
0.0
  0
SPLINE
  5
386
100
AcDbEntity
  8
0
100
AcDbSpline
 62
7
  6
CONTINUOUS
 70
0
 71
3
 72
62
 73
58
 74
0
 42
0.0000001
 43
0.0000001
 44
0.0000000001
 40
0.0
 40
0.0
 40
0.0
 40
0.0
 40
0.0156667121
 40
0.0313829209
 40
0.0471463709
 40
0.0629565845
 40
0.0788116505
 40
0.0947095368
 40
0.1106478989
 40
0.1266240287
 40
0.1586698697
 40
0.1908276714
 40
0.2230670084
 40
0.2553549804
 40
0.2876572182
 40
0.3199389261
 40
0.3521659225
 40
0.3843056825
 40
0.416328328
 40
0.4322911561
 40
0.4482152056
 40
0.4640978954
 40
0.4799369719
 40
0.4957305264
 40
0.5114770127
 40
0.5271752676
 40
0.5428245218
 40
0.5584244072
 40
0.5739749643
 40
0.5894766498
 40
0.6049303347
 40
0.6203372977
 40
0.6356992196
 40
0.6510181758
 40
0.6662966188
 40
0.6815373577
 40
0.6967435375
 40
0.7119186158
 40
0.7270663315
 40
0.7421906707
 40
0.7572958331
 40
0.7723861963
 40
0.7874662741
 40
0.8025406743
 40
0.8176140566
 40
0.8326910918
 40
0.8477764169
 40
0.8628745916
 40
0.8779900556
 40
0.8931270915
 40
0.9082897847
 40
0.9234819856
 40
0.9387072758
 40
0.9539689395
 40
0.9692699387
 40
0.984612885
 40
1.0
 40
1.0
 40
1.0
 40
1.0
 10
10.0810549862
 20
9.3311017582
 30
0.0
 10
10.076505073
 20
9.3314172957
 30
0.0
 10
10.0674039332
 20
9.3322569707
 30
0.0
 10
10.053803369
 20
9.3341341663
 30
0.0
 10
10.0402594074
 20
9.3366273844
 30
0.0
 10
10.0268008418
 20
9.3397311918
 30
0.0
 10
10.0134554464
 20
9.3434392513
 30
0.0
 10
10.0002511816
 20
9.3477437138
 30
0.0
 10
9.9872152462
 20
9.3526357447
 30
0.0
 10
9.9700801051
 20
9.3599343093
 30
0.0
 10
9.949219064
 20
9.3704766064
 30
0.0
 10
9.925316118
 20
9.3852689862
 30
0.0
 10
9.9027098314
 20
9.4020956343
 30
0.0
 10
9.8815892717
 20
9.4208159027
 30
0.0
 10
9.8621296262
 20
9.4412743464
 30
0.0
 10
9.8444927266
 20
9.4633007328
 30
0.0
 10
9.8288251631
 20
9.4867124571
 30
0.0
 10
9.8152577859
 20
9.5113136385
 30
0.0
 10
9.805783929
 20
9.5326638273
 30
0.0
 10
9.7993629112
 20
9.550131007
 30
0.0
 10
9.7951385758
 20
9.5633852897
 30
0.0
 10
9.7915103428
 20
9.5767774364
 30
0.0
 10
9.7884856323
 20
9.5902798434
 30
0.0
 10
9.7860708173
 20
9.6038642974
 30
0.0
 10
9.7842709654
 20
9.6175025136
 30
0.0
 10
9.7830898246
 20
9.6311660576
 30
0.0
 10
9.7825298719
 20
9.6448264529
 30
0.0
 10
9.7825923141
 20
9.6584552248
 30
0.0
 10
9.7832770643
 20
9.6720239583
 30
0.0
 10
9.7845826903
 20
9.685504363
 30
0.0
 10
9.7865064908
 20
9.6988683305
 30
0.0
 10
9.7890444995
 20
9.7120879869
 30
0.0
 10
9.7921914585
 20
9.7251357537
 30
0.0
 10
9.7959408002
 20
9.7379844182
 30
0.0
 10
9.8002847261
 20
9.7506071756
 30
0.0
 10
9.8052142195
 20
9.7629776784
 30
0.0
 10
9.8107190174
 20
9.7750701078
 30
0.0
 10
9.8167876287
 20
9.7868592367
 30
0.0
 10
9.8234074087
 20
9.7983204593
 30
0.0
 10
9.8305645817
 20
9.8094298363
 30
0.0
 10
9.8382442154
 20
9.8201641791
 30
0.0
 10
9.8464302736
 20
9.8305010921
 30
0.0
 10
9.8551056817
 20
9.8404189963
 30
0.0
 10
9.8642523594
 20
9.8498971674
 30
0.0
 10
9.8738512042
 20
9.8589158314
 30
0.0
 10
9.8838821697
 20
9.8674561791
 30
0.0
 10
9.8943243228
 20
9.8755003849
 30
0.0
 10
9.9051558831
 20
9.8830316404
 30
0.0
 10
9.9163542243
 20
9.8900342541
 30
0.0
 10
9.9278959638
 20
9.8964936343
 30
0.0
 10
9.9397570157
 20
9.9023963072
 30
0.0
 10
9.9519126315
 20
9.9077299455
 30
0.0
 10
9.964337435
 20
9.9124834646
 30
0.0
 10
9.9770054676
 20
9.9166469717
 30
0.0
 10
9.9898904031
 20
9.9202118063
 30
0.0
 10
10.0029649785
 20
9.9231704678
 30
0.0
 10
10.0117775233
 20
9.9247325668
 30
0.0
 10
10.0162052837
 20
9.9254110759
 30
0.0
  0
SPLINE
  5
387
100
AcDbEntity
  8
0
100
AcDbSpline
 62
7
  6
CONTINUOUS
 70
0
 71
3
 72
56
 73
52
 74
0
 42
0.0000001
 43
0.0000001
 44
0.0000000001
 40
0.0
 40
0.0
 40
0.0
 40
0.0
 40
0.0313645969
 40
0.062916346
 40
0.0946445102
 40
0.1265322402
 40
0.1585580613
 40
0.1906963928
 40
0.2229183331
 40
0.255192545
 40
0.2874861737
 40
0.3197658022
 40
0.3519984208
 40
0.3841523795
 40
0.4161983219
 40
0.4481100677
 40
0.4798654195
 40
0.495682531
 40
0.5114544218
 40
0.5271797424
 40
0.5428575084
 40
0.5584871065
 40
0.574068303
 40
0.5896012553
 40
0.6050865101
 40
0.6205249992
 40
0.6359180409
 40
0.6512673328
 40
0.6665749367
 40
0.6818432643
 40
0.6970750652
 40
0.7122734021
 40
0.7274416236
 40
0.7425833416
 40
0.7577024013
 40
0.7728028459
 40
0.7878888809
 40
0.8029648415
 40
0.818035153
 40
0.8331042891
 40
0.8481767335
 40
0.8632569425
 40
0.8783493034
 40
0.8934580936
 40
0.908587446
 40
0.9237413144
 40
0.9389234366
 40
0.9541373022
 40
0.9693861268
 40
0.9846728281
 40
1.0
 40
1.0
 40
1.0
 40
1.0
 10
10.1084897824
 20
9.3793650096
 30
0.0
 10
10.1002115061
 20
9.3799391101
 30
0.0
 10
10.0836479267
 20
9.381833913
 30
0.0
 10
10.0590866887
 20
9.3868614832
 30
0.0
 10
10.0349207454
 20
9.3940429139
 30
0.0
 10
10.011345629
 20
9.4033201956
 30
0.0
 10
9.9885488695
 20
9.4146188255
 30
0.0
 10
9.966712624
 20
9.4278482825
 30
0.0
 10
9.9460110413
 20
9.4429026179
 30
0.0
 10
9.9266093977
 20
9.4596615617
 30
0.0
 10
9.9086624787
 20
9.4779911591
 30
0.0
 10
9.8923136181
 20
9.4977451001
 30
0.0
 10
9.877693395
 20
9.5187657179
 30
0.0
 10
9.8649186764
 20
9.5408851544
 30
0.0
 10
9.8540916993
 20
9.563927263
 30
0.0
 10
9.8452993767
 20
9.5877068348
 30
0.0
 10
9.8397184829
 20
9.6080116357
 30
0.0
 10
9.836338194
 20
9.624430728
 30
0.0
 10
9.8343507502
 20
9.6367941817
 30
0.0
 10
9.8329122719
 20
9.6491961502
 30
0.0
 10
9.8320255429
 20
9.6616120909
 30
0.0
 10
9.8316924037
 20
9.6740170743
 30
0.0
 10
9.8319135568
 20
9.6863862826
 30
0.0
 10
9.8326885432
 20
9.6986949424
 30
0.0
 10
9.8340158321
 20
9.7109184084
 30
0.0
 10
9.8358928253
 20
9.7230321932
 30
0.0
 10
9.8383157617
 20
9.7350120331
 30
0.0
 10
9.8412797885
 20
9.7468339343
 30
0.0
 10
9.844779012
 20
9.7584742056
 30
0.0
 10
9.8488064579
 20
9.7699095143
 30
0.0
 10
9.8533540386
 20
9.7811169556
 30
0.0
 10
9.858412662
 20
9.7920740682
 30
0.0
 10
9.8639722422
 20
9.8027588709
 30
0.0
 10
9.8700216263
 20
9.813149955
 30
0.0
 10
9.8765486866
 20
9.8232265002
 30
0.0
 10
9.8835403738
 20
9.8329682907
 30
0.0
 10
9.8909826916
 20
9.8423557851
 30
0.0
 10
9.8988606977
 20
9.8513701862
 30
0.0
 10
9.9071586093
 20
9.859993421
 30
0.0
 10
9.9158598223
 20
9.8682081742
 30
0.0
 10
9.9249468722
 20
9.8759980005
 30
0.0
 10
9.9344015328
 20
9.8833473012
 30
0.0
 10
9.944204868
 20
9.8902413272
 30
0.0
 10
9.9543372269
 20
9.8966662571
 30
0.0
 10
9.9647782763
 20
9.9026092533
 30
0.0
 10
9.9755070883
 20
9.9080584105
 30
0.0
 10
9.9865021781
 20
9.913002787
 30
0.0
 10
9.9977414666
 20
9.9174325134
 30
0.0
 10
10.0092025121
 20
9.9213387616
 30
0.0
 10
10.0208620237
 20
9.9247136272
 30
0.0
 10
10.0287417962
 20
9.9266023601
 30
0.0
 10
10.032705986
 20
9.9274563072
 30
0.0
  0
SPLINE
  5
388
100
AcDbEntity
  8
0
100
AcDbSpline
 62
7
  6
CONTINUOUS
 70
0
 71
3
 72
39
 73
35
 74
0
 42
0.0000001
 43
0.0000001
 44
0.0000000001
 40
0.0
 40
0.0
 40
0.0
 40
0.0
 40
0.0311450264
 40
0.062443103
 40
0.0938883509
 40
0.1254709879
 40
0.1571788856
 40
0.1889972606
 40
0.2209091751
 40
0.2528958436
 40
0.2849370235
 40
0.3170114144
 40
0.3490970746
 40
0.381171845
 40
0.4132137769
 40
0.445201556
 40
0.4771149182
 40
0.508935051
 40
0.5406449742
 40
0.5722298939
 40
0.6036775233
 40
0.6349783634
 40
0.6661259345
 40
0.6971169551
 40
0.7279514584
 40
0.7586328417
 40
0.7891678438
 40
0.8195664441
 40
0.8498416857
 40
0.8800094177
 40
0.9100879638
 40
0.9400977202
 40
0.9700606954
 40
1.0
 40
1.0
 40
1.0
 40
1.0
 10
10.1167639627
 20
9.4182369435
 30
0.0
 10
10.1107610688
 20
9.4186532456
 30
0.0
 10
10.0987517863
 20
9.4199272805
 30
0.0
 10
10.0808834556
 20
9.4231366265
 30
0.0
 10
10.0632065113
 20
9.4276319415
 30
0.0
 10
10.0458164212
 20
9.4333890791
 30
0.0
 10
10.0288055757
 20
9.4403771583
 30
0.0
 10
10.0122647125
 20
9.4485588126
 30
0.0
 10
9.9962819481
 20
9.4578903142
 30
0.0
 10
9.9809424488
 20
9.4683218432
 30
0.0
 10
9.9663279455
 20
9.4797977389
 30
0.0
 10
9.9525163112
 20
9.4922567958
 30
0.0
 10
9.9395811464
 20
9.5056325856
 30
0.0
 10
9.9275913951
 20
9.5198538132
 30
0.0
 10
9.9166109803
 20
9.5348446916
 30
0.0
 10
9.9066984666
 20
9.5505253415
 30
0.0
 10
9.8979067507
 20
9.5668122126
 30
0.0
 10
9.8902827813
 20
9.5836185228
 30
0.0
 10
9.8838673095
 20
9.6008547148
 30
0.0
 10
9.8786946719
 20
9.6184289272
 30
0.0
 10
9.8747925993
 20
9.6362474757
 30
0.0
 10
9.8721820708
 20
9.6542153484
 30
0.0
 10
9.8708771991
 20
9.6722367056
 30
0.0
 10
9.8708851485
 20
9.6902153845
 30
0.0
 10
9.872206089
 20
9.7080554065
 30
0.0
 10
9.8748331855
 20
9.7256614854
 30
0.0
 10
9.8787526225
 20
9.7429395337
 30
0.0
 10
9.8839436686
 20
9.7597971675
 30
0.0
 10
9.8903787639
 20
9.7761441964
 30
0.0
 10
9.898023684
 20
9.7918931451
 30
0.0
 10
9.9068376024
 20
9.8069596169
 30
0.0
 10
9.9167737395
 20
9.8212631743
 30
0.0
 10
9.927777978
 20
9.8347262322
 30
0.0
 10
9.9357905348
 20
9.8430966891
 30
0.0
 10
9.9399509551
 20
9.8471153652
 30
0.0
  0
SPLINE
  5
389
100
AcDbEntity
  8
0
100
AcDbSpline
 62
7
  6
CONTINUOUS
 70
0
 71
3
 72
72
 73
68
 74
0
 42
0.0000001
 43
0.0000001
 44
0.0000000001
 40
0.0
 40
0.0
 40
0.0
 40
0.0
 40
0.0150731506
 40
0.0301542118
 40
0.0452482997
 40
0.0603603958
 40
0.0679253284
 40
0.0754965422
 40
0.0906588089
 40
0.1058527252
 40
0.1210822532
 40
0.1363509967
 40
0.1516621677
 40
0.1670185574
 40
0.182422513
 40
0.1978759183
 40
0.2133801802
 40
0.2289362196
 40
0.2445444679
 40
0.2602048678
 40
0.2759168786
 40
0.2916794863
 40
0.3074912167
 40
0.3233501535
 40
0.339253959
 40
0.3551998985
 40
0.3711848671
 40
0.3872054202
 40
0.4032578051
 40
0.4193379956
 40
0.4354417277
 40
0.451564537
 40
0.4677017972
 40
0.4838487596
 40
0.5000005937
 40
0.5161524279
 40
0.5322993904
 40
0.548436651
 40
0.5645594611
 40
0.5806631945
 40
0.5967433867
 40
0.6127957735
 40
0.6288163286
 40
0.6448012992
 40
0.6607472406
 40
0.6766510482
 40
0.6925099874
 40
0.7083217205
 40
0.724084331
 40
0.739796345
 40
0.755456748
 40
0.7710649993
 40
0.7866210413
 40
0.8021253057
 40
0.8175787134
 40
0.8329826716
 40
0.8483390639
 40
0.8636502375
 40
0.8789189836
 40
0.8941485139
 40
0.9093424321
 40
0.9245047003
 40
0.9396396017
 40
0.9547516986
 40
0.9698457872
 40
0.984926849
 40
1.0
 40
1.0
 40
1.0
 40
1.0
 10
9.7310688083
 20
9.9753386146
 30
0.0
 10
9.7258921642
 20
9.970062202
 30
0.0
 10
9.7158075461
 20
9.9592363728
 30
0.0
 10
9.7015367888
 20
9.9422323482
 30
0.0
 10
9.6881514557
 20
9.9244985976
 30
0.0
 10
9.677764365
 20
9.909151725
 30
0.0
 10
9.6699289454
 20
9.8965548512
 30
0.0
 10
9.6624068327
 20
9.883739879
 30
0.0
 10
9.653611057
 20
9.8673417874
 30
0.0
 10
9.64405925
 20
9.8471198479
 30
0.0
 10
9.6355270806
 20
9.8263903002
 30
0.0
 10
9.6280346109
 20
9.8052018736
 30
0.0
 10
9.6215992337
 20
9.7836039572
 30
0.0
 10
9.6162359344
 20
9.7616469972
 30
0.0
 10
9.611957176
 20
9.7393822409
 30
0.0
 10
9.6087728927
 20
9.716861654
 30
0.0
 10
9.6066904637
 20
9.6941377889
 30
0.0
 10
9.605714695
 20
9.6712636656
 30
0.0
 10
9.6058478067
 20
9.6482926466
 30
0.0
 10
9.6070894351
 20
9.6252783126
 30
0.0
 10
9.6094366334
 20
9.6022743376
 30
0.0
 10
9.6128838793
 20
9.579334365
 30
0.0
 10
9.6174230894
 20
9.556511883
 30
0.0
 10
9.6230436381
 20
9.5338601006
 30
0.0
 10
9.6297323829
 20
9.511431825
 30
0.0
 10
9.637473696
 20
9.489279339
 30
0.0
 10
9.6462494967
 20
9.4674542788
 30
0.0
 10
9.6560392947
 20
9.4460075134
 30
0.0
 10
9.6668202418
 20
9.4249890288
 30
0.0
 10
9.6785671841
 20
9.404447811
 30
0.0
 10
9.6912527209
 20
9.3844317335
 30
0.0
 10
9.7048472684
 20
9.3649874461
 30
0.0
 10
9.7193191281
 20
9.346160267
 30
0.0
 10
9.7346345604
 20
9.3279940776
 30
0.0
 10
9.7507578634
 20
9.3105312214
 30
0.0
 10
9.7676514513
 20
9.2938124017
 30
0.0
 10
9.7852759454
 20
9.2778765891
 30
0.0
 10
9.8035902662
 20
9.2627609323
 30
0.0
 10
9.822551729
 20
9.2485006721
 30
0.0
 10
9.842116142
 20
9.2351290592
 30
0.0
 10
9.8622379095
 20
9.2226772775
 30
0.0
 10
9.8828701367
 20
9.2111743713
 30
0.0
 10
9.9039647387
 20
9.2006471783
 30
0.0
 10
9.9254725518
 20
9.1911202665
 30
0.0
 10
9.947343445
 20
9.182615872
 30
0.0
 10
9.9695264396
 20
9.1751538516
 30
0.0
 10
9.9919698266
 20
9.168751637
 30
0.0
 10
10.0146212868
 20
9.1634241939
 30
0.0
 10
10.0374280114
 20
9.1591839866
 30
0.0
 10
10.0603368247
 20
9.1560409488
 30
0.0
 10
10.0832943068
 20
9.1540024594
 30
0.0
 10
10.1062469175
 20
9.1530733251
 30
0.0
 10
10.1291411207
 20
9.1532557665
 30
0.0
 10
10.1519235089
 20
9.1545494077
 30
0.0
 10
10.1745409283
 20
9.1569512825
 30
0.0
 10
10.1969406021
 20
9.1604558388
 30
0.0
 10
10.2190702533
 20
9.1650549512
 30
0.0
 10
10.2408782268
 20
9.170737938
 30
0.0
 10
10.2623136105
 20
9.1774915852
 30
0.0
 10
10.2833263539
 20
9.1853001753
 30
0.0
 10
10.3038673869
 20
9.1941455249
 30
0.0
 10
10.3238887321
 20
9.2040070179
 30
0.0
 10
10.3433436376
 20
9.2148616685
 30
0.0
 10
10.3621866173
 20
9.2266841187
 30
0.0
 10
10.3803738111
 20
9.2394469205
 30
0.0
 10
10.3978621505
 20
9.2531197644
 30
0.0
 10
10.4090310016
 20
9.2628231292
 30
0.0
 10
10.4144836475
 20
9.2678138035
 30
0.0
  0
SPLINE
  5
38A
100
AcDbEntity
  8
0
100
AcDbSpline
 62
7
  6
CONTINUOUS
 70
0
 71
3
 72
42
 73
38
 74
0
 42
0.0000001
 43
0.0000001
 44
0.0000000001
 40
0.0
 40
0.0
 40
0.0
 40
0.0
 40
0.0310915467
 40
0.0466954741
 40
0.0623352514
 40
0.0937162261
 40
0.1252304853
 40
0.1568670734
 40
0.1886126778
 40
0.220452002
 40
0.2523680294
 40
0.2843423555
 40
0.3163555248
 40
0.3483873852
 40
0.3804174502
 40
0.4124252655
 40
0.4443907749
 40
0.4762946816
 40
0.5081187994
 40
0.5398463905
 40
0.571462483
 40
0.6029541642
 40
0.6343108447
 40
0.6655244863
 40
0.6965897898
 40
0.7275043358
 40
0.7582686734
 40
0.7888863534
 40
0.8193638993
 40
0.8497107159
 40
0.8648413504
 40
0.8799440698
 40
0.9100683165
 40
0.9401054434
 40
0.955099757
 40
0.9700794486
 40
1.0
 40
1.0
 40
1.0
 40
1.0
 10
10.2435809433
 20
9.6054497817
 30
0.0
 10
10.2393224356
 20
9.6057451103
 30
0.0
 10
10.2329394206
 20
9.6064135783
 30
0.0
 10
10.224484229
 20
9.607746174
 30
0.0
 10
10.2160406982
 20
9.6093773372
 30
0.0
 10
10.205564645
 20
9.6119681032
 30
0.0
 10
10.1931974792
 20
9.6159374186
 30
0.0
 10
10.1810798314
 20
9.6207511914
 30
0.0
 10
10.1692719636
 20
9.6263854797
 30
0.0
 10
10.1578321364
 20
9.632812372
 30
0.0
 10
10.146816912
 20
9.6400000369
 30
0.0
 10
10.1362807187
 20
9.6479129008
 30
0.0
 10
10.1262756281
 20
9.6565118182
 30
0.0
 10
10.1168510892
 20
9.6657542648
 30
0.0
 10
10.1080536889
 20
9.6755945462
 30
0.0
 10
10.0999269236
 20
9.6859840216
 30
0.0
 10
10.0925109858
 20
9.6968713417
 30
0.0
 10
10.0858425673
 20
9.7082027005
 30
0.0
 10
10.0799546785
 20
9.7199220982
 30
0.0
 10
10.0748764862
 20
9.7319716148
 30
0.0
 10
10.0706331697
 20
9.7442916931
 30
0.0
 10
10.0672457959
 20
9.7568214295
 30
0.0
 10
10.0647312135
 20
9.7694988712
 30
0.0
 10
10.0631019689
 20
9.7822613193
 30
0.0
 10
10.0623662394
 20
9.7950456322
 30
0.0
 10
10.0625277942
 20
9.8077885467
 30
0.0
 10
10.0635859523
 20
9.8204269412
 30
0.0
 10
10.0655356488
 20
9.8328983213
 30
0.0
 10
10.0683672006
 20
9.8451404793
 30
0.0
 10
10.0714537668
 20
9.8551121406
 30
0.0
 10
10.0743480577
 20
9.8629114513
 30
0.0
 10
10.0775161308
 20
9.8705705815
 30
0.0
 10
10.0819935097
 20
9.8798948269
 30
0.0
 10
10.0871452707
 20
9.8888470404
 30
0.0
 10
10.0916504454
 20
9.8957476354
 30
0.0
 10
10.0964016481
 20
9.9024611003
 30
0.0
 10
10.1002454656
 20
9.9072903965
 30
0.0
 10
10.1029230589
 20
9.9104058189
 30
0.0
  0
SPLINE
  5
38B
100
AcDbEntity
  8
0
100
AcDbSpline
 62
7
  6
CONTINUOUS
 70
0
 71
3
 72
74
 73
70
 74
0
 42
0.0000001
 43
0.0000001
 44
0.0000000001
 40
0.0
 40
0.0
 40
0.0
 40
0.0
 40
0.0150796165
 40
0.0226217633
 40
0.0301659281
 40
0.0452616642
 40
0.0603733479
 40
0.0679374023
 40
0.07550732
 40
0.0906658275
 40
0.1058547159
 40
0.1210782217
 40
0.1363402202
 40
0.1516441883
 40
0.1669931721
 40
0.1823897591
 40
0.1978360569
 40
0.2133336761
 40
0.2288837198
 40
0.2444867773
 40
0.2601429245
 40
0.2758517276
 40
0.2916122527
 40
0.3074230793
 40
0.3232823183
 40
0.3391876337
 40
0.3551362677
 40
0.3711250693
 40
0.3871505257
 40
0.4032087962
 40
0.4192957488
 40
0.4354069978
 40
0.451537944
 40
0.4676838156
 40
0.4838397105
 40
0.5000006389
 40
0.5161615675
 40
0.5323174627
 40
0.5484633347
 40
0.5645942813
 40
0.5807055306
 40
0.5967924834
 40
0.612850754
 40
0.6288762104
 40
0.6448650123
 40
0.6608136468
 40
0.676718963
 40
0.6925782029
 40
0.7083890303
 40
0.7241495561
 40
0.7398583597
 40
0.7555145073
 40
0.7711175652
 40
0.7866676091
 40
0.8021652288
 40
0.8176115272
 40
0.833008115
 40
0.8483570996
 40
0.8636610685
 40
0.8789230676
 40
0.8941465738
 40
0.9093354625
 40
0.92449397
 40
0.9396266517
 40
0.9547383353
 40
0.9698340716
 40
0.9773782367
 40
0.9849203833
 40
1.0
 40
1.0
 40
1.0
 40
1.0
 10
10.4145889125
 20
9.2677003896
 30
0.0
 10
10.4091868466
 20
9.2624823807
 30
0.0
 10
10.4008747622
 20
9.2548658072
 30
0.0
 10
10.389404735
 20
9.2451593534
 30
0.0
 10
10.3776770965
 20
9.2357523656
 30
0.0
 10
10.3625501967
 20
9.2245690445
 30
0.0
 10
10.3468494708
 20
9.2141887957
 30
0.0
 10
10.3339657305
 20
9.2063792343
 30
0.0
 10
10.3208622351
 20
9.1988971952
 30
0.0
 10
10.304100023
 20
9.1901773602
 30
0.0
 10
10.2834382905
 20
9.1807585772
 30
0.0
 10
10.2622689148
 20
9.1724019927
 30
0.0
 10
10.240643289
 20
9.1651279068
 30
0.0
 10
10.2186134719
 20
9.1589537545
 30
0.0
 10
10.196232604
 20
9.1538943813
 30
0.0
 10
10.1735546328
 20
9.1499619238
 30
0.0
 10
10.1506342217
 20
9.1471658051
 30
0.0
 10
10.1275266072
 20
9.145512706
 30
0.0
 10
10.1042874692
 20
9.1450065495
 30
0.0
 10
10.0809727949
 20
9.145648496
 30
0.0
 10
10.057638745
 20
9.1474369418
 30
0.0
 10
10.0343415185
 20
9.1503675242
 30
0.0
 10
10.0111372188
 20
9.1544331328
 30
0.0
 10
9.9880817186
 20
9.1596239276
 30
0.0
 10
9.9652305269
 20
9.1659273637
 30
0.0
 10
9.9426386558
 20
9.1733282214
 30
0.0
 10
9.9203604895
 20
9.1818086441
 30
0.0
 10
9.8984496535
 20
9.1913481804
 30
0.0
 10
9.8769588853
 20
9.2019238307
 30
0.0
 10
9.855939909
 20
9.2135101069
 30
0.0
 10
9.8354433121
 20
9.2260790931
 30
0.0
 10
9.8155184238
 20
9.2396005128
 30
0.0
 10
9.7962131978
 20
9.2540418021
 30
0.0
 10
9.7775740971
 20
9.2693681869
 30
0.0
 10
9.759645983
 20
9.2855427669
 30
0.0
 10
9.7424720077
 20
9.3025266041
 30
0.0
 10
9.726093511
 20
9.3202788155
 30
0.0
 10
9.7105499212
 20
9.3387566712
 30
0.0
 10
9.6958786572
 20
9.3579156948
 30
0.0
 10
9.6821150421
 20
9.3777097725
 30
0.0
 10
9.6692922184
 20
9.3980912636
 30
0.0
 10
9.6574410683
 20
9.4190111143
 30
0.0
 10
9.6465901397
 20
9.4404189754
 30
0.0
 10
9.6367655781
 20
9.4622633224
 30
0.0
 10
9.627991063
 20
9.484491579
 30
0.0
 10
9.6202877517
 20
9.5070502423
 30
0.0
 10
9.6136742275
 20
9.5298850115
 30
0.0
 10
9.6081664552
 20
9.5529409169
 30
0.0
 10
9.603777738
 20
9.5761624512
 30
0.0
 10
9.6005186893
 20
9.5994937039
 30
0.0
 10
9.5983972061
 20
9.6228784943
 30
0.0
 10
9.5974184496
 20
9.6462605064
 30
0.0
 10
9.5975848317
 20
9.6695834237
 30
0.0
 10
9.5988960081
 20
9.6927910641
 30
0.0
 10
9.6013488781
 20
9.7158275143
 30
0.0
 10
9.6049375909
 20
9.7386372647
 30
0.0
 10
9.6096535578
 20
9.7611653426
 30
0.0
 10
9.6154854718
 20
9.7833574447
 30
0.0
 10
9.6224193291
 20
9.8051600697
 30
0.0
 10
9.6304384662
 20
9.8265206478
 30
0.0
 10
9.6395235965
 20
9.8473876654
 30
0.0
 10
9.6496528633
 20
9.8677107996
 30
0.0
 10
9.6608018632
 20
9.8874410073
 30
0.0
 10
9.6729438093
 20
9.9065307682
 30
0.0
 10
9.6860492035
 20
9.9249337429
 30
0.0
 10
9.6977501192
 20
9.9396641971
 30
0.0
 10
9.7075578511
 20
9.9510587791
 30
0.0
 10
9.7176559505
 20
9.962185565
 30
0.0
 10
9.7255559917
 20
9.9702287135
 30
0.0
 10
9.7309580697
 20
9.97544671
 30
0.0
  0
SPLINE
  5
38C
100
AcDbEntity
  8
0
100
AcDbSpline
 62
7
  6
CONTINUOUS
 70
0
 71
3
 72
41
 73
37
 74
0
 42
0.0000001
 43
0.0000001
 44
0.0000000001
 40
0.0
 40
0.0
 40
0.0
 40
0.0
 40
0.030908881
 40
0.0619470658
 40
0.0931100443
 40
0.1243923039
 40
0.1557860979
 40
0.1872822881
 40
0.2188702004
 40
0.2505378922
 40
0.2822722962
 40
0.3140594192
 40
0.3458845386
 40
0.3777324082
 40
0.4095874695
 40
0.4414340651
 40
0.4732566539
 40
0.5050400243
 40
0.5367695053
 40
0.5684311714
 40
0.6000120408
 40
0.6315002635
 40
0.6628852981
 40
0.6941580736
 40
0.7253111352
 40
0.7563387697
 40
0.787237111
 40
0.8180042194
 40
0.8486401356
 40
0.8639113287
 40
0.8791506557
 40
0.9095323236
 40
0.9397948954
 40
0.9548858538
 40
0.9699501501
 40
1.0
 40
1.0
 40
1.0
 40
1.0
 10
10.2389344734
 20
9.536244602
 30
0.0
 10
10.2338731027
 20
9.5365956093
 30
0.0
 10
10.223748144
 20
9.53761125
 30
0.0
 10
10.2086530577
 20
9.5400598833
 30
0.0
 10
10.1936728116
 20
9.5434277735
 30
0.0
 10
10.1788650543
 20
9.5477019413
 30
0.0
 10
10.1642857438
 20
9.5528661582
 30
0.0
 10
10.1499902632
 20
9.5589007312
 30
0.0
 10
10.136032828
 20
9.565782721
 30
0.0
 10
10.1224663893
 20
9.5734859615
 30
0.0
 10
10.1093424072
 20
9.5819811885
 30
0.0
 10
10.0967106635
 20
9.591236139
 30
0.0
 10
10.0846190735
 20
9.6012156771
 30
0.0
 10
10.073113506
 20
9.6118819256
 30
0.0
 10
10.0622376103
 20
9.6231944088
 30
0.0
 10
10.0520326521
 20
9.6351102052
 30
0.0
 10
10.0425373578
 20
9.6475841095
 30
0.0
 10
10.0337877689
 20
9.6605688022
 30
0.0
 10
10.0258171056
 20
9.6740150283
 30
0.0
 10
10.0186556414
 20
9.6878717823
 30
0.0
 10
10.0123305884
 20
9.7020864998
 30
0.0
 10
10.006865994
 20
9.7166052554
 30
0.0
 10
10.0022826503
 20
9.7313729662
 30
0.0
 10
9.9985980141
 20
9.7463335958
 30
0.0
 10
9.9958261417
 20
9.7614303765
 30
0.0
 10
9.993977628
 20
9.7766059788
 30
0.0
 10
9.9930595881
 20
9.7918028894
 30
0.0
 10
9.9930755414
 20
9.8069630262
 30
0.0
 10
9.9938682108
 20
9.8195325554
 30
0.0
 10
9.9949688334
 20
9.8295103155
 30
0.0
 10
9.996375848
 20
9.8394073615
 30
0.0
 10
9.9987102828
 20
9.851651497
 30
0.0
 10
10.0018109612
 20
9.8636993539
 30
0.0
 10
10.0047414186
 20
9.8731754064
 30
0.0
 10
10.0079629071
 20
9.8825191939
 30
0.0
 10
10.0107142192
 20
9.8894016763
 30
0.0
 10
10.0126929012
 20
9.8939199272
 30
0.0
  0
SPLINE
  5
38D
100
AcDbEntity
  8
0
100
AcDbSpline
 62
7
  6
CONTINUOUS
 70
0
 71
3
 72
37
 73
33
 74
0
 42
0.0000001
 43
0.0000001
 44
0.0000000001
 40
0.0
 40
0.0
 40
0.0
 40
0.0
 40
0.0639290678
 40
0.1274756213
 40
0.1591172255
 40
0.1906690341
 40
0.2221345216
 40
0.2535176954
 40
0.2848232533
 40
0.3160565193
 40
0.3472233842
 40
0.3783302827
 40
0.4093841414
 40
0.4403923168
 40
0.4713625396
 40
0.5023028594
 40
0.5332215732
 40
0.5641271532
 40
0.5950281832
 40
0.6259332883
 40
0.6568510564
 40
0.6877899677
 40
0.7187583305
 40
0.74976421
 40
0.7808153561
 40
0.8119191473
 40
0.8430825352
 40
0.8743119833
 40
0.9056134151
 40
0.9369921816
 40
0.9684530176
 40
1.0
 40
1.0
 40
1.0
 40
1.0
 10
10.0810549862
 20
9.3311017582
 30
0.0
 10
10.0896475984
 20
9.3305058585
 30
0.0
 10
10.1068414121
 20
9.3300540782
 30
0.0
 10
10.1282683019
 20
9.3313637751
 30
0.0
 10
10.1452105647
 20
9.3335335201
 30
0.0
 10
10.1577806869
 20
9.3357143459
 30
0.0
 10
10.1702067222
 20
9.3384467823
 30
0.0
 10
10.1824655947
 20
9.3417257563
 30
0.0
 10
10.19453422
 20
9.345545084
 30
0.0
 10
10.2063899509
 20
9.3498976139
 30
0.0
 10
10.2180104966
 20
9.3547752277
 30
0.0
 10
10.2293740392
 20
9.3601687472
 30
0.0
 10
10.2404592386
 20
9.3660680412
 30
0.0
 10
10.2512452507
 20
9.3724620723
 30
0.0
 10
10.2617118081
 20
9.3793388362
 30
0.0
 10
10.2718392645
 20
9.386685393
 30
0.0
 10
10.2816085822
 20
9.3944879627
 30
0.0
 10
10.2910013841
 20
9.4027319141
 30
0.0
 10
10.3000000502
 20
9.4114017283
 30
0.0
 10
10.3085876786
 20
9.4204811182
 30
0.0
 10
10.3167481058
 20
9.4299530541
 30
0.0
 10
10.3244660226
 20
9.4397997206
 30
0.0
 10
10.3317269542
 20
9.4500026035
 30
0.0
 10
10.3385172425
 20
9.460542551
 30
0.0
 10
10.344824132
 20
9.4713997619
 30
0.0
 10
10.3506358211
 20
9.4825538173
 30
0.0
 10
10.3559413968
 20
9.4939837673
 30
0.0
 10
10.3607308749
 20
9.5056681597
 30
0.0
 10
10.3649953085
 20
9.5175850054
 30
0.0
 10
10.3687267309
 20
9.5297120072
 30
0.0
 10
10.3719180533
 20
9.542026078
 30
0.0
 10
10.3736792429
 20
9.5503339
 30
0.0
 10
10.3744682573
 20
9.5545103918
 30
0.0
  0
SPLINE
  5
38E
100
AcDbEntity
  8
0
100
AcDbSpline
 62
7
  6
CONTINUOUS
 70
0
 71
3
 72
23
 73
19
 74
0
 42
0.0000001
 43
0.0000001
 44
0.0000000001
 40
0.0
 40
0.0
 40
0.0
 40
0.0
 40
0.0639782293
 40
0.1275901188
 40
0.190847892
 40
0.2537718981
 40
0.3163926739
 40
0.3787494904
 40
0.440889377
 40
0.5028658331
 40
0.5647372676
 40
0.6265652661
 40
0.6884127366
 40
0.7503419919
 40
0.8124128679
 40
0.8746809323
 40
0.9371958526
 40
1.0
 40
1.0
 40
1.0
 40
1.0
 10
10.1084897824
 20
9.3793650096
 30
0.0
 10
10.1161059812
 20
9.3788368245
 30
0.0
 10
10.131345818
 20
9.3784077063
 30
0.0
 10
10.1541102697
 20
9.3796668486
 30
0.0
 10
10.1765651964
 20
9.3828218354
 30
0.0
 10
10.1985544957
 20
9.3878517487
 30
0.0
 10
10.2199275656
 20
9.3947223753
 30
0.0
 10
10.240537321
 20
9.4033869062
 30
0.0
 10
10.2602419764
 20
9.4137861608
 30
0.0
 10
10.2789058895
 20
9.4258488626
 30
0.0
 10
10.2964005767
 20
9.439492185
 30
0.0
 10
10.3126055608
 20
9.454622386
 30
0.0
 10
10.3274093153
 20
9.4711353415
 30
0.0
 10
10.3407100753
 20
9.4889173857
 30
0.0
 10
10.3524164066
 20
9.5078459538
 30
0.0
 10
10.3624481556
 20
9.5277912744
 30
0.0
 10
10.3707361569
 20
9.5486139832
 30
0.0
 10
10.3750518683
 20
9.5629547424
 30
0.0
 10
10.3769032835
 20
9.5702168447
 30
0.0
  0
SPLINE
  5
38F
100
AcDbEntity
  8
0
100
AcDbSpline
 62
7
  6
CONTINUOUS
 70
0
 71
3
 72
19
 73
15
 74
0
 42
0.0000001
 43
0.0000001
 44
0.0000000001
 40
0.0
 40
0.0
 40
0.0
 40
0.0
 40
0.0616069466
 40
0.1232669933
 40
0.1849975118
 40
0.2468152637
 40
0.3087362519
 40
0.3707755521
 40
0.4329472193
 40
0.4952641775
 40
0.6203454921
 40
0.7461307544
 40
0.8726718179
 40
1.0
 40
1.0
 40
1.0
 40
1.0
 10
10.3624898841
 20
9.641705987
 30
0.0
 10
10.3604509726
 20
9.6400726441
 30
0.0
 10
10.3562923567
 20
9.636901831
 30
0.0
 10
10.349831189
 20
9.6324476029
 30
0.0
 10
10.3431569661
 20
9.6283021558
 30
0.0
 10
10.3362832879
 20
9.6244739051
 30
0.0
 10
10.3292238499
 20
9.6209705246
 30
0.0
 10
10.3219928911
 20
9.6177990399
 30
0.0
 10
10.3146047106
 20
9.6149657215
 30
0.0
 10
10.3045534231
 20
9.6116428692
 30
0.0
 10
10.2916626269
 20
9.6083630225
 30
0.0
 10
10.2758326595
 20
9.605861904
 30
0.0
 10
10.2597464945
 20
9.6048083994
 30
0.0
 10
10.2489674022
 20
9.6050762295
 30
0.0
 10
10.2435809433
 20
9.6054497817
 30
0.0
  0
SPLINE
  5
390
100
AcDbEntity
  8
0
100
AcDbSpline
 62
7
  6
CONTINUOUS
 70
0
 71
3
 72
23
 73
19
 74
0
 42
0.0000001
 43
0.0000001
 44
0.0000000001
 40
0.0
 40
0.0
 40
0.0
 40
0.0
 40
0.0638611429
 40
0.1275033697
 40
0.1909230193
 40
0.2541276602
 40
0.3171224166
 40
0.3799159195
 40
0.4425188183
 40
0.5049436681
 40
0.5672049987
 40
0.6293190785
 40
0.6913037901
 40
0.7531784362
 40
0.8149635271
 40
0.8766805602
 40
0.9383517934
 40
1.0
 40
1.0
 40
1.0
 40
1.0
 10
10.1167639627
 20
9.4182369435
 30
0.0
 10
10.1208674408
 20
9.4179523663
 30
0.0
 10
10.1290760019
 20
9.4175883559
 30
0.0
 10
10.1413782174
 20
9.4176616458
 30
0.0
 10
10.1536191078
 20
9.4183551287
 30
0.0
 10
10.1657672703
 20
9.4196669376
 30
0.0
 10
10.1777923826
 20
9.4215939292
 30
0.0
 10
10.1896640817
 20
9.4241312383
 30
0.0
 10
10.2013524958
 20
9.4272724948
 30
0.0
 10
10.2128281851
 20
9.431009827
 30
0.0
 10
10.2240622342
 20
9.4353338654
 30
0.0
 10
10.2350263368
 20
9.4402337505
 30
0.0
 10
10.2456928731
 20
9.4456971403
 30
0.0
 10
10.256034972
 20
9.4517102966
 30
0.0
 10
10.2660265397
 20
9.4582580756
 30
0.0
 10
10.275642472
 20
9.4653240888
 30
0.0
 10
10.2848582144
 20
9.4728902139
 30
0.0
 10
10.2907209624
 20
9.4782560919
 30
0.0
 10
10.2935769703
 20
9.4810147966
 30
0.0
  0
SPLINE
  5
391
100
AcDbEntity
  8
0
100
AcDbSpline
 62
7
  6
CONTINUOUS
 70
0
 71
3
 72
27
 73
23
 74
0
 42
0.0000001
 43
0.0000001
 44
0.0000000001
 40
0.0
 40
0.0
 40
0.0
 40
0.0
 40
0.0616468919
 40
0.092480324
 40
0.1233223738
 40
0.1850380873
 40
0.2468218549
 40
0.2777487728
 40
0.3087006876
 40
0.3706840776
 40
0.4327968309
 40
0.4950568274
 40
0.5574803452
 40
0.6200818953
 40
0.6828740866
 40
0.7143476821
 40
0.745872711
 40
0.809075826
 40
0.8724948563
 40
0.9042889874
 40
0.9361391032
 40
1.0
 40
1.0
 40
1.0
 40
1.0
 10
10.844895862
 20
7.0895567324
 30
0.0
 10
10.8382748418
 20
7.0831613111
 30
0.0
 10
10.8280813999
 20
7.0738317562
 30
0.0
 10
10.8140057938
 20
7.0619553238
 30
0.0
 10
10.799607904
 20
7.0504545103
 30
0.0
 10
10.781026512
 20
7.0368003714
 30
0.0
 10
10.7617295832
 20
7.0241545678
 30
0.0
 10
10.7458898966
 20
7.0146591191
 30
0.0
 10
10.7297765576
 20
7.0055750551
 30
0.0
 10
10.7091593337
 20
6.9950148503
 30
0.0
 10
10.6837417991
 20
6.983655742
 30
0.0
 10
10.6576981532
 20
6.9736313789
 30
0.0
 10
10.6310943192
 20
6.9649671831
 30
0.0
 10
10.6039976559
 20
6.9576849165
 30
0.0
 10
10.581079702
 20
6.9527867724
 30
0.0
 10
10.5625709402
 20
6.9495745448
 30
0.0
 10
10.5439248694
 20
6.9468308215
 30
0.0
 10
10.5204352005
 20
6.9442941872
 30
0.0
 10
10.4968068844
 20
6.942955695
 30
0.0
 10
10.4778346773
 20
6.9426018464
 30
0.0
 10
10.4587939923
 20
6.9427270219
 30
0.0
 10
10.4445081424
 20
6.9433605489
 30
0.0
 10
10.4349949897
 20
6.9440202883
 30
0.0
  0
SPLINE
  5
392
100
AcDbEntity
  8
0
100
AcDbSpline
 62
7
  6
CONTINUOUS
 70
0
 71
3
 72
9
 73
5
 74
0
 42
0.0000001
 43
0.0000001
 44
0.0000000001
 40
0.0
 40
0.0
 40
0.0
 40
0.0
 40
0.5020260923
 40
1.0
 40
1.0
 40
1.0
 40
1.0
 10
10.7585185291
 20
7.5018652233
 30
0.0
 10
10.7445959088
 20
7.5003062461
 30
0.0
 10
10.716714826
 20
7.4983977189
 30
0.0
 10
10.6887699904
 20
7.499004946
 30
0.0
 10
10.6749068004
 20
7.4999672711
 30
0.0
  0
SPLINE
  5
393
100
AcDbEntity
  8
0
100
AcDbSpline
 62
7
  6
CONTINUOUS
 70
0
 71
3
 72
15
 73
11
 74
0
 42
0.0000001
 43
0.0000001
 44
0.0000000001
 40
0.0
 40
0.0
 40
0.0
 40
0.0
 40
0.1265900298
 40
0.2527049743
 40
0.3783427108
 40
0.5035188411
 40
0.6282477624
 40
0.7525520016
 40
0.8764586557
 40
1.0
 40
1.0
 40
1.0
 40
1.0
 10
10.2389344734
 20
9.536244602
 30
0.0
 10
10.2434025002
 20
9.5359347433
 30
0.0
 10
10.2523405256
 20
9.5355581962
 30
0.0
 10
10.2657316509
 20
9.5357280452
 30
0.0
 10
10.2790435731
 20
9.5366332005
 30
0.0
 10
10.2922359102
 20
9.5382708867
 30
0.0
 10
10.3052694869
 20
9.5406363542
 30
0.0
 10
10.3181054365
 20
9.5437225999
 30
0.0
 10
10.3307049097
 20
9.5475202646
 30
0.0
 10
10.3389344452
 20
9.5505234604
 30
0.0
 10
10.3429956775
 20
9.5521393568
 30
0.0
  0
SPLINE
  5
394
100
AcDbEntity
  8
0
100
AcDbSpline
 62
7
  6
CONTINUOUS
 70
0
 71
3
 72
44
 73
40
 74
0
 42
0.0000001
 43
0.0000001
 44
0.0000000001
 40
0.0
 40
0.0
 40
0.0
 40
0.0
 40
0.0309671568
 40
0.0465035322
 40
0.0620729234
 40
0.0933053543
 40
0.1246614815
 40
0.1561328033
 40
0.1877089031
 40
0.2193777711
 40
0.2511259634
 40
0.2670270883
 40
0.2829424642
 40
0.3148043701
 40
0.3466989461
 40
0.3786093306
 40
0.410518425
 40
0.4424091502
 40
0.4742647025
 40
0.5060688067
 40
0.5378059633
 40
0.5694616882
 40
0.6010227404
 40
0.6324773359
 40
0.6638153441
 40
0.6950284645
 40
0.7261103788
 40
0.757056877
 40
0.7878659526
 40
0.818537865
 40
0.8490751652
 40
0.8642968339
 40
0.8794868474
 40
0.9097716404
 40
0.9399428962
 40
0.954991517
 40
0.9700161045
 40
0.9850183381
 40
1.0
 40
1.0
 40
1.0
 40
1.0
 10
10.622486339
 20
7.3704682098
 30
0.0
 10
10.6155039961
 20
7.370952437
 30
0.0
 10
10.6050379956
 20
7.3720169151
 30
0.0
 10
10.5911621853
 20
7.3740993636
 30
0.0
 10
10.577299707
 20
7.376630357
 30
0.0
 10
10.5600791095
 20
7.380624021
 30
0.0
 10
10.5396970386
 20
7.3867144876
 30
0.0
 10
10.5196583803
 20
7.3940830028
 30
0.0
 10
10.5000465075
 20
7.4026989504
 30
0.0
 10
10.4809428988
 20
7.4125263009
 30
0.0
 10
10.4655192521
 20
7.4216875002
 30
0.0
 10
10.4535113566
 20
7.4295784599
 30
0.0
 10
10.4417263906
 20
7.4378435031
 30
0.0
 10
10.4274572632
 20
7.4488471045
 30
0.0
 10
10.4111506287
 20
7.4630658018
 30
0.0
 10
10.3957197073
 20
7.4782461142
 30
0.0
 10
10.3812288085
 20
7.4943248892
 30
0.0
 10
10.3677378405
 20
7.5112356179
 30
0.0
 10
10.3553027212
 20
7.5289082586
 30
0.0
 10
10.3439749726
 20
7.5472696448
 30
0.0
 10
10.3338015549
 20
7.5662437534
 30
0.0
 10
10.3248246613
 20
7.5857520248
 30
0.0
 10
10.3170815463
 20
7.6057136833
 30
0.0
 10
10.3106043708
 20
7.6260460681
 30
0.0
 10
10.3054200687
 20
7.6466649731
 30
0.0
 10
10.3015502328
 20
7.6674849873
 30
0.0
 10
10.2990110273
 20
7.6884198624
 30
0.0
 10
10.2978131036
 20
7.7093828007
 30
0.0
 10
10.2979616034
 20
7.7302870566
 30
0.0
 10
10.2994559365
 20
7.7510453845
 30
0.0
 10
10.3018206707
 20
7.7681711045
 30
0.0
 10
10.3043780255
 20
7.7817093765
 30
0.0
 10
10.3073694446
 20
7.795099956
 30
0.0
 10
10.3119265165
 20
7.81159271
 30
0.0
 10
10.317567228
 20
7.8277134632
 30
0.0
 10
10.3227098868
 20
7.8403235916
 30
0.0
 10
10.3268749089
 20
7.8496234019
 30
0.0
 10
10.3313464354
 20
7.8587626932
 30
0.0
 10
10.3345309973
 20
7.8647464868
 30
0.0
 10
10.3361726267
 20
7.867708045
 30
0.0
  0
SPLINE
  5
395
100
AcDbEntity
  8
0
100
AcDbSpline
 62
7
  6
CONTINUOUS
 70
0
 71
3
 72
15
 73
11
 74
0
 42
0.0000001
 43
0.0000001
 44
0.0000000001
 40
0.0
 40
0.0
 40
0.0
 40
0.0
 40
0.1233719595
 40
0.2471196055
 40
0.3712982865
 40
0.4959554341
 40
0.6211296229
 40
0.7468505887
 40
0.8731368959
 40
1.0
 40
1.0
 40
1.0
 40
1.0
 10
10.7851725491
 20
7.4029049839
 30
0.0
 10
10.77902152
 20
7.3997682753
 30
0.0
 10
10.7664775193
 20
7.3939125745
 30
0.0
 10
10.7470706468
 20
7.3864401327
 30
0.0
 10
10.7271268412
 20
7.3802967442
 30
0.0
 10
10.7067332776
 20
7.3755093655
 30
0.0
 10
10.6859776372
 20
7.3720982803
 30
0.0
 10
10.6649491852
 20
7.3700781286
 30
0.0
 10
10.6437396186
 20
7.3694572837
 30
0.0
 10
10.6295693557
 20
7.369977001
 30
0.0
 10
10.622486339
 20
7.3704682098
 30
0.0
  0
SPLINE
  5
396
100
AcDbEntity
  8
0
100
AcDbSpline
 62
7
  6
CONTINUOUS
 70
0
 71
3
 72
44
 73
40
 74
0
 42
0.0000001
 43
0.0000001
 44
0.0000000001
 40
0.0
 40
0.0
 40
0.0
 40
0.0
 40
0.0309445492
 40
0.0464687702
 40
0.0620253827
 40
0.0932308929
 40
0.1245583569
 40
0.1559996451
 40
0.1875448166
 40
0.2191823986
 40
0.250899535
 40
0.2667853533
 40
0.2826857146
 40
0.3145189138
 40
0.346386923
 40
0.3782735096
 40
0.410162172
 40
0.4420363784
 40
0.4738798062
 40
0.5056765802
 40
0.5374115045
 40
0.5690702892
 40
0.600639766
 40
0.6321080928
 40
0.6634649425
 40
0.6947016744
 40
0.7258114845
 40
0.7567895327
 40
0.7876330422
 40
0.8183413708
 40
0.8489160487
 40
0.8641563378
 40
0.8793647834
 40
0.9096854229
 40
0.939889891
 40
0.9549536439
 40
0.969992216
 40
0.9850071289
 40
1.0
 40
1.0
 40
1.0
 40
1.0
 10
10.6218621863
 20
7.3611719917
 30
0.0
 10
10.6148116808
 20
7.3616609459
 30
0.0
 10
10.6042434317
 20
7.3627301368
 30
0.0
 10
10.5902299709
 20
7.364814434
 30
0.0
 10
10.5762290069
 20
7.3673442487
 30
0.0
 10
10.5588327917
 20
7.3713310156
 30
0.0
 10
10.5382338147
 20
7.3774053923
 30
0.0
 10
10.5179703468
 20
7.3847508172
 30
0.0
 10
10.4981239368
 20
7.3933377675
 30
0.0
 10
10.478774336
 20
7.4031315083
 30
0.0
 10
10.4631350636
 20
7.4122620162
 30
0.0
 10
10.4509474141
 20
7.4201276133
 30
0.0
 10
10.4389772543
 20
7.4283672566
 30
0.0
 10
10.4244666806
 20
7.4393393092
 30
0.0
 10
10.4078536065
 20
7.4535222799
 30
0.0
 10
10.3920982444
 20
7.4686711602
 30
0.0
 10
10.377264104
 20
7.4847249966
 30
0.0
 10
10.3634105013
 20
7.5016195573
 30
0.0
 10
10.3505929729
 20
7.5192871596
 30
0.0
 10
10.3388628806
 20
7.5376570538
 30
0.0
 10
10.3282672537
 20
7.5566556731
 30
0.0
 10
10.3188485887
 20
7.5762069342
 30
0.0
 10
10.3106446832
 20
7.5962325366
 30
0.0
 10
10.3036884835
 20
7.6166522741
 30
0.0
 10
10.2980079524
 20
7.6373843533
 30
0.0
 10
10.2936259556
 20
7.6583457137
 30
0.0
 10
10.290560171
 20
7.6794523744
 30
0.0
 10
10.2888230041
 20
7.7006197024
 30
0.0
 10
10.2884215793
 20
7.7217629889
 30
0.0
 10
10.289357544
 20
7.7427968974
 30
0.0
 10
10.2912513774
 20
7.7601843722
 30
0.0
 10
10.2934304678
 20
7.7739522649
 30
0.0
 10
10.2960437396
 20
7.7875853367
 30
0.0
 10
10.3001275879
 20
7.8044065619
 30
0.0
 10
10.3052964555
 20
7.8208923834
 30
0.0
 10
10.3100647702
 20
7.833816402
 30
0.0
 10
10.313951001
 20
7.8433619795
 30
0.0
 10
10.3181459781
 20
7.8527579986
 30
0.0
 10
10.321148027
 20
7.8589206952
 30
0.0
 10
10.3226989556
 20
7.8619735565
 30
0.0
  0
SPLINE
  5
397
100
AcDbEntity
  8
0
100
AcDbSpline
 62
7
  6
CONTINUOUS
 70
0
 71
3
 72
51
 73
47
 74
0
 42
0.0000001
 43
0.0000001
 44
0.0000000001
 40
0.0
 40
0.0
 40
0.0
 40
0.0
 40
0.0311429623
 40
0.0624390393
 40
0.0938821581
 40
0.1254627405
 40
0.1571685478
 40
0.1889848322
 40
0.2208946479
 40
0.2528792128
 40
0.2849182853
 40
0.3169905665
 40
0.3490741169
 40
0.3811467786
 40
0.413186604
 40
0.4451722806
 40
0.4770835444
 40
0.5089015852
 40
0.5406094235
 40
0.5721922667
 40
0.6036378301
 40
0.6349366131
 40
0.6505313541
 40
0.6660872357
 40
0.6816039492
 40
0.6970813947
 40
0.7125196809
 40
0.727919126
 40
0.7432802612
 40
0.7586038263
 40
0.7738907665
 40
0.789142231
 40
0.8043595683
 40
0.8195443173
 40
0.8346982008
 40
0.8498231194
 40
0.8649211391
 40
0.8799944797
 40
0.8950455049
 40
0.9100767091
 40
0.9250907018
 40
0.9400901927
 40
0.9550779784
 40
0.9700569243
 40
0.9850299475
 40
1.0
 40
1.0
 40
1.0
 40
1.0
 10
10.4349949897
 20
6.9440202883
 30
0.0
 10
10.4210786667
 20
6.9449853886
 30
0.0
 10
10.393237889
 20
6.9479389675
 30
0.0
 10
10.3518142687
 20
6.9553790431
 30
0.0
 10
10.3108343335
 20
6.9658004286
 30
0.0
 10
10.2705194178
 20
6.9791469985
 30
0.0
 10
10.2310836683
 20
6.9953472472
 30
0.0
 10
10.1927374891
 20
7.01431455
 30
0.0
 10
10.1556851107
 20
7.0359474732
 30
0.0
 10
10.1201240181
 20
7.0601305926
 30
0.0
 10
10.0862436399
 20
7.0867348039
 30
0.0
 10
10.0542245242
 20
7.1156182476
 30
0.0
 10
10.0242373117
 20
7.1466269367
 30
0.0
 10
9.9964417938
 20
7.1795955569
 30
0.0
 10
9.9709862317
 20
7.2143484691
 30
0.0
 10
9.9480063177
 20
7.2507004364
 30
0.0
 10
9.9276247471
 20
7.2884578024
 30
0.0
 10
9.9099503176
 20
7.3274193847
 30
0.0
 10
9.8950774997
 20
7.3673774606
 30
0.0
 10
9.8830859082
 20
7.4081194786
 30
0.0
 10
9.874039852
 20
7.4494267672
 30
0.0
 10
9.868990112
 20
7.4841848386
 30
0.0
 10
9.866469646
 20
7.5120488044
 30
0.0
 10
9.8653404391
 20
7.5329266074
 30
0.0
 10
9.8649719658
 20
7.5537788959
 30
0.0
 10
9.8653646467
 20
7.5745781659
 30
0.0
 10
9.8665180097
 20
7.5952965537
 30
0.0
 10
9.868430547
 20
7.6159064129
 30
0.0
 10
9.871099685
 20
7.6363802155
 30
0.0
 10
9.8745218751
 20
7.6566906205
 30
0.0
 10
9.8786925995
 20
7.6768104923
 30
0.0
 10
9.8836062798
 20
7.6967129584
 30
0.0
 10
9.88925635
 20
7.716371438
 30
0.0
 10
9.895635302
 20
7.7357596619
 30
0.0
 10
9.9027346405
 20
7.7548517208
 30
0.0
 10
9.9105448613
 20
7.7736221179
 30
0.0
 10
9.9190555483
 20
7.7920457721
 30
0.0
 10
9.9282553761
 20
7.8100980478
 30
0.0
 10
9.9381320355
 20
7.8277548338
 30
0.0
 10
9.9486723286
 20
7.844992543
 30
0.0
 10
9.9598622048
 20
7.8617881214
 30
0.0
 10
9.9716867264
 20
7.8781191251
 30
0.0
 10
9.9841300513
 20
7.8939637276
 30
0.0
 10
9.9971756431
 20
7.9093008251
 30
0.0
 10
10.0108058094
 20
7.9241096123
 30
0.0
 10
10.0202711739
 20
7.9336177759
 30
0.0
 10
10.0250941175
 20
7.9382763867
 30
0.0
  0
SPLINE
  5
398
100
AcDbEntity
  8
0
100
AcDbSpline
 62
7
  6
CONTINUOUS
 70
0
 71
3
 72
23
 73
19
 74
0
 42
0.0000001
 43
0.0000001
 44
0.0000000001
 40
0.0
 40
0.0
 40
0.0
 40
0.0
 40
0.0755961246
 40
0.1466389607
 40
0.2134646537
 40
0.2765132518
 40
0.3363252536
 40
0.3935454084
 40
0.448921428
 40
0.5032863451
 40
0.557524168
 40
0.6125254889
 40
0.6691415402
 40
0.7281473128
 40
0.7902179894
 40
0.8559226124
 40
0.9257258744
 40
1.0
 40
1.0
 40
1.0
 40
1.0
 10
12.2074073544
 20
7.334735556
 30
0.0
 10
12.2066291564
 20
7.3339838745
 30
0.0
 10
12.2050737889
 20
7.3325719838
 30
0.0
 10
12.2026667048
 20
7.3306857819
 30
0.0
 10
12.2002624378
 20
7.3291016416
 30
0.0
 10
12.1978632077
 20
7.3278219503
 30
0.0
 10
12.1954710156
 20
7.3268490153
 30
0.0
 10
12.193088322
 20
7.3261852402
 30
0.0
 10
12.1907182548
 20
7.3258329488
 30
0.0
 10
12.188364765
 20
7.3257938354
 30
0.0
 10
12.1860323687
 20
7.3260684351
 30
0.0
 10
12.1837256014
 20
7.3266559923
 30
0.0
 10
12.1814483534
 20
7.327554446
 30
0.0
 10
12.1792036868
 20
7.3287612648
 30
0.0
 10
12.1769938177
 20
7.3302735952
 30
0.0
 10
12.1748205928
 20
7.332088897
 30
0.0
 10
12.1726857022
 20
7.3342044172
 30
0.0
 10
12.1713326697
 20
7.335763153
 30
0.0
 10
12.1706619334
 20
7.3365878623
 30
0.0
  0
SPLINE
  5
399
100
AcDbEntity
  8
0
100
AcDbSpline
 62
7
  6
CONTINUOUS
 70
0
 71
3
 72
23
 73
19
 74
0
 42
0.0000001
 43
0.0000001
 44
0.0000000001
 40
0.0
 40
0.0
 40
0.0
 40
0.0
 40
0.0582556196
 40
0.1181062248
 40
0.1792321766
 40
0.2413375268
 40
0.3041590873
 40
0.367469436
 40
0.4310778662
 40
0.4948289105
 40
0.5585991885
 40
0.6222934617
 40
0.6858403266
 40
0.7491878132
 40
0.8122991764
 40
0.8751492021
 40
0.9377206257
 40
1.0
 40
1.0
 40
1.0
 40
1.0
 10
10.5981282444
 20
7.6545002562
 30
0.0
 10
10.5952555451
 20
7.6585388668
 30
0.0
 10
10.5894856888
 20
7.6667654734
 30
0.0
 10
10.580945624
 20
7.6793987866
 30
0.0
 10
10.5724928121
 20
7.6924828279
 30
0.0
 10
10.564225091
 20
7.7059823744
 30
0.0
 10
10.556230928
 20
7.7198610527
 30
0.0
 10
10.5485888966
 20
7.7340824892
 30
0.0
 10
10.5413677808
 20
7.7486110007
 30
0.0
 10
10.5346271145
 20
7.7634119785
 30
0.0
 10
10.5284179693
 20
7.7784519646
 30
0.0
 10
10.522783849
 20
7.7936985113
 30
0.0
 10
10.5177615612
 20
7.8091198942
 30
0.0
 10
10.5133819952
 20
7.8246847589
 30
0.0
 10
10.5096707668
 20
7.8403616894
 30
0.0
 10
10.5066487168
 20
7.8561190308
 30
0.0
 10
10.50433235
 20
7.8719237772
 30
0.0
 10
10.5032640855
 20
7.882495887
 30
0.0
 10
10.5028518851
 20
7.8877782337
 30
0.0
  0
SPLINE
  5
39A
100
AcDbEntity
  8
0
100
AcDbSpline
 62
7
  6
CONTINUOUS
 70
0
 71
3
 72
15
 73
11
 74
0
 42
0.0000001
 43
0.0000001
 44
0.0000000001
 40
0.0
 40
0.0
 40
0.0
 40
0.0
 40
0.1267579925
 40
0.2529785999
 40
0.3786697251
 40
0.5038468043
 40
0.6285335341
 40
0.7527611565
 40
0.8765682233
 40
1.0
 40
1.0
 40
1.0
 40
1.0
 10
10.6218621863
 20
7.3611719917
 30
0.0
 10
10.6286508739
 20
7.3607011946
 30
0.0
 10
10.6422317915
 20
7.3601736076
 30
0.0
 10
10.6625677318
 20
7.3606344523
 30
0.0
 10
10.6827524119
 20
7.3623473266
 30
0.0
 10
10.7027091386
 20
7.3653060166
 30
0.0
 10
10.7223631882
 20
7.369499481
 30
0.0
 10
10.7416409706
 20
7.3749122299
 30
0.0
 10
10.7604690995
 20
7.381523594
 30
0.0
 10
10.7726936003
 20
7.3867220629
 30
0.0
 10
10.7787043053
 20
7.3895114963
 30
0.0
  0
SPLINE
  5
39B
100
AcDbEntity
  8
0
100
AcDbSpline
 62
7
  6
CONTINUOUS
 70
0
 71
3
 72
91
 73
87
 74
0
 42
0.0000001
 43
0.0000001
 44
0.0000000001
 40
0.0
 40
0.0
 40
0.0
 40
0.0
 40
0.0027164146
 40
0.005453202
 40
0.008230252
 40
0.0110665198
 40
0.0139797053
 40
0.0169859824
 40
0.0200999174
 40
0.023334401
 40
0.0267007187
 40
0.0302086385
 40
0.0338665091
 40
0.0376814414
 40
0.0416593691
 40
0.0458052582
 40
0.0501231421
 40
0.0546162891
 40
0.0592872586
 40
0.064137982
 40
0.0691698666
 40
0.0743837897
 40
0.079780237
 40
0.0853592528
 40
0.0911205635
 40
0.0970635488
 40
0.1031872988
 40
0.1094906474
 40
0.1226297881
 40
0.1364673429
 40
0.1509860432
 40
0.166165828
 40
0.1819841602
 40
0.1984162836
 40
0.2154354412
 40
0.2330130641
 40
0.2511189358
 40
0.2697213391
 40
0.2887871904
 40
0.3082821639
 40
0.3281708096
 40
0.3484166635
 40
0.368982358
 40
0.3898297276
 40
0.4109199118
 40
0.4322134566
 40
0.4536704139
 40
0.4752504412
 40
0.4969128994
 40
0.5186169519
 40
0.5403216628
 40
0.5619860952
 40
0.5835694083
 40
0.6050309559
 40
0.6263303839
 40
0.6474277291
 40
0.6682835187
 40
0.688858872
 40
0.7091156002
 40
0.7290163102
 40
0.7485245085
 40
0.7676047097
 40
0.7862225487
 40
0.8043448976
 40
0.8219399925
 40
0.8389775679
 40
0.8554290014
 40
0.8712674776
 40
0.8864681732
 40
0.9010084737
 40
0.9148682315
 40
0.9280300795
 40
0.9343449284
 40
0.9404802779
 40
0.9464349254
 40
0.952207944
 40
0.9577987094
 40
0.9632068925
 40
0.9684325652
 40
0.9734761403
 40
0.9783384919
 40
0.9830209404
 40
0.9875254382
 40
0.9918545985
 40
0.9960115586
 40
1.0
 40
1.0
 40
1.0
 40
1.0
 10
12.2482256408
 20
9.5219292169
 30
0.0
 10
12.2493268037
 20
9.5218528558
 30
0.0
 10
12.2515317504
 20
9.5215999039
 30
0.0
 10
12.2548111061
 20
9.5209230012
 30
0.0
 10
12.2580656639
 20
9.5199486827
 30
0.0
 10
12.2612931412
 20
9.5186779855
 30
0.0
 10
12.2644918197
 20
9.5171119277
 30
0.0
 10
12.2676601148
 20
9.515251841
 30
0.0
 10
12.2707965182
 20
9.513098968
 30
0.0
 10
12.2738996673
 20
9.5106547227
 30
0.0
 10
12.2769682134
 20
9.5079205165
 30
0.0
 10
12.2800008155
 20
9.5048978312
 30
0.0
 10
12.2829961911
 20
9.5015882758
 30
0.0
 10
12.2859529526
 20
9.4979934854
 30
0.0
 10
12.2888698267
 20
9.494115297
 30
0.0
 10
12.2917454043
 20
9.4899555876
 30
0.0
 10
12.2945783839
 20
9.4855164344
 30
0.0
 10
12.2973673873
 20
9.4808000061
 30
0.0
 10
12.3001110729
 20
9.4758086299
 30
0.0
 10
12.3028081244
 20
9.470544776
 30
0.0
 10
12.3054571773
 20
9.4650110349
 30
0.0
 10
12.308056976
 20
9.4592101667
 30
0.0
 10
12.3106061731
 20
9.4531450364
 30
0.0
 10
12.313103549
 20
9.4468186767
 30
0.0
 10
12.3155478198
 20
9.4402342311
 30
0.0
 10
12.3179377737
 20
9.4333949938
 30
0.0
 10
12.3202722356
 20
9.4263043717
 30
0.0
 10
12.3233518896
 20
9.416382122
 30
0.0
 10
12.3270434125
 20
9.4033700259
 30
0.0
 10
12.3311748649
 20
9.387020378
 30
0.0
 10
12.3350586158
 20
9.3697592952
 30
0.0
 10
12.3386867847
 20
9.3516213793
 30
0.0
 10
12.3420519872
 20
9.3326428527
 30
0.0
 10
12.3451473759
 20
9.3128617357
 30
0.0
 10
12.3479666511
 20
9.2923176831
 30
0.0
 10
12.3505040745
 20
9.2710519169
 30
0.0
 10
12.3527544811
 20
9.24910713
 30
0.0
 10
12.3547132894
 20
9.2265273981
 30
0.0
 10
12.3563765105
 20
9.2033580869
 30
0.0
 10
12.3577407557
 20
9.1796457585
 30
0.0
 10
12.3588032424
 20
9.1554380767
 30
0.0
 10
12.3595618015
 20
9.1307837092
 30
0.0
 10
12.3600148804
 20
9.1057322282
 30
0.0
 10
12.3601615442
 20
9.0803340084
 30
0.0
 10
12.3600014782
 20
9.0546401251
 30
0.0
 10
12.3595349876
 20
9.0287022505
 30
0.0
 10
12.3587629972
 20
9.0025725499
 30
0.0
 10
12.357687049
 20
8.9763035761
 30
0.0
 10
12.3563092991
 20
8.9499481636
 30
0.0
 10
12.3546325152
 20
8.9235593214
 30
0.0
 10
12.3526600693
 20
8.8971901259
 30
0.0
 10
12.3503959302
 20
8.8708936133
 30
0.0
 10
12.3478446559
 20
8.8447226729
 30
0.0
 10
12.3450113845
 20
8.8187299408
 30
0.0
 10
12.3419018236
 20
8.7929676934
 30
0.0
 10
12.3385222391
 20
8.767487742
 30
0.0
 10
12.3348794435
 20
8.7423413274
 30
0.0
 10
12.3309807831
 20
8.7175790157
 30
0.0
 10
12.3268341218
 20
8.6932505957
 30
0.0
 10
12.3224478253
 20
8.669404979
 30
0.0
 10
12.3178307451
 20
8.6460901001
 30
0.0
 10
12.3129922003
 20
8.6233528192
 30
0.0
 10
12.3079419596
 20
8.6012388264
 30
0.0
 10
12.3026902212
 20
8.579792547
 30
0.0
 10
12.2972475938
 20
8.559057048
 30
0.0
 10
12.2916250755
 20
8.5390739475
 30
0.0
 10
12.2858340288
 20
8.5198833289
 30
0.0
 10
12.2798861576
 20
8.5015236487
 30
0.0
 10
12.2737934818
 20
8.484031674
 30
0.0
 10
12.2675683062
 20
8.4674423223
 30
0.0
 10
12.2612232005
 20
8.4517888421
 30
0.0
 10
12.2557737767
 20
8.4393845671
 30
0.0
 10
12.2513560889
 20
8.4299608525
 30
0.0
 10
12.2480665791
 20
8.423243947
 30
0.0
 10
12.2447566946
 20
8.4167834691
 30
0.0
 10
12.2414280657
 20
8.4105826437
 30
0.0
 10
12.2380823893
 20
8.4046445583
 30
0.0
 10
12.2347212943
 20
8.3989721867
 30
0.0
 10
12.2313465022
 20
8.3935683289
 30
0.0
 10
12.227959636
 20
8.3884356975
 30
0.0
 10
12.2245624317
 20
8.3835768256
 30
0.0
 10
12.2211565309
 20
8.3789941259
 30
0.0
 10
12.2177435803
 20
8.3746898351
 30
0.0
 10
12.214325183
 20
8.3706660337
 30
0.0
 10
12.2109031374
 20
8.3669249045
 30
0.0
 10
12.2085730445
 20
8.3645725922
 30
0.0
 10
12.2074073544
 20
8.363446622
 30
0.0
  0
SPLINE
  5
39C
100
AcDbEntity
  8
0
100
AcDbSpline
 62
7
  6
CONTINUOUS
 70
0
 71
3
 72
11
 73
7
 74
0
 42
0.0000001
 43
0.0000001
 44
0.0000000001
 40
0.0
 40
0.0
 40
0.0
 40
0.0
 40
0.2350140428
 40
0.480453998
 40
0.7356921492
 40
1.0
 40
1.0
 40
1.0
 40
1.0
 10
10.6038772843
 20
7.6187287546
 30
0.0
 10
10.6035708014
 20
7.621551055
 30
0.0
 10
10.602832508
 20
7.627308904
 30
0.0
 10
10.6014625095
 20
7.6360902171
 30
0.0
 10
10.5998702798
 20
7.6451931346
 30
0.0
 10
10.5987207042
 20
7.651362955
 30
0.0
 10
10.5981282444
 20
7.6545002562
 30
0.0
  0
SPLINE
  5
39D
100
AcDbEntity
  8
0
100
AcDbSpline
 62
7
  6
CONTINUOUS
 70
0
 71
3
 72
15
 73
11
 74
0
 42
0.0000001
 43
0.0000001
 44
0.0000000001
 40
0.0
 40
0.0
 40
0.0
 40
0.0
 40
0.1126277199
 40
0.2306373714
 40
0.3529832625
 40
0.4786611072
 40
0.6068098586
 40
0.7367419339
 40
0.867936988
 40
1.0
 40
1.0
 40
1.0
 40
1.0
 10
10.5432367145
 20
7.5689053117
 30
0.0
 10
10.5451774866
 20
7.5711341687
 30
0.0
 10
10.5492745089
 20
7.57559278
 30
0.0
 10
10.5558721771
 20
7.5820984121
 30
0.0
 10
10.563006191
 20
7.5885337861
 30
0.0
 10
10.5705886054
 20
7.5948570908
 30
0.0
 10
10.5785344231
 20
7.601045861
 30
0.0
 10
10.5867693183
 20
7.6070916848
 30
0.0
 10
10.5952318889
 20
7.612995277
 30
0.0
 10
10.6009781037
 20
7.6168304139
 30
0.0
 10
10.6038772843
 20
7.6187287546
 30
0.0
  0
SPLINE
  5
39E
100
AcDbEntity
  8
0
100
AcDbSpline
 62
7
  6
CONTINUOUS
 70
0
 71
3
 72
26
 73
22
 74
0
 42
0.0000001
 43
0.0000001
 44
0.0000000001
 40
0.0
 40
0.0
 40
0.0
 40
0.0
 40
0.063840691
 40
0.0956829557
 40
0.1274705652
 40
0.1908808981
 40
0.2540807421
 40
0.3170756223
 40
0.37987342
 40
0.4424838565
 40
0.5049185781
 40
0.567191
 40
0.6293162012
 40
0.6913107766
 40
0.7222672463
 40
0.7531978923
 40
0.8149862431
 40
0.8767011525
 40
0.907540202
 40
0.9383687733
 40
1.0
 40
1.0
 40
1.0
 40
1.0
 10
10.4432771925
 20
6.9520202823
 30
0.0
 10
10.45254304
 20
6.9513776936
 30
0.0
 10
10.4664570354
 20
6.9507516283
 30
0.0
 10
10.4850032846
 20
6.9505993057
 30
0.0
 10
10.5034854007
 20
6.9509014542
 30
0.0
 10
10.5265079412
 20
6.9521294006
 30
0.0
 10
10.5539584871
 20
6.9549644505
 30
0.0
 10
10.5811455691
 20
6.9591531453
 30
0.0
 10
10.608003835
 20
6.9646855173
 30
0.0
 10
10.6344692506
 20
6.9715484385
 30
0.0
 10
10.6604785292
 20
6.9797255564
 30
0.0
 10
10.6859696395
 20
6.9891974601
 30
0.0
 10
10.7108812609
 20
6.9999413476
 30
0.0
 10
10.7311194333
 20
7.0099387506
 30
0.0
 10
10.7469575622
 20
7.0185445174
 30
0.0
 10
10.7625409925
 20
7.0275435499
 30
0.0
 10
10.7815543962
 20
7.0395354104
 30
0.0
 10
10.7999057312
 20
7.0524947486
 30
0.0
 10
10.8141531735
 20
7.0634175625
 30
0.0
 10
10.8281004209
 20
7.0747011556
 30
0.0
 10
10.8382243753
 20
7.083571106
 30
0.0
 10
10.844811631
 20
7.0896545985
 30
0.0
  0
SPLINE
  5
39F
100
AcDbEntity
  8
0
100
AcDbSpline
 62
7
  6
CONTINUOUS
 70
0
 71
3
 72
18
 73
14
 74
0
 42
0.0000001
 43
0.0000001
 44
0.0000000001
 40
0.0
 40
0.0
 40
0.0
 40
0.0
 40
0.0510276607
 40
0.1039053117
 40
0.1585709851
 40
0.2149668429
 40
0.2730286631
 40
0.3326878268
 40
0.4565060588
 40
0.585816189
 40
0.7199662611
 40
0.8582662419
 40
1.0
 40
1.0
 40
1.0
 40
1.0
 10
10.5981282444
 20
7.6545002562
 30
0.0
 10
10.5959268241
 20
7.6551699242
 30
0.0
 10
10.5914292904
 20
7.6564850222
 30
0.0
 10
10.5845274562
 20
7.6583560513
 30
0.0
 10
10.5773575281
 20
7.6601584948
 30
0.0
 10
10.5699298801
 20
7.6618897395
 30
0.0
 10
10.5622549494
 20
7.6635473797
 30
0.0
 10
10.5515740455
 20
7.6656826051
 30
0.0
 10
10.5376831682
 20
7.6681410807
 30
0.0
 10
10.5204102015
 20
7.6707279103
 30
0.0
 10
10.5024311119
 20
7.6729716659
 30
0.0
 10
10.4838482257
 20
7.6748594362
 30
0.0
 10
10.4712592901
 20
7.6758628184
 30
0.0
 10
10.4648833131
 20
7.6763049939
 30
0.0
  0
SPLINE
  5
3A0
100
AcDbEntity
  8
0
100
AcDbSpline
 62
7
  6
CONTINUOUS
 70
0
 71
3
 72
86
 73
82
 74
0
 42
0.0000001
 43
0.0000001
 44
0.0000000001
 40
0.0
 40
0.0
 40
0.0
 40
0.0
 40
0.0039487674
 40
0.0077209355
 40
0.0113257336
 40
0.0147746617
 40
0.0212567992
 40
0.0243283615
 40
0.0273114634
 40
0.0302283474
 40
0.0331029463
 40
0.0359603569
 40
0.0388261651
 40
0.0417257185
 40
0.0446834111
 40
0.0477221074
 40
0.0508627303
 40
0.0541239774
 40
0.0575223294
 40
0.0610720098
 40
0.0647851791
 40
0.0686721212
 40
0.0727413593
 40
0.0769999812
 40
0.0814536943
 40
0.0861070657
 40
0.0909636836
 40
0.0960261794
 40
0.1012964876
 40
0.1067757995
 40
0.1124647125
 40
0.1183633248
 40
0.1244711751
 40
0.1373102774
 40
0.1509713791
 40
0.1654378435
 40
0.1806885687
 40
0.1966985913
 40
0.2134395426
 40
0.2308800489
 40
0.2489860598
 40
0.2677211165
 40
0.2870465817
 40
0.3069218359
 40
0.3273044875
 40
0.3481505568
 40
0.3694146428
 40
0.3910500793
 40
0.4130090872
 40
0.4577012019
 40
0.5030934579
 40
0.5487792776
 40
0.5943487452
 40
0.6393932599
 40
0.6615929578
 40
0.6835111963
 40
0.7050993657
 40
0.72630983
 40
0.7470960865
 40
0.7674129149
 40
0.7872165371
 40
0.8064647867
 40
0.8251173052
 40
0.8431357374
 40
0.8604839326
 40
0.8771281811
 40
0.8930374915
 40
0.908183938
 40
0.9225430468
 40
0.9360942774
 40
0.9488216435
 40
0.954873172
 40
0.9607153084
 40
0.9663477363
 40
0.9717706546
 40
0.9769848137
 40
0.9819915562
 40
0.9867931175
 40
0.9913924783
 40
0.9957932892
 40
1.0
 40
1.0
 40
1.0
 40
1.0
 10
12.2080921285
 20
7.8763034118
 30
0.0
 10
12.2086697935
 20
7.8768410133
 30
0.0
 10
12.2098246529
 20
7.877865447
 30
0.0
 10
12.2115965949
 20
7.8792753401
 30
0.0
 10
12.2133669528
 20
7.88052158
 30
0.0
 10
12.2156751068
 20
7.8819341946
 30
0.0
 10
12.2180300256
 20
7.8830607302
 30
0.0
 10
12.2204098557
 20
7.8838521425
 30
0.0
 10
12.2221564702
 20
7.8842676721
 30
0.0
 10
12.2238950468
 20
7.8845150301
 30
0.0
 10
12.2256243633
 20
7.8845938353
 30
0.0
 10
12.227342956
 20
7.8845038287
 30
0.0
 10
12.2290493715
 20
7.8842451453
 30
0.0
 10
12.2307421714
 20
7.8838180173
 30
0.0
 10
12.2324200536
 20
7.8832230495
 30
0.0
 10
12.2340818544
 20
7.8824609322
 30
0.0
 10
12.2357265258
 20
7.8815324311
 30
0.0
 10
12.2373531937
 20
7.8804384543
 30
0.0
 10
12.2389609741
 20
7.8791798152
 30
0.0
 10
12.2405490934
 20
7.8777574553
 30
0.0
 10
12.2421167608
 20
7.876172303
 30
0.0
 10
12.2436631546
 20
7.8744253229
 30
0.0
 10
12.2451875226
 20
7.8725176009
 30
0.0
 10
12.246689006
 20
7.8704502278
 30
0.0
 10
12.2481668161
 20
7.8682244337
 30
0.0
 10
12.2496201319
 20
7.8658415143
 30
0.0
 10
12.2510480998
 20
7.8633028472
 30
0.0
 10
12.2524499463
 20
7.8606099368
 30
0.0
 10
12.2538248144
 20
7.8577643451
 30
0.0
 10
12.255171924
 20
7.8547677556
 30
0.0
 10
12.256490481
 20
7.8516219366
 30
0.0
 10
12.2577796947
 20
7.848328735
 30
0.0
 10
12.2594869871
 20
7.8436660014
 30
0.0
 10
12.2615346159
 20
7.8374777594
 30
0.0
 10
12.2638239825
 20
7.8296160368
 30
0.0
 10
12.2659791888
 20
7.8212181113
 30
0.0
 10
12.267995039
 20
7.8123039489
 30
0.0
 10
12.2698666415
 20
7.8028946418
 30
0.0
 10
12.2715894604
 20
7.7930125721
 30
0.0
 10
12.2731593163
 20
7.7826812766
 30
0.0
 10
12.2745723977
 20
7.7719253963
 30
0.0
 10
12.2758252722
 20
7.7607706046
 30
0.0
 10
12.2769148935
 20
7.7492435479
 30
0.0
 10
12.2778386193
 20
7.7373717787
 30
0.0
 10
12.2785942069
 20
7.7251836858
 30
0.0
 10
12.2791798203
 20
7.7127084175
 30
0.0
 10
12.2795940259
 20
7.699975822
 30
0.0
 10
12.279835828
 20
7.6870163386
 30
0.0
 10
12.279928005
 20
7.669372967
 30
0.0
 10
12.2796043092
 20
7.6469818868
 30
0.0
 10
12.278533356
 20
7.6198680592
 30
0.0
 10
12.2767875278
 20
7.5926135327
 30
0.0
 10
12.2743835083
 20
7.5654790385
 30
0.0
 10
12.2718388369
 20
7.543075806
 30
0.0
 10
12.2694869157
 20
7.5254130722
 30
0.0
 10
12.2675831535
 20
7.5124207067
 30
0.0
 10
12.2655357221
 20
7.4996503819
 30
0.0
 10
12.2633495167
 20
7.4871326317
 30
0.0
 10
12.2610297991
 20
7.4748974066
 30
0.0
 10
12.2585821429
 20
7.4629739686
 30
0.0
 10
12.2560124328
 20
7.4513908317
 30
0.0
 10
12.2533268448
 20
7.440175688
 30
0.0
 10
12.2505318407
 20
7.4293553358
 30
0.0
 10
12.2476341496
 20
7.4189556116
 30
0.0
 10
12.2446407466
 20
7.4090013291
 30
0.0
 10
12.2415588377
 20
7.3995162189
 30
0.0
 10
12.2383958364
 20
7.3905228568
 30
0.0
 10
12.2351593539
 20
7.3820426145
 30
0.0
 10
12.2318571656
 20
7.3740955284
 30
0.0
 10
12.2284971901
 20
7.3667004788
 30
0.0
 10
12.2256092022
 20
7.3609189297
 30
0.0
 10
12.2232705134
 20
7.3565896149
 30
0.0
 10
12.2215366045
 20
7.3535461403
 30
0.0
 10
12.2197942622
 20
7.3506531577
 30
0.0
 10
12.2180445051
 20
7.347912379
 30
0.0
 10
12.2162884007
 20
7.3453254135
 30
0.0
 10
12.214526927
 20
7.3428937924
 30
0.0
 10
12.2127611191
 20
7.3406188986
 30
0.0
 10
12.2109919353
 20
7.338502065
 30
0.0
 10
12.2092205208
 20
7.3365446535
 30
0.0
 10
12.2080120092
 20
7.3353196077
 30
0.0
 10
12.2074073544
 20
7.334735556
 30
0.0
  0
SPLINE
  5
3A1
100
AcDbEntity
  8
0
100
AcDbSpline
 62
7
  6
CONTINUOUS
 70
0
 71
3
 72
11
 73
7
 74
0
 42
0.0000001
 43
0.0000001
 44
0.0000000001
 40
0.0
 40
0.0
 40
0.0
 40
0.0
 40
0.2446425078
 40
0.4923663247
 40
0.743927927
 40
1.0
 40
1.0
 40
1.0
 40
1.0
 10
10.8099580795
 20
7.4906248637
 30
0.0
 10
10.805669348
 20
7.4909903693
 30
0.0
 10
10.7970605378
 20
7.4920220774
 30
0.0
 10
10.7841859659
 20
7.4944272416
 30
0.0
 10
10.7712924141
 20
7.4976817139
 30
0.0
 10
10.7627730317
 20
7.5003827982
 30
0.0
 10
10.7585185291
 20
7.5018652233
 30
0.0
  0
SPLINE
  5
3A2
100
AcDbEntity
  8
0
100
AcDbSpline
 62
7
  6
CONTINUOUS
 70
0
 71
3
 72
50
 73
46
 74
0
 42
0.0000001
 43
0.0000001
 44
0.0000000001
 40
0.0
 40
0.0
 40
0.0
 40
0.0
 40
0.0311306613
 40
0.0624130346
 40
0.0938412426
 40
0.125405919
 40
0.1570951343
 40
0.1888945018
 40
0.2207874819
 40
0.2527557266
 40
0.2847794468
 40
0.3168377944
 40
0.3489092647
 40
0.3809721048
 40
0.4130047247
 40
0.4449861075
 40
0.476896213
 40
0.5087163639
 40
0.5404296187
 40
0.5720211168
 40
0.6034783892
 40
0.634791641
 40
0.665953979
 40
0.6814797641
 40
0.6969666598
 40
0.712414694
 40
0.727824097
 40
0.7431953046
 40
0.758528959
 40
0.7738259029
 40
0.7890871776
 40
0.8043140219
 40
0.8195078631
 40
0.8346703098
 40
0.8498031479
 40
0.8649083297
 40
0.8799879616
 40
0.8950442962
 40
0.9100797201
 40
0.9250967381
 40
0.940097961
 40
0.9550860921
 40
0.97006391
 40
0.9850342519
 40
1.0
 40
1.0
 40
1.0
 40
1.0
 10
10.4432771925
 20
6.9520202823
 30
0.0
 10
10.4294855669
 20
6.9529767348
 30
0.0
 10
10.4018944007
 20
6.955894716
 30
0.0
 10
10.36083713
 20
6.9632281341
 30
0.0
 10
10.3202117547
 20
6.9734905918
 30
0.0
 10
10.2802338001
 20
6.9866278664
 30
0.0
 10
10.2411118457
 20
7.0025707713
 30
0.0
 10
10.2030509161
 20
7.0212355964
 30
0.0
 10
10.1662501441
 20
7.0425243261
 30
0.0
 10
10.1309021378
 20
7.0663253094
 30
0.0
 10
10.0971919221
 20
7.0925138463
 30
0.0
 10
10.0652958771
 20
7.1209526767
 30
0.0
 10
10.0353809958
 20
7.1514929189
 30
0.0
 10
10.007603884
 20
7.1839746669
 30
0.0
 10
9.9821099641
 20
7.2182278689
 30
0.0
 10
9.9590328525
 20
7.2540732926
 30
0.0
 10
9.9384934357
 20
7.2913232942
 30
0.0
 10
9.9205994546
 20
7.3297829282
 30
0.0
 10
9.9054448616
 20
7.3692509299
 30
0.0
 10
9.8931092274
 20
7.4095205631
 30
0.0
 10
9.8836575577
 20
7.4503813997
 30
0.0
 10
9.8771397045
 20
7.4916179827
 30
0.0
 10
9.8741780059
 20
7.5261630893
 30
0.0
 10
9.8733080617
 20
7.5537654931
 30
0.0
 10
9.8734037906
 20
7.5744026399
 30
0.0
 10
9.8742469773
 20
7.5949708186
 30
0.0
 10
9.8758365309
 20
7.6154433863
 30
0.0
 10
9.8781703835
 20
7.6357933983
 30
0.0
 10
9.8812454521
 20
7.655994189
 30
0.0
 10
9.885057749
 20
7.676019248
 30
0.0
 10
9.8896023039
 20
7.6958423
 30
0.0
 10
9.894873126
 20
7.7154373461
 30
0.0
 10
9.9008633292
 20
7.7347786736
 30
0.0
 10
9.9075651037
 20
7.7538408898
 30
0.0
 10
9.9149696254
 20
7.772598994
 30
0.0
 10
9.9230671904
 20
7.7910283719
 30
0.0
 10
9.9318472274
 20
7.8091048162
 30
0.0
 10
9.9412981933
 20
7.8268046153
 30
0.0
 10
9.9514076806
 20
7.8441045484
 30
0.0
 10
9.9621624674
 20
7.8609818841
 30
0.0
 10
9.9735484404
 20
7.8774144792
 30
0.0
 10
9.9855506161
 20
7.8933807633
 30
0.0
 10
9.9981533467
 20
7.9088598372
 30
0.0
 10
10.0113398345
 20
7.9238310841
 30
0.0
 10
10.0205099244
 20
7.933461853
 30
0.0
 10
10.0251854709
 20
7.9381852011
 30
0.0
  0
SPLINE
  5
3A3
100
AcDbEntity
  8
0
100
AcDbSpline
 62
4
  6
CONTINUOUS
 70
0
 71
3
 72
615
 73
611
 74
0
 42
0.0000001
 43
0.0000001
 44
0.0000000001
 40
0.0
 40
0.0
 40
0.0
 40
0.0
 40
0.0078125
 40
0.015625
 40
0.0234375
 40
0.03125
 40
0.03515625
 40
0.0390625
 40
0.04296875
 40
0.046875
 40
0.05078125
 40
0.052734375
 40
0.0546875
 40
0.056640625
 40
0.0576171875
 40
0.05859375
 40
0.0595703125
 40
0.060546875
 40
0.0610351562
 40
0.0615234375
 40
0.0617675781
 40
0.0620117188
 40
0.0622558594
 40
0.0623779297
 40
0.0624389648
 40
0.0625
 40
0.0625610352
 40
0.0626220703
 40
0.0627441406
 40
0.0629882812
 40
0.0632324219
 40
0.0634765625
 40
0.0639648438
 40
0.064453125
 40
0.0654296875
 40
0.06640625
 40
0.0673828125
 40
0.068359375
 40
0.0703125
 40
0.072265625
 40
0.07421875
 40
0.078125
 40
0.08203125
 40
0.0859375
 40
0.08984375
 40
0.09375
 40
0.09765625
 40
0.1015625
 40
0.10546875
 40
0.109375
 40
0.11328125
 40
0.115234375
 40
0.1171875
 40
0.119140625
 40
0.1201171875
 40
0.12109375
 40
0.1220703125
 40
0.123046875
 40
0.1235351562
 40
0.1240234375
 40
0.1242675781
 40
0.1245117188
 40
0.1247558594
 40
0.1248779297
 40
0.1249389648
 40
0.125
 40
0.1250610352
 40
0.1251220703
 40
0.1252441406
 40
0.1254882812
 40
0.1257324219
 40
0.1259765625
 40
0.1264648438
 40
0.126953125
 40
0.1279296875
 40
0.12890625
 40
0.1298828125
 40
0.130859375
 40
0.1328125
 40
0.134765625
 40
0.13671875
 40
0.140625
 40
0.14453125
 40
0.1484375
 40
0.15234375
 40
0.15625
 40
0.16015625
 40
0.1640625
 40
0.16796875
 40
0.171875
 40
0.17578125
 40
0.177734375
 40
0.1796875
 40
0.181640625
 40
0.1826171875
 40
0.18359375
 40
0.1845703125
 40
0.185546875
 40
0.1860351562
 40
0.1865234375
 40
0.1867675781
 40
0.1870117188
 40
0.1872558594
 40
0.1873779297
 40
0.1874389648
 40
0.1875
 40
0.1875610352
 40
0.1876220703
 40
0.1877441406
 40
0.1879882812
 40
0.1882324219
 40
0.1884765625
 40
0.1889648438
 40
0.189453125
 40
0.1904296875
 40
0.19140625
 40
0.1923828125
 40
0.193359375
 40
0.1953125
 40
0.197265625
 40
0.19921875
 40
0.203125
 40
0.20703125
 40
0.2109375
 40
0.21484375
 40
0.21875
 40
0.22265625
 40
0.2265625
 40
0.23046875
 40
0.234375
 40
0.23828125
 40
0.240234375
 40
0.2421875
 40
0.244140625
 40
0.2451171875
 40
0.24609375
 40
0.2470703125
 40
0.248046875
 40
0.2485351562
 40
0.2490234375
 40
0.2492675781
 40
0.2495117188
 40
0.2497558594
 40
0.2498779297
 40
0.2499389648
 40
0.25
 40
0.2500610352
 40
0.2501220703
 40
0.2502441406
 40
0.2504882812
 40
0.2507324219
 40
0.2509765625
 40
0.2514648438
 40
0.251953125
 40
0.2529296875
 40
0.25390625
 40
0.2548828125
 40
0.255859375
 40
0.2578125
 40
0.259765625
 40
0.26171875
 40
0.265625
 40
0.26953125
 40
0.2734375
 40
0.27734375
 40
0.28125
 40
0.28515625
 40
0.2890625
 40
0.29296875
 40
0.296875
 40
0.30078125
 40
0.302734375
 40
0.3046875
 40
0.306640625
 40
0.3076171875
 40
0.30859375
 40
0.3095703125
 40
0.310546875
 40
0.3110351562
 40
0.3115234375
 40
0.3117675781
 40
0.3120117188
 40
0.3122558594
 40
0.3123779297
 40
0.3124389648
 40
0.3125
 40
0.3125610352
 40
0.3126220703
 40
0.3127441406
 40
0.3129882812
 40
0.3132324219
 40
0.3134765625
 40
0.3139648438
 40
0.314453125
 40
0.3154296875
 40
0.31640625
 40
0.3173828125
 40
0.318359375
 40
0.3203125
 40
0.322265625
 40
0.32421875
 40
0.328125
 40
0.33203125
 40
0.3359375
 40
0.33984375
 40
0.34375
 40
0.34765625
 40
0.3515625
 40
0.35546875
 40
0.359375
 40
0.36328125
 40
0.365234375
 40
0.3671875
 40
0.369140625
 40
0.3701171875
 40
0.37109375
 40
0.3720703125
 40
0.373046875
 40
0.3735351562
 40
0.3740234375
 40
0.3742675781
 40
0.3745117188
 40
0.3747558594
 40
0.3748779297
 40
0.3749389648
 40
0.375
 40
0.3750610352
 40
0.3751220703
 40
0.3752441406
 40
0.3754882812
 40
0.3757324219
 40
0.3759765625
 40
0.3764648438
 40
0.376953125
 40
0.3779296875
 40
0.37890625
 40
0.3798828125
 40
0.380859375
 40
0.3828125
 40
0.384765625
 40
0.38671875
 40
0.390625
 40
0.39453125
 40
0.3984375
 40
0.40234375
 40
0.40625
 40
0.41015625
 40
0.4140625
 40
0.41796875
 40
0.421875
 40
0.42578125
 40
0.427734375
 40
0.4296875
 40
0.431640625
 40
0.4326171875
 40
0.43359375
 40
0.4345703125
 40
0.435546875
 40
0.4360351562
 40
0.4365234375
 40
0.4367675781
 40
0.4370117188
 40
0.4372558594
 40
0.4373779297
 40
0.4374389648
 40
0.4375
 40
0.4375610352
 40
0.4376220703
 40
0.4377441406
 40
0.4379882812
 40
0.4382324219
 40
0.4384765625
 40
0.4389648438
 40
0.439453125
 40
0.4404296875
 40
0.44140625
 40
0.4423828125
 40
0.443359375
 40
0.4453125
 40
0.447265625
 40
0.44921875
 40
0.453125
 40
0.45703125
 40
0.4609375
 40
0.46484375
 40
0.46875
 40
0.47265625
 40
0.4765625
 40
0.48046875
 40
0.484375
 40
0.48828125
 40
0.490234375
 40
0.4921875
 40
0.494140625
 40
0.4951171875
 40
0.49609375
 40
0.4970703125
 40
0.498046875
 40
0.4985351562
 40
0.4990234375
 40
0.4992675781
 40
0.4995117188
 40
0.4997558594
 40
0.4998779297
 40
0.4999389648
 40
0.5
 40
0.5000610352
 40
0.5001220703
 40
0.5002441406
 40
0.5004882812
 40
0.5007324219
 40
0.5009765625
 40
0.5014648438
 40
0.501953125
 40
0.5029296875
 40
0.50390625
 40
0.5048828125
 40
0.505859375
 40
0.5078125
 40
0.509765625
 40
0.51171875
 40
0.515625
 40
0.51953125
 40
0.5234375
 40
0.52734375
 40
0.53125
 40
0.53515625
 40
0.5390625
 40
0.54296875
 40
0.546875
 40
0.55078125
 40
0.552734375
 40
0.5546875
 40
0.556640625
 40
0.5576171875
 40
0.55859375
 40
0.5595703125
 40
0.560546875
 40
0.5610351562
 40
0.5615234375
 40
0.5617675781
 40
0.5620117188
 40
0.5622558594
 40
0.5623779297
 40
0.5624389648
 40
0.5625
 40
0.5625610352
 40
0.5626220703
 40
0.5627441406
 40
0.5629882812
 40
0.5632324219
 40
0.5634765625
 40
0.5639648438
 40
0.564453125
 40
0.5654296875
 40
0.56640625
 40
0.5673828125
 40
0.568359375
 40
0.5703125
 40
0.572265625
 40
0.57421875
 40
0.578125
 40
0.58203125
 40
0.5859375
 40
0.58984375
 40
0.59375
 40
0.59765625
 40
0.6015625
 40
0.60546875
 40
0.609375
 40
0.61328125
 40
0.615234375
 40
0.6171875
 40
0.619140625
 40
0.6201171875
 40
0.62109375
 40
0.6220703125
 40
0.623046875
 40
0.6235351562
 40
0.6240234375
 40
0.6242675781
 40
0.6245117188
 40
0.6247558594
 40
0.6248779297
 40
0.6249389648
 40
0.625
 40
0.6250610352
 40
0.6251220703
 40
0.6252441406
 40
0.6254882812
 40
0.6257324219
 40
0.6259765625
 40
0.6264648438
 40
0.626953125
 40
0.6279296875
 40
0.62890625
 40
0.6298828125
 40
0.630859375
 40
0.6328125
 40
0.634765625
 40
0.63671875
 40
0.640625
 40
0.64453125
 40
0.6484375
 40
0.65234375
 40
0.65625
 40
0.66015625
 40
0.6640625
 40
0.66796875
 40
0.671875
 40
0.67578125
 40
0.677734375
 40
0.6796875
 40
0.681640625
 40
0.6826171875
 40
0.68359375
 40
0.6845703125
 40
0.685546875
 40
0.6860351562
 40
0.6865234375
 40
0.6867675781
 40
0.6870117188
 40
0.6872558594
 40
0.6873779297
 40
0.6874389648
 40
0.6875
 40
0.6875610352
 40
0.6876220703
 40
0.6877441406
 40
0.6879882812
 40
0.6882324219
 40
0.6884765625
 40
0.6889648438
 40
0.689453125
 40
0.6904296875
 40
0.69140625
 40
0.6923828125
 40
0.693359375
 40
0.6953125
 40
0.697265625
 40
0.69921875
 40
0.703125
 40
0.70703125
 40
0.7109375
 40
0.71484375
 40
0.71875
 40
0.72265625
 40
0.7265625
 40
0.73046875
 40
0.734375
 40
0.73828125
 40
0.740234375
 40
0.7421875
 40
0.744140625
 40
0.7451171875
 40
0.74609375
 40
0.7470703125
 40
0.748046875
 40
0.7485351562
 40
0.7490234375
 40
0.7492675781
 40
0.7495117188
 40
0.7497558594
 40
0.7498779297
 40
0.7499389648
 40
0.75
 40
0.7500610352
 40
0.7501220703
 40
0.7502441406
 40
0.7504882812
 40
0.7507324219
 40
0.7509765625
 40
0.7514648438
 40
0.751953125
 40
0.7529296875
 40
0.75390625
 40
0.7548828125
 40
0.755859375
 40
0.7578125
 40
0.759765625
 40
0.76171875
 40
0.765625
 40
0.76953125
 40
0.7734375
 40
0.77734375
 40
0.78125
 40
0.78515625
 40
0.7890625
 40
0.79296875
 40
0.796875
 40
0.80078125
 40
0.802734375
 40
0.8046875
 40
0.806640625
 40
0.8076171875
 40
0.80859375
 40
0.8095703125
 40
0.810546875
 40
0.8110351562
 40
0.8115234375
 40
0.8117675781
 40
0.8120117188
 40
0.8122558594
 40
0.8123779297
 40
0.8124389648
 40
0.8125
 40
0.8125610352
 40
0.8126220703
 40
0.8127441406
 40
0.8129882812
 40
0.8132324219
 40
0.8134765625
 40
0.8139648438
 40
0.814453125
 40
0.8154296875
 40
0.81640625
 40
0.8173828125
 40
0.818359375
 40
0.8203125
 40
0.822265625
 40
0.82421875
 40
0.828125
 40
0.83203125
 40
0.8359375
 40
0.83984375
 40
0.84375
 40
0.84765625
 40
0.8515625
 40
0.85546875
 40
0.859375
 40
0.86328125
 40
0.865234375
 40
0.8671875
 40
0.869140625
 40
0.8701171875
 40
0.87109375
 40
0.8720703125
 40
0.873046875
 40
0.8735351562
 40
0.8740234375
 40
0.8742675781
 40
0.8745117188
 40
0.8747558594
 40
0.8748779297
 40
0.8749389648
 40
0.875
 40
0.8750610352
 40
0.8751220703
 40
0.8752441406
 40
0.8754882812
 40
0.8757324219
 40
0.8759765625
 40
0.8764648438
 40
0.876953125
 40
0.8779296875
 40
0.87890625
 40
0.8798828125
 40
0.880859375
 40
0.8828125
 40
0.884765625
 40
0.88671875
 40
0.890625
 40
0.89453125
 40
0.8984375
 40
0.90234375
 40
0.90625
 40
0.91015625
 40
0.9140625
 40
0.91796875
 40
0.921875
 40
0.92578125
 40
0.927734375
 40
0.9296875
 40
0.931640625
 40
0.9326171875
 40
0.93359375
 40
0.9345703125
 40
0.935546875
 40
0.9360351562
 40
0.9365234375
 40
0.9367675781
 40
0.9370117188
 40
0.9372558594
 40
0.9373779297
 40
0.9374389648
 40
0.9375
 40
0.9375610352
 40
0.9376220703
 40
0.9377441406
 40
0.9379882812
 40
0.9382324219
 40
0.9384765625
 40
0.9389648438
 40
0.939453125
 40
0.9404296875
 40
0.94140625
 40
0.9423828125
 40
0.943359375
 40
0.9453125
 40
0.947265625
 40
0.94921875
 40
0.953125
 40
0.95703125
 40
0.9609375
 40
0.96484375
 40
0.96875
 40
0.9765625
 40
0.984375
 40
0.9921875
 40
1.0
 40
1.0
 40
1.0
 40
1.0
 10
10.6001682698
 20
9.6274987435
 30
0.0
 10
10.6003062391
 20
9.6260820554
 30
0.0
 10
10.6005821777
 20
9.6232486792
 30
0.0
 10
10.6009960856
 20
9.6189986148
 30
0.0
 10
10.6014099936
 20
9.6147485505
 30
0.0
 10
10.6017549169
 20
9.6112068302
 30
0.0
 10
10.6020308555
 20
9.608373454
 30
0.0
 10
10.6022378095
 20
9.6062484219
 30
0.0
 10
10.6024447634
 20
9.6041233897
 30
0.0
 10
10.6026517174
 20
9.6019983575
 30
0.0
 10
10.602824179
 20
9.6002274974
 30
0.0
 10
10.6029621483
 20
9.5988108093
 30
0.0
 10
10.6030656253
 20
9.5977482932
 30
0.0
 10
10.6031518561
 20
9.5968628631
 30
0.0
 10
10.6032208409
 20
9.5961545191
 30
0.0
 10
10.6032725791
 20
9.595623261
 30
0.0
 10
10.6033243184
 20
9.5950920031
 30
0.0
 10
10.6033674313
 20
9.5946492877
 30
0.0
 10
10.6034019289
 20
9.5942951164
 30
0.0
 10
10.6034234732
 20
9.5940737571
 30
0.0
 10
10.6034407468
 20
9.5938966746
 30
0.0
 10
10.6034535977
 20
9.5937638494
 30
0.0
 10
10.6034646385
 20
9.5936532043
 30
0.0
 10
10.603471716
 20
9.593575669
 30
0.0
 10
10.603476777
 20
9.5935314939
 30
0.0
 10
10.6034777086
 20
9.5934979941
 30
0.0
 10
10.6034895884
 20
9.5934659029
 30
0.0
 10
10.6035016094
 20
9.5934226232
 30
0.0
 10
10.6035244253
 20
9.5933471127
 30
0.0
 10
10.6035560893
 20
9.593239121
 30
0.0
 10
10.6035944842
 20
9.5931095821
 30
0.0
 10
10.6036455384
 20
9.5929368456
 30
0.0
 10
10.6037094038
 20
9.5927209312
 30
0.0
 10
10.6038115617
 20
9.5923754647
 30
0.0
 10
10.6039392682
 20
9.5919436327
 30
0.0
 10
10.6040925122
 20
9.5914254339
 30
0.0
 10
10.6042457572
 20
9.5909072352
 30
0.0
 10
10.6044500835
 20
9.5902163035
 30
0.0
 10
10.6047054915
 20
9.5893526389
 30
0.0
 10
10.605011981
 20
9.5883162415
 30
0.0
 10
10.6054206337
 20
9.5869343782
 30
0.0
 10
10.6059314497
 20
9.585207049
 30
0.0
 10
10.6065444288
 20
9.5831342541
 30
0.0
 10
10.6071574078
 20
9.5810614591
 30
0.0
 10
10.6077703869
 20
9.5789886641
 30
0.0
 10
10.608383366
 20
9.5769158692
 30
0.0
 10
10.6089963451
 20
9.5748430742
 30
0.0
 10
10.6096093242
 20
9.5727702793
 30
0.0
 10
10.6102223033
 20
9.5706974843
 30
0.0
 10
10.6108352824
 20
9.5686246893
 30
0.0
 10
10.6113460983
 20
9.5668973602
 30
0.0
 10
10.6117547511
 20
9.5655154969
 30
0.0
 10
10.6120612406
 20
9.5644790994
 30
0.0
 10
10.6123166485
 20
9.5636154348
 30
0.0
 10
10.612520975
 20
9.5629245032
 30
0.0
 10
10.6126742195
 20
9.5624063044
 30
0.0
 10
10.6128274651
 20
9.5618881059
 30
0.0
 10
10.6129551667
 20
9.5614562728
 30
0.0
 10
10.6130573348
 20
9.5611108087
 30
0.0
 10
10.6131211742
 20
9.5608948882
 30
0.0
 10
10.6131722816
 20
9.5607221642
 30
0.0
 10
10.6132105139
 20
9.5605925874
 30
0.0
 10
10.6132426868
 20
9.560484714
 30
0.0
 10
10.6132645942
 20
9.5604089922
 30
0.0
 10
10.6132780709
 20
9.5603660511
 30
0.0
 10
10.613285479
 20
9.5603329199
 30
0.0
 10
10.6133032058
 20
9.5603033261
 30
0.0
 10
10.6133232423
 20
9.5602626339
 30
0.0
 10
10.6133599831
 20
9.5601919973
 30
0.0
 10
10.6134115933
 20
9.5600907873
 30
0.0
 10
10.6134739007
 20
9.559969464
 30
0.0
 10
10.6135568462
 20
9.5598076547
 30
0.0
 10
10.613660573
 20
9.5596054084
 30
0.0
 10
10.6138265107
 20
9.5592818058
 30
0.0
 10
10.6140339415
 20
9.5588773055
 30
0.0
 10
10.6142828547
 20
9.5583919038
 30
0.0
 10
10.6145317689
 20
9.5579065024
 30
0.0
 10
10.6148636542
 20
9.5572593005
 30
0.0
 10
10.6152785109
 20
9.5564502982
 30
0.0
 10
10.6157763389
 20
9.5554794954
 30
0.0
 10
10.6164401096
 20
9.5541850916
 30
0.0
 10
10.617269823
 20
9.5525670869
 30
0.0
 10
10.618265479
 20
9.5506254813
 30
0.0
 10
10.619261135
 20
9.5486838756
 30
0.0
 10
10.6202567911
 20
9.54674227
 30
0.0
 10
10.6212524471
 20
9.5448006643
 30
0.0
 10
10.6222481032
 20
9.5428590587
 30
0.0
 10
10.6232437592
 20
9.540917453
 30
0.0
 10
10.6242394152
 20
9.5389758474
 30
0.0
 10
10.6252350713
 20
9.5370342418
 30
0.0
 10
10.6260647846
 20
9.535416237
 30
0.0
 10
10.6267285553
 20
9.5341218333
 30
0.0
 10
10.6272263834
 20
9.5331510305
 30
0.0
 10
10.62764124
 20
9.5323420281
 30
0.0
 10
10.6279731254
 20
9.5316948262
 30
0.0
 10
10.6282220392
 20
9.5312094247
 30
0.0
 10
10.628470954
 20
9.5307240237
 30
0.0
 10
10.62867838
 20
9.5303195214
 30
0.0
 10
10.6288443275
 20
9.5299959227
 30
0.0
 10
10.6289480294
 20
9.5297936663
 30
0.0
 10
10.6290310258
 20
9.5296318778
 30
0.0
 10
10.6290931777
 20
9.529510491
 30
0.0
 10
10.6291452745
 20
9.5294094796
 30
0.0
 10
10.6291811465
 20
9.5293384887
 30
0.0
 10
10.6292025751
 20
9.5292983642
 30
0.0
 10
10.6292160258
 20
9.5292670263
 30
0.0
 10
10.6292394945
 20
9.5292404455
 30
0.0
 10
10.6292672917
 20
9.5292033452
 30
0.0
 10
10.6293175649
 20
9.5291391927
 30
0.0
 10
10.6293885327
 20
9.529047142
 30
0.0
 10
10.6294740583
 20
9.5289368542
 30
0.0
 10
10.6295879652
 20
9.5287897434
 30
0.0
 10
10.6297303924
 20
9.5286058756
 30
0.0
 10
10.6299582515
 20
9.5283116756
 30
0.0
 10
10.6302430838
 20
9.5279439295
 30
0.0
 10
10.630584879
 20
9.5275026325
 30
0.0
 10
10.6309266751
 20
9.5270613359
 30
0.0
 10
10.631382403
 20
9.5264729403
 30
0.0
 10
10.6319520629
 20
9.5257374459
 30
0.0
 10
10.6326356548
 20
9.5248548526
 30
0.0
 10
10.6335471106
 20
9.5236780615
 30
0.0
 10
10.6346864304
 20
9.5222070727
 30
0.0
 10
10.6360536141
 20
9.520441886
 30
0.0
 10
10.6374207978
 20
9.5186766994
 30
0.0
 10
10.6387879816
 20
9.5169115128
 30
0.0
 10
10.6401551653
 20
9.5151463262
 30
0.0
 10
10.641522349
 20
9.5133811395
 30
0.0
 10
10.6428895328
 20
9.5116159529
 30
0.0
 10
10.6442567165
 20
9.5098507663
 30
0.0
 10
10.6456239002
 20
9.5080855796
 30
0.0
 10
10.64676322
 20
9.5066145908
 30
0.0
 10
10.6476746758
 20
9.5054377997
 30
0.0
 10
10.6483582677
 20
9.5045552064
 30
0.0
 10
10.6489279276
 20
9.5038197119
 30
0.0
 10
10.6493836555
 20
9.5032313164
 30
0.0
 10
10.6497254513
 20
9.5027900196
 30
0.0
 10
10.6500672478
 20
9.5023487236
 30
0.0
 10
10.650352076
 20
9.5019809744
 30
0.0
 10
10.6505799435
 20
9.5016867806
 30
0.0
 10
10.6507223495
 20
9.501502897
 30
0.0
 10
10.6508362999
 20
9.5013558187
 30
0.0
 10
10.6509216928
 20
9.5012454315
 30
0.0
 10
10.6509930756
 20
9.5011536918
 30
0.0
 10
10.6510426079
 20
9.5010889842
 30
0.0
 10
10.6510715923
 20
9.5010527732
 30
0.0
 10
10.6510914144
 20
9.5010234606
 30
0.0
 10
10.651118561
 20
9.501002383
 30
0.0
 10
10.6511522016
 20
9.500971407
 30
0.0
 10
10.651212263
 20
9.5009185373
 30
0.0
 10
10.6512974426
 20
9.5008423095
 30
0.0
 10
10.6513999245
 20
9.5007511356
 30
0.0
 10
10.6515364741
 20
9.5006294659
 30
0.0
 10
10.6517071929
 20
9.5004774145
 30
0.0
 10
10.6519803251
 20
9.5002341123
 30
0.0
 10
10.6523217466
 20
9.4999299914
 30
0.0
 10
10.6527314496
 20
9.4995650433
 30
0.0
 10
10.6531411534
 20
9.4992000961
 30
0.0
 10
10.6536874249
 20
9.4987134995
 30
0.0
 10
10.6543702644
 20
9.4981052538
 30
0.0
 10
10.6551896717
 20
9.497375359
 30
0.0
 10
10.6562822147
 20
9.4964021659
 30
0.0
 10
10.6576478936
 20
9.4951856745
 30
0.0
 10
10.6592867081
 20
9.4937258848
 30
0.0
 10
10.6609255227
 20
9.4922660952
 30
0.0
 10
10.6625643373
 20
9.4908063055
 30
0.0
 10
10.6642031519
 20
9.4893465158
 30
0.0
 10
10.6658419665
 20
9.4878867262
 30
0.0
 10
10.6674807811
 20
9.4864269365
 30
0.0
 10
10.6691195957
 20
9.4849671468
 30
0.0
 10
10.6707584103
 20
9.4835073572
 30
0.0
 10
10.6721240891
 20
9.4822908658
 30
0.0
 10
10.6732166322
 20
9.4813176727
 30
0.0
 10
10.6740360395
 20
9.4805877779
 30
0.0
 10
10.6747188789
 20
9.4799795321
 30
0.0
 10
10.6752651505
 20
9.4794929356
 30
0.0
 10
10.675674854
 20
9.479127988
 30
0.0
 10
10.6760845581
 20
9.4787630413
 30
0.0
 10
10.6764259764
 20
9.4784589164
 30
0.0
 10
10.6766991151
 20
9.4782156223
 30
0.0
 10
10.6768698174
 20
9.4780635501
 30
0.0
 10
10.6770064008
 20
9.4779419231
 30
0.0
 10
10.6771087792
 20
9.4778506186
 30
0.0
 10
10.6771942828
 20
9.4777747996
 30
0.0
 10
10.6772537659
 20
9.4777212002
 30
0.0
 10
10.6772883329
 20
9.4776913933
 30
0.0
 10
10.6773126339
 20
9.4776667245
 30
0.0
 10
10.6773431436
 20
9.4776508996
 30
0.0
 10
10.6773816576
 20
9.4776267149
 30
0.0
 10
10.677450066
 20
9.477585829
 30
0.0
 10
10.6775472648
 20
9.4775266691
 30
0.0
 10
10.6776641291
 20
9.4774559988
 30
0.0
 10
10.6778198694
 20
9.4773616594
 30
0.0
 10
10.6780145717
 20
9.4772437736
 30
0.0
 10
10.6783260804
 20
9.4770551349
 30
0.0
 10
10.6787154714
 20
9.4768193439
 30
0.0
 10
10.6791827384
 20
9.4765363915
 30
0.0
 10
10.6796500059
 20
9.47625344
 30
0.0
 10
10.6802730291
 20
9.475876171
 30
0.0
 10
10.6810518082
 20
9.4754045848
 30
0.0
 10
10.6819863431
 20
9.4748386814
 30
0.0
 10
10.6832323896
 20
9.4740841435
 30
0.0
 10
10.6847899478
 20
9.4731409711
 30
0.0
 10
10.6866590175
 20
9.4720091643
 30
0.0
 10
10.6885280873
 20
9.4708773575
 30
0.0
 10
10.6903971571
 20
9.4697455506
 30
0.0
 10
10.6922662268
 20
9.4686137438
 30
0.0
 10
10.6941352966
 20
9.4674819369
 30
0.0
 10
10.6960043664
 20
9.4663501301
 30
0.0
 10
10.6978734361
 20
9.4652183232
 30
0.0
 10
10.6997425059
 20
9.4640865164
 30
0.0
 10
10.701300064
 20
9.463143344
 30
0.0
 10
10.7025461105
 20
9.4623888061
 30
0.0
 10
10.7034806454
 20
9.4618229027
 30
0.0
 10
10.7042594245
 20
9.4613513165
 30
0.0
 10
10.7048824478
 20
9.4609740476
 30
0.0
 10
10.7053497151
 20
9.4606910957
 30
0.0
 10
10.7058169829
 20
9.4604081447
 30
0.0
 10
10.7062063714
 20
9.4601723493
 30
0.0
 10
10.7065178851
 20
9.4599837196
 30
0.0
 10
10.7067125746
 20
9.4598658109
 30
0.0
 10
10.7068683412
 20
9.4597715187
 30
0.0
 10
10.7069851252
 20
9.4597007042
 30
0.0
 10
10.7070825753
 20
9.4596419954
 30
0.0
 10
10.7071505352
 20
9.4596003041
 30
0.0
 10
10.7071897678
 20
9.4595774098
 30
0.0
 10
10.7072180701
 20
9.4595576213
 30
0.0
 10
10.7072506615
 20
9.4595478391
 30
0.0
 10
10.7072926207
 20
9.459531306
 30
0.0
 10
10.7073667463
 20
9.4595039991
 30
0.0
 10
10.7074722755
 20
9.4594641391
 30
0.0
 10
10.7075990666
 20
9.4594166711
 30
0.0
 10
10.707768067
 20
9.4593532532
 30
0.0
 10
10.707979336
 20
9.4592740244
 30
0.0
 10
10.7083173561
 20
9.4591472339
 30
0.0
 10
10.7087398847
 20
9.4589887542
 30
0.0
 10
10.7092469175
 20
9.458798575
 30
0.0
 10
10.7097539508
 20
9.4586083967
 30
0.0
 10
10.710429995
 20
9.4583548254
 30
0.0
 10
10.7112750503
 20
9.4580378613
 30
0.0
 10
10.7122891166
 20
9.4576575044
 30
0.0
 10
10.713641205
 20
9.4571503618
 30
0.0
 10
10.7153313156
 20
9.4565164336
 30
0.0
 10
10.7173594482
 20
9.4557557197
 30
0.0
 10
10.7193875809
 20
9.4549950059
 30
0.0
 10
10.7214157135
 20
9.454234292
 30
0.0
 10
10.7234438462
 20
9.4534735782
 30
0.0
 10
10.7254719788
 20
9.4527128643
 30
0.0
 10
10.7275001115
 20
9.4519521505
 30
0.0
 10
10.7295282441
 20
9.4511914366
 30
0.0
 10
10.7315563768
 20
9.4504307228
 30
0.0
 10
10.7332464873
 20
9.4497967945
 30
0.0
 10
10.7345985758
 20
9.449289652
 30
0.0
 10
10.7356126421
 20
9.4489092951
 30
0.0
 10
10.7364576974
 20
9.4485923309
 30
0.0
 10
10.7371337416
 20
9.4483387597
 30
0.0
 10
10.7376407747
 20
9.448148581
 30
0.0
 10
10.7381478081
 20
9.4479584034
 30
0.0
 10
10.738570335
 20
9.4477999188
 30
0.0
 10
10.7389083586
 20
9.4476731383
 30
0.0
 10
10.7391196185
 20
9.4475938842
 30
0.0
 10
10.7392886376
 20
9.4475305182
 30
0.0
 10
10.7394153712
 20
9.4474828916
 30
0.0
 10
10.7395210804
 20
9.4474435275
 30
0.0
 10
10.7395948848
 20
9.4474153354
 30
0.0
 10
10.7396373586
 20
9.4474002207
 30
0.0
 10
10.7396683693
 20
9.4473860815
 30
0.0
 10
10.7397026087
 20
9.4473826573
 30
0.0
 10
10.7397471351
 20
9.4473743542
 30
0.0
 10
10.7398255811
 20
9.4473615651
 30
0.0
 10
10.7399373724
 20
9.4473423846
 30
0.0
 10
10.7400716393
 20
9.4473197577
 30
0.0
 10
10.7402506209
 20
9.4472894523
 30
0.0
 10
10.740474362
 20
9.4472516172
 30
0.0
 10
10.7408323398
 20
9.447191055
 30
0.0
 10
10.7412798148
 20
9.4471153613
 30
0.0
 10
10.7418167837
 20
9.4470245249
 30
0.0
 10
10.7423537528
 20
9.4469336895
 30
0.0
 10
10.7430697116
 20
9.4468125754
 30
0.0
 10
10.7439646601
 20
9.4466611828
 30
0.0
 10
10.7450385982
 20
9.4464795116
 30
0.0
 10
10.7464705158
 20
9.4462372834
 30
0.0
 10
10.7482604127
 20
9.4459344982
 30
0.0
 10
10.7504082891
 20
9.4455711559
 30
0.0
 10
10.7525561654
 20
9.4452078136
 30
0.0
 10
10.7547040418
 20
9.4448444713
 30
0.0
 10
10.7568519181
 20
9.444481129
 30
0.0
 10
10.7589997944
 20
9.4441177867
 30
0.0
 10
10.7611476708
 20
9.4437544444
 30
0.0
 10
10.7632955471
 20
9.4433911021
 30
0.0
 10
10.7654434234
 20
9.4430277599
 30
0.0
 10
10.7672333204
 20
9.4427249746
 30
0.0
 10
10.768665238
 20
9.4424827464
 30
0.0
 10
10.7697391761
 20
9.4423010753
 30
0.0
 10
10.7706341246
 20
9.4421496826
 30
0.0
 10
10.7713500834
 20
9.4420285686
 30
0.0
 10
10.7718870525
 20
9.4419377328
 30
0.0
 10
10.7724240215
 20
9.4418468981
 30
0.0
 10
10.772871496
 20
9.4417711991
 30
0.0
 10
10.7732294749
 20
9.4417106475
 30
0.0
 10
10.7734532132
 20
9.4416727854
 30
0.0
 10
10.7736322004
 20
9.4416425355
 30
0.0
 10
10.7737664503
 20
9.4416197392
 30
0.0
 10
10.7738782949
 20
9.4416010887
 30
0.0
 10
10.7739566457
 20
9.4415873535
 30
0.0
 10
10.7740013245
 20
9.4415805663
 30
0.0
 10
10.774035096
 20
9.4415724856
 30
0.0
 10
10.7740678644
 20
9.4415758356
 30
0.0
 10
10.7741119056
 20
9.4415763152
 30
0.0
 10
10.7741888146
 20
9.4415790121
 30
0.0
 10
10.7742987699
 20
9.4415818936
 30
0.0
 10
10.7744306797
 20
9.4415857672
 30
0.0
 10
10.7746065722
 20
9.4415907867
 30
0.0
 10
10.7748264334
 20
9.4415971109
 30
0.0
 10
10.7751782139
 20
9.4416072017
 30
0.0
 10
10.7756179386
 20
9.4416198248
 30
0.0
 10
10.7761456087
 20
9.4416349683
 30
0.0
 10
10.7766732786
 20
9.441650113
 30
0.0
 10
10.7773768386
 20
9.4416703056
 30
0.0
 10
10.7782562885
 20
9.4416955464
 30
0.0
 10
10.7793116284
 20
9.4417258353
 30
0.0
 10
10.7807187483
 20
9.4417662205
 30
0.0
 10
10.7824776482
 20
9.441816702
 30
0.0
 10
10.7845883281
 20
9.4418772798
 30
0.0
 10
10.7866990079
 20
9.4419378576
 30
0.0
 10
10.7888096878
 20
9.4419984355
 30
0.0
 10
10.7909203677
 20
9.4420590133
 30
0.0
 10
10.7930310475
 20
9.4421195911
 30
0.0
 10
10.7951417274
 20
9.4421801689
 30
0.0
 10
10.7972524072
 20
9.4422407468
 30
0.0
 10
10.7993630871
 20
9.4423013246
 30
0.0
 10
10.801121987
 20
9.4423518061
 30
0.0
 10
10.8025291069
 20
9.4423921913
 30
0.0
 10
10.8035844468
 20
9.4424224802
 30
0.0
 10
10.8044638967
 20
9.442447721
 30
0.0
 10
10.8051674567
 20
9.4424679137
 30
0.0
 10
10.8056951267
 20
9.4424830579
 30
0.0
 10
10.8062227965
 20
9.4424982032
 30
0.0
 10
10.806662522
 20
9.442510821
 30
0.0
 10
10.8070143009
 20
9.4425209226
 30
0.0
 10
10.807234166
 20
9.4425272192
 30
0.0
 10
10.8074100506
 20
9.4425322952
 30
0.0
 10
10.8075419847
 20
9.4425359964
 30
0.0
 10
10.807651864
 20
9.4425394171
 30
0.0
 10
10.8077289085
 20
9.4425411515
 30
0.0
 10
10.8077727326
 20
9.4425431733
 30
0.0
 10
10.8078061678
 20
9.4425417861
 30
0.0
 10
10.8078374352
 20
9.4425514976
 30
0.0
 10
10.8078798812
 20
9.4425605749
 30
0.0
 10
10.8079538094
 20
9.4425782639
 30
0.0
 10
10.8080596052
 20
9.4426025909
 30
0.0
 10
10.8081864815
 20
9.442632187
 30
0.0
 10
10.8083556773
 20
9.4426715074
 30
0.0
 10
10.8085671626
 20
9.4427207061
 30
0.0
 10
10.8089055444
 20
9.4427993972
 30
0.0
 10
10.8093285199
 20
9.4428977703
 30
0.0
 10
10.8098360913
 20
9.4430158141
 30
0.0
 10
10.8103436624
 20
9.4431338589
 30
0.0
 10
10.811020424
 20
9.4432912516
 30
0.0
 10
10.8118663759
 20
9.4434879926
 30
0.0
 10
10.8128815183
 20
9.4437240818
 30
0.0
 10
10.8142350414
 20
9.4440388674
 30
0.0
 10
10.8159269454
 20
9.4444323494
 30
0.0
 10
10.8179572301
 20
9.4449045278
 30
0.0
 10
10.8199875148
 20
9.4453767061
 30
0.0
 10
10.8220177995
 20
9.4458488845
 30
0.0
 10
10.8240480843
 20
9.4463210629
 30
0.0
 10
10.826078369
 20
9.4467932412
 30
0.0
 10
10.8281086537
 20
9.4472654196
 30
0.0
 10
10.8301389384
 20
9.447737598
 30
0.0
 10
10.8321692231
 20
9.4482097764
 30
0.0
 10
10.833861127
 20
9.4486032583
 30
0.0
 10
10.8352146502
 20
9.4489180439
 30
0.0
 10
10.8362297926
 20
9.4491541331
 30
0.0
 10
10.8370757445
 20
9.4493508741
 30
0.0
 10
10.8377525061
 20
9.4495082669
 30
0.0
 10
10.8382600773
 20
9.4496263113
 30
0.0
 10
10.8387676482
 20
9.4497443567
 30
0.0
 10
10.8391906252
 20
9.4498427247
 30
0.0
 10
10.8395290039
 20
9.4499214262
 30
0.0
 10
10.8397404971
 20
9.4499705985
 30
0.0
 10
10.8399096769
 20
9.4500099733
 30
0.0
 10
10.8400366022
 20
9.4500394032
 30
0.0
 10
10.8401422444
 20
9.4500642499
 30
0.0
 10
10.8402164469
 20
9.4500810112
 30
0.0
 10
10.8402584533
 20
9.4500915748
 30
0.0
 10
10.8402910708
 20
9.4500967209
 30
0.0
 10
10.8403194352
 20
9.4501124806
 30
0.0
 10
10.840358738
 20
9.4501297915
 30
0.0
 10
10.8404268266
 20
9.4501618103
 30
0.0
 10
10.8405244574
 20
9.4502066497
 30
0.0
 10
10.8406414596
 20
9.450260843
 30
0.0
 10
10.8407975166
 20
9.4503329659
 30
0.0
 10
10.8409925694
 20
9.4504231657
 30
0.0
 10
10.8413046643
 20
9.4505674596
 30
0.0
 10
10.8416947792
 20
9.4507478358
 30
0.0
 10
10.8421629187
 20
9.4509642835
 30
0.0
 10
10.8426310578
 20
9.4511807321
 30
0.0
 10
10.8432552434
 20
9.45146933
 30
0.0
 10
10.8440354753
 20
9.4518300774
 30
0.0
 10
10.8449717536
 20
9.4522629743
 30
0.0
 10
10.8462201248
 20
9.4528401702
 30
0.0
 10
10.8477805886
 20
9.453561665
 30
0.0
 10
10.8496531453
 20
9.4544274588
 30
0.0
 10
10.851525702
 20
9.4552932526
 30
0.0
 10
10.8533982586
 20
9.4561590464
 30
0.0
 10
10.8552708153
 20
9.4570248402
 30
0.0
 10
10.857143372
 20
9.457890634
 30
0.0
 10
10.8590159286
 20
9.4587564278
 30
0.0
 10
10.8608884853
 20
9.4596222216
 30
0.0
 10
10.8627610419
 20
9.4604880154
 30
0.0
 10
10.8643215058
 20
9.4612095102
 30
0.0
 10
10.8655698769
 20
9.4617867061
 30
0.0
 10
10.8665061553
 20
9.462219603
 30
0.0
 10
10.8672863872
 20
9.4625803503
 30
0.0
 10
10.8679105727
 20
9.4628689483
 30
0.0
 10
10.868378712
 20
9.4630853966
 30
0.0
 10
10.8688468508
 20
9.4633018458
 30
0.0
 10
10.869236968
 20
9.4634822171
 30
0.0
 10
10.8695490582
 20
9.463626521
 30
0.0
 10
10.8697441228
 20
9.4637166952
 30
0.0
 10
10.8699001556
 20
9.4637888707
 30
0.0
 10
10.8700172321
 20
9.4638429033
 30
0.0
 10
10.8701146306
 20
9.4638882455
 30
0.0
 10
10.8701831338
 20
9.4639193668
 30
0.0
 10
10.8702217722
 20
9.4639381158
 30
0.0
 10
10.8702521772
 20
9.4639494578
 30
0.0
 10
10.8702771305
 20
9.4639711961
 30
0.0
 10
10.8703123031
 20
9.4639965541
 30
0.0
 10
10.8703729691
 20
9.4640426201
 30
0.0
 10
10.8704600982
 20
9.4641075454
 30
0.0
 10
10.8705644547
 20
9.4641858339
 30
0.0
 10
10.870703666
 20
9.4642900864
 30
0.0
 10
10.8708776565
 20
9.4644204473
 30
0.0
 10
10.8711560545
 20
9.4646289995
 30
0.0
 10
10.8715040474
 20
9.4648896984
 30
0.0
 10
10.8719216408
 20
9.4652025334
 30
0.0
 10
10.8723392337
 20
9.4655153694
 30
0.0
 10
10.8728960245
 20
9.4659324837
 30
0.0
 10
10.8735920128
 20
9.4664538766
 30
0.0
 10
10.8744271989
 20
9.4670795481
 30
0.0
 10
10.8755407803
 20
9.4679137768
 30
0.0
 10
10.8769327571
 20
9.4689565627
 30
0.0
 10
10.8786031292
 20
9.4702079057
 30
0.0
 10
10.8802735013
 20
9.4714592487
 30
0.0
 10
10.8819438734
 20
9.4727105918
 30
0.0
 10
10.8836142455
 20
9.4739619348
 30
0.0
 10
10.8852846176
 20
9.4752132779
 30
0.0
 10
10.8869549897
 20
9.4764646209
 30
0.0
 10
10.8886253619
 20
9.4777159639
 30
0.0
 10
10.890295734
 20
9.478967307
 30
0.0
 10
10.8916877107
 20
9.4800100928
 30
0.0
 10
10.8928012921
 20
9.4808443215
 30
0.0
 10
10.8936364782
 20
9.481469993
 30
0.0
 10
10.8943324666
 20
9.4819913859
 30
0.0
 10
10.8948892572
 20
9.4824085003
 30
0.0
 10
10.8953068504
 20
9.4827213359
 30
0.0
 10
10.8957244428
 20
9.4830341723
 30
0.0
 10
10.8960724391
 20
9.4832948669
 30
0.0
 10
10.8963508302
 20
9.4835034279
 30
0.0
 10
10.896524838
 20
9.4836337664
 30
0.0
 10
10.8966640138
 20
9.4837380649
 30
0.0
 10
10.8967684789
 20
9.4838162131
 30
0.0
 10
10.8968552682
 20
9.4838815771
 30
0.0
 10
10.8969165407
 20
9.4839268601
 30
0.0
 10
10.8969507417
 20
9.4839534726
 30
0.0
 10
10.8969786796
 20
9.4839713573
 30
0.0
 10
10.8969978746
 20
9.4839971727
 30
0.0
 10
10.8970265176
 20
9.4840288269
 30
0.0
 10
10.897075222
 20
9.4840855106
 30
0.0
 10
10.8971455426
 20
9.4841658135
 30
0.0
 10
10.8972296093
 20
9.4842624654
 30
0.0
 10
10.8973418093
 20
9.4843912338
 30
0.0
 10
10.8974820213
 20
9.4845522289
 30
0.0
 10
10.8977063818
 20
9.4848098017
 30
0.0
 10
10.897986825
 20
9.4851317743
 30
0.0
 10
10.89832336
 20
9.4855181386
 30
0.0
 10
10.8986598942
 20
9.4859045037
 30
0.0
 10
10.8991086068
 20
9.4864196568
 30
0.0
 10
10.8996694974
 20
9.4870635984
 30
0.0
 10
10.9003425661
 20
9.4878363282
 30
0.0
 10
10.9012399911
 20
9.4888666346
 30
0.0
 10
10.9023617724
 20
9.4901545177
 30
0.0
 10
10.9037079098
 20
9.4916999773
 30
0.0
 10
10.9050540473
 20
9.4932454369
 30
0.0
 10
10.9064001848
 20
9.4947908966
 30
0.0
 10
10.9077463223
 20
9.4963363562
 30
0.0
 10
10.9090924598
 20
9.4978818159
 30
0.0
 10
10.9104385973
 20
9.4994272755
 30
0.0
 10
10.9117847348
 20
9.5009727352
 30
0.0
 10
10.9131308722
 20
9.5025181948
 30
0.0
 10
10.9142526535
 20
9.5038060778
 30
0.0
 10
10.9151500785
 20
9.5048363843
 30
0.0
 10
10.9158231472
 20
9.5056091141
 30
0.0
 10
10.9163840378
 20
9.5062530556
 30
0.0
 10
10.9168327503
 20
9.5067682089
 30
0.0
 10
10.9171692848
 20
9.5071545736
 30
0.0
 10
10.9175058185
 20
9.5075409391
 30
0.0
 10
10.917786266
 20
9.5078629082
 30
0.0
 10
10.9180106178
 20
9.5081204881
 30
0.0
 10
10.9181508518
 20
9.5082814651
 30
0.0
 10
10.9182630067
 20
9.5084102706
 30
0.0
 10
10.9183472112
 20
9.5085068094
 30
0.0
 10
10.9184171006
 20
9.5085874661
 30
0.0
 10
10.9184665747
 20
9.5086435182
 30
0.0
 10
10.9184939844
 20
9.5086761843
 30
0.0
 10
10.9185169679
 20
9.5086988914
 30
0.0
 10
10.918530677
 20
9.5087284504
 30
0.0
 10
10.9185521907
 20
9.5087654723
 30
0.0
 10
10.9185883325
 20
9.5088313743
 30
0.0
 10
10.9186407517
 20
9.5089249378
 30
0.0
 10
10.9187033174
 20
9.5090374632
 30
0.0
 10
10.9187868562
 20
9.5091874101
 30
0.0
 10
10.9188912393
 20
9.5093748734
 30
0.0
 10
10.9190582748
 20
9.5096747981
 30
0.0
 10
10.9192670614
 20
9.5100497097
 30
0.0
 10
10.9195176087
 20
9.5104996012
 30
0.0
 10
10.9197681552
 20
9.5109494933
 30
0.0
 10
10.9201022174
 20
9.5115493492
 30
0.0
 10
10.920519795
 20
9.5122991692
 30
0.0
 10
10.9210208882
 20
9.5131989531
 30
0.0
 10
10.9216890125
 20
9.5143986651
 30
0.0
 10
10.9225241678
 20
9.515898305
 30
0.0
 10
10.9235263543
 20
9.5176978729
 30
0.0
 10
10.9245285407
 20
9.5194974408
 30
0.0
 10
10.9255307271
 20
9.5212970087
 30
0.0
 10
10.9265329135
 20
9.5230965766
 30
0.0
 10
10.9275350999
 20
9.5248961445
 30
0.0
 10
10.9285372863
 20
9.5266957124
 30
0.0
 10
10.9295394728
 20
9.5284952803
 30
0.0
 10
10.9305416592
 20
9.5302948482
 30
0.0
 10
10.9313768145
 20
9.5317944881
 30
0.0
 10
10.9320449388
 20
9.5329942001
 30
0.0
 10
10.932546032
 20
9.533893984
 30
0.0
 10
10.9329636097
 20
9.534643804
 30
0.0
 10
10.9332976718
 20
9.53524366
 30
0.0
 10
10.9335482186
 20
9.5356935518
 30
0.0
 10
10.9337987644
 20
9.5361434442
 30
0.0
 10
10.9340075557
 20
9.536518353
 30
0.0
 10
10.9341745818
 20
9.5368182834
 30
0.0
 10
10.9342789888
 20
9.5370057323
 30
0.0
 10
10.9343624785
 20
9.5371557088
 30
0.0
 10
10.934425194
 20
9.5372681435
 30
0.0
 10
10.9344771446
 20
9.5373619908
 30
0.0
 10
10.9345141229
 20
9.5374273862
 30
0.0
 10
10.9345342964
 20
9.5374652197
 30
0.0
 10
10.9345521221
 20
9.5374922859
 30
0.0
 10
10.934559644
 20
9.5375243557
 30
0.0
 10
10.9345732673
 20
9.5375653701
 30
0.0
 10
10.9345954336
 20
9.5376379584
 30
0.0
 10
10.9346279751
 20
9.5377412309
 30
0.0
 10
10.9346666502
 20
9.5378653399
 30
0.0
 10
10.9347183478
 20
9.5380307549
 30
0.0
 10
10.9347829251
 20
9.5382375455
 30
0.0
 10
10.9348862738
 20
9.5385683983
 30
0.0
 10
10.935015451
 20
9.5389819685
 30
0.0
 10
10.9351704674
 20
9.5394782509
 30
0.0
 10
10.9353254828
 20
9.5399745338
 30
0.0
 10
10.9355321703
 20
9.5406362442
 30
0.0
 10
10.9357905296
 20
9.5414633822
 30
0.0
 10
10.9361005608
 20
9.5424559478
 30
0.0
 10
10.9365139357
 20
9.5437793686
 30
0.0
 10
10.9370306543
 20
9.5454336445
 30
0.0
 10
10.9376507167
 20
9.5474187757
 30
0.0
 10
10.9382707791
 20
9.5494039069
 30
0.0
 10
10.9388908415
 20
9.5513890381
 30
0.0
 10
10.9395109039
 20
9.5533741693
 30
0.0
 10
10.9401309662
 20
9.5553593004
 30
0.0
 10
10.9407510286
 20
9.5573444316
 30
0.0
 10
10.941371091
 20
9.5593295628
 30
0.0
 10
10.9419911534
 20
9.561314694
 30
0.0
 10
10.942507872
 20
9.56296897
 30
0.0
 10
10.9429212469
 20
9.5642923908
 30
0.0
 10
10.9432312781
 20
9.5652849564
 30
0.0
 10
10.9434896375
 20
9.5661120943
 30
0.0
 10
10.9436963249
 20
9.5667738047
 30
0.0
 10
10.9438513407
 20
9.5672700875
 30
0.0
 10
10.9440063554
 20
9.5677663706
 30
0.0
 10
10.9441355377
 20
9.5681799386
 30
0.0
 10
10.9442388762
 20
9.5685107957
 30
0.0
 10
10.9443034793
 20
9.5687175754
 30
0.0
 10
10.9443551238
 20
9.5688830129
 30
0.0
 10
10.9443939614
 20
9.5690070531
 30
0.0
 10
10.9444259945
 20
9.5691105408
 30
0.0
 10
10.9444490683
 20
9.569182745
 30
0.0
 10
10.9444612374
 20
9.5692243749
 30
0.0
 10
10.944473226
 20
9.5692545541
 30
0.0
 10
10.9444742757
 20
9.5692887208
 30
0.0
 10
10.9444794909
 20
9.5693328856
 30
0.0
 10
10.9444868397
 20
9.5694108219
 30
0.0
 10
10.9444982675
 20
9.5695218207
 30
0.0
 10
10.944511583
 20
9.5696551643
 30
0.0
 10
10.9445294759
 20
9.5698329051
 30
0.0
 10
10.9445517945
 20
9.5700550985
 30
0.0
 10
10.9445875308
 20
9.5704105982
 30
0.0
 10
10.9446321921
 20
9.5708549761
 30
0.0
 10
10.9446857896
 20
9.5713882282
 30
0.0
 10
10.944739386
 20
9.5719214806
 30
0.0
 10
10.9448108483
 20
9.5726324838
 30
0.0
 10
10.944900176
 20
9.5735212378
 30
0.0
 10
10.9450073693
 20
9.5745877425
 30
0.0
 10
10.9451502936
 20
9.5760097489
 30
0.0
 10
10.9453289491
 20
9.5777872568
 30
0.0
 10
10.9455433357
 20
9.5799202664
 30
0.0
 10
10.9457577222
 20
9.5820532759
 30
0.0
 10
10.9459721088
 20
9.5841862854
 30
0.0
 10
10.9462579575
 20
9.5870302981
 30
0.0
 10
10.9466152685
 20
9.590585314
 30
0.0
 10
10.9470440416
 20
9.5948513331
 30
0.0
 10
10.9474728147
 20
9.5991173521
 30
0.0
 10
10.9477586635
 20
9.6019613648
 30
0.0
 10
10.9479015878
 20
9.6033833712
 30
0.0
  0
SPLINE
  5
3A4
100
AcDbEntity
  8
0
100
AcDbSpline
 62
4
  6
CONTINUOUS
 70
0
 71
3
 72
615
 73
611
 74
0
 42
0.0000001
 43
0.0000001
 44
0.0000000001
 40
0.0
 40
0.0
 40
0.0
 40
0.0
 40
0.0078125
 40
0.015625
 40
0.0234375
 40
0.03125
 40
0.03515625
 40
0.0390625
 40
0.04296875
 40
0.046875
 40
0.05078125
 40
0.052734375
 40
0.0546875
 40
0.056640625
 40
0.0576171875
 40
0.05859375
 40
0.0595703125
 40
0.060546875
 40
0.0610351562
 40
0.0615234375
 40
0.0617675781
 40
0.0620117188
 40
0.0622558594
 40
0.0623779297
 40
0.0624389648
 40
0.0625
 40
0.0625610352
 40
0.0626220703
 40
0.0627441406
 40
0.0629882812
 40
0.0632324219
 40
0.0634765625
 40
0.0639648438
 40
0.064453125
 40
0.0654296875
 40
0.06640625
 40
0.0673828125
 40
0.068359375
 40
0.0703125
 40
0.072265625
 40
0.07421875
 40
0.078125
 40
0.08203125
 40
0.0859375
 40
0.08984375
 40
0.09375
 40
0.09765625
 40
0.1015625
 40
0.10546875
 40
0.109375
 40
0.11328125
 40
0.115234375
 40
0.1171875
 40
0.119140625
 40
0.1201171875
 40
0.12109375
 40
0.1220703125
 40
0.123046875
 40
0.1235351562
 40
0.1240234375
 40
0.1242675781
 40
0.1245117188
 40
0.1247558594
 40
0.1248779297
 40
0.1249389648
 40
0.125
 40
0.1250610352
 40
0.1251220703
 40
0.1252441406
 40
0.1254882812
 40
0.1257324219
 40
0.1259765625
 40
0.1264648438
 40
0.126953125
 40
0.1279296875
 40
0.12890625
 40
0.1298828125
 40
0.130859375
 40
0.1328125
 40
0.134765625
 40
0.13671875
 40
0.140625
 40
0.14453125
 40
0.1484375
 40
0.15234375
 40
0.15625
 40
0.16015625
 40
0.1640625
 40
0.16796875
 40
0.171875
 40
0.17578125
 40
0.177734375
 40
0.1796875
 40
0.181640625
 40
0.1826171875
 40
0.18359375
 40
0.1845703125
 40
0.185546875
 40
0.1860351562
 40
0.1865234375
 40
0.1867675781
 40
0.1870117188
 40
0.1872558594
 40
0.1873779297
 40
0.1874389648
 40
0.1875
 40
0.1875610352
 40
0.1876220703
 40
0.1877441406
 40
0.1879882812
 40
0.1882324219
 40
0.1884765625
 40
0.1889648438
 40
0.189453125
 40
0.1904296875
 40
0.19140625
 40
0.1923828125
 40
0.193359375
 40
0.1953125
 40
0.197265625
 40
0.19921875
 40
0.203125
 40
0.20703125
 40
0.2109375
 40
0.21484375
 40
0.21875
 40
0.22265625
 40
0.2265625
 40
0.23046875
 40
0.234375
 40
0.23828125
 40
0.240234375
 40
0.2421875
 40
0.244140625
 40
0.2451171875
 40
0.24609375
 40
0.2470703125
 40
0.248046875
 40
0.2485351562
 40
0.2490234375
 40
0.2492675781
 40
0.2495117188
 40
0.2497558594
 40
0.2498779297
 40
0.2499389648
 40
0.25
 40
0.2500610352
 40
0.2501220703
 40
0.2502441406
 40
0.2504882812
 40
0.2507324219
 40
0.2509765625
 40
0.2514648438
 40
0.251953125
 40
0.2529296875
 40
0.25390625
 40
0.2548828125
 40
0.255859375
 40
0.2578125
 40
0.259765625
 40
0.26171875
 40
0.265625
 40
0.26953125
 40
0.2734375
 40
0.27734375
 40
0.28125
 40
0.28515625
 40
0.2890625
 40
0.29296875
 40
0.296875
 40
0.30078125
 40
0.302734375
 40
0.3046875
 40
0.306640625
 40
0.3076171875
 40
0.30859375
 40
0.3095703125
 40
0.310546875
 40
0.3110351562
 40
0.3115234375
 40
0.3117675781
 40
0.3120117188
 40
0.3122558594
 40
0.3123779297
 40
0.3124389648
 40
0.3125
 40
0.3125610352
 40
0.3126220703
 40
0.3127441406
 40
0.3129882812
 40
0.3132324219
 40
0.3134765625
 40
0.3139648438
 40
0.314453125
 40
0.3154296875
 40
0.31640625
 40
0.3173828125
 40
0.318359375
 40
0.3203125
 40
0.322265625
 40
0.32421875
 40
0.328125
 40
0.33203125
 40
0.3359375
 40
0.33984375
 40
0.34375
 40
0.34765625
 40
0.3515625
 40
0.35546875
 40
0.359375
 40
0.36328125
 40
0.365234375
 40
0.3671875
 40
0.369140625
 40
0.3701171875
 40
0.37109375
 40
0.3720703125
 40
0.373046875
 40
0.3735351562
 40
0.3740234375
 40
0.3742675781
 40
0.3745117188
 40
0.3747558594
 40
0.3748779297
 40
0.3749389648
 40
0.375
 40
0.3750610352
 40
0.3751220703
 40
0.3752441406
 40
0.3754882812
 40
0.3757324219
 40
0.3759765625
 40
0.3764648438
 40
0.376953125
 40
0.3779296875
 40
0.37890625
 40
0.3798828125
 40
0.380859375
 40
0.3828125
 40
0.384765625
 40
0.38671875
 40
0.390625
 40
0.39453125
 40
0.3984375
 40
0.40234375
 40
0.40625
 40
0.41015625
 40
0.4140625
 40
0.41796875
 40
0.421875
 40
0.42578125
 40
0.427734375
 40
0.4296875
 40
0.431640625
 40
0.4326171875
 40
0.43359375
 40
0.4345703125
 40
0.435546875
 40
0.4360351562
 40
0.4365234375
 40
0.4367675781
 40
0.4370117188
 40
0.4372558594
 40
0.4373779297
 40
0.4374389648
 40
0.4375
 40
0.4375610352
 40
0.4376220703
 40
0.4377441406
 40
0.4379882812
 40
0.4382324219
 40
0.4384765625
 40
0.4389648438
 40
0.439453125
 40
0.4404296875
 40
0.44140625
 40
0.4423828125
 40
0.443359375
 40
0.4453125
 40
0.447265625
 40
0.44921875
 40
0.453125
 40
0.45703125
 40
0.4609375
 40
0.46484375
 40
0.46875
 40
0.47265625
 40
0.4765625
 40
0.48046875
 40
0.484375
 40
0.48828125
 40
0.490234375
 40
0.4921875
 40
0.494140625
 40
0.4951171875
 40
0.49609375
 40
0.4970703125
 40
0.498046875
 40
0.4985351562
 40
0.4990234375
 40
0.4992675781
 40
0.4995117188
 40
0.4997558594
 40
0.4998779297
 40
0.4999389648
 40
0.5
 40
0.5000610352
 40
0.5001220703
 40
0.5002441406
 40
0.5004882812
 40
0.5007324219
 40
0.5009765625
 40
0.5014648438
 40
0.501953125
 40
0.5029296875
 40
0.50390625
 40
0.5048828125
 40
0.505859375
 40
0.5078125
 40
0.509765625
 40
0.51171875
 40
0.515625
 40
0.51953125
 40
0.5234375
 40
0.52734375
 40
0.53125
 40
0.53515625
 40
0.5390625
 40
0.54296875
 40
0.546875
 40
0.55078125
 40
0.552734375
 40
0.5546875
 40
0.556640625
 40
0.5576171875
 40
0.55859375
 40
0.5595703125
 40
0.560546875
 40
0.5610351562
 40
0.5615234375
 40
0.5617675781
 40
0.5620117188
 40
0.5622558594
 40
0.5623779297
 40
0.5624389648
 40
0.5625
 40
0.5625610352
 40
0.5626220703
 40
0.5627441406
 40
0.5629882812
 40
0.5632324219
 40
0.5634765625
 40
0.5639648438
 40
0.564453125
 40
0.5654296875
 40
0.56640625
 40
0.5673828125
 40
0.568359375
 40
0.5703125
 40
0.572265625
 40
0.57421875
 40
0.578125
 40
0.58203125
 40
0.5859375
 40
0.58984375
 40
0.59375
 40
0.59765625
 40
0.6015625
 40
0.60546875
 40
0.609375
 40
0.61328125
 40
0.615234375
 40
0.6171875
 40
0.619140625
 40
0.6201171875
 40
0.62109375
 40
0.6220703125
 40
0.623046875
 40
0.6235351562
 40
0.6240234375
 40
0.6242675781
 40
0.6245117188
 40
0.6247558594
 40
0.6248779297
 40
0.6249389648
 40
0.625
 40
0.6250610352
 40
0.6251220703
 40
0.6252441406
 40
0.6254882812
 40
0.6257324219
 40
0.6259765625
 40
0.6264648438
 40
0.626953125
 40
0.6279296875
 40
0.62890625
 40
0.6298828125
 40
0.630859375
 40
0.6328125
 40
0.634765625
 40
0.63671875
 40
0.640625
 40
0.64453125
 40
0.6484375
 40
0.65234375
 40
0.65625
 40
0.66015625
 40
0.6640625
 40
0.66796875
 40
0.671875
 40
0.67578125
 40
0.677734375
 40
0.6796875
 40
0.681640625
 40
0.6826171875
 40
0.68359375
 40
0.6845703125
 40
0.685546875
 40
0.6860351562
 40
0.6865234375
 40
0.6867675781
 40
0.6870117188
 40
0.6872558594
 40
0.6873779297
 40
0.6874389648
 40
0.6875
 40
0.6875610352
 40
0.6876220703
 40
0.6877441406
 40
0.6879882812
 40
0.6882324219
 40
0.6884765625
 40
0.6889648438
 40
0.689453125
 40
0.6904296875
 40
0.69140625
 40
0.6923828125
 40
0.693359375
 40
0.6953125
 40
0.697265625
 40
0.69921875
 40
0.703125
 40
0.70703125
 40
0.7109375
 40
0.71484375
 40
0.71875
 40
0.72265625
 40
0.7265625
 40
0.73046875
 40
0.734375
 40
0.73828125
 40
0.740234375
 40
0.7421875
 40
0.744140625
 40
0.7451171875
 40
0.74609375
 40
0.7470703125
 40
0.748046875
 40
0.7485351562
 40
0.7490234375
 40
0.7492675781
 40
0.7495117188
 40
0.7497558594
 40
0.7498779297
 40
0.7499389648
 40
0.75
 40
0.7500610352
 40
0.7501220703
 40
0.7502441406
 40
0.7504882812
 40
0.7507324219
 40
0.7509765625
 40
0.7514648438
 40
0.751953125
 40
0.7529296875
 40
0.75390625
 40
0.7548828125
 40
0.755859375
 40
0.7578125
 40
0.759765625
 40
0.76171875
 40
0.765625
 40
0.76953125
 40
0.7734375
 40
0.77734375
 40
0.78125
 40
0.78515625
 40
0.7890625
 40
0.79296875
 40
0.796875
 40
0.80078125
 40
0.802734375
 40
0.8046875
 40
0.806640625
 40
0.8076171875
 40
0.80859375
 40
0.8095703125
 40
0.810546875
 40
0.8110351562
 40
0.8115234375
 40
0.8117675781
 40
0.8120117188
 40
0.8122558594
 40
0.8123779297
 40
0.8124389648
 40
0.8125
 40
0.8125610352
 40
0.8126220703
 40
0.8127441406
 40
0.8129882812
 40
0.8132324219
 40
0.8134765625
 40
0.8139648438
 40
0.814453125
 40
0.8154296875
 40
0.81640625
 40
0.8173828125
 40
0.818359375
 40
0.8203125
 40
0.822265625
 40
0.82421875
 40
0.828125
 40
0.83203125
 40
0.8359375
 40
0.83984375
 40
0.84375
 40
0.84765625
 40
0.8515625
 40
0.85546875
 40
0.859375
 40
0.86328125
 40
0.865234375
 40
0.8671875
 40
0.869140625
 40
0.8701171875
 40
0.87109375
 40
0.8720703125
 40
0.873046875
 40
0.8735351562
 40
0.8740234375
 40
0.8742675781
 40
0.8745117188
 40
0.8747558594
 40
0.8748779297
 40
0.8749389648
 40
0.875
 40
0.8750610352
 40
0.8751220703
 40
0.8752441406
 40
0.8754882812
 40
0.8757324219
 40
0.8759765625
 40
0.8764648438
 40
0.876953125
 40
0.8779296875
 40
0.87890625
 40
0.8798828125
 40
0.880859375
 40
0.8828125
 40
0.884765625
 40
0.88671875
 40
0.890625
 40
0.89453125
 40
0.8984375
 40
0.90234375
 40
0.90625
 40
0.91015625
 40
0.9140625
 40
0.91796875
 40
0.921875
 40
0.92578125
 40
0.927734375
 40
0.9296875
 40
0.931640625
 40
0.9326171875
 40
0.93359375
 40
0.9345703125
 40
0.935546875
 40
0.9360351562
 40
0.9365234375
 40
0.9367675781
 40
0.9370117188
 40
0.9372558594
 40
0.9373779297
 40
0.9374389648
 40
0.9375
 40
0.9375610352
 40
0.9376220703
 40
0.9377441406
 40
0.9379882812
 40
0.9382324219
 40
0.9384765625
 40
0.9389648438
 40
0.939453125
 40
0.9404296875
 40
0.94140625
 40
0.9423828125
 40
0.943359375
 40
0.9453125
 40
0.947265625
 40
0.94921875
 40
0.953125
 40
0.95703125
 40
0.9609375
 40
0.96484375
 40
0.96875
 40
0.9765625
 40
0.984375
 40
0.9921875
 40
1.0
 40
1.0
 40
1.0
 40
1.0
 10
10.9479015878
 20
9.603383356
 30
0.0
 10
10.9477636185
 20
9.6048000441
 30
0.0
 10
10.9474876799
 20
9.6076334203
 30
0.0
 10
10.947073772
 20
9.6118834846
 30
0.0
 10
10.946659864
 20
9.616133549
 30
0.0
 10
10.9463149407
 20
9.6196752692
 30
0.0
 10
10.9460390021
 20
9.6225086455
 30
0.0
 10
10.9458320481
 20
9.6246336776
 30
0.0
 10
10.9456250942
 20
9.6267587098
 30
0.0
 10
10.9454181402
 20
9.6288837419
 30
0.0
 10
10.9452456786
 20
9.6306546021
 30
0.0
 10
10.9451077092
 20
9.6320712902
 30
0.0
 10
10.9450042322
 20
9.6331338063
 30
0.0
 10
10.9449180015
 20
9.6340192363
 30
0.0
 10
10.9448490167
 20
9.6347275804
 30
0.0
 10
10.9447972785
 20
9.6352588385
 30
0.0
 10
10.9447455391
 20
9.6357900964
 30
0.0
 10
10.9447024263
 20
9.6362328118
 30
0.0
 10
10.9446679287
 20
9.6365869831
 30
0.0
 10
10.9446463844
 20
9.6368083423
 30
0.0
 10
10.9446291108
 20
9.6369854248
 30
0.0
 10
10.9446162599
 20
9.6371182501
 30
0.0
 10
10.9446052191
 20
9.6372288952
 30
0.0
 10
10.9445981416
 20
9.6373064305
 30
0.0
 10
10.9445930806
 20
9.6373506056
 30
0.0
 10
10.944592149
 20
9.6373841054
 30
0.0
 10
10.9445802692
 20
9.6374161966
 30
0.0
 10
10.9445682482
 20
9.6374594763
 30
0.0
 10
10.9445454323
 20
9.6375349867
 30
0.0
 10
10.9445137683
 20
9.6376429785
 30
0.0
 10
10.9444753734
 20
9.6377725174
 30
0.0
 10
10.9444243192
 20
9.6379452539
 30
0.0
 10
10.9443604538
 20
9.6381611683
 30
0.0
 10
10.9442582959
 20
9.6385066348
 30
0.0
 10
10.9441305893
 20
9.6389384667
 30
0.0
 10
10.9439773454
 20
9.6394566656
 30
0.0
 10
10.9438241004
 20
9.6399748643
 30
0.0
 10
10.9436197741
 20
9.640665796
 30
0.0
 10
10.9433643661
 20
9.6415294605
 30
0.0
 10
10.9430578766
 20
9.642565858
 30
0.0
 10
10.9426492238
 20
9.6439477213
 30
0.0
 10
10.9421384079
 20
9.6456750504
 30
0.0
 10
10.9415254288
 20
9.6477478454
 30
0.0
 10
10.9409124497
 20
9.6498206404
 30
0.0
 10
10.9402994706
 20
9.6518934353
 30
0.0
 10
10.9396864916
 20
9.6539662303
 30
0.0
 10
10.9390735125
 20
9.6560390253
 30
0.0
 10
10.9384605334
 20
9.6581118202
 30
0.0
 10
10.9378475543
 20
9.6601846152
 30
0.0
 10
10.9372345752
 20
9.6622574101
 30
0.0
 10
10.9367237593
 20
9.6639847393
 30
0.0
 10
10.9363151065
 20
9.6653666026
 30
0.0
 10
10.936008617
 20
9.6664030001
 30
0.0
 10
10.935753209
 20
9.6672666646
 30
0.0
 10
10.9355488826
 20
9.6679575963
 30
0.0
 10
10.935395638
 20
9.6684757951
 30
0.0
 10
10.9352423925
 20
9.6689939936
 30
0.0
 10
10.9351146909
 20
9.6694258267
 30
0.0
 10
10.9350125228
 20
9.6697712908
 30
0.0
 10
10.9349486834
 20
9.6699872113
 30
0.0
 10
10.934897576
 20
9.6701599353
 30
0.0
 10
10.9348593437
 20
9.6702895121
 30
0.0
 10
10.9348271708
 20
9.6703973855
 30
0.0
 10
10.9348052634
 20
9.6704731073
 30
0.0
 10
10.9347917867
 20
9.6705160483
 30
0.0
 10
10.9347843786
 20
9.6705491796
 30
0.0
 10
10.9347666517
 20
9.6705787733
 30
0.0
 10
10.9347466153
 20
9.6706194656
 30
0.0
 10
10.9347098745
 20
9.6706901022
 30
0.0
 10
10.9346582643
 20
9.6707913121
 30
0.0
 10
10.9345959569
 20
9.6709126354
 30
0.0
 10
10.9345130114
 20
9.6710744448
 30
0.0
 10
10.9344092846
 20
9.671276691
 30
0.0
 10
10.9342433469
 20
9.6716002937
 30
0.0
 10
10.9340359161
 20
9.672004794
 30
0.0
 10
10.9337870029
 20
9.6724901957
 30
0.0
 10
10.9335380887
 20
9.672975597
 30
0.0
 10
10.9332062034
 20
9.6736227989
 30
0.0
 10
10.9327913467
 20
9.6744318013
 30
0.0
 10
10.9322935187
 20
9.6754026041
 30
0.0
 10
10.931629748
 20
9.6766970079
 30
0.0
 10
10.9308000346
 20
9.6783150126
 30
0.0
 10
10.9298043786
 20
9.6802566182
 30
0.0
 10
10.9288087225
 20
9.6821982239
 30
0.0
 10
10.9278130665
 20
9.6841398295
 30
0.0
 10
10.9268174105
 20
9.6860814351
 30
0.0
 10
10.9258217544
 20
9.6880230408
 30
0.0
 10
10.9248260984
 20
9.6899646464
 30
0.0
 10
10.9238304424
 20
9.6919062521
 30
0.0
 10
10.9228347863
 20
9.6938478577
 30
0.0
 10
10.9220050729
 20
9.6954658624
 30
0.0
 10
10.9213413023
 20
9.6967602662
 30
0.0
 10
10.9208434742
 20
9.697731069
 30
0.0
 10
10.9204286176
 20
9.6985400714
 30
0.0
 10
10.9200967322
 20
9.6991872732
 30
0.0
 10
10.9198478184
 20
9.6996726747
 30
0.0
 10
10.9195989036
 20
9.7001580758
 30
0.0
 10
10.9193914776
 20
9.7005625781
 30
0.0
 10
10.9192255301
 20
9.7008861767
 30
0.0
 10
10.9191218282
 20
9.7010884331
 30
0.0
 10
10.9190388318
 20
9.7012502217
 30
0.0
 10
10.9189766799
 20
9.7013716084
 30
0.0
 10
10.918924583
 20
9.7014726199
 30
0.0
 10
10.9188887111
 20
9.7015436108
 30
0.0
 10
10.9188672825
 20
9.7015837353
 30
0.0
 10
10.9188538318
 20
9.7016150731
 30
0.0
 10
10.9188303631
 20
9.7016416539
 30
0.0
 10
10.9188025659
 20
9.7016787543
 30
0.0
 10
10.9187522926
 20
9.7017429068
 30
0.0
 10
10.9186813249
 20
9.7018349575
 30
0.0
 10
10.9185957993
 20
9.7019452452
 30
0.0
 10
10.9184818924
 20
9.702092356
 30
0.0
 10
10.9183394652
 20
9.7022762238
 30
0.0
 10
10.9181116061
 20
9.7025704239
 30
0.0
 10
10.9178267738
 20
9.70293817
 30
0.0
 10
10.9174849786
 20
9.703379467
 30
0.0
 10
10.9171431824
 20
9.7038207636
 30
0.0
 10
10.9166874546
 20
9.7044091591
 30
0.0
 10
10.9161177947
 20
9.7051446535
 30
0.0
 10
10.9154342028
 20
9.7060272469
 30
0.0
 10
10.914522747
 20
9.7072040379
 30
0.0
 10
10.9133834272
 20
9.7086750268
 30
0.0
 10
10.9120162435
 20
9.7104402134
 30
0.0
 10
10.9106490598
 20
9.7122054001
 30
0.0
 10
10.909281876
 20
9.7139705867
 30
0.0
 10
10.9079146923
 20
9.7157357733
 30
0.0
 10
10.9065475086
 20
9.7175009599
 30
0.0
 10
10.9051803248
 20
9.7192661466
 30
0.0
 10
10.9038131411
 20
9.7210313332
 30
0.0
 10
10.9024459574
 20
9.7227965198
 30
0.0
 10
10.9013066376
 20
9.7242675087
 30
0.0
 10
10.9003951818
 20
9.7254442998
 30
0.0
 10
10.8997115899
 20
9.7263268931
 30
0.0
 10
10.89914193
 20
9.7270623875
 30
0.0
 10
10.8986862021
 20
9.727650783
 30
0.0
 10
10.8983444063
 20
9.7280920798
 30
0.0
 10
10.8980026098
 20
9.7285333759
 30
0.0
 10
10.8977177816
 20
9.728901125
 30
0.0
 10
10.8974899141
 20
9.7291953189
 30
0.0
 10
10.8973475081
 20
9.7293792025
 30
0.0
 10
10.8972335577
 20
9.7295262808
 30
0.0
 10
10.8971481648
 20
9.7296366679
 30
0.0
 10
10.897076782
 20
9.7297284076
 30
0.0
 10
10.8970272497
 20
9.7297931152
 30
0.0
 10
10.8969982653
 20
9.7298293262
 30
0.0
 10
10.8969784432
 20
9.7298586388
 30
0.0
 10
10.8969512966
 20
9.7298797165
 30
0.0
 10
10.896917656
 20
9.7299106925
 30
0.0
 10
10.8968575946
 20
9.7299635622
 30
0.0
 10
10.896772415
 20
9.73003979
 30
0.0
 10
10.8966699331
 20
9.7301309638
 30
0.0
 10
10.8965333835
 20
9.7302526336
 30
0.0
 10
10.8963626647
 20
9.730404685
 30
0.0
 10
10.8960895325
 20
9.7306479872
 30
0.0
 10
10.895748111
 20
9.7309521081
 30
0.0
 10
10.8953384079
 20
9.7313170561
 30
0.0
 10
10.8949287041
 20
9.7316820034
 30
0.0
 10
10.8943824327
 20
9.7321686
 30
0.0
 10
10.8936995932
 20
9.7327768457
 30
0.0
 10
10.8928801859
 20
9.7335067405
 30
0.0
 10
10.8917876429
 20
9.7344799336
 30
0.0
 10
10.890421964
 20
9.735696425
 30
0.0
 10
10.8887831494
 20
9.7371562147
 30
0.0
 10
10.8871443348
 20
9.7386160043
 30
0.0
 10
10.8855055203
 20
9.740075794
 30
0.0
 10
10.8838667057
 20
9.7415355836
 30
0.0
 10
10.8822278911
 20
9.7429953733
 30
0.0
 10
10.8805890765
 20
9.744455163
 30
0.0
 10
10.8789502619
 20
9.7459149526
 30
0.0
 10
10.8773114473
 20
9.7473747423
 30
0.0
 10
10.8759457684
 20
9.7485912337
 30
0.0
 10
10.8748532254
 20
9.7495644268
 30
0.0
 10
10.8740338181
 20
9.7502943216
 30
0.0
 10
10.8733509787
 20
9.7509025673
 30
0.0
 10
10.8728047071
 20
9.7513891638
 30
0.0
 10
10.8723950036
 20
9.7517541114
 30
0.0
 10
10.8719852995
 20
9.7521190582
 30
0.0
 10
10.8716438812
 20
9.7524231831
 30
0.0
 10
10.8713707425
 20
9.7526664771
 30
0.0
 10
10.8712000402
 20
9.7528185493
 30
0.0
 10
10.8710634568
 20
9.7529401763
 30
0.0
 10
10.8709610784
 20
9.7530314808
 30
0.0
 10
10.8708755748
 20
9.7531072999
 30
0.0
 10
10.8708160916
 20
9.7531608992
 30
0.0
 10
10.8707815247
 20
9.7531907061
 30
0.0
 10
10.8707572237
 20
9.7532153749
 30
0.0
 10
10.870726714
 20
9.7532311998
 30
0.0
 10
10.8706882
 20
9.7532553845
 30
0.0
 10
10.8706197916
 20
9.7532962705
 30
0.0
 10
10.8705225928
 20
9.7533554304
 30
0.0
 10
10.8704057285
 20
9.7534261007
 30
0.0
 10
10.8702499882
 20
9.7535204401
 30
0.0
 10
10.8700552858
 20
9.7536383258
 30
0.0
 10
10.8697437772
 20
9.7538269645
 30
0.0
 10
10.8693543862
 20
9.7540627556
 30
0.0
 10
10.8688871192
 20
9.7543457079
 30
0.0
 10
10.8684198517
 20
9.7546286595
 30
0.0
 10
10.8677968284
 20
9.7550059285
 30
0.0
 10
10.8670180494
 20
9.7554775146
 30
0.0
 10
10.8660835145
 20
9.7560434181
 30
0.0
 10
10.864837468
 20
9.756797956
 30
0.0
 10
10.8632799098
 20
9.7577411283
 30
0.0
 10
10.8614108401
 20
9.7588729352
 30
0.0
 10
10.8595417703
 20
9.760004742
 30
0.0
 10
10.8576727005
 20
9.7611365489
 30
0.0
 10
10.8558036308
 20
9.7622683557
 30
0.0
 10
10.853934561
 20
9.7634001625
 30
0.0
 10
10.8520654912
 20
9.7645319694
 30
0.0
 10
10.8501964215
 20
9.7656637762
 30
0.0
 10
10.8483273517
 20
9.7667955831
 30
0.0
 10
10.8467697936
 20
9.7677387554
 30
0.0
 10
10.845523747
 20
9.7684932933
 30
0.0
 10
10.8445892122
 20
9.7690591968
 30
0.0
 10
10.8438104331
 20
9.769530783
 30
0.0
 10
10.8431874098
 20
9.7699080519
 30
0.0
 10
10.8427201425
 20
9.7701910038
 30
0.0
 10
10.8422528747
 20
9.7704739547
 30
0.0
 10
10.8418634862
 20
9.7707097502
 30
0.0
 10
10.8415519725
 20
9.7708983798
 30
0.0
 10
10.841357283
 20
9.7710162886
 30
0.0
 10
10.8412015164
 20
9.7711105808
 30
0.0
 10
10.8410847323
 20
9.7711813953
 30
0.0
 10
10.8409872823
 20
9.771240104
 30
0.0
 10
10.8409193224
 20
9.7712817953
 30
0.0
 10
10.8408800898
 20
9.7713046897
 30
0.0
 10
10.8408517875
 20
9.7713244782
 30
0.0
 10
10.840819196
 20
9.7713342603
 30
0.0
 10
10.8407772369
 20
9.7713507935
 30
0.0
 10
10.8407031113
 20
9.7713781004
 30
0.0
 10
10.840597582
 20
9.7714179603
 30
0.0
 10
10.8404707909
 20
9.7714654284
 30
0.0
 10
10.8403017906
 20
9.7715288463
 30
0.0
 10
10.8400905216
 20
9.7716080751
 30
0.0
 10
10.8397525015
 20
9.7717348656
 30
0.0
 10
10.8393299729
 20
9.7718933453
 30
0.0
 10
10.83882294
 20
9.7720835245
 30
0.0
 10
10.8383159068
 20
9.7722737027
 30
0.0
 10
10.8376398626
 20
9.7725272741
 30
0.0
 10
10.8367948073
 20
9.7728442382
 30
0.0
 10
10.835780741
 20
9.7732245951
 30
0.0
 10
10.8344286526
 20
9.7737317377
 30
0.0
 10
10.832738542
 20
9.7743656659
 30
0.0
 10
10.8307104094
 20
9.7751263797
 30
0.0
 10
10.8286822767
 20
9.7758870936
 30
0.0
 10
10.8266541441
 20
9.7766478074
 30
0.0
 10
10.8246260114
 20
9.7774085213
 30
0.0
 10
10.8225978788
 20
9.7781692352
 30
0.0
 10
10.8205697461
 20
9.778929949
 30
0.0
 10
10.8185416135
 20
9.7796906629
 30
0.0
 10
10.8165134808
 20
9.7804513767
 30
0.0
 10
10.8148233703
 20
9.7810853049
 30
0.0
 10
10.8134712818
 20
9.7815924475
 30
0.0
 10
10.8124572155
 20
9.7819728044
 30
0.0
 10
10.8116121602
 20
9.7822897686
 30
0.0
 10
10.810936116
 20
9.7825433398
 30
0.0
 10
10.8104290829
 20
9.7827335185
 30
0.0
 10
10.8099220495
 20
9.7829236961
 30
0.0
 10
10.8094995226
 20
9.7830821807
 30
0.0
 10
10.809161499
 20
9.7832089612
 30
0.0
 10
10.8089502391
 20
9.7832882153
 30
0.0
 10
10.8087812199
 20
9.7833515813
 30
0.0
 10
10.8086544864
 20
9.7833992078
 30
0.0
 10
10.8085487772
 20
9.7834385719
 30
0.0
 10
10.8084749728
 20
9.7834667641
 30
0.0
 10
10.808432499
 20
9.7834818788
 30
0.0
 10
10.8084014883
 20
9.783496018
 30
0.0
 10
10.8083672489
 20
9.7834994422
 30
0.0
 10
10.8083227225
 20
9.7835077453
 30
0.0
 10
10.8082442765
 20
9.7835205344
 30
0.0
 10
10.8081324852
 20
9.7835397149
 30
0.0
 10
10.8079982183
 20
9.7835623418
 30
0.0
 10
10.8078192367
 20
9.7835926472
 30
0.0
 10
10.8075954956
 20
9.7836304822
 30
0.0
 10
10.8072375178
 20
9.7836910444
 30
0.0
 10
10.8067900428
 20
9.7837667382
 30
0.0
 10
10.8062530739
 20
9.7838575746
 30
0.0
 10
10.8057161048
 20
9.78394841
 30
0.0
 10
10.805000146
 20
9.7840695241
 30
0.0
 10
10.8041051975
 20
9.7842209167
 30
0.0
 10
10.8030312594
 20
9.7844025879
 30
0.0
 10
10.8015993418
 20
9.7846448161
 30
0.0
 10
10.7998094448
 20
9.7849476013
 30
0.0
 10
10.7976615685
 20
9.7853109436
 30
0.0
 10
10.7955136922
 20
9.7856742859
 30
0.0
 10
10.7933658158
 20
9.7860376282
 30
0.0
 10
10.7912179395
 20
9.7864009705
 30
0.0
 10
10.7890700632
 20
9.7867643127
 30
0.0
 10
10.7869221868
 20
9.787127655
 30
0.0
 10
10.7847743105
 20
9.7874909973
 30
0.0
 10
10.7826264341
 20
9.7878543396
 30
0.0
 10
10.7808365372
 20
9.7881571249
 30
0.0
 10
10.7794046196
 20
9.788399353
 30
0.0
 10
10.7783306815
 20
9.7885810242
 30
0.0
 10
10.777435733
 20
9.7887324168
 30
0.0
 10
10.7767197742
 20
9.7888535309
 30
0.0
 10
10.7761828051
 20
9.7889443667
 30
0.0
 10
10.7756458361
 20
9.7890352014
 30
0.0
 10
10.7751983616
 20
9.7891109004
 30
0.0
 10
10.7748403827
 20
9.7891714519
 30
0.0
 10
10.7746166444
 20
9.789209314
 30
0.0
 10
10.7744376572
 20
9.7892395639
 30
0.0
 10
10.7743034073
 20
9.7892623603
 30
0.0
 10
10.7741915627
 20
9.7892810108
 30
0.0
 10
10.7741132119
 20
9.789294746
 30
0.0
 10
10.7740685331
 20
9.7893015331
 30
0.0
 10
10.7740347616
 20
9.7893096139
 30
0.0
 10
10.7740019932
 20
9.7893062638
 30
0.0
 10
10.773957952
 20
9.7893057843
 30
0.0
 10
10.773881043
 20
9.7893030874
 30
0.0
 10
10.7737710877
 20
9.7893002058
 30
0.0
 10
10.7736391779
 20
9.7892963323
 30
0.0
 10
10.7734632854
 20
9.7892913127
 30
0.0
 10
10.7732434242
 20
9.7892849886
 30
0.0
 10
10.7728916437
 20
9.7892748978
 30
0.0
 10
10.772451919
 20
9.7892622747
 30
0.0
 10
10.7719242489
 20
9.7892471311
 30
0.0
 10
10.771396579
 20
9.7892319864
 30
0.0
 10
10.770693019
 20
9.7892117939
 30
0.0
 10
10.7698135691
 20
9.7891865531
 30
0.0
 10
10.7687582292
 20
9.7891562642
 30
0.0
 10
10.7673511092
 20
9.789115879
 30
0.0
 10
10.7655922094
 20
9.7890653975
 30
0.0
 10
10.7634815295
 20
9.7890048196
 30
0.0
 10
10.7613708497
 20
9.7889442418
 30
0.0
 10
10.7592601698
 20
9.788883664
 30
0.0
 10
10.7571494899
 20
9.7888230862
 30
0.0
 10
10.7550388101
 20
9.7887625084
 30
0.0
 10
10.7529281302
 20
9.7887019305
 30
0.0
 10
10.7508174504
 20
9.7886413527
 30
0.0
 10
10.7487067705
 20
9.7885807749
 30
0.0
 10
10.7469478706
 20
9.7885302934
 30
0.0
 10
10.7455407507
 20
9.7884899081
 30
0.0
 10
10.7444854108
 20
9.7884596192
 30
0.0
 10
10.7436059608
 20
9.7884343785
 30
0.0
 10
10.7429024009
 20
9.7884141858
 30
0.0
 10
10.7423747309
 20
9.7883990416
 30
0.0
 10
10.7418470611
 20
9.7883838963
 30
0.0
 10
10.7414073356
 20
9.7883712785
 30
0.0
 10
10.7410555567
 20
9.7883611769
 30
0.0
 10
10.7408356916
 20
9.7883548802
 30
0.0
 10
10.740659807
 20
9.7883498043
 30
0.0
 10
10.7405278729
 20
9.7883461031
 30
0.0
 10
10.7404179936
 20
9.7883426824
 30
0.0
 10
10.7403409491
 20
9.788340948
 30
0.0
 10
10.740297125
 20
9.7883389262
 30
0.0
 10
10.7402636898
 20
9.7883403134
 30
0.0
 10
10.7402324224
 20
9.7883306019
 30
0.0
 10
10.7401899764
 20
9.7883215246
 30
0.0
 10
10.7401160482
 20
9.7883038356
 30
0.0
 10
10.7400102523
 20
9.7882795086
 30
0.0
 10
10.7398833761
 20
9.7882499125
 30
0.0
 10
10.7397141803
 20
9.7882105921
 30
0.0
 10
10.739502695
 20
9.7881613933
 30
0.0
 10
10.7391643131
 20
9.7880827022
 30
0.0
 10
10.7387413377
 20
9.7879843291
 30
0.0
 10
10.7382337663
 20
9.7878662854
 30
0.0
 10
10.7377261952
 20
9.7877482406
 30
0.0
 10
10.7370494336
 20
9.7875908479
 30
0.0
 10
10.7362034816
 20
9.7873941068
 30
0.0
 10
10.7351883393
 20
9.7871580177
 30
0.0
 10
10.7338348161
 20
9.7868432321
 30
0.0
 10
10.7321429122
 20
9.7864497501
 30
0.0
 10
10.7301126275
 20
9.7859775717
 30
0.0
 10
10.7280823428
 20
9.7855053933
 30
0.0
 10
10.7260520581
 20
9.785033215
 30
0.0
 10
10.7240217733
 20
9.7845610366
 30
0.0
 10
10.7219914886
 20
9.7840888582
 30
0.0
 10
10.7199612039
 20
9.7836166799
 30
0.0
 10
10.7179309192
 20
9.7831445015
 30
0.0
 10
10.7159006345
 20
9.7826723231
 30
0.0
 10
10.7142087305
 20
9.7822788411
 30
0.0
 10
10.7128552074
 20
9.7819640556
 30
0.0
 10
10.711840065
 20
9.7817279664
 30
0.0
 10
10.7109941131
 20
9.7815312254
 30
0.0
 10
10.7103173515
 20
9.7813738325
 30
0.0
 10
10.7098097803
 20
9.7812557882
 30
0.0
 10
10.7093022094
 20
9.7811377428
 30
0.0
 10
10.7088792324
 20
9.7810393748
 30
0.0
 10
10.7085408537
 20
9.7809606733
 30
0.0
 10
10.7083293605
 20
9.780911501
 30
0.0
 10
10.7081601807
 20
9.7808721262
 30
0.0
 10
10.7080332554
 20
9.7808426962
 30
0.0
 10
10.7079276132
 20
9.7808178496
 30
0.0
 10
10.7078534107
 20
9.7808010882
 30
0.0
 10
10.7078114042
 20
9.7807905246
 30
0.0
 10
10.7077787868
 20
9.7807853786
 30
0.0
 10
10.7077504223
 20
9.7807696188
 30
0.0
 10
10.7077111196
 20
9.780752308
 30
0.0
 10
10.707643031
 20
9.7807202891
 30
0.0
 10
10.7075454002
 20
9.7806754497
 30
0.0
 10
10.707428398
 20
9.7806212564
 30
0.0
 10
10.7072723409
 20
9.7805491335
 30
0.0
 10
10.7070772881
 20
9.7804589337
 30
0.0
 10
10.7067651933
 20
9.7803146398
 30
0.0
 10
10.7063750784
 20
9.7801342636
 30
0.0
 10
10.7059069389
 20
9.779917816
 30
0.0
 10
10.7054387998
 20
9.7797013673
 30
0.0
 10
10.7048146142
 20
9.7794127695
 30
0.0
 10
10.7040343823
 20
9.779052022
 30
0.0
 10
10.7030981039
 20
9.7786191251
 30
0.0
 10
10.7018497328
 20
9.7780419293
 30
0.0
 10
10.7002892689
 20
9.7773204344
 30
0.0
 10
10.6984167123
 20
9.7764546407
 30
0.0
 10
10.6965441556
 20
9.7755888469
 30
0.0
 10
10.694671599
 20
9.7747230531
 30
0.0
 10
10.6927990423
 20
9.7738572593
 30
0.0
 10
10.6909264856
 20
9.7729914655
 30
0.0
 10
10.689053929
 20
9.7721256717
 30
0.0
 10
10.6871813723
 20
9.7712598779
 30
0.0
 10
10.6853088156
 20
9.7703940841
 30
0.0
 10
10.6837483518
 20
9.7696725893
 30
0.0
 10
10.6824999806
 20
9.7690953934
 30
0.0
 10
10.6815637023
 20
9.7686624965
 30
0.0
 10
10.6807834704
 20
9.7683017491
 30
0.0
 10
10.6801592848
 20
9.7680131511
 30
0.0
 10
10.6796911456
 20
9.7677967029
 30
0.0
 10
10.6792230068
 20
9.7675802536
 30
0.0
 10
10.6788328896
 20
9.7673998824
 30
0.0
 10
10.6785207994
 20
9.7672555784
 30
0.0
 10
10.6783257348
 20
9.7671654043
 30
0.0
 10
10.678169702
 20
9.7670932288
 30
0.0
 10
10.6780526255
 20
9.7670391962
 30
0.0
 10
10.677955227
 20
9.7669938539
 30
0.0
 10
10.6778867238
 20
9.7669627327
 30
0.0
 10
10.6778480854
 20
9.7669439837
 30
0.0
 10
10.6778176804
 20
9.7669326416
 30
0.0
 10
10.6777927271
 20
9.7669109034
 30
0.0
 10
10.6777575545
 20
9.7668855454
 30
0.0
 10
10.6776968885
 20
9.7668394794
 30
0.0
 10
10.6776097594
 20
9.7667745541
 30
0.0
 10
10.6775054029
 20
9.7666962656
 30
0.0
 10
10.6773661916
 20
9.766592013
 30
0.0
 10
10.6771922011
 20
9.7664616521
 30
0.0
 10
10.6769138031
 20
9.7662530999
 30
0.0
 10
10.6765658102
 20
9.765992401
 30
0.0
 10
10.6761482168
 20
9.7656795661
 30
0.0
 10
10.6757306239
 20
9.7653667301
 30
0.0
 10
10.6751738331
 20
9.7649496158
 30
0.0
 10
10.6744778448
 20
9.7644282228
 30
0.0
 10
10.6736426587
 20
9.7638025513
 30
0.0
 10
10.6725290773
 20
9.7629683226
 30
0.0
 10
10.6711371005
 20
9.7619255368
 30
0.0
 10
10.6694667284
 20
9.7606741938
 30
0.0
 10
10.6677963563
 20
9.7594228507
 30
0.0
 10
10.6661259842
 20
9.7581715077
 30
0.0
 10
10.6644556121
 20
9.7569201647
 30
0.0
 10
10.66278524
 20
9.7556688216
 30
0.0
 10
10.6611148679
 20
9.7544174786
 30
0.0
 10
10.6594444957
 20
9.7531661356
 30
0.0
 10
10.6577741236
 20
9.7519147925
 30
0.0
 10
10.6563821469
 20
9.7508720067
 30
0.0
 10
10.6552685655
 20
9.750037778
 30
0.0
 10
10.6544333794
 20
9.7494121064
 30
0.0
 10
10.653737391
 20
9.7488907135
 30
0.0
 10
10.6531806003
 20
9.7484735991
 30
0.0
 10
10.6527630071
 20
9.7481607635
 30
0.0
 10
10.6523454148
 20
9.7478479272
 30
0.0
 10
10.6519974185
 20
9.7475872326
 30
0.0
 10
10.6517190274
 20
9.7473786716
 30
0.0
 10
10.6515450196
 20
9.747248333
 30
0.0
 10
10.6514058438
 20
9.7471440346
 30
0.0
 10
10.6513013787
 20
9.7470658863
 30
0.0
 10
10.6512145894
 20
9.7470005224
 30
0.0
 10
10.6511533169
 20
9.7469552394
 30
0.0
 10
10.6511191159
 20
9.7469286268
 30
0.0
 10
10.651091178
 20
9.7469107422
 30
0.0
 10
10.651071983
 20
9.7468849268
 30
0.0
 10
10.65104334
 20
9.7468532726
 30
0.0
 10
10.6509946356
 20
9.7467965889
 30
0.0
 10
10.650924315
 20
9.746716286
 30
0.0
 10
10.6508402483
 20
9.7466196341
 30
0.0
 10
10.6507280483
 20
9.7464908657
 30
0.0
 10
10.6505878363
 20
9.7463298706
 30
0.0
 10
10.6503634758
 20
9.7460722978
 30
0.0
 10
10.6500830326
 20
9.7457503252
 30
0.0
 10
10.6497464975
 20
9.7453639609
 30
0.0
 10
10.6494099634
 20
9.7449775958
 30
0.0
 10
10.6489612508
 20
9.7444624426
 30
0.0
 10
10.6484003602
 20
9.7438185011
 30
0.0
 10
10.6477272915
 20
9.7430457713
 30
0.0
 10
10.6468298665
 20
9.7420154648
 30
0.0
 10
10.6457080852
 20
9.7407275818
 30
0.0
 10
10.6443619477
 20
9.7391821222
 30
0.0
 10
10.6430158103
 20
9.7376366625
 30
0.0
 10
10.6416696728
 20
9.7360912029
 30
0.0
 10
10.6403235353
 20
9.7345457432
 30
0.0
 10
10.6389773978
 20
9.7330002836
 30
0.0
 10
10.6376312603
 20
9.7314548239
 30
0.0
 10
10.6362851228
 20
9.7299093643
 30
0.0
 10
10.6349389854
 20
9.7283639047
 30
0.0
 10
10.6338172041
 20
9.7270760216
 30
0.0
 10
10.6329197791
 20
9.7260457152
 30
0.0
 10
10.6322467104
 20
9.7252729854
 30
0.0
 10
10.6316858197
 20
9.7246290439
 30
0.0
 10
10.6312371073
 20
9.7241138906
 30
0.0
 10
10.6309005728
 20
9.7237275258
 30
0.0
 10
10.6305640391
 20
9.7233411604
 30
0.0
 10
10.6302835916
 20
9.7230191913
 30
0.0
 10
10.6300592398
 20
9.7227616114
 30
0.0
 10
10.6299190058
 20
9.7226006343
 30
0.0
 10
10.6298068509
 20
9.7224718289
 30
0.0
 10
10.6297226464
 20
9.7223752901
 30
0.0
 10
10.629652757
 20
9.7222946334
 30
0.0
 10
10.6296032828
 20
9.7222385813
 30
0.0
 10
10.6295758732
 20
9.7222059151
 30
0.0
 10
10.6295528897
 20
9.7221832081
 30
0.0
 10
10.6295391806
 20
9.7221536491
 30
0.0
 10
10.6295176669
 20
9.7221166271
 30
0.0
 10
10.6294815251
 20
9.7220507251
 30
0.0
 10
10.6294291059
 20
9.7219571616
 30
0.0
 10
10.6293665402
 20
9.7218446362
 30
0.0
 10
10.6292830014
 20
9.7216946894
 30
0.0
 10
10.6291786183
 20
9.721507226
 30
0.0
 10
10.6290115828
 20
9.7212073013
 30
0.0
 10
10.6288027962
 20
9.7208323897
 30
0.0
 10
10.6285522489
 20
9.7203824983
 30
0.0
 10
10.6283017024
 20
9.7199326062
 30
0.0
 10
10.6279676402
 20
9.7193327503
 30
0.0
 10
10.6275500626
 20
9.7185829303
 30
0.0
 10
10.6270489694
 20
9.7176831463
 30
0.0
 10
10.6263808451
 20
9.7164834344
 30
0.0
 10
10.6255456897
 20
9.7149837945
 30
0.0
 10
10.6245435033
 20
9.7131842266
 30
0.0
 10
10.6235413169
 20
9.7113846587
 30
0.0
 10
10.6225391305
 20
9.7095850908
 30
0.0
 10
10.6215369441
 20
9.7077855229
 30
0.0
 10
10.6205347577
 20
9.705985955
 30
0.0
 10
10.6195325713
 20
9.7041863871
 30
0.0
 10
10.6185303848
 20
9.7023868192
 30
0.0
 10
10.6175281984
 20
9.7005872513
 30
0.0
 10
10.6166930431
 20
9.6990876113
 30
0.0
 10
10.6160249188
 20
9.6978878994
 30
0.0
 10
10.6155238256
 20
9.6969881154
 30
0.0
 10
10.6151062479
 20
9.6962382955
 30
0.0
 10
10.6147721858
 20
9.6956384395
 30
0.0
 10
10.614521639
 20
9.6951885476
 30
0.0
 10
10.6142710932
 20
9.6947386553
 30
0.0
 10
10.6140623019
 20
9.6943637465
 30
0.0
 10
10.6138952758
 20
9.6940638161
 30
0.0
 10
10.6137908688
 20
9.6938763672
 30
0.0
 10
10.6137073791
 20
9.6937263907
 30
0.0
 10
10.6136446636
 20
9.693613956
 30
0.0
 10
10.613592713
 20
9.6935201087
 30
0.0
 10
10.6135557347
 20
9.6934547132
 30
0.0
 10
10.6135355612
 20
9.6934168797
 30
0.0
 10
10.6135177355
 20
9.6933898136
 30
0.0
 10
10.6135102135
 20
9.6933577438
 30
0.0
 10
10.6134965902
 20
9.6933167294
 30
0.0
 10
10.613474424
 20
9.6932441411
 30
0.0
 10
10.6134418825
 20
9.6931408686
 30
0.0
 10
10.6134032074
 20
9.6930167596
 30
0.0
 10
10.6133515098
 20
9.6928513445
 30
0.0
 10
10.6132869325
 20
9.6926445539
 30
0.0
 10
10.6131835838
 20
9.6923137011
 30
0.0
 10
10.6130544066
 20
9.691900131
 30
0.0
 10
10.6128993902
 20
9.6914038485
 30
0.0
 10
10.6127443748
 20
9.6909075656
 30
0.0
 10
10.6125376873
 20
9.6902458553
 30
0.0
 10
10.612279328
 20
9.6894187173
 30
0.0
 10
10.6119692968
 20
9.6884261517
 30
0.0
 10
10.6115559219
 20
9.6871027309
 30
0.0
 10
10.6110392032
 20
9.6854484549
 30
0.0
 10
10.6104191409
 20
9.6834633237
 30
0.0
 10
10.6097990785
 20
9.6814781926
 30
0.0
 10
10.6091790161
 20
9.6794930614
 30
0.0
 10
10.6085589537
 20
9.6775079302
 30
0.0
 10
10.6079388914
 20
9.675522799
 30
0.0
 10
10.607318829
 20
9.6735376678
 30
0.0
 10
10.6066987666
 20
9.6715525367
 30
0.0
 10
10.6060787042
 20
9.6695674055
 30
0.0
 10
10.6055619856
 20
9.6679131295
 30
0.0
 10
10.6051486107
 20
9.6665897087
 30
0.0
 10
10.6048385795
 20
9.6655971431
 30
0.0
 10
10.6045802201
 20
9.6647700051
 30
0.0
 10
10.6043735327
 20
9.6641082947
 30
0.0
 10
10.6042185169
 20
9.663612012
 30
0.0
 10
10.6040635022
 20
9.6631157289
 30
0.0
 10
10.6039343199
 20
9.6627021609
 30
0.0
 10
10.6038309814
 20
9.6623713037
 30
0.0
 10
10.6037663783
 20
9.6621645241
 30
0.0
 10
10.6037147338
 20
9.6619990865
 30
0.0
 10
10.6036758962
 20
9.6618750463
 30
0.0
 10
10.6036438631
 20
9.6617715587
 30
0.0
 10
10.6036207893
 20
9.6616993544
 30
0.0
 10
10.6036086201
 20
9.6616577246
 30
0.0
 10
10.6035966316
 20
9.6616275453
 30
0.0
 10
10.6035955819
 20
9.6615933786
 30
0.0
 10
10.6035903667
 20
9.6615492139
 30
0.0
 10
10.6035830179
 20
9.6614712776
 30
0.0
 10
10.6035715901
 20
9.6613602787
 30
0.0
 10
10.6035582746
 20
9.6612269351
 30
0.0
 10
10.6035403817
 20
9.6610491943
 30
0.0
 10
10.6035180631
 20
9.660827001
 30
0.0
 10
10.6034823267
 20
9.6604715013
 30
0.0
 10
10.6034376654
 20
9.6600271234
 30
0.0
 10
10.603384068
 20
9.6594938713
 30
0.0
 10
10.6033304716
 20
9.6589606188
 30
0.0
 10
10.6032590093
 20
9.6582496157
 30
0.0
 10
10.6031696816
 20
9.6573608617
 30
0.0
 10
10.6030624883
 20
9.6562943569
 30
0.0
 10
10.6029195639
 20
9.6548723506
 30
0.0
 10
10.6027409085
 20
9.6530948426
 30
0.0
 10
10.6025265219
 20
9.6509618331
 30
0.0
 10
10.6023121354
 20
9.6488288236
 30
0.0
 10
10.6020977488
 20
9.6466958141
 30
0.0
 10
10.6018119001
 20
9.6438518014
 30
0.0
 10
10.6014545891
 20
9.6402967855
 30
0.0
 10
10.601025816
 20
9.6360307664
 30
0.0
 10
10.6005970429
 20
9.6317647474
 30
0.0
 10
10.6003111941
 20
9.6289207346
 30
0.0
 10
10.6001682698
 20
9.6274987283
 30
0.0
  0
ENDSEC
  0
SECTION
  2
OBJECTS
  0
DICTIONARY
  5
C
100
AcDbDictionary
280
0
281
1
  3
ACAD_GROUP
350
D
  3
ACAD_MLINESTYLE
350
17
  3
ACAD_LAYOUT
350
1A
  3
ACAD_PLOTSETTINGS
350
19
  3
ACAD_PLOTSTYLENAME
350
E
  3
ACAD_IMAGE_DICT
350
       3A6
  3
ACAD_IMAGE_VARS
350
       3A7
  3
ACAD_TABLESTYLE
350
       3A8
  0
IMAGEDEF_REACTOR
  5
3A5
100
AcDbRasterImageDefReactor
 90
2
330
292
  0
DICTIONARY
  5
D
102
{ACAD_REACTORS
330
C
102
}
100
AcDbDictionary
280
0
281
1
  0
ACDBDICTIONARYWDFLT
  5
E
102
{ACAD_REACTORS
330
C
102
}
100
AcDbDictionary
281
1
  3
Normal
350
F
100
AcDbDictionaryWithDefault
340
F
  0
DICTIONARY
  5
3A6
330
C
100
AcDbDictionary
281
1
  3
E7J_assy_2_img_1
350
       3AB
  0
RASTERVARIABLES
  5
3A7
330
C
100
AcDbRasterVariables
 90
0
 70
0
 71
1
 72
5
  0
DICTIONARY
  5
17
102
{ACAD_REACTORS
330
C
102
}
100
AcDbDictionary
280
0
281
1
  3
Standard
350
18
  0
DICTIONARY
  5
3A8
330
C
100
AcDbDictionary
281
1
  3
Standard
350
       3AC
  3
Standard1
350
       3AD
  0
DICTIONARY
  5
19
102
{ACAD_REACTORS
330
C
102
}
100
AcDbDictionary
281
1
  0
DICTIONARY
  5
1A
102
{ACAD_REACTORS
330
C
102
}
100
AcDbDictionary
281
1
  3
Model
350
3A9
  3
Layout1
350
3AA
  0
ACDBPLACEHOLDER
  5
F
102
{ACAD_REACTORS
330
E
102
}
  0
MLINESTYLE
  5
18
102
{ACAD_REACTORS
330
17
102
}
100
AcDbMlineStyle
  2
STANDARD
 70
0
  3

 62
256
 51
90.0
 52
90.0
 71
2
 49
0.5
 62
256
  6
BYLAYER
 49
-0.5
 62
256
  6
BYLAYER
  0
LAYOUT
  5
3A9
102
{ACAD_REACTORS
330
1A
102
}
100
AcDbPlotSettings
  1

  2
none_device
  4
ANSI_C_(22.00_x_17.00_Inches)
  6

 40
0.0
 41
0.0
 42
0.0
 43
0.0
 44
558.8
 45
431.8
 46
0.0
 47
0.0
 48
0.0
 49
0.0
140
0.0
141
0.0
142
1.0
143
1.0
 70
1024
 72
0
 73
0
 74
0
  7

 75
0
147
1.0
148
0.0
149
0.0
100
AcDbLayout
  1
Model
 70
0
 71
0
 10
0.0
 20
0.0
 11
22.0
 21
17.0
 12
0.0
 22
0.0
 32
0.0
 14
0.0
 24
0.0
 34
0.0
 15
0.0
 25
0.0
 35
0.0
146
0.0
 13
0.0
 23
0.0
 33
0.0
 16
1.0
 26
0.0
 36
0.0
 17
0.0
 27
1.0
 37
0.0
 76
0
330
20C
345
0
346
0
  0
LAYOUT
  5
3AA
102
{ACAD_REACTORS
330
1A
102
}
100
AcDbPlotSettings
  1

  2
none_device
  4
ANSI_C_(22.00_x_17.00_Inches)
  6

 40
0.0
 41
0.0
 42
0.0
 43
0.0
 44
558.8
 45
431.8
 46
0.0
 47
0.0
 48
0.0
 49
0.0
140
0.0
141
0.0
142
1.0
143
1.0
 70
0
 72
0
 73
0
 74
0
  7

 75
0
147
1.0
148
0.0
149
0.0
100
AcDbLayout
  1
Layout1
 70
0
 71
1
 10
0.0
 20
0.0
 11
22.0
 21
17.0
 12
0.0
 22
0.0
 32
0.0
 14
0.0
 24
0.0
 34
0.0
 15
0.0
 25
0.0
 35
0.0
146
0.0
 13
0.0
 23
0.0
 33
0.0
 16
1.0
 26
0.0
 36
0.0
 17
0.0
 27
1.0
 37
0.0
 76
0
330
20D
345
0
346
0
  0
IMAGEDEF
  5
3AB
102
{ACAD_REACTORS
330
3A6
330
3A5
102
}
100
AcDbRasterImageDef
 90
0
  1
E7J_assy_2_img_1.png
 10
369.0
 20
92.0
 11
0.0066666667
 21
0.0066666667
280
1
281
0
  0
TABLESTYLE
  5
3AC
102
{ACAD_REACTORS
330
3A8
330
295
330
296
102
}
330
3A8
100
AcDbTableStyle
  3
Standard
 70
0
 71
0
 40
0.06
 41
0.06
280
1
281
1
  7
Standard
140
0.18
170
1
 62
0
 63
7
283
0
  7
Standard
140
0.18
170
1
 62
0
 63
7
283
0
  7
Standard
140
0.18
170
1
 62
0
 63
7
283
0
  0
TABLESTYLE
  5
3AD
102
{ACAD_REACTORS
330
3A8
330
294
102
}
330
3A8
100
AcDbTableStyle
  3
Standard1
 70
1
 71
0
 40
0.06
 41
0.06
280
1
281
1
  7
Standard
140
0.18
170
1
 62
0
 63
7
283
0
  7
Standard
140
0.18
170
1
 62
0
 63
7
283
0
  7
Standard
140
0.18
170
1
 62
0
 63
7
283
0
  0
ENDSEC
  0
EOF
