999
DXF file: E7I_assy_2.dxf
999
Pro/ENGINEER 2014200 by Parametric Technology Corporation
  0
SECTION
  2
HEADER
  9
$ACADVER
  1
AC1021
  9
$DWGCODEPAGE
  3
ANSI_1252
  9
$EXTMAX
 10
22.0
 20
17.0
 30
0.0
  9
$EXTMIN
 10
0.0
 20
0.0
 30
0.0
  9
$LIMMIN
 10
0.0
 20
0.0
  9
$LIMMAX
 10
22.0
 20
17.0
  9
$VIEWCTR
 10
11.0
 20
8.5
  9
$VIEWSIZE
 40
17.0
  9
$CLAYER
  8
0
  9
$LTSCALE
 40
1.21
  9
$CELTYPE
  6
BYLAYER
  9
$DIMSCALE
 40
1.0
  9
$DIMASZ
 40
0.1875
  9
$DIMEXO
 40
0.0625
  9
$DIMDLI
 40
0.836
  9
$DIMEXE
 40
0.125
  9
$DIMCEN
 40
0.198
  9
$DIMLFAC
 40
1.0
  9
$DIMBLK
  1
_FILLED
  9
$DIMTXT
 40
0.1
  9
$DIMTOL
 70
0
  9
$DIMLIM
 70
0
  9
$DIMTFAC
 40
1.0
  9
$DIMGAP
 40
0.09
  9
$DIMDSEP
 70
46
  9
$AUNITS
 70
0
  9
$PDMODE
 70
3
  9
$PDSIZE
 40
0.3125
  9
$HANDSEED
  5
3BE
  9
$TILEMODE
 70
1
  9
$MEASUREMENT
 70
0
  9
$INSUNITS
 70
1
  0
ENDSEC
  0
SECTION
  2
CLASSES
  0
CLASS
  1
ACDBDICTIONARYWDFLT
  2
AcDbDictionaryWithDefault
  3
AutoCAD 2000
 90
0
 91
1
280
0
281
0
  0
CLASS
  1
ACDBPLACEHOLDER
  2
AcDbPlaceHolder
  3
AutoCAD 2000
 90
0
 91
1
280
0
281
0
  0
CLASS
  1
LAYOUT
  2
AcDbLayout
  3
AutoCAD 2000
 90
0
 91
0
280
0
281
0
  0
CLASS
  1
RASTERVARIABLES
  2
AcDbRasterVariables
  3
ISM
 90
0
 91
1
280
0
281
0
  0
CLASS
  1
IMAGEDEF
  2
AcDbRasterImageDef
  3
ISM
 90
0
 91
1
280
0
281
0
  0
CLASS
  1
IMAGEDEF_REACTOR
  2
AcDbRasterImageDefReactor
  3
ISM
 90
0
 91
1
280
0
281
0
  0
CLASS
  1
IMAGE
  2
AcDbRasterImage
  3
ISM
 90
127
 91
1
280
0
281
1
  0
CLASS
  1
TABLESTYLE
  2
AcDbTableStyle
  3
ObjectDBX Classes
 90
2047
 91
1
280
0
281
0
  0
CLASS
  1
ACAD_TABLE
  2
AcDbTable
  3
ObjectDBX Classes
 90
1025
 91
3
280
0
281
1
  0
ENDSEC
  0
SECTION
  2
TABLES
  0
TABLE
  2
VPORT
  5
8
100
AcDbSymbolTable
 70
2
  0
VPORT
  5
1F4
100
AcDbSymbolTableRecord
100
AcDbViewportTableRecord
  2
*ACTIVE
 70
0
 10
0.0
 20
0.0
 11
1.0
 21
1.0
 12
11.0
 22
8.5
 13
0.0
 23
0.0
 14
1.0
 24
1.0
 15
0.0
 25
0.0
 16
0.0
 26
0.0
 36
1.0
 17
0.0
 27
0.0
 37
0.0
 40
17.0
 41
1.2941176471
 42
50.0
 43
0.0
 44
0.0
 50
0.0
 51
0.0
 71
0
 72
100
 73
1
 74
1
 75
0
 76
0
 77
0
 78
0
  0
ENDTAB
  0
TABLE
  2
LTYPE
  5
5
100
AcDbSymbolTable
 70
6
  0
LTYPE
  5
14
100
AcDbSymbolTableRecord
100
AcDbLinetypeTableRecord
  2
BYBLOCK
 70
0
  3

 72
65
 73
0
 40
0.0
  0
LTYPE
  5
15
100
AcDbSymbolTableRecord
100
AcDbLinetypeTableRecord
  2
BYLAYER
 70
0
  3

 72
65
 73
0
 40
0.0
  0
LTYPE
  5
16
100
AcDbSymbolTableRecord
100
AcDbLinetypeTableRecord
  2
CONTINUOUS
 70
64
  3
Solid line
 72
65
 73
0
 40
0.0
  0
LTYPE
  5
1F5
100
AcDbSymbolTableRecord
100
AcDbLinetypeTableRecord
  2
CENTER
 70
64
  3
____ _ ____ _ ____ _ ____ _ ____ _ ____ _ ____
 72
65
 73
4
 40
0.6
 49
0.375
 74
0
 49
-0.075
 74
0
 49
0.075
 74
0
 49
-0.075
 74
0
  0
LTYPE
  5
1F6
100
AcDbSymbolTableRecord
100
AcDbLinetypeTableRecord
  2
HIDDEN
 70
64
  3
- - - - - - - - - - - - - - - - - - - -
 72
65
 73
2
 40
0.2
 49
0.1
 74
0
 49
-0.1
 74
0
  0
LTYPE
  5
1F7
100
AcDbSymbolTableRecord
100
AcDbLinetypeTableRecord
  2
PHANTOM
 70
64
  3
_____ _ _ _____ _ _ _____ _ _ _____
 72
65
 73
6
 40
0.8
 49
0.45
 74
0
 49
-0.05
 74
0
 49
0.1
 74
0
 49
-0.05
 74
0
 49
0.1
 74
0
 49
-0.05
 74
0
  0
LTYPE
  5
1F8
100
AcDbSymbolTableRecord
100
AcDbLinetypeTableRecord
  2
DOT
 70
64
  3
. . . . . . . . . . . . . . . . . . . .
 72
65
 73
2
 40
0.2
 49
0.1
 74
0
 49
-0.1
 74
0
  0
LTYPE
  5
1F9
100
AcDbSymbolTableRecord
100
AcDbLinetypeTableRecord
  2
DASHED
 70
64
  3
- - - - - - - - - - - - - - - - - - - -
 72
65
 73
2
 40
0.2
 49
0.1
 74
0
 49
-0.1
 74
0
  0
ENDTAB
  0
TABLE
  2
LAYER
  5
2
100
AcDbSymbolTable
 70
36
  0
LAYER
  5
10
100
AcDbSymbolTableRecord
100
AcDbLayerTableRecord
  2
0
 70
0
 62
7
  6
CONTINUOUS
370
-3
390
F
  0
LAYER
  5
1FA
100
AcDbSymbolTableRecord
100
AcDbLayerTableRecord
  2
DEFAULT_1
 70
0
 62
7
  6
CENTER
370
-3
390
F
  0
LAYER
  5
1FB
100
AcDbSymbolTableRecord
100
AcDbLayerTableRecord
  2
DEFAULT_2
 70
0
 62
8
  6
HIDDEN
370
-3
390
F
  0
LAYER
  5
1FC
100
AcDbSymbolTableRecord
100
AcDbLayerTableRecord
  2
DEFAULT_3
 70
0
 62
7
  6
PHANTOM
370
-3
390
F
  0
LAYER
  5
1FD
100
AcDbSymbolTableRecord
100
AcDbLayerTableRecord
  2
01___PRT_ALL_DTM_PLN
 70
0
 62
7
  6
CONTINUOUS
370
-3
390
F
  0
LAYER
  5
1FE
100
AcDbSymbolTableRecord
100
AcDbLayerTableRecord
  2
01___PRT_DEF_DTM_PLN
 70
0
 62
7
  6
CONTINUOUS
370
-3
390
F
  0
LAYER
  5
1FF
100
AcDbSymbolTableRecord
100
AcDbLayerTableRecord
  2
02___PRT_ALL_AXES
 70
0
 62
7
  6
CONTINUOUS
370
-3
390
F
  0
LAYER
  5
200
100
AcDbSymbolTableRecord
100
AcDbLayerTableRecord
  2
03___PRT_ALL_CURVES
 70
0
 62
7
  6
CONTINUOUS
370
-3
390
F
  0
LAYER
  5
201
100
AcDbSymbolTableRecord
100
AcDbLayerTableRecord
  2
04___PRT_ALL_DTM_PNT
 70
0
 62
7
  6
CONTINUOUS
370
-3
390
F
  0
LAYER
  5
202
100
AcDbSymbolTableRecord
100
AcDbLayerTableRecord
  2
05___PRT_ALL_DTM_CSYS
 70
0
 62
7
  6
CONTINUOUS
370
-3
390
F
  0
LAYER
  5
203
100
AcDbSymbolTableRecord
100
AcDbLayerTableRecord
  2
05___PRT_DEF_DTM_CSYS
 70
0
 62
7
  6
CONTINUOUS
370
-3
390
F
  0
LAYER
  5
204
100
AcDbSymbolTableRecord
100
AcDbLayerTableRecord
  2
06___PRT_ALL_SURFS
 70
0
 62
7
  6
CONTINUOUS
370
-3
390
F
  0
LAYER
  5
205
100
AcDbSymbolTableRecord
100
AcDbLayerTableRecord
  2
DATUM_PLANES
 70
0
 62
7
  6
CONTINUOUS
370
-3
390
F
  0
LAYER
  5
206
100
AcDbSymbolTableRecord
100
AcDbLayerTableRecord
  2
PORT_AREAS
 70
0
 62
7
  6
CONTINUOUS
370
-3
390
F
  0
LAYER
  5
207
100
AcDbSymbolTableRecord
100
AcDbLayerTableRecord
  2
SUNNBOMCOSMETIC
 70
0
 62
7
  6
CONTINUOUS
370
-3
390
F
  0
LAYER
  5
208
100
AcDbSymbolTableRecord
100
AcDbLayerTableRecord
  2
SUNNBOMSTAMPING
 70
0
 62
7
  6
CONTINUOUS
370
-3
390
F
  0
LAYER
  5
209
100
AcDbSymbolTableRecord
100
AcDbLayerTableRecord
  2
THREADS
 70
0
 62
7
  6
CONTINUOUS
370
-3
390
F
  0
ENDTAB
  0
TABLE
  2
STYLE
  5
3
100
AcDbSymbolTable
 70
1
  0
STYLE
  5
11
100
AcDbSymbolTableRecord
100
AcDbTextStyleTableRecord
  2
STANDARD
 70
0
 40
0.0
 41
0.8
 50
0.0
 71
0
 42
0.2
  3
txt
  4

  0
STYLE
  5
20A
100
AcDbSymbolTableRecord
100
AcDbTextStyleTableRecord
  2
TEXTSTYLE_1
 70
0
 40
0.0
 41
0.8
 50
0.0
 71
0
 42
0.2
  3
gdt
  4

  0
ENDTAB
  0
TABLE
  2
VIEW
  5
6
100
AcDbSymbolTable
 70
0
  0
ENDTAB
  0
TABLE
  2
UCS
  5
7
100
AcDbSymbolTable
 70
0
  0
ENDTAB
  0
TABLE
  2
APPID
  5
9
100
AcDbSymbolTable
 70
1
  0
APPID
  5
20B
100
AcDbSymbolTableRecord
100
AcDbRegAppTableRecord
  2
ACAD
 70
0
  0
ENDTAB
  0
TABLE
  2
BLOCK_RECORD
  5
1
100
AcDbSymbolTable
 70
0
  0
BLOCK_RECORD
  5
20C
100
AcDbSymbolTableRecord
100
AcDbBlockTableRecord
  2
*Model_Space
  0
BLOCK_RECORD
  5
20D
100
AcDbSymbolTableRecord
100
AcDbBlockTableRecord
  2
*Paper_Space
  0
BLOCK_RECORD
  5
20E
100
AcDbSymbolTableRecord
100
AcDbBlockTableRecord
  2
SUN_FIRST_THIRD_ANGLE_BL0
  0
BLOCK_RECORD
  5
20F
100
AcDbSymbolTableRecord
100
AcDbBlockTableRecord
  2
*T1
  0
BLOCK_RECORD
  5
210
100
AcDbSymbolTableRecord
100
AcDbBlockTableRecord
  2
*T2
  0
BLOCK_RECORD
  5
211
100
AcDbSymbolTableRecord
100
AcDbBlockTableRecord
  2
*T3
  0
ENDTAB
  0
TABLE
  2
DIMSTYLE
  5
A
100
AcDbSymbolTable
 70
1
100
AcDbDimStyleTable
 71
0
  0
DIMSTYLE
105
212
100
AcDbSymbolTableRecord
100
AcDbDimStyleTableRecord
  2
STANDARD
 70
0
  3

  4

 40
1.0
 41
0.1875
 42
0.0625
 43
0.38
 44
0.125
 45
0.0
 46
0.0
 47
0.001
 48
0.001
140
0.1
141
0.09
142
0.0
143
25.4
144
1.0
145
0.0
146
1.0
147
0.09
 71
0.0
 72
0.0
 73
1
 74
1
 75
0
 76
0
 77
0
 78
4
170
0
171
2
172
0
173
0
174
0
175
0
176
0
177
0
178
0
270
2
271
3
272
3
273
2
274
2
275
0
280
0
281
0
282
0
283
1
284
4
285
0
286
0
287
3
288
0
340
11
278
46
  0
ENDTAB
  0
ENDSEC
  0
SECTION
  2
BLOCKS
  0
BLOCK
  5
20
100
AcDbEntity
  8
0
100
AcDbBlockBegin
  2
*Model_Space
 70
0
 10
0.0
 20
0.0
 30
0.0
  3
*Model_Space
  1

  0
ENDBLK
  5
21
100
AcDbEntity
  8
0
100
AcDbBlockEnd
  0
BLOCK
  5
1C
100
AcDbEntity
  8
0
100
AcDbBlockBegin
  2
*Paper_Space
 70
0
 10
0.0
 20
0.0
 30
0.0
  3
*Paper_Space
  1

  0
ENDBLK
  5
1D
100
AcDbEntity
  8
0
100
AcDbBlockEnd
  0
BLOCK
  5
213
100
AcDbEntity
  8
0
100
AcDbBlockBegin
 62
2
  6
CONTINUOUS
  2
SUN_FIRST_THIRD_ANGLE_BL0
 70
64
 10
20.4816717061
 20
1.2289683772
  3
SUN_FIRST_THIRD_ANGLE_BL0
  1

  0
TEXT
  5
214
100
AcDbEntity
  8
0
100
AcDbText
 62
2
  6
CONTINUOUS
 10
19.4750896608
 20
1.4136269581
  7
STANDARD
 40
0.08
  1
FIRST ANGLE
 41
0.8
 72
0
100
AcDbText
  0
TEXT
  5
215
100
AcDbEntity
  8
0
100
AcDbText
 62
2
  6
CONTINUOUS
 10
20.7842537513
 20
1.4047600029
  7
STANDARD
 40
0.08
  1
THIRD ANGLE
 41
0.8
 72
0
100
AcDbText
  0
LINE
  5
216
100
AcDbEntity
  8
0
100
AcDbLine
 62
7
  6
CONTINUOUS
 10
19.4767170086
 20
1.1727031207
 11
19.6334271527
 21
1.1717972817
  0
LINE
  5
217
100
AcDbEntity
  8
0
100
AcDbLine
 62
7
  6
CONTINUOUS
 10
19.6596964832
 20
1.1717972817
 11
19.6950230232
 21
1.171593082
  0
LINE
  5
218
100
AcDbEntity
  8
0
100
AcDbLine
 62
7
  6
CONTINUOUS
 10
19.7194818561
 20
1.1708914427
 11
19.8852396156
 21
1.1699333054
  0
LINE
  5
219
100
AcDbEntity
  8
0
100
AcDbLine
 62
7
  6
CONTINUOUS
 10
19.4758111696
 20
1.2723454088
 11
19.88525039
 21
1.3511534004
  0
LINE
  5
21A
100
AcDbEntity
  8
0
100
AcDbLine
 62
7
  6
CONTINUOUS
 10
19.88525039
 20
1.3511534004
 11
19.8831348489
 21
0.9851647912
  0
LINE
  5
21B
100
AcDbEntity
  8
0
100
AcDbLine
 62
7
  6
CONTINUOUS
 10
19.8831348489
 20
0.9851647912
 11
19.4767170086
 21
1.0658141206
  0
LINE
  5
21C
100
AcDbEntity
  8
0
100
AcDbLine
 62
7
  6
CONTINUOUS
 10
19.4767170086
 20
1.0658141206
 11
19.4779056764
 21
1.2714536432
  0
CIRCLE
  5
21D
100
AcDbEntity
  8
0
100
AcDbCircle
 62
7
  6
CONTINUOUS
 10
20.2068232291
 20
1.1717972817
 40
0.175742101
  0
CIRCLE
  5
21E
100
AcDbEntity
  8
0
100
AcDbCircle
 62
7
  6
CONTINUOUS
 10
20.2068232291
 20
1.1717972817
 40
0.1005522074
  0
LINE
  5
21F
100
AcDbEntity
  8
0
100
AcDbLine
 62
7
  6
CONTINUOUS
 10
20.2077290681
 20
1.3756110529
 11
20.2071171714
 21
1.2379342989
  0
LINE
  5
220
100
AcDbEntity
  8
0
100
AcDbLine
 62
7
  6
CONTINUOUS
 10
20.2077290681
 20
1.2016899681
 11
20.2074674401
 21
1.1428236749
  0
LINE
  5
221
100
AcDbEntity
  8
0
100
AcDbLine
 62
7
  6
CONTINUOUS
 10
20.208634907
 20
1.101141841
 11
20.2080230104
 21
0.963465087
  0
LINE
  5
222
100
AcDbEntity
  8
0
100
AcDbLine
 62
7
  6
CONTINUOUS
 10
20.0066328138
 20
1.1745147986
 11
20.1443095678
 21
1.1739029019
  0
LINE
  5
223
100
AcDbEntity
  8
0
100
AcDbLine
 62
7
  6
CONTINUOUS
 10
20.1832714155
 20
1.1727031207
 11
20.238153505
 21
1.172335442
  0
LINE
  5
224
100
AcDbEntity
  8
0
100
AcDbLine
 62
7
  6
CONTINUOUS
 10
20.2756669918
 20
1.1717972817
 11
20.407916871
 21
1.1712095044
  0
CIRCLE
  5
225
100
AcDbEntity
  8
0
100
AcDbCircle
 62
7
  6
CONTINUOUS
 10
20.7509457401
 20
1.1693297793
 40
0.1722024983
  0
CIRCLE
  5
226
100
AcDbEntity
  8
0
100
AcDbCircle
 62
7
  6
CONTINUOUS
 10
20.7509457401
 20
1.1693297793
 40
0.0985164967
  0
LINE
  5
227
100
AcDbEntity
  8
0
100
AcDbLine
 62
7
  6
CONTINUOUS
 10
20.7169767782
 20
1.170462078
 11
20.7825395137
 21
1.1682766535
  0
LINE
  5
228
100
AcDbEntity
  8
0
100
AcDbLine
 62
7
  6
CONTINUOUS
 10
20.8177513651
 20
1.1693297793
 11
20.947965719
 21
1.1693297793
  0
LINE
  5
229
100
AcDbEntity
  8
0
100
AcDbLine
 62
7
  6
CONTINUOUS
 10
20.6875370113
 20
1.170462078
 11
20.5573226574
 21
1.170462078
  0
LINE
  5
22A
100
AcDbEntity
  8
0
100
AcDbLine
 62
7
  6
CONTINUOUS
 10
20.7486811426
 20
1.1987695462
 11
20.7486811426
 21
1.1432869085
  0
LINE
  5
22B
100
AcDbEntity
  8
0
100
AcDbLine
 62
7
  6
CONTINUOUS
 10
20.7498134414
 20
1.1059210505
 11
20.7498134414
 21
0.9757066966
  0
LINE
  5
22C
100
AcDbEntity
  8
0
100
AcDbLine
 62
7
  6
CONTINUOUS
 10
20.7486811426
 20
1.2338708068
 11
20.7486811426
 21
1.3640851607
  0
LINE
  5
22D
100
AcDbEntity
  8
0
100
AcDbLine
 62
7
  6
CONTINUOUS
 10
21.0702539817
 20
1.2701043662
 11
21.4790138229
 21
1.3448360823
  0
LINE
  5
22E
100
AcDbEntity
  8
0
100
AcDbLine
 62
7
  6
CONTINUOUS
 10
21.4790138229
 20
1.3448360823
 11
21.4790138229
 21
0.9779712941
  0
LINE
  5
22F
100
AcDbEntity
  8
0
100
AcDbLine
 62
7
  6
CONTINUOUS
 10
21.4790138229
 20
0.9779712941
 11
21.069121683
 21
1.0617614
  0
LINE
  5
230
100
AcDbEntity
  8
0
100
AcDbLine
 62
7
  6
CONTINUOUS
 10
21.0702539817
 20
1.2701043662
 11
21.069121683
 21
1.0617614
  0
LINE
  5
231
100
AcDbEntity
  8
0
100
AcDbLine
 62
7
  6
CONTINUOUS
 10
21.4790138229
 20
1.1693297793
 11
21.3159628059
 21
1.1693297793
  0
LINE
  5
232
100
AcDbEntity
  8
0
100
AcDbLine
 62
7
  6
CONTINUOUS
 10
21.2876553377
 20
1.1693297793
 11
21.2502894796
 21
1.1693297793
  0
LINE
  5
233
100
AcDbEntity
  8
0
100
AcDbLine
 62
7
  6
CONTINUOUS
 10
21.2208497126
 20
1.1659328831
 11
21.0713862804
 21
1.1659328831
  0
LINE
  5
234
100
AcDbEntity
  8
0
100
AcDbLine
 62
7
  6
CONTINUOUS
 10
20.4796138713
 20
1.5284908897
 11
20.4766766948
 21
0.9294458646
  0
ENDBLK
  5
235
100
AcDbEntity
  8
0
  6
BYBLOCK
 62
0
100
AcDbBlockEnd
  0
BLOCK
  5
236
100
AcDbEntity
  8
0
100
AcDbBlockBegin
  2
*T1
 70
1
 10
0.0
 20
0.0
  3
*T1
  1

  0
LINE
  5
237
100
AcDbEntity
  8
0
100
AcDbLine
 62
2
  6
CONTINUOUS
 10
9.275
 20
0.0
 11
-0.0
 21
0.0
  0
LINE
  5
238
100
AcDbEntity
  8
0
100
AcDbLine
 62
2
  6
CONTINUOUS
 10
9.275
 20
0.0
 11
9.275
 21
1.25
  0
LINE
  5
239
100
AcDbEntity
  8
0
100
AcDbLine
 62
2
  6
CONTINUOUS
 10
9.275
 20
0.625
 11
-0.0
 21
0.625
  0
LINE
  5
23A
100
AcDbEntity
  8
0
100
AcDbLine
 62
2
  6
CONTINUOUS
 10
9.275
 20
1.25
 11
-0.0
 21
1.25
  0
LINE
  5
23B
100
AcDbEntity
  8
0
100
AcDbLine
 62
2
  6
CONTINUOUS
 10
6.8
 20
0.0
 11
6.8
 21
1.25
  0
LINE
  5
23C
100
AcDbEntity
  8
0
100
AcDbLine
 62
2
  6
CONTINUOUS
 10
6.4
 20
0.0
 11
6.4
 21
0.625
  0
LINE
  5
23D
100
AcDbEntity
  8
0
100
AcDbLine
 62
2
  6
CONTINUOUS
 10
5.9
 20
0.0
 11
5.9
 21
0.625
  0
LINE
  5
23E
100
AcDbEntity
  8
0
100
AcDbLine
 62
2
  6
CONTINUOUS
 10
5.2
 20
0.0
 11
5.2
 21
0.625
  0
LINE
  5
23F
100
AcDbEntity
  8
0
100
AcDbLine
 62
2
  6
CONTINUOUS
 10
4.1
 20
0.0
 11
4.1
 21
1.25
  0
LINE
  5
240
100
AcDbEntity
  8
0
100
AcDbLine
 62
2
  6
CONTINUOUS
 10
-0.0
 20
0.0
 11
-0.0
 21
1.25
  0
MTEXT
  5
241
100
AcDbEntity
  8
0
100
AcDbMText
 62
2
  6
CONTINUOUS
  7
STANDARD
 71
2
 72
1
 10
6.6
 20
0.325
 30
0.0
 11
1.0
 21
0.0
 31
0.0
 44
0.9
  1
2
 40
0.125
 41
0.2
  0
MTEXT
  5
242
100
AcDbEntity
  8
0
100
AcDbMText
 62
2
  6
CONTINUOUS
  7
STANDARD
 71
2
 72
1
 10
6.15
 20
0.325
 30
0.0
 11
1.0
 21
0.0
 31
0.0
 44
0.9
  1
C
 40
0.125
 41
0.2
  0
MTEXT
  5
243
100
AcDbEntity
  8
0
100
AcDbMText
 62
2
  6
CONTINUOUS
  7
STANDARD
 71
2
 72
1
 10
5.55
 20
0.325
 30
0.0
 11
1.0
 21
0.0
 31
0.0
 44
0.9
  1
1.000
 40
0.125
 41
1.0
  0
MTEXT
  5
244
100
AcDbEntity
  8
0
100
AcDbMText
 62
2
  6
CONTINUOUS
  7
STANDARD
 71
2
 72
1
 10
4.65
 20
0.325
 30
0.0
 11
1.0
 21
0.0
 31
0.0
 44
0.9
  1
Jul-27-22
 40
0.125
 41
1.8
  0
MTEXT
  5
245
100
AcDbEntity
  8
0
100
AcDbMText
 62
2
  6
CONTINUOUS
  7
STANDARD
 71
2
 72
1
 10
2.05
 20
0.4625
 30
0.0
 11
1.0
 21
0.0
 31
0.0
 44
0.9
  1
T-11A Line mount\PThrough port 1 with reverse flow check
 40
0.125
 41
7.6
  0
MTEXT
  5
246
100
AcDbEntity
  8
0
100
AcDbMText
 62
2
  6
CONTINUOUS
  7
STANDARD
 71
1
 72
1
 10
6.45
 20
0.5625
 30
0.0
 11
1.0
 21
0.0
 31
0.0
 44
0.9
  1
SHEET
 40
0.06
 41
0.48
  0
MTEXT
  5
247
100
AcDbEntity
  8
0
100
AcDbMText
 62
2
  6
CONTINUOUS
  7
STANDARD
 71
1
 72
1
 10
5.95
 20
0.5625
 30
0.0
 11
1.0
 21
0.0
 31
0.0
 44
0.9
  1
DWG SIZE
 40
0.06
 41
0.768
  0
MTEXT
  5
248
100
AcDbEntity
  8
0
100
AcDbMText
 62
2
  6
CONTINUOUS
  7
STANDARD
 71
1
 72
1
 10
5.25
 20
0.5625
 30
0.0
 11
1.0
 21
0.0
 31
0.0
 44
0.9
  1
SCALE
 40
0.06
 41
0.48
  0
MTEXT
  5
249
100
AcDbEntity
  8
0
100
AcDbMText
 62
2
  6
CONTINUOUS
  7
STANDARD
 71
1
 72
1
 10
4.15
 20
0.5625
 30
0.0
 11
1.0
 21
0.0
 31
0.0
 44
0.9
  1
DATE
 40
0.06
 41
0.384
  0
MTEXT
  5
24A
100
AcDbEntity
  8
0
100
AcDbMText
 62
2
  6
CONTINUOUS
  7
STANDARD
 71
1
 72
1
 10
0.05
 20
0.5625
 30
0.0
 11
1.0
 21
0.0
 31
0.0
 44
0.9
  1
DESCRIPTION
 40
0.06
 41
1.056
  0
MTEXT
  5
24B
100
AcDbEntity
  8
0
100
AcDbMText
 62
2
  6
CONTINUOUS
  7
STANDARD
 71
2
 72
1
 10
5.45
 20
1.0375
 30
0.0
 11
1.0
 21
0.0
 31
0.0
 44
0.9
  1
ALL DIMENSIONS IN INCH\PVIEWS ARE THIRD ANGLE
 40
0.12
 41
4.224
  0
MTEXT
  5
24C
100
AcDbEntity
  8
0
100
AcDbMText
 62
2
  6
CONTINUOUS
  7
STANDARD
 71
2
 72
1
 10
2.05
 20
0.95
 30
0.0
 11
1.0
 21
0.0
 31
0.0
 44
0.9
  1
E7I
 40
0.125
 41
0.6
  0
MTEXT
  5
24D
100
AcDbEntity
  8
0
100
AcDbMText
 62
2
  6
CONTINUOUS
  7
STANDARD
 71
1
 72
1
 10
0.05
 20
1.1875
 30
0.0
 11
1.0
 21
0.0
 31
0.0
 44
0.9
  1
MODEL
 40
0.06
 41
0.48
  0
ENDBLK
  5
24E
100
AcDbEntity
  8
0
  6
BYBLOCK
 62
0
100
AcDbBlockEnd
  0
BLOCK
  5
24F
100
AcDbEntity
  8
0
100
AcDbBlockBegin
  2
*T2
 70
1
 10
0.0
 20
0.0
  3
*T2
  1

  0
LINE
  5
250
100
AcDbEntity
  8
0
100
AcDbLine
 62
2
  6
CONTINUOUS
 10
0.0
 20
0.0
 11
9.055
 21
0.0
  0
LINE
  5
251
100
AcDbEntity
  8
0
100
AcDbLine
 62
2
  6
CONTINUOUS
 10
0.0
 20
0.0
 11
0.0
 21
-2.844
  0
LINE
  5
252
100
AcDbEntity
  8
0
100
AcDbLine
 62
2
  6
CONTINUOUS
 10
0.0
 20
-0.344
 11
9.055
 21
-0.344
  0
LINE
  5
253
100
AcDbEntity
  8
0
100
AcDbLine
 62
2
  6
CONTINUOUS
 10
0.0
 20
-0.594
 11
9.055
 21
-0.594
  0
LINE
  5
254
100
AcDbEntity
  8
0
100
AcDbLine
 62
2
  6
CONTINUOUS
 10
0.0
 20
-0.844
 11
9.055
 21
-0.844
  0
LINE
  5
255
100
AcDbEntity
  8
0
100
AcDbLine
 62
2
  6
CONTINUOUS
 10
0.0
 20
-1.094
 11
9.055
 21
-1.094
  0
LINE
  5
256
100
AcDbEntity
  8
0
100
AcDbLine
 62
2
  6
CONTINUOUS
 10
0.0
 20
-1.344
 11
9.055
 21
-1.344
  0
LINE
  5
257
100
AcDbEntity
  8
0
100
AcDbLine
 62
2
  6
CONTINUOUS
 10
0.0
 20
-1.594
 11
9.055
 21
-1.594
  0
LINE
  5
258
100
AcDbEntity
  8
0
100
AcDbLine
 62
2
  6
CONTINUOUS
 10
0.0
 20
-1.844
 11
9.055
 21
-1.844
  0
LINE
  5
259
100
AcDbEntity
  8
0
100
AcDbLine
 62
2
  6
CONTINUOUS
 10
0.0
 20
-2.094
 11
9.055
 21
-2.094
  0
LINE
  5
25A
100
AcDbEntity
  8
0
100
AcDbLine
 62
2
  6
CONTINUOUS
 10
0.0
 20
-2.344
 11
9.055
 21
-2.344
  0
LINE
  5
25B
100
AcDbEntity
  8
0
100
AcDbLine
 62
2
  6
CONTINUOUS
 10
0.0
 20
-2.594
 11
9.055
 21
-2.594
  0
LINE
  5
25C
100
AcDbEntity
  8
0
100
AcDbLine
 62
2
  6
CONTINUOUS
 10
0.0
 20
-2.844
 11
9.055
 21
-2.844
  0
LINE
  5
25D
100
AcDbEntity
  8
0
100
AcDbLine
 62
2
  6
CONTINUOUS
 10
3.055
 20
0.0
 11
3.055
 21
-2.844
  0
LINE
  5
25E
100
AcDbEntity
  8
0
100
AcDbLine
 62
2
  6
CONTINUOUS
 10
9.055
 20
0.0
 11
9.055
 21
-2.844
  0
MTEXT
  5
25F
100
AcDbEntity
  8
0
100
AcDbMText
 62
2
  6
CONTINUOUS
  7
STANDARD
 71
2
 72
1
 10
1.5275
 20
-0.0995
 30
0.0
 11
1.0
 21
0.0
 31
0.0
 44
0.9
  1
Technical Data
 40
0.145
 41
3.248
  0
MTEXT
  5
260
100
AcDbEntity
  8
0
100
AcDbMText
 62
2
  6
CONTINUOUS
  7
STANDARD
 71
2
 72
1
 10
4.555
 20
-0.0995
 30
0.0
 11
1.0
 21
0.0
 31
0.0
 44
0.9
  1
U.S. Units
 40
0.145
 41
2.32
  0
MTEXT
  5
261
100
AcDbEntity
  8
0
100
AcDbMText
 62
2
  6
CONTINUOUS
  7
STANDARD
 71
2
 72
1
 10
7.555
 20
-0.0995
 30
0.0
 11
1.0
 21
0.0
 31
0.0
 44
0.9
  1
Metric Units
 40
0.145
 41
2.784
  0
MTEXT
  5
262
100
AcDbEntity
  8
0
100
AcDbMText
 62
2
  6
CONTINUOUS
  7
STANDARD
 71
2
 72
1
 10
1.5275
 20
-0.4065
 30
0.0
 11
1.0
 21
0.0
 31
0.0
 44
0.9
  1
Cavity
 40
0.125
 41
1.2
  0
MTEXT
  5
263
100
AcDbEntity
  8
0
100
AcDbMText
 62
2
  6
CONTINUOUS
  7
STANDARD
 71
2
 72
1
 10
6.055
 20
-0.4065
 30
0.0
 11
1.0
 21
0.0
 31
0.0
 44
0.9
  1
T-11A
 40
0.125
 41
1.0
  0
MTEXT
  5
264
100
AcDbEntity
  8
0
100
AcDbMText
 62
2
  6
CONTINUOUS
  7
STANDARD
 71
2
 72
1
 10
1.5275
 20
-0.6565
 30
0.0
 11
1.0
 21
0.0
 31
0.0
 44
0.9
  1
Body Features
 40
0.125
 41
2.6
  0
MTEXT
  5
265
100
AcDbEntity
  8
0
100
AcDbMText
 62
2
  6
CONTINUOUS
  7
STANDARD
 71
2
 72
1
 10
6.055
 20
-0.6565
 30
0.0
 11
1.0
 21
0.0
 31
0.0
 44
0.9
  1
Through port 1 with reverse flow check
 40
0.125
 41
7.6
  0
MTEXT
  5
266
100
AcDbEntity
  8
0
100
AcDbMText
 62
2
  6
CONTINUOUS
  7
STANDARD
 71
2
 72
1
 10
1.5275
 20
-0.9065
 30
0.0
 11
1.0
 21
0.0
 31
0.0
 44
0.9
  1
Body Type
 40
0.125
 41
1.8
  0
MTEXT
  5
267
100
AcDbEntity
  8
0
100
AcDbMText
 62
2
  6
CONTINUOUS
  7
STANDARD
 71
2
 72
1
 10
6.055
 20
-0.9065
 30
0.0
 11
1.0
 21
0.0
 31
0.0
 44
0.9
  1
Line mount
 40
0.125
 41
2.0
  0
MTEXT
  5
268
100
AcDbEntity
  8
0
100
AcDbMText
 62
2
  6
CONTINUOUS
  7
STANDARD
 71
2
 72
1
 10
1.5275
 20
-1.1565
 30
0.0
 11
1.0
 21
0.0
 31
0.0
 44
0.9
  1
Interface
 40
0.125
 41
1.8
  0
MTEXT
  5
269
100
AcDbEntity
  8
0
100
AcDbMText
 62
2
  6
CONTINUOUS
  7
STANDARD
 71
2
 72
1
 10
6.055
 20
-1.1565
 30
0.0
 11
1.0
 21
0.0
 31
0.0
 44
0.9
  1
None
 40
0.125
 41
0.8
  0
MTEXT
  5
26A
100
AcDbEntity
  8
0
100
AcDbMText
 62
2
  6
CONTINUOUS
  7
STANDARD
 71
2
 72
1
 10
1.5275
 20
-1.4065
 30
0.0
 11
1.0
 21
0.0
 31
0.0
 44
0.9
  1
Open Cavity Quantity
 40
0.125
 41
4.0
  0
MTEXT
  5
26B
100
AcDbEntity
  8
0
100
AcDbMText
 62
2
  6
CONTINUOUS
  7
STANDARD
 71
2
 72
1
 10
6.055
 20
-1.4065
 30
0.0
 11
1.0
 21
0.0
 31
0.0
 44
0.9
  1
1
 40
0.125
 41
0.2
  0
MTEXT
  5
26C
100
AcDbEntity
  8
0
100
AcDbMText
 62
2
  6
CONTINUOUS
  7
STANDARD
 71
2
 72
1
 10
1.5275
 20
-1.6565
 30
0.0
 11
1.0
 21
0.0
 31
0.0
 44
0.9
  1
Weight
 40
0.125
 41
1.2
  0
MTEXT
  5
26D
100
AcDbEntity
  8
0
100
AcDbMText
 62
2
  6
CONTINUOUS
  7
STANDARD
 71
2
 72
1
 10
4.555
 20
-1.6565
 30
0.0
 11
1.0
 21
0.0
 31
0.0
 44
0.9
  1
1.996 lb.
 40
0.125
 41
1.8
  0
MTEXT
  5
26E
100
AcDbEntity
  8
0
100
AcDbMText
 62
2
  6
CONTINUOUS
  7
STANDARD
 71
2
 72
1
 10
7.555
 20
-1.6565
 30
0.0
 11
1.0
 21
0.0
 31
0.0
 44
0.9
  1
0,905 kg.
 40
0.125
 41
1.8
  0
MTEXT
  5
26F
100
AcDbEntity
  8
0
100
AcDbMText
 62
2
  6
CONTINUOUS
  7
STANDARD
 71
2
 72
1
 10
1.5275
 20
-1.9065
 30
0.0
 11
1.0
 21
0.0
 31
0.0
 44
0.9
  1
Mounting Hole Thread
 40
0.125
 41
4.0
  0
MTEXT
  5
270
100
AcDbEntity
  8
0
100
AcDbMText
 62
2
  6
CONTINUOUS
  7
STANDARD
 71
2
 72
1
 10
4.555
 20
-1.9065
 30
0.0
 11
1.0
 21
0.0
 31
0.0
 44
0.9
  1
.375-16 UNC - 2B in.
 40
0.125
 41
4.0
  0
MTEXT
  5
271
100
AcDbEntity
  8
0
100
AcDbMText
 62
2
  6
CONTINUOUS
  7
STANDARD
 71
2
 72
1
 10
1.5275
 20
-2.1565
 30
0.0
 11
1.0
 21
0.0
 31
0.0
 44
0.9
  1
Mounting Hole Depth
 40
0.125
 41
3.8
  0
MTEXT
  5
272
100
AcDbEntity
  8
0
100
AcDbMText
 62
2
  6
CONTINUOUS
  7
STANDARD
 71
2
 72
1
 10
4.555
 20
-2.1565
 30
0.0
 11
1.0
 21
0.0
 31
0.0
 44
0.9
  1
.62 in.
 40
0.125
 41
1.4
  0
MTEXT
  5
273
100
AcDbEntity
  8
0
100
AcDbMText
 62
2
  6
CONTINUOUS
  7
STANDARD
 71
2
 72
1
 10
7.555
 20
-2.1565
 30
0.0
 11
1.0
 21
0.0
 31
0.0
 44
0.9
  1
15,7 mm
 40
0.125
 41
1.4
  0
MTEXT
  5
274
100
AcDbEntity
  8
0
100
AcDbMText
 62
2
  6
CONTINUOUS
  7
STANDARD
 71
2
 72
1
 10
1.5275
 20
-2.4065
 30
0.0
 11
1.0
 21
0.0
 31
0.0
 44
0.9
  1
Mounting Hole Quantity
 40
0.125
 41
4.4
  0
MTEXT
  5
275
100
AcDbEntity
  8
0
100
AcDbMText
 62
2
  6
CONTINUOUS
  7
STANDARD
 71
2
 72
1
 10
6.055
 20
-2.4065
 30
0.0
 11
1.0
 21
0.0
 31
0.0
 44
0.9
  1
2
 40
0.125
 41
0.2
  0
MTEXT
  5
276
100
AcDbEntity
  8
0
100
AcDbMText
 62
2
  6
CONTINUOUS
  7
STANDARD
 71
2
 72
1
 10
1.5275
 20
-2.6565
 30
0.0
 11
1.0
 21
0.0
 31
0.0
 44
0.9
  1
Includes integral cartridge(s)
 40
0.125
 41
6.0
  0
MTEXT
  5
277
100
AcDbEntity
  8
0
100
AcDbMText
 62
2
  6
CONTINUOUS
  7
STANDARD
 71
2
 72
1
 10
6.055
 20
-2.6565
 30
0.0
 11
1.0
 21
0.0
 31
0.0
 44
0.9
  1
Yes (see Included Components)
 40
0.125
 41
5.8
  0
ENDBLK
  5
278
100
AcDbEntity
  8
0
  6
BYBLOCK
 62
0
100
AcDbBlockEnd
  0
BLOCK
  5
279
100
AcDbEntity
  8
0
100
AcDbBlockBegin
  2
*T3
 70
1
 10
0.0
 20
0.0
  3
*T3
  1

  0
LINE
  5
27A
100
AcDbEntity
  8
0
100
AcDbLine
 62
2
  6
CONTINUOUS
 10
0.0
 20
0.0
 11
4.6
 21
0.0
  0
LINE
  5
27B
100
AcDbEntity
  8
0
100
AcDbLine
 62
2
  6
CONTINUOUS
 10
0.0
 20
0.0
 11
0.0
 21
-1.43775
  0
LINE
  5
27C
100
AcDbEntity
  8
0
100
AcDbLine
 62
2
  6
CONTINUOUS
 10
0.0
 20
-0.34375
 11
4.6
 21
-0.34375
  0
LINE
  5
27D
100
AcDbEntity
  8
0
100
AcDbLine
 62
2
  6
CONTINUOUS
 10
0.0
 20
-0.68775
 11
4.6
 21
-0.68775
  0
LINE
  5
27E
100
AcDbEntity
  8
0
100
AcDbLine
 62
2
  6
CONTINUOUS
 10
0.0
 20
-0.93775
 11
4.6
 21
-0.93775
  0
LINE
  5
27F
100
AcDbEntity
  8
0
100
AcDbLine
 62
2
  6
CONTINUOUS
 10
0.0
 20
-1.18775
 11
4.6
 21
-1.18775
  0
LINE
  5
280
100
AcDbEntity
  8
0
100
AcDbLine
 62
2
  6
CONTINUOUS
 10
0.0
 20
-1.43775
 11
4.6
 21
-1.43775
  0
LINE
  5
281
100
AcDbEntity
  8
0
100
AcDbLine
 62
2
  6
CONTINUOUS
 10
1.3
 20
-0.34375
 11
1.3
 21
-1.43775
  0
LINE
  5
282
100
AcDbEntity
  8
0
100
AcDbLine
 62
2
  6
CONTINUOUS
 10
3.3
 20
-0.34375
 11
3.3
 21
-1.43775
  0
LINE
  5
283
100
AcDbEntity
  8
0
100
AcDbLine
 62
2
  6
CONTINUOUS
 10
4.6
 20
0.0
 11
4.6
 21
-1.43775
  0
MTEXT
  5
284
100
AcDbEntity
  8
0
100
AcDbMText
 62
2
  6
CONTINUOUS
  7
STANDARD
 71
2
 72
1
 10
2.3
 20
-0.099375
 30
0.0
 11
1.0
 21
0.0
 31
0.0
 44
0.9
  1
Port Headings
 40
0.145
 41
3.016
  0
MTEXT
  5
285
100
AcDbEntity
  8
0
100
AcDbMText
 62
2
  6
CONTINUOUS
  7
STANDARD
 71
2
 72
1
 10
0.65
 20
-0.44325
 30
0.0
 11
1.0
 21
0.0
 31
0.0
 44
0.9
  1
Product
 40
0.145
 41
1.624
  0
MTEXT
  5
286
100
AcDbEntity
  8
0
100
AcDbMText
 62
2
  6
CONTINUOUS
  7
STANDARD
 71
2
 72
1
 10
2.3
 20
-0.44325
 30
0.0
 11
1.0
 21
0.0
 31
0.0
 44
0.9
  1
Port
 40
0.145
 41
0.928
  0
MTEXT
  5
287
100
AcDbEntity
  8
0
100
AcDbMText
 62
2
  6
CONTINUOUS
  7
STANDARD
 71
2
 72
1
 10
3.95
 20
-0.44325
 30
0.0
 11
1.0
 21
0.0
 31
0.0
 44
0.9
  1
Size
 40
0.145
 41
0.928
  0
MTEXT
  5
288
100
AcDbEntity
  8
0
100
AcDbMText
 62
2
  6
CONTINUOUS
  7
STANDARD
 71
2
 72
1
 10
0.65
 20
-0.75025
 30
0.0
 11
1.0
 21
0.0
 31
0.0
 44
0.9
  1
E7I
 40
0.125
 41
0.6
  0
MTEXT
  5
289
100
AcDbEntity
  8
0
100
AcDbMText
 62
2
  6
CONTINUOUS
  7
STANDARD
 71
2
 72
1
 10
2.3
 20
-0.75025
 30
0.0
 11
1.0
 21
0.0
 31
0.0
 44
0.9
  1
Ports 1 &  2
 40
0.125
 41
2.4
  0
MTEXT
  5
28A
100
AcDbEntity
  8
0
100
AcDbMText
 62
2
  6
CONTINUOUS
  7
STANDARD
 71
2
 72
1
 10
3.95
 20
-0.75025
 30
0.0
 11
1.0
 21
0.0
 31
0.0
 44
0.9
  1
SAE 6
 40
0.125
 41
1.0
  0
MTEXT
  5
28B
100
AcDbEntity
  8
0
100
AcDbMText
 62
2
  6
CONTINUOUS
  7
STANDARD
 71
2
 72
1
 10
0.65
 20
-1.00025
 30
0.0
 11
1.0
 21
0.0
 31
0.0
 44
0.9
  1
E7I
 40
0.125
 41
0.6
  0
MTEXT
  5
28C
100
AcDbEntity
  8
0
100
AcDbMText
 62
2
  6
CONTINUOUS
  7
STANDARD
 71
2
 72
1
 10
2.3
 20
-1.00025
 30
0.0
 11
1.0
 21
0.0
 31
0.0
 44
0.9
  1
Port 3
 40
0.125
 41
1.2
  0
MTEXT
  5
28D
100
AcDbEntity
  8
0
100
AcDbMText
 62
2
  6
CONTINUOUS
  7
STANDARD
 71
2
 72
1
 10
3.95
 20
-1.00025
 30
0.0
 11
1.0
 21
0.0
 31
0.0
 44
0.9
  1
SAE 6
 40
0.125
 41
1.0
  0
MTEXT
  5
28E
100
AcDbEntity
  8
0
100
AcDbMText
 62
2
  6
CONTINUOUS
  7
STANDARD
 71
2
 72
1
 10
0.65
 20
-1.25025
 30
0.0
 11
1.0
 21
0.0
 31
0.0
 44
0.9
  1
E7I
 40
0.125
 41
0.6
  0
MTEXT
  5
28F
100
AcDbEntity
  8
0
100
AcDbMText
 62
2
  6
CONTINUOUS
  7
STANDARD
 71
2
 72
1
 10
2.3
 20
-1.25025
 30
0.0
 11
1.0
 21
0.0
 31
0.0
 44
0.9
  1
Gage Port
 40
0.125
 41
1.8
  0
MTEXT
  5
290
100
AcDbEntity
  8
0
100
AcDbMText
 62
2
  6
CONTINUOUS
  7
STANDARD
 71
2
 72
1
 10
3.95
 20
-1.25025
 30
0.0
 11
1.0
 21
0.0
 31
0.0
 44
0.9
  1
1/4" NPTF
 40
0.125
 41
1.8
  0
ENDBLK
  5
291
100
AcDbEntity
  8
0
  6
BYBLOCK
 62
0
100
AcDbBlockEnd
  0
ENDSEC
  0
SECTION
  2
ENTITIES
  0
IMAGE
  5
292
100
AcDbEntity
  8
0
100
AcDbRasterImage
 62
7
  6
CONTINUOUS
 10
19.2297077316
 20
0.3094318264
 30
0.0
 11
0.0066666667
 21
0.0
 31
0.0
 12
0.0
 22
0.0066666667
 32
0.0
 13
369.0
 23
92.0
340
       3BB
 70
9
280
0
281
50
282
50
283
0
360
       3B5
 71
1
 91
2
 14
-0.5
 24
-0.5
 14
368.5
 24
91.5
  0
INSERT
  5
293
100
AcDbEntity
  8
0
100
AcDbBlockReference
 62
2
  6
CONTINUOUS
  2
SUN_FIRST_THIRD_ANGLE_BL0
 10
20.4816717061
 20
1.2289683772
  0
ACAD_TABLE
  5
294
100
AcDbEntity
  8
0
 62
2
  6
CONTINUOUS
100
AcDbBlockReference
  2
*T1
 10
12.42375
 20
0.30125
 30
0.0
100
AcDbTable
342
       3BD
343
20F
 11
1.0
 21
0.0
 31
0.0
 90
6
 91
4
 92
6
 93
20
 94
0
 95
0
 96
0
 70
1
 41
0.0
141
0.525
141
0.1
141
0.525
141
0.1
142
4.1
142
1.1
142
0.7
142
0.5
142
0.4
142
2.475
171
1
172
0
173
0
174
0
175
1
176
1
 91
33
178
0
145
0.0
301
CELL_VALUE
 90
4
  1
T-11A Line mount\PThrough port 1 with reverse flow check
304
ACVALUE_END
170
2
140
0.125
171
1
172
0
173
0
174
0
175
1
176
1
 91
33
178
0
145
0.0
301
CELL_VALUE
 90
4
  1
Jul-27-22
304
ACVALUE_END
170
5
140
0.125
171
1
172
0
173
0
174
0
175
1
176
1
 91
33
178
0
145
0.0
301
CELL_VALUE
 90
4
  1
1.000
304
ACVALUE_END
170
5
140
0.125
171
1
172
0
173
0
174
0
175
1
176
1
 91
33
178
0
145
0.0
301
CELL_VALUE
 90
4
  1
C
304
ACVALUE_END
170
5
140
0.125
171
1
172
0
173
0
174
0
175
1
176
1
 91
33
178
0
145
0.0
301
CELL_VALUE
 90
4
  1
2
304
ACVALUE_END
170
5
140
0.125
171
1
172
0
173
0
174
0
175
1
176
1
 91
33
178
0
145
0.0
301
CELL_VALUE
 90
4
  1
 
304
ACVALUE_END
170
1
140
0.125
171
1
172
0
173
0
174
0
175
1
176
1
 91
33
178
0
145
0.0
301
CELL_VALUE
 90
4
  1
DESCRIPTION
304
ACVALUE_END
170
1
140
0.06
171
1
172
0
173
0
174
0
175
1
176
1
 91
33
178
0
145
0.0
301
CELL_VALUE
 90
4
  1
DATE
304
ACVALUE_END
170
1
140
0.06
171
1
172
0
173
0
174
0
175
1
176
1
 91
33
178
0
145
0.0
301
CELL_VALUE
 90
4
  1
SCALE
304
ACVALUE_END
170
1
140
0.06
171
1
172
0
173
0
174
0
175
1
176
1
 91
33
178
0
145
0.0
301
CELL_VALUE
 90
4
  1
DWG SIZE
304
ACVALUE_END
170
1
140
0.06
171
1
172
0
173
0
174
0
175
1
176
1
 91
33
178
0
145
0.0
301
CELL_VALUE
 90
4
  1
SHEET
304
ACVALUE_END
170
1
140
0.06
171
1
172
0
173
0
174
0
175
1
176
1
 91
33
178
0
145
0.0
301
CELL_VALUE
 90
4
  1
 
304
ACVALUE_END
170
1
140
0.125
171
1
172
0
173
0
174
0
175
1
176
1
 91
33
178
0
145
0.0
301
CELL_VALUE
 90
4
  1
E7I
304
ACVALUE_END
170
5
140
0.125
171
1
172
0
173
0
174
0
175
4
176
1
 91
33
178
0
145
0.0
301
CELL_VALUE
 90
4
  1
ALL DIMENSIONS IN INCH\PVIEWS ARE THIRD ANGLE
304
ACVALUE_END
170
5
140
0.12
171
1
172
0
173
1
174
0
175
1
176
1
 91
1
178
0
145
0.0
170
1
171
1
172
0
173
1
174
0
175
1
176
1
 91
1
178
0
145
0.0
170
1
171
1
172
0
173
1
174
0
175
1
176
1
 91
1
178
0
145
0.0
170
5
171
1
172
0
173
0
174
0
175
1
176
1
 91
33
178
0
145
0.0
301
CELL_VALUE
 90
4
  1
 
304
ACVALUE_END
170
1
140
0.125
171
1
172
0
173
0
174
0
175
1
176
1
 91
33
178
0
145
0.0
301
CELL_VALUE
 90
4
  1
MODEL
304
ACVALUE_END
170
1
140
0.06
171
1
172
0
173
0
174
0
175
1
176
1
 91
33
178
0
145
0.0
301
CELL_VALUE
 90
4
  1
 
304
ACVALUE_END
170
1
140
0.125
171
1
172
0
173
0
174
0
175
1
176
1
 91
33
178
0
145
0.0
301
CELL_VALUE
 90
4
  1
 
304
ACVALUE_END
170
1
140
0.125
171
1
172
0
173
0
174
0
175
1
176
1
 91
33
178
0
145
0.0
301
CELL_VALUE
 90
4
  1
 
304
ACVALUE_END
170
1
140
0.125
171
1
172
0
173
0
174
0
175
1
176
1
 91
33
178
0
145
0.0
301
CELL_VALUE
 90
4
  1
 
304
ACVALUE_END
170
1
140
0.125
171
1
172
0
173
0
174
0
175
1
176
1
 91
33
178
0
145
0.0
301
CELL_VALUE
 90
4
  1
 
304
ACVALUE_END
170
1
140
0.125
  0
ACAD_TABLE
  5
295
100
AcDbEntity
  8
0
 62
2
  6
CONTINUOUS
100
AcDbBlockReference
  2
*T2
 10
12.4237499994
 20
16.47875
 30
0.0
100
AcDbTable
342
       3BC
343
210
 11
1.0
 21
0.0
 31
0.0
 90
22
 91
11
 92
3
 93
16
 94
0
 95
0
 96
0
 41
0.028
141
0.344
141
0.25
141
0.25
141
0.25
141
0.25
141
0.25
141
0.25
141
0.25
141
0.25
141
0.25
141
0.25
142
3.055
142
3.0
142
3.0
171
1
172
0
173
0
174
0
175
1
176
1
 91
33
178
0
145
0.0
301
CELL_VALUE
 90
4
  1
Technical Data
304
ACVALUE_END
170
5
140
0.145
171
1
172
0
173
0
174
0
175
1
176
1
 91
33
178
0
145
0.0
301
CELL_VALUE
 90
4
  1
U.S. Units
304
ACVALUE_END
170
5
140
0.145
171
1
172
0
173
0
174
0
175
1
176
1
 91
33
178
0
145
0.0
301
CELL_VALUE
 90
4
  1
Metric Units
304
ACVALUE_END
170
5
140
0.145
171
1
172
0
173
0
174
0
175
1
176
1
 91
33
178
0
145
0.0
301
CELL_VALUE
 90
4
  1
Cavity
304
ACVALUE_END
170
5
140
0.125
171
1
172
0
173
0
174
0
175
2
176
1
 91
33
178
0
145
0.0
301
CELL_VALUE
 90
4
  1
T-11A
304
ACVALUE_END
170
5
140
0.125
171
1
172
0
173
1
174
0
175
1
176
1
 91
1
178
0
145
0.0
170
1
171
1
172
0
173
0
174
0
175
1
176
1
 91
33
178
0
145
0.0
301
CELL_VALUE
 90
4
  1
Body Features
304
ACVALUE_END
170
5
140
0.125
171
1
172
0
173
0
174
0
175
2
176
1
 91
33
178
0
145
0.0
301
CELL_VALUE
 90
4
  1
Through port 1 with reverse flow check
304
ACVALUE_END
170
5
140
0.125
171
1
172
0
173
1
174
0
175
1
176
1
 91
1
178
0
145
0.0
170
1
171
1
172
0
173
0
174
0
175
1
176
1
 91
33
178
0
145
0.0
301
CELL_VALUE
 90
4
  1
Body Type
304
ACVALUE_END
170
5
140
0.125
171
1
172
0
173
0
174
0
175
2
176
1
 91
33
178
0
145
0.0
301
CELL_VALUE
 90
4
  1
Line mount
304
ACVALUE_END
170
5
140
0.125
171
1
172
0
173
1
174
0
175
1
176
1
 91
1
178
0
145
0.0
170
1
171
1
172
0
173
0
174
0
175
1
176
1
 91
33
178
0
145
0.0
301
CELL_VALUE
 90
4
  1
Interface
304
ACVALUE_END
170
5
140
0.125
171
1
172
0
173
0
174
0
175
2
176
1
 91
33
178
0
145
0.0
301
CELL_VALUE
 90
4
  1
None
304
ACVALUE_END
170
5
140
0.125
171
1
172
0
173
1
174
0
175
1
176
1
 91
1
178
0
145
0.0
170
1
171
1
172
0
173
0
174
0
175
1
176
1
 91
33
178
0
145
0.0
301
CELL_VALUE
 90
4
  1
Open Cavity Quantity
304
ACVALUE_END
170
5
140
0.125
171
1
172
0
173
0
174
0
175
2
176
1
 91
33
178
0
145
0.0
301
CELL_VALUE
 90
4
  1
1
304
ACVALUE_END
170
5
140
0.125
171
1
172
0
173
1
174
0
175
1
176
1
 91
1
178
0
145
0.0
170
1
171
1
172
0
173
0
174
0
175
1
176
1
 91
33
178
0
145
0.0
301
CELL_VALUE
 90
4
  1
Weight
304
ACVALUE_END
170
5
140
0.125
171
1
172
0
173
0
174
0
175
1
176
1
 91
33
178
0
145
0.0
301
CELL_VALUE
 90
4
  1
1.996 lb.
304
ACVALUE_END
170
5
140
0.125
171
1
172
0
173
0
174
0
175
1
176
1
 91
33
178
0
145
0.0
301
CELL_VALUE
 90
4
  1
0,905 kg.
304
ACVALUE_END
170
5
140
0.125
171
1
172
0
173
0
174
0
175
1
176
1
 91
33
178
0
145
0.0
301
CELL_VALUE
 90
4
  1
Mounting Hole Thread
304
ACVALUE_END
170
5
140
0.125
171
1
172
0
173
0
174
0
175
1
176
1
 91
33
178
0
145
0.0
301
CELL_VALUE
 90
4
  1
.375-16 UNC - 2B in.
304
ACVALUE_END
170
5
140
0.125
171
1
172
0
173
0
174
0
175
1
176
1
 91
33
178
0
145
0.0
301
CELL_VALUE
 90
4
  1
 
304
ACVALUE_END
170
5
140
0.125
171
1
172
0
173
0
174
0
175
1
176
1
 91
33
178
0
145
0.0
301
CELL_VALUE
 90
4
  1
Mounting Hole Depth
304
ACVALUE_END
170
5
140
0.125
171
1
172
0
173
0
174
0
175
1
176
1
 91
33
178
0
145
0.0
301
CELL_VALUE
 90
4
  1
.62 in.
304
ACVALUE_END
170
5
140
0.125
171
1
172
0
173
0
174
0
175
1
176
1
 91
33
178
0
145
0.0
301
CELL_VALUE
 90
4
  1
15,7 mm
304
ACVALUE_END
170
5
140
0.125
171
1
172
0
173
0
174
0
175
1
176
1
 91
33
178
0
145
0.0
301
CELL_VALUE
 90
4
  1
Mounting Hole Quantity
304
ACVALUE_END
170
5
140
0.125
171
1
172
0
173
0
174
0
175
2
176
1
 91
33
178
0
145
0.0
301
CELL_VALUE
 90
4
  1
2
304
ACVALUE_END
170
5
140
0.125
171
1
172
0
173
1
174
0
175
1
176
1
 91
1
178
0
145
0.0
170
1
171
1
172
0
173
0
174
0
175
1
176
1
 91
33
178
0
145
0.0
301
CELL_VALUE
 90
4
  1
Includes integral cartridge(s)
304
ACVALUE_END
170
5
140
0.125
171
1
172
0
173
0
174
0
175
2
176
1
 91
33
178
0
145
0.0
301
CELL_VALUE
 90
4
  1
Yes (see Included Components)
304
ACVALUE_END
170
5
140
0.125
171
1
172
0
173
1
174
0
175
1
176
1
 91
1
178
0
145
0.0
170
1
  0
ACAD_TABLE
  5
296
100
AcDbEntity
  8
0
 62
2
  6
CONTINUOUS
100
AcDbBlockReference
  2
*T3
 10
0.52125
 20
1.959
 30
0.0
100
AcDbTable
342
       3BC
343
211
 11
1.0
 21
0.0
 31
0.0
 90
22
 91
5
 92
3
 93
16
 94
0
 95
0
 96
0
 41
0.05
141
0.34375
141
0.344
141
0.25
141
0.25
141
0.25
142
1.3
142
2.0
142
1.3
171
1
172
0
173
0
174
0
175
3
176
1
 91
33
178
0
145
0.0
301
CELL_VALUE
 90
4
  1
Port Headings
304
ACVALUE_END
170
5
140
0.145
171
1
172
0
173
1
174
0
175
1
176
1
 91
1
178
0
145
0.0
170
1
171
1
172
0
173
1
174
0
175
1
176
1
 91
1
178
0
145
0.0
170
1
171
1
172
0
173
0
174
0
175
1
176
1
 91
33
178
0
145
0.0
301
CELL_VALUE
 90
4
  1
Product
304
ACVALUE_END
170
5
140
0.145
171
1
172
0
173
0
174
0
175
1
176
1
 91
33
178
0
145
0.0
301
CELL_VALUE
 90
4
  1
Port
304
ACVALUE_END
170
5
140
0.145
171
1
172
0
173
0
174
0
175
1
176
1
 91
33
178
0
145
0.0
301
CELL_VALUE
 90
4
  1
Size
304
ACVALUE_END
170
5
140
0.145
171
1
172
0
173
0
174
0
175
1
176
1
 91
33
178
0
145
0.0
301
CELL_VALUE
 90
4
  1
E7I
304
ACVALUE_END
170
5
140
0.125
171
1
172
0
173
0
174
0
175
1
176
1
 91
33
178
0
145
0.0
301
CELL_VALUE
 90
4
  1
Ports 1 &  2
304
ACVALUE_END
170
5
140
0.125
171
1
172
0
173
0
174
0
175
1
176
1
 91
33
178
0
145
0.0
301
CELL_VALUE
 90
4
  1
SAE 6
304
ACVALUE_END
170
5
140
0.125
171
1
172
0
173
0
174
0
175
1
176
1
 91
33
178
0
145
0.0
301
CELL_VALUE
 90
4
  1
E7I
304
ACVALUE_END
170
5
140
0.125
171
1
172
0
173
0
174
0
175
1
176
1
 91
33
178
0
145
0.0
301
CELL_VALUE
 90
4
  1
Port 3
304
ACVALUE_END
170
5
140
0.125
171
1
172
0
173
0
174
0
175
1
176
1
 91
33
178
0
145
0.0
301
CELL_VALUE
 90
4
  1
SAE 6
304
ACVALUE_END
170
5
140
0.125
171
1
172
0
173
0
174
0
175
1
176
1
 91
33
178
0
145
0.0
301
CELL_VALUE
 90
4
  1
E7I
304
ACVALUE_END
170
5
140
0.125
171
1
172
0
173
0
174
0
175
1
176
1
 91
33
178
0
145
0.0
301
CELL_VALUE
 90
4
  1
Gage Port
304
ACVALUE_END
170
5
140
0.125
171
1
172
0
173
0
174
0
175
1
176
1
 91
33
178
0
145
0.0
301
CELL_VALUE
 90
4
  1
1/4" NPTF
304
ACVALUE_END
170
5
140
0.125
  0
MTEXT
  5
297
100
AcDbEntity
  8
0
100
AcDbMText
 62
2
  6
CONTINUOUS
  7
STANDARD
 71
1
 72
1
 10
0.52125
 20
5.75995
 30
0.0
 11
1.0
 21
0.0
 31
0.0
 44
0.6
  3
Notes\P \P1. Important: Carefully consider\P   the maximum system pressure. The\P   pressure rating of the manifold is\P   dependent on the manifold material,\P   with the port type/size a secondary\P   consideration. Manifolds\P   constructed of alu
  1
minum are not\P   rated for pressures higher than\P   3000 psi (210 bar), regardless of\P   the port type/size specified.
 40
0.1
 41
3.04
  0
LINE
  5
298
100
AcDbEntity
  8
0
100
AcDbLine
 62
7
  6
CONTINUOUS
 10
0.30125
 20
0.30125
 11
0.30125
 21
16.69875
  0
LINE
  5
299
100
AcDbEntity
  8
0
100
AcDbLine
 62
7
  6
CONTINUOUS
 10
0.30125
 20
0.30125
 11
21.69875
 21
0.30125
  0
LINE
  5
29A
100
AcDbEntity
  8
0
100
AcDbLine
 62
7
  6
CONTINUOUS
 10
0.30125
 20
16.69875
 11
21.69875
 21
16.69875
  0
LINE
  5
29B
100
AcDbEntity
  8
0
100
AcDbLine
 62
7
  6
CONTINUOUS
 10
21.69875
 20
0.30125
 11
21.69875
 21
16.69875
  0
LINE
  5
29C
100
AcDbEntity
  8
0
100
AcDbLine
 62
7
  6
CONTINUOUS
 10
10.116116185
 20
10.7414587126
 11
9.4690691062
 21
10.1164591913
  0
LINE
  5
29D
100
AcDbEntity
  8
0
100
AcDbLine
 62
7
  6
CONTINUOUS
 10
10.8953201634
 20
6.3306033474
 11
10.9204825729
 21
6.3181735989
  0
LINE
  5
29E
100
AcDbEntity
  8
0
100
AcDbLine
 62
7
  6
CONTINUOUS
 10
9.9291681396
 20
10.084551215
 11
9.9374503424
 21
10.0925512091
  0
LINE
  5
29F
100
AcDbEntity
  8
0
100
AcDbLine
 62
7
  6
CONTINUOUS
 10
10.2163774272
 20
10.0646331833
 11
10.22465963
 21
10.0726331773
  0
LINE
  5
2A0
100
AcDbEntity
  8
0
100
AcDbLine
 62
7
  6
CONTINUOUS
 10
9.4690691062
 20
6.8564593345
 11
11.883883815
 21
6.6889913656
  0
LINE
  5
2A1
100
AcDbEntity
  8
0
100
AcDbLine
 62
7
  6
CONTINUOUS
 10
9.4690691062
 20
6.8564593345
 11
9.4690691062
 21
10.1164591913
  0
LINE
  5
2A2
100
AcDbEntity
  8
0
100
AcDbLine
 62
4
  6
CONTINUOUS
 10
11.7530008917
 20
7.2370547973
 11
11.7385120037
 21
7.2380596051
  0
LINE
  5
2A3
100
AcDbEntity
  8
0
100
AcDbLine
 62
4
  6
CONTINUOUS
 10
11.7457564477
 20
7.295512753
 11
11.7747342236
 21
7.2935031374
  0
LINE
  5
2A4
100
AcDbEntity
  8
0
100
AcDbLine
 62
4
  6
CONTINUOUS
 10
11.7385120037
 20
7.3539707086
 11
11.7530008917
 21
7.3529659008
  0
LINE
  5
2A5
100
AcDbEntity
  8
0
100
AcDbLine
 62
4
  6
CONTINUOUS
 10
10.1548764862
 20
9.0691649966
 11
10.1476320422
 21
9.0600081442
  0
LINE
  5
2A6
100
AcDbEntity
  8
0
100
AcDbLine
 62
4
  6
CONTINUOUS
 10
10.1621209301
 20
9.010707041
 11
10.1476320422
 21
8.9923933318
  0
LINE
  5
2A7
100
AcDbEntity
  8
0
100
AcDbLine
 62
4
  6
CONTINUOUS
 10
10.7558203462
 20
9.6512015897
 11
10.7696192882
 21
9.6640435703
  0
LINE
  5
2A8
100
AcDbEntity
  8
0
100
AcDbLine
 62
4
  6
CONTINUOUS
 10
10.7903177005
 20
9.5660155408
 11
10.8041166411
 21
9.578857523
  0
LINE
  5
2A9
100
AcDbEntity
  8
0
100
AcDbLine
 62
4
  6
CONTINUOUS
 10
10.1041653784
 20
9.0920003434
 11
10.1186542664
 21
9.100654792
  0
LINE
  5
2AA
100
AcDbEntity
  8
0
100
AcDbLine
 62
4
  6
CONTINUOUS
 10
10.1476320422
 20
9.0600081442
 11
10.1331431543
 21
9.0513536888
  0
LINE
  5
2AB
100
AcDbEntity
  8
0
100
AcDbLine
 62
4
  6
CONTINUOUS
 10
11.1881871854
 20
9.6005184338
 11
11.2019861202
 21
9.6064609475
  0
LINE
  5
2AC
100
AcDbEntity
  8
0
100
AcDbLine
 62
4
  6
CONTINUOUS
 10
10.1548764862
 20
9.0788242529
 11
10.1548764862
 21
9.0691649966
  0
LINE
  5
2AD
100
AcDbEntity
  8
0
100
AcDbLine
 62
4
  6
CONTINUOUS
 10
10.1621209301
 20
9.0203663008
 11
10.1621209301
 21
9.010707041
  0
LINE
  5
2AE
100
AcDbEntity
  8
0
100
AcDbLine
 62
4
  6
CONTINUOUS
 10
10.8662118823
 20
9.5607522614
 11
10.8800108171
 21
9.573594244
  0
LINE
  5
2AF
100
AcDbEntity
  8
0
100
AcDbLine
 62
4
  6
CONTINUOUS
 10
10.1476320422
 20
8.9923933318
 11
10.1331431543
 21
8.9837388807
  0
LINE
  5
2B0
100
AcDbEntity
  8
0
100
AcDbLine
 62
4
  6
CONTINUOUS
 10
11.3192771353
 20
9.5569299634
 11
11.3330760701
 21
9.5628724743
  0
LINE
  5
2B1
100
AcDbEntity
  8
0
100
AcDbLine
 62
4
  6
CONTINUOUS
 10
10.4543134854
 20
8.2273619732
 11
10.4543134854
 21
8.1114508697
  0
LINE
  5
2B2
100
AcDbEntity
  8
0
100
AcDbLine
 62
4
  6
CONTINUOUS
 10
10.8432136098
 20
9.129520404
 11
10.8064164321
 21
9.1136737066
  0
LINE
  5
2B3
100
AcDbEntity
  8
0
100
AcDbLine
 62
4
  6
CONTINUOUS
 10
11.7385120037
 20
7.2380596051
 11
11.7240231158
 21
7.2487236718
  0
LINE
  5
2B4
100
AcDbEntity
  8
0
100
AcDbLine
 62
7
  6
CONTINUOUS
 10
11.883883815
 20
9.9489912225
 11
12.5309308938
 21
10.5739907437
  0
LINE
  5
2B5
100
AcDbEntity
  8
0
100
AcDbLine
 62
4
  6
CONTINUOUS
 10
10.9099084893
 20
9.0788986255
 11
10.8961095487
 21
9.0660566433
  0
LINE
  5
2B6
100
AcDbEntity
  8
0
100
AcDbLine
 62
4
  6
CONTINUOUS
 10
11.5561589341
 20
9.5749995063
 11
11.5630583785
 21
9.5814205014
  0
LINE
  5
2B7
100
AcDbEntity
  8
0
100
AcDbLine
 62
4
  6
CONTINUOUS
 10
11.6182542099
 20
9.5706931843
 11
11.6251536543
 21
9.5771141794
  0
LINE
  5
2B8
100
AcDbEntity
  8
0
100
AcDbLine
 62
4
  6
CONTINUOUS
 10
11.7530008917
 20
7.3529659008
 11
11.7674897796
 21
7.3423018367
  0
LINE
  5
2B9
100
AcDbEntity
  8
0
100
AcDbLine
 62
4
  6
CONTINUOUS
 10
10.1041653784
 20
8.9954077552
 11
10.0969209345
 21
9.005569418
  0
LINE
  5
2BA
100
AcDbEntity
  8
0
100
AcDbLine
 62
4
  6
CONTINUOUS
 10
10.1476320422
 20
9.0406896247
 11
10.1621209301
 21
9.0203663008
  0
LINE
  5
2BB
100
AcDbEntity
  8
0
100
AcDbLine
 62
4
  6
CONTINUOUS
 10
10.1476320422
 20
9.0889859201
 11
10.1548764862
 21
9.0788242529
  0
LINE
  5
2BC
100
AcDbEntity
  8
0
100
AcDbLine
 62
4
  6
CONTINUOUS
 10
10.7558203462
 20
9.6374026491
 11
10.7558203462
 21
9.6512015897
  0
LINE
  5
2BD
100
AcDbEntity
  8
0
100
AcDbLine
 62
4
  6
CONTINUOUS
 10
10.8041166411
 20
9.578857523
 11
10.8041166411
 21
9.592656465
  0
LINE
  5
2BE
100
AcDbEntity
  8
0
100
AcDbLine
 62
7
  6
CONTINUOUS
 10
10.8222335363
 20
6.7626170625
 11
10.8222335363
 21
6.3774341462
  0
LINE
  5
2BF
100
AcDbEntity
  8
0
100
AcDbLine
 62
4
  6
CONTINUOUS
 10
10.8317145222
 20
9.6597372512
 11
10.8317145222
 21
9.5769436035
  0
LINE
  5
2C0
100
AcDbEntity
  8
0
100
AcDbLine
 62
7
  6
CONTINUOUS
 10
10.8375627728
 20
6.7615539763
 11
10.8375627728
 21
6.3626272662
  0
LINE
  5
2C1
100
AcDbEntity
  8
0
100
AcDbLine
 62
4
  6
CONTINUOUS
 10
10.9490054904
 20
9.0623882972
 11
10.9766033716
 21
9.1570669675
  0
LINE
  5
2C2
100
AcDbEntity
  8
0
100
AcDbLine
 62
4
  6
CONTINUOUS
 10
11.1421907053
 20
9.5186148293
 11
11.169788575
 21
9.6086938549
  0
LINE
  5
2C3
100
AcDbEntity
  8
0
100
AcDbLine
 62
4
  6
CONTINUOUS
 10
11.6527515239
 20
9.506205552
 11
11.6596509683
 21
9.5126265449
  0
LINE
  5
2C4
100
AcDbEntity
  8
0
100
AcDbLine
 62
4
  6
CONTINUOUS
 10
11.2594816966
 20
9.1236503484
 11
11.2732806314
 21
9.1364923296
  0
LINE
  5
2C5
100
AcDbEntity
  8
0
100
AcDbLine
 62
4
  6
CONTINUOUS
 10
11.3399754907
 20
9.1180680848
 11
11.3537744255
 21
9.130910066
  0
LINE
  5
2C6
100
AcDbEntity
  8
0
100
AcDbLine
 62
4
  6
CONTINUOUS
 10
11.6090548348
 20
9.0580105443
 11
11.57225766
 21
9.0421638482
  0
LINE
  5
2C7
100
AcDbEntity
  8
0
100
AcDbLine
 62
4
  6
CONTINUOUS
 10
10.8616122001
 20
9.0684490425
 11
10.8616122001
 21
9.1650416323
  0
LINE
  5
2C8
100
AcDbEntity
  8
0
100
AcDbLine
 62
4
  6
CONTINUOUS
 10
10.8800108171
 20
9.573594244
 11
10.8800108171
 21
9.6563878918
  0
LINE
  5
2C9
100
AcDbEntity
  8
0
100
AcDbLine
 62
4
  6
CONTINUOUS
 10
10.9076086983
 20
9.5578813825
 11
10.9076086983
 21
9.6544739723
  0
LINE
  5
2CA
100
AcDbEntity
  8
0
100
AcDbLine
 62
4
  6
CONTINUOUS
 10
10.9099084893
 20
9.1478933327
 11
10.9099084893
 21
9.0788986255
  0
LINE
  5
2CB
100
AcDbEntity
  8
0
100
AcDbLine
 62
4
  6
CONTINUOUS
 10
10.9559049932
 20
9.554532023
 11
10.9559049932
 21
9.6511246128
  0
LINE
  5
2CC
100
AcDbEntity
  8
0
100
AcDbLine
 62
4
  6
CONTINUOUS
 10
11.2433829307
 20
9.3510694397
 11
11.2157850438
 21
9.2563907699
  0
LINE
  5
2CD
100
AcDbEntity
  8
0
100
AcDbLine
 62
4
  6
CONTINUOUS
 10
11.3882717856
 20
9.0457240182
 11
11.3744728508
 21
9.0328820356
  0
LINE
  5
2CE
100
AcDbEntity
  8
0
100
AcDbLine
 62
4
  6
CONTINUOUS
 10
11.4641659501
 20
9.04046074
 11
11.4503670153
 21
9.0276187574
  0
LINE
  5
2CF
100
AcDbEntity
  8
0
100
AcDbLine
 62
4
  6
CONTINUOUS
 10
10.1186542664
 20
8.9847436885
 11
10.1041653784
 21
8.9954077552
  0
LINE
  5
2D0
100
AcDbEntity
  8
0
100
AcDbLine
 62
4
  6
CONTINUOUS
 10
10.1331431543
 20
9.0513536888
 11
10.1476320422
 21
9.0406896247
  0
LINE
  5
2D1
100
AcDbEntity
  8
0
100
AcDbLine
 62
4
  6
CONTINUOUS
 10
10.1331431543
 20
9.0996499842
 11
10.1476320422
 21
9.0889859201
  0
LINE
  5
2D2
100
AcDbEntity
  8
0
100
AcDbLine
 62
4
  6
CONTINUOUS
 10
11.7240231158
 20
7.2487236718
 11
11.7095342279
 21
7.2690469966
  0
LINE
  5
2D3
100
AcDbEntity
  8
0
100
AcDbLine
 62
4
  6
CONTINUOUS
 10
11.7674897796
 20
7.3423018367
 11
11.7747342236
 21
7.3321401696
  0
LINE
  5
2D4
100
AcDbEntity
  8
0
100
AcDbLine
 62
4
  6
CONTINUOUS
 10
11.0593970266
 20
9.0547326182
 11
11.0593970266
 21
9.151325208
  0
LINE
  5
2D5
100
AcDbEntity
  8
0
100
AcDbLine
 62
4
  6
CONTINUOUS
 10
11.0593970504
 20
9.5473548245
 11
11.0593970504
 21
9.6439474143
  0
LINE
  5
2D6
100
AcDbEntity
  8
0
100
AcDbLine
 62
4
  6
CONTINUOUS
 10
11.1007938778
 20
9.6065791802
 11
11.1007938778
 21
9.5444839448
  0
LINE
  5
2D7
100
AcDbEntity
  8
0
100
AcDbLine
 62
4
  6
CONTINUOUS
 10
11.1145927889
 20
9.0509047791
 11
11.1145927889
 21
9.1474973689
  0
LINE
  5
2D8
100
AcDbEntity
  8
0
100
AcDbLine
 62
4
  6
CONTINUOUS
 10
11.1260919272
 20
9.2626110087
 11
11.1260919272
 21
9.3592035985
  0
LINE
  5
2D9
100
AcDbEntity
  8
0
100
AcDbLine
 62
7
  6
CONTINUOUS
 10
11.1464340764
 20
6.7032848174
 11
11.1464340764
 21
6.2826855916
  0
LINE
  5
2DA
100
AcDbEntity
  8
0
100
AcDbLine
 62
4
  6
CONTINUOUS
 10
11.1881871854
 20
9.5453226693
 11
11.1881871854
 21
9.6005184338
  0
LINE
  5
2DB
100
AcDbEntity
  8
0
100
AcDbLine
 62
4
  6
CONTINUOUS
 10
11.1950866358
 20
9.3337203854
 11
11.1950866358
 21
9.3544187992
  0
LINE
  5
2DC
100
AcDbEntity
  8
0
100
AcDbLine
 62
7
  6
CONTINUOUS
 10
11.2036435218
 20
6.6993173289
 11
11.2036435218
 21
6.2787181031
  0
LINE
  5
2DD
100
AcDbEntity
  8
0
100
AcDbLine
 62
4
  6
CONTINUOUS
 10
11.5216615741
 20
9.6118892607
 11
11.5193617593
 21
9.6051492802
  0
LINE
  5
2DE
100
AcDbEntity
  8
0
100
AcDbLine
 62
4
  6
CONTINUOUS
 10
11.7022897839
 20
8.5735492817
 11
11.7602453356
 21
8.5695300505
  0
LINE
  5
2DF
100
AcDbEntity
  8
0
100
AcDbLine
 62
4
  6
CONTINUOUS
 10
10.9766033716
 20
9.1570669675
 11
11.0042012643
 21
9.0585604573
  0
LINE
  5
2E0
100
AcDbEntity
  8
0
100
AcDbLine
 62
4
  6
CONTINUOUS
 10
11.2295839899
 20
9.6321449099
 11
11.2295839899
 21
9.5355523201
  0
LINE
  5
2E1
100
AcDbEntity
  8
0
100
AcDbLine
 62
4
  6
CONTINUOUS
 10
11.2571819056
 20
9.5336383982
 11
11.2571819056
 21
9.6026331068
  0
LINE
  5
2E2
100
AcDbEntity
  8
0
100
AcDbLine
 62
4
  6
CONTINUOUS
 10
11.2594816966
 20
9.0546556412
 11
11.2594816966
 21
9.1236503484
  0
LINE
  5
2E3
100
AcDbEntity
  8
0
100
AcDbLine
 62
4
  6
CONTINUOUS
 10
11.2893794048
 20
9.5935007295
 11
11.2893794048
 21
9.5797017889
  0
LINE
  5
2E4
100
AcDbEntity
  8
0
100
AcDbLine
 62
4
  6
CONTINUOUS
 10
11.2893793993
 20
9.251286984
 11
11.2893793993
 21
9.3478795738
  0
LINE
  5
2E5
100
AcDbEntity
  8
0
100
AcDbLine
 62
4
  6
CONTINUOUS
 10
11.3192771353
 20
9.5362315504
 11
11.3192771353
 21
9.5569299634
  0
LINE
  5
2E6
100
AcDbEntity
  8
0
100
AcDbLine
 62
4
  6
CONTINUOUS
 10
11.3399754907
 20
9.0490733776
 11
11.3399754907
 21
9.1180680848
  0
LINE
  5
2E7
100
AcDbEntity
  8
0
100
AcDbLine
 62
4
  6
CONTINUOUS
 10
11.3606739398
 20
9.5264612012
 11
11.3606739398
 21
9.5816569693
  0
LINE
  5
2E8
100
AcDbEntity
  8
0
100
AcDbLine
 62
4
  6
CONTINUOUS
 10
11.7095342279
 20
8.6792987249
 11
11.7240231158
 21
8.6879531734
  0
LINE
  5
2E9
100
AcDbEntity
  8
0
100
AcDbLine
 62
4
  6
CONTINUOUS
 10
11.7530008917
 20
8.6376472625
 11
11.7240231158
 21
8.620338362
  0
LINE
  5
2EA
100
AcDbEntity
  8
0
100
AcDbLine
 62
4
  6
CONTINUOUS
 10
11.7240231158
 20
8.6879531734
 11
11.7385120037
 21
8.6869483657
  0
LINE
  5
2EB
100
AcDbEntity
  8
0
100
AcDbLine
 62
4
  6
CONTINUOUS
 10
10.8961095487
 20
9.162649233
 11
10.9099084893
 21
9.1478933327
  0
LINE
  5
2EC
100
AcDbEntity
  8
0
100
AcDbLine
 62
4
  6
CONTINUOUS
 10
11.3882718094
 20
9.5935419911
 11
11.3882718094
 21
9.5314467535
  0
LINE
  5
2ED
100
AcDbEntity
  8
0
100
AcDbLine
 62
4
  6
CONTINUOUS
 10
11.3882717856
 20
9.1147187254
 11
11.3882717856
 21
9.0457240182
  0
LINE
  5
2EE
100
AcDbEntity
  8
0
100
AcDbLine
 62
4
  6
CONTINUOUS
 10
11.4158696552
 20
9.0300111574
 11
11.4158696552
 21
9.1266037472
  0
LINE
  5
2EF
100
AcDbEntity
  8
0
100
AcDbLine
 62
4
  6
CONTINUOUS
 10
11.4296686599
 20
9.5216764012
 11
11.4296686599
 21
9.5906711098
  0
LINE
  5
2F0
100
AcDbEntity
  8
0
100
AcDbLine
 62
4
  6
CONTINUOUS
 10
11.4572665295
 20
9.5266619534
 11
11.4572665295
 21
9.6163550722
  0
LINE
  5
2F1
100
AcDbEntity
  8
0
100
AcDbLine
 62
4
  6
CONTINUOUS
 10
11.4641659501
 20
9.1094554472
 11
11.4641659501
 21
9.04046074
  0
LINE
  5
2F2
100
AcDbEntity
  8
0
100
AcDbLine
 62
4
  6
CONTINUOUS
 10
11.5032629859
 20
9.0239504094
 11
11.5032629859
 21
9.1205429992
  0
LINE
  5
2F3
100
AcDbEntity
  8
0
100
AcDbLine
 62
4
  6
CONTINUOUS
 10
11.5193617593
 20
9.5154561636
 11
11.5193617593
 21
9.5844508722
  0
LINE
  5
2F4
100
AcDbEntity
  8
0
100
AcDbLine
 62
4
  6
CONTINUOUS
 10
11.5193617593
 20
9.6051492802
 11
11.5193617593
 21
9.6120487534
  0
LINE
  5
2F5
100
AcDbEntity
  8
0
100
AcDbLine
 62
4
  6
CONTINUOUS
 10
11.5561589341
 20
9.5198037419
 11
11.5561589341
 21
9.5749995063
  0
LINE
  5
2F6
100
AcDbEntity
  8
0
100
AcDbLine
 62
4
  6
CONTINUOUS
 10
11.7022897839
 20
8.6701418656
 11
11.7095342279
 21
8.6792987249
  0
LINE
  5
2F7
100
AcDbEntity
  8
0
100
AcDbLine
 62
4
  6
CONTINUOUS
 10
11.7240231158
 20
8.620338362
 11
11.7095342279
 21
8.6020246537
  0
LINE
  5
2F8
100
AcDbEntity
  8
0
100
AcDbLine
 62
4
  6
CONTINUOUS
 10
11.7602453356
 20
8.6468041218
 11
11.7530008917
 21
8.6376472625
  0
LINE
  5
2F9
100
AcDbEntity
  8
0
100
AcDbLine
 62
4
  6
CONTINUOUS
 10
10.1331431543
 20
8.9837388807
 11
10.1186542664
 21
8.9847436885
  0
LINE
  5
2FA
100
AcDbEntity
  8
0
100
AcDbLine
 62
4
  6
CONTINUOUS
 10
10.1186542664
 20
9.0523584966
 11
10.1331431543
 21
9.0513536888
  0
LINE
  5
2FB
100
AcDbEntity
  8
0
100
AcDbLine
 62
4
  6
CONTINUOUS
 10
10.1186542664
 20
9.100654792
 11
10.1331431543
 21
9.0996499842
  0
LINE
  5
2FC
100
AcDbEntity
  8
0
100
AcDbLine
 62
4
  6
CONTINUOUS
 10
11.4503670153
 20
9.0276187574
 11
11.4158696552
 21
9.0300111574
  0
LINE
  5
2FD
100
AcDbEntity
  8
0
100
AcDbLine
 62
4
  6
CONTINUOUS
 10
11.3744728508
 20
9.0328820356
 11
11.3537744255
 21
9.0343174762
  0
LINE
  5
2FE
100
AcDbEntity
  8
0
100
AcDbLine
 62
4
  6
CONTINUOUS
 10
11.300878501
 20
9.0379858211
 11
11.2732806314
 21
9.0398997398
  0
LINE
  5
2FF
100
AcDbEntity
  8
0
100
AcDbLine
 62
4
  6
CONTINUOUS
 10
10.8961095487
 20
9.0660566433
 11
10.8616122001
 21
9.0684490425
  0
LINE
  5
300
100
AcDbEntity
  8
0
100
AcDbLine
 62
4
  6
CONTINUOUS
 10
11.1145927889
 20
9.0509047791
 11
11.1559896164
 21
9.0480338994
  0
LINE
  5
301
100
AcDbEntity
  8
0
100
AcDbLine
 62
4
  6
CONTINUOUS
 10
11.5032629859
 20
9.0239504094
 11
11.5446597903
 21
9.0210795312
  0
LINE
  5
302
100
AcDbEntity
  8
0
100
AcDbLine
 62
4
  6
CONTINUOUS
 10
10.8064164321
 20
9.1136737066
 11
10.8432136098
 21
9.0927232248
  0
LINE
  5
303
100
AcDbEntity
  8
0
100
AcDbLine
 62
4
  6
CONTINUOUS
 10
10.7558203462
 20
9.5753074114
 11
10.7627198172
 21
9.5679294605
  0
LINE
  5
304
100
AcDbEntity
  8
0
100
AcDbLine
 62
4
  6
CONTINUOUS
 10
10.9076086983
 20
9.6544739723
 11
10.9559049932
 21
9.554532023
  0
LINE
  5
305
100
AcDbEntity
  8
0
100
AcDbLine
 62
4
  6
CONTINUOUS
 10
11.1283917705
 20
9.611564733
 11
11.1490901958
 21
9.5411345837
  0
LINE
  5
306
100
AcDbEntity
  8
0
100
AcDbLine
 62
4
  6
CONTINUOUS
 10
11.7095342279
 20
7.2690469966
 11
11.7022897839
 21
7.2985271763
  0
LINE
  5
307
100
AcDbEntity
  8
0
100
AcDbLine
 62
4
  6
CONTINUOUS
 10
11.6182542099
 20
9.5499947734
 11
11.6182542099
 21
9.5706931843
  0
LINE
  5
308
100
AcDbEntity
  8
0
100
AcDbLine
 62
7
  6
CONTINUOUS
 10
11.6255694507
 20
6.7069055276
 11
11.6255694507
 21
6.3079788174
  0
LINE
  5
309
100
AcDbEntity
  8
0
100
AcDbLine
 62
4
  6
CONTINUOUS
 10
11.6596509683
 20
9.5126265449
 11
11.6596509683
 21
9.5333249579
  0
LINE
  5
30A
100
AcDbEntity
  8
0
100
AcDbLine
 62
7
  6
CONTINUOUS
 10
11.6674496597
 20
6.7040011253
 11
11.6674496597
 21
6.318818209
  0
LINE
  5
30B
100
AcDbEntity
  8
0
100
AcDbLine
 62
4
  6
CONTINUOUS
 10
11.7095342279
 20
8.6020246537
 11
11.7022897839
 21
8.5735492817
  0
LINE
  5
30C
100
AcDbEntity
  8
0
100
AcDbLine
 62
4
  6
CONTINUOUS
 10
10.9582047842
 20
9.0893482081
 11
10.995001959
 21
9.0867963153
  0
LINE
  5
30D
100
AcDbEntity
  8
0
100
AcDbLine
 62
4
  6
CONTINUOUS
 10
11.5308608555
 20
9.0772322587
 11
11.5032629859
 21
9.0791461774
  0
LINE
  5
30E
100
AcDbEntity
  8
0
100
AcDbLine
 62
4
  6
CONTINUOUS
 10
11.1421906815
 20
9.1041866268
 11
11.1145927889
 21
9.1061005472
  0
LINE
  5
30F
100
AcDbEntity
  8
0
100
AcDbLine
 62
4
  6
CONTINUOUS
 10
10.8616122001
 20
9.1650416323
 11
10.8961095487
 21
9.162649233
  0
LINE
  5
310
100
AcDbEntity
  8
0
100
AcDbLine
 62
4
  6
CONTINUOUS
 10
11.0317991339
 20
9.1532391284
 11
11.0869948962
 21
9.1494112892
  0
LINE
  5
311
100
AcDbEntity
  8
0
100
AcDbLine
 62
4
  6
CONTINUOUS
 10
11.1145927889
 20
9.1474973689
 11
11.1559896164
 21
9.1446264891
  0
LINE
  5
312
100
AcDbEntity
  8
0
100
AcDbLine
 62
4
  6
CONTINUOUS
 10
11.2732806314
 20
9.1364923296
 11
11.300878501
 21
9.1345784109
  0
LINE
  5
313
100
AcDbEntity
  8
0
100
AcDbLine
 62
4
  6
CONTINUOUS
 10
11.3537744255
 20
9.130910066
 11
11.3744728508
 21
9.1294746254
  0
LINE
  5
314
100
AcDbEntity
  8
0
100
AcDbLine
 62
4
  6
CONTINUOUS
 10
11.4158696552
 20
9.1266037472
 11
11.4503670153
 21
9.1242113472
  0
LINE
  5
315
100
AcDbEntity
  8
0
100
AcDbLine
 62
4
  6
CONTINUOUS
 10
11.5032629859
 20
9.1205429992
 11
11.5446597903
 21
9.117672121
  0
LINE
  5
316
100
AcDbEntity
  8
0
100
AcDbLine
 62
4
  6
CONTINUOUS
 10
11.7385120037
 20
8.6869483657
 11
11.7530008917
 21
8.6762843015
  0
LINE
  5
317
100
AcDbEntity
  8
0
100
AcDbLine
 62
4
  6
CONTINUOUS
 10
10.8041166411
 20
9.592656465
 11
10.7558203462
 21
9.6374026491
  0
LINE
  5
318
100
AcDbEntity
  8
0
100
AcDbLine
 62
4
  6
CONTINUOUS
 10
11.2732806314
 20
9.0398997398
 11
11.2594816966
 21
9.0546556412
  0
LINE
  5
319
100
AcDbEntity
  8
0
100
AcDbLine
 62
4
  6
CONTINUOUS
 10
10.8317145222
 20
9.5769436035
 11
10.8455134628
 21
9.5621877017
  0
LINE
  5
31A
100
AcDbEntity
  8
0
100
AcDbLine
 62
4
  6
CONTINUOUS
 10
11.3537744255
 20
9.0343174762
 11
11.3399754907
 21
9.0490733776
  0
LINE
  5
31B
100
AcDbEntity
  8
0
100
AcDbLine
 62
4
  6
CONTINUOUS
 10
10.7972171708
 20
9.6621296507
 11
10.8041166411
 21
9.6547516976
  0
LINE
  5
31C
100
AcDbEntity
  8
0
100
AcDbLine
 62
4
  6
CONTINUOUS
 10
11.3744728508
 20
9.1294746254
 11
11.3882717856
 21
9.1147187254
  0
LINE
  5
31D
100
AcDbEntity
  8
0
100
AcDbLine
 62
4
  6
CONTINUOUS
 10
11.7530008917
 20
8.6762843015
 11
11.7602453356
 21
8.6661226344
  0
LINE
  5
31E
100
AcDbEntity
  8
0
100
AcDbLine
 62
4
  6
CONTINUOUS
 10
11.7602453356
 20
8.6661226344
 11
11.7602453356
 21
8.6468041218
  0
LINE
  5
31F
100
AcDbEntity
  8
0
100
AcDbLine
 62
4
  6
CONTINUOUS
 10
11.7747342236
 20
7.2935031374
 11
11.7747342236
 21
7.2548661035
  0
LINE
  5
320
100
AcDbEntity
  8
0
100
AcDbLine
 62
7
  6
CONTINUOUS
 10
11.780504285
 20
6.6961607604
 11
11.780504285
 21
6.4280205978
  0
LINE
  5
321
100
AcDbEntity
  8
0
100
AcDbLine
 62
7
  6
CONTINUOUS
 10
11.883883815
 20
6.6889913656
 11
11.883883815
 21
9.9489912225
  0
LINE
  5
322
100
AcDbEntity
  8
0
100
AcDbLine
 62
4
  6
CONTINUOUS
 10
11.1260919272
 20
9.2626110087
 11
11.1674887518
 21
9.2597401291
  0
LINE
  5
323
100
AcDbEntity
  8
0
100
AcDbLine
 62
4
  6
CONTINUOUS
 10
11.1536898112
 20
9.315892857
 11
11.1260919272
 21
9.3178067767
  0
LINE
  5
324
100
AcDbEntity
  8
0
100
AcDbLine
 62
4
  6
CONTINUOUS
 10
11.1260919272
 20
9.3592035985
 11
11.1674887518
 21
9.3563327189
  0
LINE
  5
325
100
AcDbEntity
  8
0
100
AcDbLine
 62
4
  6
CONTINUOUS
 10
11.1950866358
 20
9.3544187992
 11
11.2433829307
 21
9.3510694397
  0
LINE
  5
326
100
AcDbEntity
  8
0
100
AcDbLine
 62
4
  6
CONTINUOUS
 10
11.57225766
 20
9.0789610274
 11
11.6090548348
 21
9.0580105443
  0
LINE
  5
327
100
AcDbEntity
  8
0
100
AcDbLine
 62
4
  6
CONTINUOUS
 10
11.4503670153
 20
9.1242113472
 11
11.4641659501
 21
9.1094554472
  0
LINE
  5
328
100
AcDbEntity
  8
0
100
AcDbLine
 62
4
  6
CONTINUOUS
 10
11.0938944104
 20
9.6139571331
 11
11.1007938778
 21
9.6065791802
  0
LINE
  5
329
100
AcDbEntity
  8
0
100
AcDbLine
 62
4
  6
CONTINUOUS
 10
11.2847797752
 20
9.6007191881
 11
11.2893794048
 21
9.5935007295
  0
LINE
  5
32A
100
AcDbEntity
  8
0
100
AcDbLine
 62
4
  6
CONTINUOUS
 10
11.3606739398
 20
9.5816569693
 11
11.3537744954
 21
9.595934388
  0
LINE
  5
32B
100
AcDbEntity
  8
0
100
AcDbLine
 62
4
  6
CONTINUOUS
 10
11.7022897839
 20
7.2985271763
 11
11.7095342279
 21
7.3270025483
  0
LINE
  5
32C
100
AcDbEntity
  8
0
100
AcDbLine
 62
4
  6
CONTINUOUS
 10
11.1283917705
 20
9.5195717887
 11
11.1421907053
 21
9.5186148293
  0
LINE
  5
32D
100
AcDbEntity
  8
0
100
AcDbLine
 62
4
  6
CONTINUOUS
 10
11.5906563403
 20
9.5105118676
 11
11.5630583785
 21
9.5124257928
  0
LINE
  5
32E
100
AcDbEntity
  8
0
100
AcDbLine
 62
4
  6
CONTINUOUS
 10
11.4779649548
 20
9.5183270417
 11
11.46416602
 21
9.5192840011
  0
LINE
  5
32F
100
AcDbEntity
  8
0
100
AcDbLine
 62
4
  6
CONTINUOUS
 10
11.3606739398
 20
9.5264612012
 11
11.3330760701
 21
9.52837512
  0
LINE
  5
330
100
AcDbEntity
  8
0
100
AcDbLine
 62
4
  6
CONTINUOUS
 10
11.2295839899
 20
9.5355523201
 11
11.2019861202
 21
9.5374662389
  0
LINE
  5
331
100
AcDbEntity
  8
0
100
AcDbLine
 62
4
  6
CONTINUOUS
 10
10.7627198172
 20
9.5679294605
 11
10.7903177005
 21
9.5660155408
  0
LINE
  5
332
100
AcDbEntity
  8
0
100
AcDbLine
 62
4
  6
CONTINUOUS
 10
10.8455134628
 20
9.5621877017
 11
10.8662118823
 21
9.5607522614
  0
LINE
  5
333
100
AcDbEntity
  8
0
100
AcDbLine
 62
4
  6
CONTINUOUS
 10
11.3951712998
 20
9.5240688012
 11
11.4296686599
 21
9.5216764012
  0
LINE
  5
334
100
AcDbEntity
  8
0
100
AcDbLine
 62
4
  6
CONTINUOUS
 10
11.6251536543
 20
9.5081194707
 11
11.6527515239
 21
9.506205552
  0
LINE
  5
335
100
AcDbEntity
  8
0
100
AcDbLine
 62
4
  6
CONTINUOUS
 10
11.3330760701
 20
9.5628724743
 11
11.3606739398
 21
9.5609585556
  0
LINE
  5
336
100
AcDbEntity
  8
0
100
AcDbLine
 62
4
  6
CONTINUOUS
 10
11.2019861202
 20
9.5374662389
 11
11.1881871854
 21
9.5453226693
  0
LINE
  5
337
100
AcDbEntity
  8
0
100
AcDbLine
 62
4
  6
CONTINUOUS
 10
11.3330760701
 20
9.52837512
 11
11.3192771353
 21
9.5362315504
  0
LINE
  5
338
100
AcDbEntity
  8
0
100
AcDbLine
 62
4
  6
CONTINUOUS
 10
11.3882718094
 20
9.5314467535
 11
11.3951712998
 21
9.5240688012
  0
LINE
  5
339
100
AcDbEntity
  8
0
100
AcDbLine
 62
4
  6
CONTINUOUS
 10
11.46416602
 20
9.5192840011
 11
11.4572665295
 21
9.5266619534
  0
LINE
  5
33A
100
AcDbEntity
  8
0
100
AcDbLine
 62
4
  6
CONTINUOUS
 10
11.5630583785
 20
9.5124257928
 11
11.5561589341
 21
9.5198037419
  0
LINE
  5
33B
100
AcDbEntity
  8
0
100
AcDbLine
 62
4
  6
CONTINUOUS
 10
11.7095342279
 20
7.3270025483
 11
11.7240231158
 21
7.34531626
  0
LINE
  5
33C
100
AcDbEntity
  8
0
100
AcDbLine
 62
7
  6
CONTINUOUS
 10
12.2074073544
 20
7.8756540508
 11
12.2080921283
 21
7.8763033184
  0
LINE
  5
33D
100
AcDbEntity
  8
0
100
AcDbLine
 62
4
  6
CONTINUOUS
 10
11.3537744954
 20
9.595934388
 11
11.3192771353
 21
9.598326788
  0
LINE
  5
33E
100
AcDbEntity
  8
0
100
AcDbLine
 62
4
  6
CONTINUOUS
 10
11.0593970504
 20
9.6163495331
 11
11.0938944104
 21
9.6139571331
  0
LINE
  5
33F
100
AcDbEntity
  8
0
100
AcDbLine
 62
4
  6
CONTINUOUS
 10
11.2019861202
 20
9.6064609475
 11
11.2295839899
 21
9.6045470288
  0
LINE
  5
340
100
AcDbEntity
  8
0
100
AcDbLine
 62
4
  6
CONTINUOUS
 10
11.2571819056
 20
9.6026331068
 11
11.2847797752
 21
9.6007191881
  0
LINE
  5
341
100
AcDbEntity
  8
0
100
AcDbLine
 62
4
  6
CONTINUOUS
 10
11.5630583785
 20
9.5814205014
 11
11.5906563403
 21
9.5795065762
  0
LINE
  5
342
100
AcDbEntity
  8
0
100
AcDbLine
 62
4
  6
CONTINUOUS
 10
11.6251536543
 20
9.5771141794
 11
11.6527515239
 21
9.5752002606
  0
LINE
  5
343
100
AcDbEntity
  8
0
100
AcDbLine
 62
4
  6
CONTINUOUS
 10
10.7696192882
 20
9.6640435703
 11
10.7972171708
 21
9.6621296507
  0
LINE
  5
344
100
AcDbEntity
  8
0
100
AcDbLine
 62
4
  6
CONTINUOUS
 10
11.5193617593
 20
9.6120487534
 11
11.5216615741
 21
9.6118892607
  0
LINE
  5
345
100
AcDbEntity
  8
0
100
AcDbLine
 62
4
  6
CONTINUOUS
 10
11.6527515239
 20
9.5384030829
 11
11.6251536543
 21
9.5449166485
  0
LINE
  5
346
100
AcDbEntity
  8
0
100
AcDbLine
 62
4
  6
CONTINUOUS
 10
11.6251536543
 20
9.5449166485
 11
11.6182542099
 21
9.5499947734
  0
LINE
  5
347
100
AcDbEntity
  8
0
100
AcDbLine
 62
4
  6
CONTINUOUS
 10
11.6596509683
 20
9.5333249579
 11
11.6527515239
 21
9.5384030829
  0
LINE
  5
348
100
AcDbEntity
  8
0
100
AcDbLine
 62
4
  6
CONTINUOUS
 10
11.6182542099
 20
9.5154974198
 11
11.6251536543
 21
9.5081194707
  0
LINE
  5
349
100
AcDbEntity
  8
0
100
AcDbLine
 62
4
  6
CONTINUOUS
 10
11.6527515239
 20
9.5752002606
 11
11.6596509683
 21
9.5678223094
  0
LINE
  5
34A
100
AcDbEntity
  8
0
100
AcDbLine
 62
4
  6
CONTINUOUS
 10
11.7747342236
 20
7.2548661035
 11
11.7674897796
 21
7.2457092485
  0
LINE
  5
34B
100
AcDbEntity
  8
0
100
AcDbLine
 62
4
  6
CONTINUOUS
 10
11.7240231158
 20
7.34531626
 11
11.7385120037
 21
7.3539707086
  0
LINE
  5
34C
100
AcDbEntity
  8
0
100
AcDbLine
 62
4
  6
CONTINUOUS
 10
11.7674897796
 20
7.2457092485
 11
11.7530008917
 21
7.2370547973
  0
LINE
  5
34D
100
AcDbEntity
  8
0
100
AcDbLine
 62
7
  6
CONTINUOUS
 10
12.5309308938
 20
7.3139908868
 11
12.5309308938
 21
10.5739907437
  0
LINE
  5
34E
100
AcDbEntity
  8
0
100
AcDbLine
 62
7
  6
CONTINUOUS
 10
9.4690691062
 20
10.1164591913
 11
9.9291681396
 21
10.084551215
  0
LINE
  5
34F
100
AcDbEntity
  8
0
100
AcDbLine
 62
7
  6
CONTINUOUS
 10
10.2163774272
 20
10.0646331833
 11
11.883883815
 21
9.9489912225
  0
LINE
  5
350
100
AcDbEntity
  8
0
100
AcDbLine
 62
7
  6
CONTINUOUS
 10
10.22465963
 20
10.0726331773
 11
9.9374503424
 21
10.0925512091
  0
LINE
  5
351
100
AcDbEntity
  8
0
100
AcDbLine
 62
7
  6
CONTINUOUS
 10
11.883883815
 20
6.6889913656
 11
12.5309308938
 21
7.3139908868
  0
LINE
  5
352
100
AcDbEntity
  8
0
100
AcDbLine
 62
7
  6
CONTINUOUS
 10
12.5309308938
 20
10.5739907437
 11
10.116116185
 21
10.7414587126
  0
LINE
  5
353
100
AcDbEntity
  8
0
100
AcDbLine
 62
7
  6
CONTINUOUS
 10
11.6985794805
 20
6.326237457
 11
11.6822552484
 21
6.3181735989
  0
ARC
  5
354
100
AcDbEntity
  8
0
100
AcDbCircle
 62
7
  6
CONTINUOUS
 10
11.2962313945
 20
8.0334973196
 40
1.7572201379
100
AcDbArc
 50
266.0376720963
 51
266.9796885983
  0
ARC
  5
355
100
AcDbEntity
  8
0
100
AcDbCircle
 62
7
  6
CONTINUOUS
 10
11.2955231375
 20
8.4424877831
 40
1.7455901856
100
AcDbArc
 50
266.0345339438
 51
266.9828267507
  0
ARC
  5
356
100
AcDbEntity
  8
0
100
AcDbCircle
 62
7
  6
CONTINUOUS
 10
11.2910475949
 20
8.3780539173
 40
1.6810010731
100
AcDbArc
 50
265.0648462661
 51
266.0348369885
  0
ARC
  5
357
100
AcDbEntity
  8
0
100
AcDbCircle
 62
7
  6
CONTINUOUS
 10
11.2910475949
 20
7.9574546915
 40
1.6810010731
100
AcDbArc
 50
265.0648462661
 51
266.0348369885
  0
ARC
  5
358
100
AcDbEntity
  8
0
100
AcDbCircle
 62
7
  6
CONTINUOUS
 10
10.0368582014
 20
9.6753312509
 40
0.4283825057
100
AcDbArc
 50
134.8502279087
 51
135.5468431757
  0
ARC
  5
359
100
AcDbEntity
  8
0
100
AcDbCircle
 62
7
  6
CONTINUOUS
 10
10.1252598428
 20
9.5838101221
 40
0.428373765
100
AcDbArc
 50
312.4671154976
 51
313.4725190952
  0
ARC
  5
35A
100
AcDbEntity
  8
0
100
AcDbCircle
 62
7
  6
CONTINUOUS
 10
10.4875079331
 20
7.4761255931
 40
0.4283354725
100
AcDbArc
 50
312.4670144269
 51
313.2893443299
  0
ARC
  5
35B
100
AcDbEntity
  8
0
100
AcDbCircle
 62
7
  6
CONTINUOUS
 10
10.3989975647
 20
7.5677564905
 40
0.4282662754
100
AcDbArc
 50
135.0071045595
 51
135.4811839066
  0
ARC
  5
35C
100
AcDbEntity
  8
0
100
AcDbCircle
 62
7
  6
CONTINUOUS
 10
10.7326825773
 20
7.8307677678
 40
0.2826840972
100
AcDbArc
 50
266.0221233471
 51
268.3480010763
  0
SPLINE
  5
35D
100
AcDbEntity
  8
0
100
AcDbSpline
 62
7
  6
CONTINUOUS
 70
0
 71
3
 72
35
 73
31
 74
0
 42
0.0000001
 43
0.0000001
 44
0.0000000001
 40
0.0
 40
0.0
 40
0.0
 40
0.0
 40
0.0771687072
 40
0.1531494139
 40
0.2277565133
 40
0.3008088448
 40
0.3366971149
 40
0.3721312295
 40
0.4070901622
 40
0.4415533103
 40
0.4755005215
 40
0.5089121171
 40
0.5417689218
 40
0.5740522916
 40
0.6057441404
 40
0.6368269731
 40
0.6672839194
 40
0.6970987673
 40
0.7262560052
 40
0.7547408645
 40
0.7825393627
 40
0.8096383557
 40
0.8360255949
 40
0.8616897889
 40
0.8866206776
 40
0.9108091152
 40
0.9342471609
 40
0.9569281872
 40
0.9788470036
 40
1.0
 40
1.0
 40
1.0
 40
1.0
 10
11.1900768131
 20
6.2623244778
 30
0.0
 10
11.1829750261
 20
6.2628169884
 30
0.0
 10
11.1688874751
 20
6.2638941581
 30
0.0
 10
11.1479629645
 20
6.2658027938
 30
0.0
 10
11.1274473184
 20
6.2679880058
 30
0.0
 10
11.110639752
 20
6.2700465164
 30
0.0
 10
11.0974409379
 20
6.2718299415
 30
0.0
 10
11.087736066
 20
6.2732249375
 30
0.0
 10
11.0781736325
 20
6.2746842854
 30
0.0
 10
11.0687600047
 20
6.2762070156
 30
0.0
 10
11.0595014587
 20
6.2777921093
 30
0.0
 10
11.0504041648
 20
6.2794385081
 30
0.0
 10
11.0414741855
 20
6.2811451116
 30
0.0
 10
11.0327174713
 20
6.2829107794
 30
0.0
 10
11.0241398566
 20
6.2847343315
 30
0.0
 10
11.0157470558
 20
6.2866145495
 30
0.0
 10
11.0075446597
 20
6.2885501768
 30
0.0
 10
10.9995381311
 20
6.2905399202
 30
0.0
 10
10.9917328014
 20
6.2925824501
 30
0.0
 10
10.9841338665
 20
6.2946764015
 30
0.0
 10
10.9767463832
 20
6.2968203753
 30
0.0
 10
10.9695752664
 20
6.2990129393
 30
0.0
 10
10.962625285
 20
6.3012526292
 30
0.0
 10
10.9559010586
 20
6.3035379497
 30
0.0
 10
10.9494070546
 20
6.3058673758
 30
0.0
 10
10.9431475825
 20
6.3082393544
 30
0.0
 10
10.9371267973
 20
6.3106523031
 30
0.0
 10
10.9313486746
 20
6.3131046222
 30
0.0
 10
10.9258170849
 20
6.3155946602
 30
0.0
 10
10.9222321968
 20
6.3173093187
 30
0.0
 10
10.920482644
 20
6.3181735639
 30
0.0
  0
SPLINE
  5
35E
100
AcDbEntity
  8
0
100
AcDbSpline
 62
7
  6
CONTINUOUS
 70
0
 71
3
 72
15
 73
11
 74
0
 42
0.0000001
 43
0.0000001
 44
0.0000000001
 40
0.0
 40
0.0
 40
0.0
 40
0.0
 40
0.1371474631
 40
0.2706769339
 40
0.4006484844
 40
0.5271347234
 40
0.6502164733
 40
0.7699845532
 40
0.8865418828
 40
1.0
 40
1.0
 40
1.0
 40
1.0
 10
10.8375627728
 20
6.3626272662
 30
0.0
 10
10.8367907078
 20
6.3632254526
 30
0.0
 10
10.8352810763
 20
6.3644244425
 30
0.0
 10
10.8330929678
 20
6.3662560136
 30
0.0
 10
10.8310122145
 20
6.36809603
 30
0.0
 10
10.8290393162
 20
6.3699440622
 30
0.0
 10
10.827174715
 20
6.371799704
 30
0.0
 10
10.8254188315
 20
6.3736625628
 30
0.0
 10
10.8237721088
 20
6.3755321868
 30
0.0
 10
10.8227336414
 20
6.376799536
 30
0.0
 10
10.8222335363
 20
6.3774341462
 30
0.0
  0
SPLINE
  5
35F
100
AcDbEntity
  8
0
100
AcDbSpline
 62
7
  6
CONTINUOUS
 70
0
 71
3
 72
34
 73
30
 74
0
 42
0.0000001
 43
0.0000001
 44
0.0000000001
 40
0.0
 40
0.0
 40
0.0
 40
0.0
 40
0.0809734182
 40
0.1598888656
 40
0.1985328866
 40
0.236611827
 40
0.2741092697
 40
0.3110092465
 40
0.347296387
 40
0.3829560761
 40
0.417974626
 40
0.4523394606
 40
0.4860392999
 40
0.5190643495
 40
0.5514064909
 40
0.5830594704
 40
0.6140190885
 40
0.6442833733
 40
0.6738527336
 40
0.7027300949
 40
0.7309210133
 40
0.7584337611
 40
0.7852793888
 40
0.8114717392
 40
0.861960419
 40
0.9100690898
 40
0.9560013248
 40
0.9782274084
 40
1.0
 40
1.0
 40
1.0
 40
1.0
 10
11.780504285
 20
6.4280205978
 30
0.0
 10
11.7788560977
 20
6.4248424094
 30
0.0
 10
11.7755568338
 20
6.4185898875
 30
0.0
 10
11.7713352212
 20
6.4108933005
 30
0.0
 10
11.767943462
 20
6.4049057854
 30
0.0
 10
11.7654120846
 20
6.4005358149
 30
0.0
 10
11.7628755526
 20
6.3962582363
 30
0.0
 10
11.7603339944
 20
6.3920760629
 30
0.0
 10
11.7577875706
 20
6.3879922868
 30
0.0
 10
11.7552364653
 20
6.3840098608
 30
0.0
 10
11.7526808892
 20
6.3801316793
 30
0.0
 10
11.7501210798
 20
6.3763605569
 30
0.0
 10
11.7475573005
 20
6.3726992085
 30
0.0
 10
11.7449898405
 20
6.3691502272
 30
0.0
 10
11.7424190134
 20
6.3657160632
 30
0.0
 10
11.7398451558
 20
6.3623990015
 30
0.0
 10
11.7372686263
 20
6.3592011405
 30
0.0
 10
11.7346898036
 20
6.3561243714
 30
0.0
 10
11.7321090829
 20
6.3531703604
 30
0.0
 10
11.7295268744
 20
6.350340533
 30
0.0
 10
11.7269435963
 20
6.3476360554
 30
0.0
 10
11.7243596874
 20
6.3450578393
 30
0.0
 10
11.7217755453
 20
6.3426064721
 30
0.0
 10
11.7183720518
 20
6.3395451447
 30
0.0
 10
11.7141190376
 20
6.3360250782
 30
0.0
 10
11.7089555669
 20
6.3322535564
 30
0.0
 10
11.7046116732
 20
6.3294965336
 30
0.0
 10
11.701146416
 20
6.3275452948
 30
0.0
 10
11.6994179228
 20
6.3266515929
 30
0.0
 10
11.6985548205
 20
6.3262252758
 30
0.0
  0
SPLINE
  5
360
100
AcDbEntity
  8
0
100
AcDbSpline
 62
7
  6
CONTINUOUS
 70
0
 71
3
 72
48
 73
44
 74
0
 42
0.0000001
 43
0.0000001
 44
0.0000000001
 40
0.0
 40
0.0
 40
0.0
 40
0.0
 40
0.00954104
 40
0.0193653464
 40
0.0294719709
 40
0.039859557
 40
0.0505263736
 40
0.0614703488
 40
0.0726890873
 40
0.084179891
 40
0.0959397856
 40
0.1079655343
 40
0.1202536475
 40
0.1328004052
 40
0.1456018694
 40
0.158653887
 40
0.171952108
 40
0.1854919969
 40
0.1992688342
 40
0.2132777281
 40
0.2419710459
 40
0.2715299775
 40
0.3019099632
 40
0.3330643406
 40
0.3649445344
 40
0.3975002191
 40
0.4306794733
 40
0.464428937
 40
0.4986939493
 40
0.5334186921
 40
0.5685463286
 40
0.6040191343
 40
0.6397786331
 40
0.6757657282
 40
0.7119208309
 40
0.748183993
 40
0.7844950341
 40
0.8207936714
 40
0.8570196492
 40
0.8931128676
 40
0.9290135142
 40
0.964662127
 40
1.0
 40
1.0
 40
1.0
 40
1.0
 10
11.6822551732
 20
6.3181735621
 30
0.0
 10
11.6808308664
 20
6.3174699821
 30
0.0
 10
11.6779251435
 20
6.3160717631
 30
0.0
 10
11.6734630581
 20
6.3140290632
 30
0.0
 10
11.6688355213
 20
6.3120111412
 30
0.0
 10
11.6640446058
 20
6.3100189036
 30
0.0
 10
11.6590924264
 20
6.3080532304
 30
0.0
 10
11.6539811786
 20
6.3061149972
 30
0.0
 10
11.6487131275
 20
6.3042050662
 30
0.0
 10
11.6432906102
 20
6.3023242857
 30
0.0
 10
11.6377160325
 20
6.3004734932
 30
0.0
 10
11.6319918682
 20
6.298653514
 30
0.0
 10
11.6261206592
 20
6.2968651568
 30
0.0
 10
11.6201050131
 20
6.2951092183
 30
0.0
 10
11.6139476014
 20
6.293386482
 30
0.0
 10
11.6076511602
 20
6.2916977142
 30
0.0
 10
11.6012184874
 20
6.2900436666
 30
0.0
 10
11.5946524425
 20
6.2884250787
 30
0.0
 10
11.5879559394
 20
6.2868426658
 30
0.0
 10
11.5787842076
 20
6.2847654231
 30
0.0
 10
11.5670139482
 20
6.2822677634
 30
0.0
 10
11.5525274601
 20
6.2794491966
 30
0.0
 10
11.5375943232
 20
6.2767909557
 30
0.0
 10
11.5222411033
 20
6.2742977908
 30
0.0
 10
11.5064950724
 20
6.271974162
 30
0.0
 10
11.4903842202
 20
6.2698242251
 30
0.0
 10
11.4739371869
 20
6.2678518218
 30
0.0
 10
11.4571832155
 20
6.2660604795
 30
0.0
 10
11.4401520977
 20
6.2644533988
 30
0.0
 10
11.4228741215
 20
6.2630334509
 30
0.0
 10
11.4053800155
 20
6.2618031746
 30
0.0
 10
11.387700895
 20
6.2607647657
 30
0.0
 10
11.3698682057
 20
6.2599200802
 30
0.0
 10
11.3519136674
 20
6.2592706273
 30
0.0
 10
11.3338692176
 20
6.2588175655
 30
0.0
 10
11.3157669545
 20
6.2585617058
 30
0.0
 10
11.2976390793
 20
6.2585035039
 30
0.0
 10
11.279517839
 20
6.2586430637
 30
0.0
 10
11.2614354682
 20
6.2589801372
 30
0.0
 10
11.243424134
 20
6.2595141205
 30
0.0
 10
11.2255158762
 20
6.260244062
 30
0.0
 10
11.2077425656
 20
6.2611686545
 30
0.0
 10
11.1959465619
 20
6.2619174093
 30
0.0
 10
11.1900768131
 20
6.2623244778
 30
0.0
  0
SPLINE
  5
361
100
AcDbEntity
  8
0
100
AcDbSpline
 62
7
  6
CONTINUOUS
 70
0
 71
3
 72
11
 73
7
 74
0
 42
0.0000001
 43
0.0000001
 44
0.0000000001
 40
0.0
 40
0.0
 40
0.0
 40
0.0
 40
0.2469574617
 40
0.4960103647
 40
0.7470602108
 40
1.0
 40
1.0
 40
1.0
 40
1.0
 10
10.8953435735
 20
6.3305917839
 30
0.0
 10
10.8904659759
 20
6.3330013603
 30
0.0
 10
10.8807320939
 20
6.3379688617
 30
0.0
 10
10.8662570051
 20
6.3458020776
 30
0.0
 10
10.8518463846
 20
6.3540222911
 30
0.0
 10
10.8423174337
 20
6.3597218389
 30
0.0
 10
10.8375627728
 20
6.3626272662
 30
0.0
  0
SPLINE
  5
362
100
AcDbEntity
  8
0
100
AcDbSpline
 62
7
  6
CONTINUOUS
 70
0
 71
3
 72
11
 73
7
 74
0
 42
0.0000001
 43
0.0000001
 44
0.0000000001
 40
0.0
 40
0.0
 40
0.0
 40
0.0
 40
0.239978672
 40
0.4867532021
 40
0.7401536949
 40
1.0
 40
1.0
 40
1.0
 40
1.0
 10
11.6674496597
 20
6.318818209
 30
0.0
 10
11.6641276467
 20
6.3178473401
 30
0.0
 10
11.6573730388
 20
6.3159341959
 30
0.0
 10
11.6470583161
 20
6.3131846808
 30
0.0
 10
11.6364264412
 20
6.3105171688
 30
0.0
 10
11.6292222333
 20
6.3088160704
 30
0.0
 10
11.6255694507
 20
6.3079788174
 30
0.0
  0
SPLINE
  5
363
100
AcDbEntity
  8
0
100
AcDbSpline
 62
7
  6
CONTINUOUS
 70
0
 71
3
 72
34
 73
30
 74
0
 42
0.0000001
 43
0.0000001
 44
0.0000000001
 40
0.0
 40
0.0
 40
0.0
 40
0.0
 40
0.0634866499
 40
0.1268757617
 40
0.1901559488
 40
0.2217524835
 40
0.2533175613
 40
0.2848498219
 40
0.3163479752
 40
0.3478108244
 40
0.37923729
 40
0.410626433
 40
0.4419774759
 40
0.4732898202
 40
0.5045630611
 40
0.5357969968
 40
0.5669916332
 40
0.5981471839
 40
0.6292640629
 40
0.6603428743
 40
0.6913843958
 40
0.7223895607
 40
0.7533594367
 40
0.7842952036
 40
0.8151981295
 40
0.8460695479
 40
0.8769108365
 40
0.9385071607
 40
1.0
 40
1.0
 40
1.0
 40
1.0
 10
11.6255694507
 20
6.3079788174
 30
0.0
 10
11.6169622807
 20
6.305162416
 30
0.0
 10
11.5996961361
 20
6.2997299099
 30
0.0
 10
11.5736229089
 20
6.2922381017
 30
0.0
 10
11.5517593811
 20
6.2865964672
 30
0.0
 10
11.5341988485
 20
6.282477045
 30
0.0
 10
11.5210018662
 20
6.2795929732
 30
0.0
 10
11.5077748025
 20
6.276920097
 30
0.0
 10
11.4945203756
 20
6.2744650291
 30
0.0
 10
11.4812417033
 20
6.2722338435
 30
0.0
 10
11.4679422301
 20
6.2702319508
 30
0.0
 10
11.4546257067
 20
6.2684640009
 30
0.0
 10
11.4412961416
 20
6.2669337891
 30
0.0
 10
11.4279577477
 20
6.2656441781
 30
0.0
 10
11.4146148794
 20
6.2645970377
 30
0.0
 10
11.4012719639
 20
6.2637932039
 30
0.0
 10
11.3879334299
 20
6.263232461
 30
0.0
 10
11.3746036355
 20
6.2629135493
 30
0.0
 10
11.3612867997
 20
6.2628341959
 30
0.0
 10
11.347986939
 20
6.2629911666
 30
0.0
 10
11.3347078129
 20
6.2633803359
 30
0.0
 10
11.3214528783
 20
6.2639967737
 30
0.0
 10
11.308225256
 20
6.2648348422
 30
0.0
 10
11.2950277047
 20
6.2658883007
 30
0.0
 10
11.2818626191
 20
6.2671504122
 30
0.0
 10
11.268731989
 20
6.26861406
 30
0.0
 10
11.2512809487
 20
6.2708233592
 30
0.0
 10
11.2295585741
 20
6.2740510163
 30
0.0
 10
11.2122635182
 20
6.2770931043
 30
0.0
 10
11.2036435218
 20
6.2787181031
 30
0.0
  0
SPLINE
  5
364
100
AcDbEntity
  8
0
100
AcDbSpline
 62
7
  6
CONTINUOUS
 70
0
 71
3
 72
11
 73
7
 74
0
 42
0.0000001
 43
0.0000001
 44
0.0000000001
 40
0.0
 40
0.0
 40
0.0
 40
0.0
 40
0.2494623999
 40
0.4993144581
 40
0.7495081039
 40
1.0
 40
1.0
 40
1.0
 40
1.0
 10
11.2743553291
 20
6.7312860635
 30
0.0
 10
11.2683290788
 20
6.7289700042
 30
0.0
 10
11.2563403001
 20
6.724141803
 30
0.0
 10
11.2385670896
 20
6.7163667463
 30
0.0
 10
11.2209886915
 20
6.7080986327
 30
0.0
 10
11.2094044596
 20
6.7022898938
 30
0.0
 10
11.2036435218
 20
6.6993173289
 30
0.0
  0
SPLINE
  5
365
100
AcDbEntity
  8
0
100
AcDbSpline
 62
7
  6
CONTINUOUS
 70
0
 71
3
 72
32
 73
28
 74
0
 42
0.0000001
 43
0.0000001
 44
0.0000000001
 40
0.0
 40
0.0
 40
0.0
 40
0.0
 40
0.0595062425
 40
0.1191900351
 40
0.1790935976
 40
0.209143445
 40
0.2392663649
 40
0.2694689329
 40
0.2997579244
 40
0.330140265
 40
0.360622973
 40
0.3912130942
 40
0.4219176307
 40
0.4527434644
 40
0.4836972776
 40
0.5147854729
 40
0.5460140938
 40
0.5773887495
 40
0.6089145454
 40
0.6405960221
 40
0.6724371045
 40
0.7044410622
 40
0.736610483
 40
0.8014501593
 40
0.8669656327
 40
0.9331532561
 40
1.0
 40
1.0
 40
1.0
 40
1.0
 10
11.1464340764
 20
6.2826855916
 30
0.0
 10
11.1413151497
 20
6.2822073209
 30
0.0
 10
11.1310480281
 20
6.2813918275
 30
0.0
 10
11.1155914503
 20
6.2806251613
 30
0.0
 10
11.1026626473
 20
6.2803929172
 30
0.0
 10
11.0922881365
 20
6.2804660855
 30
0.0
 10
11.0844817598
 20
6.2806547237
 30
0.0
 10
11.0766592394
 20
6.2809808279
 30
0.0
 10
11.0688213974
 20
6.2814479793
 30
0.0
 10
11.0609692091
 20
6.2820595631
 30
0.0
 10
11.0531037592
 20
6.2828187242
 30
0.0
 10
11.0452262496
 20
6.2837283315
 30
0.0
 10
11.0373379913
 20
6.2847909418
 30
0.0
 10
11.0294403968
 20
6.2860087651
 30
0.0
 10
11.0215349698
 20
6.2873836341
 30
0.0
 10
11.0136232925
 20
6.2889169772
 30
0.0
 10
11.005707011
 20
6.2906097964
 30
0.0
 10
10.9977878193
 20
6.2924626511
 30
0.0
 10
10.9898674421
 20
6.2944756477
 30
0.0
 10
10.9819476135
 20
6.296648438
 30
0.0
 10
10.9740300698
 20
6.2989802166
 30
0.0
 10
10.966116489
 20
6.3014697532
 30
0.0
 10
10.9555454055
 20
6.3050063071
 30
0.0
 10
10.9423494732
 20
6.3098152634
 30
0.0
 10
10.9265975732
 20
6.3161658813
 30
0.0
 10
10.910897799
 20
6.3230852938
 30
0.0
 10
10.9005216207
 20
6.3280337828
 30
0.0
 10
10.8953435735
 20
6.3305917839
 30
0.0
  0
SPLINE
  5
366
100
AcDbEntity
  8
0
100
AcDbSpline
 62
7
  6
CONTINUOUS
 70
0
 71
3
 72
11
 73
7
 74
0
 42
0.0000001
 43
0.0000001
 44
0.0000000001
 40
0.0
 40
0.0
 40
0.0
 40
0.0
 40
0.2539476412
 40
0.5054096887
 40
0.7541675181
 40
1.0
 40
1.0
 40
1.0
 40
1.0
 10
11.1464340764
 20
6.7032848174
 30
0.0
 10
11.1422338659
 20
6.7069345255
 30
0.0
 10
11.1337917977
 20
6.7141037591
 30
0.0
 10
11.1209293073
 20
6.724481218
 30
0.0
 10
11.1079244918
 20
6.7343894843
 30
0.0
 10
11.0991048797
 20
6.7406909115
 30
0.0
 10
11.0946694261
 20
6.7437473233
 30
0.0
  0
SPLINE
  5
367
100
AcDbEntity
  8
0
100
AcDbSpline
 62
7
  6
CONTINUOUS
 70
0
 71
3
 72
15
 73
11
 74
0
 42
0.0000001
 43
0.0000001
 44
0.0000000001
 40
0.0
 40
0.0
 40
0.0
 40
0.0
 40
0.1340154839
 40
0.2644677344
 40
0.3918674984
 40
0.5167200291
 40
0.6395140936
 40
0.7607124623
 40
0.8807443015
 40
1.0
 40
1.0
 40
1.0
 40
1.0
 10
11.6985548205
 20
6.3262252758
 30
0.0
 10
11.6972628893
 20
6.3255871447
 30
0.0
 10
11.6946780202
 20
6.3243978113
 30
0.0
 10
11.6907535142
 20
6.3228584305
 30
0.0
 10
11.6868394445
 20
6.3215810814
 30
0.0
 10
11.6829368815
 20
6.3205565298
 30
0.0
 10
11.6790465682
 20
6.3197749132
 30
0.0
 10
11.6751690858
 20
6.3192260262
 30
0.0
 10
11.6713050112
 20
6.3188994496
 30
0.0
 10
11.6687318905
 20
6.3188227717
 30
0.0
 10
11.6674496597
 20
6.318818209
 30
0.0
  0
SPLINE
  5
368
100
AcDbEntity
  8
0
100
AcDbSpline
 62
7
  6
CONTINUOUS
 70
0
 71
3
 72
33
 73
29
 74
0
 42
0.0000001
 43
0.0000001
 44
0.0000000001
 40
0.0
 40
0.0
 40
0.0
 40
0.0
 40
0.0845018879
 40
0.1673006947
 40
0.2480793749
 40
0.3265296559
 40
0.4023569432
 40
0.4752811983
 40
0.5105725315
 40
0.5450410489
 40
0.5786569493
 40
0.6113918338
 40
0.6432188773
 40
0.6741127503
 40
0.7040500174
 40
0.7330090191
 40
0.7609702172
 40
0.7879163572
 40
0.8138325728
 40
0.8387069143
 40
0.8625303685
 40
0.8852975233
 40
0.907006901
 40
0.9276615333
 40
0.9472698654
 40
0.9658463673
 40
0.9834129366
 40
1.0
 40
1.0
 40
1.0
 40
1.0
 10
10.2754279224
 20
10.2703420433
 30
0.0
 10
10.2657607013
 20
10.2710124674
 30
0.0
 10
10.2466323686
 20
10.2725094749
 30
0.0
 10
10.2183144283
 20
10.2752545055
 30
0.0
 10
10.1907441026
 20
10.2784674658
 30
0.0
 10
10.1640371035
 20
10.2821347209
 30
0.0
 10
10.1383056464
 20
10.2862406925
 30
0.0
 10
10.1175450487
 20
10.2900537141
 30
0.0
 10
10.101511297
 20
10.2933197806
 30
0.0
 10
10.0899272697
 20
10.2958410144
 30
0.0
 10
10.0786652538
 20
10.2984579741
 30
0.0
 10
10.0677370562
 20
10.3011679312
 30
0.0
 10
10.0571541431
 20
10.3039679948
 30
0.0
 10
10.0469276148
 20
10.3068552493
 30
0.0
 10
10.0370681842
 20
10.3098266132
 30
0.0
 10
10.0275861784
 20
10.3128789786
 30
0.0
 10
10.0184915169
 20
10.316009125
 30
0.0
 10
10.0097936992
 20
10.3192137403
 30
0.0
 10
10.0015018078
 20
10.3224894927
 30
0.0
 10
9.9936244664
 20
10.3258329023
 30
0.0
 10
9.9861698675
 20
10.3292405124
 30
0.0
 10
9.9791457251
 20
10.3327087546
 30
0.0
 10
9.9725592846
 20
10.3362340357
 30
0.0
 10
9.9664173185
 20
10.339812778
 30
0.0
 10
9.9607261018
 20
10.343441291
 30
0.0
 10
9.9554913767
 20
10.3471160883
 30
0.0
 10
9.9507186673
 20
10.3508333292
 30
0.0
 10
9.9477651884
 20
10.353409853
 30
0.0
 10
9.9463727154
 20
10.3547057019
 30
0.0
  0
SPLINE
  5
369
100
AcDbEntity
  8
0
100
AcDbSpline
 62
7
  6
CONTINUOUS
 70
0
 71
3
 72
48
 73
44
 74
0
 42
0.0000001
 43
0.0000001
 44
0.0000000001
 40
0.0
 40
0.0
 40
0.0
 40
0.0
 40
0.0311434631
 40
0.0624399956
 40
0.0938836138
 40
0.1254646847
 40
0.1571709829
 40
0.1889877595
 40
0.22089807
 40
0.2528831302
 40
0.2849226987
 40
0.3169954772
 40
0.3490795248
 40
0.3811526835
 40
0.413193006
 40
0.4451791789
 40
0.4770909382
 40
0.5089094729
 40
0.5406178044
 40
0.5722011384
 40
0.6036471904
 40
0.6349464615
 40
0.6660924706
 40
0.6970819377
 40
0.7279148953
 40
0.7432762698
 40
0.7586000727
 40
0.7738872515
 40
0.789138954
 40
0.8043565275
 40
0.819541513
 40
0.8346956329
 40
0.8498207866
 40
0.8649190411
 40
0.8799926163
 40
0.8950438755
 40
0.9100753135
 40
0.9250895394
 40
0.9400892632
 40
0.9550772817
 40
0.9700564603
 40
0.9850297153
 40
1.0
 40
1.0
 40
1.0
 40
1.0
 10
10.4349949897
 20
7.9891520943
 30
0.0
 10
10.446599787
 20
7.9883472988
 30
0.0
 10
10.4698161457
 20
7.9858843222
 30
0.0
 10
10.5043592061
 20
7.9796800419
 30
0.0
 10
10.5385322828
 20
7.9709897044
 30
0.0
 10
10.5721508014
 20
7.9598600173
 30
0.0
 10
10.6050361827
 20
7.9463506684
 30
0.0
 10
10.6370129929
 20
7.9305339118
 30
0.0
 10
10.6679108727
 20
7.9124942406
 30
0.0
 10
10.6975652103
 20
7.8923280268
 30
0.0
 10
10.7258179882
 20
7.8701428418
 30
0.0
 10
10.7525186536
 20
7.8460570012
 30
0.0
 10
10.7775249551
 20
7.8201989561
 30
0.0
 10
10.8007035729
 20
7.7927064954
 30
0.0
 10
10.8219309318
 20
7.7637261367
 30
0.0
 10
10.8410938499
 20
7.7334123254
 30
0.0
 10
10.858090019
 20
7.70192655
 30
0.0
 10
10.8728287008
 20
7.6694365951
 30
0.0
 10
10.8852311473
 20
7.6361156006
 30
0.0
 10
10.8952309286
 20
7.6021411394
 30
0.0
 10
10.902774467
 20
7.5676943094
 30
0.0
 10
10.9078212295
 20
7.5329588768
 30
0.0
 10
10.9103438173
 20
7.4981197691
 30
0.0
 10
10.910328631
 20
7.4633641647
 30
0.0
 10
10.9081975562
 20
7.4345846916
 30
0.0
 10
10.9052264121
 20
7.4117950003
 30
0.0
 10
10.9023726534
 20
7.3948580111
 30
0.0
 10
10.8988947417
 20
7.3780801347
 30
0.0
 10
10.8947972498
 20
7.3614834939
 30
0.0
 10
10.8900856743
 20
7.3450903331
 30
0.0
 10
10.8847663143
 20
7.3289225237
 30
0.0
 10
10.8788462148
 20
7.3130016888
 30
0.0
 10
10.8723332998
 20
7.2973490912
 30
0.0
 10
10.8652362831
 20
7.2819856346
 30
0.0
 10
10.8575645907
 20
7.2669318693
 30
0.0
 10
10.8493284825
 20
7.2522079052
 30
0.0
 10
10.8405389817
 20
7.2378334016
 30
0.0
 10
10.8312077857
 20
7.2238275945
 30
0.0
 10
10.8213473632
 20
7.2102091927
 30
0.0
 10
10.8109709315
 20
7.1969963908
 30
0.0
 10
10.8000922537
 20
7.1842068089
 30
0.0
 10
10.7887261039
 20
7.1718577811
 30
0.0
 10
10.780832985
 20
7.1639289174
 30
0.0
 10
10.7768111463
 20
7.1600441089
 30
0.0
  0
SPLINE
  5
36A
100
AcDbEntity
  8
0
100
AcDbSpline
 62
7
  6
CONTINUOUS
 70
0
 71
3
 72
19
 73
15
 74
0
 42
0.0000001
 43
0.0000001
 44
0.0000000001
 40
0.0
 40
0.0
 40
0.0
 40
0.0
 40
0.150460937
 40
0.2916987357
 40
0.424419542
 40
0.4878837275
 40
0.5495802504
 40
0.6682271673
 40
0.7255606103
 40
0.7817998831
 40
0.8371466721
 40
0.8918135967
 40
0.94602219
 40
1.0
 40
1.0
 40
1.0
 40
1.0
 10
12.2074073544
 20
9.408578428
 30
0.0
 10
12.2087982862
 20
9.409921965
 30
0.0
 10
12.2115782367
 20
9.4124428227
 30
0.0
 10
12.2158827218
 20
9.4158021548
 30
0.0
 10
12.2195185368
 20
9.4181780613
 30
0.0
 10
12.2224178668
 20
9.4197869568
 30
0.0
 10
12.2252316619
 20
9.4211682278
 30
0.0
 10
12.2280784017
 20
9.4222972929
 30
0.0
 10
12.2309411575
 20
9.4231469195
 30
0.0
 10
12.233057801
 20
9.4236366493
 30
0.0
 10
12.2351673983
 20
9.4239857067
 30
0.0
 10
12.2372693923
 20
9.4241939188
 30
0.0
 10
12.2393629332
 20
9.4242612051
 30
0.0
 10
12.2407538222
 20
9.4242120147
 30
0.0
 10
12.2414459286
 20
9.424164017
 30
0.0
  0
SPLINE
  5
36B
100
AcDbEntity
  8
0
100
AcDbSpline
 62
7
  6
CONTINUOUS
 70
0
 71
3
 72
15
 73
11
 74
0
 42
0.0000001
 43
0.0000001
 44
0.0000000001
 40
0.0
 40
0.0
 40
0.0
 40
0.0
 40
0.1240448756
 40
0.2483720197
 40
0.3729796042
 40
0.4978713315
 40
0.6230359682
 40
0.7484592084
 40
0.8741214637
 40
1.0
 40
1.0
 40
1.0
 40
1.0
 10
10.2848748158
 20
9.645336602
 30
0.0
 10
10.288140647
 20
9.6451101159
 30
0.0
 10
10.2946951233
 20
9.6448539922
 30
0.0
 10
10.3045418635
 20
9.6450598937
 30
0.0
 10
10.3143814961
 20
9.6458526316
 30
0.0
 10
10.3241791217
 20
9.6472259787
 30
0.0
 10
10.3339012994
 20
9.6491709092
 30
0.0
 10
10.3435154627
 20
9.651675656
 30
0.0
 10
10.3529899941
 20
9.6547260522
 30
0.0
 10
10.3591893966
 20
9.6571112983
 30
0.0
 10
10.3622559288
 20
9.6583889962
 30
0.0
  0
SPLINE
  5
36C
100
AcDbEntity
  8
0
100
AcDbSpline
 62
7
  6
CONTINUOUS
 70
0
 71
3
 72
39
 73
35
 74
0
 42
0.0000001
 43
0.0000001
 44
0.0000000001
 40
0.0
 40
0.0
 40
0.0
 40
0.0
 40
0.0317440058
 40
0.0635828615
 40
0.095504217
 40
0.1274937813
 40
0.1595365946
 40
0.1916168233
 40
0.2237181061
 40
0.2558237722
 40
0.2879170873
 40
0.3199814969
 40
0.3520008685
 40
0.383959728
 40
0.4158434909
 40
0.447638684
 40
0.4793331545
 40
0.5109162636
 40
0.5423790633
 40
0.5737144513
 40
0.6049173031
 40
0.6359845778
 40
0.6669153928
 40
0.6977110657
 40
0.7283751226
 40
0.7589132675
 40
0.7893333155
 40
0.8196450859
 40
0.8498602565
 40
0.8799921798
 40
0.9100556649
 40
0.9400667274
 40
0.9700423131
 40
1.0
 40
1.0
 40
1.0
 40
1.0
 10
10.2163774272
 20
10.0646331833
 30
0.0
 10
10.225979932
 20
10.060923306
 30
0.0
 10
10.2449923078
 20
10.0529046556
 30
0.0
 10
10.2727662567
 20
10.0391601272
 30
0.0
 10
10.2997351058
 20
10.0237331499
 30
0.0
 10
10.3257889694
 20
10.0066863337
 30
0.0
 10
10.3508233538
 20
9.9880882787
 30
0.0
 10
10.3747374269
 20
9.9680138964
 30
0.0
 10
10.3974349759
 20
9.9465440035
 30
0.0
 10
10.4188246498
 20
9.9237650329
 30
0.0
 10
10.4388203586
 20
9.8997686691
 30
0.0
 10
10.457341603
 20
9.8746514832
 30
0.0
 10
10.474313799
 20
9.8485145479
 30
0.0
 10
10.4896685757
 20
9.8214630347
 30
0.0
 10
10.5033440473
 20
9.7936057947
 30
0.0
 10
10.5152850783
 20
9.7650549323
 30
0.0
 10
10.5254434933
 20
9.7359253501
 30
0.0
 10
10.5337782677
 20
9.7063342903
 30
0.0
 10
10.5402556946
 20
9.6764008693
 30
0.0
 10
10.5448495229
 20
9.6462456037
 30
0.0
 10
10.5475410636
 20
9.61598993
 30
0.0
 10
10.5483192891
 20
9.5857557222
 30
0.0
 10
10.5471808698
 20
9.5556648013
 30
0.0
 10
10.5441301891
 20
9.5258384485
 30
0.0
 10
10.5391793346
 20
9.4963969198
 30
0.0
 10
10.532348058
 20
9.4674589624
 30
0.0
 10
10.5236637023
 20
9.439141337
 30
0.0
 10
10.5131611158
 20
9.411558336
 30
0.0
 10
10.5008825191
 20
9.3848213284
 30
0.0
 10
10.4868772963
 20
9.3590382682
 30
0.0
 10
10.4712019501
 20
9.3343133947
 30
0.0
 10
10.45391933
 20
9.3107462665
 30
0.0
 10
10.4351004181
 20
9.288433346
 30
0.0
 10
10.4215764273
 20
9.2744498285
 30
0.0
 10
10.4145889125
 20
9.2677003896
 30
0.0
  0
SPLINE
  5
36D
100
AcDbEntity
  8
0
100
AcDbSpline
 62
7
  6
CONTINUOUS
 70
0
 71
3
 72
24
 73
20
 74
0
 42
0.0000001
 43
0.0000001
 44
0.0000000001
 40
0.0
 40
0.0
 40
0.0
 40
0.0
 40
0.0614493411
 40
0.1236359235
 40
0.1863069528
 40
0.2492303555
 40
0.3122205701
 40
0.3751470786
 40
0.4379335457
 40
0.4692670891
 40
0.5005579695
 40
0.5630138681
 40
0.6253446256
 40
0.6876053423
 40
0.7498615079
 40
0.8121802551
 40
0.8746209369
 40
0.9372235194
 40
1.0
 40
1.0
 40
1.0
 40
1.0
 10
10.7130724185
 20
7.5487646819
 30
0.0
 10
10.7076796588
 20
7.549138671
 30
0.0
 10
10.6968483386
 20
7.5501955706
 30
0.0
 10
10.6806391006
 20
7.552669405
 30
0.0
 10
10.6644577563
 20
7.5560323265
 30
0.0
 10
10.6484110304
 20
7.5602736488
 30
0.0
 10
10.6325958234
 20
7.565385062
 30
0.0
 10
10.6170997069
 20
7.5713619395
 30
0.0
 10
10.604508373
 20
7.5770682959
 30
0.0
 10
10.5946725623
 20
7.5820687196
 30
0.0
 10
10.5850195174
 20
7.5873530577
 30
0.0
 10
10.5732889749
 20
7.5945077319
 30
0.0
 10
10.5598222972
 20
7.6039840971
 30
0.0
 10
10.5470515934
 20
7.6143540119
 30
0.0
 10
10.5350630029
 20
7.6256193857
 30
0.0
 10
10.5239499922
 20
7.6377726891
 30
0.0
 10
10.5138128278
 20
7.6507920027
 30
0.0
 10
10.5047563082
 20
7.6646331295
 30
0.0
 10
10.4995121827
 20
7.6743545002
 30
0.0
 10
10.4971024124
 20
7.6793234622
 30
0.0
  0
SPLINE
  5
36E
100
AcDbEntity
  8
0
100
AcDbSpline
 62
7
  6
CONTINUOUS
 70
0
 71
3
 72
11
 73
7
 74
0
 42
0.0000001
 43
0.0000001
 44
0.0000000001
 40
0.0
 40
0.0
 40
0.0
 40
0.0
 40
0.2603446635
 40
0.5119386596
 40
0.7575066291
 40
1.0
 40
1.0
 40
1.0
 40
1.0
 10
9.9689601275
 20
10.3383521456
 30
0.0
 10
9.9684440106
 20
10.3394478706
 30
0.0
 10
9.9675312136
 20
10.3416528355
 30
0.0
 10
9.9665313667
 20
10.3450392316
 30
0.0
 10
9.9659303114
 20
10.3484347223
 30
0.0
 10
9.9657963282
 20
10.3507074979
 30
0.0
 10
9.9657963239
 20
10.3518356424
 30
0.0
  0
SPLINE
  5
36F
100
AcDbEntity
  8
0
100
AcDbSpline
 62
7
  6
CONTINUOUS
 70
0
 71
3
 72
46
 73
42
 74
0
 42
0.0000001
 43
0.0000001
 44
0.0000000001
 40
0.0
 40
0.0
 40
0.0
 40
0.0
 40
0.007273983
 40
0.0148705064
 40
0.022798022
 40
0.0310633147
 40
0.0396715192
 40
0.0486265007
 40
0.0579308425
 40
0.0675861042
 40
0.0775928807
 40
0.0879508871
 40
0.098659129
 40
0.1097158298
 40
0.1211186815
 40
0.1328646936
 40
0.1573711414
 40
0.1832026044
 40
0.210318804
 40
0.2386735246
 40
0.268215301
 40
0.2988879846
 40
0.3306312228
 40
0.3633808755
 40
0.3970693828
 40
0.4316261023
 40
0.4669776235
 40
0.5030480612
 40
0.5397593352
 40
0.5770314397
 40
0.614782706
 40
0.6529300597
 40
0.6913892733
 40
0.730075218
 40
0.7689021107
 40
0.8077837764
 40
0.8466338414
 40
0.885366163
 40
0.9238945305
 40
0.962134293
 40
1.0
 40
1.0
 40
1.0
 40
1.0
 10
10.8462193347
 20
10.3547051526
 30
0.0
 10
10.8451792755
 20
10.3537372723
 30
0.0
 10
10.8430052122
 20
10.3518094914
 30
0.0
 10
10.8395483373
 20
10.3490008163
 30
0.0
 10
10.8358281858
 20
10.346214962
 30
0.0
 10
10.8318469896
 20
10.3434536539
 30
0.0
 10
10.827607075
 20
10.3407183761
 30
0.0
 10
10.823110898
 20
10.3380107669
 30
0.0
 10
10.8183611053
 20
10.3353323567
 30
0.0
 10
10.8133604729
 20
10.3326847309
 30
0.0
 10
10.8081119395
 20
10.3300694452
 30
0.0
 10
10.8026186002
 20
10.32748802
 30
0.0
 10
10.796883683
 20
10.3249420176
 30
0.0
 10
10.7909105886
 20
10.3224329032
 30
0.0
 10
10.7847028274
 20
10.3199621952
 30
0.0
 10
10.775994375
 20
10.3166745161
 30
0.0
 10
10.7645421391
 20
10.3126814
 30
0.0
 10
10.750112532
 20
10.3081306831
 30
0.0
 10
10.7348422221
 20
10.303766625
 30
0.0
 10
10.7187674192
 20
10.2995996698
 30
0.0
 10
10.7019261068
 20
10.2956398084
 30
0.0
 10
10.6843581987
 20
10.291896535
 30
0.0
 10
10.6661053575
 20
10.2883788254
 30
0.0
 10
10.6472109093
 20
10.2850951132
 30
0.0
 10
10.6277197288
 20
10.2820532684
 30
0.0
 10
10.6076781291
 20
10.2792605783
 30
0.0
 10
10.5871337465
 20
10.2767237318
 30
0.0
 10
10.5661354237
 20
10.2744488034
 30
0.0
 10
10.5447330919
 20
10.2724412391
 30
0.0
 10
10.5229776498
 20
10.2707058441
 30
0.0
 10
10.5009208418
 20
10.2692467714
 30
0.0
 10
10.4786151336
 20
10.2680675125
 30
0.0
 10
10.4561135867
 20
10.2671708894
 30
0.0
 10
10.4334697317
 20
10.2665590468
 30
0.0
 10
10.4107374377
 20
10.2662334465
 30
0.0
 10
10.3879707916
 20
10.2661948691
 30
0.0
 10
10.3652239397
 20
10.2664434017
 30
0.0
 10
10.3425510461
 20
10.2669784598
 30
0.0
 10
10.32000594
 20
10.2677987474
 30
0.0
 10
10.2976424231
 20
10.2689023242
 30
0.0
 10
10.2828060806
 20
10.2698303663
 30
0.0
 10
10.2754279224
 20
10.2703420433
 30
0.0
  0
SPLINE
  5
370
100
AcDbEntity
  8
0
100
AcDbSpline
 62
7
  6
CONTINUOUS
 70
0
 71
3
 72
11
 73
7
 74
0
 42
0.0000001
 43
0.0000001
 44
0.0000000001
 40
0.0
 40
0.0
 40
0.0
 40
0.0
 40
0.2602032612
 40
0.511774046
 40
0.7574024852
 40
1.0
 40
1.0
 40
1.0
 40
1.0
 10
10.8236791835
 20
10.3384515796
 30
0.0
 10
10.8241878213
 20
10.3395395779
 30
0.0
 10
10.8250872918
 20
10.3417288715
 30
0.0
 10
10.8260722676
 20
10.3450901242
 30
0.0
 10
10.8266643341
 20
10.3484602422
 30
0.0
 10
10.826796326
 20
10.3507158838
 30
0.0
 10
10.8267963217
 20
10.3518356424
 30
0.0
  0
SPLINE
  5
371
100
AcDbEntity
  8
0
100
AcDbSpline
 62
7
  6
CONTINUOUS
 70
0
 71
3
 72
15
 73
11
 74
0
 42
0.0000001
 43
0.0000001
 44
0.0000000001
 40
0.0
 40
0.0
 40
0.0
 40
0.0
 40
0.1242940668
 40
0.2486588779
 40
0.3731639675
 40
0.4978765076
 40
0.6228600663
 40
0.7481740552
 40
0.8738710597
 40
1.0
 40
1.0
 40
1.0
 40
1.0
 10
9.7309580697
 20
9.97544671
 30
0.0
 10
9.7377775468
 20
9.9820338061
 30
0.0
 10
9.7518627139
 20
9.9947624904
 30
0.0
 10
9.7742175003
 20
10.0124167923
 30
0.0
 10
9.7977197431
 20
10.0285705642
 30
0.0
 10
9.8222778482
 20
10.0431606014
 30
0.0
 10
9.8477975485
 20
10.0561311914
 30
0.0
 10
9.8741809513
 20
10.0674325287
 30
0.0
 10
9.9013251382
 20
10.0770210482
 30
0.0
 10
9.9198289838
 20
10.0822384265
 30
0.0
 10
9.9291681396
 20
10.084551215
 30
0.0
  0
SPLINE
  5
372
100
AcDbEntity
  8
0
100
AcDbSpline
 62
7
  6
CONTINUOUS
 70
0
 71
3
 72
11
 73
7
 74
0
 42
0.0000001
 43
0.0000001
 44
0.0000000001
 40
0.0
 40
0.0
 40
0.0
 40
0.0
 40
0.248599519
 40
0.4981188875
 40
0.7485849461
 40
1.0
 40
1.0
 40
1.0
 40
1.0
 10
10.0162052837
 20
9.9254110759
 30
0.0
 10
10.0215317064
 20
9.926227296
 30
0.0
 10
10.0322526252
 20
9.9275628204
 30
0.0
 10
10.048449124
 20
9.9286689256
 30
0.0
 10
10.0647429662
 20
9.9288785296
 30
0.0
 10
10.0756184165
 20
9.9284209816
 30
0.0
 10
10.0810549862
 20
9.9280439542
 30
0.0
  0
SPLINE
  5
373
100
AcDbEntity
  8
0
100
AcDbSpline
 62
7
  6
CONTINUOUS
 70
0
 71
3
 72
23
 73
19
 74
0
 42
0.0000001
 43
0.0000001
 44
0.0000000001
 40
0.0
 40
0.0
 40
0.0
 40
0.0
 40
0.0616482066
 40
0.1233194398
 40
0.1850364729
 40
0.2468215638
 40
0.3086962099
 40
0.3706809215
 40
0.4327950013
 40
0.4950563319
 40
0.5574811817
 40
0.6200840805
 40
0.6828775834
 40
0.7458723398
 40
0.8090769807
 40
0.8724966303
 40
0.9361388571
 40
1.0
 40
1.0
 40
1.0
 40
1.0
 10
9.9399509551
 20
9.8471153652
 30
0.0
 10
9.9428069631
 20
9.8498740698
 30
0.0
 10
9.9486697111
 20
9.8552399479
 30
0.0
 10
9.9578854535
 20
9.862806073
 30
0.0
 10
9.9675013858
 20
9.8698720861
 30
0.0
 10
9.9774929534
 20
9.8764198652
 30
0.0
 10
9.9878350524
 20
9.8824330215
 30
0.0
 10
9.9985015887
 20
9.8878964112
 30
0.0
 10
10.0094656913
 20
9.8927962964
 30
0.0
 10
10.0206997404
 20
9.8971203348
 30
0.0
 10
10.0321754297
 20
9.9008576669
 30
0.0
 10
10.0438638438
 20
9.9039989235
 30
0.0
 10
10.0557355429
 20
9.9065362325
 30
0.0
 10
10.0677606552
 20
9.9084632241
 30
0.0
 10
10.0799088177
 20
9.909775033
 30
0.0
 10
10.092149708
 20
9.9104685159
 30
0.0
 10
10.1044519236
 20
9.9105418058
 30
0.0
 10
10.1126604846
 20
9.9101777954
 30
0.0
 10
10.1167639627
 20
9.9098932182
 30
0.0
  0
SPLINE
  5
374
100
AcDbEntity
  8
0
100
AcDbSpline
 62
7
  6
CONTINUOUS
 70
0
 71
3
 72
39
 73
35
 74
0
 42
0.0000001
 43
0.0000001
 44
0.0000000001
 40
0.0
 40
0.0
 40
0.0
 40
0.0
 40
0.030312495
 40
0.0607375584
 40
0.0912778088
 40
0.1219344586
 40
0.1527073148
 40
0.1835947972
 40
0.2145939723
 40
0.245700603
 40
0.2769092111
 40
0.3082131517
 40
0.3396046998
 40
0.3710751456
 40
0.4026148995
 40
0.4342136038
 40
0.4658602516
 40
0.4975433107
 40
0.5292508516
 40
0.5609706789
 40
0.5926904638
 40
0.624397878
 40
0.6560807276
 40
0.6877270855
 40
0.7193254231
 40
0.750864737
 40
0.7823346749
 40
0.8137256504
 40
0.845028969
 40
0.8762368805
 40
0.9073428504
 40
0.9383411236
 40
0.9692281206
 40
1.0
 40
1.0
 40
1.0
 40
1.0
 10
10.3744682573
 20
9.5545103918
 30
0.0
 10
10.3754702773
 20
9.5598143863
 30
0.0
 10
10.3771789391
 20
9.5705010312
 30
0.0
 10
10.3788461687
 20
9.586677353
 30
0.0
 10
10.3796177869
 20
9.6029828386
 30
0.0
 10
10.3794914083
 20
9.6193677798
 30
0.0
 10
10.3784675053
 20
9.6357830839
 30
0.0
 10
10.3765492057
 20
9.6521793483
 30
0.0
 10
10.3737423376
 20
9.6685072983
 30
0.0
 10
10.3700553915
 20
9.6847178558
 30
0.0
 10
10.3654994986
 20
9.7007623068
 30
0.0
 10
10.3600883956
 20
9.7165924411
 30
0.0
 10
10.3538383828
 20
9.7321606969
 30
0.0
 10
10.3467682751
 20
9.7474203026
 30
0.0
 10
10.3388993455
 20
9.7623254157
 30
0.0
 10
10.3302552609
 20
9.7768312594
 30
0.0
 10
10.3208620127
 20
9.7908942573
 30
0.0
 10
10.3107478413
 20
9.8044721652
 30
0.0
 10
10.2999431472
 20
9.8175241947
 30
0.0
 10
10.2884804004
 20
9.8300111357
 30
0.0
 10
10.2763940431
 20
9.8418954727
 30
0.0
 10
10.2637203874
 20
9.853141497
 30
0.0
 10
10.2504975068
 20
9.863715413
 30
0.0
 10
10.2367651224
 20
9.8735854398
 30
0.0
 10
10.2225644845
 20
9.8827219052
 30
0.0
 10
10.2079382503
 20
9.8910973361
 30
0.0
 10
10.1929303582
 20
9.8986865433
 30
0.0
 10
10.1775858928
 20
9.9054666976
 30
0.0
 10
10.1619509573
 20
9.9114173828
 30
0.0
 10
10.1460725053
 20
9.9165207006
 30
0.0
 10
10.1299983198
 20
9.920761218
 30
0.0
 10
10.1137764657
 20
9.9241262418
 30
0.0
 10
10.0974564193
 20
9.9266054383
 30
0.0
 10
10.0865214748
 20
9.9276648519
 30
0.0
 10
10.0810549862
 20
9.9280439542
 30
0.0
  0
SPLINE
  5
375
100
AcDbEntity
  8
0
100
AcDbSpline
 62
7
  6
CONTINUOUS
 70
0
 71
3
 72
39
 73
35
 74
0
 42
0.0000001
 43
0.0000001
 44
0.0000000001
 40
0.0
 40
0.0
 40
0.0
 40
0.0
 40
0.0299393046
 40
0.0599022798
 40
0.0899120362
 40
0.1199905823
 40
0.1501583143
 40
0.1804335559
 40
0.2108321562
 40
0.2413671583
 40
0.2720485416
 40
0.3028830449
 40
0.3338740655
 40
0.3650216366
 40
0.3963224767
 40
0.4277701061
 40
0.4593550258
 40
0.491064949
 40
0.5228850818
 40
0.554798444
 40
0.5867862231
 40
0.618828155
 40
0.6509029254
 40
0.6829885856
 40
0.7150629765
 40
0.7471041564
 40
0.7790908249
 40
0.8110027394
 40
0.8428211144
 40
0.8745290121
 40
0.9061116491
 40
0.937556897
 40
0.9688549736
 40
1.0
 40
1.0
 40
1.0
 40
1.0
 10
10.2935769703
 20
9.4810147966
 30
0.0
 10
10.2977373906
 20
9.4850334727
 30
0.0
 10
10.3057499475
 20
9.4934039296
 30
0.0
 10
10.316754186
 20
9.5068669875
 30
0.0
 10
10.3266903231
 20
9.5211705448
 30
0.0
 10
10.3355042415
 20
9.5362370166
 30
0.0
 10
10.3431491616
 20
9.5519859653
 30
0.0
 10
10.3495842569
 20
9.5683329942
 30
0.0
 10
10.354775303
 20
9.585190628
 30
0.0
 10
10.35869474
 20
9.6024686763
 30
0.0
 10
10.3613218365
 20
9.6200747553
 30
0.0
 10
10.3626427769
 20
9.6379147773
 30
0.0
 10
10.3626507264
 20
9.6558934562
 30
0.0
 10
10.3613458547
 20
9.6739148134
 30
0.0
 10
10.3587353262
 20
9.6918826861
 30
0.0
 10
10.3548332535
 20
9.7097012345
 30
0.0
 10
10.349660616
 20
9.7272754469
 30
0.0
 10
10.3432451441
 20
9.7445116389
 30
0.0
 10
10.3356211748
 20
9.7613179491
 30
0.0
 10
10.3268294589
 20
9.7776048202
 30
0.0
 10
10.3169169452
 20
9.7932854702
 30
0.0
 10
10.3059365304
 20
9.8082763485
 30
0.0
 10
10.2939467791
 20
9.8224975761
 30
0.0
 10
10.2810116143
 20
9.835873366
 30
0.0
 10
10.26719998
 20
9.8483324229
 30
0.0
 10
10.2525854766
 20
9.8598083186
 30
0.0
 10
10.2372459774
 20
9.8702398475
 30
0.0
 10
10.221263213
 20
9.8795713491
 30
0.0
 10
10.2047223498
 20
9.8877530034
 30
0.0
 10
10.1877115043
 20
9.8947410827
 30
0.0
 10
10.1703214142
 20
9.9004982202
 30
0.0
 10
10.1526444699
 20
9.9049935353
 30
0.0
 10
10.1347761392
 20
9.9082028813
 30
0.0
 10
10.1227668567
 20
9.9094769161
 30
0.0
 10
10.1167639627
 20
9.9098932182
 30
0.0
  0
SPLINE
  5
376
100
AcDbEntity
  8
0
100
AcDbSpline
 62
7
  6
CONTINUOUS
 70
0
 71
3
 72
37
 73
33
 74
0
 42
0.0000001
 43
0.0000001
 44
0.0000000001
 40
0.0
 40
0.0
 40
0.0
 40
0.0
 40
0.0287807955
 40
0.0580386169
 40
0.0877788289
 40
0.1179903953
 40
0.1796845104
 40
0.2110967267
 40
0.2428011963
 40
0.2747339486
 40
0.3068304899
 40
0.3390289867
 40
0.3712728713
 40
0.4356869033
 40
0.467802561
 40
0.4998151637
 40
0.5317081427
 40
0.5634722045
 40
0.5951045398
 40
0.6266080566
 40
0.6579905746
 40
0.6892639956
 40
0.720443556
 40
0.7515470191
 40
0.782593965
 40
0.8136049723
 40
0.8446008295
 40
0.8756017307
 40
0.9066266478
 40
0.9376922088
 40
0.9688131431
 40
1.0
 40
1.0
 40
1.0
 40
1.0
 10
10.1242841118
 20
9.9091489822
 30
0.0
 10
10.1231965073
 20
9.9059497978
 30
0.0
 10
10.1212044913
 20
9.8994281706
 30
0.0
 10
10.1187917341
 20
9.8894031191
 30
0.0
 10
10.1169392079
 20
9.8790883414
 30
0.0
 10
10.1152152026
 20
9.8649050378
 30
0.0
 10
10.1146670543
 20
9.8504038093
 30
0.0
 10
10.1152562229
 20
9.8357577364
 30
0.0
 10
10.1162760672
 20
9.8246399413
 30
0.0
 10
10.1178662597
 20
9.8135087409
 30
0.0
 10
10.1200195029
 20
9.802413575
 30
0.0
 10
10.1227269006
 20
9.7914024935
 30
0.0
 10
10.1270591698
 20
9.776903023
 30
0.0
 10
10.1324558468
 20
9.7627483825
 30
0.0
 10
10.138879082
 20
9.7490866805
 30
0.0
 10
10.1441906972
 20
9.7391371239
 30
0.0
 10
10.1499886724
 20
9.7295113183
 30
0.0
 10
10.1562619541
 20
9.7202417965
 30
0.0
 10
10.1629991103
 20
9.7113608116
 30
0.0
 10
10.1701883299
 20
9.7028999919
 30
0.0
 10
10.1778169439
 20
9.6948908222
 30
0.0
 10
10.1858709913
 20
9.6873647691
 30
0.0
 10
10.1943347003
 20
9.6803533287
 30
0.0
 10
10.2031899723
 20
9.6738878945
 30
0.0
 10
10.2124158836
 20
9.6679994911
 30
0.0
 10
10.2219882391
 20
9.6627183341
 30
0.0
 10
10.2318792157
 20
9.6580732724
 30
0.0
 10
10.2420571724
 20
9.6540910711
 30
0.0
 10
10.2524865224
 20
9.650795724
 30
0.0
 10
10.2631282327
 20
9.6482075425
 30
0.0
 10
10.2739390577
 20
9.6463427215
 30
0.0
 10
10.2812221025
 20
9.6455899185
 30
0.0
 10
10.2848748158
 20
9.645336602
 30
0.0
  0
SPLINE
  5
377
100
AcDbEntity
  8
0
100
AcDbSpline
 62
7
  6
CONTINUOUS
 70
0
 71
3
 72
25
 73
21
 74
0
 42
0.0000001
 43
0.0000001
 44
0.0000000001
 40
0.0
 40
0.0
 40
0.0
 40
0.0
 40
0.0616475282
 40
0.0924812782
 40
0.1233236452
 40
0.1850399949
 40
0.2468243989
 40
0.277751634
 40
0.3087038677
 40
0.3706878948
 40
0.4328012861
 40
0.4950619216
 40
0.5574860801
 40
0.6200882709
 40
0.6828811113
 40
0.7458751472
 40
0.8090789555
 40
0.8724985283
 40
0.936138578
 40
1.0
 40
1.0
 40
1.0
 40
1.0
 10
10.0931788332
 20
7.8677890102
 30
0.0
 10
10.0987000969
 20
7.8731221561
 30
0.0
 10
10.1072003778
 20
7.8809021041
 30
0.0
 10
10.1189380375
 20
7.8908058444
 30
0.0
 10
10.130944395
 20
7.9003964232
 30
0.0
 10
10.1464394153
 20
7.9117826104
 30
0.0
 10
10.1625311002
 20
7.9223279782
 30
0.0
 10
10.1757398165
 20
7.9302462261
 30
0.0
 10
10.1891767089
 20
7.9378214595
 30
0.0
 10
10.206369408
 20
7.9466276197
 30
0.0
 10
10.2275650726
 20
7.9560999989
 30
0.0
 10
10.2492828767
 20
7.9644593328
 30
0.0
 10
10.2714677416
 20
7.9716844091
 30
0.0
 10
10.29406388
 20
7.9777571459
 30
0.0
 10
10.3170143469
 20
7.9826622895
 30
0.0
 10
10.3402613771
 20
7.9863875696
 30
0.0
 10
10.3637463579
 20
7.9889236437
 30
0.0
 10
10.38741043
 20
7.9902642312
 30
0.0
 10
10.4111931921
 20
7.990406004
 30
0.0
 10
10.4270619892
 20
7.9897022497
 30
0.0
 10
10.4349949897
 20
7.9891520943
 30
0.0
  0
SPLINE
  5
378
100
AcDbEntity
  8
0
100
AcDbSpline
 62
7
  6
CONTINUOUS
 70
0
 71
3
 72
11
 73
7
 74
0
 42
0.0000001
 43
0.0000001
 44
0.0000000001
 40
0.0
 40
0.0
 40
0.0
 40
0.0
 40
0.248599519
 40
0.4981188875
 40
0.7485849461
 40
1.0
 40
1.0
 40
1.0
 40
1.0
 10
10.37842749
 20
7.8177547734
 30
0.0
 10
10.3837539127
 20
7.8185709934
 30
0.0
 10
10.3944748315
 20
7.8199065178
 30
0.0
 10
10.4106713303
 20
7.821012623
 30
0.0
 10
10.4269651725
 20
7.821222227
 30
0.0
 10
10.4378406228
 20
7.820764679
 30
0.0
 10
10.4432771925
 20
7.8203876516
 30
0.0
  0
SPLINE
  5
379
100
AcDbEntity
  8
0
100
AcDbSpline
 62
7
  6
CONTINUOUS
 70
0
 71
3
 72
23
 73
19
 74
0
 42
0.0000001
 43
0.0000001
 44
0.0000000001
 40
0.0
 40
0.0
 40
0.0
 40
0.0
 40
0.0616482066
 40
0.1233194398
 40
0.1850364729
 40
0.2468215638
 40
0.3086962099
 40
0.3706809215
 40
0.4327950013
 40
0.4950563319
 40
0.5574811817
 40
0.6200840805
 40
0.6828775834
 40
0.7458723398
 40
0.8090769807
 40
0.8724966303
 40
0.9361388571
 40
1.0
 40
1.0
 40
1.0
 40
1.0
 10
10.3021731615
 20
7.7394590626
 30
0.0
 10
10.3050291694
 20
7.7422177673
 30
0.0
 10
10.3108919174
 20
7.7475836453
 30
0.0
 10
10.3201076598
 20
7.7551497704
 30
0.0
 10
10.3297235921
 20
7.7622157836
 30
0.0
 10
10.3397151598
 20
7.7687635626
 30
0.0
 10
10.3500572587
 20
7.7747767189
 30
0.0
 10
10.360723795
 20
7.7802401087
 30
0.0
 10
10.3716878976
 20
7.7851399938
 30
0.0
 10
10.3829219467
 20
7.7894640322
 30
0.0
 10
10.394397636
 20
7.7932013644
 30
0.0
 10
10.4060860501
 20
7.7963426209
 30
0.0
 10
10.4179577492
 20
7.79887993
 30
0.0
 10
10.4299828615
 20
7.8008069216
 30
0.0
 10
10.442131024
 20
7.8021187304
 30
0.0
 10
10.4543719144
 20
7.8028122134
 30
0.0
 10
10.4666741299
 20
7.8028855033
 30
0.0
 10
10.474882691
 20
7.8025214928
 30
0.0
 10
10.4789861691
 20
7.8022369157
 30
0.0
  0
SPLINE
  5
37A
100
AcDbEntity
  8
0
100
AcDbSpline
 62
7
  6
CONTINUOUS
 70
0
 71
3
 72
39
 73
35
 74
0
 42
0.0000001
 43
0.0000001
 44
0.0000000001
 40
0.0
 40
0.0
 40
0.0
 40
0.0
 40
0.030312495
 40
0.0607375584
 40
0.0912778088
 40
0.1219344586
 40
0.1527073148
 40
0.1835947972
 40
0.2145939723
 40
0.245700603
 40
0.2769092111
 40
0.3082131517
 40
0.3396046998
 40
0.3710751456
 40
0.4026148995
 40
0.4342136038
 40
0.4658602516
 40
0.4975433107
 40
0.5292508516
 40
0.5609706789
 40
0.5926904638
 40
0.624397878
 40
0.6560807276
 40
0.6877270855
 40
0.7193254231
 40
0.750864737
 40
0.7823346749
 40
0.8137256504
 40
0.845028969
 40
0.8762368805
 40
0.9073428504
 40
0.9383411236
 40
0.9692281206
 40
1.0
 40
1.0
 40
1.0
 40
1.0
 10
10.7366904636
 20
7.4468540892
 30
0.0
 10
10.7376924836
 20
7.4521580838
 30
0.0
 10
10.7394011455
 20
7.4628447287
 30
0.0
 10
10.7410683751
 20
7.4790210504
 30
0.0
 10
10.7418399932
 20
7.4953265361
 30
0.0
 10
10.7417136146
 20
7.5117114772
 30
0.0
 10
10.7406897117
 20
7.5281267813
 30
0.0
 10
10.738771412
 20
7.5445230458
 30
0.0
 10
10.7359645439
 20
7.5608509957
 30
0.0
 10
10.7322775978
 20
7.5770615532
 30
0.0
 10
10.727721705
 20
7.5931060042
 30
0.0
 10
10.7223106019
 20
7.6089361385
 30
0.0
 10
10.7160605891
 20
7.6245043944
 30
0.0
 10
10.7089904814
 20
7.639764
 30
0.0
 10
10.7011215518
 20
7.6546691131
 30
0.0
 10
10.6924774672
 20
7.6691749569
 30
0.0
 10
10.683084219
 20
7.6832379548
 30
0.0
 10
10.6729700476
 20
7.6968158626
 30
0.0
 10
10.6621653536
 20
7.7098678922
 30
0.0
 10
10.6507026067
 20
7.7223548332
 30
0.0
 10
10.6386162494
 20
7.7342391702
 30
0.0
 10
10.6259425938
 20
7.7454851944
 30
0.0
 10
10.6127197131
 20
7.7560591105
 30
0.0
 10
10.5989873287
 20
7.7659291372
 30
0.0
 10
10.5847866908
 20
7.7750656027
 30
0.0
 10
10.5701604566
 20
7.7834410336
 30
0.0
 10
10.5551525646
 20
7.7910302407
 30
0.0
 10
10.5398080991
 20
7.7978103951
 30
0.0
 10
10.5241731636
 20
7.8037610802
 30
0.0
 10
10.5082947116
 20
7.8088643981
 30
0.0
 10
10.4922205261
 20
7.8131049154
 30
0.0
 10
10.475998672
 20
7.8164699392
 30
0.0
 10
10.4596786256
 20
7.8189491357
 30
0.0
 10
10.4487436811
 20
7.8200085494
 30
0.0
 10
10.4432771925
 20
7.8203876516
 30
0.0
  0
SPLINE
  5
37B
100
AcDbEntity
  8
0
100
AcDbSpline
 62
7
  6
CONTINUOUS
 70
0
 71
3
 72
39
 73
35
 74
0
 42
0.0000001
 43
0.0000001
 44
0.0000000001
 40
0.0
 40
0.0
 40
0.0
 40
0.0
 40
0.0299393046
 40
0.0599022798
 40
0.0899120362
 40
0.1199905823
 40
0.1501583143
 40
0.1804335559
 40
0.2108321562
 40
0.2413671583
 40
0.2720485416
 40
0.3028830449
 40
0.3338740655
 40
0.3650216366
 40
0.3963224767
 40
0.4277701061
 40
0.4593550258
 40
0.491064949
 40
0.5228850818
 40
0.554798444
 40
0.5867862231
 40
0.618828155
 40
0.6509029254
 40
0.6829885856
 40
0.7150629765
 40
0.7471041564
 40
0.7790908249
 40
0.8110027394
 40
0.8428211144
 40
0.8745290121
 40
0.9061116491
 40
0.937556897
 40
0.9688549736
 40
1.0
 40
1.0
 40
1.0
 40
1.0
 10
10.6557991767
 20
7.373358494
 30
0.0
 10
10.659959597
 20
7.3773771701
 30
0.0
 10
10.6679721538
 20
7.385747627
 30
0.0
 10
10.6789763923
 20
7.3992106849
 30
0.0
 10
10.6889125294
 20
7.4135142423
 30
0.0
 10
10.6977264478
 20
7.4285807141
 30
0.0
 10
10.7053713679
 20
7.4443296628
 30
0.0
 10
10.7118064632
 20
7.4606766917
 30
0.0
 10
10.7169975093
 20
7.4775343255
 30
0.0
 10
10.7209169463
 20
7.4948123738
 30
0.0
 10
10.7235440428
 20
7.5124184527
 30
0.0
 10
10.7248649833
 20
7.5302584747
 30
0.0
 10
10.7248729327
 20
7.5482371536
 30
0.0
 10
10.723568061
 20
7.5662585108
 30
0.0
 10
10.7209575325
 20
7.5842263835
 30
0.0
 10
10.7170554599
 20
7.602044932
 30
0.0
 10
10.7118828223
 20
7.6196191444
 30
0.0
 10
10.7054673505
 20
7.6368553364
 30
0.0
 10
10.6978433811
 20
7.6536616466
 30
0.0
 10
10.6890516652
 20
7.6699485177
 30
0.0
 10
10.6791391515
 20
7.6856291676
 30
0.0
 10
10.6681587367
 20
7.700620046
 30
0.0
 10
10.6561689854
 20
7.7148412736
 30
0.0
 10
10.6432338206
 20
7.7282170634
 30
0.0
 10
10.6294221863
 20
7.7406761203
 30
0.0
 10
10.614807683
 20
7.752152016
 30
0.0
 10
10.5994681837
 20
7.762583545
 30
0.0
 10
10.5834854193
 20
7.7719150466
 30
0.0
 10
10.5669445561
 20
7.7800967009
 30
0.0
 10
10.5499337106
 20
7.7870847801
 30
0.0
 10
10.5325436205
 20
7.7928419176
 30
0.0
 10
10.5148666762
 20
7.7973372327
 30
0.0
 10
10.4969983455
 20
7.8005465787
 30
0.0
 10
10.484989063
 20
7.8018206136
 30
0.0
 10
10.4789861691
 20
7.8022369157
 30
0.0
  0
SPLINE
  5
37C
100
AcDbEntity
  8
0
100
AcDbSpline
 62
7
  6
CONTINUOUS
 70
0
 71
3
 72
86
 73
82
 74
0
 42
0.0000001
 43
0.0000001
 44
0.0000000001
 40
0.0
 40
0.0
 40
0.0
 40
0.0
 40
0.0027164229
 40
0.0054532199
 40
0.0082302803
 40
0.0110665652
 40
0.0139797601
 40
0.0169860612
 40
0.0201000083
 40
0.0233345154
 40
0.0267008552
 40
0.0302087911
 40
0.0338666949
 40
0.0376816386
 40
0.0416596027
 40
0.0458055094
 40
0.0501234214
 40
0.0546165986
 40
0.0592875859
 40
0.0641383491
 40
0.0691702497
 40
0.0743842108
 40
0.0797806815
 40
0.0853597253
 40
0.0911210701
 40
0.0970640767
 40
0.1094907819
 40
0.1226299857
 40
0.1364676026
 40
0.1509863633
 40
0.166166208
 40
0.1819846021
 40
0.1984167887
 40
0.2154360082
 40
0.2330136911
 40
0.2511196222
 40
0.2697220861
 40
0.2887880011
 40
0.3082830385
 40
0.3281717446
 40
0.3484176561
 40
0.3689834073
 40
0.3898308346
 40
0.4109210783
 40
0.4322146819
 40
0.4536716962
 40
0.4969136001
 40
0.5403217884
 40
0.5835689461
 40
0.6050305436
 40
0.6263300209
 40
0.6474274143
 40
0.6682832501
 40
0.6888586484
 40
0.7091154216
 40
0.7290161766
 40
0.7485244187
 40
0.7676046599
 40
0.7862225346
 40
0.8043449193
 40
0.8219400528
 40
0.8389776685
 40
0.8554291414
 40
0.8712676506
 40
0.8864683732
 40
0.9010086996
 40
0.9148684857
 40
0.9280303658
 40
0.9404801448
 40
0.9464347977
 40
0.952207837
 40
0.9577986052
 40
0.9632068066
 40
0.9684324934
 40
0.9734760794
 40
0.9783384382
 40
0.9830208843
 40
0.9875254058
 40
0.9918546018
 40
0.9960115767
 40
1.0
 40
1.0
 40
1.0
 40
1.0
 10
12.1733687802
 20
8.4425217696
 30
0.0
 10
12.1724505228
 20
8.442585451
 30
0.0
 10
12.170611825
 20
8.4427964221
 30
0.0
 10
12.1678771803
 20
8.4433609073
 30
0.0
 10
12.1651632086
 20
8.4441734018
 30
0.0
 10
12.1624718384
 20
8.4452330848
 30
0.0
 10
12.1598044504
 20
8.4465390035
 30
0.0
 10
12.1571624414
 20
8.4480901843
 30
0.0
 10
12.1545469851
 20
8.4498854557
 30
0.0
 10
12.1519592898
 20
8.4519237433
 30
0.0
 10
12.1494004411
 20
8.454203814
 30
0.0
 10
12.1468715489
 20
8.4567244344
 30
0.0
 10
12.1443737408
 20
8.4594843058
 30
0.0
 10
12.1419080767
 20
8.4624819935
 30
0.0
 10
12.1394757334
 20
8.4657160448
 30
0.0
 10
12.13707778
 20
8.4691848262
 30
0.0
 10
12.1347153747
 20
8.4728866501
 30
0.0
 10
12.132389641
 20
8.4768196908
 30
0.0
 10
12.1301016739
 20
8.4809820008
 30
0.0
 10
12.1278526359
 20
8.4853715443
 30
0.0
 10
12.1256435768
 20
8.4899861296
 30
0.0
 10
12.1234756333
 20
8.4948234846
 30
0.0
 10
12.1213498561
 20
8.4998811979
 30
0.0
 10
12.119267308
 20
8.5051567512
 30
0.0
 10
12.1172290331
 20
8.5106475285
 30
0.0
 10
12.1145315285
 20
8.5183670509
 30
0.0
 10
12.1112876702
 20
8.5285416159
 30
0.0
 10
12.1076429052
 20
8.5413884958
 30
0.0
 10
12.1041977127
 20
8.5550225683
 30
0.0
 10
12.1009590673
 20
8.5694165413
 30
0.0
 10
12.0979335533
 20
8.5845417414
 30
0.0
 10
12.095127327
 20
8.6003679126
 30
0.0
 10
12.0925460987
 20
8.6168633643
 30
0.0
 10
12.0901951199
 20
8.6339950229
 30
0.0
 10
12.0880791757
 20
8.651728514
 30
0.0
 10
12.0862025736
 20
8.6700282367
 30
0.0
 10
12.0845691348
 20
8.6888574385
 30
0.0
 10
12.0831821881
 20
8.7081782896
 30
0.0
 10
12.0820445576
 20
8.7279519602
 30
0.0
 10
12.0811585606
 20
8.7481387015
 30
0.0
 10
12.0805260057
 20
8.7686979295
 30
0.0
 10
12.0801481893
 20
8.7895883073
 30
0.0
 10
12.0800258911
 20
8.8107678316
 30
0.0
 10
12.0801593814
 20
8.8321939015
 30
0.0
 10
12.0805483834
 20
8.8538234628
 30
0.0
 10
12.081408989
 20
8.8829499407
 30
0.0
 10
12.0831177714
 20
8.919545715
 30
0.0
 10
12.0861553243
 20
8.9634600847
 30
0.0
 10
12.0895015661
 20
8.9999459373
 30
0.0
 10
12.092659624
 20
9.0289188432
 30
0.0
 10
12.0952526985
 20
9.0504019378
 30
0.0
 10
12.0980709257
 20
9.0716495994
 30
0.0
 10
12.1011086502
 20
9.0926191314
 30
0.0
 10
12.1043597375
 20
9.1132683586
 30
0.0
 10
12.1078176316
 20
9.1335557656
 30
0.0
 10
12.1114753559
 20
9.1534405645
 30
0.0
 10
12.1153255298
 20
9.1728827818
 30
0.0
 10
12.1193603841
 20
9.1918433389
 30
0.0
 10
12.1235717725
 20
9.2102841356
 30
0.0
 10
12.1279511879
 20
9.2281681286
 30
0.0
 10
12.132489783
 20
9.2454594071
 30
0.0
 10
12.1371783877
 20
9.2621232649
 30
0.0
 10
12.1420075273
 20
9.2781262746
 30
0.0
 10
12.1469674446
 20
9.2934363595
 30
0.0
 10
12.1520481161
 20
9.3080228747
 30
0.0
 10
12.157239276
 20
9.3218566547
 30
0.0
 10
12.1625304514
 20
9.3349101571
 30
0.0
 10
12.1679109724
 20
9.3471572613
 30
0.0
 10
12.1725261099
 20
9.3568092242
 30
0.0
 10
12.1762618223
 20
9.3641009615
 30
0.0
 10
12.1790375581
 20
9.3692718208
 30
0.0
 10
12.1818275188
 20
9.3742235686
 30
0.0
 10
12.1846303209
 20
9.378953749
 30
0.0
 10
12.1874445572
 20
9.383460012
 30
0.0
 10
12.1902688591
 20
9.3877400978
 30
0.0
 10
12.1931017688
 20
9.391791899
 30
0.0
 10
12.195941946
 20
9.3956133956
 30
0.0
 10
12.1987879986
 20
9.399202743
 30
0.0
 10
12.2016386074
 20
9.4025581873
 30
0.0
 10
12.2044922432
 20
9.4056779068
 30
0.0
 10
12.206435295
 20
9.4076394906
 30
0.0
 10
12.2074073544
 20
9.408578428
 30
0.0
  0
SPLINE
  5
37D
100
AcDbEntity
  8
0
100
AcDbSpline
 62
7
  6
CONTINUOUS
 70
0
 71
3
 72
69
 73
65
 74
0
 42
0.0000001
 43
0.0000001
 44
0.0000000001
 40
0.0
 40
0.0
 40
0.0
 40
0.0
 40
0.0027657402
 40
0.0055963553
 40
0.0085080911
 40
0.0115156967
 40
0.0178667996
 40
0.0212353113
 40
0.0247436653
 40
0.0283994338
 40
0.0322090038
 40
0.0361777958
 40
0.0403102804
 40
0.0446101029
 40
0.0490802516
 40
0.0537230166
 40
0.0585401382
 40
0.0687013017
 40
0.0795694665
 40
0.0911435793
 40
0.1034178049
 40
0.1163822484
 40
0.1300235546
 40
0.1443254217
 40
0.1592689411
 40
0.1748328378
 40
0.1909937689
 40
0.2077265353
 40
0.2250042061
 40
0.2427982797
 40
0.2610788599
 40
0.279814761
 40
0.2989735871
 40
0.318521885
 40
0.33842525
 40
0.379154494
 40
0.4208711548
 40
0.4632749119
 40
0.5060590493
 40
0.5489133288
 40
0.5915268684
 40
0.6335910135
 40
0.6748021886
 40
0.7148648384
 40
0.734376445
 40
0.7534952556
 40
0.772187907
 40
0.7904221276
 40
0.808166856
 40
0.8253923173
 40
0.842070154
 40
0.8581736158
 40
0.8736776688
 40
0.8885591508
 40
0.9027970236
 40
0.9163726233
 40
0.9292699066
 40
0.9414758331
 40
0.9529808904
 40
0.9637796861
 40
0.9738716562
 40
0.9832621515
 40
0.9919644655
 40
1.0
 40
1.0
 40
1.0
 40
1.0
 10
12.1509228692
 20
8.6279847111
 30
0.0
 10
12.150361915
 20
8.6281494521
 30
0.0
 10
12.1492405341
 20
8.6285312931
 30
0.0
 10
12.1475888982
 20
8.6292475652
 30
0.0
 10
12.1459519136
 20
8.6301124826
 30
0.0
 10
12.1437504713
 20
8.6314876343
 30
0.0
 10
12.1416205447
 20
8.6331451435
 30
0.0
 10
12.1395671587
 20
8.635044352
 30
0.0
 10
12.1380149185
 20
8.6366420688
 30
0.0
 10
12.136481783
 20
8.6383840075
 30
0.0
 10
12.1349682028
 20
8.6402694471
 30
0.0
 10
12.1334749297
 20
8.642297471
 30
0.0
 10
12.1320026077
 20
8.6444671174
 30
0.0
 10
12.1305518859
 20
8.6467773431
 30
0.0
 10
12.1291234767
 20
8.6492270753
 30
0.0
 10
12.1277179959
 20
8.65181514
 30
0.0
 10
12.1258420438
 20
8.6555148263
 30
0.0
 10
12.1235667038
 20
8.6604848184
 30
0.0
 10
12.1209847718
 20
8.666877012
 30
0.0
 10
12.1185096556
 20
8.6737875372
 30
0.0
 10
12.1161461211
 20
8.681203209
 30
0.0
 10
12.1138987251
 20
8.6891100097
 30
0.0
 10
12.1117718251
 20
8.6974928342
 30
0.0
 10
12.1097695733
 20
8.7063356373
 30
0.0
 10
12.1078958943
 20
8.715621441
 30
0.0
 10
12.1061544401
 20
8.7253323743
 30
0.0
 10
12.1045486167
 20
8.7354497235
 30
0.0
 10
12.1030815779
 20
8.7459539772
 30
0.0
 10
12.1017561948
 20
8.7568248575
 30
0.0
 10
12.1005750524
 20
8.768041363
 30
0.0
 10
12.0995404671
 20
8.7795818201
 30
0.0
 10
12.0986544733
 20
8.7914239238
 30
0.0
 10
12.097918801
 20
8.8035447695
 30
0.0
 10
12.0973348706
 20
8.8159209347
 30
0.0
 10
12.0967558212
 20
8.8328607226
 30
0.0
 10
12.0964259379
 20
8.8544959847
 30
0.0
 10
12.0966478366
 20
8.8808890627
 30
0.0
 10
12.0974832181
 20
8.9077044341
 30
0.0
 10
12.0989257356
 20
8.934734743
 30
0.0
 10
12.100964289
 20
8.9617711157
 30
0.0
 10
12.1035831282
 20
8.9886045703
 30
0.0
 10
12.1067618717
 20
9.0150277843
 30
0.0
 10
12.110475824
 20
9.0408364655
 30
0.0
 10
12.1140229981
 20
9.0618464568
 30
0.0
 10
12.1171143528
 20
9.0781918939
 30
0.0
 10
12.1195271578
 20
9.0900670678
 30
0.0
 10
12.122049882
 20
9.1016431723
 30
0.0
 10
12.1246776497
 20
9.1128978441
 30
0.0
 10
12.1274053403
 20
9.1238093316
 30
0.0
 10
12.1302276564
 20
9.1343565534
 30
0.0
 10
12.1331391227
 20
9.1445191382
 30
0.0
 10
12.1361340689
 20
9.1542774791
 30
0.0
 10
12.1392066689
 20
9.1636127636
 30
0.0
 10
12.1423509596
 20
9.1725070076
 30
0.0
 10
12.145560833
 20
9.1809431078
 30
0.0
 10
12.1488300483
 20
9.188904885
 30
0.0
 10
12.1521522738
 20
9.1963771058
 30
0.0
 10
12.1555211107
 20
9.203345524
 30
0.0
 10
12.1589300733
 20
9.2097969472
 30
0.0
 10
12.1623726927
 20
9.2157192612
 30
0.0
 10
12.1658424961
 20
9.2211013829
 30
0.0
 10
12.1693332963
 20
9.2259336345
 30
0.0
 10
12.1728386019
 20
9.2302067406
 30
0.0
 10
12.1752759878
 20
9.2327774734
 30
0.0
 10
12.1764977254
 20
9.2339575813
 30
0.0
  0
SPLINE
  5
37E
100
AcDbEntity
  8
0
100
AcDbSpline
 62
7
  6
CONTINUOUS
 70
0
 71
3
 72
15
 73
11
 74
0
 42
0.0000001
 43
0.0000001
 44
0.0000000001
 40
0.0
 40
0.0
 40
0.0
 40
0.0
 40
0.1080210985
 40
0.2193202637
 40
0.334817274
 40
0.4553248504
 40
0.5815480537
 40
0.7140884021
 40
0.8534419956
 40
1.0
 40
1.0
 40
1.0
 40
1.0
 10
12.1936139249
 20
9.2435748055
 30
0.0
 10
12.1929035622
 20
9.2434694958
 30
0.0
 10
12.1914715368
 20
9.2431800136
 30
0.0
 10
12.1893406071
 20
9.2425259974
 30
0.0
 10
12.1872018575
 20
9.2416480762
 30
0.0
 10
12.1850570899
 20
9.2405473966
 30
0.0
 10
12.1829075391
 20
9.2392251252
 30
0.0
 10
12.1807544989
 20
9.2376824401
 30
0.0
 10
12.1785994411
 20
9.2359207301
 30
0.0
 10
12.1771985097
 20
9.2346344871
 30
0.0
 10
12.1764977254
 20
9.2339575813
 30
0.0
  0
SPLINE
  5
37F
100
AcDbEntity
  8
0
100
AcDbSpline
 62
7
  6
CONTINUOUS
 70
0
 71
3
 72
59
 73
55
 74
0
 42
0.0000001
 43
0.0000001
 44
0.0000000001
 40
0.0
 40
0.0
 40
0.0
 40
0.0
 40
0.0075208079
 40
0.0156241398
 40
0.0243310606
 40
0.0336548722
 40
0.0436027282
 40
0.0541767519
 40
0.0653748386
 40
0.0771914416
 40
0.0896180444
 40
0.1026434986
 40
0.1162544536
 40
0.1304355591
 40
0.1451696243
 40
0.1604378928
 40
0.1762201332
 40
0.1924947318
 40
0.2092388927
 40
0.2264286809
 40
0.2440390934
 40
0.2620442168
 40
0.2991298639
 40
0.3374628535
 40
0.3768091312
 40
0.4169263555
 40
0.4575659562
 40
0.4984751951
 40
0.5393992035
 40
0.5800829926
 40
0.620273482
 40
0.659721512
 40
0.6981838999
 40
0.7354255455
 40
0.7535182257
 40
0.7712223393
 40
0.7885117232
 40
0.8053611821
 40
0.8217465396
 40
0.8376446832
 40
0.8530337507
 40
0.8678931903
 40
0.8822038429
 40
0.8959481837
 40
0.9091104254
 40
0.9216766811
 40
0.9336353194
 40
0.9449771786
 40
0.9556959294
 40
0.9657887016
 40
0.9752565037
 40
0.9841051608
 40
0.9923469048
 40
1.0
 40
1.0
 40
1.0
 40
1.0
 10
12.1706619334
 20
7.3365878623
 30
0.0
 10
12.1697800575
 20
7.3376721802
 30
0.0
 10
12.1680424795
 20
7.3400026033
 30
0.0
 10
12.1655972578
 20
7.3438094857
 30
0.0
 10
12.1632218629
 20
7.3480486674
 30
0.0
 10
12.1609200362
 20
7.3527131876
 30
0.0
 10
12.1586952702
 20
7.3577957994
 30
0.0
 10
12.1565511578
 20
7.3632883591
 30
0.0
 10
12.1544911577
 20
7.3691820024
 30
0.0
 10
12.152518679
 20
7.3754671471
 30
0.0
 10
12.1506370099
 20
7.3821335181
 30
0.0
 10
12.148849268
 20
7.3891701609
 30
0.0
 10
12.1471584556
 20
7.3965654874
 30
0.0
 10
12.1455674162
 20
7.4043072898
 30
0.0
 10
12.144078799
 20
7.4123827622
 30
0.0
 10
12.1426951133
 20
7.420778536
 30
0.0
 10
12.1414186889
 20
7.4294806991
 30
0.0
 10
12.1402516515
 20
7.4384748178
 30
0.0
 10
12.1391959699
 20
7.4477459712
 30
0.0
 10
12.1382534266
 20
7.4572787675
 30
0.0
 10
12.1374255696
 20
7.4670573918
 30
0.0
 10
12.136467197
 20
7.4805344074
 30
0.0
 10
12.1355736554
 20
7.4978751503
 30
0.0
 10
12.1349855464
 20
7.5191966697
 30
0.0
 10
12.1348756005
 20
7.541089355
 30
0.0
 10
12.1352447002
 20
7.5634077991
 30
0.0
 10
12.136090533
 20
7.5860038729
 30
0.0
 10
12.1374075439
 20
7.6087275375
 30
0.0
 10
12.1391870241
 20
7.6314279062
 30
0.0
 10
12.1414171383
 20
7.6539542505
 30
0.0
 10
12.1440830025
 20
7.6761570032
 30
0.0
 10
12.1471667995
 20
7.6978888145
 30
0.0
 10
12.1506479195
 20
7.7190053603
 30
0.0
 10
12.1538908363
 20
7.7361341115
 30
0.0
 10
12.1566731098
 20
7.7494196217
 30
0.0
 10
12.158823879
 20
7.7590481249
 30
0.0
 10
12.1610551703
 20
7.7684209591
 30
0.0
 10
12.1633632733
 20
7.7775225774
 30
0.0
 10
12.1657443243
 20
7.7863378723
 30
0.0
 10
12.1681943687
 20
7.7948522156
 30
0.0
 10
12.1707093078
 20
7.8030514919
 30
0.0
 10
12.1732849369
 20
7.8109221173
 30
0.0
 10
12.1759169772
 20
7.8184510562
 30
0.0
 10
12.1786010261
 20
7.8256258632
 30
0.0
 10
12.1813326023
 20
7.8324346966
 30
0.0
 10
12.184107179
 20
7.8388663324
 30
0.0
 10
12.1869201333
 20
7.8449102112
 30
0.0
 10
12.1897668025
 20
7.8505564487
 30
0.0
 10
12.1926425239
 20
7.8557958476
 30
0.0
 10
12.1955426076
 20
7.8606199469
 30
0.0
 10
12.1984623521
 20
7.8650209981
 30
0.0
 10
12.201397324
 20
7.8689921619
 30
0.0
 10
12.2043427883
 20
7.872526826
 30
0.0
 10
12.2063843996
 20
7.8746659523
 30
0.0
 10
12.2074073544
 20
7.8756540508
 30
0.0
  0
SPLINE
  5
380
100
AcDbEntity
  8
0
100
AcDbSpline
 62
7
  6
CONTINUOUS
 70
0
 71
3
 72
19
 73
15
 74
0
 42
0.0000001
 43
0.0000001
 44
0.0000000001
 40
0.0
 40
0.0
 40
0.0
 40
0.0
 40
0.0641384225
 40
0.1280931286
 40
0.1918648762
 40
0.2554528522
 40
0.3820357661
 40
0.5078146936
 40
0.5703870813
 40
0.632715688
 40
0.6947789837
 40
0.7565513303
 40
0.8790663266
 40
1.0
 40
1.0
 40
1.0
 40
1.0
 10
10.4661847497
 20
7.8027055873
 30
0.0
 10
10.4659487493
 20
7.7999436736
 30
0.0
 10
10.4655887355
 20
7.7944175722
 30
0.0
 10
10.4653864216
 20
7.7861257338
 30
0.0
 10
10.4655229444
 20
7.7778560459
 30
0.0
 10
10.4661553192
 20
7.7668966431
 30
0.0
 10
10.4677864089
 20
7.7533226157
 30
0.0
 10
10.4705389659
 20
7.7399751653
 30
0.0
 10
10.4733998989
 20
7.7295227994
 30
0.0
 10
10.4758651616
 20
7.7218250156
 30
0.0
 10
10.478647994
 20
7.7142730562
 30
0.0
 10
10.4827609137
 20
7.7044495079
 30
0.0
 10
10.4886486867
 20
7.6926253319
 30
0.0
 10
10.494166076
 20
7.6836472587
 30
0.0
 10
10.4971024124
 20
7.6793234622
 30
0.0
  0
SPLINE
  5
381
100
AcDbEntity
  8
0
100
AcDbSpline
 62
7
  6
CONTINUOUS
 70
0
 71
3
 72
15
 73
11
 74
0
 42
0.0000001
 43
0.0000001
 44
0.0000000001
 40
0.0
 40
0.0
 40
0.0
 40
0.0
 40
0.1103752696
 40
0.2257718132
 40
0.3457976836
 40
0.4700348292
 40
0.5980424088
 40
0.7293598274
 40
0.863509585
 40
1.0
 40
1.0
 40
1.0
 40
1.0
 10
10.1251334424
 20
9.7835227744
 30
0.0
 10
10.1316806497
 20
9.7850367065
 30
0.0
 10
10.1451175538
 20
9.7879427947
 30
0.0
 10
10.1658028159
 20
9.7918716806
 30
0.0
 10
10.1874064385
 20
9.7954561978
 30
0.0
 10
10.2098422924
 20
9.7986818473
 30
0.0
 10
10.2330211518
 20
9.8015356329
 30
0.0
 10
10.2568507305
 20
9.8040060518
 30
0.0
 10
10.2812360195
 20
9.8060831528
 30
0.0
 10
10.2976770048
 20
9.8071918903
 30
0.0
 10
10.3059725529
 20
9.8076805629
 30
0.0
  0
SPLINE
  5
382
100
AcDbEntity
  8
0
100
AcDbSpline
 62
7
  6
CONTINUOUS
 70
0
 71
3
 72
14
 73
10
 74
0
 42
0.0000001
 43
0.0000001
 44
0.0000000001
 40
0.0
 40
0.0
 40
0.0
 40
0.0
 40
0.1188267098
 40
0.2399066261
 40
0.3630012931
 40
0.4878667525
 40
0.6142542423
 40
0.7419109577
 40
1.0
 40
1.0
 40
1.0
 40
1.0
 10
10.2157467547
 20
9.6662575985
 30
0.0
 10
10.2214603213
 20
9.6669895658
 30
0.0
 10
10.2330069515
 20
9.6683815524
 30
0.0
 10
10.2505059522
 20
9.6702402914
 30
0.0
 10
10.2683202243
 20
9.6718867188
 30
0.0
 10
10.2864111911
 20
9.6733172411
 30
0.0
 10
10.3047398157
 20
9.674528776
 30
0.0
 10
10.3295311539
 20
9.67585333
 30
0.0
 10
10.3482218267
 20
9.6765027889
 30
0.0
 10
10.3607297679
 20
9.676786773
 30
0.0
  0
SPLINE
  5
383
100
AcDbEntity
  8
0
100
AcDbSpline
 62
7
  6
CONTINUOUS
 70
0
 71
3
 72
37
 73
33
 74
0
 42
0.0000001
 43
0.0000001
 44
0.0000000001
 40
0.0
 40
0.0
 40
0.0
 40
0.0
 40
0.0639290678
 40
0.1274756213
 40
0.1591172255
 40
0.1906690341
 40
0.2221345216
 40
0.2535176954
 40
0.2848232533
 40
0.3160565193
 40
0.3472233842
 40
0.3783302827
 40
0.4093841414
 40
0.4403923168
 40
0.4713625396
 40
0.5023028594
 40
0.5332215732
 40
0.5641271532
 40
0.5950281832
 40
0.6259332883
 40
0.6568510564
 40
0.6877899677
 40
0.7187583305
 40
0.74976421
 40
0.7808153561
 40
0.8119191473
 40
0.8430825352
 40
0.8743119833
 40
0.9056134151
 40
0.9369921816
 40
0.9684530176
 40
1.0
 40
1.0
 40
1.0
 40
1.0
 10
10.4432771925
 20
7.2234454556
 30
0.0
 10
10.4518698047
 20
7.2228495559
 30
0.0
 10
10.4690636184
 20
7.2223977756
 30
0.0
 10
10.4904905082
 20
7.2237074726
 30
0.0
 10
10.507432771
 20
7.2258772176
 30
0.0
 10
10.5200028932
 20
7.2280580434
 30
0.0
 10
10.5324289285
 20
7.2307904797
 30
0.0
 10
10.5446878011
 20
7.2340694537
 30
0.0
 10
10.5567564264
 20
7.2378887815
 30
0.0
 10
10.5686121572
 20
7.2422413113
 30
0.0
 10
10.5802327029
 20
7.2471189252
 30
0.0
 10
10.5915962456
 20
7.2525124447
 30
0.0
 10
10.602681445
 20
7.2584117387
 30
0.0
 10
10.6134674571
 20
7.2648057697
 30
0.0
 10
10.6239340144
 20
7.2716825337
 30
0.0
 10
10.6340614708
 20
7.2790290904
 30
0.0
 10
10.6438307886
 20
7.2868316601
 30
0.0
 10
10.6532235904
 20
7.2950756116
 30
0.0
 10
10.6622222565
 20
7.3037454258
 30
0.0
 10
10.670809885
 20
7.3128248156
 30
0.0
 10
10.6789703122
 20
7.3222967516
 30
0.0
 10
10.6866882289
 20
7.332143418
 30
0.0
 10
10.6939491605
 20
7.3423463009
 30
0.0
 10
10.7007394488
 20
7.3528862484
 30
0.0
 10
10.7070463383
 20
7.3637434593
 30
0.0
 10
10.7128580274
 20
7.3748975147
 30
0.0
 10
10.7181636032
 20
7.3863274648
 30
0.0
 10
10.7229530812
 20
7.3980118571
 30
0.0
 10
10.7272175149
 20
7.4099287028
 30
0.0
 10
10.7309489372
 20
7.4220557046
 30
0.0
 10
10.7341402597
 20
7.4343697754
 30
0.0
 10
10.7359014492
 20
7.4426775975
 30
0.0
 10
10.7366904636
 20
7.4468540892
 30
0.0
  0
SPLINE
  5
384
100
AcDbEntity
  8
0
100
AcDbSpline
 62
7
  6
CONTINUOUS
 70
0
 71
3
 72
23
 73
19
 74
0
 42
0.0000001
 43
0.0000001
 44
0.0000000001
 40
0.0
 40
0.0
 40
0.0
 40
0.0
 40
0.0639782293
 40
0.1275901188
 40
0.190847892
 40
0.2537718981
 40
0.3163926739
 40
0.3787494904
 40
0.440889377
 40
0.5028658331
 40
0.5647372676
 40
0.6265652661
 40
0.6884127366
 40
0.7503419919
 40
0.8124128679
 40
0.8746809323
 40
0.9371958526
 40
1.0
 40
1.0
 40
1.0
 40
1.0
 10
10.4707119887
 20
7.2717087071
 30
0.0
 10
10.4783281875
 20
7.2711805219
 30
0.0
 10
10.4935680243
 20
7.2707514038
 30
0.0
 10
10.516332476
 20
7.272010546
 30
0.0
 10
10.5387874027
 20
7.2751655328
 30
0.0
 10
10.5607767021
 20
7.2801954462
 30
0.0
 10
10.5821497719
 20
7.2870660727
 30
0.0
 10
10.6027595273
 20
7.2957306036
 30
0.0
 10
10.6224641827
 20
7.3061298582
 30
0.0
 10
10.6411280959
 20
7.31819256
 30
0.0
 10
10.658622783
 20
7.3318358824
 30
0.0
 10
10.6748277671
 20
7.3469660834
 30
0.0
 10
10.6896315216
 20
7.363479039
 30
0.0
 10
10.7029322816
 20
7.3812610831
 30
0.0
 10
10.7146386129
 20
7.4001896513
 30
0.0
 10
10.724670362
 20
7.4201349718
 30
0.0
 10
10.7329583633
 20
7.4409576806
 30
0.0
 10
10.7372740746
 20
7.4552984399
 30
0.0
 10
10.7391254898
 20
7.4625605422
 30
0.0
  0
SPLINE
  5
385
100
AcDbEntity
  8
0
100
AcDbSpline
 62
7
  6
CONTINUOUS
 70
0
 71
3
 72
23
 73
19
 74
0
 42
0.0000001
 43
0.0000001
 44
0.0000000001
 40
0.0
 40
0.0
 40
0.0
 40
0.0
 40
0.0638611429
 40
0.1275033697
 40
0.1909230193
 40
0.2541276602
 40
0.3171224166
 40
0.3799159195
 40
0.4425188183
 40
0.5049436681
 40
0.5672049987
 40
0.6293190785
 40
0.6913037901
 40
0.7531784362
 40
0.8149635271
 40
0.8766805602
 40
0.9383517934
 40
1.0
 40
1.0
 40
1.0
 40
1.0
 10
10.4789861691
 20
7.310580641
 30
0.0
 10
10.4830896472
 20
7.3102960638
 30
0.0
 10
10.4912982082
 20
7.3099320534
 30
0.0
 10
10.5036004238
 20
7.3100053432
 30
0.0
 10
10.5158413141
 20
7.3106988262
 30
0.0
 10
10.5279894766
 20
7.312010635
 30
0.0
 10
10.5400145889
 20
7.3139376266
 30
0.0
 10
10.551886288
 20
7.3164749357
 30
0.0
 10
10.5635747021
 20
7.3196161923
 30
0.0
 10
10.5750503914
 20
7.3233535244
 30
0.0
 10
10.5862844405
 20
7.3276775628
 30
0.0
 10
10.5972485431
 20
7.332577448
 30
0.0
 10
10.6079150794
 20
7.3380408377
 30
0.0
 10
10.6182571784
 20
7.344053994
 30
0.0
 10
10.628248746
 20
7.350601773
 30
0.0
 10
10.6378646783
 20
7.3576677862
 30
0.0
 10
10.6470804207
 20
7.3652339113
 30
0.0
 10
10.6529431687
 20
7.3705997894
 30
0.0
 10
10.6557991767
 20
7.373358494
 30
0.0
  0
SPLINE
  5
386
100
AcDbEntity
  8
0
100
AcDbSpline
 62
7
  6
CONTINUOUS
 70
0
 71
3
 72
46
 73
42
 74
0
 42
0.0000001
 43
0.0000001
 44
0.0000000001
 40
0.0
 40
0.0
 40
0.0
 40
0.0
 40
0.0064812122
 40
0.0130000076
 40
0.0195932715
 40
0.0262965408
 40
0.0331434334
 40
0.0401653198
 40
0.0548395295
 40
0.062548329
 40
0.0705311576
 40
0.0788062809
 40
0.0873896937
 40
0.0962951371
 40
0.1055344775
 40
0.1151178306
 40
0.1250536192
 40
0.1353489474
 40
0.1460095935
 40
0.1684422289
 40
0.192378937
 40
0.2178311543
 40
0.2447990338
 40
0.273273407
 40
0.3032372166
 40
0.3346665149
 40
0.367531378
 40
0.4017966883
 40
0.4374226543
 40
0.4743652015
 40
0.5125764803
 40
0.5520052144
 40
0.5925969097
 40
0.6342941429
 40
0.6770368797
 40
0.7207626459
 40
0.7654066226
 40
0.810902145
 40
0.8571804972
 40
0.9041708165
 40
1.0
 40
1.0
 40
1.0
 40
1.0
 10
10.8267963217
 20
10.3518356424
 30
0.0
 10
10.8267963188
 20
10.35259582
 30
0.0
 10
10.8267358643
 20
10.354121263
 30
0.0
 10
10.8264642326
 20
10.356405476
 30
0.0
 10
10.826011736
 20
10.3586874714
 30
0.0
 10
10.8253787305
 20
10.3609659064
 30
0.0
 10
10.8245656691
 20
10.3632398928
 30
0.0
 10
10.8232228099
 20
10.3663089035
 30
0.0
 10
10.8215279295
 20
10.3693246272
 30
0.0
 10
10.8195246028
 20
10.3722707141
 30
0.0
 10
10.8178203082
 20
10.3745079818
 30
0.0
 10
10.81594003
 20
10.3767351193
 30
0.0
 10
10.8138844268
 20
10.3789514775
 30
0.0
 10
10.8116544531
 20
10.3811561795
 30
0.0
 10
10.809251017
 20
10.3833483733
 30
0.0
 10
10.8066751065
 20
10.3855271763
 30
0.0
 10
10.8039278174
 20
10.3876917586
 30
0.0
 10
10.8010102537
 20
10.3898412524
 30
0.0
 10
10.7968233741
 20
10.3927351751
 30
0.0
 10
10.7911601162
 20
10.3963012307
 30
0.0
 10
10.7838176257
 20
10.4004361577
 30
0.0
 10
10.7758290006
 20
10.4044900505
 30
0.0
 10
10.7672074176
 20
10.4084562695
 30
0.0
 10
10.757966877
 20
10.4123283156
 30
0.0
 10
10.7481225608
 20
10.4160997429
 30
0.0
 10
10.7376907036
 20
10.4197642658
 30
0.0
 10
10.7266885784
 20
10.4233157576
 30
0.0
 10
10.7151344356
 20
10.4267482538
 30
0.0
 10
10.7030474789
 20
10.4300559775
 30
0.0
 10
10.6904478359
 20
10.4332333818
 30
0.0
 10
10.6773565056
 20
10.4362751246
 30
0.0
 10
10.6637953176
 20
10.4391760791
 30
0.0
 10
10.6497869055
 20
10.4419313691
 30
0.0
 10
10.6353546633
 20
10.4445363704
 30
0.0
 10
10.6205226944
 20
10.4469866988
 30
0.0
 10
10.6053157825
 20
10.4492782237
 30
0.0
 10
10.5897593321
 20
10.4514071106
 30
0.0
 10
10.5738793596
 20
10.4533697725
 30
0.0
 10
10.5577024213
 20
10.455162919
 30
0.0
 10
10.5356297571
 20
10.4573378199
 30
0.0
 10
10.5189306474
 20
10.4586829484
 30
0.0
 10
10.5077178298
 20
10.45946056
 30
0.0
  0
SPLINE
  5
387
100
AcDbEntity
  8
0
100
AcDbSpline
 62
7
  6
CONTINUOUS
 70
0
 71
3
 72
77
 73
73
 74
0
 42
0.0000001
 43
0.0000001
 44
0.0000000001
 40
0.0
 40
0.0
 40
0.0
 40
0.0
 40
0.0038706026
 40
0.007897555
 40
0.0120841512
 40
0.0164331819
 40
0.020947023
 40
0.025627568
 40
0.0304761145
 40
0.0354935354
 40
0.0406803421
 40
0.0460366756
 40
0.0572566241
 40
0.0691495001
 40
0.0817069872
 40
0.0949175162
 40
0.1087666891
 40
0.123237611
 40
0.1383111867
 40
0.1539663533
 40
0.1701802692
 40
0.1869284637
 40
0.2041849812
 40
0.2219225225
 40
0.2401125583
 40
0.2587254303
 40
0.2777304402
 40
0.2970959575
 40
0.3167895122
 40
0.3367778793
 40
0.3570271563
 40
0.3981693121
 40
0.4399351608
 40
0.4820376681
 40
0.5241868512
 40
0.566092315
 40
0.6074658067
 40
0.6278645245
 40
0.6480244266
 40
0.6679112272
 40
0.6874912561
 40
0.7067315404
 40
0.725599898
 40
0.7440650306
 40
0.7620966053
 40
0.7796653479
 40
0.7967431466
 40
0.813303177
 40
0.8293200099
 40
0.8447697371
 40
0.8596301189
 40
0.8738807709
 40
0.8875033714
 40
0.9004818891
 40
0.9128028812
 40
0.9244558733
 40
0.9354338586
 40
0.940668945
 40
0.9457345533
 40
0.9506311149
 40
0.9553593999
 40
0.9599205869
 40
0.9643163518
 40
0.9685488337
 40
0.9726207945
 40
0.9765356312
 40
0.9802974531
 40
0.9839112367
 40
0.9873828354
 40
0.9907191586
 40
0.993928254
 40
1.0
 40
1.0
 40
1.0
 40
1.0
 10
12.1764977254
 20
8.4602509486
 30
0.0
 10
12.1774260586
 20
8.4611476497
 30
0.0
 10
12.1792818083
 20
8.4630173951
 30
0.0
 10
12.1820098126
 20
8.4659842526
 30
0.0
 10
12.1847351989
 20
8.469166667
 30
0.0
 10
12.1874565913
 20
8.4725630573
 30
0.0
 10
12.190172847
 20
8.4761718809
 30
0.0
 10
12.1928827411
 20
8.4799915605
 30
0.0
 10
12.1955851065
 20
8.4840203602
 30
0.0
 10
12.1982786938
 20
8.4882564531
 30
0.0
 10
12.2009622774
 20
8.4926979219
 30
0.0
 10
12.204581537
 20
8.4989886464
 30
0.0
 10
12.2090632917
 20
8.5073603098
 30
0.0
 10
12.2143022119
 20
8.5180413941
 30
0.0
 10
12.2194723998
 20
8.5294882329
 30
0.0
 10
12.2245643558
 20
8.5416799411
 30
0.0
 10
12.2295687178
 20
8.5545944273
 30
0.0
 10
12.2344762696
 20
8.5682081416
 30
0.0
 10
12.2392779609
 20
8.5824962265
 30
0.0
 10
12.2439649296
 20
8.5974325527
 30
0.0
 10
12.2485285187
 20
8.6129897779
 30
0.0
 10
12.2529603042
 20
8.6291393919
 30
0.0
 10
12.2572521108
 20
8.6458517756
 30
0.0
 10
12.261396018
 20
8.6630962656
 30
0.0
 10
12.2653843785
 20
8.6808412145
 30
0.0
 10
12.26920983
 20
8.6990540456
 30
0.0
 10
12.2728653222
 20
8.7177013099
 30
0.0
 10
12.2763441184
 20
8.7367487563
 30
0.0
 10
12.279639799
 20
8.7561613892
 30
0.0
 10
12.282746311
 20
8.7759035719
 30
0.0
 10
12.2866488984
 20
8.8027588476
 30
0.0
 10
12.2910068321
 20
8.8368836391
 30
0.0
 10
12.2953739152
 20
8.8783433761
 30
0.0
 10
12.2988733929
 20
8.9202223644
 30
0.0
 10
12.3014795609
 20
8.9622130551
 30
0.0
 10
12.3031732423
 20
9.0040070854
 30
0.0
 10
12.3038171721
 20
9.0385764928
 30
0.0
 10
12.3038601941
 20
9.0658979739
 30
0.0
 10
12.3036585273
 20
9.0860535243
 30
0.0
 10
12.303223542
 20
9.1059323211
 30
0.0
 10
12.3025560342
 20
9.1254978675
 30
0.0
 10
12.3016572505
 20
9.1447142059
 30
0.0
 10
12.300528863
 20
9.1635460359
 30
0.0
 10
12.2991729769
 20
9.1819587684
 30
0.0
 10
12.2975921136
 20
9.1999185904
 30
0.0
 10
12.2957892098
 20
9.2173925239
 30
0.0
 10
12.2937676098
 20
9.2343484926
 30
0.0
 10
12.2915310754
 20
9.2507553876
 30
0.0
 10
12.2890837649
 20
9.2665831249
 30
0.0
 10
12.2864302257
 20
9.2818026978
 30
0.0
 10
12.2835753824
 20
9.2963862363
 30
0.0
 10
12.2805245354
 20
9.3103070697
 30
0.0
 10
12.277283352
 20
9.3235397936
 30
0.0
 10
12.273857839
 20
9.3360602929
 30
0.0
 10
12.270254321
 20
9.347845887
 30
0.0
 10
12.2664794299
 20
9.3588750787
 30
0.0
 10
12.263145918
 20
9.3675516488
 30
0.0
 10
12.2603905641
 20
9.3740909315
 30
0.0
 10
12.2583182774
 20
9.3787160332
 30
0.0
 10
12.2562084438
 20
9.38313762
 30
0.0
 10
12.2540619823
 20
9.3873536929
 30
0.0
 10
12.251879842
 20
9.3913623298
 30
0.0
 10
12.2496630423
 20
9.3951617402
 30
0.0
 10
12.2474125173
 20
9.398750188
 30
0.0
 10
12.2451292834
 20
9.4021260684
 30
0.0
 10
12.2428143345
 20
9.405287869
 30
0.0
 10
12.2404686283
 20
9.4082341283
 30
0.0
 10
12.2380931763
 20
9.4109635661
 30
0.0
 10
12.2356890178
 20
9.4134748263
 30
0.0
 10
12.2332567882
 20
9.4157669883
 30
0.0
 10
12.2300384535
 20
9.4184786829
 30
0.0
 10
12.2274955693
 20
9.4202623207
 30
0.0
 10
12.2257592211
 20
9.4213036763
 30
0.0
  0
SPLINE
  5
388
100
AcDbEntity
  8
0
100
AcDbSpline
 62
7
  6
CONTINUOUS
 70
0
 71
3
 72
11
 73
7
 74
0
 42
0.0000001
 43
0.0000001
 44
0.0000000001
 40
0.0
 40
0.0
 40
0.0
 40
0.0
 40
0.2753135921
 40
0.5326610546
 40
0.7735605812
 40
1.0
 40
1.0
 40
1.0
 40
1.0
 10
12.1764977254
 20
8.4602509486
 30
0.0
 10
12.1750164071
 20
8.4588201049
 30
0.0
 10
12.1720561187
 20
8.456146587
 30
0.0
 10
12.1674616312
 20
8.4526171838
 30
0.0
 10
12.1628736013
 20
8.4497146432
 30
0.0
 10
12.1597339249
 20
8.4481577967
 30
0.0
 10
12.1581739864
 20
8.447497554
 30
0.0
  0
SPLINE
  5
389
100
AcDbEntity
  8
0
100
AcDbSpline
 62
7
  6
CONTINUOUS
 70
0
 71
3
 72
19
 73
15
 74
0
 42
0.0000001
 43
0.0000001
 44
0.0000000001
 40
0.0
 40
0.0
 40
0.0
 40
0.0
 40
0.1528795208
 40
0.2945793324
 40
0.4262315104
 40
0.5493503634
 40
0.6083254411
 40
0.665912816
 40
0.7224099102
 40
0.7781332482
 40
0.8334138109
 40
0.8885914131
 40
0.9440077679
 40
1.0
 40
1.0
 40
1.0
 40
1.0
 10
12.1764977254
 20
8.6370153853
 30
0.0
 10
12.1754536614
 20
8.6360068968
 30
0.0
 10
12.1733674515
 20
8.6341380614
 30
0.0
 10
12.1701147697
 20
8.63171928
 30
0.0
 10
12.1668665359
 20
8.6298010896
 30
0.0
 10
12.1641267041
 20
8.6286075682
 30
0.0
 10
12.1619544681
 20
8.6279231658
 30
0.0
 10
12.1603538071
 20
8.6275448044
 30
0.0
 10
12.1587594036
 20
8.6272944479
 30
0.0
 10
12.1571719762
 20
8.6271722821
 30
0.0
 10
12.1555923632
 20
8.6271785085
 30
0.0
 10
12.1540213746
 20
8.6273131217
 30
0.0
 10
12.152459965
 20
8.6275759956
 30
0.0
 10
12.1514329729
 20
8.627834904
 30
0.0
 10
12.1509228692
 20
8.6279847111
 30
0.0
  0
SPLINE
  5
38A
100
AcDbEntity
  8
0
100
AcDbSpline
 62
7
  6
CONTINUOUS
 70
0
 71
3
 72
79
 73
75
 74
0
 42
0.0000001
 43
0.0000001
 44
0.0000000001
 40
0.0
 40
0.0
 40
0.0
 40
0.0
 40
0.0040392313
 40
0.0082525338
 40
0.0126437201
 40
0.0172159436
 40
0.021971843
 40
0.0269134965
 40
0.0320422903
 40
0.0373590327
 40
0.0485568756
 40
0.060506245
 40
0.0732001109
 40
0.0866269065
 40
0.1007712141
 40
0.1156142552
 40
0.131134351
 40
0.1473072548
 40
0.1641063907
 40
0.1815030749
 40
0.199466751
 40
0.2179651586
 40
0.2369644596
 40
0.2564293865
 40
0.2763234022
 40
0.2966088188
 40
0.3172468945
 40
0.3381979633
 40
0.380875756
 40
0.4243116087
 40
0.4681664489
 40
0.5120970243
 40
0.5557593335
 40
0.5988120402
 40
0.6409199204
 40
0.6615177502
 40
0.6817582301
 40
0.701602735
 40
0.7210136901
 40
0.7399547143
 40
0.7583907213
 40
0.776288043
 40
0.7936145951
 40
0.8103400535
 40
0.8264359952
 40
0.8418760902
 40
0.856636367
 40
0.8706954996
 40
0.8840351069
 40
0.8966401721
 40
0.9084996274
 40
0.9196070533
 40
0.9248786363
 40
0.9299624335
 40
0.9348593921
 40
0.9395710558
 40
0.9440994932
 40
0.9484474773
 40
0.952618565
 40
0.9566171123
 40
0.9604485183
 40
0.964119263
 40
0.9676370441
 40
0.9710110106
 40
0.9742517935
 40
0.9773716985
 40
0.9803848017
 40
0.9833069156
 40
0.9861556011
 40
0.9889499514
 40
0.9917102944
 40
0.9944577977
 40
0.9972139422
 40
1.0
 40
1.0
 40
1.0
 40
1.0
 10
12.1764977254
 20
8.6370153853
 30
0.0
 10
12.1771201363
 20
8.6376165881
 30
0.0
 10
12.1783642563
 20
8.6388736599
 30
0.0
 10
12.1801906838
 20
8.6408749056
 30
0.0
 10
12.1820151304
 20
8.6430298741
 30
0.0
 10
12.1838365287
 20
8.645337354
 30
0.0
 10
12.1856540174
 20
8.6477961411
 30
0.0
 10
12.1874666645
 20
8.6504050188
 30
0.0
 10
12.1892735957
 20
8.6531626544
 30
0.0
 10
12.1917162927
 20
8.6571043826
 30
0.0
 10
12.1947418558
 20
8.6624014652
 30
0.0
 10
12.1982747472
 20
8.6692209741
 30
0.0
 10
12.2017627298
 20
8.6765953236
 30
0.0
 10
12.2051985317
 20
8.6845092803
 30
0.0
 10
12.2085749883
 20
8.692946613
 30
0.0
 10
12.2118850399
 20
8.7018898724
 30
0.0
 10
12.2151217469
 20
8.7113205332
 30
0.0
 10
12.2182783109
 20
8.7212190205
 30
0.0
 10
12.221348103
 20
8.7315647528
 30
0.0
 10
12.2243246868
 20
8.7423361875
 30
0.0
 10
12.2272018137
 20
8.7535108826
 30
0.0
 10
12.2299734388
 20
8.7650655459
 30
0.0
 10
12.2326337467
 20
8.7769760773
 30
0.0
 10
12.2351771636
 20
8.7892176208
 30
0.0
 10
12.2375983567
 20
8.8017646293
 30
0.0
 10
12.2398922375
 20
8.8145909088
 30
0.0
 10
12.2420540212
 20
8.8276696982
 30
0.0
 10
12.2447707871
 20
8.8455176669
 30
0.0
 10
12.2477986707
 20
8.8682567209
 30
0.0
 10
12.2508197982
 20
8.8959389399
 30
0.0
 10
12.2532250538
 20
8.9239508793
 30
0.0
 10
12.2549943181
 20
8.9520587319
 30
0.0
 10
12.2561128716
 20
8.9800280901
 30
0.0
 10
12.2565714629
 20
9.0076255003
 30
0.0
 10
12.2563995994
 20
9.0302848612
 30
0.0
 10
12.2559219552
 20
9.0480490653
 30
0.0
 10
12.255400697
 20
9.0610395622
 30
0.0
 10
12.2547149707
 20
9.0737677872
 30
0.0
 10
12.2538662038
 20
9.0862071882
 30
0.0
 10
12.2528562069
 20
9.0983317969
 30
0.0
 10
12.251687117
 20
9.1101163151
 30
0.0
 10
12.2503614022
 20
9.1215361559
 30
0.0
 10
12.2488818626
 20
9.1325675063
 30
0.0
 10
12.2472516363
 20
9.1431873821
 30
0.0
 10
12.2454741723
 20
9.1533736717
 30
0.0
 10
12.2435532219
 20
9.1631051842
 30
0.0
 10
12.2414928436
 20
9.1723617075
 30
0.0
 10
12.2392973963
 20
9.1811240683
 30
0.0
 10
12.2369715074
 20
9.1893741478
 30
0.0
 10
12.234520047
 20
9.1970950138
 30
0.0
 10
12.2319481354
 20
9.2042707068
 30
0.0
 10
12.2296709502
 20
9.2098779476
 30
0.0
 10
12.2277866182
 20
9.2140727171
 30
0.0
 10
12.226371282
 20
9.2170183555
 30
0.0
 10
12.2249298929
 20
9.2198170924
 30
0.0
 10
12.2234632056
 20
9.2224675147
 30
0.0
 10
12.2219719362
 20
9.2249682514
 30
0.0
 10
12.2204568273
 20
9.2273180215
 30
0.0
 10
12.2189186587
 20
9.2295156449
 30
0.0
 10
12.217358131
 20
9.2315599703
 30
0.0
 10
12.2157760179
 20
9.2334499662
 30
0.0
 10
12.2141730623
 20
9.2351846601
 30
0.0
 10
12.2125499591
 20
9.2367630984
 30
0.0
 10
12.2109074827
 20
9.2381844591
 30
0.0
 10
12.2092463369
 20
9.2394478989
 30
0.0
 10
12.20756726
 20
9.2405526151
 30
0.0
 10
12.2058710615
 20
9.2414979013
 30
0.0
 10
12.2041585386
 20
9.2422829711
 30
0.0
 10
12.2024306325
 20
9.2429071763
 30
0.0
 10
12.2006883635
 20
9.2433699408
 30
0.0
 10
12.1989328602
 20
9.2436707164
 30
0.0
 10
12.1971653137
 20
9.2438092656
 30
0.0
 10
12.1953871549
 20
9.2437854713
 30
0.0
 10
12.1942043506
 20
9.2436623348
 30
0.0
 10
12.1936139249
 20
9.2435748055
 30
0.0
  0
SPLINE
  5
38B
100
AcDbEntity
  8
0
100
AcDbSpline
 62
7
  6
CONTINUOUS
 70
0
 71
3
 72
37
 73
33
 74
0
 42
0.0000001
 43
0.0000001
 44
0.0000000001
 40
0.0
 40
0.0
 40
0.0
 40
0.0
 40
0.0246577498
 40
0.0505244833
 40
0.0775425698
 40
0.1056492404
 40
0.1347771459
 40
0.1648548379
 40
0.1958071993
 40
0.2275558371
 40
0.2600194445
 40
0.2931141549
 40
0.3267538871
 40
0.3608506727
 40
0.3953149768
 40
0.4300560139
 40
0.4999992176
 40
0.569942444
 40
0.6046835148
 40
0.6391478696
 40
0.6732447175
 40
0.706884519
 40
0.7399793067
 40
0.7724430038
 40
0.8041917508
 40
0.8351442419
 40
0.865222074
 40
0.894350119
 40
0.9224569298
 40
0.9494751642
 40
0.9753420622
 40
1.0
 40
1.0
 40
1.0
 40
1.0
 10
12.1063617081
 20
8.7245835481
 30
0.0
 10
12.1075747347
 20
8.7279422683
 30
0.0
 10
12.1099611079
 20
8.734860505
 30
0.0
 10
12.1133522239
 20
8.7455674334
 30
0.0
 10
12.1166335084
 20
8.7568297358
 30
0.0
 10
12.1197956024
 20
8.7686156545
 30
0.0
 10
12.1228295387
 20
8.7808920763
 30
0.0
 10
12.1257267019
 20
8.7936244371
 30
0.0
 10
12.1284788721
 20
8.8067768805
 30
0.0
 10
12.1310782418
 20
8.8203123462
 30
0.0
 10
12.1335174421
 20
8.834192681
 30
0.0
 10
12.1357895622
 20
8.8483787475
 30
0.0
 10
12.1378881686
 20
8.8628305422
 30
0.0
 10
12.1398073131
 20
8.8775072981
 30
0.0
 10
12.1415415889
 20
8.8923676446
 30
0.0
 10
12.143605346
 20
8.9124143808
 30
0.0
 10
12.1456887084
 20
8.9376220102
 30
0.0
 10
12.1471049091
 20
8.9628759128
 30
0.0
 10
12.1478281336
 20
8.9830156322
 30
0.0
 10
12.1481617643
 20
8.9979731366
 30
0.0
 10
12.1482869515
 20
9.0127743321
 30
0.0
 10
12.1482033391
 20
9.0273774965
 30
0.0
 10
12.1479111931
 20
9.0417414322
 30
0.0
 10
12.1474113647
 20
9.0558256323
 30
0.0
 10
12.1467052981
 20
9.069590382
 30
0.0
 10
12.1457950247
 20
9.0829968762
 30
0.0
 10
12.1446831584
 20
9.0960073284
 30
0.0
 10
12.1433728883
 20
9.1085850878
 30
0.0
 10
12.1418679772
 20
9.1206947315
 30
0.0
 10
12.1401727397
 20
9.1323022287
 30
0.0
 10
12.1382920541
 20
9.1433748359
 30
0.0
 10
12.1368835277
 20
9.1505563105
 30
0.0
 10
12.1361457407
 20
9.1540503483
 30
0.0
  0
SPLINE
  5
38C
100
AcDbEntity
  8
0
100
AcDbSpline
 62
7
  6
CONTINUOUS
 70
0
 71
3
 72
15
 73
11
 74
0
 42
0.0000001
 43
0.0000001
 44
0.0000000001
 40
0.0
 40
0.0
 40
0.0
 40
0.0
 40
0.1217236304
 40
0.2462438056
 40
0.3726437035
 40
0.4999886223
 40
0.6273349796
 40
0.753739171
 40
0.8782664908
 40
1.0
 40
1.0
 40
1.0
 40
1.0
 10
12.0965886009
 20
8.8521314506
 30
0.0
 10
12.097749878
 20
8.8592408591
 30
0.0
 10
12.0999167024
 20
8.8736533576
 30
0.0
 10
12.1026778827
 20
8.8955348233
 30
0.0
 10
12.1049728441
 20
8.9178046072
 30
0.0
 10
12.1067833541
 20
8.9402867216
 30
0.0
 10
12.1080950705
 20
8.962803699
 30
0.0
 10
12.1088976779
 20
8.9851777925
 30
0.0
 10
12.1091849524
 20
9.0072321744
 30
0.0
 10
12.1090293951
 20
9.0218068236
 30
0.0
 10
12.1088611242
 20
9.0290090706
 30
0.0
  0
SPLINE
  5
38D
100
AcDbEntity
  8
0
100
AcDbSpline
 62
7
  6
CONTINUOUS
 70
0
 71
3
 72
55
 73
51
 74
0
 42
0.0000001
 43
0.0000001
 44
0.0000000001
 40
0.0
 40
0.0
 40
0.0
 40
0.0
 40
0.0528987923
 40
0.1050252447
 40
0.1562616162
 40
0.2064949455
 40
0.2556141677
 40
0.3035122725
 40
0.3500860349
 40
0.3952367117
 40
0.4388704592
 40
0.4808988931
 40
0.5212396918
 40
0.5598172953
 40
0.5965637214
 40
0.6314195591
 40
0.6481232272
 40
0.6643365125
 40
0.6800550856
 40
0.6952753162
 40
0.7099946017
 40
0.7242112683
 40
0.7379247876
 40
0.7511358803
 40
0.7638465891
 40
0.776060606
 40
0.7877832444
 40
0.7990219431
 40
0.8097862519
 40
0.8200884083
 40
0.8299434749
 40
0.8393698842
 40
0.8483897976
 40
0.8570295393
 40
0.8732865042
 40
0.8809916405
 40
0.8884709119
 40
0.8957755199
 40
0.9029607929
 40
0.9100851613
 40
0.9172086928
 40
0.9243914839
 40
0.931692015
 40
0.9391657507
 40
0.9468639634
 40
0.9631035924
 40
0.9717332373
 40
0.9807422332
 40
0.990157064
 40
1.0
 40
1.0
 40
1.0
 40
1.0
 10
10.5171647232
 20
10.5038418762
 30
0.0
 10
10.5245416196
 20
10.5033302867
 30
0.0
 10
10.5391810463
 20
10.5022154458
 30
0.0
 10
10.5609368403
 20
10.5002522133
 30
0.0
 10
10.5822915228
 20
10.498013822
 30
0.0
 10
10.6031929257
 20
10.4955058032
 30
0.0
 10
10.6235902413
 20
10.4927342802
 30
0.0
 10
10.6434337635
 20
10.48970607
 30
0.0
 10
10.6626752062
 20
10.4864285984
 30
0.0
 10
10.6812677489
 20
10.4829099156
 30
0.0
 10
10.6991661802
 20
10.4791586624
 30
0.0
 10
10.7163270126
 20
10.4751840538
 30
0.0
 10
10.7327085792
 20
10.4709958538
 30
0.0
 10
10.7482712216
 20
10.4666043505
 30
0.0
 10
10.7629771401
 20
10.4620203203
 30
0.0
 10
10.7746486551
 20
10.4579941604
 30
0.0
 10
10.7835232791
 20
10.4546771955
 30
0.0
 10
10.7898485882
 20
10.452183686
 30
0.0
 10
10.7959341645
 20
10.4496506232
 30
0.0
 10
10.8017763211
 20
10.4470794784
 30
0.0
 10
10.8073715305
 20
10.4444718528
 30
0.0
 10
10.8127164094
 20
10.4418293047
 30
0.0
 10
10.817807734
 20
10.4391534317
 30
0.0
 10
10.8226424481
 20
10.4364458612
 30
0.0
 10
10.8272176329
 20
10.4337081779
 30
0.0
 10
10.8315305705
 20
10.430942062
 30
0.0
 10
10.835578652
 20
10.4281490831
 30
0.0
 10
10.8393594959
 20
10.4253309394
 30
0.0
 10
10.8428708123
 20
10.4224891899
 30
0.0
 10
10.846110528
 20
10.4196255109
 30
0.0
 10
10.8490766916
 20
10.416741425
 30
0.0
 10
10.8517674244
 20
10.4138386579
 30
0.0
 10
10.854181315
 20
10.4109183048
 30
0.0
 10
10.8569710798
 20
10.4070825734
 30
0.0
 10
10.8592835236
 20
10.4031328157
 30
0.0
 10
10.8610349468
 20
10.399097115
 30
0.0
 10
10.8620411765
 20
10.3961145471
 30
0.0
 10
10.862761992
 20
10.3931250075
 30
0.0
 10
10.8631964778
 20
10.3901305065
 30
0.0
 10
10.8633440369
 20
10.387133483
 30
0.0
 10
10.8632044421
 20
10.3841364221
 30
0.0
 10
10.8627778723
 20
10.3811418238
 30
0.0
 10
10.8620650185
 20
10.3781521059
 30
0.0
 10
10.8610666338
 20
10.3751693299
 30
0.0
 10
10.8593260368
 20
10.3711334745
 30
0.0
 10
10.8570239785
 20
10.3671831322
 30
0.0
 10
10.8542442233
 20
10.3633467569
 30
0.0
 10
10.8518380288
 20
10.3604259249
 30
0.0
 10
10.8491550033
 20
10.3575227116
 30
0.0
 10
10.8472265828
 20
10.3556424989
 30
0.0
 10
10.8462193347
 20
10.3547051526
 30
0.0
  0
SPLINE
  5
38E
100
AcDbEntity
  8
0
100
AcDbSpline
 62
7
  6
CONTINUOUS
 70
0
 71
3
 72
53
 73
49
 74
0
 42
0.0000001
 43
0.0000001
 44
0.0000000001
 40
0.0
 40
0.0
 40
0.0
 40
0.0
 40
0.0083901661
 40
0.0173439498
 40
0.0268686935
 40
0.0369669647
 40
0.0476378642
 40
0.0588775821
 40
0.0706796536
 40
0.0830354893
 40
0.0959344068
 40
0.109364142
 40
0.1233107386
 40
0.1377589302
 40
0.1526921245
 40
0.1680925514
 40
0.200217984
 40
0.233974145
 40
0.2691853768
 40
0.3056645326
 40
0.343214818
 40
0.3816315076
 40
0.4207035882
 40
0.4602153562
 40
0.4999479908
 40
0.5396811126
 40
0.5791943391
 40
0.6182688398
 40
0.6566888941
 40
0.6942434642
 40
0.7307277928
 40
0.7659450455
 40
0.7997080279
 40
0.8318410299
 40
0.84724551
 40
0.8621829052
 40
0.8766354646
 40
0.8905865563
 40
0.9040209255
 40
0.9169245893
 40
0.9292852689
 40
0.941092279
 40
0.9523369944
 40
0.9630129549
 40
0.973116262
 40
0.982646074
 40
0.9916049845
 40
1.0
 40
1.0
 40
1.0
 40
1.0
 10
12.1445167703
 20
7.4101200109
 30
0.0
 10
12.1452393569
 20
7.4110039968
 30
0.0
 10
12.1466789145
 20
7.4128760503
 30
0.0
 10
12.1487597853
 20
7.4158839789
 30
0.0
 10
12.1508288405
 20
7.4191779585
 30
0.0
 10
12.1528830601
 20
7.4227531686
 30
0.0
 10
12.1549194839
 20
7.4266045069
 30
0.0
 10
12.1569351225
 20
7.4307263847
 30
0.0
 10
12.1589270493
 20
7.4351128036
 30
0.0
 10
12.1608922781
 20
7.4397573669
 30
0.0
 10
12.1628279505
 20
7.4446532577
 30
0.0
 10
12.164731151
 20
7.4497932953
 30
0.0
 10
12.1665990942
 20
7.4551699127
 30
0.0
 10
12.1684289793
 20
7.4607751919
 30
0.0
 10
12.1702181177
 20
7.4666008742
 30
0.0
 10
12.1725790134
 20
7.4747661824
 30
0.0
 10
12.1754002446
 20
7.4854630615
 30
0.0
 10
12.1785373342
 20
7.498858927
 30
0.0
 10
12.1814531195
 20
7.5129102356
 30
0.0
 10
12.1841302066
 20
7.5275340008
 30
0.0
 10
12.1865526086
 20
7.542643942
 30
0.0
 10
12.1887058878
 20
7.558150808
 30
0.0
 10
12.1905772238
 20
7.5739629789
 30
0.0
 10
12.1921554908
 20
7.5899870017
 30
0.0
 10
12.1934313203
 20
7.6061281562
 30
0.0
 10
12.194397157
 20
7.622291021
 30
0.0
 10
12.1950473047
 20
7.6383800442
 30
0.0
 10
12.1953779583
 20
7.6543001164
 30
0.0
 10
12.1953872288
 20
7.6699571377
 30
0.0
 10
12.1950751581
 20
7.6852585873
 30
0.0
 10
12.1944437172
 20
7.7001140645
 30
0.0
 10
12.1934968211
 20
7.7144358944
 30
0.0
 10
12.1922402346
 20
7.7281394687
 30
0.0
 10
12.1909236898
 20
7.7391260416
 30
0.0
 10
12.1897133933
 20
7.7475413773
 30
0.0
 10
12.1887461671
 20
7.753560098
 30
0.0
 10
12.1877081564
 20
7.7593662269
 30
0.0
 10
12.1866008657
 20
7.7649512104
 30
0.0
 10
12.1854259896
 20
7.770306817
 30
0.0
 10
12.1841852327
 20
7.775425164
 30
0.0
 10
12.1828804913
 20
7.7802987338
 30
0.0
 10
12.1815136636
 20
7.7849203786
 30
0.0
 10
12.180086805
 20
7.7892833447
 30
0.0
 10
12.1786020093
 20
7.7933812834
 30
0.0
 10
12.1770614455
 20
7.7972082429
 30
0.0
 10
12.1754673533
 20
7.8007587749
 30
0.0
 10
12.1738220298
 20
7.8040276484
 30
0.0
 10
12.1726549756
 20
7.8060822275
 30
0.0
 10
12.1720614863
 20
7.8070583629
 30
0.0
  0
SPLINE
  5
38F
100
AcDbEntity
  8
0
100
AcDbSpline
 62
7
  6
CONTINUOUS
 70
0
 71
3
 72
72
 73
68
 74
0
 42
0.0000001
 43
0.0000001
 44
0.0000000001
 40
0.0
 40
0.0
 40
0.0
 40
0.0
 40
0.0150731506
 40
0.0301542118
 40
0.0452482997
 40
0.0603603958
 40
0.0679253284
 40
0.0754965422
 40
0.0906588089
 40
0.1058527252
 40
0.1210822532
 40
0.1363509967
 40
0.1516621677
 40
0.1670185574
 40
0.182422513
 40
0.1978759183
 40
0.2133801802
 40
0.2289362196
 40
0.2445444679
 40
0.2602048678
 40
0.2759168786
 40
0.2916794863
 40
0.3074912167
 40
0.3233501535
 40
0.339253959
 40
0.3551998985
 40
0.3711848671
 40
0.3872054202
 40
0.4032578051
 40
0.4193379956
 40
0.4354417277
 40
0.451564537
 40
0.4677017972
 40
0.4838487596
 40
0.5000005937
 40
0.5161524279
 40
0.5322993904
 40
0.548436651
 40
0.5645594611
 40
0.5806631945
 40
0.5967433867
 40
0.6127957735
 40
0.6288163286
 40
0.6448012992
 40
0.6607472406
 40
0.6766510482
 40
0.6925099874
 40
0.7083217205
 40
0.724084331
 40
0.739796345
 40
0.755456748
 40
0.7710649993
 40
0.7866210413
 40
0.8021253057
 40
0.8175787134
 40
0.8329826716
 40
0.8483390639
 40
0.8636502375
 40
0.8789189836
 40
0.8941485139
 40
0.9093424321
 40
0.9245047003
 40
0.9396396017
 40
0.9547516986
 40
0.9698457872
 40
0.984926849
 40
1.0
 40
1.0
 40
1.0
 40
1.0
 10
9.7310688083
 20
9.9753386146
 30
0.0
 10
9.7258921642
 20
9.970062202
 30
0.0
 10
9.7158075461
 20
9.9592363728
 30
0.0
 10
9.7015367888
 20
9.9422323482
 30
0.0
 10
9.6881514557
 20
9.9244985976
 30
0.0
 10
9.677764365
 20
9.909151725
 30
0.0
 10
9.6699289454
 20
9.8965548512
 30
0.0
 10
9.6624068327
 20
9.883739879
 30
0.0
 10
9.653611057
 20
9.8673417874
 30
0.0
 10
9.64405925
 20
9.8471198479
 30
0.0
 10
9.6355270806
 20
9.8263903002
 30
0.0
 10
9.6280346109
 20
9.8052018736
 30
0.0
 10
9.6215992337
 20
9.7836039572
 30
0.0
 10
9.6162359344
 20
9.7616469972
 30
0.0
 10
9.611957176
 20
9.7393822409
 30
0.0
 10
9.6087728927
 20
9.716861654
 30
0.0
 10
9.6066904637
 20
9.6941377889
 30
0.0
 10
9.605714695
 20
9.6712636656
 30
0.0
 10
9.6058478067
 20
9.6482926466
 30
0.0
 10
9.6070894351
 20
9.6252783126
 30
0.0
 10
9.6094366334
 20
9.6022743376
 30
0.0
 10
9.6128838793
 20
9.579334365
 30
0.0
 10
9.6174230894
 20
9.556511883
 30
0.0
 10
9.6230436381
 20
9.5338601006
 30
0.0
 10
9.6297323829
 20
9.511431825
 30
0.0
 10
9.637473696
 20
9.489279339
 30
0.0
 10
9.6462494967
 20
9.4674542788
 30
0.0
 10
9.6560392947
 20
9.4460075134
 30
0.0
 10
9.6668202418
 20
9.4249890288
 30
0.0
 10
9.6785671841
 20
9.404447811
 30
0.0
 10
9.6912527209
 20
9.3844317335
 30
0.0
 10
9.7048472684
 20
9.3649874461
 30
0.0
 10
9.7193191281
 20
9.346160267
 30
0.0
 10
9.7346345604
 20
9.3279940776
 30
0.0
 10
9.7507578634
 20
9.3105312214
 30
0.0
 10
9.7676514513
 20
9.2938124017
 30
0.0
 10
9.7852759454
 20
9.2778765891
 30
0.0
 10
9.8035902662
 20
9.2627609323
 30
0.0
 10
9.822551729
 20
9.2485006721
 30
0.0
 10
9.842116142
 20
9.2351290592
 30
0.0
 10
9.8622379095
 20
9.2226772775
 30
0.0
 10
9.8828701367
 20
9.2111743713
 30
0.0
 10
9.9039647387
 20
9.2006471783
 30
0.0
 10
9.9254725518
 20
9.1911202665
 30
0.0
 10
9.947343445
 20
9.182615872
 30
0.0
 10
9.9695264396
 20
9.1751538516
 30
0.0
 10
9.9919698266
 20
9.168751637
 30
0.0
 10
10.0146212868
 20
9.1634241939
 30
0.0
 10
10.0374280114
 20
9.1591839866
 30
0.0
 10
10.0603368247
 20
9.1560409488
 30
0.0
 10
10.0832943068
 20
9.1540024594
 30
0.0
 10
10.1062469175
 20
9.1530733251
 30
0.0
 10
10.1291411207
 20
9.1532557665
 30
0.0
 10
10.1519235089
 20
9.1545494077
 30
0.0
 10
10.1745409283
 20
9.1569512825
 30
0.0
 10
10.1969406021
 20
9.1604558388
 30
0.0
 10
10.2190702533
 20
9.1650549512
 30
0.0
 10
10.2408782268
 20
9.170737938
 30
0.0
 10
10.2623136105
 20
9.1774915852
 30
0.0
 10
10.2833263539
 20
9.1853001753
 30
0.0
 10
10.3038673869
 20
9.1941455249
 30
0.0
 10
10.3238887321
 20
9.2040070179
 30
0.0
 10
10.3433436376
 20
9.2148616685
 30
0.0
 10
10.3621866173
 20
9.2266841187
 30
0.0
 10
10.3803738111
 20
9.2394469205
 30
0.0
 10
10.3978621505
 20
9.2531197644
 30
0.0
 10
10.4090310016
 20
9.2628231292
 30
0.0
 10
10.4144836475
 20
9.2678138035
 30
0.0
  0
SPLINE
  5
390
100
AcDbEntity
  8
0
100
AcDbSpline
 62
7
  6
CONTINUOUS
 70
0
 71
3
 72
23
 73
19
 74
0
 42
0.0000001
 43
0.0000001
 44
0.0000000001
 40
0.0
 40
0.0
 40
0.0
 40
0.0
 40
0.0755961246
 40
0.1466389607
 40
0.2134646537
 40
0.2765132518
 40
0.3363252536
 40
0.3935454084
 40
0.448921428
 40
0.5032863451
 40
0.557524168
 40
0.6125254889
 40
0.6691415402
 40
0.7281473128
 40
0.7902179894
 40
0.8559226124
 40
0.9257258744
 40
1.0
 40
1.0
 40
1.0
 40
1.0
 10
12.2074073544
 20
7.334735556
 30
0.0
 10
12.2066291564
 20
7.3339838745
 30
0.0
 10
12.2050737889
 20
7.3325719838
 30
0.0
 10
12.2026667048
 20
7.3306857819
 30
0.0
 10
12.2002624378
 20
7.3291016416
 30
0.0
 10
12.1978632077
 20
7.3278219503
 30
0.0
 10
12.1954710156
 20
7.3268490153
 30
0.0
 10
12.193088322
 20
7.3261852402
 30
0.0
 10
12.1907182548
 20
7.3258329488
 30
0.0
 10
12.188364765
 20
7.3257938354
 30
0.0
 10
12.1860323687
 20
7.3260684351
 30
0.0
 10
12.1837256014
 20
7.3266559923
 30
0.0
 10
12.1814483534
 20
7.327554446
 30
0.0
 10
12.1792036868
 20
7.3287612648
 30
0.0
 10
12.1769938177
 20
7.3302735952
 30
0.0
 10
12.1748205928
 20
7.332088897
 30
0.0
 10
12.1726857022
 20
7.3342044172
 30
0.0
 10
12.1713326697
 20
7.335763153
 30
0.0
 10
12.1706619334
 20
7.3365878623
 30
0.0
  0
SPLINE
  5
391
100
AcDbEntity
  8
0
100
AcDbSpline
 62
7
  6
CONTINUOUS
 70
0
 71
3
 72
74
 73
70
 74
0
 42
0.0000001
 43
0.0000001
 44
0.0000000001
 40
0.0
 40
0.0
 40
0.0
 40
0.0
 40
0.0150796165
 40
0.0226217633
 40
0.0301659281
 40
0.0452616642
 40
0.0603733479
 40
0.0679374023
 40
0.07550732
 40
0.0906658275
 40
0.1058547159
 40
0.1210782217
 40
0.1363402202
 40
0.1516441883
 40
0.1669931721
 40
0.1823897591
 40
0.1978360569
 40
0.2133336761
 40
0.2288837198
 40
0.2444867773
 40
0.2601429245
 40
0.2758517276
 40
0.2916122527
 40
0.3074230793
 40
0.3232823183
 40
0.3391876337
 40
0.3551362677
 40
0.3711250693
 40
0.3871505257
 40
0.4032087962
 40
0.4192957488
 40
0.4354069978
 40
0.451537944
 40
0.4676838156
 40
0.4838397105
 40
0.5000006389
 40
0.5161615675
 40
0.5323174627
 40
0.5484633347
 40
0.5645942813
 40
0.5807055306
 40
0.5967924834
 40
0.612850754
 40
0.6288762104
 40
0.6448650123
 40
0.6608136468
 40
0.676718963
 40
0.6925782029
 40
0.7083890303
 40
0.7241495561
 40
0.7398583597
 40
0.7555145073
 40
0.7711175652
 40
0.7866676091
 40
0.8021652288
 40
0.8176115272
 40
0.833008115
 40
0.8483570996
 40
0.8636610685
 40
0.8789230676
 40
0.8941465738
 40
0.9093354625
 40
0.92449397
 40
0.9396266517
 40
0.9547383353
 40
0.9698340716
 40
0.9773782367
 40
0.9849203833
 40
1.0
 40
1.0
 40
1.0
 40
1.0
 10
10.4145889125
 20
9.2677003896
 30
0.0
 10
10.4091868466
 20
9.2624823807
 30
0.0
 10
10.4008747622
 20
9.2548658072
 30
0.0
 10
10.389404735
 20
9.2451593534
 30
0.0
 10
10.3776770965
 20
9.2357523656
 30
0.0
 10
10.3625501967
 20
9.2245690445
 30
0.0
 10
10.3468494708
 20
9.2141887957
 30
0.0
 10
10.3339657305
 20
9.2063792343
 30
0.0
 10
10.3208622351
 20
9.1988971952
 30
0.0
 10
10.304100023
 20
9.1901773602
 30
0.0
 10
10.2834382905
 20
9.1807585772
 30
0.0
 10
10.2622689148
 20
9.1724019927
 30
0.0
 10
10.240643289
 20
9.1651279068
 30
0.0
 10
10.2186134719
 20
9.1589537545
 30
0.0
 10
10.196232604
 20
9.1538943813
 30
0.0
 10
10.1735546328
 20
9.1499619238
 30
0.0
 10
10.1506342217
 20
9.1471658051
 30
0.0
 10
10.1275266072
 20
9.145512706
 30
0.0
 10
10.1042874692
 20
9.1450065495
 30
0.0
 10
10.0809727949
 20
9.145648496
 30
0.0
 10
10.057638745
 20
9.1474369418
 30
0.0
 10
10.0343415185
 20
9.1503675242
 30
0.0
 10
10.0111372188
 20
9.1544331328
 30
0.0
 10
9.9880817186
 20
9.1596239276
 30
0.0
 10
9.9652305269
 20
9.1659273637
 30
0.0
 10
9.9426386558
 20
9.1733282214
 30
0.0
 10
9.9203604895
 20
9.1818086441
 30
0.0
 10
9.8984496535
 20
9.1913481804
 30
0.0
 10
9.8769588853
 20
9.2019238307
 30
0.0
 10
9.855939909
 20
9.2135101069
 30
0.0
 10
9.8354433121
 20
9.2260790931
 30
0.0
 10
9.8155184238
 20
9.2396005128
 30
0.0
 10
9.7962131978
 20
9.2540418021
 30
0.0
 10
9.7775740971
 20
9.2693681869
 30
0.0
 10
9.759645983
 20
9.2855427669
 30
0.0
 10
9.7424720077
 20
9.3025266041
 30
0.0
 10
9.726093511
 20
9.3202788155
 30
0.0
 10
9.7105499212
 20
9.3387566712
 30
0.0
 10
9.6958786572
 20
9.3579156948
 30
0.0
 10
9.6821150421
 20
9.3777097725
 30
0.0
 10
9.6692922184
 20
9.3980912636
 30
0.0
 10
9.6574410683
 20
9.4190111143
 30
0.0
 10
9.6465901397
 20
9.4404189754
 30
0.0
 10
9.6367655781
 20
9.4622633224
 30
0.0
 10
9.627991063
 20
9.484491579
 30
0.0
 10
9.6202877517
 20
9.5070502423
 30
0.0
 10
9.6136742275
 20
9.5298850115
 30
0.0
 10
9.6081664552
 20
9.5529409169
 30
0.0
 10
9.603777738
 20
9.5761624512
 30
0.0
 10
9.6005186893
 20
9.5994937039
 30
0.0
 10
9.5983972061
 20
9.6228784943
 30
0.0
 10
9.5974184496
 20
9.6462605064
 30
0.0
 10
9.5975848317
 20
9.6695834237
 30
0.0
 10
9.5988960081
 20
9.6927910641
 30
0.0
 10
9.6013488781
 20
9.7158275143
 30
0.0
 10
9.6049375909
 20
9.7386372647
 30
0.0
 10
9.6096535578
 20
9.7611653426
 30
0.0
 10
9.6154854718
 20
9.7833574447
 30
0.0
 10
9.6224193291
 20
9.8051600697
 30
0.0
 10
9.6304384662
 20
9.8265206478
 30
0.0
 10
9.6395235965
 20
9.8473876654
 30
0.0
 10
9.6496528633
 20
9.8677107996
 30
0.0
 10
9.6608018632
 20
9.8874410073
 30
0.0
 10
9.6729438093
 20
9.9065307682
 30
0.0
 10
9.6860492035
 20
9.9249337429
 30
0.0
 10
9.6977501192
 20
9.9396641971
 30
0.0
 10
9.7075578511
 20
9.9510587791
 30
0.0
 10
9.7176559505
 20
9.962185565
 30
0.0
 10
9.7255559917
 20
9.9702287135
 30
0.0
 10
9.7309580697
 20
9.97544671
 30
0.0
  0
SPLINE
  5
392
100
AcDbEntity
  8
0
100
AcDbSpline
 62
7
  6
CONTINUOUS
 70
0
 71
3
 72
62
 73
58
 74
0
 42
0.0000001
 43
0.0000001
 44
0.0000000001
 40
0.0
 40
0.0
 40
0.0
 40
0.0
 40
0.0156667121
 40
0.0313829209
 40
0.0471463709
 40
0.0629565845
 40
0.0788116505
 40
0.0947095368
 40
0.1106478989
 40
0.1266240287
 40
0.1586698697
 40
0.1908276714
 40
0.2230670084
 40
0.2553549804
 40
0.2876572182
 40
0.3199389261
 40
0.3521659225
 40
0.3843056825
 40
0.416328328
 40
0.4322911561
 40
0.4482152056
 40
0.4640978954
 40
0.4799369719
 40
0.4957305264
 40
0.5114770127
 40
0.5271752676
 40
0.5428245218
 40
0.5584244072
 40
0.5739749643
 40
0.5894766498
 40
0.6049303347
 40
0.6203372977
 40
0.6356992196
 40
0.6510181758
 40
0.6662966188
 40
0.6815373577
 40
0.6967435375
 40
0.7119186158
 40
0.7270663315
 40
0.7421906707
 40
0.7572958331
 40
0.7723861963
 40
0.7874662741
 40
0.8025406743
 40
0.8176140566
 40
0.8326910918
 40
0.8477764169
 40
0.8628745916
 40
0.8779900556
 40
0.8931270915
 40
0.9082897847
 40
0.9234819856
 40
0.9387072758
 40
0.9539689395
 40
0.9692699387
 40
0.984612885
 40
1.0
 40
1.0
 40
1.0
 40
1.0
 10
10.0810549862
 20
9.3311017582
 30
0.0
 10
10.076505073
 20
9.3314172957
 30
0.0
 10
10.0674039332
 20
9.3322569707
 30
0.0
 10
10.053803369
 20
9.3341341663
 30
0.0
 10
10.0402594074
 20
9.3366273844
 30
0.0
 10
10.0268008418
 20
9.3397311918
 30
0.0
 10
10.0134554464
 20
9.3434392513
 30
0.0
 10
10.0002511816
 20
9.3477437138
 30
0.0
 10
9.9872152462
 20
9.3526357447
 30
0.0
 10
9.9700801051
 20
9.3599343093
 30
0.0
 10
9.949219064
 20
9.3704766064
 30
0.0
 10
9.925316118
 20
9.3852689862
 30
0.0
 10
9.9027098314
 20
9.4020956343
 30
0.0
 10
9.8815892717
 20
9.4208159027
 30
0.0
 10
9.8621296262
 20
9.4412743464
 30
0.0
 10
9.8444927266
 20
9.4633007328
 30
0.0
 10
9.8288251631
 20
9.4867124571
 30
0.0
 10
9.8152577859
 20
9.5113136385
 30
0.0
 10
9.805783929
 20
9.5326638273
 30
0.0
 10
9.7993629112
 20
9.550131007
 30
0.0
 10
9.7951385758
 20
9.5633852897
 30
0.0
 10
9.7915103428
 20
9.5767774364
 30
0.0
 10
9.7884856323
 20
9.5902798434
 30
0.0
 10
9.7860708173
 20
9.6038642974
 30
0.0
 10
9.7842709654
 20
9.6175025136
 30
0.0
 10
9.7830898246
 20
9.6311660576
 30
0.0
 10
9.7825298719
 20
9.6448264529
 30
0.0
 10
9.7825923141
 20
9.6584552248
 30
0.0
 10
9.7832770643
 20
9.6720239583
 30
0.0
 10
9.7845826903
 20
9.685504363
 30
0.0
 10
9.7865064908
 20
9.6988683305
 30
0.0
 10
9.7890444995
 20
9.7120879869
 30
0.0
 10
9.7921914585
 20
9.7251357537
 30
0.0
 10
9.7959408002
 20
9.7379844182
 30
0.0
 10
9.8002847261
 20
9.7506071756
 30
0.0
 10
9.8052142195
 20
9.7629776784
 30
0.0
 10
9.8107190174
 20
9.7750701078
 30
0.0
 10
9.8167876287
 20
9.7868592367
 30
0.0
 10
9.8234074087
 20
9.7983204593
 30
0.0
 10
9.8305645817
 20
9.8094298363
 30
0.0
 10
9.8382442154
 20
9.8201641791
 30
0.0
 10
9.8464302736
 20
9.8305010921
 30
0.0
 10
9.8551056817
 20
9.8404189963
 30
0.0
 10
9.8642523594
 20
9.8498971674
 30
0.0
 10
9.8738512042
 20
9.8589158314
 30
0.0
 10
9.8838821697
 20
9.8674561791
 30
0.0
 10
9.8943243228
 20
9.8755003849
 30
0.0
 10
9.9051558831
 20
9.8830316404
 30
0.0
 10
9.9163542243
 20
9.8900342541
 30
0.0
 10
9.9278959638
 20
9.8964936343
 30
0.0
 10
9.9397570157
 20
9.9023963072
 30
0.0
 10
9.9519126315
 20
9.9077299455
 30
0.0
 10
9.964337435
 20
9.9124834646
 30
0.0
 10
9.9770054676
 20
9.9166469717
 30
0.0
 10
9.9898904031
 20
9.9202118063
 30
0.0
 10
10.0029649785
 20
9.9231704678
 30
0.0
 10
10.0117775233
 20
9.9247325668
 30
0.0
 10
10.0162052837
 20
9.9254110759
 30
0.0
  0
SPLINE
  5
393
100
AcDbEntity
  8
0
100
AcDbSpline
 62
7
  6
CONTINUOUS
 70
0
 71
3
 72
56
 73
52
 74
0
 42
0.0000001
 43
0.0000001
 44
0.0000000001
 40
0.0
 40
0.0
 40
0.0
 40
0.0
 40
0.0313645969
 40
0.062916346
 40
0.0946445102
 40
0.1265322402
 40
0.1585580613
 40
0.1906963928
 40
0.2229183331
 40
0.255192545
 40
0.2874861737
 40
0.3197658022
 40
0.3519984208
 40
0.3841523795
 40
0.4161983219
 40
0.4481100677
 40
0.4798654195
 40
0.495682531
 40
0.5114544218
 40
0.5271797424
 40
0.5428575084
 40
0.5584871065
 40
0.574068303
 40
0.5896012553
 40
0.6050865101
 40
0.6205249992
 40
0.6359180409
 40
0.6512673328
 40
0.6665749367
 40
0.6818432643
 40
0.6970750652
 40
0.7122734021
 40
0.7274416236
 40
0.7425833416
 40
0.7577024013
 40
0.7728028459
 40
0.7878888809
 40
0.8029648415
 40
0.818035153
 40
0.8331042891
 40
0.8481767335
 40
0.8632569425
 40
0.8783493034
 40
0.8934580936
 40
0.908587446
 40
0.9237413144
 40
0.9389234366
 40
0.9541373022
 40
0.9693861268
 40
0.9846728281
 40
1.0
 40
1.0
 40
1.0
 40
1.0
 10
10.1084897824
 20
9.3793650096
 30
0.0
 10
10.1002115061
 20
9.3799391101
 30
0.0
 10
10.0836479267
 20
9.381833913
 30
0.0
 10
10.0590866887
 20
9.3868614832
 30
0.0
 10
10.0349207454
 20
9.3940429139
 30
0.0
 10
10.011345629
 20
9.4033201956
 30
0.0
 10
9.9885488695
 20
9.4146188255
 30
0.0
 10
9.966712624
 20
9.4278482825
 30
0.0
 10
9.9460110413
 20
9.4429026179
 30
0.0
 10
9.9266093977
 20
9.4596615617
 30
0.0
 10
9.9086624787
 20
9.4779911591
 30
0.0
 10
9.8923136181
 20
9.4977451001
 30
0.0
 10
9.877693395
 20
9.5187657179
 30
0.0
 10
9.8649186764
 20
9.5408851544
 30
0.0
 10
9.8540916993
 20
9.563927263
 30
0.0
 10
9.8452993767
 20
9.5877068348
 30
0.0
 10
9.8397184829
 20
9.6080116357
 30
0.0
 10
9.836338194
 20
9.624430728
 30
0.0
 10
9.8343507502
 20
9.6367941817
 30
0.0
 10
9.8329122719
 20
9.6491961502
 30
0.0
 10
9.8320255429
 20
9.6616120909
 30
0.0
 10
9.8316924037
 20
9.6740170743
 30
0.0
 10
9.8319135568
 20
9.6863862826
 30
0.0
 10
9.8326885432
 20
9.6986949424
 30
0.0
 10
9.8340158321
 20
9.7109184084
 30
0.0
 10
9.8358928253
 20
9.7230321932
 30
0.0
 10
9.8383157617
 20
9.7350120331
 30
0.0
 10
9.8412797885
 20
9.7468339343
 30
0.0
 10
9.844779012
 20
9.7584742056
 30
0.0
 10
9.8488064579
 20
9.7699095143
 30
0.0
 10
9.8533540386
 20
9.7811169556
 30
0.0
 10
9.858412662
 20
9.7920740682
 30
0.0
 10
9.8639722422
 20
9.8027588709
 30
0.0
 10
9.8700216263
 20
9.813149955
 30
0.0
 10
9.8765486866
 20
9.8232265002
 30
0.0
 10
9.8835403738
 20
9.8329682907
 30
0.0
 10
9.8909826916
 20
9.8423557851
 30
0.0
 10
9.8988606977
 20
9.8513701862
 30
0.0
 10
9.9071586093
 20
9.859993421
 30
0.0
 10
9.9158598223
 20
9.8682081742
 30
0.0
 10
9.9249468722
 20
9.8759980005
 30
0.0
 10
9.9344015328
 20
9.8833473012
 30
0.0
 10
9.944204868
 20
9.8902413272
 30
0.0
 10
9.9543372269
 20
9.8966662571
 30
0.0
 10
9.9647782763
 20
9.9026092533
 30
0.0
 10
9.9755070883
 20
9.9080584105
 30
0.0
 10
9.9865021781
 20
9.913002787
 30
0.0
 10
9.9977414666
 20
9.9174325134
 30
0.0
 10
10.0092025121
 20
9.9213387616
 30
0.0
 10
10.0208620237
 20
9.9247136272
 30
0.0
 10
10.0287417962
 20
9.9266023601
 30
0.0
 10
10.032705986
 20
9.9274563072
 30
0.0
  0
SPLINE
  5
394
100
AcDbEntity
  8
0
100
AcDbSpline
 62
7
  6
CONTINUOUS
 70
0
 71
3
 72
39
 73
35
 74
0
 42
0.0000001
 43
0.0000001
 44
0.0000000001
 40
0.0
 40
0.0
 40
0.0
 40
0.0
 40
0.0311450264
 40
0.062443103
 40
0.0938883509
 40
0.1254709879
 40
0.1571788856
 40
0.1889972606
 40
0.2209091751
 40
0.2528958436
 40
0.2849370235
 40
0.3170114144
 40
0.3490970746
 40
0.381171845
 40
0.4132137769
 40
0.445201556
 40
0.4771149182
 40
0.508935051
 40
0.5406449742
 40
0.5722298939
 40
0.6036775233
 40
0.6349783634
 40
0.6661259345
 40
0.6971169551
 40
0.7279514584
 40
0.7586328417
 40
0.7891678438
 40
0.8195664441
 40
0.8498416857
 40
0.8800094177
 40
0.9100879638
 40
0.9400977202
 40
0.9700606954
 40
1.0
 40
1.0
 40
1.0
 40
1.0
 10
10.1167639627
 20
9.4182369435
 30
0.0
 10
10.1107610688
 20
9.4186532456
 30
0.0
 10
10.0987517863
 20
9.4199272805
 30
0.0
 10
10.0808834556
 20
9.4231366265
 30
0.0
 10
10.0632065113
 20
9.4276319415
 30
0.0
 10
10.0458164212
 20
9.4333890791
 30
0.0
 10
10.0288055757
 20
9.4403771583
 30
0.0
 10
10.0122647125
 20
9.4485588126
 30
0.0
 10
9.9962819481
 20
9.4578903142
 30
0.0
 10
9.9809424488
 20
9.4683218432
 30
0.0
 10
9.9663279455
 20
9.4797977389
 30
0.0
 10
9.9525163112
 20
9.4922567958
 30
0.0
 10
9.9395811464
 20
9.5056325856
 30
0.0
 10
9.9275913951
 20
9.5198538132
 30
0.0
 10
9.9166109803
 20
9.5348446916
 30
0.0
 10
9.9066984666
 20
9.5505253415
 30
0.0
 10
9.8979067507
 20
9.5668122126
 30
0.0
 10
9.8902827813
 20
9.5836185228
 30
0.0
 10
9.8838673095
 20
9.6008547148
 30
0.0
 10
9.8786946719
 20
9.6184289272
 30
0.0
 10
9.8747925993
 20
9.6362474757
 30
0.0
 10
9.8721820708
 20
9.6542153484
 30
0.0
 10
9.8708771991
 20
9.6722367056
 30
0.0
 10
9.8708851485
 20
9.6902153845
 30
0.0
 10
9.872206089
 20
9.7080554065
 30
0.0
 10
9.8748331855
 20
9.7256614854
 30
0.0
 10
9.8787526225
 20
9.7429395337
 30
0.0
 10
9.8839436686
 20
9.7597971675
 30
0.0
 10
9.8903787639
 20
9.7761441964
 30
0.0
 10
9.898023684
 20
9.7918931451
 30
0.0
 10
9.9068376024
 20
9.8069596169
 30
0.0
 10
9.9167737395
 20
9.8212631743
 30
0.0
 10
9.927777978
 20
9.8347262322
 30
0.0
 10
9.9357905348
 20
9.8430966891
 30
0.0
 10
9.9399509551
 20
9.8471153652
 30
0.0
  0
SPLINE
  5
395
100
AcDbEntity
  8
0
100
AcDbSpline
 62
7
  6
CONTINUOUS
 70
0
 71
3
 72
42
 73
38
 74
0
 42
0.0000001
 43
0.0000001
 44
0.0000000001
 40
0.0
 40
0.0
 40
0.0
 40
0.0
 40
0.0310915467
 40
0.0466954741
 40
0.0623352514
 40
0.0937162261
 40
0.1252304853
 40
0.1568670734
 40
0.1886126778
 40
0.220452002
 40
0.2523680294
 40
0.2843423555
 40
0.3163555248
 40
0.3483873852
 40
0.3804174502
 40
0.4124252655
 40
0.4443907749
 40
0.4762946816
 40
0.5081187994
 40
0.5398463905
 40
0.571462483
 40
0.6029541642
 40
0.6343108447
 40
0.6655244863
 40
0.6965897898
 40
0.7275043358
 40
0.7582686734
 40
0.7888863534
 40
0.8193638993
 40
0.8497107159
 40
0.8648413504
 40
0.8799440698
 40
0.9100683165
 40
0.9401054434
 40
0.955099757
 40
0.9700794486
 40
1.0
 40
1.0
 40
1.0
 40
1.0
 10
10.2435809433
 20
9.6054497817
 30
0.0
 10
10.2393224356
 20
9.6057451103
 30
0.0
 10
10.2329394206
 20
9.6064135783
 30
0.0
 10
10.224484229
 20
9.607746174
 30
0.0
 10
10.2160406982
 20
9.6093773372
 30
0.0
 10
10.205564645
 20
9.6119681032
 30
0.0
 10
10.1931974792
 20
9.6159374186
 30
0.0
 10
10.1810798314
 20
9.6207511914
 30
0.0
 10
10.1692719636
 20
9.6263854797
 30
0.0
 10
10.1578321364
 20
9.632812372
 30
0.0
 10
10.146816912
 20
9.6400000369
 30
0.0
 10
10.1362807187
 20
9.6479129008
 30
0.0
 10
10.1262756281
 20
9.6565118182
 30
0.0
 10
10.1168510892
 20
9.6657542648
 30
0.0
 10
10.1080536889
 20
9.6755945462
 30
0.0
 10
10.0999269236
 20
9.6859840216
 30
0.0
 10
10.0925109858
 20
9.6968713417
 30
0.0
 10
10.0858425673
 20
9.7082027005
 30
0.0
 10
10.0799546785
 20
9.7199220982
 30
0.0
 10
10.0748764862
 20
9.7319716148
 30
0.0
 10
10.0706331697
 20
9.7442916931
 30
0.0
 10
10.0672457959
 20
9.7568214295
 30
0.0
 10
10.0647312135
 20
9.7694988712
 30
0.0
 10
10.0631019689
 20
9.7822613193
 30
0.0
 10
10.0623662394
 20
9.7950456322
 30
0.0
 10
10.0625277942
 20
9.8077885467
 30
0.0
 10
10.0635859523
 20
9.8204269412
 30
0.0
 10
10.0655356488
 20
9.8328983213
 30
0.0
 10
10.0683672006
 20
9.8451404793
 30
0.0
 10
10.0714537668
 20
9.8551121406
 30
0.0
 10
10.0743480577
 20
9.8629114513
 30
0.0
 10
10.0775161308
 20
9.8705705815
 30
0.0
 10
10.0819935097
 20
9.8798948269
 30
0.0
 10
10.0871452707
 20
9.8888470404
 30
0.0
 10
10.0916504454
 20
9.8957476354
 30
0.0
 10
10.0964016481
 20
9.9024611003
 30
0.0
 10
10.1002454656
 20
9.9072903965
 30
0.0
 10
10.1029230589
 20
9.9104058189
 30
0.0
  0
SPLINE
  5
396
100
AcDbEntity
  8
0
100
AcDbSpline
 62
7
  6
CONTINUOUS
 70
0
 71
3
 72
19
 73
15
 74
0
 42
0.0000001
 43
0.0000001
 44
0.0000000001
 40
0.0
 40
0.0
 40
0.0
 40
0.0
 40
0.150460937
 40
0.2916987357
 40
0.424419542
 40
0.4878837275
 40
0.5495802504
 40
0.6682271673
 40
0.7255606103
 40
0.7817998831
 40
0.8371466721
 40
0.8918135967
 40
0.94602219
 40
1.0
 40
1.0
 40
1.0
 40
1.0
 10
12.2074073544
 20
8.4581073586
 30
0.0
 10
12.2060164226
 20
8.4567638215
 30
0.0
 10
12.2032364721
 20
8.4542429638
 30
0.0
 10
12.198931987
 20
8.4508836318
 30
0.0
 10
12.195296172
 20
8.4485077253
 30
0.0
 10
12.192396842
 20
8.4468988298
 30
0.0
 10
12.1895830469
 20
8.4455175587
 30
0.0
 10
12.1867363071
 20
8.4443884937
 30
0.0
 10
12.1838735513
 20
8.443538867
 30
0.0
 10
12.1817569078
 20
8.4430491372
 30
0.0
 10
12.1796473105
 20
8.4427000799
 30
0.0
 10
12.1775453165
 20
8.4424918677
 30
0.0
 10
12.1754517756
 20
8.4424245815
 30
0.0
 10
12.1740608866
 20
8.4424737718
 30
0.0
 10
12.1733687802
 20
8.4425217696
 30
0.0
  0
SPLINE
  5
397
100
AcDbEntity
  8
0
100
AcDbSpline
 62
7
  6
CONTINUOUS
 70
0
 71
3
 72
41
 73
37
 74
0
 42
0.0000001
 43
0.0000001
 44
0.0000000001
 40
0.0
 40
0.0
 40
0.0
 40
0.0
 40
0.030908881
 40
0.0619470658
 40
0.0931100443
 40
0.1243923039
 40
0.1557860979
 40
0.1872822881
 40
0.2188702004
 40
0.2505378922
 40
0.2822722962
 40
0.3140594192
 40
0.3458845386
 40
0.3777324082
 40
0.4095874695
 40
0.4414340651
 40
0.4732566539
 40
0.5050400243
 40
0.5367695053
 40
0.5684311714
 40
0.6000120408
 40
0.6315002635
 40
0.6628852981
 40
0.6941580736
 40
0.7253111352
 40
0.7563387697
 40
0.787237111
 40
0.8180042194
 40
0.8486401356
 40
0.8639113287
 40
0.8791506557
 40
0.9095323236
 40
0.9397948954
 40
0.9548858538
 40
0.9699501501
 40
1.0
 40
1.0
 40
1.0
 40
1.0
 10
10.2389344734
 20
9.536244602
 30
0.0
 10
10.2338731027
 20
9.5365956093
 30
0.0
 10
10.223748144
 20
9.53761125
 30
0.0
 10
10.2086530577
 20
9.5400598833
 30
0.0
 10
10.1936728116
 20
9.5434277735
 30
0.0
 10
10.1788650543
 20
9.5477019413
 30
0.0
 10
10.1642857438
 20
9.5528661582
 30
0.0
 10
10.1499902632
 20
9.5589007312
 30
0.0
 10
10.136032828
 20
9.565782721
 30
0.0
 10
10.1224663893
 20
9.5734859615
 30
0.0
 10
10.1093424072
 20
9.5819811885
 30
0.0
 10
10.0967106635
 20
9.591236139
 30
0.0
 10
10.0846190735
 20
9.6012156771
 30
0.0
 10
10.073113506
 20
9.6118819256
 30
0.0
 10
10.0622376103
 20
9.6231944088
 30
0.0
 10
10.0520326521
 20
9.6351102052
 30
0.0
 10
10.0425373578
 20
9.6475841095
 30
0.0
 10
10.0337877689
 20
9.6605688022
 30
0.0
 10
10.0258171056
 20
9.6740150283
 30
0.0
 10
10.0186556414
 20
9.6878717823
 30
0.0
 10
10.0123305884
 20
9.7020864998
 30
0.0
 10
10.006865994
 20
9.7166052554
 30
0.0
 10
10.0022826503
 20
9.7313729662
 30
0.0
 10
9.9985980141
 20
9.7463335958
 30
0.0
 10
9.9958261417
 20
9.7614303765
 30
0.0
 10
9.993977628
 20
9.7766059788
 30
0.0
 10
9.9930595881
 20
9.7918028894
 30
0.0
 10
9.9930755414
 20
9.8069630262
 30
0.0
 10
9.9938682108
 20
9.8195325554
 30
0.0
 10
9.9949688334
 20
9.8295103155
 30
0.0
 10
9.996375848
 20
9.8394073615
 30
0.0
 10
9.9987102828
 20
9.851651497
 30
0.0
 10
10.0018109612
 20
9.8636993539
 30
0.0
 10
10.0047414186
 20
9.8731754064
 30
0.0
 10
10.0079629071
 20
9.8825191939
 30
0.0
 10
10.0107142192
 20
9.8894016763
 30
0.0
 10
10.0126929012
 20
9.8939199272
 30
0.0
  0
SPLINE
  5
398
100
AcDbEntity
  8
0
100
AcDbSpline
 62
7
  6
CONTINUOUS
 70
0
 71
3
 72
19
 73
15
 74
0
 42
0.0000001
 43
0.0000001
 44
0.0000000001
 40
0.0
 40
0.0
 40
0.0
 40
0.0
 40
0.0616069466
 40
0.1232669933
 40
0.1849975118
 40
0.2468152637
 40
0.3087362519
 40
0.3707755521
 40
0.4329472193
 40
0.4952641775
 40
0.6203454921
 40
0.7461307544
 40
0.8726718179
 40
1.0
 40
1.0
 40
1.0
 40
1.0
 10
10.3624898841
 20
9.641705987
 30
0.0
 10
10.3604509726
 20
9.6400726441
 30
0.0
 10
10.3562923567
 20
9.636901831
 30
0.0
 10
10.349831189
 20
9.6324476029
 30
0.0
 10
10.3431569661
 20
9.6283021558
 30
0.0
 10
10.3362832879
 20
9.6244739051
 30
0.0
 10
10.3292238499
 20
9.6209705246
 30
0.0
 10
10.3219928911
 20
9.6177990399
 30
0.0
 10
10.3146047106
 20
9.6149657215
 30
0.0
 10
10.3045534231
 20
9.6116428692
 30
0.0
 10
10.2916626269
 20
9.6083630225
 30
0.0
 10
10.2758326595
 20
9.605861904
 30
0.0
 10
10.2597464945
 20
9.6048083994
 30
0.0
 10
10.2489674022
 20
9.6050762295
 30
0.0
 10
10.2435809433
 20
9.6054497817
 30
0.0
  0
SPLINE
  5
399
100
AcDbEntity
  8
0
100
AcDbSpline
 62
7
  6
CONTINUOUS
 70
0
 71
3
 72
37
 73
33
 74
0
 42
0.0000001
 43
0.0000001
 44
0.0000000001
 40
0.0
 40
0.0
 40
0.0
 40
0.0
 40
0.0639290678
 40
0.1274756213
 40
0.1591172255
 40
0.1906690341
 40
0.2221345216
 40
0.2535176954
 40
0.2848232533
 40
0.3160565193
 40
0.3472233842
 40
0.3783302827
 40
0.4093841414
 40
0.4403923168
 40
0.4713625396
 40
0.5023028594
 40
0.5332215732
 40
0.5641271532
 40
0.5950281832
 40
0.6259332883
 40
0.6568510564
 40
0.6877899677
 40
0.7187583305
 40
0.74976421
 40
0.7808153561
 40
0.8119191473
 40
0.8430825352
 40
0.8743119833
 40
0.9056134151
 40
0.9369921816
 40
0.9684530176
 40
1.0
 40
1.0
 40
1.0
 40
1.0
 10
10.0810549862
 20
9.3311017582
 30
0.0
 10
10.0896475984
 20
9.3305058585
 30
0.0
 10
10.1068414121
 20
9.3300540782
 30
0.0
 10
10.1282683019
 20
9.3313637751
 30
0.0
 10
10.1452105647
 20
9.3335335201
 30
0.0
 10
10.1577806869
 20
9.3357143459
 30
0.0
 10
10.1702067222
 20
9.3384467823
 30
0.0
 10
10.1824655947
 20
9.3417257563
 30
0.0
 10
10.19453422
 20
9.345545084
 30
0.0
 10
10.2063899509
 20
9.3498976139
 30
0.0
 10
10.2180104966
 20
9.3547752277
 30
0.0
 10
10.2293740392
 20
9.3601687472
 30
0.0
 10
10.2404592386
 20
9.3660680412
 30
0.0
 10
10.2512452507
 20
9.3724620723
 30
0.0
 10
10.2617118081
 20
9.3793388362
 30
0.0
 10
10.2718392645
 20
9.386685393
 30
0.0
 10
10.2816085822
 20
9.3944879627
 30
0.0
 10
10.2910013841
 20
9.4027319141
 30
0.0
 10
10.3000000502
 20
9.4114017283
 30
0.0
 10
10.3085876786
 20
9.4204811182
 30
0.0
 10
10.3167481058
 20
9.4299530541
 30
0.0
 10
10.3244660226
 20
9.4397997206
 30
0.0
 10
10.3317269542
 20
9.4500026035
 30
0.0
 10
10.3385172425
 20
9.460542551
 30
0.0
 10
10.344824132
 20
9.4713997619
 30
0.0
 10
10.3506358211
 20
9.4825538173
 30
0.0
 10
10.3559413968
 20
9.4939837673
 30
0.0
 10
10.3607308749
 20
9.5056681597
 30
0.0
 10
10.3649953085
 20
9.5175850054
 30
0.0
 10
10.3687267309
 20
9.5297120072
 30
0.0
 10
10.3719180533
 20
9.542026078
 30
0.0
 10
10.3736792429
 20
9.5503339
 30
0.0
 10
10.3744682573
 20
9.5545103918
 30
0.0
  0
SPLINE
  5
39A
100
AcDbEntity
  8
0
100
AcDbSpline
 62
7
  6
CONTINUOUS
 70
0
 71
3
 72
25
 73
21
 74
0
 42
0.0000001
 43
0.0000001
 44
0.0000000001
 40
0.0
 40
0.0
 40
0.0
 40
0.0
 40
0.0616475282
 40
0.0924812782
 40
0.1233236452
 40
0.1850399949
 40
0.2468243989
 40
0.277751634
 40
0.3087038677
 40
0.3706878948
 40
0.4328012861
 40
0.4950619216
 40
0.5574860801
 40
0.6200882709
 40
0.6828811113
 40
0.7458751472
 40
0.8090789555
 40
0.8724985283
 40
0.936138578
 40
1.0
 40
1.0
 40
1.0
 40
1.0
 10
10.7768111463
 20
7.1600441089
 30
0.0
 10
10.7712898825
 20
7.154710963
 30
0.0
 10
10.7627896016
 20
7.146931015
 30
0.0
 10
10.751051942
 20
7.1370272747
 30
0.0
 10
10.7390455845
 20
7.127436696
 30
0.0
 10
10.7235505642
 20
7.1160505088
 30
0.0
 10
10.7074588793
 20
7.105505141
 30
0.0
 10
10.6942501629
 20
7.097586893
 30
0.0
 10
10.6808132706
 20
7.0900116596
 30
0.0
 10
10.6636205715
 20
7.0812054994
 30
0.0
 10
10.6424249069
 20
7.0717331202
 30
0.0
 10
10.6207071028
 20
7.0633737863
 30
0.0
 10
10.5985222379
 20
7.05614871
 30
0.0
 10
10.5759260995
 20
7.0500759732
 30
0.0
 10
10.5529756325
 20
7.0451708297
 30
0.0
 10
10.5297286024
 20
7.0414455495
 30
0.0
 10
10.5062436216
 20
7.0389094755
 30
0.0
 10
10.4825795495
 20
7.0375688879
 30
0.0
 10
10.4587967874
 20
7.0374271151
 30
0.0
 10
10.4429279903
 20
7.0381308694
 30
0.0
 10
10.4349949897
 20
7.0386810249
 30
0.0
  0
SPLINE
  5
39B
100
AcDbEntity
  8
0
100
AcDbSpline
 62
7
  6
CONTINUOUS
 70
0
 71
3
 72
23
 73
19
 74
0
 42
0.0000001
 43
0.0000001
 44
0.0000000001
 40
0.0
 40
0.0
 40
0.0
 40
0.0
 40
0.0639782293
 40
0.1275901188
 40
0.190847892
 40
0.2537718981
 40
0.3163926739
 40
0.3787494904
 40
0.440889377
 40
0.5028658331
 40
0.5647372676
 40
0.6265652661
 40
0.6884127366
 40
0.7503419919
 40
0.8124128679
 40
0.8746809323
 40
0.9371958526
 40
1.0
 40
1.0
 40
1.0
 40
1.0
 10
10.1084897824
 20
9.3793650096
 30
0.0
 10
10.1161059812
 20
9.3788368245
 30
0.0
 10
10.131345818
 20
9.3784077063
 30
0.0
 10
10.1541102697
 20
9.3796668486
 30
0.0
 10
10.1765651964
 20
9.3828218354
 30
0.0
 10
10.1985544957
 20
9.3878517487
 30
0.0
 10
10.2199275656
 20
9.3947223753
 30
0.0
 10
10.240537321
 20
9.4033869062
 30
0.0
 10
10.2602419764
 20
9.4137861608
 30
0.0
 10
10.2789058895
 20
9.4258488626
 30
0.0
 10
10.2964005767
 20
9.439492185
 30
0.0
 10
10.3126055608
 20
9.454622386
 30
0.0
 10
10.3274093153
 20
9.4711353415
 30
0.0
 10
10.3407100753
 20
9.4889173857
 30
0.0
 10
10.3524164066
 20
9.5078459538
 30
0.0
 10
10.3624481556
 20
9.5277912744
 30
0.0
 10
10.3707361569
 20
9.5486139832
 30
0.0
 10
10.3750518683
 20
9.5629547424
 30
0.0
 10
10.3769032835
 20
9.5702168447
 30
0.0
  0
SPLINE
  5
39C
100
AcDbEntity
  8
0
100
AcDbSpline
 62
7
  6
CONTINUOUS
 70
0
 71
3
 72
23
 73
19
 74
0
 42
0.0000001
 43
0.0000001
 44
0.0000000001
 40
0.0
 40
0.0
 40
0.0
 40
0.0
 40
0.0638611429
 40
0.1275033697
 40
0.1909230193
 40
0.2541276602
 40
0.3171224166
 40
0.3799159195
 40
0.4425188183
 40
0.5049436681
 40
0.5672049987
 40
0.6293190785
 40
0.6913037901
 40
0.7531784362
 40
0.8149635271
 40
0.8766805602
 40
0.9383517934
 40
1.0
 40
1.0
 40
1.0
 40
1.0
 10
10.1167639627
 20
9.4182369435
 30
0.0
 10
10.1208674408
 20
9.4179523663
 30
0.0
 10
10.1290760019
 20
9.4175883559
 30
0.0
 10
10.1413782174
 20
9.4176616458
 30
0.0
 10
10.1536191078
 20
9.4183551287
 30
0.0
 10
10.1657672703
 20
9.4196669376
 30
0.0
 10
10.1777923826
 20
9.4215939292
 30
0.0
 10
10.1896640817
 20
9.4241312383
 30
0.0
 10
10.2013524958
 20
9.4272724948
 30
0.0
 10
10.2128281851
 20
9.431009827
 30
0.0
 10
10.2240622342
 20
9.4353338654
 30
0.0
 10
10.2350263368
 20
9.4402337505
 30
0.0
 10
10.2456928731
 20
9.4456971403
 30
0.0
 10
10.256034972
 20
9.4517102966
 30
0.0
 10
10.2660265397
 20
9.4582580756
 30
0.0
 10
10.275642472
 20
9.4653240888
 30
0.0
 10
10.2848582144
 20
9.4728902139
 30
0.0
 10
10.2907209624
 20
9.4782560919
 30
0.0
 10
10.2935769703
 20
9.4810147966
 30
0.0
  0
SPLINE
  5
39D
100
AcDbEntity
  8
0
100
AcDbSpline
 62
7
  6
CONTINUOUS
 70
0
 71
3
 72
15
 73
11
 74
0
 42
0.0000001
 43
0.0000001
 44
0.0000000001
 40
0.0
 40
0.0
 40
0.0
 40
0.0
 40
0.1234333215
 40
0.2472418571
 40
0.3714706705
 40
0.4961580454
 40
0.6213352704
 40
0.7470253527
 40
0.8732449172
 40
1.0
 40
1.0
 40
1.0
 40
1.0
 10
10.7118688871
 20
7.4612989673
 30
0.0
 10
10.7076579593
 20
7.4593492788
 30
0.0
 10
10.6990943721
 20
7.455715892
 30
0.0
 10
10.6859060842
 20
7.4510953989
 30
0.0
 10
10.6724039708
 20
7.4473129761
 30
0.0
 10
10.6586392474
 20
7.4443830194
 30
0.0
 10
10.6446632919
 20
7.442316334
 30
0.0
 10
10.630528226
 20
7.441120569
 30
0.0
 10
10.6162876126
 20
7.4408000994
 30
0.0
 10
10.6067774074
 20
7.441170033
 30
0.0
 10
10.6020235585
 20
7.4414997136
 30
0.0
  0
SPLINE
  5
39E
100
AcDbEntity
  8
0
100
AcDbSpline
 62
7
  6
CONTINUOUS
 70
0
 71
3
 72
9
 73
5
 74
0
 42
0.0000001
 43
0.0000001
 44
0.0000000001
 40
0.0
 40
0.0
 40
0.0
 40
0.0
 40
0.2485233441
 40
1.0
 40
1.0
 40
1.0
 40
1.0
 10
10.6656303806
 20
7.7031846959
 30
0.0
 10
10.6638064099
 20
7.7049957118
 30
0.0
 10
10.6565655651
 20
7.7123814631
 30
0.0
 10
10.6497145007
 20
7.7201476011
 30
0.0
 10
10.6447883135
 20
7.7261591197
 30
0.0
  0
SPLINE
  5
39F
100
AcDbEntity
  8
0
100
AcDbSpline
 62
7
  6
CONTINUOUS
 70
0
 71
3
 72
15
 73
11
 74
0
 42
0.0000001
 43
0.0000001
 44
0.0000000001
 40
0.0
 40
0.0
 40
0.0
 40
0.0
 40
0.1265900298
 40
0.2527049743
 40
0.3783427108
 40
0.5035188411
 40
0.6282477624
 40
0.7525520016
 40
0.8764586557
 40
1.0
 40
1.0
 40
1.0
 40
1.0
 10
10.2389344734
 20
9.536244602
 30
0.0
 10
10.2434025002
 20
9.5359347433
 30
0.0
 10
10.2523405256
 20
9.5355581962
 30
0.0
 10
10.2657316509
 20
9.5357280452
 30
0.0
 10
10.2790435731
 20
9.5366332005
 30
0.0
 10
10.2922359102
 20
9.5382708867
 30
0.0
 10
10.3052694869
 20
9.5406363542
 30
0.0
 10
10.3181054365
 20
9.5437225999
 30
0.0
 10
10.3307049097
 20
9.5475202646
 30
0.0
 10
10.3389344452
 20
9.5505234604
 30
0.0
 10
10.3429956775
 20
9.5521393568
 30
0.0
  0
SPLINE
  5
3A0
100
AcDbEntity
  8
0
100
AcDbSpline
 62
7
  6
CONTINUOUS
 70
0
 71
3
 72
41
 73
37
 74
0
 42
0.0000001
 43
0.0000001
 44
0.0000000001
 40
0.0
 40
0.0
 40
0.0
 40
0.0
 40
0.0309432199
 40
0.0620189839
 40
0.0932228814
 40
0.1245486761
 40
0.1559881739
 40
0.1875314986
 40
0.219167205
 40
0.2508824811
 40
0.2826633418
 40
0.3144948427
 40
0.3463613026
 40
0.3782465333
 40
0.4101340754
 40
0.4420074358
 40
0.4738503267
 40
0.5056469014
 40
0.5373819866
 40
0.5690413069
 40
0.6006117007
 40
0.6320813232
 40
0.663439835
 40
0.6946785734
 40
0.7257907018
 40
0.7567713376
 40
0.7876176517
 40
0.81832894
 40
0.8489066623
 40
0.8641484749
 40
0.8793584371
 40
0.9096820509
 40
0.9398893278
 40
0.9549543882
 40
0.9699941932
 40
1.0
 40
1.0
 40
1.0
 40
1.0
 10
10.6020235585
 20
7.4414997136
 30
0.0
 10
10.5970839474
 20
7.4418422768
 30
0.0
 10
10.5872024869
 20
7.4428415711
 30
0.0
 10
10.5724743753
 20
7.4452669279
 30
0.0
 10
10.5578643181
 20
7.4486123606
 30
0.0
 10
10.5434315018
 20
7.4528643465
 30
0.0
 10
10.5292333937
 20
7.4580058374
 30
0.0
 10
10.515326788
 20
7.4640162077
 30
0.0
 10
10.5017672334
 20
7.4708713819
 30
0.0
 10
10.4886089071
 20
7.4785439145
 30
0.0
 10
10.4759043758
 20
7.4870031057
 30
0.0
 10
10.4637043941
 20
7.4962151218
 30
0.0
 10
10.4520577015
 20
7.5061431304
 30
0.0
 10
10.4410108304
 20
7.5167474463
 30
0.0
 10
10.4306079209
 20
7.5279856895
 30
0.0
 10
10.4208905465
 20
7.5398129534
 30
0.0
 10
10.4118975483
 20
7.5521819826
 30
0.0
 10
10.4036648816
 20
7.5650433603
 30
0.0
 10
10.3962254726
 20
7.5783457042
 30
0.0
 10
10.3896090874
 20
7.5920358701
 30
0.0
 10
10.3838422135
 20
7.606059162
 30
0.0
 10
10.378947954
 20
7.6203595486
 30
0.0
 10
10.3749459353
 20
7.6348798858
 30
0.0
 10
10.3718522269
 20
7.6495621392
 30
0.0
 10
10.3696792786
 20
7.6643476264
 30
0.0
 10
10.3684358609
 20
7.6791772036
 30
0.0
 10
10.3681270584
 20
7.6939916673
 30
0.0
 10
10.3687541318
 20
7.7087313693
 30
0.0
 10
10.3700562243
 20
7.7209174834
 30
0.0
 10
10.3715626875
 20
7.7305679061
 30
0.0
 10
10.3733731357
 20
7.7401245776
 30
0.0
 10
10.3762083224
 20
7.7519176003
 30
0.0
 10
10.379803139
 20
7.763477535
 30
0.0
 10
10.3831225551
 20
7.7725414885
 30
0.0
 10
10.386728066
 20
7.7814603085
 30
0.0
 10
10.3897620057
 20
7.7880065692
 30
0.0
 10
10.3919257058
 20
7.792292889
 30
0.0
  0
SPLINE
  5
3A1
100
AcDbEntity
  8
0
100
AcDbSpline
 62
7
  6
CONTINUOUS
 70
0
 71
3
 72
41
 73
37
 74
0
 42
0.0000001
 43
0.0000001
 44
0.0000000001
 40
0.0
 40
0.0
 40
0.0
 40
0.0
 40
0.030908881
 40
0.0619470658
 40
0.0931100443
 40
0.1243923039
 40
0.1557860979
 40
0.1872822881
 40
0.2188702004
 40
0.2505378922
 40
0.2822722962
 40
0.3140594192
 40
0.3458845386
 40
0.3777324082
 40
0.4095874695
 40
0.4414340651
 40
0.4732566539
 40
0.5050400243
 40
0.5367695053
 40
0.5684311714
 40
0.6000120408
 40
0.6315002635
 40
0.6628852981
 40
0.6941580736
 40
0.7253111352
 40
0.7563387697
 40
0.787237111
 40
0.8180042194
 40
0.8486401356
 40
0.8639113287
 40
0.8791506557
 40
0.9095323236
 40
0.9397948954
 40
0.9548858538
 40
0.9699501501
 40
1.0
 40
1.0
 40
1.0
 40
1.0
 10
10.6011566798
 20
7.4285882994
 30
0.0
 10
10.596095309
 20
7.4289393067
 30
0.0
 10
10.5859703504
 20
7.4299549475
 30
0.0
 10
10.570875264
 20
7.4324035807
 30
0.0
 10
10.5558950179
 20
7.435771471
 30
0.0
 10
10.5410872606
 20
7.4400456388
 30
0.0
 10
10.5265079502
 20
7.4452098556
 30
0.0
 10
10.5122124695
 20
7.4512444287
 30
0.0
 10
10.4982550343
 20
7.4581264185
 30
0.0
 10
10.4846885957
 20
7.4658296589
 30
0.0
 10
10.4715646135
 20
7.4743248859
 30
0.0
 10
10.4589328698
 20
7.4835798364
 30
0.0
 10
10.4468412798
 20
7.4935593746
 30
0.0
 10
10.4353357123
 20
7.504225623
 30
0.0
 10
10.4244598166
 20
7.5155381062
 30
0.0
 10
10.4142548584
 20
7.5274539027
 30
0.0
 10
10.4047595641
 20
7.5399278069
 30
0.0
 10
10.3960099752
 20
7.5529124997
 30
0.0
 10
10.3880393119
 20
7.5663587258
 30
0.0
 10
10.3808778477
 20
7.5802154797
 30
0.0
 10
10.3745527947
 20
7.5944301972
 30
0.0
 10
10.3690882003
 20
7.6089489528
 30
0.0
 10
10.3645048566
 20
7.6237166636
 30
0.0
 10
10.3608202204
 20
7.6386772933
 30
0.0
 10
10.358048348
 20
7.6537740739
 30
0.0
 10
10.3561998343
 20
7.6689496762
 30
0.0
 10
10.3552817944
 20
7.6841465869
 30
0.0
 10
10.3552977478
 20
7.6993067236
 30
0.0
 10
10.3560904171
 20
7.7118762528
 30
0.0
 10
10.3571910398
 20
7.7218540129
 30
0.0
 10
10.3585980543
 20
7.7317510589
 30
0.0
 10
10.3609324891
 20
7.7439951945
 30
0.0
 10
10.3640331676
 20
7.7560430513
 30
0.0
 10
10.3669636249
 20
7.7655191039
 30
0.0
 10
10.3701851134
 20
7.7748628913
 30
0.0
 10
10.3729364255
 20
7.7817453738
 30
0.0
 10
10.3749151076
 20
7.7862636246
 30
0.0
  0
SPLINE
  5
3A2
100
AcDbEntity
  8
0
100
AcDbSpline
 62
7
  6
CONTINUOUS
 70
0
 71
3
 72
86
 73
82
 74
0
 42
0.0000001
 43
0.0000001
 44
0.0000000001
 40
0.0
 40
0.0
 40
0.0
 40
0.0
 40
0.0027164229
 40
0.0054532199
 40
0.0082302803
 40
0.0110665652
 40
0.0139797601
 40
0.0169860612
 40
0.0201000083
 40
0.0233345154
 40
0.0267008552
 40
0.0302087911
 40
0.0338666949
 40
0.0376816386
 40
0.0416596027
 40
0.0458055094
 40
0.0501234214
 40
0.0546165986
 40
0.0592875859
 40
0.0641383491
 40
0.0691702497
 40
0.0743842108
 40
0.0797806815
 40
0.0853597253
 40
0.0911210701
 40
0.0970640767
 40
0.1094907819
 40
0.1226299857
 40
0.1364676026
 40
0.1509863633
 40
0.166166208
 40
0.1819846021
 40
0.1984167887
 40
0.2154360082
 40
0.2330136911
 40
0.2511196222
 40
0.2697220861
 40
0.2887880011
 40
0.3082830385
 40
0.3281717446
 40
0.3484176561
 40
0.3689834073
 40
0.3898308346
 40
0.4109210783
 40
0.4322146819
 40
0.4536716962
 40
0.4969136001
 40
0.5403217884
 40
0.5835689461
 40
0.6050305436
 40
0.6263300209
 40
0.6474274143
 40
0.6682832501
 40
0.6888586484
 40
0.7091154216
 40
0.7290161766
 40
0.7485244187
 40
0.7676046599
 40
0.7862225346
 40
0.8043449193
 40
0.8219400528
 40
0.8389776685
 40
0.8554291414
 40
0.8712676506
 40
0.8864683732
 40
0.9010086996
 40
0.9148684857
 40
0.9280303658
 40
0.9404801448
 40
0.9464347977
 40
0.952207837
 40
0.9577986052
 40
0.9632068066
 40
0.9684324934
 40
0.9734760794
 40
0.9783384382
 40
0.9830208843
 40
0.9875254058
 40
0.9918546018
 40
0.9960115767
 40
1.0
 40
1.0
 40
1.0
 40
1.0
 10
12.2414459286
 20
9.424164017
 30
0.0
 10
12.242364186
 20
9.4241003355
 30
0.0
 10
12.2442028838
 20
9.4238893644
 30
0.0
 10
12.2469375285
 20
9.4233248792
 30
0.0
 10
12.2496515002
 20
9.4225123847
 30
0.0
 10
12.2523428704
 20
9.4214527017
 30
0.0
 10
12.2550102584
 20
9.4201467831
 30
0.0
 10
12.2576522674
 20
9.4185956022
 30
0.0
 10
12.2602677237
 20
9.4168003308
 30
0.0
 10
12.262855419
 20
9.4147620432
 30
0.0
 10
12.2654142677
 20
9.4124819725
 30
0.0
 10
12.2679431599
 20
9.4099613521
 30
0.0
 10
12.270440968
 20
9.4072014807
 30
0.0
 10
12.2729066321
 20
9.4042037931
 30
0.0
 10
12.2753389754
 20
9.4009697417
 30
0.0
 10
12.2777369288
 20
9.3975009603
 30
0.0
 10
12.2800993342
 20
9.3937991364
 30
0.0
 10
12.2824250678
 20
9.3898660957
 30
0.0
 10
12.2847130349
 20
9.3857037857
 30
0.0
 10
12.2869620729
 20
9.3813142422
 30
0.0
 10
12.289171132
 20
9.3766996569
 30
0.0
 10
12.2913390755
 20
9.371862302
 30
0.0
 10
12.2934648527
 20
9.3668045886
 30
0.0
 10
12.2955474009
 20
9.3615290353
 30
0.0
 10
12.2975856758
 20
9.356038258
 30
0.0
 10
12.3002831803
 20
9.3483187356
 30
0.0
 10
12.3035270386
 20
9.3381441707
 30
0.0
 10
12.3071718036
 20
9.3252972907
 30
0.0
 10
12.3106169961
 20
9.3116632183
 30
0.0
 10
12.3138556416
 20
9.2972692452
 30
0.0
 10
12.3168811555
 20
9.2821440451
 30
0.0
 10
12.3196873818
 20
9.2663178739
 30
0.0
 10
12.3222686101
 20
9.2498224222
 30
0.0
 10
12.3246195889
 20
9.2326907637
 30
0.0
 10
12.3267355331
 20
9.2149572726
 30
0.0
 10
12.3286121353
 20
9.1966575498
 30
0.0
 10
12.330245574
 20
9.177828348
 30
0.0
 10
12.3316325207
 20
9.1585074969
 30
0.0
 10
12.3327701512
 20
9.1387338264
 30
0.0
 10
12.3336561482
 20
9.1185470851
 30
0.0
 10
12.3342887031
 20
9.097987857
 30
0.0
 10
12.3346665195
 20
9.0770974792
 30
0.0
 10
12.3347888177
 20
9.055917955
 30
0.0
 10
12.3346553274
 20
9.034491885
 30
0.0
 10
12.3342663254
 20
9.0128623237
 30
0.0
 10
12.3334057198
 20
8.9837358459
 30
0.0
 10
12.3316969374
 20
8.9471400715
 30
0.0
 10
12.3286593845
 20
8.9032257018
 30
0.0
 10
12.3253131428
 20
8.8667398492
 30
0.0
 10
12.3221550849
 20
8.8377669433
 30
0.0
 10
12.3195620103
 20
8.8162838488
 30
0.0
 10
12.3167437831
 20
8.7950361871
 30
0.0
 10
12.3137060586
 20
8.7740666552
 30
0.0
 10
12.3104549713
 20
8.7534174279
 30
0.0
 10
12.3069970772
 20
8.733130021
 30
0.0
 10
12.3033393529
 20
8.7132452221
 30
0.0
 10
12.299489179
 20
8.6938030048
 30
0.0
 10
12.2954543247
 20
8.6748424476
 30
0.0
 10
12.2912429363
 20
8.656401651
 30
0.0
 10
12.2868635209
 20
8.6385176579
 30
0.0
 10
12.2823249258
 20
8.6212263794
 30
0.0
 10
12.2776363211
 20
8.6045625217
 30
0.0
 10
12.2728071815
 20
8.5885595119
 30
0.0
 10
12.2678472642
 20
8.573249427
 30
0.0
 10
12.2627665927
 20
8.5586629119
 30
0.0
 10
12.2575754328
 20
8.5448291319
 30
0.0
 10
12.2522842574
 20
8.5317756294
 30
0.0
 10
12.2469037364
 20
8.5195285253
 30
0.0
 10
12.2422885989
 20
8.5098765624
 30
0.0
 10
12.2385528865
 20
8.502584825
 30
0.0
 10
12.2357771507
 20
8.4974139657
 30
0.0
 10
12.23298719
 20
8.4924622179
 30
0.0
 10
12.2301843879
 20
8.4877320375
 30
0.0
 10
12.2273701516
 20
8.4832257745
 30
0.0
 10
12.2245458497
 20
8.4789456888
 30
0.0
 10
12.22171294
 20
8.4748938875
 30
0.0
 10
12.2188727629
 20
8.4710723909
 30
0.0
 10
12.2160267102
 20
8.4674830436
 30
0.0
 10
12.2131761014
 20
8.4641275992
 30
0.0
 10
12.2103224656
 20
8.4610078797
 30
0.0
 10
12.2083794138
 20
8.4590462959
 30
0.0
 10
12.2074073544
 20
8.4581073586
 30
0.0
  0
SPLINE
  5
3A3
100
AcDbEntity
  8
0
100
AcDbSpline
 62
7
  6
CONTINUOUS
 70
0
 71
3
 72
48
 73
44
 74
0
 42
0.0000001
 43
0.0000001
 44
0.0000000001
 40
0.0
 40
0.0
 40
0.0
 40
0.0
 40
0.0311434631
 40
0.0624399956
 40
0.0938836138
 40
0.1254646847
 40
0.1571709829
 40
0.1889877595
 40
0.22089807
 40
0.2528831302
 40
0.2849226987
 40
0.3169954772
 40
0.3490795248
 40
0.3811526835
 40
0.413193006
 40
0.4451791789
 40
0.4770909382
 40
0.5089094729
 40
0.5406178044
 40
0.5722011384
 40
0.6036471904
 40
0.6349464615
 40
0.6660924706
 40
0.6970819377
 40
0.7279148953
 40
0.7432762698
 40
0.7586000727
 40
0.7738872515
 40
0.789138954
 40
0.8043565275
 40
0.819541513
 40
0.8346956329
 40
0.8498207866
 40
0.8649190411
 40
0.8799926163
 40
0.8950438755
 40
0.9100753135
 40
0.9250895394
 40
0.9400892632
 40
0.9550772817
 40
0.9700564603
 40
0.9850297153
 40
1.0
 40
1.0
 40
1.0
 40
1.0
 10
10.4349949897
 20
7.0386810249
 30
0.0
 10
10.4233901925
 20
7.0394858203
 30
0.0
 10
10.4001738338
 20
7.041948797
 30
0.0
 10
10.3656307734
 20
7.0481530772
 30
0.0
 10
10.3314576967
 20
7.0568434147
 30
0.0
 10
10.2978391781
 20
7.0679731018
 30
0.0
 10
10.2649537967
 20
7.0814824507
 30
0.0
 10
10.2329769866
 20
7.0972992074
 30
0.0
 10
10.2020791068
 20
7.1153388785
 30
0.0
 10
10.1724247692
 20
7.1355050923
 30
0.0
 10
10.1441719913
 20
7.1576902773
 30
0.0
 10
10.1174713259
 20
7.1817761179
 30
0.0
 10
10.0924650244
 20
7.207634163
 30
0.0
 10
10.0692864066
 20
7.2351266237
 30
0.0
 10
10.0480590477
 20
7.2641069824
 30
0.0
 10
10.0288961295
 20
7.2944207938
 30
0.0
 10
10.0118999605
 20
7.3259065691
 30
0.0
 10
9.9971612787
 20
7.358396524
 30
0.0
 10
9.9847588322
 20
7.3917175185
 30
0.0
 10
9.9747590509
 20
7.4256919797
 30
0.0
 10
9.9672155125
 20
7.4601388097
 30
0.0
 10
9.96216875
 20
7.4948742423
 30
0.0
 10
9.9596461621
 20
7.52971335
 30
0.0
 10
9.9596613485
 20
7.5644689544
 30
0.0
 10
9.9617924233
 20
7.5932484275
 30
0.0
 10
9.9647635673
 20
7.6160381188
 30
0.0
 10
9.9676173261
 20
7.632975108
 30
0.0
 10
9.9710952378
 20
7.6497529844
 30
0.0
 10
9.9751927297
 20
7.6663496252
 30
0.0
 10
9.9799043052
 20
7.6827427861
 30
0.0
 10
9.9852236651
 20
7.6989105954
 30
0.0
 10
9.9911437646
 20
7.7148314303
 30
0.0
 10
9.9976566796
 20
7.7304840279
 30
0.0
 10
10.0047536964
 20
7.7458474846
 30
0.0
 10
10.0124253888
 20
7.7609012499
 30
0.0
 10
10.020661497
 20
7.7756252139
 30
0.0
 10
10.0294509978
 20
7.7899997175
 30
0.0
 10
10.0387821937
 20
7.8040055247
 30
0.0
 10
10.0486426163
 20
7.8176239264
 30
0.0
 10
10.059019048
 20
7.8308367283
 30
0.0
 10
10.0698977258
 20
7.8436263102
 30
0.0
 10
10.0812638756
 20
7.8559753381
 30
0.0
 10
10.0891569945
 20
7.8639042017
 30
0.0
 10
10.0931788332
 20
7.8677890102
 30
0.0
  0
SPLINE
  5
3A4
100
AcDbEntity
  8
0
100
AcDbSpline
 62
7
  6
CONTINUOUS
 70
0
 71
3
 72
16
 73
12
 74
0
 42
0.0000001
 43
0.0000001
 44
0.0000000001
 40
0.0
 40
0.0
 40
0.0
 40
0.0
 40
0.1182172468
 40
0.2393005656
 40
0.3628728012
 40
0.4885265766
 40
0.6157804359
 40
0.7440189544
 40
0.8724320214
 40
0.9363959837
 40
1.0
 40
1.0
 40
1.0
 40
1.0
 10
10.6366607213
 20
7.6389338869
 30
0.0
 10
10.63510613
 20
7.6435212411
 30
0.0
 10
10.6319500959
 20
7.6528040518
 30
0.0
 10
10.6272285445
 20
7.6669022255
 30
0.0
 10
10.622578369
 20
7.6813450156
 30
0.0
 10
10.6181406384
 20
7.6961195535
 30
0.0
 10
10.6140814375
 20
7.7112022747
 30
0.0
 10
10.6105926846
 20
7.7265449667
 30
0.0
 10
10.6083322739
 20
7.7394934269
 30
0.0
 10
10.6070134617
 20
7.7498998408
 30
0.0
 10
10.60653169
 20
7.75510563
 30
0.0
 10
10.6063386677
 20
7.7577044633
 30
0.0
  0
SPLINE
  5
3A5
100
AcDbEntity
  8
0
100
AcDbSpline
 62
7
  6
CONTINUOUS
 70
0
 71
3
 72
15
 73
11
 74
0
 42
0.0000001
 43
0.0000001
 44
0.0000000001
 40
0.0
 40
0.0
 40
0.0
 40
0.0
 40
0.1265900298
 40
0.2527049743
 40
0.3783427108
 40
0.5035188411
 40
0.6282477624
 40
0.7525520016
 40
0.8764586557
 40
1.0
 40
1.0
 40
1.0
 40
1.0
 10
10.6011566798
 20
7.4285882994
 30
0.0
 10
10.6056247065
 20
7.4282784407
 30
0.0
 10
10.614562732
 20
7.4279018937
 30
0.0
 10
10.6279538572
 20
7.4280717426
 30
0.0
 10
10.6412657794
 20
7.4289768979
 30
0.0
 10
10.6544581165
 20
7.4306145841
 30
0.0
 10
10.6674916932
 20
7.4329800516
 30
0.0
 10
10.6803276429
 20
7.4360662973
 30
0.0
 10
10.6929271161
 20
7.4398639621
 30
0.0
 10
10.7011566515
 20
7.4428671579
 30
0.0
 10
10.7052178838
 20
7.4444830542
 30
0.0
  0
SPLINE
  5
3A6
100
AcDbEntity
  8
0
100
AcDbSpline
 62
7
  6
CONTINUOUS
 70
0
 71
3
 72
86
 73
82
 74
0
 42
0.0000001
 43
0.0000001
 44
0.0000000001
 40
0.0
 40
0.0
 40
0.0
 40
0.0
 40
0.0039487674
 40
0.0077209355
 40
0.0113257336
 40
0.0147746617
 40
0.0212567992
 40
0.0243283615
 40
0.0273114634
 40
0.0302283474
 40
0.0331029463
 40
0.0359603569
 40
0.0388261651
 40
0.0417257185
 40
0.0446834111
 40
0.0477221074
 40
0.0508627303
 40
0.0541239774
 40
0.0575223294
 40
0.0610720098
 40
0.0647851791
 40
0.0686721212
 40
0.0727413593
 40
0.0769999812
 40
0.0814536943
 40
0.0861070657
 40
0.0909636836
 40
0.0960261794
 40
0.1012964876
 40
0.1067757995
 40
0.1124647125
 40
0.1183633248
 40
0.1244711751
 40
0.1373102774
 40
0.1509713791
 40
0.1654378435
 40
0.1806885687
 40
0.1966985913
 40
0.2134395426
 40
0.2308800489
 40
0.2489860598
 40
0.2677211165
 40
0.2870465817
 40
0.3069218359
 40
0.3273044875
 40
0.3481505568
 40
0.3694146428
 40
0.3910500793
 40
0.4130090872
 40
0.4577012019
 40
0.5030934579
 40
0.5487792776
 40
0.5943487452
 40
0.6393932599
 40
0.6615929578
 40
0.6835111963
 40
0.7050993657
 40
0.72630983
 40
0.7470960865
 40
0.7674129149
 40
0.7872165371
 40
0.8064647867
 40
0.8251173052
 40
0.8431357374
 40
0.8604839326
 40
0.8771281811
 40
0.8930374915
 40
0.908183938
 40
0.9225430468
 40
0.9360942774
 40
0.9488216435
 40
0.954873172
 40
0.9607153084
 40
0.9663477363
 40
0.9717706546
 40
0.9769848137
 40
0.9819915562
 40
0.9867931175
 40
0.9913924783
 40
0.9957932892
 40
1.0
 40
1.0
 40
1.0
 40
1.0
 10
12.2080921285
 20
7.8763034118
 30
0.0
 10
12.2086697935
 20
7.8768410133
 30
0.0
 10
12.2098246529
 20
7.877865447
 30
0.0
 10
12.2115965949
 20
7.8792753401
 30
0.0
 10
12.2133669528
 20
7.88052158
 30
0.0
 10
12.2156751068
 20
7.8819341946
 30
0.0
 10
12.2180300256
 20
7.8830607302
 30
0.0
 10
12.2204098557
 20
7.8838521425
 30
0.0
 10
12.2221564702
 20
7.8842676721
 30
0.0
 10
12.2238950468
 20
7.8845150301
 30
0.0
 10
12.2256243633
 20
7.8845938353
 30
0.0
 10
12.227342956
 20
7.8845038287
 30
0.0
 10
12.2290493715
 20
7.8842451453
 30
0.0
 10
12.2307421714
 20
7.8838180173
 30
0.0
 10
12.2324200536
 20
7.8832230495
 30
0.0
 10
12.2340818544
 20
7.8824609322
 30
0.0
 10
12.2357265258
 20
7.8815324311
 30
0.0
 10
12.2373531937
 20
7.8804384543
 30
0.0
 10
12.2389609741
 20
7.8791798152
 30
0.0
 10
12.2405490934
 20
7.8777574553
 30
0.0
 10
12.2421167608
 20
7.876172303
 30
0.0
 10
12.2436631546
 20
7.8744253229
 30
0.0
 10
12.2451875226
 20
7.8725176009
 30
0.0
 10
12.246689006
 20
7.8704502278
 30
0.0
 10
12.2481668161
 20
7.8682244337
 30
0.0
 10
12.2496201319
 20
7.8658415143
 30
0.0
 10
12.2510480998
 20
7.8633028472
 30
0.0
 10
12.2524499463
 20
7.8606099368
 30
0.0
 10
12.2538248144
 20
7.8577643451
 30
0.0
 10
12.255171924
 20
7.8547677556
 30
0.0
 10
12.256490481
 20
7.8516219366
 30
0.0
 10
12.2577796947
 20
7.848328735
 30
0.0
 10
12.2594869871
 20
7.8436660014
 30
0.0
 10
12.2615346159
 20
7.8374777594
 30
0.0
 10
12.2638239825
 20
7.8296160368
 30
0.0
 10
12.2659791888
 20
7.8212181113
 30
0.0
 10
12.267995039
 20
7.8123039489
 30
0.0
 10
12.2698666415
 20
7.8028946418
 30
0.0
 10
12.2715894604
 20
7.7930125721
 30
0.0
 10
12.2731593163
 20
7.7826812766
 30
0.0
 10
12.2745723977
 20
7.7719253963
 30
0.0
 10
12.2758252722
 20
7.7607706046
 30
0.0
 10
12.2769148935
 20
7.7492435479
 30
0.0
 10
12.2778386193
 20
7.7373717787
 30
0.0
 10
12.2785942069
 20
7.7251836858
 30
0.0
 10
12.2791798203
 20
7.7127084175
 30
0.0
 10
12.2795940259
 20
7.699975822
 30
0.0
 10
12.279835828
 20
7.6870163386
 30
0.0
 10
12.279928005
 20
7.669372967
 30
0.0
 10
12.2796043092
 20
7.6469818868
 30
0.0
 10
12.278533356
 20
7.6198680592
 30
0.0
 10
12.2767875278
 20
7.5926135327
 30
0.0
 10
12.2743835083
 20
7.5654790385
 30
0.0
 10
12.2718388369
 20
7.543075806
 30
0.0
 10
12.2694869157
 20
7.5254130722
 30
0.0
 10
12.2675831535
 20
7.5124207067
 30
0.0
 10
12.2655357221
 20
7.4996503819
 30
0.0
 10
12.2633495167
 20
7.4871326317
 30
0.0
 10
12.2610297991
 20
7.4748974066
 30
0.0
 10
12.2585821429
 20
7.4629739686
 30
0.0
 10
12.2560124328
 20
7.4513908317
 30
0.0
 10
12.2533268448
 20
7.440175688
 30
0.0
 10
12.2505318407
 20
7.4293553358
 30
0.0
 10
12.2476341496
 20
7.4189556116
 30
0.0
 10
12.2446407466
 20
7.4090013291
 30
0.0
 10
12.2415588377
 20
7.3995162189
 30
0.0
 10
12.2383958364
 20
7.3905228568
 30
0.0
 10
12.2351593539
 20
7.3820426145
 30
0.0
 10
12.2318571656
 20
7.3740955284
 30
0.0
 10
12.2284971901
 20
7.3667004788
 30
0.0
 10
12.2256092022
 20
7.3609189297
 30
0.0
 10
12.2232705134
 20
7.3565896149
 30
0.0
 10
12.2215366045
 20
7.3535461403
 30
0.0
 10
12.2197942622
 20
7.3506531577
 30
0.0
 10
12.2180445051
 20
7.347912379
 30
0.0
 10
12.2162884007
 20
7.3453254135
 30
0.0
 10
12.214526927
 20
7.3428937924
 30
0.0
 10
12.2127611191
 20
7.3406188986
 30
0.0
 10
12.2109919353
 20
7.338502065
 30
0.0
 10
12.2092205208
 20
7.3365446535
 30
0.0
 10
12.2080120092
 20
7.3353196077
 30
0.0
 10
12.2074073544
 20
7.334735556
 30
0.0
  0
SPLINE
  5
3A7
100
AcDbEntity
  8
0
100
AcDbSpline
 62
7
  6
CONTINUOUS
 70
0
 71
3
 72
23
 73
19
 74
0
 42
0.0000001
 43
0.0000001
 44
0.0000000001
 40
0.0
 40
0.0
 40
0.0
 40
0.0
 40
0.0638372522
 40
0.1274605251
 40
0.1908697448
 40
0.2540697399
 40
0.3170656624
 40
0.3798653542
 40
0.4424783519
 40
0.5049161183
 40
0.5671918559
 40
0.6293204093
 40
0.6913181238
 40
0.753202687
 40
0.814992955
 40
0.8767087625
 40
0.9383707198
 40
1.0
 40
1.0
 40
1.0
 40
1.0
 10
10.4432771925
 20
7.0466810189
 30
0.0
 10
10.450962765
 20
7.0461480227
 30
0.0
 10
10.4663364971
 20
7.0454542583
 30
0.0
 10
10.4893796931
 20
7.0455372481
 30
0.0
 10
10.5123149813
 20
7.0467454187
 30
0.0
 10
10.5350873664
 20
7.0490758977
 30
0.0
 10
10.5576433339
 20
7.0525233091
 30
0.0
 10
10.5799294958
 20
7.0570795176
 30
0.0
 10
10.6018932125
 20
7.0627338339
 30
0.0
 10
10.6234825629
 20
7.0694729405
 30
0.0
 10
10.6446465112
 20
7.0772809648
 30
0.0
 10
10.66533502
 20
7.0861394956
 30
0.0
 10
10.6854991684
 20
7.0960276268
 30
0.0
 10
10.7050912846
 20
7.1069220262
 30
0.0
 10
10.724064992
 20
7.1187969272
 30
0.0
 10
10.7423755756
 20
7.131624419
 30
0.0
 10
10.7599791359
 20
7.1453736588
 30
0.0
 10
10.7712188828
 20
7.1551354217
 30
0.0
 10
10.7767053265
 20
7.1601570114
 30
0.0
  0
SPLINE
  5
3A8
100
AcDbEntity
  8
0
100
AcDbSpline
 62
7
  6
CONTINUOUS
 70
0
 71
3
 72
62
 73
58
 74
0
 42
0.0000001
 43
0.0000001
 44
0.0000000001
 40
0.0
 40
0.0
 40
0.0
 40
0.0
 40
0.0082489206
 40
0.0160246221
 40
0.0233634771
 40
0.0303108478
 40
0.0369219422
 40
0.0432623294
 40
0.0463556364
 40
0.0494103258
 40
0.0524370832
 40
0.0554469316
 40
0.0584510923
 40
0.0614608576
 40
0.0644874523
 40
0.0675418923
 40
0.0706348737
 40
0.0737766601
 40
0.0802425573
 40
0.0870130053
 40
0.0941484028
 40
0.1016989858
 40
0.1097055145
 40
0.1182003745
 40
0.1272088017
 40
0.1367498552
 40
0.1468375252
 40
0.1574814315
 40
0.1686875356
 40
0.1804587368
 40
0.1927951892
 40
0.2056948176
 40
0.219153478
 40
0.2331652573
 40
0.2477226991
 40
0.2628168568
 40
0.2784375774
 40
0.2945734837
 40
0.3112121464
 40
0.3283401791
 40
0.3459432266
 40
0.3640061589
 40
0.3825130067
 40
0.4207903261
 40
0.460634682
 40
0.5018952114
 40
0.5444128098
 40
0.5880212799
 40
0.6325484203
 40
0.6778170771
 40
0.7236461561
 40
0.7698516149
 40
0.8162474444
 40
0.8626466242
 40
0.9088622395
 40
0.9547078426
 40
1.0
 40
1.0
 40
1.0
 40
1.0
 10
9.9463727154
 20
10.3547057019
 30
0.0
 10
9.9450416269
 20
10.3559444256
 30
0.0
 10
9.9425287396
 20
10.3584312731
 30
0.0
 10
9.9391324534
 20
10.3623089633
 30
0.0
 10
9.9362283009
 20
10.3662169861
 30
0.0
 10
9.9338203076
 20
10.370152034
 30
0.0
 10
9.9319124604
 20
10.3741103254
 30
0.0
 10
9.9307329129
 20
10.377453606
 30
0.0
 10
9.9300522348
 20
10.3801224054
 30
0.0
 10
9.9296720524
 20
10.3821100765
 30
0.0
 10
9.9294183958
 20
10.3840992584
 30
0.0
 10
9.9292912974
 20
10.3860893908
 30
0.0
 10
9.9292908149
 20
10.388079837
 30
0.0
 10
9.929416986
 20
10.3900699721
 30
0.0
 10
9.9296697421
 20
10.3920591716
 30
0.0
 10
9.9300489364
 20
10.3940468124
 30
0.0
 10
9.9305544706
 20
10.3960323477
 30
0.0
 10
9.9314046138
 20
10.3987011887
 30
0.0
 10
9.9327966044
 20
10.4020409846
 30
0.0
 10
9.934953155
 20
10.4059880135
 30
0.0
 10
9.9376078755
 20
10.4099100987
 30
0.0
 10
9.9407568155
 20
10.4138034952
 30
0.0
 10
9.9443960499
 20
10.4176651321
 30
0.0
 10
9.9485214553
 20
10.4214916944
 30
0.0
 10
9.9531286598
 20
10.4252797066
 30
0.0
 10
9.9582128084
 20
10.429025649
 30
0.0
 10
9.9637686439
 20
10.4327258099
 30
0.0
 10
9.9697903673
 20
10.4363764713
 30
0.0
 10
9.9762716716
 20
10.439973883
 30
0.0
 10
9.9832057511
 20
10.4435142396
 30
0.0
 10
9.9905852549
 20
10.4469938407
 30
0.0
 10
9.9984023587
 20
10.4504089349
 30
0.0
 10
10.0066487249
 20
10.4537558781
 30
0.0
 10
10.0153155395
 20
10.4570310752
 30
0.0
 10
10.024393526
 20
10.4602309621
 30
0.0
 10
10.0338729368
 20
10.4633521193
 30
0.0
 10
10.0437435931
 20
10.4663911336
 30
0.0
 10
10.0539948752
 20
10.4693447328
 30
0.0
 10
10.0646157477
 20
10.4722097187
 30
0.0
 10
10.0755947733
 20
10.4749829647
 30
0.0
 10
10.086920112
 20
10.4776614915
 30
0.0
 10
10.0985795692
 20
10.4802423874
 30
0.0
 10
10.1147358997
 20
10.483587203
 30
0.0
 10
10.1356771452
 20
10.4874922712
 30
0.0
 10
10.1616567291
 20
10.4916966144
 30
0.0
 10
10.1886489256
 20
10.4954517739
 30
0.0
 10
10.2165372463
 20
10.4987413698
 30
0.0
 10
10.2452014671
 20
10.5015510234
 30
0.0
 10
10.27451791
 20
10.5038684763
 30
0.0
 10
10.3043600637
 20
10.5056836171
 30
0.0
 10
10.3345991203
 20
10.5069885287
 30
0.0
 10
10.3651045426
 20
10.5077775195
 30
0.0
 10
10.395744631
 20
10.5080471463
 30
0.0
 10
10.4263871093
 20
10.5077962417
 30
0.0
 10
10.4568996516
 20
10.507025889
 30
0.0
 10
10.4871504877
 20
10.5057394732
 30
0.0
 10
10.50720492
 20
10.5045325909
 30
0.0
 10
10.5171647232
 20
10.5038418762
 30
0.0
  0
SPLINE
  5
3A9
100
AcDbEntity
  8
0
100
AcDbSpline
 62
7
  6
CONTINUOUS
 70
0
 71
3
 72
45
 73
41
 74
0
 42
0.0000001
 43
0.0000001
 44
0.0000000001
 40
0.0
 40
0.0
 40
0.0
 40
0.0
 40
0.0311289873
 40
0.0624093709
 40
0.0938353929
 40
0.1253976715
 40
0.1570843575
 40
0.1888811312
 40
0.220771533
 40
0.2527373013
 40
0.2847587339
 40
0.3168150722
 40
0.3488848975
 40
0.3809465361
 40
0.4129784689
 40
0.444959738
 40
0.4768703476
 40
0.5086916487
 40
0.5404067072
 40
0.5720006506
 40
0.6034609779
 40
0.6347778345
 40
0.6659442489
 40
0.696956312
 40
0.7278133001
 40
0.7585177429
 40
0.7890754163
 40
0.8194952628
 40
0.8346598252
 40
0.8497946563
 40
0.8649016868
 40
0.8799830006
 40
0.8950408279
 40
0.9100775344
 40
0.9250956035
 40
0.9400976264
 40
0.9550862882
 40
0.9700643487
 40
0.9850346299
 40
1.0
 40
1.0
 40
1.0
 40
1.0
 10
10.4432771925
 20
7.0466810189
 30
0.0
 10
10.4317970257
 20
7.0474771712
 30
0.0
 10
10.4088301414
 20
7.0499045864
 30
0.0
 10
10.3746532404
 20
7.0560023359
 30
0.0
 10
10.3408345642
 20
7.0645339587
 30
0.0
 10
10.3075528785
 20
7.0754545978
 30
0.0
 10
10.2749812322
 20
7.0887069521
 30
0.0
 10
10.2432896707
 20
7.1042216114
 30
0.0
 10
10.2126434463
 20
7.1219174735
 30
0.0
 10
10.1832023859
 20
7.1417020522
 30
0.0
 10
10.1551199942
 20
7.1634719941
 30
0.0
 10
10.1285427407
 20
7.1871136861
 30
0.0
 10
10.1036092519
 20
7.2125037686
 30
0.0
 10
10.0804495628
 20
7.2395097558
 30
0.0
 10
10.0591845305
 20
7.267990804
 30
0.0
 10
10.0399251808
 20
7.2977983944
 30
0.0
 10
10.0227720519
 20
7.3287770546
 30
0.0
 10
10.0078147803
 20
7.3607652359
 30
0.0
 10
9.9951316335
 20
7.3935961247
 30
0.0
 10
9.9847889823
 20
7.4270984556
 30
0.0
 10
9.9768410596
 20
7.4610974458
 30
0.0
 10
9.9713297032
 20
7.4954156881
 30
0.0
 10
9.9682839962
 20
7.5298740274
 30
0.0
 10
9.9677201931
 20
7.5642925491
 30
0.0
 10
9.9696416339
 20
7.5984913587
 30
0.0
 10
9.9740387927
 20
7.6322920313
 30
0.0
 10
9.980888586
 20
7.6655166187
 30
0.0
 10
9.9886209033
 20
7.6926119042
 30
0.0
 10
9.9959920102
 20
7.7138184005
 30
0.0
 10
10.0020998642
 20
7.729458051
 30
0.0
 10
10.008784319
 20
7.7448262956
 30
0.0
 10
10.0160367734
 20
7.7599033065
 30
0.0
 10
10.0238476982
 20
7.7746693022
 30
0.0
 10
10.032206874
 20
7.7891050057
 30
0.0
 10
10.0411034317
 20
7.8031914962
 30
0.0
 10
10.0505257047
 20
7.8169103812
 30
0.0
 10
10.0604613521
 20
7.830243709
 30
0.0
 10
10.0708974971
 20
7.8431740639
 30
0.0
 10
10.0818202173
 20
7.8556843373
 30
0.0
 10
10.0894182246
 20
7.863734938
 30
0.0
 10
10.0932927185
 20
7.8676840644
 30
0.0
  0
LINE
  5
3AA
100
AcDbEntity
  8
0
100
AcDbLine
 62
7
  6
CONTINUOUS
 10
10.0932927185
 20
7.8676840644
 11
10.0936350465
 21
7.8680325886
  0
SPLINE
  5
3AB
100
AcDbEntity
  8
0
100
AcDbSpline
 62
7
  6
CONTINUOUS
 70
0
 71
3
 72
62
 73
58
 74
0
 42
0.0000001
 43
0.0000001
 44
0.0000000001
 40
0.0
 40
0.0
 40
0.0
 40
0.0
 40
0.0156667121
 40
0.0313829209
 40
0.0471463709
 40
0.0629565845
 40
0.0788116505
 40
0.0947095368
 40
0.1106478989
 40
0.1266240287
 40
0.1586698697
 40
0.1908276714
 40
0.2230670084
 40
0.2553549804
 40
0.2876572182
 40
0.3199389261
 40
0.3521659225
 40
0.3843056825
 40
0.416328328
 40
0.4322911561
 40
0.4482152056
 40
0.4640978954
 40
0.4799369719
 40
0.4957305264
 40
0.5114770127
 40
0.5271752676
 40
0.5428245218
 40
0.5584244072
 40
0.5739749643
 40
0.5894766498
 40
0.6049303347
 40
0.6203372977
 40
0.6356992196
 40
0.6510181758
 40
0.6662966188
 40
0.6815373577
 40
0.6967435375
 40
0.7119186158
 40
0.7270663315
 40
0.7421906707
 40
0.7572958331
 40
0.7723861963
 40
0.7874662741
 40
0.8025406743
 40
0.8176140566
 40
0.8326910918
 40
0.8477764169
 40
0.8628745916
 40
0.8779900556
 40
0.8931270915
 40
0.9082897847
 40
0.9234819856
 40
0.9387072758
 40
0.9539689395
 40
0.9692699387
 40
0.984612885
 40
1.0
 40
1.0
 40
1.0
 40
1.0
 10
10.4432771925
 20
7.2234454556
 30
0.0
 10
10.4387272793
 20
7.2237609932
 30
0.0
 10
10.4296261395
 20
7.2246006681
 30
0.0
 10
10.4160255753
 20
7.2264778638
 30
0.0
 10
10.4024816138
 20
7.2289710818
 30
0.0
 10
10.3890230482
 20
7.2320748892
 30
0.0
 10
10.3756776527
 20
7.2357829487
 30
0.0
 10
10.3624733879
 20
7.2400874113
 30
0.0
 10
10.3494374525
 20
7.2449794422
 30
0.0
 10
10.3323023115
 20
7.2522780067
 30
0.0
 10
10.3114412703
 20
7.2628203038
 30
0.0
 10
10.2875383243
 20
7.2776126836
 30
0.0
 10
10.2649320377
 20
7.2944393318
 30
0.0
 10
10.243811478
 20
7.3131596002
 30
0.0
 10
10.2243518325
 20
7.3336180438
 30
0.0
 10
10.2067149329
 20
7.3556444302
 30
0.0
 10
10.1910473694
 20
7.3790561546
 30
0.0
 10
10.1774799922
 20
7.4036573359
 30
0.0
 10
10.1680061353
 20
7.4250075248
 30
0.0
 10
10.1615851175
 20
7.4424747045
 30
0.0
 10
10.1573607821
 20
7.4557289871
 30
0.0
 10
10.1537325491
 20
7.4691211338
 30
0.0
 10
10.1507078387
 20
7.4826235408
 30
0.0
 10
10.1482930236
 20
7.4962079949
 30
0.0
 10
10.1464931717
 20
7.509846211
 30
0.0
 10
10.1453120309
 20
7.523509755
 30
0.0
 10
10.1447520782
 20
7.5371701504
 30
0.0
 10
10.1448145204
 20
7.5507989223
 30
0.0
 10
10.1454992706
 20
7.5643676558
 30
0.0
 10
10.1468048966
 20
7.5778480604
 30
0.0
 10
10.1487286971
 20
7.591212028
 30
0.0
 10
10.1512667058
 20
7.6044316843
 30
0.0
 10
10.1544136648
 20
7.6174794511
 30
0.0
 10
10.1581630066
 20
7.6303281157
 30
0.0
 10
10.1625069324
 20
7.6429508731
 30
0.0
 10
10.1674364258
 20
7.6553213758
 30
0.0
 10
10.1729412237
 20
7.6674138052
 30
0.0
 10
10.1790098351
 20
7.6792029341
 30
0.0
 10
10.185629615
 20
7.6906641567
 30
0.0
 10
10.192786788
 20
7.7017735338
 30
0.0
 10
10.2004664217
 20
7.7125078765
 30
0.0
 10
10.2086524799
 20
7.7228447895
 30
0.0
 10
10.217327888
 20
7.7327626937
 30
0.0
 10
10.2264745657
 20
7.7422408648
 30
0.0
 10
10.2360734105
 20
7.7512595289
 30
0.0
 10
10.246104376
 20
7.7597998765
 30
0.0
 10
10.2565465291
 20
7.7678440823
 30
0.0
 10
10.2673780894
 20
7.7753753378
 30
0.0
 10
10.2785764306
 20
7.7823779515
 30
0.0
 10
10.2901181701
 20
7.7888373318
 30
0.0
 10
10.301979222
 20
7.7947400046
 30
0.0
 10
10.3141348378
 20
7.8000736429
 30
0.0
 10
10.3265596413
 20
7.804827162
 30
0.0
 10
10.339227674
 20
7.8089906692
 30
0.0
 10
10.3521126094
 20
7.8125555037
 30
0.0
 10
10.3651871848
 20
7.8155141652
 30
0.0
 10
10.3739997296
 20
7.8170762642
 30
0.0
 10
10.37842749
 20
7.8177547734
 30
0.0
  0
SPLINE
  5
3AC
100
AcDbEntity
  8
0
100
AcDbSpline
 62
7
  6
CONTINUOUS
 70
0
 71
3
 72
53
 73
49
 74
0
 42
0.0000001
 43
0.0000001
 44
0.0000000001
 40
0.0
 40
0.0
 40
0.0
 40
0.0
 40
0.0055575358
 40
0.011177956
 40
0.0169218929
 40
0.0228457725
 40
0.029000554
 40
0.035430949
 40
0.0421754072
 40
0.049266247
 40
0.0567303126
 40
0.0645894103
 40
0.0728611106
 40
0.0815591386
 40
0.090694095
 40
0.1002736988
 40
0.1103033831
 40
0.1207863988
 40
0.1317243026
 40
0.1431169581
 40
0.1549629446
 40
0.1672594886
 40
0.1800028167
 40
0.1931880432
 40
0.2068094834
 40
0.2208605141
 40
0.2353338579
 40
0.2502214288
 40
0.2655145942
 40
0.2812040135
 40
0.3137310911
 40
0.3477184295
 40
0.3830735502
 40
0.4196973681
 40
0.4574849444
 40
0.496326165
 40
0.5361063668
 40
0.5767069288
 40
0.6180058371
 40
0.6598782328
 40
0.7021969483
 40
0.7448330351
 40
0.7876562859
 40
0.8305357554
 40
0.8733402739
 40
0.9159389748
 40
0.958201786
 40
1.0
 40
1.0
 40
1.0
 40
1.0
 10
9.9657963239
 20
10.3518356424
 30
0.0
 10
9.9657963198
 20
10.3529006156
 30
0.0
 10
9.9659155864
 20
10.3550444641
 30
0.0
 10
9.9664506987
 20
10.3582488044
 30
0.0
 10
9.9673412875
 20
10.3614459819
 30
0.0
 10
9.9685854926
 20
10.3646323252
 30
0.0
 10
9.9701813836
 20
10.367805203
 30
0.0
 10
9.9721267049
 20
10.3709622421
 30
0.0
 10
9.9744193415
 20
10.374101209
 30
0.0
 10
9.9770569563
 20
10.3772200606
 30
0.0
 10
9.9800372685
 20
10.3803166224
 30
0.0
 10
9.9833577125
 20
10.3833888181
 30
0.0
 10
9.9870156465
 20
10.3864343765
 30
0.0
 10
9.9910080937
 20
10.3894511217
 30
0.0
 10
9.9953319173
 20
10.3924366976
 30
0.0
 10
9.9999836348
 20
10.395388866
 30
0.0
 10
10.0049595628
 20
10.3983052381
 30
0.0
 10
10.0102556841
 20
10.4011835621
 30
0.0
 10
10.0158677628
 20
10.4040214618
 30
0.0
 10
10.0217912486
 20
10.4068167088
 30
0.0
 10
10.0280213664
 20
10.4095669705
 30
0.0
 10
10.0345530471
 20
10.4122700672
 30
0.0
 10
10.0413809961
 20
10.4149237307
 30
0.0
 10
10.0484996444
 20
10.4175258469
 30
0.0
 10
10.0559032004
 20
10.4200742265
 30
0.0
 10
10.0635856156
 20
10.4225668335
 30
0.0
 10
10.0715406249
 20
10.425001569
 30
0.0
 10
10.0797617203
 20
10.4273764803
 30
0.0
 10
10.088242195
 20
10.4296895858
 30
0.0
 10
10.1000280076
 20
10.4327253114
 30
0.0
 10
10.1153615938
 20
10.4363422435
 30
0.0
 10
10.1344670111
 20
10.4403569003
 30
0.0
 10
10.154429842
 20
10.4440830452
 30
0.0
 10
10.1751847352
 20
10.447508365
 30
0.0
 10
10.1966638561
 20
10.4506215171
 30
0.0
 10
10.2187969142
 20
10.4534122056
 30
0.0
 10
10.2415114611
 20
10.4558712027
 30
0.0
 10
10.2647331176
 20
10.4579903814
 30
0.0
 10
10.2883858278
 20
10.4597627403
 30
0.0
 10
10.3123921106
 20
10.4611824253
 30
0.0
 10
10.3366733171
 20
10.4622447486
 30
0.0
 10
10.361149891
 20
10.4629462027
 30
0.0
 10
10.3857416309
 20
10.4632844723
 30
0.0
 10
10.4103679573
 20
10.4632584405
 30
0.0
 10
10.43494817
 20
10.4628681938
 30
0.0
 10
10.4594017462
 20
10.4621150187
 30
0.0
 10
10.4836484822
 20
10.4610014067
 30
0.0
 10
10.4997273608
 20
10.4600147009
 30
0.0
 10
10.5077178298
 20
10.45946056
 30
0.0
  0
SPLINE
  5
3AD
100
AcDbEntity
  8
0
100
AcDbSpline
 62
7
  6
CONTINUOUS
 70
0
 71
3
 72
15
 73
11
 74
0
 42
0.0000001
 43
0.0000001
 44
0.0000000001
 40
0.0
 40
0.0
 40
0.0
 40
0.0
 40
0.112322152
 40
0.2289139134
 40
0.3494708756
 40
0.4736717433
 40
0.6011802302
 40
0.7316468193
 40
0.864710427
 40
1.0
 40
1.0
 40
1.0
 40
1.0
 10
10.1189690168
 20
9.8077566302
 30
0.0
 10
10.1251470065
 20
9.8091033589
 30
0.0
 10
10.1377707334
 20
9.8116988175
 30
0.0
 10
10.1571227364
 20
9.815246236
 30
0.0
 10
10.1772018772
 20
9.8185129454
 30
0.0
 10
10.1979470571
 20
9.8214888903
 30
0.0
 10
10.2192953026
 20
9.8241649486
 30
0.0
 10
10.2411817539
 20
9.8265329114
 30
0.0
 10
10.2635398268
 20
9.8285855188
 30
0.0
 10
10.2786037307
 20
9.829731074
 30
0.0
 10
10.286201944
 20
9.8302512961
 30
0.0
  0
SPLINE
  5
3AE
100
AcDbEntity
  8
0
100
AcDbSpline
 62
7
  6
CONTINUOUS
 70
0
 71
3
 72
56
 73
52
 74
0
 42
0.0000001
 43
0.0000001
 44
0.0000000001
 40
0.0
 40
0.0
 40
0.0
 40
0.0
 40
0.0313645969
 40
0.062916346
 40
0.0946445102
 40
0.1265322402
 40
0.1585580613
 40
0.1906963928
 40
0.2229183331
 40
0.255192545
 40
0.2874861737
 40
0.3197658022
 40
0.3519984208
 40
0.3841523795
 40
0.4161983219
 40
0.4481100677
 40
0.4798654195
 40
0.495682531
 40
0.5114544218
 40
0.5271797424
 40
0.5428575084
 40
0.5584871065
 40
0.574068303
 40
0.5896012553
 40
0.6050865101
 40
0.6205249992
 40
0.6359180409
 40
0.6512673328
 40
0.6665749367
 40
0.6818432643
 40
0.6970750652
 40
0.7122734021
 40
0.7274416236
 40
0.7425833416
 40
0.7577024013
 40
0.7728028459
 40
0.7878888809
 40
0.8029648415
 40
0.818035153
 40
0.8331042891
 40
0.8481767335
 40
0.8632569425
 40
0.8783493034
 40
0.8934580936
 40
0.908587446
 40
0.9237413144
 40
0.9389234366
 40
0.9541373022
 40
0.9693861268
 40
0.9846728281
 40
1.0
 40
1.0
 40
1.0
 40
1.0
 10
10.4707119887
 20
7.2717087071
 30
0.0
 10
10.4624337124
 20
7.2722828075
 30
0.0
 10
10.445870133
 20
7.2741776104
 30
0.0
 10
10.421308895
 20
7.2792051807
 30
0.0
 10
10.3971429518
 20
7.2863866114
 30
0.0
 10
10.3735678354
 20
7.295663893
 30
0.0
 10
10.3507710758
 20
7.3069625229
 30
0.0
 10
10.3289348303
 20
7.32019198
 30
0.0
 10
10.3082332477
 20
7.3352463154
 30
0.0
 10
10.2888316041
 20
7.3520052591
 30
0.0
 10
10.270884685
 20
7.3703348565
 30
0.0
 10
10.2545358244
 20
7.3900887975
 30
0.0
 10
10.2399156013
 20
7.4111094153
 30
0.0
 10
10.2271408827
 20
7.4332288519
 30
0.0
 10
10.2163139056
 20
7.4562709605
 30
0.0
 10
10.207521583
 20
7.4800505322
 30
0.0
 10
10.2019406893
 20
7.5003553331
 30
0.0
 10
10.1985604003
 20
7.5167744255
 30
0.0
 10
10.1965729565
 20
7.5291378791
 30
0.0
 10
10.1951344782
 20
7.5415398477
 30
0.0
 10
10.1942477493
 20
7.5539557883
 30
0.0
 10
10.1939146101
 20
7.5663607718
 30
0.0
 10
10.1941357631
 20
7.57872998
 30
0.0
 10
10.1949107495
 20
7.5910386399
 30
0.0
 10
10.1962380384
 20
7.6032621059
 30
0.0
 10
10.1981150316
 20
7.6153758906
 30
0.0
 10
10.200537968
 20
7.6273557305
 30
0.0
 10
10.2035019948
 20
7.6391776317
 30
0.0
 10
10.2070012183
 20
7.6508179031
 30
0.0
 10
10.2110286642
 20
7.6622532118
 30
0.0
 10
10.215576245
 20
7.673460653
 30
0.0
 10
10.2206348683
 20
7.6844177656
 30
0.0
 10
10.2261944485
 20
7.6951025683
 30
0.0
 10
10.2322438326
 20
7.7054936525
 30
0.0
 10
10.2387708929
 20
7.7155701976
 30
0.0
 10
10.2457625801
 20
7.7253119881
 30
0.0
 10
10.2532048979
 20
7.7346994826
 30
0.0
 10
10.261082904
 20
7.7437138836
 30
0.0
 10
10.2693808156
 20
7.7523371184
 30
0.0
 10
10.2780820286
 20
7.7605518717
 30
0.0
 10
10.2871690785
 20
7.7683416979
 30
0.0
 10
10.2966237391
 20
7.7756909987
 30
0.0
 10
10.3064270743
 20
7.7825850246
 30
0.0
 10
10.3165594332
 20
7.7890099546
 30
0.0
 10
10.3270004826
 20
7.7949529507
 30
0.0
 10
10.3377292947
 20
7.8004021079
 30
0.0
 10
10.3487243845
 20
7.8053464845
 30
0.0
 10
10.3599636729
 20
7.8097762108
 30
0.0
 10
10.3714247184
 20
7.8136824591
 30
0.0
 10
10.38308423
 20
7.8170573247
 30
0.0
 10
10.3909640025
 20
7.8189460575
 30
0.0
 10
10.3949281923
 20
7.8198000047
 30
0.0
  0
SPLINE
  5
3AF
100
AcDbEntity
  8
0
100
AcDbSpline
 62
7
  6
CONTINUOUS
 70
0
 71
3
 72
23
 73
19
 74
0
 42
0.0000001
 43
0.0000001
 44
0.0000000001
 40
0.0
 40
0.0
 40
0.0
 40
0.0
 40
0.0428538843
 40
0.0886221407
 40
0.1372850149
 40
0.1888093896
 40
0.2431427327
 40
0.3002188264
 40
0.3599593361
 40
0.422275008
 40
0.4870668839
 40
0.5542272578
 40
0.6236406649
 40
0.6951845903
 40
0.7687299818
 40
0.8441418275
 40
0.9212801125
 40
1.0
 40
1.0
 40
1.0
 40
1.0
 10
10.6366607213
 20
7.6389338869
 30
0.0
 10
10.6348984262
 20
7.6399164507
 30
0.0
 10
10.6312002548
 20
7.6418529544
 30
0.0
 10
10.6253454058
 20
7.6445959091
 30
0.0
 10
10.6190120124
 20
7.6472670705
 30
0.0
 10
10.6122133601
 20
7.6498608157
 30
0.0
 10
10.6049632916
 20
7.6523717519
 30
0.0
 10
10.5972768534
 20
7.6547946096
 30
0.0
 10
10.58916999
 20
7.6571242974
 30
0.0
 10
10.5806595577
 20
7.6593558958
 30
0.0
 10
10.5717632923
 20
7.6614847019
 30
0.0
 10
10.56249976
 20
7.6635062333
 30
0.0
 10
10.5528883055
 20
7.6654162255
 30
0.0
 10
10.5429490106
 20
7.6672106424
 30
0.0
 10
10.5327026646
 20
7.668885705
 30
0.0
 10
10.5221706937
 20
7.6704378897
 30
0.0
 10
10.5113751526
 20
7.6718639218
 30
0.0
 10
10.5040867015
 20
7.6727203549
 30
0.0
 10
10.5004027631
 20
7.6731276822
 30
0.0
  0
SPLINE
  5
3B0
100
AcDbEntity
  8
0
100
AcDbSpline
 62
7
  6
CONTINUOUS
 70
0
 71
3
 72
14
 73
10
 74
0
 42
0.0000001
 43
0.0000001
 44
0.0000000001
 40
0.0
 40
0.0
 40
0.0
 40
0.0
 40
0.1218752091
 40
0.2452844229
 40
0.3697986278
 40
0.495093031
 40
0.6209234398
 40
0.7471065406
 40
1.0
 40
1.0
 40
1.0
 40
1.0
 10
10.5718544031
 20
7.595800574
 30
0.0
 10
10.5743291163
 20
7.5977738954
 30
0.0
 10
10.5793711101
 20
7.6016687993
 30
0.0
 10
10.5871236666
 20
7.6073387415
 30
0.0
 10
10.5950748552
 20
7.6128830931
 30
0.0
 10
10.603184208
 20
7.6183069799
 30
0.0
 10
10.6114196932
 20
7.6236175805
 30
0.0
 10
10.6225425086
 20
7.6305626198
 30
0.0
 10
10.6309917811
 20
7.6356174793
 30
0.0
 10
10.6366607213
 20
7.6389338869
 30
0.0
  0
SPLINE
  5
3B1
100
AcDbEntity
  8
0
100
AcDbSpline
 62
7
  6
CONTINUOUS
 70
0
 71
3
 72
15
 73
11
 74
0
 42
0.0000001
 43
0.0000001
 44
0.0000000001
 40
0.0
 40
0.0
 40
0.0
 40
0.0
 40
0.1112482015
 40
0.2271376353
 40
0.3473356727
 40
0.4714890723
 40
0.5992263908
 40
0.7301601973
 40
0.8638891536
 40
1.0
 40
1.0
 40
1.0
 40
1.0
 10
10.1198779926
 20
9.8035163396
 30
0.0
 10
10.126072112
 20
9.8049326358
 30
0.0
 10
10.1387566907
 20
9.8076604284
 30
0.0
 10
10.1582447573
 20
9.8113793102
 30
0.0
 10
10.1785351981
 20
9.8148001264
 30
0.0
 10
10.1995595688
 20
9.8179111958
 30
0.0
 10
10.2212471296
 20
9.8207019318
 30
0.0
 10
10.2435248343
 20
9.8231628339
 30
0.0
 10
10.2663175453
 20
9.8252855285
 30
0.0
 10
10.2816854217
 20
9.8264612297
 30
0.0
 10
10.2894412474
 20
9.8269926967
 30
0.0
  0
SPLINE
  5
3B2
100
AcDbEntity
  8
0
100
AcDbSpline
 62
7
  6
CONTINUOUS
 70
0
 71
3
 72
39
 73
35
 74
0
 42
0.0000001
 43
0.0000001
 44
0.0000000001
 40
0.0
 40
0.0
 40
0.0
 40
0.0
 40
0.0311450264
 40
0.062443103
 40
0.0938883509
 40
0.1254709879
 40
0.1571788856
 40
0.1889972606
 40
0.2209091751
 40
0.2528958436
 40
0.2849370235
 40
0.3170114144
 40
0.3490970746
 40
0.381171845
 40
0.4132137769
 40
0.445201556
 40
0.4771149182
 40
0.508935051
 40
0.5406449742
 40
0.5722298939
 40
0.6036775233
 40
0.6349783634
 40
0.6661259345
 40
0.6971169551
 40
0.7279514584
 40
0.7586328417
 40
0.7891678438
 40
0.8195664441
 40
0.8498416857
 40
0.8800094177
 40
0.9100879638
 40
0.9400977202
 40
0.9700606954
 40
1.0
 40
1.0
 40
1.0
 40
1.0
 10
10.4789861691
 20
7.310580641
 30
0.0
 10
10.4729832751
 20
7.3109969431
 30
0.0
 10
10.4609739926
 20
7.3122709779
 30
0.0
 10
10.4431056619
 20
7.3154803239
 30
0.0
 10
10.4254287176
 20
7.319975639
 30
0.0
 10
10.4080386275
 20
7.3257327765
 30
0.0
 10
10.391027782
 20
7.3327208558
 30
0.0
 10
10.3744869188
 20
7.34090251
 30
0.0
 10
10.3585041544
 20
7.3502340117
 30
0.0
 10
10.3431646552
 20
7.3606655406
 30
0.0
 10
10.3285501518
 20
7.3721414363
 30
0.0
 10
10.3147385175
 20
7.3846004932
 30
0.0
 10
10.3018033527
 20
7.3979762831
 30
0.0
 10
10.2898136014
 20
7.4121975107
 30
0.0
 10
10.2788331866
 20
7.427188389
 30
0.0
 10
10.2689206729
 20
7.4428690389
 30
0.0
 10
10.260128957
 20
7.4591559101
 30
0.0
 10
10.2525049877
 20
7.4759622202
 30
0.0
 10
10.2460895158
 20
7.4931984122
 30
0.0
 10
10.2409168783
 20
7.5107726246
 30
0.0
 10
10.2370148056
 20
7.5285911731
 30
0.0
 10
10.2344042771
 20
7.5465590458
 30
0.0
 10
10.2330994054
 20
7.564580403
 30
0.0
 10
10.2331073549
 20
7.5825590819
 30
0.0
 10
10.2344282954
 20
7.6003991039
 30
0.0
 10
10.2370553918
 20
7.6180051829
 30
0.0
 10
10.2409748288
 20
7.6352832312
 30
0.0
 10
10.246165875
 20
7.652140865
 30
0.0
 10
10.2526009702
 20
7.6684878938
 30
0.0
 10
10.2602458903
 20
7.6842368426
 30
0.0
 10
10.2690598087
 20
7.6993033144
 30
0.0
 10
10.2789959458
 20
7.7136068717
 30
0.0
 10
10.2900001843
 20
7.7270699296
 30
0.0
 10
10.2980127412
 20
7.7354403865
 30
0.0
 10
10.3021731615
 20
7.7394590626
 30
0.0
  0
SPLINE
  5
3B3
100
AcDbEntity
  8
0
100
AcDbSpline
 62
4
  6
CONTINUOUS
 70
0
 71
3
 72
605
 73
601
 74
0
 42
0.0000001
 43
0.0000001
 44
0.0000000001
 40
0.0
 40
0.0
 40
0.0
 40
0.0
 40
0.0078125
 40
0.015625
 40
0.0234375
 40
0.03125
 40
0.03515625
 40
0.0390625
 40
0.04296875
 40
0.046875
 40
0.05078125
 40
0.052734375
 40
0.0546875
 40
0.056640625
 40
0.0576171875
 40
0.05859375
 40
0.0595703125
 40
0.060546875
 40
0.0610351562
 40
0.0615234375
 40
0.0617675781
 40
0.0620117188
 40
0.0622558594
 40
0.0623779297
 40
0.0624389648
 40
0.0625
 40
0.0625610352
 40
0.0626220703
 40
0.0627441406
 40
0.0629882812
 40
0.0632324219
 40
0.0634765625
 40
0.0639648438
 40
0.064453125
 40
0.0654296875
 40
0.06640625
 40
0.0673828125
 40
0.068359375
 40
0.0703125
 40
0.072265625
 40
0.07421875
 40
0.078125
 40
0.08203125
 40
0.0859375
 40
0.09375
 40
0.1015625
 40
0.10546875
 40
0.109375
 40
0.11328125
 40
0.115234375
 40
0.1171875
 40
0.119140625
 40
0.1201171875
 40
0.12109375
 40
0.1220703125
 40
0.123046875
 40
0.1235351562
 40
0.1240234375
 40
0.1242675781
 40
0.1245117188
 40
0.1247558594
 40
0.1248779297
 40
0.1249389648
 40
0.125
 40
0.1250610352
 40
0.1251220703
 40
0.1252441406
 40
0.1254882812
 40
0.1257324219
 40
0.1259765625
 40
0.1264648438
 40
0.126953125
 40
0.1279296875
 40
0.12890625
 40
0.1298828125
 40
0.130859375
 40
0.1328125
 40
0.134765625
 40
0.13671875
 40
0.140625
 40
0.14453125
 40
0.1484375
 40
0.15625
 40
0.1640625
 40
0.16796875
 40
0.171875
 40
0.17578125
 40
0.177734375
 40
0.1796875
 40
0.181640625
 40
0.1826171875
 40
0.18359375
 40
0.1845703125
 40
0.185546875
 40
0.1860351562
 40
0.1865234375
 40
0.1867675781
 40
0.1870117188
 40
0.1872558594
 40
0.1873779297
 40
0.1874389648
 40
0.1875
 40
0.1875610352
 40
0.1876220703
 40
0.1877441406
 40
0.1879882812
 40
0.1882324219
 40
0.1884765625
 40
0.1889648438
 40
0.189453125
 40
0.1904296875
 40
0.19140625
 40
0.1923828125
 40
0.193359375
 40
0.1953125
 40
0.197265625
 40
0.19921875
 40
0.203125
 40
0.20703125
 40
0.2109375
 40
0.21484375
 40
0.21875
 40
0.22265625
 40
0.2265625
 40
0.23046875
 40
0.234375
 40
0.23828125
 40
0.240234375
 40
0.2421875
 40
0.244140625
 40
0.2451171875
 40
0.24609375
 40
0.2470703125
 40
0.248046875
 40
0.2485351562
 40
0.2490234375
 40
0.2492675781
 40
0.2495117188
 40
0.2497558594
 40
0.2498779297
 40
0.2499389648
 40
0.25
 40
0.2500610352
 40
0.2501220703
 40
0.2502441406
 40
0.2504882812
 40
0.2507324219
 40
0.2509765625
 40
0.2514648438
 40
0.251953125
 40
0.2529296875
 40
0.25390625
 40
0.2548828125
 40
0.255859375
 40
0.2578125
 40
0.259765625
 40
0.26171875
 40
0.265625
 40
0.26953125
 40
0.2734375
 40
0.28125
 40
0.2890625
 40
0.29296875
 40
0.296875
 40
0.30078125
 40
0.302734375
 40
0.3046875
 40
0.306640625
 40
0.3076171875
 40
0.30859375
 40
0.3095703125
 40
0.310546875
 40
0.3110351562
 40
0.3115234375
 40
0.3117675781
 40
0.3120117188
 40
0.3122558594
 40
0.3123779297
 40
0.3124389648
 40
0.3125
 40
0.3125610352
 40
0.3126220703
 40
0.3127441406
 40
0.3129882812
 40
0.3132324219
 40
0.3134765625
 40
0.3139648438
 40
0.314453125
 40
0.3154296875
 40
0.31640625
 40
0.3173828125
 40
0.318359375
 40
0.3203125
 40
0.322265625
 40
0.32421875
 40
0.328125
 40
0.33203125
 40
0.3359375
 40
0.34375
 40
0.3515625
 40
0.35546875
 40
0.359375
 40
0.36328125
 40
0.365234375
 40
0.3671875
 40
0.369140625
 40
0.3701171875
 40
0.37109375
 40
0.3720703125
 40
0.373046875
 40
0.3735351562
 40
0.3740234375
 40
0.3742675781
 40
0.3745117188
 40
0.3747558594
 40
0.3748779297
 40
0.3749389648
 40
0.375
 40
0.3750610352
 40
0.3751220703
 40
0.3752441406
 40
0.3754882812
 40
0.3757324219
 40
0.3759765625
 40
0.3764648438
 40
0.376953125
 40
0.3779296875
 40
0.37890625
 40
0.3798828125
 40
0.380859375
 40
0.3828125
 40
0.384765625
 40
0.38671875
 40
0.390625
 40
0.39453125
 40
0.3984375
 40
0.40625
 40
0.41015625
 40
0.4140625
 40
0.41796875
 40
0.421875
 40
0.42578125
 40
0.427734375
 40
0.4296875
 40
0.431640625
 40
0.4326171875
 40
0.43359375
 40
0.4345703125
 40
0.435546875
 40
0.4360351562
 40
0.4365234375
 40
0.4367675781
 40
0.4370117188
 40
0.4372558594
 40
0.4373779297
 40
0.4374389648
 40
0.4375
 40
0.4375610352
 40
0.4376220703
 40
0.4377441406
 40
0.4379882812
 40
0.4382324219
 40
0.4384765625
 40
0.4389648438
 40
0.439453125
 40
0.4404296875
 40
0.44140625
 40
0.4423828125
 40
0.443359375
 40
0.4453125
 40
0.447265625
 40
0.44921875
 40
0.453125
 40
0.45703125
 40
0.4609375
 40
0.46484375
 40
0.46875
 40
0.47265625
 40
0.4765625
 40
0.48046875
 40
0.484375
 40
0.48828125
 40
0.490234375
 40
0.4921875
 40
0.494140625
 40
0.4951171875
 40
0.49609375
 40
0.4970703125
 40
0.498046875
 40
0.4985351562
 40
0.4990234375
 40
0.4992675781
 40
0.4995117188
 40
0.4997558594
 40
0.4998779297
 40
0.4999389648
 40
0.5
 40
0.5000610352
 40
0.5001220703
 40
0.5002441406
 40
0.5004882812
 40
0.5007324219
 40
0.5009765625
 40
0.5014648438
 40
0.501953125
 40
0.5029296875
 40
0.50390625
 40
0.5048828125
 40
0.505859375
 40
0.5078125
 40
0.509765625
 40
0.51171875
 40
0.515625
 40
0.51953125
 40
0.5234375
 40
0.52734375
 40
0.53125
 40
0.5390625
 40
0.54296875
 40
0.546875
 40
0.55078125
 40
0.552734375
 40
0.5546875
 40
0.556640625
 40
0.5576171875
 40
0.55859375
 40
0.5595703125
 40
0.560546875
 40
0.5610351562
 40
0.5615234375
 40
0.5617675781
 40
0.5620117188
 40
0.5622558594
 40
0.5623779297
 40
0.5624389648
 40
0.5625
 40
0.5625610352
 40
0.5626220703
 40
0.5627441406
 40
0.5629882812
 40
0.5632324219
 40
0.5634765625
 40
0.5639648438
 40
0.564453125
 40
0.5654296875
 40
0.56640625
 40
0.5673828125
 40
0.568359375
 40
0.5703125
 40
0.572265625
 40
0.57421875
 40
0.578125
 40
0.58203125
 40
0.5859375
 40
0.58984375
 40
0.59375
 40
0.59765625
 40
0.6015625
 40
0.60546875
 40
0.609375
 40
0.61328125
 40
0.615234375
 40
0.6171875
 40
0.619140625
 40
0.6201171875
 40
0.62109375
 40
0.6220703125
 40
0.623046875
 40
0.6235351562
 40
0.6240234375
 40
0.6242675781
 40
0.6245117188
 40
0.6247558594
 40
0.6248779297
 40
0.6249389648
 40
0.625
 40
0.6250610352
 40
0.6251220703
 40
0.6252441406
 40
0.6254882812
 40
0.6257324219
 40
0.6259765625
 40
0.6264648438
 40
0.626953125
 40
0.6279296875
 40
0.62890625
 40
0.6298828125
 40
0.630859375
 40
0.6328125
 40
0.634765625
 40
0.63671875
 40
0.640625
 40
0.64453125
 40
0.6484375
 40
0.65234375
 40
0.65625
 40
0.66015625
 40
0.6640625
 40
0.66796875
 40
0.671875
 40
0.67578125
 40
0.677734375
 40
0.6796875
 40
0.681640625
 40
0.6826171875
 40
0.68359375
 40
0.6845703125
 40
0.685546875
 40
0.6860351562
 40
0.6865234375
 40
0.6867675781
 40
0.6870117188
 40
0.6872558594
 40
0.6873779297
 40
0.6874389648
 40
0.6875
 40
0.6875610352
 40
0.6876220703
 40
0.6877441406
 40
0.6879882812
 40
0.6882324219
 40
0.6884765625
 40
0.6889648438
 40
0.689453125
 40
0.6904296875
 40
0.69140625
 40
0.6923828125
 40
0.693359375
 40
0.6953125
 40
0.697265625
 40
0.69921875
 40
0.703125
 40
0.70703125
 40
0.7109375
 40
0.71484375
 40
0.71875
 40
0.72265625
 40
0.7265625
 40
0.73046875
 40
0.734375
 40
0.73828125
 40
0.740234375
 40
0.7421875
 40
0.744140625
 40
0.7451171875
 40
0.74609375
 40
0.7470703125
 40
0.748046875
 40
0.7485351562
 40
0.7490234375
 40
0.7492675781
 40
0.7495117188
 40
0.7497558594
 40
0.7498779297
 40
0.7499389648
 40
0.75
 40
0.7500610352
 40
0.7501220703
 40
0.7502441406
 40
0.7504882812
 40
0.7507324219
 40
0.7509765625
 40
0.7514648438
 40
0.751953125
 40
0.7529296875
 40
0.75390625
 40
0.7548828125
 40
0.755859375
 40
0.7578125
 40
0.759765625
 40
0.76171875
 40
0.765625
 40
0.76953125
 40
0.7734375
 40
0.77734375
 40
0.78125
 40
0.78515625
 40
0.7890625
 40
0.79296875
 40
0.796875
 40
0.80078125
 40
0.802734375
 40
0.8046875
 40
0.806640625
 40
0.8076171875
 40
0.80859375
 40
0.8095703125
 40
0.810546875
 40
0.8110351562
 40
0.8115234375
 40
0.8117675781
 40
0.8120117188
 40
0.8122558594
 40
0.8123779297
 40
0.8124389648
 40
0.8125
 40
0.8125610352
 40
0.8126220703
 40
0.8127441406
 40
0.8129882812
 40
0.8132324219
 40
0.8134765625
 40
0.8139648438
 40
0.814453125
 40
0.8154296875
 40
0.81640625
 40
0.8173828125
 40
0.818359375
 40
0.8203125
 40
0.822265625
 40
0.82421875
 40
0.828125
 40
0.83203125
 40
0.8359375
 40
0.83984375
 40
0.84375
 40
0.84765625
 40
0.8515625
 40
0.85546875
 40
0.859375
 40
0.86328125
 40
0.865234375
 40
0.8671875
 40
0.869140625
 40
0.8701171875
 40
0.87109375
 40
0.8720703125
 40
0.873046875
 40
0.8735351562
 40
0.8740234375
 40
0.8742675781
 40
0.8745117188
 40
0.8747558594
 40
0.8748779297
 40
0.8749389648
 40
0.875
 40
0.8750610352
 40
0.8751220703
 40
0.8752441406
 40
0.8754882812
 40
0.8757324219
 40
0.8759765625
 40
0.8764648438
 40
0.876953125
 40
0.8779296875
 40
0.87890625
 40
0.8798828125
 40
0.880859375
 40
0.8828125
 40
0.884765625
 40
0.88671875
 40
0.890625
 40
0.89453125
 40
0.8984375
 40
0.90234375
 40
0.90625
 40
0.91015625
 40
0.9140625
 40
0.91796875
 40
0.921875
 40
0.92578125
 40
0.927734375
 40
0.9296875
 40
0.931640625
 40
0.9326171875
 40
0.93359375
 40
0.9345703125
 40
0.935546875
 40
0.9360351562
 40
0.9365234375
 40
0.9367675781
 40
0.9370117188
 40
0.9372558594
 40
0.9373779297
 40
0.9374389648
 40
0.9375
 40
0.9375610352
 40
0.9376220703
 40
0.9377441406
 40
0.9379882812
 40
0.9382324219
 40
0.9384765625
 40
0.9389648438
 40
0.939453125
 40
0.9404296875
 40
0.94140625
 40
0.9423828125
 40
0.943359375
 40
0.9453125
 40
0.947265625
 40
0.94921875
 40
0.953125
 40
0.95703125
 40
0.9609375
 40
0.96484375
 40
0.96875
 40
0.9765625
 40
0.984375
 40
0.9921875
 40
1.0
 40
1.0
 40
1.0
 40
1.0
 10
10.691931221
 20
9.6211349612
 30
0.0
 10
10.6920592259
 20
9.6198205894
 30
0.0
 10
10.6923152356
 20
9.6171918459
 30
0.0
 10
10.6926992502
 20
9.6132487306
 30
0.0
 10
10.6930832648
 20
9.6093056153
 30
0.0
 10
10.693403277
 20
9.6060196859
 30
0.0
 10
10.6936592867
 20
9.6033909424
 30
0.0
 10
10.693851294
 20
9.6014193847
 30
0.0
 10
10.6940433013
 20
9.5994478271
 30
0.0
 10
10.6942353086
 20
9.5974762694
 30
0.0
 10
10.6943953147
 20
9.5958333047
 30
0.0
 10
10.6945233195
 20
9.594518933
 30
0.0
 10
10.6946193232
 20
9.5935331541
 30
0.0
 10
10.6946993262
 20
9.5927116718
 30
0.0
 10
10.6947633287
 20
9.5920544859
 30
0.0
 10
10.6948113303
 20
9.5915615965
 30
0.0
 10
10.6948593329
 20
9.5910687072
 30
0.0
 10
10.694899332
 20
9.5906579657
 30
0.0
 10
10.6949313381
 20
9.5903293734
 30
0.0
 10
10.6949513265
 20
9.5901240012
 30
0.0
 10
10.6949673525
 20
9.589959708
 30
0.0
 10
10.6949792753
 20
9.5898364756
 30
0.0
 10
10.6949895188
 20
9.5897338216
 30
0.0
 10
10.6949960851
 20
9.5896618861
 30
0.0
 10
10.6950007805
 20
9.5896209014
 30
0.0
 10
10.6950016448
 20
9.589589821
 30
0.0
 10
10.6950126667
 20
9.5895600475
 30
0.0
 10
10.6950238195
 20
9.5895198936
 30
0.0
 10
10.6950449876
 20
9.5894498367
 30
0.0
 10
10.6950743647
 20
9.5893496443
 30
0.0
 10
10.6951099867
 20
9.589229461
 30
0.0
 10
10.6951573536
 20
9.5890691999
 30
0.0
 10
10.6952166065
 20
9.5888688793
 30
0.0
 10
10.6953113864
 20
9.5885483632
 30
0.0
 10
10.6954298697
 20
9.5881477191
 30
0.0
 10
10.695572046
 20
9.5876669457
 30
0.0
 10
10.6957142233
 20
9.5871861724
 30
0.0
 10
10.6959037927
 20
9.5865451414
 30
0.0
 10
10.6961407546
 20
9.5857438526
 30
0.0
 10
10.6964251087
 20
9.584782306
 30
0.0
 10
10.6968042477
 20
9.5835002439
 30
0.0
 10
10.6972781713
 20
9.5818976663
 30
0.0
 10
10.6978468797
 20
9.5799745732
 30
0.0
 10
10.6986051576
 20
9.577410449
 30
0.0
 10
10.6995530049
 20
9.5742052938
 30
0.0
 10
10.7005008522
 20
9.5710001386
 30
0.0
 10
10.7012591301
 20
9.5684360144
 30
0.0
 10
10.7018278385
 20
9.5665129213
 30
0.0
 10
10.7023017621
 20
9.5649103436
 30
0.0
 10
10.702680901
 20
9.5636282816
 30
0.0
 10
10.7029652553
 20
9.562666735
 30
0.0
 10
10.7032022171
 20
9.5618654462
 30
0.0
 10
10.7033917866
 20
9.5612244152
 30
0.0
 10
10.7035339635
 20
9.5607436418
 30
0.0
 10
10.7036761413
 20
9.5602628688
 30
0.0
 10
10.70379462
 20
9.5598622236
 30
0.0
 10
10.7038894093
 20
9.5595417096
 30
0.0
 10
10.7039486381
 20
9.5593413834
 30
0.0
 10
10.7039960544
 20
9.5591811339
 30
0.0
 10
10.7040315255
 20
9.5590609155
 30
0.0
 10
10.7040613748
 20
9.5589608329
 30
0.0
 10
10.7040816999
 20
9.5588905799
 30
0.0
 10
10.7040942034
 20
9.5588507402
 30
0.0
 10
10.7041010764
 20
9.5588200017
 30
0.0
 10
10.704117523
 20
9.5587925453
 30
0.0
 10
10.7041361124
 20
9.5587547919
 30
0.0
 10
10.7041701997
 20
9.5586892569
 30
0.0
 10
10.7042180824
 20
9.5585953565
 30
0.0
 10
10.7042758899
 20
9.5584827954
 30
0.0
 10
10.7043528449
 20
9.5583326723
 30
0.0
 10
10.7044490803
 20
9.5581450327
 30
0.0
 10
10.7046030336
 20
9.5578448014
 30
0.0
 10
10.7047954833
 20
9.557469515
 30
0.0
 10
10.7050264194
 20
9.5570191701
 30
0.0
 10
10.7052573565
 20
9.5565688255
 30
0.0
 10
10.7055652723
 20
9.5559683659
 30
0.0
 10
10.7059501672
 20
9.5552177915
 30
0.0
 10
10.7064120409
 20
9.5543171022
 30
0.0
 10
10.7070278726
 20
9.5531161832
 30
0.0
 10
10.7077976623
 20
9.5516150343
 30
0.0
 10
10.7087214098
 20
9.5498136557
 30
0.0
 10
10.7099530733
 20
9.5474118176
 30
0.0
 10
10.7114926525
 20
9.54440952
 30
0.0
 10
10.7130322318
 20
9.5414072223
 30
0.0
 10
10.7142638952
 20
9.5390053842
 30
0.0
 10
10.7151876428
 20
9.5372040056
 30
0.0
 10
10.7159574324
 20
9.5357028567
 30
0.0
 10
10.7165732641
 20
9.5345019377
 30
0.0
 10
10.7170351379
 20
9.5336012484
 30
0.0
 10
10.7174200327
 20
9.5328506739
 30
0.0
 10
10.7177279486
 20
9.5322502144
 30
0.0
 10
10.7179588853
 20
9.5317998697
 30
0.0
 10
10.7181898229
 20
9.5313495254
 30
0.0
 10
10.7183822681
 20
9.5309742371
 30
0.0
 10
10.7185362305
 20
9.5306740095
 30
0.0
 10
10.7186324429
 20
9.5304863605
 30
0.0
 10
10.7187094451
 20
9.5303362567
 30
0.0
 10
10.7187671082
 20
9.5302236368
 30
0.0
 10
10.7188154425
 20
9.5301299206
 30
0.0
 10
10.7188487237
 20
9.5300640568
 30
0.0
 10
10.7188686047
 20
9.5300268302
 30
0.0
 10
10.7188810839
 20
9.5299977556
 30
0.0
 10
10.7189028577
 20
9.5299730945
 30
0.0
 10
10.7189286473
 20
9.5299386736
 30
0.0
 10
10.7189752897
 20
9.5298791544
 30
0.0
 10
10.719041132
 20
9.5297937518
 30
0.0
 10
10.7191204808
 20
9.5296914293
 30
0.0
 10
10.7192261611
 20
9.5295549431
 30
0.0
 10
10.7193583018
 20
9.5293843547
 30
0.0
 10
10.7195697045
 20
9.5291114024
 30
0.0
 10
10.7198339656
 20
9.5287702157
 30
0.0
 10
10.7201510756
 20
9.5283607902
 30
0.0
 10
10.7204681864
 20
9.527951365
 30
0.0
 10
10.7208910006
 20
9.5274054647
 30
0.0
 10
10.7214195184
 20
9.5267230893
 30
0.0
 10
10.7220537398
 20
9.5259042388
 30
0.0
 10
10.7228993682
 20
9.5248124382
 30
0.0
 10
10.7239564038
 20
9.5234476874
 30
0.0
 10
10.7252248465
 20
9.5218099864
 30
0.0
 10
10.7264932892
 20
9.5201722855
 30
0.0
 10
10.7277617319
 20
9.5185345845
 30
0.0
 10
10.7290301746
 20
9.5168968836
 30
0.0
 10
10.7302986174
 20
9.5152591826
 30
0.0
 10
10.7315670601
 20
9.5136214817
 30
0.0
 10
10.7328355028
 20
9.5119837807
 30
0.0
 10
10.7341039455
 20
9.5103460798
 30
0.0
 10
10.7351609811
 20
9.508981329
 30
0.0
 10
10.7360066095
 20
9.5078895283
 30
0.0
 10
10.7366408309
 20
9.5070706779
 30
0.0
 10
10.7371693487
 20
9.5063883024
 30
0.0
 10
10.7375921629
 20
9.5058424022
 30
0.0
 10
10.7379092735
 20
9.5054329768
 30
0.0
 10
10.7382263847
 20
9.5050235521
 30
0.0
 10
10.738490642
 20
9.5046823626
 30
0.0
 10
10.7387020523
 20
9.5044094161
 30
0.0
 10
10.7388341735
 20
9.504238813
 30
0.0
 10
10.7389398941
 20
9.504102357
 30
0.0
 10
10.7390191198
 20
9.5039999423
 30
0.0
 10
10.7390853471
 20
9.5039148282
 30
0.0
 10
10.7391313021
 20
9.5038547939
 30
0.0
 10
10.7391581932
 20
9.5038211982
 30
0.0
 10
10.7391765837
 20
9.5037940026
 30
0.0
 10
10.7392017697
 20
9.5037744472
 30
0.0
 10
10.7392329807
 20
9.5037457084
 30
0.0
 10
10.7392887043
 20
9.503696657
 30
0.0
 10
10.7393677321
 20
9.5036259346
 30
0.0
 10
10.7394628125
 20
9.5035413455
 30
0.0
 10
10.7395895002
 20
9.503428463
 30
0.0
 10
10.7397478893
 20
9.5032873931
 30
0.0
 10
10.7400012953
 20
9.5030616627
 30
0.0
 10
10.7403180585
 20
9.5027795061
 30
0.0
 10
10.740698172
 20
9.5024409154
 30
0.0
 10
10.741078286
 20
9.5021023255
 30
0.0
 10
10.7415851046
 20
9.5016508719
 30
0.0
 10
10.7422186279
 20
9.5010865551
 30
0.0
 10
10.7429788558
 20
9.5004093749
 30
0.0
 10
10.7439924929
 20
9.4995064679
 30
0.0
 10
10.7452595394
 20
9.4983778342
 30
0.0
 10
10.7467799952
 20
9.4970234738
 30
0.0
 10
10.7488072696
 20
9.4952176599
 30
0.0
 10
10.7513413626
 20
9.4929603925
 30
0.0
 10
10.7538754556
 20
9.4907031251
 30
0.0
 10
10.7559027299
 20
9.4888973112
 30
0.0
 10
10.7574231857
 20
9.4875429508
 30
0.0
 10
10.7586902322
 20
9.4864143171
 30
0.0
 10
10.7597038694
 20
9.4855114102
 30
0.0
 10
10.7604640973
 20
9.4848342299
 30
0.0
 10
10.7610976205
 20
9.4842699131
 30
0.0
 10
10.7616044392
 20
9.4838184597
 30
0.0
 10
10.761984553
 20
9.4834798694
 30
0.0
 10
10.7623646674
 20
9.4831412799
 30
0.0
 10
10.7626814276
 20
9.4828591195
 30
0.0
 10
10.7629348397
 20
9.4826333967
 30
0.0
 10
10.7630932135
 20
9.4824923075
 30
0.0
 10
10.7632199325
 20
9.4823794647
 30
0.0
 10
10.763314917
 20
9.4822947544
 30
0.0
 10
10.7633942452
 20
9.4822244112
 30
0.0
 10
10.7634494324
 20
9.4821746829
 30
0.0
 10
10.7634815029
 20
9.4821470287
 30
0.0
 10
10.7635040488
 20
9.4821241416
 30
0.0
 10
10.763532355
 20
9.4821094596
 30
0.0
 10
10.7635680874
 20
9.4820870215
 30
0.0
 10
10.7636315552
 20
9.4820490885
 30
0.0
 10
10.7637217341
 20
9.4819942012
 30
0.0
 10
10.7638301583
 20
9.4819286349
 30
0.0
 10
10.7639746506
 20
9.4818411089
 30
0.0
 10
10.7641552911
 20
9.4817317371
 30
0.0
 10
10.764444302
 20
9.4815567223
 30
0.0
 10
10.7648055703
 20
9.4813379606
 30
0.0
 10
10.7652390902
 20
9.4810754437
 30
0.0
 10
10.7656726107
 20
9.4808129275
 30
0.0
 10
10.7662506378
 20
9.4804629057
 30
0.0
 10
10.7669731717
 20
9.4800253786
 30
0.0
 10
10.7678402124
 20
9.4795003459
 30
0.0
 10
10.7689962667
 20
9.4788003024
 30
0.0
 10
10.7704413345
 20
9.4779252481
 30
0.0
 10
10.772175416
 20
9.4768751828
 30
0.0
 10
10.7744875245
 20
9.4754750958
 30
0.0
 10
10.7773776602
 20
9.473724987
 30
0.0
 10
10.7802677959
 20
9.4719748783
 30
0.0
 10
10.7825799045
 20
9.4705747913
 30
0.0
 10
10.7843139859
 20
9.469524726
 30
0.0
 10
10.7857590538
 20
9.4686496716
 30
0.0
 10
10.786915108
 20
9.4679496281
 30
0.0
 10
10.7877821488
 20
9.4674245955
 30
0.0
 10
10.7885046827
 20
9.4669870683
 30
0.0
 10
10.7890827098
 20
9.4666370466
 30
0.0
 10
10.7895162301
 20
9.4663745301
 30
0.0
 10
10.7899497508
 20
9.4661120145
 30
0.0
 10
10.7903110168
 20
9.4658932487
 30
0.0
 10
10.7906000323
 20
9.4657182423
 30
0.0
 10
10.7907806609
 20
9.4656088492
 30
0.0
 10
10.7909251776
 20
9.465521367
 30
0.0
 10
10.7910335273
 20
9.4654556669
 30
0.0
 10
10.7911239393
 20
9.4654011982
 30
0.0
 10
10.791186991
 20
9.4653625179
 30
0.0
 10
10.7912233901
 20
9.4653412771
 30
0.0
 10
10.7912496484
 20
9.4653229177
 30
0.0
 10
10.791279886
 20
9.4653138421
 30
0.0
 10
10.7913188148
 20
9.465298503
 30
0.0
 10
10.7913875868
 20
9.4652731683
 30
0.0
 10
10.7914854945
 20
9.4652361871
 30
0.0
 10
10.7916031285
 20
9.4651921472
 30
0.0
 10
10.7917599232
 20
9.4651333095
 30
0.0
 10
10.791955934
 20
9.4650598028
 30
0.0
 10
10.7922695415
 20
9.4649421694
 30
0.0
 10
10.7926615542
 20
9.4647951355
 30
0.0
 10
10.793131968
 20
9.4646186914
 30
0.0
 10
10.7936023822
 20
9.4644422483
 30
0.0
 10
10.7942296009
 20
9.4642069904
 30
0.0
 10
10.7950136245
 20
9.4639129182
 30
0.0
 10
10.7959544527
 20
9.4635600315
 30
0.0
 10
10.7972088903
 20
9.4630895158
 30
0.0
 10
10.7987769373
 20
9.4625013713
 30
0.0
 10
10.8006585938
 20
9.4617955979
 30
0.0
 10
10.803167469
 20
9.4608545667
 30
0.0
 10
10.8056763442
 20
9.4599135355
 30
0.0
 10
10.8081852195
 20
9.4589725042
 30
0.0
 10
10.8100668759
 20
9.4582667308
 30
0.0
 10
10.8119485324
 20
9.4575609574
 30
0.0
 10
10.8138301888
 20
9.456855184
 30
0.0
 10
10.8153982358
 20
9.4562670394
 30
0.0
 10
10.8166526734
 20
9.4557965238
 30
0.0
 10
10.8175935017
 20
9.4554436371
 30
0.0
 10
10.8183775252
 20
9.4551495648
 30
0.0
 10
10.819004744
 20
9.4549143071
 30
0.0
 10
10.819475158
 20
9.4547378635
 30
0.0
 10
10.8199455724
 20
9.4545614209
 30
0.0
 10
10.8203375834
 20
9.4544143825
 30
0.0
 10
10.8206511943
 20
9.4542967583
 30
0.0
 10
10.8208471965
 20
9.4542232281
 30
0.0
 10
10.8210040087
 20
9.4541644386
 30
0.0
 10
10.8211215893
 20
9.4541202517
 30
0.0
 10
10.8212196639
 20
9.4540837306
 30
0.0
 10
10.821288138
 20
9.4540575745
 30
0.0
 10
10.8213275442
 20
9.4540435514
 30
0.0
 10
10.8213563152
 20
9.4540304334
 30
0.0
 10
10.8213880819
 20
9.4540272565
 30
0.0
 10
10.8214293925
 20
9.4540195531
 30
0.0
 10
10.8215021729
 20
9.4540076877
 30
0.0
 10
10.8216058904
 20
9.4539898924
 30
0.0
 10
10.8217304603
 20
9.4539688996
 30
0.0
 10
10.8218965154
 20
9.453940783
 30
0.0
 10
10.8221040974
 20
9.4539056805
 30
0.0
 10
10.8224362213
 20
9.4538494922
 30
0.0
 10
10.8228513787
 20
9.4537792652
 30
0.0
 10
10.8233495664
 20
9.4536949892
 30
0.0
 10
10.8238477545
 20
9.4536107142
 30
0.0
 10
10.8245120051
 20
9.4534983472
 30
0.0
 10
10.8253423184
 20
9.4533578885
 30
0.0
 10
10.8263386944
 20
9.453189338
 30
0.0
 10
10.8276671957
 20
9.4529646041
 30
0.0
 10
10.8293278224
 20
9.4526836867
 30
0.0
 10
10.8313205743
 20
9.4523465857
 30
0.0
 10
10.8333133263
 20
9.4520094848
 30
0.0
 10
10.8353060783
 20
9.4516723839
 30
0.0
 10
10.8372988302
 20
9.451335283
 30
0.0
 10
10.8392915822
 20
9.4509981821
 30
0.0
 10
10.8412843342
 20
9.4506610812
 30
0.0
 10
10.8432770861
 20
9.4503239803
 30
0.0
 10
10.8452698381
 20
9.4499868794
 30
0.0
 10
10.8469304647
 20
9.449705962
 30
0.0
 10
10.848258966
 20
9.449481228
 30
0.0
 10
10.849255342
 20
9.4493126776
 30
0.0
 10
10.8500856554
 20
9.4491722188
 30
0.0
 10
10.850749906
 20
9.4490598519
 30
0.0
 10
10.851248094
 20
9.4489755765
 30
0.0
 10
10.8517462819
 20
9.4488913021
 30
0.0
 10
10.8521614388
 20
9.4488210702
 30
0.0
 10
10.8524935637
 20
9.4487648918
 30
0.0
 10
10.8527011432
 20
9.4487297642
 30
0.0
 10
10.8528672035
 20
9.448701699
 30
0.0
 10
10.8529917576
 20
9.4486805491
 30
0.0
 10
10.8530955245
 20
9.4486632456
 30
0.0
 10
10.8531682167
 20
9.4486505023
 30
0.0
 10
10.8532096686
 20
9.4486442054
 30
0.0
 10
10.8532410011
 20
9.4486367082
 30
0.0
 10
10.8532714029
 20
9.4486398163
 30
0.0
 10
10.8533122633
 20
9.4486402613
 30
0.0
 10
10.8533836178
 20
9.4486427634
 30
0.0
 10
10.8534856318
 20
9.4486454368
 30
0.0
 10
10.8536080148
 20
9.4486490306
 30
0.0
 10
10.853771204
 20
9.4486536876
 30
0.0
 10
10.8539751864
 20
9.448659555
 30
0.0
 10
10.8543015605
 20
9.4486689171
 30
0.0
 10
10.8547095273
 20
9.4486806285
 30
0.0
 10
10.8551990879
 20
9.4486946784
 30
0.0
 10
10.8556886483
 20
9.4487087293
 30
0.0
 10
10.8563413956
 20
9.4487274634
 30
0.0
 10
10.8571573298
 20
9.4487508813
 30
0.0
 10
10.8581364507
 20
9.4487789827
 30
0.0
 10
10.8594419453
 20
9.4488164512
 30
0.0
 10
10.8610738135
 20
9.4488632868
 30
0.0
 10
10.8630320554
 20
9.4489194896
 30
0.0
 10
10.8649902973
 20
9.4489756923
 30
0.0
 10
10.8669485392
 20
9.4490318951
 30
0.0
 10
10.8695595284
 20
9.4491068321
 30
0.0
 10
10.8721705176
 20
9.4491817691
 30
0.0
 10
10.8747815068
 20
9.4492567061
 30
0.0
 10
10.8767397487
 20
9.4493129089
 30
0.0
 10
10.878371617
 20
9.4493597445
 30
0.0
 10
10.8796771116
 20
9.449397213
 30
0.0
 10
10.8806562325
 20
9.4494253144
 30
0.0
 10
10.8814721666
 20
9.4494487322
 30
0.0
 10
10.8821249139
 20
9.4494674665
 30
0.0
 10
10.8826144744
 20
9.449481517
 30
0.0
 10
10.8831040348
 20
9.4494955685
 30
0.0
 10
10.8835120023
 20
9.449507275
 30
0.0
 10
10.883838375
 20
9.449516647
 30
0.0
 10
10.884042361
 20
9.4495224889
 30
0.0
 10
10.8842055428
 20
9.4495271983
 30
0.0
 10
10.8843279483
 20
9.4495306322
 30
0.0
 10
10.8844298919
 20
9.4495338058
 30
0.0
 10
10.8845013721
 20
9.449535415
 30
0.0
 10
10.8845420311
 20
9.4495372907
 30
0.0
 10
10.8845730515
 20
9.4495360038
 30
0.0
 10
10.8846020607
 20
9.4495450138
 30
0.0
 10
10.8846414411
 20
9.4495534356
 30
0.0
 10
10.8847100301
 20
9.449569847
 30
0.0
 10
10.8848081851
 20
9.4495924171
 30
0.0
 10
10.8849258981
 20
9.4496198756
 30
0.0
 10
10.8850828742
 20
9.4496563562
 30
0.0
 10
10.8852790856
 20
9.4497020018
 30
0.0
 10
10.8855930287
 20
9.4497750096
 30
0.0
 10
10.885985456
 20
9.449866278
 30
0.0
 10
10.8864563694
 20
9.4499757964
 30
0.0
 10
10.8869272826
 20
9.4500853157
 30
0.0
 10
10.887555167
 20
9.4502313412
 30
0.0
 10
10.8883400225
 20
9.4504138732
 30
0.0
 10
10.889281849
 20
9.4506329114
 30
0.0
 10
10.8905376177
 20
9.4509249625
 30
0.0
 10
10.8921073286
 20
9.4512900264
 30
0.0
 10
10.8939909817
 20
9.451728103
 30
0.0
 10
10.8958746347
 20
9.4521661796
 30
0.0
 10
10.8977582878
 20
9.4526042562
 30
0.0
 10
10.8996419409
 20
9.4530423328
 30
0.0
 10
10.901525594
 20
9.4534804094
 30
0.0
 10
10.903409247
 20
9.453918486
 30
0.0
 10
10.9052929001
 20
9.4543565626
 30
0.0
 10
10.9071765532
 20
9.4547946392
 30
0.0
 10
10.9087462641
 20
9.4551597031
 30
0.0
 10
10.9100020328
 20
9.4554517541
 30
0.0
 10
10.9109438593
 20
9.4556707924
 30
0.0
 10
10.9117287148
 20
9.4558533243
 30
0.0
 10
10.9123565991
 20
9.4559993499
 30
0.0
 10
10.9128275124
 20
9.4561088689
 30
0.0
 10
10.9132984254
 20
9.4562183888
 30
0.0
 10
10.9136908541
 20
9.4563096524
 30
0.0
 10
10.9140047944
 20
9.4563826699
 30
0.0
 10
10.914201013
 20
9.4564282909
 30
0.0
 10
10.9143579742
 20
9.4564648219
 30
0.0
 10
10.9144757327
 20
9.4564921264
 30
0.0
 10
10.9145737452
 20
9.4565151785
 30
0.0
 10
10.9146425887
 20
9.4565307294
 30
0.0
 10
10.9146815613
 20
9.4565405301
 30
0.0
 10
10.9147118231
 20
9.4565453045
 30
0.0
 10
10.914738139
 20
9.456559926
 30
0.0
 10
10.9147746032
 20
9.4565759866
 30
0.0
 10
10.9148377743
 20
9.456605693
 30
0.0
 10
10.9149283539
 20
9.456647294
 30
0.0
 10
10.915036906
 20
9.4566975733
 30
0.0
 10
10.9151816923
 20
9.4567644874
 30
0.0
 10
10.9153626579
 20
9.4568481727
 30
0.0
 10
10.9156522126
 20
9.4569820454
 30
0.0
 10
10.9160141526
 20
9.4571493944
 30
0.0
 10
10.916448482
 20
9.4573502098
 30
0.0
 10
10.916882811
 20
9.457551026
 30
0.0
 10
10.9174619166
 20
9.4578187807
 30
0.0
 10
10.9181857984
 20
9.4581534742
 30
0.0
 10
10.9190544567
 20
9.4585551063
 30
0.0
 10
10.9202126677
 20
9.4590906158
 30
0.0
 10
10.9216604314
 20
9.4597600027
 30
0.0
 10
10.9233977479
 20
9.4605632669
 30
0.0
 10
10.9251350644
 20
9.4613665312
 30
0.0
 10
10.9268723809
 20
9.4621697954
 30
0.0
 10
10.9286096973
 20
9.4629730597
 30
0.0
 10
10.9303470138
 20
9.4637763239
 30
0.0
 10
10.9320843303
 20
9.4645795882
 30
0.0
 10
10.9338216468
 20
9.4653828524
 30
0.0
 10
10.9355589633
 20
9.4661861167
 30
0.0
 10
10.937006727
 20
9.4668555036
 30
0.0
 10
10.938164938
 20
9.4673910131
 30
0.0
 10
10.9390335962
 20
9.4677926452
 30
0.0
 10
10.9397574781
 20
9.4681273386
 30
0.0
 10
10.9403365836
 20
9.4683950934
 30
0.0
 10
10.9407709128
 20
9.4685959093
 30
0.0
 10
10.9412052416
 20
9.4687967261
 30
0.0
 10
10.9415671837
 20
9.4689640706
 30
0.0
 10
10.941856734
 20
9.4690979525
 30
0.0
 10
10.9420377106
 20
9.4691816141
 30
0.0
 10
10.9421824743
 20
9.469248577
 30
0.0
 10
10.9422910953
 20
9.4692987072
 30
0.0
 10
10.9423814595
 20
9.4693407747
 30
0.0
 10
10.9424450153
 20
9.4693696483
 30
0.0
 10
10.9424808631
 20
9.4693870433
 30
0.0
 10
10.9425090722
 20
9.4693975662
 30
0.0
 10
10.9425322233
 20
9.4694177344
 30
0.0
 10
10.9425648557
 20
9.469441261
 30
0.0
 10
10.9426211403
 20
9.469484
 30
0.0
 10
10.9427019766
 20
9.4695442363
 30
0.0
 10
10.9427987963
 20
9.4696168706
 30
0.0
 10
10.9429279535
 20
9.4697135938
 30
0.0
 10
10.943089378
 20
9.4698345397
 30
0.0
 10
10.9433476694
 20
9.4700280298
 30
0.0
 10
10.9436705295
 20
9.4702699005
 30
0.0
 10
10.9440579635
 20
9.4705601418
 30
0.0
 10
10.9444453969
 20
9.4708503841
 30
0.0
 10
10.944961975
 20
9.4712373735
 30
0.0
 10
10.9456076975
 20
9.4717211103
 30
0.0
 10
10.9463825646
 20
9.4723015944
 30
0.0
 10
10.9474157207
 20
9.4730755733
 30
0.0
 10
10.9487071658
 20
9.4740430468
 30
0.0
 10
10.9502569
 20
9.4752040151
 30
0.0
 10
10.9518066341
 20
9.4763649834
 30
0.0
 10
10.9533563683
 20
9.4775259516
 30
0.0
 10
10.9549061024
 20
9.4786869199
 30
0.0
 10
10.9564558366
 20
9.4798478882
 30
0.0
 10
10.9580055707
 20
9.4810088565
 30
0.0
 10
10.9595553049
 20
9.4821698248
 30
0.0
 10
10.961105039
 20
9.483330793
 30
0.0
 10
10.9623964842
 20
9.4842982666
 30
0.0
 10
10.9634296403
 20
9.4850722454
 30
0.0
 10
10.9642045073
 20
9.4856527296
 30
0.0
 10
10.9648502299
 20
9.4861364663
 30
0.0
 10
10.9653668079
 20
9.4865234558
 30
0.0
 10
10.9657542416
 20
9.4868136977
 30
0.0
 10
10.9661416745
 20
9.4871039404
 30
0.0
 10
10.9664645377
 20
9.487345807
 30
0.0
 10
10.9667228229
 20
9.4875393053
 30
0.0
 10
10.9668842634
 20
9.4876602305
 30
0.0
 10
10.9670133876
 20
9.4877569963
 30
0.0
 10
10.967110308
 20
9.4878295005
 30
0.0
 10
10.9671908292
 20
9.4878901437
 30
0.0
 10
10.9672476765
 20
9.4879321563
 30
0.0
 10
10.9672794074
 20
9.4879568468
 30
0.0
 10
10.9673053275
 20
9.4879734398
 30
0.0
 10
10.9673231363
 20
9.4879973908
 30
0.0
 10
10.9673497106
 20
9.4880267588
 30
0.0
 10
10.9673948975
 20
9.4880793487
 30
0.0
 10
10.9674601394
 20
9.4881538519
 30
0.0
 10
10.9675381346
 20
9.4882435234
 30
0.0
 10
10.9676422313
 20
9.4883629919
 30
0.0
 10
10.9677723168
 20
9.4885123595
 30
0.0
 10
10.9679804735
 20
9.4887513299
 30
0.0
 10
10.9682406625
 20
9.4890500489
 30
0.0
 10
10.9685528922
 20
9.4894085092
 30
0.0
 10
10.9688651212
 20
9.4897669701
 30
0.0
 10
10.9692814267
 20
9.4902449178
 30
0.0
 10
10.9698018086
 20
9.4908423524
 30
0.0
 10
10.9704262668
 20
9.491559274
 30
0.0
 10
10.9712588778
 20
9.4925151694
 30
0.0
 10
10.9722996415
 20
9.4937100387
 30
0.0
 10
10.973548558
 20
9.4951438818
 30
0.0
 10
10.9747974744
 20
9.4965777249
 30
0.0
 10
10.9760463909
 20
9.4980115681
 30
0.0
 10
10.9772953073
 20
9.4994454112
 30
0.0
 10
10.9785442238
 20
9.5008792544
 30
0.0
 10
10.9797931403
 20
9.5023130975
 30
0.0
 10
10.9810420567
 20
9.5037469406
 30
0.0
 10
10.9822909732
 20
9.5051807838
 30
0.0
 10
10.9833317369
 20
9.506375653
 30
0.0
 10
10.9841643479
 20
9.5073315485
 30
0.0
 10
10.9847888061
 20
9.50804847
 30
0.0
 10
10.985309188
 20
9.5086459047
 30
0.0
 10
10.9857254934
 20
9.5091238524
 30
0.0
 10
10.9860377227
 20
9.5094823131
 30
0.0
 10
10.9863499512
 20
9.5098407743
 30
0.0
 10
10.9866101441
 20
9.5101394902
 30
0.0
 10
10.9868182928
 20
9.5103784671
 30
0.0
 10
10.9869483987
 20
9.510527818
 30
0.0
 10
10.9870524535
 20
9.5106473208
 30
0.0
 10
10.9871305766
 20
9.5107368874
 30
0.0
 10
10.9871954184
 20
9.5108117188
 30
0.0
 10
10.9872413195
 20
9.5108637228
 30
0.0
 10
10.9872667495
 20
9.5108940297
 30
0.0
 10
10.9872880732
 20
9.5109150968
 30
0.0
 10
10.9873007921
 20
9.510942521
 30
0.0
 10
10.9873207521
 20
9.5109768691
 30
0.0
 10
10.9873542836
 20
9.5110380115
 30
0.0
 10
10.987402917
 20
9.5111248177
 30
0.0
 10
10.9874609641
 20
9.5112292162
 30
0.0
 10
10.9875384695
 20
9.5113683336
 30
0.0
 10
10.9876353138
 20
9.5115422579
 30
0.0
 10
10.9877902856
 20
9.5118205214
 30
0.0
 10
10.9879839933
 20
9.512168356
 30
0.0
 10
10.9882164455
 20
9.5125857553
 30
0.0
 10
10.9884488969
 20
9.5130031552
 30
0.0
 10
10.9887588324
 20
9.5135596882
 30
0.0
 10
10.9891462516
 20
9.5142553546
 30
0.0
 10
10.9896111548
 20
9.5150901541
 30
0.0
 10
10.9902310257
 20
9.5162032202
 30
0.0
 10
10.9910058642
 20
9.5175945528
 30
0.0
 10
10.9919356705
 20
9.519264152
 30
0.0
 10
10.9928654768
 20
9.5209337511
 30
0.0
 10
10.9937952831
 20
9.5226033502
 30
0.0
 10
10.9947250894
 20
9.5242729494
 30
0.0
 10
10.9956548957
 20
9.5259425485
 30
0.0
 10
10.996584702
 20
9.5276121476
 30
0.0
 10
10.9975145083
 20
9.5292817468
 30
0.0
 10
10.9984443146
 20
9.5309513459
 30
0.0
 10
10.9992191532
 20
9.5323426785
 30
0.0
 10
10.9998390241
 20
9.5334557446
 30
0.0
 10
11.0003039272
 20
9.5342905442
 30
0.0
 10
11.0006913466
 20
9.5349862105
 30
0.0
 10
11.0010012819
 20
9.5355427436
 30
0.0
 10
11.0012337337
 20
9.5359601432
 30
0.0
 10
11.0014661845
 20
9.5363775434
 30
0.0
 10
11.0016598964
 20
9.5367253754
 30
0.0
 10
11.0018148596
 20
9.5370036442
 30
0.0
 10
11.0019117261
 20
9.5371775551
 30
0.0
 10
11.001989186
 20
9.5373167
 30
0.0
 10
11.002047372
 20
9.5374210144
 30
0.0
 10
11.0020955706
 20
9.5375080838
 30
0.0
 10
11.0021298782
 20
9.5375687563
 30
0.0
 10
11.0021485948
 20
9.5376038574
 30
0.0
 10
11.0021651331
 20
9.5376289687
 30
0.0
 10
11.0021721118
 20
9.5376587224
 30
0.0
 10
11.0021847512
 20
9.5376967746
 30
0.0
 10
11.0022053165
 20
9.5377641205
 30
0.0
 10
11.0022355078
 20
9.5378599344
 30
0.0
 10
11.0022713897
 20
9.5379750799
 30
0.0
 10
11.0023193536
 20
9.5381285484
 30
0.0
 10
11.002379267
 20
9.5383204041
 30
0.0
 10
11.0024751516
 20
9.538627362
 30
0.0
 10
11.0025949993
 20
9.5390110632
 30
0.0
 10
11.0027388201
 20
9.539471503
 30
0.0
 10
11.0028826399
 20
9.5399319433
 30
0.0
 10
11.0030744
 20
9.5405458634
 30
0.0
 10
11.0033141
 20
9.5413132637
 30
0.0
 10
11.0036017401
 20
9.542234144
 30
0.0
 10
11.0039852602
 20
9.5434619844
 30
0.0
 10
11.0044646603
 20
9.5449967849
 30
0.0
 10
11.0050399404
 20
9.5468385456
 30
0.0
 10
11.0056152205
 20
9.5486803062
 30
0.0
 10
11.0061905006
 20
9.5505220668
 30
0.0
 10
11.0067657807
 20
9.5523638274
 30
0.0
 10
11.0073410608
 20
9.5542055881
 30
0.0
 10
11.0079163409
 20
9.5560473487
 30
0.0
 10
11.008491621
 20
9.5578891093
 30
0.0
 10
11.0090669011
 20
9.5597308699
 30
0.0
 10
11.0095463012
 20
9.5612656704
 30
0.0
 10
11.0099298212
 20
9.5624935109
 30
0.0
 10
11.0102174613
 20
9.5634143912
 30
0.0
 10
11.0104571614
 20
9.5641817914
 30
0.0
 10
11.0106489213
 20
9.5647957116
 30
0.0
 10
11.0107927415
 20
9.5652561517
 30
0.0
 10
11.0109365608
 20
9.5657165922
 30
0.0
 10
11.0110564132
 20
9.5661002914
 30
0.0
 10
11.0111522884
 20
9.5664072533
 30
0.0
 10
11.0112122258
 20
9.5665990989
 30
0.0
 10
11.0112601404
 20
9.5667525882
 30
0.0
 10
11.011296173
 20
9.5668676699
 30
0.0
 10
11.0113258926
 20
9.5669636835
 30
0.0
 10
11.0113473
 20
9.5670306729
 30
0.0
 10
11.0113585902
 20
9.5670692962
 30
0.0
 10
11.011369713
 20
9.5670972958
 30
0.0
 10
11.0113706868
 20
9.5671289949
 30
0.0
 10
11.0113755254
 20
9.56716997
 30
0.0
 10
11.0113823435
 20
9.5672422776
 30
0.0
 10
11.0113929459
 20
9.5673452598
 30
0.0
 10
11.0114052997
 20
9.5674689731
 30
0.0
 10
11.0114219004
 20
9.567633877
 30
0.0
 10
11.0114426071
 20
9.5678400231
 30
0.0
 10
11.0114757624
 20
9.5681698478
 30
0.0
 10
11.0115171982
 20
9.5685821318
 30
0.0
 10
11.0115669247
 20
9.5690768712
 30
0.0
 10
11.0116166503
 20
9.569571611
 30
0.0
 10
11.0116829514
 20
9.5702312639
 30
0.0
 10
11.0117658277
 20
9.5710558302
 30
0.0
 10
11.0118652792
 20
9.5720453096
 30
0.0
 10
11.0119978813
 20
9.5733646155
 30
0.0
 10
11.0121636338
 20
9.5750137479
 30
0.0
 10
11.0123625369
 20
9.5769927068
 30
0.0
 10
11.01256144
 20
9.5789716656
 30
0.0
 10
11.0127603431
 20
9.5809506245
 30
0.0
 10
11.0130255472
 20
9.5835892363
 30
0.0
 10
11.0133570524
 20
9.5868875011
 30
0.0
 10
11.0137548586
 20
9.5908454189
 30
0.0
 10
11.0141526647
 20
9.5948033366
 30
0.0
 10
11.0144178689
 20
9.5974419484
 30
0.0
 10
11.0145504709
 20
9.5987612543
 30
0.0
  0
SPLINE
  5
3B4
100
AcDbEntity
  8
0
100
AcDbSpline
 62
4
  6
CONTINUOUS
 70
0
 71
3
 72
605
 73
601
 74
0
 42
0.0000001
 43
0.0000001
 44
0.0000000001
 40
0.0
 40
0.0
 40
0.0
 40
0.0
 40
0.0078125
 40
0.015625
 40
0.0234375
 40
0.03125
 40
0.03515625
 40
0.0390625
 40
0.04296875
 40
0.046875
 40
0.05078125
 40
0.052734375
 40
0.0546875
 40
0.056640625
 40
0.0576171875
 40
0.05859375
 40
0.0595703125
 40
0.060546875
 40
0.0610351562
 40
0.0615234375
 40
0.0617675781
 40
0.0620117188
 40
0.0622558594
 40
0.0623779297
 40
0.0624389648
 40
0.0625
 40
0.0625610352
 40
0.0626220703
 40
0.0627441406
 40
0.0629882812
 40
0.0632324219
 40
0.0634765625
 40
0.0639648438
 40
0.064453125
 40
0.0654296875
 40
0.06640625
 40
0.0673828125
 40
0.068359375
 40
0.0703125
 40
0.072265625
 40
0.07421875
 40
0.078125
 40
0.08203125
 40
0.0859375
 40
0.09375
 40
0.1015625
 40
0.10546875
 40
0.109375
 40
0.11328125
 40
0.115234375
 40
0.1171875
 40
0.119140625
 40
0.1201171875
 40
0.12109375
 40
0.1220703125
 40
0.123046875
 40
0.1235351562
 40
0.1240234375
 40
0.1242675781
 40
0.1245117188
 40
0.1247558594
 40
0.1248779297
 40
0.1249389648
 40
0.125
 40
0.1250610352
 40
0.1251220703
 40
0.1252441406
 40
0.1254882812
 40
0.1257324219
 40
0.1259765625
 40
0.1264648438
 40
0.126953125
 40
0.1279296875
 40
0.12890625
 40
0.1298828125
 40
0.130859375
 40
0.1328125
 40
0.134765625
 40
0.13671875
 40
0.140625
 40
0.14453125
 40
0.1484375
 40
0.15625
 40
0.1640625
 40
0.16796875
 40
0.171875
 40
0.17578125
 40
0.177734375
 40
0.1796875
 40
0.181640625
 40
0.1826171875
 40
0.18359375
 40
0.1845703125
 40
0.185546875
 40
0.1860351562
 40
0.1865234375
 40
0.1867675781
 40
0.1870117188
 40
0.1872558594
 40
0.1873779297
 40
0.1874389648
 40
0.1875
 40
0.1875610352
 40
0.1876220703
 40
0.1877441406
 40
0.1879882812
 40
0.1882324219
 40
0.1884765625
 40
0.1889648438
 40
0.189453125
 40
0.1904296875
 40
0.19140625
 40
0.1923828125
 40
0.193359375
 40
0.1953125
 40
0.197265625
 40
0.19921875
 40
0.203125
 40
0.20703125
 40
0.2109375
 40
0.21484375
 40
0.21875
 40
0.22265625
 40
0.2265625
 40
0.23046875
 40
0.234375
 40
0.23828125
 40
0.240234375
 40
0.2421875
 40
0.244140625
 40
0.2451171875
 40
0.24609375
 40
0.2470703125
 40
0.248046875
 40
0.2485351562
 40
0.2490234375
 40
0.2492675781
 40
0.2495117188
 40
0.2497558594
 40
0.2498779297
 40
0.2499389648
 40
0.25
 40
0.2500610352
 40
0.2501220703
 40
0.2502441406
 40
0.2504882812
 40
0.2507324219
 40
0.2509765625
 40
0.2514648438
 40
0.251953125
 40
0.2529296875
 40
0.25390625
 40
0.2548828125
 40
0.255859375
 40
0.2578125
 40
0.259765625
 40
0.26171875
 40
0.265625
 40
0.26953125
 40
0.2734375
 40
0.28125
 40
0.2890625
 40
0.29296875
 40
0.296875
 40
0.30078125
 40
0.302734375
 40
0.3046875
 40
0.306640625
 40
0.3076171875
 40
0.30859375
 40
0.3095703125
 40
0.310546875
 40
0.3110351562
 40
0.3115234375
 40
0.3117675781
 40
0.3120117188
 40
0.3122558594
 40
0.3123779297
 40
0.3124389648
 40
0.3125
 40
0.3125610352
 40
0.3126220703
 40
0.3127441406
 40
0.3129882812
 40
0.3132324219
 40
0.3134765625
 40
0.3139648438
 40
0.314453125
 40
0.3154296875
 40
0.31640625
 40
0.3173828125
 40
0.318359375
 40
0.3203125
 40
0.322265625
 40
0.32421875
 40
0.328125
 40
0.33203125
 40
0.3359375
 40
0.34375
 40
0.3515625
 40
0.35546875
 40
0.359375
 40
0.36328125
 40
0.365234375
 40
0.3671875
 40
0.369140625
 40
0.3701171875
 40
0.37109375
 40
0.3720703125
 40
0.373046875
 40
0.3735351562
 40
0.3740234375
 40
0.3742675781
 40
0.3745117188
 40
0.3747558594
 40
0.3748779297
 40
0.3749389648
 40
0.375
 40
0.3750610352
 40
0.3751220703
 40
0.3752441406
 40
0.3754882812
 40
0.3757324219
 40
0.3759765625
 40
0.3764648438
 40
0.376953125
 40
0.3779296875
 40
0.37890625
 40
0.3798828125
 40
0.380859375
 40
0.3828125
 40
0.384765625
 40
0.38671875
 40
0.390625
 40
0.39453125
 40
0.3984375
 40
0.40625
 40
0.41015625
 40
0.4140625
 40
0.41796875
 40
0.421875
 40
0.42578125
 40
0.427734375
 40
0.4296875
 40
0.431640625
 40
0.4326171875
 40
0.43359375
 40
0.4345703125
 40
0.435546875
 40
0.4360351562
 40
0.4365234375
 40
0.4367675781
 40
0.4370117188
 40
0.4372558594
 40
0.4373779297
 40
0.4374389648
 40
0.4375
 40
0.4375610352
 40
0.4376220703
 40
0.4377441406
 40
0.4379882812
 40
0.4382324219
 40
0.4384765625
 40
0.4389648438
 40
0.439453125
 40
0.4404296875
 40
0.44140625
 40
0.4423828125
 40
0.443359375
 40
0.4453125
 40
0.447265625
 40
0.44921875
 40
0.453125
 40
0.45703125
 40
0.4609375
 40
0.46484375
 40
0.46875
 40
0.47265625
 40
0.4765625
 40
0.48046875
 40
0.484375
 40
0.48828125
 40
0.490234375
 40
0.4921875
 40
0.494140625
 40
0.4951171875
 40
0.49609375
 40
0.4970703125
 40
0.498046875
 40
0.4985351562
 40
0.4990234375
 40
0.4992675781
 40
0.4995117188
 40
0.4997558594
 40
0.4998779297
 40
0.4999389648
 40
0.5
 40
0.5000610352
 40
0.5001220703
 40
0.5002441406
 40
0.5004882812
 40
0.5007324219
 40
0.5009765625
 40
0.5014648438
 40
0.501953125
 40
0.5029296875
 40
0.50390625
 40
0.5048828125
 40
0.505859375
 40
0.5078125
 40
0.509765625
 40
0.51171875
 40
0.515625
 40
0.51953125
 40
0.5234375
 40
0.52734375
 40
0.53125
 40
0.5390625
 40
0.54296875
 40
0.546875
 40
0.55078125
 40
0.552734375
 40
0.5546875
 40
0.556640625
 40
0.5576171875
 40
0.55859375
 40
0.5595703125
 40
0.560546875
 40
0.5610351562
 40
0.5615234375
 40
0.5617675781
 40
0.5620117188
 40
0.5622558594
 40
0.5623779297
 40
0.5624389648
 40
0.5625
 40
0.5625610352
 40
0.5626220703
 40
0.5627441406
 40
0.5629882812
 40
0.5632324219
 40
0.5634765625
 40
0.5639648438
 40
0.564453125
 40
0.5654296875
 40
0.56640625
 40
0.5673828125
 40
0.568359375
 40
0.5703125
 40
0.572265625
 40
0.57421875
 40
0.578125
 40
0.58203125
 40
0.5859375
 40
0.58984375
 40
0.59375
 40
0.59765625
 40
0.6015625
 40
0.60546875
 40
0.609375
 40
0.61328125
 40
0.615234375
 40
0.6171875
 40
0.619140625
 40
0.6201171875
 40
0.62109375
 40
0.6220703125
 40
0.623046875
 40
0.6235351562
 40
0.6240234375
 40
0.6242675781
 40
0.6245117188
 40
0.6247558594
 40
0.6248779297
 40
0.6249389648
 40
0.625
 40
0.6250610352
 40
0.6251220703
 40
0.6252441406
 40
0.6254882812
 40
0.6257324219
 40
0.6259765625
 40
0.6264648438
 40
0.626953125
 40
0.6279296875
 40
0.62890625
 40
0.6298828125
 40
0.630859375
 40
0.6328125
 40
0.634765625
 40
0.63671875
 40
0.640625
 40
0.64453125
 40
0.6484375
 40
0.65234375
 40
0.65625
 40
0.66015625
 40
0.6640625
 40
0.66796875
 40
0.671875
 40
0.67578125
 40
0.677734375
 40
0.6796875
 40
0.681640625
 40
0.6826171875
 40
0.68359375
 40
0.6845703125
 40
0.685546875
 40
0.6860351562
 40
0.6865234375
 40
0.6867675781
 40
0.6870117188
 40
0.6872558594
 40
0.6873779297
 40
0.6874389648
 40
0.6875
 40
0.6875610352
 40
0.6876220703
 40
0.6877441406
 40
0.6879882812
 40
0.6882324219
 40
0.6884765625
 40
0.6889648438
 40
0.689453125
 40
0.6904296875
 40
0.69140625
 40
0.6923828125
 40
0.693359375
 40
0.6953125
 40
0.697265625
 40
0.69921875
 40
0.703125
 40
0.70703125
 40
0.7109375
 40
0.71484375
 40
0.71875
 40
0.72265625
 40
0.7265625
 40
0.73046875
 40
0.734375
 40
0.73828125
 40
0.740234375
 40
0.7421875
 40
0.744140625
 40
0.7451171875
 40
0.74609375
 40
0.7470703125
 40
0.748046875
 40
0.7485351562
 40
0.7490234375
 40
0.7492675781
 40
0.7495117188
 40
0.7497558594
 40
0.7498779297
 40
0.7499389648
 40
0.75
 40
0.7500610352
 40
0.7501220703
 40
0.7502441406
 40
0.7504882812
 40
0.7507324219
 40
0.7509765625
 40
0.7514648438
 40
0.751953125
 40
0.7529296875
 40
0.75390625
 40
0.7548828125
 40
0.755859375
 40
0.7578125
 40
0.759765625
 40
0.76171875
 40
0.765625
 40
0.76953125
 40
0.7734375
 40
0.77734375
 40
0.78125
 40
0.78515625
 40
0.7890625
 40
0.79296875
 40
0.796875
 40
0.80078125
 40
0.802734375
 40
0.8046875
 40
0.806640625
 40
0.8076171875
 40
0.80859375
 40
0.8095703125
 40
0.810546875
 40
0.8110351562
 40
0.8115234375
 40
0.8117675781
 40
0.8120117188
 40
0.8122558594
 40
0.8123779297
 40
0.8124389648
 40
0.8125
 40
0.8125610352
 40
0.8126220703
 40
0.8127441406
 40
0.8129882812
 40
0.8132324219
 40
0.8134765625
 40
0.8139648438
 40
0.814453125
 40
0.8154296875
 40
0.81640625
 40
0.8173828125
 40
0.818359375
 40
0.8203125
 40
0.822265625
 40
0.82421875
 40
0.828125
 40
0.83203125
 40
0.8359375
 40
0.83984375
 40
0.84375
 40
0.84765625
 40
0.8515625
 40
0.85546875
 40
0.859375
 40
0.86328125
 40
0.865234375
 40
0.8671875
 40
0.869140625
 40
0.8701171875
 40
0.87109375
 40
0.8720703125
 40
0.873046875
 40
0.8735351562
 40
0.8740234375
 40
0.8742675781
 40
0.8745117188
 40
0.8747558594
 40
0.8748779297
 40
0.8749389648
 40
0.875
 40
0.8750610352
 40
0.8751220703
 40
0.8752441406
 40
0.8754882812
 40
0.8757324219
 40
0.8759765625
 40
0.8764648438
 40
0.876953125
 40
0.8779296875
 40
0.87890625
 40
0.8798828125
 40
0.880859375
 40
0.8828125
 40
0.884765625
 40
0.88671875
 40
0.890625
 40
0.89453125
 40
0.8984375
 40
0.90234375
 40
0.90625
 40
0.91015625
 40
0.9140625
 40
0.91796875
 40
0.921875
 40
0.92578125
 40
0.927734375
 40
0.9296875
 40
0.931640625
 40
0.9326171875
 40
0.93359375
 40
0.9345703125
 40
0.935546875
 40
0.9360351562
 40
0.9365234375
 40
0.9367675781
 40
0.9370117188
 40
0.9372558594
 40
0.9373779297
 40
0.9374389648
 40
0.9375
 40
0.9375610352
 40
0.9376220703
 40
0.9377441406
 40
0.9379882812
 40
0.9382324219
 40
0.9384765625
 40
0.9389648438
 40
0.939453125
 40
0.9404296875
 40
0.94140625
 40
0.9423828125
 40
0.943359375
 40
0.9453125
 40
0.947265625
 40
0.94921875
 40
0.953125
 40
0.95703125
 40
0.9609375
 40
0.96484375
 40
0.96875
 40
0.9765625
 40
0.984375
 40
0.9921875
 40
1.0
 40
1.0
 40
1.0
 40
1.0
 10
11.0145504709
 20
9.5987612402
 30
0.0
 10
11.014422466
 20
9.600075612
 30
0.0
 10
11.0141664563
 20
9.6027043555
 30
0.0
 10
11.0137824417
 20
9.6066474708
 30
0.0
 10
11.0133984271
 20
9.6105905861
 30
0.0
 10
11.013078415
 20
9.6138765155
 30
0.0
 10
11.0128224052
 20
9.6165052591
 30
0.0
 10
11.0126303979
 20
9.6184768167
 30
0.0
 10
11.0124383906
 20
9.6204483744
 30
0.0
 10
11.0122463834
 20
9.622419932
 30
0.0
 10
11.0120863773
 20
9.6240628967
 30
0.0
 10
11.0119583724
 20
9.6253772685
 30
0.0
 10
11.0118623688
 20
9.6263630473
 30
0.0
 10
11.0117823657
 20
9.6271845297
 30
0.0
 10
11.0117183632
 20
9.6278417155
 30
0.0
 10
11.0116703616
 20
9.628334605
 30
0.0
 10
11.011622359
 20
9.6288274943
 30
0.0
 10
11.0115823599
 20
9.6292382358
 30
0.0
 10
11.0115503538
 20
9.6295668281
 30
0.0
 10
11.0115303654
 20
9.6297722003
 30
0.0
 10
11.0115143394
 20
9.6299364935
 30
0.0
 10
11.0115024166
 20
9.6300597258
 30
0.0
 10
11.0114921732
 20
9.6301623798
 30
0.0
 10
11.0114856069
 20
9.6302343154
 30
0.0
 10
11.0114809114
 20
9.6302753
 30
0.0
 10
11.0114800471
 20
9.6303063804
 30
0.0
 10
11.0114690252
 20
9.630336154
 30
0.0
 10
11.0114578724
 20
9.6303763079
 30
0.0
 10
11.0114367043
 20
9.6304463648
 30
0.0
 10
11.0114073272
 20
9.6305465572
 30
0.0
 10
11.0113717052
 20
9.6306667405
 30
0.0
 10
11.0113243383
 20
9.6308270015
 30
0.0
 10
11.0112650854
 20
9.6310273221
 30
0.0
 10
11.0111703056
 20
9.6313478383
 30
0.0
 10
11.0110518223
 20
9.6317484824
 30
0.0
 10
11.0109096459
 20
9.6322292558
 30
0.0
 10
11.0107674686
 20
9.632710029
 30
0.0
 10
11.0105778992
 20
9.6333510601
 30
0.0
 10
11.0103409374
 20
9.6341523489
 30
0.0
 10
11.0100565832
 20
9.6351138954
 30
0.0
 10
11.0096774443
 20
9.6363959575
 30
0.0
 10
11.0092035206
 20
9.6379985351
 30
0.0
 10
11.0086348122
 20
9.6399216283
 30
0.0
 10
11.0078765344
 20
9.6424857524
 30
0.0
 10
11.006928687
 20
9.6456909077
 30
0.0
 10
11.0059808397
 20
9.6488960629
 30
0.0
 10
11.0052225619
 20
9.6514601871
 30
0.0
 10
11.0046538535
 20
9.6533832802
 30
0.0
 10
11.0041799298
 20
9.6549858578
 30
0.0
 10
11.0038007909
 20
9.6562679199
 30
0.0
 10
11.0035164367
 20
9.6572294665
 30
0.0
 10
11.0032794749
 20
9.6580307553
 30
0.0
 10
11.0030899053
 20
9.6586717863
 30
0.0
 10
11.0029477284
 20
9.6591525596
 30
0.0
 10
11.0028055506
 20
9.6596333327
 30
0.0
 10
11.002687072
 20
9.6600339779
 30
0.0
 10
11.0025922826
 20
9.6603544918
 30
0.0
 10
11.0025330539
 20
9.660554818
 30
0.0
 10
11.0024856375
 20
9.6607150675
 30
0.0
 10
11.0024501665
 20
9.660835286
 30
0.0
 10
11.0024203171
 20
9.6609353685
 30
0.0
 10
11.002399992
 20
9.6610056215
 30
0.0
 10
11.0023874885
 20
9.6610454613
 30
0.0
 10
11.0023806155
 20
9.6610761997
 30
0.0
 10
11.0023641689
 20
9.6611036562
 30
0.0
 10
11.0023455795
 20
9.6611414095
 30
0.0
 10
11.0023114922
 20
9.6612069446
 30
0.0
 10
11.0022636095
 20
9.6613008449
 30
0.0
 10
11.002205802
 20
9.661413406
 30
0.0
 10
11.002128847
 20
9.6615635291
 30
0.0
 10
11.0020326117
 20
9.6617511687
 30
0.0
 10
11.0018786583
 20
9.6620514
 30
0.0
 10
11.0016862087
 20
9.6624266865
 30
0.0
 10
11.0014552725
 20
9.6628770314
 30
0.0
 10
11.0012243354
 20
9.663327376
 30
0.0
 10
11.0009164196
 20
9.6639278355
 30
0.0
 10
11.0005315248
 20
9.6646784099
 30
0.0
 10
11.000069651
 20
9.6655790992
 30
0.0
 10
10.9994538193
 20
9.6667800183
 30
0.0
 10
10.9986840297
 20
9.6682811671
 30
0.0
 10
10.9977602821
 20
9.6700825457
 30
0.0
 10
10.9965286187
 20
9.6724843838
 30
0.0
 10
10.9949890394
 20
9.6754866815
 30
0.0
 10
10.9934494601
 20
9.6784889792
 30
0.0
 10
10.9922177967
 20
9.6808908173
 30
0.0
 10
10.9912940492
 20
9.6826921959
 30
0.0
 10
10.9905242595
 20
9.6841933447
 30
0.0
 10
10.9899084278
 20
9.6853942638
 30
0.0
 10
10.989446554
 20
9.6862949531
 30
0.0
 10
10.9890616592
 20
9.6870455275
 30
0.0
 10
10.9887537433
 20
9.687645987
 30
0.0
 10
10.9885228066
 20
9.6880963317
 30
0.0
 10
10.988291869
 20
9.6885466761
 30
0.0
 10
10.9880994238
 20
9.6889219643
 30
0.0
 10
10.9879454614
 20
9.689222192
 30
0.0
 10
10.9878492491
 20
9.6894098409
 30
0.0
 10
10.9877722468
 20
9.6895599448
 30
0.0
 10
10.9877145837
 20
9.6896725647
 30
0.0
 10
10.9876662494
 20
9.6897662809
 30
0.0
 10
10.9876329682
 20
9.6898321447
 30
0.0
 10
10.9876130872
 20
9.6898693713
 30
0.0
 10
10.987600608
 20
9.6898984458
 30
0.0
 10
10.9875788342
 20
9.6899231069
 30
0.0
 10
10.9875530446
 20
9.6899575278
 30
0.0
 10
10.9875064022
 20
9.6900170471
 30
0.0
 10
10.9874405599
 20
9.6901024496
 30
0.0
 10
10.9873612112
 20
9.6902047722
 30
0.0
 10
10.9872555309
 20
9.6903412583
 30
0.0
 10
10.9871233901
 20
9.6905118468
 30
0.0
 10
10.9869119874
 20
9.6907847991
 30
0.0
 10
10.9866477263
 20
9.6911259857
 30
0.0
 10
10.9863306164
 20
9.6915354113
 30
0.0
 10
10.9860135055
 20
9.6919448364
 30
0.0
 10
10.9855906913
 20
9.6924907368
 30
0.0
 10
10.9850621735
 20
9.6931731122
 30
0.0
 10
10.9844279522
 20
9.6939919626
 30
0.0
 10
10.9835823237
 20
9.6950837633
 30
0.0
 10
10.9825252881
 20
9.6964485141
 30
0.0
 10
10.9812568454
 20
9.698086215
 30
0.0
 10
10.9799884027
 20
9.699723916
 30
0.0
 10
10.97871996
 20
9.7013616169
 30
0.0
 10
10.9774515173
 20
9.7029993179
 30
0.0
 10
10.9761830746
 20
9.7046370188
 30
0.0
 10
10.9749146319
 20
9.7062747198
 30
0.0
 10
10.9736461892
 20
9.7079124207
 30
0.0
 10
10.9723777465
 20
9.7095501217
 30
0.0
 10
10.9713207109
 20
9.7109148725
 30
0.0
 10
10.9704750824
 20
9.7120066731
 30
0.0
 10
10.969840861
 20
9.7128255236
 30
0.0
 10
10.9693123433
 20
9.713507899
 30
0.0
 10
10.968889529
 20
9.7140537993
 30
0.0
 10
10.9685724184
 20
9.7144632247
 30
0.0
 10
10.9682553073
 20
9.7148726493
 30
0.0
 10
10.96799105
 20
9.7152138388
 30
0.0
 10
10.9677796396
 20
9.7154867853
 30
0.0
 10
10.9676475184
 20
9.7156573885
 30
0.0
 10
10.9675417979
 20
9.7157938444
 30
0.0
 10
10.9674625722
 20
9.7158962592
 30
0.0
 10
10.9673963448
 20
9.7159813733
 30
0.0
 10
10.9673503898
 20
9.7160414075
 30
0.0
 10
10.9673234988
 20
9.7160750033
 30
0.0
 10
10.9673051082
 20
9.7161021988
 30
0.0
 10
10.9672799222
 20
9.7161217542
 30
0.0
 10
10.9672487112
 20
9.7161504931
 30
0.0
 10
10.9671929876
 20
9.7161995444
 30
0.0
 10
10.9671139599
 20
9.7162702669
 30
0.0
 10
10.9670188794
 20
9.7163548559
 30
0.0
 10
10.9668921918
 20
9.7164677384
 30
0.0
 10
10.9667338027
 20
9.7166088083
 30
0.0
 10
10.9664803966
 20
9.7168345387
 30
0.0
 10
10.9661636334
 20
9.7171166954
 30
0.0
 10
10.96578352
 20
9.717455286
 30
0.0
 10
10.9654034059
 20
9.717793876
 30
0.0
 10
10.9648965873
 20
9.7182453295
 30
0.0
 10
10.9642630641
 20
9.7188096463
 30
0.0
 10
10.9635028362
 20
9.7194868266
 30
0.0
 10
10.962489199
 20
9.7203897335
 30
0.0
 10
10.9612221525
 20
9.7215183672
 30
0.0
 10
10.9597016967
 20
9.7228727276
 30
0.0
 10
10.9576744223
 20
9.7246785415
 30
0.0
 10
10.9551403293
 20
9.7269358089
 30
0.0
 10
10.9526062364
 20
9.7291930763
 30
0.0
 10
10.950578962
 20
9.7309988902
 30
0.0
 10
10.9490585062
 20
9.7323532506
 30
0.0
 10
10.9477914597
 20
9.7334818843
 30
0.0
 10
10.9467778225
 20
9.7343847913
 30
0.0
 10
10.9460175946
 20
9.7350619715
 30
0.0
 10
10.9453840714
 20
9.7356262884
 30
0.0
 10
10.9448772528
 20
9.7360777418
 30
0.0
 10
10.9444971389
 20
9.7364163321
 30
0.0
 10
10.9441170246
 20
9.7367549216
 30
0.0
 10
10.9438002643
 20
9.7370370819
 30
0.0
 10
10.9435468522
 20
9.7372628047
 30
0.0
 10
10.9433884784
 20
9.7374038939
 30
0.0
 10
10.9432617594
 20
9.7375167368
 30
0.0
 10
10.9431667749
 20
9.737601447
 30
0.0
 10
10.9430874467
 20
9.7376717903
 30
0.0
 10
10.9430322595
 20
9.7377215186
 30
0.0
 10
10.943000189
 20
9.7377491727
 30
0.0
 10
10.9429776431
 20
9.7377720599
 30
0.0
 10
10.9429493369
 20
9.7377867419
 30
0.0
 10
10.9429136045
 20
9.7378091799
 30
0.0
 10
10.9428501367
 20
9.737847113
 30
0.0
 10
10.9427599578
 20
9.7379020003
 30
0.0
 10
10.9426515336
 20
9.7379675666
 30
0.0
 10
10.9425070413
 20
9.7380550926
 30
0.0
 10
10.9423264008
 20
9.7381644643
 30
0.0
 10
10.94203739
 20
9.7383394791
 30
0.0
 10
10.9416761217
 20
9.7385582408
 30
0.0
 10
10.9412426017
 20
9.7388207577
 30
0.0
 10
10.9408090813
 20
9.7390832739
 30
0.0
 10
10.9402310542
 20
9.7394332957
 30
0.0
 10
10.9395085202
 20
9.7398708229
 30
0.0
 10
10.9386414795
 20
9.7403958555
 30
0.0
 10
10.9374854252
 20
9.741095899
 30
0.0
 10
10.9360403574
 20
9.7419709534
 30
0.0
 10
10.934306276
 20
9.7430210186
 30
0.0
 10
10.9319941674
 20
9.7444211056
 30
0.0
 10
10.9291040317
 20
9.7461712144
 30
0.0
 10
10.926213896
 20
9.7479213232
 30
0.0
 10
10.9239017874
 20
9.7493214102
 30
0.0
 10
10.922167706
 20
9.7503714754
 30
0.0
 10
10.9207226382
 20
9.7512465298
 30
0.0
 10
10.9195665839
 20
9.7519465733
 30
0.0
 10
10.9186995432
 20
9.7524716059
 30
0.0
 10
10.9179770093
 20
9.7529091331
 30
0.0
 10
10.9173989821
 20
9.7532591548
 30
0.0
 10
10.9169654618
 20
9.7535216713
 30
0.0
 10
10.9165319412
 20
9.7537841869
 30
0.0
 10
10.9161706751
 20
9.7540029527
 30
0.0
 10
10.9158816597
 20
9.7541779591
 30
0.0
 10
10.915701031
 20
9.7542873523
 30
0.0
 10
10.9155565143
 20
9.7543748345
 30
0.0
 10
10.9154481646
 20
9.7544405346
 30
0.0
 10
10.9153577527
 20
9.7544950033
 30
0.0
 10
10.9152947009
 20
9.7545336835
 30
0.0
 10
10.9152583019
 20
9.7545549244
 30
0.0
 10
10.9152320435
 20
9.7545732837
 30
0.0
 10
10.9152018059
 20
9.7545823594
 30
0.0
 10
10.9151628772
 20
9.7545976985
 30
0.0
 10
10.9150941051
 20
9.7546230332
 30
0.0
 10
10.9149961974
 20
9.7546600144
 30
0.0
 10
10.9148785634
 20
9.7547040542
 30
0.0
 10
10.9147217687
 20
9.7547628919
 30
0.0
 10
10.914525758
 20
9.7548363986
 30
0.0
 10
10.9142121505
 20
9.754954032
 30
0.0
 10
10.9138201378
 20
9.7551010659
 30
0.0
 10
10.913349724
 20
9.75527751
 30
0.0
 10
10.9128793098
 20
9.7554539532
 30
0.0
 10
10.912252091
 20
9.755689211
 30
0.0
 10
10.9114680675
 20
9.7559832833
 30
0.0
 10
10.9105272393
 20
9.75633617
 30
0.0
 10
10.9092728016
 20
9.7568066856
 30
0.0
 10
10.9077047546
 20
9.7573948301
 30
0.0
 10
10.9058230982
 20
9.7581006035
 30
0.0
 10
10.9033142229
 20
9.7590416348
 30
0.0
 10
10.9008053477
 20
9.759982666
 30
0.0
 10
10.8982964724
 20
9.7609236972
 30
0.0
 10
10.896414816
 20
9.7616294706
 30
0.0
 10
10.8945331596
 20
9.7623352441
 30
0.0
 10
10.8926515031
 20
9.7630410175
 30
0.0
 10
10.8910834561
 20
9.763629162
 30
0.0
 10
10.8898290185
 20
9.7640996776
 30
0.0
 10
10.8888881903
 20
9.7644525643
 30
0.0
 10
10.8881041668
 20
9.7647466366
 30
0.0
 10
10.8874769479
 20
9.7649818943
 30
0.0
 10
10.8870065339
 20
9.7651583379
 30
0.0
 10
10.8865361196
 20
9.7653347805
 30
0.0
 10
10.8861441085
 20
9.765481819
 30
0.0
 10
10.8858304977
 20
9.7655994431
 30
0.0
 10
10.8856344954
 20
9.7656729733
 30
0.0
 10
10.8854776832
 20
9.7657317629
 30
0.0
 10
10.8853601026
 20
9.7657759497
 30
0.0
 10
10.885262028
 20
9.7658124709
 30
0.0
 10
10.8851935539
 20
9.7658386269
 30
0.0
 10
10.8851541477
 20
9.76585265
 30
0.0
 10
10.8851253767
 20
9.765865768
 30
0.0
 10
10.88509361
 20
9.7658689449
 30
0.0
 10
10.8850522994
 20
9.7658766484
 30
0.0
 10
10.884979519
 20
9.7658885138
 30
0.0
 10
10.8848758016
 20
9.765906309
 30
0.0
 10
10.8847512317
 20
9.7659273018
 30
0.0
 10
10.8845851765
 20
9.7659554184
 30
0.0
 10
10.8843775945
 20
9.765990521
 30
0.0
 10
10.8840454706
 20
9.7660467092
 30
0.0
 10
10.8836303133
 20
9.7661169362
 30
0.0
 10
10.8831321255
 20
9.7662012122
 30
0.0
 10
10.8826339374
 20
9.7662854873
 30
0.0
 10
10.8819696868
 20
9.7663978543
 30
0.0
 10
10.8811393735
 20
9.766538313
 30
0.0
 10
10.8801429975
 20
9.7667068634
 30
0.0
 10
10.8788144962
 20
9.7669315974
 30
0.0
 10
10.8771538695
 20
9.7672125148
 30
0.0
 10
10.8751611176
 20
9.7675496157
 30
0.0
 10
10.8731683656
 20
9.7678867166
 30
0.0
 10
10.8711756137
 20
9.7682238175
 30
0.0
 10
10.8691828617
 20
9.7685609184
 30
0.0
 10
10.8671901097
 20
9.7688980193
 30
0.0
 10
10.8651973578
 20
9.7692351202
 30
0.0
 10
10.8632046058
 20
9.7695722211
 30
0.0
 10
10.8612118538
 20
9.769909322
 30
0.0
 10
10.8595512272
 20
9.7701902395
 30
0.0
 10
10.8582227259
 20
9.7704149734
 30
0.0
 10
10.8572263499
 20
9.7705835239
 30
0.0
 10
10.8563960366
 20
9.7707239826
 30
0.0
 10
10.8557317859
 20
9.7708363495
 30
0.0
 10
10.8552335979
 20
9.7709206249
 30
0.0
 10
10.85473541
 20
9.7710048994
 30
0.0
 10
10.8543202531
 20
9.7710751312
 30
0.0
 10
10.8539881282
 20
9.7711313096
 30
0.0
 10
10.8537805488
 20
9.7711664372
 30
0.0
 10
10.8536144884
 20
9.7711945024
 30
0.0
 10
10.8534899343
 20
9.7712156523
 30
0.0
 10
10.8533861674
 20
9.7712329559
 30
0.0
 10
10.8533134753
 20
9.7712456991
 30
0.0
 10
10.8532720233
 20
9.7712519961
 30
0.0
 10
10.8532406909
 20
9.7712594932
 30
0.0
 10
10.853210289
 20
9.7712563851
 30
0.0
 10
10.8531694286
 20
9.7712559402
 30
0.0
 10
10.8530980741
 20
9.771253438
 30
0.0
 10
10.8529960601
 20
9.7712507646
 30
0.0
 10
10.8528736771
 20
9.7712471708
 30
0.0
 10
10.8527104879
 20
9.7712425138
 30
0.0
 10
10.8525065055
 20
9.7712366464
 30
0.0
 10
10.8521801314
 20
9.7712272844
 30
0.0
 10
10.8517721646
 20
9.771215573
 30
0.0
 10
10.8512826041
 20
9.7712015231
 30
0.0
 10
10.8507930436
 20
9.7711874722
 30
0.0
 10
10.8501402963
 20
9.771168738
 30
0.0
 10
10.8493243622
 20
9.7711453201
 30
0.0
 10
10.8483452412
 20
9.7711172188
 30
0.0
 10
10.8470397466
 20
9.7710797503
 30
0.0
 10
10.8454078784
 20
9.7710329146
 30
0.0
 10
10.8434496365
 20
9.7709767119
 30
0.0
 10
10.8414913946
 20
9.7709205091
 30
0.0
 10
10.8395331527
 20
9.7708643064
 30
0.0
 10
10.8369221635
 20
9.7707893693
 30
0.0
 10
10.8343111743
 20
9.7707144323
 30
0.0
 10
10.8317001851
 20
9.7706394953
 30
0.0
 10
10.8297419432
 20
9.7705832926
 30
0.0
 10
10.828110075
 20
9.7705364569
 30
0.0
 10
10.8268045804
 20
9.7704989884
 30
0.0
 10
10.8258254594
 20
9.770470887
 30
0.0
 10
10.8250095253
 20
9.7704474692
 30
0.0
 10
10.824356778
 20
9.7704287349
 30
0.0
 10
10.8238672175
 20
9.7704146844
 30
0.0
 10
10.8233776572
 20
9.770400633
 30
0.0
 10
10.8229696896
 20
9.7703889265
 30
0.0
 10
10.8226433169
 20
9.7703795544
 30
0.0
 10
10.822439331
 20
9.7703737125
 30
0.0
 10
10.8222761492
 20
9.7703690032
 30
0.0
 10
10.8221537437
 20
9.7703655693
 30
0.0
 10
10.8220518
 20
9.7703623956
 30
0.0
 10
10.8219803199
 20
9.7703607865
 30
0.0
 10
10.8219396608
 20
9.7703589107
 30
0.0
 10
10.8219086404
 20
9.7703601977
 30
0.0
 10
10.8218796312
 20
9.7703511876
 30
0.0
 10
10.8218402508
 20
9.7703427659
 30
0.0
 10
10.8217716619
 20
9.7703263544
 30
0.0
 10
10.8216735068
 20
9.7703037844
 30
0.0
 10
10.8215557939
 20
9.7702763258
 30
0.0
 10
10.8213988177
 20
9.7702398452
 30
0.0
 10
10.8212026063
 20
9.7701941997
 30
0.0
 10
10.8208886632
 20
9.7701211918
 30
0.0
 10
10.8204962359
 20
9.7700299234
 30
0.0
 10
10.8200253225
 20
9.7699204051
 30
0.0
 10
10.8195544093
 20
9.7698108857
 30
0.0
 10
10.8189265249
 20
9.7696648602
 30
0.0
 10
10.8181416695
 20
9.7694823283
 30
0.0
 10
10.8171998429
 20
9.76926329
 30
0.0
 10
10.8159440742
 20
9.7689712389
 30
0.0
 10
10.8143743633
 20
9.7686061751
 30
0.0
 10
10.8124907103
 20
9.7681680985
 30
0.0
 10
10.8106070572
 20
9.7677300219
 30
0.0
 10
10.8087234041
 20
9.7672919453
 30
0.0
 10
10.806839751
 20
9.7668538687
 30
0.0
 10
10.804956098
 20
9.766415792
 30
0.0
 10
10.8030724449
 20
9.7659777154
 30
0.0
 10
10.8011887918
 20
9.7655396388
 30
0.0
 10
10.7993051388
 20
9.7651015622
 30
0.0
 10
10.7977354279
 20
9.7647364984
 30
0.0
 10
10.7964796592
 20
9.7644444473
 30
0.0
 10
10.7955378326
 20
9.764225409
 30
0.0
 10
10.7947529772
 20
9.7640428771
 30
0.0
 10
10.7941250928
 20
9.7638968515
 30
0.0
 10
10.7936541795
 20
9.7637873326
 30
0.0
 10
10.7931832665
 20
9.7636778127
 30
0.0
 10
10.7927908379
 20
9.763586549
 30
0.0
 10
10.7924768976
 20
9.7635135315
 30
0.0
 10
10.7922806789
 20
9.7634679106
 30
0.0
 10
10.7921237177
 20
9.7634313795
 30
0.0
 10
10.7920059592
 20
9.7634040751
 30
0.0
 10
10.7919079467
 20
9.7633810229
 30
0.0
 10
10.7918391033
 20
9.7633654721
 30
0.0
 10
10.7918001306
 20
9.7633556714
 30
0.0
 10
10.7917698688
 20
9.763350897
 30
0.0
 10
10.7917435529
 20
9.7633362754
 30
0.0
 10
10.7917070887
 20
9.7633202148
 30
0.0
 10
10.7916439177
 20
9.7632905085
 30
0.0
 10
10.791553338
 20
9.7632489074
 30
0.0
 10
10.7914447859
 20
9.7631986281
 30
0.0
 10
10.7912999996
 20
9.7631317141
 30
0.0
 10
10.791119034
 20
9.7630480287
 30
0.0
 10
10.7908294794
 20
9.762914156
 30
0.0
 10
10.7904675393
 20
9.762746807
 30
0.0
 10
10.7900332099
 20
9.7625459917
 30
0.0
 10
10.7895988809
 20
9.7623451754
 30
0.0
 10
10.7890197754
 20
9.7620774207
 30
0.0
 10
10.7882958935
 20
9.7617427273
 30
0.0
 10
10.7874272353
 20
9.7613410952
 30
0.0
 10
10.7862690243
 20
9.7608055857
 30
0.0
 10
10.7848212605
 20
9.7601361988
 30
0.0
 10
10.783083944
 20
9.7593329345
 30
0.0
 10
10.7813466276
 20
9.7585296703
 30
0.0
 10
10.7796093111
 20
9.757726406
 30
0.0
 10
10.7778719946
 20
9.7569231418
 30
0.0
 10
10.7761346781
 20
9.7561198775
 30
0.0
 10
10.7743973616
 20
9.7553166133
 30
0.0
 10
10.7726600451
 20
9.754513349
 30
0.0
 10
10.7709227286
 20
9.7537100847
 30
0.0
 10
10.7694749649
 20
9.7530406979
 30
0.0
 10
10.7683167539
 20
9.7525051884
 30
0.0
 10
10.7674480957
 20
9.7521035562
 30
0.0
 10
10.7667242138
 20
9.7517688628
 30
0.0
 10
10.7661451083
 20
9.751501108
 30
0.0
 10
10.7657107791
 20
9.7513002921
 30
0.0
 10
10.7652764504
 20
9.7510994753
 30
0.0
 10
10.7649145082
 20
9.7509321309
 30
0.0
 10
10.7646249579
 20
9.7507982489
 30
0.0
 10
10.7644439813
 20
9.7507145873
 30
0.0
 10
10.7642992176
 20
9.7506476245
 30
0.0
 10
10.7641905966
 20
9.7505974942
 30
0.0
 10
10.7641002324
 20
9.7505554267
 30
0.0
 10
10.7640366767
 20
9.7505265531
 30
0.0
 10
10.7640008288
 20
9.7505091582
 30
0.0
 10
10.7639726197
 20
9.7504986353
 30
0.0
 10
10.7639494686
 20
9.7504784671
 30
0.0
 10
10.7639168363
 20
9.7504549405
 30
0.0
 10
10.7638605516
 20
9.7504122014
 30
0.0
 10
10.7637797153
 20
9.7503519652
 30
0.0
 10
10.7636828956
 20
9.7502793309
 30
0.0
 10
10.7635537384
 20
9.7501826077
 30
0.0
 10
10.7633923139
 20
9.7500616617
 30
0.0
 10
10.7631340225
 20
9.7498681716
 30
0.0
 10
10.7628111624
 20
9.7496263009
 30
0.0
 10
10.7624237285
 20
9.7493360596
 30
0.0
 10
10.762036295
 20
9.7490458173
 30
0.0
 10
10.761519717
 20
9.748658828
 30
0.0
 10
10.7608739944
 20
9.7481750912
 30
0.0
 10
10.7600991273
 20
9.747594607
 30
0.0
 10
10.7590659712
 20
9.7468206282
 30
0.0
 10
10.7577745261
 20
9.7458531546
 30
0.0
 10
10.7562247919
 20
9.7446921863
 30
0.0
 10
10.7546750578
 20
9.7435312181
 30
0.0
 10
10.7531253236
 20
9.7423702498
 30
0.0
 10
10.7515755895
 20
9.7412092815
 30
0.0
 10
10.7500258553
 20
9.7400483132
 30
0.0
 10
10.7484761212
 20
9.738887345
 30
0.0
 10
10.746926387
 20
9.7377263767
 30
0.0
 10
10.7453766529
 20
9.7365654084
 30
0.0
 10
10.7440852078
 20
9.7355979348
 30
0.0
 10
10.7430520517
 20
9.734823956
 30
0.0
 10
10.7422771846
 20
9.7342434719
 30
0.0
 10
10.741631462
 20
9.7337597351
 30
0.0
 10
10.741114884
 20
9.7333727456
 30
0.0
 10
10.7407274503
 20
9.7330825037
 30
0.0
 10
10.7403400174
 20
9.7327922611
 30
0.0
 10
10.7400171542
 20
9.7325503944
 30
0.0
 10
10.7397588691
 20
9.7323568962
 30
0.0
 10
10.7395974285
 20
9.732235971
 30
0.0
 10
10.7394683043
 20
9.7321392052
 30
0.0
 10
10.7393713839
 20
9.7320667009
 30
0.0
 10
10.7392908627
 20
9.7320060577
 30
0.0
 10
10.7392340154
 20
9.7319640451
 30
0.0
 10
10.7392022846
 20
9.7319393546
 30
0.0
 10
10.7391763644
 20
9.7319227616
 30
0.0
 10
10.7391585556
 20
9.7318988107
 30
0.0
 10
10.7391319813
 20
9.7318694426
 30
0.0
 10
10.7390867944
 20
9.7318168527
 30
0.0
 10
10.7390215526
 20
9.7317423495
 30
0.0
 10
10.7389435573
 20
9.731652678
 30
0.0
 10
10.7388394607
 20
9.7315332095
 30
0.0
 10
10.7387093751
 20
9.7313838419
 30
0.0
 10
10.7385012184
 20
9.7311448716
 30
0.0
 10
10.7382410294
 20
9.7308461525
 30
0.0
 10
10.7379287997
 20
9.7304876923
 30
0.0
 10
10.7376165707
 20
9.7301292314
 30
0.0
 10
10.7372002652
 20
9.7296512837
 30
0.0
 10
10.7366798834
 20
9.729053849
 30
0.0
 10
10.7360554251
 20
9.7283369275
 30
0.0
 10
10.7352228142
 20
9.727381032
 30
0.0
 10
10.7341820504
 20
9.7261861628
 30
0.0
 10
10.732933134
 20
9.7247523196
 30
0.0
 10
10.7316842175
 20
9.7233184765
 30
0.0
 10
10.730435301
 20
9.7218846334
 30
0.0
 10
10.7291863846
 20
9.7204507902
 30
0.0
 10
10.7279374681
 20
9.7190169471
 30
0.0
 10
10.7266885517
 20
9.717583104
 30
0.0
 10
10.7254396352
 20
9.7161492608
 30
0.0
 10
10.7241907187
 20
9.7147154177
 30
0.0
 10
10.723149955
 20
9.7135205484
 30
0.0
 10
10.722317344
 20
9.712564653
 30
0.0
 10
10.7216928858
 20
9.7118477314
 30
0.0
 10
10.7211725039
 20
9.7112502968
 30
0.0
 10
10.7207561985
 20
9.710772349
 30
0.0
 10
10.7204439692
 20
9.7104138884
 30
0.0
 10
10.7201317407
 20
9.7100554271
 30
0.0
 10
10.7198715478
 20
9.7097567113
 30
0.0
 10
10.7196633992
 20
9.7095177344
 30
0.0
 10
10.7195332932
 20
9.7093683835
 30
0.0
 10
10.7194292384
 20
9.7092488806
 30
0.0
 10
10.7193511153
 20
9.7091593141
 30
0.0
 10
10.7192862735
 20
9.7090844826
 30
0.0
 10
10.7192403724
 20
9.7090324787
 30
0.0
 10
10.7192149424
 20
9.7090021718
 30
0.0
 10
10.7191936188
 20
9.7089811047
 30
0.0
 10
10.7191808998
 20
9.7089536805
 30
0.0
 10
10.7191609398
 20
9.7089193323
 30
0.0
 10
10.7191274083
 20
9.7088581899
 30
0.0
 10
10.7190787749
 20
9.7087713838
 30
0.0
 10
10.7190207279
 20
9.7086669852
 30
0.0
 10
10.7189432225
 20
9.7085278679
 30
0.0
 10
10.7188463781
 20
9.7083539435
 30
0.0
 10
10.7186914063
 20
9.7080756801
 30
0.0
 10
10.7184976987
 20
9.7077278454
 30
0.0
 10
10.7182652464
 20
9.7073104461
 30
0.0
 10
10.718032795
 20
9.7068930462
 30
0.0
 10
10.7177228596
 20
9.7063365132
 30
0.0
 10
10.7173354403
 20
9.7056408469
 30
0.0
 10
10.7168705371
 20
9.7048060473
 30
0.0
 10
10.7162506663
 20
9.7036929812
 30
0.0
 10
10.7154758277
 20
9.7023016486
 30
0.0
 10
10.7145460214
 20
9.7006320495
 30
0.0
 10
10.7136162151
 20
9.6989624503
 30
0.0
 10
10.7126864088
 20
9.6972928512
 30
0.0
 10
10.7117566025
 20
9.6956232521
 30
0.0
 10
10.7108267962
 20
9.6939536529
 30
0.0
 10
10.7098969899
 20
9.6922840538
 30
0.0
 10
10.7089671836
 20
9.6906144547
 30
0.0
 10
10.7080373773
 20
9.6889448555
 30
0.0
 10
10.7072625387
 20
9.6875535229
 30
0.0
 10
10.7066426678
 20
9.6864404568
 30
0.0
 10
10.7061777647
 20
9.6856056573
 30
0.0
 10
10.7057903454
 20
9.684909991
 30
0.0
 10
10.70548041
 20
9.6843534579
 30
0.0
 10
10.7052479582
 20
9.6839360582
 30
0.0
 10
10.7050155074
 20
9.6835186581
 30
0.0
 10
10.7048217955
 20
9.683170826
 30
0.0
 10
10.7046668324
 20
9.6828925573
 30
0.0
 10
10.7045699659
 20
9.6827186463
 30
0.0
 10
10.7044925059
 20
9.6825795015
 30
0.0
 10
10.7044343199
 20
9.682475187
 30
0.0
 10
10.7043861213
 20
9.6823881176
 30
0.0
 10
10.7043518137
 20
9.6823274452
 30
0.0
 10
10.7043330971
 20
9.6822923441
 30
0.0
 10
10.7043165588
 20
9.6822672327
 30
0.0
 10
10.7043095802
 20
9.6822374791
 30
0.0
 10
10.7042969408
 20
9.6821994268
 30
0.0
 10
10.7042763754
 20
9.682132081
 30
0.0
 10
10.7042461841
 20
9.6820362671
 30
0.0
 10
10.7042103022
 20
9.6819211215
 30
0.0
 10
10.7041623383
 20
9.6817676531
 30
0.0
 10
10.704102425
 20
9.6815757973
 30
0.0
 10
10.7040065404
 20
9.6812688395
 30
0.0
 10
10.7038866926
 20
9.6808851382
 30
0.0
 10
10.7037428718
 20
9.6804246984
 30
0.0
 10
10.703599052
 20
9.6799642582
 30
0.0
 10
10.7034072919
 20
9.679350338
 30
0.0
 10
10.7031675919
 20
9.6785829377
 30
0.0
 10
10.7028799518
 20
9.6776620574
 30
0.0
 10
10.7024964318
 20
9.676434217
 30
0.0
 10
10.7020170317
 20
9.6748994165
 30
0.0
 10
10.7014417516
 20
9.6730576559
 30
0.0
 10
10.7008664715
 20
9.6712158953
 30
0.0
 10
10.7002911914
 20
9.6693741346
 30
0.0
 10
10.6997159113
 20
9.667532374
 30
0.0
 10
10.6991406312
 20
9.6656906134
 30
0.0
 10
10.6985653511
 20
9.6638488528
 30
0.0
 10
10.697990071
 20
9.6620070921
 30
0.0
 10
10.6974147908
 20
9.6601653315
 30
0.0
 10
10.6969353908
 20
9.658630531
 30
0.0
 10
10.6965518707
 20
9.6574026906
 30
0.0
 10
10.6962642306
 20
9.6564818103
 30
0.0
 10
10.6960245306
 20
9.65571441
 30
0.0
 10
10.6958327706
 20
9.6551004898
 30
0.0
 10
10.6956889504
 20
9.6546400497
 30
0.0
 10
10.6955451311
 20
9.6541796093
 30
0.0
 10
10.6954252787
 20
9.65379591
 30
0.0
 10
10.6953294036
 20
9.6534889481
 30
0.0
 10
10.6952694662
 20
9.6532971026
 30
0.0
 10
10.6952215516
 20
9.6531436133
 30
0.0
 10
10.6951855189
 20
9.6530285315
 30
0.0
 10
10.6951557993
 20
9.652932518
 30
0.0
 10
10.695134392
 20
9.6528655285
 30
0.0
 10
10.6951231017
 20
9.6528269052
 30
0.0
 10
10.695111979
 20
9.6527989056
 30
0.0
 10
10.6951110051
 20
9.6527672065
 30
0.0
 10
10.6951061665
 20
9.6527262314
 30
0.0
 10
10.6950993485
 20
9.6526539238
 30
0.0
 10
10.695088746
 20
9.6525509416
 30
0.0
 10
10.6950763922
 20
9.6524272284
 30
0.0
 10
10.6950597916
 20
9.6522623244
 30
0.0
 10
10.6950390849
 20
9.6520561783
 30
0.0
 10
10.6950059295
 20
9.6517263536
 30
0.0
 10
10.6949644937
 20
9.6513140697
 30
0.0
 10
10.6949147672
 20
9.6508193302
 30
0.0
 10
10.6948650416
 20
9.6503245904
 30
0.0
 10
10.6947987405
 20
9.6496649375
 30
0.0
 10
10.6947158643
 20
9.6488403713
 30
0.0
 10
10.6946164127
 20
9.6478508919
 30
0.0
 10
10.6944838107
 20
9.6465315859
 30
0.0
 10
10.6943180581
 20
9.6448824536
 30
0.0
 10
10.694119155
 20
9.6429034947
 30
0.0
 10
10.6939202519
 20
9.6409245358
 30
0.0
 10
10.6937213488
 20
9.6389455769
 30
0.0
 10
10.6934561447
 20
9.6363069651
 30
0.0
 10
10.6931246395
 20
9.6330087003
 30
0.0
 10
10.6927268334
 20
9.6290507826
 30
0.0
 10
10.6923290272
 20
9.6250928648
 30
0.0
 10
10.6920638231
 20
9.622454253
 30
0.0
 10
10.691931221
 20
9.6211349471
 30
0.0
  0
ENDSEC
  0
SECTION
  2
OBJECTS
  0
DICTIONARY
  5
C
100
AcDbDictionary
280
0
281
1
  3
ACAD_GROUP
350
D
  3
ACAD_MLINESTYLE
350
17
  3
ACAD_LAYOUT
350
1A
  3
ACAD_PLOTSETTINGS
350
19
  3
ACAD_PLOTSTYLENAME
350
E
  3
ACAD_IMAGE_DICT
350
       3B6
  3
ACAD_IMAGE_VARS
350
       3B7
  3
ACAD_TABLESTYLE
350
       3B8
  0
IMAGEDEF_REACTOR
  5
3B5
100
AcDbRasterImageDefReactor
 90
2
330
292
  0
DICTIONARY
  5
D
102
{ACAD_REACTORS
330
C
102
}
100
AcDbDictionary
280
0
281
1
  0
ACDBDICTIONARYWDFLT
  5
E
102
{ACAD_REACTORS
330
C
102
}
100
AcDbDictionary
281
1
  3
Normal
350
F
100
AcDbDictionaryWithDefault
340
F
  0
DICTIONARY
  5
3B6
330
C
100
AcDbDictionary
281
1
  3
E7I_assy_2_img_1
350
       3BB
  0
RASTERVARIABLES
  5
3B7
330
C
100
AcDbRasterVariables
 90
0
 70
0
 71
1
 72
5
  0
DICTIONARY
  5
17
102
{ACAD_REACTORS
330
C
102
}
100
AcDbDictionary
280
0
281
1
  3
Standard
350
18
  0
DICTIONARY
  5
3B8
330
C
100
AcDbDictionary
281
1
  3
Standard
350
       3BC
  3
Standard1
350
       3BD
  0
DICTIONARY
  5
19
102
{ACAD_REACTORS
330
C
102
}
100
AcDbDictionary
281
1
  0
DICTIONARY
  5
1A
102
{ACAD_REACTORS
330
C
102
}
100
AcDbDictionary
281
1
  3
Model
350
3B9
  3
Layout1
350
3BA
  0
ACDBPLACEHOLDER
  5
F
102
{ACAD_REACTORS
330
E
102
}
  0
MLINESTYLE
  5
18
102
{ACAD_REACTORS
330
17
102
}
100
AcDbMlineStyle
  2
STANDARD
 70
0
  3

 62
256
 51
90.0
 52
90.0
 71
2
 49
0.5
 62
256
  6
BYLAYER
 49
-0.5
 62
256
  6
BYLAYER
  0
LAYOUT
  5
3B9
102
{ACAD_REACTORS
330
1A
102
}
100
AcDbPlotSettings
  1

  2
none_device
  4
ANSI_C_(22.00_x_17.00_Inches)
  6

 40
0.0
 41
0.0
 42
0.0
 43
0.0
 44
558.8
 45
431.8
 46
0.0
 47
0.0
 48
0.0
 49
0.0
140
0.0
141
0.0
142
1.0
143
1.0
 70
1024
 72
0
 73
0
 74
0
  7

 75
0
147
1.0
148
0.0
149
0.0
100
AcDbLayout
  1
Model
 70
0
 71
0
 10
0.0
 20
0.0
 11
22.0
 21
17.0
 12
0.0
 22
0.0
 32
0.0
 14
0.0
 24
0.0
 34
0.0
 15
0.0
 25
0.0
 35
0.0
146
0.0
 13
0.0
 23
0.0
 33
0.0
 16
1.0
 26
0.0
 36
0.0
 17
0.0
 27
1.0
 37
0.0
 76
0
330
20C
345
0
346
0
  0
LAYOUT
  5
3BA
102
{ACAD_REACTORS
330
1A
102
}
100
AcDbPlotSettings
  1

  2
none_device
  4
ANSI_C_(22.00_x_17.00_Inches)
  6

 40
0.0
 41
0.0
 42
0.0
 43
0.0
 44
558.8
 45
431.8
 46
0.0
 47
0.0
 48
0.0
 49
0.0
140
0.0
141
0.0
142
1.0
143
1.0
 70
0
 72
0
 73
0
 74
0
  7

 75
0
147
1.0
148
0.0
149
0.0
100
AcDbLayout
  1
Layout1
 70
0
 71
1
 10
0.0
 20
0.0
 11
22.0
 21
17.0
 12
0.0
 22
0.0
 32
0.0
 14
0.0
 24
0.0
 34
0.0
 15
0.0
 25
0.0
 35
0.0
146
0.0
 13
0.0
 23
0.0
 33
0.0
 16
1.0
 26
0.0
 36
0.0
 17
0.0
 27
1.0
 37
0.0
 76
0
330
20D
345
0
346
0
  0
IMAGEDEF
  5
3BB
102
{ACAD_REACTORS
330
3B6
330
3B5
102
}
100
AcDbRasterImageDef
 90
0
  1
E7I_assy_2_img_1.png
 10
369.0
 20
92.0
 11
0.0066666667
 21
0.0066666667
280
1
281
0
  0
TABLESTYLE
  5
3BC
102
{ACAD_REACTORS
330
3B8
330
295
330
296
102
}
330
3B8
100
AcDbTableStyle
  3
Standard
 70
0
 71
0
 40
0.06
 41
0.06
280
1
281
1
  7
Standard
140
0.18
170
1
 62
0
 63
7
283
0
  7
Standard
140
0.18
170
1
 62
0
 63
7
283
0
  7
Standard
140
0.18
170
1
 62
0
 63
7
283
0
  0
TABLESTYLE
  5
3BD
102
{ACAD_REACTORS
330
3B8
330
294
102
}
330
3B8
100
AcDbTableStyle
  3
Standard1
 70
1
 71
0
 40
0.06
 41
0.06
280
1
281
1
  7
Standard
140
0.18
170
1
 62
0
 63
7
283
0
  7
Standard
140
0.18
170
1
 62
0
 63
7
283
0
  7
Standard
140
0.18
170
1
 62
0
 63
7
283
0
  0
ENDSEC
  0
EOF
