999
DXF file: E7A_assy_2.dxf
999
Pro/ENGINEER 2014200 by Parametric Technology Corporation
  0
SECTION
  2
HEADER
  9
$ACADVER
  1
AC1021
  9
$DWGCODEPAGE
  3
ANSI_1252
  9
$EXTMAX
 10
22.0
 20
17.0
 30
0.0
  9
$EXTMIN
 10
0.0
 20
0.0
 30
0.0
  9
$LIMMIN
 10
0.0
 20
0.0
  9
$LIMMAX
 10
22.0
 20
17.0
  9
$VIEWCTR
 10
11.0
 20
8.5
  9
$VIEWSIZE
 40
17.0
  9
$CLAYER
  8
0
  9
$LTSCALE
 40
1.21
  9
$CELTYPE
  6
BYLAYER
  9
$DIMSCALE
 40
1.0
  9
$DIMASZ
 40
0.1875
  9
$DIMEXO
 40
0.0625
  9
$DIMDLI
 40
0.836
  9
$DIMEXE
 40
0.125
  9
$DIMCEN
 40
0.198
  9
$DIMLFAC
 40
1.0
  9
$DIMBLK
  1
_FILLED
  9
$DIMTXT
 40
0.1
  9
$DIMTOL
 70
0
  9
$DIMLIM
 70
0
  9
$DIMTFAC
 40
1.0
  9
$DIMGAP
 40
0.09
  9
$DIMDSEP
 70
46
  9
$AUNITS
 70
0
  9
$PDMODE
 70
3
  9
$PDSIZE
 40
0.3125
  9
$HANDSEED
  5
37C
  9
$TILEMODE
 70
1
  9
$MEASUREMENT
 70
0
  9
$INSUNITS
 70
1
  0
ENDSEC
  0
SECTION
  2
CLASSES
  0
CLASS
  1
ACDBDICTIONARYWDFLT
  2
AcDbDictionaryWithDefault
  3
AutoCAD 2000
 90
0
 91
1
280
0
281
0
  0
CLASS
  1
ACDBPLACEHOLDER
  2
AcDbPlaceHolder
  3
AutoCAD 2000
 90
0
 91
1
280
0
281
0
  0
CLASS
  1
LAYOUT
  2
AcDbLayout
  3
AutoCAD 2000
 90
0
 91
0
280
0
281
0
  0
CLASS
  1
RASTERVARIABLES
  2
AcDbRasterVariables
  3
ISM
 90
0
 91
1
280
0
281
0
  0
CLASS
  1
IMAGEDEF
  2
AcDbRasterImageDef
  3
ISM
 90
0
 91
1
280
0
281
0
  0
CLASS
  1
IMAGEDEF_REACTOR
  2
AcDbRasterImageDefReactor
  3
ISM
 90
0
 91
1
280
0
281
0
  0
CLASS
  1
IMAGE
  2
AcDbRasterImage
  3
ISM
 90
127
 91
1
280
0
281
1
  0
CLASS
  1
TABLESTYLE
  2
AcDbTableStyle
  3
ObjectDBX Classes
 90
2047
 91
1
280
0
281
0
  0
CLASS
  1
ACAD_TABLE
  2
AcDbTable
  3
ObjectDBX Classes
 90
1025
 91
3
280
0
281
1
  0
ENDSEC
  0
SECTION
  2
TABLES
  0
TABLE
  2
VPORT
  5
8
100
AcDbSymbolTable
 70
2
  0
VPORT
  5
1F4
100
AcDbSymbolTableRecord
100
AcDbViewportTableRecord
  2
*ACTIVE
 70
0
 10
0.0
 20
0.0
 11
1.0
 21
1.0
 12
11.0
 22
8.5
 13
0.0
 23
0.0
 14
1.0
 24
1.0
 15
0.0
 25
0.0
 16
0.0
 26
0.0
 36
1.0
 17
0.0
 27
0.0
 37
0.0
 40
17.0
 41
1.2941176471
 42
50.0
 43
0.0
 44
0.0
 50
0.0
 51
0.0
 71
0
 72
100
 73
1
 74
1
 75
0
 76
0
 77
0
 78
0
  0
ENDTAB
  0
TABLE
  2
LTYPE
  5
5
100
AcDbSymbolTable
 70
6
  0
LTYPE
  5
14
100
AcDbSymbolTableRecord
100
AcDbLinetypeTableRecord
  2
BYBLOCK
 70
0
  3

 72
65
 73
0
 40
0.0
  0
LTYPE
  5
15
100
AcDbSymbolTableRecord
100
AcDbLinetypeTableRecord
  2
BYLAYER
 70
0
  3

 72
65
 73
0
 40
0.0
  0
LTYPE
  5
16
100
AcDbSymbolTableRecord
100
AcDbLinetypeTableRecord
  2
CONTINUOUS
 70
64
  3
Solid line
 72
65
 73
0
 40
0.0
  0
LTYPE
  5
1F5
100
AcDbSymbolTableRecord
100
AcDbLinetypeTableRecord
  2
CENTER
 70
64
  3
____ _ ____ _ ____ _ ____ _ ____ _ ____ _ ____
 72
65
 73
4
 40
0.6
 49
0.375
 74
0
 49
-0.075
 74
0
 49
0.075
 74
0
 49
-0.075
 74
0
  0
LTYPE
  5
1F6
100
AcDbSymbolTableRecord
100
AcDbLinetypeTableRecord
  2
HIDDEN
 70
64
  3
- - - - - - - - - - - - - - - - - - - -
 72
65
 73
2
 40
0.2
 49
0.1
 74
0
 49
-0.1
 74
0
  0
LTYPE
  5
1F7
100
AcDbSymbolTableRecord
100
AcDbLinetypeTableRecord
  2
PHANTOM
 70
64
  3
_____ _ _ _____ _ _ _____ _ _ _____
 72
65
 73
6
 40
0.8
 49
0.45
 74
0
 49
-0.05
 74
0
 49
0.1
 74
0
 49
-0.05
 74
0
 49
0.1
 74
0
 49
-0.05
 74
0
  0
LTYPE
  5
1F8
100
AcDbSymbolTableRecord
100
AcDbLinetypeTableRecord
  2
DOT
 70
64
  3
. . . . . . . . . . . . . . . . . . . .
 72
65
 73
2
 40
0.2
 49
0.1
 74
0
 49
-0.1
 74
0
  0
LTYPE
  5
1F9
100
AcDbSymbolTableRecord
100
AcDbLinetypeTableRecord
  2
DASHED
 70
64
  3
- - - - - - - - - - - - - - - - - - - -
 72
65
 73
2
 40
0.2
 49
0.1
 74
0
 49
-0.1
 74
0
  0
ENDTAB
  0
TABLE
  2
LAYER
  5
2
100
AcDbSymbolTable
 70
36
  0
LAYER
  5
10
100
AcDbSymbolTableRecord
100
AcDbLayerTableRecord
  2
0
 70
0
 62
7
  6
CONTINUOUS
370
-3
390
F
  0
LAYER
  5
1FA
100
AcDbSymbolTableRecord
100
AcDbLayerTableRecord
  2
DEFAULT_1
 70
0
 62
7
  6
CENTER
370
-3
390
F
  0
LAYER
  5
1FB
100
AcDbSymbolTableRecord
100
AcDbLayerTableRecord
  2
DEFAULT_2
 70
0
 62
8
  6
HIDDEN
370
-3
390
F
  0
LAYER
  5
1FC
100
AcDbSymbolTableRecord
100
AcDbLayerTableRecord
  2
DEFAULT_3
 70
0
 62
7
  6
PHANTOM
370
-3
390
F
  0
LAYER
  5
1FD
100
AcDbSymbolTableRecord
100
AcDbLayerTableRecord
  2
01___PRT_ALL_DTM_PLN
 70
0
 62
7
  6
CONTINUOUS
370
-3
390
F
  0
LAYER
  5
1FE
100
AcDbSymbolTableRecord
100
AcDbLayerTableRecord
  2
01___PRT_DEF_DTM_PLN
 70
0
 62
7
  6
CONTINUOUS
370
-3
390
F
  0
LAYER
  5
1FF
100
AcDbSymbolTableRecord
100
AcDbLayerTableRecord
  2
02___PRT_ALL_AXES
 70
0
 62
7
  6
CONTINUOUS
370
-3
390
F
  0
LAYER
  5
200
100
AcDbSymbolTableRecord
100
AcDbLayerTableRecord
  2
03___PRT_ALL_CURVES
 70
0
 62
7
  6
CONTINUOUS
370
-3
390
F
  0
LAYER
  5
201
100
AcDbSymbolTableRecord
100
AcDbLayerTableRecord
  2
04___PRT_ALL_DTM_PNT
 70
0
 62
7
  6
CONTINUOUS
370
-3
390
F
  0
LAYER
  5
202
100
AcDbSymbolTableRecord
100
AcDbLayerTableRecord
  2
05___PRT_ALL_DTM_CSYS
 70
0
 62
7
  6
CONTINUOUS
370
-3
390
F
  0
LAYER
  5
203
100
AcDbSymbolTableRecord
100
AcDbLayerTableRecord
  2
05___PRT_DEF_DTM_CSYS
 70
0
 62
7
  6
CONTINUOUS
370
-3
390
F
  0
LAYER
  5
204
100
AcDbSymbolTableRecord
100
AcDbLayerTableRecord
  2
06___PRT_ALL_SURFS
 70
0
 62
7
  6
CONTINUOUS
370
-3
390
F
  0
LAYER
  5
205
100
AcDbSymbolTableRecord
100
AcDbLayerTableRecord
  2
DATUM_PLANES
 70
0
 62
7
  6
CONTINUOUS
370
-3
390
F
  0
LAYER
  5
206
100
AcDbSymbolTableRecord
100
AcDbLayerTableRecord
  2
PORT_AREAS
 70
0
 62
7
  6
CONTINUOUS
370
-3
390
F
  0
LAYER
  5
207
100
AcDbSymbolTableRecord
100
AcDbLayerTableRecord
  2
SUNNBOMCOSMETIC
 70
0
 62
7
  6
CONTINUOUS
370
-3
390
F
  0
LAYER
  5
208
100
AcDbSymbolTableRecord
100
AcDbLayerTableRecord
  2
SUNNBOMSTAMPING
 70
0
 62
7
  6
CONTINUOUS
370
-3
390
F
  0
LAYER
  5
209
100
AcDbSymbolTableRecord
100
AcDbLayerTableRecord
  2
THREADS
 70
0
 62
7
  6
CONTINUOUS
370
-3
390
F
  0
ENDTAB
  0
TABLE
  2
STYLE
  5
3
100
AcDbSymbolTable
 70
1
  0
STYLE
  5
11
100
AcDbSymbolTableRecord
100
AcDbTextStyleTableRecord
  2
STANDARD
 70
0
 40
0.0
 41
0.8
 50
0.0
 71
0
 42
0.2
  3
txt
  4

  0
STYLE
  5
20A
100
AcDbSymbolTableRecord
100
AcDbTextStyleTableRecord
  2
TEXTSTYLE_1
 70
0
 40
0.0
 41
0.8
 50
0.0
 71
0
 42
0.2
  3
gdt
  4

  0
ENDTAB
  0
TABLE
  2
VIEW
  5
6
100
AcDbSymbolTable
 70
0
  0
ENDTAB
  0
TABLE
  2
UCS
  5
7
100
AcDbSymbolTable
 70
0
  0
ENDTAB
  0
TABLE
  2
APPID
  5
9
100
AcDbSymbolTable
 70
1
  0
APPID
  5
20B
100
AcDbSymbolTableRecord
100
AcDbRegAppTableRecord
  2
ACAD
 70
0
  0
ENDTAB
  0
TABLE
  2
BLOCK_RECORD
  5
1
100
AcDbSymbolTable
 70
0
  0
BLOCK_RECORD
  5
20C
100
AcDbSymbolTableRecord
100
AcDbBlockTableRecord
  2
*Model_Space
  0
BLOCK_RECORD
  5
20D
100
AcDbSymbolTableRecord
100
AcDbBlockTableRecord
  2
*Paper_Space
  0
BLOCK_RECORD
  5
20E
100
AcDbSymbolTableRecord
100
AcDbBlockTableRecord
  2
SUN_FIRST_THIRD_ANGLE_BL0
  0
BLOCK_RECORD
  5
20F
100
AcDbSymbolTableRecord
100
AcDbBlockTableRecord
  2
*T1
  0
BLOCK_RECORD
  5
210
100
AcDbSymbolTableRecord
100
AcDbBlockTableRecord
  2
*T2
  0
BLOCK_RECORD
  5
211
100
AcDbSymbolTableRecord
100
AcDbBlockTableRecord
  2
*T3
  0
ENDTAB
  0
TABLE
  2
DIMSTYLE
  5
A
100
AcDbSymbolTable
 70
1
100
AcDbDimStyleTable
 71
0
  0
DIMSTYLE
105
212
100
AcDbSymbolTableRecord
100
AcDbDimStyleTableRecord
  2
STANDARD
 70
0
  3

  4

 40
1.0
 41
0.1875
 42
0.0625
 43
0.38
 44
0.125
 45
0.0
 46
0.0
 47
0.001
 48
0.001
140
0.1
141
0.09
142
0.0
143
25.4
144
1.0
145
0.0
146
1.0
147
0.09
 71
0.0
 72
0.0
 73
1
 74
1
 75
0
 76
0
 77
0
 78
4
170
0
171
2
172
0
173
0
174
0
175
0
176
0
177
0
178
0
270
2
271
3
272
3
273
2
274
2
275
0
280
0
281
0
282
0
283
1
284
4
285
0
286
0
287
3
288
0
340
11
278
46
  0
ENDTAB
  0
ENDSEC
  0
SECTION
  2
BLOCKS
  0
BLOCK
  5
20
100
AcDbEntity
  8
0
100
AcDbBlockBegin
  2
*Model_Space
 70
0
 10
0.0
 20
0.0
 30
0.0
  3
*Model_Space
  1

  0
ENDBLK
  5
21
100
AcDbEntity
  8
0
100
AcDbBlockEnd
  0
BLOCK
  5
1C
100
AcDbEntity
  8
0
100
AcDbBlockBegin
  2
*Paper_Space
 70
0
 10
0.0
 20
0.0
 30
0.0
  3
*Paper_Space
  1

  0
ENDBLK
  5
1D
100
AcDbEntity
  8
0
100
AcDbBlockEnd
  0
BLOCK
  5
213
100
AcDbEntity
  8
0
100
AcDbBlockBegin
 62
2
  6
CONTINUOUS
  2
SUN_FIRST_THIRD_ANGLE_BL0
 70
64
 10
20.4816717061
 20
1.2289683772
  3
SUN_FIRST_THIRD_ANGLE_BL0
  1

  0
TEXT
  5
214
100
AcDbEntity
  8
0
100
AcDbText
 62
2
  6
CONTINUOUS
 10
19.4750896608
 20
1.4136269581
  7
STANDARD
 40
0.08
  1
FIRST ANGLE
 41
0.8
 72
0
100
AcDbText
  0
TEXT
  5
215
100
AcDbEntity
  8
0
100
AcDbText
 62
2
  6
CONTINUOUS
 10
20.7842537513
 20
1.4047600029
  7
STANDARD
 40
0.08
  1
THIRD ANGLE
 41
0.8
 72
0
100
AcDbText
  0
LINE
  5
216
100
AcDbEntity
  8
0
100
AcDbLine
 62
7
  6
CONTINUOUS
 10
19.4767170086
 20
1.1727031207
 11
19.6334271527
 21
1.1717972817
  0
LINE
  5
217
100
AcDbEntity
  8
0
100
AcDbLine
 62
7
  6
CONTINUOUS
 10
19.6596964832
 20
1.1717972817
 11
19.6950230232
 21
1.171593082
  0
LINE
  5
218
100
AcDbEntity
  8
0
100
AcDbLine
 62
7
  6
CONTINUOUS
 10
19.7194818561
 20
1.1708914427
 11
19.8852396156
 21
1.1699333054
  0
LINE
  5
219
100
AcDbEntity
  8
0
100
AcDbLine
 62
7
  6
CONTINUOUS
 10
19.4758111696
 20
1.2723454088
 11
19.88525039
 21
1.3511534004
  0
LINE
  5
21A
100
AcDbEntity
  8
0
100
AcDbLine
 62
7
  6
CONTINUOUS
 10
19.88525039
 20
1.3511534004
 11
19.8831348489
 21
0.9851647912
  0
LINE
  5
21B
100
AcDbEntity
  8
0
100
AcDbLine
 62
7
  6
CONTINUOUS
 10
19.8831348489
 20
0.9851647912
 11
19.4767170086
 21
1.0658141206
  0
LINE
  5
21C
100
AcDbEntity
  8
0
100
AcDbLine
 62
7
  6
CONTINUOUS
 10
19.4767170086
 20
1.0658141206
 11
19.4779056764
 21
1.2714536432
  0
CIRCLE
  5
21D
100
AcDbEntity
  8
0
100
AcDbCircle
 62
7
  6
CONTINUOUS
 10
20.2068232291
 20
1.1717972817
 40
0.175742101
  0
CIRCLE
  5
21E
100
AcDbEntity
  8
0
100
AcDbCircle
 62
7
  6
CONTINUOUS
 10
20.2068232291
 20
1.1717972817
 40
0.1005522074
  0
LINE
  5
21F
100
AcDbEntity
  8
0
100
AcDbLine
 62
7
  6
CONTINUOUS
 10
20.2077290681
 20
1.3756110529
 11
20.2071171714
 21
1.2379342989
  0
LINE
  5
220
100
AcDbEntity
  8
0
100
AcDbLine
 62
7
  6
CONTINUOUS
 10
20.2077290681
 20
1.2016899681
 11
20.2074674401
 21
1.1428236749
  0
LINE
  5
221
100
AcDbEntity
  8
0
100
AcDbLine
 62
7
  6
CONTINUOUS
 10
20.208634907
 20
1.101141841
 11
20.2080230104
 21
0.963465087
  0
LINE
  5
222
100
AcDbEntity
  8
0
100
AcDbLine
 62
7
  6
CONTINUOUS
 10
20.0066328138
 20
1.1745147986
 11
20.1443095678
 21
1.1739029019
  0
LINE
  5
223
100
AcDbEntity
  8
0
100
AcDbLine
 62
7
  6
CONTINUOUS
 10
20.1832714155
 20
1.1727031207
 11
20.238153505
 21
1.172335442
  0
LINE
  5
224
100
AcDbEntity
  8
0
100
AcDbLine
 62
7
  6
CONTINUOUS
 10
20.2756669918
 20
1.1717972817
 11
20.407916871
 21
1.1712095044
  0
CIRCLE
  5
225
100
AcDbEntity
  8
0
100
AcDbCircle
 62
7
  6
CONTINUOUS
 10
20.7509457401
 20
1.1693297793
 40
0.1722024983
  0
CIRCLE
  5
226
100
AcDbEntity
  8
0
100
AcDbCircle
 62
7
  6
CONTINUOUS
 10
20.7509457401
 20
1.1693297793
 40
0.0985164967
  0
LINE
  5
227
100
AcDbEntity
  8
0
100
AcDbLine
 62
7
  6
CONTINUOUS
 10
20.7169767782
 20
1.170462078
 11
20.7825395137
 21
1.1682766535
  0
LINE
  5
228
100
AcDbEntity
  8
0
100
AcDbLine
 62
7
  6
CONTINUOUS
 10
20.8177513651
 20
1.1693297793
 11
20.947965719
 21
1.1693297793
  0
LINE
  5
229
100
AcDbEntity
  8
0
100
AcDbLine
 62
7
  6
CONTINUOUS
 10
20.6875370113
 20
1.170462078
 11
20.5573226574
 21
1.170462078
  0
LINE
  5
22A
100
AcDbEntity
  8
0
100
AcDbLine
 62
7
  6
CONTINUOUS
 10
20.7486811426
 20
1.1987695462
 11
20.7486811426
 21
1.1432869085
  0
LINE
  5
22B
100
AcDbEntity
  8
0
100
AcDbLine
 62
7
  6
CONTINUOUS
 10
20.7498134414
 20
1.1059210505
 11
20.7498134414
 21
0.9757066966
  0
LINE
  5
22C
100
AcDbEntity
  8
0
100
AcDbLine
 62
7
  6
CONTINUOUS
 10
20.7486811426
 20
1.2338708068
 11
20.7486811426
 21
1.3640851607
  0
LINE
  5
22D
100
AcDbEntity
  8
0
100
AcDbLine
 62
7
  6
CONTINUOUS
 10
21.0702539817
 20
1.2701043662
 11
21.4790138229
 21
1.3448360823
  0
LINE
  5
22E
100
AcDbEntity
  8
0
100
AcDbLine
 62
7
  6
CONTINUOUS
 10
21.4790138229
 20
1.3448360823
 11
21.4790138229
 21
0.9779712941
  0
LINE
  5
22F
100
AcDbEntity
  8
0
100
AcDbLine
 62
7
  6
CONTINUOUS
 10
21.4790138229
 20
0.9779712941
 11
21.069121683
 21
1.0617614
  0
LINE
  5
230
100
AcDbEntity
  8
0
100
AcDbLine
 62
7
  6
CONTINUOUS
 10
21.0702539817
 20
1.2701043662
 11
21.069121683
 21
1.0617614
  0
LINE
  5
231
100
AcDbEntity
  8
0
100
AcDbLine
 62
7
  6
CONTINUOUS
 10
21.4790138229
 20
1.1693297793
 11
21.3159628059
 21
1.1693297793
  0
LINE
  5
232
100
AcDbEntity
  8
0
100
AcDbLine
 62
7
  6
CONTINUOUS
 10
21.2876553377
 20
1.1693297793
 11
21.2502894796
 21
1.1693297793
  0
LINE
  5
233
100
AcDbEntity
  8
0
100
AcDbLine
 62
7
  6
CONTINUOUS
 10
21.2208497126
 20
1.1659328831
 11
21.0713862804
 21
1.1659328831
  0
LINE
  5
234
100
AcDbEntity
  8
0
100
AcDbLine
 62
7
  6
CONTINUOUS
 10
20.4796138713
 20
1.5284908897
 11
20.4766766948
 21
0.9294458646
  0
ENDBLK
  5
235
100
AcDbEntity
  8
0
  6
BYBLOCK
 62
0
100
AcDbBlockEnd
  0
BLOCK
  5
236
100
AcDbEntity
  8
0
100
AcDbBlockBegin
  2
*T1
 70
1
 10
0.0
 20
0.0
  3
*T1
  1

  0
LINE
  5
237
100
AcDbEntity
  8
0
100
AcDbLine
 62
2
  6
CONTINUOUS
 10
9.275
 20
0.0
 11
-0.0
 21
0.0
  0
LINE
  5
238
100
AcDbEntity
  8
0
100
AcDbLine
 62
2
  6
CONTINUOUS
 10
9.275
 20
0.0
 11
9.275
 21
1.25
  0
LINE
  5
239
100
AcDbEntity
  8
0
100
AcDbLine
 62
2
  6
CONTINUOUS
 10
9.275
 20
0.625
 11
-0.0
 21
0.625
  0
LINE
  5
23A
100
AcDbEntity
  8
0
100
AcDbLine
 62
2
  6
CONTINUOUS
 10
9.275
 20
1.25
 11
-0.0
 21
1.25
  0
LINE
  5
23B
100
AcDbEntity
  8
0
100
AcDbLine
 62
2
  6
CONTINUOUS
 10
6.8
 20
0.0
 11
6.8
 21
1.25
  0
LINE
  5
23C
100
AcDbEntity
  8
0
100
AcDbLine
 62
2
  6
CONTINUOUS
 10
6.4
 20
0.0
 11
6.4
 21
0.625
  0
LINE
  5
23D
100
AcDbEntity
  8
0
100
AcDbLine
 62
2
  6
CONTINUOUS
 10
5.9
 20
0.0
 11
5.9
 21
0.625
  0
LINE
  5
23E
100
AcDbEntity
  8
0
100
AcDbLine
 62
2
  6
CONTINUOUS
 10
5.2
 20
0.0
 11
5.2
 21
0.625
  0
LINE
  5
23F
100
AcDbEntity
  8
0
100
AcDbLine
 62
2
  6
CONTINUOUS
 10
4.1
 20
0.0
 11
4.1
 21
1.25
  0
LINE
  5
240
100
AcDbEntity
  8
0
100
AcDbLine
 62
2
  6
CONTINUOUS
 10
-0.0
 20
0.0
 11
-0.0
 21
1.25
  0
MTEXT
  5
241
100
AcDbEntity
  8
0
100
AcDbMText
 62
2
  6
CONTINUOUS
  7
STANDARD
 71
2
 72
1
 10
6.6
 20
0.325
 30
0.0
 11
1.0
 21
0.0
 31
0.0
 44
0.9
  1
2
 40
0.125
 41
0.2
  0
MTEXT
  5
242
100
AcDbEntity
  8
0
100
AcDbMText
 62
2
  6
CONTINUOUS
  7
STANDARD
 71
2
 72
1
 10
6.15
 20
0.325
 30
0.0
 11
1.0
 21
0.0
 31
0.0
 44
0.9
  1
C
 40
0.125
 41
0.2
  0
MTEXT
  5
243
100
AcDbEntity
  8
0
100
AcDbMText
 62
2
  6
CONTINUOUS
  7
STANDARD
 71
2
 72
1
 10
5.55
 20
0.325
 30
0.0
 11
1.0
 21
0.0
 31
0.0
 44
0.9
  1
1.000
 40
0.125
 41
1.0
  0
MTEXT
  5
244
100
AcDbEntity
  8
0
100
AcDbMText
 62
2
  6
CONTINUOUS
  7
STANDARD
 71
2
 72
1
 10
4.65
 20
0.325
 30
0.0
 11
1.0
 21
0.0
 31
0.0
 44
0.9
  1
Oct-17-23
 40
0.125
 41
1.8
  0
MTEXT
  5
245
100
AcDbEntity
  8
0
100
AcDbMText
 62
2
  6
CONTINUOUS
  7
STANDARD
 71
2
 72
1
 10
2.05
 20
0.4625
 30
0.0
 11
1.0
 21
0.0
 31
0.0
 44
0.9
  1
T-11A Line mount\PThrough port 1 with reverse flow check
 40
0.125
 41
7.6
  0
MTEXT
  5
246
100
AcDbEntity
  8
0
100
AcDbMText
 62
2
  6
CONTINUOUS
  7
STANDARD
 71
1
 72
1
 10
6.45
 20
0.5625
 30
0.0
 11
1.0
 21
0.0
 31
0.0
 44
0.9
  1
SHEET
 40
0.06
 41
0.48
  0
MTEXT
  5
247
100
AcDbEntity
  8
0
100
AcDbMText
 62
2
  6
CONTINUOUS
  7
STANDARD
 71
1
 72
1
 10
5.95
 20
0.5625
 30
0.0
 11
1.0
 21
0.0
 31
0.0
 44
0.9
  1
DWG SIZE
 40
0.06
 41
0.768
  0
MTEXT
  5
248
100
AcDbEntity
  8
0
100
AcDbMText
 62
2
  6
CONTINUOUS
  7
STANDARD
 71
1
 72
1
 10
5.25
 20
0.5625
 30
0.0
 11
1.0
 21
0.0
 31
0.0
 44
0.9
  1
SCALE
 40
0.06
 41
0.48
  0
MTEXT
  5
249
100
AcDbEntity
  8
0
100
AcDbMText
 62
2
  6
CONTINUOUS
  7
STANDARD
 71
1
 72
1
 10
4.15
 20
0.5625
 30
0.0
 11
1.0
 21
0.0
 31
0.0
 44
0.9
  1
DATE
 40
0.06
 41
0.384
  0
MTEXT
  5
24A
100
AcDbEntity
  8
0
100
AcDbMText
 62
2
  6
CONTINUOUS
  7
STANDARD
 71
1
 72
1
 10
0.05
 20
0.5625
 30
0.0
 11
1.0
 21
0.0
 31
0.0
 44
0.9
  1
DESCRIPTION
 40
0.06
 41
1.056
  0
MTEXT
  5
24B
100
AcDbEntity
  8
0
100
AcDbMText
 62
2
  6
CONTINUOUS
  7
STANDARD
 71
2
 72
1
 10
5.45
 20
1.0375
 30
0.0
 11
1.0
 21
0.0
 31
0.0
 44
0.9
  1
ALL DIMENSIONS IN INCH\PVIEWS ARE THIRD ANGLE
 40
0.12
 41
4.224
  0
MTEXT
  5
24C
100
AcDbEntity
  8
0
100
AcDbMText
 62
2
  6
CONTINUOUS
  7
STANDARD
 71
2
 72
1
 10
2.05
 20
0.95
 30
0.0
 11
1.0
 21
0.0
 31
0.0
 44
0.9
  1
E7A
 40
0.125
 41
0.6
  0
MTEXT
  5
24D
100
AcDbEntity
  8
0
100
AcDbMText
 62
2
  6
CONTINUOUS
  7
STANDARD
 71
1
 72
1
 10
0.05
 20
1.1875
 30
0.0
 11
1.0
 21
0.0
 31
0.0
 44
0.9
  1
MODEL
 40
0.06
 41
0.48
  0
ENDBLK
  5
24E
100
AcDbEntity
  8
0
  6
BYBLOCK
 62
0
100
AcDbBlockEnd
  0
BLOCK
  5
24F
100
AcDbEntity
  8
0
100
AcDbBlockBegin
  2
*T2
 70
1
 10
0.0
 20
0.0
  3
*T2
  1

  0
LINE
  5
250
100
AcDbEntity
  8
0
100
AcDbLine
 62
2
  6
CONTINUOUS
 10
0.0
 20
0.0
 11
9.055
 21
0.0
  0
LINE
  5
251
100
AcDbEntity
  8
0
100
AcDbLine
 62
2
  6
CONTINUOUS
 10
0.0
 20
0.0
 11
0.0
 21
-2.844
  0
LINE
  5
252
100
AcDbEntity
  8
0
100
AcDbLine
 62
2
  6
CONTINUOUS
 10
0.0
 20
-0.344
 11
9.055
 21
-0.344
  0
LINE
  5
253
100
AcDbEntity
  8
0
100
AcDbLine
 62
2
  6
CONTINUOUS
 10
0.0
 20
-0.594
 11
9.055
 21
-0.594
  0
LINE
  5
254
100
AcDbEntity
  8
0
100
AcDbLine
 62
2
  6
CONTINUOUS
 10
0.0
 20
-0.844
 11
9.055
 21
-0.844
  0
LINE
  5
255
100
AcDbEntity
  8
0
100
AcDbLine
 62
2
  6
CONTINUOUS
 10
0.0
 20
-1.094
 11
9.055
 21
-1.094
  0
LINE
  5
256
100
AcDbEntity
  8
0
100
AcDbLine
 62
2
  6
CONTINUOUS
 10
0.0
 20
-1.344
 11
9.055
 21
-1.344
  0
LINE
  5
257
100
AcDbEntity
  8
0
100
AcDbLine
 62
2
  6
CONTINUOUS
 10
0.0
 20
-1.594
 11
9.055
 21
-1.594
  0
LINE
  5
258
100
AcDbEntity
  8
0
100
AcDbLine
 62
2
  6
CONTINUOUS
 10
0.0
 20
-1.844
 11
9.055
 21
-1.844
  0
LINE
  5
259
100
AcDbEntity
  8
0
100
AcDbLine
 62
2
  6
CONTINUOUS
 10
0.0
 20
-2.094
 11
9.055
 21
-2.094
  0
LINE
  5
25A
100
AcDbEntity
  8
0
100
AcDbLine
 62
2
  6
CONTINUOUS
 10
0.0
 20
-2.344
 11
9.055
 21
-2.344
  0
LINE
  5
25B
100
AcDbEntity
  8
0
100
AcDbLine
 62
2
  6
CONTINUOUS
 10
0.0
 20
-2.594
 11
9.055
 21
-2.594
  0
LINE
  5
25C
100
AcDbEntity
  8
0
100
AcDbLine
 62
2
  6
CONTINUOUS
 10
0.0
 20
-2.844
 11
9.055
 21
-2.844
  0
LINE
  5
25D
100
AcDbEntity
  8
0
100
AcDbLine
 62
2
  6
CONTINUOUS
 10
3.055
 20
0.0
 11
3.055
 21
-2.844
  0
LINE
  5
25E
100
AcDbEntity
  8
0
100
AcDbLine
 62
2
  6
CONTINUOUS
 10
9.055
 20
0.0
 11
9.055
 21
-2.844
  0
MTEXT
  5
25F
100
AcDbEntity
  8
0
100
AcDbMText
 62
2
  6
CONTINUOUS
  7
STANDARD
 71
2
 72
1
 10
1.5275
 20
-0.0995
 30
0.0
 11
1.0
 21
0.0
 31
0.0
 44
0.9
  1
Technical Data
 40
0.145
 41
3.248
  0
MTEXT
  5
260
100
AcDbEntity
  8
0
100
AcDbMText
 62
2
  6
CONTINUOUS
  7
STANDARD
 71
2
 72
1
 10
4.555
 20
-0.0995
 30
0.0
 11
1.0
 21
0.0
 31
0.0
 44
0.9
  1
U.S. Units
 40
0.145
 41
2.32
  0
MTEXT
  5
261
100
AcDbEntity
  8
0
100
AcDbMText
 62
2
  6
CONTINUOUS
  7
STANDARD
 71
2
 72
1
 10
7.555
 20
-0.0995
 30
0.0
 11
1.0
 21
0.0
 31
0.0
 44
0.9
  1
Metric Units
 40
0.145
 41
2.784
  0
MTEXT
  5
262
100
AcDbEntity
  8
0
100
AcDbMText
 62
2
  6
CONTINUOUS
  7
STANDARD
 71
2
 72
1
 10
1.5275
 20
-0.4065
 30
0.0
 11
1.0
 21
0.0
 31
0.0
 44
0.9
  1
Cavity
 40
0.125
 41
1.2
  0
MTEXT
  5
263
100
AcDbEntity
  8
0
100
AcDbMText
 62
2
  6
CONTINUOUS
  7
STANDARD
 71
2
 72
1
 10
6.055
 20
-0.4065
 30
0.0
 11
1.0
 21
0.0
 31
0.0
 44
0.9
  1
T-11A
 40
0.125
 41
1.0
  0
MTEXT
  5
264
100
AcDbEntity
  8
0
100
AcDbMText
 62
2
  6
CONTINUOUS
  7
STANDARD
 71
2
 72
1
 10
1.5275
 20
-0.6565
 30
0.0
 11
1.0
 21
0.0
 31
0.0
 44
0.9
  1
Body Features
 40
0.125
 41
2.6
  0
MTEXT
  5
265
100
AcDbEntity
  8
0
100
AcDbMText
 62
2
  6
CONTINUOUS
  7
STANDARD
 71
2
 72
1
 10
6.055
 20
-0.6565
 30
0.0
 11
1.0
 21
0.0
 31
0.0
 44
0.9
  1
Through port 1 with reverse flow check
 40
0.125
 41
7.6
  0
MTEXT
  5
266
100
AcDbEntity
  8
0
100
AcDbMText
 62
2
  6
CONTINUOUS
  7
STANDARD
 71
2
 72
1
 10
1.5275
 20
-0.9065
 30
0.0
 11
1.0
 21
0.0
 31
0.0
 44
0.9
  1
Body Type
 40
0.125
 41
1.8
  0
MTEXT
  5
267
100
AcDbEntity
  8
0
100
AcDbMText
 62
2
  6
CONTINUOUS
  7
STANDARD
 71
2
 72
1
 10
6.055
 20
-0.9065
 30
0.0
 11
1.0
 21
0.0
 31
0.0
 44
0.9
  1
Line mount
 40
0.125
 41
2.0
  0
MTEXT
  5
268
100
AcDbEntity
  8
0
100
AcDbMText
 62
2
  6
CONTINUOUS
  7
STANDARD
 71
2
 72
1
 10
1.5275
 20
-1.1565
 30
0.0
 11
1.0
 21
0.0
 31
0.0
 44
0.9
  1
Interface
 40
0.125
 41
1.8
  0
MTEXT
  5
269
100
AcDbEntity
  8
0
100
AcDbMText
 62
2
  6
CONTINUOUS
  7
STANDARD
 71
2
 72
1
 10
6.055
 20
-1.1565
 30
0.0
 11
1.0
 21
0.0
 31
0.0
 44
0.9
  1
None
 40
0.125
 41
0.8
  0
MTEXT
  5
26A
100
AcDbEntity
  8
0
100
AcDbMText
 62
2
  6
CONTINUOUS
  7
STANDARD
 71
2
 72
1
 10
1.5275
 20
-1.4065
 30
0.0
 11
1.0
 21
0.0
 31
0.0
 44
0.9
  1
Open Cavity Quantity
 40
0.125
 41
4.0
  0
MTEXT
  5
26B
100
AcDbEntity
  8
0
100
AcDbMText
 62
2
  6
CONTINUOUS
  7
STANDARD
 71
2
 72
1
 10
6.055
 20
-1.4065
 30
0.0
 11
1.0
 21
0.0
 31
0.0
 44
0.9
  1
1
 40
0.125
 41
0.2
  0
MTEXT
  5
26C
100
AcDbEntity
  8
0
100
AcDbMText
 62
2
  6
CONTINUOUS
  7
STANDARD
 71
2
 72
1
 10
1.5275
 20
-1.6565
 30
0.0
 11
1.0
 21
0.0
 31
0.0
 44
0.9
  1
Weight
 40
0.125
 41
1.2
  0
MTEXT
  5
26D
100
AcDbEntity
  8
0
100
AcDbMText
 62
2
  6
CONTINUOUS
  7
STANDARD
 71
2
 72
1
 10
4.555
 20
-1.6565
 30
0.0
 11
1.0
 21
0.0
 31
0.0
 44
0.9
  1
2.024 lb.
 40
0.125
 41
1.8
  0
MTEXT
  5
26E
100
AcDbEntity
  8
0
100
AcDbMText
 62
2
  6
CONTINUOUS
  7
STANDARD
 71
2
 72
1
 10
7.555
 20
-1.6565
 30
0.0
 11
1.0
 21
0.0
 31
0.0
 44
0.9
  1
0,918 kg.
 40
0.125
 41
1.8
  0
MTEXT
  5
26F
100
AcDbEntity
  8
0
100
AcDbMText
 62
2
  6
CONTINUOUS
  7
STANDARD
 71
2
 72
1
 10
1.5275
 20
-1.9065
 30
0.0
 11
1.0
 21
0.0
 31
0.0
 44
0.9
  1
Mounting Hole Thread
 40
0.125
 41
4.0
  0
MTEXT
  5
270
100
AcDbEntity
  8
0
100
AcDbMText
 62
2
  6
CONTINUOUS
  7
STANDARD
 71
2
 72
1
 10
4.555
 20
-1.9065
 30
0.0
 11
1.0
 21
0.0
 31
0.0
 44
0.9
  1
.375-16 UNC - 2B in.
 40
0.125
 41
4.0
  0
MTEXT
  5
271
100
AcDbEntity
  8
0
100
AcDbMText
 62
2
  6
CONTINUOUS
  7
STANDARD
 71
2
 72
1
 10
1.5275
 20
-2.1565
 30
0.0
 11
1.0
 21
0.0
 31
0.0
 44
0.9
  1
Mounting Hole Depth
 40
0.125
 41
3.8
  0
MTEXT
  5
272
100
AcDbEntity
  8
0
100
AcDbMText
 62
2
  6
CONTINUOUS
  7
STANDARD
 71
2
 72
1
 10
4.555
 20
-2.1565
 30
0.0
 11
1.0
 21
0.0
 31
0.0
 44
0.9
  1
.62 in.
 40
0.125
 41
1.4
  0
MTEXT
  5
273
100
AcDbEntity
  8
0
100
AcDbMText
 62
2
  6
CONTINUOUS
  7
STANDARD
 71
2
 72
1
 10
7.555
 20
-2.1565
 30
0.0
 11
1.0
 21
0.0
 31
0.0
 44
0.9
  1
15,7 mm
 40
0.125
 41
1.4
  0
MTEXT
  5
274
100
AcDbEntity
  8
0
100
AcDbMText
 62
2
  6
CONTINUOUS
  7
STANDARD
 71
2
 72
1
 10
1.5275
 20
-2.4065
 30
0.0
 11
1.0
 21
0.0
 31
0.0
 44
0.9
  1
Mounting Hole Quantity
 40
0.125
 41
4.4
  0
MTEXT
  5
275
100
AcDbEntity
  8
0
100
AcDbMText
 62
2
  6
CONTINUOUS
  7
STANDARD
 71
2
 72
1
 10
6.055
 20
-2.4065
 30
0.0
 11
1.0
 21
0.0
 31
0.0
 44
0.9
  1
2
 40
0.125
 41
0.2
  0
MTEXT
  5
276
100
AcDbEntity
  8
0
100
AcDbMText
 62
2
  6
CONTINUOUS
  7
STANDARD
 71
2
 72
1
 10
1.5275
 20
-2.6565
 30
0.0
 11
1.0
 21
0.0
 31
0.0
 44
0.9
  1
Includes integral cartridge(s)
 40
0.125
 41
6.0
  0
MTEXT
  5
277
100
AcDbEntity
  8
0
100
AcDbMText
 62
2
  6
CONTINUOUS
  7
STANDARD
 71
2
 72
1
 10
6.055
 20
-2.6565
 30
0.0
 11
1.0
 21
0.0
 31
0.0
 44
0.9
  1
Yes (see Included Components)
 40
0.125
 41
5.8
  0
ENDBLK
  5
278
100
AcDbEntity
  8
0
  6
BYBLOCK
 62
0
100
AcDbBlockEnd
  0
BLOCK
  5
279
100
AcDbEntity
  8
0
100
AcDbBlockBegin
  2
*T3
 70
1
 10
0.0
 20
0.0
  3
*T3
  1

  0
LINE
  5
27A
100
AcDbEntity
  8
0
100
AcDbLine
 62
2
  6
CONTINUOUS
 10
0.0
 20
0.0
 11
4.6
 21
0.0
  0
LINE
  5
27B
100
AcDbEntity
  8
0
100
AcDbLine
 62
2
  6
CONTINUOUS
 10
0.0
 20
0.0
 11
0.0
 21
-1.43775
  0
LINE
  5
27C
100
AcDbEntity
  8
0
100
AcDbLine
 62
2
  6
CONTINUOUS
 10
0.0
 20
-0.34375
 11
4.6
 21
-0.34375
  0
LINE
  5
27D
100
AcDbEntity
  8
0
100
AcDbLine
 62
2
  6
CONTINUOUS
 10
0.0
 20
-0.68775
 11
4.6
 21
-0.68775
  0
LINE
  5
27E
100
AcDbEntity
  8
0
100
AcDbLine
 62
2
  6
CONTINUOUS
 10
0.0
 20
-0.93775
 11
4.6
 21
-0.93775
  0
LINE
  5
27F
100
AcDbEntity
  8
0
100
AcDbLine
 62
2
  6
CONTINUOUS
 10
0.0
 20
-1.18775
 11
4.6
 21
-1.18775
  0
LINE
  5
280
100
AcDbEntity
  8
0
100
AcDbLine
 62
2
  6
CONTINUOUS
 10
0.0
 20
-1.43775
 11
4.6
 21
-1.43775
  0
LINE
  5
281
100
AcDbEntity
  8
0
100
AcDbLine
 62
2
  6
CONTINUOUS
 10
1.3
 20
-0.34375
 11
1.3
 21
-1.43775
  0
LINE
  5
282
100
AcDbEntity
  8
0
100
AcDbLine
 62
2
  6
CONTINUOUS
 10
3.3
 20
-0.34375
 11
3.3
 21
-1.43775
  0
LINE
  5
283
100
AcDbEntity
  8
0
100
AcDbLine
 62
2
  6
CONTINUOUS
 10
4.6
 20
0.0
 11
4.6
 21
-1.43775
  0
MTEXT
  5
284
100
AcDbEntity
  8
0
100
AcDbMText
 62
2
  6
CONTINUOUS
  7
STANDARD
 71
2
 72
1
 10
2.3
 20
-0.099375
 30
0.0
 11
1.0
 21
0.0
 31
0.0
 44
0.9
  1
Port Headings
 40
0.145
 41
3.016
  0
MTEXT
  5
285
100
AcDbEntity
  8
0
100
AcDbMText
 62
2
  6
CONTINUOUS
  7
STANDARD
 71
2
 72
1
 10
0.65
 20
-0.44325
 30
0.0
 11
1.0
 21
0.0
 31
0.0
 44
0.9
  1
Product
 40
0.145
 41
1.624
  0
MTEXT
  5
286
100
AcDbEntity
  8
0
100
AcDbMText
 62
2
  6
CONTINUOUS
  7
STANDARD
 71
2
 72
1
 10
2.3
 20
-0.44325
 30
0.0
 11
1.0
 21
0.0
 31
0.0
 44
0.9
  1
Port
 40
0.145
 41
0.928
  0
MTEXT
  5
287
100
AcDbEntity
  8
0
100
AcDbMText
 62
2
  6
CONTINUOUS
  7
STANDARD
 71
2
 72
1
 10
3.95
 20
-0.44325
 30
0.0
 11
1.0
 21
0.0
 31
0.0
 44
0.9
  1
Size
 40
0.145
 41
0.928
  0
MTEXT
  5
288
100
AcDbEntity
  8
0
100
AcDbMText
 62
2
  6
CONTINUOUS
  7
STANDARD
 71
2
 72
1
 10
0.65
 20
-0.75025
 30
0.0
 11
1.0
 21
0.0
 31
0.0
 44
0.9
  1
E7A
 40
0.125
 41
0.6
  0
MTEXT
  5
289
100
AcDbEntity
  8
0
100
AcDbMText
 62
2
  6
CONTINUOUS
  7
STANDARD
 71
2
 72
1
 10
2.3
 20
-0.75025
 30
0.0
 11
1.0
 21
0.0
 31
0.0
 44
0.9
  1
Ports 1 &  2
 40
0.125
 41
2.4
  0
MTEXT
  5
28A
100
AcDbEntity
  8
0
100
AcDbMText
 62
2
  6
CONTINUOUS
  7
STANDARD
 71
2
 72
1
 10
3.95
 20
-0.75025
 30
0.0
 11
1.0
 21
0.0
 31
0.0
 44
0.9
  1
1/4" NPTF
 40
0.125
 41
1.8
  0
MTEXT
  5
28B
100
AcDbEntity
  8
0
100
AcDbMText
 62
2
  6
CONTINUOUS
  7
STANDARD
 71
2
 72
1
 10
0.65
 20
-1.00025
 30
0.0
 11
1.0
 21
0.0
 31
0.0
 44
0.9
  1
E7A
 40
0.125
 41
0.6
  0
MTEXT
  5
28C
100
AcDbEntity
  8
0
100
AcDbMText
 62
2
  6
CONTINUOUS
  7
STANDARD
 71
2
 72
1
 10
2.3
 20
-1.00025
 30
0.0
 11
1.0
 21
0.0
 31
0.0
 44
0.9
  1
Port 3
 40
0.125
 41
1.2
  0
MTEXT
  5
28D
100
AcDbEntity
  8
0
100
AcDbMText
 62
2
  6
CONTINUOUS
  7
STANDARD
 71
2
 72
1
 10
3.95
 20
-1.00025
 30
0.0
 11
1.0
 21
0.0
 31
0.0
 44
0.9
  1
1/4" NPTF
 40
0.125
 41
1.8
  0
MTEXT
  5
28E
100
AcDbEntity
  8
0
100
AcDbMText
 62
2
  6
CONTINUOUS
  7
STANDARD
 71
2
 72
1
 10
0.65
 20
-1.25025
 30
0.0
 11
1.0
 21
0.0
 31
0.0
 44
0.9
  1
E7A
 40
0.125
 41
0.6
  0
MTEXT
  5
28F
100
AcDbEntity
  8
0
100
AcDbMText
 62
2
  6
CONTINUOUS
  7
STANDARD
 71
2
 72
1
 10
2.3
 20
-1.25025
 30
0.0
 11
1.0
 21
0.0
 31
0.0
 44
0.9
  1
Gage Port
 40
0.125
 41
1.8
  0
MTEXT
  5
290
100
AcDbEntity
  8
0
100
AcDbMText
 62
2
  6
CONTINUOUS
  7
STANDARD
 71
2
 72
1
 10
3.95
 20
-1.25025
 30
0.0
 11
1.0
 21
0.0
 31
0.0
 44
0.9
  1
1/4" NPTF
 40
0.125
 41
1.8
  0
ENDBLK
  5
291
100
AcDbEntity
  8
0
  6
BYBLOCK
 62
0
100
AcDbBlockEnd
  0
ENDSEC
  0
SECTION
  2
ENTITIES
  0
IMAGE
  5
292
100
AcDbEntity
  8
0
100
AcDbRasterImage
 62
7
  6
CONTINUOUS
 10
19.2297077316
 20
0.3094318264
 30
0.0
 11
0.0066666667
 21
0.0
 31
0.0
 12
0.0
 22
0.0066666667
 32
0.0
 13
369.0
 23
92.0
340
       379
 70
9
280
0
281
50
282
50
283
0
360
       373
 71
1
 91
2
 14
-0.5
 24
-0.5
 14
368.5
 24
91.5
  0
INSERT
  5
293
100
AcDbEntity
  8
0
100
AcDbBlockReference
 62
2
  6
CONTINUOUS
  2
SUN_FIRST_THIRD_ANGLE_BL0
 10
20.4816717061
 20
1.2289683772
  0
ACAD_TABLE
  5
294
100
AcDbEntity
  8
0
 62
2
  6
CONTINUOUS
100
AcDbBlockReference
  2
*T1
 10
12.42375
 20
0.30125
 30
0.0
100
AcDbTable
342
       37B
343
20F
 11
1.0
 21
0.0
 31
0.0
 90
6
 91
4
 92
6
 93
20
 94
0
 95
0
 96
0
 70
1
 41
0.0
141
0.525
141
0.1
141
0.525
141
0.1
142
4.1
142
1.1
142
0.7
142
0.5
142
0.4
142
2.475
171
1
172
0
173
0
174
0
175
1
176
1
 91
33
178
0
145
0.0
301
CELL_VALUE
 90
4
  1
T-11A Line mount\PThrough port 1 with reverse flow check
304
ACVALUE_END
170
2
140
0.125
171
1
172
0
173
0
174
0
175
1
176
1
 91
33
178
0
145
0.0
301
CELL_VALUE
 90
4
  1
Oct-17-23
304
ACVALUE_END
170
5
140
0.125
171
1
172
0
173
0
174
0
175
1
176
1
 91
33
178
0
145
0.0
301
CELL_VALUE
 90
4
  1
1.000
304
ACVALUE_END
170
5
140
0.125
171
1
172
0
173
0
174
0
175
1
176
1
 91
33
178
0
145
0.0
301
CELL_VALUE
 90
4
  1
C
304
ACVALUE_END
170
5
140
0.125
171
1
172
0
173
0
174
0
175
1
176
1
 91
33
178
0
145
0.0
301
CELL_VALUE
 90
4
  1
2
304
ACVALUE_END
170
5
140
0.125
171
1
172
0
173
0
174
0
175
1
176
1
 91
33
178
0
145
0.0
301
CELL_VALUE
 90
4
  1
 
304
ACVALUE_END
170
1
140
0.125
171
1
172
0
173
0
174
0
175
1
176
1
 91
33
178
0
145
0.0
301
CELL_VALUE
 90
4
  1
DESCRIPTION
304
ACVALUE_END
170
1
140
0.06
171
1
172
0
173
0
174
0
175
1
176
1
 91
33
178
0
145
0.0
301
CELL_VALUE
 90
4
  1
DATE
304
ACVALUE_END
170
1
140
0.06
171
1
172
0
173
0
174
0
175
1
176
1
 91
33
178
0
145
0.0
301
CELL_VALUE
 90
4
  1
SCALE
304
ACVALUE_END
170
1
140
0.06
171
1
172
0
173
0
174
0
175
1
176
1
 91
33
178
0
145
0.0
301
CELL_VALUE
 90
4
  1
DWG SIZE
304
ACVALUE_END
170
1
140
0.06
171
1
172
0
173
0
174
0
175
1
176
1
 91
33
178
0
145
0.0
301
CELL_VALUE
 90
4
  1
SHEET
304
ACVALUE_END
170
1
140
0.06
171
1
172
0
173
0
174
0
175
1
176
1
 91
33
178
0
145
0.0
301
CELL_VALUE
 90
4
  1
 
304
ACVALUE_END
170
1
140
0.125
171
1
172
0
173
0
174
0
175
1
176
1
 91
33
178
0
145
0.0
301
CELL_VALUE
 90
4
  1
E7A
304
ACVALUE_END
170
5
140
0.125
171
1
172
0
173
0
174
0
175
4
176
1
 91
33
178
0
145
0.0
301
CELL_VALUE
 90
4
  1
ALL DIMENSIONS IN INCH\PVIEWS ARE THIRD ANGLE
304
ACVALUE_END
170
5
140
0.12
171
1
172
0
173
1
174
0
175
1
176
1
 91
1
178
0
145
0.0
170
1
171
1
172
0
173
1
174
0
175
1
176
1
 91
1
178
0
145
0.0
170
1
171
1
172
0
173
1
174
0
175
1
176
1
 91
1
178
0
145
0.0
170
5
171
1
172
0
173
0
174
0
175
1
176
1
 91
33
178
0
145
0.0
301
CELL_VALUE
 90
4
  1
 
304
ACVALUE_END
170
1
140
0.125
171
1
172
0
173
0
174
0
175
1
176
1
 91
33
178
0
145
0.0
301
CELL_VALUE
 90
4
  1
MODEL
304
ACVALUE_END
170
1
140
0.06
171
1
172
0
173
0
174
0
175
1
176
1
 91
33
178
0
145
0.0
301
CELL_VALUE
 90
4
  1
 
304
ACVALUE_END
170
1
140
0.125
171
1
172
0
173
0
174
0
175
1
176
1
 91
33
178
0
145
0.0
301
CELL_VALUE
 90
4
  1
 
304
ACVALUE_END
170
1
140
0.125
171
1
172
0
173
0
174
0
175
1
176
1
 91
33
178
0
145
0.0
301
CELL_VALUE
 90
4
  1
 
304
ACVALUE_END
170
1
140
0.125
171
1
172
0
173
0
174
0
175
1
176
1
 91
33
178
0
145
0.0
301
CELL_VALUE
 90
4
  1
 
304
ACVALUE_END
170
1
140
0.125
171
1
172
0
173
0
174
0
175
1
176
1
 91
33
178
0
145
0.0
301
CELL_VALUE
 90
4
  1
 
304
ACVALUE_END
170
1
140
0.125
  0
ACAD_TABLE
  5
295
100
AcDbEntity
  8
0
 62
2
  6
CONTINUOUS
100
AcDbBlockReference
  2
*T2
 10
12.4237499994
 20
16.47875
 30
0.0
100
AcDbTable
342
       37A
343
210
 11
1.0
 21
0.0
 31
0.0
 90
22
 91
11
 92
3
 93
16
 94
0
 95
0
 96
0
 41
0.028
141
0.344
141
0.25
141
0.25
141
0.25
141
0.25
141
0.25
141
0.25
141
0.25
141
0.25
141
0.25
141
0.25
142
3.055
142
3.0
142
3.0
171
1
172
0
173
0
174
0
175
1
176
1
 91
33
178
0
145
0.0
301
CELL_VALUE
 90
4
  1
Technical Data
304
ACVALUE_END
170
5
140
0.145
171
1
172
0
173
0
174
0
175
1
176
1
 91
33
178
0
145
0.0
301
CELL_VALUE
 90
4
  1
U.S. Units
304
ACVALUE_END
170
5
140
0.145
171
1
172
0
173
0
174
0
175
1
176
1
 91
33
178
0
145
0.0
301
CELL_VALUE
 90
4
  1
Metric Units
304
ACVALUE_END
170
5
140
0.145
171
1
172
0
173
0
174
0
175
1
176
1
 91
33
178
0
145
0.0
301
CELL_VALUE
 90
4
  1
Cavity
304
ACVALUE_END
170
5
140
0.125
171
1
172
0
173
0
174
0
175
2
176
1
 91
33
178
0
145
0.0
301
CELL_VALUE
 90
4
  1
T-11A
304
ACVALUE_END
170
5
140
0.125
171
1
172
0
173
1
174
0
175
1
176
1
 91
1
178
0
145
0.0
170
1
171
1
172
0
173
0
174
0
175
1
176
1
 91
33
178
0
145
0.0
301
CELL_VALUE
 90
4
  1
Body Features
304
ACVALUE_END
170
5
140
0.125
171
1
172
0
173
0
174
0
175
2
176
1
 91
33
178
0
145
0.0
301
CELL_VALUE
 90
4
  1
Through port 1 with reverse flow check
304
ACVALUE_END
170
5
140
0.125
171
1
172
0
173
1
174
0
175
1
176
1
 91
1
178
0
145
0.0
170
1
171
1
172
0
173
0
174
0
175
1
176
1
 91
33
178
0
145
0.0
301
CELL_VALUE
 90
4
  1
Body Type
304
ACVALUE_END
170
5
140
0.125
171
1
172
0
173
0
174
0
175
2
176
1
 91
33
178
0
145
0.0
301
CELL_VALUE
 90
4
  1
Line mount
304
ACVALUE_END
170
5
140
0.125
171
1
172
0
173
1
174
0
175
1
176
1
 91
1
178
0
145
0.0
170
1
171
1
172
0
173
0
174
0
175
1
176
1
 91
33
178
0
145
0.0
301
CELL_VALUE
 90
4
  1
Interface
304
ACVALUE_END
170
5
140
0.125
171
1
172
0
173
0
174
0
175
2
176
1
 91
33
178
0
145
0.0
301
CELL_VALUE
 90
4
  1
None
304
ACVALUE_END
170
5
140
0.125
171
1
172
0
173
1
174
0
175
1
176
1
 91
1
178
0
145
0.0
170
1
171
1
172
0
173
0
174
0
175
1
176
1
 91
33
178
0
145
0.0
301
CELL_VALUE
 90
4
  1
Open Cavity Quantity
304
ACVALUE_END
170
5
140
0.125
171
1
172
0
173
0
174
0
175
2
176
1
 91
33
178
0
145
0.0
301
CELL_VALUE
 90
4
  1
1
304
ACVALUE_END
170
5
140
0.125
171
1
172
0
173
1
174
0
175
1
176
1
 91
1
178
0
145
0.0
170
1
171
1
172
0
173
0
174
0
175
1
176
1
 91
33
178
0
145
0.0
301
CELL_VALUE
 90
4
  1
Weight
304
ACVALUE_END
170
5
140
0.125
171
1
172
0
173
0
174
0
175
1
176
1
 91
33
178
0
145
0.0
301
CELL_VALUE
 90
4
  1
2.024 lb.
304
ACVALUE_END
170
5
140
0.125
171
1
172
0
173
0
174
0
175
1
176
1
 91
33
178
0
145
0.0
301
CELL_VALUE
 90
4
  1
0,918 kg.
304
ACVALUE_END
170
5
140
0.125
171
1
172
0
173
0
174
0
175
1
176
1
 91
33
178
0
145
0.0
301
CELL_VALUE
 90
4
  1
Mounting Hole Thread
304
ACVALUE_END
170
5
140
0.125
171
1
172
0
173
0
174
0
175
1
176
1
 91
33
178
0
145
0.0
301
CELL_VALUE
 90
4
  1
.375-16 UNC - 2B in.
304
ACVALUE_END
170
5
140
0.125
171
1
172
0
173
0
174
0
175
1
176
1
 91
33
178
0
145
0.0
301
CELL_VALUE
 90
4
  1
 
304
ACVALUE_END
170
5
140
0.125
171
1
172
0
173
0
174
0
175
1
176
1
 91
33
178
0
145
0.0
301
CELL_VALUE
 90
4
  1
Mounting Hole Depth
304
ACVALUE_END
170
5
140
0.125
171
1
172
0
173
0
174
0
175
1
176
1
 91
33
178
0
145
0.0
301
CELL_VALUE
 90
4
  1
.62 in.
304
ACVALUE_END
170
5
140
0.125
171
1
172
0
173
0
174
0
175
1
176
1
 91
33
178
0
145
0.0
301
CELL_VALUE
 90
4
  1
15,7 mm
304
ACVALUE_END
170
5
140
0.125
171
1
172
0
173
0
174
0
175
1
176
1
 91
33
178
0
145
0.0
301
CELL_VALUE
 90
4
  1
Mounting Hole Quantity
304
ACVALUE_END
170
5
140
0.125
171
1
172
0
173
0
174
0
175
2
176
1
 91
33
178
0
145
0.0
301
CELL_VALUE
 90
4
  1
2
304
ACVALUE_END
170
5
140
0.125
171
1
172
0
173
1
174
0
175
1
176
1
 91
1
178
0
145
0.0
170
1
171
1
172
0
173
0
174
0
175
1
176
1
 91
33
178
0
145
0.0
301
CELL_VALUE
 90
4
  1
Includes integral cartridge(s)
304
ACVALUE_END
170
5
140
0.125
171
1
172
0
173
0
174
0
175
2
176
1
 91
33
178
0
145
0.0
301
CELL_VALUE
 90
4
  1
Yes (see Included Components)
304
ACVALUE_END
170
5
140
0.125
171
1
172
0
173
1
174
0
175
1
176
1
 91
1
178
0
145
0.0
170
1
  0
ACAD_TABLE
  5
296
100
AcDbEntity
  8
0
 62
2
  6
CONTINUOUS
100
AcDbBlockReference
  2
*T3
 10
0.52125
 20
1.959
 30
0.0
100
AcDbTable
342
       37A
343
211
 11
1.0
 21
0.0
 31
0.0
 90
22
 91
5
 92
3
 93
16
 94
0
 95
0
 96
0
 41
0.05
141
0.34375
141
0.344
141
0.25
141
0.25
141
0.25
142
1.3
142
2.0
142
1.3
171
1
172
0
173
0
174
0
175
3
176
1
 91
33
178
0
145
0.0
301
CELL_VALUE
 90
4
  1
Port Headings
304
ACVALUE_END
170
5
140
0.145
171
1
172
0
173
1
174
0
175
1
176
1
 91
1
178
0
145
0.0
170
1
171
1
172
0
173
1
174
0
175
1
176
1
 91
1
178
0
145
0.0
170
1
171
1
172
0
173
0
174
0
175
1
176
1
 91
33
178
0
145
0.0
301
CELL_VALUE
 90
4
  1
Product
304
ACVALUE_END
170
5
140
0.145
171
1
172
0
173
0
174
0
175
1
176
1
 91
33
178
0
145
0.0
301
CELL_VALUE
 90
4
  1
Port
304
ACVALUE_END
170
5
140
0.145
171
1
172
0
173
0
174
0
175
1
176
1
 91
33
178
0
145
0.0
301
CELL_VALUE
 90
4
  1
Size
304
ACVALUE_END
170
5
140
0.145
171
1
172
0
173
0
174
0
175
1
176
1
 91
33
178
0
145
0.0
301
CELL_VALUE
 90
4
  1
E7A
304
ACVALUE_END
170
5
140
0.125
171
1
172
0
173
0
174
0
175
1
176
1
 91
33
178
0
145
0.0
301
CELL_VALUE
 90
4
  1
Ports 1 &  2
304
ACVALUE_END
170
5
140
0.125
171
1
172
0
173
0
174
0
175
1
176
1
 91
33
178
0
145
0.0
301
CELL_VALUE
 90
4
  1
1/4" NPTF
304
ACVALUE_END
170
5
140
0.125
171
1
172
0
173
0
174
0
175
1
176
1
 91
33
178
0
145
0.0
301
CELL_VALUE
 90
4
  1
E7A
304
ACVALUE_END
170
5
140
0.125
171
1
172
0
173
0
174
0
175
1
176
1
 91
33
178
0
145
0.0
301
CELL_VALUE
 90
4
  1
Port 3
304
ACVALUE_END
170
5
140
0.125
171
1
172
0
173
0
174
0
175
1
176
1
 91
33
178
0
145
0.0
301
CELL_VALUE
 90
4
  1
1/4" NPTF
304
ACVALUE_END
170
5
140
0.125
171
1
172
0
173
0
174
0
175
1
176
1
 91
33
178
0
145
0.0
301
CELL_VALUE
 90
4
  1
E7A
304
ACVALUE_END
170
5
140
0.125
171
1
172
0
173
0
174
0
175
1
176
1
 91
33
178
0
145
0.0
301
CELL_VALUE
 90
4
  1
Gage Port
304
ACVALUE_END
170
5
140
0.125
171
1
172
0
173
0
174
0
175
1
176
1
 91
33
178
0
145
0.0
301
CELL_VALUE
 90
4
  1
1/4" NPTF
304
ACVALUE_END
170
5
140
0.125
  0
MTEXT
  5
297
100
AcDbEntity
  8
0
100
AcDbMText
 62
2
  6
CONTINUOUS
  7
STANDARD
 71
1
 72
1
 10
0.52125
 20
5.75995
 30
0.0
 11
1.0
 21
0.0
 31
0.0
 44
0.6
  3
Notes\P \P1. Important: Carefully consider\P   the maximum system pressure. The\P   pressure rating of the manifold is\P   dependent on the manifold material,\P   with the port type/size a secondary\P   consideration. Manifolds\P   constructed of alu
  3
minum are not\P   rated for pressures higher than\P   3000 psi (210 bar), regardless of\P   the port type/size specified.\P2. This drawing is for reference\P   only. It is generated by an\P   automated process and does not fall\P   under Sun's docume
  1
nt control\P   process.
 40
0.1
 41
3.04
  0
LINE
  5
298
100
AcDbEntity
  8
0
100
AcDbLine
 62
7
  6
CONTINUOUS
 10
0.30125
 20
0.30125
 11
0.30125
 21
16.69875
  0
LINE
  5
299
100
AcDbEntity
  8
0
100
AcDbLine
 62
7
  6
CONTINUOUS
 10
0.30125
 20
0.30125
 11
21.69875
 21
0.30125
  0
LINE
  5
29A
100
AcDbEntity
  8
0
100
AcDbLine
 62
7
  6
CONTINUOUS
 10
0.30125
 20
16.69875
 11
21.69875
 21
16.69875
  0
LINE
  5
29B
100
AcDbEntity
  8
0
100
AcDbLine
 62
7
  6
CONTINUOUS
 10
21.69875
 20
0.30125
 11
21.69875
 21
16.69875
  0
LINE
  5
29C
100
AcDbEntity
  8
0
100
AcDbLine
 62
7
  6
CONTINUOUS
 10
10.116116185
 20
10.7414587126
 11
9.4690691062
 21
10.1164591913
  0
LINE
  5
29D
100
AcDbEntity
  8
0
100
AcDbLine
 62
7
  6
CONTINUOUS
 10
10.8953201634
 20
6.3306033474
 11
10.9204825729
 21
6.3181735989
  0
LINE
  5
29E
100
AcDbEntity
  8
0
100
AcDbLine
 62
7
  6
CONTINUOUS
 10
9.4690691062
 20
6.8564593345
 11
11.883883815
 21
6.6889913656
  0
LINE
  5
29F
100
AcDbEntity
  8
0
100
AcDbLine
 62
7
  6
CONTINUOUS
 10
9.4690691062
 20
6.8564593345
 11
9.4690691062
 21
10.1164591913
  0
LINE
  5
2A0
100
AcDbEntity
  8
0
100
AcDbLine
 62
4
  6
CONTINUOUS
 10
10.2297357387
 20
9.305454981
 11
10.2442246266
 21
9.3141094295
  0
LINE
  5
2A1
100
AcDbEntity
  8
0
100
AcDbLine
 62
4
  6
CONTINUOUS
 10
11.7530008917
 20
7.2370547973
 11
11.7385120037
 21
7.2380596051
  0
LINE
  5
2A2
100
AcDbEntity
  8
0
100
AcDbLine
 62
4
  6
CONTINUOUS
 10
11.7457564477
 20
7.295512753
 11
11.7747342236
 21
7.2935031374
  0
LINE
  5
2A3
100
AcDbEntity
  8
0
100
AcDbLine
 62
4
  6
CONTINUOUS
 10
11.7385120037
 20
7.3539707086
 11
11.7530008917
 21
7.3529659008
  0
LINE
  5
2A4
100
AcDbEntity
  8
0
100
AcDbLine
 62
4
  6
CONTINUOUS
 10
10.2804468464
 20
9.2826196342
 11
10.2732024025
 21
9.2734627818
  0
LINE
  5
2A5
100
AcDbEntity
  8
0
100
AcDbLine
 62
4
  6
CONTINUOUS
 10
10.2876912904
 20
9.2241616786
 11
10.2732024025
 21
9.2058479694
  0
LINE
  5
2A6
100
AcDbEntity
  8
0
100
AcDbLine
 62
4
  6
CONTINUOUS
 10
10.2732024025
 20
9.2734627818
 11
10.2587135145
 21
9.2648083263
  0
LINE
  5
2A7
100
AcDbEntity
  8
0
100
AcDbLine
 62
4
  6
CONTINUOUS
 10
10.2732024025
 20
9.2058479694
 11
10.2587135145
 21
9.1971935183
  0
LINE
  5
2A8
100
AcDbEntity
  8
0
100
AcDbLine
 62
4
  6
CONTINUOUS
 10
10.1268646329
 20
8.7523521317
 11
10.1268646329
 21
8.6943965787
  0
LINE
  5
2A9
100
AcDbEntity
  8
0
100
AcDbLine
 62
4
  6
CONTINUOUS
 10
10.1848201859
 20
8.6903773474
 11
10.1848201859
 21
8.6324217944
  0
LINE
  5
2AA
100
AcDbEntity
  8
0
100
AcDbLine
 62
4
  6
CONTINUOUS
 10
10.2137979624
 20
8.6304121788
 11
10.2137979624
 21
8.7463232848
  0
LINE
  5
2AB
100
AcDbEntity
  8
0
100
AcDbLine
 62
4
  6
CONTINUOUS
 10
10.2611283365
 20
8.0359831655
 11
10.2611283365
 21
8.1518942715
  0
LINE
  5
2AC
100
AcDbEntity
  8
0
100
AcDbLine
 62
4
  6
CONTINUOUS
 10
10.2717535154
 20
8.7423040536
 11
10.2717535154
 21
8.6263929475
  0
LINE
  5
2AD
100
AcDbEntity
  8
0
100
AcDbLine
 62
4
  6
CONTINUOUS
 10
10.2804468464
 20
9.2922788905
 11
10.2804468464
 21
9.2826196342
  0
LINE
  5
2AE
100
AcDbEntity
  8
0
100
AcDbLine
 62
4
  6
CONTINUOUS
 10
10.2876912904
 20
9.2338209384
 11
10.2876912904
 21
9.2241616786
  0
LINE
  5
2AF
100
AcDbEntity
  8
0
100
AcDbLine
 62
4
  6
CONTINUOUS
 10
10.1948934158
 20
8.0902527616
 11
10.2390500284
 21
8.0651121838
  0
LINE
  5
2B0
100
AcDbEntity
  8
0
100
AcDbLine
 62
4
  6
CONTINUOUS
 10
10.3025251541
 20
8.1490233924
 11
10.3190838826
 21
8.1313163123
  0
LINE
  5
2B1
100
AcDbEntity
  8
0
100
AcDbLine
 62
4
  6
CONTINUOUS
 10
10.3007312919
 20
8.7402944379
 11
10.3007312919
 21
8.6243833319
  0
LINE
  5
2B2
100
AcDbEntity
  8
0
100
AcDbLine
 62
4
  6
CONTINUOUS
 10
10.3190838826
 20
8.1313163123
 11
10.3190838826
 21
8.0485226649
  0
LINE
  5
2B3
100
AcDbEntity
  8
0
100
AcDbLine
 62
4
  6
CONTINUOUS
 10
10.3586868449
 20
8.7362752067
 11
10.3586868449
 21
8.6203641006
  0
LINE
  5
2B4
100
AcDbEntity
  8
0
100
AcDbLine
 62
4
  6
CONTINUOUS
 10
10.4543134854
 20
7.9858805023
 11
10.4543134854
 21
7.8699693988
  0
LINE
  5
2B5
100
AcDbEntity
  8
0
100
AcDbLine
 62
4
  6
CONTINUOUS
 10
10.474597951
 20
8.6123256381
 11
10.474597951
 21
8.7282367442
  0
LINE
  5
2B6
100
AcDbEntity
  8
0
100
AcDbLine
 62
4
  6
CONTINUOUS
 10
11.7385120037
 20
7.2380596051
 11
11.7240231158
 21
7.2487236718
  0
LINE
  5
2B7
100
AcDbEntity
  8
0
100
AcDbLine
 62
4
  6
CONTINUOUS
 10
10.7551304466
 20
8.0017240028
 11
10.7385717251
 21
8.0194310842
  0
LINE
  5
2B8
100
AcDbEntity
  8
0
100
AcDbLine
 62
4
  6
CONTINUOUS
 10
10.3991177402
 20
8.1423246738
 11
10.4322352109
 21
8.0241168634
  0
LINE
  5
2B9
100
AcDbEntity
  8
0
100
AcDbLine
 62
4
  6
CONTINUOUS
 10
10.4984701247
 20
8.0195234566
 11
10.4984701247
 21
8.1354345626
  0
LINE
  5
2BA
100
AcDbEntity
  8
0
100
AcDbLine
 62
4
  6
CONTINUOUS
 10
10.532553504
 20
8.6083064069
 11
10.532553504
 21
8.6662619599
  0
LINE
  5
2BB
100
AcDbEntity
  8
0
100
AcDbLine
 62
4
  6
CONTINUOUS
 10
10.5564256736
 20
8.2705086588
 11
10.5564256736
 21
8.3864197649
  0
LINE
  5
2BC
100
AcDbEntity
  8
0
100
AcDbLine
 62
4
  6
CONTINUOUS
 10
10.5647050384
 20
8.0149300497
 11
10.5647050384
 21
8.1308411557
  0
LINE
  5
2BD
100
AcDbEntity
  8
0
100
AcDbLine
 62
4
  6
CONTINUOUS
 10
10.5798838723
 20
8.6050240347
 11
10.5798838723
 21
8.6629795877
  0
LINE
  5
2BE
100
AcDbEntity
  8
0
100
AcDbLine
 62
4
  6
CONTINUOUS
 10
10.6378394253
 20
8.6589603565
 11
10.6378394253
 21
8.5430492504
  0
LINE
  5
2BF
100
AcDbEntity
  8
0
100
AcDbLine
 62
4
  6
CONTINUOUS
 10
10.6392193228
 20
8.3558399097
 11
10.6392193228
 21
8.3806780058
  0
LINE
  5
2C0
100
AcDbEntity
  8
0
100
AcDbLine
 62
4
  6
CONTINUOUS
 10
10.3660002833
 20
8.0287102713
 11
10.3991177402
 21
8.1423246738
  0
LINE
  5
2C1
100
AcDbEntity
  8
0
100
AcDbLine
 62
7
  6
CONTINUOUS
 10
11.883883815
 20
9.9489912225
 11
12.5309308938
 21
10.5739907437
  0
LINE
  5
2C2
100
AcDbEntity
  8
0
100
AcDbLine
 62
4
  6
CONTINUOUS
 10
10.9676341042
 20
7.9869868241
 11
10.9262372727
 21
7.9898577041
  0
LINE
  5
2C3
100
AcDbEntity
  8
0
100
AcDbLine
 62
4
  6
CONTINUOUS
 10
10.8765611081
 20
7.9933027578
 11
10.8517229981
 21
7.9950252866
  0
LINE
  5
2C4
100
AcDbEntity
  8
0
100
AcDbLine
 62
4
  6
CONTINUOUS
 10
10.7882478897
 20
7.9994273003
 11
10.7551304466
 21
8.0017240028
  0
LINE
  5
2C5
100
AcDbEntity
  8
0
100
AcDbLine
 62
4
  6
CONTINUOUS
 10
10.3025251541
 20
8.0331122864
 11
10.2611283365
 21
8.0359831655
  0
LINE
  5
2C6
100
AcDbEntity
  8
0
100
AcDbLine
 62
4
  6
CONTINUOUS
 10
10.5647050384
 20
8.0149300497
 11
10.6143812307
 21
8.0114849941
  0
LINE
  5
2C7
100
AcDbEntity
  8
0
100
AcDbLine
 62
4
  6
CONTINUOUS
 10
11.0311092679
 20
7.9825848065
 11
11.0807854325
 21
7.9791397528
  0
LINE
  5
2C8
100
AcDbEntity
  8
0
100
AcDbLine
 62
4
  6
CONTINUOUS
 10
10.3770394356
 20
8.0610621638
 11
10.4211960448
 21
8.0579998925
  0
LINE
  5
2C9
100
AcDbEntity
  8
0
100
AcDbLine
 62
4
  6
CONTINUOUS
 10
11.0642267109
 20
8.0465230247
 11
11.0311092679
 21
8.0488197272
  0
LINE
  5
2CA
100
AcDbEntity
  8
0
100
AcDbLine
 62
4
  6
CONTINUOUS
 10
10.5978225091
 20
8.078868266
 11
10.5647050384
 21
8.0811649704
  0
LINE
  5
2CB
100
AcDbEntity
  8
0
100
AcDbLine
 62
4
  6
CONTINUOUS
 10
10.2611283365
 20
8.1518942715
 11
10.3025251541
 21
8.1490233924
  0
LINE
  5
2CC
100
AcDbEntity
  8
0
100
AcDbLine
 62
4
  6
CONTINUOUS
 10
10.4653526539
 20
8.137731267
 11
10.5315875677
 21
8.1331378601
  0
LINE
  5
2CD
100
AcDbEntity
  8
0
100
AcDbLine
 62
4
  6
CONTINUOUS
 10
10.5647050384
 20
8.1308411557
 11
10.6143812307
 21
8.1273961001
  0
LINE
  5
2CE
100
AcDbEntity
  8
0
100
AcDbLine
 62
4
  6
CONTINUOUS
 10
10.7551304466
 20
8.1176351088
 11
10.7882478897
 21
8.1153384063
  0
LINE
  5
2CF
100
AcDbEntity
  8
0
100
AcDbLine
 62
4
  6
CONTINUOUS
 10
10.8517229981
 20
8.1109363926
 11
10.8765611081
 21
8.1092138638
  0
LINE
  5
2D0
100
AcDbEntity
  8
0
100
AcDbLine
 62
4
  6
CONTINUOUS
 10
10.9262372727
 20
8.1057688101
 11
10.9676341042
 21
8.1028979301
  0
LINE
  5
2D1
100
AcDbEntity
  8
0
100
AcDbLine
 62
4
  6
CONTINUOUS
 10
11.0311092679
 20
8.0984959125
 11
11.0807854325
 21
8.0950508588
  0
LINE
  5
2D2
100
AcDbEntity
  8
0
100
AcDbLine
 62
4
  6
CONTINUOUS
 10
11.7530008917
 20
7.3529659008
 11
11.7674897796
 21
7.3423018367
  0
LINE
  5
2D3
100
AcDbEntity
  8
0
100
AcDbLine
 62
4
  6
CONTINUOUS
 10
10.8517229981
 20
7.9950252866
 11
10.8351642766
 21
8.012732368
  0
LINE
  5
2D4
100
AcDbEntity
  8
0
100
AcDbLine
 62
4
  6
CONTINUOUS
 10
10.8765611081
 20
8.1092138638
 11
10.8931198296
 21
8.0915067841
  0
LINE
  5
2D5
100
AcDbEntity
  8
0
100
AcDbLine
 62
4
  6
CONTINUOUS
 10
10.6764764606
 20
8.5983253159
 11
10.6764764606
 21
8.656280869
  0
LINE
  5
2D6
100
AcDbEntity
  8
0
100
AcDbLine
 62
4
  6
CONTINUOUS
 10
10.7344320136
 20
8.7102171907
 11
10.7344320136
 21
8.5943060847
  0
LINE
  5
2D7
100
AcDbEntity
  8
0
100
AcDbLine
 62
4
  6
CONTINUOUS
 10
10.7385717251
 20
8.0194310842
 11
10.7385717251
 21
8.1022247316
  0
LINE
  5
2D8
100
AcDbEntity
  8
0
100
AcDbLine
 62
4
  6
CONTINUOUS
 10
10.773069049
 20
8.6495821502
 11
10.773069049
 21
8.5916265972
  0
LINE
  5
2D9
100
AcDbEntity
  8
0
100
AcDbLine
 62
7
  6
CONTINUOUS
 10
10.8222335363
 20
6.7626170625
 11
10.8222335363
 21
6.3774341462
  0
LINE
  5
2DA
100
AcDbEntity
  8
0
100
AcDbLine
 62
4
  6
CONTINUOUS
 10
10.8351642766
 20
8.012732368
 11
10.8351642766
 21
8.0955260154
  0
LINE
  5
2DB
100
AcDbEntity
  8
0
100
AcDbLine
 62
7
  6
CONTINUOUS
 10
10.8375627728
 20
6.7615539763
 11
10.8375627728
 21
6.3626272662
  0
LINE
  5
2DC
100
AcDbEntity
  8
0
100
AcDbLine
 62
4
  6
CONTINUOUS
 10
10.6971748758
 20
8.3766587745
 11
10.664057412
 21
8.2630443724
  0
LINE
  5
2DD
100
AcDbEntity
  8
0
100
AcDbLine
 62
4
  6
CONTINUOUS
 10
10.7302923327
 20
8.2584509651
 11
10.7634097896
 21
8.3720653677
  0
LINE
  5
2DE
100
AcDbEntity
  8
0
100
AcDbLine
 62
4
  6
CONTINUOUS
 10
10.5564256736
 20
8.2705086588
 11
10.6061018624
 21
8.2670636034
  0
LINE
  5
2DF
100
AcDbEntity
  8
0
100
AcDbLine
 62
4
  6
CONTINUOUS
 10
10.741331485
 20
8.2908028576
 11
10.7854880942
 21
8.2877405864
  0
LINE
  5
2E0
100
AcDbEntity
  8
0
100
AcDbLine
 62
4
  6
CONTINUOUS
 10
10.589543134
 20
8.3344468758
 11
10.5564256736
 21
8.3367435795
  0
LINE
  5
2E1
100
AcDbEntity
  8
0
100
AcDbLine
 62
4
  6
CONTINUOUS
 10
11.1139028756
 20
8.0485975472
 11
11.1580594847
 21
8.0234569679
  0
LINE
  5
2E2
100
AcDbEntity
  8
0
100
AcDbLine
 62
4
  6
CONTINUOUS
 10
10.9676341042
 20
8.1028979301
 11
10.9841928257
 21
8.0851908504
  0
LINE
  5
2E3
100
AcDbEntity
  8
0
100
AcDbLine
 62
4
  6
CONTINUOUS
 10
10.2297357387
 20
9.2088623928
 11
10.2224912947
 21
9.2190240556
  0
LINE
  5
2E4
100
AcDbEntity
  8
0
100
AcDbLine
 62
4
  6
CONTINUOUS
 10
10.7634097896
 20
8.3720653677
 11
10.7965272464
 21
8.2538575582
  0
LINE
  5
2E5
100
AcDbEntity
  8
0
100
AcDbLine
 62
4
  6
CONTINUOUS
 10
10.8696616373
 20
8.5849278784
 11
10.8696616373
 21
8.6235649138
  0
LINE
  5
2E6
100
AcDbEntity
  8
0
100
AcDbLine
 62
4
  6
CONTINUOUS
 10
10.8931198296
 20
8.0915067841
 11
10.8931198296
 21
8.0087131367
  0
LINE
  5
2E7
100
AcDbEntity
  8
0
100
AcDbLine
 62
4
  6
CONTINUOUS
 10
10.9262372727
 20
7.9898577041
 11
10.9262372727
 21
8.1057688101
  0
LINE
  5
2E8
100
AcDbEntity
  8
0
100
AcDbLine
 62
4
  6
CONTINUOUS
 10
10.9276171903
 20
8.6388642002
 11
10.9276171903
 21
8.5809086472
  0
LINE
  5
2E9
100
AcDbEntity
  8
0
100
AcDbLine
 62
4
  6
CONTINUOUS
 10
10.9662542257
 20
8.6361847127
 11
10.9662542257
 21
8.5782291597
  0
LINE
  5
2EA
100
AcDbEntity
  8
0
100
AcDbLine
 62
4
  6
CONTINUOUS
 10
10.9841928257
 20
8.0851908504
 11
10.9841928257
 21
8.002397203
  0
LINE
  5
2EB
100
AcDbEntity
  8
0
100
AcDbLine
 62
4
  6
CONTINUOUS
 10
11.0242097787
 20
8.5742099284
 11
11.0242097787
 21
8.6321654814
  0
LINE
  5
2EC
100
AcDbEntity
  8
0
100
AcDbLine
 62
4
  6
CONTINUOUS
 10
10.3190838826
 20
8.0485226649
 11
10.3025251541
 21
8.0331122864
  0
LINE
  5
2ED
100
AcDbEntity
  8
0
100
AcDbLine
 62
4
  6
CONTINUOUS
 10
10.5564256736
 20
8.3864197649
 11
10.6061018624
 21
8.3829747095
  0
LINE
  5
2EE
100
AcDbEntity
  8
0
100
AcDbLine
 62
4
  6
CONTINUOUS
 10
10.6392193228
 20
8.3806780058
 11
10.6971748758
 21
8.3766587745
  0
LINE
  5
2EF
100
AcDbEntity
  8
0
100
AcDbLine
 62
4
  6
CONTINUOUS
 10
10.6378394253
 20
8.5430492504
 11
10.5992023899
 21
8.5457287379
  0
LINE
  5
2F0
100
AcDbEntity
  8
0
100
AcDbLine
 62
4
  6
CONTINUOUS
 10
10.2732024025
 20
9.2541442622
 11
10.2876912904
 21
9.2338209384
  0
LINE
  5
2F1
100
AcDbEntity
  8
0
100
AcDbLine
 62
4
  6
CONTINUOUS
 10
11.7240231158
 20
7.2487236718
 11
11.7095342279
 21
7.2690469966
  0
LINE
  5
2F2
100
AcDbEntity
  8
0
100
AcDbLine
 62
4
  6
CONTINUOUS
 10
10.2732024025
 20
9.3024405576
 11
10.2804468464
 21
9.2922788905
  0
LINE
  5
2F3
100
AcDbEntity
  8
0
100
AcDbLine
 62
4
  6
CONTINUOUS
 10
11.7674897796
 20
7.3423018367
 11
11.7747342236
 21
7.3321401696
  0
LINE
  5
2F4
100
AcDbEntity
  8
0
100
AcDbLine
 62
4
  6
CONTINUOUS
 10
11.0311092679
 20
7.9825848065
 11
11.0311092679
 21
8.0984959125
  0
LINE
  5
2F5
100
AcDbEntity
  8
0
100
AcDbLine
 62
4
  6
CONTINUOUS
 10
11.062846814
 20
8.5715304409
 11
11.062846814
 21
8.687441547
  0
LINE
  5
2F6
100
AcDbEntity
  8
0
100
AcDbLine
 62
4
  6
CONTINUOUS
 10
11.1014838494
 20
8.5688509534
 11
11.1014838494
 21
8.6268065064
  0
LINE
  5
2F7
100
AcDbEntity
  8
0
100
AcDbLine
 62
4
  6
CONTINUOUS
 10
11.1401208847
 20
8.6241270189
 11
11.1401208847
 21
8.5661714659
  0
LINE
  5
2F8
100
AcDbEntity
  8
0
100
AcDbLine
 62
7
  6
CONTINUOUS
 10
11.1464340764
 20
6.7032848174
 11
11.1464340764
 21
6.2826855916
  0
LINE
  5
2F9
100
AcDbEntity
  8
0
100
AcDbLine
 62
7
  6
CONTINUOUS
 10
11.2036435218
 20
6.6993173289
 11
11.2036435218
 21
6.2787181031
  0
LINE
  5
2FA
100
AcDbEntity
  8
0
100
AcDbLine
 62
4
  6
CONTINUOUS
 10
10.7385717251
 20
8.1022247316
 11
10.7551304466
 21
8.1176351088
  0
LINE
  5
2FB
100
AcDbEntity
  8
0
100
AcDbLine
 62
4
  6
CONTINUOUS
 10
10.8351642766
 20
8.0955260154
 11
10.8517229981
 21
8.1109363926
  0
LINE
  5
2FC
100
AcDbEntity
  8
0
100
AcDbLine
 62
4
  6
CONTINUOUS
 10
10.2390500284
 20
8.1092687982
 11
10.1948934158
 21
8.0902527616
  0
LINE
  5
2FD
100
AcDbEntity
  8
0
100
AcDbLine
 62
4
  6
CONTINUOUS
 10
11.2946690261
 20
8.5554535159
 11
11.2367134731
 21
8.5594727472
  0
LINE
  5
2FE
100
AcDbEntity
  8
0
100
AcDbLine
 62
4
  6
CONTINUOUS
 10
10.9276171903
 20
8.5809086472
 11
10.8696616373
 21
8.5849278784
  0
LINE
  5
2FF
100
AcDbEntity
  8
0
100
AcDbLine
 62
4
  6
CONTINUOUS
 10
10.7344320136
 20
8.5943060847
 11
10.6764764606
 21
8.5983253159
  0
LINE
  5
300
100
AcDbEntity
  8
0
100
AcDbLine
 62
4
  6
CONTINUOUS
 10
10.6378394253
 20
8.6010048035
 11
10.5798838723
 21
8.6050240347
  0
LINE
  5
301
100
AcDbEntity
  8
0
100
AcDbLine
 62
4
  6
CONTINUOUS
 10
10.2717535154
 20
8.6263929475
 11
10.2137979624
 21
8.6304121788
  0
LINE
  5
302
100
AcDbEntity
  8
0
100
AcDbLine
 62
4
  6
CONTINUOUS
 10
10.1848201859
 20
8.6324217944
 11
10.1268646329
 21
8.6364410257
  0
LINE
  5
303
100
AcDbEntity
  8
0
100
AcDbLine
 62
4
  6
CONTINUOUS
 10
10.9662542257
 20
8.5782291597
 11
11.0242097787
 21
8.5742099284
  0
LINE
  5
304
100
AcDbEntity
  8
0
100
AcDbLine
 62
4
  6
CONTINUOUS
 10
11.1401208847
 20
8.5661714659
 11
11.1980764377
 21
8.5621522347
  0
LINE
  5
305
100
AcDbEntity
  8
0
100
AcDbLine
 62
4
  6
CONTINUOUS
 10
11.2367134731
 20
8.5884505237
 11
11.2946690261
 21
8.5844312924
  0
LINE
  5
306
100
AcDbEntity
  8
0
100
AcDbLine
 62
4
  6
CONTINUOUS
 10
10.8696616373
 20
8.6235649138
 11
10.9276171903
 21
8.6195456825
  0
LINE
  5
307
100
AcDbEntity
  8
0
100
AcDbLine
 62
4
  6
CONTINUOUS
 10
11.7022897839
 20
8.5735492817
 11
11.7602453356
 21
8.5695300505
  0
LINE
  5
308
100
AcDbEntity
  8
0
100
AcDbLine
 62
4
  6
CONTINUOUS
 10
10.9276171903
 20
8.6388642002
 11
10.888980155
 21
8.6415436877
  0
LINE
  5
309
100
AcDbEntity
  8
0
100
AcDbLine
 62
4
  6
CONTINUOUS
 10
10.532553504
 20
8.6662619599
 11
10.474597951
 21
8.6702811912
  0
LINE
  5
30A
100
AcDbEntity
  8
0
100
AcDbLine
 62
4
  6
CONTINUOUS
 10
10.1268646329
 20
8.6943965787
 11
10.1848201859
 21
8.6903773474
  0
LINE
  5
30B
100
AcDbEntity
  8
0
100
AcDbLine
 62
4
  6
CONTINUOUS
 10
10.6764764606
 20
8.656280869
 11
10.7344320136
 21
8.6522616377
  0
LINE
  5
30C
100
AcDbEntity
  8
0
100
AcDbLine
 62
4
  6
CONTINUOUS
 10
10.773069049
 20
8.6495821502
 11
10.831024602
 21
8.645562919
  0
LINE
  5
30D
100
AcDbEntity
  8
0
100
AcDbLine
 62
4
  6
CONTINUOUS
 10
11.1401208847
 20
8.6241270189
 11
11.1980764377
 21
8.6201077877
  0
LINE
  5
30E
100
AcDbEntity
  8
0
100
AcDbLine
 62
4
  6
CONTINUOUS
 10
11.2367134731
 20
8.6174283002
 11
11.2946690261
 21
8.6134090689
  0
LINE
  5
30F
100
AcDbEntity
  8
0
100
AcDbLine
 62
4
  6
CONTINUOUS
 10
11.0942394052
 20
8.6562866869
 11
11.1087282935
 21
8.655281879
  0
LINE
  5
310
100
AcDbEntity
  8
0
100
AcDbLine
 62
4
  6
CONTINUOUS
 10
10.1848201859
 20
8.7483329004
 11
10.1268646329
 21
8.7523521317
  0
LINE
  5
311
100
AcDbEntity
  8
0
100
AcDbLine
 62
4
  6
CONTINUOUS
 10
10.3007312919
 20
8.7402944379
 11
10.3586868449
 21
8.7362752067
  0
LINE
  5
312
100
AcDbEntity
  8
0
100
AcDbLine
 62
4
  6
CONTINUOUS
 10
10.2442246266
 20
9.1981983261
 11
10.2297357387
 21
9.2088623928
  0
LINE
  5
313
100
AcDbEntity
  8
0
100
AcDbLine
 62
4
  6
CONTINUOUS
 10
10.2587135145
 20
9.2648083263
 11
10.2732024025
 21
9.2541442622
  0
LINE
  5
314
100
AcDbEntity
  8
0
100
AcDbLine
 62
4
  6
CONTINUOUS
 10
11.2367134731
 20
8.6174283002
 11
11.2367134731
 21
8.5884505237
  0
LINE
  5
315
100
AcDbEntity
  8
0
100
AcDbLine
 62
4
  6
CONTINUOUS
 10
11.2946690261
 20
8.5844312924
 11
11.2946690261
 21
8.5554535159
  0
LINE
  5
316
100
AcDbEntity
  8
0
100
AcDbLine
 62
7
  6
CONTINUOUS
 10
12.2074073544
 20
9.2038021407
 11
12.2080921283
 21
9.2044514083
  0
LINE
  5
317
100
AcDbEntity
  8
0
100
AcDbLine
 62
4
  6
CONTINUOUS
 10
10.8931198296
 20
8.0087131367
 11
10.8765611081
 21
7.9933027578
  0
LINE
  5
318
100
AcDbEntity
  8
0
100
AcDbLine
 62
4
  6
CONTINUOUS
 10
10.9841928257
 20
8.002397203
 11
10.9676341042
 21
7.9869868241
  0
LINE
  5
319
100
AcDbEntity
  8
0
100
AcDbLine
 62
4
  6
CONTINUOUS
 10
11.7095342279
 20
8.6792987249
 11
11.7240231158
 21
8.6879531734
  0
LINE
  5
31A
100
AcDbEntity
  8
0
100
AcDbLine
 62
4
  6
CONTINUOUS
 10
11.7530008917
 20
8.6376472625
 11
11.7240231158
 21
8.620338362
  0
LINE
  5
31B
100
AcDbEntity
  8
0
100
AcDbLine
 62
4
  6
CONTINUOUS
 10
11.7240231158
 20
8.6879531734
 11
11.7385120037
 21
8.6869483657
  0
LINE
  5
31C
100
AcDbEntity
  8
0
100
AcDbLine
 62
4
  6
CONTINUOUS
 10
10.2587135145
 20
9.3131046217
 11
10.2732024025
 21
9.3024405576
  0
LINE
  5
31D
100
AcDbEntity
  8
0
100
AcDbLine
 62
4
  6
CONTINUOUS
 10
11.7022897839
 20
8.6701418656
 11
11.7095342279
 21
8.6792987249
  0
LINE
  5
31E
100
AcDbEntity
  8
0
100
AcDbLine
 62
4
  6
CONTINUOUS
 10
11.7240231158
 20
8.620338362
 11
11.7095342279
 21
8.6020246537
  0
LINE
  5
31F
100
AcDbEntity
  8
0
100
AcDbLine
 62
4
  6
CONTINUOUS
 10
11.7602453356
 20
8.6468041218
 11
11.7530008917
 21
8.6376472625
  0
LINE
  5
320
100
AcDbEntity
  8
0
100
AcDbLine
 62
4
  6
CONTINUOUS
 10
11.1580594847
 20
8.0234569679
 11
11.1139028756
 21
8.0044409328
  0
LINE
  5
321
100
AcDbEntity
  8
0
100
AcDbLine
 62
4
  6
CONTINUOUS
 10
11.7095342279
 20
7.2690469966
 11
11.7022897839
 21
7.2985271763
  0
LINE
  5
322
100
AcDbEntity
  8
0
100
AcDbLine
 62
7
  6
CONTINUOUS
 10
11.6255694507
 20
6.7069055276
 11
11.6255694507
 21
6.3079788174
  0
LINE
  5
323
100
AcDbEntity
  8
0
100
AcDbLine
 62
7
  6
CONTINUOUS
 10
11.6674496597
 20
6.7040011253
 11
11.6674496597
 21
6.318818209
  0
LINE
  5
324
100
AcDbEntity
  8
0
100
AcDbLine
 62
4
  6
CONTINUOUS
 10
11.7095342279
 20
8.6020246537
 11
11.7022897839
 21
8.5735492817
  0
LINE
  5
325
100
AcDbEntity
  8
0
100
AcDbLine
 62
4
  6
CONTINUOUS
 10
10.2587135145
 20
9.1971935183
 11
10.2442246266
 21
9.1981983261
  0
LINE
  5
326
100
AcDbEntity
  8
0
100
AcDbLine
 62
4
  6
CONTINUOUS
 10
10.2442246266
 20
9.2658131341
 11
10.2587135145
 21
9.2648083263
  0
LINE
  5
327
100
AcDbEntity
  8
0
100
AcDbLine
 62
4
  6
CONTINUOUS
 10
11.7385120037
 20
8.6869483657
 11
11.7530008917
 21
8.6762843015
  0
LINE
  5
328
100
AcDbEntity
  8
0
100
AcDbLine
 62
4
  6
CONTINUOUS
 10
11.7530008917
 20
8.6762843015
 11
11.7602453356
 21
8.6661226344
  0
LINE
  5
329
100
AcDbEntity
  8
0
100
AcDbLine
 62
4
  6
CONTINUOUS
 10
11.7602453356
 20
8.6661226344
 11
11.7602453356
 21
8.6468041218
  0
LINE
  5
32A
100
AcDbEntity
  8
0
100
AcDbLine
 62
4
  6
CONTINUOUS
 10
11.7747342236
 20
7.2935031374
 11
11.7747342236
 21
7.2548661035
  0
LINE
  5
32B
100
AcDbEntity
  8
0
100
AcDbLine
 62
7
  6
CONTINUOUS
 10
11.780504285
 20
6.6961607604
 11
11.780504285
 21
6.4280205978
  0
LINE
  5
32C
100
AcDbEntity
  8
0
100
AcDbLine
 62
7
  6
CONTINUOUS
 10
11.883883815
 20
6.6889913656
 11
11.883883815
 21
9.9489912225
  0
LINE
  5
32D
100
AcDbEntity
  8
0
100
AcDbLine
 62
4
  6
CONTINUOUS
 10
10.2442246266
 20
9.3141094295
 11
10.2587135145
 21
9.3131046217
  0
LINE
  5
32E
100
AcDbEntity
  8
0
100
AcDbLine
 62
4
  6
CONTINUOUS
 10
11.7022897839
 20
7.2985271763
 11
11.7095342279
 21
7.3270025483
  0
LINE
  5
32F
100
AcDbEntity
  8
0
100
AcDbLine
 62
4
  6
CONTINUOUS
 10
11.7095342279
 20
7.3270025483
 11
11.7240231158
 21
7.34531626
  0
LINE
  5
330
100
AcDbEntity
  8
0
100
AcDbLine
 62
7
  6
CONTINUOUS
 10
12.2074073544
 20
7.8756540508
 11
12.2080921283
 21
7.8763033184
  0
LINE
  5
331
100
AcDbEntity
  8
0
100
AcDbLine
 62
4
  6
CONTINUOUS
 10
11.7747342236
 20
7.2548661035
 11
11.7674897796
 21
7.2457092485
  0
LINE
  5
332
100
AcDbEntity
  8
0
100
AcDbLine
 62
4
  6
CONTINUOUS
 10
11.7240231158
 20
7.34531626
 11
11.7385120037
 21
7.3539707086
  0
LINE
  5
333
100
AcDbEntity
  8
0
100
AcDbLine
 62
4
  6
CONTINUOUS
 10
11.7674897796
 20
7.2457092485
 11
11.7530008917
 21
7.2370547973
  0
LINE
  5
334
100
AcDbEntity
  8
0
100
AcDbLine
 62
7
  6
CONTINUOUS
 10
12.5309308938
 20
7.3139908868
 11
12.5309308938
 21
10.5739907437
  0
LINE
  5
335
100
AcDbEntity
  8
0
100
AcDbLine
 62
7
  6
CONTINUOUS
 10
9.4690691062
 20
10.1164591913
 11
11.883883815
 21
9.9489912225
  0
LINE
  5
336
100
AcDbEntity
  8
0
100
AcDbLine
 62
7
  6
CONTINUOUS
 10
11.883883815
 20
6.6889913656
 11
12.5309308938
 21
7.3139908868
  0
LINE
  5
337
100
AcDbEntity
  8
0
100
AcDbLine
 62
7
  6
CONTINUOUS
 10
12.5309308938
 20
10.5739907437
 11
10.116116185
 21
10.7414587126
  0
LINE
  5
338
100
AcDbEntity
  8
0
100
AcDbLine
 62
7
  6
CONTINUOUS
 10
11.6985794805
 20
6.326237457
 11
11.6822552484
 21
6.3181735989
  0
ARC
  5
339
100
AcDbEntity
  8
0
100
AcDbCircle
 62
7
  6
CONTINUOUS
 10
11.2962313945
 20
8.0334973196
 40
1.7572201379
100
AcDbArc
 50
266.0376720963
 51
266.9796885983
  0
ARC
  5
33A
100
AcDbEntity
  8
0
100
AcDbCircle
 62
7
  6
CONTINUOUS
 10
11.2955231375
 20
8.4424877831
 40
1.7455901856
100
AcDbArc
 50
266.0345339438
 51
266.9828267507
  0
ARC
  5
33B
100
AcDbEntity
  8
0
100
AcDbCircle
 62
7
  6
CONTINUOUS
 10
11.2910475949
 20
8.3780539173
 40
1.6810010731
100
AcDbArc
 50
265.0648462661
 51
266.0348369885
  0
ARC
  5
33C
100
AcDbEntity
  8
0
100
AcDbCircle
 62
7
  6
CONTINUOUS
 10
11.2910475949
 20
7.9574546915
 40
1.6810010731
100
AcDbArc
 50
265.0648462661
 51
266.0348369885
  0
ARC
  5
33D
100
AcDbEntity
  8
0
100
AcDbCircle
 62
7
  6
CONTINUOUS
 10
10.2961613666
 20
9.8081282975
 40
0.1631824818
100
AcDbArc
 50
266.0339588837
 51
268.9973464953
  0
SPLINE
  5
33E
100
AcDbEntity
  8
0
100
AcDbSpline
 62
7
  6
CONTINUOUS
 70
0
 71
3
 72
35
 73
31
 74
0
 42
0.0000001
 43
0.0000001
 44
0.0000000001
 40
0.0
 40
0.0
 40
0.0
 40
0.0
 40
0.0771687072
 40
0.1531494139
 40
0.2277565133
 40
0.3008088448
 40
0.3366971149
 40
0.3721312295
 40
0.4070901622
 40
0.4415533103
 40
0.4755005215
 40
0.5089121171
 40
0.5417689218
 40
0.5740522916
 40
0.6057441404
 40
0.6368269731
 40
0.6672839194
 40
0.6970987673
 40
0.7262560052
 40
0.7547408645
 40
0.7825393627
 40
0.8096383557
 40
0.8360255949
 40
0.8616897889
 40
0.8866206776
 40
0.9108091152
 40
0.9342471609
 40
0.9569281872
 40
0.9788470036
 40
1.0
 40
1.0
 40
1.0
 40
1.0
 10
11.1900768131
 20
6.2623244778
 30
0.0
 10
11.1829750261
 20
6.2628169884
 30
0.0
 10
11.1688874751
 20
6.2638941581
 30
0.0
 10
11.1479629645
 20
6.2658027938
 30
0.0
 10
11.1274473184
 20
6.2679880058
 30
0.0
 10
11.110639752
 20
6.2700465164
 30
0.0
 10
11.0974409379
 20
6.2718299415
 30
0.0
 10
11.087736066
 20
6.2732249375
 30
0.0
 10
11.0781736325
 20
6.2746842854
 30
0.0
 10
11.0687600047
 20
6.2762070156
 30
0.0
 10
11.0595014587
 20
6.2777921093
 30
0.0
 10
11.0504041648
 20
6.2794385081
 30
0.0
 10
11.0414741855
 20
6.2811451116
 30
0.0
 10
11.0327174713
 20
6.2829107794
 30
0.0
 10
11.0241398566
 20
6.2847343315
 30
0.0
 10
11.0157470558
 20
6.2866145495
 30
0.0
 10
11.0075446597
 20
6.2885501768
 30
0.0
 10
10.9995381311
 20
6.2905399202
 30
0.0
 10
10.9917328014
 20
6.2925824501
 30
0.0
 10
10.9841338665
 20
6.2946764015
 30
0.0
 10
10.9767463832
 20
6.2968203753
 30
0.0
 10
10.9695752664
 20
6.2990129393
 30
0.0
 10
10.962625285
 20
6.3012526292
 30
0.0
 10
10.9559010586
 20
6.3035379497
 30
0.0
 10
10.9494070546
 20
6.3058673758
 30
0.0
 10
10.9431475825
 20
6.3082393544
 30
0.0
 10
10.9371267973
 20
6.3106523031
 30
0.0
 10
10.9313486746
 20
6.3131046222
 30
0.0
 10
10.9258170849
 20
6.3155946602
 30
0.0
 10
10.9222321968
 20
6.3173093187
 30
0.0
 10
10.920482644
 20
6.3181735639
 30
0.0
  0
SPLINE
  5
33F
100
AcDbEntity
  8
0
100
AcDbSpline
 62
7
  6
CONTINUOUS
 70
0
 71
3
 72
15
 73
11
 74
0
 42
0.0000001
 43
0.0000001
 44
0.0000000001
 40
0.0
 40
0.0
 40
0.0
 40
0.0
 40
0.1371474631
 40
0.2706769339
 40
0.4006484844
 40
0.5271347234
 40
0.6502164733
 40
0.7699845532
 40
0.8865418828
 40
1.0
 40
1.0
 40
1.0
 40
1.0
 10
10.8375627728
 20
6.3626272662
 30
0.0
 10
10.8367907078
 20
6.3632254526
 30
0.0
 10
10.8352810763
 20
6.3644244425
 30
0.0
 10
10.8330929678
 20
6.3662560136
 30
0.0
 10
10.8310122145
 20
6.36809603
 30
0.0
 10
10.8290393162
 20
6.3699440622
 30
0.0
 10
10.827174715
 20
6.371799704
 30
0.0
 10
10.8254188315
 20
6.3736625628
 30
0.0
 10
10.8237721088
 20
6.3755321868
 30
0.0
 10
10.8227336414
 20
6.376799536
 30
0.0
 10
10.8222335363
 20
6.3774341462
 30
0.0
  0
SPLINE
  5
340
100
AcDbEntity
  8
0
100
AcDbSpline
 62
7
  6
CONTINUOUS
 70
0
 71
3
 72
34
 73
30
 74
0
 42
0.0000001
 43
0.0000001
 44
0.0000000001
 40
0.0
 40
0.0
 40
0.0
 40
0.0
 40
0.0809734182
 40
0.1598888656
 40
0.1985328866
 40
0.236611827
 40
0.2741092697
 40
0.3110092465
 40
0.347296387
 40
0.3829560761
 40
0.417974626
 40
0.4523394606
 40
0.4860392999
 40
0.5190643495
 40
0.5514064909
 40
0.5830594704
 40
0.6140190885
 40
0.6442833733
 40
0.6738527336
 40
0.7027300949
 40
0.7309210133
 40
0.7584337611
 40
0.7852793888
 40
0.8114717392
 40
0.861960419
 40
0.9100690898
 40
0.9560013248
 40
0.9782274084
 40
1.0
 40
1.0
 40
1.0
 40
1.0
 10
11.780504285
 20
6.4280205978
 30
0.0
 10
11.7788560977
 20
6.4248424094
 30
0.0
 10
11.7755568338
 20
6.4185898875
 30
0.0
 10
11.7713352212
 20
6.4108933005
 30
0.0
 10
11.767943462
 20
6.4049057854
 30
0.0
 10
11.7654120846
 20
6.4005358149
 30
0.0
 10
11.7628755526
 20
6.3962582363
 30
0.0
 10
11.7603339944
 20
6.3920760629
 30
0.0
 10
11.7577875706
 20
6.3879922868
 30
0.0
 10
11.7552364653
 20
6.3840098608
 30
0.0
 10
11.7526808892
 20
6.3801316793
 30
0.0
 10
11.7501210798
 20
6.3763605569
 30
0.0
 10
11.7475573005
 20
6.3726992085
 30
0.0
 10
11.7449898405
 20
6.3691502272
 30
0.0
 10
11.7424190134
 20
6.3657160632
 30
0.0
 10
11.7398451558
 20
6.3623990015
 30
0.0
 10
11.7372686263
 20
6.3592011405
 30
0.0
 10
11.7346898036
 20
6.3561243714
 30
0.0
 10
11.7321090829
 20
6.3531703604
 30
0.0
 10
11.7295268744
 20
6.350340533
 30
0.0
 10
11.7269435963
 20
6.3476360554
 30
0.0
 10
11.7243596874
 20
6.3450578393
 30
0.0
 10
11.7217755453
 20
6.3426064721
 30
0.0
 10
11.7183720518
 20
6.3395451447
 30
0.0
 10
11.7141190376
 20
6.3360250782
 30
0.0
 10
11.7089555669
 20
6.3322535564
 30
0.0
 10
11.7046116732
 20
6.3294965336
 30
0.0
 10
11.701146416
 20
6.3275452948
 30
0.0
 10
11.6994179228
 20
6.3266515929
 30
0.0
 10
11.6985548205
 20
6.3262252758
 30
0.0
  0
SPLINE
  5
341
100
AcDbEntity
  8
0
100
AcDbSpline
 62
7
  6
CONTINUOUS
 70
0
 71
3
 72
48
 73
44
 74
0
 42
0.0000001
 43
0.0000001
 44
0.0000000001
 40
0.0
 40
0.0
 40
0.0
 40
0.0
 40
0.00954104
 40
0.0193653464
 40
0.0294719709
 40
0.039859557
 40
0.0505263736
 40
0.0614703488
 40
0.0726890873
 40
0.084179891
 40
0.0959397856
 40
0.1079655343
 40
0.1202536475
 40
0.1328004052
 40
0.1456018694
 40
0.158653887
 40
0.171952108
 40
0.1854919969
 40
0.1992688342
 40
0.2132777281
 40
0.2419710459
 40
0.2715299775
 40
0.3019099632
 40
0.3330643406
 40
0.3649445344
 40
0.3975002191
 40
0.4306794733
 40
0.464428937
 40
0.4986939493
 40
0.5334186921
 40
0.5685463286
 40
0.6040191343
 40
0.6397786331
 40
0.6757657282
 40
0.7119208309
 40
0.748183993
 40
0.7844950341
 40
0.8207936714
 40
0.8570196492
 40
0.8931128676
 40
0.9290135142
 40
0.964662127
 40
1.0
 40
1.0
 40
1.0
 40
1.0
 10
11.6822551732
 20
6.3181735621
 30
0.0
 10
11.6808308664
 20
6.3174699821
 30
0.0
 10
11.6779251435
 20
6.3160717631
 30
0.0
 10
11.6734630581
 20
6.3140290632
 30
0.0
 10
11.6688355213
 20
6.3120111412
 30
0.0
 10
11.6640446058
 20
6.3100189036
 30
0.0
 10
11.6590924264
 20
6.3080532304
 30
0.0
 10
11.6539811786
 20
6.3061149972
 30
0.0
 10
11.6487131275
 20
6.3042050662
 30
0.0
 10
11.6432906102
 20
6.3023242857
 30
0.0
 10
11.6377160325
 20
6.3004734932
 30
0.0
 10
11.6319918682
 20
6.298653514
 30
0.0
 10
11.6261206592
 20
6.2968651568
 30
0.0
 10
11.6201050131
 20
6.2951092183
 30
0.0
 10
11.6139476014
 20
6.293386482
 30
0.0
 10
11.6076511602
 20
6.2916977142
 30
0.0
 10
11.6012184874
 20
6.2900436666
 30
0.0
 10
11.5946524425
 20
6.2884250787
 30
0.0
 10
11.5879559394
 20
6.2868426658
 30
0.0
 10
11.5787842076
 20
6.2847654231
 30
0.0
 10
11.5670139482
 20
6.2822677634
 30
0.0
 10
11.5525274601
 20
6.2794491966
 30
0.0
 10
11.5375943232
 20
6.2767909557
 30
0.0
 10
11.5222411033
 20
6.2742977908
 30
0.0
 10
11.5064950724
 20
6.271974162
 30
0.0
 10
11.4903842202
 20
6.2698242251
 30
0.0
 10
11.4739371869
 20
6.2678518218
 30
0.0
 10
11.4571832155
 20
6.2660604795
 30
0.0
 10
11.4401520977
 20
6.2644533988
 30
0.0
 10
11.4228741215
 20
6.2630334509
 30
0.0
 10
11.4053800155
 20
6.2618031746
 30
0.0
 10
11.387700895
 20
6.2607647657
 30
0.0
 10
11.3698682057
 20
6.2599200802
 30
0.0
 10
11.3519136674
 20
6.2592706273
 30
0.0
 10
11.3338692176
 20
6.2588175655
 30
0.0
 10
11.3157669545
 20
6.2585617058
 30
0.0
 10
11.2976390793
 20
6.2585035039
 30
0.0
 10
11.279517839
 20
6.2586430637
 30
0.0
 10
11.2614354682
 20
6.2589801372
 30
0.0
 10
11.243424134
 20
6.2595141205
 30
0.0
 10
11.2255158762
 20
6.260244062
 30
0.0
 10
11.2077425656
 20
6.2611686545
 30
0.0
 10
11.1959465619
 20
6.2619174093
 30
0.0
 10
11.1900768131
 20
6.2623244778
 30
0.0
  0
SPLINE
  5
342
100
AcDbEntity
  8
0
100
AcDbSpline
 62
7
  6
CONTINUOUS
 70
0
 71
3
 72
11
 73
7
 74
0
 42
0.0000001
 43
0.0000001
 44
0.0000000001
 40
0.0
 40
0.0
 40
0.0
 40
0.0
 40
0.2469574617
 40
0.4960103647
 40
0.7470602108
 40
1.0
 40
1.0
 40
1.0
 40
1.0
 10
10.8953435735
 20
6.3305917839
 30
0.0
 10
10.8904659759
 20
6.3330013603
 30
0.0
 10
10.8807320939
 20
6.3379688617
 30
0.0
 10
10.8662570051
 20
6.3458020776
 30
0.0
 10
10.8518463846
 20
6.3540222911
 30
0.0
 10
10.8423174337
 20
6.3597218389
 30
0.0
 10
10.8375627728
 20
6.3626272662
 30
0.0
  0
SPLINE
  5
343
100
AcDbEntity
  8
0
100
AcDbSpline
 62
7
  6
CONTINUOUS
 70
0
 71
3
 72
11
 73
7
 74
0
 42
0.0000001
 43
0.0000001
 44
0.0000000001
 40
0.0
 40
0.0
 40
0.0
 40
0.0
 40
0.239978672
 40
0.4867532021
 40
0.7401536949
 40
1.0
 40
1.0
 40
1.0
 40
1.0
 10
11.6674496597
 20
6.318818209
 30
0.0
 10
11.6641276467
 20
6.3178473401
 30
0.0
 10
11.6573730388
 20
6.3159341959
 30
0.0
 10
11.6470583161
 20
6.3131846808
 30
0.0
 10
11.6364264412
 20
6.3105171688
 30
0.0
 10
11.6292222333
 20
6.3088160704
 30
0.0
 10
11.6255694507
 20
6.3079788174
 30
0.0
  0
SPLINE
  5
344
100
AcDbEntity
  8
0
100
AcDbSpline
 62
7
  6
CONTINUOUS
 70
0
 71
3
 72
34
 73
30
 74
0
 42
0.0000001
 43
0.0000001
 44
0.0000000001
 40
0.0
 40
0.0
 40
0.0
 40
0.0
 40
0.0634866499
 40
0.1268757617
 40
0.1901559488
 40
0.2217524835
 40
0.2533175613
 40
0.2848498219
 40
0.3163479752
 40
0.3478108244
 40
0.37923729
 40
0.410626433
 40
0.4419774759
 40
0.4732898202
 40
0.5045630611
 40
0.5357969968
 40
0.5669916332
 40
0.5981471839
 40
0.6292640629
 40
0.6603428743
 40
0.6913843958
 40
0.7223895607
 40
0.7533594367
 40
0.7842952036
 40
0.8151981295
 40
0.8460695479
 40
0.8769108365
 40
0.9385071607
 40
1.0
 40
1.0
 40
1.0
 40
1.0
 10
11.6255694507
 20
6.3079788174
 30
0.0
 10
11.6169622807
 20
6.305162416
 30
0.0
 10
11.5996961361
 20
6.2997299099
 30
0.0
 10
11.5736229089
 20
6.2922381017
 30
0.0
 10
11.5517593811
 20
6.2865964672
 30
0.0
 10
11.5341988485
 20
6.282477045
 30
0.0
 10
11.5210018662
 20
6.2795929732
 30
0.0
 10
11.5077748025
 20
6.276920097
 30
0.0
 10
11.4945203756
 20
6.2744650291
 30
0.0
 10
11.4812417033
 20
6.2722338435
 30
0.0
 10
11.4679422301
 20
6.2702319508
 30
0.0
 10
11.4546257067
 20
6.2684640009
 30
0.0
 10
11.4412961416
 20
6.2669337891
 30
0.0
 10
11.4279577477
 20
6.2656441781
 30
0.0
 10
11.4146148794
 20
6.2645970377
 30
0.0
 10
11.4012719639
 20
6.2637932039
 30
0.0
 10
11.3879334299
 20
6.263232461
 30
0.0
 10
11.3746036355
 20
6.2629135493
 30
0.0
 10
11.3612867997
 20
6.2628341959
 30
0.0
 10
11.347986939
 20
6.2629911666
 30
0.0
 10
11.3347078129
 20
6.2633803359
 30
0.0
 10
11.3214528783
 20
6.2639967737
 30
0.0
 10
11.308225256
 20
6.2648348422
 30
0.0
 10
11.2950277047
 20
6.2658883007
 30
0.0
 10
11.2818626191
 20
6.2671504122
 30
0.0
 10
11.268731989
 20
6.26861406
 30
0.0
 10
11.2512809487
 20
6.2708233592
 30
0.0
 10
11.2295585741
 20
6.2740510163
 30
0.0
 10
11.2122635182
 20
6.2770931043
 30
0.0
 10
11.2036435218
 20
6.2787181031
 30
0.0
  0
SPLINE
  5
345
100
AcDbEntity
  8
0
100
AcDbSpline
 62
7
  6
CONTINUOUS
 70
0
 71
3
 72
11
 73
7
 74
0
 42
0.0000001
 43
0.0000001
 44
0.0000000001
 40
0.0
 40
0.0
 40
0.0
 40
0.0
 40
0.2494623999
 40
0.4993144581
 40
0.7495081039
 40
1.0
 40
1.0
 40
1.0
 40
1.0
 10
11.2743553291
 20
6.7312860635
 30
0.0
 10
11.2683290788
 20
6.7289700042
 30
0.0
 10
11.2563403001
 20
6.724141803
 30
0.0
 10
11.2385670896
 20
6.7163667463
 30
0.0
 10
11.2209886915
 20
6.7080986327
 30
0.0
 10
11.2094044596
 20
6.7022898938
 30
0.0
 10
11.2036435218
 20
6.6993173289
 30
0.0
  0
SPLINE
  5
346
100
AcDbEntity
  8
0
100
AcDbSpline
 62
7
  6
CONTINUOUS
 70
0
 71
3
 72
32
 73
28
 74
0
 42
0.0000001
 43
0.0000001
 44
0.0000000001
 40
0.0
 40
0.0
 40
0.0
 40
0.0
 40
0.0595062425
 40
0.1191900351
 40
0.1790935976
 40
0.209143445
 40
0.2392663649
 40
0.2694689329
 40
0.2997579244
 40
0.330140265
 40
0.360622973
 40
0.3912130942
 40
0.4219176307
 40
0.4527434644
 40
0.4836972776
 40
0.5147854729
 40
0.5460140938
 40
0.5773887495
 40
0.6089145454
 40
0.6405960221
 40
0.6724371045
 40
0.7044410622
 40
0.736610483
 40
0.8014501593
 40
0.8669656327
 40
0.9331532561
 40
1.0
 40
1.0
 40
1.0
 40
1.0
 10
11.1464340764
 20
6.2826855916
 30
0.0
 10
11.1413151497
 20
6.2822073209
 30
0.0
 10
11.1310480281
 20
6.2813918275
 30
0.0
 10
11.1155914503
 20
6.2806251613
 30
0.0
 10
11.1026626473
 20
6.2803929172
 30
0.0
 10
11.0922881365
 20
6.2804660855
 30
0.0
 10
11.0844817598
 20
6.2806547237
 30
0.0
 10
11.0766592394
 20
6.2809808279
 30
0.0
 10
11.0688213974
 20
6.2814479793
 30
0.0
 10
11.0609692091
 20
6.2820595631
 30
0.0
 10
11.0531037592
 20
6.2828187242
 30
0.0
 10
11.0452262496
 20
6.2837283315
 30
0.0
 10
11.0373379913
 20
6.2847909418
 30
0.0
 10
11.0294403968
 20
6.2860087651
 30
0.0
 10
11.0215349698
 20
6.2873836341
 30
0.0
 10
11.0136232925
 20
6.2889169772
 30
0.0
 10
11.005707011
 20
6.2906097964
 30
0.0
 10
10.9977878193
 20
6.2924626511
 30
0.0
 10
10.9898674421
 20
6.2944756477
 30
0.0
 10
10.9819476135
 20
6.296648438
 30
0.0
 10
10.9740300698
 20
6.2989802166
 30
0.0
 10
10.966116489
 20
6.3014697532
 30
0.0
 10
10.9555454055
 20
6.3050063071
 30
0.0
 10
10.9423494732
 20
6.3098152634
 30
0.0
 10
10.9265975732
 20
6.3161658813
 30
0.0
 10
10.910897799
 20
6.3230852938
 30
0.0
 10
10.9005216207
 20
6.3280337828
 30
0.0
 10
10.8953435735
 20
6.3305917839
 30
0.0
  0
SPLINE
  5
347
100
AcDbEntity
  8
0
100
AcDbSpline
 62
7
  6
CONTINUOUS
 70
0
 71
3
 72
11
 73
7
 74
0
 42
0.0000001
 43
0.0000001
 44
0.0000000001
 40
0.0
 40
0.0
 40
0.0
 40
0.0
 40
0.2539476412
 40
0.5054096887
 40
0.7541675181
 40
1.0
 40
1.0
 40
1.0
 40
1.0
 10
11.1464340764
 20
6.7032848174
 30
0.0
 10
11.1422338659
 20
6.7069345255
 30
0.0
 10
11.1337917977
 20
6.7141037591
 30
0.0
 10
11.1209293073
 20
6.724481218
 30
0.0
 10
11.1079244918
 20
6.7343894843
 30
0.0
 10
11.0991048797
 20
6.7406909115
 30
0.0
 10
11.0946694261
 20
6.7437473233
 30
0.0
  0
SPLINE
  5
348
100
AcDbEntity
  8
0
100
AcDbSpline
 62
7
  6
CONTINUOUS
 70
0
 71
3
 72
15
 73
11
 74
0
 42
0.0000001
 43
0.0000001
 44
0.0000000001
 40
0.0
 40
0.0
 40
0.0
 40
0.0
 40
0.1340154839
 40
0.2644677344
 40
0.3918674984
 40
0.5167200291
 40
0.6395140936
 40
0.7607124623
 40
0.8807443015
 40
1.0
 40
1.0
 40
1.0
 40
1.0
 10
11.6985548205
 20
6.3262252758
 30
0.0
 10
11.6972628893
 20
6.3255871447
 30
0.0
 10
11.6946780202
 20
6.3243978113
 30
0.0
 10
11.6907535142
 20
6.3228584305
 30
0.0
 10
11.6868394445
 20
6.3215810814
 30
0.0
 10
11.6829368815
 20
6.3205565298
 30
0.0
 10
11.6790465682
 20
6.3197749132
 30
0.0
 10
11.6751690858
 20
6.3192260262
 30
0.0
 10
11.6713050112
 20
6.3188994496
 30
0.0
 10
11.6687318905
 20
6.3188227717
 30
0.0
 10
11.6674496597
 20
6.318818209
 30
0.0
  0
SPLINE
  5
349
100
AcDbEntity
  8
0
100
AcDbSpline
 62
7
  6
CONTINUOUS
 70
0
 71
3
 72
33
 73
29
 74
0
 42
0.0000001
 43
0.0000001
 44
0.0000000001
 40
0.0
 40
0.0
 40
0.0
 40
0.0
 40
0.0845018879
 40
0.1673006947
 40
0.2480793749
 40
0.3265296559
 40
0.4023569432
 40
0.4752811983
 40
0.5105725315
 40
0.5450410489
 40
0.5786569493
 40
0.6113918338
 40
0.6432188773
 40
0.6741127503
 40
0.7040500174
 40
0.7330090191
 40
0.7609702172
 40
0.7879163572
 40
0.8138325728
 40
0.8387069143
 40
0.8625303685
 40
0.8852975233
 40
0.907006901
 40
0.9276615333
 40
0.9472698654
 40
0.9658463673
 40
0.9834129366
 40
1.0
 40
1.0
 40
1.0
 40
1.0
 10
10.2754279224
 20
10.2703420433
 30
0.0
 10
10.2657607013
 20
10.2710124674
 30
0.0
 10
10.2466323686
 20
10.2725094749
 30
0.0
 10
10.2183144283
 20
10.2752545055
 30
0.0
 10
10.1907441026
 20
10.2784674658
 30
0.0
 10
10.1640371035
 20
10.2821347209
 30
0.0
 10
10.1383056464
 20
10.2862406925
 30
0.0
 10
10.1175450487
 20
10.2900537141
 30
0.0
 10
10.101511297
 20
10.2933197806
 30
0.0
 10
10.0899272697
 20
10.2958410144
 30
0.0
 10
10.0786652538
 20
10.2984579741
 30
0.0
 10
10.0677370562
 20
10.3011679312
 30
0.0
 10
10.0571541431
 20
10.3039679948
 30
0.0
 10
10.0469276148
 20
10.3068552493
 30
0.0
 10
10.0370681842
 20
10.3098266132
 30
0.0
 10
10.0275861784
 20
10.3128789786
 30
0.0
 10
10.0184915169
 20
10.316009125
 30
0.0
 10
10.0097936992
 20
10.3192137403
 30
0.0
 10
10.0015018078
 20
10.3224894927
 30
0.0
 10
9.9936244664
 20
10.3258329023
 30
0.0
 10
9.9861698675
 20
10.3292405124
 30
0.0
 10
9.9791457251
 20
10.3327087546
 30
0.0
 10
9.9725592846
 20
10.3362340357
 30
0.0
 10
9.9664173185
 20
10.339812778
 30
0.0
 10
9.9607261018
 20
10.343441291
 30
0.0
 10
9.9554913767
 20
10.3471160883
 30
0.0
 10
9.9507186673
 20
10.3508333292
 30
0.0
 10
9.9477651884
 20
10.353409853
 30
0.0
 10
9.9463727154
 20
10.3547057019
 30
0.0
  0
SPLINE
  5
34A
100
AcDbEntity
  8
0
100
AcDbSpline
 62
7
  6
CONTINUOUS
 70
0
 71
3
 72
22
 73
18
 74
0
 42
0.0000001
 43
0.0000001
 44
0.0000000001
 40
0.0
 40
0.0
 40
0.0
 40
0.0
 40
0.1251291747
 40
0.1877128939
 40
0.25025494
 40
0.3127446097
 40
0.375184488
 40
0.4375874091
 40
0.4999731682
 40
0.5623648776
 40
0.6247849888
 40
0.6872510421
 40
0.7497711879
 40
0.8123398229
 40
0.8749335457
 40
0.9375087941
 40
1.0
 40
1.0
 40
1.0
 40
1.0
 10
10.6441879433
 20
7.5878386333
 30
0.0
 10
10.6365268324
 20
7.5905356663
 30
0.0
 10
10.625222388
 20
7.5951540975
 30
0.0
 10
10.6106979555
 20
7.6024387927
 30
0.0
 10
10.6001102145
 20
7.6084681704
 30
0.0
 10
10.5898740263
 20
7.6150592346
 30
0.0
 10
10.5800310162
 20
7.6222098215
 30
0.0
 10
10.5706249479
 20
7.6299161756
 30
0.0
 10
10.5617010955
 20
7.6381722762
 30
0.0
 10
10.5533066362
 20
7.6469683555
 30
0.0
 10
10.5454902841
 20
7.6562894032
 30
0.0
 10
10.5383015201
 20
7.6661135395
 30
0.0
 10
10.5317892123
 20
7.6764104991
 30
0.0
 10
10.5259997111
 20
7.6871402877
 30
0.0
 10
10.5209742767
 20
7.6982528043
 30
0.0
 10
10.5167467386
 20
7.7096867385
 30
0.0
 10
10.5144726356
 20
7.7174878339
 30
0.0
 10
10.5134743301
 20
7.7214192935
 30
0.0
  0
SPLINE
  5
34B
100
AcDbEntity
  8
0
100
AcDbSpline
 62
7
  6
CONTINUOUS
 70
0
 71
3
 72
11
 73
7
 74
0
 42
0.0000001
 43
0.0000001
 44
0.0000000001
 40
0.0
 40
0.0
 40
0.0
 40
0.0
 40
0.2603446635
 40
0.5119386596
 40
0.7575066291
 40
1.0
 40
1.0
 40
1.0
 40
1.0
 10
9.9689601275
 20
10.3383521456
 30
0.0
 10
9.9684440106
 20
10.3394478706
 30
0.0
 10
9.9675312136
 20
10.3416528355
 30
0.0
 10
9.9665313667
 20
10.3450392316
 30
0.0
 10
9.9659303114
 20
10.3484347223
 30
0.0
 10
9.9657963282
 20
10.3507074979
 30
0.0
 10
9.9657963239
 20
10.3518356424
 30
0.0
  0
SPLINE
  5
34C
100
AcDbEntity
  8
0
100
AcDbSpline
 62
7
  6
CONTINUOUS
 70
0
 71
3
 72
46
 73
42
 74
0
 42
0.0000001
 43
0.0000001
 44
0.0000000001
 40
0.0
 40
0.0
 40
0.0
 40
0.0
 40
0.007273983
 40
0.0148705064
 40
0.022798022
 40
0.0310633147
 40
0.0396715192
 40
0.0486265007
 40
0.0579308425
 40
0.0675861042
 40
0.0775928807
 40
0.0879508871
 40
0.098659129
 40
0.1097158298
 40
0.1211186815
 40
0.1328646936
 40
0.1573711414
 40
0.1832026044
 40
0.210318804
 40
0.2386735246
 40
0.268215301
 40
0.2988879846
 40
0.3306312228
 40
0.3633808755
 40
0.3970693828
 40
0.4316261023
 40
0.4669776235
 40
0.5030480612
 40
0.5397593352
 40
0.5770314397
 40
0.614782706
 40
0.6529300597
 40
0.6913892733
 40
0.730075218
 40
0.7689021107
 40
0.8077837764
 40
0.8466338414
 40
0.885366163
 40
0.9238945305
 40
0.962134293
 40
1.0
 40
1.0
 40
1.0
 40
1.0
 10
10.8462193347
 20
10.3547051526
 30
0.0
 10
10.8451792755
 20
10.3537372723
 30
0.0
 10
10.8430052122
 20
10.3518094914
 30
0.0
 10
10.8395483373
 20
10.3490008163
 30
0.0
 10
10.8358281858
 20
10.346214962
 30
0.0
 10
10.8318469896
 20
10.3434536539
 30
0.0
 10
10.827607075
 20
10.3407183761
 30
0.0
 10
10.823110898
 20
10.3380107669
 30
0.0
 10
10.8183611053
 20
10.3353323567
 30
0.0
 10
10.8133604729
 20
10.3326847309
 30
0.0
 10
10.8081119395
 20
10.3300694452
 30
0.0
 10
10.8026186002
 20
10.32748802
 30
0.0
 10
10.796883683
 20
10.3249420176
 30
0.0
 10
10.7909105886
 20
10.3224329032
 30
0.0
 10
10.7847028274
 20
10.3199621952
 30
0.0
 10
10.775994375
 20
10.3166745161
 30
0.0
 10
10.7645421391
 20
10.3126814
 30
0.0
 10
10.750112532
 20
10.3081306831
 30
0.0
 10
10.7348422221
 20
10.303766625
 30
0.0
 10
10.7187674192
 20
10.2995996698
 30
0.0
 10
10.7019261068
 20
10.2956398084
 30
0.0
 10
10.6843581987
 20
10.291896535
 30
0.0
 10
10.6661053575
 20
10.2883788254
 30
0.0
 10
10.6472109093
 20
10.2850951132
 30
0.0
 10
10.6277197288
 20
10.2820532684
 30
0.0
 10
10.6076781291
 20
10.2792605783
 30
0.0
 10
10.5871337465
 20
10.2767237318
 30
0.0
 10
10.5661354237
 20
10.2744488034
 30
0.0
 10
10.5447330919
 20
10.2724412391
 30
0.0
 10
10.5229776498
 20
10.2707058441
 30
0.0
 10
10.5009208418
 20
10.2692467714
 30
0.0
 10
10.4786151336
 20
10.2680675125
 30
0.0
 10
10.4561135867
 20
10.2671708894
 30
0.0
 10
10.4334697317
 20
10.2665590468
 30
0.0
 10
10.4107374377
 20
10.2662334465
 30
0.0
 10
10.3879707916
 20
10.2661948691
 30
0.0
 10
10.3652239397
 20
10.2664434017
 30
0.0
 10
10.3425510461
 20
10.2669784598
 30
0.0
 10
10.32000594
 20
10.2677987474
 30
0.0
 10
10.2976424231
 20
10.2689023242
 30
0.0
 10
10.2828060806
 20
10.2698303663
 30
0.0
 10
10.2754279224
 20
10.2703420433
 30
0.0
  0
SPLINE
  5
34D
100
AcDbEntity
  8
0
100
AcDbSpline
 62
7
  6
CONTINUOUS
 70
0
 71
3
 72
11
 73
7
 74
0
 42
0.0000001
 43
0.0000001
 44
0.0000000001
 40
0.0
 40
0.0
 40
0.0
 40
0.0
 40
0.2602032612
 40
0.511774046
 40
0.7574024852
 40
1.0
 40
1.0
 40
1.0
 40
1.0
 10
10.8236791835
 20
10.3384515796
 30
0.0
 10
10.8241878213
 20
10.3395395779
 30
0.0
 10
10.8250872918
 20
10.3417288715
 30
0.0
 10
10.8260722676
 20
10.3450901242
 30
0.0
 10
10.8266643341
 20
10.3484602422
 30
0.0
 10
10.826796326
 20
10.3507158838
 30
0.0
 10
10.8267963217
 20
10.3518356424
 30
0.0
  0
SPLINE
  5
34E
100
AcDbEntity
  8
0
100
AcDbSpline
 62
7
  6
CONTINUOUS
 70
0
 71
3
 72
23
 73
19
 74
0
 42
0.0000001
 43
0.0000001
 44
0.0000000001
 40
0.0
 40
0.0
 40
0.0
 40
0.0
 40
0.0616482107
 40
0.1233194484
 40
0.1850364778
 40
0.246821563
 40
0.3086962115
 40
0.3706809284
 40
0.432795007
 40
0.4950563296
 40
0.557481183
 40
0.6200840897
 40
0.6828775671
 40
0.7458723773
 40
0.8090769738
 40
0.8724964981
 40
0.9361392129
 40
1.0
 40
1.0
 40
1.0
 40
1.0
 10
9.9440397523
 20
9.7905855597
 30
0.0
 10
9.9464076132
 20
9.7928727256
 30
0.0
 10
9.9512682516
 20
9.7973214811
 30
0.0
 10
9.958908829
 20
9.8035943557
 30
0.0
 10
9.9668811793
 20
9.8094526123
 30
0.0
 10
9.975164945
 20
9.8148812362
 30
0.0
 10
9.9837393312
 20
9.8198666152
 30
0.0
 10
9.992582715
 20
9.8243961698
 30
0.0
 10
10.0016728001
 20
9.8284585395
 30
0.0
 10
10.0109866817
 20
9.8320435124
 30
0.0
 10
10.0205009054
 20
9.8351420549
 30
0.0
 10
10.030191499
 20
9.8377463846
 30
0.0
 10
10.0400340493
 20
9.8398500058
 30
0.0
 10
10.050003787
 20
9.8414476348
 30
0.0
 10
10.0600755379
 20
9.8425352281
 30
0.0
 10
10.0702241911
 20
9.8431101791
 30
0.0
 10
10.0804236707
 20
9.8431709301
 30
0.0
 10
10.087229204
 20
9.8428691453
 30
0.0
 10
10.0906312828
 20
9.8426332103
 30
0.0
  0
SPLINE
  5
34F
100
AcDbEntity
  8
0
100
AcDbSpline
 62
7
  6
CONTINUOUS
 70
0
 71
3
 72
41
 73
37
 74
0
 42
0.0000001
 43
0.0000001
 44
0.0000000001
 40
0.0
 40
0.0
 40
0.0
 40
0.0
 40
0.0299390141
 40
0.0599016989
 40
0.0899111649
 40
0.1199894198
 40
0.1501568599
 40
0.180431808
 40
0.2108301131
 40
0.2413648182
 40
0.2720459031
 40
0.3028801065
 40
0.3338708259
 40
0.3650180945
 40
0.3963186305
 40
0.4277659543
 40
0.4593505667
 40
0.4910601815
 40
0.5228800053
 40
0.5547930582
 40
0.5867805277
 40
0.6188221494
 40
0.6508966088
 40
0.6829819573
 40
0.7150560361
 40
0.7310843129
 40
0.7471015874
 40
0.7790879444
 40
0.810999549
 40
0.8428176147
 40
0.8745252056
 40
0.9061075368
 40
0.9375524699
 40
0.9532225433
 40
0.9688553077
 40
1.0
 40
1.0
 40
1.0
 40
1.0
 10
10.2372228133
 20
9.4870601381
 30
0.0
 10
10.2406721371
 20
9.4903919113
 30
0.0
 10
10.2473151413
 20
9.497331682
 30
0.0
 10
10.25643851
 20
9.5084935772
 30
0.0
 10
10.2646763273
 20
9.5203523247
 30
0.0
 10
10.2719837393
 20
9.5328435855
 30
0.0
 10
10.278321959
 20
9.5459006735
 30
0.0
 10
10.2836571412
 20
9.559453615
 30
0.0
 10
10.2879609146
 20
9.5734298854
 30
0.0
 10
10.2912104293
 20
9.5877547108
 30
0.0
 10
10.2933884953
 20
9.6023514987
 30
0.0
 10
10.2944836574
 20
9.6171422435
 30
0.0
 10
10.2944902482
 20
9.6320479457
 30
0.0
 10
10.2934084084
 20
9.6469890314
 30
0.0
 10
10.2912440786
 20
9.6618857742
 30
0.0
 10
10.2880089601
 20
9.6766587157
 30
0.0
 10
10.2837204482
 20
9.6912290843
 30
0.0
 10
10.2784015352
 20
9.7055192094
 30
0.0
 10
10.272080685
 20
9.7194529307
 30
0.0
 10
10.264791683
 20
9.7329559958
 30
0.0
 10
10.2565734453
 20
9.7459564598
 30
0.0
 10
10.2474698535
 20
9.7583850328
 30
0.0
 10
10.2375293676
 20
9.7701755632
 30
0.0
 10
10.2268053424
 20
9.7812649414
 30
0.0
 10
10.2172597568
 20
9.7898756335
 30
0.0
 10
10.2092897788
 20
9.7963566848
 30
0.0
 10
10.2011141439
 20
9.8025530483
 30
0.0
 10
10.1905199292
 20
9.8097576572
 30
0.0
 10
10.1772692083
 20
9.8174940184
 30
0.0
 10
10.1635555263
 20
9.8242772827
 30
0.0
 10
10.1494521835
 20
9.8300709394
 30
0.0
 10
10.1350347035
 20
9.8348440005
 30
0.0
 10
10.1228065411
 20
9.8379536365
 30
0.0
 10
10.1129449988
 20
9.8399062079
 30
0.0
 10
10.103067771
 20
9.8414966438
 30
0.0
 10
10.0956081368
 20
9.8422880643
 30
0.0
 10
10.0906312828
 20
9.8426332103
 30
0.0
  0
SPLINE
  5
350
100
AcDbEntity
  8
0
100
AcDbSpline
 62
7
  6
CONTINUOUS
 70
0
 71
3
 72
32
 73
28
 74
0
 42
0.0000001
 43
0.0000001
 44
0.0000000001
 40
0.0
 40
0.0
 40
0.0
 40
0.0
 40
0.0627615695
 40
0.126186185
 40
0.1899619479
 40
0.2538138214
 40
0.3175249206
 40
0.34928437
 40
0.3809572247
 40
0.4439970658
 40
0.5066259679
 40
0.537797168
 40
0.5688745359
 40
0.5998655847
 40
0.6307793995
 40
0.6616264405
 40
0.6924183304
 40
0.7231673522
 40
0.7538862436
 40
0.7845879911
 40
0.8152853595
 40
0.8459905678
 40
0.876715287
 40
0.9074700943
 40
0.9382636752
 40
0.9691060193
 40
1.0
 40
1.0
 40
1.0
 40
1.0
 10
10.1151436064
 20
9.8393656819
 30
0.0
 10
10.1154328666
 20
9.833485076
 30
0.0
 10
10.116500983
 20
9.8216804853
 30
0.0
 10
10.1195125388
 20
9.8040986749
 30
0.0
 10
10.1239128359
 20
9.7867053612
 30
0.0
 10
10.1296612252
 20
9.7696823741
 30
0.0
 10
10.1355455015
 20
9.7559247041
 30
0.0
 10
10.1408869173
 20
9.7452569901
 30
0.0
 10
10.146625583
 20
9.7348694832
 30
0.0
 10
10.1545539047
 20
9.7223978321
 30
0.0
 10
10.1634851572
 20
9.7106804206
 30
0.0
 10
10.171190831
 20
9.7018521631
 30
0.0
 10
10.1772356916
 20
9.6955258284
 30
0.0
 10
10.183547407
 20
9.6895006616
 30
0.0
 10
10.1901184423
 20
9.6837920722
 30
0.0
 10
10.1969402786
 20
9.6784156355
 30
0.0
 10
10.2040034642
 20
9.6733868425
 30
0.0
 10
10.2112973427
 20
9.6687209687
 30
0.0
 10
10.2188099618
 20
9.6644329408
 30
0.0
 10
10.2265280011
 20
9.6605372361
 30
0.0
 10
10.2344366434
 20
9.6570476137
 30
0.0
 10
10.2425195258
 20
9.6539768257
 30
0.0
 10
10.2507588155
 20
9.6513365033
 30
0.0
 10
10.259135162
 20
9.649136941
 30
0.0
 10
10.2676281271
 20
9.6473865755
 30
0.0
 10
10.2762154188
 20
9.6460923437
 30
0.0
 10
10.2819835698
 20
9.6455371106
 30
0.0
 10
10.2848748158
 20
9.645336602
 30
0.0
  0
SPLINE
  5
351
100
AcDbEntity
  8
0
100
AcDbSpline
 62
7
  6
CONTINUOUS
 70
0
 71
3
 72
41
 73
37
 74
0
 42
0.0000001
 43
0.0000001
 44
0.0000000001
 40
0.0
 40
0.0
 40
0.0
 40
0.0
 40
0.0299390141
 40
0.0599016989
 40
0.0899111649
 40
0.1199894198
 40
0.1501568599
 40
0.180431808
 40
0.2108301131
 40
0.2413648182
 40
0.2720459031
 40
0.3028801065
 40
0.3338708259
 40
0.3650180945
 40
0.3963186305
 40
0.4277659543
 40
0.4593505667
 40
0.4910601815
 40
0.5228800053
 40
0.5547930582
 40
0.5867805277
 40
0.6188221494
 40
0.6508966088
 40
0.6829819573
 40
0.7150560361
 40
0.7310843129
 40
0.7471015874
 40
0.7790879444
 40
0.810999549
 40
0.8428176147
 40
0.8745252056
 40
0.9061075368
 40
0.9375524699
 40
0.9532225433
 40
0.9688553077
 40
1.0
 40
1.0
 40
1.0
 40
1.0
 10
10.5994450196
 20
7.3794038355
 30
0.0
 10
10.6028943434
 20
7.3827356088
 30
0.0
 10
10.6095373476
 20
7.3896753794
 30
0.0
 10
10.6186607164
 20
7.4008372746
 30
0.0
 10
10.6268985336
 20
7.4126960222
 30
0.0
 10
10.6342059457
 20
7.4251872829
 30
0.0
 10
10.6405441653
 20
7.438244371
 30
0.0
 10
10.6458793475
 20
7.4517973124
 30
0.0
 10
10.6501831209
 20
7.4657735828
 30
0.0
 10
10.6534326356
 20
7.4800984082
 30
0.0
 10
10.6556107016
 20
7.4946951961
 30
0.0
 10
10.6567058637
 20
7.5094859409
 30
0.0
 10
10.6567124545
 20
7.5243916431
 30
0.0
 10
10.6556306148
 20
7.5393327289
 30
0.0
 10
10.6534662849
 20
7.5542294717
 30
0.0
 10
10.6502311664
 20
7.5690024131
 30
0.0
 10
10.6459426545
 20
7.5835727817
 30
0.0
 10
10.6406237415
 20
7.5978629069
 30
0.0
 10
10.6343028913
 20
7.6117966281
 30
0.0
 10
10.6270138894
 20
7.6252996932
 30
0.0
 10
10.6187956516
 20
7.6383001572
 30
0.0
 10
10.6096920598
 20
7.6507287302
 30
0.0
 10
10.599751574
 20
7.6625192606
 30
0.0
 10
10.5890275488
 20
7.6736086389
 30
0.0
 10
10.5794819631
 20
7.682219331
 30
0.0
 10
10.5715119852
 20
7.6887003822
 30
0.0
 10
10.5633363502
 20
7.6948967458
 30
0.0
 10
10.5527421356
 20
7.7021013546
 30
0.0
 10
10.5394914146
 20
7.7098377158
 30
0.0
 10
10.5257777327
 20
7.7166209802
 30
0.0
 10
10.5116743899
 20
7.7224146369
 30
0.0
 10
10.4972569098
 20
7.7271876979
 30
0.0
 10
10.4850287474
 20
7.7302973339
 30
0.0
 10
10.4751672051
 20
7.7322499054
 30
0.0
 10
10.4652899774
 20
7.7338403413
 30
0.0
 10
10.4578303431
 20
7.7346317618
 30
0.0
 10
10.4528534891
 20
7.7349769078
 30
0.0
  0
SPLINE
  5
352
100
AcDbEntity
  8
0
100
AcDbSpline
 62
7
  6
CONTINUOUS
 70
0
 71
3
 72
59
 73
55
 74
0
 42
0.0000001
 43
0.0000001
 44
0.0000000001
 40
0.0
 40
0.0
 40
0.0
 40
0.0
 40
0.0075208079
 40
0.0156241398
 40
0.0243310606
 40
0.0336548722
 40
0.0436027282
 40
0.0541767519
 40
0.0653748386
 40
0.0771914416
 40
0.0896180444
 40
0.1026434986
 40
0.1162544536
 40
0.1304355591
 40
0.1451696243
 40
0.1604378928
 40
0.1762201332
 40
0.1924947318
 40
0.2092388927
 40
0.2264286809
 40
0.2440390934
 40
0.2620442168
 40
0.2991298639
 40
0.3374628535
 40
0.3768091312
 40
0.4169263555
 40
0.4575659562
 40
0.4984751951
 40
0.5393992035
 40
0.5800829926
 40
0.620273482
 40
0.659721512
 40
0.6981838999
 40
0.7354255455
 40
0.7535182257
 40
0.7712223393
 40
0.7885117232
 40
0.8053611821
 40
0.8217465396
 40
0.8376446832
 40
0.8530337507
 40
0.8678931903
 40
0.8822038429
 40
0.8959481837
 40
0.9091104254
 40
0.9216766811
 40
0.9336353194
 40
0.9449771786
 40
0.9556959294
 40
0.9657887016
 40
0.9752565037
 40
0.9841051608
 40
0.9923469048
 40
1.0
 40
1.0
 40
1.0
 40
1.0
 10
12.1706619334
 20
8.6647359522
 30
0.0
 10
12.1697800575
 20
8.66582027
 30
0.0
 10
12.1680424795
 20
8.6681506931
 30
0.0
 10
12.1655972578
 20
8.6719575756
 30
0.0
 10
12.1632218629
 20
8.6761967573
 30
0.0
 10
12.1609200362
 20
8.6808612774
 30
0.0
 10
12.1586952702
 20
8.6859438893
 30
0.0
 10
12.1565511578
 20
8.6914364489
 30
0.0
 10
12.1544911577
 20
8.6973300922
 30
0.0
 10
12.152518679
 20
8.703615237
 30
0.0
 10
12.1506370099
 20
8.7102816079
 30
0.0
 10
12.148849268
 20
8.7173182508
 30
0.0
 10
12.1471584556
 20
8.7247135772
 30
0.0
 10
12.1455674162
 20
8.7324553796
 30
0.0
 10
12.144078799
 20
8.740530852
 30
0.0
 10
12.1426951133
 20
8.7489266259
 30
0.0
 10
12.1414186889
 20
8.7576287889
 30
0.0
 10
12.1402516515
 20
8.7666229076
 30
0.0
 10
12.1391959699
 20
8.7758940611
 30
0.0
 10
12.1382534266
 20
8.7854268573
 30
0.0
 10
12.1374255696
 20
8.7952054817
 30
0.0
 10
12.136467197
 20
8.8086824972
 30
0.0
 10
12.1355736554
 20
8.8260232401
 30
0.0
 10
12.1349855464
 20
8.8473447595
 30
0.0
 10
12.1348756005
 20
8.8692374448
 30
0.0
 10
12.1352447002
 20
8.8915558889
 30
0.0
 10
12.136090533
 20
8.9141519627
 30
0.0
 10
12.1374075439
 20
8.9368756274
 30
0.0
 10
12.1391870241
 20
8.959575996
 30
0.0
 10
12.1414171383
 20
8.9821023404
 30
0.0
 10
12.1440830025
 20
9.0043050931
 30
0.0
 10
12.1471667995
 20
9.0260369043
 30
0.0
 10
12.1506479195
 20
9.0471534502
 30
0.0
 10
12.1538908363
 20
9.0642822013
 30
0.0
 10
12.1566731098
 20
9.0775677116
 30
0.0
 10
12.158823879
 20
9.0871962147
 30
0.0
 10
12.1610551703
 20
9.0965690489
 30
0.0
 10
12.1633632733
 20
9.1056706672
 30
0.0
 10
12.1657443243
 20
9.1144859621
 30
0.0
 10
12.1681943687
 20
9.1230003054
 30
0.0
 10
12.1707093078
 20
9.1311995818
 30
0.0
 10
12.1732849369
 20
9.1390702072
 30
0.0
 10
12.1759169772
 20
9.146599146
 30
0.0
 10
12.1786010261
 20
9.1537739531
 30
0.0
 10
12.1813326023
 20
9.1605827864
 30
0.0
 10
12.184107179
 20
9.1670144222
 30
0.0
 10
12.1869201333
 20
9.173058301
 30
0.0
 10
12.1897668025
 20
9.1787045385
 30
0.0
 10
12.1926425239
 20
9.1839439374
 30
0.0
 10
12.1955426076
 20
9.1887680368
 30
0.0
 10
12.1984623521
 20
9.1931690879
 30
0.0
 10
12.201397324
 20
9.1971402517
 30
0.0
 10
12.2043427883
 20
9.2006749159
 30
0.0
 10
12.2063843996
 20
9.2028140422
 30
0.0
 10
12.2074073544
 20
9.2038021407
 30
0.0
  0
SPLINE
  5
353
100
AcDbEntity
  8
0
100
AcDbSpline
 62
7
  6
CONTINUOUS
 70
0
 71
3
 72
59
 73
55
 74
0
 42
0.0000001
 43
0.0000001
 44
0.0000000001
 40
0.0
 40
0.0
 40
0.0
 40
0.0
 40
0.0075208079
 40
0.0156241398
 40
0.0243310606
 40
0.0336548722
 40
0.0436027282
 40
0.0541767519
 40
0.0653748386
 40
0.0771914416
 40
0.0896180444
 40
0.1026434986
 40
0.1162544536
 40
0.1304355591
 40
0.1451696243
 40
0.1604378928
 40
0.1762201332
 40
0.1924947318
 40
0.2092388927
 40
0.2264286809
 40
0.2440390934
 40
0.2620442168
 40
0.2991298639
 40
0.3374628535
 40
0.3768091312
 40
0.4169263555
 40
0.4575659562
 40
0.4984751951
 40
0.5393992035
 40
0.5800829926
 40
0.620273482
 40
0.659721512
 40
0.6981838999
 40
0.7354255455
 40
0.7535182257
 40
0.7712223393
 40
0.7885117232
 40
0.8053611821
 40
0.8217465396
 40
0.8376446832
 40
0.8530337507
 40
0.8678931903
 40
0.8822038429
 40
0.8959481837
 40
0.9091104254
 40
0.9216766811
 40
0.9336353194
 40
0.9449771786
 40
0.9556959294
 40
0.9657887016
 40
0.9752565037
 40
0.9841051608
 40
0.9923469048
 40
1.0
 40
1.0
 40
1.0
 40
1.0
 10
12.1706619334
 20
7.3365878623
 30
0.0
 10
12.1697800575
 20
7.3376721802
 30
0.0
 10
12.1680424795
 20
7.3400026033
 30
0.0
 10
12.1655972578
 20
7.3438094857
 30
0.0
 10
12.1632218629
 20
7.3480486674
 30
0.0
 10
12.1609200362
 20
7.3527131876
 30
0.0
 10
12.1586952702
 20
7.3577957994
 30
0.0
 10
12.1565511578
 20
7.3632883591
 30
0.0
 10
12.1544911577
 20
7.3691820024
 30
0.0
 10
12.152518679
 20
7.3754671471
 30
0.0
 10
12.1506370099
 20
7.3821335181
 30
0.0
 10
12.148849268
 20
7.3891701609
 30
0.0
 10
12.1471584556
 20
7.3965654874
 30
0.0
 10
12.1455674162
 20
7.4043072898
 30
0.0
 10
12.144078799
 20
7.4123827622
 30
0.0
 10
12.1426951133
 20
7.420778536
 30
0.0
 10
12.1414186889
 20
7.4294806991
 30
0.0
 10
12.1402516515
 20
7.4384748178
 30
0.0
 10
12.1391959699
 20
7.4477459712
 30
0.0
 10
12.1382534266
 20
7.4572787675
 30
0.0
 10
12.1374255696
 20
7.4670573918
 30
0.0
 10
12.136467197
 20
7.4805344074
 30
0.0
 10
12.1355736554
 20
7.4978751503
 30
0.0
 10
12.1349855464
 20
7.5191966697
 30
0.0
 10
12.1348756005
 20
7.541089355
 30
0.0
 10
12.1352447002
 20
7.5634077991
 30
0.0
 10
12.136090533
 20
7.5860038729
 30
0.0
 10
12.1374075439
 20
7.6087275375
 30
0.0
 10
12.1391870241
 20
7.6314279062
 30
0.0
 10
12.1414171383
 20
7.6539542505
 30
0.0
 10
12.1440830025
 20
7.6761570032
 30
0.0
 10
12.1471667995
 20
7.6978888145
 30
0.0
 10
12.1506479195
 20
7.7190053603
 30
0.0
 10
12.1538908363
 20
7.7361341115
 30
0.0
 10
12.1566731098
 20
7.7494196217
 30
0.0
 10
12.158823879
 20
7.7590481249
 30
0.0
 10
12.1610551703
 20
7.7684209591
 30
0.0
 10
12.1633632733
 20
7.7775225774
 30
0.0
 10
12.1657443243
 20
7.7863378723
 30
0.0
 10
12.1681943687
 20
7.7948522156
 30
0.0
 10
12.1707093078
 20
7.8030514919
 30
0.0
 10
12.1732849369
 20
7.8109221173
 30
0.0
 10
12.1759169772
 20
7.8184510562
 30
0.0
 10
12.1786010261
 20
7.8256258632
 30
0.0
 10
12.1813326023
 20
7.8324346966
 30
0.0
 10
12.184107179
 20
7.8388663324
 30
0.0
 10
12.1869201333
 20
7.8449102112
 30
0.0
 10
12.1897668025
 20
7.8505564487
 30
0.0
 10
12.1926425239
 20
7.8557958476
 30
0.0
 10
12.1955426076
 20
7.8606199469
 30
0.0
 10
12.1984623521
 20
7.8650209981
 30
0.0
 10
12.201397324
 20
7.8689921619
 30
0.0
 10
12.2043427883
 20
7.872526826
 30
0.0
 10
12.2063843996
 20
7.8746659523
 30
0.0
 10
12.2074073544
 20
7.8756540508
 30
0.0
  0
SPLINE
  5
354
100
AcDbEntity
  8
0
100
AcDbSpline
 62
7
  6
CONTINUOUS
 70
0
 71
3
 72
23
 73
19
 74
0
 42
0.0000001
 43
0.0000001
 44
0.0000000001
 40
0.0
 40
0.0
 40
0.0
 40
0.0
 40
0.0616482107
 40
0.1233194484
 40
0.1850364778
 40
0.246821563
 40
0.3086962115
 40
0.3706809284
 40
0.432795007
 40
0.4950563296
 40
0.557481183
 40
0.6200840897
 40
0.6828775671
 40
0.7458723773
 40
0.8090769738
 40
0.8724964981
 40
0.9361392129
 40
1.0
 40
1.0
 40
1.0
 40
1.0
 10
10.3062619586
 20
7.6829292572
 30
0.0
 10
10.3086298195
 20
7.685216423
 30
0.0
 10
10.3134904579
 20
7.6896651785
 30
0.0
 10
10.3211310354
 20
7.6959380531
 30
0.0
 10
10.3291033856
 20
7.7017963097
 30
0.0
 10
10.3373871513
 20
7.7072249336
 30
0.0
 10
10.3459615375
 20
7.7122103126
 30
0.0
 10
10.3548049213
 20
7.7167398672
 30
0.0
 10
10.3638950064
 20
7.7208022369
 30
0.0
 10
10.373208888
 20
7.7243872098
 30
0.0
 10
10.3827231117
 20
7.7274857524
 30
0.0
 10
10.3924137053
 20
7.7300900821
 30
0.0
 10
10.4022562556
 20
7.7321937032
 30
0.0
 10
10.4122259933
 20
7.7337913322
 30
0.0
 10
10.4222977443
 20
7.7348789255
 30
0.0
 10
10.4324463974
 20
7.7354538765
 30
0.0
 10
10.442645877
 20
7.7355146276
 30
0.0
 10
10.4494514103
 20
7.7352128427
 30
0.0
 10
10.4528534891
 20
7.7349769078
 30
0.0
  0
SPLINE
  5
355
100
AcDbEntity
  8
0
100
AcDbSpline
 62
7
  6
CONTINUOUS
 70
0
 71
3
 72
23
 73
19
 74
0
 42
0.0000001
 43
0.0000001
 44
0.0000000001
 40
0.0
 40
0.0
 40
0.0
 40
0.0
 40
0.0638607871
 40
0.1275035019
 40
0.1909230262
 40
0.2541276227
 40
0.3171224329
 40
0.3799159103
 40
0.442518817
 40
0.5049436704
 40
0.567204993
 40
0.6293190716
 40
0.6913037885
 40
0.753178437
 40
0.8149635222
 40
0.8766805516
 40
0.9383517893
 40
1.0
 40
1.0
 40
1.0
 40
1.0
 10
10.4528534891
 20
7.3273561849
 30
0.0
 10
10.4562555679
 20
7.32712025
 30
0.0
 10
10.4630611012
 20
7.3268184651
 30
0.0
 10
10.4732605808
 20
7.3268792162
 30
0.0
 10
10.483409234
 20
7.3274541672
 30
0.0
 10
10.4934809849
 20
7.3285417605
 30
0.0
 10
10.5034507226
 20
7.3301393894
 30
0.0
 10
10.5132932729
 20
7.3322430106
 30
0.0
 10
10.5229838665
 20
7.3348473403
 30
0.0
 10
10.5324980903
 20
7.3379458829
 30
0.0
 10
10.5418119718
 20
7.3415308557
 30
0.0
 10
10.5509020569
 20
7.3455932255
 30
0.0
 10
10.5597454407
 20
7.3501227801
 30
0.0
 10
10.5683198269
 20
7.3551081591
 30
0.0
 10
10.5766035926
 20
7.360536783
 30
0.0
 10
10.5845759429
 20
7.3663950395
 30
0.0
 10
10.5922165203
 20
7.3726679142
 30
0.0
 10
10.5970771587
 20
7.3771166696
 30
0.0
 10
10.5994450196
 20
7.3794038355
 30
0.0
  0
SPLINE
  5
356
100
AcDbEntity
  8
0
100
AcDbSpline
 62
7
  6
CONTINUOUS
 70
0
 71
3
 72
23
 73
19
 74
0
 42
0.0000001
 43
0.0000001
 44
0.0000000001
 40
0.0
 40
0.0
 40
0.0
 40
0.0
 40
0.0755961246
 40
0.1466389607
 40
0.2134646537
 40
0.2765132518
 40
0.3363252536
 40
0.3935454084
 40
0.448921428
 40
0.5032863451
 40
0.557524168
 40
0.6125254889
 40
0.6691415402
 40
0.7281473128
 40
0.7902179894
 40
0.8559226124
 40
0.9257258744
 40
1.0
 40
1.0
 40
1.0
 40
1.0
 10
12.2074073544
 20
7.334735556
 30
0.0
 10
12.2066291564
 20
7.3339838745
 30
0.0
 10
12.2050737889
 20
7.3325719838
 30
0.0
 10
12.2026667048
 20
7.3306857819
 30
0.0
 10
12.2002624378
 20
7.3291016416
 30
0.0
 10
12.1978632077
 20
7.3278219503
 30
0.0
 10
12.1954710156
 20
7.3268490153
 30
0.0
 10
12.193088322
 20
7.3261852402
 30
0.0
 10
12.1907182548
 20
7.3258329488
 30
0.0
 10
12.188364765
 20
7.3257938354
 30
0.0
 10
12.1860323687
 20
7.3260684351
 30
0.0
 10
12.1837256014
 20
7.3266559923
 30
0.0
 10
12.1814483534
 20
7.327554446
 30
0.0
 10
12.1792036868
 20
7.3287612648
 30
0.0
 10
12.1769938177
 20
7.3302735952
 30
0.0
 10
12.1748205928
 20
7.332088897
 30
0.0
 10
12.1726857022
 20
7.3342044172
 30
0.0
 10
12.1713326697
 20
7.335763153
 30
0.0
 10
12.1706619334
 20
7.3365878623
 30
0.0
  0
SPLINE
  5
357
100
AcDbEntity
  8
0
100
AcDbSpline
 62
7
  6
CONTINUOUS
 70
0
 71
3
 72
46
 73
42
 74
0
 42
0.0000001
 43
0.0000001
 44
0.0000000001
 40
0.0
 40
0.0
 40
0.0
 40
0.0
 40
0.0064812122
 40
0.0130000076
 40
0.0195932715
 40
0.0262965408
 40
0.0331434334
 40
0.0401653198
 40
0.0548395295
 40
0.062548329
 40
0.0705311576
 40
0.0788062809
 40
0.0873896937
 40
0.0962951371
 40
0.1055344775
 40
0.1151178306
 40
0.1250536192
 40
0.1353489474
 40
0.1460095935
 40
0.1684422289
 40
0.192378937
 40
0.2178311543
 40
0.2447990338
 40
0.273273407
 40
0.3032372166
 40
0.3346665149
 40
0.367531378
 40
0.4017966883
 40
0.4374226543
 40
0.4743652015
 40
0.5125764803
 40
0.5520052144
 40
0.5925969097
 40
0.6342941429
 40
0.6770368797
 40
0.7207626459
 40
0.7654066226
 40
0.810902145
 40
0.8571804972
 40
0.9041708165
 40
1.0
 40
1.0
 40
1.0
 40
1.0
 10
10.8267963217
 20
10.3518356424
 30
0.0
 10
10.8267963188
 20
10.35259582
 30
0.0
 10
10.8267358643
 20
10.354121263
 30
0.0
 10
10.8264642326
 20
10.356405476
 30
0.0
 10
10.826011736
 20
10.3586874714
 30
0.0
 10
10.8253787305
 20
10.3609659064
 30
0.0
 10
10.8245656691
 20
10.3632398928
 30
0.0
 10
10.8232228099
 20
10.3663089035
 30
0.0
 10
10.8215279295
 20
10.3693246272
 30
0.0
 10
10.8195246028
 20
10.3722707141
 30
0.0
 10
10.8178203082
 20
10.3745079818
 30
0.0
 10
10.81594003
 20
10.3767351193
 30
0.0
 10
10.8138844268
 20
10.3789514775
 30
0.0
 10
10.8116544531
 20
10.3811561795
 30
0.0
 10
10.809251017
 20
10.3833483733
 30
0.0
 10
10.8066751065
 20
10.3855271763
 30
0.0
 10
10.8039278174
 20
10.3876917586
 30
0.0
 10
10.8010102537
 20
10.3898412524
 30
0.0
 10
10.7968233741
 20
10.3927351751
 30
0.0
 10
10.7911601162
 20
10.3963012307
 30
0.0
 10
10.7838176257
 20
10.4004361577
 30
0.0
 10
10.7758290006
 20
10.4044900505
 30
0.0
 10
10.7672074176
 20
10.4084562695
 30
0.0
 10
10.757966877
 20
10.4123283156
 30
0.0
 10
10.7481225608
 20
10.4160997429
 30
0.0
 10
10.7376907036
 20
10.4197642658
 30
0.0
 10
10.7266885784
 20
10.4233157576
 30
0.0
 10
10.7151344356
 20
10.4267482538
 30
0.0
 10
10.7030474789
 20
10.4300559775
 30
0.0
 10
10.6904478359
 20
10.4332333818
 30
0.0
 10
10.6773565056
 20
10.4362751246
 30
0.0
 10
10.6637953176
 20
10.4391760791
 30
0.0
 10
10.6497869055
 20
10.4419313691
 30
0.0
 10
10.6353546633
 20
10.4445363704
 30
0.0
 10
10.6205226944
 20
10.4469866988
 30
0.0
 10
10.6053157825
 20
10.4492782237
 30
0.0
 10
10.5897593321
 20
10.4514071106
 30
0.0
 10
10.5738793596
 20
10.4533697725
 30
0.0
 10
10.5577024213
 20
10.455162919
 30
0.0
 10
10.5356297571
 20
10.4573378199
 30
0.0
 10
10.5189306474
 20
10.4586829484
 30
0.0
 10
10.5077178298
 20
10.45946056
 30
0.0
  0
SPLINE
  5
358
100
AcDbEntity
  8
0
100
AcDbSpline
 62
7
  6
CONTINUOUS
 70
0
 71
3
 72
69
 73
65
 74
0
 42
0.0000001
 43
0.0000001
 44
0.0000000001
 40
0.0
 40
0.0
 40
0.0
 40
0.0
 40
0.0156749348
 40
0.0314027839
 40
0.0471814364
 40
0.0630099721
 40
0.0788860943
 40
0.0948073732
 40
0.1107709045
 40
0.1267734005
 40
0.1428112328
 40
0.1588804529
 40
0.1749768346
 40
0.1910959109
 40
0.2072330173
 40
0.2233833314
 40
0.2395419155
 40
0.2557037586
 40
0.2718638216
 40
0.2880170822
 40
0.3202749255
 40
0.3524475142
 40
0.3684949934
 40
0.3845082673
 40
0.4004836065
 40
0.4164176212
 40
0.4323072962
 40
0.4481500201
 40
0.4639436125
 40
0.4796863462
 40
0.49537697
 40
0.5110147255
 40
0.5265993589
 40
0.5421311273
 40
0.5576108011
 40
0.5730396628
 40
0.5884195007
 40
0.6037525947
 40
0.6190416973
 40
0.634290009
 40
0.649501151
 40
0.6646791309
 40
0.6798283035
 40
0.6949533259
 40
0.71005911
 40
0.725150772
 40
0.7402335794
 40
0.7553128946
 40
0.7703941172
 40
0.7854826259
 40
0.8005837208
 40
0.8157025686
 40
0.8308441477
 40
0.8460131958
 40
0.8612141607
 40
0.8764511552
 40
0.8917279166
 40
0.907047777
 40
0.9224136185
 40
0.9378278587
 40
0.9532924887
 40
0.9688086929
 40
0.9843780614
 40
1.0
 40
1.0
 40
1.0
 40
1.0
 10
10.0727727834
 20
9.3511136147
 30
0.0
 10
10.0683404277
 20
9.3514209996
 30
0.0
 10
10.0594743321
 20
9.3522542562
 30
0.0
 10
10.0462310622
 20
9.3541506211
 30
0.0
 10
10.0330515355
 20
9.3566912476
 30
0.0
 10
10.0199680403
 20
9.3598697877
 30
0.0
 10
10.007011849
 20
9.3636786918
 30
0.0
 10
9.9942142308
 20
9.3681087244
 30
0.0
 10
9.981605968
 20
9.3731491984
 30
0.0
 10
9.9692174104
 20
9.3787879544
 30
0.0
 10
9.9570783745
 20
9.3850113991
 30
0.0
 10
9.9452180799
 20
9.3918045449
 30
0.0
 10
9.933665077
 20
9.3991510337
 30
0.0
 10
9.9224471643
 20
9.407033158
 30
0.0
 10
9.9115913362
 20
9.4154319344
 30
0.0
 10
9.9011237237
 20
9.4243271355
 30
0.0
 10
9.8910695123
 20
9.4336973733
 30
0.0
 10
9.8814529608
 20
9.4435200181
 30
0.0
 10
9.8722970122
 20
9.4537717041
 30
0.0
 10
9.860739884
 20
9.4679705778
 30
0.0
 10
9.8475523014
 20
9.4866620181
 30
0.0
 10
9.8361549512
 20
9.5064618207
 30
0.0
 10
9.8281884854
 20
9.5228392239
 30
0.0
 10
9.822806676
 20
9.5353517104
 30
0.0
 10
9.8180270147
 20
9.5480717606
 30
0.0
 10
9.813860854
 20
9.5609690483
 30
0.0
 10
9.8103182798
 20
9.5740124454
 30
0.0
 10
9.8074078294
 20
9.5871705732
 30
0.0
 10
9.805136541
 20
9.6004117486
 30
0.0
 10
9.8035099227
 20
9.6137040929
 30
0.0
 10
9.8025319223
 20
9.6270155961
 30
0.0
 10
9.8022049123
 20
9.6403141985
 30
0.0
 10
9.8025297095
 20
9.6535678693
 30
0.0
 10
9.803505566
 20
9.6667446811
 30
0.0
 10
9.8051301771
 20
9.6798128842
 30
0.0
 10
9.80739966
 20
9.6927409859
 30
0.0
 10
9.8103085656
 20
9.7054978296
 30
0.0
 10
9.8138499137
 20
9.7180526657
 30
0.0
 10
9.8180152018
 20
9.730375225
 30
0.0
 10
9.8227944312
 20
9.7424357885
 30
0.0
 10
9.8281761024
 20
9.7542052699
 30
0.0
 10
9.8341472526
 20
9.7656552866
 30
0.0
 10
9.8406935034
 20
9.7767582201
 30
0.0
 10
9.8477990892
 20
9.787487284
 30
0.0
 10
9.8554468995
 20
9.7978165852
 30
0.0
 10
9.8636184936
 20
9.8077212056
 30
0.0
 10
9.8722941605
 20
9.817177257
 30
0.0
 10
9.8814529778
 20
9.8261619296
 30
0.0
 10
9.8910728578
 20
9.834653549
 30
0.0
 10
9.9011306041
 20
9.842631624
 30
0.0
 10
9.9116019462
 20
9.8500769234
 30
0.0
 10
9.922461616
 20
9.8569715079
 30
0.0
 10
9.9336834148
 20
9.863298764
 30
0.0
 10
9.9452402743
 20
9.8690434459
 30
0.0
 10
9.9571043224
 20
9.8741917079
 30
0.0
 10
9.9692469378
 20
9.8787311682
 30
0.0
 10
9.9816388334
 20
9.8826509183
 30
0.0
 10
9.9942501293
 20
9.8859415357
 30
0.0
 10
10.0070504181
 20
9.8885951143
 30
0.0
 10
10.0200088669
 20
9.8906052872
 30
0.0
 10
10.0330941598
 20
9.8919672129
 30
0.0
 10
10.0462750025
 20
9.8926777422
 30
0.0
 10
10.0595190662
 20
9.892735069
 30
0.0
 10
10.0683554133
 20
9.8923384552
 30
0.0
 10
10.0727727834
 20
9.8920321095
 30
0.0
  0
SPLINE
  5
359
100
AcDbEntity
  8
0
100
AcDbSpline
 62
7
  6
CONTINUOUS
 70
0
 71
3
 72
53
 73
49
 74
0
 42
0.0000001
 43
0.0000001
 44
0.0000000001
 40
0.0
 40
0.0
 40
0.0
 40
0.0
 40
0.0083901661
 40
0.0173439498
 40
0.0268686935
 40
0.0369669647
 40
0.0476378642
 40
0.0588775821
 40
0.0706796536
 40
0.0830354893
 40
0.0959344068
 40
0.109364142
 40
0.1233107386
 40
0.1377589302
 40
0.1526921245
 40
0.1680925514
 40
0.200217984
 40
0.233974145
 40
0.2691853768
 40
0.3056645326
 40
0.343214818
 40
0.3816315076
 40
0.4207035882
 40
0.4602153562
 40
0.4999479908
 40
0.5396811126
 40
0.5791943391
 40
0.6182688398
 40
0.6566888941
 40
0.6942434642
 40
0.7307277928
 40
0.7659450455
 40
0.7997080279
 40
0.8318410299
 40
0.84724551
 40
0.8621829052
 40
0.8766354646
 40
0.8905865563
 40
0.9040209255
 40
0.9169245893
 40
0.9292852689
 40
0.941092279
 40
0.9523369944
 40
0.9630129549
 40
0.973116262
 40
0.982646074
 40
0.9916049845
 40
1.0
 40
1.0
 40
1.0
 40
1.0
 10
12.1445167703
 20
8.7382681008
 30
0.0
 10
12.1452393569
 20
8.7391520866
 30
0.0
 10
12.1466789145
 20
8.7410241402
 30
0.0
 10
12.1487597853
 20
8.7440320688
 30
0.0
 10
12.1508288405
 20
8.7473260483
 30
0.0
 10
12.1528830601
 20
8.7509012585
 30
0.0
 10
12.1549194839
 20
8.7547525967
 30
0.0
 10
12.1569351225
 20
8.7588744745
 30
0.0
 10
12.1589270493
 20
8.7632608934
 30
0.0
 10
12.1608922781
 20
8.7679054568
 30
0.0
 10
12.1628279505
 20
8.7728013475
 30
0.0
 10
12.164731151
 20
8.7779413852
 30
0.0
 10
12.1665990942
 20
8.7833180025
 30
0.0
 10
12.1684289793
 20
8.7889232818
 30
0.0
 10
12.1702181177
 20
8.794748964
 30
0.0
 10
12.1725790134
 20
8.8029142722
 30
0.0
 10
12.1754002446
 20
8.8136111513
 30
0.0
 10
12.1785373342
 20
8.8270070168
 30
0.0
 10
12.1814531195
 20
8.8410583254
 30
0.0
 10
12.1841302066
 20
8.8556820906
 30
0.0
 10
12.1865526086
 20
8.8707920318
 30
0.0
 10
12.1887058878
 20
8.8862988979
 30
0.0
 10
12.1905772238
 20
8.9021110687
 30
0.0
 10
12.1921554908
 20
8.9181350915
 30
0.0
 10
12.1934313203
 20
8.9342762461
 30
0.0
 10
12.194397157
 20
8.9504391108
 30
0.0
 10
12.1950473047
 20
8.9665281341
 30
0.0
 10
12.1953779583
 20
8.9824482062
 30
0.0
 10
12.1953872288
 20
8.9981052276
 30
0.0
 10
12.1950751581
 20
9.0134066771
 30
0.0
 10
12.1944437172
 20
9.0282621544
 30
0.0
 10
12.1934968211
 20
9.0425839842
 30
0.0
 10
12.1922402346
 20
9.0562875585
 30
0.0
 10
12.1909236898
 20
9.0672741315
 30
0.0
 10
12.1897133933
 20
9.0756894671
 30
0.0
 10
12.1887461671
 20
9.0817081878
 30
0.0
 10
12.1877081564
 20
9.0875143167
 30
0.0
 10
12.1866008657
 20
9.0930993002
 30
0.0
 10
12.1854259896
 20
9.0984549069
 30
0.0
 10
12.1841852327
 20
9.1035732538
 30
0.0
 10
12.1828804913
 20
9.1084468236
 30
0.0
 10
12.1815136636
 20
9.1130684685
 30
0.0
 10
12.180086805
 20
9.1174314346
 30
0.0
 10
12.1786020093
 20
9.1215293732
 30
0.0
 10
12.1770614455
 20
9.1253563328
 30
0.0
 10
12.1754673533
 20
9.1289068647
 30
0.0
 10
12.1738220298
 20
9.1321757382
 30
0.0
 10
12.1726549756
 20
9.1342303174
 30
0.0
 10
12.1720614863
 20
9.1352064527
 30
0.0
  0
SPLINE
  5
35A
100
AcDbEntity
  8
0
100
AcDbSpline
 62
7
  6
CONTINUOUS
 70
0
 71
3
 72
53
 73
49
 74
0
 42
0.0000001
 43
0.0000001
 44
0.0000000001
 40
0.0
 40
0.0
 40
0.0
 40
0.0
 40
0.0083901661
 40
0.0173439498
 40
0.0268686935
 40
0.0369669647
 40
0.0476378642
 40
0.0588775821
 40
0.0706796536
 40
0.0830354893
 40
0.0959344068
 40
0.109364142
 40
0.1233107386
 40
0.1377589302
 40
0.1526921245
 40
0.1680925514
 40
0.200217984
 40
0.233974145
 40
0.2691853768
 40
0.3056645326
 40
0.343214818
 40
0.3816315076
 40
0.4207035882
 40
0.4602153562
 40
0.4999479908
 40
0.5396811126
 40
0.5791943391
 40
0.6182688398
 40
0.6566888941
 40
0.6942434642
 40
0.7307277928
 40
0.7659450455
 40
0.7997080279
 40
0.8318410299
 40
0.84724551
 40
0.8621829052
 40
0.8766354646
 40
0.8905865563
 40
0.9040209255
 40
0.9169245893
 40
0.9292852689
 40
0.941092279
 40
0.9523369944
 40
0.9630129549
 40
0.973116262
 40
0.982646074
 40
0.9916049845
 40
1.0
 40
1.0
 40
1.0
 40
1.0
 10
12.1445167703
 20
7.4101200109
 30
0.0
 10
12.1452393569
 20
7.4110039968
 30
0.0
 10
12.1466789145
 20
7.4128760503
 30
0.0
 10
12.1487597853
 20
7.4158839789
 30
0.0
 10
12.1508288405
 20
7.4191779585
 30
0.0
 10
12.1528830601
 20
7.4227531686
 30
0.0
 10
12.1549194839
 20
7.4266045069
 30
0.0
 10
12.1569351225
 20
7.4307263847
 30
0.0
 10
12.1589270493
 20
7.4351128036
 30
0.0
 10
12.1608922781
 20
7.4397573669
 30
0.0
 10
12.1628279505
 20
7.4446532577
 30
0.0
 10
12.164731151
 20
7.4497932953
 30
0.0
 10
12.1665990942
 20
7.4551699127
 30
0.0
 10
12.1684289793
 20
7.4607751919
 30
0.0
 10
12.1702181177
 20
7.4666008742
 30
0.0
 10
12.1725790134
 20
7.4747661824
 30
0.0
 10
12.1754002446
 20
7.4854630615
 30
0.0
 10
12.1785373342
 20
7.498858927
 30
0.0
 10
12.1814531195
 20
7.5129102356
 30
0.0
 10
12.1841302066
 20
7.5275340008
 30
0.0
 10
12.1865526086
 20
7.542643942
 30
0.0
 10
12.1887058878
 20
7.558150808
 30
0.0
 10
12.1905772238
 20
7.5739629789
 30
0.0
 10
12.1921554908
 20
7.5899870017
 30
0.0
 10
12.1934313203
 20
7.6061281562
 30
0.0
 10
12.194397157
 20
7.622291021
 30
0.0
 10
12.1950473047
 20
7.6383800442
 30
0.0
 10
12.1953779583
 20
7.6543001164
 30
0.0
 10
12.1953872288
 20
7.6699571377
 30
0.0
 10
12.1950751581
 20
7.6852585873
 30
0.0
 10
12.1944437172
 20
7.7001140645
 30
0.0
 10
12.1934968211
 20
7.7144358944
 30
0.0
 10
12.1922402346
 20
7.7281394687
 30
0.0
 10
12.1909236898
 20
7.7391260416
 30
0.0
 10
12.1897133933
 20
7.7475413773
 30
0.0
 10
12.1887461671
 20
7.753560098
 30
0.0
 10
12.1877081564
 20
7.7593662269
 30
0.0
 10
12.1866008657
 20
7.7649512104
 30
0.0
 10
12.1854259896
 20
7.770306817
 30
0.0
 10
12.1841852327
 20
7.775425164
 30
0.0
 10
12.1828804913
 20
7.7802987338
 30
0.0
 10
12.1815136636
 20
7.7849203786
 30
0.0
 10
12.180086805
 20
7.7892833447
 30
0.0
 10
12.1786020093
 20
7.7933812834
 30
0.0
 10
12.1770614455
 20
7.7972082429
 30
0.0
 10
12.1754673533
 20
7.8007587749
 30
0.0
 10
12.1738220298
 20
7.8040276484
 30
0.0
 10
12.1726549756
 20
7.8060822275
 30
0.0
 10
12.1720614863
 20
7.8070583629
 30
0.0
  0
SPLINE
  5
35B
100
AcDbEntity
  8
0
100
AcDbSpline
 62
7
  6
CONTINUOUS
 70
0
 71
3
 72
69
 73
65
 74
0
 42
0.0000001
 43
0.0000001
 44
0.0000000001
 40
0.0
 40
0.0
 40
0.0
 40
0.0
 40
0.0156749348
 40
0.0314027839
 40
0.0471814364
 40
0.0630099721
 40
0.0788860943
 40
0.0948073732
 40
0.1107709045
 40
0.1267734005
 40
0.1428112328
 40
0.1588804529
 40
0.1749768346
 40
0.1910959109
 40
0.2072330173
 40
0.2233833314
 40
0.2395419155
 40
0.2557037586
 40
0.2718638216
 40
0.2880170822
 40
0.3202749255
 40
0.3524475142
 40
0.3684949934
 40
0.3845082673
 40
0.4004836065
 40
0.4164176212
 40
0.4323072962
 40
0.4481500201
 40
0.4639436125
 40
0.4796863462
 40
0.49537697
 40
0.5110147255
 40
0.5265993589
 40
0.5421311273
 40
0.5576108011
 40
0.5730396628
 40
0.5884195007
 40
0.6037525947
 40
0.6190416973
 40
0.634290009
 40
0.649501151
 40
0.6646791309
 40
0.6798283035
 40
0.6949533259
 40
0.71005911
 40
0.725150772
 40
0.7402335794
 40
0.7553128946
 40
0.7703941172
 40
0.7854826259
 40
0.8005837208
 40
0.8157025686
 40
0.8308441477
 40
0.8460131958
 40
0.8612141607
 40
0.8764511552
 40
0.8917279166
 40
0.907047777
 40
0.9224136185
 40
0.9378278587
 40
0.9532924887
 40
0.9688086929
 40
0.9843780614
 40
1.0
 40
1.0
 40
1.0
 40
1.0
 10
10.0727727834
 20
9.8920321095
 30
0.0
 10
10.0772051391
 20
9.8917247246
 30
0.0
 10
10.0860712348
 20
9.890891468
 30
0.0
 10
10.0993145046
 20
9.8889951031
 30
0.0
 10
10.1124940314
 20
9.8864544766
 30
0.0
 10
10.1255775265
 20
9.8832759366
 30
0.0
 10
10.1385337178
 20
9.8794670325
 30
0.0
 10
10.151331336
 20
9.8750369999
 30
0.0
 10
10.1639395989
 20
9.8699965258
 30
0.0
 10
10.1763281564
 20
9.8643577698
 30
0.0
 10
10.1884671923
 20
9.8581343251
 30
0.0
 10
10.200327487
 20
9.8513411793
 30
0.0
 10
10.2118804898
 20
9.8439946906
 30
0.0
 10
10.2230984025
 20
9.8361125662
 30
0.0
 10
10.2339542306
 20
9.8277137898
 30
0.0
 10
10.2444218432
 20
9.8188185888
 30
0.0
 10
10.2544760545
 20
9.8094483509
 30
0.0
 10
10.264092606
 20
9.7996257062
 30
0.0
 10
10.2732485546
 20
9.7893740201
 30
0.0
 10
10.2848056828
 20
9.7751751464
 30
0.0
 10
10.2979932654
 20
9.7564837062
 30
0.0
 10
10.3093906156
 20
9.7366839035
 30
0.0
 10
10.3173570814
 20
9.7203065004
 30
0.0
 10
10.3227388909
 20
9.7077940139
 30
0.0
 10
10.3275185521
 20
9.6950739637
 30
0.0
 10
10.3316847129
 20
9.682176676
 30
0.0
 10
10.3352272871
 20
9.6691332789
 30
0.0
 10
10.3381377375
 20
9.6559751511
 30
0.0
 10
10.3404090258
 20
9.6427339757
 30
0.0
 10
10.3420356442
 20
9.6294416313
 30
0.0
 10
10.3430136445
 20
9.6161301281
 30
0.0
 10
10.3433406546
 20
9.6028315257
 30
0.0
 10
10.3430158573
 20
9.5895778549
 30
0.0
 10
10.3420400008
 20
9.5764010431
 30
0.0
 10
10.3404153897
 20
9.5633328401
 30
0.0
 10
10.3381459069
 20
9.5504047384
 30
0.0
 10
10.3352370012
 20
9.5376478947
 30
0.0
 10
10.3316956531
 20
9.5250930586
 30
0.0
 10
10.327530365
 20
9.5127704993
 30
0.0
 10
10.3227511356
 20
9.5007099358
 30
0.0
 10
10.3173694644
 20
9.4889404543
 30
0.0
 10
10.3113983143
 20
9.4774904376
 30
0.0
 10
10.3048520634
 20
9.4663875042
 30
0.0
 10
10.2977464776
 20
9.4556584402
 30
0.0
 10
10.2900986673
 20
9.445329139
 30
0.0
 10
10.2819270732
 20
9.4354245187
 30
0.0
 10
10.2732514063
 20
9.4259684672
 30
0.0
 10
10.264092589
 20
9.4169837946
 30
0.0
 10
10.254472709
 20
9.4084921752
 30
0.0
 10
10.2444149627
 20
9.4005141003
 30
0.0
 10
10.2339436207
 20
9.3930688009
 30
0.0
 10
10.2230839509
 20
9.3861742163
 30
0.0
 10
10.211862152
 20
9.3798469603
 30
0.0
 10
10.2003052926
 20
9.3741022783
 30
0.0
 10
10.1884412444
 20
9.3689540163
 30
0.0
 10
10.1762986291
 20
9.364414556
 30
0.0
 10
10.1639067335
 20
9.360494806
 30
0.0
 10
10.1512954376
 20
9.3572041885
 30
0.0
 10
10.1384951487
 20
9.3545506099
 30
0.0
 10
10.1255366999
 20
9.352540437
 30
0.0
 10
10.112451407
 20
9.3511785113
 30
0.0
 10
10.0992705644
 20
9.350467982
 30
0.0
 10
10.0860265006
 20
9.3504106553
 30
0.0
 10
10.0771901536
 20
9.3508072691
 30
0.0
 10
10.0727727834
 20
9.3511136147
 30
0.0
  0
SPLINE
  5
35C
100
AcDbEntity
  8
0
100
AcDbSpline
 62
7
  6
CONTINUOUS
 70
0
 71
3
 72
55
 73
51
 74
0
 42
0.0000001
 43
0.0000001
 44
0.0000000001
 40
0.0
 40
0.0
 40
0.0
 40
0.0
 40
0.0528987923
 40
0.1050252447
 40
0.1562616162
 40
0.2064949455
 40
0.2556141677
 40
0.3035122725
 40
0.3500860349
 40
0.3952367117
 40
0.4388704592
 40
0.4808988931
 40
0.5212396918
 40
0.5598172953
 40
0.5965637214
 40
0.6314195591
 40
0.6481232272
 40
0.6643365125
 40
0.6800550856
 40
0.6952753162
 40
0.7099946017
 40
0.7242112683
 40
0.7379247876
 40
0.7511358803
 40
0.7638465891
 40
0.776060606
 40
0.7877832444
 40
0.7990219431
 40
0.8097862519
 40
0.8200884083
 40
0.8299434749
 40
0.8393698842
 40
0.8483897976
 40
0.8570295393
 40
0.8732865042
 40
0.8809916405
 40
0.8884709119
 40
0.8957755199
 40
0.9029607929
 40
0.9100851613
 40
0.9172086928
 40
0.9243914839
 40
0.931692015
 40
0.9391657507
 40
0.9468639634
 40
0.9631035924
 40
0.9717332373
 40
0.9807422332
 40
0.990157064
 40
1.0
 40
1.0
 40
1.0
 40
1.0
 10
10.5171647232
 20
10.5038418762
 30
0.0
 10
10.5245416196
 20
10.5033302867
 30
0.0
 10
10.5391810463
 20
10.5022154458
 30
0.0
 10
10.5609368403
 20
10.5002522133
 30
0.0
 10
10.5822915228
 20
10.498013822
 30
0.0
 10
10.6031929257
 20
10.4955058032
 30
0.0
 10
10.6235902413
 20
10.4927342802
 30
0.0
 10
10.6434337635
 20
10.48970607
 30
0.0
 10
10.6626752062
 20
10.4864285984
 30
0.0
 10
10.6812677489
 20
10.4829099156
 30
0.0
 10
10.6991661802
 20
10.4791586624
 30
0.0
 10
10.7163270126
 20
10.4751840538
 30
0.0
 10
10.7327085792
 20
10.4709958538
 30
0.0
 10
10.7482712216
 20
10.4666043505
 30
0.0
 10
10.7629771401
 20
10.4620203203
 30
0.0
 10
10.7746486551
 20
10.4579941604
 30
0.0
 10
10.7835232791
 20
10.4546771955
 30
0.0
 10
10.7898485882
 20
10.452183686
 30
0.0
 10
10.7959341645
 20
10.4496506232
 30
0.0
 10
10.8017763211
 20
10.4470794784
 30
0.0
 10
10.8073715305
 20
10.4444718528
 30
0.0
 10
10.8127164094
 20
10.4418293047
 30
0.0
 10
10.817807734
 20
10.4391534317
 30
0.0
 10
10.8226424481
 20
10.4364458612
 30
0.0
 10
10.8272176329
 20
10.4337081779
 30
0.0
 10
10.8315305705
 20
10.430942062
 30
0.0
 10
10.835578652
 20
10.4281490831
 30
0.0
 10
10.8393594959
 20
10.4253309394
 30
0.0
 10
10.8428708123
 20
10.4224891899
 30
0.0
 10
10.846110528
 20
10.4196255109
 30
0.0
 10
10.8490766916
 20
10.416741425
 30
0.0
 10
10.8517674244
 20
10.4138386579
 30
0.0
 10
10.854181315
 20
10.4109183048
 30
0.0
 10
10.8569710798
 20
10.4070825734
 30
0.0
 10
10.8592835236
 20
10.4031328157
 30
0.0
 10
10.8610349468
 20
10.399097115
 30
0.0
 10
10.8620411765
 20
10.3961145471
 30
0.0
 10
10.862761992
 20
10.3931250075
 30
0.0
 10
10.8631964778
 20
10.3901305065
 30
0.0
 10
10.8633440369
 20
10.387133483
 30
0.0
 10
10.8632044421
 20
10.3841364221
 30
0.0
 10
10.8627778723
 20
10.3811418238
 30
0.0
 10
10.8620650185
 20
10.3781521059
 30
0.0
 10
10.8610666338
 20
10.3751693299
 30
0.0
 10
10.8593260368
 20
10.3711334745
 30
0.0
 10
10.8570239785
 20
10.3671831322
 30
0.0
 10
10.8542442233
 20
10.3633467569
 30
0.0
 10
10.8518380288
 20
10.3604259249
 30
0.0
 10
10.8491550033
 20
10.3575227116
 30
0.0
 10
10.8472265828
 20
10.3556424989
 30
0.0
 10
10.8462193347
 20
10.3547051526
 30
0.0
  0
SPLINE
  5
35D
100
AcDbEntity
  8
0
100
AcDbSpline
 62
7
  6
CONTINUOUS
 70
0
 71
3
 72
41
 73
37
 74
0
 42
0.0000001
 43
0.0000001
 44
0.0000000001
 40
0.0
 40
0.0
 40
0.0
 40
0.0
 40
0.0311446923
 40
0.0467774567
 40
0.0624475301
 40
0.0938924632
 40
0.1254747944
 40
0.1571823853
 40
0.189000451
 40
0.2209120556
 40
0.2528984126
 40
0.2689156871
 40
0.2849439639
 40
0.3170180427
 40
0.3491033912
 40
0.3811778506
 40
0.4132194723
 40
0.4452069418
 40
0.4771199947
 40
0.5089398185
 40
0.5406494333
 40
0.5722340457
 40
0.6036813695
 40
0.6349819055
 40
0.6661291741
 40
0.6971198935
 40
0.7279540969
 40
0.7586351818
 40
0.7891698869
 40
0.819568192
 40
0.8498431401
 40
0.8800105802
 40
0.9100888351
 40
0.9400983011
 40
0.9700609859
 40
1.0
 40
1.0
 40
1.0
 40
1.0
 10
10.4528534891
 20
7.3273561849
 30
0.0
 10
10.4478766351
 20
7.3277013309
 30
0.0
 10
10.4404170009
 20
7.3284927514
 30
0.0
 10
10.4305397731
 20
7.3300831873
 30
0.0
 10
10.4206782308
 20
7.3320357587
 30
0.0
 10
10.4084500684
 20
7.3351453948
 30
0.0
 10
10.3940325884
 20
7.3399184558
 30
0.0
 10
10.3799292456
 20
7.3457121125
 30
0.0
 10
10.3662155636
 20
7.3524953769
 30
0.0
 10
10.3529648427
 20
7.3602317381
 30
0.0
 10
10.342370628
 20
7.3674363469
 30
0.0
 10
10.3341949931
 20
7.3736327105
 30
0.0
 10
10.3262250151
 20
7.3801137617
 30
0.0
 10
10.3166794295
 20
7.3887244538
 30
0.0
 10
10.3059554043
 20
7.3998138321
 30
0.0
 10
10.2960149184
 20
7.4116043624
 30
0.0
 10
10.2869113266
 20
7.4240329355
 30
0.0
 10
10.2786930889
 20
7.4370333995
 30
0.0
 10
10.2714040869
 20
7.4505364646
 30
0.0
 10
10.2650832367
 20
7.4644701858
 30
0.0
 10
10.2597643237
 20
7.478760311
 30
0.0
 10
10.2554758118
 20
7.4933306796
 30
0.0
 10
10.2522406933
 20
7.508103621
 30
0.0
 10
10.2500763635
 20
7.5230003638
 30
0.0
 10
10.2489945237
 20
7.5379414495
 30
0.0
 10
10.2490011145
 20
7.5528471518
 30
0.0
 10
10.2500962766
 20
7.5676378966
 30
0.0
 10
10.2522743426
 20
7.5822346845
 30
0.0
 10
10.2555238573
 20
7.5965595099
 30
0.0
 10
10.2598276307
 20
7.6105357803
 30
0.0
 10
10.2651628129
 20
7.6240887217
 30
0.0
 10
10.2715010326
 20
7.6371458097
 30
0.0
 10
10.2788084446
 20
7.6496370705
 30
0.0
 10
10.2870462619
 20
7.6614958181
 30
0.0
 10
10.2961696307
 20
7.6726577133
 30
0.0
 10
10.3028126348
 20
7.6795974839
 30
0.0
 10
10.3062619586
 20
7.6829292572
 30
0.0
  0
SPLINE
  5
35E
100
AcDbEntity
  8
0
100
AcDbSpline
 62
7
  6
CONTINUOUS
 70
0
 71
3
 72
15
 73
11
 74
0
 42
0.0000001
 43
0.0000001
 44
0.0000000001
 40
0.0
 40
0.0
 40
0.0
 40
0.0
 40
0.1075974053
 40
0.2205516924
 40
0.3386947326
 40
0.4618373199
 40
0.5897715849
 40
0.7222726618
 40
0.8591001658
 40
1.0
 40
1.0
 40
1.0
 40
1.0
 10
10.609391692
 20
7.6508264964
 30
0.0
 10
10.6068775903
 20
7.6517067157
 30
0.0
 10
10.6016959022
 20
7.6534308522
 30
0.0
 10
10.5936694085
 20
7.6558591971
 30
0.0
 10
10.5852137573
 20
7.6581884393
 30
0.0
 10
10.5763473438
 20
7.6604134407
 30
0.0
 10
10.5670893458
 20
7.6625293316
 30
0.0
 10
10.5574598406
 20
7.6645314661
 30
0.0
 10
10.5474797672
 20
7.6664154576
 30
0.0
 10
10.5407020811
 20
7.6675737148
 30
0.0
 10
10.5372591009
 20
7.6681334902
 30
0.0
  0
SPLINE
  5
35F
100
AcDbEntity
  8
0
100
AcDbSpline
 62
7
  6
CONTINUOUS
 70
0
 71
3
 72
69
 73
65
 74
0
 42
0.0000001
 43
0.0000001
 44
0.0000000001
 40
0.0
 40
0.0
 40
0.0
 40
0.0
 40
0.0156749348
 40
0.0314027839
 40
0.0471814364
 40
0.0630099721
 40
0.0788860943
 40
0.0948073732
 40
0.1107709045
 40
0.1267734005
 40
0.1428112328
 40
0.1588804529
 40
0.1749768346
 40
0.1910959109
 40
0.2072330173
 40
0.2233833314
 40
0.2395419155
 40
0.2557037586
 40
0.2718638216
 40
0.2880170822
 40
0.3202749255
 40
0.3524475142
 40
0.3684949934
 40
0.3845082673
 40
0.4004836065
 40
0.4164176212
 40
0.4323072962
 40
0.4481500201
 40
0.4639436125
 40
0.4796863462
 40
0.49537697
 40
0.5110147255
 40
0.5265993589
 40
0.5421311273
 40
0.5576108011
 40
0.5730396628
 40
0.5884195007
 40
0.6037525947
 40
0.6190416973
 40
0.634290009
 40
0.649501151
 40
0.6646791309
 40
0.6798283035
 40
0.6949533259
 40
0.71005911
 40
0.725150772
 40
0.7402335794
 40
0.7553128946
 40
0.7703941172
 40
0.7854826259
 40
0.8005837208
 40
0.8157025686
 40
0.8308441477
 40
0.8460131958
 40
0.8612141607
 40
0.8764511552
 40
0.8917279166
 40
0.907047777
 40
0.9224136185
 40
0.9378278587
 40
0.9532924887
 40
0.9688086929
 40
0.9843780614
 40
1.0
 40
1.0
 40
1.0
 40
1.0
 10
10.4349949897
 20
7.2434573122
 30
0.0
 10
10.430562634
 20
7.2437646971
 30
0.0
 10
10.4216965384
 20
7.2445979537
 30
0.0
 10
10.4084532685
 20
7.2464943186
 30
0.0
 10
10.3952737418
 20
7.2490349451
 30
0.0
 10
10.3821902466
 20
7.2522134851
 30
0.0
 10
10.3692340554
 20
7.2560223892
 30
0.0
 10
10.3564364371
 20
7.2604524218
 30
0.0
 10
10.3438281743
 20
7.2654928959
 30
0.0
 10
10.3314396167
 20
7.2711316518
 30
0.0
 10
10.3193005808
 20
7.2773550966
 30
0.0
 10
10.3074402862
 20
7.2841482423
 30
0.0
 10
10.2958872833
 20
7.2914947311
 30
0.0
 10
10.2846693706
 20
7.2993768555
 30
0.0
 10
10.2738135425
 20
7.3077756319
 30
0.0
 10
10.26334593
 20
7.3166708329
 30
0.0
 10
10.2532917186
 20
7.3260410708
 30
0.0
 10
10.2436751671
 20
7.3358637155
 30
0.0
 10
10.2345192185
 20
7.3461154015
 30
0.0
 10
10.2229620903
 20
7.3603142752
 30
0.0
 10
10.2097745077
 20
7.3790057155
 30
0.0
 10
10.1983771575
 20
7.3988055181
 30
0.0
 10
10.1904106917
 20
7.4151829213
 30
0.0
 10
10.1850288823
 20
7.4276954078
 30
0.0
 10
10.180249221
 20
7.440415458
 30
0.0
 10
10.1760830603
 20
7.4533127457
 30
0.0
 10
10.1725404861
 20
7.4663561428
 30
0.0
 10
10.1696300357
 20
7.4795142706
 30
0.0
 10
10.1673587473
 20
7.492755446
 30
0.0
 10
10.165732129
 20
7.5060477904
 30
0.0
 10
10.1647541286
 20
7.5193592935
 30
0.0
 10
10.1644271186
 20
7.5326578959
 30
0.0
 10
10.1647519158
 20
7.5459115668
 30
0.0
 10
10.1657277724
 20
7.5590883785
 30
0.0
 10
10.1673523835
 20
7.5721565816
 30
0.0
 10
10.1696218663
 20
7.5850846833
 30
0.0
 10
10.1725307719
 20
7.597841527
 30
0.0
 10
10.17607212
 20
7.6103963631
 30
0.0
 10
10.1802374081
 20
7.6227189224
 30
0.0
 10
10.1850166375
 20
7.6347794859
 30
0.0
 10
10.1903983087
 20
7.6465489674
 30
0.0
 10
10.1963694589
 20
7.6579989841
 30
0.0
 10
10.2029157097
 20
7.6691019175
 30
0.0
 10
10.2100212955
 20
7.6798309815
 30
0.0
 10
10.2176691058
 20
7.6901602826
 30
0.0
 10
10.2258406999
 20
7.700064903
 30
0.0
 10
10.2345163668
 20
7.7095209545
 30
0.0
 10
10.2436751841
 20
7.7185056271
 30
0.0
 10
10.2532950642
 20
7.7269972465
 30
0.0
 10
10.2633528104
 20
7.7349753214
 30
0.0
 10
10.2738241525
 20
7.7424206208
 30
0.0
 10
10.2846838223
 20
7.7493152053
 30
0.0
 10
10.2959056211
 20
7.7556424614
 30
0.0
 10
10.3074624806
 20
7.7613871434
 30
0.0
 10
10.3193265287
 20
7.7665354053
 30
0.0
 10
10.3314691441
 20
7.7710748656
 30
0.0
 10
10.3438610397
 20
7.7749946157
 30
0.0
 10
10.3564723356
 20
7.7782852332
 30
0.0
 10
10.3692726244
 20
7.7809388118
 30
0.0
 10
10.3822310732
 20
7.7829489846
 30
0.0
 10
10.3953163661
 20
7.7843109104
 30
0.0
 10
10.4084972088
 20
7.7850214397
 30
0.0
 10
10.4217412725
 20
7.7850787664
 30
0.0
 10
10.4305776196
 20
7.7846821526
 30
0.0
 10
10.4349949897
 20
7.7843758069
 30
0.0
  0
SPLINE
  5
360
100
AcDbEntity
  8
0
100
AcDbSpline
 62
7
  6
CONTINUOUS
 70
0
 71
3
 72
11
 73
7
 74
0
 42
0.0000001
 43
0.0000001
 44
0.0000000001
 40
0.0
 40
0.0
 40
0.0
 40
0.0
 40
0.2478411102
 40
0.4970625562
 40
0.7477623348
 40
1.0
 40
1.0
 40
1.0
 40
1.0
 10
10.292804243
 20
9.5993313043
 30
0.0
 10
10.2877926566
 20
9.5978318919
 30
0.0
 10
10.2775967964
 20
9.5952871974
 30
0.0
 10
10.261979096
 20
9.5928711041
 30
0.0
 10
10.2461151131
 20
9.5918624558
 30
0.0
 10
10.2354869939
 20
9.5921331472
 30
0.0
 10
10.2301758704
 20
9.5925014749
 30
0.0
  0
SPLINE
  5
361
100
AcDbEntity
  8
0
100
AcDbSpline
 62
7
  6
CONTINUOUS
 70
0
 71
3
 72
10
 73
6
 74
0
 42
0.0000001
 43
0.0000001
 44
0.0000000001
 40
0.0
 40
0.0
 40
0.0
 40
0.0
 40
0.2487673106
 40
0.498550262
 40
1.0
 40
1.0
 40
1.0
 40
1.0
 10
10.5943330818
 20
7.6123373553
 30
0.0
 10
10.5966851563
 20
7.6139501136
 30
0.0
 10
10.6014269209
 20
7.617141537
 30
0.0
 10
10.6110339996
 20
7.6233973673
 30
0.0
 10
10.6183446875
 20
7.6279517603
 30
0.0
 10
10.623255536
 20
7.6309401651
 30
0.0
  0
SPLINE
  5
362
100
AcDbEntity
  8
0
100
AcDbSpline
 62
7
  6
CONTINUOUS
 70
0
 71
3
 72
86
 73
82
 74
0
 42
0.0000001
 43
0.0000001
 44
0.0000000001
 40
0.0
 40
0.0
 40
0.0
 40
0.0
 40
0.0039487674
 40
0.0077209355
 40
0.0113257336
 40
0.0147746617
 40
0.0212567992
 40
0.0243283615
 40
0.0273114634
 40
0.0302283474
 40
0.0331029463
 40
0.0359603569
 40
0.0388261651
 40
0.0417257185
 40
0.0446834111
 40
0.0477221074
 40
0.0508627303
 40
0.0541239774
 40
0.0575223294
 40
0.0610720098
 40
0.0647851791
 40
0.0686721212
 40
0.0727413593
 40
0.0769999812
 40
0.0814536943
 40
0.0861070657
 40
0.0909636836
 40
0.0960261794
 40
0.1012964876
 40
0.1067757995
 40
0.1124647125
 40
0.1183633248
 40
0.1244711751
 40
0.1373102774
 40
0.1509713791
 40
0.1654378435
 40
0.1806885687
 40
0.1966985913
 40
0.2134395426
 40
0.2308800489
 40
0.2489860598
 40
0.2677211165
 40
0.2870465817
 40
0.3069218359
 40
0.3273044875
 40
0.3481505568
 40
0.3694146428
 40
0.3910500793
 40
0.4130090872
 40
0.4577012019
 40
0.5030934579
 40
0.5487792776
 40
0.5943487452
 40
0.6393932599
 40
0.6615929578
 40
0.6835111963
 40
0.7050993657
 40
0.72630983
 40
0.7470960865
 40
0.7674129149
 40
0.7872165371
 40
0.8064647867
 40
0.8251173052
 40
0.8431357374
 40
0.8604839326
 40
0.8771281811
 40
0.8930374915
 40
0.908183938
 40
0.9225430468
 40
0.9360942774
 40
0.9488216435
 40
0.954873172
 40
0.9607153084
 40
0.9663477363
 40
0.9717706546
 40
0.9769848137
 40
0.9819915562
 40
0.9867931175
 40
0.9913924783
 40
0.9957932892
 40
1.0
 40
1.0
 40
1.0
 40
1.0
 10
12.2080921285
 20
9.2044515016
 30
0.0
 10
12.2086697935
 20
9.2049891032
 30
0.0
 10
12.2098246529
 20
9.2060135369
 30
0.0
 10
12.2115965949
 20
9.2074234299
 30
0.0
 10
12.2133669528
 20
9.2086696698
 30
0.0
 10
12.2156751068
 20
9.2100822844
 30
0.0
 10
12.2180300256
 20
9.21120882
 30
0.0
 10
12.2204098557
 20
9.2120002323
 30
0.0
 10
12.2221564702
 20
9.212415762
 30
0.0
 10
12.2238950468
 20
9.21266312
 30
0.0
 10
12.2256243633
 20
9.2127419251
 30
0.0
 10
12.227342956
 20
9.2126519185
 30
0.0
 10
12.2290493715
 20
9.2123932352
 30
0.0
 10
12.2307421714
 20
9.2119661072
 30
0.0
 10
12.2324200536
 20
9.2113711393
 30
0.0
 10
12.2340818544
 20
9.210609022
 30
0.0
 10
12.2357265258
 20
9.2096805209
 30
0.0
 10
12.2373531937
 20
9.2085865442
 30
0.0
 10
12.2389609741
 20
9.2073279051
 30
0.0
 10
12.2405490934
 20
9.2059055452
 30
0.0
 10
12.2421167608
 20
9.2043203929
 30
0.0
 10
12.2436631546
 20
9.2025734127
 30
0.0
 10
12.2451875226
 20
9.2006656907
 30
0.0
 10
12.246689006
 20
9.1985983176
 30
0.0
 10
12.2481668161
 20
9.1963725236
 30
0.0
 10
12.2496201319
 20
9.1939896042
 30
0.0
 10
12.2510480998
 20
9.191450937
 30
0.0
 10
12.2524499463
 20
9.1887580267
 30
0.0
 10
12.2538248144
 20
9.185912435
 30
0.0
 10
12.255171924
 20
9.1829158455
 30
0.0
 10
12.256490481
 20
9.1797700264
 30
0.0
 10
12.2577796947
 20
9.1764768248
 30
0.0
 10
12.2594869871
 20
9.1718140913
 30
0.0
 10
12.2615346159
 20
9.1656258492
 30
0.0
 10
12.2638239825
 20
9.1577641267
 30
0.0
 10
12.2659791888
 20
9.1493662011
 30
0.0
 10
12.267995039
 20
9.1404520388
 30
0.0
 10
12.2698666415
 20
9.1310427317
 30
0.0
 10
12.2715894604
 20
9.1211606619
 30
0.0
 10
12.2731593163
 20
9.1108293665
 30
0.0
 10
12.2745723977
 20
9.1000734861
 30
0.0
 10
12.2758252722
 20
9.0889186945
 30
0.0
 10
12.2769148935
 20
9.0773916377
 30
0.0
 10
12.2778386193
 20
9.0655198686
 30
0.0
 10
12.2785942069
 20
9.0533317757
 30
0.0
 10
12.2791798203
 20
9.0408565074
 30
0.0
 10
12.2795940259
 20
9.0281239119
 30
0.0
 10
12.279835828
 20
9.0151644284
 30
0.0
 10
12.279928005
 20
8.9975210568
 30
0.0
 10
12.2796043092
 20
8.9751299766
 30
0.0
 10
12.278533356
 20
8.9480161491
 30
0.0
 10
12.2767875278
 20
8.9207616225
 30
0.0
 10
12.2743835083
 20
8.8936271283
 30
0.0
 10
12.2718388369
 20
8.8712238959
 30
0.0
 10
12.2694869157
 20
8.853561162
 30
0.0
 10
12.2675831535
 20
8.8405687965
 30
0.0
 10
12.2655357221
 20
8.8277984718
 30
0.0
 10
12.2633495167
 20
8.8152807216
 30
0.0
 10
12.2610297991
 20
8.8030454965
 30
0.0
 10
12.2585821429
 20
8.7911220585
 30
0.0
 10
12.2560124328
 20
8.7795389215
 30
0.0
 10
12.2533268448
 20
8.7683237779
 30
0.0
 10
12.2505318407
 20
8.7575034257
 30
0.0
 10
12.2476341496
 20
8.7471037015
 30
0.0
 10
12.2446407466
 20
8.7371494189
 30
0.0
 10
12.2415588377
 20
8.7276643087
 30
0.0
 10
12.2383958364
 20
8.7186709467
 30
0.0
 10
12.2351593539
 20
8.7101907043
 30
0.0
 10
12.2318571656
 20
8.7022436183
 30
0.0
 10
12.2284971901
 20
8.6948485687
 30
0.0
 10
12.2256092022
 20
8.6890670196
 30
0.0
 10
12.2232705134
 20
8.6847377047
 30
0.0
 10
12.2215366045
 20
8.6816942301
 30
0.0
 10
12.2197942622
 20
8.6788012475
 30
0.0
 10
12.2180445051
 20
8.6760604689
 30
0.0
 10
12.2162884007
 20
8.6734735034
 30
0.0
 10
12.214526927
 20
8.6710418823
 30
0.0
 10
12.2127611191
 20
8.6687669884
 30
0.0
 10
12.2109919353
 20
8.6666501549
 30
0.0
 10
12.2092205208
 20
8.6646927434
 30
0.0
 10
12.2080120092
 20
8.6634676976
 30
0.0
 10
12.2074073544
 20
8.6628836459
 30
0.0
  0
SPLINE
  5
363
100
AcDbEntity
  8
0
100
AcDbSpline
 62
7
  6
CONTINUOUS
 70
0
 71
3
 72
86
 73
82
 74
0
 42
0.0000001
 43
0.0000001
 44
0.0000000001
 40
0.0
 40
0.0
 40
0.0
 40
0.0
 40
0.0039487674
 40
0.0077209355
 40
0.0113257336
 40
0.0147746617
 40
0.0212567992
 40
0.0243283615
 40
0.0273114634
 40
0.0302283474
 40
0.0331029463
 40
0.0359603569
 40
0.0388261651
 40
0.0417257185
 40
0.0446834111
 40
0.0477221074
 40
0.0508627303
 40
0.0541239774
 40
0.0575223294
 40
0.0610720098
 40
0.0647851791
 40
0.0686721212
 40
0.0727413593
 40
0.0769999812
 40
0.0814536943
 40
0.0861070657
 40
0.0909636836
 40
0.0960261794
 40
0.1012964876
 40
0.1067757995
 40
0.1124647125
 40
0.1183633248
 40
0.1244711751
 40
0.1373102774
 40
0.1509713791
 40
0.1654378435
 40
0.1806885687
 40
0.1966985913
 40
0.2134395426
 40
0.2308800489
 40
0.2489860598
 40
0.2677211165
 40
0.2870465817
 40
0.3069218359
 40
0.3273044875
 40
0.3481505568
 40
0.3694146428
 40
0.3910500793
 40
0.4130090872
 40
0.4577012019
 40
0.5030934579
 40
0.5487792776
 40
0.5943487452
 40
0.6393932599
 40
0.6615929578
 40
0.6835111963
 40
0.7050993657
 40
0.72630983
 40
0.7470960865
 40
0.7674129149
 40
0.7872165371
 40
0.8064647867
 40
0.8251173052
 40
0.8431357374
 40
0.8604839326
 40
0.8771281811
 40
0.8930374915
 40
0.908183938
 40
0.9225430468
 40
0.9360942774
 40
0.9488216435
 40
0.954873172
 40
0.9607153084
 40
0.9663477363
 40
0.9717706546
 40
0.9769848137
 40
0.9819915562
 40
0.9867931175
 40
0.9913924783
 40
0.9957932892
 40
1.0
 40
1.0
 40
1.0
 40
1.0
 10
12.2080921285
 20
7.8763034118
 30
0.0
 10
12.2086697935
 20
7.8768410133
 30
0.0
 10
12.2098246529
 20
7.877865447
 30
0.0
 10
12.2115965949
 20
7.8792753401
 30
0.0
 10
12.2133669528
 20
7.88052158
 30
0.0
 10
12.2156751068
 20
7.8819341946
 30
0.0
 10
12.2180300256
 20
7.8830607302
 30
0.0
 10
12.2204098557
 20
7.8838521425
 30
0.0
 10
12.2221564702
 20
7.8842676721
 30
0.0
 10
12.2238950468
 20
7.8845150301
 30
0.0
 10
12.2256243633
 20
7.8845938353
 30
0.0
 10
12.227342956
 20
7.8845038287
 30
0.0
 10
12.2290493715
 20
7.8842451453
 30
0.0
 10
12.2307421714
 20
7.8838180173
 30
0.0
 10
12.2324200536
 20
7.8832230495
 30
0.0
 10
12.2340818544
 20
7.8824609322
 30
0.0
 10
12.2357265258
 20
7.8815324311
 30
0.0
 10
12.2373531937
 20
7.8804384543
 30
0.0
 10
12.2389609741
 20
7.8791798152
 30
0.0
 10
12.2405490934
 20
7.8777574553
 30
0.0
 10
12.2421167608
 20
7.876172303
 30
0.0
 10
12.2436631546
 20
7.8744253229
 30
0.0
 10
12.2451875226
 20
7.8725176009
 30
0.0
 10
12.246689006
 20
7.8704502278
 30
0.0
 10
12.2481668161
 20
7.8682244337
 30
0.0
 10
12.2496201319
 20
7.8658415143
 30
0.0
 10
12.2510480998
 20
7.8633028472
 30
0.0
 10
12.2524499463
 20
7.8606099368
 30
0.0
 10
12.2538248144
 20
7.8577643451
 30
0.0
 10
12.255171924
 20
7.8547677556
 30
0.0
 10
12.256490481
 20
7.8516219366
 30
0.0
 10
12.2577796947
 20
7.848328735
 30
0.0
 10
12.2594869871
 20
7.8436660014
 30
0.0
 10
12.2615346159
 20
7.8374777594
 30
0.0
 10
12.2638239825
 20
7.8296160368
 30
0.0
 10
12.2659791888
 20
7.8212181113
 30
0.0
 10
12.267995039
 20
7.8123039489
 30
0.0
 10
12.2698666415
 20
7.8028946418
 30
0.0
 10
12.2715894604
 20
7.7930125721
 30
0.0
 10
12.2731593163
 20
7.7826812766
 30
0.0
 10
12.2745723977
 20
7.7719253963
 30
0.0
 10
12.2758252722
 20
7.7607706046
 30
0.0
 10
12.2769148935
 20
7.7492435479
 30
0.0
 10
12.2778386193
 20
7.7373717787
 30
0.0
 10
12.2785942069
 20
7.7251836858
 30
0.0
 10
12.2791798203
 20
7.7127084175
 30
0.0
 10
12.2795940259
 20
7.699975822
 30
0.0
 10
12.279835828
 20
7.6870163386
 30
0.0
 10
12.279928005
 20
7.669372967
 30
0.0
 10
12.2796043092
 20
7.6469818868
 30
0.0
 10
12.278533356
 20
7.6198680592
 30
0.0
 10
12.2767875278
 20
7.5926135327
 30
0.0
 10
12.2743835083
 20
7.5654790385
 30
0.0
 10
12.2718388369
 20
7.543075806
 30
0.0
 10
12.2694869157
 20
7.5254130722
 30
0.0
 10
12.2675831535
 20
7.5124207067
 30
0.0
 10
12.2655357221
 20
7.4996503819
 30
0.0
 10
12.2633495167
 20
7.4871326317
 30
0.0
 10
12.2610297991
 20
7.4748974066
 30
0.0
 10
12.2585821429
 20
7.4629739686
 30
0.0
 10
12.2560124328
 20
7.4513908317
 30
0.0
 10
12.2533268448
 20
7.440175688
 30
0.0
 10
12.2505318407
 20
7.4293553358
 30
0.0
 10
12.2476341496
 20
7.4189556116
 30
0.0
 10
12.2446407466
 20
7.4090013291
 30
0.0
 10
12.2415588377
 20
7.3995162189
 30
0.0
 10
12.2383958364
 20
7.3905228568
 30
0.0
 10
12.2351593539
 20
7.3820426145
 30
0.0
 10
12.2318571656
 20
7.3740955284
 30
0.0
 10
12.2284971901
 20
7.3667004788
 30
0.0
 10
12.2256092022
 20
7.3609189297
 30
0.0
 10
12.2232705134
 20
7.3565896149
 30
0.0
 10
12.2215366045
 20
7.3535461403
 30
0.0
 10
12.2197942622
 20
7.3506531577
 30
0.0
 10
12.2180445051
 20
7.347912379
 30
0.0
 10
12.2162884007
 20
7.3453254135
 30
0.0
 10
12.214526927
 20
7.3428937924
 30
0.0
 10
12.2127611191
 20
7.3406188986
 30
0.0
 10
12.2109919353
 20
7.338502065
 30
0.0
 10
12.2092205208
 20
7.3365446535
 30
0.0
 10
12.2080120092
 20
7.3353196077
 30
0.0
 10
12.2074073544
 20
7.334735556
 30
0.0
  0
SPLINE
  5
364
100
AcDbEntity
  8
0
100
AcDbSpline
 62
7
  6
CONTINUOUS
 70
0
 71
3
 72
69
 73
65
 74
0
 42
0.0000001
 43
0.0000001
 44
0.0000000001
 40
0.0
 40
0.0
 40
0.0
 40
0.0
 40
0.0156749348
 40
0.0314027839
 40
0.0471814364
 40
0.0630099721
 40
0.0788860943
 40
0.0948073732
 40
0.1107709045
 40
0.1267734005
 40
0.1428112328
 40
0.1588804529
 40
0.1749768346
 40
0.1910959109
 40
0.2072330173
 40
0.2233833314
 40
0.2395419155
 40
0.2557037586
 40
0.2718638216
 40
0.2880170822
 40
0.3202749255
 40
0.3524475142
 40
0.3684949934
 40
0.3845082673
 40
0.4004836065
 40
0.4164176212
 40
0.4323072962
 40
0.4481500201
 40
0.4639436125
 40
0.4796863462
 40
0.49537697
 40
0.5110147255
 40
0.5265993589
 40
0.5421311273
 40
0.5576108011
 40
0.5730396628
 40
0.5884195007
 40
0.6037525947
 40
0.6190416973
 40
0.634290009
 40
0.649501151
 40
0.6646791309
 40
0.6798283035
 40
0.6949533259
 40
0.71005911
 40
0.725150772
 40
0.7402335794
 40
0.7553128946
 40
0.7703941172
 40
0.7854826259
 40
0.8005837208
 40
0.8157025686
 40
0.8308441477
 40
0.8460131958
 40
0.8612141607
 40
0.8764511552
 40
0.8917279166
 40
0.907047777
 40
0.9224136185
 40
0.9378278587
 40
0.9532924887
 40
0.9688086929
 40
0.9843780614
 40
1.0
 40
1.0
 40
1.0
 40
1.0
 10
10.4349949897
 20
7.7843758069
 30
0.0
 10
10.4394273455
 20
7.784068422
 30
0.0
 10
10.4482934411
 20
7.7832351654
 30
0.0
 10
10.4615367109
 20
7.7813388005
 30
0.0
 10
10.4747162377
 20
7.7787981741
 30
0.0
 10
10.4877997329
 20
7.775619634
 30
0.0
 10
10.5007559241
 20
7.7718107299
 30
0.0
 10
10.5135535423
 20
7.7673806973
 30
0.0
 10
10.5261618052
 20
7.7623402233
 30
0.0
 10
10.5385503628
 20
7.7567014673
 30
0.0
 10
10.5506893987
 20
7.7504780225
 30
0.0
 10
10.5625496933
 20
7.7436848768
 30
0.0
 10
10.5741026962
 20
7.736338388
 30
0.0
 10
10.5853206089
 20
7.7284562637
 30
0.0
 10
10.5961764369
 20
7.7200574872
 30
0.0
 10
10.6066440495
 20
7.7111622862
 30
0.0
 10
10.6166982609
 20
7.7017920483
 30
0.0
 10
10.6263148124
 20
7.6919694036
 30
0.0
 10
10.635470761
 20
7.6817177176
 30
0.0
 10
10.6470278891
 20
7.6675188439
 30
0.0
 10
10.6602154717
 20
7.6488274036
 30
0.0
 10
10.671612822
 20
7.629027601
 30
0.0
 10
10.6795792877
 20
7.6126501978
 30
0.0
 10
10.6849610972
 20
7.6001377113
 30
0.0
 10
10.6897407585
 20
7.5874176611
 30
0.0
 10
10.6939069192
 20
7.5745203734
 30
0.0
 10
10.6974494934
 20
7.5614769763
 30
0.0
 10
10.7003599438
 20
7.5483188485
 30
0.0
 10
10.7026312322
 20
7.5350776731
 30
0.0
 10
10.7042578505
 20
7.5217853288
 30
0.0
 10
10.7052358509
 20
7.5084738256
 30
0.0
 10
10.7055628609
 20
7.4951752232
 30
0.0
 10
10.7052380637
 20
7.4819215523
 30
0.0
 10
10.7042622071
 20
7.4687447406
 30
0.0
 10
10.702637596
 20
7.4556765375
 30
0.0
 10
10.7003681132
 20
7.4427484358
 30
0.0
 10
10.6974592076
 20
7.4299915921
 30
0.0
 10
10.6939178595
 20
7.417436756
 30
0.0
 10
10.6897525714
 20
7.4051141967
 30
0.0
 10
10.684973342
 20
7.3930536332
 30
0.0
 10
10.6795916708
 20
7.3812841518
 30
0.0
 10
10.6736205206
 20
7.369834135
 30
0.0
 10
10.6670742698
 20
7.3587312016
 30
0.0
 10
10.659968684
 20
7.3480021376
 30
0.0
 10
10.6523208736
 20
7.3376728365
 30
0.0
 10
10.6441492795
 20
7.3277682161
 30
0.0
 10
10.6354736127
 20
7.3183121646
 30
0.0
 10
10.6263147954
 20
7.3093274921
 30
0.0
 10
10.6166949153
 20
7.3008358727
 30
0.0
 10
10.6066371691
 20
7.2928577977
 30
0.0
 10
10.596165827
 20
7.2854124983
 30
0.0
 10
10.5853061572
 20
7.2785179138
 30
0.0
 10
10.5740843584
 20
7.2721906577
 30
0.0
 10
10.5625274989
 20
7.2664459757
 30
0.0
 10
10.5506634508
 20
7.2612977138
 30
0.0
 10
10.5385208354
 20
7.2567582535
 30
0.0
 10
10.5261289398
 20
7.2528385034
 30
0.0
 10
10.5135176439
 20
7.2495478859
 30
0.0
 10
10.500717355
 20
7.2468943074
 30
0.0
 10
10.4877589063
 20
7.2448841345
 30
0.0
 10
10.4746736133
 20
7.2435222087
 30
0.0
 10
10.4614927707
 20
7.2428116795
 30
0.0
 10
10.4482487069
 20
7.2427543527
 30
0.0
 10
10.4394123599
 20
7.2431509665
 30
0.0
 10
10.4349949897
 20
7.2434573122
 30
0.0
  0
SPLINE
  5
365
100
AcDbEntity
  8
0
100
AcDbSpline
 62
7
  6
CONTINUOUS
 70
0
 71
3
 72
41
 73
37
 74
0
 42
0.0000001
 43
0.0000001
 44
0.0000000001
 40
0.0
 40
0.0
 40
0.0
 40
0.0
 40
0.0311446923
 40
0.0467774567
 40
0.0624475301
 40
0.0938924632
 40
0.1254747944
 40
0.1571823853
 40
0.189000451
 40
0.2209120556
 40
0.2528984126
 40
0.2689156871
 40
0.2849439639
 40
0.3170180427
 40
0.3491033912
 40
0.3811778506
 40
0.4132194723
 40
0.4452069418
 40
0.4771199947
 40
0.5089398185
 40
0.5406494333
 40
0.5722340457
 40
0.6036813695
 40
0.6349819055
 40
0.6661291741
 40
0.6971198935
 40
0.7279540969
 40
0.7586351818
 40
0.7891698869
 40
0.819568192
 40
0.8498431401
 40
0.8800105802
 40
0.9100888351
 40
0.9400983011
 40
0.9700609859
 40
1.0
 40
1.0
 40
1.0
 40
1.0
 10
10.0906312828
 20
9.4350124875
 30
0.0
 10
10.0856544288
 20
9.4353576335
 30
0.0
 10
10.0781947945
 20
9.436149054
 30
0.0
 10
10.0683175668
 20
9.4377394899
 30
0.0
 10
10.0584560245
 20
9.4396920613
 30
0.0
 10
10.0462278621
 20
9.4428016973
 30
0.0
 10
10.031810382
 20
9.4475747584
 30
0.0
 10
10.0177070392
 20
9.4533684151
 30
0.0
 10
10.0039933573
 20
9.4601516794
 30
0.0
 10
9.9907426363
 20
9.4678880407
 30
0.0
 10
9.9801484217
 20
9.4750926495
 30
0.0
 10
9.9719727868
 20
9.4812890131
 30
0.0
 10
9.9640028088
 20
9.4877700643
 30
0.0
 10
9.9544572231
 20
9.4963807564
 30
0.0
 10
9.9437331979
 20
9.5074701346
 30
0.0
 10
9.9337927121
 20
9.519260665
 30
0.0
 10
9.9246891203
 20
9.5316892381
 30
0.0
 10
9.9164708826
 20
9.5446897021
 30
0.0
 10
9.9091818806
 20
9.5581927671
 30
0.0
 10
9.9028610304
 20
9.5721264884
 30
0.0
 10
9.8975421174
 20
9.5864166136
 30
0.0
 10
9.8932536055
 20
9.6009869821
 30
0.0
 10
9.890018487
 20
9.6157599236
 30
0.0
 10
9.8878541571
 20
9.6306566664
 30
0.0
 10
9.8867723174
 20
9.6455977521
 30
0.0
 10
9.8867789082
 20
9.6605034543
 30
0.0
 10
9.8878740703
 20
9.6752941991
 30
0.0
 10
9.8900521363
 20
9.689890987
 30
0.0
 10
9.893301651
 20
9.7042158124
 30
0.0
 10
9.8976054244
 20
9.7181920828
 30
0.0
 10
9.9029406066
 20
9.7317450243
 30
0.0
 10
9.9092788262
 20
9.7448021123
 30
0.0
 10
9.9165862383
 20
9.7572933731
 30
0.0
 10
9.9248240555
 20
9.7691521206
 30
0.0
 10
9.9339474243
 20
9.7803140159
 30
0.0
 10
9.9405904285
 20
9.7872537865
 30
0.0
 10
9.9440397523
 20
9.7905855597
 30
0.0
  0
SPLINE
  5
366
100
AcDbEntity
  8
0
100
AcDbSpline
 62
7
  6
CONTINUOUS
 70
0
 71
3
 72
62
 73
58
 74
0
 42
0.0000001
 43
0.0000001
 44
0.0000000001
 40
0.0
 40
0.0
 40
0.0
 40
0.0
 40
0.0082489206
 40
0.0160246221
 40
0.0233634771
 40
0.0303108478
 40
0.0369219422
 40
0.0432623294
 40
0.0463556364
 40
0.0494103258
 40
0.0524370832
 40
0.0554469316
 40
0.0584510923
 40
0.0614608576
 40
0.0644874523
 40
0.0675418923
 40
0.0706348737
 40
0.0737766601
 40
0.0802425573
 40
0.0870130053
 40
0.0941484028
 40
0.1016989858
 40
0.1097055145
 40
0.1182003745
 40
0.1272088017
 40
0.1367498552
 40
0.1468375252
 40
0.1574814315
 40
0.1686875356
 40
0.1804587368
 40
0.1927951892
 40
0.2056948176
 40
0.219153478
 40
0.2331652573
 40
0.2477226991
 40
0.2628168568
 40
0.2784375774
 40
0.2945734837
 40
0.3112121464
 40
0.3283401791
 40
0.3459432266
 40
0.3640061589
 40
0.3825130067
 40
0.4207903261
 40
0.460634682
 40
0.5018952114
 40
0.5444128098
 40
0.5880212799
 40
0.6325484203
 40
0.6778170771
 40
0.7236461561
 40
0.7698516149
 40
0.8162474444
 40
0.8626466242
 40
0.9088622395
 40
0.9547078426
 40
1.0
 40
1.0
 40
1.0
 40
1.0
 10
9.9463727154
 20
10.3547057019
 30
0.0
 10
9.9450416269
 20
10.3559444256
 30
0.0
 10
9.9425287396
 20
10.3584312731
 30
0.0
 10
9.9391324534
 20
10.3623089633
 30
0.0
 10
9.9362283009
 20
10.3662169861
 30
0.0
 10
9.9338203076
 20
10.370152034
 30
0.0
 10
9.9319124604
 20
10.3741103254
 30
0.0
 10
9.9307329129
 20
10.377453606
 30
0.0
 10
9.9300522348
 20
10.3801224054
 30
0.0
 10
9.9296720524
 20
10.3821100765
 30
0.0
 10
9.9294183958
 20
10.3840992584
 30
0.0
 10
9.9292912974
 20
10.3860893908
 30
0.0
 10
9.9292908149
 20
10.388079837
 30
0.0
 10
9.929416986
 20
10.3900699721
 30
0.0
 10
9.9296697421
 20
10.3920591716
 30
0.0
 10
9.9300489364
 20
10.3940468124
 30
0.0
 10
9.9305544706
 20
10.3960323477
 30
0.0
 10
9.9314046138
 20
10.3987011887
 30
0.0
 10
9.9327966044
 20
10.4020409846
 30
0.0
 10
9.934953155
 20
10.4059880135
 30
0.0
 10
9.9376078755
 20
10.4099100987
 30
0.0
 10
9.9407568155
 20
10.4138034952
 30
0.0
 10
9.9443960499
 20
10.4176651321
 30
0.0
 10
9.9485214553
 20
10.4214916944
 30
0.0
 10
9.9531286598
 20
10.4252797066
 30
0.0
 10
9.9582128084
 20
10.429025649
 30
0.0
 10
9.9637686439
 20
10.4327258099
 30
0.0
 10
9.9697903673
 20
10.4363764713
 30
0.0
 10
9.9762716716
 20
10.439973883
 30
0.0
 10
9.9832057511
 20
10.4435142396
 30
0.0
 10
9.9905852549
 20
10.4469938407
 30
0.0
 10
9.9984023587
 20
10.4504089349
 30
0.0
 10
10.0066487249
 20
10.4537558781
 30
0.0
 10
10.0153155395
 20
10.4570310752
 30
0.0
 10
10.024393526
 20
10.4602309621
 30
0.0
 10
10.0338729368
 20
10.4633521193
 30
0.0
 10
10.0437435931
 20
10.4663911336
 30
0.0
 10
10.0539948752
 20
10.4693447328
 30
0.0
 10
10.0646157477
 20
10.4722097187
 30
0.0
 10
10.0755947733
 20
10.4749829647
 30
0.0
 10
10.086920112
 20
10.4776614915
 30
0.0
 10
10.0985795692
 20
10.4802423874
 30
0.0
 10
10.1147358997
 20
10.483587203
 30
0.0
 10
10.1356771452
 20
10.4874922712
 30
0.0
 10
10.1616567291
 20
10.4916966144
 30
0.0
 10
10.1886489256
 20
10.4954517739
 30
0.0
 10
10.2165372463
 20
10.4987413698
 30
0.0
 10
10.2452014671
 20
10.5015510234
 30
0.0
 10
10.27451791
 20
10.5038684763
 30
0.0
 10
10.3043600637
 20
10.5056836171
 30
0.0
 10
10.3345991203
 20
10.5069885287
 30
0.0
 10
10.3651045426
 20
10.5077775195
 30
0.0
 10
10.395744631
 20
10.5080471463
 30
0.0
 10
10.4263871093
 20
10.5077962417
 30
0.0
 10
10.4568996516
 20
10.507025889
 30
0.0
 10
10.4871504877
 20
10.5057394732
 30
0.0
 10
10.50720492
 20
10.5045325909
 30
0.0
 10
10.5171647232
 20
10.5038418762
 30
0.0
  0
SPLINE
  5
367
100
AcDbEntity
  8
0
100
AcDbSpline
 62
7
  6
CONTINUOUS
 70
0
 71
3
 72
39
 73
35
 74
0
 42
0.0000001
 43
0.0000001
 44
0.0000000001
 40
0.0
 40
0.0
 40
0.0
 40
0.0
 40
0.030854522
 40
0.0618333119
 40
0.0929313298
 40
0.1241444126
 40
0.1554653992
 40
0.1868862892
 40
0.2183975843
 40
0.2499886639
 40
0.2816478694
 40
0.3133626724
 40
0.3451198397
 40
0.3769056024
 40
0.4087058308
 40
0.4405062131
 40
0.4722924344
 40
0.5040503573
 40
0.5357662018
 40
0.5674267213
 40
0.5990193728
 40
0.6305324807
 40
0.6619553924
 40
0.6932786242
 40
0.7244939953
 40
0.7555947508
 40
0.7865756668
 40
0.8174331375
 40
0.8481652431
 40
0.8787717962
 40
0.9092543653
 40
0.9396162737
 40
0.9698625748
 40
1.0
 40
1.0
 40
1.0
 40
1.0
 10
10.2301758704
 20
9.5925014749
 30
0.0
 10
10.2266052899
 20
9.5927490955
 30
0.0
 10
10.2194626274
 20
9.5934561779
 30
0.0
 10
10.2088093161
 20
9.5951420668
 30
0.0
 10
10.1982302848
 20
9.5974496921
 30
0.0
 10
10.187762924
 20
9.6003708066
 30
0.0
 10
10.1774434675
 20
9.6038953048
 30
0.0
 10
10.1673078875
 20
9.6080108296
 30
0.0
 10
10.1573914354
 20
9.6127030485
 30
0.0
 10
10.1477286201
 20
9.617955599
 30
0.0
 10
10.1383530589
 20
9.623750179
 30
0.0
 10
10.1292973682
 20
9.6300666001
 30
0.0
 10
10.120593052
 20
9.6368828662
 30
0.0
 10
10.1122703931
 20
9.6441752475
 30
0.0
 10
10.1043583489
 20
9.6519183625
 30
0.0
 10
10.0968844518
 20
9.660085266
 30
0.0
 10
10.0898747146
 20
9.668647542
 30
0.0
 10
10.0833535383
 20
9.6775753997
 30
0.0
 10
10.0773436222
 20
9.6868377739
 30
0.0
 10
10.0718658928
 20
9.6964024385
 30
0.0
 10
10.0669394302
 20
9.7062361166
 30
0.0
 10
10.0625814027
 20
9.7163045952
 30
0.0
 10
10.0588070071
 20
9.7265728428
 30
0.0
 10
10.0556294156
 20
9.7370051296
 30
0.0
 10
10.0530597309
 20
9.7475651514
 30
0.0
 10
10.051106937
 20
9.7582161517
 30
0.0
 10
10.0497778745
 20
9.7689210527
 30
0.0
 10
10.0490772187
 20
9.7796425831
 30
0.0
 10
10.0490074596
 20
9.790343403
 30
0.0
 10
10.0495688983
 20
9.8009862476
 30
0.0
 10
10.050759623
 20
9.8115339987
 30
0.0
 10
10.0525755919
 20
9.8219500271
 30
0.0
 10
10.0550103548
 20
9.8321975245
 30
0.0
 10
10.0570443478
 20
9.8389057155
 30
0.0
 10
10.0581613632
 20
9.8422184336
 30
0.0
  0
SPLINE
  5
368
100
AcDbEntity
  8
0
100
AcDbSpline
 62
7
  6
CONTINUOUS
 70
0
 71
3
 72
53
 73
49
 74
0
 42
0.0000001
 43
0.0000001
 44
0.0000000001
 40
0.0
 40
0.0
 40
0.0
 40
0.0
 40
0.0055575358
 40
0.011177956
 40
0.0169218929
 40
0.0228457725
 40
0.029000554
 40
0.035430949
 40
0.0421754072
 40
0.049266247
 40
0.0567303126
 40
0.0645894103
 40
0.0728611106
 40
0.0815591386
 40
0.090694095
 40
0.1002736988
 40
0.1103033831
 40
0.1207863988
 40
0.1317243026
 40
0.1431169581
 40
0.1549629446
 40
0.1672594886
 40
0.1800028167
 40
0.1931880432
 40
0.2068094834
 40
0.2208605141
 40
0.2353338579
 40
0.2502214288
 40
0.2655145942
 40
0.2812040135
 40
0.3137310911
 40
0.3477184295
 40
0.3830735502
 40
0.4196973681
 40
0.4574849444
 40
0.496326165
 40
0.5361063668
 40
0.5767069288
 40
0.6180058371
 40
0.6598782328
 40
0.7021969483
 40
0.7448330351
 40
0.7876562859
 40
0.8305357554
 40
0.8733402739
 40
0.9159389748
 40
0.958201786
 40
1.0
 40
1.0
 40
1.0
 40
1.0
 10
9.9657963239
 20
10.3518356424
 30
0.0
 10
9.9657963198
 20
10.3529006156
 30
0.0
 10
9.9659155864
 20
10.3550444641
 30
0.0
 10
9.9664506987
 20
10.3582488044
 30
0.0
 10
9.9673412875
 20
10.3614459819
 30
0.0
 10
9.9685854926
 20
10.3646323252
 30
0.0
 10
9.9701813836
 20
10.367805203
 30
0.0
 10
9.9721267049
 20
10.3709622421
 30
0.0
 10
9.9744193415
 20
10.374101209
 30
0.0
 10
9.9770569563
 20
10.3772200606
 30
0.0
 10
9.9800372685
 20
10.3803166224
 30
0.0
 10
9.9833577125
 20
10.3833888181
 30
0.0
 10
9.9870156465
 20
10.3864343765
 30
0.0
 10
9.9910080937
 20
10.3894511217
 30
0.0
 10
9.9953319173
 20
10.3924366976
 30
0.0
 10
9.9999836348
 20
10.395388866
 30
0.0
 10
10.0049595628
 20
10.3983052381
 30
0.0
 10
10.0102556841
 20
10.4011835621
 30
0.0
 10
10.0158677628
 20
10.4040214618
 30
0.0
 10
10.0217912486
 20
10.4068167088
 30
0.0
 10
10.0280213664
 20
10.4095669705
 30
0.0
 10
10.0345530471
 20
10.4122700672
 30
0.0
 10
10.0413809961
 20
10.4149237307
 30
0.0
 10
10.0484996444
 20
10.4175258469
 30
0.0
 10
10.0559032004
 20
10.4200742265
 30
0.0
 10
10.0635856156
 20
10.4225668335
 30
0.0
 10
10.0715406249
 20
10.425001569
 30
0.0
 10
10.0797617203
 20
10.4273764803
 30
0.0
 10
10.088242195
 20
10.4296895858
 30
0.0
 10
10.1000280076
 20
10.4327253114
 30
0.0
 10
10.1153615938
 20
10.4363422435
 30
0.0
 10
10.1344670111
 20
10.4403569003
 30
0.0
 10
10.154429842
 20
10.4440830452
 30
0.0
 10
10.1751847352
 20
10.447508365
 30
0.0
 10
10.1966638561
 20
10.4506215171
 30
0.0
 10
10.2187969142
 20
10.4534122056
 30
0.0
 10
10.2415114611
 20
10.4558712027
 30
0.0
 10
10.2647331176
 20
10.4579903814
 30
0.0
 10
10.2883858278
 20
10.4597627403
 30
0.0
 10
10.3123921106
 20
10.4611824253
 30
0.0
 10
10.3366733171
 20
10.4622447486
 30
0.0
 10
10.361149891
 20
10.4629462027
 30
0.0
 10
10.3857416309
 20
10.4632844723
 30
0.0
 10
10.4103679573
 20
10.4632584405
 30
0.0
 10
10.43494817
 20
10.4628681938
 30
0.0
 10
10.4594017462
 20
10.4621150187
 30
0.0
 10
10.4836484822
 20
10.4610014067
 30
0.0
 10
10.4997273608
 20
10.4600147009
 30
0.0
 10
10.5077178298
 20
10.45946056
 30
0.0
  0
SPLINE
  5
369
100
AcDbEntity
  8
0
100
AcDbSpline
 62
7
  6
CONTINUOUS
 70
0
 71
3
 72
11
 73
7
 74
0
 42
0.0000001
 43
0.0000001
 44
0.0000000001
 40
0.0
 40
0.0
 40
0.0
 40
0.0
 40
0.2401034045
 40
0.4870342798
 40
0.740451701
 40
1.0
 40
1.0
 40
1.0
 40
1.0
 10
10.1189690168
 20
9.8077566302
 30
0.0
 10
10.1234583792
 20
9.8087352581
 30
0.0
 10
10.1325820356
 20
9.8106418365
 30
0.0
 10
10.1464974607
 20
9.8133176378
 30
0.0
 10
10.1608183465
 20
9.815846424
 30
0.0
 10
10.1705093134
 20
9.8174135418
 30
0.0
 10
10.1754178191
 20
9.8181729307
 30
0.0
  0
SPLINE
  5
36A
100
AcDbEntity
  8
0
100
AcDbSpline
 62
7
  6
CONTINUOUS
 70
0
 71
3
 72
39
 73
35
 74
0
 42
0.0000001
 43
0.0000001
 44
0.0000000001
 40
0.0
 40
0.0
 40
0.0
 40
0.0
 40
0.0308220072
 40
0.0617650595
 40
0.092824055
 40
0.1239954221
 40
0.1552724288
 40
0.1866476878
 40
0.2181123948
 40
0.2496566868
 40
0.2812697275
 40
0.3129398465
 40
0.3446546885
 40
0.376401361
 40
0.4081665899
 40
0.4399368787
 40
0.4716986715
 40
0.5034385149
 40
0.5351432181
 40
0.5668000099
 40
0.598396693
 40
0.6299217934
 40
0.6613647073
 40
0.6927158367
 40
0.7239667147
 40
0.7551101204
 40
0.7861401807
 40
0.8170524585
 40
0.8478440286
 40
0.8785135333
 40
0.9090612173
 40
0.9394889433
 40
0.9698001854
 40
1.0
 40
1.0
 40
1.0
 40
1.0
 10
10.2265111693
 20
9.5662623869
 30
0.0
 10
10.2226022057
 20
9.5665334745
 30
0.0
 10
10.214782692
 20
9.5673012541
 30
0.0
 10
10.2031169347
 20
9.5691190612
 30
0.0
 10
10.191528142
 20
9.5715995186
 30
0.0
 10
10.1800551084
 20
9.5747342012
 30
0.0
 10
10.1687354079
 20
9.5785128691
 30
0.0
 10
10.1576064006
 20
9.5829229756
 30
0.0
 10
10.1467047272
 20
9.58794999
 30
0.0
 10
10.1360662969
 20
9.5935773118
 30
0.0
 10
10.1257261421
 20
9.5997863745
 30
0.0
 10
10.1157183144
 20
9.6065567035
 30
0.0
 10
10.1060757712
 20
9.6138659824
 30
0.0
 10
10.0968302698
 20
9.621690126
 30
0.0
 10
10.0880122648
 20
9.6300033601
 30
0.0
 10
10.079650802
 20
9.6387782981
 30
0.0
 10
10.0717734191
 20
9.6479860299
 30
0.0
 10
10.0644060657
 20
9.6575962267
 30
0.0
 10
10.0575730166
 20
9.667577238
 30
0.0
 10
10.0512967936
 20
9.6778961943
 30
0.0
 10
10.0455980921
 20
9.6885191148
 30
0.0
 10
10.0404957113
 20
9.6994110161
 30
0.0
 10
10.0360064785
 20
9.7105360215
 30
0.0
 10
10.0321452092
 20
9.7218574877
 30
0.0
 10
10.0289246576
 20
9.7333381224
 30
0.0
 10
10.0263554747
 20
9.7449401058
 30
0.0
 10
10.0244461727
 20
9.7566252125
 30
0.0
 10
10.0232030982
 20
9.7683549378
 30
0.0
 10
10.0226303907
 20
9.7800906171
 30
0.0
 10
10.0227299868
 20
9.7917935729
 30
0.0
 10
10.0235015977
 20
9.8034251802
 30
0.0
 10
10.0249427749
 20
9.8149472167
 30
0.0
 10
10.0270486693
 20
9.826321154
 30
0.0
 10
10.028894797
 20
9.8337945223
 30
0.0
 10
10.0299261856
 20
9.8374926447
 30
0.0
  0
SPLINE
  5
36B
100
AcDbEntity
  8
0
100
AcDbSpline
 62
7
  6
CONTINUOUS
 70
0
 71
3
 72
11
 73
7
 74
0
 42
0.0000001
 43
0.0000001
 44
0.0000000001
 40
0.0
 40
0.0
 40
0.0
 40
0.0
 40
0.2385231796
 40
0.4849874495
 40
0.7389635885
 40
1.0
 40
1.0
 40
1.0
 40
1.0
 10
10.1198779926
 20
9.8035163396
 30
0.0
 10
10.1247023442
 20
9.804619436
 30
0.0
 10
10.134534559
 20
9.8067632212
 30
0.0
 10
10.149573354
 20
9.8097510823
 30
0.0
 10
10.1651215611
 20
9.8125593928
 30
0.0
 10
10.1756672151
 20
9.8142854026
 30
0.0
 10
10.1810186482
 20
9.8151189411
 30
0.0
  0
SPLINE
  5
36C
100
AcDbEntity
  8
0
100
AcDbSpline
 62
7
  6
CONTINUOUS
 70
0
 71
3
 72
11
 73
7
 74
0
 42
0.0000001
 43
0.0000001
 44
0.0000000001
 40
0.0
 40
0.0
 40
0.0
 40
0.0
 40
0.2352002948
 40
0.4807965685
 40
0.7360073094
 40
1.0
 40
1.0
 40
1.0
 40
1.0
 10
10.1251334424
 20
9.7835227744
 30
0.0
 10
10.1314702551
 20
9.7849880563
 30
0.0
 10
10.1444657568
 20
9.7878048659
 30
0.0
 10
10.1644584257
 20
9.7916265543
 30
0.0
 10
10.1853176598
 20
9.795125955
 30
0.0
 10
10.1995254714
 20
9.7972024357
 30
0.0
 10
10.2067589045
 20
9.7981876315
 30
0.0
  0
SPLINE
  5
36D
100
AcDbEntity
  8
0
100
AcDbSpline
 62
7
  6
CONTINUOUS
 70
0
 71
3
 72
11
 73
7
 74
0
 42
0.0000001
 43
0.0000001
 44
0.0000000001
 40
0.0
 40
0.0
 40
0.0
 40
0.0
 40
0.2434174725
 40
0.491570758
 40
0.7439417094
 40
1.0
 40
1.0
 40
1.0
 40
1.0
 10
10.2157467547
 20
9.6662575985
 30
0.0
 10
10.2216305896
 20
9.6670113789
 30
0.0
 10
10.2335245674
 20
9.6684425692
 30
0.0
 10
10.2515542886
 20
9.6703463456
 30
0.0
 10
10.2699157071
 20
9.6720248889
 30
0.0
 10
10.2822689797
 20
9.6729848968
 30
0.0
 10
10.2884932402
 20
9.6734274014
 30
0.0
  0
SPLINE
  5
36E
100
AcDbEntity
  8
0
100
AcDbSpline
 62
7
  6
CONTINUOUS
 70
0
 71
3
 72
23
 73
19
 74
0
 42
0.0000001
 43
0.0000001
 44
0.0000000001
 40
0.0
 40
0.0
 40
0.0
 40
0.0
 40
0.0638607871
 40
0.1275035019
 40
0.1909230262
 40
0.2541276227
 40
0.3171224329
 40
0.3799159103
 40
0.442518817
 40
0.5049436704
 40
0.567204993
 40
0.6293190716
 40
0.6913037885
 40
0.753178437
 40
0.8149635222
 40
0.8766805516
 40
0.9383517893
 40
1.0
 40
1.0
 40
1.0
 40
1.0
 10
10.0906312828
 20
9.4350124875
 30
0.0
 10
10.0940333616
 20
9.4347765525
 30
0.0
 10
10.1008388949
 20
9.4344747677
 30
0.0
 10
10.1110383745
 20
9.4345355187
 30
0.0
 10
10.1211870276
 20
9.4351104697
 30
0.0
 10
10.1312587786
 20
9.436198063
 30
0.0
 10
10.1412285163
 20
9.437795692
 30
0.0
 10
10.1510710666
 20
9.4398993132
 30
0.0
 10
10.1607616602
 20
9.4425036429
 30
0.0
 10
10.1702758839
 20
9.4456021854
 30
0.0
 10
10.1795897655
 20
9.4491871583
 30
0.0
 10
10.1886798506
 20
9.453249528
 30
0.0
 10
10.1975232344
 20
9.4577790826
 30
0.0
 10
10.2060976206
 20
9.4627644616
 30
0.0
 10
10.2143813863
 20
9.4681930855
 30
0.0
 10
10.2223537365
 20
9.4740513421
 30
0.0
 10
10.229994314
 20
9.4803242168
 30
0.0
 10
10.2348549524
 20
9.4847729722
 30
0.0
 10
10.2372228133
 20
9.4870601381
 30
0.0
  0
SPLINE
  5
36F
100
AcDbEntity
  8
0
100
AcDbSpline
 62
7
  6
CONTINUOUS
 70
0
 71
3
 72
23
 73
19
 74
0
 42
0.0000001
 43
0.0000001
 44
0.0000000001
 40
0.0
 40
0.0
 40
0.0
 40
0.0
 40
0.0755961246
 40
0.1466389607
 40
0.2134646537
 40
0.2765132518
 40
0.3363252536
 40
0.3935454084
 40
0.448921428
 40
0.5032863451
 40
0.557524168
 40
0.6125254889
 40
0.6691415402
 40
0.7281473128
 40
0.7902179894
 40
0.8559226124
 40
0.9257258744
 40
1.0
 40
1.0
 40
1.0
 40
1.0
 10
12.2074073544
 20
8.6628836459
 30
0.0
 10
12.2066291564
 20
8.6621319643
 30
0.0
 10
12.2050737889
 20
8.6607200737
 30
0.0
 10
12.2026667048
 20
8.6588338718
 30
0.0
 10
12.2002624378
 20
8.6572497314
 30
0.0
 10
12.1978632077
 20
8.6559700401
 30
0.0
 10
12.1954710156
 20
8.6549971051
 30
0.0
 10
12.193088322
 20
8.65433333
 30
0.0
 10
12.1907182548
 20
8.6539810386
 30
0.0
 10
12.188364765
 20
8.6539419253
 30
0.0
 10
12.1860323687
 20
8.654216525
 30
0.0
 10
12.1837256014
 20
8.6548040821
 30
0.0
 10
12.1814483534
 20
8.6557025359
 30
0.0
 10
12.1792036868
 20
8.6569093546
 30
0.0
 10
12.1769938177
 20
8.6584216851
 30
0.0
 10
12.1748205928
 20
8.6602369869
 30
0.0
 10
12.1726857022
 20
8.662352507
 30
0.0
 10
12.1713326697
 20
8.6639112429
 30
0.0
 10
12.1706619334
 20
8.6647359522
 30
0.0
  0
SPLINE
  5
370
100
AcDbEntity
  8
0
100
AcDbSpline
 62
7
  6
CONTINUOUS
 70
0
 71
3
 72
11
 73
7
 74
0
 42
0.0000001
 43
0.0000001
 44
0.0000000001
 40
0.0
 40
0.0
 40
0.0
 40
0.0
 40
0.2519353211
 40
0.502552545
 40
0.7518878507
 40
1.0
 40
1.0
 40
1.0
 40
1.0
 10
10.2265111693
 20
9.5662623869
 30
0.0
 10
10.23163302
 20
9.5659071854
 30
0.0
 10
10.241880798
 20
9.5655819599
 30
0.0
 10
10.257202772
 20
9.5662616149
 30
0.0
 10
10.2723502202
 20
9.5681057045
 30
0.0
 10
10.2822998956
 20
9.5701100012
 30
0.0
 10
10.2872135519
 20
9.5713022894
 30
0.0
  0
SPLINE
  5
371
100
AcDbEntity
  8
0
100
AcDbSpline
 62
4
  6
CONTINUOUS
 70
0
 71
3
 72
615
 73
611
 74
0
 42
0.0000001
 43
0.0000001
 44
0.0000000001
 40
0.0
 40
0.0
 40
0.0
 40
0.0
 40
0.0078125
 40
0.015625
 40
0.0234375
 40
0.03125
 40
0.03515625
 40
0.0390625
 40
0.04296875
 40
0.046875
 40
0.05078125
 40
0.052734375
 40
0.0546875
 40
0.056640625
 40
0.0576171875
 40
0.05859375
 40
0.0595703125
 40
0.060546875
 40
0.0610351562
 40
0.0615234375
 40
0.0617675781
 40
0.0620117188
 40
0.0622558594
 40
0.0623779297
 40
0.0624389648
 40
0.0625
 40
0.0625610352
 40
0.0626220703
 40
0.0627441406
 40
0.0629882812
 40
0.0632324219
 40
0.0634765625
 40
0.0639648438
 40
0.064453125
 40
0.0654296875
 40
0.06640625
 40
0.0673828125
 40
0.068359375
 40
0.0703125
 40
0.072265625
 40
0.07421875
 40
0.078125
 40
0.08203125
 40
0.0859375
 40
0.08984375
 40
0.09375
 40
0.09765625
 40
0.1015625
 40
0.10546875
 40
0.109375
 40
0.11328125
 40
0.115234375
 40
0.1171875
 40
0.119140625
 40
0.1201171875
 40
0.12109375
 40
0.1220703125
 40
0.123046875
 40
0.1235351562
 40
0.1240234375
 40
0.1242675781
 40
0.1245117188
 40
0.1247558594
 40
0.1248779297
 40
0.1249389648
 40
0.125
 40
0.1250610352
 40
0.1251220703
 40
0.1252441406
 40
0.1254882812
 40
0.1257324219
 40
0.1259765625
 40
0.1264648438
 40
0.126953125
 40
0.1279296875
 40
0.12890625
 40
0.1298828125
 40
0.130859375
 40
0.1328125
 40
0.134765625
 40
0.13671875
 40
0.140625
 40
0.14453125
 40
0.1484375
 40
0.15234375
 40
0.15625
 40
0.16015625
 40
0.1640625
 40
0.16796875
 40
0.171875
 40
0.17578125
 40
0.177734375
 40
0.1796875
 40
0.181640625
 40
0.1826171875
 40
0.18359375
 40
0.1845703125
 40
0.185546875
 40
0.1860351562
 40
0.1865234375
 40
0.1867675781
 40
0.1870117188
 40
0.1872558594
 40
0.1873779297
 40
0.1874389648
 40
0.1875
 40
0.1875610352
 40
0.1876220703
 40
0.1877441406
 40
0.1879882812
 40
0.1882324219
 40
0.1884765625
 40
0.1889648438
 40
0.189453125
 40
0.1904296875
 40
0.19140625
 40
0.1923828125
 40
0.193359375
 40
0.1953125
 40
0.197265625
 40
0.19921875
 40
0.203125
 40
0.20703125
 40
0.2109375
 40
0.21484375
 40
0.21875
 40
0.22265625
 40
0.2265625
 40
0.23046875
 40
0.234375
 40
0.23828125
 40
0.240234375
 40
0.2421875
 40
0.244140625
 40
0.2451171875
 40
0.24609375
 40
0.2470703125
 40
0.248046875
 40
0.2485351562
 40
0.2490234375
 40
0.2492675781
 40
0.2495117188
 40
0.2497558594
 40
0.2498779297
 40
0.2499389648
 40
0.25
 40
0.2500610352
 40
0.2501220703
 40
0.2502441406
 40
0.2504882812
 40
0.2507324219
 40
0.2509765625
 40
0.2514648438
 40
0.251953125
 40
0.2529296875
 40
0.25390625
 40
0.2548828125
 40
0.255859375
 40
0.2578125
 40
0.259765625
 40
0.26171875
 40
0.265625
 40
0.26953125
 40
0.2734375
 40
0.27734375
 40
0.28125
 40
0.28515625
 40
0.2890625
 40
0.29296875
 40
0.296875
 40
0.30078125
 40
0.302734375
 40
0.3046875
 40
0.306640625
 40
0.3076171875
 40
0.30859375
 40
0.3095703125
 40
0.310546875
 40
0.3110351562
 40
0.3115234375
 40
0.3117675781
 40
0.3120117188
 40
0.3122558594
 40
0.3123779297
 40
0.3124389648
 40
0.3125
 40
0.3125610352
 40
0.3126220703
 40
0.3127441406
 40
0.3129882812
 40
0.3132324219
 40
0.3134765625
 40
0.3139648438
 40
0.314453125
 40
0.3154296875
 40
0.31640625
 40
0.3173828125
 40
0.318359375
 40
0.3203125
 40
0.322265625
 40
0.32421875
 40
0.328125
 40
0.33203125
 40
0.3359375
 40
0.33984375
 40
0.34375
 40
0.34765625
 40
0.3515625
 40
0.35546875
 40
0.359375
 40
0.36328125
 40
0.365234375
 40
0.3671875
 40
0.369140625
 40
0.3701171875
 40
0.37109375
 40
0.3720703125
 40
0.373046875
 40
0.3735351562
 40
0.3740234375
 40
0.3742675781
 40
0.3745117188
 40
0.3747558594
 40
0.3748779297
 40
0.3749389648
 40
0.375
 40
0.3750610352
 40
0.3751220703
 40
0.3752441406
 40
0.3754882812
 40
0.3757324219
 40
0.3759765625
 40
0.3764648438
 40
0.376953125
 40
0.3779296875
 40
0.37890625
 40
0.3798828125
 40
0.380859375
 40
0.3828125
 40
0.384765625
 40
0.38671875
 40
0.390625
 40
0.39453125
 40
0.3984375
 40
0.40234375
 40
0.40625
 40
0.41015625
 40
0.4140625
 40
0.41796875
 40
0.421875
 40
0.42578125
 40
0.427734375
 40
0.4296875
 40
0.431640625
 40
0.4326171875
 40
0.43359375
 40
0.4345703125
 40
0.435546875
 40
0.4360351562
 40
0.4365234375
 40
0.4367675781
 40
0.4370117188
 40
0.4372558594
 40
0.4373779297
 40
0.4374389648
 40
0.4375
 40
0.4375610352
 40
0.4376220703
 40
0.4377441406
 40
0.4379882812
 40
0.4382324219
 40
0.4384765625
 40
0.4389648438
 40
0.439453125
 40
0.4404296875
 40
0.44140625
 40
0.4423828125
 40
0.443359375
 40
0.4453125
 40
0.447265625
 40
0.44921875
 40
0.453125
 40
0.45703125
 40
0.4609375
 40
0.46484375
 40
0.46875
 40
0.47265625
 40
0.4765625
 40
0.48046875
 40
0.484375
 40
0.48828125
 40
0.490234375
 40
0.4921875
 40
0.494140625
 40
0.4951171875
 40
0.49609375
 40
0.4970703125
 40
0.498046875
 40
0.4985351562
 40
0.4990234375
 40
0.4992675781
 40
0.4995117188
 40
0.4997558594
 40
0.4998779297
 40
0.4999389648
 40
0.5
 40
0.5000610352
 40
0.5001220703
 40
0.5002441406
 40
0.5004882812
 40
0.5007324219
 40
0.5009765625
 40
0.5014648438
 40
0.501953125
 40
0.5029296875
 40
0.50390625
 40
0.5048828125
 40
0.505859375
 40
0.5078125
 40
0.509765625
 40
0.51171875
 40
0.515625
 40
0.51953125
 40
0.5234375
 40
0.52734375
 40
0.53125
 40
0.53515625
 40
0.5390625
 40
0.54296875
 40
0.546875
 40
0.55078125
 40
0.552734375
 40
0.5546875
 40
0.556640625
 40
0.5576171875
 40
0.55859375
 40
0.5595703125
 40
0.560546875
 40
0.5610351562
 40
0.5615234375
 40
0.5617675781
 40
0.5620117188
 40
0.5622558594
 40
0.5623779297
 40
0.5624389648
 40
0.5625
 40
0.5625610352
 40
0.5626220703
 40
0.5627441406
 40
0.5629882812
 40
0.5632324219
 40
0.5634765625
 40
0.5639648438
 40
0.564453125
 40
0.5654296875
 40
0.56640625
 40
0.5673828125
 40
0.568359375
 40
0.5703125
 40
0.572265625
 40
0.57421875
 40
0.578125
 40
0.58203125
 40
0.5859375
 40
0.58984375
 40
0.59375
 40
0.59765625
 40
0.6015625
 40
0.60546875
 40
0.609375
 40
0.61328125
 40
0.615234375
 40
0.6171875
 40
0.619140625
 40
0.6201171875
 40
0.62109375
 40
0.6220703125
 40
0.623046875
 40
0.6235351562
 40
0.6240234375
 40
0.6242675781
 40
0.6245117188
 40
0.6247558594
 40
0.6248779297
 40
0.6249389648
 40
0.625
 40
0.6250610352
 40
0.6251220703
 40
0.6252441406
 40
0.6254882812
 40
0.6257324219
 40
0.6259765625
 40
0.6264648438
 40
0.626953125
 40
0.6279296875
 40
0.62890625
 40
0.6298828125
 40
0.630859375
 40
0.6328125
 40
0.634765625
 40
0.63671875
 40
0.640625
 40
0.64453125
 40
0.6484375
 40
0.65234375
 40
0.65625
 40
0.66015625
 40
0.6640625
 40
0.66796875
 40
0.671875
 40
0.67578125
 40
0.677734375
 40
0.6796875
 40
0.681640625
 40
0.6826171875
 40
0.68359375
 40
0.6845703125
 40
0.685546875
 40
0.6860351562
 40
0.6865234375
 40
0.6867675781
 40
0.6870117188
 40
0.6872558594
 40
0.6873779297
 40
0.6874389648
 40
0.6875
 40
0.6875610352
 40
0.6876220703
 40
0.6877441406
 40
0.6879882812
 40
0.6882324219
 40
0.6884765625
 40
0.6889648438
 40
0.689453125
 40
0.6904296875
 40
0.69140625
 40
0.6923828125
 40
0.693359375
 40
0.6953125
 40
0.697265625
 40
0.69921875
 40
0.703125
 40
0.70703125
 40
0.7109375
 40
0.71484375
 40
0.71875
 40
0.72265625
 40
0.7265625
 40
0.73046875
 40
0.734375
 40
0.73828125
 40
0.740234375
 40
0.7421875
 40
0.744140625
 40
0.7451171875
 40
0.74609375
 40
0.7470703125
 40
0.748046875
 40
0.7485351562
 40
0.7490234375
 40
0.7492675781
 40
0.7495117188
 40
0.7497558594
 40
0.7498779297
 40
0.7499389648
 40
0.75
 40
0.7500610352
 40
0.7501220703
 40
0.7502441406
 40
0.7504882812
 40
0.7507324219
 40
0.7509765625
 40
0.7514648438
 40
0.751953125
 40
0.7529296875
 40
0.75390625
 40
0.7548828125
 40
0.755859375
 40
0.7578125
 40
0.759765625
 40
0.76171875
 40
0.765625
 40
0.76953125
 40
0.7734375
 40
0.77734375
 40
0.78125
 40
0.78515625
 40
0.7890625
 40
0.79296875
 40
0.796875
 40
0.80078125
 40
0.802734375
 40
0.8046875
 40
0.806640625
 40
0.8076171875
 40
0.80859375
 40
0.8095703125
 40
0.810546875
 40
0.8110351562
 40
0.8115234375
 40
0.8117675781
 40
0.8120117188
 40
0.8122558594
 40
0.8123779297
 40
0.8124389648
 40
0.8125
 40
0.8125610352
 40
0.8126220703
 40
0.8127441406
 40
0.8129882812
 40
0.8132324219
 40
0.8134765625
 40
0.8139648438
 40
0.814453125
 40
0.8154296875
 40
0.81640625
 40
0.8173828125
 40
0.818359375
 40
0.8203125
 40
0.822265625
 40
0.82421875
 40
0.828125
 40
0.83203125
 40
0.8359375
 40
0.83984375
 40
0.84375
 40
0.84765625
 40
0.8515625
 40
0.85546875
 40
0.859375
 40
0.86328125
 40
0.865234375
 40
0.8671875
 40
0.869140625
 40
0.8701171875
 40
0.87109375
 40
0.8720703125
 40
0.873046875
 40
0.8735351562
 40
0.8740234375
 40
0.8742675781
 40
0.8745117188
 40
0.8747558594
 40
0.8748779297
 40
0.8749389648
 40
0.875
 40
0.8750610352
 40
0.8751220703
 40
0.8752441406
 40
0.8754882812
 40
0.8757324219
 40
0.8759765625
 40
0.8764648438
 40
0.876953125
 40
0.8779296875
 40
0.87890625
 40
0.8798828125
 40
0.880859375
 40
0.8828125
 40
0.884765625
 40
0.88671875
 40
0.890625
 40
0.89453125
 40
0.8984375
 40
0.90234375
 40
0.90625
 40
0.91015625
 40
0.9140625
 40
0.91796875
 40
0.921875
 40
0.92578125
 40
0.927734375
 40
0.9296875
 40
0.931640625
 40
0.9326171875
 40
0.93359375
 40
0.9345703125
 40
0.935546875
 40
0.9360351562
 40
0.9365234375
 40
0.9367675781
 40
0.9370117188
 40
0.9372558594
 40
0.9373779297
 40
0.9374389648
 40
0.9375
 40
0.9375610352
 40
0.9376220703
 40
0.9377441406
 40
0.9379882812
 40
0.9382324219
 40
0.9384765625
 40
0.9389648438
 40
0.939453125
 40
0.9404296875
 40
0.94140625
 40
0.9423828125
 40
0.943359375
 40
0.9453125
 40
0.947265625
 40
0.94921875
 40
0.953125
 40
0.95703125
 40
0.9609375
 40
0.96484375
 40
0.96875
 40
0.9765625
 40
0.984375
 40
0.9921875
 40
1.0
 40
1.0
 40
1.0
 40
1.0
 10
10.0689090799
 20
8.6984158099
 30
0.0
 10
10.0690470492
 20
8.6969991218
 30
0.0
 10
10.0693229878
 20
8.6941657456
 30
0.0
 10
10.0697368958
 20
8.6899156813
 30
0.0
 10
10.0701508037
 20
8.6856656169
 30
0.0
 10
10.070495727
 20
8.6821238967
 30
0.0
 10
10.0707716656
 20
8.6792905204
 30
0.0
 10
10.0709786196
 20
8.6771654883
 30
0.0
 10
10.0711855735
 20
8.6750404561
 30
0.0
 10
10.0713925275
 20
8.672915424
 30
0.0
 10
10.0715649892
 20
8.6711445638
 30
0.0
 10
10.0717029585
 20
8.6697278757
 30
0.0
 10
10.0718064355
 20
8.6686653596
 30
0.0
 10
10.0718926662
 20
8.6677799296
 30
0.0
 10
10.071961651
 20
8.6670715855
 30
0.0
 10
10.0720133893
 20
8.6665403274
 30
0.0
 10
10.0720651286
 20
8.6660090695
 30
0.0
 10
10.0721082414
 20
8.6655663541
 30
0.0
 10
10.072142739
 20
8.6652121828
 30
0.0
 10
10.0721642833
 20
8.6649908236
 30
0.0
 10
10.0721815569
 20
8.6648137411
 30
0.0
 10
10.0721944078
 20
8.6646809158
 30
0.0
 10
10.0722054487
 20
8.6645702707
 30
0.0
 10
10.0722125261
 20
8.6644927354
 30
0.0
 10
10.0722175871
 20
8.6644485603
 30
0.0
 10
10.0722185187
 20
8.6644150605
 30
0.0
 10
10.0722303986
 20
8.6643829693
 30
0.0
 10
10.0722424195
 20
8.6643396896
 30
0.0
 10
10.0722652354
 20
8.6642641792
 30
0.0
 10
10.0722968994
 20
8.6641561874
 30
0.0
 10
10.0723352944
 20
8.6640266485
 30
0.0
 10
10.0723863485
 20
8.663853912
 30
0.0
 10
10.0724502139
 20
8.6636379976
 30
0.0
 10
10.0725523718
 20
8.6632925311
 30
0.0
 10
10.0726800784
 20
8.6628606992
 30
0.0
 10
10.0728333223
 20
8.6623425003
 30
0.0
 10
10.0729865673
 20
8.6618243016
 30
0.0
 10
10.0731908936
 20
8.6611333699
 30
0.0
 10
10.0734463016
 20
8.6602697054
 30
0.0
 10
10.0737527911
 20
8.6592333079
 30
0.0
 10
10.0741614439
 20
8.6578514446
 30
0.0
 10
10.0746722598
 20
8.6561241155
 30
0.0
 10
10.0752852389
 20
8.6540513205
 30
0.0
 10
10.075898218
 20
8.6519785255
 30
0.0
 10
10.0765111971
 20
8.6499057306
 30
0.0
 10
10.0771241762
 20
8.6478329356
 30
0.0
 10
10.0777371553
 20
8.6457601406
 30
0.0
 10
10.0783501344
 20
8.6436873457
 30
0.0
 10
10.0789631135
 20
8.6416145507
 30
0.0
 10
10.0795760925
 20
8.6395417558
 30
0.0
 10
10.0800869085
 20
8.6378144266
 30
0.0
 10
10.0804955612
 20
8.6364325633
 30
0.0
 10
10.0808020507
 20
8.6353961658
 30
0.0
 10
10.0810574587
 20
8.6345325013
 30
0.0
 10
10.0812617851
 20
8.6338415696
 30
0.0
 10
10.0814150297
 20
8.6333233708
 30
0.0
 10
10.0815682752
 20
8.6328051723
 30
0.0
 10
10.0816959768
 20
8.6323733392
 30
0.0
 10
10.0817981449
 20
8.6320278751
 30
0.0
 10
10.0818619843
 20
8.6318119546
 30
0.0
 10
10.0819130917
 20
8.6316392306
 30
0.0
 10
10.081951324
 20
8.6315096538
 30
0.0
 10
10.0819834969
 20
8.6314017804
 30
0.0
 10
10.0820054043
 20
8.6313260586
 30
0.0
 10
10.082018881
 20
8.6312831176
 30
0.0
 10
10.0820262891
 20
8.6312499863
 30
0.0
 10
10.082044016
 20
8.6312203926
 30
0.0
 10
10.0820640524
 20
8.6311797003
 30
0.0
 10
10.0821007933
 20
8.6311090637
 30
0.0
 10
10.0821524034
 20
8.6310078538
 30
0.0
 10
10.0822147108
 20
8.6308865305
 30
0.0
 10
10.0822976563
 20
8.6307247211
 30
0.0
 10
10.0824013831
 20
8.6305224749
 30
0.0
 10
10.0825673208
 20
8.6301988722
 30
0.0
 10
10.0827747516
 20
8.6297943719
 30
0.0
 10
10.0830236648
 20
8.6293089702
 30
0.0
 10
10.083272579
 20
8.6288235689
 30
0.0
 10
10.0836044643
 20
8.628176367
 30
0.0
 10
10.084019321
 20
8.6273673646
 30
0.0
 10
10.084517149
 20
8.6263965618
 30
0.0
 10
10.0851809197
 20
8.625102158
 30
0.0
 10
10.0860106331
 20
8.6234841533
 30
0.0
 10
10.0870062891
 20
8.6215425477
 30
0.0
 10
10.0880019452
 20
8.619600942
 30
0.0
 10
10.0889976012
 20
8.6176593364
 30
0.0
 10
10.0899932572
 20
8.6157177308
 30
0.0
 10
10.0909889133
 20
8.6137761251
 30
0.0
 10
10.0919845693
 20
8.6118345195
 30
0.0
 10
10.0929802254
 20
8.6098929138
 30
0.0
 10
10.0939758814
 20
8.6079513082
 30
0.0
 10
10.0948055948
 20
8.6063333035
 30
0.0
 10
10.0954693655
 20
8.6050388997
 30
0.0
 10
10.0959671935
 20
8.6040680969
 30
0.0
 10
10.0963820501
 20
8.6032590945
 30
0.0
 10
10.0967139355
 20
8.6026118927
 30
0.0
 10
10.0969628494
 20
8.6021264912
 30
0.0
 10
10.0972117641
 20
8.6016410901
 30
0.0
 10
10.0974191901
 20
8.6012365878
 30
0.0
 10
10.0975851376
 20
8.6009129892
 30
0.0
 10
10.0976888395
 20
8.6007107328
 30
0.0
 10
10.097771836
 20
8.6005489442
 30
0.0
 10
10.0978339878
 20
8.6004275575
 30
0.0
 10
10.0978860847
 20
8.600326546
 30
0.0
 10
10.0979219566
 20
8.6002555551
 30
0.0
 10
10.0979433852
 20
8.6002154306
 30
0.0
 10
10.0979568359
 20
8.6001840928
 30
0.0
 10
10.0979803046
 20
8.600157512
 30
0.0
 10
10.0980081018
 20
8.6001204116
 30
0.0
 10
10.0980583751
 20
8.6000562591
 30
0.0
 10
10.0981293428
 20
8.5999642084
 30
0.0
 10
10.0982148684
 20
8.5998539207
 30
0.0
 10
10.0983287753
 20
8.5997068099
 30
0.0
 10
10.0984712025
 20
8.5995229421
 30
0.0
 10
10.0986990617
 20
8.599228742
 30
0.0
 10
10.098983894
 20
8.5988609959
 30
0.0
 10
10.0993256891
 20
8.5984196989
 30
0.0
 10
10.0996674853
 20
8.5979784023
 30
0.0
 10
10.1001232131
 20
8.5973900068
 30
0.0
 10
10.100692873
 20
8.5966545124
 30
0.0
 10
10.1013764649
 20
8.595771919
 30
0.0
 10
10.1022879207
 20
8.594595128
 30
0.0
 10
10.1034272405
 20
8.5931241391
 30
0.0
 10
10.1047944242
 20
8.5913589525
 30
0.0
 10
10.106161608
 20
8.5895937658
 30
0.0
 10
10.1075287917
 20
8.5878285792
 30
0.0
 10
10.1088959754
 20
8.5860633926
 30
0.0
 10
10.1102631592
 20
8.584298206
 30
0.0
 10
10.1116303429
 20
8.5825330193
 30
0.0
 10
10.1129975266
 20
8.5807678327
 30
0.0
 10
10.1143647104
 20
8.5790026461
 30
0.0
 10
10.1155040301
 20
8.5775316572
 30
0.0
 10
10.116415486
 20
8.5763548661
 30
0.0
 10
10.1170990778
 20
8.5754722728
 30
0.0
 10
10.1176687377
 20
8.5747367784
 30
0.0
 10
10.1181244657
 20
8.5741483829
 30
0.0
 10
10.1184662614
 20
8.5737070861
 30
0.0
 10
10.1188080579
 20
8.57326579
 30
0.0
 10
10.1190928862
 20
8.5728980409
 30
0.0
 10
10.1193207536
 20
8.572603847
 30
0.0
 10
10.1194631597
 20
8.5724199634
 30
0.0
 10
10.11957711
 20
8.5722728851
 30
0.0
 10
10.1196625029
 20
8.572162498
 30
0.0
 10
10.1197338857
 20
8.5720707583
 30
0.0
 10
10.119783418
 20
8.5720060507
 30
0.0
 10
10.1198124024
 20
8.5719698397
 30
0.0
 10
10.1198322246
 20
8.5719405271
 30
0.0
 10
10.1198593711
 20
8.5719194494
 30
0.0
 10
10.1198930117
 20
8.5718884734
 30
0.0
 10
10.1199530731
 20
8.5718356037
 30
0.0
 10
10.1200382527
 20
8.5717593759
 30
0.0
 10
10.1201407347
 20
8.5716682021
 30
0.0
 10
10.1202772842
 20
8.5715465323
 30
0.0
 10
10.120448003
 20
8.5713944809
 30
0.0
 10
10.1207211352
 20
8.5711511787
 30
0.0
 10
10.1210625567
 20
8.5708470578
 30
0.0
 10
10.1214722598
 20
8.5704821098
 30
0.0
 10
10.1218819636
 20
8.5701171625
 30
0.0
 10
10.1224282351
 20
8.5696305659
 30
0.0
 10
10.1231110745
 20
8.5690223202
 30
0.0
 10
10.1239304818
 20
8.5682924254
 30
0.0
 10
10.1250230248
 20
8.5673192323
 30
0.0
 10
10.1263887037
 20
8.5661027409
 30
0.0
 10
10.1280275183
 20
8.5646429512
 30
0.0
 10
10.1296663329
 20
8.5631831616
 30
0.0
 10
10.1313051475
 20
8.5617233719
 30
0.0
 10
10.1329439621
 20
8.5602635823
 30
0.0
 10
10.1345827766
 20
8.5588037926
 30
0.0
 10
10.1362215912
 20
8.5573440029
 30
0.0
 10
10.1378604058
 20
8.5558842133
 30
0.0
 10
10.1394992204
 20
8.5544244236
 30
0.0
 10
10.1408648993
 20
8.5532079322
 30
0.0
 10
10.1419574423
 20
8.5522347391
 30
0.0
 10
10.1427768496
 20
8.5515048443
 30
0.0
 10
10.143459689
 20
8.5508965986
 30
0.0
 10
10.1440059606
 20
8.5504100021
 30
0.0
 10
10.1444156641
 20
8.5500450545
 30
0.0
 10
10.1448253682
 20
8.5496801077
 30
0.0
 10
10.1451667865
 20
8.5493759828
 30
0.0
 10
10.1454399252
 20
8.5491326888
 30
0.0
 10
10.1456106275
 20
8.5489806166
 30
0.0
 10
10.1457472109
 20
8.5488589896
 30
0.0
 10
10.1458495894
 20
8.5487676851
 30
0.0
 10
10.1459350929
 20
8.548691866
 30
0.0
 10
10.1459945761
 20
8.5486382667
 30
0.0
 10
10.146029143
 20
8.5486084598
 30
0.0
 10
10.146053444
 20
8.548583791
 30
0.0
 10
10.1460839537
 20
8.5485679661
 30
0.0
 10
10.1461224677
 20
8.5485437814
 30
0.0
 10
10.1461908761
 20
8.5485028954
 30
0.0
 10
10.1462880749
 20
8.5484437355
 30
0.0
 10
10.1464049393
 20
8.5483730652
 30
0.0
 10
10.1465606795
 20
8.5482787258
 30
0.0
 10
10.1467553819
 20
8.5481608401
 30
0.0
 10
10.1470668905
 20
8.5479722014
 30
0.0
 10
10.1474562815
 20
8.5477364103
 30
0.0
 10
10.1479235485
 20
8.547453458
 30
0.0
 10
10.148390816
 20
8.5471705064
 30
0.0
 10
10.1490138393
 20
8.5467932374
 30
0.0
 10
10.1497926184
 20
8.5463216513
 30
0.0
 10
10.1507271532
 20
8.5457557478
 30
0.0
 10
10.1519731997
 20
8.5450012099
 30
0.0
 10
10.1535307579
 20
8.5440580376
 30
0.0
 10
10.1553998276
 20
8.5429262307
 30
0.0
 10
10.1572688974
 20
8.5417944239
 30
0.0
 10
10.1591379672
 20
8.540662617
 30
0.0
 10
10.1610070369
 20
8.5395308102
 30
0.0
 10
10.1628761067
 20
8.5383990034
 30
0.0
 10
10.1647451765
 20
8.5372671965
 30
0.0
 10
10.1666142462
 20
8.5361353897
 30
0.0
 10
10.168483316
 20
8.5350035828
 30
0.0
 10
10.1700408742
 20
8.5340604105
 30
0.0
 10
10.1712869207
 20
8.5333058726
 30
0.0
 10
10.1722214556
 20
8.5327399691
 30
0.0
 10
10.1730002346
 20
8.5322683829
 30
0.0
 10
10.1736232579
 20
8.531891114
 30
0.0
 10
10.1740905252
 20
8.5316081621
 30
0.0
 10
10.174557793
 20
8.5313252112
 30
0.0
 10
10.1749471815
 20
8.5310894157
 30
0.0
 10
10.1752586952
 20
8.5309007861
 30
0.0
 10
10.1754533848
 20
8.5307828773
 30
0.0
 10
10.1756091513
 20
8.5306885851
 30
0.0
 10
10.1757259354
 20
8.5306177706
 30
0.0
 10
10.1758233854
 20
8.5305590619
 30
0.0
 10
10.1758913453
 20
8.5305173706
 30
0.0
 10
10.1759305779
 20
8.5304944762
 30
0.0
 10
10.1759588802
 20
8.5304746877
 30
0.0
 10
10.1759914717
 20
8.5304649056
 30
0.0
 10
10.1760334308
 20
8.5304483724
 30
0.0
 10
10.1761075564
 20
8.5304210655
 30
0.0
 10
10.1762130857
 20
8.5303812056
 30
0.0
 10
10.1763398768
 20
8.5303337375
 30
0.0
 10
10.1765088771
 20
8.5302703196
 30
0.0
 10
10.1767201461
 20
8.5301910908
 30
0.0
 10
10.1770581662
 20
8.5300643004
 30
0.0
 10
10.1774806948
 20
8.5299058206
 30
0.0
 10
10.1779877277
 20
8.5297156414
 30
0.0
 10
10.1784947609
 20
8.5295254632
 30
0.0
 10
10.1791708051
 20
8.5292718918
 30
0.0
 10
10.1800158604
 20
8.5289549277
 30
0.0
 10
10.1810299267
 20
8.5285745708
 30
0.0
 10
10.1823820151
 20
8.5280674282
 30
0.0
 10
10.1840721257
 20
8.5274335
 30
0.0
 10
10.1861002583
 20
8.5266727862
 30
0.0
 10
10.188128391
 20
8.5259120723
 30
0.0
 10
10.1901565236
 20
8.5251513585
 30
0.0
 10
10.1921846563
 20
8.5243906446
 30
0.0
 10
10.1942127889
 20
8.5236299308
 30
0.0
 10
10.1962409216
 20
8.5228692169
 30
0.0
 10
10.1982690543
 20
8.522108503
 30
0.0
 10
10.2002971869
 20
8.5213477892
 30
0.0
 10
10.2019872974
 20
8.520713861
 30
0.0
 10
10.2033393859
 20
8.5202067184
 30
0.0
 10
10.2043534522
 20
8.5198263615
 30
0.0
 10
10.2051985075
 20
8.5195093973
 30
0.0
 10
10.2058745517
 20
8.5192558261
 30
0.0
 10
10.2063815848
 20
8.5190656475
 30
0.0
 10
10.2068886182
 20
8.5188754698
 30
0.0
 10
10.2073111451
 20
8.5187169852
 30
0.0
 10
10.2076491687
 20
8.5185902047
 30
0.0
 10
10.2078604286
 20
8.5185109506
 30
0.0
 10
10.2080294478
 20
8.5184475846
 30
0.0
 10
10.2081561814
 20
8.5183999581
 30
0.0
 10
10.2082618905
 20
8.518360594
 30
0.0
 10
10.2083356949
 20
8.5183324018
 30
0.0
 10
10.2083781687
 20
8.5183172871
 30
0.0
 10
10.2084091794
 20
8.5183031479
 30
0.0
 10
10.2084434189
 20
8.5182997237
 30
0.0
 10
10.2084879453
 20
8.5182914206
 30
0.0
 10
10.2085663912
 20
8.5182786315
 30
0.0
 10
10.2086781825
 20
8.518259451
 30
0.0
 10
10.2088124495
 20
8.5182368241
 30
0.0
 10
10.2089914311
 20
8.5182065187
 30
0.0
 10
10.2092151721
 20
8.5181686837
 30
0.0
 10
10.20957315
 20
8.5181081215
 30
0.0
 10
10.210020625
 20
8.5180324277
 30
0.0
 10
10.2105575938
 20
8.5179415913
 30
0.0
 10
10.2110945629
 20
8.5178507559
 30
0.0
 10
10.2118105217
 20
8.5177296418
 30
0.0
 10
10.2127054702
 20
8.5175782492
 30
0.0
 10
10.2137794084
 20
8.517396578
 30
0.0
 10
10.2152113259
 20
8.5171543499
 30
0.0
 10
10.2170012229
 20
8.5168515646
 30
0.0
 10
10.2191490992
 20
8.5164882223
 30
0.0
 10
10.2212969755
 20
8.51612488
 30
0.0
 10
10.2234448519
 20
8.5157615377
 30
0.0
 10
10.2255927282
 20
8.5153981954
 30
0.0
 10
10.2277406046
 20
8.5150348532
 30
0.0
 10
10.2298884809
 20
8.5146715109
 30
0.0
 10
10.2320363572
 20
8.5143081686
 30
0.0
 10
10.2341842336
 20
8.5139448263
 30
0.0
 10
10.2359741305
 20
8.5136420411
 30
0.0
 10
10.2374060481
 20
8.5133998129
 30
0.0
 10
10.2384799862
 20
8.5132181417
 30
0.0
 10
10.2393749347
 20
8.5130667491
 30
0.0
 10
10.2400908935
 20
8.512945635
 30
0.0
 10
10.2406278626
 20
8.5128547992
 30
0.0
 10
10.2411648316
 20
8.5127639645
 30
0.0
 10
10.2416123061
 20
8.5126882655
 30
0.0
 10
10.241970285
 20
8.512627714
 30
0.0
 10
10.2421940233
 20
8.5125898519
 30
0.0
 10
10.2423730105
 20
8.512559602
 30
0.0
 10
10.2425072605
 20
8.5125368056
 30
0.0
 10
10.242619105
 20
8.5125181551
 30
0.0
 10
10.2426974559
 20
8.5125044199
 30
0.0
 10
10.2427421346
 20
8.5124976328
 30
0.0
 10
10.2427759061
 20
8.512489552
 30
0.0
 10
10.2428086746
 20
8.5124929021
 30
0.0
 10
10.2428527157
 20
8.5124933816
 30
0.0
 10
10.2429296247
 20
8.5124960785
 30
0.0
 10
10.24303958
 20
8.5124989601
 30
0.0
 10
10.2431714898
 20
8.5125028336
 30
0.0
 10
10.2433473823
 20
8.5125078532
 30
0.0
 10
10.2435672436
 20
8.5125141773
 30
0.0
 10
10.243919024
 20
8.5125242681
 30
0.0
 10
10.2443587488
 20
8.5125368912
 30
0.0
 10
10.2448864188
 20
8.5125520348
 30
0.0
 10
10.2454140887
 20
8.5125671795
 30
0.0
 10
10.2461176487
 20
8.512587372
 30
0.0
 10
10.2469970986
 20
8.5126126128
 30
0.0
 10
10.2480524386
 20
8.5126429017
 30
0.0
 10
10.2494595585
 20
8.5126832869
 30
0.0
 10
10.2512184583
 20
8.5127337684
 30
0.0
 10
10.2533291382
 20
8.5127943463
 30
0.0
 10
10.2554398181
 20
8.5128549241
 30
0.0
 10
10.2575504979
 20
8.5129155019
 30
0.0
 10
10.2596611778
 20
8.5129760797
 30
0.0
 10
10.2617718576
 20
8.5130366575
 30
0.0
 10
10.2638825375
 20
8.5130972354
 30
0.0
 10
10.2659932173
 20
8.5131578132
 30
0.0
 10
10.2681038972
 20
8.513218391
 30
0.0
 10
10.2698627971
 20
8.5132688725
 30
0.0
 10
10.271269917
 20
8.5133092578
 30
0.0
 10
10.2723252569
 20
8.5133395467
 30
0.0
 10
10.2732047069
 20
8.5133647874
 30
0.0
 10
10.2739082668
 20
8.5133849801
 30
0.0
 10
10.2744359368
 20
8.5134001243
 30
0.0
 10
10.2749636066
 20
8.5134152696
 30
0.0
 10
10.2754033321
 20
8.5134278874
 30
0.0
 10
10.275755111
 20
8.513437989
 30
0.0
 10
10.2759749762
 20
8.5134442857
 30
0.0
 10
10.2761508607
 20
8.5134493616
 30
0.0
 10
10.2762827948
 20
8.5134530628
 30
0.0
 10
10.2763926742
 20
8.5134564835
 30
0.0
 10
10.2764697186
 20
8.5134582179
 30
0.0
 10
10.2765135427
 20
8.5134602397
 30
0.0
 10
10.2765469779
 20
8.5134588525
 30
0.0
 10
10.2765782453
 20
8.513468564
 30
0.0
 10
10.2766206913
 20
8.5134776413
 30
0.0
 10
10.2766946195
 20
8.5134953303
 30
0.0
 10
10.2768004154
 20
8.5135196573
 30
0.0
 10
10.2769272916
 20
8.5135492534
 30
0.0
 10
10.2770964874
 20
8.5135885738
 30
0.0
 10
10.2773079727
 20
8.5136377726
 30
0.0
 10
10.2776463546
 20
8.5137164637
 30
0.0
 10
10.27806933
 20
8.5138148368
 30
0.0
 10
10.2785769014
 20
8.5139328805
 30
0.0
 10
10.2790844725
 20
8.5140509253
 30
0.0
 10
10.2797612341
 20
8.514208318
 30
0.0
 10
10.2806071861
 20
8.5144050591
 30
0.0
 10
10.2816223284
 20
8.5146411482
 30
0.0
 10
10.2829758516
 20
8.5149559338
 30
0.0
 10
10.2846677555
 20
8.5153494158
 30
0.0
 10
10.2866980402
 20
8.5158215942
 30
0.0
 10
10.2887283249
 20
8.5162937726
 30
0.0
 10
10.2907586097
 20
8.5167659509
 30
0.0
 10
10.2927888944
 20
8.5172381293
 30
0.0
 10
10.2948191791
 20
8.5177103077
 30
0.0
 10
10.2968494638
 20
8.518182486
 30
0.0
 10
10.2988797485
 20
8.5186546644
 30
0.0
 10
10.3009100332
 20
8.5191268428
 30
0.0
 10
10.3026019372
 20
8.5195203248
 30
0.0
 10
10.3039554603
 20
8.5198351103
 30
0.0
 10
10.3049706027
 20
8.5200711995
 30
0.0
 10
10.3058165547
 20
8.5202679405
 30
0.0
 10
10.3064933162
 20
8.5204253334
 30
0.0
 10
10.3070008875
 20
8.5205433777
 30
0.0
 10
10.3075084583
 20
8.5206614231
 30
0.0
 10
10.3079314353
 20
8.5207597911
 30
0.0
 10
10.308269814
 20
8.5208384926
 30
0.0
 10
10.3084813072
 20
8.5208876649
 30
0.0
 10
10.308650487
 20
8.5209270397
 30
0.0
 10
10.3087774123
 20
8.5209564697
 30
0.0
 10
10.3088830545
 20
8.5209813163
 30
0.0
 10
10.308957257
 20
8.5209980777
 30
0.0
 10
10.3089992635
 20
8.5210086413
 30
0.0
 10
10.309031881
 20
8.5210137873
 30
0.0
 10
10.3090602454
 20
8.5210295471
 30
0.0
 10
10.3090995481
 20
8.5210468579
 30
0.0
 10
10.3091676367
 20
8.5210788768
 30
0.0
 10
10.3092652675
 20
8.5211237162
 30
0.0
 10
10.3093822697
 20
8.5211779095
 30
0.0
 10
10.3095383268
 20
8.5212500324
 30
0.0
 10
10.3097333796
 20
8.5213402322
 30
0.0
 10
10.3100454744
 20
8.5214845261
 30
0.0
 10
10.3104355894
 20
8.5216649023
 30
0.0
 10
10.3109037288
 20
8.5218813499
 30
0.0
 10
10.3113718679
 20
8.5220977986
 30
0.0
 10
10.3119960535
 20
8.5223863964
 30
0.0
 10
10.3127762854
 20
8.5227471439
 30
0.0
 10
10.3137125638
 20
8.5231800408
 30
0.0
 10
10.3149609349
 20
8.5237572366
 30
0.0
 10
10.3165213988
 20
8.5244787315
 30
0.0
 10
10.3183939554
 20
8.5253445252
 30
0.0
 10
10.3202665121
 20
8.526210319
 30
0.0
 10
10.3221390688
 20
8.5270761128
 30
0.0
 10
10.3240116254
 20
8.5279419066
 30
0.0
 10
10.3258841821
 20
8.5288077004
 30
0.0
 10
10.3277567387
 20
8.5296734942
 30
0.0
 10
10.3296292954
 20
8.530539288
 30
0.0
 10
10.3315018521
 20
8.5314050818
 30
0.0
 10
10.333062316
 20
8.5321265766
 30
0.0
 10
10.3343106871
 20
8.5327037725
 30
0.0
 10
10.3352469654
 20
8.5331366694
 30
0.0
 10
10.3360271974
 20
8.5334974168
 30
0.0
 10
10.3366513829
 20
8.5337860148
 30
0.0
 10
10.3371195221
 20
8.534002463
 30
0.0
 10
10.3375876609
 20
8.5342189123
 30
0.0
 10
10.3379777782
 20
8.5343992835
 30
0.0
 10
10.3382898683
 20
8.5345435875
 30
0.0
 10
10.338484933
 20
8.5346337616
 30
0.0
 10
10.3386409657
 20
8.5347059371
 30
0.0
 10
10.3387580422
 20
8.5347599697
 30
0.0
 10
10.3388554407
 20
8.534805312
 30
0.0
 10
10.3389239439
 20
8.5348364332
 30
0.0
 10
10.3389625823
 20
8.5348551822
 30
0.0
 10
10.3389929874
 20
8.5348665243
 30
0.0
 10
10.3390179406
 20
8.5348882625
 30
0.0
 10
10.3390531132
 20
8.5349136205
 30
0.0
 10
10.3391137793
 20
8.5349596865
 30
0.0
 10
10.3392009083
 20
8.5350246118
 30
0.0
 10
10.3393052648
 20
8.5351029003
 30
0.0
 10
10.3394444762
 20
8.5352071529
 30
0.0
 10
10.3396184666
 20
8.5353375138
 30
0.0
 10
10.3398968646
 20
8.535546066
 30
0.0
 10
10.3402448575
 20
8.5358067649
 30
0.0
 10
10.3406624509
 20
8.5361195998
 30
0.0
 10
10.3410800438
 20
8.5364324358
 30
0.0
 10
10.3416368346
 20
8.5368495501
 30
0.0
 10
10.3423328229
 20
8.5373709431
 30
0.0
 10
10.343168009
 20
8.5379966146
 30
0.0
 10
10.3442815904
 20
8.5388308433
 30
0.0
 10
10.3456735672
 20
8.5398736291
 30
0.0
 10
10.3473439393
 20
8.5411249721
 30
0.0
 10
10.3490143114
 20
8.5423763152
 30
0.0
 10
10.3506846835
 20
8.5436276582
 30
0.0
 10
10.3523550556
 20
8.5448790012
 30
0.0
 10
10.3540254277
 20
8.5461303443
 30
0.0
 10
10.3556957999
 20
8.5473816873
 30
0.0
 10
10.357366172
 20
8.5486330303
 30
0.0
 10
10.3590365441
 20
8.5498843734
 30
0.0
 10
10.3604285208
 20
8.5509271592
 30
0.0
 10
10.3615421023
 20
8.5517613879
 30
0.0
 10
10.3623772883
 20
8.5523870595
 30
0.0
 10
10.3630732767
 20
8.5529084524
 30
0.0
 10
10.3636300674
 20
8.5533255668
 30
0.0
 10
10.3640476606
 20
8.5536384024
 30
0.0
 10
10.3644652529
 20
8.5539512387
 30
0.0
 10
10.3648132492
 20
8.5542119333
 30
0.0
 10
10.3650916403
 20
8.5544204943
 30
0.0
 10
10.3652656481
 20
8.5545508329
 30
0.0
 10
10.3654048239
 20
8.5546551313
 30
0.0
 10
10.365509289
 20
8.5547332796
 30
0.0
 10
10.3655960783
 20
8.5547986435
 30
0.0
 10
10.3656573508
 20
8.5548439265
 30
0.0
 10
10.3656915518
 20
8.5548705391
 30
0.0
 10
10.3657194897
 20
8.5548884237
 30
0.0
 10
10.3657386847
 20
8.5549142391
 30
0.0
 10
10.3657673278
 20
8.5549458933
 30
0.0
 10
10.3658160322
 20
8.555002577
 30
0.0
 10
10.3658863527
 20
8.5550828799
 30
0.0
 10
10.3659704194
 20
8.5551795318
 30
0.0
 10
10.3660826195
 20
8.5553083002
 30
0.0
 10
10.3662228314
 20
8.5554692953
 30
0.0
 10
10.3664471919
 20
8.5557268681
 30
0.0
 10
10.3667276351
 20
8.5560488407
 30
0.0
 10
10.3670641702
 20
8.556435205
 30
0.0
 10
10.3674007044
 20
8.5568215701
 30
0.0
 10
10.3678494169
 20
8.5573367233
 30
0.0
 10
10.3684103075
 20
8.5579806648
 30
0.0
 10
10.3690833763
 20
8.5587533946
 30
0.0
 10
10.3699808012
 20
8.5597837011
 30
0.0
 10
10.3711025825
 20
8.5610715841
 30
0.0
 10
10.37244872
 20
8.5626170437
 30
0.0
 10
10.3737948575
 20
8.5641625034
 30
0.0
 10
10.3751409949
 20
8.565707963
 30
0.0
 10
10.3764871324
 20
8.5672534227
 30
0.0
 10
10.3778332699
 20
8.5687988823
 30
0.0
 10
10.3791794074
 20
8.570344342
 30
0.0
 10
10.3805255449
 20
8.5718898016
 30
0.0
 10
10.3818716824
 20
8.5734352612
 30
0.0
 10
10.3829934636
 20
8.5747231443
 30
0.0
 10
10.3838908886
 20
8.5757534507
 30
0.0
 10
10.3845639573
 20
8.5765261805
 30
0.0
 10
10.385124848
 20
8.577170122
 30
0.0
 10
10.3855735604
 20
8.5776852753
 30
0.0
 10
10.385910095
 20
8.5780716401
 30
0.0
 10
10.3862466286
 20
8.5784580055
 30
0.0
 10
10.3865270761
 20
8.5787799746
 30
0.0
 10
10.3867514279
 20
8.5790375545
 30
0.0
 10
10.3868916619
 20
8.5791985316
 30
0.0
 10
10.3870038168
 20
8.579327337
 30
0.0
 10
10.3870880213
 20
8.5794238758
 30
0.0
 10
10.3871579107
 20
8.5795045325
 30
0.0
 10
10.3872073849
 20
8.5795605846
 30
0.0
 10
10.3872347945
 20
8.5795932508
 30
0.0
 10
10.387257778
 20
8.5796159578
 30
0.0
 10
10.3872714871
 20
8.5796455168
 30
0.0
 10
10.3872930008
 20
8.5796825388
 30
0.0
 10
10.3873291426
 20
8.5797484408
 30
0.0
 10
10.3873815618
 20
8.5798420043
 30
0.0
 10
10.3874441275
 20
8.5799545297
 30
0.0
 10
10.3875276663
 20
8.5801044765
 30
0.0
 10
10.3876320494
 20
8.5802919399
 30
0.0
 10
10.3877990849
 20
8.5805918646
 30
0.0
 10
10.3880078716
 20
8.5809667762
 30
0.0
 10
10.3882584189
 20
8.5814166676
 30
0.0
 10
10.3885089653
 20
8.5818665597
 30
0.0
 10
10.3888430275
 20
8.5824664156
 30
0.0
 10
10.3892606051
 20
8.5832162356
 30
0.0
 10
10.3897616983
 20
8.5841160196
 30
0.0
 10
10.3904298226
 20
8.5853157315
 30
0.0
 10
10.391264978
 20
8.5868153714
 30
0.0
 10
10.3922671644
 20
8.5886149393
 30
0.0
 10
10.3932693508
 20
8.5904145072
 30
0.0
 10
10.3942715372
 20
8.5922140751
 30
0.0
 10
10.3952737236
 20
8.594013643
 30
0.0
 10
10.39627591
 20
8.5958132109
 30
0.0
 10
10.3972780965
 20
8.5976127788
 30
0.0
 10
10.3982802829
 20
8.5994123467
 30
0.0
 10
10.3992824693
 20
8.6012119146
 30
0.0
 10
10.4001176246
 20
8.6027115546
 30
0.0
 10
10.4007857489
 20
8.6039112665
 30
0.0
 10
10.4012868421
 20
8.6048110505
 30
0.0
 10
10.4017044198
 20
8.6055608704
 30
0.0
 10
10.4020384819
 20
8.6061607264
 30
0.0
 10
10.4022890287
 20
8.6066106183
 30
0.0
 10
10.4025395745
 20
8.6070605106
 30
0.0
 10
10.4027483658
 20
8.6074354194
 30
0.0
 10
10.4029153919
 20
8.6077353498
 30
0.0
 10
10.4030197989
 20
8.6079227987
 30
0.0
 10
10.4031032886
 20
8.6080727752
 30
0.0
 10
10.4031660041
 20
8.6081852099
 30
0.0
 10
10.4032179547
 20
8.6082790572
 30
0.0
 10
10.403254933
 20
8.6083444527
 30
0.0
 10
10.4032751065
 20
8.6083822862
 30
0.0
 10
10.4032929323
 20
8.6084093523
 30
0.0
 10
10.4033004542
 20
8.6084414221
 30
0.0
 10
10.4033140775
 20
8.6084824365
 30
0.0
 10
10.4033362437
 20
8.6085550248
 30
0.0
 10
10.4033687852
 20
8.6086582973
 30
0.0
 10
10.4034074603
 20
8.6087824063
 30
0.0
 10
10.403459158
 20
8.6089478214
 30
0.0
 10
10.4035237352
 20
8.609154612
 30
0.0
 10
10.4036270839
 20
8.6094854648
 30
0.0
 10
10.4037562611
 20
8.6098990349
 30
0.0
 10
10.4039112775
 20
8.6103953174
 30
0.0
 10
10.4040662929
 20
8.6108916003
 30
0.0
 10
10.4042729804
 20
8.6115533106
 30
0.0
 10
10.4045313397
 20
8.6123804486
 30
0.0
 10
10.4048413709
 20
8.6133730142
 30
0.0
 10
10.4052547458
 20
8.614696435
 30
0.0
 10
10.4057714645
 20
8.616350711
 30
0.0
 10
10.4063915268
 20
8.6183358422
 30
0.0
 10
10.4070115892
 20
8.6203209733
 30
0.0
 10
10.4076316516
 20
8.6223061045
 30
0.0
 10
10.408251714
 20
8.6242912357
 30
0.0
 10
10.4088717764
 20
8.6262763669
 30
0.0
 10
10.4094918387
 20
8.6282614981
 30
0.0
 10
10.4101119011
 20
8.6302466292
 30
0.0
 10
10.4107319635
 20
8.6322317604
 30
0.0
 10
10.4112486821
 20
8.6338860364
 30
0.0
 10
10.4116620571
 20
8.6352094572
 30
0.0
 10
10.4119720882
 20
8.6362020228
 30
0.0
 10
10.4122304476
 20
8.6370291608
 30
0.0
 10
10.412437135
 20
8.6376908712
 30
0.0
 10
10.4125921508
 20
8.6381871539
 30
0.0
 10
10.4127471656
 20
8.638683437
 30
0.0
 10
10.4128763478
 20
8.639097005
 30
0.0
 10
10.4129796863
 20
8.6394278622
 30
0.0
 10
10.4130442895
 20
8.6396346418
 30
0.0
 10
10.4130959339
 20
8.6398000794
 30
0.0
 10
10.4131347715
 20
8.6399241196
 30
0.0
 10
10.4131668046
 20
8.6400276072
 30
0.0
 10
10.4131898784
 20
8.6400998115
 30
0.0
 10
10.4132020476
 20
8.6401414413
 30
0.0
 10
10.4132140361
 20
8.6401716206
 30
0.0
 10
10.4132150858
 20
8.6402057873
 30
0.0
 10
10.413220301
 20
8.640249952
 30
0.0
 10
10.4132276499
 20
8.6403278883
 30
0.0
 10
10.4132390776
 20
8.6404388872
 30
0.0
 10
10.4132523931
 20
8.6405722308
 30
0.0
 10
10.413270286
 20
8.6407499716
 30
0.0
 10
10.4132926046
 20
8.6409721649
 30
0.0
 10
10.413328341
 20
8.6413276646
 30
0.0
 10
10.4133730023
 20
8.6417720425
 30
0.0
 10
10.4134265997
 20
8.6423052946
 30
0.0
 10
10.4134801962
 20
8.6428385471
 30
0.0
 10
10.4135516584
 20
8.6435495502
 30
0.0
 10
10.4136409861
 20
8.6444383042
 30
0.0
 10
10.4137481794
 20
8.645504809
 30
0.0
 10
10.4138911038
 20
8.6469268153
 30
0.0
 10
10.4140697592
 20
8.6487043233
 30
0.0
 10
10.4142841458
 20
8.6508373328
 30
0.0
 10
10.4144985324
 20
8.6529703423
 30
0.0
 10
10.4147129189
 20
8.6551033518
 30
0.0
 10
10.4149987677
 20
8.6579473645
 30
0.0
 10
10.4153560786
 20
8.6615023804
 30
0.0
 10
10.4157848517
 20
8.6657683995
 30
0.0
 10
10.4162136248
 20
8.6700344185
 30
0.0
 10
10.4164994736
 20
8.6728784313
 30
0.0
 10
10.416642398
 20
8.6743004376
 30
0.0
  0
SPLINE
  5
372
100
AcDbEntity
  8
0
100
AcDbSpline
 62
4
  6
CONTINUOUS
 70
0
 71
3
 72
615
 73
611
 74
0
 42
0.0000001
 43
0.0000001
 44
0.0000000001
 40
0.0
 40
0.0
 40
0.0
 40
0.0
 40
0.0078125
 40
0.015625
 40
0.0234375
 40
0.03125
 40
0.03515625
 40
0.0390625
 40
0.04296875
 40
0.046875
 40
0.05078125
 40
0.052734375
 40
0.0546875
 40
0.056640625
 40
0.0576171875
 40
0.05859375
 40
0.0595703125
 40
0.060546875
 40
0.0610351562
 40
0.0615234375
 40
0.0617675781
 40
0.0620117188
 40
0.0622558594
 40
0.0623779297
 40
0.0624389648
 40
0.0625
 40
0.0625610352
 40
0.0626220703
 40
0.0627441406
 40
0.0629882812
 40
0.0632324219
 40
0.0634765625
 40
0.0639648438
 40
0.064453125
 40
0.0654296875
 40
0.06640625
 40
0.0673828125
 40
0.068359375
 40
0.0703125
 40
0.072265625
 40
0.07421875
 40
0.078125
 40
0.08203125
 40
0.0859375
 40
0.08984375
 40
0.09375
 40
0.09765625
 40
0.1015625
 40
0.10546875
 40
0.109375
 40
0.11328125
 40
0.115234375
 40
0.1171875
 40
0.119140625
 40
0.1201171875
 40
0.12109375
 40
0.1220703125
 40
0.123046875
 40
0.1235351562
 40
0.1240234375
 40
0.1242675781
 40
0.1245117188
 40
0.1247558594
 40
0.1248779297
 40
0.1249389648
 40
0.125
 40
0.1250610352
 40
0.1251220703
 40
0.1252441406
 40
0.1254882812
 40
0.1257324219
 40
0.1259765625
 40
0.1264648438
 40
0.126953125
 40
0.1279296875
 40
0.12890625
 40
0.1298828125
 40
0.130859375
 40
0.1328125
 40
0.134765625
 40
0.13671875
 40
0.140625
 40
0.14453125
 40
0.1484375
 40
0.15234375
 40
0.15625
 40
0.16015625
 40
0.1640625
 40
0.16796875
 40
0.171875
 40
0.17578125
 40
0.177734375
 40
0.1796875
 40
0.181640625
 40
0.1826171875
 40
0.18359375
 40
0.1845703125
 40
0.185546875
 40
0.1860351562
 40
0.1865234375
 40
0.1867675781
 40
0.1870117188
 40
0.1872558594
 40
0.1873779297
 40
0.1874389648
 40
0.1875
 40
0.1875610352
 40
0.1876220703
 40
0.1877441406
 40
0.1879882812
 40
0.1882324219
 40
0.1884765625
 40
0.1889648438
 40
0.189453125
 40
0.1904296875
 40
0.19140625
 40
0.1923828125
 40
0.193359375
 40
0.1953125
 40
0.197265625
 40
0.19921875
 40
0.203125
 40
0.20703125
 40
0.2109375
 40
0.21484375
 40
0.21875
 40
0.22265625
 40
0.2265625
 40
0.23046875
 40
0.234375
 40
0.23828125
 40
0.240234375
 40
0.2421875
 40
0.244140625
 40
0.2451171875
 40
0.24609375
 40
0.2470703125
 40
0.248046875
 40
0.2485351562
 40
0.2490234375
 40
0.2492675781
 40
0.2495117188
 40
0.2497558594
 40
0.2498779297
 40
0.2499389648
 40
0.25
 40
0.2500610352
 40
0.2501220703
 40
0.2502441406
 40
0.2504882812
 40
0.2507324219
 40
0.2509765625
 40
0.2514648438
 40
0.251953125
 40
0.2529296875
 40
0.25390625
 40
0.2548828125
 40
0.255859375
 40
0.2578125
 40
0.259765625
 40
0.26171875
 40
0.265625
 40
0.26953125
 40
0.2734375
 40
0.27734375
 40
0.28125
 40
0.28515625
 40
0.2890625
 40
0.29296875
 40
0.296875
 40
0.30078125
 40
0.302734375
 40
0.3046875
 40
0.306640625
 40
0.3076171875
 40
0.30859375
 40
0.3095703125
 40
0.310546875
 40
0.3110351562
 40
0.3115234375
 40
0.3117675781
 40
0.3120117188
 40
0.3122558594
 40
0.3123779297
 40
0.3124389648
 40
0.3125
 40
0.3125610352
 40
0.3126220703
 40
0.3127441406
 40
0.3129882812
 40
0.3132324219
 40
0.3134765625
 40
0.3139648438
 40
0.314453125
 40
0.3154296875
 40
0.31640625
 40
0.3173828125
 40
0.318359375
 40
0.3203125
 40
0.322265625
 40
0.32421875
 40
0.328125
 40
0.33203125
 40
0.3359375
 40
0.33984375
 40
0.34375
 40
0.34765625
 40
0.3515625
 40
0.35546875
 40
0.359375
 40
0.36328125
 40
0.365234375
 40
0.3671875
 40
0.369140625
 40
0.3701171875
 40
0.37109375
 40
0.3720703125
 40
0.373046875
 40
0.3735351562
 40
0.3740234375
 40
0.3742675781
 40
0.3745117188
 40
0.3747558594
 40
0.3748779297
 40
0.3749389648
 40
0.375
 40
0.3750610352
 40
0.3751220703
 40
0.3752441406
 40
0.3754882812
 40
0.3757324219
 40
0.3759765625
 40
0.3764648438
 40
0.376953125
 40
0.3779296875
 40
0.37890625
 40
0.3798828125
 40
0.380859375
 40
0.3828125
 40
0.384765625
 40
0.38671875
 40
0.390625
 40
0.39453125
 40
0.3984375
 40
0.40234375
 40
0.40625
 40
0.41015625
 40
0.4140625
 40
0.41796875
 40
0.421875
 40
0.42578125
 40
0.427734375
 40
0.4296875
 40
0.431640625
 40
0.4326171875
 40
0.43359375
 40
0.4345703125
 40
0.435546875
 40
0.4360351562
 40
0.4365234375
 40
0.4367675781
 40
0.4370117188
 40
0.4372558594
 40
0.4373779297
 40
0.4374389648
 40
0.4375
 40
0.4375610352
 40
0.4376220703
 40
0.4377441406
 40
0.4379882812
 40
0.4382324219
 40
0.4384765625
 40
0.4389648438
 40
0.439453125
 40
0.4404296875
 40
0.44140625
 40
0.4423828125
 40
0.443359375
 40
0.4453125
 40
0.447265625
 40
0.44921875
 40
0.453125
 40
0.45703125
 40
0.4609375
 40
0.46484375
 40
0.46875
 40
0.47265625
 40
0.4765625
 40
0.48046875
 40
0.484375
 40
0.48828125
 40
0.490234375
 40
0.4921875
 40
0.494140625
 40
0.4951171875
 40
0.49609375
 40
0.4970703125
 40
0.498046875
 40
0.4985351562
 40
0.4990234375
 40
0.4992675781
 40
0.4995117188
 40
0.4997558594
 40
0.4998779297
 40
0.4999389648
 40
0.5
 40
0.5000610352
 40
0.5001220703
 40
0.5002441406
 40
0.5004882812
 40
0.5007324219
 40
0.5009765625
 40
0.5014648438
 40
0.501953125
 40
0.5029296875
 40
0.50390625
 40
0.5048828125
 40
0.505859375
 40
0.5078125
 40
0.509765625
 40
0.51171875
 40
0.515625
 40
0.51953125
 40
0.5234375
 40
0.52734375
 40
0.53125
 40
0.53515625
 40
0.5390625
 40
0.54296875
 40
0.546875
 40
0.55078125
 40
0.552734375
 40
0.5546875
 40
0.556640625
 40
0.5576171875
 40
0.55859375
 40
0.5595703125
 40
0.560546875
 40
0.5610351562
 40
0.5615234375
 40
0.5617675781
 40
0.5620117188
 40
0.5622558594
 40
0.5623779297
 40
0.5624389648
 40
0.5625
 40
0.5625610352
 40
0.5626220703
 40
0.5627441406
 40
0.5629882812
 40
0.5632324219
 40
0.5634765625
 40
0.5639648438
 40
0.564453125
 40
0.5654296875
 40
0.56640625
 40
0.5673828125
 40
0.568359375
 40
0.5703125
 40
0.572265625
 40
0.57421875
 40
0.578125
 40
0.58203125
 40
0.5859375
 40
0.58984375
 40
0.59375
 40
0.59765625
 40
0.6015625
 40
0.60546875
 40
0.609375
 40
0.61328125
 40
0.615234375
 40
0.6171875
 40
0.619140625
 40
0.6201171875
 40
0.62109375
 40
0.6220703125
 40
0.623046875
 40
0.6235351562
 40
0.6240234375
 40
0.6242675781
 40
0.6245117188
 40
0.6247558594
 40
0.6248779297
 40
0.6249389648
 40
0.625
 40
0.6250610352
 40
0.6251220703
 40
0.6252441406
 40
0.6254882812
 40
0.6257324219
 40
0.6259765625
 40
0.6264648438
 40
0.626953125
 40
0.6279296875
 40
0.62890625
 40
0.6298828125
 40
0.630859375
 40
0.6328125
 40
0.634765625
 40
0.63671875
 40
0.640625
 40
0.64453125
 40
0.6484375
 40
0.65234375
 40
0.65625
 40
0.66015625
 40
0.6640625
 40
0.66796875
 40
0.671875
 40
0.67578125
 40
0.677734375
 40
0.6796875
 40
0.681640625
 40
0.6826171875
 40
0.68359375
 40
0.6845703125
 40
0.685546875
 40
0.6860351562
 40
0.6865234375
 40
0.6867675781
 40
0.6870117188
 40
0.6872558594
 40
0.6873779297
 40
0.6874389648
 40
0.6875
 40
0.6875610352
 40
0.6876220703
 40
0.6877441406
 40
0.6879882812
 40
0.6882324219
 40
0.6884765625
 40
0.6889648438
 40
0.689453125
 40
0.6904296875
 40
0.69140625
 40
0.6923828125
 40
0.693359375
 40
0.6953125
 40
0.697265625
 40
0.69921875
 40
0.703125
 40
0.70703125
 40
0.7109375
 40
0.71484375
 40
0.71875
 40
0.72265625
 40
0.7265625
 40
0.73046875
 40
0.734375
 40
0.73828125
 40
0.740234375
 40
0.7421875
 40
0.744140625
 40
0.7451171875
 40
0.74609375
 40
0.7470703125
 40
0.748046875
 40
0.7485351562
 40
0.7490234375
 40
0.7492675781
 40
0.7495117188
 40
0.7497558594
 40
0.7498779297
 40
0.7499389648
 40
0.75
 40
0.7500610352
 40
0.7501220703
 40
0.7502441406
 40
0.7504882812
 40
0.7507324219
 40
0.7509765625
 40
0.7514648438
 40
0.751953125
 40
0.7529296875
 40
0.75390625
 40
0.7548828125
 40
0.755859375
 40
0.7578125
 40
0.759765625
 40
0.76171875
 40
0.765625
 40
0.76953125
 40
0.7734375
 40
0.77734375
 40
0.78125
 40
0.78515625
 40
0.7890625
 40
0.79296875
 40
0.796875
 40
0.80078125
 40
0.802734375
 40
0.8046875
 40
0.806640625
 40
0.8076171875
 40
0.80859375
 40
0.8095703125
 40
0.810546875
 40
0.8110351562
 40
0.8115234375
 40
0.8117675781
 40
0.8120117188
 40
0.8122558594
 40
0.8123779297
 40
0.8124389648
 40
0.8125
 40
0.8125610352
 40
0.8126220703
 40
0.8127441406
 40
0.8129882812
 40
0.8132324219
 40
0.8134765625
 40
0.8139648438
 40
0.814453125
 40
0.8154296875
 40
0.81640625
 40
0.8173828125
 40
0.818359375
 40
0.8203125
 40
0.822265625
 40
0.82421875
 40
0.828125
 40
0.83203125
 40
0.8359375
 40
0.83984375
 40
0.84375
 40
0.84765625
 40
0.8515625
 40
0.85546875
 40
0.859375
 40
0.86328125
 40
0.865234375
 40
0.8671875
 40
0.869140625
 40
0.8701171875
 40
0.87109375
 40
0.8720703125
 40
0.873046875
 40
0.8735351562
 40
0.8740234375
 40
0.8742675781
 40
0.8745117188
 40
0.8747558594
 40
0.8748779297
 40
0.8749389648
 40
0.875
 40
0.8750610352
 40
0.8751220703
 40
0.8752441406
 40
0.8754882812
 40
0.8757324219
 40
0.8759765625
 40
0.8764648438
 40
0.876953125
 40
0.8779296875
 40
0.87890625
 40
0.8798828125
 40
0.880859375
 40
0.8828125
 40
0.884765625
 40
0.88671875
 40
0.890625
 40
0.89453125
 40
0.8984375
 40
0.90234375
 40
0.90625
 40
0.91015625
 40
0.9140625
 40
0.91796875
 40
0.921875
 40
0.92578125
 40
0.927734375
 40
0.9296875
 40
0.931640625
 40
0.9326171875
 40
0.93359375
 40
0.9345703125
 40
0.935546875
 40
0.9360351562
 40
0.9365234375
 40
0.9367675781
 40
0.9370117188
 40
0.9372558594
 40
0.9373779297
 40
0.9374389648
 40
0.9375
 40
0.9375610352
 40
0.9376220703
 40
0.9377441406
 40
0.9379882812
 40
0.9382324219
 40
0.9384765625
 40
0.9389648438
 40
0.939453125
 40
0.9404296875
 40
0.94140625
 40
0.9423828125
 40
0.943359375
 40
0.9453125
 40
0.947265625
 40
0.94921875
 40
0.953125
 40
0.95703125
 40
0.9609375
 40
0.96484375
 40
0.96875
 40
0.9765625
 40
0.984375
 40
0.9921875
 40
1.0
 40
1.0
 40
1.0
 40
1.0
 10
10.416642398
 20
8.6743004224
 30
0.0
 10
10.4165044286
 20
8.6757171105
 30
0.0
 10
10.41622849
 20
8.6785504867
 30
0.0
 10
10.4158145821
 20
8.6828005511
 30
0.0
 10
10.4154006741
 20
8.6870506154
 30
0.0
 10
10.4150557509
 20
8.6905923357
 30
0.0
 10
10.4147798122
 20
8.6934257119
 30
0.0
 10
10.4145728583
 20
8.695550744
 30
0.0
 10
10.4143659043
 20
8.6976757762
 30
0.0
 10
10.4141589503
 20
8.6998008084
 30
0.0
 10
10.4139864887
 20
8.7015716685
 30
0.0
 10
10.4138485194
 20
8.7029883566
 30
0.0
 10
10.4137450424
 20
8.7040508727
 30
0.0
 10
10.4136588116
 20
8.7049363028
 30
0.0
 10
10.4135898269
 20
8.7056446468
 30
0.0
 10
10.4135380886
 20
8.7061759049
 30
0.0
 10
10.4134863493
 20
8.7067071628
 30
0.0
 10
10.4134432364
 20
8.7071498782
 30
0.0
 10
10.4134087389
 20
8.7075040495
 30
0.0
 10
10.4133871945
 20
8.7077254088
 30
0.0
 10
10.4133699209
 20
8.7079024913
 30
0.0
 10
10.41335707
 20
8.7080353165
 30
0.0
 10
10.4133460292
 20
8.7081459616
 30
0.0
 10
10.4133389517
 20
8.7082234969
 30
0.0
 10
10.4133338907
 20
8.708267672
 30
0.0
 10
10.4133329592
 20
8.7083011718
 30
0.0
 10
10.4133210793
 20
8.708333263
 30
0.0
 10
10.4133090583
 20
8.7083765427
 30
0.0
 10
10.4132862424
 20
8.7084520532
 30
0.0
 10
10.4132545784
 20
8.7085600449
 30
0.0
 10
10.4132161835
 20
8.7086895838
 30
0.0
 10
10.4131651293
 20
8.7088623203
 30
0.0
 10
10.413101264
 20
8.7090782347
 30
0.0
 10
10.412999106
 20
8.7094237012
 30
0.0
 10
10.4128713995
 20
8.7098555332
 30
0.0
 10
10.4127181555
 20
8.710373732
 30
0.0
 10
10.4125649105
 20
8.7108919307
 30
0.0
 10
10.4123605842
 20
8.7115828624
 30
0.0
 10
10.4121051762
 20
8.712446527
 30
0.0
 10
10.4117986867
 20
8.7134829244
 30
0.0
 10
10.411390034
 20
8.7148647877
 30
0.0
 10
10.4108792181
 20
8.7165921169
 30
0.0
 10
10.410266239
 20
8.7186649118
 30
0.0
 10
10.4096532599
 20
8.7207377068
 30
0.0
 10
10.4090402808
 20
8.7228105018
 30
0.0
 10
10.4084273017
 20
8.7248832967
 30
0.0
 10
10.4078143226
 20
8.7269560917
 30
0.0
 10
10.4072013435
 20
8.7290288866
 30
0.0
 10
10.4065883644
 20
8.7311016816
 30
0.0
 10
10.4059753853
 20
8.7331744766
 30
0.0
 10
10.4054645694
 20
8.7349018057
 30
0.0
 10
10.4050559166
 20
8.736283669
 30
0.0
 10
10.4047494271
 20
8.7373200665
 30
0.0
 10
10.4044940192
 20
8.7381837311
 30
0.0
 10
10.4042896927
 20
8.7388746627
 30
0.0
 10
10.4041364482
 20
8.7393928615
 30
0.0
 10
10.4039832026
 20
8.73991106
 30
0.0
 10
10.4038555011
 20
8.7403428931
 30
0.0
 10
10.4037533329
 20
8.7406883572
 30
0.0
 10
10.4036894935
 20
8.7409042777
 30
0.0
 10
10.4036383861
 20
8.7410770017
 30
0.0
 10
10.4036001538
 20
8.7412065785
 30
0.0
 10
10.4035679809
 20
8.7413144519
 30
0.0
 10
10.4035460735
 20
8.7413901737
 30
0.0
 10
10.4035325968
 20
8.7414331148
 30
0.0
 10
10.4035251887
 20
8.741466246
 30
0.0
 10
10.4035074619
 20
8.7414958398
 30
0.0
 10
10.4034874254
 20
8.741536532
 30
0.0
 10
10.4034506846
 20
8.7416071686
 30
0.0
 10
10.4033990744
 20
8.7417083786
 30
0.0
 10
10.403336767
 20
8.7418297019
 30
0.0
 10
10.4032538215
 20
8.7419915112
 30
0.0
 10
10.4031500948
 20
8.7421937575
 30
0.0
 10
10.402984157
 20
8.7425173601
 30
0.0
 10
10.4027767263
 20
8.7429218604
 30
0.0
 10
10.402527813
 20
8.7434072621
 30
0.0
 10
10.4022788988
 20
8.7438926635
 30
0.0
 10
10.4019470135
 20
8.7445398654
 30
0.0
 10
10.4015321568
 20
8.7453488677
 30
0.0
 10
10.4010343288
 20
8.7463196705
 30
0.0
 10
10.4003705581
 20
8.7476140743
 30
0.0
 10
10.3995408447
 20
8.749232079
 30
0.0
 10
10.3985451887
 20
8.7511736846
 30
0.0
 10
10.3975495327
 20
8.7531152903
 30
0.0
 10
10.3965538766
 20
8.7550568959
 30
0.0
 10
10.3955582206
 20
8.7569985016
 30
0.0
 10
10.3945625646
 20
8.7589401072
 30
0.0
 10
10.3935669085
 20
8.7608817129
 30
0.0
 10
10.3925712525
 20
8.7628233185
 30
0.0
 10
10.3915755964
 20
8.7647649241
 30
0.0
 10
10.3907458831
 20
8.7663829289
 30
0.0
 10
10.3900821124
 20
8.7676773326
 30
0.0
 10
10.3895842843
 20
8.7686481354
 30
0.0
 10
10.3891694277
 20
8.7694571378
 30
0.0
 10
10.3888375423
 20
8.7701043397
 30
0.0
 10
10.3885886285
 20
8.7705897412
 30
0.0
 10
10.3883397137
 20
8.7710751422
 30
0.0
 10
10.3881322877
 20
8.7714796445
 30
0.0
 10
10.3879663402
 20
8.7718032432
 30
0.0
 10
10.3878626383
 20
8.7720054996
 30
0.0
 10
10.3877796419
 20
8.7721672881
 30
0.0
 10
10.38771749
 20
8.7722886749
 30
0.0
 10
10.3876653932
 20
8.7723896863
 30
0.0
 10
10.3876295212
 20
8.7724606772
 30
0.0
 10
10.3876080926
 20
8.7725008017
 30
0.0
 10
10.387594642
 20
8.7725321396
 30
0.0
 10
10.3875711732
 20
8.7725587204
 30
0.0
 10
10.387543376
 20
8.7725958207
 30
0.0
 10
10.3874931028
 20
8.7726599732
 30
0.0
 10
10.387422135
 20
8.7727520239
 30
0.0
 10
10.3873366094
 20
8.7728623117
 30
0.0
 10
10.3872227025
 20
8.7730094225
 30
0.0
 10
10.3870802753
 20
8.7731932903
 30
0.0
 10
10.3868524162
 20
8.7734874903
 30
0.0
 10
10.3865675839
 20
8.7738552364
 30
0.0
 10
10.3862257887
 20
8.7742965334
 30
0.0
 10
10.3858839926
 20
8.77473783
 30
0.0
 10
10.3854282647
 20
8.7753262256
 30
0.0
 10
10.3848586048
 20
8.77606172
 30
0.0
 10
10.3841750129
 20
8.7769443133
 30
0.0
 10
10.3832635571
 20
8.7781211044
 30
0.0
 10
10.3821242373
 20
8.7795920932
 30
0.0
 10
10.3807570536
 20
8.7813572799
 30
0.0
 10
10.3793898699
 20
8.7831224665
 30
0.0
 10
10.3780226861
 20
8.7848876531
 30
0.0
 10
10.3766555024
 20
8.7866528397
 30
0.0
 10
10.3752883187
 20
8.7884180264
 30
0.0
 10
10.3739211349
 20
8.790183213
 30
0.0
 10
10.3725539512
 20
8.7919483996
 30
0.0
 10
10.3711867675
 20
8.7937135863
 30
0.0
 10
10.3700474477
 20
8.7951845751
 30
0.0
 10
10.3691359919
 20
8.7963613662
 30
0.0
 10
10.3684524
 20
8.7972439595
 30
0.0
 10
10.3678827401
 20
8.797979454
 30
0.0
 10
10.3674270122
 20
8.7985678495
 30
0.0
 10
10.3670852164
 20
8.7990091463
 30
0.0
 10
10.3667434199
 20
8.7994504423
 30
0.0
 10
10.3664585917
 20
8.7998181915
 30
0.0
 10
10.3662307242
 20
8.8001123853
 30
0.0
 10
10.3660883182
 20
8.8002962689
 30
0.0
 10
10.3659743679
 20
8.8004433472
 30
0.0
 10
10.3658889749
 20
8.8005537344
 30
0.0
 10
10.3658175921
 20
8.8006454741
 30
0.0
 10
10.3657680598
 20
8.8007101817
 30
0.0
 10
10.3657390754
 20
8.8007463927
 30
0.0
 10
10.3657192533
 20
8.8007757053
 30
0.0
 10
10.3656921067
 20
8.8007967829
 30
0.0
 10
10.3656584661
 20
8.8008277589
 30
0.0
 10
10.3655984047
 20
8.8008806286
 30
0.0
 10
10.3655132251
 20
8.8009568564
 30
0.0
 10
10.3654107432
 20
8.8010480303
 30
0.0
 10
10.3652741936
 20
8.8011697
 30
0.0
 10
10.3651034748
 20
8.8013217514
 30
0.0
 10
10.3648303426
 20
8.8015650536
 30
0.0
 10
10.3644889212
 20
8.8018691745
 30
0.0
 10
10.3640792181
 20
8.8022341226
 30
0.0
 10
10.3636695143
 20
8.8025990698
 30
0.0
 10
10.3631232428
 20
8.8030856664
 30
0.0
 10
10.3624404033
 20
8.8036939121
 30
0.0
 10
10.3616209961
 20
8.8044238069
 30
0.0
 10
10.360528453
 20
8.805397
 30
0.0
 10
10.3591627742
 20
8.8066134914
 30
0.0
 10
10.3575239596
 20
8.8080732811
 30
0.0
 10
10.355885145
 20
8.8095330707
 30
0.0
 10
10.3542463304
 20
8.8109928604
 30
0.0
 10
10.3526075158
 20
8.8124526501
 30
0.0
 10
10.3509687012
 20
8.8139124397
 30
0.0
 10
10.3493298866
 20
8.8153722294
 30
0.0
 10
10.347691072
 20
8.8168320191
 30
0.0
 10
10.3460522574
 20
8.8182918087
 30
0.0
 10
10.3446865786
 20
8.8195083001
 30
0.0
 10
10.3435940355
 20
8.8204814932
 30
0.0
 10
10.3427746282
 20
8.821211388
 30
0.0
 10
10.3420917888
 20
8.8218196338
 30
0.0
 10
10.3415455172
 20
8.8223062303
 30
0.0
 10
10.3411358137
 20
8.8226711779
 30
0.0
 10
10.3407261096
 20
8.8230361246
 30
0.0
 10
10.3403846913
 20
8.8233402495
 30
0.0
 10
10.3401115526
 20
8.8235835436
 30
0.0
 10
10.3399408503
 20
8.8237356158
 30
0.0
 10
10.3398042669
 20
8.8238572428
 30
0.0
 10
10.3397018885
 20
8.8239485473
 30
0.0
 10
10.339616385
 20
8.8240243663
 30
0.0
 10
10.3395569018
 20
8.8240779657
 30
0.0
 10
10.3395223348
 20
8.8241077726
 30
0.0
 10
10.3394980338
 20
8.8241324414
 30
0.0
 10
10.3394675241
 20
8.8241482663
 30
0.0
 10
10.3394290102
 20
8.824172451
 30
0.0
 10
10.3393606017
 20
8.8242133369
 30
0.0
 10
10.3392634029
 20
8.8242724968
 30
0.0
 10
10.3391465386
 20
8.8243431671
 30
0.0
 10
10.3389907983
 20
8.8244375065
 30
0.0
 10
10.338796096
 20
8.8245553923
 30
0.0
 10
10.3384845873
 20
8.824744031
 30
0.0
 10
10.3380951963
 20
8.824979822
 30
0.0
 10
10.3376279294
 20
8.8252627744
 30
0.0
 10
10.3371606618
 20
8.8255457259
 30
0.0
 10
10.3365376386
 20
8.8259229949
 30
0.0
 10
10.3357588595
 20
8.8263945811
 30
0.0
 10
10.3348243246
 20
8.8269604845
 30
0.0
 10
10.3335782781
 20
8.8277150224
 30
0.0
 10
10.33202072
 20
8.8286581948
 30
0.0
 10
10.3301516502
 20
8.8297900016
 30
0.0
 10
10.3282825804
 20
8.8309218084
 30
0.0
 10
10.3264135107
 20
8.8320536153
 30
0.0
 10
10.3245444409
 20
8.8331854221
 30
0.0
 10
10.3226753711
 20
8.834317229
 30
0.0
 10
10.3208063014
 20
8.8354490358
 30
0.0
 10
10.3189372316
 20
8.8365808427
 30
0.0
 10
10.3170681618
 20
8.8377126495
 30
0.0
 10
10.3155106037
 20
8.8386558219
 30
0.0
 10
10.3142645572
 20
8.8394103598
 30
0.0
 10
10.3133300223
 20
8.8399762632
 30
0.0
 10
10.3125512432
 20
8.8404478494
 30
0.0
 10
10.3119282199
 20
8.8408251183
 30
0.0
 10
10.3114609526
 20
8.8411080702
 30
0.0
 10
10.3109936848
 20
8.8413910212
 30
0.0
 10
10.3106042963
 20
8.8416268166
 30
0.0
 10
10.3102927826
 20
8.8418154463
 30
0.0
 10
10.3100980931
 20
8.841933355
 30
0.0
 10
10.3099423265
 20
8.8420276472
 30
0.0
 10
10.3098255425
 20
8.8420984617
 30
0.0
 10
10.3097280924
 20
8.8421571705
 30
0.0
 10
10.3096601325
 20
8.8421988618
 30
0.0
 10
10.3096209
 20
8.8422217561
 30
0.0
 10
10.3095925976
 20
8.8422415446
 30
0.0
 10
10.3095600062
 20
8.8422513268
 30
0.0
 10
10.309518047
 20
8.8422678599
 30
0.0
 10
10.3094439214
 20
8.8422951668
 30
0.0
 10
10.3093383922
 20
8.8423350268
 30
0.0
 10
10.3092116011
 20
8.8423824948
 30
0.0
 10
10.3090426008
 20
8.8424459127
 30
0.0
 10
10.3088313317
 20
8.8425251415
 30
0.0
 10
10.3084933116
 20
8.842651932
 30
0.0
 10
10.308070783
 20
8.8428104117
 30
0.0
 10
10.3075637502
 20
8.8430005909
 30
0.0
 10
10.3070567169
 20
8.8431907692
 30
0.0
 10
10.3063806727
 20
8.8434443405
 30
0.0
 10
10.3055356174
 20
8.8437613046
 30
0.0
 10
10.3045215511
 20
8.8441416615
 30
0.0
 10
10.3031694627
 20
8.8446488041
 30
0.0
 10
10.3014793521
 20
8.8452827323
 30
0.0
 10
10.2994512195
 20
8.8460434462
 30
0.0
 10
10.2974230868
 20
8.84680416
 30
0.0
 10
10.2953949542
 20
8.8475648739
 30
0.0
 10
10.2933668215
 20
8.8483255877
 30
0.0
 10
10.2913386889
 20
8.8490863016
 30
0.0
 10
10.2893105562
 20
8.8498470154
 30
0.0
 10
10.2872824236
 20
8.8506077293
 30
0.0
 10
10.2852542909
 20
8.8513684431
 30
0.0
 10
10.2835641804
 20
8.8520023714
 30
0.0
 10
10.282212092
 20
8.8525095139
 30
0.0
 10
10.2811980256
 20
8.8528898708
 30
0.0
 10
10.2803529704
 20
8.853206835
 30
0.0
 10
10.2796769261
 20
8.8534604062
 30
0.0
 10
10.279169893
 20
8.8536505849
 30
0.0
 10
10.2786628596
 20
8.8538407625
 30
0.0
 10
10.2782403327
 20
8.8539992471
 30
0.0
 10
10.2779023091
 20
8.8541260276
 30
0.0
 10
10.2776910492
 20
8.8542052817
 30
0.0
 10
10.2775220301
 20
8.8542686477
 30
0.0
 10
10.2773952965
 20
8.8543162743
 30
0.0
 10
10.2772895873
 20
8.8543556384
 30
0.0
 10
10.2772157829
 20
8.8543838305
 30
0.0
 10
10.2771733091
 20
8.8543989452
 30
0.0
 10
10.2771422985
 20
8.8544130844
 30
0.0
 10
10.277108059
 20
8.8544165086
 30
0.0
 10
10.2770635326
 20
8.8544248117
 30
0.0
 10
10.2769850866
 20
8.8544376008
 30
0.0
 10
10.2768732954
 20
8.8544567813
 30
0.0
 10
10.2767390284
 20
8.8544794082
 30
0.0
 10
10.2765600468
 20
8.8545097136
 30
0.0
 10
10.2763363057
 20
8.8545475487
 30
0.0
 10
10.2759783279
 20
8.8546081109
 30
0.0
 10
10.2755308529
 20
8.8546838046
 30
0.0
 10
10.274993884
 20
8.854774641
 30
0.0
 10
10.2744569149
 20
8.8548654764
 30
0.0
 10
10.2737409561
 20
8.8549865906
 30
0.0
 10
10.2728460076
 20
8.8551379831
 30
0.0
 10
10.2717720695
 20
8.8553196543
 30
0.0
 10
10.2703401519
 20
8.8555618825
 30
0.0
 10
10.268550255
 20
8.8558646677
 30
0.0
 10
10.2664023786
 20
8.85622801
 30
0.0
 10
10.2642545023
 20
8.8565913523
 30
0.0
 10
10.262106626
 20
8.8569546946
 30
0.0
 10
10.2599587496
 20
8.8573180369
 30
0.0
 10
10.2578108733
 20
8.8576813792
 30
0.0
 10
10.2556629969
 20
8.8580447215
 30
0.0
 10
10.2535151206
 20
8.8584080638
 30
0.0
 10
10.2513672443
 20
8.858771406
 30
0.0
 10
10.2495773473
 20
8.8590741913
 30
0.0
 10
10.2481454298
 20
8.8593164195
 30
0.0
 10
10.2470714916
 20
8.8594980906
 30
0.0
 10
10.2461765431
 20
8.8596494833
 30
0.0
 10
10.2454605843
 20
8.8597705973
 30
0.0
 10
10.2449236152
 20
8.8598614331
 30
0.0
 10
10.2443866462
 20
8.8599522678
 30
0.0
 10
10.2439391718
 20
8.8600279668
 30
0.0
 10
10.2435811928
 20
8.8600885184
 30
0.0
 10
10.2433574545
 20
8.8601263805
 30
0.0
 10
10.2431784673
 20
8.8601566304
 30
0.0
 10
10.2430442174
 20
8.8601794267
 30
0.0
 10
10.2429323728
 20
8.8601980772
 30
0.0
 10
10.242854022
 20
8.8602118124
 30
0.0
 10
10.2428093432
 20
8.8602185996
 30
0.0
 10
10.2427755718
 20
8.8602266803
 30
0.0
 10
10.2427428033
 20
8.8602233303
 30
0.0
 10
10.2426987621
 20
8.8602228507
 30
0.0
 10
10.2426218531
 20
8.8602201538
 30
0.0
 10
10.2425118979
 20
8.8602172723
 30
0.0
 10
10.242379988
 20
8.8602133987
 30
0.0
 10
10.2422040955
 20
8.8602083792
 30
0.0
 10
10.2419842343
 20
8.860202055
 30
0.0
 10
10.2416324538
 20
8.8601919642
 30
0.0
 10
10.2411927291
 20
8.8601793412
 30
0.0
 10
10.240665059
 20
8.8601641976
 30
0.0
 10
10.2401373891
 20
8.8601490529
 30
0.0
 10
10.2394338291
 20
8.8601288603
 30
0.0
 10
10.2385543792
 20
8.8601036195
 30
0.0
 10
10.2374990393
 20
8.8600733306
 30
0.0
 10
10.2360919194
 20
8.8600329454
 30
0.0
 10
10.2343330195
 20
8.8599824639
 30
0.0
 10
10.2322223396
 20
8.8599218861
 30
0.0
 10
10.2301116598
 20
8.8598613083
 30
0.0
 10
10.2280009799
 20
8.8598007304
 30
0.0
 10
10.2258903001
 20
8.8597401526
 30
0.0
 10
10.2237796202
 20
8.8596795748
 30
0.0
 10
10.2216689403
 20
8.859618997
 30
0.0
 10
10.2195582605
 20
8.8595584191
 30
0.0
 10
10.2174475806
 20
8.8594978413
 30
0.0
 10
10.2156886807
 20
8.8594473598
 30
0.0
 10
10.2142815608
 20
8.8594069746
 30
0.0
 10
10.2132262209
 20
8.8593766857
 30
0.0
 10
10.212346771
 20
8.8593514449
 30
0.0
 10
10.211643211
 20
8.8593312522
 30
0.0
 10
10.211115541
 20
8.859316108
 30
0.0
 10
10.2105878712
 20
8.8593009627
 30
0.0
 10
10.2101481457
 20
8.8592883449
 30
0.0
 10
10.2097963668
 20
8.8592782433
 30
0.0
 10
10.2095765017
 20
8.8592719467
 30
0.0
 10
10.2094006171
 20
8.8592668707
 30
0.0
 10
10.209268683
 20
8.8592631695
 30
0.0
 10
10.2091588037
 20
8.8592597488
 30
0.0
 10
10.2090817592
 20
8.8592580144
 30
0.0
 10
10.2090379351
 20
8.8592559926
 30
0.0
 10
10.2090044999
 20
8.8592573798
 30
0.0
 10
10.2089732325
 20
8.8592476683
 30
0.0
 10
10.2089307865
 20
8.859238591
 30
0.0
 10
10.2088568583
 20
8.859220902
 30
0.0
 10
10.2087510625
 20
8.859196575
 30
0.0
 10
10.2086241863
 20
8.8591669789
 30
0.0
 10
10.2084549904
 20
8.8591276585
 30
0.0
 10
10.2082435051
 20
8.8590784598
 30
0.0
 10
10.2079051233
 20
8.8589997687
 30
0.0
 10
10.2074821478
 20
8.8589013956
 30
0.0
 10
10.2069745764
 20
8.8587833518
 30
0.0
 10
10.2064670053
 20
8.858665307
 30
0.0
 10
10.2057902437
 20
8.8585079143
 30
0.0
 10
10.2049442918
 20
8.8583111733
 30
0.0
 10
10.2039291494
 20
8.8580750841
 30
0.0
 10
10.2025756263
 20
8.8577602985
 30
0.0
 10
10.2008837223
 20
8.8573668165
 30
0.0
 10
10.1988534376
 20
8.8568946381
 30
0.0
 10
10.1968231529
 20
8.8564224598
 30
0.0
 10
10.1947928682
 20
8.8559502814
 30
0.0
 10
10.1927625835
 20
8.855478103
 30
0.0
 10
10.1907322987
 20
8.8550059247
 30
0.0
 10
10.188702014
 20
8.8545337463
 30
0.0
 10
10.1866717293
 20
8.8540615679
 30
0.0
 10
10.1846414446
 20
8.8535893895
 30
0.0
 10
10.1829495407
 20
8.8531959076
 30
0.0
 10
10.1815960175
 20
8.852881122
 30
0.0
 10
10.1805808752
 20
8.8526450328
 30
0.0
 10
10.1797349232
 20
8.8524482918
 30
0.0
 10
10.1790581616
 20
8.852290899
 30
0.0
 10
10.1785505904
 20
8.8521728546
 30
0.0
 10
10.1780430195
 20
8.8520548092
 30
0.0
 10
10.1776200425
 20
8.8519564412
 30
0.0
 10
10.1772816638
 20
8.8518777397
 30
0.0
 10
10.1770701706
 20
8.8518285674
 30
0.0
 10
10.1769009909
 20
8.8517891926
 30
0.0
 10
10.1767740655
 20
8.8517597627
 30
0.0
 10
10.1766684233
 20
8.851734916
 30
0.0
 10
10.1765942208
 20
8.8517181547
 30
0.0
 10
10.1765522144
 20
8.8517075911
 30
0.0
 10
10.1765195969
 20
8.851702445
 30
0.0
 10
10.1764912325
 20
8.8516866853
 30
0.0
 10
10.1764519297
 20
8.8516693744
 30
0.0
 10
10.1763838411
 20
8.8516373556
 30
0.0
 10
10.1762862104
 20
8.8515925162
 30
0.0
 10
10.1761692081
 20
8.8515383229
 30
0.0
 10
10.1760131511
 20
8.8514662
 30
0.0
 10
10.1758180983
 20
8.8513760002
 30
0.0
 10
10.1755060035
 20
8.8512317063
 30
0.0
 10
10.1751158885
 20
8.8510513301
 30
0.0
 10
10.174647749
 20
8.8508348824
 30
0.0
 10
10.1741796099
 20
8.8506184338
 30
0.0
 10
10.1735554243
 20
8.8503298359
 30
0.0
 10
10.1727751924
 20
8.8499690885
 30
0.0
 10
10.1718389141
 20
8.8495361916
 30
0.0
 10
10.170590543
 20
8.8489589957
 30
0.0
 10
10.1690300791
 20
8.8482375009
 30
0.0
 10
10.1671575224
 20
8.8473717071
 30
0.0
 10
10.1652849657
 20
8.8465059133
 30
0.0
 10
10.1634124091
 20
8.8456401195
 30
0.0
 10
10.1615398524
 20
8.8447743257
 30
0.0
 10
10.1596672958
 20
8.8439085319
 30
0.0
 10
10.1577947391
 20
8.8430427381
 30
0.0
 10
10.1559221824
 20
8.8421769443
 30
0.0
 10
10.1540496258
 20
8.8413111505
 30
0.0
 10
10.1524891619
 20
8.8405896557
 30
0.0
 10
10.1512407908
 20
8.8400124598
 30
0.0
 10
10.1503045124
 20
8.8395795629
 30
0.0
 10
10.1495242805
 20
8.8392188156
 30
0.0
 10
10.148900095
 20
8.8389302176
 30
0.0
 10
10.1484319557
 20
8.8387137693
 30
0.0
 10
10.1479638169
 20
8.8384973201
 30
0.0
 10
10.1475736997
 20
8.8383169488
 30
0.0
 10
10.1472616095
 20
8.8381726449
 30
0.0
 10
10.1470665449
 20
8.8380824707
 30
0.0
 10
10.1469105121
 20
8.8380102952
 30
0.0
 10
10.1467934357
 20
8.8379562626
 30
0.0
 10
10.1466960371
 20
8.8379109204
 30
0.0
 10
10.1466275339
 20
8.8378797991
 30
0.0
 10
10.1465888955
 20
8.8378610501
 30
0.0
 10
10.1465584905
 20
8.8378497081
 30
0.0
 10
10.1465335373
 20
8.8378279698
 30
0.0
 10
10.1464983646
 20
8.8378026118
 30
0.0
 10
10.1464376986
 20
8.8377565458
 30
0.0
 10
10.1463505696
 20
8.8376916205
 30
0.0
 10
10.146246213
 20
8.837613332
 30
0.0
 10
10.1461070017
 20
8.8375090795
 30
0.0
 10
10.1459330112
 20
8.8373787186
 30
0.0
 10
10.1456546133
 20
8.8371701664
 30
0.0
 10
10.1453066204
 20
8.8369094675
 30
0.0
 10
10.1448890269
 20
8.8365966325
 30
0.0
 10
10.144471434
 20
8.8362837965
 30
0.0
 10
10.1439146433
 20
8.8358666822
 30
0.0
 10
10.1432186549
 20
8.8353452893
 30
0.0
 10
10.1423834688
 20
8.8347196178
 30
0.0
 10
10.1412698874
 20
8.8338853891
 30
0.0
 10
10.1398779107
 20
8.8328426032
 30
0.0
 10
10.1382075385
 20
8.8315912602
 30
0.0
 10
10.1365371664
 20
8.8303399172
 30
0.0
 10
10.1348667943
 20
8.8290885741
 30
0.0
 10
10.1331964222
 20
8.8278372311
 30
0.0
 10
10.1315260501
 20
8.8265858881
 30
0.0
 10
10.129855678
 20
8.825334545
 30
0.0
 10
10.1281853059
 20
8.824083202
 30
0.0
 10
10.1265149337
 20
8.8228318589
 30
0.0
 10
10.125122957
 20
8.8217890731
 30
0.0
 10
10.1240093756
 20
8.8209548444
 30
0.0
 10
10.1231741895
 20
8.8203291729
 30
0.0
 10
10.1224782011
 20
8.81980778
 30
0.0
 10
10.1219214105
 20
8.8193906656
 30
0.0
 10
10.1215038173
 20
8.81907783
 30
0.0
 10
10.1210862249
 20
8.8187649936
 30
0.0
 10
10.1207382287
 20
8.818504299
 30
0.0
 10
10.1204598375
 20
8.818295738
 30
0.0
 10
10.1202858297
 20
8.8181653995
 30
0.0
 10
10.1201466539
 20
8.818061101
 30
0.0
 10
10.1200421888
 20
8.8179829528
 30
0.0
 10
10.1199553995
 20
8.8179175888
 30
0.0
 10
10.119894127
 20
8.8178723058
 30
0.0
 10
10.1198599261
 20
8.8178456933
 30
0.0
 10
10.1198319882
 20
8.8178278086
 30
0.0
 10
10.1198127931
 20
8.8178019932
 30
0.0
 10
10.1197841501
 20
8.817770339
 30
0.0
 10
10.1197354457
 20
8.8177136553
 30
0.0
 10
10.1196651251
 20
8.8176333524
 30
0.0
 10
10.1195810584
 20
8.8175367005
 30
0.0
 10
10.1194688584
 20
8.8174079321
 30
0.0
 10
10.1193286464
 20
8.817246937
 30
0.0
 10
10.119104286
 20
8.8169893642
 30
0.0
 10
10.1188238427
 20
8.8166673916
 30
0.0
 10
10.1184873077
 20
8.8162810273
 30
0.0
 10
10.1181507735
 20
8.8158946622
 30
0.0
 10
10.1177020609
 20
8.8153795091
 30
0.0
 10
10.1171411703
 20
8.8147355675
 30
0.0
 10
10.1164681016
 20
8.8139628377
 30
0.0
 10
10.1155706766
 20
8.8129325313
 30
0.0
 10
10.1144488954
 20
8.8116446482
 30
0.0
 10
10.1131027579
 20
8.8100991886
 30
0.0
 10
10.1117566204
 20
8.808553729
 30
0.0
 10
10.1104104829
 20
8.8070082693
 30
0.0
 10
10.1090643454
 20
8.8054628097
 30
0.0
 10
10.1077182079
 20
8.80391735
 30
0.0
 10
10.1063720704
 20
8.8023718904
 30
0.0
 10
10.105025933
 20
8.8008264307
 30
0.0
 10
10.1036797955
 20
8.7992809711
 30
0.0
 10
10.1025580142
 20
8.7979930881
 30
0.0
 10
10.1016605892
 20
8.7969627816
 30
0.0
 10
10.1009875205
 20
8.7961900518
 30
0.0
 10
10.1004266299
 20
8.7955461103
 30
0.0
 10
10.0999779174
 20
8.795030957
 30
0.0
 10
10.0996413829
 20
8.7946445923
 30
0.0
 10
10.0993048492
 20
8.7942582268
 30
0.0
 10
10.0990244017
 20
8.7939362577
 30
0.0
 10
10.0988000499
 20
8.7936786778
 30
0.0
 10
10.0986598159
 20
8.7935177008
 30
0.0
 10
10.098547661
 20
8.7933888953
 30
0.0
 10
10.0984634565
 20
8.7932923565
 30
0.0
 10
10.0983935671
 20
8.7932116998
 30
0.0
 10
10.098344093
 20
8.7931556477
 30
0.0
 10
10.0983166833
 20
8.7931229816
 30
0.0
 10
10.0982936998
 20
8.7931002745
 30
0.0
 10
10.0982799908
 20
8.7930707155
 30
0.0
 10
10.098258477
 20
8.7930336936
 30
0.0
 10
10.0982223352
 20
8.7929677916
 30
0.0
 10
10.098169916
 20
8.7928742281
 30
0.0
 10
10.0981073503
 20
8.7927617027
 30
0.0
 10
10.0980238116
 20
8.7926117558
 30
0.0
 10
10.0979194284
 20
8.7924242925
 30
0.0
 10
10.0977523929
 20
8.7921243678
 30
0.0
 10
10.0975436063
 20
8.7917494562
 30
0.0
 10
10.097293059
 20
8.7912995647
 30
0.0
 10
10.0970425126
 20
8.7908496726
 30
0.0
 10
10.0967084504
 20
8.7902498167
 30
0.0
 10
10.0962908727
 20
8.7894999967
 30
0.0
 10
10.0957897795
 20
8.7886002128
 30
0.0
 10
10.0951216552
 20
8.7874005008
 30
0.0
 10
10.0942864999
 20
8.7859008609
 30
0.0
 10
10.0932843135
 20
8.784101293
 30
0.0
 10
10.092282127
 20
8.7823017251
 30
0.0
 10
10.0912799406
 20
8.7805021572
 30
0.0
 10
10.0902777542
 20
8.7787025893
 30
0.0
 10
10.0892755678
 20
8.7769030214
 30
0.0
 10
10.0882733814
 20
8.7751034535
 30
0.0
 10
10.087271195
 20
8.7733038856
 30
0.0
 10
10.0862690085
 20
8.7715043177
 30
0.0
 10
10.0854338532
 20
8.7700046778
 30
0.0
 10
10.0847657289
 20
8.7688049658
 30
0.0
 10
10.0842646357
 20
8.7679051819
 30
0.0
 10
10.083847058
 20
8.7671553619
 30
0.0
 10
10.0835129959
 20
8.7665555059
 30
0.0
 10
10.0832624491
 20
8.7661056141
 30
0.0
 10
10.0830119033
 20
8.7656557217
 30
0.0
 10
10.082803112
 20
8.7652808129
 30
0.0
 10
10.0826360859
 20
8.7649808825
 30
0.0
 10
10.0825316789
 20
8.7647934336
 30
0.0
 10
10.0824481892
 20
8.7646434571
 30
0.0
 10
10.0823854737
 20
8.7645310224
 30
0.0
 10
10.0823335231
 20
8.7644371751
 30
0.0
 10
10.0822965449
 20
8.7643717797
 30
0.0
 10
10.0822763713
 20
8.7643339462
 30
0.0
 10
10.0822585456
 20
8.76430688
 30
0.0
 10
10.0822510237
 20
8.7642748102
 30
0.0
 10
10.0822374004
 20
8.7642337958
 30
0.0
 10
10.0822152341
 20
8.7641612075
 30
0.0
 10
10.0821826926
 20
8.764057935
 30
0.0
 10
10.0821440175
 20
8.763933826
 30
0.0
 10
10.0820923199
 20
8.763768411
 30
0.0
 10
10.0820277426
 20
8.7635616204
 30
0.0
 10
10.081924394
 20
8.7632307676
 30
0.0
 10
10.0817952167
 20
8.7628171974
 30
0.0
 10
10.0816402003
 20
8.762320915
 30
0.0
 10
10.081485185
 20
8.7618246321
 30
0.0
 10
10.0812784974
 20
8.7611629217
 30
0.0
 10
10.0810201381
 20
8.7603357837
 30
0.0
 10
10.0807101069
 20
8.7593432181
 30
0.0
 10
10.080296732
 20
8.7580197973
 30
0.0
 10
10.0797800134
 20
8.7563655214
 30
0.0
 10
10.079159951
 20
8.7543803902
 30
0.0
 10
10.0785398886
 20
8.752395259
 30
0.0
 10
10.0779198262
 20
8.7504101278
 30
0.0
 10
10.0772997639
 20
8.7484249966
 30
0.0
 10
10.0766797015
 20
8.7464398655
 30
0.0
 10
10.0760596391
 20
8.7444547343
 30
0.0
 10
10.0754395767
 20
8.7424696031
 30
0.0
 10
10.0748195143
 20
8.7404844719
 30
0.0
 10
10.0743027957
 20
8.7388301959
 30
0.0
 10
10.0738894208
 20
8.7375067751
 30
0.0
 10
10.0735793896
 20
8.7365142096
 30
0.0
 10
10.0733210302
 20
8.7356870716
 30
0.0
 10
10.0731143429
 20
8.7350253612
 30
0.0
 10
10.072959327
 20
8.7345290784
 30
0.0
 10
10.0728043123
 20
8.7340327953
 30
0.0
 10
10.07267513
 20
8.7336192273
 30
0.0
 10
10.0725717916
 20
8.7332883702
 30
0.0
 10
10.0725071884
 20
8.7330815905
 30
0.0
 10
10.0724555439
 20
8.732916153
 30
0.0
 10
10.0724167063
 20
8.7327921128
 30
0.0
 10
10.0723846732
 20
8.7326886251
 30
0.0
 10
10.0723615994
 20
8.7326164209
 30
0.0
 10
10.0723494303
 20
8.732574791
 30
0.0
 10
10.0723374417
 20
8.7325446118
 30
0.0
 10
10.072336392
 20
8.7325104451
 30
0.0
 10
10.0723311768
 20
8.7324662803
 30
0.0
 10
10.072323828
 20
8.732388344
 30
0.0
 10
10.0723124002
 20
8.7322773452
 30
0.0
 10
10.0722990847
 20
8.7321440016
 30
0.0
 10
10.0722811918
 20
8.7319662608
 30
0.0
 10
10.0722588732
 20
8.7317440674
 30
0.0
 10
10.0722231369
 20
8.7313885677
 30
0.0
 10
10.0721784756
 20
8.7309441898
 30
0.0
 10
10.0721248781
 20
8.7304109377
 30
0.0
 10
10.0720712817
 20
8.7298776853
 30
0.0
 10
10.0719998194
 20
8.7291666821
 30
0.0
 10
10.0719104917
 20
8.7282779281
 30
0.0
 10
10.0718032984
 20
8.7272114234
 30
0.0
 10
10.0716603741
 20
8.725789417
 30
0.0
 10
10.0714817186
 20
8.7240119091
 30
0.0
 10
10.071267332
 20
8.7218788995
 30
0.0
 10
10.0710529455
 20
8.71974589
 30
0.0
 10
10.0708385589
 20
8.7176128805
 30
0.0
 10
10.0705527102
 20
8.7147688678
 30
0.0
 10
10.0701953992
 20
8.7112138519
 30
0.0
 10
10.0697666261
 20
8.7069478328
 30
0.0
 10
10.069337853
 20
8.7026818138
 30
0.0
 10
10.0690520043
 20
8.6998378011
 30
0.0
 10
10.0689090799
 20
8.6984157947
 30
0.0
  0
ENDSEC
  0
SECTION
  2
OBJECTS
  0
DICTIONARY
  5
C
100
AcDbDictionary
280
0
281
1
  3
ACAD_GROUP
350
D
  3
ACAD_MLINESTYLE
350
17
  3
ACAD_LAYOUT
350
1A
  3
ACAD_PLOTSETTINGS
350
19
  3
ACAD_PLOTSTYLENAME
350
E
  3
ACAD_IMAGE_DICT
350
       374
  3
ACAD_IMAGE_VARS
350
       375
  3
ACAD_TABLESTYLE
350
       376
  0
IMAGEDEF_REACTOR
  5
373
100
AcDbRasterImageDefReactor
 90
2
330
292
  0
DICTIONARY
  5
D
102
{ACAD_REACTORS
330
C
102
}
100
AcDbDictionary
280
0
281
1
  0
ACDBDICTIONARYWDFLT
  5
E
102
{ACAD_REACTORS
330
C
102
}
100
AcDbDictionary
281
1
  3
Normal
350
F
100
AcDbDictionaryWithDefault
340
F
  0
DICTIONARY
  5
374
330
C
100
AcDbDictionary
281
1
  3
E7A_assy_2_img_1
350
       379
  0
RASTERVARIABLES
  5
375
330
C
100
AcDbRasterVariables
 90
0
 70
0
 71
1
 72
5
  0
DICTIONARY
  5
17
102
{ACAD_REACTORS
330
C
102
}
100
AcDbDictionary
280
0
281
1
  3
Standard
350
18
  0
DICTIONARY
  5
376
330
C
100
AcDbDictionary
281
1
  3
Standard
350
       37A
  3
Standard1
350
       37B
  0
DICTIONARY
  5
19
102
{ACAD_REACTORS
330
C
102
}
100
AcDbDictionary
281
1
  0
DICTIONARY
  5
1A
102
{ACAD_REACTORS
330
C
102
}
100
AcDbDictionary
281
1
  3
Model
350
377
  3
Layout1
350
378
  0
ACDBPLACEHOLDER
  5
F
102
{ACAD_REACTORS
330
E
102
}
  0
MLINESTYLE
  5
18
102
{ACAD_REACTORS
330
17
102
}
100
AcDbMlineStyle
  2
STANDARD
 70
0
  3

 62
256
 51
90.0
 52
90.0
 71
2
 49
0.5
 62
256
  6
BYLAYER
 49
-0.5
 62
256
  6
BYLAYER
  0
LAYOUT
  5
377
102
{ACAD_REACTORS
330
1A
102
}
100
AcDbPlotSettings
  1

  2
none_device
  4
ANSI_C_(22.00_x_17.00_Inches)
  6

 40
0.0
 41
0.0
 42
0.0
 43
0.0
 44
558.8
 45
431.8
 46
0.0
 47
0.0
 48
0.0
 49
0.0
140
0.0
141
0.0
142
1.0
143
1.0
 70
1024
 72
0
 73
0
 74
0
  7

 75
0
147
1.0
148
0.0
149
0.0
100
AcDbLayout
  1
Model
 70
0
 71
0
 10
0.0
 20
0.0
 11
22.0
 21
17.0
 12
0.0
 22
0.0
 32
0.0
 14
0.0
 24
0.0
 34
0.0
 15
0.0
 25
0.0
 35
0.0
146
0.0
 13
0.0
 23
0.0
 33
0.0
 16
1.0
 26
0.0
 36
0.0
 17
0.0
 27
1.0
 37
0.0
 76
0
330
20C
345
0
346
0
  0
LAYOUT
  5
378
102
{ACAD_REACTORS
330
1A
102
}
100
AcDbPlotSettings
  1

  2
none_device
  4
ANSI_C_(22.00_x_17.00_Inches)
  6

 40
0.0
 41
0.0
 42
0.0
 43
0.0
 44
558.8
 45
431.8
 46
0.0
 47
0.0
 48
0.0
 49
0.0
140
0.0
141
0.0
142
1.0
143
1.0
 70
0
 72
0
 73
0
 74
0
  7

 75
0
147
1.0
148
0.0
149
0.0
100
AcDbLayout
  1
Layout1
 70
0
 71
1
 10
0.0
 20
0.0
 11
22.0
 21
17.0
 12
0.0
 22
0.0
 32
0.0
 14
0.0
 24
0.0
 34
0.0
 15
0.0
 25
0.0
 35
0.0
146
0.0
 13
0.0
 23
0.0
 33
0.0
 16
1.0
 26
0.0
 36
0.0
 17
0.0
 27
1.0
 37
0.0
 76
0
330
20D
345
0
346
0
  0
IMAGEDEF
  5
379
102
{ACAD_REACTORS
330
374
330
373
102
}
100
AcDbRasterImageDef
 90
0
  1
E7A_assy_2_img_1.png
 10
369.0
 20
92.0
 11
0.0066666667
 21
0.0066666667
280
1
281
0
  0
TABLESTYLE
  5
37A
102
{ACAD_REACTORS
330
376
330
295
330
296
102
}
330
376
100
AcDbTableStyle
  3
Standard
 70
0
 71
0
 40
0.06
 41
0.06
280
1
281
1
  7
Standard
140
0.18
170
1
 62
0
 63
7
283
0
  7
Standard
140
0.18
170
1
 62
0
 63
7
283
0
  7
Standard
140
0.18
170
1
 62
0
 63
7
283
0
  0
TABLESTYLE
  5
37B
102
{ACAD_REACTORS
330
376
330
294
102
}
330
376
100
AcDbTableStyle
  3
Standard1
 70
1
 71
0
 40
0.06
 41
0.06
280
1
281
1
  7
Standard
140
0.18
170
1
 62
0
 63
7
283
0
  7
Standard
140
0.18
170
1
 62
0
 63
7
283
0
  7
Standard
140
0.18
170
1
 62
0
 63
7
283
0
  0
ENDSEC
  0
EOF
