999
DXF file: E6V_assy_2.dxf
999
Pro/ENGINEER 2014200 by Parametric Technology Corporation
  0
SECTION
  2
HEADER
  9
$ACADVER
  1
AC1021
  9
$DWGCODEPAGE
  3
ANSI_1252
  9
$EXTMAX
 10
22.0
 20
17.0
 30
0.0
  9
$EXTMIN
 10
0.0
 20
0.0
 30
0.0
  9
$LIMMIN
 10
0.0
 20
0.0
  9
$LIMMAX
 10
22.0
 20
17.0
  9
$VIEWCTR
 10
11.0
 20
8.5
  9
$VIEWSIZE
 40
17.0
  9
$CLAYER
  8
0
  9
$LTSCALE
 40
1.21
  9
$CELTYPE
  6
BYLAYER
  9
$DIMSCALE
 40
1.0
  9
$DIMASZ
 40
0.1875
  9
$DIMEXO
 40
0.0625
  9
$DIMDLI
 40
0.836
  9
$DIMEXE
 40
0.125
  9
$DIMCEN
 40
0.198
  9
$DIMLFAC
 40
1.0
  9
$DIMBLK
  1
_FILLED
  9
$DIMTXT
 40
0.1
  9
$DIMTOL
 70
0
  9
$DIMLIM
 70
0
  9
$DIMTFAC
 40
1.0
  9
$DIMGAP
 40
0.09
  9
$DIMDSEP
 70
46
  9
$AUNITS
 70
0
  9
$PDMODE
 70
3
  9
$PDSIZE
 40
0.3125
  9
$HANDSEED
  5
39E
  9
$TILEMODE
 70
1
  9
$MEASUREMENT
 70
0
  9
$INSUNITS
 70
1
  0
ENDSEC
  0
SECTION
  2
CLASSES
  0
CLASS
  1
ACDBDICTIONARYWDFLT
  2
AcDbDictionaryWithDefault
  3
AutoCAD 2000
 90
0
 91
1
280
0
281
0
  0
CLASS
  1
ACDBPLACEHOLDER
  2
AcDbPlaceHolder
  3
AutoCAD 2000
 90
0
 91
1
280
0
281
0
  0
CLASS
  1
LAYOUT
  2
AcDbLayout
  3
AutoCAD 2000
 90
0
 91
0
280
0
281
0
  0
CLASS
  1
RASTERVARIABLES
  2
AcDbRasterVariables
  3
ISM
 90
0
 91
1
280
0
281
0
  0
CLASS
  1
IMAGEDEF
  2
AcDbRasterImageDef
  3
ISM
 90
0
 91
1
280
0
281
0
  0
CLASS
  1
IMAGEDEF_REACTOR
  2
AcDbRasterImageDefReactor
  3
ISM
 90
0
 91
1
280
0
281
0
  0
CLASS
  1
IMAGE
  2
AcDbRasterImage
  3
ISM
 90
127
 91
1
280
0
281
1
  0
CLASS
  1
TABLESTYLE
  2
AcDbTableStyle
  3
ObjectDBX Classes
 90
2047
 91
1
280
0
281
0
  0
CLASS
  1
ACAD_TABLE
  2
AcDbTable
  3
ObjectDBX Classes
 90
1025
 91
3
280
0
281
1
  0
ENDSEC
  0
SECTION
  2
TABLES
  0
TABLE
  2
VPORT
  5
8
100
AcDbSymbolTable
 70
2
  0
VPORT
  5
1F4
100
AcDbSymbolTableRecord
100
AcDbViewportTableRecord
  2
*ACTIVE
 70
0
 10
0.0
 20
0.0
 11
1.0
 21
1.0
 12
11.0
 22
8.5
 13
0.0
 23
0.0
 14
1.0
 24
1.0
 15
0.0
 25
0.0
 16
0.0
 26
0.0
 36
1.0
 17
0.0
 27
0.0
 37
0.0
 40
17.0
 41
1.2941176471
 42
50.0
 43
0.0
 44
0.0
 50
0.0
 51
0.0
 71
0
 72
100
 73
1
 74
1
 75
0
 76
0
 77
0
 78
0
  0
ENDTAB
  0
TABLE
  2
LTYPE
  5
5
100
AcDbSymbolTable
 70
6
  0
LTYPE
  5
14
100
AcDbSymbolTableRecord
100
AcDbLinetypeTableRecord
  2
BYBLOCK
 70
0
  3

 72
65
 73
0
 40
0.0
  0
LTYPE
  5
15
100
AcDbSymbolTableRecord
100
AcDbLinetypeTableRecord
  2
BYLAYER
 70
0
  3

 72
65
 73
0
 40
0.0
  0
LTYPE
  5
16
100
AcDbSymbolTableRecord
100
AcDbLinetypeTableRecord
  2
CONTINUOUS
 70
64
  3
Solid line
 72
65
 73
0
 40
0.0
  0
LTYPE
  5
1F5
100
AcDbSymbolTableRecord
100
AcDbLinetypeTableRecord
  2
CENTER
 70
64
  3
____ _ ____ _ ____ _ ____ _ ____ _ ____ _ ____
 72
65
 73
4
 40
0.6
 49
0.375
 74
0
 49
-0.075
 74
0
 49
0.075
 74
0
 49
-0.075
 74
0
  0
LTYPE
  5
1F6
100
AcDbSymbolTableRecord
100
AcDbLinetypeTableRecord
  2
HIDDEN
 70
64
  3
- - - - - - - - - - - - - - - - - - - -
 72
65
 73
2
 40
0.2
 49
0.1
 74
0
 49
-0.1
 74
0
  0
LTYPE
  5
1F7
100
AcDbSymbolTableRecord
100
AcDbLinetypeTableRecord
  2
PHANTOM
 70
64
  3
_____ _ _ _____ _ _ _____ _ _ _____
 72
65
 73
6
 40
0.8
 49
0.45
 74
0
 49
-0.05
 74
0
 49
0.1
 74
0
 49
-0.05
 74
0
 49
0.1
 74
0
 49
-0.05
 74
0
  0
LTYPE
  5
1F8
100
AcDbSymbolTableRecord
100
AcDbLinetypeTableRecord
  2
DOT
 70
64
  3
. . . . . . . . . . . . . . . . . . . .
 72
65
 73
2
 40
0.2
 49
0.1
 74
0
 49
-0.1
 74
0
  0
LTYPE
  5
1F9
100
AcDbSymbolTableRecord
100
AcDbLinetypeTableRecord
  2
DASHED
 70
64
  3
- - - - - - - - - - - - - - - - - - - -
 72
65
 73
2
 40
0.2
 49
0.1
 74
0
 49
-0.1
 74
0
  0
ENDTAB
  0
TABLE
  2
LAYER
  5
2
100
AcDbSymbolTable
 70
36
  0
LAYER
  5
10
100
AcDbSymbolTableRecord
100
AcDbLayerTableRecord
  2
0
 70
0
 62
7
  6
CONTINUOUS
370
-3
390
F
  0
LAYER
  5
1FA
100
AcDbSymbolTableRecord
100
AcDbLayerTableRecord
  2
DEFAULT_1
 70
0
 62
7
  6
CENTER
370
-3
390
F
  0
LAYER
  5
1FB
100
AcDbSymbolTableRecord
100
AcDbLayerTableRecord
  2
DEFAULT_2
 70
0
 62
8
  6
HIDDEN
370
-3
390
F
  0
LAYER
  5
1FC
100
AcDbSymbolTableRecord
100
AcDbLayerTableRecord
  2
DEFAULT_3
 70
0
 62
7
  6
PHANTOM
370
-3
390
F
  0
LAYER
  5
1FD
100
AcDbSymbolTableRecord
100
AcDbLayerTableRecord
  2
01___PRT_ALL_DTM_PLN
 70
0
 62
7
  6
CONTINUOUS
370
-3
390
F
  0
LAYER
  5
1FE
100
AcDbSymbolTableRecord
100
AcDbLayerTableRecord
  2
01___PRT_DEF_DTM_PLN
 70
0
 62
7
  6
CONTINUOUS
370
-3
390
F
  0
LAYER
  5
1FF
100
AcDbSymbolTableRecord
100
AcDbLayerTableRecord
  2
02___PRT_ALL_AXES
 70
0
 62
7
  6
CONTINUOUS
370
-3
390
F
  0
LAYER
  5
200
100
AcDbSymbolTableRecord
100
AcDbLayerTableRecord
  2
03___PRT_ALL_CURVES
 70
0
 62
7
  6
CONTINUOUS
370
-3
390
F
  0
LAYER
  5
201
100
AcDbSymbolTableRecord
100
AcDbLayerTableRecord
  2
04___PRT_ALL_DTM_PNT
 70
0
 62
7
  6
CONTINUOUS
370
-3
390
F
  0
LAYER
  5
202
100
AcDbSymbolTableRecord
100
AcDbLayerTableRecord
  2
05___PRT_ALL_DTM_CSYS
 70
0
 62
7
  6
CONTINUOUS
370
-3
390
F
  0
LAYER
  5
203
100
AcDbSymbolTableRecord
100
AcDbLayerTableRecord
  2
05___PRT_DEF_DTM_CSYS
 70
0
 62
7
  6
CONTINUOUS
370
-3
390
F
  0
LAYER
  5
204
100
AcDbSymbolTableRecord
100
AcDbLayerTableRecord
  2
06___PRT_ALL_SURFS
 70
0
 62
7
  6
CONTINUOUS
370
-3
390
F
  0
LAYER
  5
205
100
AcDbSymbolTableRecord
100
AcDbLayerTableRecord
  2
DATUM_PLANES
 70
0
 62
7
  6
CONTINUOUS
370
-3
390
F
  0
LAYER
  5
206
100
AcDbSymbolTableRecord
100
AcDbLayerTableRecord
  2
PORT_AREAS
 70
0
 62
7
  6
CONTINUOUS
370
-3
390
F
  0
LAYER
  5
207
100
AcDbSymbolTableRecord
100
AcDbLayerTableRecord
  2
SUNNBOMCOSMETIC
 70
0
 62
7
  6
CONTINUOUS
370
-3
390
F
  0
LAYER
  5
208
100
AcDbSymbolTableRecord
100
AcDbLayerTableRecord
  2
SUNNBOMSTAMPING
 70
0
 62
7
  6
CONTINUOUS
370
-3
390
F
  0
LAYER
  5
209
100
AcDbSymbolTableRecord
100
AcDbLayerTableRecord
  2
THREADS
 70
0
 62
7
  6
CONTINUOUS
370
-3
390
F
  0
ENDTAB
  0
TABLE
  2
STYLE
  5
3
100
AcDbSymbolTable
 70
1
  0
STYLE
  5
11
100
AcDbSymbolTableRecord
100
AcDbTextStyleTableRecord
  2
STANDARD
 70
0
 40
0.0
 41
0.8
 50
0.0
 71
0
 42
0.2
  3
txt
  4

  0
STYLE
  5
20A
100
AcDbSymbolTableRecord
100
AcDbTextStyleTableRecord
  2
TEXTSTYLE_1
 70
0
 40
0.0
 41
0.8
 50
0.0
 71
0
 42
0.2
  3
gdt
  4

  0
ENDTAB
  0
TABLE
  2
VIEW
  5
6
100
AcDbSymbolTable
 70
0
  0
ENDTAB
  0
TABLE
  2
UCS
  5
7
100
AcDbSymbolTable
 70
0
  0
ENDTAB
  0
TABLE
  2
APPID
  5
9
100
AcDbSymbolTable
 70
1
  0
APPID
  5
20B
100
AcDbSymbolTableRecord
100
AcDbRegAppTableRecord
  2
ACAD
 70
0
  0
ENDTAB
  0
TABLE
  2
BLOCK_RECORD
  5
1
100
AcDbSymbolTable
 70
0
  0
BLOCK_RECORD
  5
20C
100
AcDbSymbolTableRecord
100
AcDbBlockTableRecord
  2
*Model_Space
  0
BLOCK_RECORD
  5
20D
100
AcDbSymbolTableRecord
100
AcDbBlockTableRecord
  2
*Paper_Space
  0
BLOCK_RECORD
  5
20E
100
AcDbSymbolTableRecord
100
AcDbBlockTableRecord
  2
SUN_FIRST_THIRD_ANGLE_BL0
  0
BLOCK_RECORD
  5
20F
100
AcDbSymbolTableRecord
100
AcDbBlockTableRecord
  2
*T1
  0
BLOCK_RECORD
  5
210
100
AcDbSymbolTableRecord
100
AcDbBlockTableRecord
  2
*T2
  0
BLOCK_RECORD
  5
211
100
AcDbSymbolTableRecord
100
AcDbBlockTableRecord
  2
*T3
  0
ENDTAB
  0
TABLE
  2
DIMSTYLE
  5
A
100
AcDbSymbolTable
 70
1
100
AcDbDimStyleTable
 71
0
  0
DIMSTYLE
105
212
100
AcDbSymbolTableRecord
100
AcDbDimStyleTableRecord
  2
STANDARD
 70
0
  3

  4

 40
1.0
 41
0.1875
 42
0.0625
 43
0.38
 44
0.125
 45
0.0
 46
0.0
 47
0.001
 48
0.001
140
0.1
141
0.09
142
0.0
143
25.4
144
1.0
145
0.0
146
1.0
147
0.09
 71
0.0
 72
0.0
 73
1
 74
1
 75
0
 76
0
 77
0
 78
4
170
0
171
2
172
0
173
0
174
0
175
0
176
0
177
0
178
0
270
2
271
3
272
3
273
2
274
2
275
0
280
0
281
0
282
0
283
1
284
4
285
0
286
0
287
3
288
0
340
11
278
46
  0
ENDTAB
  0
ENDSEC
  0
SECTION
  2
BLOCKS
  0
BLOCK
  5
20
100
AcDbEntity
  8
0
100
AcDbBlockBegin
  2
*Model_Space
 70
0
 10
0.0
 20
0.0
 30
0.0
  3
*Model_Space
  1

  0
ENDBLK
  5
21
100
AcDbEntity
  8
0
100
AcDbBlockEnd
  0
BLOCK
  5
1C
100
AcDbEntity
  8
0
100
AcDbBlockBegin
  2
*Paper_Space
 70
0
 10
0.0
 20
0.0
 30
0.0
  3
*Paper_Space
  1

  0
ENDBLK
  5
1D
100
AcDbEntity
  8
0
100
AcDbBlockEnd
  0
BLOCK
  5
213
100
AcDbEntity
  8
0
100
AcDbBlockBegin
 62
2
  6
CONTINUOUS
  2
SUN_FIRST_THIRD_ANGLE_BL0
 70
64
 10
20.4816717061
 20
1.2289683772
  3
SUN_FIRST_THIRD_ANGLE_BL0
  1

  0
TEXT
  5
214
100
AcDbEntity
  8
0
100
AcDbText
 62
2
  6
CONTINUOUS
 10
19.4750896608
 20
1.4136269581
  7
STANDARD
 40
0.08
  1
FIRST ANGLE
 41
0.8
 72
0
100
AcDbText
  0
TEXT
  5
215
100
AcDbEntity
  8
0
100
AcDbText
 62
2
  6
CONTINUOUS
 10
20.7842537513
 20
1.4047600029
  7
STANDARD
 40
0.08
  1
THIRD ANGLE
 41
0.8
 72
0
100
AcDbText
  0
LINE
  5
216
100
AcDbEntity
  8
0
100
AcDbLine
 62
7
  6
CONTINUOUS
 10
19.4767170086
 20
1.1727031207
 11
19.6334271527
 21
1.1717972817
  0
LINE
  5
217
100
AcDbEntity
  8
0
100
AcDbLine
 62
7
  6
CONTINUOUS
 10
19.6596964832
 20
1.1717972817
 11
19.6950230232
 21
1.171593082
  0
LINE
  5
218
100
AcDbEntity
  8
0
100
AcDbLine
 62
7
  6
CONTINUOUS
 10
19.7194818561
 20
1.1708914427
 11
19.8852396156
 21
1.1699333054
  0
LINE
  5
219
100
AcDbEntity
  8
0
100
AcDbLine
 62
7
  6
CONTINUOUS
 10
19.4758111696
 20
1.2723454088
 11
19.88525039
 21
1.3511534004
  0
LINE
  5
21A
100
AcDbEntity
  8
0
100
AcDbLine
 62
7
  6
CONTINUOUS
 10
19.88525039
 20
1.3511534004
 11
19.8831348489
 21
0.9851647912
  0
LINE
  5
21B
100
AcDbEntity
  8
0
100
AcDbLine
 62
7
  6
CONTINUOUS
 10
19.8831348489
 20
0.9851647912
 11
19.4767170086
 21
1.0658141206
  0
LINE
  5
21C
100
AcDbEntity
  8
0
100
AcDbLine
 62
7
  6
CONTINUOUS
 10
19.4767170086
 20
1.0658141206
 11
19.4779056764
 21
1.2714536432
  0
CIRCLE
  5
21D
100
AcDbEntity
  8
0
100
AcDbCircle
 62
7
  6
CONTINUOUS
 10
20.2068232291
 20
1.1717972817
 40
0.175742101
  0
CIRCLE
  5
21E
100
AcDbEntity
  8
0
100
AcDbCircle
 62
7
  6
CONTINUOUS
 10
20.2068232291
 20
1.1717972817
 40
0.1005522074
  0
LINE
  5
21F
100
AcDbEntity
  8
0
100
AcDbLine
 62
7
  6
CONTINUOUS
 10
20.2077290681
 20
1.3756110529
 11
20.2071171714
 21
1.2379342989
  0
LINE
  5
220
100
AcDbEntity
  8
0
100
AcDbLine
 62
7
  6
CONTINUOUS
 10
20.2077290681
 20
1.2016899681
 11
20.2074674401
 21
1.1428236749
  0
LINE
  5
221
100
AcDbEntity
  8
0
100
AcDbLine
 62
7
  6
CONTINUOUS
 10
20.208634907
 20
1.101141841
 11
20.2080230104
 21
0.963465087
  0
LINE
  5
222
100
AcDbEntity
  8
0
100
AcDbLine
 62
7
  6
CONTINUOUS
 10
20.0066328138
 20
1.1745147986
 11
20.1443095678
 21
1.1739029019
  0
LINE
  5
223
100
AcDbEntity
  8
0
100
AcDbLine
 62
7
  6
CONTINUOUS
 10
20.1832714155
 20
1.1727031207
 11
20.238153505
 21
1.172335442
  0
LINE
  5
224
100
AcDbEntity
  8
0
100
AcDbLine
 62
7
  6
CONTINUOUS
 10
20.2756669918
 20
1.1717972817
 11
20.407916871
 21
1.1712095044
  0
CIRCLE
  5
225
100
AcDbEntity
  8
0
100
AcDbCircle
 62
7
  6
CONTINUOUS
 10
20.7509457401
 20
1.1693297793
 40
0.1722024983
  0
CIRCLE
  5
226
100
AcDbEntity
  8
0
100
AcDbCircle
 62
7
  6
CONTINUOUS
 10
20.7509457401
 20
1.1693297793
 40
0.0985164967
  0
LINE
  5
227
100
AcDbEntity
  8
0
100
AcDbLine
 62
7
  6
CONTINUOUS
 10
20.7169767782
 20
1.170462078
 11
20.7825395137
 21
1.1682766535
  0
LINE
  5
228
100
AcDbEntity
  8
0
100
AcDbLine
 62
7
  6
CONTINUOUS
 10
20.8177513651
 20
1.1693297793
 11
20.947965719
 21
1.1693297793
  0
LINE
  5
229
100
AcDbEntity
  8
0
100
AcDbLine
 62
7
  6
CONTINUOUS
 10
20.6875370113
 20
1.170462078
 11
20.5573226574
 21
1.170462078
  0
LINE
  5
22A
100
AcDbEntity
  8
0
100
AcDbLine
 62
7
  6
CONTINUOUS
 10
20.7486811426
 20
1.1987695462
 11
20.7486811426
 21
1.1432869085
  0
LINE
  5
22B
100
AcDbEntity
  8
0
100
AcDbLine
 62
7
  6
CONTINUOUS
 10
20.7498134414
 20
1.1059210505
 11
20.7498134414
 21
0.9757066966
  0
LINE
  5
22C
100
AcDbEntity
  8
0
100
AcDbLine
 62
7
  6
CONTINUOUS
 10
20.7486811426
 20
1.2338708068
 11
20.7486811426
 21
1.3640851607
  0
LINE
  5
22D
100
AcDbEntity
  8
0
100
AcDbLine
 62
7
  6
CONTINUOUS
 10
21.0702539817
 20
1.2701043662
 11
21.4790138229
 21
1.3448360823
  0
LINE
  5
22E
100
AcDbEntity
  8
0
100
AcDbLine
 62
7
  6
CONTINUOUS
 10
21.4790138229
 20
1.3448360823
 11
21.4790138229
 21
0.9779712941
  0
LINE
  5
22F
100
AcDbEntity
  8
0
100
AcDbLine
 62
7
  6
CONTINUOUS
 10
21.4790138229
 20
0.9779712941
 11
21.069121683
 21
1.0617614
  0
LINE
  5
230
100
AcDbEntity
  8
0
100
AcDbLine
 62
7
  6
CONTINUOUS
 10
21.0702539817
 20
1.2701043662
 11
21.069121683
 21
1.0617614
  0
LINE
  5
231
100
AcDbEntity
  8
0
100
AcDbLine
 62
7
  6
CONTINUOUS
 10
21.4790138229
 20
1.1693297793
 11
21.3159628059
 21
1.1693297793
  0
LINE
  5
232
100
AcDbEntity
  8
0
100
AcDbLine
 62
7
  6
CONTINUOUS
 10
21.2876553377
 20
1.1693297793
 11
21.2502894796
 21
1.1693297793
  0
LINE
  5
233
100
AcDbEntity
  8
0
100
AcDbLine
 62
7
  6
CONTINUOUS
 10
21.2208497126
 20
1.1659328831
 11
21.0713862804
 21
1.1659328831
  0
LINE
  5
234
100
AcDbEntity
  8
0
100
AcDbLine
 62
7
  6
CONTINUOUS
 10
20.4796138713
 20
1.5284908897
 11
20.4766766948
 21
0.9294458646
  0
ENDBLK
  5
235
100
AcDbEntity
  8
0
  6
BYBLOCK
 62
0
100
AcDbBlockEnd
  0
BLOCK
  5
236
100
AcDbEntity
  8
0
100
AcDbBlockBegin
  2
*T1
 70
1
 10
0.0
 20
0.0
  3
*T1
  1

  0
LINE
  5
237
100
AcDbEntity
  8
0
100
AcDbLine
 62
2
  6
CONTINUOUS
 10
9.275
 20
0.0
 11
-0.0
 21
0.0
  0
LINE
  5
238
100
AcDbEntity
  8
0
100
AcDbLine
 62
2
  6
CONTINUOUS
 10
9.275
 20
0.0
 11
9.275
 21
1.25
  0
LINE
  5
239
100
AcDbEntity
  8
0
100
AcDbLine
 62
2
  6
CONTINUOUS
 10
9.275
 20
0.625
 11
-0.0
 21
0.625
  0
LINE
  5
23A
100
AcDbEntity
  8
0
100
AcDbLine
 62
2
  6
CONTINUOUS
 10
9.275
 20
1.25
 11
-0.0
 21
1.25
  0
LINE
  5
23B
100
AcDbEntity
  8
0
100
AcDbLine
 62
2
  6
CONTINUOUS
 10
6.8
 20
0.0
 11
6.8
 21
1.25
  0
LINE
  5
23C
100
AcDbEntity
  8
0
100
AcDbLine
 62
2
  6
CONTINUOUS
 10
6.4
 20
0.0
 11
6.4
 21
0.625
  0
LINE
  5
23D
100
AcDbEntity
  8
0
100
AcDbLine
 62
2
  6
CONTINUOUS
 10
5.9
 20
0.0
 11
5.9
 21
0.625
  0
LINE
  5
23E
100
AcDbEntity
  8
0
100
AcDbLine
 62
2
  6
CONTINUOUS
 10
5.2
 20
0.0
 11
5.2
 21
0.625
  0
LINE
  5
23F
100
AcDbEntity
  8
0
100
AcDbLine
 62
2
  6
CONTINUOUS
 10
4.1
 20
0.0
 11
4.1
 21
1.25
  0
LINE
  5
240
100
AcDbEntity
  8
0
100
AcDbLine
 62
2
  6
CONTINUOUS
 10
-0.0
 20
0.0
 11
-0.0
 21
1.25
  0
MTEXT
  5
241
100
AcDbEntity
  8
0
100
AcDbMText
 62
2
  6
CONTINUOUS
  7
STANDARD
 71
2
 72
1
 10
6.6
 20
0.325
 30
0.0
 11
1.0
 21
0.0
 31
0.0
 44
0.9
  1
2
 40
0.125
 41
0.2
  0
MTEXT
  5
242
100
AcDbEntity
  8
0
100
AcDbMText
 62
2
  6
CONTINUOUS
  7
STANDARD
 71
2
 72
1
 10
6.15
 20
0.325
 30
0.0
 11
1.0
 21
0.0
 31
0.0
 44
0.9
  1
C
 40
0.125
 41
0.2
  0
MTEXT
  5
243
100
AcDbEntity
  8
0
100
AcDbMText
 62
2
  6
CONTINUOUS
  7
STANDARD
 71
2
 72
1
 10
5.55
 20
0.325
 30
0.0
 11
1.0
 21
0.0
 31
0.0
 44
0.9
  1
1.000
 40
0.125
 41
1.0
  0
MTEXT
  5
244
100
AcDbEntity
  8
0
100
AcDbMText
 62
2
  6
CONTINUOUS
  7
STANDARD
 71
2
 72
1
 10
4.65
 20
0.325
 30
0.0
 11
1.0
 21
0.0
 31
0.0
 44
0.9
  1
Nov-27-19
 40
0.125
 41
1.8
  0
MTEXT
  5
245
100
AcDbEntity
  8
0
100
AcDbMText
 62
2
  6
CONTINUOUS
  7
STANDARD
 71
2
 72
1
 10
2.05
 20
0.4625
 30
0.0
 11
1.0
 21
0.0
 31
0.0
 44
0.9
  1
T-11A Line mount\P(See Technical Data for Body Features)
 40
0.125
 41
7.6
  0
MTEXT
  5
246
100
AcDbEntity
  8
0
100
AcDbMText
 62
2
  6
CONTINUOUS
  7
STANDARD
 71
1
 72
1
 10
6.45
 20
0.5625
 30
0.0
 11
1.0
 21
0.0
 31
0.0
 44
0.9
  1
SHEET
 40
0.06
 41
0.48
  0
MTEXT
  5
247
100
AcDbEntity
  8
0
100
AcDbMText
 62
2
  6
CONTINUOUS
  7
STANDARD
 71
1
 72
1
 10
5.95
 20
0.5625
 30
0.0
 11
1.0
 21
0.0
 31
0.0
 44
0.9
  1
DWG SIZE
 40
0.06
 41
0.768
  0
MTEXT
  5
248
100
AcDbEntity
  8
0
100
AcDbMText
 62
2
  6
CONTINUOUS
  7
STANDARD
 71
1
 72
1
 10
5.25
 20
0.5625
 30
0.0
 11
1.0
 21
0.0
 31
0.0
 44
0.9
  1
SCALE
 40
0.06
 41
0.48
  0
MTEXT
  5
249
100
AcDbEntity
  8
0
100
AcDbMText
 62
2
  6
CONTINUOUS
  7
STANDARD
 71
1
 72
1
 10
4.15
 20
0.5625
 30
0.0
 11
1.0
 21
0.0
 31
0.0
 44
0.9
  1
DATE
 40
0.06
 41
0.384
  0
MTEXT
  5
24A
100
AcDbEntity
  8
0
100
AcDbMText
 62
2
  6
CONTINUOUS
  7
STANDARD
 71
1
 72
1
 10
0.05
 20
0.5625
 30
0.0
 11
1.0
 21
0.0
 31
0.0
 44
0.9
  1
DESCRIPTION
 40
0.06
 41
1.056
  0
MTEXT
  5
24B
100
AcDbEntity
  8
0
100
AcDbMText
 62
2
  6
CONTINUOUS
  7
STANDARD
 71
2
 72
1
 10
5.45
 20
1.0375
 30
0.0
 11
1.0
 21
0.0
 31
0.0
 44
0.9
  1
ALL DIMENSIONS IN INCH\PVIEWS ARE THIRD ANGLE
 40
0.12
 41
4.224
  0
MTEXT
  5
24C
100
AcDbEntity
  8
0
100
AcDbMText
 62
2
  6
CONTINUOUS
  7
STANDARD
 71
2
 72
1
 10
2.05
 20
0.95
 30
0.0
 11
1.0
 21
0.0
 31
0.0
 44
0.9
  1
E6V
 40
0.125
 41
0.6
  0
MTEXT
  5
24D
100
AcDbEntity
  8
0
100
AcDbMText
 62
2
  6
CONTINUOUS
  7
STANDARD
 71
1
 72
1
 10
0.05
 20
1.1875
 30
0.0
 11
1.0
 21
0.0
 31
0.0
 44
0.9
  1
MODEL
 40
0.06
 41
0.48
  0
ENDBLK
  5
24E
100
AcDbEntity
  8
0
  6
BYBLOCK
 62
0
100
AcDbBlockEnd
  0
BLOCK
  5
24F
100
AcDbEntity
  8
0
100
AcDbBlockBegin
  2
*T2
 70
1
 10
0.0
 20
0.0
  3
*T2
  1

  0
LINE
  5
250
100
AcDbEntity
  8
0
100
AcDbLine
 62
2
  6
CONTINUOUS
 10
0.0
 20
0.0
 11
9.055
 21
0.0
  0
LINE
  5
251
100
AcDbEntity
  8
0
100
AcDbLine
 62
2
  6
CONTINUOUS
 10
0.0
 20
0.0
 11
0.0
 21
-2.844
  0
LINE
  5
252
100
AcDbEntity
  8
0
100
AcDbLine
 62
2
  6
CONTINUOUS
 10
0.0
 20
-0.344
 11
9.055
 21
-0.344
  0
LINE
  5
253
100
AcDbEntity
  8
0
100
AcDbLine
 62
2
  6
CONTINUOUS
 10
0.0
 20
-0.594
 11
9.055
 21
-0.594
  0
LINE
  5
254
100
AcDbEntity
  8
0
100
AcDbLine
 62
2
  6
CONTINUOUS
 10
0.0
 20
-0.844
 11
9.055
 21
-0.844
  0
LINE
  5
255
100
AcDbEntity
  8
0
100
AcDbLine
 62
2
  6
CONTINUOUS
 10
0.0
 20
-1.094
 11
9.055
 21
-1.094
  0
LINE
  5
256
100
AcDbEntity
  8
0
100
AcDbLine
 62
2
  6
CONTINUOUS
 10
0.0
 20
-1.344
 11
9.055
 21
-1.344
  0
LINE
  5
257
100
AcDbEntity
  8
0
100
AcDbLine
 62
2
  6
CONTINUOUS
 10
0.0
 20
-1.594
 11
9.055
 21
-1.594
  0
LINE
  5
258
100
AcDbEntity
  8
0
100
AcDbLine
 62
2
  6
CONTINUOUS
 10
0.0
 20
-1.844
 11
9.055
 21
-1.844
  0
LINE
  5
259
100
AcDbEntity
  8
0
100
AcDbLine
 62
2
  6
CONTINUOUS
 10
0.0
 20
-2.094
 11
9.055
 21
-2.094
  0
LINE
  5
25A
100
AcDbEntity
  8
0
100
AcDbLine
 62
2
  6
CONTINUOUS
 10
0.0
 20
-2.344
 11
9.055
 21
-2.344
  0
LINE
  5
25B
100
AcDbEntity
  8
0
100
AcDbLine
 62
2
  6
CONTINUOUS
 10
0.0
 20
-2.594
 11
9.055
 21
-2.594
  0
LINE
  5
25C
100
AcDbEntity
  8
0
100
AcDbLine
 62
2
  6
CONTINUOUS
 10
0.0
 20
-2.844
 11
9.055
 21
-2.844
  0
LINE
  5
25D
100
AcDbEntity
  8
0
100
AcDbLine
 62
2
  6
CONTINUOUS
 10
3.055
 20
0.0
 11
3.055
 21
-2.844
  0
LINE
  5
25E
100
AcDbEntity
  8
0
100
AcDbLine
 62
2
  6
CONTINUOUS
 10
9.055
 20
0.0
 11
9.055
 21
-2.844
  0
MTEXT
  5
25F
100
AcDbEntity
  8
0
100
AcDbMText
 62
2
  6
CONTINUOUS
  7
STANDARD
 71
2
 72
1
 10
1.5275
 20
-0.0995
 30
0.0
 11
1.0
 21
0.0
 31
0.0
 44
0.9
  1
Technical Data
 40
0.145
 41
3.248
  0
MTEXT
  5
260
100
AcDbEntity
  8
0
100
AcDbMText
 62
2
  6
CONTINUOUS
  7
STANDARD
 71
2
 72
1
 10
4.555
 20
-0.0995
 30
0.0
 11
1.0
 21
0.0
 31
0.0
 44
0.9
  1
U.S. Units
 40
0.145
 41
2.32
  0
MTEXT
  5
261
100
AcDbEntity
  8
0
100
AcDbMText
 62
2
  6
CONTINUOUS
  7
STANDARD
 71
2
 72
1
 10
7.555
 20
-0.0995
 30
0.0
 11
1.0
 21
0.0
 31
0.0
 44
0.9
  1
Metric Units
 40
0.145
 41
2.784
  0
MTEXT
  5
262
100
AcDbEntity
  8
0
100
AcDbMText
 62
2
  6
CONTINUOUS
  7
STANDARD
 71
2
 72
1
 10
1.5275
 20
-0.4065
 30
0.0
 11
1.0
 21
0.0
 31
0.0
 44
0.9
  1
Cavity
 40
0.125
 41
1.2
  0
MTEXT
  5
263
100
AcDbEntity
  8
0
100
AcDbMText
 62
2
  6
CONTINUOUS
  7
STANDARD
 71
2
 72
1
 10
6.055
 20
-0.4065
 30
0.0
 11
1.0
 21
0.0
 31
0.0
 44
0.9
  1
T-11A
 40
0.125
 41
1.0
  0
MTEXT
  5
264
100
AcDbEntity
  8
0
100
AcDbMText
 62
2
  6
CONTINUOUS
  7
STANDARD
 71
2
 72
1
 10
1.5275
 20
-0.6565
 30
0.0
 11
1.0
 21
0.0
 31
0.0
 44
0.9
  1
Body Features
 40
0.125
 41
2.6
  0
MTEXT
  5
265
100
AcDbEntity
  8
0
100
AcDbMText
 62
2
  6
CONTINUOUS
  7
STANDARD
 71
2
 72
1
 10
6.055
 20
-0.6565
 30
0.0
 11
1.0
 21
0.0
 31
0.0
 44
0.9
  1
Ninety degree with reverse flow check - sequence
 40
0.125
 41
9.6
  0
MTEXT
  5
266
100
AcDbEntity
  8
0
100
AcDbMText
 62
2
  6
CONTINUOUS
  7
STANDARD
 71
2
 72
1
 10
1.5275
 20
-0.9065
 30
0.0
 11
1.0
 21
0.0
 31
0.0
 44
0.9
  1
Body Type
 40
0.125
 41
1.8
  0
MTEXT
  5
267
100
AcDbEntity
  8
0
100
AcDbMText
 62
2
  6
CONTINUOUS
  7
STANDARD
 71
2
 72
1
 10
6.055
 20
-0.9065
 30
0.0
 11
1.0
 21
0.0
 31
0.0
 44
0.9
  1
Line mount
 40
0.125
 41
2.0
  0
MTEXT
  5
268
100
AcDbEntity
  8
0
100
AcDbMText
 62
2
  6
CONTINUOUS
  7
STANDARD
 71
2
 72
1
 10
1.5275
 20
-1.1565
 30
0.0
 11
1.0
 21
0.0
 31
0.0
 44
0.9
  1
Interface
 40
0.125
 41
1.8
  0
MTEXT
  5
269
100
AcDbEntity
  8
0
100
AcDbMText
 62
2
  6
CONTINUOUS
  7
STANDARD
 71
2
 72
1
 10
6.055
 20
-1.1565
 30
0.0
 11
1.0
 21
0.0
 31
0.0
 44
0.9
  1
None
 40
0.125
 41
0.8
  0
MTEXT
  5
26A
100
AcDbEntity
  8
0
100
AcDbMText
 62
2
  6
CONTINUOUS
  7
STANDARD
 71
2
 72
1
 10
1.5275
 20
-1.4065
 30
0.0
 11
1.0
 21
0.0
 31
0.0
 44
0.9
  1
Open Cavity Quantity
 40
0.125
 41
4.0
  0
MTEXT
  5
26B
100
AcDbEntity
  8
0
100
AcDbMText
 62
2
  6
CONTINUOUS
  7
STANDARD
 71
2
 72
1
 10
6.055
 20
-1.4065
 30
0.0
 11
1.0
 21
0.0
 31
0.0
 44
0.9
  1
1
 40
0.125
 41
0.2
  0
MTEXT
  5
26C
100
AcDbEntity
  8
0
100
AcDbMText
 62
2
  6
CONTINUOUS
  7
STANDARD
 71
2
 72
1
 10
1.5275
 20
-1.6565
 30
0.0
 11
1.0
 21
0.0
 31
0.0
 44
0.9
  1
Weight
 40
0.125
 41
1.2
  0
MTEXT
  5
26D
100
AcDbEntity
  8
0
100
AcDbMText
 62
2
  6
CONTINUOUS
  7
STANDARD
 71
2
 72
1
 10
4.555
 20
-1.6565
 30
0.0
 11
1.0
 21
0.0
 31
0.0
 44
0.9
  1
1.223 lb.
 40
0.125
 41
1.8
  0
MTEXT
  5
26E
100
AcDbEntity
  8
0
100
AcDbMText
 62
2
  6
CONTINUOUS
  7
STANDARD
 71
2
 72
1
 10
7.555
 20
-1.6565
 30
0.0
 11
1.0
 21
0.0
 31
0.0
 44
0.9
  1
0,555 kg.
 40
0.125
 41
1.8
  0
MTEXT
  5
26F
100
AcDbEntity
  8
0
100
AcDbMText
 62
2
  6
CONTINUOUS
  7
STANDARD
 71
2
 72
1
 10
1.5275
 20
-1.9065
 30
0.0
 11
1.0
 21
0.0
 31
0.0
 44
0.9
  1
Check Cracking Pressure
 40
0.125
 41
4.6
  0
MTEXT
  5
270
100
AcDbEntity
  8
0
100
AcDbMText
 62
2
  6
CONTINUOUS
  7
STANDARD
 71
2
 72
1
 10
4.555
 20
-1.9065
 30
0.0
 11
1.0
 21
0.0
 31
0.0
 44
0.9
  1
30 psi
 40
0.125
 41
1.2
  0
MTEXT
  5
271
100
AcDbEntity
  8
0
100
AcDbMText
 62
2
  6
CONTINUOUS
  7
STANDARD
 71
2
 72
1
 10
7.555
 20
-1.9065
 30
0.0
 11
1.0
 21
0.0
 31
0.0
 44
0.9
  1
2 bar
 40
0.125
 41
1.0
  0
MTEXT
  5
272
100
AcDbEntity
  8
0
100
AcDbMText
 62
2
  6
CONTINUOUS
  7
STANDARD
 71
2
 72
1
 10
1.5275
 20
-2.1565
 30
0.0
 11
1.0
 21
0.0
 31
0.0
 44
0.9
  1
Mounting Hole Diameter
 40
0.125
 41
4.4
  0
MTEXT
  5
273
100
AcDbEntity
  8
0
100
AcDbMText
 62
2
  6
CONTINUOUS
  7
STANDARD
 71
2
 72
1
 10
4.555
 20
-2.1565
 30
0.0
 11
1.0
 21
0.0
 31
0.0
 44
0.9
  1
.34 in.
 40
0.125
 41
1.4
  0
MTEXT
  5
274
100
AcDbEntity
  8
0
100
AcDbMText
 62
2
  6
CONTINUOUS
  7
STANDARD
 71
2
 72
1
 10
7.555
 20
-2.1565
 30
0.0
 11
1.0
 21
0.0
 31
0.0
 44
0.9
  1
8.6 mm
 40
0.125
 41
1.2
  0
MTEXT
  5
275
100
AcDbEntity
  8
0
100
AcDbMText
 62
2
  6
CONTINUOUS
  7
STANDARD
 71
2
 72
1
 10
1.5275
 20
-2.4065
 30
0.0
 11
1.0
 21
0.0
 31
0.0
 44
0.9
  1
Mounting Hole Depth
 40
0.125
 41
3.8
  0
MTEXT
  5
276
100
AcDbEntity
  8
0
100
AcDbMText
 62
2
  6
CONTINUOUS
  7
STANDARD
 71
2
 72
1
 10
6.055
 20
-2.4065
 30
0.0
 11
1.0
 21
0.0
 31
0.0
 44
0.9
  1
Through
 40
0.125
 41
1.4
  0
MTEXT
  5
277
100
AcDbEntity
  8
0
100
AcDbMText
 62
2
  6
CONTINUOUS
  7
STANDARD
 71
2
 72
1
 10
1.5275
 20
-2.6565
 30
0.0
 11
1.0
 21
0.0
 31
0.0
 44
0.9
  1
Mounting Hole Quantity
 40
0.125
 41
4.4
  0
MTEXT
  5
278
100
AcDbEntity
  8
0
100
AcDbMText
 62
2
  6
CONTINUOUS
  7
STANDARD
 71
2
 72
1
 10
6.055
 20
-2.6565
 30
0.0
 11
1.0
 21
0.0
 31
0.0
 44
0.9
  1
2
 40
0.125
 41
0.2
  0
ENDBLK
  5
279
100
AcDbEntity
  8
0
  6
BYBLOCK
 62
0
100
AcDbBlockEnd
  0
BLOCK
  5
27A
100
AcDbEntity
  8
0
100
AcDbBlockBegin
  2
*T3
 70
1
 10
0.0
 20
0.0
  3
*T3
  1

  0
LINE
  5
27B
100
AcDbEntity
  8
0
100
AcDbLine
 62
2
  6
CONTINUOUS
 10
0.0
 20
0.0
 11
4.6
 21
0.0
  0
LINE
  5
27C
100
AcDbEntity
  8
0
100
AcDbLine
 62
2
  6
CONTINUOUS
 10
0.0
 20
0.0
 11
0.0
 21
-1.43775
  0
LINE
  5
27D
100
AcDbEntity
  8
0
100
AcDbLine
 62
2
  6
CONTINUOUS
 10
0.0
 20
-0.34375
 11
4.6
 21
-0.34375
  0
LINE
  5
27E
100
AcDbEntity
  8
0
100
AcDbLine
 62
2
  6
CONTINUOUS
 10
0.0
 20
-0.68775
 11
4.6
 21
-0.68775
  0
LINE
  5
27F
100
AcDbEntity
  8
0
100
AcDbLine
 62
2
  6
CONTINUOUS
 10
0.0
 20
-0.93775
 11
4.6
 21
-0.93775
  0
LINE
  5
280
100
AcDbEntity
  8
0
100
AcDbLine
 62
2
  6
CONTINUOUS
 10
0.0
 20
-1.18775
 11
4.6
 21
-1.18775
  0
LINE
  5
281
100
AcDbEntity
  8
0
100
AcDbLine
 62
2
  6
CONTINUOUS
 10
0.0
 20
-1.43775
 11
4.6
 21
-1.43775
  0
LINE
  5
282
100
AcDbEntity
  8
0
100
AcDbLine
 62
2
  6
CONTINUOUS
 10
1.3
 20
-0.34375
 11
1.3
 21
-1.43775
  0
LINE
  5
283
100
AcDbEntity
  8
0
100
AcDbLine
 62
2
  6
CONTINUOUS
 10
3.3
 20
-0.34375
 11
3.3
 21
-1.43775
  0
LINE
  5
284
100
AcDbEntity
  8
0
100
AcDbLine
 62
2
  6
CONTINUOUS
 10
4.6
 20
0.0
 11
4.6
 21
-1.43775
  0
MTEXT
  5
285
100
AcDbEntity
  8
0
100
AcDbMText
 62
2
  6
CONTINUOUS
  7
STANDARD
 71
2
 72
1
 10
2.3
 20
-0.099375
 30
0.0
 11
1.0
 21
0.0
 31
0.0
 44
0.9
  1
Port Headings
 40
0.145
 41
3.016
  0
MTEXT
  5
286
100
AcDbEntity
  8
0
100
AcDbMText
 62
2
  6
CONTINUOUS
  7
STANDARD
 71
2
 72
1
 10
0.65
 20
-0.44325
 30
0.0
 11
1.0
 21
0.0
 31
0.0
 44
0.9
  1
Product
 40
0.145
 41
1.624
  0
MTEXT
  5
287
100
AcDbEntity
  8
0
100
AcDbMText
 62
2
  6
CONTINUOUS
  7
STANDARD
 71
2
 72
1
 10
2.3
 20
-0.44325
 30
0.0
 11
1.0
 21
0.0
 31
0.0
 44
0.9
  1
Port
 40
0.145
 41
0.928
  0
MTEXT
  5
288
100
AcDbEntity
  8
0
100
AcDbMText
 62
2
  6
CONTINUOUS
  7
STANDARD
 71
2
 72
1
 10
3.95
 20
-0.44325
 30
0.0
 11
1.0
 21
0.0
 31
0.0
 44
0.9
  1
Size
 40
0.145
 41
0.928
  0
MTEXT
  5
289
100
AcDbEntity
  8
0
100
AcDbMText
 62
2
  6
CONTINUOUS
  7
STANDARD
 71
2
 72
1
 10
0.65
 20
-0.75025
 30
0.0
 11
1.0
 21
0.0
 31
0.0
 44
0.9
  1
E6V
 40
0.125
 41
0.6
  0
MTEXT
  5
28A
100
AcDbEntity
  8
0
100
AcDbMText
 62
2
  6
CONTINUOUS
  7
STANDARD
 71
2
 72
1
 10
2.3
 20
-0.75025
 30
0.0
 11
1.0
 21
0.0
 31
0.0
 44
0.9
  1
Ports 1 &  2
 40
0.125
 41
2.4
  0
MTEXT
  5
28B
100
AcDbEntity
  8
0
100
AcDbMText
 62
2
  6
CONTINUOUS
  7
STANDARD
 71
2
 72
1
 10
3.95
 20
-0.75025
 30
0.0
 11
1.0
 21
0.0
 31
0.0
 44
0.9
  1
1/2" BSPP
 40
0.125
 41
1.8
  0
MTEXT
  5
28C
100
AcDbEntity
  8
0
100
AcDbMText
 62
2
  6
CONTINUOUS
  7
STANDARD
 71
2
 72
1
 10
0.65
 20
-1.00025
 30
0.0
 11
1.0
 21
0.0
 31
0.0
 44
0.9
  1
E6V
 40
0.125
 41
0.6
  0
MTEXT
  5
28D
100
AcDbEntity
  8
0
100
AcDbMText
 62
2
  6
CONTINUOUS
  7
STANDARD
 71
2
 72
1
 10
2.3
 20
-1.00025
 30
0.0
 11
1.0
 21
0.0
 31
0.0
 44
0.9
  1
Port 3
 40
0.125
 41
1.2
  0
MTEXT
  5
28E
100
AcDbEntity
  8
0
100
AcDbMText
 62
2
  6
CONTINUOUS
  7
STANDARD
 71
2
 72
1
 10
3.95
 20
-1.00025
 30
0.0
 11
1.0
 21
0.0
 31
0.0
 44
0.9
  1
1/4" BSPP
 40
0.125
 41
1.8
  0
MTEXT
  5
28F
100
AcDbEntity
  8
0
100
AcDbMText
 62
2
  6
CONTINUOUS
  7
STANDARD
 71
2
 72
1
 10
0.65
 20
-1.25025
 30
0.0
 11
1.0
 21
0.0
 31
0.0
 44
0.9
  1
E6V
 40
0.125
 41
0.6
  0
MTEXT
  5
290
100
AcDbEntity
  8
0
100
AcDbMText
 62
2
  6
CONTINUOUS
  7
STANDARD
 71
2
 72
1
 10
2.3
 20
-1.25025
 30
0.0
 11
1.0
 21
0.0
 31
0.0
 44
0.9
  1
Gage Port
 40
0.125
 41
1.8
  0
MTEXT
  5
291
100
AcDbEntity
  8
0
100
AcDbMText
 62
2
  6
CONTINUOUS
  7
STANDARD
 71
2
 72
1
 10
3.95
 20
-1.25025
 30
0.0
 11
1.0
 21
0.0
 31
0.0
 44
0.9
  1
1/4" BSPP
 40
0.125
 41
1.8
  0
ENDBLK
  5
292
100
AcDbEntity
  8
0
  6
BYBLOCK
 62
0
100
AcDbBlockEnd
  0
ENDSEC
  0
SECTION
  2
ENTITIES
  0
IMAGE
  5
293
100
AcDbEntity
  8
0
100
AcDbRasterImage
 62
7
  6
CONTINUOUS
 10
19.2297077316
 20
0.3094318264
 30
0.0
 11
0.0066666667
 21
0.0
 31
0.0
 12
0.0
 22
0.0066666667
 32
0.0
 13
369.0
 23
92.0
340
       39B
 70
9
280
0
281
50
282
50
283
0
360
       395
 71
1
 91
2
 14
-0.5
 24
-0.5
 14
368.5
 24
91.5
  0
INSERT
  5
294
100
AcDbEntity
  8
0
100
AcDbBlockReference
 62
2
  6
CONTINUOUS
  2
SUN_FIRST_THIRD_ANGLE_BL0
 10
20.4816717061
 20
1.2289683772
  0
ACAD_TABLE
  5
295
100
AcDbEntity
  8
0
 62
2
  6
CONTINUOUS
100
AcDbBlockReference
  2
*T1
 10
12.42375
 20
0.30125
 30
0.0
100
AcDbTable
342
       39D
343
20F
 11
1.0
 21
0.0
 31
0.0
 90
6
 91
4
 92
6
 93
20
 94
0
 95
0
 96
0
 70
1
 41
0.0
141
0.525
141
0.1
141
0.525
141
0.1
142
4.1
142
1.1
142
0.7
142
0.5
142
0.4
142
2.475
171
1
172
0
173
0
174
0
175
1
176
1
 91
33
178
0
145
0.0
301
CELL_VALUE
 90
4
  1
T-11A Line mount\P(See Technical Data for Body Features)
304
ACVALUE_END
170
2
140
0.125
171
1
172
0
173
0
174
0
175
1
176
1
 91
33
178
0
145
0.0
301
CELL_VALUE
 90
4
  1
Nov-27-19
304
ACVALUE_END
170
5
140
0.125
171
1
172
0
173
0
174
0
175
1
176
1
 91
33
178
0
145
0.0
301
CELL_VALUE
 90
4
  1
1.000
304
ACVALUE_END
170
5
140
0.125
171
1
172
0
173
0
174
0
175
1
176
1
 91
33
178
0
145
0.0
301
CELL_VALUE
 90
4
  1
C
304
ACVALUE_END
170
5
140
0.125
171
1
172
0
173
0
174
0
175
1
176
1
 91
33
178
0
145
0.0
301
CELL_VALUE
 90
4
  1
2
304
ACVALUE_END
170
5
140
0.125
171
1
172
0
173
0
174
0
175
1
176
1
 91
33
178
0
145
0.0
301
CELL_VALUE
 90
4
  1
 
304
ACVALUE_END
170
1
140
0.125
171
1
172
0
173
0
174
0
175
1
176
1
 91
33
178
0
145
0.0
301
CELL_VALUE
 90
4
  1
DESCRIPTION
304
ACVALUE_END
170
1
140
0.06
171
1
172
0
173
0
174
0
175
1
176
1
 91
33
178
0
145
0.0
301
CELL_VALUE
 90
4
  1
DATE
304
ACVALUE_END
170
1
140
0.06
171
1
172
0
173
0
174
0
175
1
176
1
 91
33
178
0
145
0.0
301
CELL_VALUE
 90
4
  1
SCALE
304
ACVALUE_END
170
1
140
0.06
171
1
172
0
173
0
174
0
175
1
176
1
 91
33
178
0
145
0.0
301
CELL_VALUE
 90
4
  1
DWG SIZE
304
ACVALUE_END
170
1
140
0.06
171
1
172
0
173
0
174
0
175
1
176
1
 91
33
178
0
145
0.0
301
CELL_VALUE
 90
4
  1
SHEET
304
ACVALUE_END
170
1
140
0.06
171
1
172
0
173
0
174
0
175
1
176
1
 91
33
178
0
145
0.0
301
CELL_VALUE
 90
4
  1
 
304
ACVALUE_END
170
1
140
0.125
171
1
172
0
173
0
174
0
175
1
176
1
 91
33
178
0
145
0.0
301
CELL_VALUE
 90
4
  1
E6V
304
ACVALUE_END
170
5
140
0.125
171
1
172
0
173
0
174
0
175
4
176
1
 91
33
178
0
145
0.0
301
CELL_VALUE
 90
4
  1
ALL DIMENSIONS IN INCH\PVIEWS ARE THIRD ANGLE
304
ACVALUE_END
170
5
140
0.12
171
1
172
0
173
1
174
0
175
1
176
1
 91
1
178
0
145
0.0
170
1
171
1
172
0
173
1
174
0
175
1
176
1
 91
1
178
0
145
0.0
170
1
171
1
172
0
173
1
174
0
175
1
176
1
 91
1
178
0
145
0.0
170
5
171
1
172
0
173
0
174
0
175
1
176
1
 91
33
178
0
145
0.0
301
CELL_VALUE
 90
4
  1
 
304
ACVALUE_END
170
1
140
0.125
171
1
172
0
173
0
174
0
175
1
176
1
 91
33
178
0
145
0.0
301
CELL_VALUE
 90
4
  1
MODEL
304
ACVALUE_END
170
1
140
0.06
171
1
172
0
173
0
174
0
175
1
176
1
 91
33
178
0
145
0.0
301
CELL_VALUE
 90
4
  1
 
304
ACVALUE_END
170
1
140
0.125
171
1
172
0
173
0
174
0
175
1
176
1
 91
33
178
0
145
0.0
301
CELL_VALUE
 90
4
  1
 
304
ACVALUE_END
170
1
140
0.125
171
1
172
0
173
0
174
0
175
1
176
1
 91
33
178
0
145
0.0
301
CELL_VALUE
 90
4
  1
 
304
ACVALUE_END
170
1
140
0.125
171
1
172
0
173
0
174
0
175
1
176
1
 91
33
178
0
145
0.0
301
CELL_VALUE
 90
4
  1
 
304
ACVALUE_END
170
1
140
0.125
171
1
172
0
173
0
174
0
175
1
176
1
 91
33
178
0
145
0.0
301
CELL_VALUE
 90
4
  1
 
304
ACVALUE_END
170
1
140
0.125
  0
ACAD_TABLE
  5
296
100
AcDbEntity
  8
0
 62
2
  6
CONTINUOUS
100
AcDbBlockReference
  2
*T2
 10
12.4237499994
 20
16.47875
 30
0.0
100
AcDbTable
342
       39C
343
210
 11
1.0
 21
0.0
 31
0.0
 90
22
 91
11
 92
3
 93
16
 94
0
 95
0
 96
0
 41
0.028
141
0.344
141
0.25
141
0.25
141
0.25
141
0.25
141
0.25
141
0.25
141
0.25
141
0.25
141
0.25
141
0.25
142
3.055
142
3.0
142
3.0
171
1
172
0
173
0
174
0
175
1
176
1
 91
33
178
0
145
0.0
301
CELL_VALUE
 90
4
  1
Technical Data
304
ACVALUE_END
170
5
140
0.145
171
1
172
0
173
0
174
0
175
1
176
1
 91
33
178
0
145
0.0
301
CELL_VALUE
 90
4
  1
U.S. Units
304
ACVALUE_END
170
5
140
0.145
171
1
172
0
173
0
174
0
175
1
176
1
 91
33
178
0
145
0.0
301
CELL_VALUE
 90
4
  1
Metric Units
304
ACVALUE_END
170
5
140
0.145
171
1
172
0
173
0
174
0
175
1
176
1
 91
33
178
0
145
0.0
301
CELL_VALUE
 90
4
  1
Cavity
304
ACVALUE_END
170
5
140
0.125
171
1
172
0
173
0
174
0
175
2
176
1
 91
33
178
0
145
0.0
301
CELL_VALUE
 90
4
  1
T-11A
304
ACVALUE_END
170
5
140
0.125
171
1
172
0
173
1
174
0
175
1
176
1
 91
1
178
0
145
0.0
170
1
171
1
172
0
173
0
174
0
175
1
176
1
 91
33
178
0
145
0.0
301
CELL_VALUE
 90
4
  1
Body Features
304
ACVALUE_END
170
5
140
0.125
171
1
172
0
173
0
174
0
175
2
176
1
 91
33
178
0
145
0.0
301
CELL_VALUE
 90
4
  1
Ninety degree with reverse flow check - sequence
304
ACVALUE_END
170
5
140
0.125
171
1
172
0
173
1
174
0
175
1
176
1
 91
1
178
0
145
0.0
170
1
171
1
172
0
173
0
174
0
175
1
176
1
 91
33
178
0
145
0.0
301
CELL_VALUE
 90
4
  1
Body Type
304
ACVALUE_END
170
5
140
0.125
171
1
172
0
173
0
174
0
175
2
176
1
 91
33
178
0
145
0.0
301
CELL_VALUE
 90
4
  1
Line mount
304
ACVALUE_END
170
5
140
0.125
171
1
172
0
173
1
174
0
175
1
176
1
 91
1
178
0
145
0.0
170
1
171
1
172
0
173
0
174
0
175
1
176
1
 91
33
178
0
145
0.0
301
CELL_VALUE
 90
4
  1
Interface
304
ACVALUE_END
170
5
140
0.125
171
1
172
0
173
0
174
0
175
2
176
1
 91
33
178
0
145
0.0
301
CELL_VALUE
 90
4
  1
None
304
ACVALUE_END
170
5
140
0.125
171
1
172
0
173
1
174
0
175
1
176
1
 91
1
178
0
145
0.0
170
1
171
1
172
0
173
0
174
0
175
1
176
1
 91
33
178
0
145
0.0
301
CELL_VALUE
 90
4
  1
Open Cavity Quantity
304
ACVALUE_END
170
5
140
0.125
171
1
172
0
173
0
174
0
175
2
176
1
 91
33
178
0
145
0.0
301
CELL_VALUE
 90
4
  1
1
304
ACVALUE_END
170
5
140
0.125
171
1
172
0
173
1
174
0
175
1
176
1
 91
1
178
0
145
0.0
170
1
171
1
172
0
173
0
174
0
175
1
176
1
 91
33
178
0
145
0.0
301
CELL_VALUE
 90
4
  1
Weight
304
ACVALUE_END
170
5
140
0.125
171
1
172
0
173
0
174
0
175
1
176
1
 91
33
178
0
145
0.0
301
CELL_VALUE
 90
4
  1
1.223 lb.
304
ACVALUE_END
170
5
140
0.125
171
1
172
0
173
0
174
0
175
1
176
1
 91
33
178
0
145
0.0
301
CELL_VALUE
 90
4
  1
0,555 kg.
304
ACVALUE_END
170
5
140
0.125
171
1
172
0
173
0
174
0
175
1
176
1
 91
33
178
0
145
0.0
301
CELL_VALUE
 90
4
  1
Check Cracking Pressure
304
ACVALUE_END
170
5
140
0.125
171
1
172
0
173
0
174
0
175
1
176
1
 91
33
178
0
145
0.0
301
CELL_VALUE
 90
4
  1
30 psi
304
ACVALUE_END
170
5
140
0.125
171
1
172
0
173
0
174
0
175
1
176
1
 91
33
178
0
145
0.0
301
CELL_VALUE
 90
4
  1
2 bar
304
ACVALUE_END
170
5
140
0.125
171
1
172
0
173
0
174
0
175
1
176
1
 91
33
178
0
145
0.0
301
CELL_VALUE
 90
4
  1
Mounting Hole Diameter
304
ACVALUE_END
170
5
140
0.125
171
1
172
0
173
0
174
0
175
1
176
1
 91
33
178
0
145
0.0
301
CELL_VALUE
 90
4
  1
.34 in.
304
ACVALUE_END
170
5
140
0.125
171
1
172
0
173
0
174
0
175
1
176
1
 91
33
178
0
145
0.0
301
CELL_VALUE
 90
4
  1
8.6 mm
304
ACVALUE_END
170
5
140
0.125
171
1
172
0
173
0
174
0
175
1
176
1
 91
33
178
0
145
0.0
301
CELL_VALUE
 90
4
  1
Mounting Hole Depth
304
ACVALUE_END
170
5
140
0.125
171
1
172
0
173
0
174
0
175
2
176
1
 91
33
178
0
145
0.0
301
CELL_VALUE
 90
4
  1
Through
304
ACVALUE_END
170
5
140
0.125
171
1
172
0
173
1
174
0
175
1
176
1
 91
1
178
0
145
0.0
170
1
171
1
172
0
173
0
174
0
175
1
176
1
 91
33
178
0
145
0.0
301
CELL_VALUE
 90
4
  1
Mounting Hole Quantity
304
ACVALUE_END
170
5
140
0.125
171
1
172
0
173
0
174
0
175
2
176
1
 91
33
178
0
145
0.0
301
CELL_VALUE
 90
4
  1
2
304
ACVALUE_END
170
5
140
0.125
171
1
172
0
173
1
174
0
175
1
176
1
 91
1
178
0
145
0.0
170
1
  0
ACAD_TABLE
  5
297
100
AcDbEntity
  8
0
 62
2
  6
CONTINUOUS
100
AcDbBlockReference
  2
*T3
 10
0.52125
 20
1.959
 30
0.0
100
AcDbTable
342
       39C
343
211
 11
1.0
 21
0.0
 31
0.0
 90
22
 91
5
 92
3
 93
16
 94
0
 95
0
 96
0
 41
0.05
141
0.34375
141
0.344
141
0.25
141
0.25
141
0.25
142
1.3
142
2.0
142
1.3
171
1
172
0
173
0
174
0
175
3
176
1
 91
33
178
0
145
0.0
301
CELL_VALUE
 90
4
  1
Port Headings
304
ACVALUE_END
170
5
140
0.145
171
1
172
0
173
1
174
0
175
1
176
1
 91
1
178
0
145
0.0
170
1
171
1
172
0
173
1
174
0
175
1
176
1
 91
1
178
0
145
0.0
170
1
171
1
172
0
173
0
174
0
175
1
176
1
 91
33
178
0
145
0.0
301
CELL_VALUE
 90
4
  1
Product
304
ACVALUE_END
170
5
140
0.145
171
1
172
0
173
0
174
0
175
1
176
1
 91
33
178
0
145
0.0
301
CELL_VALUE
 90
4
  1
Port
304
ACVALUE_END
170
5
140
0.145
171
1
172
0
173
0
174
0
175
1
176
1
 91
33
178
0
145
0.0
301
CELL_VALUE
 90
4
  1
Size
304
ACVALUE_END
170
5
140
0.145
171
1
172
0
173
0
174
0
175
1
176
1
 91
33
178
0
145
0.0
301
CELL_VALUE
 90
4
  1
E6V
304
ACVALUE_END
170
5
140
0.125
171
1
172
0
173
0
174
0
175
1
176
1
 91
33
178
0
145
0.0
301
CELL_VALUE
 90
4
  1
Ports 1 &  2
304
ACVALUE_END
170
5
140
0.125
171
1
172
0
173
0
174
0
175
1
176
1
 91
33
178
0
145
0.0
301
CELL_VALUE
 90
4
  1
1/2" BSPP
304
ACVALUE_END
170
5
140
0.125
171
1
172
0
173
0
174
0
175
1
176
1
 91
33
178
0
145
0.0
301
CELL_VALUE
 90
4
  1
E6V
304
ACVALUE_END
170
5
140
0.125
171
1
172
0
173
0
174
0
175
1
176
1
 91
33
178
0
145
0.0
301
CELL_VALUE
 90
4
  1
Port 3
304
ACVALUE_END
170
5
140
0.125
171
1
172
0
173
0
174
0
175
1
176
1
 91
33
178
0
145
0.0
301
CELL_VALUE
 90
4
  1
1/4" BSPP
304
ACVALUE_END
170
5
140
0.125
171
1
172
0
173
0
174
0
175
1
176
1
 91
33
178
0
145
0.0
301
CELL_VALUE
 90
4
  1
E6V
304
ACVALUE_END
170
5
140
0.125
171
1
172
0
173
0
174
0
175
1
176
1
 91
33
178
0
145
0.0
301
CELL_VALUE
 90
4
  1
Gage Port
304
ACVALUE_END
170
5
140
0.125
171
1
172
0
173
0
174
0
175
1
176
1
 91
33
178
0
145
0.0
301
CELL_VALUE
 90
4
  1
1/4" BSPP
304
ACVALUE_END
170
5
140
0.125
  0
MTEXT
  5
298
100
AcDbEntity
  8
0
100
AcDbMText
 62
2
  6
CONTINUOUS
  7
STANDARD
 71
1
 72
1
 10
0.52125
 20
5.75995
 30
0.0
 11
1.0
 21
0.0
 31
0.0
 44
0.6
  3
Notes\P \P1. Important: Carefully consider\P   the maximum system pressure. The\P   pressure rating of the manifold is\P   dependent on the manifold material,\P   with the port type/size a secondary\P   consideration. Manifolds\P   constructed of alu
  1
minum are not\P   rated for pressures higher than\P   3000 psi (210 bar), regardless of\P   the port type/size specified.
 40
0.1
 41
3.04
  0
LINE
  5
299
100
AcDbEntity
  8
0
100
AcDbLine
 62
7
  6
CONTINUOUS
 10
0.30125
 20
0.30125
 11
0.30125
 21
16.69875
  0
LINE
  5
29A
100
AcDbEntity
  8
0
100
AcDbLine
 62
7
  6
CONTINUOUS
 10
0.30125
 20
0.30125
 11
21.69875
 21
0.30125
  0
LINE
  5
29B
100
AcDbEntity
  8
0
100
AcDbLine
 62
7
  6
CONTINUOUS
 10
0.30125
 20
16.69875
 11
21.69875
 21
16.69875
  0
LINE
  5
29C
100
AcDbEntity
  8
0
100
AcDbLine
 62
7
  6
CONTINUOUS
 10
21.69875
 20
0.30125
 11
21.69875
 21
16.69875
  0
LINE
  5
29D
100
AcDbEntity
  8
0
100
AcDbLine
 62
7
  6
CONTINUOUS
 10
9.7128729444
 20
10.7425653472
 11
9.389349405
 21
10.4300655866
  0
LINE
  5
29E
100
AcDbEntity
  8
0
100
AcDbLine
 62
4
  6
CONTINUOUS
 10
9.5825346818
 20
9.9597852323
 11
9.5752902378
 21
9.9506283799
  0
LINE
  5
29F
100
AcDbEntity
  8
0
100
AcDbLine
 62
4
  6
CONTINUOUS
 10
9.531823574
 20
9.9826205791
 11
9.5463124619
 21
9.9912750276
  0
LINE
  5
2A0
100
AcDbEntity
  8
0
100
AcDbLine
 62
4
  6
CONTINUOUS
 10
9.5897791257
 20
9.9013272767
 11
9.5752902378
 21
9.8830135675
  0
LINE
  5
2A1
100
AcDbEntity
  8
0
100
AcDbLine
 62
4
  6
CONTINUOUS
 10
9.5752902378
 20
9.9506283799
 11
9.5608013499
 21
9.9419739245
  0
LINE
  5
2A2
100
AcDbEntity
  8
0
100
AcDbLine
 62
4
  6
CONTINUOUS
 10
9.5752902378
 20
9.8830135675
 11
9.5608013499
 21
9.8743591164
  0
LINE
  5
2A3
100
AcDbEntity
  8
0
100
AcDbLine
 62
7
  6
CONTINUOUS
 10
11.2064931483
 20
6.3251394322
 11
11.2228173394
 21
6.3170755943
  0
LINE
  5
2A4
100
AcDbEntity
  8
0
100
AcDbLine
 62
7
  6
CONTINUOUS
 10
9.389349405
 20
6.9285842588
 11
12.2871270556
 21
6.7276226962
  0
LINE
  5
2A5
100
AcDbEntity
  8
0
100
AcDbLine
 62
7
  6
CONTINUOUS
 10
9.389349405
 20
6.9285842588
 11
9.389349405
 21
10.4300655866
  0
LINE
  5
2A6
100
AcDbEntity
  8
0
100
AcDbLine
 62
4
  6
CONTINUOUS
 10
9.5825346818
 20
9.9694444886
 11
9.5825346818
 21
9.9597852323
  0
LINE
  5
2A7
100
AcDbEntity
  8
0
100
AcDbLine
 62
4
  6
CONTINUOUS
 10
9.5825346818
 20
7.8714534411
 11
9.5825346818
 21
7.7555423377
  0
LINE
  5
2A8
100
AcDbEntity
  8
0
100
AcDbLine
 62
4
  6
CONTINUOUS
 10
9.5897791257
 20
9.9109865365
 11
9.5897791257
 21
9.9013272767
  0
LINE
  5
2A9
100
AcDbEntity
  8
0
100
AcDbLine
 62
4
  6
CONTINUOUS
 10
11.1748634168
 20
7.1370369568
 11
11.1603745288
 21
7.1380417646
  0
LINE
  5
2AA
100
AcDbEntity
  8
0
100
AcDbLine
 62
4
  6
CONTINUOUS
 10
11.1676189728
 20
7.1954949124
 11
11.1965967487
 21
7.1934852968
  0
LINE
  5
2AB
100
AcDbEntity
  8
0
100
AcDbLine
 62
4
  6
CONTINUOUS
 10
10.2959398651
 20
9.4185160256
 11
10.3124985949
 21
9.4339264018
  0
LINE
  5
2AC
100
AcDbEntity
  8
0
100
AcDbLine
 62
4
  6
CONTINUOUS
 10
11.1603745288
 20
7.253952868
 11
11.1748634168
 21
7.2529480602
  0
LINE
  5
2AD
100
AcDbEntity
  8
0
100
AcDbLine
 62
4
  6
CONTINUOUS
 10
10.3373366887
 20
9.3162927707
 11
10.3538954168
 21
9.3317031488
  0
LINE
  5
2AE
100
AcDbEntity
  8
0
100
AcDbLine
 62
4
  6
CONTINUOUS
 10
10.4284097035
 20
9.3099768357
 11
10.4449684247
 21
9.3253872143
  0
LINE
  5
2AF
100
AcDbEntity
  8
0
100
AcDbLine
 62
4
  6
CONTINUOUS
 10
11.1603745288
 20
7.1380417646
 11
11.1458856409
 21
7.1487058313
  0
LINE
  5
2B0
100
AcDbEntity
  8
0
100
AcDbLine
 62
4
  6
CONTINUOUS
 10
11.1748634168
 20
7.2529480602
 11
11.1893523047
 21
7.2422839961
  0
LINE
  5
2B1
100
AcDbEntity
  8
0
100
AcDbLine
 62
4
  6
CONTINUOUS
 10
10.8147800529
 20
9.3576962408
 11
10.8313387741
 21
9.364827257
  0
LINE
  5
2B2
100
AcDbEntity
  8
0
100
AcDbLine
 62
4
  6
CONTINUOUS
 10
10.9720879869
 20
9.3053900783
 11
10.988646708
 21
9.3125210911
  0
LINE
  5
2B3
100
AcDbEntity
  8
0
100
AcDbLine
 62
4
  6
CONTINUOUS
 10
10.2959398651
 20
9.4019572975
 11
10.2959398651
 21
9.4185160256
  0
LINE
  5
2B4
100
AcDbEntity
  8
0
100
AcDbLine
 62
4
  6
CONTINUOUS
 10
10.3538954168
 20
9.3317031488
 11
10.3538954168
 21
9.3482618787
  0
LINE
  5
2B5
100
AcDbEntity
  8
0
100
AcDbLine
 62
4
  6
CONTINUOUS
 10
10.387012873
 20
9.4287588191
 11
10.387012873
 21
9.3294064455
  0
LINE
  5
2B6
100
AcDbEntity
  8
0
100
AcDbLine
 62
4
  6
CONTINUOUS
 10
10.4228901335
 20
8.7192129917
 11
10.4228901335
 21
8.8351240951
  0
LINE
  5
2B7
100
AcDbEntity
  8
0
100
AcDbLine
 62
4
  6
CONTINUOUS
 10
10.4449684247
 20
9.3253872143
 11
10.4449684247
 21
9.4247395879
  0
LINE
  5
2B8
100
AcDbEntity
  8
0
100
AcDbLine
 62
4
  6
CONTINUOUS
 10
11.1458856409
 20
7.1487058313
 11
11.131396753
 21
7.169029156
  0
LINE
  5
2B9
100
AcDbEntity
  8
0
100
AcDbLine
 62
4
  6
CONTINUOUS
 10
11.1893523047
 20
7.2422839961
 11
11.1965967487
 21
7.232122329
  0
LINE
  5
2BA
100
AcDbEntity
  8
0
100
AcDbLine
 62
4
  6
CONTINUOUS
 10
10.4780858808
 20
9.3065317811
 11
10.4780858808
 21
9.4224428845
  0
LINE
  5
2BB
100
AcDbEntity
  8
0
100
AcDbLine
 62
4
  6
CONTINUOUS
 10
10.4808456783
 20
8.8145461364
 11
10.4808456783
 21
8.7317524908
  0
LINE
  5
2BC
100
AcDbEntity
  8
0
100
AcDbLine
 62
4
  6
CONTINUOUS
 10
10.5360414326
 20
9.30251255
 11
10.5360414326
 21
9.4184236534
  0
LINE
  5
2BD
100
AcDbEntity
  8
0
100
AcDbLine
 62
4
  6
CONTINUOUS
 10
10.5277620779
 20
8.7119400976
 11
10.5608795341
 21
8.8255544977
  0
LINE
  5
2BE
100
AcDbEntity
  8
0
100
AcDbLine
 62
4
  6
CONTINUOUS
 10
10.7595842788
 20
9.2594119191
 11
10.7927017212
 21
9.3675067458
  0
LINE
  5
2BF
100
AcDbEntity
  8
0
100
AcDbLine
 62
4
  6
CONTINUOUS
 10
10.8175398331
 20
9.0379213775
 11
10.800981105
 21
9.005952273
  0
LINE
  5
2C0
100
AcDbEntity
  8
0
100
AcDbLine
 62
7
  6
CONTINUOUS
 10
12.2871270556
 20
10.229104024
 11
12.610650595
 21
10.5416037846
  0
LINE
  5
2C1
100
AcDbEntity
  8
0
100
AcDbLine
 62
4
  6
CONTINUOUS
 10
10.4808456783
 20
8.7317524908
 11
10.4642869502
 21
8.7163421127
  0
LINE
  5
2C2
100
AcDbEntity
  8
0
100
AcDbLine
 62
4
  6
CONTINUOUS
 10
10.8423779217
 20
9.0610369458
 11
10.8175398331
 21
9.0379213775
  0
LINE
  5
2C3
100
AcDbEntity
  8
0
100
AcDbLine
 62
4
  6
CONTINUOUS
 10
10.8423779217
 20
8.9451258423
 11
10.8589366567
 21
8.96053622
  0
LINE
  5
2C4
100
AcDbEntity
  8
0
100
AcDbLine
 62
4
  6
CONTINUOUS
 10
11.2563461349
 20
9.327073529
 11
11.2646254678
 21
9.3347787228
  0
LINE
  5
2C5
100
AcDbEntity
  8
0
100
AcDbLine
 62
4
  6
CONTINUOUS
 10
11.330860463
 20
9.3219059428
 11
11.339139796
 21
9.3296111366
  0
LINE
  5
2C6
100
AcDbEntity
  8
0
100
AcDbLine
 62
4
  6
CONTINUOUS
 10
10.4008118259
 20
8.7924986228
 11
10.3566552143
 21
8.7734825866
  0
LINE
  5
2C7
100
AcDbEntity
  8
0
100
AcDbLine
 62
4
  6
CONTINUOUS
 10
9.531823574
 20
9.8860279909
 11
9.52457913
 21
9.8961896537
  0
LINE
  5
2C8
100
AcDbEntity
  8
0
100
AcDbLine
 62
4
  6
CONTINUOUS
 10
10.6602318966
 20
9.293899912
 11
10.6602318966
 21
9.4098110155
  0
LINE
  5
2C9
100
AcDbEntity
  8
0
100
AcDbLine
 62
4
  6
CONTINUOUS
 10
10.6602319163
 20
8.7027532831
 11
10.6602319163
 21
8.8186643866
  0
LINE
  5
2CA
100
AcDbEntity
  8
0
100
AcDbLine
 62
4
  6
CONTINUOUS
 10
10.7099080877
 20
9.3649691363
 11
10.7099080877
 21
9.2904548565
  0
LINE
  5
2CB
100
AcDbEntity
  8
0
100
AcDbLine
 62
4
  6
CONTINUOUS
 10
10.7181874577
 20
8.9537384803
 11
10.7181874577
 21
9.0696495837
  0
LINE
  5
2CC
100
AcDbEntity
  8
0
100
AcDbLine
 62
4
  6
CONTINUOUS
 10
10.7264668286
 20
8.6981598764
 11
10.7264668286
 21
8.8140709798
  0
LINE
  5
2CD
100
AcDbEntity
  8
0
100
AcDbLine
 62
4
  6
CONTINUOUS
 10
10.800981105
 20
9.005952273
 11
10.800981105
 21
8.9645554511
  0
LINE
  5
2CE
100
AcDbEntity
  8
0
100
AcDbLine
 62
4
  6
CONTINUOUS
 10
10.8147800529
 20
9.2914613259
 11
10.8147800529
 21
9.3576962408
  0
LINE
  5
2CF
100
AcDbEntity
  8
0
100
AcDbLine
 62
4
  6
CONTINUOUS
 10
10.925171569
 20
8.9393840834
 11
10.9582890252
 21
9.0529984834
  0
LINE
  5
2D0
100
AcDbEntity
  8
0
100
AcDbLine
 62
4
  6
CONTINUOUS
 10
11.3722572383
 20
9.2445207869
 11
11.3805365713
 21
9.2522259781
  0
LINE
  5
2D1
100
AcDbEntity
  8
0
100
AcDbLine
 62
4
  6
CONTINUOUS
 10
10.9003335114
 20
8.7854545563
 11
10.9168922326
 21
8.8008649332
  0
LINE
  5
2D2
100
AcDbEntity
  8
0
100
AcDbLine
 62
4
  6
CONTINUOUS
 10
10.9969260608
 20
8.7787558403
 11
11.0134847819
 21
8.7941662171
  0
LINE
  5
2D3
100
AcDbEntity
  8
0
100
AcDbLine
 62
4
  6
CONTINUOUS
 10
10.4642869502
 20
8.8322532161
 11
10.4808456783
 21
8.8145461364
  0
LINE
  5
2D4
100
AcDbEntity
  8
0
100
AcDbLine
 62
4
  6
CONTINUOUS
 10
9.5752902378
 20
9.9313098604
 11
9.5897791257
 21
9.9109865365
  0
LINE
  5
2D5
100
AcDbEntity
  8
0
100
AcDbLine
 62
4
  6
CONTINUOUS
 10
9.5752902378
 20
9.9796061558
 11
9.5825346818
 21
9.9694444886
  0
LINE
  5
2D6
100
AcDbEntity
  8
0
100
AcDbLine
 62
4
  6
CONTINUOUS
 10
10.5608795341
 20
8.8255544977
 11
10.593997004
 21
8.7073466899
  0
LINE
  5
2D7
100
AcDbEntity
  8
0
100
AcDbLine
 62
4
  6
CONTINUOUS
 10
11.131396753
 20
7.169029156
 11
11.124152309
 21
7.1985093358
  0
LINE
  5
2D8
100
AcDbEntity
  8
0
100
AcDbLine
 62
4
  6
CONTINUOUS
 10
10.8589366567
 20
8.96053622
 11
10.8589366567
 21
8.9936536778
  0
LINE
  5
2D9
100
AcDbEntity
  8
0
100
AcDbLine
 62
4
  6
CONTINUOUS
 10
10.8644562164
 20
9.3956480108
 11
10.8644562164
 21
9.2797369073
  0
LINE
  5
2DA
100
AcDbEntity
  8
0
100
AcDbLine
 62
4
  6
CONTINUOUS
 10
10.897573714
 20
9.2774402011
 11
10.897573714
 21
9.3602338484
  0
LINE
  5
2DB
100
AcDbEntity
  8
0
100
AcDbLine
 62
4
  6
CONTINUOUS
 10
10.9003335114
 20
8.7026609108
 11
10.9003335114
 21
8.7854545563
  0
LINE
  5
2DC
100
AcDbEntity
  8
0
100
AcDbLine
 62
4
  6
CONTINUOUS
 10
10.9362107116
 20
9.349274996
 11
10.9362107116
 21
9.3327162679
  0
LINE
  5
2DD
100
AcDbEntity
  8
0
100
AcDbLine
 62
4
  6
CONTINUOUS
 10
10.9720879869
 20
9.2805519836
 11
10.9720879869
 21
9.3053900783
  0
LINE
  5
2DE
100
AcDbEntity
  8
0
100
AcDbLine
 62
4
  6
CONTINUOUS
 10
10.9969260608
 20
8.6959621947
 11
10.9969260608
 21
8.7787558403
  0
LINE
  5
2DF
100
AcDbEntity
  8
0
100
AcDbLine
 62
4
  6
CONTINUOUS
 10
11.0217641504
 20
9.2688275651
 11
11.0217641504
 21
9.3350624843
  0
LINE
  5
2E0
100
AcDbEntity
  8
0
100
AcDbLine
 62
4
  6
CONTINUOUS
 10
11.2149493043
 20
9.3713412326
 11
11.2121895267
 21
9.3632532563
  0
LINE
  5
2E1
100
AcDbEntity
  8
0
100
AcDbLine
 62
4
  6
CONTINUOUS
 10
11.0548816125
 20
8.6919429636
 11
11.0383228913
 21
8.676532585
  0
LINE
  5
2E2
100
AcDbEntity
  8
0
100
AcDbLine
 62
4
  6
CONTINUOUS
 10
11.1459546065
 20
8.68562703
 11
11.1293958854
 21
8.6702166514
  0
LINE
  5
2E3
100
AcDbEntity
  8
0
100
AcDbLine
 62
4
  6
CONTINUOUS
 10
11.3198212617
 20
8.7066867944
 11
11.2756646535
 21
8.6876707597
  0
LINE
  5
2E4
100
AcDbEntity
  8
0
100
AcDbLine
 62
4
  6
CONTINUOUS
 10
10.3566552143
 20
8.7734825866
 11
10.4008118259
 21
8.7483420094
  0
LINE
  5
2E5
100
AcDbEntity
  8
0
100
AcDbLine
 62
4
  6
CONTINUOUS
 10
10.4780858808
 20
9.4224428845
 11
10.5360414326
 21
9.30251255
  0
LINE
  5
2E6
100
AcDbEntity
  8
0
100
AcDbLine
 62
4
  6
CONTINUOUS
 10
10.7430255577
 20
9.3709517994
 11
10.7678636671
 21
9.2864356234
  0
LINE
  5
2E7
100
AcDbEntity
  8
0
100
AcDbLine
 62
4
  6
CONTINUOUS
 10
11.0548815927
 20
9.3493245099
 11
11.0548815927
 21
9.2748102275
  0
LINE
  5
2E8
100
AcDbEntity
  8
0
100
AcDbLine
 62
4
  6
CONTINUOUS
 10
11.0548816125
 20
8.7747366091
 11
11.0548816125
 21
8.6919429636
  0
LINE
  5
2E9
100
AcDbEntity
  8
0
100
AcDbLine
 62
4
  6
CONTINUOUS
 10
11.0879990548
 20
8.6730875313
 11
11.0879990548
 21
8.7889986348
  0
LINE
  5
2EA
100
AcDbEntity
  8
0
100
AcDbLine
 62
4
  6
CONTINUOUS
 10
11.1045578115
 20
9.2630858052
 11
11.1045578115
 21
9.3458794524
  0
LINE
  5
2EB
100
AcDbEntity
  8
0
100
AcDbLine
 62
7
  6
CONTINUOUS
 10
11.1245682596
 20
6.8082464225
 11
11.1245682596
 21
6.4269225383
  0
LINE
  5
2EC
100
AcDbEntity
  8
0
100
AcDbLine
 62
4
  6
CONTINUOUS
 10
11.1376752538
 20
9.2690684676
 11
11.1376752538
 21
9.3767002062
  0
LINE
  5
2ED
100
AcDbEntity
  8
0
100
AcDbLine
 62
4
  6
CONTINUOUS
 10
11.1459546065
 20
8.7684206755
 11
11.1459546065
 21
8.68562703
  0
LINE
  5
2EE
100
AcDbEntity
  8
0
100
AcDbLine
 62
4
  6
CONTINUOUS
 10
11.1928710477
 20
8.6658146339
 11
11.1928710477
 21
8.7817257374
  0
LINE
  5
2EF
100
AcDbEntity
  8
0
100
AcDbLine
 62
4
  6
CONTINUOUS
 10
11.1965967487
 20
7.1934852968
 11
11.1965967487
 21
7.1548482629
  0
LINE
  5
2F0
100
AcDbEntity
  8
0
100
AcDbLine
 62
4
  6
CONTINUOUS
 10
11.1293958854
 20
8.6702166514
 11
11.0879990548
 21
8.6730875313
  0
LINE
  5
2F1
100
AcDbEntity
  8
0
100
AcDbLine
 62
4
  6
CONTINUOUS
 10
11.0383228913
 20
8.676532585
 11
11.0134847819
 21
8.6782551137
  0
LINE
  5
2F2
100
AcDbEntity
  8
0
100
AcDbLine
 62
4
  6
CONTINUOUS
 10
10.9500096749
 20
8.6826571273
 11
10.9168922326
 21
8.6849538298
  0
LINE
  5
2F3
100
AcDbEntity
  8
0
100
AcDbLine
 62
4
  6
CONTINUOUS
 10
10.4642869502
 20
8.7163421127
 11
10.4228901335
 21
8.7192129917
  0
LINE
  5
2F4
100
AcDbEntity
  8
0
100
AcDbLine
 62
4
  6
CONTINUOUS
 10
10.7264668286
 20
8.6981598764
 11
10.7761430198
 21
8.6947148208
  0
LINE
  5
2F5
100
AcDbEntity
  8
0
100
AcDbLine
 62
4
  6
CONTINUOUS
 10
11.1928710477
 20
8.6658146339
 11
11.2425472112
 21
8.6623695803
  0
LINE
  5
2F6
100
AcDbEntity
  8
0
100
AcDbLine
 62
4
  6
CONTINUOUS
 10
10.3538954168
 20
9.3482618787
 11
10.2959398651
 21
9.4019572975
  0
LINE
  5
2F7
100
AcDbEntity
  8
0
100
AcDbLine
 62
4
  6
CONTINUOUS
 10
10.2959398651
 20
9.3274430151
 11
10.30421923
 21
9.3185894743
  0
LINE
  5
2F8
100
AcDbEntity
  8
0
100
AcDbLine
 62
4
  6
CONTINUOUS
 10
10.9168922326
 20
8.6849538298
 11
10.9003335114
 21
8.7026609108
  0
LINE
  5
2F9
100
AcDbEntity
  8
0
100
AcDbLine
 62
4
  6
CONTINUOUS
 10
10.387012873
 20
9.3294064455
 11
10.403571601
 21
9.311699364
  0
LINE
  5
2FA
100
AcDbEntity
  8
0
100
AcDbLine
 62
4
  6
CONTINUOUS
 10
11.0134847819
 20
8.6782551137
 11
10.9969260608
 21
8.6959621947
  0
LINE
  5
2FB
100
AcDbEntity
  8
0
100
AcDbLine
 62
4
  6
CONTINUOUS
 10
10.3456160528
 20
9.4316296983
 11
10.3538954168
 21
9.422776155
  0
LINE
  5
2FC
100
AcDbEntity
  8
0
100
AcDbLine
 62
4
  6
CONTINUOUS
 10
10.800981105
 20
8.9645554511
 11
10.8175398331
 21
8.9468483696
  0
LINE
  5
2FD
100
AcDbEntity
  8
0
100
AcDbLine
 62
4
  6
CONTINUOUS
 10
10.8920541129
 20
9.0575918902
 11
10.925171569
 21
8.9393840834
  0
LINE
  5
2FE
100
AcDbEntity
  8
0
100
AcDbLine
 62
4
  6
CONTINUOUS
 10
11.2121895267
 20
9.2556215204
 11
11.2121895267
 21
9.3384151676
  0
LINE
  5
2FF
100
AcDbEntity
  8
0
100
AcDbLine
 62
4
  6
CONTINUOUS
 10
11.2121895267
 20
9.3632532563
 11
11.2121895267
 21
9.3715326238
  0
LINE
  5
300
100
AcDbEntity
  8
0
100
AcDbLine
 62
7
  6
CONTINUOUS
 10
11.2376230716
 20
6.7383193882
 11
11.2376230716
 21
6.3177201624
  0
LINE
  5
301
100
AcDbEntity
  8
0
100
AcDbLine
 62
4
  6
CONTINUOUS
 10
11.2563461349
 20
9.2608386141
 11
11.2563461349
 21
9.327073529
  0
LINE
  5
302
100
AcDbEntity
  8
0
100
AcDbLine
 62
7
  6
CONTINUOUS
 10
11.2795032991
 20
6.7274800014
 11
11.2795032991
 21
6.3068807757
  0
LINE
  5
303
100
AcDbEntity
  8
0
100
AcDbLine
 62
4
  6
CONTINUOUS
 10
11.330860463
 20
9.2970678507
 11
11.330860463
 21
9.3219059428
  0
LINE
  5
304
100
AcDbEntity
  8
0
100
AcDbLine
 62
4
  6
CONTINUOUS
 10
11.3805365713
 20
9.2522259781
 11
11.3805365713
 21
9.2770640728
  0
LINE
  5
305
100
AcDbEntity
  8
0
100
AcDbLine
 62
4
  6
CONTINUOUS
 10
12.1127774397
 20
8.8676485418
 11
12.1272663276
 21
8.8763029904
  0
LINE
  5
306
100
AcDbEntity
  8
0
100
AcDbLine
 62
4
  6
CONTINUOUS
 10
12.1562441035
 20
8.8259970794
 11
12.1272663276
 21
8.8086881789
  0
LINE
  5
307
100
AcDbEntity
  8
0
100
AcDbLine
 62
4
  6
CONTINUOUS
 10
10.53880123
 20
8.7442919895
 11
10.5829578382
 21
8.7412297183
  0
LINE
  5
308
100
AcDbEntity
  8
0
100
AcDbLine
 62
4
  6
CONTINUOUS
 10
11.22598849
 20
8.7297528507
 11
11.1928710477
 21
8.7320495531
  0
LINE
  5
309
100
AcDbEntity
  8
0
100
AcDbLine
 62
4
  6
CONTINUOUS
 10
10.7595842986
 20
8.7620980912
 11
10.7264668286
 21
8.7643947956
  0
LINE
  5
30A
100
AcDbEntity
  8
0
100
AcDbLine
 62
4
  6
CONTINUOUS
 10
10.4228901335
 20
8.8351240951
 11
10.4642869502
 21
8.8322532161
  0
LINE
  5
30B
100
AcDbEntity
  8
0
100
AcDbLine
 62
4
  6
CONTINUOUS
 10
10.6271144464
 20
8.8209610909
 11
10.6933493587
 21
8.8163676842
  0
LINE
  5
30C
100
AcDbEntity
  8
0
100
AcDbLine
 62
4
  6
CONTINUOUS
 10
10.7264668286
 20
8.8140709798
 11
10.7761430198
 21
8.8106259243
  0
LINE
  5
30D
100
AcDbEntity
  8
0
100
AcDbLine
 62
4
  6
CONTINUOUS
 10
10.9168922326
 20
8.8008649332
 11
10.9500096749
 21
8.7985682308
  0
LINE
  5
30E
100
AcDbEntity
  8
0
100
AcDbLine
 62
4
  6
CONTINUOUS
 10
11.0134847819
 20
8.7941662171
 11
11.0383228913
 21
8.7924436884
  0
LINE
  5
30F
100
AcDbEntity
  8
0
100
AcDbLine
 62
4
  6
CONTINUOUS
 10
11.0879990548
 20
8.7889986348
 11
11.1293958854
 21
8.7861277548
  0
LINE
  5
310
100
AcDbEntity
  8
0
100
AcDbLine
 62
4
  6
CONTINUOUS
 10
11.1928710477
 20
8.7817257374
 11
11.2425472112
 21
8.7782806837
  0
LINE
  5
311
100
AcDbEntity
  8
0
100
AcDbLine
 62
4
  6
CONTINUOUS
 10
12.1055329957
 20
8.7618990986
 11
12.1634885474
 21
8.7578798674
  0
LINE
  5
312
100
AcDbEntity
  8
0
100
AcDbLine
 62
4
  6
CONTINUOUS
 10
11.2756646535
 20
8.7318273731
 11
11.3198212617
 21
8.7066867944
  0
LINE
  5
313
100
AcDbEntity
  8
0
100
AcDbLine
 62
4
  6
CONTINUOUS
 10
9.5463124619
 20
9.8753639242
 11
9.531823574
 21
9.8860279909
  0
LINE
  5
314
100
AcDbEntity
  8
0
100
AcDbLine
 62
4
  6
CONTINUOUS
 10
9.5608013499
 20
9.9419739245
 11
9.5752902378
 21
9.9313098604
  0
LINE
  5
315
100
AcDbEntity
  8
0
100
AcDbLine
 62
4
  6
CONTINUOUS
 10
9.5608013499
 20
9.9902702199
 11
9.5752902378
 21
9.9796061558
  0
LINE
  5
316
100
AcDbEntity
  8
0
100
AcDbLine
 62
4
  6
CONTINUOUS
 10
11.0383228913
 20
8.7924436884
 11
11.0548816125
 21
8.7747366091
  0
LINE
  5
317
100
AcDbEntity
  8
0
100
AcDbLine
 62
4
  6
CONTINUOUS
 10
10.8589366567
 20
8.9936536778
 11
10.8423779217
 21
9.0113607615
  0
LINE
  5
318
100
AcDbEntity
  8
0
100
AcDbLine
 62
4
  6
CONTINUOUS
 10
11.1293958854
 20
8.7861277548
 11
11.1459546065
 21
8.7684206755
  0
LINE
  5
319
100
AcDbEntity
  8
0
100
AcDbLine
 62
4
  6
CONTINUOUS
 10
10.7016287271
 20
9.3738226794
 11
10.7099080877
 21
9.3649691363
  0
LINE
  5
31A
100
AcDbEntity
  8
0
100
AcDbLine
 62
4
  6
CONTINUOUS
 10
11.0217641504
 20
9.3350624843
 11
11.0134848174
 21
9.352195386
  0
LINE
  5
31B
100
AcDbEntity
  8
0
100
AcDbLine
 62
4
  6
CONTINUOUS
 10
11.124152309
 20
7.1985093358
 11
11.131396753
 21
7.2269847077
  0
LINE
  5
31C
100
AcDbEntity
  8
0
100
AcDbLine
 62
7
  6
CONTINUOUS
 10
12.4189939711
 20
9.2795768091
 11
12.4179791963
 21
9.2786146151
  0
LINE
  5
31D
100
AcDbEntity
  8
0
100
AcDbLine
 62
4
  6
CONTINUOUS
 10
10.7181874577
 20
8.9537384803
 11
10.7678636454
 21
8.9502934249
  0
LINE
  5
31E
100
AcDbEntity
  8
0
100
AcDbLine
 62
4
  6
CONTINUOUS
 10
10.8175398331
 20
8.9468483696
 11
10.8423779217
 21
8.9451258423
  0
LINE
  5
31F
100
AcDbEntity
  8
0
100
AcDbLine
 62
4
  6
CONTINUOUS
 10
12.1272663276
 20
8.8763029904
 11
12.1417552155
 21
8.8752981826
  0
LINE
  5
320
100
AcDbEntity
  8
0
100
AcDbLine
 62
4
  6
CONTINUOUS
 10
10.8423779217
 20
9.0113607615
 11
10.806500681
 21
9.0138488566
  0
LINE
  5
321
100
AcDbEntity
  8
0
100
AcDbLine
 62
4
  6
CONTINUOUS
 10
10.7513049173
 20
9.0176766958
 11
10.7181874577
 21
9.0199733995
  0
LINE
  5
322
100
AcDbEntity
  8
0
100
AcDbLine
 62
4
  6
CONTINUOUS
 10
10.7181874577
 20
9.0696495837
 11
10.7678636454
 21
9.0662045284
  0
LINE
  5
323
100
AcDbEntity
  8
0
100
AcDbLine
 62
4
  6
CONTINUOUS
 10
11.0548815927
 20
9.2748102275
 11
11.0631609809
 21
9.2659566851
  0
LINE
  5
324
100
AcDbEntity
  8
0
100
AcDbLine
 62
4
  6
CONTINUOUS
 10
10.9306911563
 20
9.3579371459
 11
10.9362107116
 21
9.349274996
  0
LINE
  5
325
100
AcDbEntity
  8
0
100
AcDbLine
 62
7
  6
CONTINUOUS
 10
11.701429278
 20
6.6982193354
 11
11.701429278
 21
6.2776201096
  0
LINE
  5
326
100
AcDbEntity
  8
0
100
AcDbLine
 62
7
  6
CONTINUOUS
 10
11.7586387166
 20
6.7021868305
 11
11.7586387166
 21
6.2815876047
  0
LINE
  5
327
100
AcDbEntity
  8
0
100
AcDbLine
 62
4
  6
CONTINUOUS
 10
12.1055329957
 20
8.8584916825
 11
12.1127774397
 21
8.8676485418
  0
LINE
  5
328
100
AcDbEntity
  8
0
100
AcDbLine
 62
4
  6
CONTINUOUS
 10
12.1272663276
 20
8.8086881789
 11
12.1127774397
 21
8.7903744706
  0
LINE
  5
329
100
AcDbEntity
  8
0
100
AcDbLine
 62
4
  6
CONTINUOUS
 10
12.1634885474
 20
8.8351539387
 11
12.1562441035
 21
8.8259970794
  0
LINE
  5
32A
100
AcDbEntity
  8
0
100
AcDbLine
 62
4
  6
CONTINUOUS
 10
10.7430255577
 20
9.2605602703
 11
10.7595842788
 21
9.2594119191
  0
LINE
  5
32B
100
AcDbEntity
  8
0
100
AcDbLine
 62
4
  6
CONTINUOUS
 10
10.8313387741
 20
9.2820336098
 11
10.8147800529
 21
9.2914613259
  0
LINE
  5
32C
100
AcDbEntity
  8
0
100
AcDbLine
 62
4
  6
CONTINUOUS
 10
10.988646708
 20
9.2711242675
 11
10.9720879869
 21
9.2805519836
  0
LINE
  5
32D
100
AcDbEntity
  8
0
100
AcDbLine
 62
4
  6
CONTINUOUS
 10
11.145954642
 20
9.2602149252
 11
11.1376752538
 21
9.2690684676
  0
LINE
  5
32E
100
AcDbEntity
  8
0
100
AcDbLine
 62
4
  6
CONTINUOUS
 10
11.2646254678
 20
9.2519850755
 11
11.2563461349
 21
9.2608386141
  0
LINE
  5
32F
100
AcDbEntity
  8
0
100
AcDbLine
 62
4
  6
CONTINUOUS
 10
11.330860463
 20
9.2556710279
 11
11.339139796
 21
9.2468174893
  0
LINE
  5
330
100
AcDbEntity
  8
0
100
AcDbLine
 62
4
  6
CONTINUOUS
 10
11.131396753
 20
7.2269847077
 11
11.1458856409
 21
7.2452984195
  0
LINE
  5
331
100
AcDbEntity
  8
0
100
AcDbLine
 62
4
  6
CONTINUOUS
 10
11.2977430207
 20
9.2496883654
 11
11.2646254678
 21
9.2519850755
  0
LINE
  5
332
100
AcDbEntity
  8
0
100
AcDbLine
 62
4
  6
CONTINUOUS
 10
11.1625133632
 20
9.259066574
 11
11.145954642
 21
9.2602149252
  0
LINE
  5
333
100
AcDbEntity
  8
0
100
AcDbLine
 62
4
  6
CONTINUOUS
 10
11.0217641504
 20
9.2688275651
 11
10.988646708
 21
9.2711242675
  0
LINE
  5
334
100
AcDbEntity
  8
0
100
AcDbLine
 62
4
  6
CONTINUOUS
 10
10.8644562164
 20
9.2797369073
 11
10.8313387741
 21
9.2820336098
  0
LINE
  5
335
100
AcDbEntity
  8
0
100
AcDbLine
 62
4
  6
CONTINUOUS
 10
10.30421923
 20
9.3185894743
 11
10.3373366887
 21
9.3162927707
  0
LINE
  5
336
100
AcDbEntity
  8
0
100
AcDbLine
 62
4
  6
CONTINUOUS
 10
10.403571601
 20
9.311699364
 11
10.4284097035
 21
9.3099768357
  0
LINE
  5
337
100
AcDbEntity
  8
0
100
AcDbLine
 62
4
  6
CONTINUOUS
 10
11.0631609809
 20
9.2659566851
 11
11.1045578115
 21
9.2630858052
  0
LINE
  5
338
100
AcDbEntity
  8
0
100
AcDbLine
 62
4
  6
CONTINUOUS
 10
11.339139796
 20
9.2468174893
 11
11.3722572383
 21
9.2445207869
  0
LINE
  5
339
100
AcDbEntity
  8
0
100
AcDbLine
 62
4
  6
CONTINUOUS
 10
10.988646708
 20
9.3125210911
 11
11.0217641504
 21
9.3102243887
  0
LINE
  5
33A
100
AcDbEntity
  8
0
100
AcDbLine
 62
4
  6
CONTINUOUS
 10
11.0134848174
 20
9.352195386
 11
10.9720879869
 21
9.355066266
  0
LINE
  5
33B
100
AcDbEntity
  8
0
100
AcDbLine
 62
4
  6
CONTINUOUS
 10
10.6602318966
 20
9.3766935593
 11
10.7016287271
 21
9.3738226794
  0
LINE
  5
33C
100
AcDbEntity
  8
0
100
AcDbLine
 62
4
  6
CONTINUOUS
 10
10.8313387741
 20
9.364827257
 11
10.8644562164
 21
9.3625305546
  0
LINE
  5
33D
100
AcDbEntity
  8
0
100
AcDbLine
 62
4
  6
CONTINUOUS
 10
10.897573714
 20
9.3602338484
 11
10.9306911563
 21
9.3579371459
  0
LINE
  5
33E
100
AcDbEntity
  8
0
100
AcDbLine
 62
4
  6
CONTINUOUS
 10
11.2646254678
 20
9.3347787228
 11
11.2977430207
 21
9.3324820127
  0
LINE
  5
33F
100
AcDbEntity
  8
0
100
AcDbLine
 62
4
  6
CONTINUOUS
 10
11.339139796
 20
9.3296111366
 11
11.3722572383
 21
9.3273144341
  0
LINE
  5
340
100
AcDbEntity
  8
0
100
AcDbLine
 62
4
  6
CONTINUOUS
 10
10.3124985949
 20
9.4339264018
 11
10.3456160528
 21
9.4316296983
  0
LINE
  5
341
100
AcDbEntity
  8
0
100
AcDbLine
 62
4
  6
CONTINUOUS
 10
11.2121895267
 20
9.3715326238
 11
11.2149493043
 21
9.3713412326
  0
LINE
  5
342
100
AcDbEntity
  8
0
100
AcDbLine
 62
4
  6
CONTINUOUS
 10
11.3722572383
 20
9.2831578225
 11
11.339139796
 21
9.2909741009
  0
LINE
  5
343
100
AcDbEntity
  8
0
100
AcDbLine
 62
4
  6
CONTINUOUS
 10
11.339139796
 20
9.2909741009
 11
11.330860463
 21
9.2970678507
  0
LINE
  5
344
100
AcDbEntity
  8
0
100
AcDbLine
 62
4
  6
CONTINUOUS
 10
11.3805365713
 20
9.2770640728
 11
11.3722572383
 21
9.2831578225
  0
LINE
  5
345
100
AcDbEntity
  8
0
100
AcDbLine
 62
4
  6
CONTINUOUS
 10
11.3722572383
 20
9.3273144341
 11
11.3805365713
 21
9.318460893
  0
LINE
  5
346
100
AcDbEntity
  8
0
100
AcDbLine
 62
7
  6
CONTINUOUS
 10
12.0675098836
 20
6.7428531988
 11
12.0675098836
 21
6.3615293146
  0
LINE
  5
347
100
AcDbEntity
  8
0
100
AcDbLine
 62
7
  6
CONTINUOUS
 10
12.0828390948
 20
6.7417901144
 11
12.0828390948
 21
6.3763361964
  0
LINE
  5
348
100
AcDbEntity
  8
0
100
AcDbLine
 62
4
  6
CONTINUOUS
 10
12.1127774397
 20
8.7903744706
 11
12.1055329957
 21
8.7618990986
  0
LINE
  5
349
100
AcDbEntity
  8
0
100
AcDbLine
 62
4
  6
CONTINUOUS
 10
11.1965967487
 20
7.1548482629
 11
11.1893523047
 21
7.1456914079
  0
LINE
  5
34A
100
AcDbEntity
  8
0
100
AcDbLine
 62
4
  6
CONTINUOUS
 10
12.1417552155
 20
8.8752981826
 11
12.1562441035
 21
8.8646341185
  0
LINE
  5
34B
100
AcDbEntity
  8
0
100
AcDbLine
 62
4
  6
CONTINUOUS
 10
12.1634885474
 20
8.8544724513
 11
12.1634885474
 21
8.8351539387
  0
LINE
  5
34C
100
AcDbEntity
  8
0
100
AcDbLine
 62
7
  6
CONTINUOUS
 10
12.2871270556
 20
6.7276226962
 11
12.2871270556
 21
10.229104024
  0
LINE
  5
34D
100
AcDbEntity
  8
0
100
AcDbLine
 62
4
  6
CONTINUOUS
 10
11.1458856409
 20
7.2452984195
 11
11.1603745288
 21
7.253952868
  0
LINE
  5
34E
100
AcDbEntity
  8
0
100
AcDbLine
 62
4
  6
CONTINUOUS
 10
11.1893523047
 20
7.1456914079
 11
11.1748634168
 21
7.1370369568
  0
LINE
  5
34F
100
AcDbEntity
  8
0
100
AcDbLine
 62
4
  6
CONTINUOUS
 10
9.5608013499
 20
9.8743591164
 11
9.5463124619
 21
9.8753639242
  0
LINE
  5
350
100
AcDbEntity
  8
0
100
AcDbLine
 62
4
  6
CONTINUOUS
 10
12.1562441035
 20
8.8646341185
 11
12.1634885474
 21
8.8544724513
  0
LINE
  5
351
100
AcDbEntity
  8
0
100
AcDbLine
 62
4
  6
CONTINUOUS
 10
9.5463124619
 20
9.9429787322
 11
9.5608013499
 21
9.9419739245
  0
LINE
  5
352
100
AcDbEntity
  8
0
100
AcDbLine
 62
4
  6
CONTINUOUS
 10
9.5463124619
 20
9.9912750276
 11
9.5608013499
 21
9.9902702199
  0
LINE
  5
353
100
AcDbEntity
  8
0
100
AcDbLine
 62
7
  6
CONTINUOUS
 10
12.610650595
 20
7.0401224568
 11
12.610650595
 21
10.5416037846
  0
LINE
  5
354
100
AcDbEntity
  8
0
100
AcDbLine
 62
7
  6
CONTINUOUS
 10
9.389349405
 20
10.4300655866
 11
12.2871270556
 21
10.229104024
  0
LINE
  5
355
100
AcDbEntity
  8
0
100
AcDbLine
 62
7
  6
CONTINUOUS
 10
12.2871270556
 20
6.7276226962
 11
12.610650595
 21
7.0401224568
  0
LINE
  5
356
100
AcDbEntity
  8
0
100
AcDbLine
 62
7
  6
CONTINUOUS
 10
12.610650595
 20
10.5416037846
 11
9.7128729444
 21
10.7425653472
  0
LINE
  5
357
100
AcDbEntity
  8
0
100
AcDbLine
 62
7
  6
CONTINUOUS
 10
12.0097523677
 20
6.3295053148
 11
11.984590015
 21
6.3170755943
  0
ARC
  5
358
100
AcDbEntity
  8
0
100
AcDbCircle
 62
7
  6
CONTINUOUS
 10
11.6115053758
 20
8.4093308291
 40
1.7134727463
100
AcDbArc
 50
273.0082929995
 51
274.9259690708
  0
ARC
  5
359
100
AcDbEntity
  8
0
100
AcDbCircle
 62
7
  6
CONTINUOUS
 10
11.6115053758
 20
7.9887316034
 40
1.7134727463
100
AcDbArc
 50
273.0082929995
 51
274.9259690708
  0
ARC
  5
35A
100
AcDbEntity
  8
0
100
AcDbCircle
 62
7
  6
CONTINUOUS
 10
10.8069864136
 20
7.7521621222
 40
0.383094934
100
AcDbArc
 50
135.0442200435
 51
135.7290178095
  0
ARC
  5
35B
100
AcDbEntity
  8
0
100
AcDbCircle
 62
7
  6
CONTINUOUS
 10
10.8860977489
 20
7.6702592107
 40
0.3830336874
100
AcDbArc
 50
312.285805581
 51
312.8337343035
  0
SPLINE
  5
35C
100
AcDbEntity
  8
0
100
AcDbSpline
 62
7
  6
CONTINUOUS
 70
0
 71
3
 72
11
 73
7
 74
0
 42
0.0000001
 43
0.0000001
 44
0.0000000001
 40
0.0
 40
0.0
 40
0.0
 40
0.0
 40
0.2399502312
 40
0.4865132022
 40
0.7398237866
 40
1.0
 40
1.0
 40
1.0
 40
1.0
 10
12.0760414342
 20
6.3688726327
 30
0.0
 10
12.0753935591
 20
6.3682468333
 30
0.0
 10
12.0740604201
 20
6.3669980684
 30
0.0
 10
12.071979688
 20
6.3651580676
 30
0.0
 10
12.0697915778
 20
6.363326491
 30
0.0
 10
12.0682819502
 20
6.3621275031
 30
0.0
 10
12.0675098836
 20
6.3615293146
 30
0.0
  0
SPLINE
  5
35D
100
AcDbEntity
  8
0
100
AcDbSpline
 62
7
  6
CONTINUOUS
 70
0
 71
3
 72
11
 73
7
 74
0
 42
0.0000001
 43
0.0000001
 44
0.0000000001
 40
0.0
 40
0.0
 40
0.0
 40
0.0
 40
0.2399382843
 40
0.4864287737
 40
0.7397111676
 40
1.0
 40
1.0
 40
1.0
 40
1.0
 10
12.0828390948
 20
6.3763361964
 30
0.0
 10
12.0823389892
 20
6.3757015841
 30
0.0
 10
12.0813005261
 20
6.3744342362
 30
0.0
 10
12.0796538016
 20
6.372564608
 30
0.0
 10
12.077897936
 20
6.3707017648
 30
0.0
 10
12.0766718709
 20
6.3694815877
 30
0.0
 10
12.0760414342
 20
6.3688726327
 30
0.0
  0
SPLINE
  5
35E
100
AcDbEntity
  8
0
100
AcDbSpline
 62
7
  6
CONTINUOUS
 70
0
 71
3
 72
11
 73
7
 74
0
 42
0.0000001
 43
0.0000001
 44
0.0000000001
 40
0.0
 40
0.0
 40
0.0
 40
0.0
 40
0.2529398012
 40
0.5039896517
 40
0.7530425508
 40
1.0
 40
1.0
 40
1.0
 40
1.0
 10
12.0675098836
 20
6.3615293146
 30
0.0
 10
12.0627552126
 20
6.3586238794
 30
0.0
 10
12.0532262414
 20
6.3529243161
 30
0.0
 10
12.0388155898
 20
6.3447040812
 30
0.0
 10
12.0243404697
 20
6.336870846
 30
0.0
 10
12.0146065664
 20
6.3319033331
 30
0.0
 10
12.009728958
 20
6.3294937514
 30
0.0
  0
SPLINE
  5
35F
100
AcDbEntity
  8
0
100
AcDbSpline
 62
7
  6
CONTINUOUS
 70
0
 71
3
 72
79
 73
75
 74
0
 42
0.0000001
 43
0.0000001
 44
0.0000000001
 40
0.0
 40
0.0
 40
0.0
 40
0.0
 40
0.0049346149
 40
0.0099877251
 40
0.0151590499
 40
0.0204481992
 40
0.0258546713
 40
0.0313778714
 40
0.0370171043
 40
0.0427715926
 40
0.0546226141
 40
0.066923307
 40
0.0796646949
 40
0.0928367656
 40
0.10642856
 40
0.1204282499
 40
0.1348232052
 40
0.1496000531
 40
0.1647447325
 40
0.1802425411
 40
0.1960781811
 40
0.2122357989
 40
0.2286990254
 40
0.2454510106
 40
0.26247446
 40
0.2797516671
 40
0.2972645466
 40
0.3149946648
 40
0.3329232712
 40
0.3510313283
 40
0.3692995407
 40
0.3877083857
 40
0.4062381408
 40
0.424868914
 40
0.443580671
 40
0.462353265
 40
0.4811664639
 40
0.4999999795
 40
0.5188334952
 40
0.5376466942
 40
0.5564192885
 40
0.5751310457
 40
0.5937618193
 40
0.6122915748
 40
0.6307004205
 40
0.6489686336
 40
0.6670766916
 40
0.685005299
 40
0.7027354182
 40
0.7202482986
 40
0.7375255067
 40
0.7545489571
 40
0.7713009434
 40
0.7877641713
 40
0.8039217908
 40
0.8197574325
 40
0.8352552428
 40
0.8503999238
 40
0.8651767734
 40
0.8795717301
 40
0.8935714217
 40
0.9071632179
 40
0.9203352906
 40
0.9330766807
 40
0.945377376
 40
0.9572283997
 40
0.9629828881
 40
0.9686221229
 40
0.9741453233
 40
0.979551797
 40
0.9848409473
 40
0.990012273
 40
0.9950653848
 40
1.0
 40
1.0
 40
1.0
 40
1.0
 10
11.9845900594
 20
6.3170756165
 30
0.0
 10
11.9834452692
 20
6.3165101121
 30
0.0
 10
11.9811186545
 20
6.315384749
 30
0.0
 10
11.9775611601
 20
6.3137321748
 30
0.0
 10
11.9738956309
 20
6.3120954767
 30
0.0
 10
11.9701231342
 20
6.3104751369
 30
0.0
 10
11.9662447541
 20
6.3088716165
 30
0.0
 10
11.9622616091
 20
6.307285385
 30
0.0
 10
11.9581748446
 20
6.3057168905
 30
0.0
 10
11.9525339399
 20
6.3036293822
 30
0.0
 10
11.9452301187
 20
6.3010707043
 30
0.0
 10
11.9361547662
 20
6.298107513
 30
0.0
 10
11.9266953546
 20
6.2952256872
 30
0.0
 10
11.916862811
 20
6.2924285708
 30
0.0
 10
11.906668449
 20
6.2897194073
 30
0.0
 10
11.8961240222
 20
6.28710134
 30
0.0
 10
11.8852416905
 20
6.284577407
 30
0.0
 10
11.8740340102
 20
6.2821505371
 30
0.0
 10
11.8625139173
 20
6.2798235465
 30
0.0
 10
11.8506947122
 20
6.2775991355
 30
0.0
 10
11.8385900438
 20
6.275479885
 30
0.0
 10
11.8262138935
 20
6.2734682538
 30
0.0
 10
11.8135805585
 20
6.2715665756
 30
0.0
 10
11.8007046349
 20
6.269777056
 30
0.0
 10
11.7876010008
 20
6.2681017707
 30
0.0
 10
11.7742847985
 20
6.2665426624
 30
0.0
 10
11.7607714172
 20
6.2651015392
 30
0.0
 10
11.7470764749
 20
6.263780072
 30
0.0
 10
11.7332157998
 20
6.2625797931
 30
0.0
 10
11.719205413
 20
6.2615020941
 30
0.0
 10
11.7050615085
 20
6.2605482244
 30
0.0
 10
11.6908004357
 20
6.2597192896
 30
0.0
 10
11.6764386795
 20
6.2590162506
 30
0.0
 10
11.6619928417
 20
6.2584399222
 30
0.0
 10
11.6474796214
 20
6.2579909725
 30
0.0
 10
11.6329157956
 20
6.2576699219
 30
0.0
 10
11.6183182003
 20
6.2574771423
 30
0.0
 10
11.6037037105
 20
6.2574128574
 30
0.0
 10
11.5890892205
 20
6.2574771416
 30
0.0
 10
11.5744916251
 20
6.2576699206
 30
0.0
 10
11.5599277992
 20
6.2579909707
 30
0.0
 10
11.5454145786
 20
6.2584399199
 30
0.0
 10
11.5309687405
 20
6.2590162477
 30
0.0
 10
11.5166069839
 20
6.2597192862
 30
0.0
 10
11.5023459106
 20
6.2605482204
 30
0.0
 10
11.4882020056
 20
6.2615020896
 30
0.0
 10
11.4741916179
 20
6.2625797879
 30
0.0
 10
11.4603309421
 20
6.2637800662
 30
0.0
 10
11.4466359989
 20
6.2651015328
 30
0.0
 10
11.4331226168
 20
6.2665426555
 30
0.0
 10
11.4198064138
 20
6.2681017633
 30
0.0
 10
11.4067027788
 20
6.2697770482
 30
0.0
 10
11.3938268541
 20
6.2715665673
 30
0.0
 10
11.381193518
 20
6.2734682451
 30
0.0
 10
11.3688173663
 20
6.2754798757
 30
0.0
 10
11.3567126966
 20
6.2775991256
 30
0.0
 10
11.34489349
 20
6.2798235361
 30
0.0
 10
11.3333733957
 20
6.2821505262
 30
0.0
 10
11.322165714
 20
6.2845773957
 30
0.0
 10
11.311283381
 20
6.2871013284
 30
0.0
 10
11.3007389528
 20
6.2897193952
 30
0.0
 10
11.2905445893
 20
6.2924285584
 30
0.0
 10
11.2807120439
 20
6.2952256744
 30
0.0
 10
11.2712526304
 20
6.2981074997
 30
0.0
 10
11.2621772759
 20
6.3010706907
 30
0.0
 10
11.2548734531
 20
6.3036293677
 30
0.0
 10
11.2492325476
 20
6.3057168768
 30
0.0
 10
11.2451457819
 20
6.3072853702
 30
0.0
 10
11.2411626363
 20
6.3088716023
 30
0.0
 10
11.237284255
 20
6.310475122
 30
0.0
 10
11.2335117574
 20
6.3120954619
 30
0.0
 10
11.2298462272
 20
6.31373216
 30
0.0
 10
11.2262887317
 20
6.3153847335
 30
0.0
 10
11.2239621165
 20
6.3165100969
 30
0.0
 10
11.2228173263
 20
6.3170756013
 30
0.0
  0
SPLINE
  5
360
100
AcDbEntity
  8
0
100
AcDbSpline
 62
7
  6
CONTINUOUS
 70
0
 71
3
 72
34
 73
30
 74
0
 42
0.0000001
 43
0.0000001
 44
0.0000000001
 40
0.0
 40
0.0
 40
0.0
 40
0.0
 40
0.0217726103
 40
0.043998712
 40
0.0899309812
 40
0.1380396824
 40
0.1885283882
 40
0.2147207498
 40
0.2415663873
 40
0.2690791435
 40
0.2972700689
 40
0.3261474357
 40
0.3557167999
 40
0.3859810872
 40
0.4169407062
 40
0.4485936851
 40
0.4809358243
 40
0.5139608702
 40
0.5476607044
 40
0.5820255323
 40
0.6170440742
 40
0.6527037538
 40
0.6889908834
 40
0.7258908481
 40
0.7633882775
 40
0.8014672032
 40
0.8401112084
 40
0.9190266208
 40
1.0
 40
1.0
 40
1.0
 40
1.0
 10
11.2065178067
 20
6.3251272517
 30
0.0
 10
11.2056547035
 20
6.3255535693
 30
0.0
 10
11.2039262085
 20
6.326447272
 30
0.0
 10
11.2004609478
 20
6.3283985123
 30
0.0
 10
11.1961170498
 20
6.3311555366
 30
0.0
 10
11.1909535738
 20
6.3349270598
 30
0.0
 10
11.1867005552
 20
6.3384471269
 30
0.0
 10
11.1832970581
 20
6.3415084546
 30
0.0
 10
11.1807129135
 20
6.3439598217
 30
0.0
 10
11.178129002
 20
6.3465380376
 30
0.0
 10
11.1755457213
 20
6.3492425148
 30
0.0
 10
11.1729635102
 20
6.3520723417
 30
0.0
 10
11.1703827868
 20
6.355026352
 30
0.0
 10
11.1678039616
 20
6.3581031201
 30
0.0
 10
11.1652274296
 20
6.3613009801
 30
0.0
 10
11.1626535694
 20
6.3646180405
 30
0.0
 10
11.1600827397
 20
6.3680522032
 30
0.0
 10
11.1575152771
 20
6.3716011828
 30
0.0
 10
11.1549514953
 20
6.3752625295
 30
0.0
 10
11.1523916833
 20
6.3790336499
 30
0.0
 10
11.1498361047
 20
6.3829118294
 30
0.0
 10
11.1472849968
 20
6.3868942532
 30
0.0
 10
11.1447385705
 20
6.3909780269
 30
0.0
 10
11.1421970098
 20
6.3951601978
 30
0.0
 10
11.1396604752
 20
6.3994377738
 30
0.0
 10
11.1371290953
 20
6.4038077415
 30
0.0
 10
11.1337373327
 20
6.4097952527
 30
0.0
 10
11.1295157159
 20
6.4174918344
 30
0.0
 10
11.1262164486
 20
6.423744352
 30
0.0
 10
11.1245682596
 20
6.4269225383
 30
0.0
  0
SPLINE
  5
361
100
AcDbEntity
  8
0
100
AcDbSpline
 62
7
  6
CONTINUOUS
 70
0
 71
3
 72
11
 73
7
 74
0
 42
0.0000001
 43
0.0000001
 44
0.0000000001
 40
0.0
 40
0.0
 40
0.0
 40
0.0
 40
0.2598462974
 40
0.5132467876
 40
0.7600213203
 40
1.0
 40
1.0
 40
1.0
 40
1.0
 10
11.2795032991
 20
6.7274800014
 30
0.0
 10
11.275850515
 20
6.728317254
 30
0.0
 10
11.2686463041
 20
6.7300183516
 30
0.0
 10
11.2580144247
 20
6.7326858623
 30
0.0
 10
11.2476996973
 20
6.7354353763
 30
0.0
 10
11.2409450862
 20
6.7373485197
 30
0.0
 10
11.2376230716
 20
6.7383193882
 30
0.0
  0
SPLINE
  5
362
100
AcDbEntity
  8
0
100
AcDbSpline
 62
7
  6
CONTINUOUS
 70
0
 71
3
 72
23
 73
19
 74
0
 42
0.0000001
 43
0.0000001
 44
0.0000000001
 40
0.0
 40
0.0
 40
0.0
 40
0.0
 40
0.0657095692
 40
0.1316076905
 40
0.1975599413
 40
0.2634317586
 40
0.3290887887
 40
0.3943972448
 40
0.4592242604
 40
0.5234382435
 40
0.5869092415
 40
0.6495092936
 40
0.7111128108
 40
0.7715969332
 40
0.8308419302
 40
0.888731577
 40
0.9451535805
 40
1.0
 40
1.0
 40
1.0
 40
1.0
 10
11.651632064
 20
6.7716855526
 30
0.0
 10
11.6449955647
 20
6.7714917599
 30
0.0
 10
11.6317010024
 20
6.7711851456
 30
0.0
 10
11.6117401716
 20
6.7709672421
 30
0.0
 10
11.5917617419
 20
6.7709908587
 30
0.0
 10
11.5718094256
 20
6.771255946
 30
0.0
 10
11.5519268277
 20
6.7717619196
 30
0.0
 10
11.5321574136
 20
6.7725076703
 30
0.0
 10
11.5125443965
 20
6.7734915572
 30
0.0
 10
11.4931306468
 20
6.7747114213
 30
0.0
 10
11.4739585972
 20
6.7761645792
 30
0.0
 10
11.4550701491
 20
6.7778478403
 30
0.0
 10
11.4365065808
 20
6.7797575019
 30
0.0
 10
11.4183084538
 20
6.7818893686
 30
0.0
 10
11.4005155326
 20
6.7842387495
 30
0.0
 10
11.3831666622
 20
6.7868004825
 30
0.0
 10
11.3662998037
 20
6.7895689182
 30
0.0
 10
11.3552374619
 20
6.7915780033
 30
0.0
 10
11.3497942281
 20
6.7926180776
 30
0.0
  0
SPLINE
  5
363
100
AcDbEntity
  8
0
100
AcDbSpline
 62
7
  6
CONTINUOUS
 70
0
 71
3
 72
11
 73
7
 74
0
 42
0.0000001
 43
0.0000001
 44
0.0000000001
 40
0.0
 40
0.0
 40
0.0
 40
0.0
 40
0.2598462974
 40
0.5132467876
 40
0.7600213203
 40
1.0
 40
1.0
 40
1.0
 40
1.0
 10
11.2795032991
 20
6.3068807757
 30
0.0
 10
11.275850515
 20
6.3077180282
 30
0.0
 10
11.2686463041
 20
6.3094191258
 30
0.0
 10
11.2580144247
 20
6.3120866366
 30
0.0
 10
11.2476996973
 20
6.3148361506
 30
0.0
 10
11.2409450862
 20
6.316749294
 30
0.0
 10
11.2376230716
 20
6.3177201624
 30
0.0
  0
SPLINE
  5
364
100
AcDbEntity
  8
0
100
AcDbSpline
 62
7
  6
CONTINUOUS
 70
0
 71
3
 72
15
 73
11
 74
0
 42
0.0000001
 43
0.0000001
 44
0.0000000001
 40
0.0
 40
0.0
 40
0.0
 40
0.0
 40
0.1209946163
 40
0.2432467567
 40
0.3667038615
 40
0.4913087608
 40
0.6170016075
 40
0.7437214614
 40
0.8714074272
 40
1.0
 40
1.0
 40
1.0
 40
1.0
 10
11.8358401252
 20
6.7589272612
 30
0.0
 10
11.8325070732
 20
6.7569617878
 30
0.0
 10
11.8258650698
 20
6.7529099829
 30
0.0
 10
11.8160264794
 20
6.7465256001
 30
0.0
 10
11.8062620955
 20
6.7398222339
 30
0.0
 10
11.7965740215
 20
6.7328198263
 30
0.0
 10
11.786963318
 20
6.7255377163
 30
0.0
 10
11.7774303026
 20
6.717994542
 30
0.0
 10
11.767974663
 20
6.7102081157
 30
0.0
 10
11.761742918
 20
6.7048841799
 30
0.0
 10
11.7586387166
 20
6.7021868305
 30
0.0
  0
SPLINE
  5
365
100
AcDbEntity
  8
0
100
AcDbSpline
 62
7
  6
CONTINUOUS
 70
0
 71
3
 72
34
 73
30
 74
0
 42
0.0000001
 43
0.0000001
 44
0.0000000001
 40
0.0
 40
0.0
 40
0.0
 40
0.0
 40
0.0614928409
 40
0.1230891667
 40
0.153930456
 40
0.1848018751
 40
0.2157048016
 40
0.2466405691
 40
0.2776104456
 40
0.308615611
 40
0.339657133
 40
0.3707359447
 40
0.4018528241
 40
0.433008375
 40
0.4642030116
 40
0.4954369474
 40
0.5267101883
 40
0.5580225326
 40
0.5893735753
 40
0.6207627182
 40
0.6521891835
 40
0.6836520324
 40
0.7151501852
 40
0.7466824453
 40
0.7782475226
 40
0.8098440566
 40
0.8731242422
 40
0.9365133522
 40
1.0
 40
1.0
 40
1.0
 40
1.0
 10
11.701429278
 20
6.2776201096
 30
0.0
 10
11.6928092805
 20
6.2759951099
 30
0.0
 10
11.6755142226
 20
6.2729530199
 30
0.0
 10
11.6537918454
 20
6.2697253602
 30
0.0
 10
11.6363408031
 20
6.2675160591
 30
0.0
 10
11.6232101715
 20
6.2660524098
 30
0.0
 10
11.6100450843
 20
6.2647902968
 30
0.0
 10
11.5968475313
 20
6.2637368368
 30
0.0
 10
11.5836199075
 20
6.2628987668
 30
0.0
 10
11.5703649714
 20
6.2622823274
 30
0.0
 10
11.5570858437
 20
6.2618931566
 30
0.0
 10
11.5437859814
 20
6.2617361844
 30
0.0
 10
11.530469144
 20
6.2618155362
 30
0.0
 10
11.5171393481
 20
6.2621344464
 30
0.0
 10
11.5038008125
 20
6.2626951879
 30
0.0
 10
11.4904578954
 20
6.26349902
 30
0.0
 10
11.4771150255
 20
6.264546159
 30
0.0
 10
11.46377663
 20
6.2658357684
 30
0.0
 10
11.4504470634
 20
6.2673659787
 30
0.0
 10
11.4371305384
 20
6.2691339271
 30
0.0
 10
11.4238310636
 20
6.2711358183
 30
0.0
 10
11.4105523897
 20
6.2733670023
 30
0.0
 10
11.3972979612
 20
6.2758220688
 30
0.0
 10
11.384070896
 20
6.2784949434
 30
0.0
 10
11.3708739121
 20
6.2813790137
 30
0.0
 10
11.3533133775
 20
6.2854984339
 30
0.0
 10
11.3314498471
 20
6.2911400659
 30
0.0
 10
11.3053766168
 20
6.298631871
 30
0.0
 10
11.2881104702
 20
6.3040643752
 30
0.0
 10
11.2795032991
 20
6.3068807757
 30
0.0
  0
SPLINE
  5
366
100
AcDbEntity
  8
0
100
AcDbSpline
 62
7
  6
CONTINUOUS
 70
0
 71
3
 72
37
 73
33
 74
0
 42
0.0000001
 43
0.0000001
 44
0.0000000001
 40
0.0
 40
0.0
 40
0.0
 40
0.0
 40
0.0320287472
 40
0.0640311205
 40
0.0960043923
 40
0.1279455611
 40
0.159851441
 40
0.1917186505
 40
0.2235436484
 40
0.2553227761
 40
0.2870523307
 40
0.318728644
 40
0.3503481602
 40
0.381907556
 40
0.4134038501
 40
0.444834504
 40
0.4761975334
 40
0.5074915881
 40
0.5387160101
 40
0.5698708592
 40
0.6009569109
 40
0.6319756141
 40
0.6629290159
 40
0.6938196881
 40
0.7246506078
 40
0.755425049
 40
0.7861464927
 40
0.8168185117
 40
0.847444686
 40
0.8780285427
 40
0.9390791653
 40
1.0
 40
1.0
 40
1.0
 40
1.0
 10
11.701429278
 20
6.6982193354
 30
0.0
 10
11.6972767106
 20
6.7003620025
 30
0.0
 10
11.6889391006
 20
6.7045764754
 30
0.0
 10
11.67632831
 20
6.7106730087
 30
0.0
 10
11.6636166678
 20
6.7165262091
 30
0.0
 10
11.6508037757
 20
6.7221194577
 30
0.0
 10
11.6378900053
 20
6.7274354744
 30
0.0
 10
11.6248767067
 20
6.73245642
 30
0.0
 10
11.6117663383
 20
6.7371640947
 30
0.0
 10
11.5985626069
 20
6.7415401811
 30
0.0
 10
11.5852705817
 20
6.745566544
 30
0.0
 10
11.5718967785
 20
6.7492255759
 30
0.0
 10
11.5584492056
 20
6.7525006111
 30
0.0
 10
11.5449373441
 20
6.7553763453
 30
0.0
 10
11.5313720627
 20
6.7578392648
 30
0.0
 10
11.5177654686
 20
6.7598781081
 30
0.0
 10
11.5041306731
 20
6.7614842103
 30
0.0
 10
11.4904815023
 20
6.7626518229
 30
0.0
 10
11.4768321594
 20
6.7633783485
 30
0.0
 10
11.4631968538
 20
6.7636643769
 30
0.0
 10
11.4495894381
 20
6.7635137032
 30
0.0
 10
11.4360230632
 20
6.7629331437
 30
0.0
 10
11.4225098837
 20
6.7619322572
 30
0.0
 10
11.409060824
 20
6.760523035
 30
0.0
 10
11.3956854194
 20
6.7587194598
 30
0.0
 10
11.3823917308
 20
6.7565370878
 30
0.0
 10
11.3691863169
 20
6.7539926281
 30
0.0
 10
11.3560743011
 20
6.7511035289
 30
0.0
 10
11.3430593619
 20
6.747887589
 30
0.0
 10
11.325850311
 20
6.7431908503
 30
0.0
 10
11.3045863919
 20
6.7365917079
 30
0.0
 10
11.2878190667
 20
6.7306174212
 30
0.0
 10
11.2795032991
 20
6.7274800014
 30
0.0
  0
SPLINE
  5
367
100
AcDbEntity
  8
0
100
AcDbSpline
 62
7
  6
CONTINUOUS
 70
0
 71
3
 72
15
 73
11
 74
0
 42
0.0000001
 43
0.0000001
 44
0.0000000001
 40
0.0
 40
0.0
 40
0.0
 40
0.0
 40
0.1192556975
 40
0.2392875357
 40
0.3604859033
 40
0.483279967
 40
0.6081324973
 40
0.7355322617
 40
0.8659845135
 40
1.0
 40
1.0
 40
1.0
 40
1.0
 10
11.2376230716
 20
6.3177201624
 30
0.0
 10
11.2363408365
 20
6.3177247251
 30
0.0
 10
11.2337677072
 20
6.3178014028
 30
0.0
 10
11.2299036198
 20
6.3181279801
 30
0.0
 10
11.2260261243
 20
6.3186768685
 30
0.0
 10
11.2221357981
 20
6.3194584874
 30
0.0
 10
11.2182332219
 20
6.3204830421
 30
0.0
 10
11.2143191391
 20
6.3217603953
 30
0.0
 10
11.21039462
 20
6.3232997812
 30
0.0
 10
11.2078097422
 20
6.3244891185
 30
0.0
 10
11.2065178067
 20
6.3251272517
 30
0.0
  0
SPLINE
  5
368
100
AcDbEntity
  8
0
100
AcDbSpline
 62
7
  6
CONTINUOUS
 70
0
 71
3
 72
15
 73
11
 74
0
 42
0.0000001
 43
0.0000001
 44
0.0000000001
 40
0.0
 40
0.0
 40
0.0
 40
0.0
 40
0.1361750042
 40
0.2695801389
 40
0.4000133027
 40
0.5272628008
 40
0.6511096758
 40
0.7713303612
 40
0.8877005097
 40
1.0
 40
1.0
 40
1.0
 40
1.0
 10
11.2376230716
 20
6.7383193882
 30
0.0
 10
11.2364939577
 20
6.7412921086
 30
0.0
 10
11.2342290633
 20
6.7471658911
 30
0.0
 10
11.2307707685
 20
6.7558433877
 30
0.0
 10
11.2272845151
 20
6.7642846718
 30
0.0
 10
11.2237702188
 20
6.7724720248
 30
0.0
 10
11.220228034
 20
6.7803868423
 30
0.0
 10
11.2166583835
 20
6.7880097831
 30
0.0
 10
11.2130620443
 20
6.7953208674
 30
0.0
 10
11.2106020594
 20
6.800060958
 30
0.0
 10
11.2093653651
 20
6.8023734337
 30
0.0
  0
SPLINE
  5
369
100
AcDbEntity
  8
0
100
AcDbSpline
 62
7
  6
CONTINUOUS
 70
0
 71
3
 72
32
 73
28
 74
0
 42
0.0000001
 43
0.0000001
 44
0.0000000001
 40
0.0
 40
0.0
 40
0.0
 40
0.0
 40
0.0668467461
 40
0.1330343711
 40
0.1985498456
 40
0.2633895225
 40
0.2955589434
 40
0.3275629011
 40
0.3594039835
 40
0.3910854601
 40
0.4226112559
 40
0.4539859114
 40
0.4852145321
 40
0.5163027271
 40
0.54725654
 40
0.5780823734
 40
0.6087869096
 40
0.6393770305
 40
0.6698597382
 40
0.7002420785
 40
0.7305310697
 40
0.7607336373
 40
0.790856557
 40
0.8209064041
 40
0.880809966
 40
0.940493758
 40
1.0
 40
1.0
 40
1.0
 40
1.0
 10
12.009728958
 20
6.3294937514
 30
0.0
 10
12.0045509161
 20
6.3269357529
 30
0.0
 10
11.9941747482
 20
6.3219872689
 30
0.0
 10
11.9784749899
 20
6.3150678637
 30
0.0
 10
11.9627231061
 20
6.3087172525
 30
0.0
 10
11.9495271872
 20
6.3039083014
 30
0.0
 10
11.9389561146
 20
6.3003717514
 30
0.0
 10
11.931042542
 20
6.2978822175
 30
0.0
 10
11.9231250066
 20
6.2955504415
 30
0.0
 10
11.9152051863
 20
6.2933776535
 30
0.0
 10
11.9072848173
 20
6.2913646591
 30
0.0
 10
11.8993656339
 20
6.2895118064
 30
0.0
 10
11.8914493608
 20
6.287818989
 30
0.0
 10
11.8835376917
 20
6.2862856475
 30
0.0
 10
11.8756322731
 20
6.2849107799
 30
0.0
 10
11.8677346869
 20
6.2836929578
 30
0.0
 10
11.8598464369
 20
6.2826303485
 30
0.0
 10
11.8519689357
 20
6.2817207419
 30
0.0
 10
11.844103494
 20
6.2809615815
 30
0.0
 10
11.836251314
 20
6.280349998
 30
0.0
 10
11.8284134803
 20
6.2798828468
 30
0.0
 10
11.8205909681
 20
6.2795567427
 30
0.0
 10
11.8127845997
 20
6.2793681043
 30
0.0
 10
11.8024100998
 20
6.2792949356
 30
0.0
 10
11.7894813104
 20
6.2795271786
 30
0.0
 10
11.7740247488
 20
6.2802938431
 30
0.0
 10
11.763757638
 20
6.2811093349
 30
0.0
 10
11.7586387166
 20
6.2815876047
 30
0.0
  0
SPLINE
  5
36A
100
AcDbEntity
  8
0
100
AcDbSpline
 62
7
  6
CONTINUOUS
 70
0
 71
3
 72
86
 73
82
 74
0
 42
0.0000001
 43
0.0000001
 44
0.0000000001
 40
0.0
 40
0.0
 40
0.0
 40
0.0
 40
0.0039801735
 40
0.0081241171
 40
0.0124359931
 40
0.016919361
 40
0.0215772361
 40
0.0264119817
 40
0.0314252561
 40
0.0366182449
 40
0.0419916453
 40
0.0475457694
 40
0.0532805541
 40
0.0591955582
 40
0.0652900785
 40
0.0715630739
 40
0.0846387684
 40
0.0984101018
 40
0.112860694
 40
0.1279712428
 40
0.1437198619
 40
0.1600823544
 40
0.1770324406
 40
0.1945419645
 40
0.2125810668
 40
0.2311183398
 40
0.2501209668
 40
0.2695548486
 40
0.289384725
 40
0.3095742955
 40
0.3300863312
 40
0.3508827821
 40
0.3719248818
 40
0.3931732491
 40
0.4145879914
 40
0.4577543474
 40
0.501099203
 40
0.5442952951
 40
0.5657359749
 40
0.587017582
 40
0.6081001434
 40
0.6289441761
 40
0.6495107926
 40
0.6697618048
 40
0.6896598276
 40
0.709168385
 40
0.7282520204
 40
0.7468764117
 40
0.7650084972
 40
0.7826166038
 40
0.7996705814
 40
0.8161419537
 40
0.8320040874
 40
0.8472323859
 40
0.8618045214
 40
0.8757007003
 40
0.8889039845
 40
0.9014006969
 40
0.9073810972
 40
0.9131815075
 40
0.9188013673
 40
0.9242405009
 40
0.9294990443
 40
0.9345775709
 40
0.9394770909
 40
0.9441990928
 40
0.9487456636
 40
0.9531194621
 40
0.9573238984
 40
0.9613631411
 40
0.9652422549
 40
0.9689673208
 40
0.9725454977
 40
0.9759852252
 40
0.9824864215
 40
0.9855752926
 40
0.9885737717
 40
0.9914977072
 40
0.9943643167
 40
0.9971920017
 40
1.0
 40
1.0
 40
1.0
 40
1.0
 10
11.211537751
 20
10.4711644927
 30
0.0
 10
11.2105474736
 20
10.4702079582
 30
0.0
 10
11.2084812003
 20
10.4683016501
 30
0.0
 10
11.2052005885
 20
10.4655173366
 30
0.0
 10
11.2016790656
 20
10.4627529843
 30
0.0
 10
11.1979185647
 20
10.4600100822
 30
0.0
 10
11.1939209324
 20
10.4572898981
 30
0.0
 10
11.1896881134
 20
10.4545937694
 30
0.0
 10
11.1852222295
 20
10.4519229695
 30
0.0
 10
11.180525494
 20
10.4492788885
 30
0.0
 10
11.1756002762
 20
10.4466628114
 30
0.0
 10
11.1704490351
 20
10.4440760555
 30
0.0
 10
11.1650743467
 20
10.4415199303
 30
0.0
 10
11.1594789212
 20
10.4389956911
 30
0.0
 10
11.1536655501
 20
10.4365046368
 30
0.0
 10
11.1455146947
 20
10.4331831359
 30
0.0
 10
11.1347956366
 20
10.429132245
 30
0.0
 10
11.1212841448
 20
10.4244878396
 30
0.0
 10
11.1069790132
 20
10.4200046942
 30
0.0
 10
11.0919090826
 20
10.4156919213
 30
0.0
 10
11.0761046041
 20
10.4115583
 30
0.0
 10
11.0595974146
 20
10.4076122507
 30
0.0
 10
11.0424207938
 20
10.4038618087
 30
0.0
 10
11.0246094063
 20
10.4003146136
 30
0.0
 10
11.0061992181
 20
10.3969778901
 30
0.0
 10
10.9872274216
 20
10.3938584342
 30
0.0
 10
10.9677323582
 20
10.3909625991
 30
0.0
 10
10.9477534403
 20
10.3882962806
 30
0.0
 10
10.9273310698
 20
10.3858649025
 30
0.0
 10
10.9065065521
 20
10.383673411
 30
0.0
 10
10.8853220111
 20
10.3817262645
 30
0.0
 10
10.863820299
 20
10.3800274223
 30
0.0
 10
10.8420449266
 20
10.3785803478
 30
0.0
 10
10.8200399142
 20
10.3773879603
 30
0.0
 10
10.790375773
 20
10.3761377756
 30
0.0
 10
10.7530495898
 20
10.3752296952
 30
0.0
 10
10.7081778065
 20
10.3751823488
 30
0.0
 10
10.6708305327
 20
10.3760115036
 30
0.0
 10
10.6411330244
 20
10.3771986731
 30
0.0
 10
10.6190910254
 20
10.3783444614
 30
0.0
 10
10.5972705997
 20
10.3797454139
 30
0.0
 10
10.5757158599
 20
10.3813987079
 30
0.0
 10
10.5544704259
 20
10.3833009748
 30
0.0
 10
10.5335772742
 20
10.385448345
 30
0.0
 10
10.5130786671
 20
10.387836449
 30
0.0
 10
10.4930160638
 20
10.3904604283
 30
0.0
 10
10.4734300363
 20
10.3933149435
 30
0.0
 10
10.454360185
 20
10.396394187
 30
0.0
 10
10.4358450539
 20
10.3996918887
 30
0.0
 10
10.4179220497
 20
10.403201331
 30
0.0
 10
10.4006273658
 20
10.4069153652
 30
0.0
 10
10.3839959063
 20
10.4108264258
 30
0.0
 10
10.3680612119
 20
10.4149265459
 30
0.0
 10
10.3528553769
 20
10.419207378
 30
0.0
 10
10.3384089954
 20
10.4236602062
 30
0.0
 10
10.3247510057
 20
10.4282759769
 30
0.0
 10
10.311908908
 20
10.4330453193
 30
0.0
 10
10.3017648118
 20
10.4371983125
 30
0.0
 10
10.2940851939
 20
10.440597979
 30
0.0
 10
10.2886298858
 20
10.4431426596
 30
0.0
 10
10.2833970669
 20
10.4457184345
 30
0.0
 10
10.2783893375
 20
10.4483239848
 30
0.0
 10
10.2736092216
 20
10.4509580395
 30
0.0
 10
10.2690591028
 20
10.4536192658
 30
0.0
 10
10.2647412477
 20
10.4563063332
 30
0.0
 10
10.2606578263
 20
10.459017948
 30
0.0
 10
10.256810843
 20
10.4617527277
 30
0.0
 10
10.2532022421
 20
10.4645093968
 30
0.0
 10
10.249833791
 20
10.4672865858
 30
0.0
 10
10.2467071837
 20
10.470082985
 30
0.0
 10
10.2438239816
 20
10.4728973201
 30
0.0
 10
10.241185675
 20
10.4757281552
 30
0.0
 10
10.2387934619
 20
10.4785745941
 30
0.0
 10
10.2359871131
 20
10.4823172835
 30
0.0
 10
10.2336041009
 20
10.4861608909
 30
0.0
 10
10.2317120612
 20
10.49008655
 30
0.0
 10
10.2305689159
 20
10.4929898777
 30
0.0
 10
10.229678662
 20
10.4959002558
 30
0.0
 10
10.229042128
 20
10.4988162998
 30
0.0
 10
10.2286599064
 20
10.5017359042
 30
0.0
 10
10.2285748173
 20
10.5036864341
 30
0.0
 10
10.2285748129
 20
10.5046577691
 30
0.0
  0
SPLINE
  5
36B
100
AcDbEntity
  8
0
100
AcDbSpline
 62
7
  6
CONTINUOUS
 70
0
 71
3
 72
18
 73
14
 74
0
 42
0.0000001
 43
0.0000001
 44
0.0000000001
 40
0.0
 40
0.0
 40
0.0
 40
0.0
 40
0.150467608
 40
0.291710008
 40
0.4244359371
 40
0.549562455
 40
0.6682139939
 40
0.7255497488
 40
0.7817912909
 40
0.8371402503
 40
0.8918093826
 40
0.9460201179
 40
1.0
 40
1.0
 40
1.0
 40
1.0
 10
12.4488888253
 20
9.450337684
 30
0.0
 10
12.4505709442
 20
9.4519624862
 30
0.0
 10
12.4539327936
 20
9.4550110334
 30
0.0
 10
12.4591385903
 20
9.4590737429
 30
0.0
 10
12.4643382725
 20
9.4624715882
 30
0.0
 10
12.4695264567
 20
9.4651989922
 30
0.0
 10
12.4738870684
 20
9.4669284743
 30
0.0
 10
12.4773492015
 20
9.467956029
 30
0.0
 10
12.479908923
 20
9.4685482969
 30
0.0
 10
12.4824601525
 20
9.4689704215
 30
0.0
 10
12.485002175
 20
9.4692222532
 30
0.0
 10
12.4875339794
 20
9.4693036612
 30
0.0
 10
12.4892160375
 20
9.4692441687
 30
0.0
 10
12.4900530293
 20
9.4691861267
 30
0.0
  0
SPLINE
  5
36C
100
AcDbEntity
  8
0
100
AcDbSpline
 62
7
  6
CONTINUOUS
 70
0
 71
3
 72
23
 73
19
 74
0
 42
0.0000001
 43
0.0000001
 44
0.0000000001
 40
0.0
 40
0.0
 40
0.0
 40
0.0
 40
0.0637776288
 40
0.1273446152
 40
0.1907020433
 40
0.2538561391
 40
0.3168131818
 40
0.3795820998
 40
0.442173387
 40
0.5045993408
 40
0.5668738683
 40
0.6290123813
 40
0.69103165
 40
0.7529496426
 40
0.8147853504
 40
0.8765585998
 40
0.9382898528
 40
1.0
 40
1.0
 40
1.0
 40
1.0
 10
11.2632456191
 20
7.673757983
 30
0.0
 10
11.2632456191
 20
7.6669692617
 30
0.0
 10
11.2629207057
 20
7.6534119391
 30
0.0
 10
11.261454085
 20
7.6331583818
 30
0.0
 10
11.2590122393
 20
7.6130654348
 30
0.0
 10
11.2556008754
 20
7.5931801218
 30
0.0
 10
11.2512277193
 20
7.5735480249
 30
0.0
 10
11.2459028538
 20
7.5542144829
 30
0.0
 10
11.2396384864
 20
7.5352240486
 30
0.0
 10
11.2324490228
 20
7.5166205209
 30
0.0
 10
11.2243509966
 20
7.4984468053
 30
0.0
 10
11.2153630499
 20
7.4807448189
 30
0.0
 10
11.2055058829
 20
7.4635553984
 30
0.0
 10
11.1948021935
 20
7.4469181897
 30
0.0
 10
11.1832766826
 20
7.4308716105
 30
0.0
 10
11.1709557831
 20
7.4154525567
 30
0.0
 10
11.1578683978
 20
7.4006970759
 30
0.0
 10
11.1486508424
 20
7.3913234589
 30
0.0
 10
11.1439263064
 20
7.3867599145
 30
0.0
  0
SPLINE
  5
36D
100
AcDbEntity
  8
0
100
AcDbSpline
 62
7
  6
CONTINUOUS
 70
0
 71
3
 72
21
 73
17
 74
0
 42
0.0000001
 43
0.0000001
 44
0.0000000001
 40
0.0
 40
0.0
 40
0.0
 40
0.0
 40
0.1273176366
 40
0.2537999756
 40
0.3167619475
 40
0.3795355041
 40
0.4421314991
 40
0.5045621439
 40
0.5668413432
 40
0.6289845283
 40
0.6910084528
 40
0.7529310935
 40
0.8147714495
 40
0.8765493365
 40
0.9382852194
 40
1.0
 40
1.0
 40
1.0
 40
1.0
 10
11.487340424
 20
9.9822346487
 30
0.0
 10
11.487340424
 20
9.9769373988
 30
0.0
 10
11.4868347666
 20
9.9663708346
 30
0.0
 10
11.4849250625
 20
9.9533082781
 30
0.0
 10
11.4826425415
 20
9.9430618445
 30
0.0
 10
11.480561005
 20
9.9355040714
 30
0.0
 10
11.4781122174
 20
9.9280805874
 30
0.0
 10
11.4753017896
 20
9.9208083076
 30
0.0
 10
11.4721362222
 20
9.9137040457
 30
0.0
 10
11.4686227709
 20
9.9067841853
 30
0.0
 10
11.4647695176
 20
9.900064701
 30
0.0
 10
11.460585371
 20
9.8935610691
 30
0.0
 10
11.4560799687
 20
9.8872883164
 30
0.0
 10
11.4512636214
 20
9.8812608845
 30
0.0
 10
11.4461476628
 20
9.8754928379
 30
0.0
 10
11.4425444596
 20
9.8718285979
 30
0.0
 10
11.4406976008
 20
9.8700446689
 30
0.0
  0
SPLINE
  5
36E
100
AcDbEntity
  8
0
100
AcDbSpline
 62
7
  6
CONTINUOUS
 70
0
 71
3
 72
21
 73
17
 74
0
 42
0.0000001
 43
0.0000001
 44
0.0000000001
 40
0.0
 40
0.0
 40
0.0
 40
0.0
 40
0.1273176366
 40
0.2537999756
 40
0.3167619475
 40
0.3795355041
 40
0.4421314991
 40
0.5045621439
 40
0.5668413432
 40
0.6289845283
 40
0.6910084528
 40
0.7529310935
 40
0.8147714495
 40
0.8765493365
 40
0.9382852194
 40
1.0
 40
1.0
 40
1.0
 40
1.0
 10
10.5214145405
 20
7.1514441569
 30
0.0
 10
10.5214145405
 20
7.146146907
 30
0.0
 10
10.5209088831
 20
7.1355803428
 30
0.0
 10
10.518999179
 20
7.1225177863
 30
0.0
 10
10.516716658
 20
7.1122713527
 30
0.0
 10
10.5146351215
 20
7.1047135796
 30
0.0
 10
10.5121863339
 20
7.0972900956
 30
0.0
 10
10.5093759061
 20
7.0900178158
 30
0.0
 10
10.5062103387
 20
7.0829135539
 30
0.0
 10
10.5026968873
 20
7.0759936935
 30
0.0
 10
10.4988436341
 20
7.0692742092
 30
0.0
 10
10.4946594875
 20
7.0627705773
 30
0.0
 10
10.4901540852
 20
7.0564978246
 30
0.0
 10
10.4853377379
 20
7.0504703927
 30
0.0
 10
10.4802217793
 20
7.0447023461
 30
0.0
 10
10.476618576
 20
7.041038106
 30
0.0
 10
10.4747717172
 20
7.0392541771
 30
0.0
  0
SPLINE
  5
36F
100
AcDbEntity
  8
0
100
AcDbSpline
 62
7
  6
CONTINUOUS
 70
0
 71
3
 72
39
 73
35
 74
0
 42
0.0000001
 43
0.0000001
 44
0.0000000001
 40
0.0
 40
0.0
 40
0.0
 40
0.0
 40
0.032605325
 40
0.0649167362
 40
0.0969376395
 40
0.128684744
 40
0.16018853
 40
0.1914903748
 40
0.222639769
 40
0.253691444
 40
0.2847030134
 40
0.3157330764
 40
0.346839779
 40
0.378079873
 40
0.4095079108
 40
0.4411753669
 40
0.4731293077
 40
0.5054100948
 40
0.5380475446
 40
0.5710545791
 40
0.6044177851
 40
0.6380845523
 40
0.6719479101
 40
0.7058338674
 40
0.7395003718
 40
0.7726568212
 40
0.8050078746
 40
0.8363078507
 40
0.8664038604
 40
0.8952498392
 40
0.9228944868
 40
0.9494561499
 40
0.9750964728
 40
1.0
 40
1.0
 40
1.0
 40
1.0
 10
10.6921265325
 20
7.7970992747
 30
0.0
 10
10.6921265325
 20
7.7919167791
 30
0.0
 10
10.6925518258
 20
7.7815931488
 30
0.0
 10
10.6944753324
 20
7.7662883183
 30
0.0
 10
10.6976515735
 20
7.7513321201
 30
0.0
 10
10.7020332402
 20
7.7368184532
 30
0.0
 10
10.7075594076
 20
7.7228243288
 30
0.0
 10
10.7141603303
 20
7.7094107375
 30
0.0
 10
10.7217618893
 20
7.6966225145
 30
0.0
 10
10.730289549
 20
7.6844900033
 30
0.0
 10
10.7396713897
 20
7.6730311851
 30
0.0
 10
10.7498402342
 20
7.6622541303
 30
0.0
 10
10.7607349262
 20
7.6521594203
 30
0.0
 10
10.7723008869
 20
7.6427423748
 30
0.0
 10
10.7844900915
 20
7.6339950159
 30
0.0
 10
10.7972605233
 20
7.6259077869
 30
0.0
 10
10.8105750976
 20
7.6184710801
 30
0.0
 10
10.8243999445
 20
7.6116766493
 30
0.0
 10
10.8387017953
 20
7.605518975
 30
0.0
 10
10.8534441717
 20
7.5999966076
 30
0.0
 10
10.8685820779
 20
7.5951134331
 30
0.0
 10
10.8840551929
 20
7.5908796389
 30
0.0
 10
10.8997803966
 20
7.5873119375
 30
0.0
 10
10.9156459827
 20
7.5844324198
 30
0.0
 10
10.9315112386
 20
7.5822656822
 30
0.0
 10
10.9472149731
 20
7.5808344024
 30
0.0
 10
10.9625930528
 20
7.5801546547
 30
0.0
 10
10.9775000702
 20
7.5802331216
 30
0.0
 10
10.9918266242
 20
7.5810669603
 30
0.0
 10
11.0055063001
 20
7.5826468258
 30
0.0
 10
11.0185116375
 20
7.5849609046
 30
0.0
 10
11.0308441023
 20
7.587998817
 30
0.0
 10
11.042520835
 20
7.5917533153
 30
0.0
 10
11.0499764167
 20
7.5947698152
 30
0.0
 10
11.0535856272
 20
7.5963952148
 30
0.0
  0
SPLINE
  5
370
100
AcDbEntity
  8
0
100
AcDbSpline
 62
7
  6
CONTINUOUS
 70
0
 71
3
 72
23
 73
19
 74
0
 42
0.0000001
 43
0.0000001
 44
0.0000000001
 40
0.0
 40
0.0
 40
0.0
 40
0.0
 40
0.0637764156
 40
0.1273451284
 40
0.1907019885
 40
0.2538560635
 40
0.3168132288
 40
0.3795820795
 40
0.4421733867
 40
0.5045993416
 40
0.5668738629
 40
0.6290123789
 40
0.691031653
 40
0.7529496458
 40
0.8147853519
 40
0.8765586031
 40
0.9382898573
 40
1.0
 40
1.0
 40
1.0
 40
1.0
 10
11.0812775807
 20
7.7029903447
 30
0.0
 10
11.0812775807
 20
7.6993646263
 30
0.0
 10
11.0811040197
 20
7.6921237693
 30
0.0
 10
11.0803207567
 20
7.6813065491
 30
0.0
 10
11.0790165734
 20
7.6705750457
 30
0.0
 10
11.0771946117
 20
7.6599545259
 30
0.0
 10
11.0748589501
 20
7.6494692198
 30
0.0
 10
11.0720149919
 20
7.6391433668
 30
0.0
 10
11.068669279
 20
7.629000763
 30
0.0
 10
11.0648294532
 20
7.6190648079
 30
0.0
 10
11.060504382
 20
7.6093584094
 30
0.0
 10
11.0557040325
 20
7.5999039463
 30
0.0
 10
11.0504394338
 20
7.5907232412
 30
0.0
 10
11.0447226983
 20
7.5818374778
 30
0.0
 10
11.0385670504
 20
7.5732671547
 30
0.0
 10
11.0319866042
 20
7.5650319762
 30
0.0
 10
11.0249967644
 20
7.5571512225
 30
0.0
 10
11.0200737685
 20
7.5521448617
 30
0.0
 10
11.0175504434
 20
7.5497075172
 30
0.0
  0
SPLINE
  5
371
100
AcDbEntity
  8
0
100
AcDbSpline
 62
7
  6
CONTINUOUS
 70
0
 71
3
 72
39
 73
35
 74
0
 42
0.0000001
 43
0.0000001
 44
0.0000000001
 40
0.0
 40
0.0
 40
0.0
 40
0.0
 40
0.0310753278
 40
0.0623079062
 40
0.093693137
 40
0.1252222865
 40
0.1568840454
 40
0.1886642043
 40
0.2205461643
 40
0.2525112486
 40
0.2845391082
 40
0.3166081368
 40
0.3486959081
 40
0.3807796237
 40
0.412836566
 40
0.4448445497
 40
0.4767823661
 40
0.5086302138
 40
0.5403701085
 40
0.5719862661
 40
0.6034654517
 40
0.6347972864
 40
0.6659745051
 40
0.6969931566
 40
0.7278527388
 40
0.758556263
 40
0.78911024
 40
0.8195245851
 40
0.8498124377
 40
0.8799898969
 40
0.9100756761
 40
0.9400906823
 40
0.9700575294
 40
1.0
 40
1.0
 40
1.0
 40
1.0
 10
11.0812775807
 20
7.7029903447
 30
0.0
 10
11.0812775807
 20
7.7086157132
 30
0.0
 10
11.0808579417
 20
7.7198992451
 30
0.0
 10
11.0789843397
 20
7.7367705301
 30
0.0
 10
11.075875573
 20
7.7535427486
 30
0.0
 10
11.0715488151
 20
7.7701226068
 30
0.0
 10
11.0660280376
 20
7.7864193747
 30
0.0
 10
11.0593436674
 20
7.8023435245
 30
0.0
 10
11.0515325251
 20
7.8178076893
 30
0.0
 10
11.042637577
 20
7.8327270071
 30
0.0
 10
11.0327077167
 20
7.847019617
 30
0.0
 10
11.0217974923
 20
7.8606070916
 30
0.0
 10
11.0099668152
 20
7.8734148696
 30
0.0
 10
10.9972806294
 20
7.8853726571
 30
0.0
 10
10.9838085583
 20
7.8964148091
 30
0.0
 10
10.9696245264
 20
7.9064806861
 30
0.0
 10
10.9548063587
 20
7.9155149842
 30
0.0
 10
10.9394353587
 20
7.9234680361
 30
0.0
 10
10.9235958686
 20
7.9302960828
 30
0.0
 10
10.9073748123
 20
7.9359615132
 30
0.0
 10
10.8908612252
 20
7.9404330712
 30
0.0
 10
10.8741457743
 20
7.9436860349
 30
0.0
 10
10.8573202646
 20
7.9457023535
 30
0.0
 10
10.8404771422
 20
7.9464707503
 30
0.0
 10
10.8237089924
 20
7.9459867925
 30
0.0
 10
10.8071080353
 20
7.944252925
 30
0.0
 10
10.7907656226
 20
7.941278469
 30
0.0
 10
10.7747717327
 20
7.9370795803
 30
0.0
 10
10.7592144811
 20
7.9316791814
 30
0.0
 10
10.744179599
 20
7.9251068176
 30
0.0
 10
10.7297500628
 20
7.9173986183
 30
0.0
 10
10.7160052038
 20
7.9085966979
 30
0.0
 10
10.7030218209
 20
7.8987504344
 30
0.0
 10
10.6949181249
 20
7.8915228812
 30
0.0
 10
10.6910195528
 20
7.8877571504
 30
0.0
  0
SPLINE
  5
372
100
AcDbEntity
  8
0
100
AcDbSpline
 62
7
  6
CONTINUOUS
 70
0
 71
3
 72
18
 73
14
 74
0
 42
0.0000001
 43
0.0000001
 44
0.0000000001
 40
0.0
 40
0.0
 40
0.0
 40
0.0
 40
0.0548621106
 40
0.1099281304
 40
0.165399556
 40
0.2214731722
 40
0.2783387379
 40
0.3361775111
 40
0.4554063056
 40
0.5804414047
 40
0.7123341351
 40
0.8519581983
 40
1.0
 40
1.0
 40
1.0
 40
1.0
 10
11.2285748055
 20
10.5046584039
 30
0.0
 10
11.2285748087
 20
10.5039522579
 30
0.0
 10
11.2285299962
 20
10.5025369358
 30
0.0
 10
11.2283285
 20
10.5004162529
 30
0.0
 10
11.2279927496
 20
10.4982967936
 30
0.0
 10
11.2275228719
 20
10.4961793314
 30
0.0
 10
11.2269190649
 20
10.4940643952
 30
0.0
 10
11.2259259143
 20
10.4912203768
 30
0.0
 10
11.2243348972
 20
10.4876632743
 30
0.0
 10
11.2219132639
 20
10.4834623181
 30
0.0
 10
11.2189638313
 20
10.4792885475
 30
0.0
 10
11.2154910864
 20
10.4751461688
 30
0.0
 10
11.2129082823
 20
10.4724883244
 30
0.0
 10
11.211537751
 20
10.4711644927
 30
0.0
  0
SPLINE
  5
373
100
AcDbEntity
  8
0
100
AcDbSpline
 62
7
  6
CONTINUOUS
 70
0
 71
3
 72
47
 73
43
 74
0
 42
0.0000001
 43
0.0000001
 44
0.0000000001
 40
0.0
 40
0.0
 40
0.0
 40
0.0
 40
0.0149719699
 40
0.0299469986
 40
0.0449281275
 40
0.0599183593
 40
0.0749206409
 40
0.0899378479
 40
0.1049727642
 40
0.1200280654
 40
0.1351063071
 40
0.1502099062
 40
0.1653411266
 40
0.1805020712
 40
0.195694667
 40
0.2109206532
 40
0.226181577
 40
0.2414787841
 40
0.2721808909
 40
0.30303905
 40
0.3340562704
 40
0.3652320501
 40
0.3965624391
 40
0.4280401707
 40
0.4596548674
 40
0.4913932962
 40
0.5232396724
 40
0.5551760134
 40
0.5871825188
 40
0.61923798
 40
0.6513202127
 40
0.6834065006
 40
0.7154740464
 40
0.7475004247
 40
0.7794640313
 40
0.8113445177
 40
0.8431232087
 40
0.8747834982
 40
0.9063112124
 40
0.9376949433
 40
0.9689261019
 40
1.0
 40
1.0
 40
1.0
 40
1.0
 10
10.5325501542
 20
8.0197047765
 30
0.0
 10
10.5362002293
 20
8.0232304729
 30
0.0
 10
10.5436421725
 20
8.0301382274
 30
0.0
 10
10.5552092272
 20
8.0400492157
 30
0.0
 10
10.567165754
 20
8.0494970715
 30
0.0
 10
10.5794950882
 20
8.0584685481
 30
0.0
 10
10.5921802912
 20
8.0669514018
 30
0.0
 10
10.6052038948
 20
8.0749339413
 30
0.0
 10
10.618547999
 20
8.0824051545
 30
0.0
 10
10.6321942116
 20
8.0893548097
 30
0.0
 10
10.6461237564
 20
8.0957733485
 30
0.0
 10
10.6603174809
 20
8.1016519059
 30
0.0
 10
10.6747558341
 20
8.1069824471
 30
0.0
 10
10.6894189448
 20
8.1117576491
 30
0.0
 10
10.7042866706
 20
8.115970908
 30
0.0
 10
10.7193384653
 20
8.1196164784
 30
0.0
 10
10.7345539059
 20
8.1226893777
 30
0.0
 10
10.7550534283
 20
8.126021057
 30
0.0
 10
10.7809905624
 20
8.1287302268
 30
0.0
 10
10.812385493
 20
8.1296361619
 30
0.0
 10
10.8439217333
 20
8.1281974724
 30
0.0
 10
10.8754247423
 20
8.1244222024
 30
0.0
 10
10.9067217442
 20
8.1183315008
 30
0.0
 10
10.937640774
 20
8.1099592086
 30
0.0
 10
10.9680120932
 20
8.0993515878
 30
0.0
 10
10.9976689804
 20
8.0865671375
 30
0.0
 10
11.0264487071
 20
8.0716763239
 30
0.0
 10
11.0541933383
 20
8.0547610387
 30
0.0
 10
11.0807506392
 20
8.0359142731
 30
0.0
 10
11.1059749235
 20
8.0152396126
 30
0.0
 10
11.1297277502
 20
7.9928505575
 30
0.0
 10
11.1518787664
 20
7.9688700289
 30
0.0
 10
11.1723064083
 20
7.9434296673
 30
0.0
 10
11.1908984641
 20
7.9166690441
 30
0.0
 10
11.2075528137
 20
7.8887350135
 30
0.0
 10
11.2221779377
 20
7.8597808572
 30
0.0
 10
11.2346933297
 20
7.8299654398
 30
0.0
 10
11.2450300952
 20
7.799452354
 30
0.0
 10
11.2531312454
 20
7.7684092433
 30
0.0
 10
11.2589519059
 20
7.7370059592
 30
0.0
 10
11.2624599018
 20
7.7054171936
 30
0.0
 10
11.2632456191
 20
7.6842905837
 30
0.0
 10
11.2632456191
 20
7.673757983
 30
0.0
  0
SPLINE
  5
374
100
AcDbEntity
  8
0
100
AcDbSpline
 62
7
  6
CONTINUOUS
 70
0
 71
3
 72
19
 73
15
 74
0
 42
0.0000001
 43
0.0000001
 44
0.0000000001
 40
0.0
 40
0.0
 40
0.0
 40
0.0
 40
0.1263681917
 40
0.1895187361
 40
0.2526243292
 40
0.3786209178
 40
0.5042411903
 40
0.5668744796
 40
0.6293566238
 40
0.691668075
 40
0.7537896659
 40
0.8157018252
 40
0.8773881144
 40
1.0
 40
1.0
 40
1.0
 40
1.0
 10
10.7308592159
 20
7.9178552429
 30
0.0
 10
10.7278472662
 20
7.9133501814
 30
0.0
 10
10.7235423244
 20
7.9064478921
 30
0.0
 10
10.7182679826
 20
7.8969832821
 30
0.0
 10
10.7133203006
 20
7.887361404
 30
0.0
 10
10.7077653327
 20
7.8750485193
 30
0.0
 10
10.7031042443
 20
7.8623904132
 30
0.0
 10
10.699952677
 20
7.852107883
 30
0.0
 10
10.6978874288
 20
7.8443380625
 30
0.0
 10
10.696126033
 20
7.8365162766
 30
0.0
 10
10.6946751989
 20
7.8286558176
 30
0.0
 10
10.6935403793
 20
7.820770323
 30
0.0
 10
10.6924571705
 20
7.8102656875
 30
0.0
 10
10.6921265325
 20
7.8023573609
 30
0.0
 10
10.6921265325
 20
7.7970992747
 30
0.0
  0
SPLINE
  5
375
100
AcDbEntity
  8
0
100
AcDbSpline
 62
7
  6
CONTINUOUS
 70
0
 71
3
 72
42
 73
38
 74
0
 42
0.0000001
 43
0.0000001
 44
0.0000000001
 40
0.0
 40
0.0
 40
0.0
 40
0.0
 40
0.0299419663
 40
0.0449235352
 40
0.0599142051
 40
0.0899287052
 40
0.1200139767
 40
0.135092661
 40
0.150196701
 40
0.1804840414
 40
0.210897872
 40
0.2414513324
 40
0.2721543376
 40
0.3030133986
 40
0.3340315263
 40
0.3652082187
 40
0.3965395244
 40
0.4280181782
 40
0.4596338019
 40
0.4913731609
 40
0.5232204716
 40
0.55515775
 40
0.5871651943
 40
0.6192215961
 40
0.6513047701
 40
0.6833919991
 40
0.7154604852
 40
0.7474878032
 40
0.7794523473
 40
0.8113337692
 40
0.8431133916
 40
0.8747746171
 40
0.9063032365
 40
0.9376879249
 40
0.9533258257
 40
0.968925233
 40
1.0
 40
1.0
 40
1.0
 40
1.0
 10
11.2017047434
 20
10.117468221
 30
0.0
 10
11.2045581661
 20
10.1202244162
 30
0.0
 10
11.209006475
 20
10.1241917235
 30
0.0
 10
11.2152362624
 20
10.1291142626
 30
0.0
 10
11.2216644239
 20
10.1337918694
 30
0.0
 10
11.2300521325
 20
10.1391632709
 30
0.0
 10
11.2388476667
 20
10.143861686
 30
0.0
 10
11.2461016882
 20
10.1472041861
 30
0.0
 10
11.2535055842
 20
10.1502707038
 30
0.0
 10
11.263004428
 20
10.1535681303
 30
0.0
 10
11.2747103278
 20
10.1566412429
 30
0.0
 10
11.2866716543
 20
10.158818327
 30
0.0
 10
11.2988221226
 20
10.1600873641
 30
0.0
 10
11.3110949867
 20
10.1604415837
 30
0.0
 10
11.3234227178
 20
10.1598791823
 30
0.0
 10
11.3357375596
 20
10.1584034084
 30
0.0
 10
11.3479718474
 20
10.1560225156
 30
0.0
 10
11.3600583884
 20
10.1527497173
 30
0.0
 10
11.3719308228
 20
10.1486031082
 30
0.0
 10
11.3835239837
 20
10.1436055628
 30
0.0
 10
11.3947742493
 20
10.1377846076
 30
0.0
 10
11.4056198879
 20
10.1311722702
 30
0.0
 10
11.4160013918
 20
10.1238049031
 30
0.0
 10
11.4258617998
 20
10.1157229846
 30
0.0
 10
11.4351470055
 20
10.1069708985
 30
0.0
 10
11.4438060516
 20
10.0975966923
 30
0.0
 10
11.451791406
 20
10.0876518162
 30
0.0
 10
11.4590592202
 20
10.0771908429
 30
0.0
 10
11.4655695682
 20
10.0662711747
 30
0.0
 10
11.4712866637
 20
10.0549527194
 30
0.0
 10
11.4761790549
 20
10.0432976128
 30
0.0
 10
11.4802198042
 20
10.0313697092
 30
0.0
 10
11.4833865929
 20
10.0192348731
 30
0.0
 10
11.4852851499
 20
10.0089917516
 30
0.0
 10
11.4863501874
 20
10.0007615342
 30
0.0
 10
11.4871102769
 20
9.9925391905
 30
0.0
 10
11.487340424
 20
9.9863519351
 30
0.0
 10
11.487340424
 20
9.9822346487
 30
0.0
  0
SPLINE
  5
376
100
AcDbEntity
  8
0
100
AcDbSpline
 62
7
  6
CONTINUOUS
 70
0
 71
3
 72
42
 73
38
 74
0
 42
0.0000001
 43
0.0000001
 44
0.0000000001
 40
0.0
 40
0.0
 40
0.0
 40
0.0
 40
0.0299419663
 40
0.0449235352
 40
0.0599142051
 40
0.0899287052
 40
0.1200139767
 40
0.135092661
 40
0.150196701
 40
0.1804840414
 40
0.210897872
 40
0.2414513324
 40
0.2721543376
 40
0.3030133986
 40
0.3340315263
 40
0.3652082187
 40
0.3965395244
 40
0.4280181782
 40
0.4596338019
 40
0.4913731609
 40
0.5232204716
 40
0.55515775
 40
0.5871651943
 40
0.6192215961
 40
0.6513047701
 40
0.6833919991
 40
0.7154604852
 40
0.7474878032
 40
0.7794523473
 40
0.8113337692
 40
0.8431133916
 40
0.8747746171
 40
0.9063032365
 40
0.9376879249
 40
0.9533258257
 40
0.968925233
 40
1.0
 40
1.0
 40
1.0
 40
1.0
 10
10.2357788599
 20
7.2866777292
 30
0.0
 10
10.2386322826
 20
7.2894339244
 30
0.0
 10
10.2430805915
 20
7.2934012317
 30
0.0
 10
10.2493103789
 20
7.2983237708
 30
0.0
 10
10.2557385403
 20
7.3030013776
 30
0.0
 10
10.2641262489
 20
7.3083727791
 30
0.0
 10
10.2729217831
 20
7.3130711942
 30
0.0
 10
10.2801758046
 20
7.3164136942
 30
0.0
 10
10.2875797007
 20
7.319480212
 30
0.0
 10
10.2970785445
 20
7.3227776385
 30
0.0
 10
10.3087844443
 20
7.3258507511
 30
0.0
 10
10.3207457707
 20
7.3280278352
 30
0.0
 10
10.3328962391
 20
7.3292968723
 30
0.0
 10
10.3451691031
 20
7.3296510919
 30
0.0
 10
10.3574968342
 20
7.3290886904
 30
0.0
 10
10.3698116761
 20
7.3276129166
 30
0.0
 10
10.3820459638
 20
7.3252320238
 30
0.0
 10
10.3941325049
 20
7.3219592255
 30
0.0
 10
10.4060049393
 20
7.3178126164
 30
0.0
 10
10.4175981002
 20
7.312815071
 30
0.0
 10
10.4288483658
 20
7.3069941157
 30
0.0
 10
10.4396940044
 20
7.3003817784
 30
0.0
 10
10.4500755083
 20
7.2930144113
 30
0.0
 10
10.4599359162
 20
7.2849324928
 30
0.0
 10
10.469221122
 20
7.2761804067
 30
0.0
 10
10.4778801681
 20
7.2668062004
 30
0.0
 10
10.4858655225
 20
7.2568613244
 30
0.0
 10
10.4931333367
 20
7.2464003511
 30
0.0
 10
10.4996436847
 20
7.2354806829
 30
0.0
 10
10.5053607802
 20
7.2241622276
 30
0.0
 10
10.5102531714
 20
7.212507121
 30
0.0
 10
10.5142939207
 20
7.2005792174
 30
0.0
 10
10.5174607094
 20
7.1884443813
 30
0.0
 10
10.5193592663
 20
7.1782012598
 30
0.0
 10
10.5204243039
 20
7.1699710424
 30
0.0
 10
10.5211843934
 20
7.1617486987
 30
0.0
 10
10.5214145405
 20
7.1555614432
 30
0.0
 10
10.5214145405
 20
7.1514441569
 30
0.0
  0
SPLINE
  5
377
100
AcDbEntity
  8
0
100
AcDbSpline
 62
7
  6
CONTINUOUS
 70
0
 71
3
 72
91
 73
87
 74
0
 42
0.0000001
 43
0.0000001
 44
0.0000000001
 40
0.0
 40
0.0
 40
0.0
 40
0.0
 40
0.0027164146
 40
0.005453202
 40
0.008230252
 40
0.0110665198
 40
0.0139797053
 40
0.0169859824
 40
0.0200999174
 40
0.023334401
 40
0.0267007187
 40
0.0302086385
 40
0.0338665091
 40
0.0376814414
 40
0.0416593691
 40
0.0458052582
 40
0.0501231421
 40
0.0546162891
 40
0.0592872586
 40
0.064137982
 40
0.0691698666
 40
0.0743837897
 40
0.079780237
 40
0.0853592528
 40
0.0911205635
 40
0.0970635488
 40
0.1031872988
 40
0.1094906474
 40
0.1226297881
 40
0.1364673429
 40
0.1509860432
 40
0.166165828
 40
0.1819841602
 40
0.1984162836
 40
0.2154354412
 40
0.2330130641
 40
0.2511189358
 40
0.2697213391
 40
0.2887871904
 40
0.3082821639
 40
0.3281708096
 40
0.3484166635
 40
0.368982358
 40
0.3898297276
 40
0.4109199118
 40
0.4322134566
 40
0.4536704139
 40
0.4752504412
 40
0.4969128994
 40
0.5186169519
 40
0.5403216628
 40
0.5619860952
 40
0.5835694083
 40
0.6050309559
 40
0.6263303839
 40
0.6474277291
 40
0.6682835187
 40
0.688858872
 40
0.7091156002
 40
0.7290163102
 40
0.7485245085
 40
0.7676047097
 40
0.7862225487
 40
0.8043448976
 40
0.8219399925
 40
0.8389775679
 40
0.8554290014
 40
0.8712674776
 40
0.8864681732
 40
0.9010084737
 40
0.9148682315
 40
0.9280300795
 40
0.9343449284
 40
0.9404802779
 40
0.9464349254
 40
0.952207944
 40
0.9577987094
 40
0.9632068925
 40
0.9684325652
 40
0.9734761403
 40
0.9783384919
 40
0.9830209404
 40
0.9875254382
 40
0.9918545985
 40
0.9960115586
 40
1.0
 40
1.0
 40
1.0
 40
1.0
 10
12.4077246212
 20
8.28203744
 30
0.0
 10
12.4066141264
 20
8.2821144483
 30
0.0
 10
12.4043904938
 20
8.2823695438
 30
0.0
 10
12.4010833469
 20
8.283052183
 30
0.0
 10
12.397801208
 20
8.2840347585
 30
0.0
 10
12.3945463793
 20
8.2853162242
 30
0.0
 10
12.3913205934
 20
8.2868955537
 30
0.0
 10
12.3881254483
 20
8.2887714038
 30
0.0
 10
12.3849624652
 20
8.2909425216
 30
0.0
 10
12.3818330183
 20
8.2934074807
 30
0.0
 10
12.3787384675
 20
8.2961648582
 30
0.0
 10
12.3756801654
 20
8.2992131595
 30
0.0
 10
12.3726594053
 20
8.302550762
 30
0.0
 10
12.3696775864
 20
8.3061760167
 30
0.0
 10
12.3667359931
 20
8.3100870711
 30
0.0
 10
12.3638360462
 20
8.3142820322
 30
0.0
 10
12.3609790582
 20
8.3187588054
 30
0.0
 10
12.3581664192
 20
8.3235152035
 30
0.0
 10
12.355399482
 20
8.3285488795
 30
0.0
 10
12.3526795742
 20
8.3338573423
 30
0.0
 10
12.3500080717
 20
8.3394379795
 30
0.0
 10
12.3473862408
 20
8.3452880076
 30
0.0
 10
12.3448154403
 20
8.3514045373
 30
0.0
 10
12.3422969002
 20
8.3577845102
 30
0.0
 10
12.3398319153
 20
8.3644247562
 30
0.0
 10
12.3374217075
 20
8.3713219532
 30
0.0
 10
12.3350674621
 20
8.3784726653
 30
0.0
 10
12.3319617093
 20
8.3884790018
 30
0.0
 10
12.3282389023
 20
8.40160137
 30
0.0
 10
12.3240724376
 20
8.4180895741
 30
0.0
 10
12.3201557735
 20
8.4354969373
 30
0.0
 10
12.3164968575
 20
8.4537885644
 30
0.0
 10
12.3131031363
 20
8.4729279259
 30
0.0
 10
12.3099815155
 20
8.4928766795
 30
0.0
 10
12.3071383481
 20
8.5135948342
 30
0.0
 10
12.3045794211
 20
8.5350408189
 30
0.0
 10
12.3023099433
 20
8.5571715785
 30
0.0
 10
12.3003345349
 20
8.5799426641
 30
0.0
 10
12.2986572187
 20
8.6033083254
 30
0.0
 10
12.2972814121
 20
8.6272216056
 30
0.0
 10
12.2962099213
 20
8.6516344373
 30
0.0
 10
12.2954449337
 20
8.6764977401
 30
0.0
 10
12.2949880152
 20
8.7017615219
 30
0.0
 10
12.2948401085
 20
8.7273749808
 30
0.0
 10
12.295001531
 20
8.7532866089
 30
0.0
 10
12.2954719748
 20
8.7794442959
 30
0.0
 10
12.2962505075
 20
8.8057954347
 30
0.0
 10
12.2973355739
 20
8.8322870269
 30
0.0
 10
12.2987249997
 20
8.8588657904
 30
0.0
 10
12.3004159936
 20
8.8854782668
 30
0.0
 10
12.3024051552
 20
8.9120709301
 30
0.0
 10
12.3046884819
 20
8.9385902945
 30
0.0
 10
12.3072613771
 20
8.9649830225
 30
0.0
 10
12.3101186594
 20
8.991196032
 30
0.0
 10
12.3132545725
 20
9.0171766035
 30
0.0
 10
12.3166627975
 20
9.0428724867
 30
0.0
 10
12.3203364643
 20
9.0682320065
 30
0.0
 10
12.3242681641
 20
9.0932041684
 30
0.0
 10
12.3284499667
 20
9.1177387614
 30
0.0
 10
12.3328734351
 20
9.1417864596
 30
0.0
 10
12.3375296431
 20
9.1652989222
 30
0.0
 10
12.3424091926
 20
9.1882288919
 30
0.0
 10
12.3475022319
 20
9.2105302914
 30
0.0
 10
12.3527984766
 20
9.232158319
 30
0.0
 10
12.3582872279
 20
9.2530695425
 30
0.0
 10
12.3639573947
 20
9.2732219913
 30
0.0
 10
12.3697975181
 20
9.2925752424
 30
0.0
 10
12.375795795
 20
9.311090513
 30
0.0
 10
12.3819401036
 20
9.3287307248
 30
0.0
 10
12.3882180349
 20
9.3454606643
 30
0.0
 10
12.3946169127
 20
9.361246801
 30
0.0
 10
12.4001125181
 20
9.373756197
 30
0.0
 10
12.4045676439
 20
9.3832597736
 30
0.0
 10
12.4078850308
 20
9.390033602
 30
0.0
 10
12.4112229652
 20
9.3965488297
 30
0.0
 10
12.4145798029
 20
9.4028022046
 30
0.0
 10
12.4179538324
 20
9.4087906127
 30
0.0
 10
12.4213434113
 20
9.4145110553
 30
0.0
 10
12.4247468034
 20
9.4199607084
 30
0.0
 10
12.4281623718
 20
9.4251368367
 30
0.0
 10
12.431588366
 20
9.4300368855
 30
0.0
 10
12.4350231303
 20
9.4346584216
 30
0.0
 10
12.4384650042
 20
9.4389991895
 30
0.0
 10
12.441912371
 20
9.4430570909
 30
0.0
 10
12.4453634171
 20
9.4468299245
 30
0.0
 10
12.4477132565
 20
9.4492021717
 30
0.0
 10
12.4488888253
 20
9.450337684
 30
0.0
  0
SPLINE
  5
378
100
AcDbEntity
  8
0
100
AcDbSpline
 62
7
  6
CONTINUOUS
 70
0
 71
3
 72
64
 73
60
 74
0
 42
0.0000001
 43
0.0000001
 44
0.0000000001
 40
0.0
 40
0.0
 40
0.0
 40
0.0
 40
0.0036899171
 40
0.0075220509
 40
0.0114999147
 40
0.0156263711
 40
0.0199037842
 40
0.0243340462
 40
0.0336577491
 40
0.0436055052
 40
0.0541794161
 40
0.0653773962
 40
0.0771938899
 40
0.0896203779
 40
0.1026457317
 40
0.116256577
 40
0.1304375629
 40
0.1451715332
 40
0.1604396972
 40
0.1762218171
 40
0.1924963225
 40
0.2092403855
 40
0.2264300592
 40
0.2440403769
 40
0.2620454078
 40
0.2804183377
 40
0.2991315723
 40
0.337464377
 40
0.3768104773
 40
0.416927532
 40
0.457566968
 40
0.498476051
 40
0.5393999116
 40
0.5800835632
 40
0.6202739153
 40
0.6597218218
 40
0.698184094
 40
0.7169721221
 40
0.7354263331
 40
0.7535189619
 40
0.7712230211
 40
0.7885123599
 40
0.8053617693
 40
0.8217470726
 40
0.8376451827
 40
0.8530342052
 40
0.8678935889
 40
0.8822042145
 40
0.89594852
 40
0.909110705
 40
0.9216769353
 40
0.9336355467
 40
0.9449773553
 40
0.9556960798
 40
0.9657888174
 40
0.9752566
 40
0.984105233
 40
0.9923468705
 40
1.0
 40
1.0
 40
1.0
 40
1.0
 10
12.3635176887
 20
8.4796409483
 30
0.0
 10
12.3628763983
 20
8.4804294443
 30
0.0
 10
12.3616023397
 20
8.4820641035
 30
0.0
 10
12.3597503941
 20
8.4846346713
 30
0.0
 10
12.3579227553
 20
8.4873684423
 30
0.0
 10
12.3561201582
 20
8.4902642174
 30
0.0
 10
12.3543432992
 20
8.4933208479
 30
0.0
 10
12.3519689712
 20
8.4976837617
 30
0.0
 10
12.3490787
 20
8.5035408293
 30
0.0
 10
12.3457813003
 20
8.5110738033
 30
0.0
 10
12.3426033837
 20
8.5192145477
 30
0.0
 10
12.3395501557
 20
8.5279497111
 30
0.0
 10
12.3366266409
 20
8.5372651525
 30
0.0
 10
12.3338377132
 20
8.5471456252
 30
0.0
 10
12.3311880118
 20
8.5575749021
 30
0.0
 10
12.3286819672
 20
8.568535799
 30
0.0
 10
12.3263237901
 20
8.5800102259
 30
0.0
 10
12.3241174375
 20
8.5919792079
 30
0.0
 10
12.3220666009
 20
8.6044229233
 30
0.0
 10
12.3201747262
 20
8.6173207525
 30
0.0
 10
12.3184450007
 20
8.6306513096
 30
0.0
 10
12.3168803174
 20
8.6443924741
 30
0.0
 10
12.3154833004
 20
8.6585214351
 30
0.0
 10
12.3142563027
 20
8.6730147378
 30
0.0
 10
12.3132013913
 20
8.6878483063
 30
0.0
 10
12.3123203071
 20
8.7029975197
 30
0.0
 10
12.3113717938
 20
8.7237498009
 30
0.0
 10
12.3106397839
 20
8.7502927351
 30
0.0
 10
12.3104767572
 20
8.7827407389
 30
0.0
 10
12.3110238077
 20
8.8158199381
 30
0.0
 10
12.3122774228
 20
8.849310592
 30
0.0
 10
12.3142294063
 20
8.8829903717
 30
0.0
 10
12.316866841
 20
8.9166356305
 30
0.0
 10
12.3201721659
 20
8.950022956
 30
0.0
 10
12.3241233534
 20
8.9829307162
 30
0.0
 10
12.328693997
 20
9.0151403246
 30
0.0
 10
12.3330266005
 20
9.0414229118
 30
0.0
 10
12.3367873317
 20
9.0619335783
 30
0.0
 10
12.3397206347
 20
9.0768905848
 30
0.0
 10
12.3427836974
 20
9.091516648
 30
0.0
 10
12.3459714332
 20
9.1057874945
 30
0.0
 10
12.3492785281
 20
9.1196794168
 30
0.0
 10
12.3526994684
 20
9.1331693518
 30
0.0
 10
12.3562285373
 20
9.1462349146
 30
0.0
 10
12.359859848
 20
9.1588544274
 30
0.0
 10
12.363587352
 20
9.1710069605
 30
0.0
 10
12.3674048185
 20
9.1826723814
 30
0.0
 10
12.3713058736
 20
9.1938313813
 30
0.0
 10
12.3752840197
 20
9.2044655024
 30
0.0
 10
12.379332627
 20
9.2145571882
 30
0.0
 10
12.3834449446
 20
9.2240898222
 30
0.0
 10
12.3876141429
 20
9.2330477447
 30
0.0
 10
12.3918333375
 20
9.2414162898
 30
0.0
 10
12.3960955686
 20
9.2491818478
 30
0.0
 10
12.4003939035
 20
9.2563318832
 30
0.0
 10
12.4047214099
 20
9.2628548781
 30
0.0
 10
12.4090714529
 20
9.2687407122
 30
0.0
 10
12.4134370447
 20
9.2739796108
 30
0.0
 10
12.4164630159
 20
9.2771500972
 30
0.0
 10
12.4179791963
 20
9.2786146151
 30
0.0
  0
SPLINE
  5
379
100
AcDbEntity
  8
0
100
AcDbSpline
 62
7
  6
CONTINUOUS
 70
0
 71
3
 72
9
 73
5
 74
0
 42
0.0000001
 43
0.0000001
 44
0.0000000001
 40
0.0
 40
0.0
 40
0.0
 40
0.0
 40
0.4960909153
 40
1.0
 40
1.0
 40
1.0
 40
1.0
 10
12.3533981369
 20
8.5063334062
 30
0.0
 10
12.3523792312
 20
8.5064040651
 30
0.0
 10
12.3503325595
 20
8.5066817472
 30
0.0
 10
12.3483393003
 20
8.5072209725
 30
0.0
 10
12.3473561105
 20
8.5075520889
 30
0.0
  0
SPLINE
  5
37A
100
AcDbEntity
  8
0
100
AcDbSpline
 62
7
  6
CONTINUOUS
 70
0
 71
3
 72
9
 73
5
 74
0
 42
0.0000001
 43
0.0000001
 44
0.0000000001
 40
0.0
 40
0.0
 40
0.0
 40
0.0
 40
0.4959902741
 40
1.0
 40
1.0
 40
1.0
 40
1.0
 10
12.4052861849
 20
9.2545363156
 30
0.0
 10
12.4042539071
 20
9.2546079018
 30
0.0
 10
12.402160784
 20
9.254613686
 30
0.0
 10
12.4000853853
 20
9.2543460489
 30
0.0
 10
12.3990527359
 20
9.2541479041
 30
0.0
  0
SPLINE
  5
37B
100
AcDbEntity
  8
0
100
AcDbSpline
 62
7
  6
CONTINUOUS
 70
0
 71
3
 72
69
 73
65
 74
0
 42
0.0000001
 43
0.0000001
 44
0.0000000001
 40
0.0
 40
0.0
 40
0.0
 40
0.0
 40
0.0155843576
 40
0.0311165404
 40
0.0465960308
 40
0.0620249371
 40
0.0774047753
 40
0.0927378621
 40
0.108026966
 40
0.1232752762
 40
0.1384864185
 40
0.1536643981
 40
0.1688135695
 40
0.1839385908
 40
0.1990443744
 40
0.2141360361
 40
0.2292188427
 40
0.2442981572
 40
0.2593793793
 40
0.2744678873
 40
0.2895689813
 40
0.3046878282
 40
0.319829407
 40
0.3349984551
 40
0.350199419
 40
0.3654364118
 40
0.3807131731
 40
0.3960330322
 40
0.4113988751
 40
0.4268131209
 40
0.4422777041
 40
0.4577940584
 40
0.473363106
 40
0.4889852529
 40
0.5046603946
 40
0.5203879208
 40
0.5361667243
 40
0.551995215
 40
0.5678713429
 40
0.5837926213
 40
0.599756151
 40
0.6157586479
 40
0.6317964791
 40
0.6478656978
 40
0.6800725949
 40
0.7123515113
 40
0.7285100947
 40
0.7446719372
 40
0.7608319994
 40
0.7769852592
 40
0.7931267537
 40
0.8092516208
 40
0.8253551437
 40
0.8414327945
 40
0.857480274
 40
0.8734935475
 40
0.889468884
 40
0.9054029007
 40
0.9212925699
 40
0.9371352942
 40
0.952928929
 40
0.9686714788
 40
0.9843625188
 40
1.0
 40
1.0
 40
1.0
 40
1.0
 10
11.1024907922
 20
7.6934807349
 30
0.0
 10
11.1024907922
 20
7.6893000495
 30
0.0
 10
11.1022861768
 20
7.6809511935
 30
0.0
 10
11.1013626412
 20
7.6684805363
 30
0.0
 10
11.0998250136
 20
7.6561122811
 30
0.0
 10
11.0976771558
 20
7.6438768035
 30
0.0
 10
11.0949240752
 20
7.6318033478
 30
0.0
 10
11.0915724284
 20
7.6199210986
 30
0.0
 10
11.0876302766
 20
7.6082586793
 30
0.0
 10
11.083107088
 20
7.5968442129
 30
0.0
 10
11.0780137284
 20
7.5857052354
 30
0.0
 10
11.0723624533
 20
7.5748686163
 30
0.0
 10
11.0661668893
 20
7.5643604863
 30
0.0
 10
11.059441961
 20
7.5542061933
 30
0.0
 10
11.0522038622
 20
7.544430242
 30
0.0
 10
11.044470029
 20
7.5350562286
 30
0.0
 10
11.0362591279
 20
7.5261067533
 30
0.0
 10
11.0275909626
 20
7.5176034016
 30
0.0
 10
11.0184864351
 20
7.5095666882
 30
0.0
 10
11.0089674936
 20
7.5020160141
 30
0.0
 10
10.9990571162
 20
7.4949695705
 30
0.0
 10
10.9887792171
 20
7.4884443349
 30
0.0
 10
10.9781585888
 20
7.4824560334
 30
0.0
 10
10.9672208416
 20
7.477019112
 30
0.0
 10
10.9559923658
 20
7.472146655
 30
0.0
 10
10.9445002507
 20
7.4678503732
 30
0.0
 10
10.93277221
 20
7.4641405995
 30
0.0
 10
10.9208365181
 20
7.4610262677
 30
0.0
 10
10.9087219522
 20
7.4585148614
 30
0.0
 10
10.8964577208
 20
7.4566123816
 30
0.0
 10
10.884073382
 20
7.4553233802
 30
0.0
 10
10.871598777
 20
7.4546509429
 30
0.0
 10
10.8590639629
 20
7.4545966762
 30
0.0
 10
10.8464991379
 20
7.4551606565
 30
0.0
 10
10.8339345654
 20
7.4563414901
 30
0.0
 10
10.8214005042
 20
7.4581363094
 30
0.0
 10
10.808927141
 20
7.4605407872
 30
0.0
 10
10.7965445076
 20
7.4635490894
 30
0.0
 10
10.7842824112
 20
7.4671539383
 30
0.0
 10
10.7721703746
 20
7.4713466307
 30
0.0
 10
10.7602375417
 20
7.4761170853
 30
0.0
 10
10.7485127047
 20
7.4814537434
 30
0.0
 10
10.7370238136
 20
7.4873439117
 30
0.0
 10
10.7220481226
 20
7.4959213245
 30
0.0
 10
10.7040589426
 20
7.5079541068
 30
0.0
 10
10.6872324889
 20
7.5216029779
 30
0.0
 10
10.6745513986
 20
7.5334214991
 30
0.0
 10
10.6654498291
 20
7.5427181041
 30
0.0
 10
10.6567845371
 20
7.5524203893
 30
0.0
 10
10.6485761176
 20
7.5625052003
 30
0.0
 10
10.6408444045
 20
7.5729482133
 30
0.0
 10
10.6336080144
 20
7.5837243213
 30
0.0
 10
10.6268843678
 20
7.5948075755
 30
0.0
 10
10.6206896466
 20
7.6061712964
 30
0.0
 10
10.6150387751
 20
7.6177881355
 30
0.0
 10
10.6099453891
 20
7.6296301418
 30
0.0
 10
10.6054217636
 20
7.6416688105
 30
0.0
 10
10.6014787934
 20
7.6538751573
 30
0.0
 10
10.5981259845
 20
7.6662197987
 30
0.0
 10
10.5953714426
 20
7.6786730404
 30
0.0
 10
10.593221875
 20
7.6912048185
 30
0.0
 10
10.5916823486
 20
7.7037852088
 30
0.0
 10
10.5907567832
 20
7.7163833394
 30
0.0
 10
10.590550074
 20
7.7247890078
 30
0.0
 10
10.590550074
 20
7.7289839443
 30
0.0
  0
SPLINE
  5
37C
100
AcDbEntity
  8
0
100
AcDbSpline
 62
7
  6
CONTINUOUS
 70
0
 71
3
 72
21
 73
17
 74
0
 42
0.0000001
 43
0.0000001
 44
0.0000000001
 40
0.0
 40
0.0
 40
0.0
 40
0.0
 40
0.1273176366
 40
0.2537999756
 40
0.3167619475
 40
0.3795355041
 40
0.4421314991
 40
0.5045621439
 40
0.5668413432
 40
0.6289845283
 40
0.6910084528
 40
0.7529310935
 40
0.8147714495
 40
0.8765493365
 40
0.9382852194
 40
1.0
 40
1.0
 40
1.0
 40
1.0
 10
10.1891360366
 20
7.1744877494
 30
0.0
 10
10.1891360366
 20
7.1797849993
 30
0.0
 10
10.189641694
 20
7.1903515636
 30
0.0
 10
10.1915513981
 20
7.20341412
 30
0.0
 10
10.1938339191
 20
7.2136605536
 30
0.0
 10
10.1959154556
 20
7.2212183267
 30
0.0
 10
10.1983642432
 20
7.2286418107
 30
0.0
 10
10.201174671
 20
7.2359140906
 30
0.0
 10
10.2043402384
 20
7.2430183524
 30
0.0
 10
10.2078536898
 20
7.2499382128
 30
0.0
 10
10.211706943
 20
7.2566576971
 30
0.0
 10
10.2158910896
 20
7.2631613291
 30
0.0
 10
10.2203964919
 20
7.2694340818
 30
0.0
 10
10.2252128392
 20
7.2754615137
 30
0.0
 10
10.2303287978
 20
7.2812295603
 30
0.0
 10
10.2339320011
 20
7.2848938003
 30
0.0
 10
10.2357788599
 20
7.2866777292
 30
0.0
  0
SPLINE
  5
37D
100
AcDbEntity
  8
0
100
AcDbSpline
 62
7
  6
CONTINUOUS
 70
0
 71
3
 72
18
 73
14
 74
0
 42
0.0000001
 43
0.0000001
 44
0.0000000001
 40
0.0
 40
0.0
 40
0.0
 40
0.0
 40
0.0548621106
 40
0.1099281304
 40
0.165399556
 40
0.2214731722
 40
0.2783387379
 40
0.3361775111
 40
0.4554063056
 40
0.5804414047
 40
0.7123341351
 40
0.8519581983
 40
1.0
 40
1.0
 40
1.0
 40
1.0
 10
10.2285748129
 20
10.5046577691
 30
0.0
 10
10.2285748097
 20
10.5053639151
 30
0.0
 10
10.2286196223
 20
10.5067792372
 30
0.0
 10
10.2288211185
 20
10.5088999202
 30
0.0
 10
10.2291568689
 20
10.5110193795
 30
0.0
 10
10.2296267465
 20
10.5131368417
 30
0.0
 10
10.2302305536
 20
10.5152517779
 30
0.0
 10
10.2312237042
 20
10.5180957962
 30
0.0
 10
10.2328147212
 20
10.5216528987
 30
0.0
 10
10.2352363545
 20
10.5258538549
 30
0.0
 10
10.2381857872
 20
10.5300276255
 30
0.0
 10
10.2416585321
 20
10.5341700042
 30
0.0
 10
10.2442413361
 20
10.5368278486
 30
0.0
 10
10.2456118675
 20
10.5381516803
 30
0.0
  0
SPLINE
  5
37E
100
AcDbEntity
  8
0
100
AcDbSpline
 62
7
  6
CONTINUOUS
 70
0
 71
3
 72
47
 73
43
 74
0
 42
0.0000001
 43
0.0000001
 44
0.0000000001
 40
0.0
 40
0.0
 40
0.0
 40
0.0
 40
0.0149719699
 40
0.0299469986
 40
0.0449281275
 40
0.0599183593
 40
0.0749206409
 40
0.0899378479
 40
0.1049727642
 40
0.1200280654
 40
0.1351063071
 40
0.1502099062
 40
0.1653411266
 40
0.1805020712
 40
0.195694667
 40
0.2109206532
 40
0.226181577
 40
0.2414787841
 40
0.2721808909
 40
0.30303905
 40
0.3340562704
 40
0.3652320501
 40
0.3965624391
 40
0.4280401707
 40
0.4596548674
 40
0.4913932962
 40
0.5232396724
 40
0.5551760134
 40
0.5871825188
 40
0.61923798
 40
0.6513202127
 40
0.6834065006
 40
0.7154740464
 40
0.7475004247
 40
0.7794640313
 40
0.8113445177
 40
0.8431232087
 40
0.8747834982
 40
0.9063112124
 40
0.9376949433
 40
0.9689261019
 40
1.0
 40
1.0
 40
1.0
 40
1.0
 10
11.1439263064
 20
7.3867599145
 30
0.0
 10
11.1402762314
 20
7.3832342181
 30
0.0
 10
11.1328342881
 20
7.3763264636
 30
0.0
 10
11.1212672334
 20
7.3664154753
 30
0.0
 10
11.1093107067
 20
7.3569676195
 30
0.0
 10
11.0969813724
 20
7.3479961429
 30
0.0
 10
11.0842961694
 20
7.3395132892
 30
0.0
 10
11.0712725658
 20
7.3315307497
 30
0.0
 10
11.0579284616
 20
7.3240595365
 30
0.0
 10
11.0442822491
 20
7.3171098813
 30
0.0
 10
11.0303527042
 20
7.3106913425
 30
0.0
 10
11.0161589797
 20
7.3048127851
 30
0.0
 10
11.0017206265
 20
7.2994822438
 30
0.0
 10
10.9870575158
 20
7.2947070419
 30
0.0
 10
10.97218979
 20
7.290493783
 30
0.0
 10
10.9571379953
 20
7.2868482126
 30
0.0
 10
10.9419225547
 20
7.2837753133
 30
0.0
 10
10.9214230323
 20
7.280443634
 30
0.0
 10
10.8954858982
 20
7.2777344642
 30
0.0
 10
10.8640909676
 20
7.2768285291
 30
0.0
 10
10.8325547273
 20
7.2782672186
 30
0.0
 10
10.8010517184
 20
7.2820424886
 30
0.0
 10
10.7697547165
 20
7.2881331902
 30
0.0
 10
10.7388356867
 20
7.2965054824
 30
0.0
 10
10.7084643674
 20
7.3071131032
 30
0.0
 10
10.6788074802
 20
7.3198975535
 30
0.0
 10
10.6500277535
 20
7.3347883671
 30
0.0
 10
10.6222831224
 20
7.3517036523
 30
0.0
 10
10.5957258214
 20
7.3705504179
 30
0.0
 10
10.5705015372
 20
7.3912250784
 30
0.0
 10
10.5467487104
 20
7.4136141335
 30
0.0
 10
10.5245976943
 20
7.4375946621
 30
0.0
 10
10.5041700524
 20
7.4630350237
 30
0.0
 10
10.4855779965
 20
7.4897956469
 30
0.0
 10
10.468923647
 20
7.5177296775
 30
0.0
 10
10.4542985229
 20
7.5466838338
 30
0.0
 10
10.4417831309
 20
7.5764992512
 30
0.0
 10
10.4314463654
 20
7.607012337
 30
0.0
 10
10.4233452152
 20
7.6380554477
 30
0.0
 10
10.4175245547
 20
7.6694587318
 30
0.0
 10
10.4140165588
 20
7.7010474974
 30
0.0
 10
10.4132308416
 20
7.7221741073
 30
0.0
 10
10.4132308416
 20
7.732706708
 30
0.0
  0
SPLINE
  5
37F
100
AcDbEntity
  8
0
100
AcDbSpline
 62
7
  6
CONTINUOUS
 70
0
 71
3
 72
45
 73
41
 74
0
 42
0.0000001
 43
0.0000001
 44
0.0000000001
 40
0.0
 40
0.0
 40
0.0
 40
0.0
 40
0.0149665987
 40
0.0299384552
 40
0.0449185125
 40
0.0599096651
 40
0.0749147395
 40
0.0899364813
 40
0.1049775385
 40
0.1200404425
 40
0.1351275989
 40
0.1502412726
 40
0.1653835713
 40
0.1805564403
 40
0.2109952993
 40
0.2415753026
 40
0.2723051805
 40
0.3031903474
 40
0.3342328281
 40
0.365431268
 40
0.3967810137
 40
0.4282742548
 40
0.4599002279
 40
0.491645476
 40
0.5234941479
 40
0.5554283355
 40
0.5874284477
 40
0.6194736037
 40
0.6515420451
 40
0.6836115618
 40
0.7156599229
 40
0.7476653083
 40
0.7796067341
 40
0.8114644662
 40
0.8432204189
 40
0.8748585266
 40
0.9063650866
 40
0.9377290953
 40
0.9689422226
 40
1.0
 40
1.0
 40
1.0
 40
1.0
 10
11.1438140202
 20
7.38689173
 30
0.0
 10
11.1401035245
 20
7.3835171173
 30
0.0
 10
11.1325478177
 20
7.3769117388
 30
0.0
 10
11.1208319456
 20
7.3674544731
 30
0.0
 10
11.108747484
 20
7.3584587966
 30
0.0
 10
11.0963108593
 20
7.3499370516
 30
0.0
 10
11.0835387359
 20
7.3419006219
 30
0.0
 10
11.070448318
 20
7.3343602784
 30
0.0
 10
11.057057162
 20
7.3273261966
 30
0.0
 10
11.0433832863
 20
7.320807801
 30
0.0
 10
11.0294450587
 20
7.3148138078
 30
0.0
 10
11.0152612593
 20
7.3093523356
 30
0.0
 10
11.000850687
 20
7.3044306238
 30
0.0
 10
10.9813421084
 20
7.2985912679
 30
0.0
 10
10.9564762629
 20
7.2926751562
 30
0.0
 10
10.9260847109
 20
7.287833479
 30
0.0
 10
10.8952666227
 20
7.2852658265
 30
0.0
 10
10.8641887104
 20
7.2849860239
 30
0.0
 10
10.8330175571
 20
7.2869950617
 30
0.0
 10
10.8019205473
 20
7.2912817997
 30
0.0
 10
10.7710644998
 20
7.2978229243
 30
0.0
 10
10.7406149046
 20
7.306583024
 30
0.0
 10
10.7107350015
 20
7.3175148022
 30
0.0
 10
10.681584957
 20
7.3305594209
 30
0.0
 10
10.6533210009
 20
7.3456467498
 30
0.0
 10
10.6260945673
 20
7.3626957025
 30
0.0
 10
10.6000515464
 20
7.3816147715
 30
0.0
 10
10.5753315102
 20
7.4023024851
 30
0.0
 10
10.552066904
 20
7.4246478687
 30
0.0
 10
10.530382412
 20
7.4485311276
 30
0.0
 10
10.510394315
 20
7.4738242808
 30
0.0
 10
10.4922097837
 20
7.5003917642
 30
0.0
 10
10.4759263598
 20
7.5280912039
 30
0.0
 10
10.4616314877
 20
7.5567741955
 30
0.0
 10
10.4494019653
 20
7.586287018
 30
0.0
 10
10.4393035337
 20
7.6164715331
 30
0.0
 10
10.4313905989
 20
7.6471658004
 30
0.0
 10
10.425705944
 20
7.6782057926
 30
0.0
 10
10.4222802369
 20
7.7094228939
 30
0.0
 10
10.4215130444
 20
7.7302987274
 30
0.0
 10
10.4215130444
 20
7.7407067021
 30
0.0
  0
SPLINE
  5
380
100
AcDbEntity
  8
0
100
AcDbSpline
 62
7
  6
CONTINUOUS
 70
0
 71
3
 72
69
 73
65
 74
0
 42
0.0000001
 43
0.0000001
 44
0.0000000001
 40
0.0
 40
0.0
 40
0.0
 40
0.0
 40
0.0156374812
 40
0.0313285212
 40
0.047071071
 40
0.0628647058
 40
0.0787074301
 40
0.0945970993
 40
0.110531116
 40
0.1265064525
 40
0.142519726
 40
0.1585672055
 40
0.1746448563
 40
0.1907483792
 40
0.2068732463
 40
0.2230147408
 40
0.2391680006
 40
0.2553280628
 40
0.2714899053
 40
0.2876484887
 40
0.3199274051
 40
0.3521343022
 40
0.3682035209
 40
0.3842413521
 40
0.400243849
 40
0.4162073787
 40
0.4321286571
 40
0.448004785
 40
0.4638332757
 40
0.4796120792
 40
0.4953396054
 40
0.5110147471
 40
0.526636894
 40
0.5422059416
 40
0.5577222959
 40
0.5731868791
 40
0.5886011249
 40
0.6039669678
 40
0.6192868269
 40
0.6345635882
 40
0.649800581
 40
0.6650015449
 40
0.680170593
 40
0.6953121718
 40
0.7104310187
 40
0.7255321127
 40
0.7406206207
 40
0.7557018428
 40
0.7707811573
 40
0.7858639639
 40
0.8009556256
 40
0.8160614092
 40
0.8311864305
 40
0.8463356019
 40
0.8615135815
 40
0.8767247238
 40
0.891973034
 40
0.9072621379
 40
0.9225952247
 40
0.9379750629
 40
0.9534039692
 40
0.9688834596
 40
0.9844156424
 40
1.0
 40
1.0
 40
1.0
 40
1.0
 10
11.1024907922
 20
7.6934807349
 30
0.0
 10
11.1024907922
 20
7.6976756713
 30
0.0
 10
11.102284083
 20
7.7060813397
 30
0.0
 10
11.1013585176
 20
7.7186794703
 30
0.0
 10
11.0998189912
 20
7.7312598607
 30
0.0
 10
11.0976694237
 20
7.7437916388
 30
0.0
 10
11.0949148817
 20
7.7562448804
 30
0.0
 10
11.0915620728
 20
7.7685895218
 30
0.0
 10
11.0876191027
 20
7.7807958686
 30
0.0
 10
11.0830954772
 20
7.7928345373
 30
0.0
 10
11.0780020911
 20
7.8046765436
 30
0.0
 10
11.0723512197
 20
7.8162933828
 30
0.0
 10
11.0661564984
 20
7.8276571036
 30
0.0
 10
11.0594328518
 20
7.8387403578
 30
0.0
 10
11.0521964618
 20
7.8495164658
 30
0.0
 10
11.0444647486
 20
7.8599594789
 30
0.0
 10
11.0362563291
 20
7.8700442898
 30
0.0
 10
11.0275910371
 20
7.879746575
 30
0.0
 10
11.0184894677
 20
7.88904318
 30
0.0
 10
11.0058083773
 20
7.9008617012
 30
0.0
 10
10.9889819236
 20
7.9145105724
 30
0.0
 10
10.9709927436
 20
7.9265433547
 30
0.0
 10
10.9560170526
 20
7.9351207674
 30
0.0
 10
10.9445281615
 20
7.9410109357
 30
0.0
 10
10.9328033245
 20
7.9463475938
 30
0.0
 10
10.9208704916
 20
7.9511180484
 30
0.0
 10
10.908758455
 20
7.9553107408
 30
0.0
 10
10.8964963586
 20
7.9589155897
 30
0.0
 10
10.8841137252
 20
7.9619238919
 30
0.0
 10
10.871640362
 20
7.9643283697
 30
0.0
 10
10.8591063008
 20
7.966123189
 30
0.0
 10
10.8465417284
 20
7.9673040226
 30
0.0
 10
10.8339769034
 20
7.9678680029
 30
0.0
 10
10.8214420892
 20
7.9678137362
 30
0.0
 10
10.8089674842
 20
7.9671412989
 30
0.0
 10
10.7965831454
 20
7.9658522975
 30
0.0
 10
10.7843189141
 20
7.9639498177
 30
0.0
 10
10.7722043482
 20
7.9614384114
 30
0.0
 10
10.7602686562
 20
7.9583240796
 30
0.0
 10
10.7485406155
 20
7.954614306
 30
0.0
 10
10.7370485004
 20
7.9503180241
 30
0.0
 10
10.7258200246
 20
7.9454455671
 30
0.0
 10
10.7148822774
 20
7.9400086457
 30
0.0
 10
10.7042616491
 20
7.9340203442
 30
0.0
 10
10.69398375
 20
7.9274951086
 30
0.0
 10
10.6840733727
 20
7.920448665
 30
0.0
 10
10.6745544311
 20
7.9128979909
 30
0.0
 10
10.6654499036
 20
7.9048612775
 30
0.0
 10
10.6567817383
 20
7.8963579258
 30
0.0
 10
10.6485708372
 20
7.8874084506
 30
0.0
 10
10.640837004
 20
7.8780344371
 30
0.0
 10
10.6335989052
 20
7.8682584858
 30
0.0
 10
10.626873977
 20
7.8581041928
 30
0.0
 10
10.620678413
 20
7.8475960629
 30
0.0
 10
10.6150271378
 20
7.8367594437
 30
0.0
 10
10.6099337782
 20
7.8256204662
 30
0.0
 10
10.6054105896
 20
7.8142059998
 30
0.0
 10
10.6014684378
 20
7.8025435805
 30
0.0
 10
10.598116791
 20
7.7906613313
 30
0.0
 10
10.5953637105
 20
7.7785878756
 30
0.0
 10
10.5932158526
 20
7.7663523981
 30
0.0
 10
10.591678225
 20
7.7539841429
 30
0.0
 10
10.5907546895
 20
7.7415134856
 30
0.0
 10
10.590550074
 20
7.7331646297
 30
0.0
 10
10.590550074
 20
7.7289839443
 30
0.0
  0
SPLINE
  5
381
100
AcDbEntity
  8
0
100
AcDbSpline
 62
7
  6
CONTINUOUS
 70
0
 71
3
 72
39
 73
35
 74
0
 42
0.0000001
 43
0.0000001
 44
0.0000000001
 40
0.0
 40
0.0
 40
0.0
 40
0.0
 40
0.0299424706
 40
0.0599093177
 40
0.0899243239
 40
0.1200101031
 40
0.1501875623
 40
0.1804754149
 40
0.21088976
 40
0.241443737
 40
0.2721472612
 40
0.3030068434
 40
0.3340254949
 40
0.3652027136
 40
0.3965345483
 40
0.4280137339
 40
0.4596298915
 40
0.4913697862
 40
0.5232176339
 40
0.5551554503
 40
0.587163434
 40
0.6192203763
 40
0.6513040919
 40
0.6833918632
 40
0.7154608918
 40
0.7474887514
 40
0.7794538357
 40
0.8113357957
 40
0.8431159546
 40
0.8747777135
 40
0.906306863
 40
0.9376920938
 40
0.9689246722
 40
1.0
 40
1.0
 40
1.0
 40
1.0
 10
11.0175504434
 20
7.5497075172
 30
0.0
 10
11.0136518712
 20
7.5459417864
 30
0.0
 10
11.0055481752
 20
7.5387142332
 30
0.0
 10
10.9925647924
 20
7.5288679697
 30
0.0
 10
10.9788199334
 20
7.5200660493
 30
0.0
 10
10.9643903971
 20
7.51235785
 30
0.0
 10
10.9493555151
 20
7.5057854862
 30
0.0
 10
10.9337982634
 20
7.5003850874
 30
0.0
 10
10.9178043735
 20
7.4961861986
 30
0.0
 10
10.9014619608
 20
7.4932117426
 30
0.0
 10
10.8848610037
 20
7.4914778752
 30
0.0
 10
10.8680928539
 20
7.4909939173
 30
0.0
 10
10.8512497315
 20
7.4917623141
 30
0.0
 10
10.8344242219
 20
7.4937786328
 30
0.0
 10
10.8177087709
 20
7.4970315964
 30
0.0
 10
10.8011951838
 20
7.5015031544
 30
0.0
 10
10.7849741275
 20
7.5071685848
 30
0.0
 10
10.7691346374
 20
7.5139966315
 30
0.0
 10
10.7537636375
 20
7.5219496834
 30
0.0
 10
10.7389454697
 20
7.5309839815
 30
0.0
 10
10.7247614378
 20
7.5410498585
 30
0.0
 10
10.7112893667
 20
7.5520920105
 30
0.0
 10
10.698603181
 20
7.564049798
 30
0.0
 10
10.6867725038
 20
7.576857576
 30
0.0
 10
10.6758622794
 20
7.5904450506
 30
0.0
 10
10.6659324191
 20
7.6047376605
 30
0.0
 10
10.6570374711
 20
7.6196569783
 30
0.0
 10
10.6492263287
 20
7.6351211431
 30
0.0
 10
10.6425419585
 20
7.6510452929
 30
0.0
 10
10.637021181
 20
7.6673420609
 30
0.0
 10
10.6326944231
 20
7.683921919
 30
0.0
 10
10.6295856564
 20
7.7006941376
 30
0.0
 10
10.6277120544
 20
7.7175654225
 30
0.0
 10
10.6272924154
 20
7.7288489544
 30
0.0
 10
10.6272924154
 20
7.7344743229
 30
0.0
  0
SPLINE
  5
382
100
AcDbEntity
  8
0
100
AcDbSpline
 62
7
  6
CONTINUOUS
 70
0
 71
3
 72
23
 73
19
 74
0
 42
0.0000001
 43
0.0000001
 44
0.0000000001
 40
0.0
 40
0.0
 40
0.0
 40
0.0
 40
0.061689837
 40
0.1234110578
 40
0.1851828619
 40
0.2470239701
 40
0.3089524482
 40
0.3709855389
 40
0.4331395051
 40
0.4954294877
 40
0.557869367
 40
0.6204716549
 40
0.6832473761
 40
0.7462059436
 40
0.8093553995
 40
0.8727010945
 40
0.9362493595
 40
1.0
 40
1.0
 40
1.0
 40
1.0
 10
10.532672681
 20
8.0195825862
 30
0.0
 10
10.5282541416
 20
8.01505015
 30
0.0
 10
10.5196381142
 20
8.0057621553
 30
0.0
 10
10.5074166253
 20
7.9912034499
 30
0.0
 10
10.4959203555
 20
7.9760454678
 30
0.0
 10
10.4851743289
 20
7.9603211156
 30
0.0
 10
10.4752014314
 20
7.9440639431
 30
0.0
 10
10.466023027
 20
7.927308797
 30
0.0
 10
10.4576587233
 20
7.9100915534
 30
0.0
 10
10.4501263972
 20
7.8924490812
 30
0.0
 10
10.4434421394
 20
7.8744191516
 30
0.0
 10
10.4376202263
 20
7.8560403589
 30
0.0
 10
10.4326730972
 20
7.837352046
 30
0.0
 10
10.4286112772
 20
7.818394186
 30
0.0
 10
10.4254434673
 20
7.7992074404
 30
0.0
 10
10.4231762888
 20
7.779832587
 30
0.0
 10
10.4218147223
 20
7.7603117761
 30
0.0
 10
10.4215130444
 20
7.7472479629
 30
0.0
 10
10.4215130444
 20
7.7407067021
 30
0.0
  0
SPLINE
  5
383
100
AcDbEntity
  8
0
100
AcDbSpline
 62
7
  6
CONTINUOUS
 70
0
 71
3
 72
23
 73
19
 74
0
 42
0.0000001
 43
0.0000001
 44
0.0000000001
 40
0.0
 40
0.0
 40
0.0
 40
0.0
 40
0.0617101427
 40
0.1234413969
 40
0.1852146481
 40
0.2470503542
 40
0.308968347
 40
0.3709876211
 40
0.4331261371
 40
0.4954006584
 40
0.5578266133
 40
0.6204179205
 40
0.6831867712
 40
0.7461439365
 40
0.8092980115
 40
0.8726548716
 40
0.9362235844
 40
1.0
 40
1.0
 40
1.0
 40
1.0
 10
10.6910195528
 20
7.8877571504
 30
0.0
 10
10.6884962276
 20
7.885319806
 30
0.0
 10
10.6835732317
 20
7.8803134451
 30
0.0
 10
10.6765833919
 20
7.8724326915
 30
0.0
 10
10.6700029458
 20
7.8641975129
 30
0.0
 10
10.6638472978
 20
7.8556271899
 30
0.0
 10
10.6581305624
 20
7.8467414264
 30
0.0
 10
10.6528659637
 20
7.8375607213
 30
0.0
 10
10.6480656141
 20
7.8281062583
 30
0.0
 10
10.643740543
 20
7.8183998597
 30
0.0
 10
10.6399007172
 20
7.8084639046
 30
0.0
 10
10.6365550042
 20
7.7983213009
 30
0.0
 10
10.633711046
 20
7.7879954478
 30
0.0
 10
10.6313753844
 20
7.7775101417
 30
0.0
 10
10.6295534227
 20
7.7668896219
 30
0.0
 10
10.6282492394
 20
7.7561581185
 30
0.0
 10
10.6274659764
 20
7.7453408983
 30
0.0
 10
10.6272924154
 20
7.7381000414
 30
0.0
 10
10.6272924154
 20
7.7344743229
 30
0.0
  0
SPLINE
  5
384
100
AcDbEntity
  8
0
100
AcDbSpline
 62
7
  6
CONTINUOUS
 70
0
 71
3
 72
42
 73
38
 74
0
 42
0.0000001
 43
0.0000001
 44
0.0000000001
 40
0.0
 40
0.0
 40
0.0
 40
0.0
 40
0.0299419663
 40
0.0449235352
 40
0.0599142051
 40
0.0899287052
 40
0.1200139767
 40
0.135092661
 40
0.150196701
 40
0.1804840414
 40
0.210897872
 40
0.2414513324
 40
0.2721543376
 40
0.3030133986
 40
0.3340315263
 40
0.3652082187
 40
0.3965395244
 40
0.4280181782
 40
0.4596338019
 40
0.4913731609
 40
0.5232204716
 40
0.55515775
 40
0.5871651943
 40
0.6192215961
 40
0.6513047701
 40
0.6833919991
 40
0.7154604852
 40
0.7474878032
 40
0.7794523473
 40
0.8113337692
 40
0.8431133916
 40
0.8747746171
 40
0.9063032365
 40
0.9376879249
 40
0.9533258257
 40
0.968925233
 40
1.0
 40
1.0
 40
1.0
 40
1.0
 10
11.4406976008
 20
9.8700446689
 30
0.0
 10
11.437844178
 20
9.8672884738
 30
0.0
 10
11.4333958691
 20
9.8633211665
 30
0.0
 10
11.4271660817
 20
9.8583986274
 30
0.0
 10
11.4207379203
 20
9.8537210206
 30
0.0
 10
11.4123502117
 20
9.848349619
 30
0.0
 10
11.4035546775
 20
9.8436512039
 30
0.0
 10
11.396300656
 20
9.8403087039
 30
0.0
 10
11.3888967599
 20
9.8372421862
 30
0.0
 10
11.3793979161
 20
9.8339447597
 30
0.0
 10
11.3676920163
 20
9.8308716471
 30
0.0
 10
11.3557306899
 20
9.8286945629
 30
0.0
 10
11.3435802216
 20
9.8274255258
 30
0.0
 10
11.3313073575
 20
9.8270713062
 30
0.0
 10
11.3189796264
 20
9.8276337077
 30
0.0
 10
11.3066647845
 20
9.8291094816
 30
0.0
 10
11.2944304968
 20
9.8314903743
 30
0.0
 10
11.2823439558
 20
9.8347631727
 30
0.0
 10
11.2704715213
 20
9.8389097817
 30
0.0
 10
11.2588783604
 20
9.8439073272
 30
0.0
 10
11.2476280949
 20
9.8497282824
 30
0.0
 10
11.2367824563
 20
9.8563406198
 30
0.0
 10
11.2264009523
 20
9.8637079869
 30
0.0
 10
11.2165405444
 20
9.8717899054
 30
0.0
 10
11.2072553386
 20
9.8805419915
 30
0.0
 10
11.1985962925
 20
9.8899161977
 30
0.0
 10
11.1906109381
 20
9.8998610738
 30
0.0
 10
11.1833431239
 20
9.9103220471
 30
0.0
 10
11.1768327759
 20
9.9212417153
 30
0.0
 10
11.1711156804
 20
9.9325601705
 30
0.0
 10
11.1662232892
 20
9.9442152771
 30
0.0
 10
11.16218254
 20
9.9561431807
 30
0.0
 10
11.1590157513
 20
9.9682780168
 30
0.0
 10
11.1571171943
 20
9.9785211384
 30
0.0
 10
11.1560521567
 20
9.9867513557
 30
0.0
 10
11.1552920673
 20
9.9949736995
 30
0.0
 10
11.1550619201
 20
10.0011609549
 30
0.0
 10
11.1550619201
 20
10.0052782412
 30
0.0
  0
SPLINE
  5
385
100
AcDbEntity
  8
0
100
AcDbSpline
 62
7
  6
CONTINUOUS
 70
0
 71
3
 72
42
 73
38
 74
0
 42
0.0000001
 43
0.0000001
 44
0.0000000001
 40
0.0
 40
0.0
 40
0.0
 40
0.0
 40
0.0299419663
 40
0.0449235352
 40
0.0599142051
 40
0.0899287052
 40
0.1200139767
 40
0.135092661
 40
0.150196701
 40
0.1804840414
 40
0.210897872
 40
0.2414513324
 40
0.2721543376
 40
0.3030133986
 40
0.3340315263
 40
0.3652082187
 40
0.3965395244
 40
0.4280181782
 40
0.4596338019
 40
0.4913731609
 40
0.5232204716
 40
0.55515775
 40
0.5871651943
 40
0.6192215961
 40
0.6513047701
 40
0.6833919991
 40
0.7154604852
 40
0.7474878032
 40
0.7794523473
 40
0.8113337692
 40
0.8431133916
 40
0.8747746171
 40
0.9063032365
 40
0.9376879249
 40
0.9533258257
 40
0.968925233
 40
1.0
 40
1.0
 40
1.0
 40
1.0
 10
10.4747717172
 20
7.0392541771
 30
0.0
 10
10.4719182945
 20
7.036497982
 30
0.0
 10
10.4674699856
 20
7.0325306747
 30
0.0
 10
10.4612401982
 20
7.0276081356
 30
0.0
 10
10.4548120368
 20
7.0229305288
 30
0.0
 10
10.4464243282
 20
7.0175591272
 30
0.0
 10
10.437628794
 20
7.0128607121
 30
0.0
 10
10.4303747725
 20
7.0095182121
 30
0.0
 10
10.4229708764
 20
7.0064516944
 30
0.0
 10
10.4134720326
 20
7.0031542679
 30
0.0
 10
10.4017661328
 20
7.0000811552
 30
0.0
 10
10.3898048064
 20
6.9979040711
 30
0.0
 10
10.377654338
 20
6.996635034
 30
0.0
 10
10.3653814739
 20
6.9962808144
 30
0.0
 10
10.3530537428
 20
6.9968432159
 30
0.0
 10
10.340738901
 20
6.9983189898
 30
0.0
 10
10.3285046132
 20
7.0006998825
 30
0.0
 10
10.3164180722
 20
7.0039726809
 30
0.0
 10
10.3045456378
 20
7.0081192899
 30
0.0
 10
10.2929524769
 20
7.0131168353
 30
0.0
 10
10.2817022113
 20
7.0189377906
 30
0.0
 10
10.2708565727
 20
7.025550128
 30
0.0
 10
10.2604750688
 20
7.0329174951
 30
0.0
 10
10.2506146609
 20
7.0409994136
 30
0.0
 10
10.2413294551
 20
7.0497514997
 30
0.0
 10
10.232670409
 20
7.0591257059
 30
0.0
 10
10.2246850546
 20
7.069070582
 30
0.0
 10
10.2174172404
 20
7.0795315553
 30
0.0
 10
10.2109068924
 20
7.0904512235
 30
0.0
 10
10.2051897969
 20
7.1017696787
 30
0.0
 10
10.2002974057
 20
7.1134247853
 30
0.0
 10
10.1962566564
 20
7.1253526889
 30
0.0
 10
10.1930898677
 20
7.137487525
 30
0.0
 10
10.1911913108
 20
7.1477306466
 30
0.0
 10
10.1901262732
 20
7.1559608639
 30
0.0
 10
10.1893661837
 20
7.1641832077
 30
0.0
 10
10.1891360366
 20
7.1703704631
 30
0.0
 10
10.1891360366
 20
7.1744877494
 30
0.0
  0
SPLINE
  5
386
100
AcDbEntity
  8
0
100
AcDbSpline
 62
7
  6
CONTINUOUS
 70
0
 71
3
 72
86
 73
82
 74
0
 42
0.0000001
 43
0.0000001
 44
0.0000000001
 40
0.0
 40
0.0
 40
0.0
 40
0.0
 40
0.0039801735
 40
0.0081241171
 40
0.0124359931
 40
0.016919361
 40
0.0215772361
 40
0.0264119817
 40
0.0314252561
 40
0.0366182449
 40
0.0419916453
 40
0.0475457694
 40
0.0532805541
 40
0.0591955582
 40
0.0652900785
 40
0.0715630739
 40
0.0846387684
 40
0.0984101018
 40
0.112860694
 40
0.1279712428
 40
0.1437198619
 40
0.1600823544
 40
0.1770324406
 40
0.1945419645
 40
0.2125810668
 40
0.2311183398
 40
0.2501209668
 40
0.2695548486
 40
0.289384725
 40
0.3095742955
 40
0.3300863312
 40
0.3508827821
 40
0.3719248818
 40
0.3931732491
 40
0.4145879914
 40
0.4577543474
 40
0.501099203
 40
0.5442952951
 40
0.5657359749
 40
0.587017582
 40
0.6081001434
 40
0.6289441761
 40
0.6495107926
 40
0.6697618048
 40
0.6896598276
 40
0.709168385
 40
0.7282520204
 40
0.7468764117
 40
0.7650084972
 40
0.7826166038
 40
0.7996705814
 40
0.8161419537
 40
0.8320040874
 40
0.8472323859
 40
0.8618045214
 40
0.8757007003
 40
0.8889039845
 40
0.9014006969
 40
0.9073810972
 40
0.9131815075
 40
0.9188013673
 40
0.9242405009
 40
0.9294990443
 40
0.9345775709
 40
0.9394770909
 40
0.9441990928
 40
0.9487456636
 40
0.9531194621
 40
0.9573238984
 40
0.9613631411
 40
0.9652422549
 40
0.9689673208
 40
0.9725454977
 40
0.9759852252
 40
0.9824864215
 40
0.9855752926
 40
0.9885737717
 40
0.9914977072
 40
0.9943643167
 40
0.9971920017
 40
1.0
 40
1.0
 40
1.0
 40
1.0
 10
10.2456118675
 20
10.5381516803
 30
0.0
 10
10.2466021449
 20
10.5391082149
 30
0.0
 10
10.2486684182
 20
10.5410145229
 30
0.0
 10
10.2519490299
 20
10.5437988364
 30
0.0
 10
10.2554705528
 20
10.5465631888
 30
0.0
 10
10.2592310537
 20
10.5493060908
 30
0.0
 10
10.263228686
 20
10.5520262749
 30
0.0
 10
10.267461505
 20
10.5547224036
 30
0.0
 10
10.271927389
 20
10.5573932036
 30
0.0
 10
10.2766241245
 20
10.5600372845
 30
0.0
 10
10.2815493423
 20
10.5626533617
 30
0.0
 10
10.2867005834
 20
10.5652401175
 30
0.0
 10
10.2920752718
 20
10.5677962428
 30
0.0
 10
10.2976706973
 20
10.570320482
 30
0.0
 10
10.3034840684
 20
10.5728115362
 30
0.0
 10
10.3116349237
 20
10.5761330372
 30
0.0
 10
10.3223539819
 20
10.580183928
 30
0.0
 10
10.3358654736
 20
10.5848283334
 30
0.0
 10
10.3501706053
 20
10.5893114788
 30
0.0
 10
10.3652405359
 20
10.5936242517
 30
0.0
 10
10.3810450144
 20
10.597757873
 30
0.0
 10
10.3975522038
 20
10.6017039223
 30
0.0
 10
10.4147288246
 20
10.6054543643
 30
0.0
 10
10.4325402122
 20
10.6090015595
 30
0.0
 10
10.4509504004
 20
10.6123382829
 30
0.0
 10
10.4699221969
 20
10.6154577388
 30
0.0
 10
10.4894172603
 20
10.618353574
 30
0.0
 10
10.5093961782
 20
10.6210198924
 30
0.0
 10
10.5298185486
 20
10.6234512705
 30
0.0
 10
10.5506430663
 20
10.625642762
 30
0.0
 10
10.5718276074
 20
10.6275899085
 30
0.0
 10
10.5933293194
 20
10.6292887507
 30
0.0
 10
10.6151046918
 20
10.6307358252
 30
0.0
 10
10.6371097042
 20
10.6319282128
 30
0.0
 10
10.6667738454
 20
10.6331783974
 30
0.0
 10
10.7041000287
 20
10.6340864778
 30
0.0
 10
10.748971812
 20
10.6341338242
 30
0.0
 10
10.7863190858
 20
10.6333046695
 30
0.0
 10
10.8160165941
 20
10.6321174999
 30
0.0
 10
10.838058593
 20
10.6309717116
 30
0.0
 10
10.8598790187
 20
10.6295707591
 30
0.0
 10
10.8814337585
 20
10.6279174651
 30
0.0
 10
10.9026791925
 20
10.6260151982
 30
0.0
 10
10.9235723443
 20
10.6238678281
 30
0.0
 10
10.9440709513
 20
10.621479724
 30
0.0
 10
10.9641335547
 20
10.6188557448
 30
0.0
 10
10.9837195822
 20
10.6160012295
 30
0.0
 10
11.0027894334
 20
10.612921986
 30
0.0
 10
11.0213045646
 20
10.6096242843
 30
0.0
 10
11.0392275688
 20
10.6061148421
 30
0.0
 10
11.0565222526
 20
10.6024008078
 30
0.0
 10
11.0731537122
 20
10.5984897472
 30
0.0
 10
11.0890884066
 20
10.5943896271
 30
0.0
 10
11.1042942416
 20
10.590108795
 30
0.0
 10
11.118740623
 20
10.5856559668
 30
0.0
 10
11.1323986128
 20
10.5810401961
 30
0.0
 10
11.1452407104
 20
10.5762708537
 30
0.0
 10
11.1553848067
 20
10.5721178605
 30
0.0
 10
11.1630644246
 20
10.568718194
 30
0.0
 10
11.1685197326
 20
10.5661735134
 30
0.0
 10
11.1737525516
 20
10.5635977385
 30
0.0
 10
11.178760281
 20
10.5609921882
 30
0.0
 10
11.1835403969
 20
10.5583581336
 30
0.0
 10
11.1880905156
 20
10.5556969072
 30
0.0
 10
11.1924083707
 20
10.5530098399
 30
0.0
 10
11.1964917921
 20
10.5502982251
 30
0.0
 10
11.2003387754
 20
10.5475634453
 30
0.0
 10
11.2039473763
 20
10.5448067762
 30
0.0
 10
11.2073158274
 20
10.5420295872
 30
0.0
 10
11.2104424347
 20
10.539233188
 30
0.0
 10
11.2133256368
 20
10.5364188529
 30
0.0
 10
11.2159639434
 20
10.5335880178
 30
0.0
 10
11.2183561566
 20
10.5307415789
 30
0.0
 10
11.2211625054
 20
10.5269988895
 30
0.0
 10
11.2235455176
 20
10.5231552821
 30
0.0
 10
11.2254375572
 20
10.5192296231
 30
0.0
 10
11.2265807026
 20
10.5163262953
 30
0.0
 10
11.2274709565
 20
10.5134159172
 30
0.0
 10
11.2281074904
 20
10.5104998732
 30
0.0
 10
11.2284897121
 20
10.5075802689
 30
0.0
 10
11.2285748011
 20
10.505629739
 30
0.0
 10
11.2285748055
 20
10.5046584039
 30
0.0
  0
SPLINE
  5
387
100
AcDbEntity
  8
0
100
AcDbSpline
 62
7
  6
CONTINUOUS
 70
0
 71
3
 72
86
 73
82
 74
0
 42
0.0000001
 43
0.0000001
 44
0.0000000001
 40
0.0
 40
0.0
 40
0.0
 40
0.0
 40
0.0038907612
 40
0.0079399189
 40
0.0121508387
 40
0.0165263936
 40
0.0210690144
 40
0.0257805905
 40
0.0306624091
 40
0.0357153601
 40
0.0409399235
 40
0.0463362504
 40
0.0519041819
 40
0.0576432294
 40
0.063552686
 40
0.0696315563
 40
0.0822922071
 40
0.0956135991
 40
0.1095808383
 40
0.1241765013
 40
0.1393809182
 40
0.1551723997
 40
0.171527434
 40
0.1884208597
 40
0.2058260116
 40
0.2237148507
 40
0.2420580805
 40
0.2608252521
 40
0.279984871
 40
0.2995044966
 40
0.3193508348
 40
0.3394898276
 40
0.3598867395
 40
0.3805062424
 40
0.4013125043
 40
0.4222692737
 40
0.4433399626
 40
0.4856749341
 40
0.5280217287
 40
0.5491071731
 40
0.570084555
 40
0.590917238
 40
0.6115689104
 40
0.6320036694
 40
0.652186104
 40
0.6720813785
 40
0.6916553184
 40
0.7108744981
 40
0.7297063359
 40
0.7481191844
 40
0.7660824249
 40
0.783566568
 40
0.8005433615
 40
0.8169859091
 40
0.8328688043
 40
0.8481682684
 40
0.8628623115
 40
0.8769309228
 40
0.8903562965
 40
0.9031231125
 40
0.91521888
 40
0.9210123363
 40
0.9266348566
 40
0.9320859127
 40
0.937365218
 40
0.942472816
 40
0.9474090967
 40
0.952174799
 40
0.956771128
 40
0.9611997117
 40
0.9654627397
 40
0.9695629797
 40
0.9735038534
 40
0.9772895646
 40
0.9809251182
 40
0.9844165069
 40
0.9877707531
 40
0.9909960547
 40
0.9941018991
 40
0.9970991165
 40
1.0
 40
1.0
 40
1.0
 40
1.0
 10
12.4179791963
 20
8.3030294727
 30
0.0
 10
12.4191110796
 20
8.3041227881
 30
0.0
 10
12.4213737
 20
8.3064032541
 30
0.0
 10
12.4246992567
 20
8.3100232704
 30
0.0
 10
12.4280215437
 20
8.3139081319
 30
0.0
 10
12.4313389007
 20
8.3180558773
 30
0.0
 10
12.4346498973
 20
8.3224646215
 30
0.0
 10
12.4379530258
 20
8.327132388
 30
0.0
 10
12.4412468338
 20
8.3320570142
 30
0.0
 10
12.4445297455
 20
8.337236247
 30
0.0
 10
12.4478002731
 20
8.3426676746
 30
0.0
 10
12.4510569024
 20
8.3483487903
 30
0.0
 10
12.454298106
 20
8.3542769747
 30
0.0
 10
12.4575224122
 20
8.3604494649
 30
0.0
 10
12.4607282949
 20
8.3668634196
 30
0.0
 10
12.4650347281
 20
8.3758555273
 30
0.0
 10
12.4703518996
 20
8.3876853255
 30
0.0
 10
12.476552176
 20
8.4026086727
 30
0.0
 10
12.4826440102
 20
8.4184182303
 30
0.0
 10
12.4886159872
 20
8.4350845814
 30
0.0
 10
12.494456912
 20
8.4525768489
 30
0.0
 10
12.50015583
 20
8.4708625129
 30
0.0
 10
12.5057020533
 20
8.4899075525
 30
0.0
 10
12.5110851782
 20
8.5096765
 30
0.0
 10
12.5162951081
 20
8.5301325192
 30
0.0
 10
12.5213220719
 20
8.5512374762
 30
0.0
 10
12.5261566421
 20
8.5729520111
 30
0.0
 10
12.5307897583
 20
8.5952356122
 30
0.0
 10
12.5352127397
 20
8.6180466953
 30
0.0
 10
12.5394172999
 20
8.6413426858
 30
0.0
 10
12.5433955632
 20
8.6650800998
 30
0.0
 10
12.5471400779
 20
8.6892146249
 30
0.0
 10
12.5506438308
 20
8.7137012014
 30
0.0
 10
12.5539002676
 20
8.73849411
 30
0.0
 10
12.5569032892
 20
8.7635470465
 30
0.0
 10
12.5596473007
 20
8.7888132607
 30
0.0
 10
12.5629587313
 20
8.8227746964
 30
0.0
 10
12.5664143935
 20
8.8654119543
 30
0.0
 10
12.5689510676
 20
8.9081197154
 30
0.0
 10
12.5704193816
 20
8.9422297081
 30
0.0
 10
12.5712347562
 20
8.9676564108
 30
0.0
 10
12.5717643482
 20
8.9929151688
 30
0.0
 10
12.572007161
 20
9.0179588486
 30
0.0
 10
12.5719627615
 20
9.0427406761
 30
0.0
 10
12.5716312477
 20
9.067214381
 30
0.0
 10
12.5710132576
 20
9.0913342664
 30
0.0
 10
12.5701099661
 20
9.1150552994
 30
0.0
 10
12.5689230829
 20
9.1383331953
 30
0.0
 10
12.5674548559
 20
9.1611245041
 30
0.0
 10
12.5657080626
 20
9.1833866922
 30
0.0
 10
12.5636860036
 20
9.2050782212
 30
0.0
 10
12.5613924979
 20
9.2261586262
 30
0.0
 10
12.5588318751
 20
9.2465885935
 30
0.0
 10
12.5560089683
 20
9.2663300405
 30
0.0
 10
12.5529291117
 20
9.2853461928
 30
0.0
 10
12.5495981221
 20
9.3036016546
 30
0.0
 10
12.5460222882
 20
9.3210624852
 30
0.0
 10
12.5422083565
 20
9.3376962463
 30
0.0
 10
12.5381635133
 20
9.3534721583
 30
0.0
 10
12.5338953649
 20
9.3683608908
 30
0.0
 10
12.5301067215
 20
9.3801699569
 30
0.0
 10
12.5269613518
 20
9.389144966
 30
0.0
 10
12.5245854115
 20
9.3955405024
 30
0.0
 10
12.5221597871
 20
9.4016943867
 30
0.0
 10
12.5196855497
 20
9.4076037723
 30
0.0
 10
12.5171638571
 20
9.413265924
 30
0.0
 10
12.5145958943
 20
9.4186782358
 30
0.0
 10
12.5119827957
 20
9.4238381966
 30
0.0
 10
12.5093258122
 20
9.4287434535
 30
0.0
 10
12.5066261003
 20
9.4333917352
 30
0.0
 10
12.5038849047
 20
9.4377809225
 30
0.0
 10
12.5011034491
 20
9.4419090101
 30
0.0
 10
12.4982829248
 20
9.4457740875
 30
0.0
 10
12.4954246115
 20
9.449374417
 30
0.0
 10
12.4925296662
 20
9.4527082962
 30
0.0
 10
12.4895993553
 20
9.4557742035
 30
0.0
 10
12.4866348576
 20
9.4585706656
 30
0.0
 10
12.4836373899
 20
9.4610962808
 30
0.0
 10
12.4806081342
 20
9.4633498207
 30
0.0
 10
12.4775485209
 20
9.4653298499
 30
0.0
 10
12.475457948
 20
9.4664841207
 30
0.0
 10
12.4744101412
 20
9.4670121071
 30
0.0
  0
SPLINE
  5
388
100
AcDbEntity
  8
0
100
AcDbSpline
 62
7
  6
CONTINUOUS
 70
0
 71
3
 72
15
 73
11
 74
0
 42
0.0000001
 43
0.0000001
 44
0.0000000001
 40
0.0
 40
0.0
 40
0.0
 40
0.0
 40
0.1420790558
 40
0.27875401
 40
0.4102313165
 40
0.5367609623
 40
0.6586404782
 40
0.7762093883
 40
0.8898521896
 40
1.0
 40
1.0
 40
1.0
 40
1.0
 10
12.4179791963
 20
8.3030294727
 30
0.0
 10
12.4169352255
 20
8.3020210743
 30
0.0
 10
12.4148478878
 20
8.3000825232
 30
0.0
 10
12.4116557398
 20
8.2973649982
 30
0.0
 10
12.4084656338
 20
8.2948965388
 30
0.0
 10
12.4052789498
 20
8.2926784298
 30
0.0
 10
12.4020969574
 20
8.2907116435
 30
0.0
 10
12.398920754
 20
8.288997158
 30
0.0
 10
12.3957518388
 20
8.2875358976
 30
0.0
 10
12.3936140675
 20
8.2867193819
 30
0.0
 10
12.3925490483
 20
8.2863561516
 30
0.0
  0
SPLINE
  5
389
100
AcDbEntity
  8
0
100
AcDbSpline
 62
7
  6
CONTINUOUS
 70
0
 71
3
 72
28
 73
24
 74
0
 42
0.0000001
 43
0.0000001
 44
0.0000000001
 40
0.0
 40
0.0
 40
0.0
 40
0.0
 40
0.075586486
 40
0.1466186449
 40
0.2134346186
 40
0.2764747341
 40
0.3362787133
 40
0.3934907744
 40
0.4213687662
 40
0.4488871414
 40
0.4761523432
 40
0.5032741136
 40
0.5303640302
 40
0.5575341327
 40
0.5848953814
 40
0.61255619
 40
0.6406212621
 40
0.6691904178
 40
0.7281874797
 40
0.7902492613
 40
0.8559439887
 40
0.9257370602
 40
1.0
 40
1.0
 40
1.0
 40
1.0
 10
12.4179791963
 20
8.4768961317
 30
0.0
 10
12.4168257918
 20
8.4757820285
 30
0.0
 10
12.4145205429
 20
8.4736894106
 30
0.0
 10
12.4109529185
 20
8.4708938307
 30
0.0
 10
12.4073895304
 20
8.4685459228
 30
0.0
 10
12.4038334747
 20
8.466649255
 30
0.0
 10
12.4002882144
 20
8.4652071934
 30
0.0
 10
12.3973191201
 20
8.4643802551
 30
0.0
 10
12.3949664413
 20
8.4639571746
 30
0.0
 10
12.3932229143
 20
8.4637571054
 30
0.0
 10
12.3914860969
 20
8.4636718282
 30
0.0
 10
12.3897564966
 20
8.4637013289
 30
0.0
 10
12.3880346956
 20
8.4638456227
 30
0.0
 10
12.3863212649
 20
8.4641046964
 30
0.0
 10
12.3846167614
 20
8.4644784185
 30
0.0
 10
12.382921733
 20
8.4649666038
 30
0.0
 10
12.3812366619
 20
8.4655691118
 30
0.0
 10
12.378980092
 20
8.4665346687
 30
0.0
 10
12.3761774898
 20
8.468041184
 30
0.0
 10
12.3729024591
 20
8.4702825767
 30
0.0
 10
12.3696813415
 20
8.4729730115
 30
0.0
 10
12.3665172065
 20
8.4761084516
 30
0.0
 10
12.364511802
 20
8.4784186403
 30
0.0
 10
12.3635176887
 20
8.4796409483
 30
0.0
  0
SPLINE
  5
38A
100
AcDbEntity
  8
0
100
AcDbSpline
 62
7
  6
CONTINUOUS
 70
0
 71
3
 72
18
 73
14
 74
0
 42
0.0000001
 43
0.0000001
 44
0.0000000001
 40
0.0
 40
0.0
 40
0.0
 40
0.0
 40
0.150467008
 40
0.2917141408
 40
0.4244426259
 40
0.4879099277
 40
0.549609295
 40
0.6682624161
 40
0.7817883561
 40
0.8371380822
 40
0.8918079419
 40
0.9460193459
 40
1.0
 40
1.0
 40
1.0
 40
1.0
 10
12.3793421609
 20
8.5182126546
 30
0.0
 10
12.3782820133
 20
8.5171886305
 30
0.0
 10
12.37616314
 20
8.5152672558
 30
0.0
 10
12.3728823004
 20
8.5127067688
 30
0.0
 10
12.3701110558
 20
8.5108958617
 30
0.0
 10
12.3679012458
 20
8.5096695636
 30
0.0
 10
12.3657564455
 20
8.5086167568
 30
0.0
 10
12.3630747628
 20
8.507552931
 30
0.0
 10
12.3603453798
 20
8.5068269454
 30
0.0
 10
12.3581836214
 20
8.5064693284
 30
0.0
 10
12.356581464
 20
8.5063105856
 30
0.0
 10
12.3549857854
 20
8.5062593211
 30
0.0
 10
12.3539256568
 20
8.5062968239
 30
0.0
 10
12.3533981369
 20
8.5063334062
 30
0.0
  0
SPLINE
  5
38B
100
AcDbEntity
  8
0
100
AcDbSpline
 62
7
  6
CONTINUOUS
 70
0
 71
3
 72
91
 73
87
 74
0
 42
0.0000001
 43
0.0000001
 44
0.0000000001
 40
0.0
 40
0.0
 40
0.0
 40
0.0
 40
0.0027164146
 40
0.005453202
 40
0.008230252
 40
0.0110665198
 40
0.0139797053
 40
0.0169859824
 40
0.0200999174
 40
0.023334401
 40
0.0267007187
 40
0.0302086385
 40
0.0338665091
 40
0.0376814414
 40
0.0416593691
 40
0.0458052582
 40
0.0501231421
 40
0.0546162891
 40
0.0592872586
 40
0.064137982
 40
0.0691698666
 40
0.0743837897
 40
0.079780237
 40
0.0853592528
 40
0.0911205635
 40
0.0970635488
 40
0.1031872988
 40
0.1094906474
 40
0.1226297881
 40
0.1364673429
 40
0.1509860432
 40
0.166165828
 40
0.1819841602
 40
0.1984162836
 40
0.2154354412
 40
0.2330130641
 40
0.2511189358
 40
0.2697213391
 40
0.2887871904
 40
0.3082821639
 40
0.3281708096
 40
0.3484166635
 40
0.368982358
 40
0.3898297276
 40
0.4109199118
 40
0.4322134566
 40
0.4536704139
 40
0.4752504412
 40
0.4969128994
 40
0.5186169519
 40
0.5403216628
 40
0.5619860952
 40
0.5835694083
 40
0.6050309559
 40
0.6263303839
 40
0.6474277291
 40
0.6682835187
 40
0.688858872
 40
0.7091156002
 40
0.7290163102
 40
0.7485245085
 40
0.7676047097
 40
0.7862225487
 40
0.8043448976
 40
0.8219399925
 40
0.8389775679
 40
0.8554290014
 40
0.8712674776
 40
0.8864681732
 40
0.9010084737
 40
0.9148682315
 40
0.9280300795
 40
0.9343449284
 40
0.9404802779
 40
0.9464349254
 40
0.952207944
 40
0.9577987094
 40
0.9632068925
 40
0.9684325652
 40
0.9734761403
 40
0.9783384919
 40
0.9830209404
 40
0.9875254382
 40
0.9918545985
 40
0.9960115586
 40
1.0
 40
1.0
 40
1.0
 40
1.0
 10
12.4900530293
 20
9.4691861267
 30
0.0
 10
12.4911635242
 20
9.4691091184
 30
0.0
 10
12.4933871568
 20
9.4688540229
 30
0.0
 10
12.4966943036
 20
9.4681713837
 30
0.0
 10
12.4999764425
 20
9.4671888082
 30
0.0
 10
12.5032312713
 20
9.4659073425
 30
0.0
 10
12.5064570572
 20
9.464328013
 30
0.0
 10
12.5096522023
 20
9.4624521629
 30
0.0
 10
12.5128151854
 20
9.4602810451
 30
0.0
 10
12.5159446323
 20
9.4578160859
 30
0.0
 10
12.5190391831
 20
9.4550587085
 30
0.0
 10
12.5220974852
 20
9.4520104072
 30
0.0
 10
12.5251182453
 20
9.4486728047
 30
0.0
 10
12.5281000642
 20
9.44504755
 30
0.0
 10
12.5310416575
 20
9.4411364956
 30
0.0
 10
12.5339416044
 20
9.4369415345
 30
0.0
 10
12.5367985923
 20
9.4324647613
 30
0.0
 10
12.5396112314
 20
9.4277083632
 30
0.0
 10
12.5423781685
 20
9.4226746872
 30
0.0
 10
12.5450980764
 20
9.4173662244
 30
0.0
 10
12.5477695789
 20
9.4117855872
 30
0.0
 10
12.5503914097
 20
9.4059355591
 30
0.0
 10
12.5529622103
 20
9.3998190294
 30
0.0
 10
12.5554807504
 20
9.3934390565
 30
0.0
 10
12.5579457353
 20
9.3867988105
 30
0.0
 10
12.560355943
 20
9.3799016135
 30
0.0
 10
12.5627101885
 20
9.3727509014
 30
0.0
 10
12.5658159413
 20
9.3627445648
 30
0.0
 10
12.5695387483
 20
9.3496221967
 30
0.0
 10
12.573705213
 20
9.3331339926
 30
0.0
 10
12.577621877
 20
9.3157266294
 30
0.0
 10
12.5812807931
 20
9.2974350023
 30
0.0
 10
12.5846745142
 20
9.2782956408
 30
0.0
 10
12.5877961351
 20
9.2583468872
 30
0.0
 10
12.5906393025
 20
9.2376287325
 30
0.0
 10
12.5931982295
 20
9.2161827478
 30
0.0
 10
12.5954677073
 20
9.1940519882
 30
0.0
 10
12.5974431156
 20
9.1712809026
 30
0.0
 10
12.5991204319
 20
9.1479152413
 30
0.0
 10
12.6004962385
 20
9.124001961
 30
0.0
 10
12.6015677292
 20
9.0995891294
 30
0.0
 10
12.6023327169
 20
9.0747258266
 30
0.0
 10
12.6027896354
 20
9.0494620448
 30
0.0
 10
12.6029375421
 20
9.0238485859
 30
0.0
 10
12.6027761196
 20
8.9979369578
 30
0.0
 10
12.6023056757
 20
8.9717792708
 30
0.0
 10
12.6015271431
 20
8.945428132
 30
0.0
 10
12.6004420766
 20
8.9189365398
 30
0.0
 10
12.5990526508
 20
8.8923577763
 30
0.0
 10
12.5973616569
 20
8.8657452999
 30
0.0
 10
12.5953724954
 20
8.8391526366
 30
0.0
 10
12.5930891687
 20
8.8126332722
 30
0.0
 10
12.5905162734
 20
8.7862405442
 30
0.0
 10
12.5876589912
 20
8.7600275347
 30
0.0
 10
12.5845230781
 20
8.7340469632
 30
0.0
 10
12.5811148531
 20
8.7083510799
 30
0.0
 10
12.5774411863
 20
8.6829915602
 30
0.0
 10
12.5735094864
 20
8.6580193983
 30
0.0
 10
12.5693276839
 20
8.6334848053
 30
0.0
 10
12.5649042155
 20
8.6094371071
 30
0.0
 10
12.5602480074
 20
8.5859246445
 30
0.0
 10
12.555368458
 20
8.5629946748
 30
0.0
 10
12.5502754187
 20
8.5406932753
 30
0.0
 10
12.544979174
 20
8.5190652477
 30
0.0
 10
12.5394904227
 20
8.4981540241
 30
0.0
 10
12.5338202559
 20
8.4780015754
 30
0.0
 10
12.5279801325
 20
8.4586483243
 30
0.0
 10
12.5219818556
 20
8.4401330537
 30
0.0
 10
12.5158375469
 20
8.4224928419
 30
0.0
 10
12.5095596157
 20
8.4057629024
 30
0.0
 10
12.5031607379
 20
8.3899767657
 30
0.0
 10
12.4976651325
 20
8.3774673697
 30
0.0
 10
12.4932100066
 20
8.367963793
 30
0.0
 10
12.4898926197
 20
8.3611899647
 30
0.0
 10
12.4865546853
 20
8.3546747369
 30
0.0
 10
12.4831978477
 20
8.3484213621
 30
0.0
 10
12.4798238181
 20
8.342432954
 30
0.0
 10
12.4764342393
 20
8.3367125114
 30
0.0
 10
12.4730308472
 20
8.3312628583
 30
0.0
 10
12.4696152787
 20
8.32608673
 30
0.0
 10
12.4661892846
 20
8.3211866812
 30
0.0
 10
12.4627545202
 20
8.3165651451
 30
0.0
 10
12.4593126464
 20
8.3122243772
 30
0.0
 10
12.4558652796
 20
8.3081664758
 30
0.0
 10
12.4524142335
 20
8.3043936422
 30
0.0
 10
12.4500643941
 20
8.302021395
 30
0.0
 10
12.4488888253
 20
8.3008858827
 30
0.0
  0
SPLINE
  5
38C
100
AcDbEntity
  8
0
100
AcDbSpline
 62
7
  6
CONTINUOUS
 70
0
 71
3
 72
18
 73
14
 74
0
 42
0.0000001
 43
0.0000001
 44
0.0000000001
 40
0.0
 40
0.0
 40
0.0
 40
0.0
 40
0.150467608
 40
0.291710008
 40
0.4244359371
 40
0.549562455
 40
0.6682139939
 40
0.7255497488
 40
0.7817912909
 40
0.8371402503
 40
0.8918093826
 40
0.9460201179
 40
1.0
 40
1.0
 40
1.0
 40
1.0
 10
12.4488888253
 20
8.3008858827
 30
0.0
 10
12.4472067064
 20
8.2992610805
 30
0.0
 10
12.4438448569
 20
8.2962125333
 30
0.0
 10
12.4386390603
 20
8.2921498238
 30
0.0
 10
12.4334393781
 20
8.2887519785
 30
0.0
 10
12.4282511939
 20
8.2860245745
 30
0.0
 10
12.4238905821
 20
8.2842950924
 30
0.0
 10
12.420428449
 20
8.2832675377
 30
0.0
 10
12.4178687275
 20
8.2826752698
 30
0.0
 10
12.4153174981
 20
8.2822531452
 30
0.0
 10
12.4127754756
 20
8.2820013135
 30
0.0
 10
12.4102436712
 20
8.2819199055
 30
0.0
 10
12.4085616131
 20
8.281979398
 30
0.0
 10
12.4077246212
 20
8.28203744
 30
0.0
  0
SPLINE
  5
38D
100
AcDbEntity
  8
0
100
AcDbSpline
 62
7
  6
CONTINUOUS
 70
0
 71
3
 72
94
 73
90
 74
0
 42
0.0000001
 43
0.0000001
 44
0.0000000001
 40
0.0
 40
0.0
 40
0.0
 40
0.0
 40
0.0042067424
 40
0.0086075207
 40
0.0132068055
 40
0.0180083081
 40
0.0230150438
 40
0.0282291866
 40
0.0336520718
 40
0.0392844708
 40
0.0451265555
 40
0.0511780678
 40
0.0574382557
 40
0.0639059723
 40
0.0705797218
 40
0.0774576307
 40
0.0918166637
 40
0.106963036
 40
0.1228722614
 40
0.1395164096
 40
0.1568645009
 40
0.1748828316
 40
0.1935352497
 40
0.2127833934
 40
0.2325869017
 40
0.2529036149
 40
0.2736897561
 40
0.294900102
 40
0.3164881462
 40
0.3384062565
 40
0.3606058283
 40
0.3830374351
 40
0.4056509809
 40
0.428395848
 40
0.4512210441
 40
0.4740753475
 40
0.4969074533
 40
0.5196661186
 40
0.5423003107
 40
0.5647593531
 40
0.5869930724
 40
0.6089519455
 40
0.6305872482
 40
0.6518512057
 40
0.6726971477
 40
0.693079669
 40
0.7129547903
 40
0.7322801267
 40
0.7510150672
 40
0.7691209668
 40
0.7865613576
 40
0.8033021866
 40
0.8193120912
 40
0.8345627126
 40
0.8490290789
 40
0.8626900818
 40
0.8692134624
 40
0.8755296878
 40
0.8816374943
 40
0.8875360586
 40
0.8932249277
 40
0.898704201
 40
0.9039744583
 40
0.9090369231
 40
0.9138934947
 40
0.9185468289
 40
0.923000513
 40
0.9272590847
 40
0.9313283041
 40
0.9352152008
 40
0.9389283442
 40
0.9424779984
 40
0.9458763116
 40
0.949137545
 40
0.952278132
 40
0.955316811
 40
0.9582744813
 40
0.9611740125
 40
0.9640398039
 40
0.9668971994
 40
0.9697717834
 40
0.9726886544
 40
0.975671739
 40
0.9787432816
 40
0.9852254311
 40
0.9886743433
 40
0.9922790841
 40
0.9960512073
 40
1.0
 40
1.0
 40
1.0
 40
1.0
 10
12.4179791963
 20
8.4768961317
 30
0.0
 10
12.4188753935
 20
8.4777617918
 30
0.0
 10
12.4206665946
 20
8.4795774929
 30
0.0
 10
12.4232920872
 20
8.4824786567
 30
0.0
 10
12.4259142432
 20
8.4856160984
 30
0.0
 10
12.4285314209
 20
8.4889877989
 30
0.0
 10
12.4311421706
 20
8.4925918183
 30
0.0
 10
12.4337449844
 20
8.4964260753
 30
0.0
 10
12.4363383819
 20
8.5004883045
 30
0.0
 10
12.4389207689
 20
8.5047761271
 30
0.0
 10
12.4414906709
 20
8.5092869825
 30
0.0
 10
12.4440465243
 20
8.514018219
 30
0.0
 10
12.4465868348
 20
8.5189670235
 30
0.0
 10
12.4491100802
 20
8.5241304572
 30
0.0
 10
12.4516147548
 20
8.5295054589
 30
0.0
 10
12.4549758947
 20
8.5370586731
 30
0.0
 10
12.4591116455
 20
8.5470120508
 30
0.0
 10
12.4639085749
 20
8.5595809285
 30
0.0
 10
12.4685965943
 20
8.5729104103
 30
0.0
 10
12.4731644288
 20
8.5869687002
 30
0.0
 10
12.4776010833
 20
8.6017223777
 30
0.0
 10
12.481895877
 20
8.6171362658
 30
0.0
 10
12.4860384713
 20
8.633173589
 30
0.0
 10
12.4900188957
 20
8.6497960487
 30
0.0
 10
12.4938275758
 20
8.6669639252
 30
0.0
 10
12.4974553526
 20
8.6846361768
 30
0.0
 10
12.5008935048
 20
8.7027705436
 30
0.0
 10
12.5041337696
 20
8.7213236507
 30
0.0
 10
12.5071683617
 20
8.7402511139
 30
0.0
 10
12.5099899921
 20
8.7595076465
 30
0.0
 10
12.5125918849
 20
8.7790471684
 30
0.0
 10
12.5149677967
 20
8.7988229174
 30
0.0
 10
12.5171120279
 20
8.8187875626
 30
0.0
 10
12.5190194365
 20
8.8388933198
 30
0.0
 10
12.5206854503
 20
8.8590920658
 30
0.0
 10
12.5221060775
 20
8.8793354533
 30
0.0
 10
12.5232779165
 20
8.8995750277
 30
0.0
 10
12.5241981642
 20
8.9197623429
 30
0.0
 10
12.5248646256
 20
8.9398490785
 30
0.0
 10
12.5252757163
 20
8.9597871566
 30
0.0
 10
12.5254304662
 20
8.9795288571
 30
0.0
 10
12.5253285222
 20
8.9990269323
 30
0.0
 10
12.5249701496
 20
9.0182347202
 30
0.0
 10
12.5243562311
 20
9.0371062567
 30
0.0
 10
12.5234882661
 20
9.0555963885
 30
0.0
 10
12.5223683701
 20
9.0736608832
 30
0.0
 10
12.5209992674
 20
9.0912565368
 30
0.0
 10
12.5193842846
 20
9.1083412784
 30
0.0
 10
12.5175273437
 20
9.1248742735
 30
0.0
 10
12.5154329531
 20
9.1408160257
 30
0.0
 10
12.5131061967
 20
9.1561284752
 30
0.0
 10
12.5105527225
 20
9.1707751049
 30
0.0
 10
12.507778729
 20
9.1847210177
 30
0.0
 10
12.5047909514
 20
9.1979331086
 30
0.0
 10
12.50159661
 20
9.210379894
 30
0.0
 10
12.4987265873
 20
9.2202360878
 30
0.0
 10
12.4963247355
 20
9.227709309
 30
0.0
 10
12.4945042809
 20
9.2330183435
 30
0.0
 10
12.4926380923
 20
9.2381148546
 30
0.0
 10
12.4907273052
 20
9.242995836
 30
0.0
 10
12.4887730061
 20
9.2476583812
 30
0.0
 10
12.4867764034
 20
9.2520997479
 30
0.0
 10
12.4847386346
 20
9.2563173063
 30
0.0
 10
12.4826609099
 20
9.2603085799
 30
0.0
 10
12.4805444445
 20
9.2640712331
 30
0.0
 10
12.4783904181
 20
9.2676030483
 30
0.0
 10
12.476200106
 20
9.2709019919
 30
0.0
 10
12.4739746613
 20
9.2739661045
 30
0.0
 10
12.471715359
 20
9.2767936303
 30
0.0
 10
12.4694233541
 20
9.279382874
 30
0.0
 10
12.4670998539
 20
9.2817322903
 30
0.0
 10
12.4647460412
 20
9.283840431
 30
0.0
 10
12.4623630516
 20
9.2857058676
 30
0.0
 10
12.4599521282
 20
9.2873273307
 30
0.0
 10
12.4575144576
 20
9.2887034412
 30
0.0
 10
12.4550514463
 20
9.2898330244
 30
0.0
 10
12.4525645781
 20
9.2907148345
 30
0.0
 10
12.4500556
 20
9.2913478557
 30
0.0
 10
12.4475264525
 20
9.2917312984
 30
0.0
 10
12.4449792461
 20
9.2918646279
 30
0.0
 10
12.4424161485
 20
9.2917478561
 30
0.0
 10
12.43983933
 20
9.291381198
 30
0.0
 10
12.4372506005
 20
9.2907653092
 30
0.0
 10
12.4337233349
 20
9.2895923222
 30
0.0
 10
12.4302330096
 20
9.2879225895
 30
0.0
 10
12.4268120008
 20
9.2858288716
 30
0.0
 10
12.4241880925
 20
9.2839817702
 30
0.0
 10
12.4215618248
 20
9.2818921047
 30
0.0
 10
12.419850161
 20
9.2803737312
 30
0.0
 10
12.4189939713
 20
9.2795769151
 30
0.0
  0
SPLINE
  5
38E
100
AcDbEntity
  8
0
100
AcDbSpline
 62
7
  6
CONTINUOUS
 70
0
 71
3
 72
80
 73
76
 74
0
 42
0.0000001
 43
0.0000001
 44
0.0000000001
 40
0.0
 40
0.0
 40
0.0
 40
0.0
 40
0.0039883799
 40
0.0081453752
 40
0.0124746386
 40
0.0169792156
 40
0.021661669
 40
0.0265240231
 40
0.0315676328
 40
0.0367933336
 40
0.042201574
 40
0.0477923628
 40
0.0595195651
 40
0.0719693889
 40
0.0851313116
 40
0.0989911574
 40
0.1135315518
 40
0.1287323373
 40
0.1445709047
 40
0.1610224436
 40
0.1780601318
 40
0.1956553356
 40
0.2137777909
 40
0.2323957448
 40
0.2514760677
 40
0.2709843863
 40
0.2908852167
 40
0.311142073
 40
0.3317175598
 40
0.3736702008
 40
0.4164307353
 40
0.4596780682
 40
0.5030864323
 40
0.5463285118
 40
0.5890785868
 40
0.6310156693
 40
0.6515815081
 40
0.6718274996
 40
0.6917162816
 40
0.711211397
 40
0.7302773921
 40
0.7488799298
 40
0.7669859313
 40
0.7845636874
 40
0.801582979
 40
0.818015225
 40
0.8338336755
 40
0.8490135854
 40
0.8635324141
 40
0.8773700842
 40
0.8905093296
 40
0.9029360806
 40
0.9146399417
 40
0.9202190025
 40
0.9256155028
 40
0.9308294768
 40
0.9358613995
 40
0.940712184
 40
0.9453831863
 40
0.9498763813
 40
0.9541943136
 40
0.9583402313
 40
0.9623182136
 40
0.9661331738
 40
0.9697910847
 40
0.9732990446
 40
0.9766653897
 40
0.9798999101
 40
0.9830138747
 40
0.9860201789
 40
0.9889333931
 40
0.9917696852
 40
0.9945467564
 40
0.9972835667
 40
1.0
 40
1.0
 40
1.0
 40
1.0
 10
12.3793421609
 20
8.5182126546
 30
0.0
 10
12.3800830488
 20
8.5189282974
 30
0.0
 10
12.3815640209
 20
8.5204233992
 30
0.0
 10
12.3837390447
 20
8.5228012351
 30
0.0
 10
12.3859117906
 20
8.5253587475
 30
0.0
 10
12.3880810455
 20
8.5280945497
 30
0.0
 10
12.3902458181
 20
8.5310072737
 30
0.0
 10
12.3924050424
 20
8.5340955307
 30
0.0
 10
12.3945576963
 20
8.5373577931
 30
0.0
 10
12.3967027097
 20
8.5407924362
 30
0.0
 10
12.3988389941
 20
8.5443977677
 30
0.0
 10
12.4017203383
 20
8.5495118076
 30
0.0
 10
12.4052852276
 20
8.5563258597
 30
0.0
 10
12.4094461044
 20
8.5650274951
 30
0.0
 10
12.413547124
 20
8.5743622739
 30
0.0
 10
12.4175800276
 20
8.5843115624
 30
0.0
 10
12.421536702
 20
8.5948556158
 30
0.0
 10
12.4254091645
 20
8.6059733857
 30
0.0
 10
12.4291895927
 20
8.6176426564
 30
0.0
 10
12.4328703393
 20
8.6298400718
 30
0.0
 10
12.436443969
 20
8.6425411845
 30
0.0
 10
12.4399032646
 20
8.6557205127
 30
0.0
 10
12.443241236
 20
8.6693516049
 30
0.0
 10
12.4464511342
 20
8.6834070925
 30
0.0
 10
12.4495264773
 20
8.697858739
 30
0.0
 10
12.4524610634
 20
8.7126775024
 30
0.0
 10
12.4552489626
 20
8.7278335936
 30
0.0
 10
12.4578845684
 20
8.7432965709
 30
0.0
 10
12.461209882
 20
8.7644177231
 30
0.0
 10
12.4649407874
 20
8.79135633
 30
0.0
 10
12.4687069017
 20
8.8241922025
 30
0.0
 10
12.4717598741
 20
8.8574796315
 30
0.0
 10
12.4740750882
 20
8.8909510901
 30
0.0
 10
12.4756339645
 20
8.9243377979
 30
0.0
 10
12.4764240336
 20
8.9573714209
 30
0.0
 10
12.4764369092
 20
8.9845579485
 30
0.0
 10
12.4760505192
 20
9.0059264585
 30
0.0
 10
12.4755683727
 20
9.0215966176
 30
0.0
 10
12.4748930707
 20
9.0369828476
 30
0.0
 10
12.4740259731
 20
9.0520542436
 30
0.0
 10
12.4729688518
 20
9.0667805025
 30
0.0
 10
12.4717238513
 20
9.0811320283
 30
0.0
 10
12.4702935126
 20
9.0950799873
 30
0.0
 10
12.4686807512
 20
9.1085963688
 30
0.0
 10
12.4668888493
 20
9.1216540357
 30
0.0
 10
12.4649214459
 20
9.1342267852
 30
0.0
 10
12.4627825503
 20
9.1462894132
 30
0.0
 10
12.4604765199
 20
9.1578177665
 30
0.0
 10
12.4580080455
 20
9.1687887953
 30
0.0
 10
12.4553821334
 20
9.1791805879
 30
0.0
 10
12.4526041122
 20
9.1889725128
 30
0.0
 10
12.4496795965
 20
9.1981450174
 30
0.0
 10
12.4470855912
 20
9.2053686137
 30
0.0
 10
12.4449347655
 20
9.21081726
 30
0.0
 10
12.4433145054
 20
9.2146722308
 30
0.0
 10
12.4416621037
 20
9.2183592347
 30
0.0
 10
12.4399783721
 20
9.2218764496
 30
0.0
 10
12.4382641681
 20
9.225222139
 30
0.0
 10
12.4365202875
 20
9.228394629
 30
0.0
 10
12.4347476242
 20
9.2313923728
 30
0.0
 10
12.4329470151
 20
9.2342138871
 30
0.0
 10
12.4311193001
 20
9.2368577707
 30
0.0
 10
12.4292653825
 20
9.2393227497
 30
0.0
 10
12.4273860703
 20
9.2416075759
 30
0.0
 10
12.4254822391
 20
9.2437111244
 30
0.0
 10
12.4235547478
 20
9.2456323448
 30
0.0
 10
12.4216043924
 20
9.2473701903
 30
0.0
 10
12.4196320644
 20
9.2489237611
 30
0.0
 10
12.4176385881
 20
9.2502921256
 30
0.0
 10
12.4156248423
 20
9.2514743955
 30
0.0
 10
12.4135917904
 20
9.2524697936
 30
0.0
 10
12.4115404309
 20
9.2532774587
 30
0.0
 10
12.4094718551
 20
9.2538967301
 30
0.0
 10
12.4073875273
 20
9.2543270101
 30
0.0
 10
12.4059860762
 20
9.2544877796
 30
0.0
 10
12.4052861849
 20
9.2545363156
 30
0.0
  0
SPLINE
  5
38F
100
AcDbEntity
  8
0
100
AcDbSpline
 62
7
  6
CONTINUOUS
 70
0
 71
3
 72
61
 73
57
 74
0
 42
0.0000001
 43
0.0000001
 44
0.0000000001
 40
0.0
 40
0.0
 40
0.0
 40
0.0
 40
0.0085500831
 40
0.0176518282
 40
0.0273119388
 40
0.0375330487
 40
0.0483143346
 40
0.0596520489
 40
0.0715399689
 40
0.0839696868
 40
0.0969308502
 40
0.110411427
 40
0.1243978625
 40
0.1388751847
 40
0.1538271778
 40
0.1692364905
 40
0.185084685
 40
0.2013523522
 40
0.2180192038
 40
0.2350641067
 40
0.252465154
 40
0.2701997535
 40
0.2882446631
 40
0.3065760341
 40
0.3439996166
 40
0.3822705894
 40
0.4211822648
 40
0.4605233554
 40
0.5000795412
 40
0.5396349815
 40
0.5789738425
 40
0.6178818121
 40
0.6561476434
 40
0.6935646733
 40
0.711892258
 40
0.729933038
 40
0.7476631939
 40
0.7650594851
 40
0.7820993091
 40
0.7987607922
 40
0.8150228167
 40
0.8308650777
 40
0.846268195
 40
0.8612137644
 40
0.8756844182
 40
0.889663959
 40
0.9031374659
 40
0.9160913786
 40
0.9285136711
 40
0.9403940542
 40
0.9517241379
 40
0.9624977005
 40
0.972711059
 40
0.9823634567
 40
0.9914575366
 40
1.0
 40
1.0
 40
1.0
 40
1.0
 10
11.1987740935
 20
10.4607676704
 30
0.0
 10
11.1965349526
 20
10.4623702318
 30
0.0
 10
11.1918152467
 20
10.4655446522
 30
0.0
 10
11.1842798562
 20
10.4700871942
 30
0.0
 10
11.1760799268
 20
10.4745519191
 30
0.0
 10
11.1672273695
 20
10.4789322942
 30
0.0
 10
11.1577347002
 20
10.4832221328
 30
0.0
 10
11.1476155588
 20
10.4874152351
 30
0.0
 10
11.1368845004
 20
10.4915054986
 30
0.0
 10
11.1255570338
 20
10.4954869437
 30
0.0
 10
11.1136495826
 20
10.4993537598
 30
0.0
 10
11.1011794368
 20
10.50310027
 30
0.0
 10
11.0881647302
 20
10.5067209599
 30
0.0
 10
11.074624423
 20
10.5102105272
 30
0.0
 10
11.0605782533
 20
10.5135638447
 30
0.0
 10
11.0460467061
 20
10.5167759685
 30
0.0
 10
11.031050994
 20
10.5198421878
 30
0.0
 10
11.0156130164
 20
10.5227580029
 30
0.0
 10
10.9997553195
 20
10.5255191168
 30
0.0
 10
10.9835010737
 20
10.5281214731
 30
0.0
 10
10.9668740347
 20
10.5305612616
 30
0.0
 10
10.9498985094
 20
10.5328348856
 30
0.0
 10
10.9325992902
 20
10.5349390188
 30
0.0
 10
10.9089736448
 20
10.5375321468
 30
0.0
 10
10.8788186345
 20
10.5403195655
 30
0.0
 10
10.8419992796
 20
10.5429237486
 30
0.0
 10
10.8045170742
 20
10.5447941907
 30
0.0
 10
10.7665911452
 20
10.5459198741
 30
0.0
 10
10.7284430592
 20
10.5462941018
 30
0.0
 10
10.6902957426
 20
10.5459146711
 30
0.0
 10
10.652372119
 20
10.5447838328
 30
0.0
 10
10.6148937405
 20
10.5429082702
 30
0.0
 10
10.5780797107
 20
10.5402990833
 30
0.0
 10
10.5479300886
 20
10.5375075256
 30
0.0
 10
10.5243094869
 20
10.5349111519
 30
0.0
 10
10.5070145658
 20
10.5328046473
 30
0.0
 10
10.4900436812
 20
10.5305287113
 30
0.0
 10
10.4734216215
 20
10.5280866612
 30
0.0
 10
10.4571726906
 20
10.525482078
 30
0.0
 10
10.4413206301
 20
10.5227188001
 30
0.0
 10
10.4258886014
 20
10.5198008897
 30
0.0
 10
10.41089915
 20
10.5167326193
 30
0.0
 10
10.3963741609
 20
10.513518508
 30
0.0
 10
10.3823348313
 20
10.5101632869
 30
0.0
 10
10.368801646
 20
10.5066718736
 30
0.0
 10
10.3557943321
 20
10.5030493997
 30
0.0
 10
10.343331827
 20
10.4993012001
 30
0.0
 10
10.3314322622
 20
10.4954327684
 30
0.0
 10
10.3201129232
 20
10.4914497683
 30
0.0
 10
10.3093902049
 20
10.4873580481
 30
0.0
 10
10.2992796062
 20
10.4831635806
 30
0.0
 10
10.2897956885
 20
10.4788724373
 30
0.0
 10
10.2809520572
 20
10.474490854
 30
0.0
 10
10.272761205
 20
10.4700250235
 30
0.0
 10
10.2652350834
 20
10.465481441
 30
0.0
 10
10.260521763
 20
10.4623063344
 30
0.0
 10
10.2582858707
 20
10.4607034517
 30
0.0
  0
SPLINE
  5
390
100
AcDbEntity
  8
0
100
AcDbSpline
 62
7
  6
CONTINUOUS
 70
0
 71
3
 72
46
 73
42
 74
0
 42
0.0000001
 43
0.0000001
 44
0.0000000001
 40
0.0
 40
0.0
 40
0.0
 40
0.0
 40
0.0112073763
 40
0.0228002203
 40
0.0347721982
 40
0.0471162545
 40
0.0598246425
 40
0.0728890297
 40
0.1000488613
 40
0.1285188471
 40
0.158213824
 40
0.1890420372
 40
0.2209059277
 40
0.2537028361
 40
0.2873256502
 40
0.321663413
 40
0.3566019035
 40
0.3920242006
 40
0.4278112336
 40
0.4638423255
 40
0.4999957306
 40
0.5361491696
 40
0.5721803632
 40
0.6079675654
 40
0.6433900987
 40
0.6783288914
 40
0.712667021
 40
0.7462902652
 40
0.7790876647
 40
0.8109521051
 40
0.8417809244
 40
0.8714765603
 40
0.8999472544
 40
0.9136966633
 40
0.9271084882
 40
0.9401732573
 40
0.9528820575
 40
0.9652265139
 40
0.9771989212
 40
0.9887921818
 40
1.0
 40
1.0
 40
1.0
 40
1.0
 10
11.0821199427
 20
10.4132017212
 30
0.0
 10
11.0796109365
 20
10.4141363788
 30
0.0
 10
11.0744861981
 20
10.4159833844
 30
0.0
 10
11.0666170993
 20
10.4186465717
 30
0.0
 10
11.0584417341
 20
10.4212473814
 30
0.0
 10
11.0499675309
 20
10.4237834161
 30
0.0
 10
11.0412021236
 20
10.4262524186
 30
0.0
 10
11.0289786208
 20
10.4294939652
 30
0.0
 10
11.013024802
 20
10.4333506963
 30
0.0
 10
10.9930906609
 20
10.4376197213
 30
0.0
 10
10.9721988129
 20
10.4415718494
 30
0.0
 10
10.9504248584
 20
10.4451926213
 30
0.0
 10
10.9278474638
 20
10.448468766
 30
0.0
 10
10.9045483137
 20
10.4513882907
 30
0.0
 10
10.8806117295
 20
10.4539405109
 30
0.0
 10
10.8561243756
 20
10.4561160918
 30
0.0
 10
10.8311749318
 20
10.4579070788
 30
0.0
 10
10.8058537685
 20
10.4593069258
 30
0.0
 10
10.7802526147
 20
10.4603105176
 30
0.0
 10
10.7544642221
 20
10.4609141877
 30
0.0
 10
10.7285820258
 20
10.461115731
 30
0.0
 10
10.7026998034
 20
10.4609144115
 30
0.0
 10
10.6769113327
 20
10.4603109645
 30
0.0
 10
10.651310049
 20
10.4593075944
 30
0.0
 10
10.6259887043
 20
10.4579079669
 30
0.0
 10
10.6010390282
 20
10.4561171963
 30
0.0
 10
10.5765513917
 20
10.4539418279
 30
0.0
 10
10.5526144767
 20
10.4513898153
 30
0.0
 10
10.5293149447
 20
10.4484704933
 30
0.0
 10
10.5067371325
 20
10.4451945429
 30
0.0
 10
10.4849626775
 20
10.4415739652
 30
0.0
 10
10.4640704201
 20
10.4376219991
 30
0.0
 10
10.4472686322
 20
10.4340241559
 30
0.0
 10
10.4343304642
 20
10.4309828249
 30
0.0
 10
10.4250063989
 20
10.4286547105
 30
0.0
 10
10.4159574196
 20
10.4262551146
 30
0.0
 10
10.4071916974
 20
10.4237862151
 30
0.0
 10
10.3987171649
 20
10.4212502373
 30
0.0
 10
10.3905414611
 20
10.4186495125
 30
0.0
 10
10.3826720188
 20
10.4159863799
 30
0.0
 10
10.3775470424
 20
10.4141394301
 30
0.0
 10
10.3750379159
 20
10.413204793
 30
0.0
  0
SPLINE
  5
391
100
AcDbEntity
  8
0
100
AcDbSpline
 62
7
  6
CONTINUOUS
 70
0
 71
3
 72
23
 73
19
 74
0
 42
0.0000001
 43
0.0000001
 44
0.0000000001
 40
0.0
 40
0.0
 40
0.0
 40
0.0
 40
0.0637776288
 40
0.1273446152
 40
0.1907020433
 40
0.2538561391
 40
0.3168131818
 40
0.3795820998
 40
0.442173387
 40
0.5045993408
 40
0.5668738683
 40
0.6290123813
 40
0.69103165
 40
0.7529496426
 40
0.8147853504
 40
0.8765585998
 40
0.9382898528
 40
1.0
 40
1.0
 40
1.0
 40
1.0
 10
10.4132308416
 20
7.732706708
 30
0.0
 10
10.4132308416
 20
7.7394954293
 30
0.0
 10
10.4135557549
 20
7.7530527518
 30
0.0
 10
10.4150223756
 20
7.7733063092
 30
0.0
 10
10.4174642213
 20
7.7933992562
 30
0.0
 10
10.4208755852
 20
7.8132845692
 30
0.0
 10
10.4252487413
 20
7.8329166661
 30
0.0
 10
10.4305736068
 20
7.8522502081
 30
0.0
 10
10.4368379742
 20
7.8712406424
 30
0.0
 10
10.4440274378
 20
7.8898441701
 30
0.0
 10
10.452125464
 20
7.9080178857
 30
0.0
 10
10.4611134108
 20
7.9257198721
 30
0.0
 10
10.4709705777
 20
7.9429092926
 30
0.0
 10
10.4816742671
 20
7.9595465013
 30
0.0
 10
10.493199778
 20
7.9755930805
 30
0.0
 10
10.5055206775
 20
7.9910121342
 30
0.0
 10
10.5186080629
 20
8.0057676151
 30
0.0
 10
10.5278256183
 20
8.0151412321
 30
0.0
 10
10.5325501542
 20
8.0197047765
 30
0.0
  0
SPLINE
  5
392
100
AcDbEntity
  8
0
100
AcDbSpline
 62
7
  6
CONTINUOUS
 70
0
 71
3
 72
21
 73
17
 74
0
 42
0.0000001
 43
0.0000001
 44
0.0000000001
 40
0.0
 40
0.0
 40
0.0
 40
0.0
 40
0.1273176366
 40
0.2537999756
 40
0.3167619475
 40
0.3795355041
 40
0.4421314991
 40
0.5045621439
 40
0.5668413432
 40
0.6289845283
 40
0.6910084528
 40
0.7529310935
 40
0.8147714495
 40
0.8765493365
 40
0.9382852194
 40
1.0
 40
1.0
 40
1.0
 40
1.0
 10
11.1550619201
 20
10.0052782412
 30
0.0
 10
11.1550619201
 20
10.0105754911
 30
0.0
 10
11.1555675776
 20
10.0211420554
 30
0.0
 10
11.1574772816
 20
10.0342046118
 30
0.0
 10
11.1597598026
 20
10.0444510455
 30
0.0
 10
11.1618413391
 20
10.0520088186
 30
0.0
 10
11.1642901267
 20
10.0594323025
 30
0.0
 10
11.1671005545
 20
10.0667045824
 30
0.0
 10
11.1702661219
 20
10.0738088443
 30
0.0
 10
11.1737795733
 20
10.0807287047
 30
0.0
 10
11.1776328266
 20
10.0874481889
 30
0.0
 10
11.1818169731
 20
10.0939518209
 30
0.0
 10
11.1863223755
 20
10.1002245736
 30
0.0
 10
11.1911387227
 20
10.1062520055
 30
0.0
 10
11.1962546813
 20
10.1120200521
 30
0.0
 10
11.1998578846
 20
10.1156842921
 30
0.0
 10
11.2017047434
 20
10.117468221
 30
0.0
  0
SPLINE
  5
393
100
AcDbEntity
  8
0
100
AcDbSpline
 62
4
  6
CONTINUOUS
 70
0
 71
3
 72
615
 73
611
 74
0
 42
0.0000001
 43
0.0000001
 44
0.0000000001
 40
0.0
 40
0.0
 40
0.0
 40
0.0
 40
0.0078125
 40
0.015625
 40
0.0234375
 40
0.03125
 40
0.03515625
 40
0.0390625
 40
0.04296875
 40
0.046875
 40
0.05078125
 40
0.052734375
 40
0.0546875
 40
0.056640625
 40
0.0576171875
 40
0.05859375
 40
0.0595703125
 40
0.060546875
 40
0.0610351562
 40
0.0615234375
 40
0.0617675781
 40
0.0620117188
 40
0.0622558594
 40
0.0623779297
 40
0.0624389648
 40
0.0625
 40
0.0625610352
 40
0.0626220703
 40
0.0627441406
 40
0.0629882812
 40
0.0632324219
 40
0.0634765625
 40
0.0639648438
 40
0.064453125
 40
0.0654296875
 40
0.06640625
 40
0.0673828125
 40
0.068359375
 40
0.0703125
 40
0.072265625
 40
0.07421875
 40
0.078125
 40
0.08203125
 40
0.0859375
 40
0.08984375
 40
0.09375
 40
0.09765625
 40
0.1015625
 40
0.10546875
 40
0.109375
 40
0.11328125
 40
0.115234375
 40
0.1171875
 40
0.119140625
 40
0.1201171875
 40
0.12109375
 40
0.1220703125
 40
0.123046875
 40
0.1235351562
 40
0.1240234375
 40
0.1242675781
 40
0.1245117188
 40
0.1247558594
 40
0.1248779297
 40
0.1249389648
 40
0.125
 40
0.1250610352
 40
0.1251220703
 40
0.1252441406
 40
0.1254882812
 40
0.1257324219
 40
0.1259765625
 40
0.1264648438
 40
0.126953125
 40
0.1279296875
 40
0.12890625
 40
0.1298828125
 40
0.130859375
 40
0.1328125
 40
0.134765625
 40
0.13671875
 40
0.140625
 40
0.14453125
 40
0.1484375
 40
0.15234375
 40
0.15625
 40
0.16015625
 40
0.1640625
 40
0.16796875
 40
0.171875
 40
0.17578125
 40
0.177734375
 40
0.1796875
 40
0.181640625
 40
0.1826171875
 40
0.18359375
 40
0.1845703125
 40
0.185546875
 40
0.1860351562
 40
0.1865234375
 40
0.1867675781
 40
0.1870117188
 40
0.1872558594
 40
0.1873779297
 40
0.1874389648
 40
0.1875
 40
0.1875610352
 40
0.1876220703
 40
0.1877441406
 40
0.1879882812
 40
0.1882324219
 40
0.1884765625
 40
0.1889648438
 40
0.189453125
 40
0.1904296875
 40
0.19140625
 40
0.1923828125
 40
0.193359375
 40
0.1953125
 40
0.197265625
 40
0.19921875
 40
0.203125
 40
0.20703125
 40
0.2109375
 40
0.21484375
 40
0.21875
 40
0.22265625
 40
0.2265625
 40
0.23046875
 40
0.234375
 40
0.23828125
 40
0.240234375
 40
0.2421875
 40
0.244140625
 40
0.2451171875
 40
0.24609375
 40
0.2470703125
 40
0.248046875
 40
0.2485351562
 40
0.2490234375
 40
0.2492675781
 40
0.2495117188
 40
0.2497558594
 40
0.2498779297
 40
0.2499389648
 40
0.25
 40
0.2500610352
 40
0.2501220703
 40
0.2502441406
 40
0.2504882812
 40
0.2507324219
 40
0.2509765625
 40
0.2514648438
 40
0.251953125
 40
0.2529296875
 40
0.25390625
 40
0.2548828125
 40
0.255859375
 40
0.2578125
 40
0.259765625
 40
0.26171875
 40
0.265625
 40
0.26953125
 40
0.2734375
 40
0.27734375
 40
0.28125
 40
0.28515625
 40
0.2890625
 40
0.29296875
 40
0.296875
 40
0.30078125
 40
0.302734375
 40
0.3046875
 40
0.306640625
 40
0.3076171875
 40
0.30859375
 40
0.3095703125
 40
0.310546875
 40
0.3110351562
 40
0.3115234375
 40
0.3117675781
 40
0.3120117188
 40
0.3122558594
 40
0.3123779297
 40
0.3124389648
 40
0.3125
 40
0.3125610352
 40
0.3126220703
 40
0.3127441406
 40
0.3129882812
 40
0.3132324219
 40
0.3134765625
 40
0.3139648438
 40
0.314453125
 40
0.3154296875
 40
0.31640625
 40
0.3173828125
 40
0.318359375
 40
0.3203125
 40
0.322265625
 40
0.32421875
 40
0.328125
 40
0.33203125
 40
0.3359375
 40
0.33984375
 40
0.34375
 40
0.34765625
 40
0.3515625
 40
0.35546875
 40
0.359375
 40
0.36328125
 40
0.365234375
 40
0.3671875
 40
0.369140625
 40
0.3701171875
 40
0.37109375
 40
0.3720703125
 40
0.373046875
 40
0.3735351562
 40
0.3740234375
 40
0.3742675781
 40
0.3745117188
 40
0.3747558594
 40
0.3748779297
 40
0.3749389648
 40
0.375
 40
0.3750610352
 40
0.3751220703
 40
0.3752441406
 40
0.3754882812
 40
0.3757324219
 40
0.3759765625
 40
0.3764648438
 40
0.376953125
 40
0.3779296875
 40
0.37890625
 40
0.3798828125
 40
0.380859375
 40
0.3828125
 40
0.384765625
 40
0.38671875
 40
0.390625
 40
0.39453125
 40
0.3984375
 40
0.40234375
 40
0.40625
 40
0.41015625
 40
0.4140625
 40
0.41796875
 40
0.421875
 40
0.42578125
 40
0.427734375
 40
0.4296875
 40
0.431640625
 40
0.4326171875
 40
0.43359375
 40
0.4345703125
 40
0.435546875
 40
0.4360351562
 40
0.4365234375
 40
0.4367675781
 40
0.4370117188
 40
0.4372558594
 40
0.4373779297
 40
0.4374389648
 40
0.4375
 40
0.4375610352
 40
0.4376220703
 40
0.4377441406
 40
0.4379882812
 40
0.4382324219
 40
0.4384765625
 40
0.4389648438
 40
0.439453125
 40
0.4404296875
 40
0.44140625
 40
0.4423828125
 40
0.443359375
 40
0.4453125
 40
0.447265625
 40
0.44921875
 40
0.453125
 40
0.45703125
 40
0.4609375
 40
0.46484375
 40
0.46875
 40
0.47265625
 40
0.4765625
 40
0.48046875
 40
0.484375
 40
0.48828125
 40
0.490234375
 40
0.4921875
 40
0.494140625
 40
0.4951171875
 40
0.49609375
 40
0.4970703125
 40
0.498046875
 40
0.4985351562
 40
0.4990234375
 40
0.4992675781
 40
0.4995117188
 40
0.4997558594
 40
0.4998779297
 40
0.4999389648
 40
0.5
 40
0.5000610352
 40
0.5001220703
 40
0.5002441406
 40
0.5004882812
 40
0.5007324219
 40
0.5009765625
 40
0.5014648438
 40
0.501953125
 40
0.5029296875
 40
0.50390625
 40
0.5048828125
 40
0.505859375
 40
0.5078125
 40
0.509765625
 40
0.51171875
 40
0.515625
 40
0.51953125
 40
0.5234375
 40
0.52734375
 40
0.53125
 40
0.53515625
 40
0.5390625
 40
0.54296875
 40
0.546875
 40
0.55078125
 40
0.552734375
 40
0.5546875
 40
0.556640625
 40
0.5576171875
 40
0.55859375
 40
0.5595703125
 40
0.560546875
 40
0.5610351562
 40
0.5615234375
 40
0.5617675781
 40
0.5620117188
 40
0.5622558594
 40
0.5623779297
 40
0.5624389648
 40
0.5625
 40
0.5625610352
 40
0.5626220703
 40
0.5627441406
 40
0.5629882812
 40
0.5632324219
 40
0.5634765625
 40
0.5639648438
 40
0.564453125
 40
0.5654296875
 40
0.56640625
 40
0.5673828125
 40
0.568359375
 40
0.5703125
 40
0.572265625
 40
0.57421875
 40
0.578125
 40
0.58203125
 40
0.5859375
 40
0.58984375
 40
0.59375
 40
0.59765625
 40
0.6015625
 40
0.60546875
 40
0.609375
 40
0.61328125
 40
0.615234375
 40
0.6171875
 40
0.619140625
 40
0.6201171875
 40
0.62109375
 40
0.6220703125
 40
0.623046875
 40
0.6235351562
 40
0.6240234375
 40
0.6242675781
 40
0.6245117188
 40
0.6247558594
 40
0.6248779297
 40
0.6249389648
 40
0.625
 40
0.6250610352
 40
0.6251220703
 40
0.6252441406
 40
0.6254882812
 40
0.6257324219
 40
0.6259765625
 40
0.6264648438
 40
0.626953125
 40
0.6279296875
 40
0.62890625
 40
0.6298828125
 40
0.630859375
 40
0.6328125
 40
0.634765625
 40
0.63671875
 40
0.640625
 40
0.64453125
 40
0.6484375
 40
0.65234375
 40
0.65625
 40
0.66015625
 40
0.6640625
 40
0.66796875
 40
0.671875
 40
0.67578125
 40
0.677734375
 40
0.6796875
 40
0.681640625
 40
0.6826171875
 40
0.68359375
 40
0.6845703125
 40
0.685546875
 40
0.6860351562
 40
0.6865234375
 40
0.6867675781
 40
0.6870117188
 40
0.6872558594
 40
0.6873779297
 40
0.6874389648
 40
0.6875
 40
0.6875610352
 40
0.6876220703
 40
0.6877441406
 40
0.6879882812
 40
0.6882324219
 40
0.6884765625
 40
0.6889648438
 40
0.689453125
 40
0.6904296875
 40
0.69140625
 40
0.6923828125
 40
0.693359375
 40
0.6953125
 40
0.697265625
 40
0.69921875
 40
0.703125
 40
0.70703125
 40
0.7109375
 40
0.71484375
 40
0.71875
 40
0.72265625
 40
0.7265625
 40
0.73046875
 40
0.734375
 40
0.73828125
 40
0.740234375
 40
0.7421875
 40
0.744140625
 40
0.7451171875
 40
0.74609375
 40
0.7470703125
 40
0.748046875
 40
0.7485351562
 40
0.7490234375
 40
0.7492675781
 40
0.7495117188
 40
0.7497558594
 40
0.7498779297
 40
0.7499389648
 40
0.75
 40
0.7500610352
 40
0.7501220703
 40
0.7502441406
 40
0.7504882812
 40
0.7507324219
 40
0.7509765625
 40
0.7514648438
 40
0.751953125
 40
0.7529296875
 40
0.75390625
 40
0.7548828125
 40
0.755859375
 40
0.7578125
 40
0.759765625
 40
0.76171875
 40
0.765625
 40
0.76953125
 40
0.7734375
 40
0.77734375
 40
0.78125
 40
0.78515625
 40
0.7890625
 40
0.79296875
 40
0.796875
 40
0.80078125
 40
0.802734375
 40
0.8046875
 40
0.806640625
 40
0.8076171875
 40
0.80859375
 40
0.8095703125
 40
0.810546875
 40
0.8110351562
 40
0.8115234375
 40
0.8117675781
 40
0.8120117188
 40
0.8122558594
 40
0.8123779297
 40
0.8124389648
 40
0.8125
 40
0.8125610352
 40
0.8126220703
 40
0.8127441406
 40
0.8129882812
 40
0.8132324219
 40
0.8134765625
 40
0.8139648438
 40
0.814453125
 40
0.8154296875
 40
0.81640625
 40
0.8173828125
 40
0.818359375
 40
0.8203125
 40
0.822265625
 40
0.82421875
 40
0.828125
 40
0.83203125
 40
0.8359375
 40
0.83984375
 40
0.84375
 40
0.84765625
 40
0.8515625
 40
0.85546875
 40
0.859375
 40
0.86328125
 40
0.865234375
 40
0.8671875
 40
0.869140625
 40
0.8701171875
 40
0.87109375
 40
0.8720703125
 40
0.873046875
 40
0.8735351562
 40
0.8740234375
 40
0.8742675781
 40
0.8745117188
 40
0.8747558594
 40
0.8748779297
 40
0.8749389648
 40
0.875
 40
0.8750610352
 40
0.8751220703
 40
0.8752441406
 40
0.8754882812
 40
0.8757324219
 40
0.8759765625
 40
0.8764648438
 40
0.876953125
 40
0.8779296875
 40
0.87890625
 40
0.8798828125
 40
0.880859375
 40
0.8828125
 40
0.884765625
 40
0.88671875
 40
0.890625
 40
0.89453125
 40
0.8984375
 40
0.90234375
 40
0.90625
 40
0.91015625
 40
0.9140625
 40
0.91796875
 40
0.921875
 40
0.92578125
 40
0.927734375
 40
0.9296875
 40
0.931640625
 40
0.9326171875
 40
0.93359375
 40
0.9345703125
 40
0.935546875
 40
0.9360351562
 40
0.9365234375
 40
0.9367675781
 40
0.9370117188
 40
0.9372558594
 40
0.9373779297
 40
0.9374389648
 40
0.9375
 40
0.9375610352
 40
0.9376220703
 40
0.9377441406
 40
0.9379882812
 40
0.9382324219
 40
0.9384765625
 40
0.9389648438
 40
0.939453125
 40
0.9404296875
 40
0.94140625
 40
0.9423828125
 40
0.943359375
 40
0.9453125
 40
0.947265625
 40
0.94921875
 40
0.953125
 40
0.95703125
 40
0.9609375
 40
0.96484375
 40
0.96875
 40
0.9765625
 40
0.984375
 40
0.9921875
 40
1.0
 40
1.0
 40
1.0
 40
1.0
 10
10.4128444807
 20
9.1754402966
 30
0.0
 10
10.4144110742
 20
9.1754852588
 30
0.0
 10
10.4175442611
 20
9.1755751832
 30
0.0
 10
10.4222440415
 20
9.1757100698
 30
0.0
 10
10.4269438218
 20
9.1758449564
 30
0.0
 10
10.4308603055
 20
9.1759573619
 30
0.0
 10
10.4339934924
 20
9.1760472864
 30
0.0
 10
10.4363433826
 20
9.1761147297
 30
0.0
 10
10.4386932728
 20
9.176182173
 30
0.0
 10
10.441043163
 20
9.1762496163
 30
0.0
 10
10.4430014048
 20
9.176305819
 30
0.0
 10
10.4445679983
 20
9.1763507812
 30
0.0
 10
10.4457429434
 20
9.1763845029
 30
0.0
 10
10.4467220643
 20
9.1764126042
 30
0.0
 10
10.447505361
 20
9.1764350854
 30
0.0
 10
10.4480928336
 20
9.176451946
 30
0.0
 10
10.4486803059
 20
9.1764688078
 30
0.0
 10
10.449169867
 20
9.1764828556
 30
0.0
 10
10.4495615142
 20
9.176494102
 30
0.0
 10
10.4498062973
 20
9.1765011123
 30
0.0
 10
10.4500021155
 20
9.1765067635
 30
0.0
 10
10.4501490021
 20
9.1765108842
 30
0.0
 10
10.4502713344
 20
9.1765146926
 30
0.0
 10
10.4503571106
 20
9.1765166236
 30
0.0
 10
10.4504059015
 20
9.1765188745
 30
0.0
 10
10.450443126
 20
9.1765173301
 30
0.0
 10
10.450477937
 20
9.1765281422
 30
0.0
 10
10.4505251935
 20
9.1765382483
 30
0.0
 10
10.4506075002
 20
9.176557942
 30
0.0
 10
10.4507252863
 20
9.1765850261
 30
0.0
 10
10.4508665418
 20
9.1766179764
 30
0.0
 10
10.4510549132
 20
9.1766617531
 30
0.0
 10
10.4512903668
 20
9.1767165277
 30
0.0
 10
10.4516670986
 20
9.1768041371
 30
0.0
 10
10.4521380113
 20
9.1769136592
 30
0.0
 10
10.4527031074
 20
9.1770450812
 30
0.0
 10
10.4532682032
 20
9.1771765045
 30
0.0
 10
10.4540216644
 20
9.177351735
 30
0.0
 10
10.4549634909
 20
9.1775707733
 30
0.0
 10
10.4560936827
 20
9.1778336193
 30
0.0
 10
10.4576006051
 20
9.1781840806
 30
0.0
 10
10.4594842581
 20
9.1786221572
 30
0.0
 10
10.4617446417
 20
9.1791478491
 30
0.0
 10
10.4640050253
 20
9.179673541
 30
0.0
 10
10.4662654089
 20
9.1801992329
 30
0.0
 10
10.4685257925
 20
9.1807249248
 30
0.0
 10
10.4707861761
 20
9.1812506167
 30
0.0
 10
10.4730465597
 20
9.1817763086
 30
0.0
 10
10.4753069433
 20
9.1823020005
 30
0.0
 10
10.4775673269
 20
9.1828276924
 30
0.0
 10
10.4794509799
 20
9.183265769
 30
0.0
 10
10.4809579024
 20
9.1836162303
 30
0.0
 10
10.4820880941
 20
9.1838790763
 30
0.0
 10
10.4830299207
 20
9.1840981145
 30
0.0
 10
10.4837833818
 20
9.1842733452
 30
0.0
 10
10.4843484778
 20
9.184404768
 30
0.0
 10
10.4849135734
 20
9.1845361918
 30
0.0
 10
10.4853844877
 20
9.1846457082
 30
0.0
 10
10.4857612161
 20
9.1847333292
 30
0.0
 10
10.4859966785
 20
9.1847880744
 30
0.0
 10
10.4861850319
 20
9.1848319116
 30
0.0
 10
10.4863263421
 20
9.184864677
 30
0.0
 10
10.4864439571
 20
9.1848923395
 30
0.0
 10
10.4865265692
 20
9.1849110006
 30
0.0
 10
10.4865733364
 20
9.1849227614
 30
0.0
 10
10.4866096505
 20
9.1849284906
 30
0.0
 10
10.4866412296
 20
9.1849460365
 30
0.0
 10
10.4866849866
 20
9.1849653092
 30
0.0
 10
10.4867607919
 20
9.1850009569
 30
0.0
 10
10.4868694875
 20
9.1850508781
 30
0.0
 10
10.48699975
 20
9.1851112133
 30
0.0
 10
10.4871734935
 20
9.1851915101
 30
0.0
 10
10.4873906523
 20
9.1852919326
 30
0.0
 10
10.4877381179
 20
9.1854525797
 30
0.0
 10
10.4881724459
 20
9.1856533986
 30
0.0
 10
10.4886936411
 20
9.185894377
 30
0.0
 10
10.489214836
 20
9.1861353565
 30
0.0
 10
10.4899097626
 20
9.1864566621
 30
0.0
 10
10.4907784208
 20
9.1868582942
 30
0.0
 10
10.4918208106
 20
9.1873402527
 30
0.0
 10
10.4932106638
 20
9.1879828641
 30
0.0
 10
10.4949479802
 20
9.1887861283
 30
0.0
 10
10.4970327599
 20
9.1897500454
 30
0.0
 10
10.4991175396
 20
9.1907139625
 30
0.0
 10
10.5012023193
 20
9.1916778796
 30
0.0
 10
10.503287099
 20
9.1926417966
 30
0.0
 10
10.5053718787
 20
9.1936057137
 30
0.0
 10
10.5074566584
 20
9.1945696308
 30
0.0
 10
10.5095414381
 20
9.1955335478
 30
0.0
 10
10.5116262178
 20
9.1964974649
 30
0.0
 10
10.5133635342
 20
9.1973007291
 30
0.0
 10
10.5147533874
 20
9.1979433405
 30
0.0
 10
10.5157957772
 20
9.198425299
 30
0.0
 10
10.5166644355
 20
9.1988269311
 30
0.0
 10
10.517359362
 20
9.1991482369
 30
0.0
 10
10.517880557
 20
9.1993892159
 30
0.0
 10
10.5184017515
 20
9.1996301961
 30
0.0
 10
10.518836082
 20
9.1998310094
 30
0.0
 10
10.5191835424
 20
9.1999916678
 30
0.0
 10
10.5194007144
 20
9.2000920617
 30
0.0
 10
10.5195744308
 20
9.2001724171
 30
0.0
 10
10.519704776
 20
9.2002325734
 30
0.0
 10
10.519813213
 20
9.2002830544
 30
0.0
 10
10.5198894799
 20
9.2003177027
 30
0.0
 10
10.5199324973
 20
9.2003385766
 30
0.0
 10
10.5199663483
 20
9.2003512041
 30
0.0
 10
10.5199941295
 20
9.200375406
 30
0.0
 10
10.5200332883
 20
9.2004036379
 30
0.0
 10
10.5201008299
 20
9.2004549247
 30
0.0
 10
10.5201978335
 20
9.2005272082
 30
0.0
 10
10.5203140172
 20
9.2006143694
 30
0.0
 10
10.5204690058
 20
9.2007304372
 30
0.0
 10
10.5206627151
 20
9.2008755724
 30
0.0
 10
10.5209726649
 20
9.2011077605
 30
0.0
 10
10.521360097
 20
9.2013980053
 30
0.0
 10
10.5218250176
 20
9.2017462949
 30
0.0
 10
10.5222899378
 20
9.2020945856
 30
0.0
 10
10.5229098314
 20
9.2025589728
 30
0.0
 10
10.5236846985
 20
9.2031394569
 30
0.0
 10
10.5246145389
 20
9.2038360379
 30
0.0
 10
10.5258543262
 20
9.2047648125
 30
0.0
 10
10.5274040603
 20
9.2059257807
 30
0.0
 10
10.5292637412
 20
9.2073189426
 30
0.0
 10
10.5311234221
 20
9.2087121044
 30
0.0
 10
10.532983103
 20
9.2101052663
 30
0.0
 10
10.5348427839
 20
9.2114984282
 30
0.0
 10
10.5367024648
 20
9.2128915901
 30
0.0
 10
10.5385621458
 20
9.214284752
 30
0.0
 10
10.5404218267
 20
9.2156779138
 30
0.0
 10
10.5422815076
 20
9.2170710757
 30
0.0
 10
10.5438312417
 20
9.218232044
 30
0.0
 10
10.5450710289
 20
9.2191608185
 30
0.0
 10
10.5460008694
 20
9.2198573995
 30
0.0
 10
10.5467757365
 20
9.2204378836
 30
0.0
 10
10.54739563
 20
9.2209022709
 30
0.0
 10
10.5478605505
 20
9.2212505612
 30
0.0
 10
10.54832547
 20
9.2215988524
 30
0.0
 10
10.5487129058
 20
9.2218890923
 30
0.0
 10
10.5490228479
 20
9.2221212902
 30
0.0
 10
10.5492165766
 20
9.2222664005
 30
0.0
 10
10.5493715256
 20
9.2223825194
 30
0.0
 10
10.5494878301
 20
9.2224695245
 30
0.0
 10
10.5495844555
 20
9.2225422963
 30
0.0
 10
10.5496526723
 20
9.2225927115
 30
0.0
 10
10.5496907493
 20
9.2226223401
 30
0.0
 10
10.5497218535
 20
9.2226422517
 30
0.0
 10
10.549743224
 20
9.2226709928
 30
0.0
 10
10.5497751132
 20
9.2227062344
 30
0.0
 10
10.5498293375
 20
9.2227693423
 30
0.0
 10
10.5499076277
 20
9.2228587462
 30
0.0
 10
10.550001222
 20
9.222966352
 30
0.0
 10
10.550126138
 20
9.2231097142
 30
0.0
 10
10.5502822407
 20
9.2232889553
 30
0.0
 10
10.5505320286
 20
9.2235757197
 30
0.0
 10
10.5508442554
 20
9.2239341825
 30
0.0
 10
10.5512189311
 20
9.2243643348
 30
0.0
 10
10.5515936058
 20
9.2247944879
 30
0.0
 10
10.5520931724
 20
9.2253680251
 30
0.0
 10
10.5527176306
 20
9.2260849467
 30
0.0
 10
10.5534669805
 20
9.2269452525
 30
0.0
 10
10.5544661136
 20
9.228092327
 30
0.0
 10
10.55571503
 20
9.22952617
 30
0.0
 10
10.5572137297
 20
9.2312467817
 30
0.0
 10
10.5587124294
 20
9.2329673934
 30
0.0
 10
10.5602111291
 20
9.2346880051
 30
0.0
 10
10.5617098288
 20
9.2364086168
 30
0.0
 10
10.5632085285
 20
9.2381292285
 30
0.0
 10
10.5647072282
 20
9.2398498402
 30
0.0
 10
10.5662059279
 20
9.2415704519
 30
0.0
 10
10.5677046276
 20
9.2432910636
 30
0.0
 10
10.568953544
 20
9.2447249067
 30
0.0
 10
10.5699526772
 20
9.2458719812
 30
0.0
 10
10.570702027
 20
9.246732287
 30
0.0
 10
10.5713264853
 20
9.2474492085
 30
0.0
 10
10.5718260517
 20
9.2480227458
 30
0.0
 10
10.5722007269
 20
9.2484528986
 30
0.0
 10
10.572575401
 20
9.2488830521
 30
0.0
 10
10.5728876326
 20
9.2492415111
 30
0.0
 10
10.5731374109
 20
9.2495282833
 30
0.0
 10
10.573293538
 20
9.2497075044
 30
0.0
 10
10.5734184038
 20
9.2498509078
 30
0.0
 10
10.5735121515
 20
9.2499583877
 30
0.0
 10
10.5735899617
 20
9.2500481855
 30
0.0
 10
10.5736450429
 20
9.2501105902
 30
0.0
 10
10.573675559
 20
9.2501469585
 30
0.0
 10
10.5737011474
 20
9.250172239
 30
0.0
 10
10.5737164101
 20
9.250205148
 30
0.0
 10
10.5737403621
 20
9.2502463658
 30
0.0
 10
10.5737805999
 20
9.2503197367
 30
0.0
 10
10.5738389599
 20
9.250423904
 30
0.0
 10
10.5739086164
 20
9.2505491823
 30
0.0
 10
10.5740016229
 20
9.2507161231
 30
0.0
 10
10.5741178361
 20
9.2509248323
 30
0.0
 10
10.5743038023
 20
9.2512587485
 30
0.0
 10
10.5745362514
 20
9.25167615
 30
0.0
 10
10.5748151941
 20
9.2521770292
 30
0.0
 10
10.5750941358
 20
9.2526779091
 30
0.0
 10
10.5754660583
 20
9.2533457486
 30
0.0
 10
10.5759309614
 20
9.2541805482
 30
0.0
 10
10.5764888452
 20
9.2551823076
 30
0.0
 10
10.5772326902
 20
9.2565179869
 30
0.0
 10
10.5781624965
 20
9.258187586
 30
0.0
 10
10.579278264
 20
9.2601911049
 30
0.0
 10
10.5803940315
 20
9.2621946237
 30
0.0
 10
10.581509799
 20
9.2641981426
 30
0.0
 10
10.5826255666
 20
9.2662016615
 30
0.0
 10
10.5837413341
 20
9.2682051804
 30
0.0
 10
10.5848571016
 20
9.2702086993
 30
0.0
 10
10.5859728691
 20
9.2722122182
 30
0.0
 10
10.5870886366
 20
9.2742157371
 30
0.0
 10
10.5880184429
 20
9.2758853361
 30
0.0
 10
10.5887622879
 20
9.2772210154
 30
0.0
 10
10.5893201717
 20
9.2782227748
 30
0.0
 10
10.5897850748
 20
9.2790575744
 30
0.0
 10
10.5901569973
 20
9.279725414
 30
0.0
 10
10.5904359394
 20
9.2802262936
 30
0.0
 10
10.5907148804
 20
9.2807271738
 30
0.0
 10
10.5909473346
 20
9.2811445722
 30
0.0
 10
10.5911332904
 20
9.2814784947
 30
0.0
 10
10.5912495302
 20
9.2816871878
 30
0.0
 10
10.5913424821
 20
9.2818541617
 30
0.0
 10
10.5914123053
 20
9.281979339
 30
0.0
 10
10.5914701436
 20
9.2820838222
 30
0.0
 10
10.5915113128
 20
9.2821566292
 30
0.0
 10
10.5915337727
 20
9.2821987505
 30
0.0
 10
10.5915536186
 20
9.2822288842
 30
0.0
 10
10.591561993
 20
9.2822645885
 30
0.0
 10
10.5915771603
 20
9.2823102512
 30
0.0
 10
10.5916018387
 20
9.2823910662
 30
0.0
 10
10.5916380683
 20
9.2825060429
 30
0.0
 10
10.5916811265
 20
9.2826442176
 30
0.0
 10
10.5917386832
 20
9.2828283797
 30
0.0
 10
10.5918105793
 20
9.2830586066
 30
0.0
 10
10.5919256408
 20
9.283426956
 30
0.0
 10
10.5920694581
 20
9.2838873974
 30
0.0
 10
10.592242043
 20
9.2844399252
 30
0.0
 10
10.5924146268
 20
9.2849924535
 30
0.0
 10
10.5926447389
 20
9.2857291576
 30
0.0
 10
10.5929323789
 20
9.2866500379
 30
0.0
 10
10.593277547
 20
9.2877550943
 30
0.0
 10
10.593737771
 20
9.2892285027
 30
0.0
 10
10.5943130511
 20
9.2910702633
 30
0.0
 10
10.5950033872
 20
9.2932803759
 30
0.0
 10
10.5956937233
 20
9.2954904886
 30
0.0
 10
10.5963840594
 20
9.2977006013
 30
0.0
 10
10.5970743955
 20
9.2999107139
 30
0.0
 10
10.5977647316
 20
9.3021208266
 30
0.0
 10
10.5984550677
 20
9.3043309393
 30
0.0
 10
10.5991454038
 20
9.3065410519
 30
0.0
 10
10.5998357399
 20
9.3087511646
 30
0.0
 10
10.60041102
 20
9.3105929251
 30
0.0
 10
10.600871244
 20
9.3120663336
 30
0.0
 10
10.6012164121
 20
9.3131713899
 30
0.0
 10
10.6015040522
 20
9.3140922702
 30
0.0
 10
10.6017341641
 20
9.3148289744
 30
0.0
 10
10.6019067484
 20
9.3153815025
 30
0.0
 10
10.6020793315
 20
9.315934031
 30
0.0
 10
10.6022231544
 20
9.3163944701
 30
0.0
 10
10.6023382045
 20
9.3167628243
 30
0.0
 10
10.6024101294
 20
9.316993039
 30
0.0
 10
10.6024676269
 20
9.3171772262
 30
0.0
 10
10.6025108661
 20
9.3173153242
 30
0.0
 10
10.6025465296
 20
9.3174305405
 30
0.0
 10
10.6025722184
 20
9.3175109279
 30
0.0
 10
10.6025857668
 20
9.3175572758
 30
0.0
 10
10.6025991141
 20
9.3175908753
 30
0.0
 10
10.6026002827
 20
9.3176289143
 30
0.0
 10
10.602606089
 20
9.3176780843
 30
0.0
 10
10.6026142707
 20
9.3177648534
 30
0.0
 10
10.6026269936
 20
9.317888432
 30
0.0
 10
10.6026418181
 20
9.3180368878
 30
0.0
 10
10.6026617389
 20
9.3182347725
 30
0.0
 10
10.602686587
 20
9.3184821476
 30
0.0
 10
10.6027263734
 20
9.3188779371
 30
0.0
 10
10.6027760963
 20
9.3193726776
 30
0.0
 10
10.6028357682
 20
9.3199663647
 30
0.0
 10
10.6028954389
 20
9.3205600521
 30
0.0
 10
10.6029750002
 20
9.3213516353
 30
0.0
 10
10.6030744517
 20
9.3223411142
 30
0.0
 10
10.6031937935
 20
9.323528489
 30
0.0
 10
10.603352916
 20
9.3251116553
 30
0.0
 10
10.6035518191
 20
9.3270906132
 30
0.0
 10
10.6037905028
 20
9.3294653627
 30
0.0
 10
10.6040291865
 20
9.3318401122
 30
0.0
 10
10.6042678702
 20
9.3342148617
 30
0.0
 10
10.6045065539
 20
9.3365896112
 30
0.0
 10
10.6047452376
 20
9.3389643607
 30
0.0
 10
10.6049839213
 20
9.3413391102
 30
0.0
 10
10.605222605
 20
9.3437138597
 30
0.0
 10
10.6054612887
 20
9.3460886092
 30
0.0
 10
10.6056601917
 20
9.3480675671
 30
0.0
 10
10.6058193142
 20
9.3496507335
 30
0.0
 10
10.605938656
 20
9.3508381082
 30
0.0
 10
10.6060381076
 20
9.3518275872
 30
0.0
 10
10.6061176688
 20
9.3526191703
 30
0.0
 10
10.6061773399
 20
9.3532128577
 30
0.0
 10
10.6062370099
 20
9.3538065451
 30
0.0
 10
10.6062867387
 20
9.3543012846
 30
0.0
 10
10.6063265132
 20
9.3546970761
 30
0.0
 10
10.6063513915
 20
9.3549444461
 30
0.0
 10
10.6063712502
 20
9.3551423413
 30
0.0
 10
10.6063862647
 20
9.355290765
 30
0.0
 10
10.6063983934
 20
9.3554144441
 30
0.0
 10
10.6064076358
 20
9.3555010338
 30
0.0
 10
10.6064117425
 20
9.3555504913
 30
0.0
 10
10.6064181316
 20
9.3555876471
 30
0.0
 10
10.6064118718
 20
9.3556245635
 30
0.0
 10
10.6064079375
 20
9.3556738688
 30
0.0
 10
10.6063989968
 20
9.3557601142
 30
0.0
 10
10.606387299
 20
9.3558833423
 30
0.0
 10
10.6063728017
 20
9.3560312073
 30
0.0
 10
10.6063536327
 20
9.3562283636
 30
0.0
 10
10.6063296163
 20
9.3564748081
 30
0.0
 10
10.6062912209
 20
9.3568691197
 30
0.0
 10
10.6062432161
 20
9.357362009
 30
0.0
 10
10.6061856149
 20
9.3579534763
 30
0.0
 10
10.6061280125
 20
9.3585449436
 30
0.0
 10
10.6060512096
 20
9.3593335666
 30
0.0
 10
10.6059552059
 20
9.3603193454
 30
0.0
 10
10.6058400016
 20
9.3615022799
 30
0.0
 10
10.6056863957
 20
9.363079526
 30
0.0
 10
10.6054943885
 20
9.3650510836
 30
0.0
 10
10.6052639797
 20
9.3674169527
 30
0.0
 10
10.605033571
 20
9.3697828218
 30
0.0
 10
10.6048031622
 20
9.3721486908
 30
0.0
 10
10.6045727535
 20
9.3745145599
 30
0.0
 10
10.6043423447
 20
9.376880429
 30
0.0
 10
10.604111936
 20
9.3792462981
 30
0.0
 10
10.6038815272
 20
9.3816121672
 30
0.0
 10
10.6036511185
 20
9.3839780363
 30
0.0
 10
10.6034591112
 20
9.3859495939
 30
0.0
 10
10.6033055054
 20
9.3875268399
 30
0.0
 10
10.603190301
 20
9.3887097745
 30
0.0
 10
10.6030942974
 20
9.3896955533
 30
0.0
 10
10.6030174944
 20
9.3904841763
 30
0.0
 10
10.6029598924
 20
9.3910756436
 30
0.0
 10
10.6029022893
 20
9.3916671107
 30
0.0
 10
10.6028542904
 20
9.3921600005
 30
0.0
 10
10.6028158831
 20
9.3925543113
 30
0.0
 10
10.602791897
 20
9.3928007579
 30
0.0
 10
10.6027726658
 20
9.3929979097
 30
0.0
 10
10.6027583585
 20
9.3931457885
 30
0.0
 10
10.6027460663
 20
9.3932689733
 30
0.0
 10
10.6027381867
 20
9.393355296
 30
0.0
 10
10.6027325522
 20
9.3934044776
 30
0.0
 10
10.602731515
 20
9.393441774
 30
0.0
 10
10.6027182887
 20
9.3934775023
 30
0.0
 10
10.6027049054
 20
9.3935256869
 30
0.0
 10
10.6026795037
 20
9.3936097553
 30
0.0
 10
10.6026442511
 20
9.3937299861
 30
0.0
 10
10.6026015047
 20
9.3938742061
 30
0.0
 10
10.6025446644
 20
9.3940665193
 30
0.0
 10
10.602473561
 20
9.394306904
 30
0.0
 10
10.6023598252
 20
9.3946915234
 30
0.0
 10
10.6022176452
 20
9.3951722963
 30
0.0
 10
10.6020470336
 20
9.3957492243
 30
0.0
 10
10.6018764209
 20
9.3963261522
 30
0.0
 10
10.6016489376
 20
9.3970953895
 30
0.0
 10
10.6013645834
 20
9.398056936
 30
0.0
 10
10.6010233584
 20
9.3992107918
 30
0.0
 10
10.6005683917
 20
9.4007492663
 30
0.0
 10
10.5999996833
 20
9.4026723593
 30
0.0
 10
10.5993172333
 20
9.404980071
 30
0.0
 10
10.5986347832
 20
9.4072877827
 30
0.0
 10
10.5979523332
 20
9.4095954944
 30
0.0
 10
10.5972698831
 20
9.411903206
 30
0.0
 10
10.5965874331
 20
9.4142109177
 30
0.0
 10
10.595904983
 20
9.4165186294
 30
0.0
 10
10.595222533
 20
9.418826341
 30
0.0
 10
10.5945400829
 20
9.4211340527
 30
0.0
 10
10.5939713746
 20
9.4230571458
 30
0.0
 10
10.5935164079
 20
9.4245956202
 30
0.0
 10
10.5931751828
 20
9.4257494761
 30
0.0
 10
10.5928908287
 20
9.4267110226
 30
0.0
 10
10.5926633453
 20
9.4274802598
 30
0.0
 10
10.592492733
 20
9.4280571878
 30
0.0
 10
10.5923221196
 20
9.4286341154
 30
0.0
 10
10.5921799452
 20
9.4291148896
 30
0.0
 10
10.592066198
 20
9.4294995063
 30
0.0
 10
10.5919951235
 20
9.4297398978
 30
0.0
 10
10.5919382239
 20
9.4299321972
 30
0.0
 10
10.5918956587
 20
9.4300764593
 30
0.0
 10
10.5918598394
 20
9.4301965584
 30
0.0
 10
10.5918354493
 20
9.430280862
 30
0.0
 10
10.5918204451
 20
9.4303286697
 30
0.0
 10
10.5918121975
 20
9.4303655558
 30
0.0
 10
10.5917924616
 20
9.4303985035
 30
0.0
 10
10.5917701543
 20
9.4304438076
 30
0.0
 10
10.5917292496
 20
9.4305224496
 30
0.0
 10
10.5916717903
 20
9.4306351301
 30
0.0
 10
10.5916024213
 20
9.4307702033
 30
0.0
 10
10.5915100753
 20
9.430950351
 30
0.0
 10
10.5913945929
 20
9.4311755186
 30
0.0
 10
10.5912098489
 20
9.4315357961
 30
0.0
 10
10.5909789093
 20
9.4319861399
 30
0.0
 10
10.5907017859
 20
9.4325265537
 30
0.0
 10
10.5904246614
 20
9.4330669672
 30
0.0
 10
10.5900551625
 20
9.4337875186
 30
0.0
 10
10.5895932887
 20
9.4346882079
 30
0.0
 10
10.5890390402
 20
9.435769035
 30
0.0
 10
10.5883000422
 20
9.4372101378
 30
0.0
 10
10.5873762946
 20
9.4390115164
 30
0.0
 10
10.5862677976
 20
9.4411731706
 30
0.0
 10
10.5851593006
 20
9.4433348248
 30
0.0
 10
10.5840508035
 20
9.4454964791
 30
0.0
 10
10.5829423065
 20
9.4476581333
 30
0.0
 10
10.5818338095
 20
9.4498197875
 30
0.0
 10
10.5807253124
 20
9.4519814418
 30
0.0
 10
10.5796168154
 20
9.454143096
 30
0.0
 10
10.5785083184
 20
9.4563047502
 30
0.0
 10
10.5775845709
 20
9.4581061288
 30
0.0
 10
10.5768455728
 20
9.4595472316
 30
0.0
 10
10.5762913243
 20
9.4606280587
 30
0.0
 10
10.5758294506
 20
9.461528748
 30
0.0
 10
10.5754599515
 20
9.4622492994
 30
0.0
 10
10.5751828275
 20
9.462789713
 30
0.0
 10
10.5749057024
 20
9.4633301262
 30
0.0
 10
10.5746747681
 20
9.4637804721
 30
0.0
 10
10.5744900133
 20
9.4641407452
 30
0.0
 10
10.5743745584
 20
9.464365924
 30
0.0
 10
10.5742821557
 20
9.4645460486
 30
0.0
 10
10.57421296
 20
9.4646811925
 30
0.0
 10
10.5741549588
 20
9.4647936519
 30
0.0
 10
10.5741150214
 20
9.4648726885
 30
0.0
 10
10.5740911642
 20
9.4649173604
 30
0.0
 10
10.5740761892
 20
9.4649522499
 30
0.0
 10
10.5740500606
 20
9.4649818431
 30
0.0
 10
10.5740191131
 20
9.4650231482
 30
0.0
 10
10.5739631422
 20
9.4650945714
 30
0.0
 10
10.5738841315
 20
9.4651970544
 30
0.0
 10
10.5737889129
 20
9.4653198415
 30
0.0
 10
10.5736620966
 20
9.4654836248
 30
0.0
 10
10.5735035277
 20
9.465688331
 30
0.0
 10
10.5732498445
 20
9.4660158737
 30
0.0
 10
10.5729327312
 20
9.4664252977
 30
0.0
 10
10.5725521992
 20
9.4669166083
 30
0.0
 10
10.5721716662
 20
9.4674079185
 30
0.0
 10
10.5716642892
 20
9.4680629989
 30
0.0
 10
10.5710300679
 20
9.4688818493
 30
0.0
 10
10.5702690023
 20
9.4698644698
 30
0.0
 10
10.5692542482
 20
9.4711746306
 30
0.0
 10
10.5679858055
 20
9.4728123315
 30
0.0
 10
10.5664636743
 20
9.4747775725
 30
0.0
 10
10.5649415431
 20
9.4767428136
 30
0.0
 10
10.5634194119
 20
9.4787080547
 30
0.0
 10
10.5618972807
 20
9.4806732957
 30
0.0
 10
10.5603751495
 20
9.4826385368
 30
0.0
 10
10.5588530184
 20
9.4846037779
 30
0.0
 10
10.5573308872
 20
9.4865690189
 30
0.0
 10
10.555808756
 20
9.48853426
 30
0.0
 10
10.5545403133
 20
9.4901719609
 30
0.0
 10
10.5535255592
 20
9.4914821216
 30
0.0
 10
10.5527644936
 20
9.4924647421
 30
0.0
 10
10.5521302723
 20
9.4932835926
 30
0.0
 10
10.5516228952
 20
9.4939386729
 30
0.0
 10
10.5512423625
 20
9.4944299833
 30
0.0
 10
10.5508618291
 20
9.4949212929
 30
0.0
 10
10.5505447204
 20
9.4953307203
 30
0.0
 10
10.5502910279
 20
9.4956582561
 30
0.0
 10
10.5501324826
 20
9.4958629799
 30
0.0
 10
10.5500056179
 20
9.496026727
 30
0.0
 10
10.5499105471
 20
9.4961496247
 30
0.0
 10
10.5498310742
 20
9.4962517616
 30
0.0
 10
10.5497759282
 20
9.4963238027
 30
0.0
 10
10.549743659
 20
9.4963641176
 30
0.0
 10
10.5497215903
 20
9.4963967523
 30
0.0
 10
10.5496913671
 20
9.4964202188
 30
0.0
 10
10.5496539139
 20
9.4964547054
 30
0.0
 10
10.5495870456
 20
9.496513567
 30
0.0
 10
10.5494922123
 20
9.4965984339
 30
0.0
 10
10.5493781157
 20
9.4966999408
 30
0.0
 10
10.5492260906
 20
9.4968353998
 30
0.0
 10
10.5490360237
 20
9.4970046837
 30
0.0
 10
10.5487319364
 20
9.4972755601
 30
0.0
 10
10.5483518206
 20
9.4976141481
 30
0.0
 10
10.5478956845
 20
9.4980204569
 30
0.0
 10
10.5474395476
 20
9.4984267648
 30
0.0
 10
10.5468313654
 20
9.498968509
 30
0.0
 10
10.5460711375
 20
9.4996456892
 30
0.0
 10
10.545158864
 20
9.5004583054
 30
0.0
 10
10.5439424995
 20
9.5015417937
 30
0.0
 10
10.5424220437
 20
9.5028961541
 30
0.0
 10
10.5405974968
 20
9.5045213865
 30
0.0
 10
10.53877295
 20
9.506146619
 30
0.0
 10
10.5369484031
 20
9.5077718515
 30
0.0
 10
10.5351238562
 20
9.5093970839
 30
0.0
 10
10.5332993093
 20
9.5110223164
 30
0.0
 10
10.5314747625
 20
9.5126475488
 30
0.0
 10
10.5296502156
 20
9.5142727813
 30
0.0
 10
10.5278256687
 20
9.5158980137
 30
0.0
 10
10.526305213
 20
9.5172523741
 30
0.0
 10
10.5250888484
 20
9.5183358624
 30
0.0
 10
10.524176575
 20
9.5191484786
 30
0.0
 10
10.5234163471
 20
9.5198256589
 30
0.0
 10
10.5228081648
 20
9.5203674029
 30
0.0
 10
10.5223520282
 20
9.5207737113
 30
0.0
 10
10.521895891
 20
9.5211800186
 30
0.0
 10
10.5215157787
 20
9.521518611
 30
0.0
 10
10.5212116842
 20
9.5217894784
 30
0.0
 10
10.5210216357
 20
9.5219587854
 30
0.0
 10
10.5208695728
 20
9.5220941968
 30
0.0
 10
10.5207555915
 20
9.5221958492
 30
0.0
 10
10.5206603976
 20
9.5222802611
 30
0.0
 10
10.5205941729
 20
9.522339935
 30
0.0
 10
10.5205556884
 20
9.52237312
 30
0.0
 10
10.5205286333
 20
9.5224005846
 30
0.0
 10
10.5204946658
 20
9.522418203
 30
0.0
 10
10.520451787
 20
9.5224451286
 30
0.0
 10
10.5203756256
 20
9.5224906483
 30
0.0
 10
10.5202674109
 20
9.522556513
 30
0.0
 10
10.5201373019
 20
9.5226351926
 30
0.0
 10
10.5199639111
 20
9.5227402238
 30
0.0
 10
10.5197471425
 20
9.5228714699
 30
0.0
 10
10.5194003296
 20
9.5230814877
 30
0.0
 10
10.5189668076
 20
9.5233440017
 30
0.0
 10
10.5184465837
 20
9.523659022
 30
0.0
 10
10.5179263592
 20
9.5239740413
 30
0.0
 10
10.5172327267
 20
9.5243940675
 30
0.0
 10
10.516365686
 20
9.5249191001
 30
0.0
 10
10.5153252372
 20
9.5255491392
 30
0.0
 10
10.5139379721
 20
9.5263891914
 30
0.0
 10
10.5122038907
 20
9.5274392566
 30
0.0
 10
10.5101229931
 20
9.5286993348
 30
0.0
 10
10.5080420955
 20
9.5299594131
 30
0.0
 10
10.5059611978
 20
9.5312194914
 30
0.0
 10
10.5038803002
 20
9.5324795696
 30
0.0
 10
10.5017994026
 20
9.5337396479
 30
0.0
 10
10.4997185049
 20
9.5349997261
 30
0.0
 10
10.4976376073
 20
9.5362598044
 30
0.0
 10
10.4955567097
 20
9.5375198827
 30
0.0
 10
10.4938226283
 20
9.5385699479
 30
0.0
 10
10.4924353633
 20
9.53941
 30
0.0
 10
10.4913949144
 20
9.5400400392
 30
0.0
 10
10.4905278738
 20
9.5405650718
 30
0.0
 10
10.4898342412
 20
9.5409850978
 30
0.0
 10
10.4893140169
 20
9.5413001176
 30
0.0
 10
10.4887937921
 20
9.5416151363
 30
0.0
 10
10.4883602729
 20
9.5418776553
 30
0.0
 10
10.4880134543
 20
9.542087663
 30
0.0
 10
10.4877967
 20
9.5422189347
 30
0.0
 10
10.4876232799
 20
9.5423239133
 30
0.0
 10
10.4874932603
 20
9.5424027534
 30
0.0
 10
10.487384766
 20
9.5424681159
 30
0.0
 10
10.4873091039
 20
9.5425145322
 30
0.0
 10
10.487265425
 20
9.5425400212
 30
0.0
 10
10.487233915
 20
9.5425620524
 30
0.0
 10
10.4871976299
 20
9.5425729432
 30
0.0
 10
10.4871509154
 20
9.5425913501
 30
0.0
 10
10.4870683889
 20
9.5426217518
 30
0.0
 10
10.4869508997
 20
9.5426661292
 30
0.0
 10
10.4868097389
 20
9.542718977
 30
0.0
 10
10.4866215852
 20
9.5427895822
 30
0.0
 10
10.4863863724
 20
9.5428777903
 30
0.0
 10
10.4860100434
 20
9.5430189504
 30
0.0
 10
10.4855396282
 20
9.5431953911
 30
0.0
 10
10.4849751316
 20
9.5434071239
 30
0.0
 10
10.4844106346
 20
9.5436188557
 30
0.0
 10
10.4836579721
 20
9.5439011652
 30
0.0
 10
10.4827171439
 20
9.5442540518
 30
0.0
 10
10.4815881501
 20
9.5446775159
 30
0.0
 10
10.480082825
 20
9.5452421346
 30
0.0
 10
10.4782011686
 20
9.545947908
 30
0.0
 10
10.475943181
 20
9.5467948361
 30
0.0
 10
10.4736851934
 20
9.5476417641
 30
0.0
 10
10.4714272057
 20
9.5484886922
 30
0.0
 10
10.4691692181
 20
9.5493356203
 30
0.0
 10
10.4669112305
 20
9.5501825483
 30
0.0
 10
10.4646532428
 20
9.5510294764
 30
0.0
 10
10.4623952552
 20
9.5518764045
 30
0.0
 10
10.4601372676
 20
9.5527233326
 30
0.0
 10
10.4582556112
 20
9.553429106
 30
0.0
 10
10.4567502861
 20
9.5539937247
 30
0.0
 10
10.4556212923
 20
9.5544171887
 30
0.0
 10
10.4546804641
 20
9.5547700754
 30
0.0
 10
10.4539278016
 20
9.5550523847
 30
0.0
 10
10.4533633047
 20
9.555264117
 30
0.0
 10
10.4527988075
 20
9.5554758481
 30
0.0
 10
10.4523283943
 20
9.5556522942
 30
0.0
 10
10.4519520613
 20
9.5557934432
 30
0.0
 10
10.4517168586
 20
9.5558816794
 30
0.0
 10
10.451528684
 20
9.5559522269
 30
0.0
 10
10.4513875873
 20
9.5560052512
 30
0.0
 10
10.4512698977
 20
9.5560490765
 30
0.0
 10
10.4511877288
 20
9.5560804637
 30
0.0
 10
10.4511404413
 20
9.5560972915
 30
0.0
 10
10.4511059162
 20
9.5561130331
 30
0.0
 10
10.4510677962
 20
9.5561168454
 30
0.0
 10
10.4510182234
 20
9.5561260895
 30
0.0
 10
10.4509308869
 20
9.556140328
 30
0.0
 10
10.4508064259
 20
9.5561616823
 30
0.0
 10
10.4506569419
 20
9.5561868736
 30
0.0
 10
10.4504576757
 20
9.5562206136
 30
0.0
 10
10.4502085772
 20
9.5562627367
 30
0.0
 10
10.4498100284
 20
9.5563301626
 30
0.0
 10
10.4493118393
 20
9.556414435
 30
0.0
 10
10.4487140138
 20
9.5565155662
 30
0.0
 10
10.4481161879
 20
9.5566166962
 30
0.0
 10
10.4473190868
 20
9.5567515367
 30
0.0
 10
10.4463227104
 20
9.5569200871
 30
0.0
 10
10.4451270587
 20
9.5571223477
 30
0.0
 10
10.4435328565
 20
9.5573920285
 30
0.0
 10
10.4415401037
 20
9.5577291294
 30
0.0
 10
10.4391488004
 20
9.5581336506
 30
0.0
 10
10.4367574971
 20
9.5585381717
 30
0.0
 10
10.4343661937
 20
9.5589426929
 30
0.0
 10
10.4311777893
 20
9.5594820544
 30
0.0
 10
10.4271922838
 20
9.5601562563
 30
0.0
 10
10.4224096771
 20
9.5609652986
 30
0.0
 10
10.4176270704
 20
9.5617743409
 30
0.0
 10
10.414438666
 20
9.5623137024
 30
0.0
 10
10.4128444638
 20
9.5625833832
 30
0.0
  0
SPLINE
  5
394
100
AcDbEntity
  8
0
100
AcDbSpline
 62
4
  6
CONTINUOUS
 70
0
 71
3
 72
615
 73
611
 74
0
 42
0.0000001
 43
0.0000001
 44
0.0000000001
 40
0.0
 40
0.0
 40
0.0
 40
0.0
 40
0.0078125
 40
0.015625
 40
0.0234375
 40
0.03125
 40
0.03515625
 40
0.0390625
 40
0.04296875
 40
0.046875
 40
0.05078125
 40
0.052734375
 40
0.0546875
 40
0.056640625
 40
0.0576171875
 40
0.05859375
 40
0.0595703125
 40
0.060546875
 40
0.0610351562
 40
0.0615234375
 40
0.0617675781
 40
0.0620117188
 40
0.0622558594
 40
0.0623779297
 40
0.0624389648
 40
0.0625
 40
0.0625610352
 40
0.0626220703
 40
0.0627441406
 40
0.0629882812
 40
0.0632324219
 40
0.0634765625
 40
0.0639648438
 40
0.064453125
 40
0.0654296875
 40
0.06640625
 40
0.0673828125
 40
0.068359375
 40
0.0703125
 40
0.072265625
 40
0.07421875
 40
0.078125
 40
0.08203125
 40
0.0859375
 40
0.08984375
 40
0.09375
 40
0.09765625
 40
0.1015625
 40
0.10546875
 40
0.109375
 40
0.11328125
 40
0.115234375
 40
0.1171875
 40
0.119140625
 40
0.1201171875
 40
0.12109375
 40
0.1220703125
 40
0.123046875
 40
0.1235351562
 40
0.1240234375
 40
0.1242675781
 40
0.1245117188
 40
0.1247558594
 40
0.1248779297
 40
0.1249389648
 40
0.125
 40
0.1250610352
 40
0.1251220703
 40
0.1252441406
 40
0.1254882812
 40
0.1257324219
 40
0.1259765625
 40
0.1264648438
 40
0.126953125
 40
0.1279296875
 40
0.12890625
 40
0.1298828125
 40
0.130859375
 40
0.1328125
 40
0.134765625
 40
0.13671875
 40
0.140625
 40
0.14453125
 40
0.1484375
 40
0.15234375
 40
0.15625
 40
0.16015625
 40
0.1640625
 40
0.16796875
 40
0.171875
 40
0.17578125
 40
0.177734375
 40
0.1796875
 40
0.181640625
 40
0.1826171875
 40
0.18359375
 40
0.1845703125
 40
0.185546875
 40
0.1860351562
 40
0.1865234375
 40
0.1867675781
 40
0.1870117188
 40
0.1872558594
 40
0.1873779297
 40
0.1874389648
 40
0.1875
 40
0.1875610352
 40
0.1876220703
 40
0.1877441406
 40
0.1879882812
 40
0.1882324219
 40
0.1884765625
 40
0.1889648438
 40
0.189453125
 40
0.1904296875
 40
0.19140625
 40
0.1923828125
 40
0.193359375
 40
0.1953125
 40
0.197265625
 40
0.19921875
 40
0.203125
 40
0.20703125
 40
0.2109375
 40
0.21484375
 40
0.21875
 40
0.22265625
 40
0.2265625
 40
0.23046875
 40
0.234375
 40
0.23828125
 40
0.240234375
 40
0.2421875
 40
0.244140625
 40
0.2451171875
 40
0.24609375
 40
0.2470703125
 40
0.248046875
 40
0.2485351562
 40
0.2490234375
 40
0.2492675781
 40
0.2495117188
 40
0.2497558594
 40
0.2498779297
 40
0.2499389648
 40
0.25
 40
0.2500610352
 40
0.2501220703
 40
0.2502441406
 40
0.2504882812
 40
0.2507324219
 40
0.2509765625
 40
0.2514648438
 40
0.251953125
 40
0.2529296875
 40
0.25390625
 40
0.2548828125
 40
0.255859375
 40
0.2578125
 40
0.259765625
 40
0.26171875
 40
0.265625
 40
0.26953125
 40
0.2734375
 40
0.27734375
 40
0.28125
 40
0.28515625
 40
0.2890625
 40
0.29296875
 40
0.296875
 40
0.30078125
 40
0.302734375
 40
0.3046875
 40
0.306640625
 40
0.3076171875
 40
0.30859375
 40
0.3095703125
 40
0.310546875
 40
0.3110351562
 40
0.3115234375
 40
0.3117675781
 40
0.3120117188
 40
0.3122558594
 40
0.3123779297
 40
0.3124389648
 40
0.3125
 40
0.3125610352
 40
0.3126220703
 40
0.3127441406
 40
0.3129882812
 40
0.3132324219
 40
0.3134765625
 40
0.3139648438
 40
0.314453125
 40
0.3154296875
 40
0.31640625
 40
0.3173828125
 40
0.318359375
 40
0.3203125
 40
0.322265625
 40
0.32421875
 40
0.328125
 40
0.33203125
 40
0.3359375
 40
0.33984375
 40
0.34375
 40
0.34765625
 40
0.3515625
 40
0.35546875
 40
0.359375
 40
0.36328125
 40
0.365234375
 40
0.3671875
 40
0.369140625
 40
0.3701171875
 40
0.37109375
 40
0.3720703125
 40
0.373046875
 40
0.3735351562
 40
0.3740234375
 40
0.3742675781
 40
0.3745117188
 40
0.3747558594
 40
0.3748779297
 40
0.3749389648
 40
0.375
 40
0.3750610352
 40
0.3751220703
 40
0.3752441406
 40
0.3754882812
 40
0.3757324219
 40
0.3759765625
 40
0.3764648438
 40
0.376953125
 40
0.3779296875
 40
0.37890625
 40
0.3798828125
 40
0.380859375
 40
0.3828125
 40
0.384765625
 40
0.38671875
 40
0.390625
 40
0.39453125
 40
0.3984375
 40
0.40234375
 40
0.40625
 40
0.41015625
 40
0.4140625
 40
0.41796875
 40
0.421875
 40
0.42578125
 40
0.427734375
 40
0.4296875
 40
0.431640625
 40
0.4326171875
 40
0.43359375
 40
0.4345703125
 40
0.435546875
 40
0.4360351562
 40
0.4365234375
 40
0.4367675781
 40
0.4370117188
 40
0.4372558594
 40
0.4373779297
 40
0.4374389648
 40
0.4375
 40
0.4375610352
 40
0.4376220703
 40
0.4377441406
 40
0.4379882812
 40
0.4382324219
 40
0.4384765625
 40
0.4389648438
 40
0.439453125
 40
0.4404296875
 40
0.44140625
 40
0.4423828125
 40
0.443359375
 40
0.4453125
 40
0.447265625
 40
0.44921875
 40
0.453125
 40
0.45703125
 40
0.4609375
 40
0.46484375
 40
0.46875
 40
0.47265625
 40
0.4765625
 40
0.48046875
 40
0.484375
 40
0.48828125
 40
0.490234375
 40
0.4921875
 40
0.494140625
 40
0.4951171875
 40
0.49609375
 40
0.4970703125
 40
0.498046875
 40
0.4985351562
 40
0.4990234375
 40
0.4992675781
 40
0.4995117188
 40
0.4997558594
 40
0.4998779297
 40
0.4999389648
 40
0.5
 40
0.5000610352
 40
0.5001220703
 40
0.5002441406
 40
0.5004882812
 40
0.5007324219
 40
0.5009765625
 40
0.5014648438
 40
0.501953125
 40
0.5029296875
 40
0.50390625
 40
0.5048828125
 40
0.505859375
 40
0.5078125
 40
0.509765625
 40
0.51171875
 40
0.515625
 40
0.51953125
 40
0.5234375
 40
0.52734375
 40
0.53125
 40
0.53515625
 40
0.5390625
 40
0.54296875
 40
0.546875
 40
0.55078125
 40
0.552734375
 40
0.5546875
 40
0.556640625
 40
0.5576171875
 40
0.55859375
 40
0.5595703125
 40
0.560546875
 40
0.5610351562
 40
0.5615234375
 40
0.5617675781
 40
0.5620117188
 40
0.5622558594
 40
0.5623779297
 40
0.5624389648
 40
0.5625
 40
0.5625610352
 40
0.5626220703
 40
0.5627441406
 40
0.5629882812
 40
0.5632324219
 40
0.5634765625
 40
0.5639648438
 40
0.564453125
 40
0.5654296875
 40
0.56640625
 40
0.5673828125
 40
0.568359375
 40
0.5703125
 40
0.572265625
 40
0.57421875
 40
0.578125
 40
0.58203125
 40
0.5859375
 40
0.58984375
 40
0.59375
 40
0.59765625
 40
0.6015625
 40
0.60546875
 40
0.609375
 40
0.61328125
 40
0.615234375
 40
0.6171875
 40
0.619140625
 40
0.6201171875
 40
0.62109375
 40
0.6220703125
 40
0.623046875
 40
0.6235351562
 40
0.6240234375
 40
0.6242675781
 40
0.6245117188
 40
0.6247558594
 40
0.6248779297
 40
0.6249389648
 40
0.625
 40
0.6250610352
 40
0.6251220703
 40
0.6252441406
 40
0.6254882812
 40
0.6257324219
 40
0.6259765625
 40
0.6264648438
 40
0.626953125
 40
0.6279296875
 40
0.62890625
 40
0.6298828125
 40
0.630859375
 40
0.6328125
 40
0.634765625
 40
0.63671875
 40
0.640625
 40
0.64453125
 40
0.6484375
 40
0.65234375
 40
0.65625
 40
0.66015625
 40
0.6640625
 40
0.66796875
 40
0.671875
 40
0.67578125
 40
0.677734375
 40
0.6796875
 40
0.681640625
 40
0.6826171875
 40
0.68359375
 40
0.6845703125
 40
0.685546875
 40
0.6860351562
 40
0.6865234375
 40
0.6867675781
 40
0.6870117188
 40
0.6872558594
 40
0.6873779297
 40
0.6874389648
 40
0.6875
 40
0.6875610352
 40
0.6876220703
 40
0.6877441406
 40
0.6879882812
 40
0.6882324219
 40
0.6884765625
 40
0.6889648438
 40
0.689453125
 40
0.6904296875
 40
0.69140625
 40
0.6923828125
 40
0.693359375
 40
0.6953125
 40
0.697265625
 40
0.69921875
 40
0.703125
 40
0.70703125
 40
0.7109375
 40
0.71484375
 40
0.71875
 40
0.72265625
 40
0.7265625
 40
0.73046875
 40
0.734375
 40
0.73828125
 40
0.740234375
 40
0.7421875
 40
0.744140625
 40
0.7451171875
 40
0.74609375
 40
0.7470703125
 40
0.748046875
 40
0.7485351562
 40
0.7490234375
 40
0.7492675781
 40
0.7495117188
 40
0.7497558594
 40
0.7498779297
 40
0.7499389648
 40
0.75
 40
0.7500610352
 40
0.7501220703
 40
0.7502441406
 40
0.7504882812
 40
0.7507324219
 40
0.7509765625
 40
0.7514648438
 40
0.751953125
 40
0.7529296875
 40
0.75390625
 40
0.7548828125
 40
0.755859375
 40
0.7578125
 40
0.759765625
 40
0.76171875
 40
0.765625
 40
0.76953125
 40
0.7734375
 40
0.77734375
 40
0.78125
 40
0.78515625
 40
0.7890625
 40
0.79296875
 40
0.796875
 40
0.80078125
 40
0.802734375
 40
0.8046875
 40
0.806640625
 40
0.8076171875
 40
0.80859375
 40
0.8095703125
 40
0.810546875
 40
0.8110351562
 40
0.8115234375
 40
0.8117675781
 40
0.8120117188
 40
0.8122558594
 40
0.8123779297
 40
0.8124389648
 40
0.8125
 40
0.8125610352
 40
0.8126220703
 40
0.8127441406
 40
0.8129882812
 40
0.8132324219
 40
0.8134765625
 40
0.8139648438
 40
0.814453125
 40
0.8154296875
 40
0.81640625
 40
0.8173828125
 40
0.818359375
 40
0.8203125
 40
0.822265625
 40
0.82421875
 40
0.828125
 40
0.83203125
 40
0.8359375
 40
0.83984375
 40
0.84375
 40
0.84765625
 40
0.8515625
 40
0.85546875
 40
0.859375
 40
0.86328125
 40
0.865234375
 40
0.8671875
 40
0.869140625
 40
0.8701171875
 40
0.87109375
 40
0.8720703125
 40
0.873046875
 40
0.8735351562
 40
0.8740234375
 40
0.8742675781
 40
0.8745117188
 40
0.8747558594
 40
0.8748779297
 40
0.8749389648
 40
0.875
 40
0.8750610352
 40
0.8751220703
 40
0.8752441406
 40
0.8754882812
 40
0.8757324219
 40
0.8759765625
 40
0.8764648438
 40
0.876953125
 40
0.8779296875
 40
0.87890625
 40
0.8798828125
 40
0.880859375
 40
0.8828125
 40
0.884765625
 40
0.88671875
 40
0.890625
 40
0.89453125
 40
0.8984375
 40
0.90234375
 40
0.90625
 40
0.91015625
 40
0.9140625
 40
0.91796875
 40
0.921875
 40
0.92578125
 40
0.927734375
 40
0.9296875
 40
0.931640625
 40
0.9326171875
 40
0.93359375
 40
0.9345703125
 40
0.935546875
 40
0.9360351562
 40
0.9365234375
 40
0.9367675781
 40
0.9370117188
 40
0.9372558594
 40
0.9373779297
 40
0.9374389648
 40
0.9375
 40
0.9375610352
 40
0.9376220703
 40
0.9377441406
 40
0.9379882812
 40
0.9382324219
 40
0.9384765625
 40
0.9389648438
 40
0.939453125
 40
0.9404296875
 40
0.94140625
 40
0.9423828125
 40
0.943359375
 40
0.9453125
 40
0.947265625
 40
0.94921875
 40
0.953125
 40
0.95703125
 40
0.9609375
 40
0.96484375
 40
0.96875
 40
0.9765625
 40
0.984375
 40
0.9921875
 40
1.0
 40
1.0
 40
1.0
 40
1.0
 10
10.4128444807
 20
9.562583382
 30
0.0
 10
10.4112778873
 20
9.5625384198
 30
0.0
 10
10.4081447003
 20
9.5624484954
 30
0.0
 10
10.40344492
 20
9.5623136088
 30
0.0
 10
10.3987451396
 20
9.5621787222
 30
0.0
 10
10.3948286559
 20
9.5620663167
 30
0.0
 10
10.391695469
 20
9.5619763922
 30
0.0
 10
10.3893455788
 20
9.5619089489
 30
0.0
 10
10.3869956886
 20
9.5618415056
 30
0.0
 10
10.3846457985
 20
9.5617740623
 30
0.0
 10
10.3826875566
 20
9.5617178596
 30
0.0
 10
10.3811209632
 20
9.5616728974
 30
0.0
 10
10.3799460181
 20
9.5616391757
 30
0.0
 10
10.3789668972
 20
9.5616110743
 30
0.0
 10
10.3781836004
 20
9.5615885932
 30
0.0
 10
10.3775961278
 20
9.5615717326
 30
0.0
 10
10.3770086555
 20
9.5615548708
 30
0.0
 10
10.3765190945
 20
9.561540823
 30
0.0
 10
10.3761274473
 20
9.5615295766
 30
0.0
 10
10.3758826641
 20
9.5615225663
 30
0.0
 10
10.3756868459
 20
9.5615169151
 30
0.0
 10
10.3755399593
 20
9.5615127944
 30
0.0
 10
10.375417627
 20
9.561508986
 30
0.0
 10
10.3753318508
 20
9.561507055
 30
0.0
 10
10.37528306
 20
9.5615048041
 30
0.0
 10
10.3752458354
 20
9.5615063485
 30
0.0
 10
10.3752110244
 20
9.5614955364
 30
0.0
 10
10.3751637679
 20
9.5614854303
 30
0.0
 10
10.3750814612
 20
9.5614657366
 30
0.0
 10
10.3749636751
 20
9.5614386525
 30
0.0
 10
10.3748224196
 20
9.5614057022
 30
0.0
 10
10.3746340483
 20
9.5613619255
 30
0.0
 10
10.3743985946
 20
9.5613071509
 30
0.0
 10
10.3740218628
 20
9.5612195415
 30
0.0
 10
10.3735509501
 20
9.5611100194
 30
0.0
 10
10.3729858541
 20
9.5609785974
 30
0.0
 10
10.3724207582
 20
9.5608471741
 30
0.0
 10
10.371667297
 20
9.5606719436
 30
0.0
 10
10.3707254705
 20
9.5604529052
 30
0.0
 10
10.3695952787
 20
9.5601900593
 30
0.0
 10
10.3680883563
 20
9.559839598
 30
0.0
 10
10.3662047033
 20
9.5594015214
 30
0.0
 10
10.3639443197
 20
9.5588758295
 30
0.0
 10
10.3616839361
 20
9.5583501376
 30
0.0
 10
10.3594235525
 20
9.5578244457
 30
0.0
 10
10.3571631689
 20
9.5572987538
 30
0.0
 10
10.3549027853
 20
9.5567730619
 30
0.0
 10
10.3526424017
 20
9.55624737
 30
0.0
 10
10.3503820181
 20
9.5557216781
 30
0.0
 10
10.3481216345
 20
9.5551959862
 30
0.0
 10
10.3462379815
 20
9.5547579096
 30
0.0
 10
10.3447310591
 20
9.5544074483
 30
0.0
 10
10.3436008673
 20
9.5541446023
 30
0.0
 10
10.3426590408
 20
9.5539255641
 30
0.0
 10
10.3419055796
 20
9.5537503334
 30
0.0
 10
10.3413404836
 20
9.5536189106
 30
0.0
 10
10.3407753881
 20
9.5534874868
 30
0.0
 10
10.3403044737
 20
9.5533779704
 30
0.0
 10
10.3399277454
 20
9.5532903494
 30
0.0
 10
10.339692283
 20
9.5532356042
 30
0.0
 10
10.3395039295
 20
9.553191767
 30
0.0
 10
10.3393626193
 20
9.5531590016
 30
0.0
 10
10.3392450043
 20
9.553131339
 30
0.0
 10
10.3391623922
 20
9.553112678
 30
0.0
 10
10.339115625
 20
9.5531009172
 30
0.0
 10
10.3390793109
 20
9.5530951879
 30
0.0
 10
10.3390477318
 20
9.5530776421
 30
0.0
 10
10.3390039748
 20
9.5530583694
 30
0.0
 10
10.3389281695
 20
9.5530227217
 30
0.0
 10
10.3388194739
 20
9.5529728005
 30
0.0
 10
10.3386892114
 20
9.5529124653
 30
0.0
 10
10.3385154679
 20
9.5528321685
 30
0.0
 10
10.3382983091
 20
9.552731746
 30
0.0
 10
10.3379508436
 20
9.5525710988
 30
0.0
 10
10.3375165156
 20
9.55237028
 30
0.0
 10
10.3369953203
 20
9.5521293016
 30
0.0
 10
10.3364741255
 20
9.5518883221
 30
0.0
 10
10.3357791989
 20
9.5515670165
 30
0.0
 10
10.3349105407
 20
9.5511653844
 30
0.0
 10
10.3338681508
 20
9.5506834259
 30
0.0
 10
10.3324782977
 20
9.5500408145
 30
0.0
 10
10.3307409813
 20
9.5492375502
 30
0.0
 10
10.3286562015
 20
9.5482736332
 30
0.0
 10
10.3265714218
 20
9.5473097161
 30
0.0
 10
10.3244866421
 20
9.546345799
 30
0.0
 10
10.3224018624
 20
9.545381882
 30
0.0
 10
10.3203170827
 20
9.5444179649
 30
0.0
 10
10.318232303
 20
9.5434540478
 30
0.0
 10
10.3161475233
 20
9.5424901308
 30
0.0
 10
10.3140627436
 20
9.5415262137
 30
0.0
 10
10.3123254272
 20
9.5407229495
 30
0.0
 10
10.3109355741
 20
9.5400803381
 30
0.0
 10
10.3098931842
 20
9.5395983796
 30
0.0
 10
10.309024526
 20
9.5391967475
 30
0.0
 10
10.3083295994
 20
9.5388754417
 30
0.0
 10
10.3078084044
 20
9.5386344627
 30
0.0
 10
10.3072872099
 20
9.5383934825
 30
0.0
 10
10.3068528794
 20
9.5381926692
 30
0.0
 10
10.306505419
 20
9.5380320108
 30
0.0
 10
10.3062882471
 20
9.5379316169
 30
0.0
 10
10.3061145306
 20
9.5378512615
 30
0.0
 10
10.3059841855
 20
9.5377911052
 30
0.0
 10
10.3058757485
 20
9.5377406242
 30
0.0
 10
10.3057994815
 20
9.5377059759
 30
0.0
 10
10.3057564641
 20
9.537685102
 30
0.0
 10
10.3057226132
 20
9.5376724745
 30
0.0
 10
10.3056948319
 20
9.5376482726
 30
0.0
 10
10.3056556731
 20
9.5376200407
 30
0.0
 10
10.3055881315
 20
9.5375687539
 30
0.0
 10
10.3054911279
 20
9.5374964703
 30
0.0
 10
10.3053749443
 20
9.5374093092
 30
0.0
 10
10.3052199557
 20
9.5372932414
 30
0.0
 10
10.3050262463
 20
9.5371481062
 30
0.0
 10
10.3047162966
 20
9.5369159181
 30
0.0
 10
10.3043288645
 20
9.5366256733
 30
0.0
 10
10.3038639438
 20
9.5362773837
 30
0.0
 10
10.3033990237
 20
9.535929093
 30
0.0
 10
10.30277913
 20
9.5354647058
 30
0.0
 10
10.302004263
 20
9.5348842217
 30
0.0
 10
10.3010744225
 20
9.5341876407
 30
0.0
 10
10.2998346352
 20
9.5332588661
 30
0.0
 10
10.2982849011
 20
9.5320978979
 30
0.0
 10
10.2964252202
 20
9.530704736
 30
0.0
 10
10.2945655393
 20
9.5293115741
 30
0.0
 10
10.2927058584
 20
9.5279184123
 30
0.0
 10
10.2908461775
 20
9.5265252504
 30
0.0
 10
10.2889864966
 20
9.5251320885
 30
0.0
 10
10.2871268157
 20
9.5237389266
 30
0.0
 10
10.2852671348
 20
9.5223457647
 30
0.0
 10
10.2834074539
 20
9.5209526029
 30
0.0
 10
10.2818577198
 20
9.5197916346
 30
0.0
 10
10.2806179325
 20
9.51886286
 30
0.0
 10
10.279688092
 20
9.5181662791
 30
0.0
 10
10.278913225
 20
9.517585795
 30
0.0
 10
10.2782933314
 20
9.5171214077
 30
0.0
 10
10.277828411
 20
9.5167731174
 30
0.0
 10
10.2773634915
 20
9.5164248262
 30
0.0
 10
10.2769760557
 20
9.5161345862
 30
0.0
 10
10.2766661135
 20
9.5159023884
 30
0.0
 10
10.2764723849
 20
9.5157572781
 30
0.0
 10
10.2763174358
 20
9.5156411592
 30
0.0
 10
10.2762011313
 20
9.5155541541
 30
0.0
 10
10.2761045059
 20
9.5154813823
 30
0.0
 10
10.2760362892
 20
9.5154309671
 30
0.0
 10
10.2759982121
 20
9.5154013385
 30
0.0
 10
10.2759671079
 20
9.5153814269
 30
0.0
 10
10.2759457374
 20
9.5153526858
 30
0.0
 10
10.2759138482
 20
9.5153174441
 30
0.0
 10
10.275859624
 20
9.5152543363
 30
0.0
 10
10.2757813337
 20
9.5151649324
 30
0.0
 10
10.2756877395
 20
9.5150573266
 30
0.0
 10
10.2755628235
 20
9.5149139644
 30
0.0
 10
10.2754067208
 20
9.5147347233
 30
0.0
 10
10.2751569328
 20
9.5144479589
 30
0.0
 10
10.274844706
 20
9.514089496
 30
0.0
 10
10.2744700303
 20
9.5136593438
 30
0.0
 10
10.2740953556
 20
9.5132291907
 30
0.0
 10
10.273595789
 20
9.5126556535
 30
0.0
 10
10.2729713308
 20
9.5119387319
 30
0.0
 10
10.272221981
 20
9.5110784261
 30
0.0
 10
10.2712228478
 20
9.5099313516
 30
0.0
 10
10.2699739314
 20
9.5084975086
 30
0.0
 10
10.2684752317
 20
9.5067768969
 30
0.0
 10
10.266976532
 20
9.5050562852
 30
0.0
 10
10.2654778323
 20
9.5033356735
 30
0.0
 10
10.2639791326
 20
9.5016150618
 30
0.0
 10
10.2624804329
 20
9.4998944501
 30
0.0
 10
10.2609817332
 20
9.4981738384
 30
0.0
 10
10.2594830335
 20
9.4964532267
 30
0.0
 10
10.2579843338
 20
9.494732615
 30
0.0
 10
10.2567354174
 20
9.4932987719
 30
0.0
 10
10.2557362843
 20
9.4921516974
 30
0.0
 10
10.2549869344
 20
9.4912913916
 30
0.0
 10
10.2543624762
 20
9.4905744701
 30
0.0
 10
10.2538629097
 20
9.4900009328
 30
0.0
 10
10.2534882345
 20
9.48957078
 30
0.0
 10
10.2531135604
 20
9.4891406265
 30
0.0
 10
10.2528013289
 20
9.4887821675
 30
0.0
 10
10.2525515505
 20
9.4884953952
 30
0.0
 10
10.2523954234
 20
9.4883161742
 30
0.0
 10
10.2522705576
 20
9.4881727708
 30
0.0
 10
10.2521768099
 20
9.4880652909
 30
0.0
 10
10.2520989997
 20
9.4879754931
 30
0.0
 10
10.2520439185
 20
9.4879130884
 30
0.0
 10
10.2520134024
 20
9.4878767201
 30
0.0
 10
10.2519878141
 20
9.4878514396
 30
0.0
 10
10.2519725514
 20
9.4878185306
 30
0.0
 10
10.2519485994
 20
9.4877773128
 30
0.0
 10
10.2519083615
 20
9.4877039419
 30
0.0
 10
10.2518500015
 20
9.4875997746
 30
0.0
 10
10.251780345
 20
9.4874744963
 30
0.0
 10
10.2516873385
 20
9.4873075555
 30
0.0
 10
10.2515711253
 20
9.4870988463
 30
0.0
 10
10.2513851591
 20
9.4867649301
 30
0.0
 10
10.25115271
 20
9.4863475286
 30
0.0
 10
10.2508737673
 20
9.4858466494
 30
0.0
 10
10.2505948257
 20
9.4853457695
 30
0.0
 10
10.2502229031
 20
9.48467793
 30
0.0
 10
10.249758
 20
9.4838431304
 30
0.0
 10
10.2492001162
 20
9.482841371
 30
0.0
 10
10.2484562712
 20
9.4815056917
 30
0.0
 10
10.2475264649
 20
9.4798360926
 30
0.0
 10
10.2464106974
 20
9.4778325737
 30
0.0
 10
10.2452949299
 20
9.4758290549
 30
0.0
 10
10.2441791624
 20
9.473825536
 30
0.0
 10
10.2430633949
 20
9.4718220171
 30
0.0
 10
10.2419476273
 20
9.4698184982
 30
0.0
 10
10.2408318598
 20
9.4678149793
 30
0.0
 10
10.2397160923
 20
9.4658114604
 30
0.0
 10
10.2386003248
 20
9.4638079415
 30
0.0
 10
10.2376705185
 20
9.4621383425
 30
0.0
 10
10.2369266735
 20
9.4608026632
 30
0.0
 10
10.2363687898
 20
9.4598009038
 30
0.0
 10
10.2359038866
 20
9.4589661042
 30
0.0
 10
10.2355319642
 20
9.4582982646
 30
0.0
 10
10.2352530221
 20
9.457797385
 30
0.0
 10
10.234974081
 20
9.4572965048
 30
0.0
 10
10.2347416268
 20
9.4568791064
 30
0.0
 10
10.234555671
 20
9.4565451839
 30
0.0
 10
10.2344394313
 20
9.4563364908
 30
0.0
 10
10.2343464793
 20
9.4561695169
 30
0.0
 10
10.2342766561
 20
9.4560443396
 30
0.0
 10
10.2342188178
 20
9.4559398563
 30
0.0
 10
10.2341776487
 20
9.4558670494
 30
0.0
 10
10.2341551888
 20
9.4558249281
 30
0.0
 10
10.2341353428
 20
9.4557947944
 30
0.0
 10
10.2341269684
 20
9.4557590901
 30
0.0
 10
10.2341118011
 20
9.4557134274
 30
0.0
 10
10.2340871227
 20
9.4556326124
 30
0.0
 10
10.2340508932
 20
9.4555176357
 30
0.0
 10
10.2340078349
 20
9.455379461
 30
0.0
 10
10.2339502782
 20
9.4551952989
 30
0.0
 10
10.2338783822
 20
9.454965072
 30
0.0
 10
10.2337633207
 20
9.4545967226
 30
0.0
 10
10.2336195033
 20
9.4541362812
 30
0.0
 10
10.2334469184
 20
9.4535837534
 30
0.0
 10
10.2332743346
 20
9.4530312251
 30
0.0
 10
10.2330442225
 20
9.4522945209
 30
0.0
 10
10.2327565825
 20
9.4513736407
 30
0.0
 10
10.2324114145
 20
9.4502685843
 30
0.0
 10
10.2319511904
 20
9.4487951759
 30
0.0
 10
10.2313759103
 20
9.4469534153
 30
0.0
 10
10.2306855742
 20
9.4447433027
 30
0.0
 10
10.2299952381
 20
9.44253319
 30
0.0
 10
10.229304902
 20
9.4403230773
 30
0.0
 10
10.2286145659
 20
9.4381129647
 30
0.0
 10
10.2279242298
 20
9.435902852
 30
0.0
 10
10.2272338937
 20
9.4336927393
 30
0.0
 10
10.2265435576
 20
9.4314826267
 30
0.0
 10
10.2258532215
 20
9.429272514
 30
0.0
 10
10.2252779415
 20
9.4274307535
 30
0.0
 10
10.2248177174
 20
9.425957345
 30
0.0
 10
10.2244725494
 20
9.4248522887
 30
0.0
 10
10.2241849093
 20
9.4239314084
 30
0.0
 10
10.2239547973
 20
9.4231947042
 30
0.0
 10
10.2237822131
 20
9.4226421761
 30
0.0
 10
10.2236096299
 20
9.4220896476
 30
0.0
 10
10.2234658071
 20
9.4216292085
 30
0.0
 10
10.2233507569
 20
9.4212608543
 30
0.0
 10
10.223278832
 20
9.4210306396
 30
0.0
 10
10.2232213345
 20
9.4208464524
 30
0.0
 10
10.2231780953
 20
9.4207083544
 30
0.0
 10
10.2231424318
 20
9.4205931381
 30
0.0
 10
10.223116743
 20
9.4205127507
 30
0.0
 10
10.2231031947
 20
9.4204664028
 30
0.0
 10
10.2230898474
 20
9.4204328033
 30
0.0
 10
10.2230886787
 20
9.4203947643
 30
0.0
 10
10.2230828725
 20
9.4203455943
 30
0.0
 10
10.2230746908
 20
9.4202588252
 30
0.0
 10
10.2230619679
 20
9.4201352466
 30
0.0
 10
10.2230471433
 20
9.4199867908
 30
0.0
 10
10.2230272225
 20
9.4197889061
 30
0.0
 10
10.2230023745
 20
9.4195415309
 30
0.0
 10
10.222962588
 20
9.4191457415
 30
0.0
 10
10.2229128651
 20
9.418651001
 30
0.0
 10
10.2228531933
 20
9.4180573139
 30
0.0
 10
10.2227935226
 20
9.4174636265
 30
0.0
 10
10.2227139613
 20
9.4166720433
 30
0.0
 10
10.2226145098
 20
9.4156825644
 30
0.0
 10
10.2224951679
 20
9.4144951896
 30
0.0
 10
10.2223360454
 20
9.4129120233
 30
0.0
 10
10.2221371424
 20
9.4109330654
 30
0.0
 10
10.2218984587
 20
9.4085583159
 30
0.0
 10
10.221659775
 20
9.4061835664
 30
0.0
 10
10.2214210913
 20
9.4038088169
 30
0.0
 10
10.2211824076
 20
9.4014340674
 30
0.0
 10
10.2209437239
 20
9.3990593179
 30
0.0
 10
10.2207050402
 20
9.3966845684
 30
0.0
 10
10.2204663565
 20
9.3943098189
 30
0.0
 10
10.2202276728
 20
9.3919350694
 30
0.0
 10
10.2200287697
 20
9.3899561115
 30
0.0
 10
10.2198696472
 20
9.3883729451
 30
0.0
 10
10.2197503054
 20
9.3871855704
 30
0.0
 10
10.2196508538
 20
9.3861960914
 30
0.0
 10
10.2195712927
 20
9.3854045083
 30
0.0
 10
10.2195116215
 20
9.3848108209
 30
0.0
 10
10.2194519515
 20
9.3842171335
 30
0.0
 10
10.2194022228
 20
9.383722394
 30
0.0
 10
10.2193624482
 20
9.3833266025
 30
0.0
 10
10.2193375699
 20
9.3830792325
 30
0.0
 10
10.2193177113
 20
9.3828813373
 30
0.0
 10
10.2193026968
 20
9.3827329136
 30
0.0
 10
10.2192905681
 20
9.3826092345
 30
0.0
 10
10.2192813256
 20
9.3825226448
 30
0.0
 10
10.2192772189
 20
9.3824731873
 30
0.0
 10
10.2192708298
 20
9.3824360315
 30
0.0
 10
10.2192770896
 20
9.3823991151
 30
0.0
 10
10.2192810239
 20
9.3823498098
 30
0.0
 10
10.2192899647
 20
9.3822635644
 30
0.0
 10
10.2193016624
 20
9.3821403363
 30
0.0
 10
10.2193161597
 20
9.3819924713
 30
0.0
 10
10.2193353288
 20
9.3817953149
 30
0.0
 10
10.2193593451
 20
9.3815488705
 30
0.0
 10
10.2193977405
 20
9.3811545589
 30
0.0
 10
10.2194457453
 20
9.3806616696
 30
0.0
 10
10.2195033465
 20
9.3800702023
 30
0.0
 10
10.219560949
 20
9.379478735
 30
0.0
 10
10.2196377518
 20
9.378690112
 30
0.0
 10
10.2197337555
 20
9.3777043332
 30
0.0
 10
10.2198489598
 20
9.3765213987
 30
0.0
 10
10.2200025657
 20
9.3749441526
 30
0.0
 10
10.220194573
 20
9.372972595
 30
0.0
 10
10.2204249817
 20
9.3706067259
 30
0.0
 10
10.2206553905
 20
9.3682408568
 30
0.0
 10
10.2208857992
 20
9.3658749878
 30
0.0
 10
10.221116208
 20
9.3635091187
 30
0.0
 10
10.2213466167
 20
9.3611432496
 30
0.0
 10
10.2215770255
 20
9.3587773805
 30
0.0
 10
10.2218074342
 20
9.3564115114
 30
0.0
 10
10.222037843
 20
9.3540456423
 30
0.0
 10
10.2222298502
 20
9.3520740847
 30
0.0
 10
10.2223834561
 20
9.3504968387
 30
0.0
 10
10.2224986605
 20
9.3493139041
 30
0.0
 10
10.2225946641
 20
9.3483281253
 30
0.0
 10
10.2226714671
 20
9.3475395023
 30
0.0
 10
10.222729069
 20
9.346948035
 30
0.0
 10
10.2227866721
 20
9.3463565679
 30
0.0
 10
10.2228346711
 20
9.3458636781
 30
0.0
 10
10.2228730784
 20
9.3454693673
 30
0.0
 10
10.2228970644
 20
9.3452229207
 30
0.0
 10
10.2229162957
 20
9.3450257689
 30
0.0
 10
10.222930603
 20
9.3448778901
 30
0.0
 10
10.2229428951
 20
9.3447547053
 30
0.0
 10
10.2229507747
 20
9.3446683826
 30
0.0
 10
10.2229564093
 20
9.344619201
 30
0.0
 10
10.2229574464
 20
9.3445819046
 30
0.0
 10
10.2229706727
 20
9.3445461763
 30
0.0
 10
10.222984056
 20
9.3444979917
 30
0.0
 10
10.2230094578
 20
9.3444139233
 30
0.0
 10
10.2230447103
 20
9.3442936925
 30
0.0
 10
10.2230874567
 20
9.3441494725
 30
0.0
 10
10.223144297
 20
9.3439571593
 30
0.0
 10
10.2232154004
 20
9.3437167745
 30
0.0
 10
10.2233291362
 20
9.3433321552
 30
0.0
 10
10.2234713162
 20
9.3428513823
 30
0.0
 10
10.2236419278
 20
9.3422744543
 30
0.0
 10
10.2238125406
 20
9.3416975264
 30
0.0
 10
10.2240400238
 20
9.3409282891
 30
0.0
 10
10.224324378
 20
9.3399667426
 30
0.0
 10
10.2246656031
 20
9.3388128868
 30
0.0
 10
10.2251205698
 20
9.3372744123
 30
0.0
 10
10.2256892781
 20
9.3353513193
 30
0.0
 10
10.2263717282
 20
9.3330436076
 30
0.0
 10
10.2270541782
 20
9.3307358959
 30
0.0
 10
10.2277366283
 20
9.3284281842
 30
0.0
 10
10.2284190783
 20
9.3261204726
 30
0.0
 10
10.2291015283
 20
9.3238127609
 30
0.0
 10
10.2297839784
 20
9.3215050492
 30
0.0
 10
10.2304664284
 20
9.3191973375
 30
0.0
 10
10.2311488785
 20
9.3168896259
 30
0.0
 10
10.2317175869
 20
9.3149665328
 30
0.0
 10
10.2321725535
 20
9.3134280584
 30
0.0
 10
10.2325137786
 20
9.3122742025
 30
0.0
 10
10.2327981327
 20
9.311312656
 30
0.0
 10
10.2330256162
 20
9.3105434188
 30
0.0
 10
10.2331962284
 20
9.3099664908
 30
0.0
 10
10.2333668418
 20
9.3093895632
 30
0.0
 10
10.2335090162
 20
9.308908789
 30
0.0
 10
10.2336227634
 20
9.3085241723
 30
0.0
 10
10.2336938379
 20
9.3082837808
 30
0.0
 10
10.2337507375
 20
9.3080914814
 30
0.0
 10
10.2337933028
 20
9.3079472193
 30
0.0
 10
10.233829122
 20
9.3078271202
 30
0.0
 10
10.2338535122
 20
9.3077428166
 30
0.0
 10
10.2338685163
 20
9.3076950089
 30
0.0
 10
10.233876764
 20
9.3076581228
 30
0.0
 10
10.2338964998
 20
9.3076251751
 30
0.0
 10
10.2339188071
 20
9.307579871
 30
0.0
 10
10.2339597119
 20
9.3075012289
 30
0.0
 10
10.2340171712
 20
9.3073885485
 30
0.0
 10
10.2340865401
 20
9.3072534753
 30
0.0
 10
10.2341788861
 20
9.3070733276
 30
0.0
 10
10.2342943685
 20
9.30684816
 30
0.0
 10
10.2344791125
 20
9.3064878825
 30
0.0
 10
10.2347100521
 20
9.3060375387
 30
0.0
 10
10.2349871755
 20
9.3054971249
 30
0.0
 10
10.2352643
 20
9.3049567114
 30
0.0
 10
10.2356337989
 20
9.30423616
 30
0.0
 10
10.2360956727
 20
9.3033354707
 30
0.0
 10
10.2366499212
 20
9.3022546436
 30
0.0
 10
10.2373889193
 20
9.3008135408
 30
0.0
 10
10.2383126668
 20
9.2990121622
 30
0.0
 10
10.2394211638
 20
9.296850508
 30
0.0
 10
10.2405296609
 20
9.2946888538
 30
0.0
 10
10.2416381579
 20
9.2925271995
 30
0.0
 10
10.2427466549
 20
9.2903655453
 30
0.0
 10
10.243855152
 20
9.2882038911
 30
0.0
 10
10.244963649
 20
9.2860422368
 30
0.0
 10
10.246072146
 20
9.2838805826
 30
0.0
 10
10.247180643
 20
9.2817189284
 30
0.0
 10
10.2481043906
 20
9.2799175498
 30
0.0
 10
10.2488433886
 20
9.278476447
 30
0.0
 10
10.2493976371
 20
9.2773956199
 30
0.0
 10
10.2498595108
 20
9.2764949306
 30
0.0
 10
10.2502290099
 20
9.2757743792
 30
0.0
 10
10.250506134
 20
9.2752339656
 30
0.0
 10
10.2507832591
 20
9.2746935524
 30
0.0
 10
10.2510141933
 20
9.2742432065
 30
0.0
 10
10.2511989482
 20
9.2738829334
 30
0.0
 10
10.251314403
 20
9.2736577546
 30
0.0
 10
10.2514068057
 20
9.27347763
 30
0.0
 10
10.2514760014
 20
9.2733424861
 30
0.0
 10
10.2515340026
 20
9.2732300267
 30
0.0
 10
10.25157394
 20
9.2731509901
 30
0.0
 10
10.2515977972
 20
9.2731063182
 30
0.0
 10
10.2516127723
 20
9.2730714287
 30
0.0
 10
10.2516389008
 20
9.2730418354
 30
0.0
 10
10.2516698484
 20
9.2730005304
 30
0.0
 10
10.2517258192
 20
9.2729291072
 30
0.0
 10
10.25180483
 20
9.2728266242
 30
0.0
 10
10.2519000485
 20
9.2727038371
 30
0.0
 10
10.2520268648
 20
9.2725400538
 30
0.0
 10
10.2521854338
 20
9.2723353476
 30
0.0
 10
10.2524391169
 20
9.2720078049
 30
0.0
 10
10.2527562302
 20
9.2715983809
 30
0.0
 10
10.2531367622
 20
9.2711070703
 30
0.0
 10
10.2535172952
 20
9.2706157601
 30
0.0
 10
10.2540246722
 20
9.2699606797
 30
0.0
 10
10.2546588936
 20
9.2691418293
 30
0.0
 10
10.2554199591
 20
9.2681592087
 30
0.0
 10
10.2564347133
 20
9.266849048
 30
0.0
 10
10.2577031559
 20
9.2652113471
 30
0.0
 10
10.2592252871
 20
9.2632461061
 30
0.0
 10
10.2607474183
 20
9.261280865
 30
0.0
 10
10.2622695495
 20
9.2593156239
 30
0.0
 10
10.2637916807
 20
9.2573503829
 30
0.0
 10
10.2653138119
 20
9.2553851418
 30
0.0
 10
10.2668359431
 20
9.2534199007
 30
0.0
 10
10.2683580743
 20
9.2514546597
 30
0.0
 10
10.2698802054
 20
9.2494894186
 30
0.0
 10
10.2711486481
 20
9.2478517177
 30
0.0
 10
10.2721634022
 20
9.246541557
 30
0.0
 10
10.2729244678
 20
9.2455589365
 30
0.0
 10
10.2735586891
 20
9.244740086
 30
0.0
 10
10.2740660663
 20
9.2440850057
 30
0.0
 10
10.2744465989
 20
9.2435936952
 30
0.0
 10
10.2748271323
 20
9.2431023857
 30
0.0
 10
10.275144241
 20
9.2426929583
 30
0.0
 10
10.2753979335
 20
9.2423654225
 30
0.0
 10
10.2755564789
 20
9.2421606987
 30
0.0
 10
10.2756833436
 20
9.2419969516
 30
0.0
 10
10.2757784144
 20
9.2418740539
 30
0.0
 10
10.2758578872
 20
9.241771917
 30
0.0
 10
10.2759130332
 20
9.2416998759
 30
0.0
 10
10.2759453025
 20
9.241659561
 30
0.0
 10
10.2759673711
 20
9.2416269263
 30
0.0
 10
10.2759975943
 20
9.2416034598
 30
0.0
 10
10.2760350475
 20
9.2415689732
 30
0.0
 10
10.2761019158
 20
9.2415101116
 30
0.0
 10
10.2761967491
 20
9.2414252447
 30
0.0
 10
10.2763108457
 20
9.2413237378
 30
0.0
 10
10.2764628708
 20
9.2411882788
 30
0.0
 10
10.2766529378
 20
9.2410189949
 30
0.0
 10
10.276957025
 20
9.2407481185
 30
0.0
 10
10.2773371408
 20
9.2404095305
 30
0.0
 10
10.2777932769
 20
9.2400032217
 30
0.0
 10
10.2782494138
 20
9.2395969138
 30
0.0
 10
10.2788575961
 20
9.2390551696
 30
0.0
 10
10.279617824
 20
9.2383779894
 30
0.0
 10
10.2805300974
 20
9.2375653732
 30
0.0
 10
10.281746462
 20
9.2364818849
 30
0.0
 10
10.2832669177
 20
9.2351275245
 30
0.0
 10
10.2850914646
 20
9.2335022921
 30
0.0
 10
10.2869160115
 20
9.2318770596
 30
0.0
 10
10.2887405583
 20
9.2302518271
 30
0.0
 10
10.2905651052
 20
9.2286265947
 30
0.0
 10
10.2923896521
 20
9.2270013622
 30
0.0
 10
10.294214199
 20
9.2253761298
 30
0.0
 10
10.2960387458
 20
9.2237508973
 30
0.0
 10
10.2978632927
 20
9.2221256649
 30
0.0
 10
10.2993837484
 20
9.2207713045
 30
0.0
 10
10.300600113
 20
9.2196878162
 30
0.0
 10
10.3015123865
 20
9.2188752
 30
0.0
 10
10.3022726143
 20
9.2181980197
 30
0.0
 10
10.3028807966
 20
9.2176562757
 30
0.0
 10
10.3033369332
 20
9.2172499673
 30
0.0
 10
10.3037930705
 20
9.21684366
 30
0.0
 10
10.3041731828
 20
9.2165050676
 30
0.0
 10
10.3044772772
 20
9.2162342002
 30
0.0
 10
10.3046673258
 20
9.2160648931
 30
0.0
 10
10.3048193886
 20
9.2159294818
 30
0.0
 10
10.3049333699
 20
9.2158278294
 30
0.0
 10
10.3050285639
 20
9.2157434175
 30
0.0
 10
10.3050947885
 20
9.2156837436
 30
0.0
 10
10.3051332731
 20
9.2156505586
 30
0.0
 10
10.3051603281
 20
9.215623094
 30
0.0
 10
10.3051942956
 20
9.2156054756
 30
0.0
 10
10.3052371745
 20
9.21557855
 30
0.0
 10
10.3053133359
 20
9.2155330303
 30
0.0
 10
10.3054215505
 20
9.2154671656
 30
0.0
 10
10.3055516595
 20
9.215388486
 30
0.0
 10
10.3057250503
 20
9.2152834548
 30
0.0
 10
10.3059418189
 20
9.2151522087
 30
0.0
 10
10.3062886319
 20
9.2149421909
 30
0.0
 10
10.3067221538
 20
9.2146796769
 30
0.0
 10
10.3072423777
 20
9.2143646566
 30
0.0
 10
10.3077626023
 20
9.2140496373
 30
0.0
 10
10.3084562348
 20
9.2136296111
 30
0.0
 10
10.3093232755
 20
9.2131045785
 30
0.0
 10
10.3103637243
 20
9.2124745394
 30
0.0
 10
10.3117509894
 20
9.2116344872
 30
0.0
 10
10.3134850707
 20
9.210584422
 30
0.0
 10
10.3155659683
 20
9.2093243438
 30
0.0
 10
10.317646866
 20
9.2080642655
 30
0.0
 10
10.3197277636
 20
9.2068041872
 30
0.0
 10
10.3218086612
 20
9.205544109
 30
0.0
 10
10.3238895589
 20
9.2042840307
 30
0.0
 10
10.3259704565
 20
9.2030239525
 30
0.0
 10
10.3280513541
 20
9.2017638742
 30
0.0
 10
10.3301322517
 20
9.2005037959
 30
0.0
 10
10.3318663331
 20
9.1994537307
 30
0.0
 10
10.3332535982
 20
9.1986136786
 30
0.0
 10
10.334294047
 20
9.1979836394
 30
0.0
 10
10.3351610877
 20
9.1974586068
 30
0.0
 10
10.3358547202
 20
9.1970385808
 30
0.0
 10
10.3363749445
 20
9.196723561
 30
0.0
 10
10.3368951693
 20
9.1964085423
 30
0.0
 10
10.3373286885
 20
9.1961460233
 30
0.0
 10
10.3376755071
 20
9.1959360156
 30
0.0
 10
10.3378922614
 20
9.1958047439
 30
0.0
 10
10.3380656815
 20
9.1956997653
 30
0.0
 10
10.3381957011
 20
9.1956209252
 30
0.0
 10
10.3383041955
 20
9.1955555627
 30
0.0
 10
10.3383798575
 20
9.1955091464
 30
0.0
 10
10.3384235364
 20
9.1954836574
 30
0.0
 10
10.3384550464
 20
9.1954616262
 30
0.0
 10
10.3384913315
 20
9.1954507354
 30
0.0
 10
10.338538046
 20
9.1954323285
 30
0.0
 10
10.3386205725
 20
9.1954019268
 30
0.0
 10
10.3387380618
 20
9.1953575494
 30
0.0
 10
10.3388792225
 20
9.1953047016
 30
0.0
 10
10.3390673762
 20
9.1952340963
 30
0.0
 10
10.3393025891
 20
9.1951458883
 30
0.0
 10
10.339678918
 20
9.1950047282
 30
0.0
 10
10.3401493333
 20
9.1948282875
 30
0.0
 10
10.3407138298
 20
9.1946165547
 30
0.0
 10
10.3412783268
 20
9.1944048229
 30
0.0
 10
10.3420309893
 20
9.1941225134
 30
0.0
 10
10.3429718175
 20
9.1937696268
 30
0.0
 10
10.3441008113
 20
9.1933461627
 30
0.0
 10
10.3456061364
 20
9.192781544
 30
0.0
 10
10.3474877928
 20
9.1920757706
 30
0.0
 10
10.3497457804
 20
9.1912288425
 30
0.0
 10
10.3520037681
 20
9.1903819145
 30
0.0
 10
10.3542617557
 20
9.1895349864
 30
0.0
 10
10.3565197433
 20
9.1886880583
 30
0.0
 10
10.358777731
 20
9.1878411303
 30
0.0
 10
10.3610357186
 20
9.1869942022
 30
0.0
 10
10.3632937062
 20
9.1861472741
 30
0.0
 10
10.3655516939
 20
9.185300346
 30
0.0
 10
10.3674333502
 20
9.1845945726
 30
0.0
 10
10.3689386753
 20
9.1840299539
 30
0.0
 10
10.3700676691
 20
9.1836064899
 30
0.0
 10
10.3710084973
 20
9.1832536032
 30
0.0
 10
10.3717611599
 20
9.1829712939
 30
0.0
 10
10.3723256567
 20
9.1827595616
 30
0.0
 10
10.3728901539
 20
9.1825478305
 30
0.0
 10
10.3733605671
 20
9.1823713844
 30
0.0
 10
10.3737369001
 20
9.1822302354
 30
0.0
 10
10.3739721028
 20
9.1821419992
 30
0.0
 10
10.3741602774
 20
9.1820714517
 30
0.0
 10
10.3743013742
 20
9.1820184274
 30
0.0
 10
10.3744190637
 20
9.1819746021
 30
0.0
 10
10.3745012326
 20
9.1819432149
 30
0.0
 10
10.3745485201
 20
9.1819263871
 30
0.0
 10
10.3745830453
 20
9.1819106455
 30
0.0
 10
10.3746211653
 20
9.1819068332
 30
0.0
 10
10.374670738
 20
9.1818975891
 30
0.0
 10
10.3747580745
 20
9.1818833506
 30
0.0
 10
10.3748825355
 20
9.1818619963
 30
0.0
 10
10.3750320195
 20
9.181836805
 30
0.0
 10
10.3752312858
 20
9.181803065
 30
0.0
 10
10.3754803842
 20
9.1817609419
 30
0.0
 10
10.3758789331
 20
9.181693516
 30
0.0
 10
10.3763771221
 20
9.1816092436
 30
0.0
 10
10.3769749477
 20
9.1815081124
 30
0.0
 10
10.3775727736
 20
9.1814069824
 30
0.0
 10
10.3783698747
 20
9.1812721419
 30
0.0
 10
10.3793662511
 20
9.1811035915
 30
0.0
 10
10.3805619027
 20
9.1809013309
 30
0.0
 10
10.3821561049
 20
9.1806316501
 30
0.0
 10
10.3841488577
 20
9.1802945492
 30
0.0
 10
10.386540161
 20
9.179890028
 30
0.0
 10
10.3889314644
 20
9.1794855069
 30
0.0
 10
10.3913227677
 20
9.1790809857
 30
0.0
 10
10.3945111721
 20
9.1785416242
 30
0.0
 10
10.3984966777
 20
9.1778674223
 30
0.0
 10
10.4032792843
 20
9.17705838
 30
0.0
 10
10.408061891
 20
9.1762493377
 30
0.0
 10
10.4112502954
 20
9.1757099762
 30
0.0
 10
10.4128444976
 20
9.1754402954
 30
0.0
  0
ENDSEC
  0
SECTION
  2
OBJECTS
  0
DICTIONARY
  5
C
100
AcDbDictionary
280
0
281
1
  3
ACAD_GROUP
350
D
  3
ACAD_MLINESTYLE
350
17
  3
ACAD_LAYOUT
350
1A
  3
ACAD_PLOTSETTINGS
350
19
  3
ACAD_PLOTSTYLENAME
350
E
  3
ACAD_IMAGE_DICT
350
       396
  3
ACAD_IMAGE_VARS
350
       397
  3
ACAD_TABLESTYLE
350
       398
  0
IMAGEDEF_REACTOR
  5
395
100
AcDbRasterImageDefReactor
 90
2
330
293
  0
DICTIONARY
  5
D
102
{ACAD_REACTORS
330
C
102
}
100
AcDbDictionary
280
0
281
1
  0
ACDBDICTIONARYWDFLT
  5
E
102
{ACAD_REACTORS
330
C
102
}
100
AcDbDictionary
281
1
  3
Normal
350
F
100
AcDbDictionaryWithDefault
340
F
  0
DICTIONARY
  5
396
330
C
100
AcDbDictionary
281
1
  3
E6V_assy_2_img_1
350
       39B
  0
RASTERVARIABLES
  5
397
330
C
100
AcDbRasterVariables
 90
0
 70
0
 71
1
 72
5
  0
DICTIONARY
  5
17
102
{ACAD_REACTORS
330
C
102
}
100
AcDbDictionary
280
0
281
1
  3
Standard
350
18
  0
DICTIONARY
  5
398
330
C
100
AcDbDictionary
281
1
  3
Standard
350
       39C
  3
Standard1
350
       39D
  0
DICTIONARY
  5
19
102
{ACAD_REACTORS
330
C
102
}
100
AcDbDictionary
281
1
  0
DICTIONARY
  5
1A
102
{ACAD_REACTORS
330
C
102
}
100
AcDbDictionary
281
1
  3
Model
350
399
  3
Layout1
350
39A
  0
ACDBPLACEHOLDER
  5
F
102
{ACAD_REACTORS
330
E
102
}
  0
MLINESTYLE
  5
18
102
{ACAD_REACTORS
330
17
102
}
100
AcDbMlineStyle
  2
STANDARD
 70
0
  3

 62
256
 51
90.0
 52
90.0
 71
2
 49
0.5
 62
256
  6
BYLAYER
 49
-0.5
 62
256
  6
BYLAYER
  0
LAYOUT
  5
399
102
{ACAD_REACTORS
330
1A
102
}
100
AcDbPlotSettings
  1

  2
none_device
  4
ANSI_C_(22.00_x_17.00_Inches)
  6

 40
0.0
 41
0.0
 42
0.0
 43
0.0
 44
558.8
 45
431.8
 46
0.0
 47
0.0
 48
0.0
 49
0.0
140
0.0
141
0.0
142
1.0
143
1.0
 70
1024
 72
0
 73
0
 74
0
  7

 75
0
147
1.0
148
0.0
149
0.0
100
AcDbLayout
  1
Model
 70
0
 71
0
 10
0.0
 20
0.0
 11
22.0
 21
17.0
 12
0.0
 22
0.0
 32
0.0
 14
0.0
 24
0.0
 34
0.0
 15
0.0
 25
0.0
 35
0.0
146
0.0
 13
0.0
 23
0.0
 33
0.0
 16
1.0
 26
0.0
 36
0.0
 17
0.0
 27
1.0
 37
0.0
 76
0
330
20C
345
0
346
0
  0
LAYOUT
  5
39A
102
{ACAD_REACTORS
330
1A
102
}
100
AcDbPlotSettings
  1

  2
none_device
  4
ANSI_C_(22.00_x_17.00_Inches)
  6

 40
0.0
 41
0.0
 42
0.0
 43
0.0
 44
558.8
 45
431.8
 46
0.0
 47
0.0
 48
0.0
 49
0.0
140
0.0
141
0.0
142
1.0
143
1.0
 70
0
 72
0
 73
0
 74
0
  7

 75
0
147
1.0
148
0.0
149
0.0
100
AcDbLayout
  1
Layout1
 70
0
 71
1
 10
0.0
 20
0.0
 11
22.0
 21
17.0
 12
0.0
 22
0.0
 32
0.0
 14
0.0
 24
0.0
 34
0.0
 15
0.0
 25
0.0
 35
0.0
146
0.0
 13
0.0
 23
0.0
 33
0.0
 16
1.0
 26
0.0
 36
0.0
 17
0.0
 27
1.0
 37
0.0
 76
0
330
20D
345
0
346
0
  0
IMAGEDEF
  5
39B
102
{ACAD_REACTORS
330
396
330
395
102
}
100
AcDbRasterImageDef
 90
0
  1
E6V_assy_2_img_1.png
 10
369.0
 20
92.0
 11
0.0066666667
 21
0.0066666667
280
1
281
0
  0
TABLESTYLE
  5
39C
102
{ACAD_REACTORS
330
398
330
296
330
297
102
}
330
398
100
AcDbTableStyle
  3
Standard
 70
0
 71
0
 40
0.06
 41
0.06
280
1
281
1
  7
Standard
140
0.18
170
1
 62
0
 63
7
283
0
  7
Standard
140
0.18
170
1
 62
0
 63
7
283
0
  7
Standard
140
0.18
170
1
 62
0
 63
7
283
0
  0
TABLESTYLE
  5
39D
102
{ACAD_REACTORS
330
398
330
295
102
}
330
398
100
AcDbTableStyle
  3
Standard1
 70
1
 71
0
 40
0.06
 41
0.06
280
1
281
1
  7
Standard
140
0.18
170
1
 62
0
 63
7
283
0
  7
Standard
140
0.18
170
1
 62
0
 63
7
283
0
  7
Standard
140
0.18
170
1
 62
0
 63
7
283
0
  0
ENDSEC
  0
EOF
