999
DXF file: E6U_assy_2.dxf
999
Pro/ENGINEER 2014200 by Parametric Technology Corporation
  0
SECTION
  2
HEADER
  9
$ACADVER
  1
AC1021
  9
$DWGCODEPAGE
  3
ANSI_1252
  9
$EXTMAX
 10
22.0
 20
17.0
 30
0.0
  9
$EXTMIN
 10
0.0
 20
0.0
 30
0.0
  9
$LIMMIN
 10
0.0
 20
0.0
  9
$LIMMAX
 10
22.0
 20
17.0
  9
$VIEWCTR
 10
11.0
 20
8.5
  9
$VIEWSIZE
 40
17.0
  9
$CLAYER
  8
0
  9
$LTSCALE
 40
1.21
  9
$CELTYPE
  6
BYLAYER
  9
$DIMSCALE
 40
1.0
  9
$DIMASZ
 40
0.1875
  9
$DIMEXO
 40
0.0625
  9
$DIMDLI
 40
0.836
  9
$DIMEXE
 40
0.125
  9
$DIMCEN
 40
0.198
  9
$DIMLFAC
 40
1.0
  9
$DIMBLK
  1
_FILLED
  9
$DIMTXT
 40
0.1
  9
$DIMTOL
 70
0
  9
$DIMLIM
 70
0
  9
$DIMTFAC
 40
1.0
  9
$DIMGAP
 40
0.09
  9
$DIMDSEP
 70
46
  9
$AUNITS
 70
0
  9
$PDMODE
 70
3
  9
$PDSIZE
 40
0.3125
  9
$HANDSEED
  5
3A2
  9
$TILEMODE
 70
1
  9
$MEASUREMENT
 70
0
  9
$INSUNITS
 70
1
  0
ENDSEC
  0
SECTION
  2
CLASSES
  0
CLASS
  1
ACDBDICTIONARYWDFLT
  2
AcDbDictionaryWithDefault
  3
AutoCAD 2000
 90
0
 91
1
280
0
281
0
  0
CLASS
  1
ACDBPLACEHOLDER
  2
AcDbPlaceHolder
  3
AutoCAD 2000
 90
0
 91
1
280
0
281
0
  0
CLASS
  1
LAYOUT
  2
AcDbLayout
  3
AutoCAD 2000
 90
0
 91
0
280
0
281
0
  0
CLASS
  1
RASTERVARIABLES
  2
AcDbRasterVariables
  3
ISM
 90
0
 91
1
280
0
281
0
  0
CLASS
  1
IMAGEDEF
  2
AcDbRasterImageDef
  3
ISM
 90
0
 91
1
280
0
281
0
  0
CLASS
  1
IMAGEDEF_REACTOR
  2
AcDbRasterImageDefReactor
  3
ISM
 90
0
 91
1
280
0
281
0
  0
CLASS
  1
IMAGE
  2
AcDbRasterImage
  3
ISM
 90
127
 91
1
280
0
281
1
  0
CLASS
  1
TABLESTYLE
  2
AcDbTableStyle
  3
ObjectDBX Classes
 90
2047
 91
1
280
0
281
0
  0
CLASS
  1
ACAD_TABLE
  2
AcDbTable
  3
ObjectDBX Classes
 90
1025
 91
3
280
0
281
1
  0
ENDSEC
  0
SECTION
  2
TABLES
  0
TABLE
  2
VPORT
  5
8
100
AcDbSymbolTable
 70
2
  0
VPORT
  5
1F4
100
AcDbSymbolTableRecord
100
AcDbViewportTableRecord
  2
*ACTIVE
 70
0
 10
0.0
 20
0.0
 11
1.0
 21
1.0
 12
11.0
 22
8.5
 13
0.0
 23
0.0
 14
1.0
 24
1.0
 15
0.0
 25
0.0
 16
0.0
 26
0.0
 36
1.0
 17
0.0
 27
0.0
 37
0.0
 40
17.0
 41
1.2941176471
 42
50.0
 43
0.0
 44
0.0
 50
0.0
 51
0.0
 71
0
 72
100
 73
1
 74
1
 75
0
 76
0
 77
0
 78
0
  0
ENDTAB
  0
TABLE
  2
LTYPE
  5
5
100
AcDbSymbolTable
 70
6
  0
LTYPE
  5
14
100
AcDbSymbolTableRecord
100
AcDbLinetypeTableRecord
  2
BYBLOCK
 70
0
  3

 72
65
 73
0
 40
0.0
  0
LTYPE
  5
15
100
AcDbSymbolTableRecord
100
AcDbLinetypeTableRecord
  2
BYLAYER
 70
0
  3

 72
65
 73
0
 40
0.0
  0
LTYPE
  5
16
100
AcDbSymbolTableRecord
100
AcDbLinetypeTableRecord
  2
CONTINUOUS
 70
64
  3
Solid line
 72
65
 73
0
 40
0.0
  0
LTYPE
  5
1F5
100
AcDbSymbolTableRecord
100
AcDbLinetypeTableRecord
  2
CENTER
 70
64
  3
____ _ ____ _ ____ _ ____ _ ____ _ ____ _ ____
 72
65
 73
4
 40
0.6
 49
0.375
 74
0
 49
-0.075
 74
0
 49
0.075
 74
0
 49
-0.075
 74
0
  0
LTYPE
  5
1F6
100
AcDbSymbolTableRecord
100
AcDbLinetypeTableRecord
  2
HIDDEN
 70
64
  3
- - - - - - - - - - - - - - - - - - - -
 72
65
 73
2
 40
0.2
 49
0.1
 74
0
 49
-0.1
 74
0
  0
LTYPE
  5
1F7
100
AcDbSymbolTableRecord
100
AcDbLinetypeTableRecord
  2
PHANTOM
 70
64
  3
_____ _ _ _____ _ _ _____ _ _ _____
 72
65
 73
6
 40
0.8
 49
0.45
 74
0
 49
-0.05
 74
0
 49
0.1
 74
0
 49
-0.05
 74
0
 49
0.1
 74
0
 49
-0.05
 74
0
  0
LTYPE
  5
1F8
100
AcDbSymbolTableRecord
100
AcDbLinetypeTableRecord
  2
DOT
 70
64
  3
. . . . . . . . . . . . . . . . . . . .
 72
65
 73
2
 40
0.2
 49
0.1
 74
0
 49
-0.1
 74
0
  0
LTYPE
  5
1F9
100
AcDbSymbolTableRecord
100
AcDbLinetypeTableRecord
  2
DASHED
 70
64
  3
- - - - - - - - - - - - - - - - - - - -
 72
65
 73
2
 40
0.2
 49
0.1
 74
0
 49
-0.1
 74
0
  0
ENDTAB
  0
TABLE
  2
LAYER
  5
2
100
AcDbSymbolTable
 70
36
  0
LAYER
  5
10
100
AcDbSymbolTableRecord
100
AcDbLayerTableRecord
  2
0
 70
0
 62
7
  6
CONTINUOUS
370
-3
390
F
  0
LAYER
  5
1FA
100
AcDbSymbolTableRecord
100
AcDbLayerTableRecord
  2
DEFAULT_1
 70
0
 62
7
  6
CENTER
370
-3
390
F
  0
LAYER
  5
1FB
100
AcDbSymbolTableRecord
100
AcDbLayerTableRecord
  2
DEFAULT_2
 70
0
 62
8
  6
HIDDEN
370
-3
390
F
  0
LAYER
  5
1FC
100
AcDbSymbolTableRecord
100
AcDbLayerTableRecord
  2
DEFAULT_3
 70
0
 62
7
  6
PHANTOM
370
-3
390
F
  0
LAYER
  5
1FD
100
AcDbSymbolTableRecord
100
AcDbLayerTableRecord
  2
01___PRT_ALL_DTM_PLN
 70
0
 62
7
  6
CONTINUOUS
370
-3
390
F
  0
LAYER
  5
1FE
100
AcDbSymbolTableRecord
100
AcDbLayerTableRecord
  2
01___PRT_DEF_DTM_PLN
 70
0
 62
7
  6
CONTINUOUS
370
-3
390
F
  0
LAYER
  5
1FF
100
AcDbSymbolTableRecord
100
AcDbLayerTableRecord
  2
02___PRT_ALL_AXES
 70
0
 62
7
  6
CONTINUOUS
370
-3
390
F
  0
LAYER
  5
200
100
AcDbSymbolTableRecord
100
AcDbLayerTableRecord
  2
03___PRT_ALL_CURVES
 70
0
 62
7
  6
CONTINUOUS
370
-3
390
F
  0
LAYER
  5
201
100
AcDbSymbolTableRecord
100
AcDbLayerTableRecord
  2
04___PRT_ALL_DTM_PNT
 70
0
 62
7
  6
CONTINUOUS
370
-3
390
F
  0
LAYER
  5
202
100
AcDbSymbolTableRecord
100
AcDbLayerTableRecord
  2
05___PRT_ALL_DTM_CSYS
 70
0
 62
7
  6
CONTINUOUS
370
-3
390
F
  0
LAYER
  5
203
100
AcDbSymbolTableRecord
100
AcDbLayerTableRecord
  2
05___PRT_DEF_DTM_CSYS
 70
0
 62
7
  6
CONTINUOUS
370
-3
390
F
  0
LAYER
  5
204
100
AcDbSymbolTableRecord
100
AcDbLayerTableRecord
  2
06___PRT_ALL_SURFS
 70
0
 62
7
  6
CONTINUOUS
370
-3
390
F
  0
LAYER
  5
205
100
AcDbSymbolTableRecord
100
AcDbLayerTableRecord
  2
DATUM_PLANES
 70
0
 62
7
  6
CONTINUOUS
370
-3
390
F
  0
LAYER
  5
206
100
AcDbSymbolTableRecord
100
AcDbLayerTableRecord
  2
PORT_AREAS
 70
0
 62
7
  6
CONTINUOUS
370
-3
390
F
  0
LAYER
  5
207
100
AcDbSymbolTableRecord
100
AcDbLayerTableRecord
  2
SUNNBOMCOSMETIC
 70
0
 62
7
  6
CONTINUOUS
370
-3
390
F
  0
LAYER
  5
208
100
AcDbSymbolTableRecord
100
AcDbLayerTableRecord
  2
SUNNBOMSTAMPING
 70
0
 62
7
  6
CONTINUOUS
370
-3
390
F
  0
LAYER
  5
209
100
AcDbSymbolTableRecord
100
AcDbLayerTableRecord
  2
THREADS
 70
0
 62
7
  6
CONTINUOUS
370
-3
390
F
  0
ENDTAB
  0
TABLE
  2
STYLE
  5
3
100
AcDbSymbolTable
 70
1
  0
STYLE
  5
11
100
AcDbSymbolTableRecord
100
AcDbTextStyleTableRecord
  2
STANDARD
 70
0
 40
0.0
 41
0.8
 50
0.0
 71
0
 42
0.2
  3
txt
  4

  0
STYLE
  5
20A
100
AcDbSymbolTableRecord
100
AcDbTextStyleTableRecord
  2
TEXTSTYLE_1
 70
0
 40
0.0
 41
0.8
 50
0.0
 71
0
 42
0.2
  3
gdt
  4

  0
ENDTAB
  0
TABLE
  2
VIEW
  5
6
100
AcDbSymbolTable
 70
0
  0
ENDTAB
  0
TABLE
  2
UCS
  5
7
100
AcDbSymbolTable
 70
0
  0
ENDTAB
  0
TABLE
  2
APPID
  5
9
100
AcDbSymbolTable
 70
1
  0
APPID
  5
20B
100
AcDbSymbolTableRecord
100
AcDbRegAppTableRecord
  2
ACAD
 70
0
  0
ENDTAB
  0
TABLE
  2
BLOCK_RECORD
  5
1
100
AcDbSymbolTable
 70
0
  0
BLOCK_RECORD
  5
20C
100
AcDbSymbolTableRecord
100
AcDbBlockTableRecord
  2
*Model_Space
  0
BLOCK_RECORD
  5
20D
100
AcDbSymbolTableRecord
100
AcDbBlockTableRecord
  2
*Paper_Space
  0
BLOCK_RECORD
  5
20E
100
AcDbSymbolTableRecord
100
AcDbBlockTableRecord
  2
SUN_FIRST_THIRD_ANGLE_BL0
  0
BLOCK_RECORD
  5
20F
100
AcDbSymbolTableRecord
100
AcDbBlockTableRecord
  2
*T1
  0
BLOCK_RECORD
  5
210
100
AcDbSymbolTableRecord
100
AcDbBlockTableRecord
  2
*T2
  0
BLOCK_RECORD
  5
211
100
AcDbSymbolTableRecord
100
AcDbBlockTableRecord
  2
*T3
  0
ENDTAB
  0
TABLE
  2
DIMSTYLE
  5
A
100
AcDbSymbolTable
 70
1
100
AcDbDimStyleTable
 71
0
  0
DIMSTYLE
105
212
100
AcDbSymbolTableRecord
100
AcDbDimStyleTableRecord
  2
STANDARD
 70
0
  3

  4

 40
1.0
 41
0.1875
 42
0.0625
 43
0.38
 44
0.125
 45
0.0
 46
0.0
 47
0.001
 48
0.001
140
0.1
141
0.09
142
0.0
143
25.4
144
1.0
145
0.0
146
1.0
147
0.09
 71
0.0
 72
0.0
 73
1
 74
1
 75
0
 76
0
 77
0
 78
4
170
0
171
2
172
0
173
0
174
0
175
0
176
0
177
0
178
0
270
2
271
3
272
3
273
2
274
2
275
0
280
0
281
0
282
0
283
1
284
4
285
0
286
0
287
3
288
0
340
11
278
46
  0
ENDTAB
  0
ENDSEC
  0
SECTION
  2
BLOCKS
  0
BLOCK
  5
20
100
AcDbEntity
  8
0
100
AcDbBlockBegin
  2
*Model_Space
 70
0
 10
0.0
 20
0.0
 30
0.0
  3
*Model_Space
  1

  0
ENDBLK
  5
21
100
AcDbEntity
  8
0
100
AcDbBlockEnd
  0
BLOCK
  5
1C
100
AcDbEntity
  8
0
100
AcDbBlockBegin
  2
*Paper_Space
 70
0
 10
0.0
 20
0.0
 30
0.0
  3
*Paper_Space
  1

  0
ENDBLK
  5
1D
100
AcDbEntity
  8
0
100
AcDbBlockEnd
  0
BLOCK
  5
213
100
AcDbEntity
  8
0
100
AcDbBlockBegin
 62
2
  6
CONTINUOUS
  2
SUN_FIRST_THIRD_ANGLE_BL0
 70
64
 10
20.4816717061
 20
1.2289683772
  3
SUN_FIRST_THIRD_ANGLE_BL0
  1

  0
TEXT
  5
214
100
AcDbEntity
  8
0
100
AcDbText
 62
2
  6
CONTINUOUS
 10
19.4750896608
 20
1.4136269581
  7
STANDARD
 40
0.08
  1
FIRST ANGLE
 41
0.8
 72
0
100
AcDbText
  0
TEXT
  5
215
100
AcDbEntity
  8
0
100
AcDbText
 62
2
  6
CONTINUOUS
 10
20.7842537513
 20
1.4047600029
  7
STANDARD
 40
0.08
  1
THIRD ANGLE
 41
0.8
 72
0
100
AcDbText
  0
LINE
  5
216
100
AcDbEntity
  8
0
100
AcDbLine
 62
7
  6
CONTINUOUS
 10
19.4767170086
 20
1.1727031207
 11
19.6334271527
 21
1.1717972817
  0
LINE
  5
217
100
AcDbEntity
  8
0
100
AcDbLine
 62
7
  6
CONTINUOUS
 10
19.6596964832
 20
1.1717972817
 11
19.6950230232
 21
1.171593082
  0
LINE
  5
218
100
AcDbEntity
  8
0
100
AcDbLine
 62
7
  6
CONTINUOUS
 10
19.7194818561
 20
1.1708914427
 11
19.8852396156
 21
1.1699333054
  0
LINE
  5
219
100
AcDbEntity
  8
0
100
AcDbLine
 62
7
  6
CONTINUOUS
 10
19.4758111696
 20
1.2723454088
 11
19.88525039
 21
1.3511534004
  0
LINE
  5
21A
100
AcDbEntity
  8
0
100
AcDbLine
 62
7
  6
CONTINUOUS
 10
19.88525039
 20
1.3511534004
 11
19.8831348489
 21
0.9851647912
  0
LINE
  5
21B
100
AcDbEntity
  8
0
100
AcDbLine
 62
7
  6
CONTINUOUS
 10
19.8831348489
 20
0.9851647912
 11
19.4767170086
 21
1.0658141206
  0
LINE
  5
21C
100
AcDbEntity
  8
0
100
AcDbLine
 62
7
  6
CONTINUOUS
 10
19.4767170086
 20
1.0658141206
 11
19.4779056764
 21
1.2714536432
  0
CIRCLE
  5
21D
100
AcDbEntity
  8
0
100
AcDbCircle
 62
7
  6
CONTINUOUS
 10
20.2068232291
 20
1.1717972817
 40
0.175742101
  0
CIRCLE
  5
21E
100
AcDbEntity
  8
0
100
AcDbCircle
 62
7
  6
CONTINUOUS
 10
20.2068232291
 20
1.1717972817
 40
0.1005522074
  0
LINE
  5
21F
100
AcDbEntity
  8
0
100
AcDbLine
 62
7
  6
CONTINUOUS
 10
20.2077290681
 20
1.3756110529
 11
20.2071171714
 21
1.2379342989
  0
LINE
  5
220
100
AcDbEntity
  8
0
100
AcDbLine
 62
7
  6
CONTINUOUS
 10
20.2077290681
 20
1.2016899681
 11
20.2074674401
 21
1.1428236749
  0
LINE
  5
221
100
AcDbEntity
  8
0
100
AcDbLine
 62
7
  6
CONTINUOUS
 10
20.208634907
 20
1.101141841
 11
20.2080230104
 21
0.963465087
  0
LINE
  5
222
100
AcDbEntity
  8
0
100
AcDbLine
 62
7
  6
CONTINUOUS
 10
20.0066328138
 20
1.1745147986
 11
20.1443095678
 21
1.1739029019
  0
LINE
  5
223
100
AcDbEntity
  8
0
100
AcDbLine
 62
7
  6
CONTINUOUS
 10
20.1832714155
 20
1.1727031207
 11
20.238153505
 21
1.172335442
  0
LINE
  5
224
100
AcDbEntity
  8
0
100
AcDbLine
 62
7
  6
CONTINUOUS
 10
20.2756669918
 20
1.1717972817
 11
20.407916871
 21
1.1712095044
  0
CIRCLE
  5
225
100
AcDbEntity
  8
0
100
AcDbCircle
 62
7
  6
CONTINUOUS
 10
20.7509457401
 20
1.1693297793
 40
0.1722024983
  0
CIRCLE
  5
226
100
AcDbEntity
  8
0
100
AcDbCircle
 62
7
  6
CONTINUOUS
 10
20.7509457401
 20
1.1693297793
 40
0.0985164967
  0
LINE
  5
227
100
AcDbEntity
  8
0
100
AcDbLine
 62
7
  6
CONTINUOUS
 10
20.7169767782
 20
1.170462078
 11
20.7825395137
 21
1.1682766535
  0
LINE
  5
228
100
AcDbEntity
  8
0
100
AcDbLine
 62
7
  6
CONTINUOUS
 10
20.8177513651
 20
1.1693297793
 11
20.947965719
 21
1.1693297793
  0
LINE
  5
229
100
AcDbEntity
  8
0
100
AcDbLine
 62
7
  6
CONTINUOUS
 10
20.6875370113
 20
1.170462078
 11
20.5573226574
 21
1.170462078
  0
LINE
  5
22A
100
AcDbEntity
  8
0
100
AcDbLine
 62
7
  6
CONTINUOUS
 10
20.7486811426
 20
1.1987695462
 11
20.7486811426
 21
1.1432869085
  0
LINE
  5
22B
100
AcDbEntity
  8
0
100
AcDbLine
 62
7
  6
CONTINUOUS
 10
20.7498134414
 20
1.1059210505
 11
20.7498134414
 21
0.9757066966
  0
LINE
  5
22C
100
AcDbEntity
  8
0
100
AcDbLine
 62
7
  6
CONTINUOUS
 10
20.7486811426
 20
1.2338708068
 11
20.7486811426
 21
1.3640851607
  0
LINE
  5
22D
100
AcDbEntity
  8
0
100
AcDbLine
 62
7
  6
CONTINUOUS
 10
21.0702539817
 20
1.2701043662
 11
21.4790138229
 21
1.3448360823
  0
LINE
  5
22E
100
AcDbEntity
  8
0
100
AcDbLine
 62
7
  6
CONTINUOUS
 10
21.4790138229
 20
1.3448360823
 11
21.4790138229
 21
0.9779712941
  0
LINE
  5
22F
100
AcDbEntity
  8
0
100
AcDbLine
 62
7
  6
CONTINUOUS
 10
21.4790138229
 20
0.9779712941
 11
21.069121683
 21
1.0617614
  0
LINE
  5
230
100
AcDbEntity
  8
0
100
AcDbLine
 62
7
  6
CONTINUOUS
 10
21.0702539817
 20
1.2701043662
 11
21.069121683
 21
1.0617614
  0
LINE
  5
231
100
AcDbEntity
  8
0
100
AcDbLine
 62
7
  6
CONTINUOUS
 10
21.4790138229
 20
1.1693297793
 11
21.3159628059
 21
1.1693297793
  0
LINE
  5
232
100
AcDbEntity
  8
0
100
AcDbLine
 62
7
  6
CONTINUOUS
 10
21.2876553377
 20
1.1693297793
 11
21.2502894796
 21
1.1693297793
  0
LINE
  5
233
100
AcDbEntity
  8
0
100
AcDbLine
 62
7
  6
CONTINUOUS
 10
21.2208497126
 20
1.1659328831
 11
21.0713862804
 21
1.1659328831
  0
LINE
  5
234
100
AcDbEntity
  8
0
100
AcDbLine
 62
7
  6
CONTINUOUS
 10
20.4796138713
 20
1.5284908897
 11
20.4766766948
 21
0.9294458646
  0
ENDBLK
  5
235
100
AcDbEntity
  8
0
  6
BYBLOCK
 62
0
100
AcDbBlockEnd
  0
BLOCK
  5
236
100
AcDbEntity
  8
0
100
AcDbBlockBegin
  2
*T1
 70
1
 10
0.0
 20
0.0
  3
*T1
  1

  0
LINE
  5
237
100
AcDbEntity
  8
0
100
AcDbLine
 62
2
  6
CONTINUOUS
 10
9.275
 20
0.0
 11
-0.0
 21
0.0
  0
LINE
  5
238
100
AcDbEntity
  8
0
100
AcDbLine
 62
2
  6
CONTINUOUS
 10
9.275
 20
0.0
 11
9.275
 21
1.25
  0
LINE
  5
239
100
AcDbEntity
  8
0
100
AcDbLine
 62
2
  6
CONTINUOUS
 10
9.275
 20
0.625
 11
-0.0
 21
0.625
  0
LINE
  5
23A
100
AcDbEntity
  8
0
100
AcDbLine
 62
2
  6
CONTINUOUS
 10
9.275
 20
1.25
 11
-0.0
 21
1.25
  0
LINE
  5
23B
100
AcDbEntity
  8
0
100
AcDbLine
 62
2
  6
CONTINUOUS
 10
6.8
 20
0.0
 11
6.8
 21
1.25
  0
LINE
  5
23C
100
AcDbEntity
  8
0
100
AcDbLine
 62
2
  6
CONTINUOUS
 10
6.4
 20
0.0
 11
6.4
 21
0.625
  0
LINE
  5
23D
100
AcDbEntity
  8
0
100
AcDbLine
 62
2
  6
CONTINUOUS
 10
5.9
 20
0.0
 11
5.9
 21
0.625
  0
LINE
  5
23E
100
AcDbEntity
  8
0
100
AcDbLine
 62
2
  6
CONTINUOUS
 10
5.2
 20
0.0
 11
5.2
 21
0.625
  0
LINE
  5
23F
100
AcDbEntity
  8
0
100
AcDbLine
 62
2
  6
CONTINUOUS
 10
4.1
 20
0.0
 11
4.1
 21
1.25
  0
LINE
  5
240
100
AcDbEntity
  8
0
100
AcDbLine
 62
2
  6
CONTINUOUS
 10
-0.0
 20
0.0
 11
-0.0
 21
1.25
  0
MTEXT
  5
241
100
AcDbEntity
  8
0
100
AcDbMText
 62
2
  6
CONTINUOUS
  7
STANDARD
 71
2
 72
1
 10
6.6
 20
0.325
 30
0.0
 11
1.0
 21
0.0
 31
0.0
 44
0.9
  1
2
 40
0.125
 41
0.2
  0
MTEXT
  5
242
100
AcDbEntity
  8
0
100
AcDbMText
 62
2
  6
CONTINUOUS
  7
STANDARD
 71
2
 72
1
 10
6.15
 20
0.325
 30
0.0
 11
1.0
 21
0.0
 31
0.0
 44
0.9
  1
C
 40
0.125
 41
0.2
  0
MTEXT
  5
243
100
AcDbEntity
  8
0
100
AcDbMText
 62
2
  6
CONTINUOUS
  7
STANDARD
 71
2
 72
1
 10
5.55
 20
0.325
 30
0.0
 11
1.0
 21
0.0
 31
0.0
 44
0.9
  1
1.000
 40
0.125
 41
1.0
  0
MTEXT
  5
244
100
AcDbEntity
  8
0
100
AcDbMText
 62
2
  6
CONTINUOUS
  7
STANDARD
 71
2
 72
1
 10
4.65
 20
0.325
 30
0.0
 11
1.0
 21
0.0
 31
0.0
 44
0.9
  1
Mar-25-22
 40
0.125
 41
1.8
  0
MTEXT
  5
245
100
AcDbEntity
  8
0
100
AcDbMText
 62
2
  6
CONTINUOUS
  7
STANDARD
 71
2
 72
1
 10
2.05
 20
0.4625
 30
0.0
 11
1.0
 21
0.0
 31
0.0
 44
0.9
  1
T-11A Line mount\P(See Technical Data for Body Features)
 40
0.125
 41
7.6
  0
MTEXT
  5
246
100
AcDbEntity
  8
0
100
AcDbMText
 62
2
  6
CONTINUOUS
  7
STANDARD
 71
1
 72
1
 10
6.45
 20
0.5625
 30
0.0
 11
1.0
 21
0.0
 31
0.0
 44
0.9
  1
SHEET
 40
0.06
 41
0.48
  0
MTEXT
  5
247
100
AcDbEntity
  8
0
100
AcDbMText
 62
2
  6
CONTINUOUS
  7
STANDARD
 71
1
 72
1
 10
5.95
 20
0.5625
 30
0.0
 11
1.0
 21
0.0
 31
0.0
 44
0.9
  1
DWG SIZE
 40
0.06
 41
0.768
  0
MTEXT
  5
248
100
AcDbEntity
  8
0
100
AcDbMText
 62
2
  6
CONTINUOUS
  7
STANDARD
 71
1
 72
1
 10
5.25
 20
0.5625
 30
0.0
 11
1.0
 21
0.0
 31
0.0
 44
0.9
  1
SCALE
 40
0.06
 41
0.48
  0
MTEXT
  5
249
100
AcDbEntity
  8
0
100
AcDbMText
 62
2
  6
CONTINUOUS
  7
STANDARD
 71
1
 72
1
 10
4.15
 20
0.5625
 30
0.0
 11
1.0
 21
0.0
 31
0.0
 44
0.9
  1
DATE
 40
0.06
 41
0.384
  0
MTEXT
  5
24A
100
AcDbEntity
  8
0
100
AcDbMText
 62
2
  6
CONTINUOUS
  7
STANDARD
 71
1
 72
1
 10
0.05
 20
0.5625
 30
0.0
 11
1.0
 21
0.0
 31
0.0
 44
0.9
  1
DESCRIPTION
 40
0.06
 41
1.056
  0
MTEXT
  5
24B
100
AcDbEntity
  8
0
100
AcDbMText
 62
2
  6
CONTINUOUS
  7
STANDARD
 71
2
 72
1
 10
5.45
 20
1.0375
 30
0.0
 11
1.0
 21
0.0
 31
0.0
 44
0.9
  1
ALL DIMENSIONS IN INCH\PVIEWS ARE THIRD ANGLE
 40
0.12
 41
4.224
  0
MTEXT
  5
24C
100
AcDbEntity
  8
0
100
AcDbMText
 62
2
  6
CONTINUOUS
  7
STANDARD
 71
2
 72
1
 10
2.05
 20
0.95
 30
0.0
 11
1.0
 21
0.0
 31
0.0
 44
0.9
  1
E6U
 40
0.125
 41
0.6
  0
MTEXT
  5
24D
100
AcDbEntity
  8
0
100
AcDbMText
 62
2
  6
CONTINUOUS
  7
STANDARD
 71
1
 72
1
 10
0.05
 20
1.1875
 30
0.0
 11
1.0
 21
0.0
 31
0.0
 44
0.9
  1
MODEL
 40
0.06
 41
0.48
  0
ENDBLK
  5
24E
100
AcDbEntity
  8
0
  6
BYBLOCK
 62
0
100
AcDbBlockEnd
  0
BLOCK
  5
24F
100
AcDbEntity
  8
0
100
AcDbBlockBegin
  2
*T2
 70
1
 10
0.0
 20
0.0
  3
*T2
  1

  0
LINE
  5
250
100
AcDbEntity
  8
0
100
AcDbLine
 62
2
  6
CONTINUOUS
 10
0.0
 20
0.0
 11
9.055
 21
0.0
  0
LINE
  5
251
100
AcDbEntity
  8
0
100
AcDbLine
 62
2
  6
CONTINUOUS
 10
0.0
 20
0.0
 11
0.0
 21
-3.094
  0
LINE
  5
252
100
AcDbEntity
  8
0
100
AcDbLine
 62
2
  6
CONTINUOUS
 10
0.0
 20
-0.344
 11
9.055
 21
-0.344
  0
LINE
  5
253
100
AcDbEntity
  8
0
100
AcDbLine
 62
2
  6
CONTINUOUS
 10
0.0
 20
-0.594
 11
9.055
 21
-0.594
  0
LINE
  5
254
100
AcDbEntity
  8
0
100
AcDbLine
 62
2
  6
CONTINUOUS
 10
0.0
 20
-0.844
 11
9.055
 21
-0.844
  0
LINE
  5
255
100
AcDbEntity
  8
0
100
AcDbLine
 62
2
  6
CONTINUOUS
 10
0.0
 20
-1.094
 11
9.055
 21
-1.094
  0
LINE
  5
256
100
AcDbEntity
  8
0
100
AcDbLine
 62
2
  6
CONTINUOUS
 10
0.0
 20
-1.344
 11
9.055
 21
-1.344
  0
LINE
  5
257
100
AcDbEntity
  8
0
100
AcDbLine
 62
2
  6
CONTINUOUS
 10
0.0
 20
-1.594
 11
9.055
 21
-1.594
  0
LINE
  5
258
100
AcDbEntity
  8
0
100
AcDbLine
 62
2
  6
CONTINUOUS
 10
0.0
 20
-1.844
 11
9.055
 21
-1.844
  0
LINE
  5
259
100
AcDbEntity
  8
0
100
AcDbLine
 62
2
  6
CONTINUOUS
 10
0.0
 20
-2.094
 11
9.055
 21
-2.094
  0
LINE
  5
25A
100
AcDbEntity
  8
0
100
AcDbLine
 62
2
  6
CONTINUOUS
 10
0.0
 20
-2.344
 11
9.055
 21
-2.344
  0
LINE
  5
25B
100
AcDbEntity
  8
0
100
AcDbLine
 62
2
  6
CONTINUOUS
 10
0.0
 20
-2.594
 11
9.055
 21
-2.594
  0
LINE
  5
25C
100
AcDbEntity
  8
0
100
AcDbLine
 62
2
  6
CONTINUOUS
 10
0.0
 20
-2.844
 11
9.055
 21
-2.844
  0
LINE
  5
25D
100
AcDbEntity
  8
0
100
AcDbLine
 62
2
  6
CONTINUOUS
 10
0.0
 20
-3.094
 11
9.055
 21
-3.094
  0
LINE
  5
25E
100
AcDbEntity
  8
0
100
AcDbLine
 62
2
  6
CONTINUOUS
 10
3.055
 20
0.0
 11
3.055
 21
-3.094
  0
LINE
  5
25F
100
AcDbEntity
  8
0
100
AcDbLine
 62
2
  6
CONTINUOUS
 10
9.055
 20
0.0
 11
9.055
 21
-3.094
  0
MTEXT
  5
260
100
AcDbEntity
  8
0
100
AcDbMText
 62
2
  6
CONTINUOUS
  7
STANDARD
 71
2
 72
1
 10
1.5275
 20
-0.0995
 30
0.0
 11
1.0
 21
0.0
 31
0.0
 44
0.9
  1
Technical Data
 40
0.145
 41
3.248
  0
MTEXT
  5
261
100
AcDbEntity
  8
0
100
AcDbMText
 62
2
  6
CONTINUOUS
  7
STANDARD
 71
2
 72
1
 10
4.555
 20
-0.0995
 30
0.0
 11
1.0
 21
0.0
 31
0.0
 44
0.9
  1
U.S. Units
 40
0.145
 41
2.32
  0
MTEXT
  5
262
100
AcDbEntity
  8
0
100
AcDbMText
 62
2
  6
CONTINUOUS
  7
STANDARD
 71
2
 72
1
 10
7.555
 20
-0.0995
 30
0.0
 11
1.0
 21
0.0
 31
0.0
 44
0.9
  1
Metric Units
 40
0.145
 41
2.784
  0
MTEXT
  5
263
100
AcDbEntity
  8
0
100
AcDbMText
 62
2
  6
CONTINUOUS
  7
STANDARD
 71
2
 72
1
 10
1.5275
 20
-0.4065
 30
0.0
 11
1.0
 21
0.0
 31
0.0
 44
0.9
  1
Cavity
 40
0.125
 41
1.2
  0
MTEXT
  5
264
100
AcDbEntity
  8
0
100
AcDbMText
 62
2
  6
CONTINUOUS
  7
STANDARD
 71
2
 72
1
 10
6.055
 20
-0.4065
 30
0.0
 11
1.0
 21
0.0
 31
0.0
 44
0.9
  1
T-11A
 40
0.125
 41
1.0
  0
MTEXT
  5
265
100
AcDbEntity
  8
0
100
AcDbMText
 62
2
  6
CONTINUOUS
  7
STANDARD
 71
2
 72
1
 10
1.5275
 20
-0.6565
 30
0.0
 11
1.0
 21
0.0
 31
0.0
 44
0.9
  1
Body Features
 40
0.125
 41
2.6
  0
MTEXT
  5
266
100
AcDbEntity
  8
0
100
AcDbMText
 62
2
  6
CONTINUOUS
  7
STANDARD
 71
2
 72
1
 10
6.055
 20
-0.6565
 30
0.0
 11
1.0
 21
0.0
 31
0.0
 44
0.9
  1
Ninety degree with reverse flow check - sequence
 40
0.125
 41
9.6
  0
MTEXT
  5
267
100
AcDbEntity
  8
0
100
AcDbMText
 62
2
  6
CONTINUOUS
  7
STANDARD
 71
2
 72
1
 10
1.5275
 20
-0.9065
 30
0.0
 11
1.0
 21
0.0
 31
0.0
 44
0.9
  1
Body Type
 40
0.125
 41
1.8
  0
MTEXT
  5
268
100
AcDbEntity
  8
0
100
AcDbMText
 62
2
  6
CONTINUOUS
  7
STANDARD
 71
2
 72
1
 10
6.055
 20
-0.9065
 30
0.0
 11
1.0
 21
0.0
 31
0.0
 44
0.9
  1
Line mount
 40
0.125
 41
2.0
  0
MTEXT
  5
269
100
AcDbEntity
  8
0
100
AcDbMText
 62
2
  6
CONTINUOUS
  7
STANDARD
 71
2
 72
1
 10
1.5275
 20
-1.1565
 30
0.0
 11
1.0
 21
0.0
 31
0.0
 44
0.9
  1
Interface
 40
0.125
 41
1.8
  0
MTEXT
  5
26A
100
AcDbEntity
  8
0
100
AcDbMText
 62
2
  6
CONTINUOUS
  7
STANDARD
 71
2
 72
1
 10
6.055
 20
-1.1565
 30
0.0
 11
1.0
 21
0.0
 31
0.0
 44
0.9
  1
None
 40
0.125
 41
0.8
  0
MTEXT
  5
26B
100
AcDbEntity
  8
0
100
AcDbMText
 62
2
  6
CONTINUOUS
  7
STANDARD
 71
2
 72
1
 10
1.5275
 20
-1.4065
 30
0.0
 11
1.0
 21
0.0
 31
0.0
 44
0.9
  1
Open Cavity Quantity
 40
0.125
 41
4.0
  0
MTEXT
  5
26C
100
AcDbEntity
  8
0
100
AcDbMText
 62
2
  6
CONTINUOUS
  7
STANDARD
 71
2
 72
1
 10
6.055
 20
-1.4065
 30
0.0
 11
1.0
 21
0.0
 31
0.0
 44
0.9
  1
1
 40
0.125
 41
0.2
  0
MTEXT
  5
26D
100
AcDbEntity
  8
0
100
AcDbMText
 62
2
  6
CONTINUOUS
  7
STANDARD
 71
2
 72
1
 10
1.5275
 20
-1.6565
 30
0.0
 11
1.0
 21
0.0
 31
0.0
 44
0.9
  1
Weight
 40
0.125
 41
1.2
  0
MTEXT
  5
26E
100
AcDbEntity
  8
0
100
AcDbMText
 62
2
  6
CONTINUOUS
  7
STANDARD
 71
2
 72
1
 10
4.555
 20
-1.6565
 30
0.0
 11
1.0
 21
0.0
 31
0.0
 44
0.9
  1
1.257 lb.
 40
0.125
 41
1.8
  0
MTEXT
  5
26F
100
AcDbEntity
  8
0
100
AcDbMText
 62
2
  6
CONTINUOUS
  7
STANDARD
 71
2
 72
1
 10
7.555
 20
-1.6565
 30
0.0
 11
1.0
 21
0.0
 31
0.0
 44
0.9
  1
0,570 kg.
 40
0.125
 41
1.8
  0
MTEXT
  5
270
100
AcDbEntity
  8
0
100
AcDbMText
 62
2
  6
CONTINUOUS
  7
STANDARD
 71
2
 72
1
 10
1.5275
 20
-1.9065
 30
0.0
 11
1.0
 21
0.0
 31
0.0
 44
0.9
  1
Check Cracking Pressure
 40
0.125
 41
4.6
  0
MTEXT
  5
271
100
AcDbEntity
  8
0
100
AcDbMText
 62
2
  6
CONTINUOUS
  7
STANDARD
 71
2
 72
1
 10
4.555
 20
-1.9065
 30
0.0
 11
1.0
 21
0.0
 31
0.0
 44
0.9
  1
30 psi
 40
0.125
 41
1.2
  0
MTEXT
  5
272
100
AcDbEntity
  8
0
100
AcDbMText
 62
2
  6
CONTINUOUS
  7
STANDARD
 71
2
 72
1
 10
7.555
 20
-1.9065
 30
0.0
 11
1.0
 21
0.0
 31
0.0
 44
0.9
  1
2 bar
 40
0.125
 41
1.0
  0
MTEXT
  5
273
100
AcDbEntity
  8
0
100
AcDbMText
 62
2
  6
CONTINUOUS
  7
STANDARD
 71
2
 72
1
 10
1.5275
 20
-2.1565
 30
0.0
 11
1.0
 21
0.0
 31
0.0
 44
0.9
  1
Mounting Hole Diameter
 40
0.125
 41
4.4
  0
MTEXT
  5
274
100
AcDbEntity
  8
0
100
AcDbMText
 62
2
  6
CONTINUOUS
  7
STANDARD
 71
2
 72
1
 10
4.555
 20
-2.1565
 30
0.0
 11
1.0
 21
0.0
 31
0.0
 44
0.9
  1
.34 in.
 40
0.125
 41
1.4
  0
MTEXT
  5
275
100
AcDbEntity
  8
0
100
AcDbMText
 62
2
  6
CONTINUOUS
  7
STANDARD
 71
2
 72
1
 10
7.555
 20
-2.1565
 30
0.0
 11
1.0
 21
0.0
 31
0.0
 44
0.9
  1
8.6 mm
 40
0.125
 41
1.2
  0
MTEXT
  5
276
100
AcDbEntity
  8
0
100
AcDbMText
 62
2
  6
CONTINUOUS
  7
STANDARD
 71
2
 72
1
 10
1.5275
 20
-2.4065
 30
0.0
 11
1.0
 21
0.0
 31
0.0
 44
0.9
  1
Mounting Hole Depth
 40
0.125
 41
3.8
  0
MTEXT
  5
277
100
AcDbEntity
  8
0
100
AcDbMText
 62
2
  6
CONTINUOUS
  7
STANDARD
 71
2
 72
1
 10
6.055
 20
-2.4065
 30
0.0
 11
1.0
 21
0.0
 31
0.0
 44
0.9
  1
Through
 40
0.125
 41
1.4
  0
MTEXT
  5
278
100
AcDbEntity
  8
0
100
AcDbMText
 62
2
  6
CONTINUOUS
  7
STANDARD
 71
2
 72
1
 10
1.5275
 20
-2.6565
 30
0.0
 11
1.0
 21
0.0
 31
0.0
 44
0.9
  1
Mounting Hole Quantity
 40
0.125
 41
4.4
  0
MTEXT
  5
279
100
AcDbEntity
  8
0
100
AcDbMText
 62
2
  6
CONTINUOUS
  7
STANDARD
 71
2
 72
1
 10
6.055
 20
-2.6565
 30
0.0
 11
1.0
 21
0.0
 31
0.0
 44
0.9
  1
2
 40
0.125
 41
0.2
  0
MTEXT
  5
27A
100
AcDbEntity
  8
0
100
AcDbMText
 62
2
  6
CONTINUOUS
  7
STANDARD
 71
2
 72
1
 10
1.5275
 20
-2.9065
 30
0.0
 11
1.0
 21
0.0
 31
0.0
 44
0.9
  1
Includes integral cartridge(s)
 40
0.125
 41
6.0
  0
MTEXT
  5
27B
100
AcDbEntity
  8
0
100
AcDbMText
 62
2
  6
CONTINUOUS
  7
STANDARD
 71
2
 72
1
 10
6.055
 20
-2.9065
 30
0.0
 11
1.0
 21
0.0
 31
0.0
 44
0.9
  1
Yes (see Included Components)
 40
0.125
 41
5.8
  0
ENDBLK
  5
27C
100
AcDbEntity
  8
0
  6
BYBLOCK
 62
0
100
AcDbBlockEnd
  0
BLOCK
  5
27D
100
AcDbEntity
  8
0
100
AcDbBlockBegin
  2
*T3
 70
1
 10
0.0
 20
0.0
  3
*T3
  1

  0
LINE
  5
27E
100
AcDbEntity
  8
0
100
AcDbLine
 62
2
  6
CONTINUOUS
 10
0.0
 20
0.0
 11
4.6
 21
0.0
  0
LINE
  5
27F
100
AcDbEntity
  8
0
100
AcDbLine
 62
2
  6
CONTINUOUS
 10
0.0
 20
0.0
 11
0.0
 21
-1.43775
  0
LINE
  5
280
100
AcDbEntity
  8
0
100
AcDbLine
 62
2
  6
CONTINUOUS
 10
0.0
 20
-0.34375
 11
4.6
 21
-0.34375
  0
LINE
  5
281
100
AcDbEntity
  8
0
100
AcDbLine
 62
2
  6
CONTINUOUS
 10
0.0
 20
-0.68775
 11
4.6
 21
-0.68775
  0
LINE
  5
282
100
AcDbEntity
  8
0
100
AcDbLine
 62
2
  6
CONTINUOUS
 10
0.0
 20
-0.93775
 11
4.6
 21
-0.93775
  0
LINE
  5
283
100
AcDbEntity
  8
0
100
AcDbLine
 62
2
  6
CONTINUOUS
 10
0.0
 20
-1.18775
 11
4.6
 21
-1.18775
  0
LINE
  5
284
100
AcDbEntity
  8
0
100
AcDbLine
 62
2
  6
CONTINUOUS
 10
0.0
 20
-1.43775
 11
4.6
 21
-1.43775
  0
LINE
  5
285
100
AcDbEntity
  8
0
100
AcDbLine
 62
2
  6
CONTINUOUS
 10
1.3
 20
-0.34375
 11
1.3
 21
-1.43775
  0
LINE
  5
286
100
AcDbEntity
  8
0
100
AcDbLine
 62
2
  6
CONTINUOUS
 10
3.3
 20
-0.34375
 11
3.3
 21
-1.43775
  0
LINE
  5
287
100
AcDbEntity
  8
0
100
AcDbLine
 62
2
  6
CONTINUOUS
 10
4.6
 20
0.0
 11
4.6
 21
-1.43775
  0
MTEXT
  5
288
100
AcDbEntity
  8
0
100
AcDbMText
 62
2
  6
CONTINUOUS
  7
STANDARD
 71
2
 72
1
 10
2.3
 20
-0.099375
 30
0.0
 11
1.0
 21
0.0
 31
0.0
 44
0.9
  1
Port Headings
 40
0.145
 41
3.016
  0
MTEXT
  5
289
100
AcDbEntity
  8
0
100
AcDbMText
 62
2
  6
CONTINUOUS
  7
STANDARD
 71
2
 72
1
 10
0.65
 20
-0.44325
 30
0.0
 11
1.0
 21
0.0
 31
0.0
 44
0.9
  1
Product
 40
0.145
 41
1.624
  0
MTEXT
  5
28A
100
AcDbEntity
  8
0
100
AcDbMText
 62
2
  6
CONTINUOUS
  7
STANDARD
 71
2
 72
1
 10
2.3
 20
-0.44325
 30
0.0
 11
1.0
 21
0.0
 31
0.0
 44
0.9
  1
Port
 40
0.145
 41
0.928
  0
MTEXT
  5
28B
100
AcDbEntity
  8
0
100
AcDbMText
 62
2
  6
CONTINUOUS
  7
STANDARD
 71
2
 72
1
 10
3.95
 20
-0.44325
 30
0.0
 11
1.0
 21
0.0
 31
0.0
 44
0.9
  1
Size
 40
0.145
 41
0.928
  0
MTEXT
  5
28C
100
AcDbEntity
  8
0
100
AcDbMText
 62
2
  6
CONTINUOUS
  7
STANDARD
 71
2
 72
1
 10
0.65
 20
-0.75025
 30
0.0
 11
1.0
 21
0.0
 31
0.0
 44
0.9
  1
E6U
 40
0.125
 41
0.6
  0
MTEXT
  5
28D
100
AcDbEntity
  8
0
100
AcDbMText
 62
2
  6
CONTINUOUS
  7
STANDARD
 71
2
 72
1
 10
2.3
 20
-0.75025
 30
0.0
 11
1.0
 21
0.0
 31
0.0
 44
0.9
  1
Ports 1 &  2
 40
0.125
 41
2.4
  0
MTEXT
  5
28E
100
AcDbEntity
  8
0
100
AcDbMText
 62
2
  6
CONTINUOUS
  7
STANDARD
 71
2
 72
1
 10
3.95
 20
-0.75025
 30
0.0
 11
1.0
 21
0.0
 31
0.0
 44
0.9
  1
3/8" BSPP
 40
0.125
 41
1.8
  0
MTEXT
  5
28F
100
AcDbEntity
  8
0
100
AcDbMText
 62
2
  6
CONTINUOUS
  7
STANDARD
 71
2
 72
1
 10
0.65
 20
-1.00025
 30
0.0
 11
1.0
 21
0.0
 31
0.0
 44
0.9
  1
E6U
 40
0.125
 41
0.6
  0
MTEXT
  5
290
100
AcDbEntity
  8
0
100
AcDbMText
 62
2
  6
CONTINUOUS
  7
STANDARD
 71
2
 72
1
 10
2.3
 20
-1.00025
 30
0.0
 11
1.0
 21
0.0
 31
0.0
 44
0.9
  1
Port 3
 40
0.125
 41
1.2
  0
MTEXT
  5
291
100
AcDbEntity
  8
0
100
AcDbMText
 62
2
  6
CONTINUOUS
  7
STANDARD
 71
2
 72
1
 10
3.95
 20
-1.00025
 30
0.0
 11
1.0
 21
0.0
 31
0.0
 44
0.9
  1
1/4" BSPP
 40
0.125
 41
1.8
  0
MTEXT
  5
292
100
AcDbEntity
  8
0
100
AcDbMText
 62
2
  6
CONTINUOUS
  7
STANDARD
 71
2
 72
1
 10
0.65
 20
-1.25025
 30
0.0
 11
1.0
 21
0.0
 31
0.0
 44
0.9
  1
E6U
 40
0.125
 41
0.6
  0
MTEXT
  5
293
100
AcDbEntity
  8
0
100
AcDbMText
 62
2
  6
CONTINUOUS
  7
STANDARD
 71
2
 72
1
 10
2.3
 20
-1.25025
 30
0.0
 11
1.0
 21
0.0
 31
0.0
 44
0.9
  1
Gage Port
 40
0.125
 41
1.8
  0
MTEXT
  5
294
100
AcDbEntity
  8
0
100
AcDbMText
 62
2
  6
CONTINUOUS
  7
STANDARD
 71
2
 72
1
 10
3.95
 20
-1.25025
 30
0.0
 11
1.0
 21
0.0
 31
0.0
 44
0.9
  1
1/4" BSPP
 40
0.125
 41
1.8
  0
ENDBLK
  5
295
100
AcDbEntity
  8
0
  6
BYBLOCK
 62
0
100
AcDbBlockEnd
  0
ENDSEC
  0
SECTION
  2
ENTITIES
  0
IMAGE
  5
296
100
AcDbEntity
  8
0
100
AcDbRasterImage
 62
7
  6
CONTINUOUS
 10
19.2297077316
 20
0.3094318264
 30
0.0
 11
0.0066666667
 21
0.0
 31
0.0
 12
0.0
 22
0.0066666667
 32
0.0
 13
369.0
 23
92.0
340
       39F
 70
9
280
0
281
50
282
50
283
0
360
       399
 71
1
 91
2
 14
-0.5
 24
-0.5
 14
368.5
 24
91.5
  0
INSERT
  5
297
100
AcDbEntity
  8
0
100
AcDbBlockReference
 62
2
  6
CONTINUOUS
  2
SUN_FIRST_THIRD_ANGLE_BL0
 10
20.4816717061
 20
1.2289683772
  0
ACAD_TABLE
  5
298
100
AcDbEntity
  8
0
 62
2
  6
CONTINUOUS
100
AcDbBlockReference
  2
*T1
 10
12.42375
 20
0.30125
 30
0.0
100
AcDbTable
342
       3A1
343
20F
 11
1.0
 21
0.0
 31
0.0
 90
6
 91
4
 92
6
 93
20
 94
0
 95
0
 96
0
 70
1
 41
0.0
141
0.525
141
0.1
141
0.525
141
0.1
142
4.1
142
1.1
142
0.7
142
0.5
142
0.4
142
2.475
171
1
172
0
173
0
174
0
175
1
176
1
 91
33
178
0
145
0.0
301
CELL_VALUE
 90
4
  1
T-11A Line mount\P(See Technical Data for Body Features)
304
ACVALUE_END
170
2
140
0.125
171
1
172
0
173
0
174
0
175
1
176
1
 91
33
178
0
145
0.0
301
CELL_VALUE
 90
4
  1
Mar-25-22
304
ACVALUE_END
170
5
140
0.125
171
1
172
0
173
0
174
0
175
1
176
1
 91
33
178
0
145
0.0
301
CELL_VALUE
 90
4
  1
1.000
304
ACVALUE_END
170
5
140
0.125
171
1
172
0
173
0
174
0
175
1
176
1
 91
33
178
0
145
0.0
301
CELL_VALUE
 90
4
  1
C
304
ACVALUE_END
170
5
140
0.125
171
1
172
0
173
0
174
0
175
1
176
1
 91
33
178
0
145
0.0
301
CELL_VALUE
 90
4
  1
2
304
ACVALUE_END
170
5
140
0.125
171
1
172
0
173
0
174
0
175
1
176
1
 91
33
178
0
145
0.0
301
CELL_VALUE
 90
4
  1
 
304
ACVALUE_END
170
1
140
0.125
171
1
172
0
173
0
174
0
175
1
176
1
 91
33
178
0
145
0.0
301
CELL_VALUE
 90
4
  1
DESCRIPTION
304
ACVALUE_END
170
1
140
0.06
171
1
172
0
173
0
174
0
175
1
176
1
 91
33
178
0
145
0.0
301
CELL_VALUE
 90
4
  1
DATE
304
ACVALUE_END
170
1
140
0.06
171
1
172
0
173
0
174
0
175
1
176
1
 91
33
178
0
145
0.0
301
CELL_VALUE
 90
4
  1
SCALE
304
ACVALUE_END
170
1
140
0.06
171
1
172
0
173
0
174
0
175
1
176
1
 91
33
178
0
145
0.0
301
CELL_VALUE
 90
4
  1
DWG SIZE
304
ACVALUE_END
170
1
140
0.06
171
1
172
0
173
0
174
0
175
1
176
1
 91
33
178
0
145
0.0
301
CELL_VALUE
 90
4
  1
SHEET
304
ACVALUE_END
170
1
140
0.06
171
1
172
0
173
0
174
0
175
1
176
1
 91
33
178
0
145
0.0
301
CELL_VALUE
 90
4
  1
 
304
ACVALUE_END
170
1
140
0.125
171
1
172
0
173
0
174
0
175
1
176
1
 91
33
178
0
145
0.0
301
CELL_VALUE
 90
4
  1
E6U
304
ACVALUE_END
170
5
140
0.125
171
1
172
0
173
0
174
0
175
4
176
1
 91
33
178
0
145
0.0
301
CELL_VALUE
 90
4
  1
ALL DIMENSIONS IN INCH\PVIEWS ARE THIRD ANGLE
304
ACVALUE_END
170
5
140
0.12
171
1
172
0
173
1
174
0
175
1
176
1
 91
1
178
0
145
0.0
170
1
171
1
172
0
173
1
174
0
175
1
176
1
 91
1
178
0
145
0.0
170
1
171
1
172
0
173
1
174
0
175
1
176
1
 91
1
178
0
145
0.0
170
5
171
1
172
0
173
0
174
0
175
1
176
1
 91
33
178
0
145
0.0
301
CELL_VALUE
 90
4
  1
 
304
ACVALUE_END
170
1
140
0.125
171
1
172
0
173
0
174
0
175
1
176
1
 91
33
178
0
145
0.0
301
CELL_VALUE
 90
4
  1
MODEL
304
ACVALUE_END
170
1
140
0.06
171
1
172
0
173
0
174
0
175
1
176
1
 91
33
178
0
145
0.0
301
CELL_VALUE
 90
4
  1
 
304
ACVALUE_END
170
1
140
0.125
171
1
172
0
173
0
174
0
175
1
176
1
 91
33
178
0
145
0.0
301
CELL_VALUE
 90
4
  1
 
304
ACVALUE_END
170
1
140
0.125
171
1
172
0
173
0
174
0
175
1
176
1
 91
33
178
0
145
0.0
301
CELL_VALUE
 90
4
  1
 
304
ACVALUE_END
170
1
140
0.125
171
1
172
0
173
0
174
0
175
1
176
1
 91
33
178
0
145
0.0
301
CELL_VALUE
 90
4
  1
 
304
ACVALUE_END
170
1
140
0.125
171
1
172
0
173
0
174
0
175
1
176
1
 91
33
178
0
145
0.0
301
CELL_VALUE
 90
4
  1
 
304
ACVALUE_END
170
1
140
0.125
  0
ACAD_TABLE
  5
299
100
AcDbEntity
  8
0
 62
2
  6
CONTINUOUS
100
AcDbBlockReference
  2
*T2
 10
12.4237499994
 20
16.47875
 30
0.0
100
AcDbTable
342
       3A0
343
210
 11
1.0
 21
0.0
 31
0.0
 90
22
 91
12
 92
3
 93
16
 94
0
 95
0
 96
0
 41
0.028
141
0.344
141
0.25
141
0.25
141
0.25
141
0.25
141
0.25
141
0.25
141
0.25
141
0.25
141
0.25
141
0.25
141
0.25
142
3.055
142
3.0
142
3.0
171
1
172
0
173
0
174
0
175
1
176
1
 91
33
178
0
145
0.0
301
CELL_VALUE
 90
4
  1
Technical Data
304
ACVALUE_END
170
5
140
0.145
171
1
172
0
173
0
174
0
175
1
176
1
 91
33
178
0
145
0.0
301
CELL_VALUE
 90
4
  1
U.S. Units
304
ACVALUE_END
170
5
140
0.145
171
1
172
0
173
0
174
0
175
1
176
1
 91
33
178
0
145
0.0
301
CELL_VALUE
 90
4
  1
Metric Units
304
ACVALUE_END
170
5
140
0.145
171
1
172
0
173
0
174
0
175
1
176
1
 91
33
178
0
145
0.0
301
CELL_VALUE
 90
4
  1
Cavity
304
ACVALUE_END
170
5
140
0.125
171
1
172
0
173
0
174
0
175
2
176
1
 91
33
178
0
145
0.0
301
CELL_VALUE
 90
4
  1
T-11A
304
ACVALUE_END
170
5
140
0.125
171
1
172
0
173
1
174
0
175
1
176
1
 91
1
178
0
145
0.0
170
1
171
1
172
0
173
0
174
0
175
1
176
1
 91
33
178
0
145
0.0
301
CELL_VALUE
 90
4
  1
Body Features
304
ACVALUE_END
170
5
140
0.125
171
1
172
0
173
0
174
0
175
2
176
1
 91
33
178
0
145
0.0
301
CELL_VALUE
 90
4
  1
Ninety degree with reverse flow check - sequence
304
ACVALUE_END
170
5
140
0.125
171
1
172
0
173
1
174
0
175
1
176
1
 91
1
178
0
145
0.0
170
1
171
1
172
0
173
0
174
0
175
1
176
1
 91
33
178
0
145
0.0
301
CELL_VALUE
 90
4
  1
Body Type
304
ACVALUE_END
170
5
140
0.125
171
1
172
0
173
0
174
0
175
2
176
1
 91
33
178
0
145
0.0
301
CELL_VALUE
 90
4
  1
Line mount
304
ACVALUE_END
170
5
140
0.125
171
1
172
0
173
1
174
0
175
1
176
1
 91
1
178
0
145
0.0
170
1
171
1
172
0
173
0
174
0
175
1
176
1
 91
33
178
0
145
0.0
301
CELL_VALUE
 90
4
  1
Interface
304
ACVALUE_END
170
5
140
0.125
171
1
172
0
173
0
174
0
175
2
176
1
 91
33
178
0
145
0.0
301
CELL_VALUE
 90
4
  1
None
304
ACVALUE_END
170
5
140
0.125
171
1
172
0
173
1
174
0
175
1
176
1
 91
1
178
0
145
0.0
170
1
171
1
172
0
173
0
174
0
175
1
176
1
 91
33
178
0
145
0.0
301
CELL_VALUE
 90
4
  1
Open Cavity Quantity
304
ACVALUE_END
170
5
140
0.125
171
1
172
0
173
0
174
0
175
2
176
1
 91
33
178
0
145
0.0
301
CELL_VALUE
 90
4
  1
1
304
ACVALUE_END
170
5
140
0.125
171
1
172
0
173
1
174
0
175
1
176
1
 91
1
178
0
145
0.0
170
1
171
1
172
0
173
0
174
0
175
1
176
1
 91
33
178
0
145
0.0
301
CELL_VALUE
 90
4
  1
Weight
304
ACVALUE_END
170
5
140
0.125
171
1
172
0
173
0
174
0
175
1
176
1
 91
33
178
0
145
0.0
301
CELL_VALUE
 90
4
  1
1.257 lb.
304
ACVALUE_END
170
5
140
0.125
171
1
172
0
173
0
174
0
175
1
176
1
 91
33
178
0
145
0.0
301
CELL_VALUE
 90
4
  1
0,570 kg.
304
ACVALUE_END
170
5
140
0.125
171
1
172
0
173
0
174
0
175
1
176
1
 91
33
178
0
145
0.0
301
CELL_VALUE
 90
4
  1
Check Cracking Pressure
304
ACVALUE_END
170
5
140
0.125
171
1
172
0
173
0
174
0
175
1
176
1
 91
33
178
0
145
0.0
301
CELL_VALUE
 90
4
  1
30 psi
304
ACVALUE_END
170
5
140
0.125
171
1
172
0
173
0
174
0
175
1
176
1
 91
33
178
0
145
0.0
301
CELL_VALUE
 90
4
  1
2 bar
304
ACVALUE_END
170
5
140
0.125
171
1
172
0
173
0
174
0
175
1
176
1
 91
33
178
0
145
0.0
301
CELL_VALUE
 90
4
  1
Mounting Hole Diameter
304
ACVALUE_END
170
5
140
0.125
171
1
172
0
173
0
174
0
175
1
176
1
 91
33
178
0
145
0.0
301
CELL_VALUE
 90
4
  1
.34 in.
304
ACVALUE_END
170
5
140
0.125
171
1
172
0
173
0
174
0
175
1
176
1
 91
33
178
0
145
0.0
301
CELL_VALUE
 90
4
  1
8.6 mm
304
ACVALUE_END
170
5
140
0.125
171
1
172
0
173
0
174
0
175
1
176
1
 91
33
178
0
145
0.0
301
CELL_VALUE
 90
4
  1
Mounting Hole Depth
304
ACVALUE_END
170
5
140
0.125
171
1
172
0
173
0
174
0
175
2
176
1
 91
33
178
0
145
0.0
301
CELL_VALUE
 90
4
  1
Through
304
ACVALUE_END
170
5
140
0.125
171
1
172
0
173
1
174
0
175
1
176
1
 91
1
178
0
145
0.0
170
1
171
1
172
0
173
0
174
0
175
1
176
1
 91
33
178
0
145
0.0
301
CELL_VALUE
 90
4
  1
Mounting Hole Quantity
304
ACVALUE_END
170
5
140
0.125
171
1
172
0
173
0
174
0
175
2
176
1
 91
33
178
0
145
0.0
301
CELL_VALUE
 90
4
  1
2
304
ACVALUE_END
170
5
140
0.125
171
1
172
0
173
1
174
0
175
1
176
1
 91
1
178
0
145
0.0
170
1
171
1
172
0
173
0
174
0
175
1
176
1
 91
33
178
0
145
0.0
301
CELL_VALUE
 90
4
  1
Includes integral cartridge(s)
304
ACVALUE_END
170
5
140
0.125
171
1
172
0
173
0
174
0
175
2
176
1
 91
33
178
0
145
0.0
301
CELL_VALUE
 90
4
  1
Yes (see Included Components)
304
ACVALUE_END
170
5
140
0.125
171
1
172
0
173
1
174
0
175
1
176
1
 91
1
178
0
145
0.0
170
1
  0
ACAD_TABLE
  5
29A
100
AcDbEntity
  8
0
 62
2
  6
CONTINUOUS
100
AcDbBlockReference
  2
*T3
 10
0.52125
 20
1.959
 30
0.0
100
AcDbTable
342
       3A0
343
211
 11
1.0
 21
0.0
 31
0.0
 90
22
 91
5
 92
3
 93
16
 94
0
 95
0
 96
0
 41
0.05
141
0.34375
141
0.344
141
0.25
141
0.25
141
0.25
142
1.3
142
2.0
142
1.3
171
1
172
0
173
0
174
0
175
3
176
1
 91
33
178
0
145
0.0
301
CELL_VALUE
 90
4
  1
Port Headings
304
ACVALUE_END
170
5
140
0.145
171
1
172
0
173
1
174
0
175
1
176
1
 91
1
178
0
145
0.0
170
1
171
1
172
0
173
1
174
0
175
1
176
1
 91
1
178
0
145
0.0
170
1
171
1
172
0
173
0
174
0
175
1
176
1
 91
33
178
0
145
0.0
301
CELL_VALUE
 90
4
  1
Product
304
ACVALUE_END
170
5
140
0.145
171
1
172
0
173
0
174
0
175
1
176
1
 91
33
178
0
145
0.0
301
CELL_VALUE
 90
4
  1
Port
304
ACVALUE_END
170
5
140
0.145
171
1
172
0
173
0
174
0
175
1
176
1
 91
33
178
0
145
0.0
301
CELL_VALUE
 90
4
  1
Size
304
ACVALUE_END
170
5
140
0.145
171
1
172
0
173
0
174
0
175
1
176
1
 91
33
178
0
145
0.0
301
CELL_VALUE
 90
4
  1
E6U
304
ACVALUE_END
170
5
140
0.125
171
1
172
0
173
0
174
0
175
1
176
1
 91
33
178
0
145
0.0
301
CELL_VALUE
 90
4
  1
Ports 1 &  2
304
ACVALUE_END
170
5
140
0.125
171
1
172
0
173
0
174
0
175
1
176
1
 91
33
178
0
145
0.0
301
CELL_VALUE
 90
4
  1
3/8" BSPP
304
ACVALUE_END
170
5
140
0.125
171
1
172
0
173
0
174
0
175
1
176
1
 91
33
178
0
145
0.0
301
CELL_VALUE
 90
4
  1
E6U
304
ACVALUE_END
170
5
140
0.125
171
1
172
0
173
0
174
0
175
1
176
1
 91
33
178
0
145
0.0
301
CELL_VALUE
 90
4
  1
Port 3
304
ACVALUE_END
170
5
140
0.125
171
1
172
0
173
0
174
0
175
1
176
1
 91
33
178
0
145
0.0
301
CELL_VALUE
 90
4
  1
1/4" BSPP
304
ACVALUE_END
170
5
140
0.125
171
1
172
0
173
0
174
0
175
1
176
1
 91
33
178
0
145
0.0
301
CELL_VALUE
 90
4
  1
E6U
304
ACVALUE_END
170
5
140
0.125
171
1
172
0
173
0
174
0
175
1
176
1
 91
33
178
0
145
0.0
301
CELL_VALUE
 90
4
  1
Gage Port
304
ACVALUE_END
170
5
140
0.125
171
1
172
0
173
0
174
0
175
1
176
1
 91
33
178
0
145
0.0
301
CELL_VALUE
 90
4
  1
1/4" BSPP
304
ACVALUE_END
170
5
140
0.125
  0
MTEXT
  5
29B
100
AcDbEntity
  8
0
100
AcDbMText
 62
2
  6
CONTINUOUS
  7
STANDARD
 71
1
 72
1
 10
0.52125
 20
5.75995
 30
0.0
 11
1.0
 21
0.0
 31
0.0
 44
0.6
  3
Notes\P \P1. Important: Carefully consider\P   the maximum system pressure. The\P   pressure rating of the manifold is\P   dependent on the manifold material,\P   with the port type/size a secondary\P   consideration. Manifolds\P   constructed of alu
  1
minum are not\P   rated for pressures higher than\P   3000 psi (210 bar), regardless of\P   the port type/size specified.
 40
0.1
 41
3.04
  0
LINE
  5
29C
100
AcDbEntity
  8
0
100
AcDbLine
 62
7
  6
CONTINUOUS
 10
0.30125
 20
0.30125
 11
0.30125
 21
16.69875
  0
LINE
  5
29D
100
AcDbEntity
  8
0
100
AcDbLine
 62
7
  6
CONTINUOUS
 10
0.30125
 20
0.30125
 11
21.69875
 21
0.30125
  0
LINE
  5
29E
100
AcDbEntity
  8
0
100
AcDbLine
 62
7
  6
CONTINUOUS
 10
0.30125
 20
16.69875
 11
21.69875
 21
16.69875
  0
LINE
  5
29F
100
AcDbEntity
  8
0
100
AcDbLine
 62
7
  6
CONTINUOUS
 10
21.69875
 20
0.30125
 11
21.69875
 21
16.69875
  0
LINE
  5
2A0
100
AcDbEntity
  8
0
100
AcDbLine
 62
7
  6
CONTINUOUS
 10
9.7128729444
 20
10.7425653472
 11
9.389349405
 21
10.4300655866
  0
LINE
  5
2A1
100
AcDbEntity
  8
0
100
AcDbLine
 62
4
  6
CONTINUOUS
 10
9.5806027397
 20
9.959919213
 11
9.5733582958
 21
9.9507623605
  0
LINE
  5
2A2
100
AcDbEntity
  8
0
100
AcDbLine
 62
4
  6
CONTINUOUS
 10
9.529891632
 20
9.9827545598
 11
9.5443805199
 21
9.9914090083
  0
LINE
  5
2A3
100
AcDbEntity
  8
0
100
AcDbLine
 62
4
  6
CONTINUOUS
 10
9.5878471837
 20
9.9014612573
 11
9.5733582958
 21
9.8831475482
  0
LINE
  5
2A4
100
AcDbEntity
  8
0
100
AcDbLine
 62
4
  6
CONTINUOUS
 10
9.5733582958
 20
9.9507623605
 11
9.5588694078
 21
9.9421079051
  0
LINE
  5
2A5
100
AcDbEntity
  8
0
100
AcDbLine
 62
4
  6
CONTINUOUS
 10
9.5733582958
 20
9.8831475482
 11
9.5588694078
 21
9.8744930971
  0
LINE
  5
2A6
100
AcDbEntity
  8
0
100
AcDbLine
 62
7
  6
CONTINUOUS
 10
11.2064931483
 20
6.3251394322
 11
11.2228173394
 21
6.3170755943
  0
LINE
  5
2A7
100
AcDbEntity
  8
0
100
AcDbLine
 62
7
  6
CONTINUOUS
 10
9.389349405
 20
6.9285842588
 11
12.2871270556
 21
6.7276226962
  0
LINE
  5
2A8
100
AcDbEntity
  8
0
100
AcDbLine
 62
7
  6
CONTINUOUS
 10
9.389349405
 20
6.9285842588
 11
9.389349405
 21
10.4300655866
  0
LINE
  5
2A9
100
AcDbEntity
  8
0
100
AcDbLine
 62
4
  6
CONTINUOUS
 10
9.5806027397
 20
9.9695784693
 11
9.5806027397
 21
9.959919213
  0
LINE
  5
2AA
100
AcDbEntity
  8
0
100
AcDbLine
 62
4
  6
CONTINUOUS
 10
9.5806027397
 20
7.9218155543
 11
9.5806027397
 21
7.8059044509
  0
LINE
  5
2AB
100
AcDbEntity
  8
0
100
AcDbLine
 62
4
  6
CONTINUOUS
 10
9.5878471837
 20
9.9111205171
 11
9.5878471837
 21
9.9014612573
  0
LINE
  5
2AC
100
AcDbEntity
  8
0
100
AcDbLine
 62
4
  6
CONTINUOUS
 10
11.1748634168
 20
7.1370369568
 11
11.1603745288
 21
7.1380417646
  0
LINE
  5
2AD
100
AcDbEntity
  8
0
100
AcDbLine
 62
4
  6
CONTINUOUS
 10
11.1676189728
 20
7.1954949124
 11
11.1965967487
 21
7.1934852968
  0
LINE
  5
2AE
100
AcDbEntity
  8
0
100
AcDbLine
 62
4
  6
CONTINUOUS
 10
11.1603745288
 20
7.253952868
 11
11.1748634168
 21
7.2529480602
  0
LINE
  5
2AF
100
AcDbEntity
  8
0
100
AcDbLine
 62
4
  6
CONTINUOUS
 10
10.2959398651
 20
9.1528865458
 11
10.3124985949
 21
9.168296922
  0
LINE
  5
2B0
100
AcDbEntity
  8
0
100
AcDbLine
 62
4
  6
CONTINUOUS
 10
11.1603745288
 20
7.1380417646
 11
11.1458856409
 21
7.1487058313
  0
LINE
  5
2B1
100
AcDbEntity
  8
0
100
AcDbLine
 62
4
  6
CONTINUOUS
 10
11.1748634168
 20
7.2529480602
 11
11.1893523047
 21
7.2422839961
  0
LINE
  5
2B2
100
AcDbEntity
  8
0
100
AcDbLine
 62
4
  6
CONTINUOUS
 10
10.3373366887
 20
9.0506632909
 11
10.3538954168
 21
9.0660736691
  0
LINE
  5
2B3
100
AcDbEntity
  8
0
100
AcDbLine
 62
4
  6
CONTINUOUS
 10
10.4284097035
 20
9.0443473559
 11
10.4449684247
 21
9.0597577345
  0
LINE
  5
2B4
100
AcDbEntity
  8
0
100
AcDbLine
 62
4
  6
CONTINUOUS
 10
10.2959398651
 20
9.1363278177
 11
10.2959398651
 21
9.1528865458
  0
LINE
  5
2B5
100
AcDbEntity
  8
0
100
AcDbLine
 62
4
  6
CONTINUOUS
 10
10.3538954168
 20
9.0660736691
 11
10.3538954168
 21
9.0826323989
  0
LINE
  5
2B6
100
AcDbEntity
  8
0
100
AcDbLine
 62
4
  6
CONTINUOUS
 10
10.387012873
 20
9.1631293393
 11
10.387012873
 21
9.0637769657
  0
LINE
  5
2B7
100
AcDbEntity
  8
0
100
AcDbLine
 62
4
  6
CONTINUOUS
 10
10.4228901335
 20
8.4535835119
 11
10.4228901335
 21
8.5694946153
  0
LINE
  5
2B8
100
AcDbEntity
  8
0
100
AcDbLine
 62
4
  6
CONTINUOUS
 10
10.4449684247
 20
9.0597577345
 11
10.4449684247
 21
9.1591101081
  0
LINE
  5
2B9
100
AcDbEntity
  8
0
100
AcDbLine
 62
4
  6
CONTINUOUS
 10
10.8147800529
 20
9.092066761
 11
10.8313387741
 21
9.0991977773
  0
LINE
  5
2BA
100
AcDbEntity
  8
0
100
AcDbLine
 62
4
  6
CONTINUOUS
 10
11.1458856409
 20
7.1487058313
 11
11.131396753
 21
7.169029156
  0
LINE
  5
2BB
100
AcDbEntity
  8
0
100
AcDbLine
 62
4
  6
CONTINUOUS
 10
11.1893523047
 20
7.2422839961
 11
11.1965967487
 21
7.232122329
  0
LINE
  5
2BC
100
AcDbEntity
  8
0
100
AcDbLine
 62
4
  6
CONTINUOUS
 10
10.4780858808
 20
9.0409023013
 11
10.4780858808
 21
9.1568134048
  0
LINE
  5
2BD
100
AcDbEntity
  8
0
100
AcDbLine
 62
4
  6
CONTINUOUS
 10
10.4808456783
 20
8.5489166566
 11
10.4808456783
 21
8.466123011
  0
LINE
  5
2BE
100
AcDbEntity
  8
0
100
AcDbLine
 62
4
  6
CONTINUOUS
 10
10.5360414326
 20
9.0368830702
 11
10.5360414326
 21
9.1527941736
  0
LINE
  5
2BF
100
AcDbEntity
  8
0
100
AcDbLine
 62
4
  6
CONTINUOUS
 10
10.5277620779
 20
8.4463106179
 11
10.5608795341
 21
8.5599250179
  0
LINE
  5
2C0
100
AcDbEntity
  8
0
100
AcDbLine
 62
4
  6
CONTINUOUS
 10
10.7595842788
 20
8.9937824393
 11
10.7927017212
 21
9.101877266
  0
LINE
  5
2C1
100
AcDbEntity
  8
0
100
AcDbLine
 62
7
  6
CONTINUOUS
 10
12.2871270556
 20
10.229104024
 11
12.610650595
 21
10.5416037846
  0
LINE
  5
2C2
100
AcDbEntity
  8
0
100
AcDbLine
 62
4
  6
CONTINUOUS
 10
10.9720879869
 20
9.0397605985
 11
10.988646708
 21
9.0468916113
  0
LINE
  5
2C3
100
AcDbEntity
  8
0
100
AcDbLine
 62
4
  6
CONTINUOUS
 10
10.4642869502
 20
8.5666237363
 11
10.4808456783
 21
8.5489166566
  0
LINE
  5
2C4
100
AcDbEntity
  8
0
100
AcDbLine
 62
4
  6
CONTINUOUS
 10
9.529891632
 20
9.8861619716
 11
9.522647188
 21
9.8963236344
  0
LINE
  5
2C5
100
AcDbEntity
  8
0
100
AcDbLine
 62
4
  6
CONTINUOUS
 10
10.5608795341
 20
8.5599250179
 11
10.593997004
 21
8.4417172101
  0
LINE
  5
2C6
100
AcDbEntity
  8
0
100
AcDbLine
 62
4
  6
CONTINUOUS
 10
10.6602318966
 20
9.0282704322
 11
10.6602318966
 21
9.1441815357
  0
LINE
  5
2C7
100
AcDbEntity
  8
0
100
AcDbLine
 62
4
  6
CONTINUOUS
 10
10.6602319163
 20
8.4371238034
 11
10.6602319163
 21
8.5530349068
  0
LINE
  5
2C8
100
AcDbEntity
  8
0
100
AcDbLine
 62
4
  6
CONTINUOUS
 10
10.7099080877
 20
9.0993396565
 11
10.7099080877
 21
9.0248253767
  0
LINE
  5
2C9
100
AcDbEntity
  8
0
100
AcDbLine
 62
4
  6
CONTINUOUS
 10
10.7223271197
 20
8.6878219139
 11
10.7223271197
 21
8.8037330174
  0
LINE
  5
2CA
100
AcDbEntity
  8
0
100
AcDbLine
 62
4
  6
CONTINUOUS
 10
10.7264668286
 20
8.4325303966
 11
10.7264668286
 21
8.5484415
  0
LINE
  5
2CB
100
AcDbEntity
  8
0
100
AcDbLine
 62
4
  6
CONTINUOUS
 10
10.805120767
 20
8.7400357067
 11
10.805120767
 21
8.6986388848
  0
LINE
  5
2CC
100
AcDbEntity
  8
0
100
AcDbLine
 62
4
  6
CONTINUOUS
 10
10.8147800529
 20
9.0258318461
 11
10.8147800529
 21
9.092066761
  0
LINE
  5
2CD
100
AcDbEntity
  8
0
100
AcDbLine
 62
4
  6
CONTINUOUS
 10
10.821679495
 20
8.7720048112
 11
10.805120767
 21
8.7400357067
  0
LINE
  5
2CE
100
AcDbEntity
  8
0
100
AcDbLine
 62
4
  6
CONTINUOUS
 10
10.4808456783
 20
8.466123011
 11
10.4642869502
 21
8.4507126329
  0
LINE
  5
2CF
100
AcDbEntity
  8
0
100
AcDbLine
 62
4
  6
CONTINUOUS
 10
10.8465175837
 20
8.7951203794
 11
10.821679495
 21
8.7720048112
  0
LINE
  5
2D0
100
AcDbEntity
  8
0
100
AcDbLine
 62
4
  6
CONTINUOUS
 10
11.2563461349
 20
9.0614440492
 11
11.2646254678
 21
9.069149243
  0
LINE
  5
2D1
100
AcDbEntity
  8
0
100
AcDbLine
 62
4
  6
CONTINUOUS
 10
10.8465175837
 20
8.679209276
 11
10.8630763187
 21
8.6946196536
  0
LINE
  5
2D2
100
AcDbEntity
  8
0
100
AcDbLine
 62
4
  6
CONTINUOUS
 10
11.330860463
 20
9.056276463
 11
11.339139796
 21
9.0639816568
  0
LINE
  5
2D3
100
AcDbEntity
  8
0
100
AcDbLine
 62
4
  6
CONTINUOUS
 10
10.9375905916
 20
8.6728933414
 11
10.9541493265
 21
8.6883037191
  0
LINE
  5
2D4
100
AcDbEntity
  8
0
100
AcDbLine
 62
4
  6
CONTINUOUS
 10
10.4008118259
 20
8.526869143
 11
10.3566552143
 21
8.5078531068
  0
LINE
  5
2D5
100
AcDbEntity
  8
0
100
AcDbLine
 62
4
  6
CONTINUOUS
 10
10.3566552143
 20
8.5078531068
 11
10.4008118259
 21
8.4827125296
  0
LINE
  5
2D6
100
AcDbEntity
  8
0
100
AcDbLine
 62
4
  6
CONTINUOUS
 10
9.5733582958
 20
9.931443841
 11
9.5878471837
 21
9.9111205171
  0
LINE
  5
2D7
100
AcDbEntity
  8
0
100
AcDbLine
 62
4
  6
CONTINUOUS
 10
9.5733582958
 20
9.9797401364
 11
9.5806027397
 21
9.9695784693
  0
LINE
  5
2D8
100
AcDbEntity
  8
0
100
AcDbLine
 62
4
  6
CONTINUOUS
 10
10.4780858808
 20
9.1568134048
 11
10.5360414326
 21
9.0368830702
  0
LINE
  5
2D9
100
AcDbEntity
  8
0
100
AcDbLine
 62
4
  6
CONTINUOUS
 10
11.131396753
 20
7.169029156
 11
11.124152309
 21
7.1985093358
  0
LINE
  5
2DA
100
AcDbEntity
  8
0
100
AcDbLine
 62
4
  6
CONTINUOUS
 10
10.8630763187
 20
8.6946196536
 11
10.8630763187
 21
8.7277371115
  0
LINE
  5
2DB
100
AcDbEntity
  8
0
100
AcDbLine
 62
4
  6
CONTINUOUS
 10
10.8644562164
 20
9.130018531
 11
10.8644562164
 21
9.0141074275
  0
LINE
  5
2DC
100
AcDbEntity
  8
0
100
AcDbLine
 62
4
  6
CONTINUOUS
 10
10.8961937748
 20
8.7916753239
 11
10.8961937748
 21
8.6923229502
  0
LINE
  5
2DD
100
AcDbEntity
  8
0
100
AcDbLine
 62
4
  6
CONTINUOUS
 10
10.897573714
 20
9.0118107213
 11
10.897573714
 21
9.0946043686
  0
LINE
  5
2DE
100
AcDbEntity
  8
0
100
AcDbLine
 62
4
  6
CONTINUOUS
 10
10.9003335114
 20
8.437031431
 11
10.9003335114
 21
8.5198250765
  0
LINE
  5
2DF
100
AcDbEntity
  8
0
100
AcDbLine
 62
4
  6
CONTINUOUS
 10
10.9362107116
 20
9.0836455162
 11
10.9362107116
 21
9.0670867881
  0
LINE
  5
2E0
100
AcDbEntity
  8
0
100
AcDbLine
 62
4
  6
CONTINUOUS
 10
10.9541493265
 20
8.6883037191
 11
10.9541493265
 21
8.7876560927
  0
LINE
  5
2E1
100
AcDbEntity
  8
0
100
AcDbLine
 62
4
  6
CONTINUOUS
 10
10.9720879869
 20
9.0149225038
 11
10.9720879869
 21
9.0397605985
  0
LINE
  5
2E2
100
AcDbEntity
  8
0
100
AcDbLine
 62
4
  6
CONTINUOUS
 10
10.9969260608
 20
8.4303327149
 11
10.9969260608
 21
8.5131263605
  0
LINE
  5
2E3
100
AcDbEntity
  8
0
100
AcDbLine
 62
4
  6
CONTINUOUS
 10
11.0217641504
 20
9.0031980853
 11
11.0217641504
 21
9.0694330045
  0
LINE
  5
2E4
100
AcDbEntity
  8
0
100
AcDbLine
 62
4
  6
CONTINUOUS
 10
11.2149493043
 20
9.1057117528
 11
11.2121895267
 21
9.0976237765
  0
LINE
  5
2E5
100
AcDbEntity
  8
0
100
AcDbLine
 62
4
  6
CONTINUOUS
 10
11.3722572383
 20
8.9788913071
 11
11.3805365713
 21
8.9865964983
  0
LINE
  5
2E6
100
AcDbEntity
  8
0
100
AcDbLine
 62
4
  6
CONTINUOUS
 10
10.9003335114
 20
8.5198250765
 11
10.9168922326
 21
8.5352354534
  0
LINE
  5
2E7
100
AcDbEntity
  8
0
100
AcDbLine
 62
4
  6
CONTINUOUS
 10
10.9969260608
 20
8.5131263605
 11
11.0134847819
 21
8.5285367374
  0
LINE
  5
2E8
100
AcDbEntity
  8
0
100
AcDbLine
 62
4
  6
CONTINUOUS
 10
11.1293958854
 20
8.4045871716
 11
11.0879990548
 21
8.4074580515
  0
LINE
  5
2E9
100
AcDbEntity
  8
0
100
AcDbLine
 62
4
  6
CONTINUOUS
 10
11.0383228913
 20
8.4109031052
 11
11.0134847819
 21
8.4126256339
  0
LINE
  5
2EA
100
AcDbEntity
  8
0
100
AcDbLine
 62
4
  6
CONTINUOUS
 10
10.9500096749
 20
8.4170276475
 11
10.9168922326
 21
8.41932435
  0
LINE
  5
2EB
100
AcDbEntity
  8
0
100
AcDbLine
 62
4
  6
CONTINUOUS
 10
10.4642869502
 20
8.4507126329
 11
10.4228901335
 21
8.4535835119
  0
LINE
  5
2EC
100
AcDbEntity
  8
0
100
AcDbLine
 62
4
  6
CONTINUOUS
 10
10.7264668286
 20
8.4325303966
 11
10.7761430198
 21
8.429085341
  0
LINE
  5
2ED
100
AcDbEntity
  8
0
100
AcDbLine
 62
4
  6
CONTINUOUS
 10
11.1928710477
 20
8.4001851541
 11
11.2425472112
 21
8.3967401005
  0
LINE
  5
2EE
100
AcDbEntity
  8
0
100
AcDbLine
 62
4
  6
CONTINUOUS
 10
10.53880123
 20
8.4786625097
 11
10.5829578382
 21
8.4756002385
  0
LINE
  5
2EF
100
AcDbEntity
  8
0
100
AcDbLine
 62
4
  6
CONTINUOUS
 10
11.22598849
 20
8.4641233709
 11
11.1928710477
 21
8.4664200733
  0
LINE
  5
2F0
100
AcDbEntity
  8
0
100
AcDbLine
 62
4
  6
CONTINUOUS
 10
10.7595842986
 20
8.4964686115
 11
10.7264668286
 21
8.4987653158
  0
LINE
  5
2F1
100
AcDbEntity
  8
0
100
AcDbLine
 62
4
  6
CONTINUOUS
 10
10.3538954168
 20
9.0826323989
 11
10.2959398651
 21
9.1363278177
  0
LINE
  5
2F2
100
AcDbEntity
  8
0
100
AcDbLine
 62
4
  6
CONTINUOUS
 10
10.2959398651
 20
9.0618135353
 11
10.30421923
 21
9.0529599945
  0
LINE
  5
2F3
100
AcDbEntity
  8
0
100
AcDbLine
 62
4
  6
CONTINUOUS
 10
10.9168922326
 20
8.41932435
 11
10.9003335114
 21
8.437031431
  0
LINE
  5
2F4
100
AcDbEntity
  8
0
100
AcDbLine
 62
4
  6
CONTINUOUS
 10
10.387012873
 20
9.0637769657
 11
10.403571601
 21
9.0460698842
  0
LINE
  5
2F5
100
AcDbEntity
  8
0
100
AcDbLine
 62
4
  6
CONTINUOUS
 10
11.0134847819
 20
8.4126256339
 11
10.9969260608
 21
8.4303327149
  0
LINE
  5
2F6
100
AcDbEntity
  8
0
100
AcDbLine
 62
4
  6
CONTINUOUS
 10
10.3456160528
 20
9.1660002185
 11
10.3538954168
 21
9.1571466752
  0
LINE
  5
2F7
100
AcDbEntity
  8
0
100
AcDbLine
 62
4
  6
CONTINUOUS
 10
10.805120767
 20
8.6986388848
 11
10.821679495
 21
8.6809318033
  0
LINE
  5
2F8
100
AcDbEntity
  8
0
100
AcDbLine
 62
4
  6
CONTINUOUS
 10
10.7430255577
 20
9.1053223196
 11
10.7678636671
 21
9.0208061436
  0
LINE
  5
2F9
100
AcDbEntity
  8
0
100
AcDbLine
 62
4
  6
CONTINUOUS
 10
11.0548815927
 20
9.0836950301
 11
11.0548815927
 21
9.0091807477
  0
LINE
  5
2FA
100
AcDbEntity
  8
0
100
AcDbLine
 62
4
  6
CONTINUOUS
 10
11.0548816125
 20
8.5091071293
 11
11.0548816125
 21
8.4263134838
  0
LINE
  5
2FB
100
AcDbEntity
  8
0
100
AcDbLine
 62
4
  6
CONTINUOUS
 10
11.0879990548
 20
8.4074580515
 11
11.0879990548
 21
8.523369155
  0
LINE
  5
2FC
100
AcDbEntity
  8
0
100
AcDbLine
 62
4
  6
CONTINUOUS
 10
11.1045578115
 20
8.9974563254
 11
11.1045578115
 21
9.0802499727
  0
LINE
  5
2FD
100
AcDbEntity
  8
0
100
AcDbLine
 62
7
  6
CONTINUOUS
 10
11.1245682596
 20
6.8082464225
 11
11.1245682596
 21
6.4269225383
  0
LINE
  5
2FE
100
AcDbEntity
  8
0
100
AcDbLine
 62
4
  6
CONTINUOUS
 10
11.1376752538
 20
9.0034389878
 11
11.1376752538
 21
9.1110707264
  0
LINE
  5
2FF
100
AcDbEntity
  8
0
100
AcDbLine
 62
4
  6
CONTINUOUS
 10
11.1459546065
 20
8.5027911957
 11
11.1459546065
 21
8.4199975502
  0
LINE
  5
300
100
AcDbEntity
  8
0
100
AcDbLine
 62
4
  6
CONTINUOUS
 10
11.1928710477
 20
8.4001851541
 11
11.1928710477
 21
8.5160962576
  0
LINE
  5
301
100
AcDbEntity
  8
0
100
AcDbLine
 62
4
  6
CONTINUOUS
 10
11.1965967487
 20
7.1934852968
 11
11.1965967487
 21
7.1548482629
  0
LINE
  5
302
100
AcDbEntity
  8
0
100
AcDbLine
 62
4
  6
CONTINUOUS
 10
11.0548816125
 20
8.4263134838
 11
11.0383228913
 21
8.4109031052
  0
LINE
  5
303
100
AcDbEntity
  8
0
100
AcDbLine
 62
4
  6
CONTINUOUS
 10
11.1459546065
 20
8.4199975502
 11
11.1293958854
 21
8.4045871716
  0
LINE
  5
304
100
AcDbEntity
  8
0
100
AcDbLine
 62
4
  6
CONTINUOUS
 10
11.3198212617
 20
8.4410573146
 11
11.2756646535
 21
8.4220412799
  0
LINE
  5
305
100
AcDbEntity
  8
0
100
AcDbLine
 62
4
  6
CONTINUOUS
 10
10.4228901335
 20
8.5694946153
 11
10.4642869502
 21
8.5666237363
  0
LINE
  5
306
100
AcDbEntity
  8
0
100
AcDbLine
 62
4
  6
CONTINUOUS
 10
10.6271144464
 20
8.5553316111
 11
10.6933493587
 21
8.5507382044
  0
LINE
  5
307
100
AcDbEntity
  8
0
100
AcDbLine
 62
4
  6
CONTINUOUS
 10
10.7264668286
 20
8.5484415
 11
10.7761430198
 21
8.5449964445
  0
LINE
  5
308
100
AcDbEntity
  8
0
100
AcDbLine
 62
4
  6
CONTINUOUS
 10
10.9168922326
 20
8.5352354534
 11
10.9500096749
 21
8.532938751
  0
LINE
  5
309
100
AcDbEntity
  8
0
100
AcDbLine
 62
4
  6
CONTINUOUS
 10
11.0134847819
 20
8.5285367374
 11
11.0383228913
 21
8.5268142086
  0
LINE
  5
30A
100
AcDbEntity
  8
0
100
AcDbLine
 62
4
  6
CONTINUOUS
 10
11.0879990548
 20
8.523369155
 11
11.1293958854
 21
8.520498275
  0
LINE
  5
30B
100
AcDbEntity
  8
0
100
AcDbLine
 62
4
  6
CONTINUOUS
 10
11.1928710477
 20
8.5160962576
 11
11.2425472112
 21
8.5126512039
  0
LINE
  5
30C
100
AcDbEntity
  8
0
100
AcDbLine
 62
4
  6
CONTINUOUS
 10
10.7223271197
 20
8.6878219139
 11
10.7720033074
 21
8.6843768586
  0
LINE
  5
30D
100
AcDbEntity
  8
0
100
AcDbLine
 62
4
  6
CONTINUOUS
 10
10.821679495
 20
8.6809318033
 11
10.8465175837
 21
8.679209276
  0
LINE
  5
30E
100
AcDbEntity
  8
0
100
AcDbLine
 62
4
  6
CONTINUOUS
 10
10.9127525098
 20
8.6746158683
 11
10.9375905916
 21
8.6728933414
  0
LINE
  5
30F
100
AcDbEntity
  8
0
100
AcDbLine
 62
4
  6
CONTINUOUS
 10
11.2756646535
 20
8.4661978933
 11
11.3198212617
 21
8.4410573146
  0
LINE
  5
310
100
AcDbEntity
  8
0
100
AcDbLine
 62
4
  6
CONTINUOUS
 10
11.0383228913
 20
8.5268142086
 11
11.0548816125
 21
8.5091071293
  0
LINE
  5
311
100
AcDbEntity
  8
0
100
AcDbLine
 62
4
  6
CONTINUOUS
 10
10.8630763187
 20
8.7277371115
 11
10.8465175837
 21
8.7454441952
  0
LINE
  5
312
100
AcDbEntity
  8
0
100
AcDbLine
 62
4
  6
CONTINUOUS
 10
10.8961937748
 20
8.6923229502
 11
10.9127525098
 21
8.6746158683
  0
LINE
  5
313
100
AcDbEntity
  8
0
100
AcDbLine
 62
4
  6
CONTINUOUS
 10
11.1293958854
 20
8.520498275
 11
11.1459546065
 21
8.5027911957
  0
LINE
  5
314
100
AcDbEntity
  8
0
100
AcDbLine
 62
4
  6
CONTINUOUS
 10
10.7016287271
 20
9.1081931996
 11
10.7099080877
 21
9.0993396565
  0
LINE
  5
315
100
AcDbEntity
  8
0
100
AcDbLine
 62
4
  6
CONTINUOUS
 10
11.2121895267
 20
8.9899920406
 11
11.2121895267
 21
9.0727856879
  0
LINE
  5
316
100
AcDbEntity
  8
0
100
AcDbLine
 62
4
  6
CONTINUOUS
 10
11.2121895267
 20
9.0976237765
 11
11.2121895267
 21
9.105903144
  0
LINE
  5
317
100
AcDbEntity
  8
0
100
AcDbLine
 62
7
  6
CONTINUOUS
 10
11.2376230716
 20
6.7383193882
 11
11.2376230716
 21
6.3177201624
  0
LINE
  5
318
100
AcDbEntity
  8
0
100
AcDbLine
 62
4
  6
CONTINUOUS
 10
11.2563461349
 20
8.9952091343
 11
11.2563461349
 21
9.0614440492
  0
LINE
  5
319
100
AcDbEntity
  8
0
100
AcDbLine
 62
7
  6
CONTINUOUS
 10
11.2795032991
 20
6.7274800014
 11
11.2795032991
 21
6.3068807757
  0
LINE
  5
31A
100
AcDbEntity
  8
0
100
AcDbLine
 62
4
  6
CONTINUOUS
 10
11.330860463
 20
9.0314383709
 11
11.330860463
 21
9.056276463
  0
LINE
  5
31B
100
AcDbEntity
  8
0
100
AcDbLine
 62
4
  6
CONTINUOUS
 10
11.3805365713
 20
8.9865964983
 11
11.3805365713
 21
9.011434593
  0
LINE
  5
31C
100
AcDbEntity
  8
0
100
AcDbLine
 62
4
  6
CONTINUOUS
 10
12.1127774397
 20
8.8676485418
 11
12.1272663276
 21
8.8763029904
  0
LINE
  5
31D
100
AcDbEntity
  8
0
100
AcDbLine
 62
4
  6
CONTINUOUS
 10
12.1562441035
 20
8.8259970794
 11
12.1272663276
 21
8.8086881789
  0
LINE
  5
31E
100
AcDbEntity
  8
0
100
AcDbLine
 62
4
  6
CONTINUOUS
 10
10.8465175837
 20
8.7454441952
 11
10.810640343
 21
8.7479322903
  0
LINE
  5
31F
100
AcDbEntity
  8
0
100
AcDbLine
 62
4
  6
CONTINUOUS
 10
10.7554445793
 20
8.7517601295
 11
10.7223271197
 21
8.7540568331
  0
LINE
  5
320
100
AcDbEntity
  8
0
100
AcDbLine
 62
4
  6
CONTINUOUS
 10
10.7223271197
 20
8.8037330174
 11
10.7720033074
 21
8.800287962
  0
LINE
  5
321
100
AcDbEntity
  8
0
100
AcDbLine
 62
4
  6
CONTINUOUS
 10
12.1055329957
 20
8.7618990986
 11
12.1634885474
 21
8.7578798674
  0
LINE
  5
322
100
AcDbEntity
  8
0
100
AcDbLine
 62
4
  6
CONTINUOUS
 10
10.8313387741
 20
9.01640413
 11
10.8147800529
 21
9.0258318461
  0
LINE
  5
323
100
AcDbEntity
  8
0
100
AcDbLine
 62
4
  6
CONTINUOUS
 10
9.5443805199
 20
9.8754979049
 11
9.529891632
 21
9.8861619716
  0
LINE
  5
324
100
AcDbEntity
  8
0
100
AcDbLine
 62
4
  6
CONTINUOUS
 10
9.5588694078
 20
9.9421079051
 11
9.5733582958
 21
9.931443841
  0
LINE
  5
325
100
AcDbEntity
  8
0
100
AcDbLine
 62
4
  6
CONTINUOUS
 10
9.5588694078
 20
9.9904042005
 11
9.5733582958
 21
9.9797401364
  0
LINE
  5
326
100
AcDbEntity
  8
0
100
AcDbLine
 62
4
  6
CONTINUOUS
 10
11.0548815927
 20
9.0091807477
 11
11.0631609809
 21
9.0003272053
  0
LINE
  5
327
100
AcDbEntity
  8
0
100
AcDbLine
 62
4
  6
CONTINUOUS
 10
10.9306911563
 20
9.0923076661
 11
10.9362107116
 21
9.0836455162
  0
LINE
  5
328
100
AcDbEntity
  8
0
100
AcDbLine
 62
4
  6
CONTINUOUS
 10
11.0217641504
 20
9.0694330045
 11
11.0134848174
 21
9.0865659062
  0
LINE
  5
329
100
AcDbEntity
  8
0
100
AcDbLine
 62
4
  6
CONTINUOUS
 10
11.124152309
 20
7.1985093358
 11
11.131396753
 21
7.2269847077
  0
LINE
  5
32A
100
AcDbEntity
  8
0
100
AcDbLine
 62
7
  6
CONTINUOUS
 10
12.4342532587
 20
9.201045527
 11
12.4334340104
 21
9.2002687494
  0
LINE
  5
32B
100
AcDbEntity
  8
0
100
AcDbLine
 62
4
  6
CONTINUOUS
 10
12.1272663276
 20
8.8763029904
 11
12.1417552155
 21
8.8752981826
  0
LINE
  5
32C
100
AcDbEntity
  8
0
100
AcDbLine
 62
4
  6
CONTINUOUS
 10
10.7430255577
 20
8.9949307905
 11
10.7595842788
 21
8.9937824393
  0
LINE
  5
32D
100
AcDbEntity
  8
0
100
AcDbLine
 62
4
  6
CONTINUOUS
 10
11.2977430207
 20
8.9840588856
 11
11.2646254678
 21
8.9863555957
  0
LINE
  5
32E
100
AcDbEntity
  8
0
100
AcDbLine
 62
4
  6
CONTINUOUS
 10
11.1625133632
 20
8.9934370942
 11
11.145954642
 21
8.9945854454
  0
LINE
  5
32F
100
AcDbEntity
  8
0
100
AcDbLine
 62
4
  6
CONTINUOUS
 10
11.0217641504
 20
9.0031980853
 11
10.988646708
 21
9.0054947877
  0
LINE
  5
330
100
AcDbEntity
  8
0
100
AcDbLine
 62
4
  6
CONTINUOUS
 10
10.8644562164
 20
9.0141074275
 11
10.8313387741
 21
9.01640413
  0
LINE
  5
331
100
AcDbEntity
  8
0
100
AcDbLine
 62
4
  6
CONTINUOUS
 10
10.30421923
 20
9.0529599945
 11
10.3373366887
 21
9.0506632909
  0
LINE
  5
332
100
AcDbEntity
  8
0
100
AcDbLine
 62
4
  6
CONTINUOUS
 10
10.403571601
 20
9.0460698842
 11
10.4284097035
 21
9.0443473559
  0
LINE
  5
333
100
AcDbEntity
  8
0
100
AcDbLine
 62
4
  6
CONTINUOUS
 10
11.0631609809
 20
9.0003272053
 11
11.1045578115
 21
8.9974563254
  0
LINE
  5
334
100
AcDbEntity
  8
0
100
AcDbLine
 62
4
  6
CONTINUOUS
 10
11.339139796
 20
8.9811880095
 11
11.3722572383
 21
8.9788913071
  0
LINE
  5
335
100
AcDbEntity
  8
0
100
AcDbLine
 62
4
  6
CONTINUOUS
 10
10.988646708
 20
9.0468916113
 11
11.0217641504
 21
9.0445949089
  0
LINE
  5
336
100
AcDbEntity
  8
0
100
AcDbLine
 62
4
  6
CONTINUOUS
 10
10.988646708
 20
9.0054947877
 11
10.9720879869
 21
9.0149225038
  0
LINE
  5
337
100
AcDbEntity
  8
0
100
AcDbLine
 62
4
  6
CONTINUOUS
 10
11.145954642
 20
8.9945854454
 11
11.1376752538
 21
9.0034389878
  0
LINE
  5
338
100
AcDbEntity
  8
0
100
AcDbLine
 62
4
  6
CONTINUOUS
 10
11.2646254678
 20
8.9863555957
 11
11.2563461349
 21
8.9952091343
  0
LINE
  5
339
100
AcDbEntity
  8
0
100
AcDbLine
 62
4
  6
CONTINUOUS
 10
11.330860463
 20
8.9900415481
 11
11.339139796
 21
8.9811880095
  0
LINE
  5
33A
100
AcDbEntity
  8
0
100
AcDbLine
 62
7
  6
CONTINUOUS
 10
11.701429278
 20
6.6982193354
 11
11.701429278
 21
6.2776201096
  0
LINE
  5
33B
100
AcDbEntity
  8
0
100
AcDbLine
 62
7
  6
CONTINUOUS
 10
11.7586387166
 20
6.7021868305
 11
11.7586387166
 21
6.2815876047
  0
LINE
  5
33C
100
AcDbEntity
  8
0
100
AcDbLine
 62
4
  6
CONTINUOUS
 10
12.1055329957
 20
8.8584916825
 11
12.1127774397
 21
8.8676485418
  0
LINE
  5
33D
100
AcDbEntity
  8
0
100
AcDbLine
 62
4
  6
CONTINUOUS
 10
12.1272663276
 20
8.8086881789
 11
12.1127774397
 21
8.7903744706
  0
LINE
  5
33E
100
AcDbEntity
  8
0
100
AcDbLine
 62
4
  6
CONTINUOUS
 10
12.1634885474
 20
8.8351539387
 11
12.1562441035
 21
8.8259970794
  0
LINE
  5
33F
100
AcDbEntity
  8
0
100
AcDbLine
 62
4
  6
CONTINUOUS
 10
11.0134848174
 20
9.0865659062
 11
10.9720879869
 21
9.0894367862
  0
LINE
  5
340
100
AcDbEntity
  8
0
100
AcDbLine
 62
4
  6
CONTINUOUS
 10
10.6602318966
 20
9.1110640795
 11
10.7016287271
 21
9.1081931996
  0
LINE
  5
341
100
AcDbEntity
  8
0
100
AcDbLine
 62
4
  6
CONTINUOUS
 10
10.8313387741
 20
9.0991977773
 11
10.8644562164
 21
9.0969010748
  0
LINE
  5
342
100
AcDbEntity
  8
0
100
AcDbLine
 62
4
  6
CONTINUOUS
 10
10.897573714
 20
9.0946043686
 11
10.9306911563
 21
9.0923076661
  0
LINE
  5
343
100
AcDbEntity
  8
0
100
AcDbLine
 62
4
  6
CONTINUOUS
 10
11.2646254678
 20
9.069149243
 11
11.2977430207
 21
9.0668525329
  0
LINE
  5
344
100
AcDbEntity
  8
0
100
AcDbLine
 62
4
  6
CONTINUOUS
 10
11.339139796
 20
9.0639816568
 11
11.3722572383
 21
9.0616849543
  0
LINE
  5
345
100
AcDbEntity
  8
0
100
AcDbLine
 62
4
  6
CONTINUOUS
 10
10.3124985949
 20
9.168296922
 11
10.3456160528
 21
9.1660002185
  0
LINE
  5
346
100
AcDbEntity
  8
0
100
AcDbLine
 62
4
  6
CONTINUOUS
 10
11.2121895267
 20
9.105903144
 11
11.2149493043
 21
9.1057117528
  0
LINE
  5
347
100
AcDbEntity
  8
0
100
AcDbLine
 62
4
  6
CONTINUOUS
 10
11.3722572383
 20
9.0175283427
 11
11.339139796
 21
9.0253446211
  0
LINE
  5
348
100
AcDbEntity
  8
0
100
AcDbLine
 62
4
  6
CONTINUOUS
 10
11.339139796
 20
9.0253446211
 11
11.330860463
 21
9.0314383709
  0
LINE
  5
349
100
AcDbEntity
  8
0
100
AcDbLine
 62
4
  6
CONTINUOUS
 10
11.3805365713
 20
9.011434593
 11
11.3722572383
 21
9.0175283427
  0
LINE
  5
34A
100
AcDbEntity
  8
0
100
AcDbLine
 62
4
  6
CONTINUOUS
 10
11.3722572383
 20
9.0616849543
 11
11.3805365713
 21
9.0528314132
  0
LINE
  5
34B
100
AcDbEntity
  8
0
100
AcDbLine
 62
4
  6
CONTINUOUS
 10
11.131396753
 20
7.2269847077
 11
11.1458856409
 21
7.2452984195
  0
LINE
  5
34C
100
AcDbEntity
  8
0
100
AcDbLine
 62
7
  6
CONTINUOUS
 10
12.0675098836
 20
6.7428531988
 11
12.0675098836
 21
6.3615293146
  0
LINE
  5
34D
100
AcDbEntity
  8
0
100
AcDbLine
 62
7
  6
CONTINUOUS
 10
12.0828390948
 20
6.7417901144
 11
12.0828390948
 21
6.3763361964
  0
LINE
  5
34E
100
AcDbEntity
  8
0
100
AcDbLine
 62
4
  6
CONTINUOUS
 10
12.1127774397
 20
8.7903744706
 11
12.1055329957
 21
8.7618990986
  0
LINE
  5
34F
100
AcDbEntity
  8
0
100
AcDbLine
 62
4
  6
CONTINUOUS
 10
11.1965967487
 20
7.1548482629
 11
11.1893523047
 21
7.1456914079
  0
LINE
  5
350
100
AcDbEntity
  8
0
100
AcDbLine
 62
4
  6
CONTINUOUS
 10
12.1417552155
 20
8.8752981826
 11
12.1562441035
 21
8.8646341185
  0
LINE
  5
351
100
AcDbEntity
  8
0
100
AcDbLine
 62
4
  6
CONTINUOUS
 10
12.1634885474
 20
8.8544724513
 11
12.1634885474
 21
8.8351539387
  0
LINE
  5
352
100
AcDbEntity
  8
0
100
AcDbLine
 62
7
  6
CONTINUOUS
 10
12.2871270556
 20
6.7276226962
 11
12.2871270556
 21
10.229104024
  0
LINE
  5
353
100
AcDbEntity
  8
0
100
AcDbLine
 62
4
  6
CONTINUOUS
 10
11.1458856409
 20
7.2452984195
 11
11.1603745288
 21
7.253952868
  0
LINE
  5
354
100
AcDbEntity
  8
0
100
AcDbLine
 62
4
  6
CONTINUOUS
 10
11.1893523047
 20
7.1456914079
 11
11.1748634168
 21
7.1370369568
  0
LINE
  5
355
100
AcDbEntity
  8
0
100
AcDbLine
 62
4
  6
CONTINUOUS
 10
9.5588694078
 20
9.8744930971
 11
9.5443805199
 21
9.8754979049
  0
LINE
  5
356
100
AcDbEntity
  8
0
100
AcDbLine
 62
4
  6
CONTINUOUS
 10
12.1562441035
 20
8.8646341185
 11
12.1634885474
 21
8.8544724513
  0
LINE
  5
357
100
AcDbEntity
  8
0
100
AcDbLine
 62
4
  6
CONTINUOUS
 10
9.5443805199
 20
9.9431127129
 11
9.5588694078
 21
9.9421079051
  0
LINE
  5
358
100
AcDbEntity
  8
0
100
AcDbLine
 62
4
  6
CONTINUOUS
 10
9.5443805199
 20
9.9914090083
 11
9.5588694078
 21
9.9904042005
  0
LINE
  5
359
100
AcDbEntity
  8
0
100
AcDbLine
 62
7
  6
CONTINUOUS
 10
12.610650595
 20
7.0401224568
 11
12.610650595
 21
10.5416037846
  0
LINE
  5
35A
100
AcDbEntity
  8
0
100
AcDbLine
 62
7
  6
CONTINUOUS
 10
9.389349405
 20
10.4300655866
 11
12.2871270556
 21
10.229104024
  0
LINE
  5
35B
100
AcDbEntity
  8
0
100
AcDbLine
 62
7
  6
CONTINUOUS
 10
12.2871270556
 20
6.7276226962
 11
12.610650595
 21
7.0401224568
  0
LINE
  5
35C
100
AcDbEntity
  8
0
100
AcDbLine
 62
7
  6
CONTINUOUS
 10
12.610650595
 20
10.5416037846
 11
9.7128729444
 21
10.7425653472
  0
LINE
  5
35D
100
AcDbEntity
  8
0
100
AcDbLine
 62
7
  6
CONTINUOUS
 10
12.0097523677
 20
6.3295053148
 11
11.984590015
 21
6.3170755943
  0
ARC
  5
35E
100
AcDbEntity
  8
0
100
AcDbCircle
 62
7
  6
CONTINUOUS
 10
11.6115053758
 20
8.4093308291
 40
1.7134727463
100
AcDbArc
 50
273.0082929995
 51
274.9259690708
  0
ARC
  5
35F
100
AcDbEntity
  8
0
100
AcDbCircle
 62
7
  6
CONTINUOUS
 10
11.6115053758
 20
7.9887316034
 40
1.7134727463
100
AcDbArc
 50
273.0082929995
 51
274.9259690708
  0
ARC
  5
360
100
AcDbEntity
  8
0
100
AcDbCircle
 62
7
  6
CONTINUOUS
 10
12.4190766308
 20
9.1593268225
 40
0.0190272897
100
AcDbArc
 50
86.0666590647
 51
96.8902592653
  0
ARC
  5
361
100
AcDbEntity
  8
0
100
AcDbCircle
 62
7
  6
CONTINUOUS
 10
12.3801983655
 20
8.5987228933
 40
0.0190222684
100
AcDbArc
 50
255.3340835033
 51
265.9998373141
  0
SPLINE
  5
362
100
AcDbEntity
  8
0
100
AcDbSpline
 62
7
  6
CONTINUOUS
 70
0
 71
3
 72
11
 73
7
 74
0
 42
0.0000001
 43
0.0000001
 44
0.0000000001
 40
0.0
 40
0.0
 40
0.0
 40
0.0
 40
0.2399502312
 40
0.4865132022
 40
0.7398237866
 40
1.0
 40
1.0
 40
1.0
 40
1.0
 10
12.0760414342
 20
6.3688726327
 30
0.0
 10
12.0753935591
 20
6.3682468333
 30
0.0
 10
12.0740604201
 20
6.3669980684
 30
0.0
 10
12.071979688
 20
6.3651580676
 30
0.0
 10
12.0697915778
 20
6.363326491
 30
0.0
 10
12.0682819502
 20
6.3621275031
 30
0.0
 10
12.0675098836
 20
6.3615293146
 30
0.0
  0
SPLINE
  5
363
100
AcDbEntity
  8
0
100
AcDbSpline
 62
7
  6
CONTINUOUS
 70
0
 71
3
 72
11
 73
7
 74
0
 42
0.0000001
 43
0.0000001
 44
0.0000000001
 40
0.0
 40
0.0
 40
0.0
 40
0.0
 40
0.2399382843
 40
0.4864287737
 40
0.7397111676
 40
1.0
 40
1.0
 40
1.0
 40
1.0
 10
12.0828390948
 20
6.3763361964
 30
0.0
 10
12.0823389892
 20
6.3757015841
 30
0.0
 10
12.0813005261
 20
6.3744342362
 30
0.0
 10
12.0796538016
 20
6.372564608
 30
0.0
 10
12.077897936
 20
6.3707017648
 30
0.0
 10
12.0766718709
 20
6.3694815877
 30
0.0
 10
12.0760414342
 20
6.3688726327
 30
0.0
  0
SPLINE
  5
364
100
AcDbEntity
  8
0
100
AcDbSpline
 62
7
  6
CONTINUOUS
 70
0
 71
3
 72
11
 73
7
 74
0
 42
0.0000001
 43
0.0000001
 44
0.0000000001
 40
0.0
 40
0.0
 40
0.0
 40
0.0
 40
0.2529398012
 40
0.5039896517
 40
0.7530425508
 40
1.0
 40
1.0
 40
1.0
 40
1.0
 10
12.0675098836
 20
6.3615293146
 30
0.0
 10
12.0627552126
 20
6.3586238794
 30
0.0
 10
12.0532262414
 20
6.3529243161
 30
0.0
 10
12.0388155898
 20
6.3447040812
 30
0.0
 10
12.0243404697
 20
6.336870846
 30
0.0
 10
12.0146065664
 20
6.3319033331
 30
0.0
 10
12.009728958
 20
6.3294937514
 30
0.0
  0
SPLINE
  5
365
100
AcDbEntity
  8
0
100
AcDbSpline
 62
7
  6
CONTINUOUS
 70
0
 71
3
 72
79
 73
75
 74
0
 42
0.0000001
 43
0.0000001
 44
0.0000000001
 40
0.0
 40
0.0
 40
0.0
 40
0.0
 40
0.0049346149
 40
0.0099877251
 40
0.0151590499
 40
0.0204481992
 40
0.0258546713
 40
0.0313778714
 40
0.0370171043
 40
0.0427715926
 40
0.0546226141
 40
0.066923307
 40
0.0796646949
 40
0.0928367656
 40
0.10642856
 40
0.1204282499
 40
0.1348232052
 40
0.1496000531
 40
0.1647447325
 40
0.1802425411
 40
0.1960781811
 40
0.2122357989
 40
0.2286990254
 40
0.2454510106
 40
0.26247446
 40
0.2797516671
 40
0.2972645466
 40
0.3149946648
 40
0.3329232712
 40
0.3510313283
 40
0.3692995407
 40
0.3877083857
 40
0.4062381408
 40
0.424868914
 40
0.443580671
 40
0.462353265
 40
0.4811664639
 40
0.4999999795
 40
0.5188334952
 40
0.5376466942
 40
0.5564192885
 40
0.5751310457
 40
0.5937618193
 40
0.6122915748
 40
0.6307004205
 40
0.6489686336
 40
0.6670766916
 40
0.685005299
 40
0.7027354182
 40
0.7202482986
 40
0.7375255067
 40
0.7545489571
 40
0.7713009434
 40
0.7877641713
 40
0.8039217908
 40
0.8197574325
 40
0.8352552428
 40
0.8503999238
 40
0.8651767734
 40
0.8795717301
 40
0.8935714217
 40
0.9071632179
 40
0.9203352906
 40
0.9330766807
 40
0.945377376
 40
0.9572283997
 40
0.9629828881
 40
0.9686221229
 40
0.9741453233
 40
0.979551797
 40
0.9848409473
 40
0.990012273
 40
0.9950653848
 40
1.0
 40
1.0
 40
1.0
 40
1.0
 10
11.9845900594
 20
6.3170756165
 30
0.0
 10
11.9834452692
 20
6.3165101121
 30
0.0
 10
11.9811186545
 20
6.315384749
 30
0.0
 10
11.9775611601
 20
6.3137321748
 30
0.0
 10
11.9738956309
 20
6.3120954767
 30
0.0
 10
11.9701231342
 20
6.3104751369
 30
0.0
 10
11.9662447541
 20
6.3088716165
 30
0.0
 10
11.9622616091
 20
6.307285385
 30
0.0
 10
11.9581748446
 20
6.3057168905
 30
0.0
 10
11.9525339399
 20
6.3036293822
 30
0.0
 10
11.9452301187
 20
6.3010707043
 30
0.0
 10
11.9361547662
 20
6.298107513
 30
0.0
 10
11.9266953546
 20
6.2952256872
 30
0.0
 10
11.916862811
 20
6.2924285708
 30
0.0
 10
11.906668449
 20
6.2897194073
 30
0.0
 10
11.8961240222
 20
6.28710134
 30
0.0
 10
11.8852416905
 20
6.284577407
 30
0.0
 10
11.8740340102
 20
6.2821505371
 30
0.0
 10
11.8625139173
 20
6.2798235465
 30
0.0
 10
11.8506947122
 20
6.2775991355
 30
0.0
 10
11.8385900438
 20
6.275479885
 30
0.0
 10
11.8262138935
 20
6.2734682538
 30
0.0
 10
11.8135805585
 20
6.2715665756
 30
0.0
 10
11.8007046349
 20
6.269777056
 30
0.0
 10
11.7876010008
 20
6.2681017707
 30
0.0
 10
11.7742847985
 20
6.2665426624
 30
0.0
 10
11.7607714172
 20
6.2651015392
 30
0.0
 10
11.7470764749
 20
6.263780072
 30
0.0
 10
11.7332157998
 20
6.2625797931
 30
0.0
 10
11.719205413
 20
6.2615020941
 30
0.0
 10
11.7050615085
 20
6.2605482244
 30
0.0
 10
11.6908004357
 20
6.2597192896
 30
0.0
 10
11.6764386795
 20
6.2590162506
 30
0.0
 10
11.6619928417
 20
6.2584399222
 30
0.0
 10
11.6474796214
 20
6.2579909725
 30
0.0
 10
11.6329157956
 20
6.2576699219
 30
0.0
 10
11.6183182003
 20
6.2574771423
 30
0.0
 10
11.6037037105
 20
6.2574128574
 30
0.0
 10
11.5890892205
 20
6.2574771416
 30
0.0
 10
11.5744916251
 20
6.2576699206
 30
0.0
 10
11.5599277992
 20
6.2579909707
 30
0.0
 10
11.5454145786
 20
6.2584399199
 30
0.0
 10
11.5309687405
 20
6.2590162477
 30
0.0
 10
11.5166069839
 20
6.2597192862
 30
0.0
 10
11.5023459106
 20
6.2605482204
 30
0.0
 10
11.4882020056
 20
6.2615020896
 30
0.0
 10
11.4741916179
 20
6.2625797879
 30
0.0
 10
11.4603309421
 20
6.2637800662
 30
0.0
 10
11.4466359989
 20
6.2651015328
 30
0.0
 10
11.4331226168
 20
6.2665426555
 30
0.0
 10
11.4198064138
 20
6.2681017633
 30
0.0
 10
11.4067027788
 20
6.2697770482
 30
0.0
 10
11.3938268541
 20
6.2715665673
 30
0.0
 10
11.381193518
 20
6.2734682451
 30
0.0
 10
11.3688173663
 20
6.2754798757
 30
0.0
 10
11.3567126966
 20
6.2775991256
 30
0.0
 10
11.34489349
 20
6.2798235361
 30
0.0
 10
11.3333733957
 20
6.2821505262
 30
0.0
 10
11.322165714
 20
6.2845773957
 30
0.0
 10
11.311283381
 20
6.2871013284
 30
0.0
 10
11.3007389528
 20
6.2897193952
 30
0.0
 10
11.2905445893
 20
6.2924285584
 30
0.0
 10
11.2807120439
 20
6.2952256744
 30
0.0
 10
11.2712526304
 20
6.2981074997
 30
0.0
 10
11.2621772759
 20
6.3010706907
 30
0.0
 10
11.2548734531
 20
6.3036293677
 30
0.0
 10
11.2492325476
 20
6.3057168768
 30
0.0
 10
11.2451457819
 20
6.3072853702
 30
0.0
 10
11.2411626363
 20
6.3088716023
 30
0.0
 10
11.237284255
 20
6.310475122
 30
0.0
 10
11.2335117574
 20
6.3120954619
 30
0.0
 10
11.2298462272
 20
6.31373216
 30
0.0
 10
11.2262887317
 20
6.3153847335
 30
0.0
 10
11.2239621165
 20
6.3165100969
 30
0.0
 10
11.2228173263
 20
6.3170756013
 30
0.0
  0
SPLINE
  5
366
100
AcDbEntity
  8
0
100
AcDbSpline
 62
7
  6
CONTINUOUS
 70
0
 71
3
 72
34
 73
30
 74
0
 42
0.0000001
 43
0.0000001
 44
0.0000000001
 40
0.0
 40
0.0
 40
0.0
 40
0.0
 40
0.0217726103
 40
0.043998712
 40
0.0899309812
 40
0.1380396824
 40
0.1885283882
 40
0.2147207498
 40
0.2415663873
 40
0.2690791435
 40
0.2972700689
 40
0.3261474357
 40
0.3557167999
 40
0.3859810872
 40
0.4169407062
 40
0.4485936851
 40
0.4809358243
 40
0.5139608702
 40
0.5476607044
 40
0.5820255323
 40
0.6170440742
 40
0.6527037538
 40
0.6889908834
 40
0.7258908481
 40
0.7633882775
 40
0.8014672032
 40
0.8401112084
 40
0.9190266208
 40
1.0
 40
1.0
 40
1.0
 40
1.0
 10
11.2065178067
 20
6.3251272517
 30
0.0
 10
11.2056547035
 20
6.3255535693
 30
0.0
 10
11.2039262085
 20
6.326447272
 30
0.0
 10
11.2004609478
 20
6.3283985123
 30
0.0
 10
11.1961170498
 20
6.3311555366
 30
0.0
 10
11.1909535738
 20
6.3349270598
 30
0.0
 10
11.1867005552
 20
6.3384471269
 30
0.0
 10
11.1832970581
 20
6.3415084546
 30
0.0
 10
11.1807129135
 20
6.3439598217
 30
0.0
 10
11.178129002
 20
6.3465380376
 30
0.0
 10
11.1755457213
 20
6.3492425148
 30
0.0
 10
11.1729635102
 20
6.3520723417
 30
0.0
 10
11.1703827868
 20
6.355026352
 30
0.0
 10
11.1678039616
 20
6.3581031201
 30
0.0
 10
11.1652274296
 20
6.3613009801
 30
0.0
 10
11.1626535694
 20
6.3646180405
 30
0.0
 10
11.1600827397
 20
6.3680522032
 30
0.0
 10
11.1575152771
 20
6.3716011828
 30
0.0
 10
11.1549514953
 20
6.3752625295
 30
0.0
 10
11.1523916833
 20
6.3790336499
 30
0.0
 10
11.1498361047
 20
6.3829118294
 30
0.0
 10
11.1472849968
 20
6.3868942532
 30
0.0
 10
11.1447385705
 20
6.3909780269
 30
0.0
 10
11.1421970098
 20
6.3951601978
 30
0.0
 10
11.1396604752
 20
6.3994377738
 30
0.0
 10
11.1371290953
 20
6.4038077415
 30
0.0
 10
11.1337373327
 20
6.4097952527
 30
0.0
 10
11.1295157159
 20
6.4174918344
 30
0.0
 10
11.1262164486
 20
6.423744352
 30
0.0
 10
11.1245682596
 20
6.4269225383
 30
0.0
  0
SPLINE
  5
367
100
AcDbEntity
  8
0
100
AcDbSpline
 62
7
  6
CONTINUOUS
 70
0
 71
3
 72
11
 73
7
 74
0
 42
0.0000001
 43
0.0000001
 44
0.0000000001
 40
0.0
 40
0.0
 40
0.0
 40
0.0
 40
0.2598462974
 40
0.5132467876
 40
0.7600213203
 40
1.0
 40
1.0
 40
1.0
 40
1.0
 10
11.2795032991
 20
6.7274800014
 30
0.0
 10
11.275850515
 20
6.728317254
 30
0.0
 10
11.2686463041
 20
6.7300183516
 30
0.0
 10
11.2580144247
 20
6.7326858623
 30
0.0
 10
11.2476996973
 20
6.7354353763
 30
0.0
 10
11.2409450862
 20
6.7373485197
 30
0.0
 10
11.2376230716
 20
6.7383193882
 30
0.0
  0
SPLINE
  5
368
100
AcDbEntity
  8
0
100
AcDbSpline
 62
7
  6
CONTINUOUS
 70
0
 71
3
 72
23
 73
19
 74
0
 42
0.0000001
 43
0.0000001
 44
0.0000000001
 40
0.0
 40
0.0
 40
0.0
 40
0.0
 40
0.0657095692
 40
0.1316076905
 40
0.1975599413
 40
0.2634317586
 40
0.3290887887
 40
0.3943972448
 40
0.4592242604
 40
0.5234382435
 40
0.5869092415
 40
0.6495092936
 40
0.7111128108
 40
0.7715969332
 40
0.8308419302
 40
0.888731577
 40
0.9451535805
 40
1.0
 40
1.0
 40
1.0
 40
1.0
 10
11.651632064
 20
6.7716855526
 30
0.0
 10
11.6449955647
 20
6.7714917599
 30
0.0
 10
11.6317010024
 20
6.7711851456
 30
0.0
 10
11.6117401716
 20
6.7709672421
 30
0.0
 10
11.5917617419
 20
6.7709908587
 30
0.0
 10
11.5718094256
 20
6.771255946
 30
0.0
 10
11.5519268277
 20
6.7717619196
 30
0.0
 10
11.5321574136
 20
6.7725076703
 30
0.0
 10
11.5125443965
 20
6.7734915572
 30
0.0
 10
11.4931306468
 20
6.7747114213
 30
0.0
 10
11.4739585972
 20
6.7761645792
 30
0.0
 10
11.4550701491
 20
6.7778478403
 30
0.0
 10
11.4365065808
 20
6.7797575019
 30
0.0
 10
11.4183084538
 20
6.7818893686
 30
0.0
 10
11.4005155326
 20
6.7842387495
 30
0.0
 10
11.3831666622
 20
6.7868004825
 30
0.0
 10
11.3662998037
 20
6.7895689182
 30
0.0
 10
11.3552374619
 20
6.7915780033
 30
0.0
 10
11.3497942281
 20
6.7926180776
 30
0.0
  0
SPLINE
  5
369
100
AcDbEntity
  8
0
100
AcDbSpline
 62
7
  6
CONTINUOUS
 70
0
 71
3
 72
11
 73
7
 74
0
 42
0.0000001
 43
0.0000001
 44
0.0000000001
 40
0.0
 40
0.0
 40
0.0
 40
0.0
 40
0.2598462974
 40
0.5132467876
 40
0.7600213203
 40
1.0
 40
1.0
 40
1.0
 40
1.0
 10
11.2795032991
 20
6.3068807757
 30
0.0
 10
11.275850515
 20
6.3077180282
 30
0.0
 10
11.2686463041
 20
6.3094191258
 30
0.0
 10
11.2580144247
 20
6.3120866366
 30
0.0
 10
11.2476996973
 20
6.3148361506
 30
0.0
 10
11.2409450862
 20
6.316749294
 30
0.0
 10
11.2376230716
 20
6.3177201624
 30
0.0
  0
SPLINE
  5
36A
100
AcDbEntity
  8
0
100
AcDbSpline
 62
7
  6
CONTINUOUS
 70
0
 71
3
 72
15
 73
11
 74
0
 42
0.0000001
 43
0.0000001
 44
0.0000000001
 40
0.0
 40
0.0
 40
0.0
 40
0.0
 40
0.1209946163
 40
0.2432467567
 40
0.3667038615
 40
0.4913087608
 40
0.6170016075
 40
0.7437214614
 40
0.8714074272
 40
1.0
 40
1.0
 40
1.0
 40
1.0
 10
11.8358401252
 20
6.7589272612
 30
0.0
 10
11.8325070732
 20
6.7569617878
 30
0.0
 10
11.8258650698
 20
6.7529099829
 30
0.0
 10
11.8160264794
 20
6.7465256001
 30
0.0
 10
11.8062620955
 20
6.7398222339
 30
0.0
 10
11.7965740215
 20
6.7328198263
 30
0.0
 10
11.786963318
 20
6.7255377163
 30
0.0
 10
11.7774303026
 20
6.717994542
 30
0.0
 10
11.767974663
 20
6.7102081157
 30
0.0
 10
11.761742918
 20
6.7048841799
 30
0.0
 10
11.7586387166
 20
6.7021868305
 30
0.0
  0
SPLINE
  5
36B
100
AcDbEntity
  8
0
100
AcDbSpline
 62
7
  6
CONTINUOUS
 70
0
 71
3
 72
34
 73
30
 74
0
 42
0.0000001
 43
0.0000001
 44
0.0000000001
 40
0.0
 40
0.0
 40
0.0
 40
0.0
 40
0.0614928409
 40
0.1230891667
 40
0.153930456
 40
0.1848018751
 40
0.2157048016
 40
0.2466405691
 40
0.2776104456
 40
0.308615611
 40
0.339657133
 40
0.3707359447
 40
0.4018528241
 40
0.433008375
 40
0.4642030116
 40
0.4954369474
 40
0.5267101883
 40
0.5580225326
 40
0.5893735753
 40
0.6207627182
 40
0.6521891835
 40
0.6836520324
 40
0.7151501852
 40
0.7466824453
 40
0.7782475226
 40
0.8098440566
 40
0.8731242422
 40
0.9365133522
 40
1.0
 40
1.0
 40
1.0
 40
1.0
 10
11.701429278
 20
6.2776201096
 30
0.0
 10
11.6928092805
 20
6.2759951099
 30
0.0
 10
11.6755142226
 20
6.2729530199
 30
0.0
 10
11.6537918454
 20
6.2697253602
 30
0.0
 10
11.6363408031
 20
6.2675160591
 30
0.0
 10
11.6232101715
 20
6.2660524098
 30
0.0
 10
11.6100450843
 20
6.2647902968
 30
0.0
 10
11.5968475313
 20
6.2637368368
 30
0.0
 10
11.5836199075
 20
6.2628987668
 30
0.0
 10
11.5703649714
 20
6.2622823274
 30
0.0
 10
11.5570858437
 20
6.2618931566
 30
0.0
 10
11.5437859814
 20
6.2617361844
 30
0.0
 10
11.530469144
 20
6.2618155362
 30
0.0
 10
11.5171393481
 20
6.2621344464
 30
0.0
 10
11.5038008125
 20
6.2626951879
 30
0.0
 10
11.4904578954
 20
6.26349902
 30
0.0
 10
11.4771150255
 20
6.264546159
 30
0.0
 10
11.46377663
 20
6.2658357684
 30
0.0
 10
11.4504470634
 20
6.2673659787
 30
0.0
 10
11.4371305384
 20
6.2691339271
 30
0.0
 10
11.4238310636
 20
6.2711358183
 30
0.0
 10
11.4105523897
 20
6.2733670023
 30
0.0
 10
11.3972979612
 20
6.2758220688
 30
0.0
 10
11.384070896
 20
6.2784949434
 30
0.0
 10
11.3708739121
 20
6.2813790137
 30
0.0
 10
11.3533133775
 20
6.2854984339
 30
0.0
 10
11.3314498471
 20
6.2911400659
 30
0.0
 10
11.3053766168
 20
6.298631871
 30
0.0
 10
11.2881104702
 20
6.3040643752
 30
0.0
 10
11.2795032991
 20
6.3068807757
 30
0.0
  0
SPLINE
  5
36C
100
AcDbEntity
  8
0
100
AcDbSpline
 62
7
  6
CONTINUOUS
 70
0
 71
3
 72
37
 73
33
 74
0
 42
0.0000001
 43
0.0000001
 44
0.0000000001
 40
0.0
 40
0.0
 40
0.0
 40
0.0
 40
0.0320287472
 40
0.0640311205
 40
0.0960043923
 40
0.1279455611
 40
0.159851441
 40
0.1917186505
 40
0.2235436484
 40
0.2553227761
 40
0.2870523307
 40
0.318728644
 40
0.3503481602
 40
0.381907556
 40
0.4134038501
 40
0.444834504
 40
0.4761975334
 40
0.5074915881
 40
0.5387160101
 40
0.5698708592
 40
0.6009569109
 40
0.6319756141
 40
0.6629290159
 40
0.6938196881
 40
0.7246506078
 40
0.755425049
 40
0.7861464927
 40
0.8168185117
 40
0.847444686
 40
0.8780285427
 40
0.9390791653
 40
1.0
 40
1.0
 40
1.0
 40
1.0
 10
11.701429278
 20
6.6982193354
 30
0.0
 10
11.6972767106
 20
6.7003620025
 30
0.0
 10
11.6889391006
 20
6.7045764754
 30
0.0
 10
11.67632831
 20
6.7106730087
 30
0.0
 10
11.6636166678
 20
6.7165262091
 30
0.0
 10
11.6508037757
 20
6.7221194577
 30
0.0
 10
11.6378900053
 20
6.7274354744
 30
0.0
 10
11.6248767067
 20
6.73245642
 30
0.0
 10
11.6117663383
 20
6.7371640947
 30
0.0
 10
11.5985626069
 20
6.7415401811
 30
0.0
 10
11.5852705817
 20
6.745566544
 30
0.0
 10
11.5718967785
 20
6.7492255759
 30
0.0
 10
11.5584492056
 20
6.7525006111
 30
0.0
 10
11.5449373441
 20
6.7553763453
 30
0.0
 10
11.5313720627
 20
6.7578392648
 30
0.0
 10
11.5177654686
 20
6.7598781081
 30
0.0
 10
11.5041306731
 20
6.7614842103
 30
0.0
 10
11.4904815023
 20
6.7626518229
 30
0.0
 10
11.4768321594
 20
6.7633783485
 30
0.0
 10
11.4631968538
 20
6.7636643769
 30
0.0
 10
11.4495894381
 20
6.7635137032
 30
0.0
 10
11.4360230632
 20
6.7629331437
 30
0.0
 10
11.4225098837
 20
6.7619322572
 30
0.0
 10
11.409060824
 20
6.760523035
 30
0.0
 10
11.3956854194
 20
6.7587194598
 30
0.0
 10
11.3823917308
 20
6.7565370878
 30
0.0
 10
11.3691863169
 20
6.7539926281
 30
0.0
 10
11.3560743011
 20
6.7511035289
 30
0.0
 10
11.3430593619
 20
6.747887589
 30
0.0
 10
11.325850311
 20
6.7431908503
 30
0.0
 10
11.3045863919
 20
6.7365917079
 30
0.0
 10
11.2878190667
 20
6.7306174212
 30
0.0
 10
11.2795032991
 20
6.7274800014
 30
0.0
  0
SPLINE
  5
36D
100
AcDbEntity
  8
0
100
AcDbSpline
 62
7
  6
CONTINUOUS
 70
0
 71
3
 72
15
 73
11
 74
0
 42
0.0000001
 43
0.0000001
 44
0.0000000001
 40
0.0
 40
0.0
 40
0.0
 40
0.0
 40
0.1192556975
 40
0.2392875357
 40
0.3604859033
 40
0.483279967
 40
0.6081324973
 40
0.7355322617
 40
0.8659845135
 40
1.0
 40
1.0
 40
1.0
 40
1.0
 10
11.2376230716
 20
6.3177201624
 30
0.0
 10
11.2363408365
 20
6.3177247251
 30
0.0
 10
11.2337677072
 20
6.3178014028
 30
0.0
 10
11.2299036198
 20
6.3181279801
 30
0.0
 10
11.2260261243
 20
6.3186768685
 30
0.0
 10
11.2221357981
 20
6.3194584874
 30
0.0
 10
11.2182332219
 20
6.3204830421
 30
0.0
 10
11.2143191391
 20
6.3217603953
 30
0.0
 10
11.21039462
 20
6.3232997812
 30
0.0
 10
11.2078097422
 20
6.3244891185
 30
0.0
 10
11.2065178067
 20
6.3251272517
 30
0.0
  0
SPLINE
  5
36E
100
AcDbEntity
  8
0
100
AcDbSpline
 62
7
  6
CONTINUOUS
 70
0
 71
3
 72
15
 73
11
 74
0
 42
0.0000001
 43
0.0000001
 44
0.0000000001
 40
0.0
 40
0.0
 40
0.0
 40
0.0
 40
0.1361750042
 40
0.2695801389
 40
0.4000133027
 40
0.5272628008
 40
0.6511096758
 40
0.7713303612
 40
0.8877005097
 40
1.0
 40
1.0
 40
1.0
 40
1.0
 10
11.2376230716
 20
6.7383193882
 30
0.0
 10
11.2364939577
 20
6.7412921086
 30
0.0
 10
11.2342290633
 20
6.7471658911
 30
0.0
 10
11.2307707685
 20
6.7558433877
 30
0.0
 10
11.2272845151
 20
6.7642846718
 30
0.0
 10
11.2237702188
 20
6.7724720248
 30
0.0
 10
11.220228034
 20
6.7803868423
 30
0.0
 10
11.2166583835
 20
6.7880097831
 30
0.0
 10
11.2130620443
 20
6.7953208674
 30
0.0
 10
11.2106020594
 20
6.800060958
 30
0.0
 10
11.2093653651
 20
6.8023734337
 30
0.0
  0
SPLINE
  5
36F
100
AcDbEntity
  8
0
100
AcDbSpline
 62
7
  6
CONTINUOUS
 70
0
 71
3
 72
32
 73
28
 74
0
 42
0.0000001
 43
0.0000001
 44
0.0000000001
 40
0.0
 40
0.0
 40
0.0
 40
0.0
 40
0.0668467461
 40
0.1330343711
 40
0.1985498456
 40
0.2633895225
 40
0.2955589434
 40
0.3275629011
 40
0.3594039835
 40
0.3910854601
 40
0.4226112559
 40
0.4539859114
 40
0.4852145321
 40
0.5163027271
 40
0.54725654
 40
0.5780823734
 40
0.6087869096
 40
0.6393770305
 40
0.6698597382
 40
0.7002420785
 40
0.7305310697
 40
0.7607336373
 40
0.790856557
 40
0.8209064041
 40
0.880809966
 40
0.940493758
 40
1.0
 40
1.0
 40
1.0
 40
1.0
 10
12.009728958
 20
6.3294937514
 30
0.0
 10
12.0045509161
 20
6.3269357529
 30
0.0
 10
11.9941747482
 20
6.3219872689
 30
0.0
 10
11.9784749899
 20
6.3150678637
 30
0.0
 10
11.9627231061
 20
6.3087172525
 30
0.0
 10
11.9495271872
 20
6.3039083014
 30
0.0
 10
11.9389561146
 20
6.3003717514
 30
0.0
 10
11.931042542
 20
6.2978822175
 30
0.0
 10
11.9231250066
 20
6.2955504415
 30
0.0
 10
11.9152051863
 20
6.2933776535
 30
0.0
 10
11.9072848173
 20
6.2913646591
 30
0.0
 10
11.8993656339
 20
6.2895118064
 30
0.0
 10
11.8914493608
 20
6.287818989
 30
0.0
 10
11.8835376917
 20
6.2862856475
 30
0.0
 10
11.8756322731
 20
6.2849107799
 30
0.0
 10
11.8677346869
 20
6.2836929578
 30
0.0
 10
11.8598464369
 20
6.2826303485
 30
0.0
 10
11.8519689357
 20
6.2817207419
 30
0.0
 10
11.844103494
 20
6.2809615815
 30
0.0
 10
11.836251314
 20
6.280349998
 30
0.0
 10
11.8284134803
 20
6.2798828468
 30
0.0
 10
11.8205909681
 20
6.2795567427
 30
0.0
 10
11.8127845997
 20
6.2793681043
 30
0.0
 10
11.8024100998
 20
6.2792949356
 30
0.0
 10
11.7894813104
 20
6.2795271786
 30
0.0
 10
11.7740247488
 20
6.2802938431
 30
0.0
 10
11.763757638
 20
6.2811093349
 30
0.0
 10
11.7586387166
 20
6.2815876047
 30
0.0
  0
SPLINE
  5
370
100
AcDbEntity
  8
0
100
AcDbSpline
 62
7
  6
CONTINUOUS
 70
0
 71
3
 72
86
 73
82
 74
0
 42
0.0000001
 43
0.0000001
 44
0.0000000001
 40
0.0
 40
0.0
 40
0.0
 40
0.0
 40
0.0039801735
 40
0.0081241171
 40
0.0124359931
 40
0.016919361
 40
0.0215772361
 40
0.0264119817
 40
0.0314252561
 40
0.0366182449
 40
0.0419916453
 40
0.0475457694
 40
0.0532805541
 40
0.0591955582
 40
0.0652900785
 40
0.0715630739
 40
0.0846387684
 40
0.0984101018
 40
0.112860694
 40
0.1279712428
 40
0.1437198619
 40
0.1600823544
 40
0.1770324406
 40
0.1945419645
 40
0.2125810668
 40
0.2311183398
 40
0.2501209668
 40
0.2695548486
 40
0.289384725
 40
0.3095742955
 40
0.3300863312
 40
0.3508827821
 40
0.3719248818
 40
0.3931732491
 40
0.4145879914
 40
0.4577543474
 40
0.501099203
 40
0.5442952951
 40
0.5657359749
 40
0.587017582
 40
0.6081001434
 40
0.6289441761
 40
0.6495107926
 40
0.6697618048
 40
0.6896598276
 40
0.709168385
 40
0.7282520204
 40
0.7468764117
 40
0.7650084972
 40
0.7826166038
 40
0.7996705814
 40
0.8161419537
 40
0.8320040874
 40
0.8472323859
 40
0.8618045214
 40
0.8757007003
 40
0.8889039845
 40
0.9014006969
 40
0.9073810972
 40
0.9131815075
 40
0.9188013673
 40
0.9242405009
 40
0.9294990443
 40
0.9345775709
 40
0.9394770909
 40
0.9441990928
 40
0.9487456636
 40
0.9531194621
 40
0.9573238984
 40
0.9613631411
 40
0.9652422549
 40
0.9689673208
 40
0.9725454977
 40
0.9759852252
 40
0.9824864215
 40
0.9855752926
 40
0.9885737717
 40
0.9914977072
 40
0.9943643167
 40
0.9971920017
 40
1.0
 40
1.0
 40
1.0
 40
1.0
 10
11.211537751
 20
10.4711644927
 30
0.0
 10
11.2105474736
 20
10.4702079582
 30
0.0
 10
11.2084812003
 20
10.4683016501
 30
0.0
 10
11.2052005885
 20
10.4655173366
 30
0.0
 10
11.2016790656
 20
10.4627529843
 30
0.0
 10
11.1979185647
 20
10.4600100822
 30
0.0
 10
11.1939209324
 20
10.4572898981
 30
0.0
 10
11.1896881134
 20
10.4545937694
 30
0.0
 10
11.1852222295
 20
10.4519229695
 30
0.0
 10
11.180525494
 20
10.4492788885
 30
0.0
 10
11.1756002762
 20
10.4466628114
 30
0.0
 10
11.1704490351
 20
10.4440760555
 30
0.0
 10
11.1650743467
 20
10.4415199303
 30
0.0
 10
11.1594789212
 20
10.4389956911
 30
0.0
 10
11.1536655501
 20
10.4365046368
 30
0.0
 10
11.1455146947
 20
10.4331831359
 30
0.0
 10
11.1347956366
 20
10.429132245
 30
0.0
 10
11.1212841448
 20
10.4244878396
 30
0.0
 10
11.1069790132
 20
10.4200046942
 30
0.0
 10
11.0919090826
 20
10.4156919213
 30
0.0
 10
11.0761046041
 20
10.4115583
 30
0.0
 10
11.0595974146
 20
10.4076122507
 30
0.0
 10
11.0424207938
 20
10.4038618087
 30
0.0
 10
11.0246094063
 20
10.4003146136
 30
0.0
 10
11.0061992181
 20
10.3969778901
 30
0.0
 10
10.9872274216
 20
10.3938584342
 30
0.0
 10
10.9677323582
 20
10.3909625991
 30
0.0
 10
10.9477534403
 20
10.3882962806
 30
0.0
 10
10.9273310698
 20
10.3858649025
 30
0.0
 10
10.9065065521
 20
10.383673411
 30
0.0
 10
10.8853220111
 20
10.3817262645
 30
0.0
 10
10.863820299
 20
10.3800274223
 30
0.0
 10
10.8420449266
 20
10.3785803478
 30
0.0
 10
10.8200399142
 20
10.3773879603
 30
0.0
 10
10.790375773
 20
10.3761377756
 30
0.0
 10
10.7530495898
 20
10.3752296952
 30
0.0
 10
10.7081778065
 20
10.3751823488
 30
0.0
 10
10.6708305327
 20
10.3760115036
 30
0.0
 10
10.6411330244
 20
10.3771986731
 30
0.0
 10
10.6190910254
 20
10.3783444614
 30
0.0
 10
10.5972705997
 20
10.3797454139
 30
0.0
 10
10.5757158599
 20
10.3813987079
 30
0.0
 10
10.5544704259
 20
10.3833009748
 30
0.0
 10
10.5335772742
 20
10.385448345
 30
0.0
 10
10.5130786671
 20
10.387836449
 30
0.0
 10
10.4930160638
 20
10.3904604283
 30
0.0
 10
10.4734300363
 20
10.3933149435
 30
0.0
 10
10.454360185
 20
10.396394187
 30
0.0
 10
10.4358450539
 20
10.3996918887
 30
0.0
 10
10.4179220497
 20
10.403201331
 30
0.0
 10
10.4006273658
 20
10.4069153652
 30
0.0
 10
10.3839959063
 20
10.4108264258
 30
0.0
 10
10.3680612119
 20
10.4149265459
 30
0.0
 10
10.3528553769
 20
10.419207378
 30
0.0
 10
10.3384089954
 20
10.4236602062
 30
0.0
 10
10.3247510057
 20
10.4282759769
 30
0.0
 10
10.311908908
 20
10.4330453193
 30
0.0
 10
10.3017648118
 20
10.4371983125
 30
0.0
 10
10.2940851939
 20
10.440597979
 30
0.0
 10
10.2886298858
 20
10.4431426596
 30
0.0
 10
10.2833970669
 20
10.4457184345
 30
0.0
 10
10.2783893375
 20
10.4483239848
 30
0.0
 10
10.2736092216
 20
10.4509580395
 30
0.0
 10
10.2690591028
 20
10.4536192658
 30
0.0
 10
10.2647412477
 20
10.4563063332
 30
0.0
 10
10.2606578263
 20
10.459017948
 30
0.0
 10
10.256810843
 20
10.4617527277
 30
0.0
 10
10.2532022421
 20
10.4645093968
 30
0.0
 10
10.249833791
 20
10.4672865858
 30
0.0
 10
10.2467071837
 20
10.470082985
 30
0.0
 10
10.2438239816
 20
10.4728973201
 30
0.0
 10
10.241185675
 20
10.4757281552
 30
0.0
 10
10.2387934619
 20
10.4785745941
 30
0.0
 10
10.2359871131
 20
10.4823172835
 30
0.0
 10
10.2336041009
 20
10.4861608909
 30
0.0
 10
10.2317120612
 20
10.49008655
 30
0.0
 10
10.2305689159
 20
10.4929898777
 30
0.0
 10
10.229678662
 20
10.4959002558
 30
0.0
 10
10.229042128
 20
10.4988162998
 30
0.0
 10
10.2286599064
 20
10.5017359042
 30
0.0
 10
10.2285748173
 20
10.5036864341
 30
0.0
 10
10.2285748129
 20
10.5046577691
 30
0.0
  0
SPLINE
  5
371
100
AcDbEntity
  8
0
100
AcDbSpline
 62
7
  6
CONTINUOUS
 70
0
 71
3
 72
19
 73
15
 74
0
 42
0.0000001
 43
0.0000001
 44
0.0000000001
 40
0.0
 40
0.0
 40
0.0
 40
0.0
 40
0.150460937
 40
0.2916987357
 40
0.424419542
 40
0.4878837275
 40
0.5495802504
 40
0.6682271673
 40
0.7255606103
 40
0.7817998831
 40
0.8371466721
 40
0.8918135967
 40
0.94602219
 40
1.0
 40
1.0
 40
1.0
 40
1.0
 10
12.4488888253
 20
9.334426578
 30
0.0
 10
12.4502316965
 20
9.335723692
 30
0.0
 10
12.4529155918
 20
9.3381574469
 30
0.0
 10
12.4570713446
 20
9.3414007045
 30
0.0
 10
12.4605815319
 20
9.3436945167
 30
0.0
 10
12.4633806818
 20
9.3452478203
 30
0.0
 10
12.4660972522
 20
9.3465813645
 30
0.0
 10
12.4688456291
 20
9.3476714171
 30
0.0
 10
12.4716094686
 20
9.3484916867
 30
0.0
 10
12.473652976
 20
9.348964495
 30
0.0
 10
12.4756896807
 20
9.3493014914
 30
0.0
 10
12.4777190448
 20
9.3495025092
 30
0.0
 10
12.4797402479
 20
9.3495674705
 30
0.0
 10
12.4810830778
 20
9.3495199799
 30
0.0
 10
12.4817512699
 20
9.3494736406
 30
0.0
  0
SPLINE
  5
372
100
AcDbEntity
  8
0
100
AcDbSpline
 62
7
  6
CONTINUOUS
 70
0
 71
3
 72
23
 73
19
 74
0
 42
0.0000001
 43
0.0000001
 44
0.0000000001
 40
0.0
 40
0.0
 40
0.0
 40
0.0
 40
0.0637776288
 40
0.1273446152
 40
0.1907020433
 40
0.2538561391
 40
0.3168131818
 40
0.3795820998
 40
0.442173387
 40
0.5045993408
 40
0.5668738683
 40
0.6290123813
 40
0.69103165
 40
0.7529496426
 40
0.8147853504
 40
0.8765585998
 40
0.9382898528
 40
1.0
 40
1.0
 40
1.0
 40
1.0
 10
11.2632456191
 20
7.673757983
 30
0.0
 10
11.2632456191
 20
7.6669692617
 30
0.0
 10
11.2629207057
 20
7.6534119391
 30
0.0
 10
11.261454085
 20
7.6331583818
 30
0.0
 10
11.2590122393
 20
7.6130654348
 30
0.0
 10
11.2556008754
 20
7.5931801218
 30
0.0
 10
11.2512277193
 20
7.5735480249
 30
0.0
 10
11.2459028538
 20
7.5542144829
 30
0.0
 10
11.2396384864
 20
7.5352240486
 30
0.0
 10
11.2324490228
 20
7.5166205209
 30
0.0
 10
11.2243509966
 20
7.4984468053
 30
0.0
 10
11.2153630499
 20
7.4807448189
 30
0.0
 10
11.2055058829
 20
7.4635553984
 30
0.0
 10
11.1948021935
 20
7.4469181897
 30
0.0
 10
11.1832766826
 20
7.4308716105
 30
0.0
 10
11.1709557831
 20
7.4154525567
 30
0.0
 10
11.1578683978
 20
7.4006970759
 30
0.0
 10
11.1486508424
 20
7.3913234589
 30
0.0
 10
11.1439263064
 20
7.3867599145
 30
0.0
  0
SPLINE
  5
373
100
AcDbEntity
  8
0
100
AcDbSpline
 62
7
  6
CONTINUOUS
 70
0
 71
3
 72
21
 73
17
 74
0
 42
0.0000001
 43
0.0000001
 44
0.0000000001
 40
0.0
 40
0.0
 40
0.0
 40
0.0
 40
0.1273176366
 40
0.2537999756
 40
0.3167619475
 40
0.3795355041
 40
0.4421314991
 40
0.5045621439
 40
0.5668413432
 40
0.6289845283
 40
0.6910084528
 40
0.7529310935
 40
0.8147714495
 40
0.8765493365
 40
0.9382852194
 40
1.0
 40
1.0
 40
1.0
 40
1.0
 10
11.487340424
 20
9.9822346487
 30
0.0
 10
11.487340424
 20
9.9769373988
 30
0.0
 10
11.4868347666
 20
9.9663708346
 30
0.0
 10
11.4849250625
 20
9.9533082781
 30
0.0
 10
11.4826425415
 20
9.9430618445
 30
0.0
 10
11.480561005
 20
9.9355040714
 30
0.0
 10
11.4781122174
 20
9.9280805874
 30
0.0
 10
11.4753017896
 20
9.9208083076
 30
0.0
 10
11.4721362222
 20
9.9137040457
 30
0.0
 10
11.4686227709
 20
9.9067841853
 30
0.0
 10
11.4647695176
 20
9.900064701
 30
0.0
 10
11.460585371
 20
9.8935610691
 30
0.0
 10
11.4560799687
 20
9.8872883164
 30
0.0
 10
11.4512636214
 20
9.8812608845
 30
0.0
 10
11.4461476628
 20
9.8754928379
 30
0.0
 10
11.4425444596
 20
9.8718285979
 30
0.0
 10
11.4406976008
 20
9.8700446689
 30
0.0
  0
SPLINE
  5
374
100
AcDbEntity
  8
0
100
AcDbSpline
 62
7
  6
CONTINUOUS
 70
0
 71
3
 72
21
 73
17
 74
0
 42
0.0000001
 43
0.0000001
 44
0.0000000001
 40
0.0
 40
0.0
 40
0.0
 40
0.0
 40
0.1273176366
 40
0.2537999756
 40
0.3167619475
 40
0.3795355041
 40
0.4421314991
 40
0.5045621439
 40
0.5668413432
 40
0.6289845283
 40
0.6910084528
 40
0.7529310935
 40
0.8147714495
 40
0.8765493365
 40
0.9382852194
 40
1.0
 40
1.0
 40
1.0
 40
1.0
 10
10.5214145405
 20
7.1514441569
 30
0.0
 10
10.5214145405
 20
7.146146907
 30
0.0
 10
10.5209088831
 20
7.1355803428
 30
0.0
 10
10.518999179
 20
7.1225177863
 30
0.0
 10
10.516716658
 20
7.1122713527
 30
0.0
 10
10.5146351215
 20
7.1047135796
 30
0.0
 10
10.5121863339
 20
7.0972900956
 30
0.0
 10
10.5093759061
 20
7.0900178158
 30
0.0
 10
10.5062103387
 20
7.0829135539
 30
0.0
 10
10.5026968873
 20
7.0759936935
 30
0.0
 10
10.4988436341
 20
7.0692742092
 30
0.0
 10
10.4946594875
 20
7.0627705773
 30
0.0
 10
10.4901540852
 20
7.0564978246
 30
0.0
 10
10.4853377379
 20
7.0504703927
 30
0.0
 10
10.4802217793
 20
7.0447023461
 30
0.0
 10
10.476618576
 20
7.041038106
 30
0.0
 10
10.4747717172
 20
7.0392541771
 30
0.0
  0
SPLINE
  5
375
100
AcDbEntity
  8
0
100
AcDbSpline
 62
7
  6
CONTINUOUS
 70
0
 71
3
 72
42
 73
38
 74
0
 42
0.0000001
 43
0.0000001
 44
0.0000000001
 40
0.0
 40
0.0
 40
0.0
 40
0.0
 40
0.0330374712
 40
0.0657195938
 40
0.0980415484
 40
0.1300146769
 40
0.1616667197
 40
0.1930385495
 40
0.2241806328
 40
0.2551496325
 40
0.2860056479
 40
0.3168101453
 40
0.3476246146
 40
0.3785099369
 40
0.4095262634
 40
0.4407331335
 40
0.4721896191
 40
0.5039541323
 40
0.5686118852
 40
0.6016149876
 40
0.6350915834
 40
0.6690125689
 40
0.703270597
 40
0.7376420745
 40
0.7547638474
 40
0.7717694568
 40
0.7885984124
 40
0.8051901636
 40
0.8214885413
 40
0.8374459759
 40
0.8530266777
 40
0.8682079188
 40
0.897341437
 40
0.9248967035
 40
0.9510395132
 40
0.975993468
 40
1.0
 40
1.0
 40
1.0
 40
1.0
 10
10.7002793257
 20
7.8049742687
 30
0.0
 10
10.7002793257
 20
7.7998448359
 30
0.0
 10
10.7007034305
 20
7.7896357026
 30
0.0
 10
10.7026237051
 20
7.7745175497
 30
0.0
 10
10.705791464
 20
7.7597788098
 30
0.0
 10
10.7101543359
 20
7.745516553
 30
0.0
 10
10.71564527
 20
7.731808978
 30
0.0
 10
10.7221880006
 20
7.7187163157
 30
0.0
 10
10.7297021604
 20
7.7062809916
 30
0.0
 10
10.73810759
 20
7.6945296607
 30
0.0
 10
10.7473276242
 20
7.6834757014
 30
0.0
 10
10.7572913409
 20
7.6731219505
 30
0.0
 10
10.7679349135
 20
7.6634632846
 30
0.0
 10
10.7792022586
 20
7.6544888855
 30
0.0
 10
10.7910452539
 20
7.6461840896
 30
0.0
 10
10.8034233783
 20
7.6385319751
 30
0.0
 10
10.8163039159
 20
7.6315142799
 30
0.0
 10
10.8342145512
 20
7.6229299123
 30
0.0
 10
10.8529618499
 20
7.6155988741
 30
0.0
 10
10.8723742468
 20
7.6094447228
 30
0.0
 10
10.8874226748
 20
7.6053593734
 30
0.0
 10
10.9028111742
 20
7.6018344106
 30
0.0
 10
10.9184595211
 20
7.5988746749
 30
0.0
 10
10.931627468
 20
7.5968869264
 30
0.0
 10
10.9421839554
 20
7.5955912541
 30
0.0
 10
10.9500536318
 20
7.5947737837
 30
0.0
 10
10.9578553434
 20
7.5941121753
 30
0.0
 10
10.9655588598
 20
7.5936089419
 30
0.0
 10
10.9731357557
 20
7.593266001
 30
0.0
 10
10.9805612339
 20
7.5930845882
 30
0.0
 10
10.9878155572
 20
7.5930652151
 30
0.0
 10
10.9971137169
 20
7.593252898
 30
0.0
 10
11.0082601106
 20
7.5938743468
 30
0.0
 10
11.0210509648
 20
7.5952727429
 30
0.0
 10
11.0330992097
 20
7.5973108548
 30
0.0
 10
11.044456466
 20
7.599988696
 30
0.0
 10
11.0517249012
 20
7.6022405319
 30
0.0
 10
11.0552418602
 20
7.603474879
 30
0.0
  0
SPLINE
  5
376
100
AcDbEntity
  8
0
100
AcDbSpline
 62
7
  6
CONTINUOUS
 70
0
 71
3
 72
16
 73
12
 74
0
 42
0.0000001
 43
0.0000001
 44
0.0000000001
 40
0.0
 40
0.0
 40
0.0
 40
0.0
 40
0.1263028546
 40
0.2525345085
 40
0.3785655566
 40
0.5042429435
 40
0.6293966177
 40
0.7538492926
 40
0.8157682593
 40
0.8774487558
 40
1.0
 40
1.0
 40
1.0
 40
1.0
 10
10.7341906055
 20
7.9178022286
 30
0.0
 10
10.7315521893
 20
7.9135279709
 30
0.0
 10
10.7265265192
 20
7.9048245315
 30
0.0
 10
10.719804938
 20
7.891342457
 30
0.0
 10
10.7139655712
 20
7.8774810079
 30
0.0
 10
10.7090745478
 20
7.8633016622
 30
0.0
 10
10.7051935547
 20
7.8488776879
 30
0.0
 10
10.7028418852
 20
7.8367014017
 30
0.0
 10
10.7015161626
 20
7.8269238106
 30
0.0
 10
10.7005686967
 20
7.8171788536
 30
0.0
 10
10.7002793257
 20
7.8098480681
 30
0.0
 10
10.7002793257
 20
7.8049742687
 30
0.0
  0
SPLINE
  5
377
100
AcDbEntity
  8
0
100
AcDbSpline
 62
7
  6
CONTINUOUS
 70
0
 71
3
 72
23
 73
19
 74
0
 42
0.0000001
 43
0.0000001
 44
0.0000000001
 40
0.0
 40
0.0
 40
0.0
 40
0.0
 40
0.0637764156
 40
0.1273451284
 40
0.1907019885
 40
0.2538560635
 40
0.3168132288
 40
0.3795820795
 40
0.4421733867
 40
0.5045993416
 40
0.5668738629
 40
0.6290123789
 40
0.691031653
 40
0.7529496458
 40
0.8147853519
 40
0.8765586031
 40
0.9382898573
 40
1.0
 40
1.0
 40
1.0
 40
1.0
 10
11.0771364794
 20
7.6989903478
 30
0.0
 10
11.0771364794
 20
7.6953646293
 30
0.0
 10
11.0769629184
 20
7.6881237724
 30
0.0
 10
11.0761796554
 20
7.6773065522
 30
0.0
 10
11.0748754721
 20
7.6665750488
 30
0.0
 10
11.0730535104
 20
7.655954529
 30
0.0
 10
11.0707178488
 20
7.6454692228
 30
0.0
 10
11.0678738906
 20
7.6351433698
 30
0.0
 10
11.0645281776
 20
7.625000766
 30
0.0
 10
11.0606883519
 20
7.615064811
 30
0.0
 10
11.0563632807
 20
7.6053584124
 30
0.0
 10
11.0515629312
 20
7.5959039494
 30
0.0
 10
11.0462983325
 20
7.5867232442
 30
0.0
 10
11.040581597
 20
7.5778374808
 30
0.0
 10
11.0344259491
 20
7.5692671578
 30
0.0
 10
11.0278455029
 20
7.5610319792
 30
0.0
 10
11.0208556631
 20
7.5531512255
 30
0.0
 10
11.0159326672
 20
7.5481448647
 30
0.0
 10
11.0134093421
 20
7.5457075203
 30
0.0
  0
SPLINE
  5
378
100
AcDbEntity
  8
0
100
AcDbSpline
 62
7
  6
CONTINUOUS
 70
0
 71
3
 72
39
 73
35
 74
0
 42
0.0000001
 43
0.0000001
 44
0.0000000001
 40
0.0
 40
0.0
 40
0.0
 40
0.0
 40
0.0310753278
 40
0.0623079062
 40
0.093693137
 40
0.1252222865
 40
0.1568840454
 40
0.1886642043
 40
0.2205461643
 40
0.2525112486
 40
0.2845391082
 40
0.3166081368
 40
0.3486959081
 40
0.3807796237
 40
0.412836566
 40
0.4448445497
 40
0.4767823661
 40
0.5086302138
 40
0.5403701085
 40
0.5719862661
 40
0.6034654517
 40
0.6347972864
 40
0.6659745051
 40
0.6969931566
 40
0.7278527388
 40
0.758556263
 40
0.78911024
 40
0.8195245851
 40
0.8498124377
 40
0.8799898969
 40
0.9100756761
 40
0.9400906823
 40
0.9700575294
 40
1.0
 40
1.0
 40
1.0
 40
1.0
 10
11.0771364794
 20
7.6989903478
 30
0.0
 10
11.0771364794
 20
7.7046157163
 30
0.0
 10
11.0767168404
 20
7.7158992482
 30
0.0
 10
11.0748432384
 20
7.7327705331
 30
0.0
 10
11.0717344717
 20
7.7495427517
 30
0.0
 10
11.0674077138
 20
7.7661226098
 30
0.0
 10
11.0618869363
 20
7.7824193778
 30
0.0
 10
11.0552025661
 20
7.7983435276
 30
0.0
 10
11.0473914237
 20
7.8138076924
 30
0.0
 10
11.0384964757
 20
7.8287270102
 30
0.0
 10
11.0285666154
 20
7.8430196201
 30
0.0
 10
11.017656391
 20
7.8566070947
 30
0.0
 10
11.0058257139
 20
7.8694148727
 30
0.0
 10
10.9931395281
 20
7.8813726602
 30
0.0
 10
10.979667457
 20
7.8924148122
 30
0.0
 10
10.9654834251
 20
7.9024806892
 30
0.0
 10
10.9506652573
 20
7.9115149873
 30
0.0
 10
10.9352942574
 20
7.9194680392
 30
0.0
 10
10.9194547673
 20
7.9262960858
 30
0.0
 10
10.903233711
 20
7.9319615163
 30
0.0
 10
10.8867201239
 20
7.9364330742
 30
0.0
 10
10.870004673
 20
7.9396860379
 30
0.0
 10
10.8531791633
 20
7.9417023566
 30
0.0
 10
10.8363360409
 20
7.9424707533
 30
0.0
 10
10.8195678911
 20
7.9419867955
 30
0.0
 10
10.802966934
 20
7.9402529281
 30
0.0
 10
10.7866245213
 20
7.9372784721
 30
0.0
 10
10.7706306314
 20
7.9330795833
 30
0.0
 10
10.7550733798
 20
7.9276791845
 30
0.0
 10
10.7400384977
 20
7.9211068207
 30
0.0
 10
10.7256089615
 20
7.9133986214
 30
0.0
 10
10.7118641025
 20
7.904596701
 30
0.0
 10
10.6988807196
 20
7.8947504375
 30
0.0
 10
10.6907770236
 20
7.8875228843
 30
0.0
 10
10.6868784514
 20
7.8837571535
 30
0.0
  0
SPLINE
  5
379
100
AcDbEntity
  8
0
100
AcDbSpline
 62
7
  6
CONTINUOUS
 70
0
 71
3
 72
18
 73
14
 74
0
 42
0.0000001
 43
0.0000001
 44
0.0000000001
 40
0.0
 40
0.0
 40
0.0
 40
0.0
 40
0.0548621106
 40
0.1099281304
 40
0.165399556
 40
0.2214731722
 40
0.2783387379
 40
0.3361775111
 40
0.4554063056
 40
0.5804414047
 40
0.7123341351
 40
0.8519581983
 40
1.0
 40
1.0
 40
1.0
 40
1.0
 10
11.2285748055
 20
10.5046584039
 30
0.0
 10
11.2285748087
 20
10.5039522579
 30
0.0
 10
11.2285299962
 20
10.5025369358
 30
0.0
 10
11.2283285
 20
10.5004162529
 30
0.0
 10
11.2279927496
 20
10.4982967936
 30
0.0
 10
11.2275228719
 20
10.4961793314
 30
0.0
 10
11.2269190649
 20
10.4940643952
 30
0.0
 10
11.2259259143
 20
10.4912203768
 30
0.0
 10
11.2243348972
 20
10.4876632743
 30
0.0
 10
11.2219132639
 20
10.4834623181
 30
0.0
 10
11.2189638313
 20
10.4792885475
 30
0.0
 10
11.2154910864
 20
10.4751461688
 30
0.0
 10
11.2129082823
 20
10.4724883244
 30
0.0
 10
11.211537751
 20
10.4711644927
 30
0.0
  0
SPLINE
  5
37A
100
AcDbEntity
  8
0
100
AcDbSpline
 62
7
  6
CONTINUOUS
 70
0
 71
3
 72
47
 73
43
 74
0
 42
0.0000001
 43
0.0000001
 44
0.0000000001
 40
0.0
 40
0.0
 40
0.0
 40
0.0
 40
0.0149719699
 40
0.0299469986
 40
0.0449281275
 40
0.0599183593
 40
0.0749206409
 40
0.0899378479
 40
0.1049727642
 40
0.1200280654
 40
0.1351063071
 40
0.1502099062
 40
0.1653411266
 40
0.1805020712
 40
0.195694667
 40
0.2109206532
 40
0.226181577
 40
0.2414787841
 40
0.2721808909
 40
0.30303905
 40
0.3340562704
 40
0.3652320501
 40
0.3965624391
 40
0.4280401707
 40
0.4596548674
 40
0.4913932962
 40
0.5232396724
 40
0.5551760134
 40
0.5871825188
 40
0.61923798
 40
0.6513202127
 40
0.6834065006
 40
0.7154740464
 40
0.7475004247
 40
0.7794640313
 40
0.8113445177
 40
0.8431232087
 40
0.8747834982
 40
0.9063112124
 40
0.9376949433
 40
0.9689261019
 40
1.0
 40
1.0
 40
1.0
 40
1.0
 10
10.5325501542
 20
8.0197047765
 30
0.0
 10
10.5362002293
 20
8.0232304729
 30
0.0
 10
10.5436421725
 20
8.0301382274
 30
0.0
 10
10.5552092272
 20
8.0400492157
 30
0.0
 10
10.567165754
 20
8.0494970715
 30
0.0
 10
10.5794950882
 20
8.0584685481
 30
0.0
 10
10.5921802912
 20
8.0669514018
 30
0.0
 10
10.6052038948
 20
8.0749339413
 30
0.0
 10
10.618547999
 20
8.0824051545
 30
0.0
 10
10.6321942116
 20
8.0893548097
 30
0.0
 10
10.6461237564
 20
8.0957733485
 30
0.0
 10
10.6603174809
 20
8.1016519059
 30
0.0
 10
10.6747558341
 20
8.1069824471
 30
0.0
 10
10.6894189448
 20
8.1117576491
 30
0.0
 10
10.7042866706
 20
8.115970908
 30
0.0
 10
10.7193384653
 20
8.1196164784
 30
0.0
 10
10.7345539059
 20
8.1226893777
 30
0.0
 10
10.7550534283
 20
8.126021057
 30
0.0
 10
10.7809905624
 20
8.1287302268
 30
0.0
 10
10.812385493
 20
8.1296361619
 30
0.0
 10
10.8439217333
 20
8.1281974724
 30
0.0
 10
10.8754247423
 20
8.1244222024
 30
0.0
 10
10.9067217442
 20
8.1183315008
 30
0.0
 10
10.937640774
 20
8.1099592086
 30
0.0
 10
10.9680120932
 20
8.0993515878
 30
0.0
 10
10.9976689804
 20
8.0865671375
 30
0.0
 10
11.0264487071
 20
8.0716763239
 30
0.0
 10
11.0541933383
 20
8.0547610387
 30
0.0
 10
11.0807506392
 20
8.0359142731
 30
0.0
 10
11.1059749235
 20
8.0152396126
 30
0.0
 10
11.1297277502
 20
7.9928505575
 30
0.0
 10
11.1518787664
 20
7.9688700289
 30
0.0
 10
11.1723064083
 20
7.9434296673
 30
0.0
 10
11.1908984641
 20
7.9166690441
 30
0.0
 10
11.2075528137
 20
7.8887350135
 30
0.0
 10
11.2221779377
 20
7.8597808572
 30
0.0
 10
11.2346933297
 20
7.8299654398
 30
0.0
 10
11.2450300952
 20
7.799452354
 30
0.0
 10
11.2531312454
 20
7.7684092433
 30
0.0
 10
11.2589519059
 20
7.7370059592
 30
0.0
 10
11.2624599018
 20
7.7054171936
 30
0.0
 10
11.2632456191
 20
7.6842905837
 30
0.0
 10
11.2632456191
 20
7.673757983
 30
0.0
  0
SPLINE
  5
37B
100
AcDbEntity
  8
0
100
AcDbSpline
 62
7
  6
CONTINUOUS
 70
0
 71
3
 72
42
 73
38
 74
0
 42
0.0000001
 43
0.0000001
 44
0.0000000001
 40
0.0
 40
0.0
 40
0.0
 40
0.0
 40
0.0299419663
 40
0.0449235352
 40
0.0599142051
 40
0.0899287052
 40
0.1200139767
 40
0.135092661
 40
0.150196701
 40
0.1804840414
 40
0.210897872
 40
0.2414513324
 40
0.2721543376
 40
0.3030133986
 40
0.3340315263
 40
0.3652082187
 40
0.3965395244
 40
0.4280181782
 40
0.4596338019
 40
0.4913731609
 40
0.5232204716
 40
0.55515775
 40
0.5871651943
 40
0.6192215961
 40
0.6513047701
 40
0.6833919991
 40
0.7154604852
 40
0.7474878032
 40
0.7794523473
 40
0.8113337692
 40
0.8431133916
 40
0.8747746171
 40
0.9063032365
 40
0.9376879249
 40
0.9533258257
 40
0.968925233
 40
1.0
 40
1.0
 40
1.0
 40
1.0
 10
11.2017047434
 20
10.117468221
 30
0.0
 10
11.2045581661
 20
10.1202244162
 30
0.0
 10
11.209006475
 20
10.1241917235
 30
0.0
 10
11.2152362624
 20
10.1291142626
 30
0.0
 10
11.2216644239
 20
10.1337918694
 30
0.0
 10
11.2300521325
 20
10.1391632709
 30
0.0
 10
11.2388476667
 20
10.143861686
 30
0.0
 10
11.2461016882
 20
10.1472041861
 30
0.0
 10
11.2535055842
 20
10.1502707038
 30
0.0
 10
11.263004428
 20
10.1535681303
 30
0.0
 10
11.2747103278
 20
10.1566412429
 30
0.0
 10
11.2866716543
 20
10.158818327
 30
0.0
 10
11.2988221226
 20
10.1600873641
 30
0.0
 10
11.3110949867
 20
10.1604415837
 30
0.0
 10
11.3234227178
 20
10.1598791823
 30
0.0
 10
11.3357375596
 20
10.1584034084
 30
0.0
 10
11.3479718474
 20
10.1560225156
 30
0.0
 10
11.3600583884
 20
10.1527497173
 30
0.0
 10
11.3719308228
 20
10.1486031082
 30
0.0
 10
11.3835239837
 20
10.1436055628
 30
0.0
 10
11.3947742493
 20
10.1377846076
 30
0.0
 10
11.4056198879
 20
10.1311722702
 30
0.0
 10
11.4160013918
 20
10.1238049031
 30
0.0
 10
11.4258617998
 20
10.1157229846
 30
0.0
 10
11.4351470055
 20
10.1069708985
 30
0.0
 10
11.4438060516
 20
10.0975966923
 30
0.0
 10
11.451791406
 20
10.0876518162
 30
0.0
 10
11.4590592202
 20
10.0771908429
 30
0.0
 10
11.4655695682
 20
10.0662711747
 30
0.0
 10
11.4712866637
 20
10.0549527194
 30
0.0
 10
11.4761790549
 20
10.0432976128
 30
0.0
 10
11.4802198042
 20
10.0313697092
 30
0.0
 10
11.4833865929
 20
10.0192348731
 30
0.0
 10
11.4852851499
 20
10.0089917516
 30
0.0
 10
11.4863501874
 20
10.0007615342
 30
0.0
 10
11.4871102769
 20
9.9925391905
 30
0.0
 10
11.487340424
 20
9.9863519351
 30
0.0
 10
11.487340424
 20
9.9822346487
 30
0.0
  0
SPLINE
  5
37C
100
AcDbEntity
  8
0
100
AcDbSpline
 62
7
  6
CONTINUOUS
 70
0
 71
3
 72
42
 73
38
 74
0
 42
0.0000001
 43
0.0000001
 44
0.0000000001
 40
0.0
 40
0.0
 40
0.0
 40
0.0
 40
0.0299419663
 40
0.0449235352
 40
0.0599142051
 40
0.0899287052
 40
0.1200139767
 40
0.135092661
 40
0.150196701
 40
0.1804840414
 40
0.210897872
 40
0.2414513324
 40
0.2721543376
 40
0.3030133986
 40
0.3340315263
 40
0.3652082187
 40
0.3965395244
 40
0.4280181782
 40
0.4596338019
 40
0.4913731609
 40
0.5232204716
 40
0.55515775
 40
0.5871651943
 40
0.6192215961
 40
0.6513047701
 40
0.6833919991
 40
0.7154604852
 40
0.7474878032
 40
0.7794523473
 40
0.8113337692
 40
0.8431133916
 40
0.8747746171
 40
0.9063032365
 40
0.9376879249
 40
0.9533258257
 40
0.968925233
 40
1.0
 40
1.0
 40
1.0
 40
1.0
 10
10.2357788599
 20
7.2866777292
 30
0.0
 10
10.2386322826
 20
7.2894339244
 30
0.0
 10
10.2430805915
 20
7.2934012317
 30
0.0
 10
10.2493103789
 20
7.2983237708
 30
0.0
 10
10.2557385403
 20
7.3030013776
 30
0.0
 10
10.2641262489
 20
7.3083727791
 30
0.0
 10
10.2729217831
 20
7.3130711942
 30
0.0
 10
10.2801758046
 20
7.3164136942
 30
0.0
 10
10.2875797007
 20
7.319480212
 30
0.0
 10
10.2970785445
 20
7.3227776385
 30
0.0
 10
10.3087844443
 20
7.3258507511
 30
0.0
 10
10.3207457707
 20
7.3280278352
 30
0.0
 10
10.3328962391
 20
7.3292968723
 30
0.0
 10
10.3451691031
 20
7.3296510919
 30
0.0
 10
10.3574968342
 20
7.3290886904
 30
0.0
 10
10.3698116761
 20
7.3276129166
 30
0.0
 10
10.3820459638
 20
7.3252320238
 30
0.0
 10
10.3941325049
 20
7.3219592255
 30
0.0
 10
10.4060049393
 20
7.3178126164
 30
0.0
 10
10.4175981002
 20
7.312815071
 30
0.0
 10
10.4288483658
 20
7.3069941157
 30
0.0
 10
10.4396940044
 20
7.3003817784
 30
0.0
 10
10.4500755083
 20
7.2930144113
 30
0.0
 10
10.4599359162
 20
7.2849324928
 30
0.0
 10
10.469221122
 20
7.2761804067
 30
0.0
 10
10.4778801681
 20
7.2668062004
 30
0.0
 10
10.4858655225
 20
7.2568613244
 30
0.0
 10
10.4931333367
 20
7.2464003511
 30
0.0
 10
10.4996436847
 20
7.2354806829
 30
0.0
 10
10.5053607802
 20
7.2241622276
 30
0.0
 10
10.5102531714
 20
7.212507121
 30
0.0
 10
10.5142939207
 20
7.2005792174
 30
0.0
 10
10.5174607094
 20
7.1884443813
 30
0.0
 10
10.5193592663
 20
7.1782012598
 30
0.0
 10
10.5204243039
 20
7.1699710424
 30
0.0
 10
10.5211843934
 20
7.1617486987
 30
0.0
 10
10.5214145405
 20
7.1555614432
 30
0.0
 10
10.5214145405
 20
7.1514441569
 30
0.0
  0
SPLINE
  5
37D
100
AcDbEntity
  8
0
100
AcDbSpline
 62
7
  6
CONTINUOUS
 70
0
 71
3
 72
86
 73
82
 74
0
 42
0.0000001
 43
0.0000001
 44
0.0000000001
 40
0.0
 40
0.0
 40
0.0
 40
0.0
 40
0.0027164229
 40
0.0054532199
 40
0.0082302803
 40
0.0110665652
 40
0.0139797601
 40
0.0169860612
 40
0.0201000083
 40
0.0233345154
 40
0.0267008552
 40
0.0302087911
 40
0.0338666949
 40
0.0376816386
 40
0.0416596027
 40
0.0458055094
 40
0.0501234214
 40
0.0546165986
 40
0.0592875859
 40
0.0641383491
 40
0.0691702497
 40
0.0743842108
 40
0.0797806815
 40
0.0853597253
 40
0.0911210701
 40
0.0970640767
 40
0.1094907819
 40
0.1226299857
 40
0.1364676026
 40
0.1509863633
 40
0.166166208
 40
0.1819846021
 40
0.1984167887
 40
0.2154360082
 40
0.2330136911
 40
0.2511196222
 40
0.2697220861
 40
0.2887880011
 40
0.3082830385
 40
0.3281717446
 40
0.3484176561
 40
0.3689834073
 40
0.3898308346
 40
0.4109210783
 40
0.4322146819
 40
0.4536716962
 40
0.4969136001
 40
0.5403217884
 40
0.5835689461
 40
0.6050305436
 40
0.6263300209
 40
0.6474274143
 40
0.6682832501
 40
0.6888586484
 40
0.7091154216
 40
0.7290161766
 40
0.7485244187
 40
0.7676046599
 40
0.7862225346
 40
0.8043449193
 40
0.8219400528
 40
0.8389776685
 40
0.8554291414
 40
0.8712676506
 40
0.8864683732
 40
0.9010086996
 40
0.9148684857
 40
0.9280303658
 40
0.9404801448
 40
0.9464347977
 40
0.952207837
 40
0.9577986052
 40
0.9632068066
 40
0.9684324934
 40
0.9734760794
 40
0.9783384382
 40
0.9830208843
 40
0.9875254058
 40
0.9918546018
 40
0.9960115767
 40
1.0
 40
1.0
 40
1.0
 40
1.0
 10
12.4160263807
 20
8.4017499261
 30
0.0
 10
12.4151398517
 20
8.4018114072
 30
0.0
 10
12.4133646861
 20
8.4020150886
 30
0.0
 10
12.4107245312
 20
8.4025600693
 30
0.0
 10
12.4081043349
 20
8.4033444898
 30
0.0
 10
12.4055059593
 20
8.4043675577
 30
0.0
 10
12.402930737
 20
8.4056283532
 30
0.0
 10
12.400380017
 20
8.4071259363
 30
0.0
 10
12.3978549322
 20
8.4088591759
 30
0.0
 10
12.3953566491
 20
8.4108270349
 30
0.0
 10
12.3928862159
 20
8.4130283227
 30
0.0
 10
12.3904447041
 20
8.4154618485
 30
0.0
 10
12.3880332024
 20
8.4181263585
 30
0.0
 10
12.385652734
 20
8.4210204675
 30
0.0
 10
12.3833044351
 20
8.4241427731
 30
0.0
 10
12.3809893378
 20
8.4274916983
 30
0.0
 10
12.3787085603
 20
8.4310656136
 30
0.0
 10
12.3764631873
 20
8.4348627566
 30
0.0
 10
12.374254276
 20
8.4388812469
 30
0.0
 10
12.3720829487
 20
8.4431191192
 30
0.0
 10
12.3699502188
 20
8.4475742575
 30
0.0
 10
12.3678571839
 20
8.452244468
 30
0.0
 10
12.3658048584
 20
8.457127423
 30
0.0
 10
12.3637942682
 20
8.4622206909
 30
0.0
 10
12.3618264215
 20
8.4675217463
 30
0.0
 10
12.3592221234
 20
8.4749745372
 30
0.0
 10
12.3560903497
 20
8.484797542
 30
0.0
 10
12.3525715217
 20
8.4972005257
 30
0.0
 10
12.3492453704
 20
8.5103635021
 30
0.0
 10
12.3461186294
 20
8.5242601224
 30
0.0
 10
12.3431976556
 20
8.5388627038
 30
0.0
 10
12.3404883923
 20
8.5541420358
 30
0.0
 10
12.3379963528
 20
8.5700675227
 30
0.0
 10
12.335726607
 20
8.5866072337
 30
0.0
 10
12.3336837747
 20
8.6037279822
 30
0.0
 10
12.3318720145
 20
8.6213953974
 30
0.0
 10
12.3302950157
 20
8.6395739968
 30
0.0
 10
12.328955992
 20
8.6582272575
 30
0.0
 10
12.3278576698
 20
8.6773176914
 30
0.0
 10
12.3270022865
 20
8.6968069234
 30
0.0
 10
12.3263915882
 20
8.7166557716
 30
0.0
 10
12.3260268265
 20
8.7368243274
 30
0.0
 10
12.325908754
 20
8.7572720388
 30
0.0
 10
12.3260376318
 20
8.7779577771
 30
0.0
 10
12.3264131927
 20
8.7988399755
 30
0.0
 10
12.3272440619
 20
8.8269600507
 30
0.0
 10
12.3288938011
 20
8.8622913369
 30
0.0
 10
12.3318263979
 20
8.9046883401
 30
0.0
 10
12.3350570174
 20
8.9399135027
 30
0.0
 10
12.3381059554
 20
8.9678853122
 30
0.0
 10
12.3406094319
 20
8.9886261048
 30
0.0
 10
12.3433302813
 20
9.0091395992
 30
0.0
 10
12.3462630437
 20
9.0293845742
 30
0.0
 10
12.3494017968
 20
9.0493203119
 30
0.0
 10
12.3527402108
 20
9.0689067312
 30
0.0
 10
12.3562715503
 20
9.0881044537
 30
0.0
 10
12.3599886898
 20
9.1068748871
 30
0.0
 10
12.3638841283
 20
9.125180303
 30
0.0
 10
12.3679500013
 20
9.1429839177
 30
0.0
 10
12.3721780954
 20
9.1602499679
 30
0.0
 10
12.3765598691
 20
9.1769437835
 30
0.0
 10
12.3810864692
 20
9.1930318576
 30
0.0
 10
12.3857487483
 20
9.2084819178
 30
0.0
 10
12.3905372864
 20
9.2232629957
 30
0.0
 10
12.3954424062
 20
9.2373455052
 30
0.0
 10
12.4004541967
 20
9.2507012888
 30
0.0
 10
12.405562547
 20
9.2633037556
 30
0.0
 10
12.4107571557
 20
9.2751276874
 30
0.0
 10
12.415212827
 20
9.2844461475
 30
0.0
 10
12.41881946
 20
9.2914859346
 30
0.0
 10
12.4214992862
 20
9.296478126
 30
0.0
 10
12.4241928458
 20
9.3012587768
 30
0.0
 10
12.4268988031
 20
9.3058255161
 30
0.0
 10
12.4296157995
 20
9.3101760748
 30
0.0
 10
12.4323425137
 20
9.3143082714
 30
0.0
 10
12.4350775384
 20
9.3182200714
 30
0.0
 10
12.4378195793
 20
9.3219095245
 30
0.0
 10
12.4405672928
 20
9.3253748496
 30
0.0
 10
12.4433194049
 20
9.3286143538
 30
0.0
 10
12.4460744395
 20
9.3316262781
 30
0.0
 10
12.4479503533
 20
9.3335200836
 30
0.0
 10
12.4488888253
 20
9.334426578
 30
0.0
  0
SPLINE
  5
37E
100
AcDbEntity
  8
0
100
AcDbSpline
 62
7
  6
CONTINUOUS
 70
0
 71
3
 72
59
 73
55
 74
0
 42
0.0000001
 43
0.0000001
 44
0.0000000001
 40
0.0
 40
0.0
 40
0.0
 40
0.0
 40
0.0075208311
 40
0.0156241766
 40
0.0243311007
 40
0.0336549386
 40
0.0436028077
 40
0.0541768317
 40
0.0653749453
 40
0.0771915599
 40
0.08961816
 40
0.10264364
 40
0.1162546046
 40
0.1304357049
 40
0.1451697937
 40
0.1604380695
 40
0.1762203028
 40
0.1924949219
 40
0.2092390877
 40
0.2264288677
 40
0.2440392968
 40
0.2620444227
 40
0.2991300734
 40
0.337463055
 40
0.3768093382
 40
0.4169265582
 40
0.4575661491
 40
0.4984753803
 40
0.5393993789
 40
0.5800831581
 40
0.6202736296
 40
0.6597216473
 40
0.6981840261
 40
0.7354256484
 40
0.7535183302
 40
0.7712224299
 40
0.7885118037
 40
0.8053612647
 40
0.8217466086
 40
0.8376447426
 40
0.8530338123
 40
0.8678932395
 40
0.8822038834
 40
0.8959482262
 40
0.9091104572
 40
0.9216767058
 40
0.9336353451
 40
0.9449771968
 40
0.955695942
 40
0.9657887114
 40
0.9752565152
 40
0.9841051685
 40
0.9923468893
 40
1.0
 40
1.0
 40
1.0
 40
1.0
 10
12.3894706538
 20
8.5553146573
 30
0.0
 10
12.3884155507
 20
8.556611971
 30
0.0
 10
12.3863366731
 20
8.5594001732
 30
0.0
 10
12.383411142
 20
8.5639548459
 30
0.0
 10
12.3805691453
 20
8.5690267305
 30
0.0
 10
12.3778151884
 20
8.5746075122
 30
0.0
 10
12.3751534178
 20
8.5806885034
 30
0.0
 10
12.3725881337
 20
8.5872599643
 30
0.0
 10
12.3701235052
 20
8.5943113004
 30
0.0
 10
12.3677635784
 20
8.6018310346
 30
0.0
 10
12.365512289
 20
8.6098068758
 30
0.0
 10
12.3633733979
 20
8.6182257259
 30
0.0
 10
12.3613504649
 20
8.6270737114
 30
0.0
 10
12.3594468931
 20
8.6363362282
 30
0.0
 10
12.357665883
 20
8.6459979606
 30
0.0
 10
12.3560104051
 20
8.6560429081
 30
0.0
 10
12.3544832477
 20
8.6664544263
 30
0.0
 10
12.3530869843
 20
8.6772152507
 30
0.0
 10
12.3518239401
 20
8.6883075255
 30
0.0
 10
12.3506962475
 20
8.6997128354
 30
0.0
 10
12.3497057893
 20
8.7114122623
 30
0.0
 10
12.3485591657
 20
8.7275365507
 30
0.0
 10
12.3474901152
 20
8.7482835069
 30
0.0
 10
12.3467864799
 20
8.7737931771
 30
0.0
 10
12.3466549526
 20
8.7999862049
 30
0.0
 10
12.347096557
 20
8.8266886218
 30
0.0
 10
12.3481085313
 20
8.8537232002
 30
0.0
 10
12.3496842534
 20
8.8809104298
 30
0.0
 10
12.3518132756
 20
8.9080697878
 30
0.0
 10
12.3544814429
 20
8.9350209367
 30
0.0
 10
12.357670969
 20
8.9615849291
 30
0.0
 10
12.3613605118
 20
8.9875854749
 30
0.0
 10
12.3655254157
 20
9.0128498999
 30
0.0
 10
12.3694053459
 20
9.0333432138
 30
0.0
 10
12.372734127
 20
9.0492383687
 30
0.0
 10
12.375307374
 20
9.0607581764
 30
0.0
 10
12.3779769557
 20
9.0719720955
 30
0.0
 10
12.3807384288
 20
9.0828615262
 30
0.0
 10
12.3835871906
 20
9.0934083888
 30
0.0
 10
12.3865184945
 20
9.1035951851
 30
0.0
 10
12.3895274325
 20
9.1134050291
 30
0.0
 10
12.3926089923
 20
9.1228216626
 30
0.0
 10
12.3957580408
 20
9.1318294935
 30
0.0
 10
12.3989693072
 20
9.1404136341
 30
0.0
 10
12.4022374456
 20
9.1485599102
 30
0.0
 10
12.4055570283
 20
9.1562548972
 30
0.0
 10
12.4089225215
 20
9.1634859641
 30
0.0
 10
12.4123283599
 20
9.1702412784
 30
0.0
 10
12.4157689541
 20
9.1765098398
 30
0.0
 10
12.4192386921
 20
9.1822815299
 30
0.0
 10
12.4227319609
 20
9.1875470685
 30
0.0
 10
12.4262434411
 20
9.1922982767
 30
0.0
 10
12.4297674733
 20
9.1965272497
 30
0.0
 10
12.4322101158
 20
9.1990865579
 30
0.0
 10
12.4334340104
 20
9.2002687494
 30
0.0
  0
SPLINE
  5
37F
100
AcDbEntity
  8
0
100
AcDbSpline
 62
7
  6
CONTINUOUS
 70
0
 71
3
 72
21
 73
17
 74
0
 42
0.0000001
 43
0.0000001
 44
0.0000000001
 40
0.0
 40
0.0
 40
0.0
 40
0.0
 40
0.1273176366
 40
0.2537999756
 40
0.3167619475
 40
0.3795355041
 40
0.4421314991
 40
0.5045621439
 40
0.5668413432
 40
0.6289845283
 40
0.6910084528
 40
0.7529310935
 40
0.8147714495
 40
0.8765493365
 40
0.9382852194
 40
1.0
 40
1.0
 40
1.0
 40
1.0
 10
10.1891360366
 20
7.1744877494
 30
0.0
 10
10.1891360366
 20
7.1797849993
 30
0.0
 10
10.189641694
 20
7.1903515636
 30
0.0
 10
10.1915513981
 20
7.20341412
 30
0.0
 10
10.1938339191
 20
7.2136605536
 30
0.0
 10
10.1959154556
 20
7.2212183267
 30
0.0
 10
10.1983642432
 20
7.2286418107
 30
0.0
 10
10.201174671
 20
7.2359140906
 30
0.0
 10
10.2043402384
 20
7.2430183524
 30
0.0
 10
10.2078536898
 20
7.2499382128
 30
0.0
 10
10.211706943
 20
7.2566576971
 30
0.0
 10
10.2158910896
 20
7.2631613291
 30
0.0
 10
10.2203964919
 20
7.2694340818
 30
0.0
 10
10.2252128392
 20
7.2754615137
 30
0.0
 10
10.2303287978
 20
7.2812295603
 30
0.0
 10
10.2339320011
 20
7.2848938003
 30
0.0
 10
10.2357788599
 20
7.2866777292
 30
0.0
  0
SPLINE
  5
380
100
AcDbEntity
  8
0
100
AcDbSpline
 62
7
  6
CONTINUOUS
 70
0
 71
3
 72
69
 73
65
 74
0
 42
0.0000001
 43
0.0000001
 44
0.0000000001
 40
0.0
 40
0.0
 40
0.0
 40
0.0
 40
0.0155843576
 40
0.0311165404
 40
0.0465960308
 40
0.0620249371
 40
0.0774047753
 40
0.0927378621
 40
0.108026966
 40
0.1232752762
 40
0.1384864185
 40
0.1536643981
 40
0.1688135695
 40
0.1839385908
 40
0.1990443744
 40
0.2141360361
 40
0.2292188427
 40
0.2442981572
 40
0.2593793793
 40
0.2744678873
 40
0.2895689813
 40
0.3046878282
 40
0.319829407
 40
0.3349984551
 40
0.350199419
 40
0.3654364118
 40
0.3807131731
 40
0.3960330322
 40
0.4113988751
 40
0.4268131209
 40
0.4422777041
 40
0.4577940584
 40
0.473363106
 40
0.4889852529
 40
0.5046603946
 40
0.5203879208
 40
0.5361667243
 40
0.551995215
 40
0.5678713429
 40
0.5837926213
 40
0.599756151
 40
0.6157586479
 40
0.6317964791
 40
0.6478656978
 40
0.6800725949
 40
0.7123515113
 40
0.7285100947
 40
0.7446719372
 40
0.7608319994
 40
0.7769852592
 40
0.7931267537
 40
0.8092516208
 40
0.8253551437
 40
0.8414327945
 40
0.857480274
 40
0.8734935475
 40
0.889468884
 40
0.9054029007
 40
0.9212925699
 40
0.9371352942
 40
0.952928929
 40
0.9686714788
 40
0.9843625188
 40
1.0
 40
1.0
 40
1.0
 40
1.0
 10
11.0983496909
 20
7.6894807379
 30
0.0
 10
11.0983496909
 20
7.6853000525
 30
0.0
 10
11.0981450755
 20
7.6769511965
 30
0.0
 10
11.0972215399
 20
7.6644805393
 30
0.0
 10
11.0956839123
 20
7.6521122841
 30
0.0
 10
11.0935360545
 20
7.6398768066
 30
0.0
 10
11.0907829739
 20
7.6278033509
 30
0.0
 10
11.0874313271
 20
7.6159211016
 30
0.0
 10
11.0834891753
 20
7.6042586824
 30
0.0
 10
11.0789659867
 20
7.592844216
 30
0.0
 10
11.0738726271
 20
7.5817052385
 30
0.0
 10
11.068221352
 20
7.5708686193
 30
0.0
 10
11.062025788
 20
7.5603604893
 30
0.0
 10
11.0553008597
 20
7.5502061964
 30
0.0
 10
11.0480627609
 20
7.5404302451
 30
0.0
 10
11.0403289277
 20
7.5310562316
 30
0.0
 10
11.0321180266
 20
7.5221067564
 30
0.0
 10
11.0234498613
 20
7.5136034046
 30
0.0
 10
11.0143453338
 20
7.5055666913
 30
0.0
 10
11.0048263923
 20
7.4980160172
 30
0.0
 10
10.9949160149
 20
7.4909695736
 30
0.0
 10
10.9846381158
 20
7.484444338
 30
0.0
 10
10.9740174875
 20
7.4784560364
 30
0.0
 10
10.9630797403
 20
7.473019115
 30
0.0
 10
10.9518512645
 20
7.468146658
 30
0.0
 10
10.9403591494
 20
7.4638503762
 30
0.0
 10
10.9286311087
 20
7.4601406026
 30
0.0
 10
10.9166954168
 20
7.4570262708
 30
0.0
 10
10.9045808509
 20
7.4545148645
 30
0.0
 10
10.8923166195
 20
7.4526123847
 30
0.0
 10
10.8799322807
 20
7.4513233832
 30
0.0
 10
10.8674576757
 20
7.450650946
 30
0.0
 10
10.8549228616
 20
7.4505966793
 30
0.0
 10
10.8423580366
 20
7.4511606596
 30
0.0
 10
10.8297934641
 20
7.4523414932
 30
0.0
 10
10.8172594029
 20
7.4541363125
 30
0.0
 10
10.8047860397
 20
7.4565407903
 30
0.0
 10
10.7924034063
 20
7.4595490924
 30
0.0
 10
10.7801413099
 20
7.4631539414
 30
0.0
 10
10.7680292733
 20
7.4673466338
 30
0.0
 10
10.7560964404
 20
7.4721170884
 30
0.0
 10
10.7443716034
 20
7.4774537465
 30
0.0
 10
10.7328827123
 20
7.4833439148
 30
0.0
 10
10.7179070213
 20
7.4919213275
 30
0.0
 10
10.6999178413
 20
7.5039541098
 30
0.0
 10
10.6830913876
 20
7.517602981
 30
0.0
 10
10.6704102973
 20
7.5294215022
 30
0.0
 10
10.6613087278
 20
7.5387181072
 30
0.0
 10
10.6526434358
 20
7.5484203924
 30
0.0
 10
10.6444350163
 20
7.5585052033
 30
0.0
 10
10.6367033032
 20
7.5689482163
 30
0.0
 10
10.6294669131
 20
7.5797243244
 30
0.0
 10
10.6227432665
 20
7.5908075786
 30
0.0
 10
10.6165485453
 20
7.6021712994
 30
0.0
 10
10.6108976738
 20
7.6137881386
 30
0.0
 10
10.6058042878
 20
7.6256301449
 30
0.0
 10
10.6012806623
 20
7.6376688135
 30
0.0
 10
10.5973376921
 20
7.6498751604
 30
0.0
 10
10.5939848832
 20
7.6622198018
 30
0.0
 10
10.5912303413
 20
7.6746730434
 30
0.0
 10
10.5890807737
 20
7.6872048215
 30
0.0
 10
10.5875412473
 20
7.6997852119
 30
0.0
 10
10.5866156819
 20
7.7123833425
 30
0.0
 10
10.5864089727
 20
7.7207890109
 30
0.0
 10
10.5864089727
 20
7.7249839473
 30
0.0
  0
SPLINE
  5
381
100
AcDbEntity
  8
0
100
AcDbSpline
 62
7
  6
CONTINUOUS
 70
0
 71
3
 72
69
 73
65
 74
0
 42
0.0000001
 43
0.0000001
 44
0.0000000001
 40
0.0
 40
0.0
 40
0.0
 40
0.0
 40
0.0156374812
 40
0.0313285212
 40
0.047071071
 40
0.0628647058
 40
0.0787074301
 40
0.0945970993
 40
0.110531116
 40
0.1265064525
 40
0.142519726
 40
0.1585672055
 40
0.1746448563
 40
0.1907483792
 40
0.2068732463
 40
0.2230147408
 40
0.2391680006
 40
0.2553280628
 40
0.2714899053
 40
0.2876484887
 40
0.3199274051
 40
0.3521343022
 40
0.3682035209
 40
0.3842413521
 40
0.400243849
 40
0.4162073787
 40
0.4321286571
 40
0.448004785
 40
0.4638332757
 40
0.4796120792
 40
0.4953396054
 40
0.5110147471
 40
0.526636894
 40
0.5422059416
 40
0.5577222959
 40
0.5731868791
 40
0.5886011249
 40
0.6039669678
 40
0.6192868269
 40
0.6345635882
 40
0.649800581
 40
0.6650015449
 40
0.680170593
 40
0.6953121718
 40
0.7104310187
 40
0.7255321127
 40
0.7406206207
 40
0.7557018428
 40
0.7707811573
 40
0.7858639639
 40
0.8009556256
 40
0.8160614092
 40
0.8311864305
 40
0.8463356019
 40
0.8615135815
 40
0.8767247238
 40
0.891973034
 40
0.9072621379
 40
0.9225952247
 40
0.9379750629
 40
0.9534039692
 40
0.9688834596
 40
0.9844156424
 40
1.0
 40
1.0
 40
1.0
 40
1.0
 10
11.0983496909
 20
7.6894807379
 30
0.0
 10
11.0983496909
 20
7.6936756744
 30
0.0
 10
11.0981429817
 20
7.7020813428
 30
0.0
 10
11.0972174163
 20
7.7146794734
 30
0.0
 10
11.0956778899
 20
7.7272598637
 30
0.0
 10
11.0935283224
 20
7.7397916418
 30
0.0
 10
11.0907737804
 20
7.7522448835
 30
0.0
 10
11.0874209715
 20
7.7645895248
 30
0.0
 10
11.0834780014
 20
7.7767958717
 30
0.0
 10
11.0789543758
 20
7.7888345404
 30
0.0
 10
11.0738609898
 20
7.8006765466
 30
0.0
 10
11.0682101184
 20
7.8122933858
 30
0.0
 10
11.0620153971
 20
7.8236571067
 30
0.0
 10
11.0552917505
 20
7.8347403609
 30
0.0
 10
11.0480553604
 20
7.8455164689
 30
0.0
 10
11.0403236473
 20
7.8559594819
 30
0.0
 10
11.0321152278
 20
7.8660442929
 30
0.0
 10
11.0234499358
 20
7.8757465781
 30
0.0
 10
11.0143483664
 20
7.8850431831
 30
0.0
 10
11.001667276
 20
7.8968617043
 30
0.0
 10
10.9848408223
 20
7.9105105754
 30
0.0
 10
10.9668516423
 20
7.9225433577
 30
0.0
 10
10.9518759513
 20
7.9311207705
 30
0.0
 10
10.9403870602
 20
7.9370109387
 30
0.0
 10
10.9286622232
 20
7.9423475969
 30
0.0
 10
10.9167293903
 20
7.9471180515
 30
0.0
 10
10.9046173537
 20
7.9513107439
 30
0.0
 10
10.8923552573
 20
7.9549155928
 30
0.0
 10
10.8799726239
 20
7.957923895
 30
0.0
 10
10.8674992607
 20
7.9603283727
 30
0.0
 10
10.8549651995
 20
7.9621231921
 30
0.0
 10
10.8424006271
 20
7.9633040256
 30
0.0
 10
10.8298358021
 20
7.9638680059
 30
0.0
 10
10.8173009879
 20
7.9638137393
 30
0.0
 10
10.8048263829
 20
7.963141302
 30
0.0
 10
10.7924420441
 20
7.9618523006
 30
0.0
 10
10.7801778127
 20
7.9599498208
 30
0.0
 10
10.7680632469
 20
7.9574384145
 30
0.0
 10
10.7561275549
 20
7.9543240826
 30
0.0
 10
10.7443995142
 20
7.950614309
 30
0.0
 10
10.7329073991
 20
7.9463180272
 30
0.0
 10
10.7216789233
 20
7.9414455702
 30
0.0
 10
10.7107411761
 20
7.9360086488
 30
0.0
 10
10.7001205478
 20
7.9300203472
 30
0.0
 10
10.6898426487
 20
7.9234951117
 30
0.0
 10
10.6799322714
 20
7.9164486681
 30
0.0
 10
10.6704133298
 20
7.908897994
 30
0.0
 10
10.6613088023
 20
7.9008612806
 30
0.0
 10
10.652640637
 20
7.8923579289
 30
0.0
 10
10.6444297359
 20
7.8834084536
 30
0.0
 10
10.6366959027
 20
7.8740344402
 30
0.0
 10
10.6294578039
 20
7.8642584889
 30
0.0
 10
10.6227328757
 20
7.8541041959
 30
0.0
 10
10.6165373117
 20
7.8435960659
 30
0.0
 10
10.6108860365
 20
7.8327594468
 30
0.0
 10
10.6057926769
 20
7.8216204693
 30
0.0
 10
10.6012694883
 20
7.8102060029
 30
0.0
 10
10.5973273365
 20
7.7985435836
 30
0.0
 10
10.5939756897
 20
7.7866613344
 30
0.0
 10
10.5912226092
 20
7.7745878786
 30
0.0
 10
10.5890747513
 20
7.7623524011
 30
0.0
 10
10.5875371237
 20
7.7499841459
 30
0.0
 10
10.5866135882
 20
7.7375134887
 30
0.0
 10
10.5864089727
 20
7.7291646327
 30
0.0
 10
10.5864089727
 20
7.7249839473
 30
0.0
  0
SPLINE
  5
382
100
AcDbEntity
  8
0
100
AcDbSpline
 62
7
  6
CONTINUOUS
 70
0
 71
3
 72
86
 73
82
 74
0
 42
0.0000001
 43
0.0000001
 44
0.0000000001
 40
0.0
 40
0.0
 40
0.0
 40
0.0
 40
0.0039801735
 40
0.0081241171
 40
0.0124359931
 40
0.016919361
 40
0.0215772361
 40
0.0264119817
 40
0.0314252561
 40
0.0366182449
 40
0.0419916453
 40
0.0475457694
 40
0.0532805541
 40
0.0591955582
 40
0.0652900785
 40
0.0715630739
 40
0.0846387684
 40
0.0984101018
 40
0.112860694
 40
0.1279712428
 40
0.1437198619
 40
0.1600823544
 40
0.1770324406
 40
0.1945419645
 40
0.2125810668
 40
0.2311183398
 40
0.2501209668
 40
0.2695548486
 40
0.289384725
 40
0.3095742955
 40
0.3300863312
 40
0.3508827821
 40
0.3719248818
 40
0.3931732491
 40
0.4145879914
 40
0.4577543474
 40
0.501099203
 40
0.5442952951
 40
0.5657359749
 40
0.587017582
 40
0.6081001434
 40
0.6289441761
 40
0.6495107926
 40
0.6697618048
 40
0.6896598276
 40
0.709168385
 40
0.7282520204
 40
0.7468764117
 40
0.7650084972
 40
0.7826166038
 40
0.7996705814
 40
0.8161419537
 40
0.8320040874
 40
0.8472323859
 40
0.8618045214
 40
0.8757007003
 40
0.8889039845
 40
0.9014006969
 40
0.9073810972
 40
0.9131815075
 40
0.9188013673
 40
0.9242405009
 40
0.9294990443
 40
0.9345775709
 40
0.9394770909
 40
0.9441990928
 40
0.9487456636
 40
0.9531194621
 40
0.9573238984
 40
0.9613631411
 40
0.9652422549
 40
0.9689673208
 40
0.9725454977
 40
0.9759852252
 40
0.9824864215
 40
0.9855752926
 40
0.9885737717
 40
0.9914977072
 40
0.9943643167
 40
0.9971920017
 40
1.0
 40
1.0
 40
1.0
 40
1.0
 10
10.2456118675
 20
10.5381516803
 30
0.0
 10
10.2466021449
 20
10.5391082149
 30
0.0
 10
10.2486684182
 20
10.5410145229
 30
0.0
 10
10.2519490299
 20
10.5437988364
 30
0.0
 10
10.2554705528
 20
10.5465631888
 30
0.0
 10
10.2592310537
 20
10.5493060908
 30
0.0
 10
10.263228686
 20
10.5520262749
 30
0.0
 10
10.267461505
 20
10.5547224036
 30
0.0
 10
10.271927389
 20
10.5573932036
 30
0.0
 10
10.2766241245
 20
10.5600372845
 30
0.0
 10
10.2815493423
 20
10.5626533617
 30
0.0
 10
10.2867005834
 20
10.5652401175
 30
0.0
 10
10.2920752718
 20
10.5677962428
 30
0.0
 10
10.2976706973
 20
10.570320482
 30
0.0
 10
10.3034840684
 20
10.5728115362
 30
0.0
 10
10.3116349237
 20
10.5761330372
 30
0.0
 10
10.3223539819
 20
10.580183928
 30
0.0
 10
10.3358654736
 20
10.5848283334
 30
0.0
 10
10.3501706053
 20
10.5893114788
 30
0.0
 10
10.3652405359
 20
10.5936242517
 30
0.0
 10
10.3810450144
 20
10.597757873
 30
0.0
 10
10.3975522038
 20
10.6017039223
 30
0.0
 10
10.4147288246
 20
10.6054543643
 30
0.0
 10
10.4325402122
 20
10.6090015595
 30
0.0
 10
10.4509504004
 20
10.6123382829
 30
0.0
 10
10.4699221969
 20
10.6154577388
 30
0.0
 10
10.4894172603
 20
10.618353574
 30
0.0
 10
10.5093961782
 20
10.6210198924
 30
0.0
 10
10.5298185486
 20
10.6234512705
 30
0.0
 10
10.5506430663
 20
10.625642762
 30
0.0
 10
10.5718276074
 20
10.6275899085
 30
0.0
 10
10.5933293194
 20
10.6292887507
 30
0.0
 10
10.6151046918
 20
10.6307358252
 30
0.0
 10
10.6371097042
 20
10.6319282128
 30
0.0
 10
10.6667738454
 20
10.6331783974
 30
0.0
 10
10.7041000287
 20
10.6340864778
 30
0.0
 10
10.748971812
 20
10.6341338242
 30
0.0
 10
10.7863190858
 20
10.6333046695
 30
0.0
 10
10.8160165941
 20
10.6321174999
 30
0.0
 10
10.838058593
 20
10.6309717116
 30
0.0
 10
10.8598790187
 20
10.6295707591
 30
0.0
 10
10.8814337585
 20
10.6279174651
 30
0.0
 10
10.9026791925
 20
10.6260151982
 30
0.0
 10
10.9235723443
 20
10.6238678281
 30
0.0
 10
10.9440709513
 20
10.621479724
 30
0.0
 10
10.9641335547
 20
10.6188557448
 30
0.0
 10
10.9837195822
 20
10.6160012295
 30
0.0
 10
11.0027894334
 20
10.612921986
 30
0.0
 10
11.0213045646
 20
10.6096242843
 30
0.0
 10
11.0392275688
 20
10.6061148421
 30
0.0
 10
11.0565222526
 20
10.6024008078
 30
0.0
 10
11.0731537122
 20
10.5984897472
 30
0.0
 10
11.0890884066
 20
10.5943896271
 30
0.0
 10
11.1042942416
 20
10.590108795
 30
0.0
 10
11.118740623
 20
10.5856559668
 30
0.0
 10
11.1323986128
 20
10.5810401961
 30
0.0
 10
11.1452407104
 20
10.5762708537
 30
0.0
 10
11.1553848067
 20
10.5721178605
 30
0.0
 10
11.1630644246
 20
10.568718194
 30
0.0
 10
11.1685197326
 20
10.5661735134
 30
0.0
 10
11.1737525516
 20
10.5635977385
 30
0.0
 10
11.178760281
 20
10.5609921882
 30
0.0
 10
11.1835403969
 20
10.5583581336
 30
0.0
 10
11.1880905156
 20
10.5556969072
 30
0.0
 10
11.1924083707
 20
10.5530098399
 30
0.0
 10
11.1964917921
 20
10.5502982251
 30
0.0
 10
11.2003387754
 20
10.5475634453
 30
0.0
 10
11.2039473763
 20
10.5448067762
 30
0.0
 10
11.2073158274
 20
10.5420295872
 30
0.0
 10
11.2104424347
 20
10.539233188
 30
0.0
 10
11.2133256368
 20
10.5364188529
 30
0.0
 10
11.2159639434
 20
10.5335880178
 30
0.0
 10
11.2183561566
 20
10.5307415789
 30
0.0
 10
11.2211625054
 20
10.5269988895
 30
0.0
 10
11.2235455176
 20
10.5231552821
 30
0.0
 10
11.2254375572
 20
10.5192296231
 30
0.0
 10
11.2265807026
 20
10.5163262953
 30
0.0
 10
11.2274709565
 20
10.5134159172
 30
0.0
 10
11.2281074904
 20
10.5104998732
 30
0.0
 10
11.2284897121
 20
10.5075802689
 30
0.0
 10
11.2285748011
 20
10.505629739
 30
0.0
 10
11.2285748055
 20
10.5046584039
 30
0.0
  0
SPLINE
  5
383
100
AcDbEntity
  8
0
100
AcDbSpline
 62
7
  6
CONTINUOUS
 70
0
 71
3
 72
18
 73
14
 74
0
 42
0.0000001
 43
0.0000001
 44
0.0000000001
 40
0.0
 40
0.0
 40
0.0
 40
0.0
 40
0.0548621106
 40
0.1099281304
 40
0.165399556
 40
0.2214731722
 40
0.2783387379
 40
0.3361775111
 40
0.4554063056
 40
0.5804414047
 40
0.7123341351
 40
0.8519581983
 40
1.0
 40
1.0
 40
1.0
 40
1.0
 10
10.2285748129
 20
10.5046577691
 30
0.0
 10
10.2285748097
 20
10.5053639151
 30
0.0
 10
10.2286196223
 20
10.5067792372
 30
0.0
 10
10.2288211185
 20
10.5088999202
 30
0.0
 10
10.2291568689
 20
10.5110193795
 30
0.0
 10
10.2296267465
 20
10.5131368417
 30
0.0
 10
10.2302305536
 20
10.5152517779
 30
0.0
 10
10.2312237042
 20
10.5180957962
 30
0.0
 10
10.2328147212
 20
10.5216528987
 30
0.0
 10
10.2352363545
 20
10.5258538549
 30
0.0
 10
10.2381857872
 20
10.5300276255
 30
0.0
 10
10.2416585321
 20
10.5341700042
 30
0.0
 10
10.2442413361
 20
10.5368278486
 30
0.0
 10
10.2456118675
 20
10.5381516803
 30
0.0
  0
SPLINE
  5
384
100
AcDbEntity
  8
0
100
AcDbSpline
 62
7
  6
CONTINUOUS
 70
0
 71
3
 72
47
 73
43
 74
0
 42
0.0000001
 43
0.0000001
 44
0.0000000001
 40
0.0
 40
0.0
 40
0.0
 40
0.0
 40
0.0149719699
 40
0.0299469986
 40
0.0449281275
 40
0.0599183593
 40
0.0749206409
 40
0.0899378479
 40
0.1049727642
 40
0.1200280654
 40
0.1351063071
 40
0.1502099062
 40
0.1653411266
 40
0.1805020712
 40
0.195694667
 40
0.2109206532
 40
0.226181577
 40
0.2414787841
 40
0.2721808909
 40
0.30303905
 40
0.3340562704
 40
0.3652320501
 40
0.3965624391
 40
0.4280401707
 40
0.4596548674
 40
0.4913932962
 40
0.5232396724
 40
0.5551760134
 40
0.5871825188
 40
0.61923798
 40
0.6513202127
 40
0.6834065006
 40
0.7154740464
 40
0.7475004247
 40
0.7794640313
 40
0.8113445177
 40
0.8431232087
 40
0.8747834982
 40
0.9063112124
 40
0.9376949433
 40
0.9689261019
 40
1.0
 40
1.0
 40
1.0
 40
1.0
 10
11.1439263064
 20
7.3867599145
 30
0.0
 10
11.1402762314
 20
7.3832342181
 30
0.0
 10
11.1328342881
 20
7.3763264636
 30
0.0
 10
11.1212672334
 20
7.3664154753
 30
0.0
 10
11.1093107067
 20
7.3569676195
 30
0.0
 10
11.0969813724
 20
7.3479961429
 30
0.0
 10
11.0842961694
 20
7.3395132892
 30
0.0
 10
11.0712725658
 20
7.3315307497
 30
0.0
 10
11.0579284616
 20
7.3240595365
 30
0.0
 10
11.0442822491
 20
7.3171098813
 30
0.0
 10
11.0303527042
 20
7.3106913425
 30
0.0
 10
11.0161589797
 20
7.3048127851
 30
0.0
 10
11.0017206265
 20
7.2994822438
 30
0.0
 10
10.9870575158
 20
7.2947070419
 30
0.0
 10
10.97218979
 20
7.290493783
 30
0.0
 10
10.9571379953
 20
7.2868482126
 30
0.0
 10
10.9419225547
 20
7.2837753133
 30
0.0
 10
10.9214230323
 20
7.280443634
 30
0.0
 10
10.8954858982
 20
7.2777344642
 30
0.0
 10
10.8640909676
 20
7.2768285291
 30
0.0
 10
10.8325547273
 20
7.2782672186
 30
0.0
 10
10.8010517184
 20
7.2820424886
 30
0.0
 10
10.7697547165
 20
7.2881331902
 30
0.0
 10
10.7388356867
 20
7.2965054824
 30
0.0
 10
10.7084643674
 20
7.3071131032
 30
0.0
 10
10.6788074802
 20
7.3198975535
 30
0.0
 10
10.6500277535
 20
7.3347883671
 30
0.0
 10
10.6222831224
 20
7.3517036523
 30
0.0
 10
10.5957258214
 20
7.3705504179
 30
0.0
 10
10.5705015372
 20
7.3912250784
 30
0.0
 10
10.5467487104
 20
7.4136141335
 30
0.0
 10
10.5245976943
 20
7.4375946621
 30
0.0
 10
10.5041700524
 20
7.4630350237
 30
0.0
 10
10.4855779965
 20
7.4897956469
 30
0.0
 10
10.468923647
 20
7.5177296775
 30
0.0
 10
10.4542985229
 20
7.5466838338
 30
0.0
 10
10.4417831309
 20
7.5764992512
 30
0.0
 10
10.4314463654
 20
7.607012337
 30
0.0
 10
10.4233452152
 20
7.6380554477
 30
0.0
 10
10.4175245547
 20
7.6694587318
 30
0.0
 10
10.4140165588
 20
7.7010474974
 30
0.0
 10
10.4132308416
 20
7.7221741073
 30
0.0
 10
10.4132308416
 20
7.732706708
 30
0.0
  0
SPLINE
  5
385
100
AcDbEntity
  8
0
100
AcDbSpline
 62
7
  6
CONTINUOUS
 70
0
 71
3
 72
45
 73
41
 74
0
 42
0.0000001
 43
0.0000001
 44
0.0000000001
 40
0.0
 40
0.0
 40
0.0
 40
0.0
 40
0.0149691714
 40
0.0299425107
 40
0.0449230116
 40
0.0599136223
 40
0.074917231
 40
0.0899366492
 40
0.104974592
 40
0.120033664
 40
0.1351163465
 40
0.1502249787
 40
0.1653617474
 40
0.1805286773
 40
0.2109546592
 40
0.241521074
 40
0.2722372378
 40
0.3031091074
 40
0.3341391963
 40
0.3653265683
 40
0.3966669148
 40
0.4281526939
 40
0.4597733285
 40
0.4915154682
 40
0.5233632927
 40
0.5552988529
 40
0.58730245
 40
0.6193530382
 40
0.6514286454
 40
0.6835068075
 40
0.7155650106
 40
0.747581133
 40
0.7795338816
 40
0.8114032159
 40
0.8431707572
 40
0.874820171
 40
0.9063375198
 40
0.9377116029
 40
0.9689339502
 40
1.0
 40
1.0
 40
1.0
 40
1.0
 10
11.1438965001
 20
7.3867912942
 30
0.0
 10
11.1402155255
 20
7.3833411795
 30
0.0
 10
11.1327153167
 20
7.3765847466
 30
0.0
 10
11.1210718634
 20
7.3669008813
 30
0.0
 10
11.1090494206
 20
7.3576794773
 30
0.0
 10
11.0966645511
 20
7.34893331
 30
0.0
 10
11.0839340743
 20
7.3406741625
 30
0.0
 10
11.0708753013
 20
7.332913305
 30
0.0
 10
11.0575059782
 20
7.325661302
 30
0.0
 10
11.0438443226
 20
7.3189279576
 30
0.0
 10
11.0299088738
 20
7.3127224534
 30
0.0
 10
11.015718657
 20
7.3070532448
 30
0.0
 10
11.0012927061
 20
7.301927924
 30
0.0
 10
10.9817521917
 20
7.2958229798
 30
0.0
 10
10.9568249648
 20
7.2895867589
 30
0.0
 10
10.926328137
 20
7.2843834558
 30
0.0
 10
10.8953758428
 20
7.2814784442
 30
0.0
 10
10.8641375311
 20
7.2808875491
 30
0.0
 10
10.8327826618
 20
7.2826135044
 30
0.0
 10
10.8014816328
 20
7.2866465377
 30
0.0
 10
10.7704043667
 20
7.2929643971
 30
0.0
 10
10.7397195478
 20
7.3015324949
 30
0.0
 10
10.7095936482
 20
7.3123039876
 30
0.0
 10
10.6801900751
 20
7.3252201692
 30
0.0
 10
10.651668311
 20
7.340210785
 30
0.0
 10
10.6241830028
 20
7.3571942999
 30
0.0
 10
10.597883174
 20
7.3760784414
 30
0.0
 10
10.5729114588
 20
7.3967607175
 30
0.0
 10
10.549403261
 20
7.4191288666
 30
0.0
 10
10.5274860605
 20
7.4430615214
 30
0.0
 10
10.5072787841
 20
7.4684289017
 30
0.0
 10
10.4888910883
 20
7.495093434
 30
0.0
 10
10.4724227703
 20
7.5229105075
 30
0.0
 10
10.4579633161
 20
7.5517293056
 30
0.0
 10
10.4455913504
 20
7.5813935426
 30
0.0
 10
10.4353741674
 20
7.6117423669
 30
0.0
 10
10.427367467
 20
7.6426110105
 30
0.0
 10
10.4216150629
 20
7.6738325474
 30
0.0
 10
10.418148362
 20
7.7052353463
 30
0.0
 10
10.4173719431
 20
7.7262364657
 30
0.0
 10
10.4173719431
 20
7.7367067051
 30
0.0
  0
SPLINE
  5
386
100
AcDbEntity
  8
0
100
AcDbSpline
 62
7
  6
CONTINUOUS
 70
0
 71
3
 72
39
 73
35
 74
0
 42
0.0000001
 43
0.0000001
 44
0.0000000001
 40
0.0
 40
0.0
 40
0.0
 40
0.0
 40
0.0299424706
 40
0.0599093177
 40
0.0899243239
 40
0.1200101031
 40
0.1501875623
 40
0.1804754149
 40
0.21088976
 40
0.241443737
 40
0.2721472612
 40
0.3030068434
 40
0.3340254949
 40
0.3652027136
 40
0.3965345483
 40
0.4280137339
 40
0.4596298915
 40
0.4913697862
 40
0.5232176339
 40
0.5551554503
 40
0.587163434
 40
0.6192203763
 40
0.6513040919
 40
0.6833918632
 40
0.7154608918
 40
0.7474887514
 40
0.7794538357
 40
0.8113357957
 40
0.8431159546
 40
0.8747777135
 40
0.906306863
 40
0.9376920938
 40
0.9689246722
 40
1.0
 40
1.0
 40
1.0
 40
1.0
 10
11.0134093421
 20
7.5457075203
 30
0.0
 10
11.0095107699
 20
7.5419417895
 30
0.0
 10
11.0014070739
 20
7.5347142363
 30
0.0
 10
10.9884236911
 20
7.5248679728
 30
0.0
 10
10.9746788321
 20
7.5160660524
 30
0.0
 10
10.9602492958
 20
7.5083578531
 30
0.0
 10
10.9452144137
 20
7.5017854893
 30
0.0
 10
10.9296571621
 20
7.4963850904
 30
0.0
 10
10.9136632722
 20
7.4921862017
 30
0.0
 10
10.8973208595
 20
7.4892117456
 30
0.0
 10
10.8807199024
 20
7.4874778782
 30
0.0
 10
10.8639517526
 20
7.4869939204
 30
0.0
 10
10.8471086302
 20
7.4877623172
 30
0.0
 10
10.8302831206
 20
7.4897786358
 30
0.0
 10
10.8135676696
 20
7.4930315995
 30
0.0
 10
10.7970540825
 20
7.4975031575
 30
0.0
 10
10.7808330262
 20
7.5031685879
 30
0.0
 10
10.7649935361
 20
7.5099966346
 30
0.0
 10
10.7496225362
 20
7.5179496865
 30
0.0
 10
10.7348043684
 20
7.5269839845
 30
0.0
 10
10.7206203365
 20
7.5370498616
 30
0.0
 10
10.7071482654
 20
7.5480920136
 30
0.0
 10
10.6944620797
 20
7.5600498011
 30
0.0
 10
10.6826314025
 20
7.5728575791
 30
0.0
 10
10.6717211781
 20
7.5864450537
 30
0.0
 10
10.6617913178
 20
7.6007376636
 30
0.0
 10
10.6528963698
 20
7.6156569814
 30
0.0
 10
10.6450852274
 20
7.6311211461
 30
0.0
 10
10.6384008572
 20
7.647045296
 30
0.0
 10
10.6328800797
 20
7.6633420639
 30
0.0
 10
10.6285533218
 20
7.6799219221
 30
0.0
 10
10.6254445551
 20
7.6966941406
 30
0.0
 10
10.6235709531
 20
7.7135654256
 30
0.0
 10
10.6231513141
 20
7.7248489575
 30
0.0
 10
10.6231513141
 20
7.730474326
 30
0.0
  0
SPLINE
  5
387
100
AcDbEntity
  8
0
100
AcDbSpline
 62
7
  6
CONTINUOUS
 70
0
 71
3
 72
23
 73
19
 74
0
 42
0.0000001
 43
0.0000001
 44
0.0000000001
 40
0.0
 40
0.0
 40
0.0
 40
0.0
 40
0.0616994033
 40
0.1234251683
 40
0.185197337
 40
0.2470354943
 40
0.3089585766
 40
0.3709846908
 40
0.4331309421
 40
0.4954132756
 40
0.5578463258
 40
0.620443292
 40
0.6832158241
 40
0.7461738619
 40
0.8093258979
 40
0.8726776911
 40
0.9362356357
 40
1.0
 40
1.0
 40
1.0
 40
1.0
 10
10.532581273
 20
8.0196746986
 30
0.0
 10
10.5280105311
 20
8.0151249755
 30
0.0
 10
10.5190953932
 20
8.0057908697
 30
0.0
 10
10.5064435781
 20
7.991129348
 30
0.0
 10
10.4945376805
 20
7.9758368913
 30
0.0
 10
10.4834046201
 20
7.9599479591
 30
0.0
 10
10.4730690068
 20
7.94349776
 30
0.0
 10
10.4635538212
 20
7.9265229093
 30
0.0
 10
10.4548801762
 20
7.9090611415
 30
0.0
 10
10.4470673226
 20
7.8911512801
 30
0.0
 10
10.440132592
 20
7.8728331372
 30
0.0
 10
10.4340913637
 20
7.8541474259
 30
0.0
 10
10.4289570342
 20
7.8351356805
 30
0.0
 10
10.42474094
 20
7.8158401251
 30
0.0
 10
10.4214524592
 20
7.7963037216
 30
0.0
 10
10.4190987421
 20
7.7765695987
 30
0.0
 10
10.4176851338
 20
7.7566823084
 30
0.0
 10
10.4173719431
 20
7.743371706
 30
0.0
 10
10.4173719431
 20
7.7367067051
 30
0.0
  0
SPLINE
  5
388
100
AcDbEntity
  8
0
100
AcDbSpline
 62
7
  6
CONTINUOUS
 70
0
 71
3
 72
23
 73
19
 74
0
 42
0.0000001
 43
0.0000001
 44
0.0000000001
 40
0.0
 40
0.0
 40
0.0
 40
0.0
 40
0.0617101427
 40
0.1234413969
 40
0.1852146481
 40
0.2470503542
 40
0.308968347
 40
0.3709876211
 40
0.4331261371
 40
0.4954006584
 40
0.5578266133
 40
0.6204179205
 40
0.6831867712
 40
0.7461439365
 40
0.8092980115
 40
0.8726548716
 40
0.9362235844
 40
1.0
 40
1.0
 40
1.0
 40
1.0
 10
10.6868784514
 20
7.8837571535
 30
0.0
 10
10.6843551263
 20
7.881319809
 30
0.0
 10
10.6794321304
 20
7.8763134482
 30
0.0
 10
10.6724422906
 20
7.8684326945
 30
0.0
 10
10.6658618445
 20
7.860197516
 30
0.0
 10
10.6597061965
 20
7.8516271929
 30
0.0
 10
10.6539894611
 20
7.8427414295
 30
0.0
 10
10.6487248623
 20
7.8335607244
 30
0.0
 10
10.6439245128
 20
7.8241062613
 30
0.0
 10
10.6395994417
 20
7.8143998628
 30
0.0
 10
10.6357596159
 20
7.8044639077
 30
0.0
 10
10.6324139029
 20
7.7943213039
 30
0.0
 10
10.6295699447
 20
7.7839954509
 30
0.0
 10
10.6272342831
 20
7.7735101448
 30
0.0
 10
10.6254123214
 20
7.762889625
 30
0.0
 10
10.6241081381
 20
7.7521581216
 30
0.0
 10
10.6233248751
 20
7.7413409014
 30
0.0
 10
10.6231513141
 20
7.7341000444
 30
0.0
 10
10.6231513141
 20
7.730474326
 30
0.0
  0
SPLINE
  5
389
100
AcDbEntity
  8
0
100
AcDbSpline
 62
7
  6
CONTINUOUS
 70
0
 71
3
 72
42
 73
38
 74
0
 42
0.0000001
 43
0.0000001
 44
0.0000000001
 40
0.0
 40
0.0
 40
0.0
 40
0.0
 40
0.0299419663
 40
0.0449235352
 40
0.0599142051
 40
0.0899287052
 40
0.1200139767
 40
0.135092661
 40
0.150196701
 40
0.1804840414
 40
0.210897872
 40
0.2414513324
 40
0.2721543376
 40
0.3030133986
 40
0.3340315263
 40
0.3652082187
 40
0.3965395244
 40
0.4280181782
 40
0.4596338019
 40
0.4913731609
 40
0.5232204716
 40
0.55515775
 40
0.5871651943
 40
0.6192215961
 40
0.6513047701
 40
0.6833919991
 40
0.7154604852
 40
0.7474878032
 40
0.7794523473
 40
0.8113337692
 40
0.8431133916
 40
0.8747746171
 40
0.9063032365
 40
0.9376879249
 40
0.9533258257
 40
0.968925233
 40
1.0
 40
1.0
 40
1.0
 40
1.0
 10
11.4406976008
 20
9.8700446689
 30
0.0
 10
11.437844178
 20
9.8672884738
 30
0.0
 10
11.4333958691
 20
9.8633211665
 30
0.0
 10
11.4271660817
 20
9.8583986274
 30
0.0
 10
11.4207379203
 20
9.8537210206
 30
0.0
 10
11.4123502117
 20
9.848349619
 30
0.0
 10
11.4035546775
 20
9.8436512039
 30
0.0
 10
11.396300656
 20
9.8403087039
 30
0.0
 10
11.3888967599
 20
9.8372421862
 30
0.0
 10
11.3793979161
 20
9.8339447597
 30
0.0
 10
11.3676920163
 20
9.8308716471
 30
0.0
 10
11.3557306899
 20
9.8286945629
 30
0.0
 10
11.3435802216
 20
9.8274255258
 30
0.0
 10
11.3313073575
 20
9.8270713062
 30
0.0
 10
11.3189796264
 20
9.8276337077
 30
0.0
 10
11.3066647845
 20
9.8291094816
 30
0.0
 10
11.2944304968
 20
9.8314903743
 30
0.0
 10
11.2823439558
 20
9.8347631727
 30
0.0
 10
11.2704715213
 20
9.8389097817
 30
0.0
 10
11.2588783604
 20
9.8439073272
 30
0.0
 10
11.2476280949
 20
9.8497282824
 30
0.0
 10
11.2367824563
 20
9.8563406198
 30
0.0
 10
11.2264009523
 20
9.8637079869
 30
0.0
 10
11.2165405444
 20
9.8717899054
 30
0.0
 10
11.2072553386
 20
9.8805419915
 30
0.0
 10
11.1985962925
 20
9.8899161977
 30
0.0
 10
11.1906109381
 20
9.8998610738
 30
0.0
 10
11.1833431239
 20
9.9103220471
 30
0.0
 10
11.1768327759
 20
9.9212417153
 30
0.0
 10
11.1711156804
 20
9.9325601705
 30
0.0
 10
11.1662232892
 20
9.9442152771
 30
0.0
 10
11.16218254
 20
9.9561431807
 30
0.0
 10
11.1590157513
 20
9.9682780168
 30
0.0
 10
11.1571171943
 20
9.9785211384
 30
0.0
 10
11.1560521567
 20
9.9867513557
 30
0.0
 10
11.1552920673
 20
9.9949736995
 30
0.0
 10
11.1550619201
 20
10.0011609549
 30
0.0
 10
11.1550619201
 20
10.0052782412
 30
0.0
  0
SPLINE
  5
38A
100
AcDbEntity
  8
0
100
AcDbSpline
 62
7
  6
CONTINUOUS
 70
0
 71
3
 72
81
 73
77
 74
0
 42
0.0000001
 43
0.0000001
 44
0.0000000001
 40
0.0
 40
0.0
 40
0.0
 40
0.0
 40
0.0039265969
 40
0.0080153213
 40
0.0122696421
 40
0.0166924926
 40
0.0212863518
 40
0.0260531663
 40
0.0309942425
 40
0.0361104541
 40
0.0414022712
 40
0.0468697881
 40
0.0525128166
 40
0.0583308053
 40
0.0704878107
 40
0.0833319863
 40
0.0968505465
 40
0.1110277198
 40
0.1258451092
 40
0.1412819794
 40
0.1573155145
 40
0.1739210212
 40
0.1910721019
 40
0.2087407976
 40
0.2268977225
 40
0.2455121993
 40
0.2645523737
 40
0.2839853198
 40
0.3037771356
 40
0.3238930436
 40
0.3442974932
 40
0.3649542529
 40
0.4068762245
 40
0.4493595769
 40
0.4920990469
 40
0.5347870221
 40
0.5771163665
 40
0.5980517321
 40
0.6187839141
 40
0.6392759139
 40
0.6594912933
 40
0.6793942639
 40
0.6989497806
 40
0.718123645
 40
0.7368825983
 40
0.7551944177
 40
0.7730280207
 40
0.7903535805
 40
0.8071426575
 40
0.8233683217
 40
0.8390052944
 40
0.8540301135
 40
0.8684213314
 40
0.8821597546
 40
0.8952287055
 40
0.9076143594
 40
0.919306174
 40
0.9248899059
 40
0.930298042
 40
0.9355304608
 40
0.9405873795
 40
0.9454694318
 40
0.9501776195
 40
0.9547134671
 40
0.9590790005
 40
0.963276832
 40
0.9673102807
 40
0.9711833694
 40
0.974901018
 40
0.978469083
 40
0.9818944848
 40
0.9883482352
 40
0.9913997823
 40
0.9943494344
 40
0.9972110504
 40
1.0
 40
1.0
 40
1.0
 40
1.0
 10
12.4334340104
 20
8.4178687837
 30
0.0
 10
12.4343504806
 20
8.418754026
 30
0.0
 10
12.4361824693
 20
8.4206015819
 30
0.0
 10
12.4388743243
 20
8.4235364579
 30
0.0
 10
12.4415634699
 20
8.426688665
 30
0.0
 10
12.4442485029
 20
8.4300565682
 30
0.0
 10
12.4469282437
 20
8.4336385796
 30
0.0
 10
12.4496014309
 20
8.4374330601
 30
0.0
 10
12.4522668627
 20
8.4414382043
 30
0.0
 10
12.4549232432
 20
8.4456521228
 30
0.0
 10
12.4575693041
 20
8.4500728107
 30
0.0
 10
12.4602038125
 20
8.4546981536
 30
0.0
 10
12.4628254944
 20
8.4595259756
 30
0.0
 10
12.4663540991
 20
8.4663299297
 30
0.0
 10
12.4707156638
 20
8.4753320435
 30
0.0
 10
12.4758049238
 20
8.4867508711
 30
0.0
 10
12.4808136406
 20
8.4989171935
 30
0.0
 10
12.4857321722
 20
8.5118077755
 30
0.0
 10
12.4905510486
 20
8.5253981222
 30
0.0
 10
12.495260985
 20
8.5396622897
 30
0.0
 10
12.4998528988
 20
8.5545730237
 30
0.0
 10
12.5043179327
 20
8.5701018013
 30
0.0
 10
12.5086474716
 20
8.5862188952
 30
0.0
 10
12.5128331645
 20
8.6028934275
 30
0.0
 10
12.5168669452
 20
8.6200934329
 30
0.0
 10
12.5207410383
 20
8.6377859282
 30
0.0
 10
12.5244479774
 20
8.6559369793
 30
0.0
 10
12.5279806162
 20
8.6745117651
 30
0.0
 10
12.5313321515
 20
8.6934746447
 30
0.0
 10
12.534496126
 20
8.7127892158
 30
0.0
 10
12.5374664738
 20
8.7324184336
 30
0.0
 10
12.541179146
 20
8.7590901258
 30
0.0
 10
12.5452893933
 20
8.7929377329
 30
0.0
 10
12.5493457131
 20
8.8340000609
 30
0.0
 10
12.5525184876
 20
8.8753894963
 30
0.0
 10
12.5547833197
 20
8.9167883361
 30
0.0
 10
12.5559038671
 20
8.9511552288
 30
0.0
 10
12.5563280847
 20
8.978409708
 30
0.0
 10
12.5564094381
 20
8.9985810102
 30
0.0
 10
12.556255069
 20
9.0185182323
 30
0.0
 10
12.5558652698
 20
9.0381831332
 30
0.0
 10
12.55524081
 20
9.0575379555
 30
0.0
 10
12.5543829033
 20
9.0765455511
 30
0.0
 10
12.5532932245
 20
9.0951694416
 30
0.0
 10
12.5519738951
 20
9.1133738928
 30
0.0
 10
12.5504274792
 20
9.1311239798
 30
0.0
 10
12.5486569791
 20
9.1483856546
 30
0.0
 10
12.5466658294
 20
9.1651258174
 30
0.0
 10
12.5444579018
 20
9.1813123852
 30
0.0
 10
12.5420374859
 20
9.1969143546
 30
0.0
 10
12.5394092826
 20
9.2119018609
 30
0.0
 10
12.5365783922
 20
9.2262462389
 30
0.0
 10
12.5335503055
 20
9.2399200965
 30
0.0
 10
12.5303308991
 20
9.2528973576
 30
0.0
 10
12.5269264073
 20
9.2651534012
 30
0.0
 10
12.5233433972
 20
9.2766648368
 30
0.0
 10
12.5201677117
 20
9.2857535714
 30
0.0
 10
12.5175352278
 20
9.2926281523
 30
0.0
 10
12.515550871
 20
9.2975051571
 30
0.0
 10
12.5135271522
 20
9.3021802733
 30
0.0
 10
12.5114649878
 20
9.3066512805
 30
0.0
 10
12.5093654028
 20
9.3109160718
 30
0.0
 10
12.5072293352
 20
9.3149726121
 30
0.0
 10
12.5050578203
 20
9.3188189988
 30
0.0
 10
12.5028518603
 20
9.3224534188
 30
0.0
 10
12.5006124411
 20
9.325874148
 30
0.0
 10
12.4983406344
 20
9.3290796001
 30
0.0
 10
12.4960373847
 20
9.3320682541
 30
0.0
 10
12.4937038104
 20
9.334838651
 30
0.0
 10
12.4913406769
 20
9.3373897034
 30
0.0
 10
12.4882145075
 20
9.3404357753
 30
0.0
 10
12.4849713331
 20
9.3431174301
 30
0.0
 10
12.4816151158
 20
9.3453740293
 30
0.0
 10
12.4791202388
 20
9.3468100033
 30
0.0
 10
12.4766024346
 20
9.3480197511
 30
0.0
 10
12.4748901599
 20
9.3486823129
 30
0.0
 10
12.4740332566
 20
9.3489734916
 30
0.0
  0
SPLINE
  5
38B
100
AcDbEntity
  8
0
100
AcDbSpline
 62
7
  6
CONTINUOUS
 70
0
 71
3
 72
15
 73
11
 74
0
 42
0.0000001
 43
0.0000001
 44
0.0000000001
 40
0.0
 40
0.0
 40
0.0
 40
0.0
 40
0.1457213483
 40
0.2845991187
 40
0.4169826454
 40
0.5433126665
 40
0.664117082
 40
0.7800117701
 40
0.8917048522
 40
1.0
 40
1.0
 40
1.0
 40
1.0
 10
12.4334340104
 20
8.4178687837
 30
0.0
 10
12.4324052934
 20
8.4168751193
 30
0.0
 10
12.4303487469
 20
8.4149826145
 30
0.0
 10
12.4271889053
 20
8.412378185
 30
0.0
 10
12.4240318539
 20
8.4100799897
 30
0.0
 10
12.4208795883
 20
8.4080898256
 30
0.0
 10
12.4177338255
 20
8.4064092865
 30
0.0
 10
12.41459627
 20
8.4050398262
 30
0.0
 10
12.4114692364
 20
8.4039830628
 30
0.0
 10
12.4093652097
 20
8.4034814032
 30
0.0
 10
12.4083204299
 20
8.4032858877
 30
0.0
  0
SPLINE
  5
38C
100
AcDbEntity
  8
0
100
AcDbSpline
 62
7
  6
CONTINUOUS
 70
0
 71
3
 72
23
 73
19
 74
0
 42
0.0000001
 43
0.0000001
 44
0.0000000001
 40
0.0
 40
0.0
 40
0.0
 40
0.0
 40
0.0755963493
 40
0.1466389404
 40
0.2134644447
 40
0.2765130444
 40
0.3363250756
 40
0.3935451244
 40
0.4489211068
 40
0.5032859965
 40
0.5575238004
 40
0.612525131
 40
0.6691411996
 40
0.728147006
 40
0.7902177883
 40
0.855922422
 40
0.9257258939
 40
1.0
 40
1.0
 40
1.0
 40
1.0
 10
12.4334340104
 20
8.5530984074
 30
0.0
 10
12.432502947
 20
8.5521990692
 30
0.0
 10
12.4306420581
 20
8.5505098368
 30
0.0
 10
12.4277621461
 20
8.5482531318
 30
0.0
 10
12.4248856116
 20
8.5463578194
 30
0.0
 10
12.4220150959
 20
8.5448267647
 30
0.0
 10
12.4191530055
 20
8.5436627073
 30
0.0
 10
12.4163022731
 20
8.5428685627
 30
0.0
 10
12.4134666537
 20
8.5424470635
 30
0.0
 10
12.4106508651
 20
8.5424002845
 30
0.0
 10
12.4078603128
 20
8.5427288201
 30
0.0
 10
12.4051004266
 20
8.5434318068
 30
0.0
 10
12.4023758571
 20
8.5445067514
 30
0.0
 10
12.3996902661
 20
8.5459506326
 30
0.0
 10
12.3970463183
 20
8.5477600502
 30
0.0
 10
12.3944461941
 20
8.5499319324
 30
0.0
 10
12.3918919613
 20
8.5524630307
 30
0.0
 10
12.3902731425
 20
8.5543279483
 30
0.0
 10
12.3894706538
 20
8.5553146573
 30
0.0
  0
SPLINE
  5
38D
100
AcDbEntity
  8
0
100
AcDbSpline
 62
7
  6
CONTINUOUS
 70
0
 71
3
 72
42
 73
38
 74
0
 42
0.0000001
 43
0.0000001
 44
0.0000000001
 40
0.0
 40
0.0
 40
0.0
 40
0.0
 40
0.0299419663
 40
0.0449235352
 40
0.0599142051
 40
0.0899287052
 40
0.1200139767
 40
0.135092661
 40
0.150196701
 40
0.1804840414
 40
0.210897872
 40
0.2414513324
 40
0.2721543376
 40
0.3030133986
 40
0.3340315263
 40
0.3652082187
 40
0.3965395244
 40
0.4280181782
 40
0.4596338019
 40
0.4913731609
 40
0.5232204716
 40
0.55515775
 40
0.5871651943
 40
0.6192215961
 40
0.6513047701
 40
0.6833919991
 40
0.7154604852
 40
0.7474878032
 40
0.7794523473
 40
0.8113337692
 40
0.8431133916
 40
0.8747746171
 40
0.9063032365
 40
0.9376879249
 40
0.9533258257
 40
0.968925233
 40
1.0
 40
1.0
 40
1.0
 40
1.0
 10
10.4747717172
 20
7.0392541771
 30
0.0
 10
10.4719182945
 20
7.036497982
 30
0.0
 10
10.4674699856
 20
7.0325306747
 30
0.0
 10
10.4612401982
 20
7.0276081356
 30
0.0
 10
10.4548120368
 20
7.0229305288
 30
0.0
 10
10.4464243282
 20
7.0175591272
 30
0.0
 10
10.437628794
 20
7.0128607121
 30
0.0
 10
10.4303747725
 20
7.0095182121
 30
0.0
 10
10.4229708764
 20
7.0064516944
 30
0.0
 10
10.4134720326
 20
7.0031542679
 30
0.0
 10
10.4017661328
 20
7.0000811552
 30
0.0
 10
10.3898048064
 20
6.9979040711
 30
0.0
 10
10.377654338
 20
6.996635034
 30
0.0
 10
10.3653814739
 20
6.9962808144
 30
0.0
 10
10.3530537428
 20
6.9968432159
 30
0.0
 10
10.340738901
 20
6.9983189898
 30
0.0
 10
10.3285046132
 20
7.0006998825
 30
0.0
 10
10.3164180722
 20
7.0039726809
 30
0.0
 10
10.3045456378
 20
7.0081192899
 30
0.0
 10
10.2929524769
 20
7.0131168353
 30
0.0
 10
10.2817022113
 20
7.0189377906
 30
0.0
 10
10.2708565727
 20
7.025550128
 30
0.0
 10
10.2604750688
 20
7.0329174951
 30
0.0
 10
10.2506146609
 20
7.0409994136
 30
0.0
 10
10.2413294551
 20
7.0497514997
 30
0.0
 10
10.232670409
 20
7.0591257059
 30
0.0
 10
10.2246850546
 20
7.069070582
 30
0.0
 10
10.2174172404
 20
7.0795315553
 30
0.0
 10
10.2109068924
 20
7.0904512235
 30
0.0
 10
10.2051897969
 20
7.1017696787
 30
0.0
 10
10.2002974057
 20
7.1134247853
 30
0.0
 10
10.1962566564
 20
7.1253526889
 30
0.0
 10
10.1930898677
 20
7.137487525
 30
0.0
 10
10.1911913108
 20
7.1477306466
 30
0.0
 10
10.1901262732
 20
7.1559608639
 30
0.0
 10
10.1893661837
 20
7.1641832077
 30
0.0
 10
10.1891360366
 20
7.1703704631
 30
0.0
 10
10.1891360366
 20
7.1744877494
 30
0.0
  0
SPLINE
  5
38E
100
AcDbEntity
  8
0
100
AcDbSpline
 62
7
  6
CONTINUOUS
 70
0
 71
3
 72
18
 73
14
 74
0
 42
0.0000001
 43
0.0000001
 44
0.0000000001
 40
0.0
 40
0.0
 40
0.0
 40
0.0
 40
0.1504654776
 40
0.2917138659
 40
0.4244431221
 40
0.4879103299
 40
0.5496094336
 40
0.6682621302
 40
0.7817883943
 40
0.837138095
 40
0.8918079579
 40
0.9460193786
 40
1.0
 40
1.0
 40
1.0
 40
1.0
 10
12.3996266045
 20
8.5892503649
 30
0.0
 10
12.398778495
 20
8.588431154
 30
0.0
 10
12.3970833931
 20
8.5868940615
 30
0.0
 10
12.3944587262
 20
8.5848456599
 30
0.0
 10
12.3922417156
 20
8.5833969288
 30
0.0
 10
12.3904738656
 20
8.5824158881
 30
0.0
 10
12.3887580333
 20
8.5815736394
 30
0.0
 10
12.3866126809
 20
8.5807226053
 30
0.0
 10
12.3844291835
 20
8.5801417873
 30
0.0
 10
12.3826997711
 20
8.5798557099
 30
0.0
 10
12.3814180457
 20
8.5797287187
 30
0.0
 10
12.3801415035
 20
8.5796876865
 30
0.0
 10
12.3792934006
 20
8.5797176961
 30
0.0
 10
12.3788713853
 20
8.5797469659
 30
0.0
  0
SPLINE
  5
38F
100
AcDbEntity
  8
0
100
AcDbSpline
 62
7
  6
CONTINUOUS
 70
0
 71
3
 72
19
 73
15
 74
0
 42
0.0000001
 43
0.0000001
 44
0.0000000001
 40
0.0
 40
0.0
 40
0.0
 40
0.0
 40
0.150460937
 40
0.2916987357
 40
0.424419542
 40
0.4878837275
 40
0.5495802504
 40
0.6682271673
 40
0.7255606103
 40
0.7817998831
 40
0.8371466721
 40
0.8918135967
 40
0.94602219
 40
1.0
 40
1.0
 40
1.0
 40
1.0
 10
12.4488888253
 20
8.4167969887
 30
0.0
 10
12.4475459541
 20
8.4154998746
 30
0.0
 10
12.4448620588
 20
8.4130661198
 30
0.0
 10
12.440706306
 20
8.4098228622
 30
0.0
 10
12.4371961187
 20
8.40752905
 30
0.0
 10
12.4343969688
 20
8.4059757464
 30
0.0
 10
12.4316803984
 20
8.4046422022
 30
0.0
 10
12.4289320215
 20
8.4035521496
 30
0.0
 10
12.426168182
 20
8.40273188
 30
0.0
 10
12.4241246746
 20
8.4022590717
 30
0.0
 10
12.4220879699
 20
8.4019220753
 30
0.0
 10
12.4200586057
 20
8.4017210575
 30
0.0
 10
12.4180374027
 20
8.4016560962
 30
0.0
 10
12.4166945728
 20
8.4017035868
 30
0.0
 10
12.4160263807
 20
8.4017499261
 30
0.0
  0
SPLINE
  5
390
100
AcDbEntity
  8
0
100
AcDbSpline
 62
7
  6
CONTINUOUS
 70
0
 71
3
 72
90
 73
86
 74
0
 42
0.0000001
 43
0.0000001
 44
0.0000000001
 40
0.0
 40
0.0
 40
0.0
 40
0.0
 40
0.0042067139
 40
0.0086075106
 40
0.0132068447
 40
0.0180083824
 40
0.0230151146
 40
0.028229264
 40
0.0336521653
 40
0.0392845792
 40
0.0451266929
 40
0.0511782066
 40
0.0574384217
 40
0.0639061517
 40
0.0774573436
 40
0.0918164152
 40
0.1069628211
 40
0.1228720818
 40
0.1395162759
 40
0.1568644227
 40
0.1748828085
 40
0.1935352766
 40
0.2127834662
 40
0.2325870248
 40
0.2529037961
 40
0.2736899977
 40
0.2949004031
 40
0.3164885061
 40
0.3384066765
 40
0.3606063111
 40
0.3830379815
 40
0.4056515908
 40
0.4512209219
 40
0.4969066077
 40
0.5422987265
 40
0.5647578391
 40
0.5869916272
 40
0.6089505648
 40
0.6305859305
 40
0.6518499538
 40
0.6726959666
 40
0.6930785587
 40
0.712953744
 40
0.7322791409
 40
0.7510141425
 40
0.7691201056
 40
0.7865605606
 40
0.8033014491
 40
0.8193114103
 40
0.8345620898
 40
0.849028516
 40
0.8626895765
 40
0.8692129732
 40
0.8755292298
 40
0.8816370628
 40
0.8875356423
 40
0.893224552
 40
0.8987038322
 40
0.9039741269
 40
0.9090366075
 40
0.9138931976
 40
0.9185465659
 40
0.9230002528
 40
0.9272588634
 40
0.9313280884
 40
0.9352150088
 40
0.9389281738
 40
0.9424778347
 40
0.945876177
 40
0.9491374133
 40
0.9522780215
 40
0.9553167112
 40
0.9582743918
 40
0.9611739364
 40
0.9640397357
 40
0.9668971385
 40
0.9697717291
 40
0.9726886059
 40
0.9756716978
 40
0.978743252
 40
0.985225384
 40
0.9886743023
 40
0.9922790789
 40
0.9960512307
 40
1.0
 40
1.0
 40
1.0
 40
1.0
 10
12.4334340104
 20
8.5530984074
 30
0.0
 10
12.4341574394
 20
8.5537971862
 30
0.0
 10
12.4356033405
 20
8.555262868
 30
0.0
 10
12.4377227125
 20
8.5576047712
 30
0.0
 10
12.4398394084
 20
8.5601374096
 30
0.0
 10
12.4419520705
 20
8.5628591535
 30
0.0
 10
12.444059547
 20
8.565768416
 30
0.0
 10
12.446160603
 20
8.5688635372
 30
0.0
 10
12.4482540654
 20
8.5721426833
 30
0.0
 10
12.450338652
 20
8.5756039335
 30
0.0
 10
12.4524131395
 20
8.5792452302
 30
0.0
 10
12.4544763088
 20
8.5830644127
 30
0.0
 10
12.4565269194
 20
8.5870592347
 30
0.0
 10
12.4592857055
 20
8.5927047695
 30
0.0
 10
12.4626864702
 20
8.6001898961
 30
0.0
 10
12.4666372993
 20
8.6096979109
 30
0.0
 10
12.4705095191
 20
8.619843951
 30
0.0
 10
12.4742938255
 20
8.6306038572
 30
0.0
 10
12.4779811126
 20
8.6419521163
 30
0.0
 10
12.4815625048
 20
8.6538617068
 30
0.0
 10
12.4850293839
 20
8.6663042401
 30
0.0
 10
12.4883734051
 20
8.679250023
 30
0.0
 10
12.4915865209
 20
8.692668142
 30
0.0
 10
12.4946609992
 20
8.706526538
 30
0.0
 10
12.497589444
 20
8.7207920832
 30
0.0
 10
12.5003648185
 20
8.7354306622
 30
0.0
 10
12.5029804535
 20
8.7504072596
 30
0.0
 10
12.5054300647
 20
8.7656860464
 30
0.0
 10
12.5077077688
 20
8.7812304692
 30
0.0
 10
12.5098080881
 20
8.7970033237
 30
0.0
 10
12.5117260074
 20
8.8129668908
 30
0.0
 10
12.5140395962
 20
8.8345089637
 30
0.0
 10
12.5164424315
 20
8.8616311648
 30
0.0
 10
12.5185311636
 20
8.8942390287
 30
0.0
 10
12.5196027887
 20
8.9213670336
 30
0.0
 10
12.5200468734
 20
8.9429018007
 30
0.0
 10
12.5201717822
 20
8.9588378881
 30
0.0
 10
12.520089493
 20
8.9745772883
 30
0.0
 10
12.5198002037
 20
8.9900823667
 30
0.0
 10
12.5193046339
 20
9.005316014
 30
0.0
 10
12.5186039933
 20
9.0202417839
 30
0.0
 10
12.5176999866
 20
9.0348239679
 30
0.0
 10
12.5165948093
 20
9.0490276883
 30
0.0
 10
12.5152911501
 20
9.0628189848
 30
0.0
 10
12.5137921764
 20
9.076164897
 30
0.0
 10
12.5121015278
 20
9.0890335434
 30
0.0
 10
12.510223308
 20
9.1013941999
 30
0.0
 10
12.508162073
 20
9.1132173873
 30
0.0
 10
12.5059228279
 20
9.1244749359
 30
0.0
 10
12.5035110118
 20
9.1351401246
 30
0.0
 10
12.5009324505
 20
9.1451875387
 30
0.0
 10
12.4986156952
 20
9.1531437513
 30
0.0
 10
12.496676844
 20
9.1591763538
 30
0.0
 10
12.4952073265
 20
9.1634619649
 30
0.0
 10
12.4937008907
 20
9.1675760215
 30
0.0
 10
12.492158437
 20
9.1715160924
 30
0.0
 10
12.4905808923
 20
9.1752798449
 30
0.0
 10
12.488969157
 20
9.1788650437
 30
0.0
 10
12.4873242305
 20
9.1822695901
 30
0.0
 10
12.4856470256
 20
9.185491465
 30
0.0
 10
12.4839385487
 20
9.1885287898
 30
0.0
 10
12.482199778
 20
9.1913797896
 30
0.0
 10
12.4804316683
 20
9.1940427835
 30
0.0
 10
12.4786352562
 20
9.1965162479
 30
0.0
 10
12.476811462
 20
9.1987987017
 30
0.0
 10
12.4749612991
 20
9.2008888256
 30
0.0
 10
12.473085712
 20
9.2027853585
 30
0.0
 10
12.4711856277
 20
9.2044870963
 30
0.0
 10
12.4692620382
 20
9.20599297
 30
0.0
 10
12.4673158474
 20
9.207301836
 30
0.0
 10
12.4653481077
 20
9.2084127049
 30
0.0
 10
12.4633598895
 20
9.2093245382
 30
0.0
 10
12.4613524168
 20
9.2100363574
 30
0.0
 10
12.4593271049
 20
9.210547389
 30
0.0
 10
12.4572854994
 20
9.2108568845
 30
0.0
 10
12.4552293253
 20
9.2109645562
 30
0.0
 10
12.4531603204
 20
9.2108702815
 30
0.0
 10
12.4510802389
 20
9.2105743217
 30
0.0
 10
12.4489905385
 20
9.2100771728
 30
0.0
 10
12.4461432396
 20
9.2091302987
 30
0.0
 10
12.4433257463
 20
9.2077824724
 30
0.0
 10
12.4405642069
 20
9.2060923745
 30
0.0
 10
12.4384461031
 20
9.2046013392
 30
0.0
 10
12.436326102
 20
9.2029145018
 30
0.0
 10
12.4349443956
 20
9.2016888363
 30
0.0
 10
12.4342532589
 20
9.2010456313
 30
0.0
  0
SPLINE
  5
391
100
AcDbEntity
  8
0
100
AcDbSpline
 62
7
  6
CONTINUOUS
 70
0
 71
3
 72
86
 73
82
 74
0
 42
0.0000001
 43
0.0000001
 44
0.0000000001
 40
0.0
 40
0.0
 40
0.0
 40
0.0
 40
0.0027164229
 40
0.0054532199
 40
0.0082302803
 40
0.0110665652
 40
0.0139797601
 40
0.0169860612
 40
0.0201000083
 40
0.0233345154
 40
0.0267008552
 40
0.0302087911
 40
0.0338666949
 40
0.0376816386
 40
0.0416596027
 40
0.0458055094
 40
0.0501234214
 40
0.0546165986
 40
0.0592875859
 40
0.0641383491
 40
0.0691702497
 40
0.0743842108
 40
0.0797806815
 40
0.0853597253
 40
0.0911210701
 40
0.0970640767
 40
0.1094907819
 40
0.1226299857
 40
0.1364676026
 40
0.1509863633
 40
0.166166208
 40
0.1819846021
 40
0.1984167887
 40
0.2154360082
 40
0.2330136911
 40
0.2511196222
 40
0.2697220861
 40
0.2887880011
 40
0.3082830385
 40
0.3281717446
 40
0.3484176561
 40
0.3689834073
 40
0.3898308346
 40
0.4109210783
 40
0.4322146819
 40
0.4536716962
 40
0.4969136001
 40
0.5403217884
 40
0.5835689461
 40
0.6050305436
 40
0.6263300209
 40
0.6474274143
 40
0.6682832501
 40
0.6888586484
 40
0.7091154216
 40
0.7290161766
 40
0.7485244187
 40
0.7676046599
 40
0.7862225346
 40
0.8043449193
 40
0.8219400528
 40
0.8389776685
 40
0.8554291414
 40
0.8712676506
 40
0.8864683732
 40
0.9010086996
 40
0.9148684857
 40
0.9280303658
 40
0.9404801448
 40
0.9464347977
 40
0.952207837
 40
0.9577986052
 40
0.9632068066
 40
0.9684324934
 40
0.9734760794
 40
0.9783384382
 40
0.9830208843
 40
0.9875254058
 40
0.9918546018
 40
0.9960115767
 40
1.0
 40
1.0
 40
1.0
 40
1.0
 10
12.4817512699
 20
9.3494736406
 30
0.0
 10
12.4826377989
 20
9.3494121595
 30
0.0
 10
12.4844129644
 20
9.3492084781
 30
0.0
 10
12.4870531194
 20
9.3486634974
 30
0.0
 10
12.4896733156
 20
9.3478790769
 30
0.0
 10
12.4922716913
 20
9.346856009
 30
0.0
 10
12.4948469135
 20
9.3455952135
 30
0.0
 10
12.4973976336
 20
9.3440976304
 30
0.0
 10
12.4999227184
 20
9.3423643908
 30
0.0
 10
12.5024210015
 20
9.3403965318
 30
0.0
 10
12.5048914346
 20
9.338195244
 30
0.0
 10
12.5073329465
 20
9.3357617182
 30
0.0
 10
12.5097444482
 20
9.3330972082
 30
0.0
 10
12.5121249165
 20
9.3302030992
 30
0.0
 10
12.5144732155
 20
9.3270807935
 30
0.0
 10
12.5167883128
 20
9.3237318684
 30
0.0
 10
12.5190690903
 20
9.3201579531
 30
0.0
 10
12.5213144632
 20
9.3163608101
 30
0.0
 10
12.5235233746
 20
9.3123423198
 30
0.0
 10
12.5256947019
 20
9.3081044475
 30
0.0
 10
12.5278274317
 20
9.3036493092
 30
0.0
 10
12.5299204666
 20
9.2989790987
 30
0.0
 10
12.5319727922
 20
9.2940961437
 30
0.0
 10
12.5339833823
 20
9.2890028758
 30
0.0
 10
12.535951229
 20
9.2837018204
 30
0.0
 10
12.5385555271
 20
9.2762490295
 30
0.0
 10
12.5416873009
 20
9.2664260247
 30
0.0
 10
12.5452061288
 20
9.254023041
 30
0.0
 10
12.5485322801
 20
9.2408600646
 30
0.0
 10
12.5516590212
 20
9.2269634443
 30
0.0
 10
12.554579995
 20
9.2123608629
 30
0.0
 10
12.5572892583
 20
9.1970815309
 30
0.0
 10
12.5597812978
 20
9.181156044
 30
0.0
 10
12.5620510436
 20
9.164616333
 30
0.0
 10
12.5640938759
 20
9.1474955845
 30
0.0
 10
12.5659056361
 20
9.1298281692
 30
0.0
 10
12.5674826349
 20
9.1116495699
 30
0.0
 10
12.5688216586
 20
9.0929963092
 30
0.0
 10
12.5699199808
 20
9.0739058752
 30
0.0
 10
12.570775364
 20
9.0544166433
 30
0.0
 10
12.5713860623
 20
9.0345677951
 30
0.0
 10
12.5717508241
 20
9.0143992393
 30
0.0
 10
12.5718688965
 20
8.9939515279
 30
0.0
 10
12.5717400188
 20
8.9732657896
 30
0.0
 10
12.5713644578
 20
8.9523835912
 30
0.0
 10
12.5705335886
 20
8.924263516
 30
0.0
 10
12.5688838495
 20
8.8889322298
 30
0.0
 10
12.5659512527
 20
8.8465352266
 30
0.0
 10
12.5627206331
 20
8.811310064
 30
0.0
 10
12.5596716951
 20
8.7833382545
 30
0.0
 10
12.5571682187
 20
8.7625974619
 30
0.0
 10
12.5544473692
 20
8.7420839675
 30
0.0
 10
12.5515146068
 20
8.7218389925
 30
0.0
 10
12.5483758538
 20
8.7019032548
 30
0.0
 10
12.5450374397
 20
8.6823168355
 30
0.0
 10
12.5415061003
 20
8.663119113
 30
0.0
 10
12.5377889608
 20
8.6443486796
 30
0.0
 10
12.5338935223
 20
8.6260432637
 30
0.0
 10
12.5298276492
 20
8.608239649
 30
0.0
 10
12.5255995552
 20
8.5909735988
 30
0.0
 10
12.5212177814
 20
8.5742797832
 30
0.0
 10
12.5166911814
 20
8.5581917091
 30
0.0
 10
12.5120289022
 20
8.5427416489
 30
0.0
 10
12.5072403642
 20
8.527960571
 30
0.0
 10
12.5023352444
 20
8.5138780615
 30
0.0
 10
12.4973234538
 20
8.5005222779
 30
0.0
 10
12.4922151036
 20
8.4879198111
 30
0.0
 10
12.4870204949
 20
8.4760958793
 30
0.0
 10
12.4825648236
 20
8.4667774192
 30
0.0
 10
12.4789581906
 20
8.4597376321
 30
0.0
 10
12.4762783644
 20
8.4547454407
 30
0.0
 10
12.4735848048
 20
8.4499647899
 30
0.0
 10
12.4708788475
 20
8.4453980506
 30
0.0
 10
12.468161851
 20
8.4410474919
 30
0.0
 10
12.4654351368
 20
8.4369152953
 30
0.0
 10
12.4627001122
 20
8.4330034953
 30
0.0
 10
12.4599580712
 20
8.4293140422
 30
0.0
 10
12.4572103578
 20
8.4258487171
 30
0.0
 10
12.4544582456
 20
8.4226092129
 30
0.0
 10
12.4517032111
 20
8.4195972886
 30
0.0
 10
12.4498272973
 20
8.4177034831
 30
0.0
 10
12.4488888253
 20
8.4167969887
 30
0.0
  0
SPLINE
  5
392
100
AcDbEntity
  8
0
100
AcDbSpline
 62
7
  6
CONTINUOUS
 70
0
 71
3
 72
74
 73
70
 74
0
 42
0.0000001
 43
0.0000001
 44
0.0000000001
 40
0.0
 40
0.0
 40
0.0
 40
0.0
 40
0.0039883519
 40
0.0081453644
 40
0.0124746814
 40
0.016979313
 40
0.0216617936
 40
0.0265241435
 40
0.0367926924
 40
0.0477911298
 40
0.0595183719
 40
0.071968247
 40
0.0851302476
 40
0.0989901559
 40
0.1135306008
 40
0.1287314592
 40
0.1445701145
 40
0.1610217219
 40
0.1780594753
 40
0.1956547688
 40
0.2137773147
 40
0.2323953455
 40
0.2514757521
 40
0.270984166
 40
0.2908850885
 40
0.3317167953
 40
0.3736696279
 40
0.4164303592
 40
0.4596778894
 40
0.5030864515
 40
0.5463287307
 40
0.5890789994
 40
0.6310162743
 40
0.6718274719
 40
0.6917163484
 40
0.7112115449
 40
0.730277625
 40
0.7488802574
 40
0.7669863396
 40
0.7845641708
 40
0.8015835426
 40
0.8180158662
 40
0.8338343861
 40
0.8490143681
 40
0.8635332647
 40
0.8773709904
 40
0.8905102994
 40
0.9029371174
 40
0.9146410232
 40
0.9256159641
 40
0.9358611083
 40
0.9407119013
 40
0.9453829478
 40
0.9498761478
 40
0.9541940979
 40
0.9583400521
 40
0.9623180316
 40
0.96613302
 40
0.9697909533
 40
0.9732989123
 40
0.9766652887
 40
0.9798998188
 40
0.9830137913
 40
0.9860201207
 40
0.9889333397
 40
0.9917696463
 40
0.9945467339
 40
0.9972835538
 40
1.0
 40
1.0
 40
1.0
 40
1.0
 10
12.3996266045
 20
8.5892503649
 30
0.0
 10
12.4002193079
 20
8.5898228725
 30
0.0
 10
12.4014040772
 20
8.5910189484
 30
0.0
 10
12.4031440919
 20
8.5929212166
 30
0.0
 10
12.4048823048
 20
8.5949672316
 30
0.0
 10
12.4066177135
 20
8.5971558857
 30
0.0
 10
12.4083495471
 20
8.599486069
 30
0.0
 10
12.4106955126
 20
8.6028415195
 30
0.0
 10
12.4136065685
 20
8.60739115
 30
0.0
 10
12.417011084
 20
8.613299592
 30
0.0
 10
12.4203810541
 20
8.6197408796
 30
0.0
 10
12.4237097651
 20
8.6267022493
 30
0.0
 10
12.4269905708
 20
8.63417006
 30
0.0
 10
12.4302168947
 20
8.6421294959
 30
0.0
 10
12.4333822409
 20
8.6505647315
 30
0.0
 10
12.4364802098
 20
8.6594589489
 30
0.0
 10
12.4395045452
 20
8.6687943701
 30
0.0
 10
12.4424491454
 20
8.6785523006
 30
0.0
 10
12.4453080554
 20
8.6887131867
 30
0.0
 10
12.4480754872
 20
8.6992566515
 30
0.0
 10
12.4507458604
 20
8.7101615277
 30
0.0
 10
12.4533137842
 20
8.7214059164
 30
0.0
 10
12.455774057
 20
8.7329672294
 30
0.0
 10
12.4581217365
 20
8.7448222515
 30
0.0
 10
12.4611210633
 20
8.7611281015
 30
0.0
 10
12.4645464983
 20
8.7820686253
 30
0.0
 10
12.4681055242
 20
8.8077652252
 30
0.0
 10
12.4711183898
 20
8.8340340254
 30
0.0
 10
12.4735607785
 20
8.8606639384
 30
0.0
 10
12.4754129452
 20
8.8874411203
 30
0.0
 10
12.4766600409
 20
8.9141504574
 30
0.0
 10
12.4772921306
 20
8.940577454
 30
0.0
 10
12.4773042794
 20
8.9665097348
 30
0.0
 10
12.4767938339
 20
8.9877124939
 30
0.0
 10
12.4760673457
 20
9.0042665098
 30
0.0
 10
12.4753736493
 20
9.0163236368
 30
0.0
 10
12.4745279547
 20
9.0281046405
 30
0.0
 10
12.4735319593
 20
9.0395858634
 30
0.0
 10
12.4723876863
 20
9.0507442306
 30
0.0
 10
12.4710974748
 20
9.0615573344
 30
0.0
 10
12.4696639548
 20
9.0720034679
 30
0.0
 10
12.4680900333
 20
9.0820616681
 30
0.0
 10
12.4663789147
 20
9.0917117704
 30
0.0
 10
12.4645340918
 20
9.1009344539
 30
0.0
 10
12.4625593139
 20
9.1097112749
 30
0.0
 10
12.4604585801
 20
9.1180247127
 30
0.0
 10
12.4582361632
 20
9.1258582354
 30
0.0
 10
12.4558965595
 20
9.133196306
 30
0.0
 10
12.4534444445
 20
9.140024515
 30
0.0
 10
12.4508847078
 20
9.1463293242
 30
0.0
 10
12.4486267413
 20
9.1512226702
 30
0.0
 10
12.4467642107
 20
9.1548579431
 30
0.0
 10
12.4453691142
 20
9.1573959492
 30
0.0
 10
12.4439509723
 20
9.1597941362
 30
0.0
 10
12.4425104806
 20
9.162051345
 30
0.0
 10
12.4410483292
 20
9.164166465
 30
0.0
 10
12.4395651709
 20
9.1661384321
 30
0.0
 10
12.4380617331
 20
9.1679663007
 30
0.0
 10
12.4365386764
 20
9.1696491479
 30
0.0
 10
12.4349966606
 20
9.1711861023
 30
0.0
 10
12.4334363983
 20
9.1725764007
 30
0.0
 10
12.4318585283
 20
9.173819251
 30
0.0
 10
12.4302637378
 20
9.1749139267
 30
0.0
 10
12.4286527595
 20
9.1758597732
 30
0.0
 10
12.4270263032
 20
9.1766560654
 30
0.0
 10
12.4253852195
 20
9.177302201
 30
0.0
 10
12.4237303641
 20
9.177797642
 30
0.0
 10
12.4220628941
 20
9.1781418303
 30
0.0
 10
12.4209417365
 20
9.17827046
 30
0.0
 10
12.4203818237
 20
9.178309294
 30
0.0
  0
SPLINE
  5
393
100
AcDbEntity
  8
0
100
AcDbSpline
 62
7
  6
CONTINUOUS
 70
0
 71
3
 72
23
 73
19
 74
0
 42
0.0000001
 43
0.0000001
 44
0.0000000001
 40
0.0
 40
0.0
 40
0.0
 40
0.0
 40
0.0637776288
 40
0.1273446152
 40
0.1907020433
 40
0.2538561391
 40
0.3168131818
 40
0.3795820998
 40
0.442173387
 40
0.5045993408
 40
0.5668738683
 40
0.6290123813
 40
0.69103165
 40
0.7529496426
 40
0.8147853504
 40
0.8765585998
 40
0.9382898528
 40
1.0
 40
1.0
 40
1.0
 40
1.0
 10
10.4132308416
 20
7.732706708
 30
0.0
 10
10.4132308416
 20
7.7394954293
 30
0.0
 10
10.4135557549
 20
7.7530527518
 30
0.0
 10
10.4150223756
 20
7.7733063092
 30
0.0
 10
10.4174642213
 20
7.7933992562
 30
0.0
 10
10.4208755852
 20
7.8132845692
 30
0.0
 10
10.4252487413
 20
7.8329166661
 30
0.0
 10
10.4305736068
 20
7.8522502081
 30
0.0
 10
10.4368379742
 20
7.8712406424
 30
0.0
 10
10.4440274378
 20
7.8898441701
 30
0.0
 10
10.452125464
 20
7.9080178857
 30
0.0
 10
10.4611134108
 20
7.9257198721
 30
0.0
 10
10.4709705777
 20
7.9429092926
 30
0.0
 10
10.4816742671
 20
7.9595465013
 30
0.0
 10
10.493199778
 20
7.9755930805
 30
0.0
 10
10.5055206775
 20
7.9910121342
 30
0.0
 10
10.5186080629
 20
8.0057676151
 30
0.0
 10
10.5278256183
 20
8.0151412321
 30
0.0
 10
10.5325501542
 20
8.0197047765
 30
0.0
  0
SPLINE
  5
394
100
AcDbEntity
  8
0
100
AcDbSpline
 62
7
  6
CONTINUOUS
 70
0
 71
3
 72
61
 73
57
 74
0
 42
0.0000001
 43
0.0000001
 44
0.0000000001
 40
0.0
 40
0.0
 40
0.0
 40
0.0
 40
0.0085500831
 40
0.0176518282
 40
0.0273119388
 40
0.0375330487
 40
0.0483143346
 40
0.0596520489
 40
0.0715399689
 40
0.0839696868
 40
0.0969308502
 40
0.110411427
 40
0.1243978625
 40
0.1388751847
 40
0.1538271778
 40
0.1692364905
 40
0.185084685
 40
0.2013523522
 40
0.2180192038
 40
0.2350641067
 40
0.252465154
 40
0.2701997535
 40
0.2882446631
 40
0.3065760341
 40
0.3439996166
 40
0.3822705894
 40
0.4211822648
 40
0.4605233554
 40
0.5000795412
 40
0.5396349815
 40
0.5789738425
 40
0.6178818121
 40
0.6561476434
 40
0.6935646733
 40
0.711892258
 40
0.729933038
 40
0.7476631939
 40
0.7650594851
 40
0.7820993091
 40
0.7987607922
 40
0.8150228167
 40
0.8308650777
 40
0.846268195
 40
0.8612137644
 40
0.8756844182
 40
0.889663959
 40
0.9031374659
 40
0.9160913786
 40
0.9285136711
 40
0.9403940542
 40
0.9517241379
 40
0.9624977005
 40
0.972711059
 40
0.9823634567
 40
0.9914575366
 40
1.0
 40
1.0
 40
1.0
 40
1.0
 10
11.1987740935
 20
10.4607676704
 30
0.0
 10
11.1965349526
 20
10.4623702318
 30
0.0
 10
11.1918152467
 20
10.4655446522
 30
0.0
 10
11.1842798562
 20
10.4700871942
 30
0.0
 10
11.1760799268
 20
10.4745519191
 30
0.0
 10
11.1672273695
 20
10.4789322942
 30
0.0
 10
11.1577347002
 20
10.4832221328
 30
0.0
 10
11.1476155588
 20
10.4874152351
 30
0.0
 10
11.1368845004
 20
10.4915054986
 30
0.0
 10
11.1255570338
 20
10.4954869437
 30
0.0
 10
11.1136495826
 20
10.4993537598
 30
0.0
 10
11.1011794368
 20
10.50310027
 30
0.0
 10
11.0881647302
 20
10.5067209599
 30
0.0
 10
11.074624423
 20
10.5102105272
 30
0.0
 10
11.0605782533
 20
10.5135638447
 30
0.0
 10
11.0460467061
 20
10.5167759685
 30
0.0
 10
11.031050994
 20
10.5198421878
 30
0.0
 10
11.0156130164
 20
10.5227580029
 30
0.0
 10
10.9997553195
 20
10.5255191168
 30
0.0
 10
10.9835010737
 20
10.5281214731
 30
0.0
 10
10.9668740347
 20
10.5305612616
 30
0.0
 10
10.9498985094
 20
10.5328348856
 30
0.0
 10
10.9325992902
 20
10.5349390188
 30
0.0
 10
10.9089736448
 20
10.5375321468
 30
0.0
 10
10.8788186345
 20
10.5403195655
 30
0.0
 10
10.8419992796
 20
10.5429237486
 30
0.0
 10
10.8045170742
 20
10.5447941907
 30
0.0
 10
10.7665911452
 20
10.5459198741
 30
0.0
 10
10.7284430592
 20
10.5462941018
 30
0.0
 10
10.6902957426
 20
10.5459146711
 30
0.0
 10
10.652372119
 20
10.5447838328
 30
0.0
 10
10.6148937405
 20
10.5429082702
 30
0.0
 10
10.5780797107
 20
10.5402990833
 30
0.0
 10
10.5479300886
 20
10.5375075256
 30
0.0
 10
10.5243094869
 20
10.5349111519
 30
0.0
 10
10.5070145658
 20
10.5328046473
 30
0.0
 10
10.4900436812
 20
10.5305287113
 30
0.0
 10
10.4734216215
 20
10.5280866612
 30
0.0
 10
10.4571726906
 20
10.525482078
 30
0.0
 10
10.4413206301
 20
10.5227188001
 30
0.0
 10
10.4258886014
 20
10.5198008897
 30
0.0
 10
10.41089915
 20
10.5167326193
 30
0.0
 10
10.3963741609
 20
10.513518508
 30
0.0
 10
10.3823348313
 20
10.5101632869
 30
0.0
 10
10.368801646
 20
10.5066718736
 30
0.0
 10
10.3557943321
 20
10.5030493997
 30
0.0
 10
10.343331827
 20
10.4993012001
 30
0.0
 10
10.3314322622
 20
10.4954327684
 30
0.0
 10
10.3201129232
 20
10.4914497683
 30
0.0
 10
10.3093902049
 20
10.4873580481
 30
0.0
 10
10.2992796062
 20
10.4831635806
 30
0.0
 10
10.2897956885
 20
10.4788724373
 30
0.0
 10
10.2809520572
 20
10.474490854
 30
0.0
 10
10.272761205
 20
10.4700250235
 30
0.0
 10
10.2652350834
 20
10.465481441
 30
0.0
 10
10.260521763
 20
10.4623063344
 30
0.0
 10
10.2582858707
 20
10.4607034517
 30
0.0
  0
SPLINE
  5
395
100
AcDbEntity
  8
0
100
AcDbSpline
 62
7
  6
CONTINUOUS
 70
0
 71
3
 72
46
 73
42
 74
0
 42
0.0000001
 43
0.0000001
 44
0.0000000001
 40
0.0
 40
0.0
 40
0.0
 40
0.0
 40
0.0112073763
 40
0.0228002203
 40
0.0347721982
 40
0.0471162545
 40
0.0598246425
 40
0.0728890297
 40
0.1000488613
 40
0.1285188471
 40
0.158213824
 40
0.1890420372
 40
0.2209059277
 40
0.2537028361
 40
0.2873256502
 40
0.321663413
 40
0.3566019035
 40
0.3920242006
 40
0.4278112336
 40
0.4638423255
 40
0.4999957306
 40
0.5361491696
 40
0.5721803632
 40
0.6079675654
 40
0.6433900987
 40
0.6783288914
 40
0.712667021
 40
0.7462902652
 40
0.7790876647
 40
0.8109521051
 40
0.8417809244
 40
0.8714765603
 40
0.8999472544
 40
0.9136966633
 40
0.9271084882
 40
0.9401732573
 40
0.9528820575
 40
0.9652265139
 40
0.9771989212
 40
0.9887921818
 40
1.0
 40
1.0
 40
1.0
 40
1.0
 10
11.0821199427
 20
10.4132017212
 30
0.0
 10
11.0796109365
 20
10.4141363788
 30
0.0
 10
11.0744861981
 20
10.4159833844
 30
0.0
 10
11.0666170993
 20
10.4186465717
 30
0.0
 10
11.0584417341
 20
10.4212473814
 30
0.0
 10
11.0499675309
 20
10.4237834161
 30
0.0
 10
11.0412021236
 20
10.4262524186
 30
0.0
 10
11.0289786208
 20
10.4294939652
 30
0.0
 10
11.013024802
 20
10.4333506963
 30
0.0
 10
10.9930906609
 20
10.4376197213
 30
0.0
 10
10.9721988129
 20
10.4415718494
 30
0.0
 10
10.9504248584
 20
10.4451926213
 30
0.0
 10
10.9278474638
 20
10.448468766
 30
0.0
 10
10.9045483137
 20
10.4513882907
 30
0.0
 10
10.8806117295
 20
10.4539405109
 30
0.0
 10
10.8561243756
 20
10.4561160918
 30
0.0
 10
10.8311749318
 20
10.4579070788
 30
0.0
 10
10.8058537685
 20
10.4593069258
 30
0.0
 10
10.7802526147
 20
10.4603105176
 30
0.0
 10
10.7544642221
 20
10.4609141877
 30
0.0
 10
10.7285820258
 20
10.461115731
 30
0.0
 10
10.7026998034
 20
10.4609144115
 30
0.0
 10
10.6769113327
 20
10.4603109645
 30
0.0
 10
10.651310049
 20
10.4593075944
 30
0.0
 10
10.6259887043
 20
10.4579079669
 30
0.0
 10
10.6010390282
 20
10.4561171963
 30
0.0
 10
10.5765513917
 20
10.4539418279
 30
0.0
 10
10.5526144767
 20
10.4513898153
 30
0.0
 10
10.5293149447
 20
10.4484704933
 30
0.0
 10
10.5067371325
 20
10.4451945429
 30
0.0
 10
10.4849626775
 20
10.4415739652
 30
0.0
 10
10.4640704201
 20
10.4376219991
 30
0.0
 10
10.4472686322
 20
10.4340241559
 30
0.0
 10
10.4343304642
 20
10.4309828249
 30
0.0
 10
10.4250063989
 20
10.4286547105
 30
0.0
 10
10.4159574196
 20
10.4262551146
 30
0.0
 10
10.4071916974
 20
10.4237862151
 30
0.0
 10
10.3987171649
 20
10.4212502373
 30
0.0
 10
10.3905414611
 20
10.4186495125
 30
0.0
 10
10.3826720188
 20
10.4159863799
 30
0.0
 10
10.3775470424
 20
10.4141394301
 30
0.0
 10
10.3750379159
 20
10.413204793
 30
0.0
  0
SPLINE
  5
396
100
AcDbEntity
  8
0
100
AcDbSpline
 62
7
  6
CONTINUOUS
 70
0
 71
3
 72
21
 73
17
 74
0
 42
0.0000001
 43
0.0000001
 44
0.0000000001
 40
0.0
 40
0.0
 40
0.0
 40
0.0
 40
0.1273176366
 40
0.2537999756
 40
0.3167619475
 40
0.3795355041
 40
0.4421314991
 40
0.5045621439
 40
0.5668413432
 40
0.6289845283
 40
0.6910084528
 40
0.7529310935
 40
0.8147714495
 40
0.8765493365
 40
0.9382852194
 40
1.0
 40
1.0
 40
1.0
 40
1.0
 10
11.1550619201
 20
10.0052782412
 30
0.0
 10
11.1550619201
 20
10.0105754911
 30
0.0
 10
11.1555675776
 20
10.0211420554
 30
0.0
 10
11.1574772816
 20
10.0342046118
 30
0.0
 10
11.1597598026
 20
10.0444510455
 30
0.0
 10
11.1618413391
 20
10.0520088186
 30
0.0
 10
11.1642901267
 20
10.0594323025
 30
0.0
 10
11.1671005545
 20
10.0667045824
 30
0.0
 10
11.1702661219
 20
10.0738088443
 30
0.0
 10
11.1737795733
 20
10.0807287047
 30
0.0
 10
11.1776328266
 20
10.0874481889
 30
0.0
 10
11.1818169731
 20
10.0939518209
 30
0.0
 10
11.1863223755
 20
10.1002245736
 30
0.0
 10
11.1911387227
 20
10.1062520055
 30
0.0
 10
11.1962546813
 20
10.1120200521
 30
0.0
 10
11.1998578846
 20
10.1156842921
 30
0.0
 10
11.2017047434
 20
10.117468221
 30
0.0
  0
SPLINE
  5
397
100
AcDbEntity
  8
0
100
AcDbSpline
 62
4
  6
CONTINUOUS
 70
0
 71
3
 72
615
 73
611
 74
0
 42
0.0000001
 43
0.0000001
 44
0.0000000001
 40
0.0
 40
0.0
 40
0.0
 40
0.0
 40
0.0078125
 40
0.015625
 40
0.0234375
 40
0.03125
 40
0.03515625
 40
0.0390625
 40
0.04296875
 40
0.046875
 40
0.05078125
 40
0.052734375
 40
0.0546875
 40
0.056640625
 40
0.0576171875
 40
0.05859375
 40
0.0595703125
 40
0.060546875
 40
0.0610351562
 40
0.0615234375
 40
0.0617675781
 40
0.0620117188
 40
0.0622558594
 40
0.0623779297
 40
0.0624389648
 40
0.0625
 40
0.0625610352
 40
0.0626220703
 40
0.0627441406
 40
0.0629882812
 40
0.0632324219
 40
0.0634765625
 40
0.0639648438
 40
0.064453125
 40
0.0654296875
 40
0.06640625
 40
0.0673828125
 40
0.068359375
 40
0.0703125
 40
0.072265625
 40
0.07421875
 40
0.078125
 40
0.08203125
 40
0.0859375
 40
0.08984375
 40
0.09375
 40
0.09765625
 40
0.1015625
 40
0.10546875
 40
0.109375
 40
0.11328125
 40
0.115234375
 40
0.1171875
 40
0.119140625
 40
0.1201171875
 40
0.12109375
 40
0.1220703125
 40
0.123046875
 40
0.1235351562
 40
0.1240234375
 40
0.1242675781
 40
0.1245117188
 40
0.1247558594
 40
0.1248779297
 40
0.1249389648
 40
0.125
 40
0.1250610352
 40
0.1251220703
 40
0.1252441406
 40
0.1254882812
 40
0.1257324219
 40
0.1259765625
 40
0.1264648438
 40
0.126953125
 40
0.1279296875
 40
0.12890625
 40
0.1298828125
 40
0.130859375
 40
0.1328125
 40
0.134765625
 40
0.13671875
 40
0.140625
 40
0.14453125
 40
0.1484375
 40
0.15234375
 40
0.15625
 40
0.16015625
 40
0.1640625
 40
0.16796875
 40
0.171875
 40
0.17578125
 40
0.177734375
 40
0.1796875
 40
0.181640625
 40
0.1826171875
 40
0.18359375
 40
0.1845703125
 40
0.185546875
 40
0.1860351562
 40
0.1865234375
 40
0.1867675781
 40
0.1870117188
 40
0.1872558594
 40
0.1873779297
 40
0.1874389648
 40
0.1875
 40
0.1875610352
 40
0.1876220703
 40
0.1877441406
 40
0.1879882812
 40
0.1882324219
 40
0.1884765625
 40
0.1889648438
 40
0.189453125
 40
0.1904296875
 40
0.19140625
 40
0.1923828125
 40
0.193359375
 40
0.1953125
 40
0.197265625
 40
0.19921875
 40
0.203125
 40
0.20703125
 40
0.2109375
 40
0.21484375
 40
0.21875
 40
0.22265625
 40
0.2265625
 40
0.23046875
 40
0.234375
 40
0.23828125
 40
0.240234375
 40
0.2421875
 40
0.244140625
 40
0.2451171875
 40
0.24609375
 40
0.2470703125
 40
0.248046875
 40
0.2485351562
 40
0.2490234375
 40
0.2492675781
 40
0.2495117188
 40
0.2497558594
 40
0.2498779297
 40
0.2499389648
 40
0.25
 40
0.2500610352
 40
0.2501220703
 40
0.2502441406
 40
0.2504882812
 40
0.2507324219
 40
0.2509765625
 40
0.2514648438
 40
0.251953125
 40
0.2529296875
 40
0.25390625
 40
0.2548828125
 40
0.255859375
 40
0.2578125
 40
0.259765625
 40
0.26171875
 40
0.265625
 40
0.26953125
 40
0.2734375
 40
0.27734375
 40
0.28125
 40
0.28515625
 40
0.2890625
 40
0.29296875
 40
0.296875
 40
0.30078125
 40
0.302734375
 40
0.3046875
 40
0.306640625
 40
0.3076171875
 40
0.30859375
 40
0.3095703125
 40
0.310546875
 40
0.3110351562
 40
0.3115234375
 40
0.3117675781
 40
0.3120117188
 40
0.3122558594
 40
0.3123779297
 40
0.3124389648
 40
0.3125
 40
0.3125610352
 40
0.3126220703
 40
0.3127441406
 40
0.3129882812
 40
0.3132324219
 40
0.3134765625
 40
0.3139648438
 40
0.314453125
 40
0.3154296875
 40
0.31640625
 40
0.3173828125
 40
0.318359375
 40
0.3203125
 40
0.322265625
 40
0.32421875
 40
0.328125
 40
0.33203125
 40
0.3359375
 40
0.33984375
 40
0.34375
 40
0.34765625
 40
0.3515625
 40
0.35546875
 40
0.359375
 40
0.36328125
 40
0.365234375
 40
0.3671875
 40
0.369140625
 40
0.3701171875
 40
0.37109375
 40
0.3720703125
 40
0.373046875
 40
0.3735351562
 40
0.3740234375
 40
0.3742675781
 40
0.3745117188
 40
0.3747558594
 40
0.3748779297
 40
0.3749389648
 40
0.375
 40
0.3750610352
 40
0.3751220703
 40
0.3752441406
 40
0.3754882812
 40
0.3757324219
 40
0.3759765625
 40
0.3764648438
 40
0.376953125
 40
0.3779296875
 40
0.37890625
 40
0.3798828125
 40
0.380859375
 40
0.3828125
 40
0.384765625
 40
0.38671875
 40
0.390625
 40
0.39453125
 40
0.3984375
 40
0.40234375
 40
0.40625
 40
0.41015625
 40
0.4140625
 40
0.41796875
 40
0.421875
 40
0.42578125
 40
0.427734375
 40
0.4296875
 40
0.431640625
 40
0.4326171875
 40
0.43359375
 40
0.4345703125
 40
0.435546875
 40
0.4360351562
 40
0.4365234375
 40
0.4367675781
 40
0.4370117188
 40
0.4372558594
 40
0.4373779297
 40
0.4374389648
 40
0.4375
 40
0.4375610352
 40
0.4376220703
 40
0.4377441406
 40
0.4379882812
 40
0.4382324219
 40
0.4384765625
 40
0.4389648438
 40
0.439453125
 40
0.4404296875
 40
0.44140625
 40
0.4423828125
 40
0.443359375
 40
0.4453125
 40
0.447265625
 40
0.44921875
 40
0.453125
 40
0.45703125
 40
0.4609375
 40
0.46484375
 40
0.46875
 40
0.47265625
 40
0.4765625
 40
0.48046875
 40
0.484375
 40
0.48828125
 40
0.490234375
 40
0.4921875
 40
0.494140625
 40
0.4951171875
 40
0.49609375
 40
0.4970703125
 40
0.498046875
 40
0.4985351562
 40
0.4990234375
 40
0.4992675781
 40
0.4995117188
 40
0.4997558594
 40
0.4998779297
 40
0.4999389648
 40
0.5
 40
0.5000610352
 40
0.5001220703
 40
0.5002441406
 40
0.5004882812
 40
0.5007324219
 40
0.5009765625
 40
0.5014648438
 40
0.501953125
 40
0.5029296875
 40
0.50390625
 40
0.5048828125
 40
0.505859375
 40
0.5078125
 40
0.509765625
 40
0.51171875
 40
0.515625
 40
0.51953125
 40
0.5234375
 40
0.52734375
 40
0.53125
 40
0.53515625
 40
0.5390625
 40
0.54296875
 40
0.546875
 40
0.55078125
 40
0.552734375
 40
0.5546875
 40
0.556640625
 40
0.5576171875
 40
0.55859375
 40
0.5595703125
 40
0.560546875
 40
0.5610351562
 40
0.5615234375
 40
0.5617675781
 40
0.5620117188
 40
0.5622558594
 40
0.5623779297
 40
0.5624389648
 40
0.5625
 40
0.5625610352
 40
0.5626220703
 40
0.5627441406
 40
0.5629882812
 40
0.5632324219
 40
0.5634765625
 40
0.5639648438
 40
0.564453125
 40
0.5654296875
 40
0.56640625
 40
0.5673828125
 40
0.568359375
 40
0.5703125
 40
0.572265625
 40
0.57421875
 40
0.578125
 40
0.58203125
 40
0.5859375
 40
0.58984375
 40
0.59375
 40
0.59765625
 40
0.6015625
 40
0.60546875
 40
0.609375
 40
0.61328125
 40
0.615234375
 40
0.6171875
 40
0.619140625
 40
0.6201171875
 40
0.62109375
 40
0.6220703125
 40
0.623046875
 40
0.6235351562
 40
0.6240234375
 40
0.6242675781
 40
0.6245117188
 40
0.6247558594
 40
0.6248779297
 40
0.6249389648
 40
0.625
 40
0.6250610352
 40
0.6251220703
 40
0.6252441406
 40
0.6254882812
 40
0.6257324219
 40
0.6259765625
 40
0.6264648438
 40
0.626953125
 40
0.6279296875
 40
0.62890625
 40
0.6298828125
 40
0.630859375
 40
0.6328125
 40
0.634765625
 40
0.63671875
 40
0.640625
 40
0.64453125
 40
0.6484375
 40
0.65234375
 40
0.65625
 40
0.66015625
 40
0.6640625
 40
0.66796875
 40
0.671875
 40
0.67578125
 40
0.677734375
 40
0.6796875
 40
0.681640625
 40
0.6826171875
 40
0.68359375
 40
0.6845703125
 40
0.685546875
 40
0.6860351562
 40
0.6865234375
 40
0.6867675781
 40
0.6870117188
 40
0.6872558594
 40
0.6873779297
 40
0.6874389648
 40
0.6875
 40
0.6875610352
 40
0.6876220703
 40
0.6877441406
 40
0.6879882812
 40
0.6882324219
 40
0.6884765625
 40
0.6889648438
 40
0.689453125
 40
0.6904296875
 40
0.69140625
 40
0.6923828125
 40
0.693359375
 40
0.6953125
 40
0.697265625
 40
0.69921875
 40
0.703125
 40
0.70703125
 40
0.7109375
 40
0.71484375
 40
0.71875
 40
0.72265625
 40
0.7265625
 40
0.73046875
 40
0.734375
 40
0.73828125
 40
0.740234375
 40
0.7421875
 40
0.744140625
 40
0.7451171875
 40
0.74609375
 40
0.7470703125
 40
0.748046875
 40
0.7485351562
 40
0.7490234375
 40
0.7492675781
 40
0.7495117188
 40
0.7497558594
 40
0.7498779297
 40
0.7499389648
 40
0.75
 40
0.7500610352
 40
0.7501220703
 40
0.7502441406
 40
0.7504882812
 40
0.7507324219
 40
0.7509765625
 40
0.7514648438
 40
0.751953125
 40
0.7529296875
 40
0.75390625
 40
0.7548828125
 40
0.755859375
 40
0.7578125
 40
0.759765625
 40
0.76171875
 40
0.765625
 40
0.76953125
 40
0.7734375
 40
0.77734375
 40
0.78125
 40
0.78515625
 40
0.7890625
 40
0.79296875
 40
0.796875
 40
0.80078125
 40
0.802734375
 40
0.8046875
 40
0.806640625
 40
0.8076171875
 40
0.80859375
 40
0.8095703125
 40
0.810546875
 40
0.8110351562
 40
0.8115234375
 40
0.8117675781
 40
0.8120117188
 40
0.8122558594
 40
0.8123779297
 40
0.8124389648
 40
0.8125
 40
0.8125610352
 40
0.8126220703
 40
0.8127441406
 40
0.8129882812
 40
0.8132324219
 40
0.8134765625
 40
0.8139648438
 40
0.814453125
 40
0.8154296875
 40
0.81640625
 40
0.8173828125
 40
0.818359375
 40
0.8203125
 40
0.822265625
 40
0.82421875
 40
0.828125
 40
0.83203125
 40
0.8359375
 40
0.83984375
 40
0.84375
 40
0.84765625
 40
0.8515625
 40
0.85546875
 40
0.859375
 40
0.86328125
 40
0.865234375
 40
0.8671875
 40
0.869140625
 40
0.8701171875
 40
0.87109375
 40
0.8720703125
 40
0.873046875
 40
0.8735351562
 40
0.8740234375
 40
0.8742675781
 40
0.8745117188
 40
0.8747558594
 40
0.8748779297
 40
0.8749389648
 40
0.875
 40
0.8750610352
 40
0.8751220703
 40
0.8752441406
 40
0.8754882812
 40
0.8757324219
 40
0.8759765625
 40
0.8764648438
 40
0.876953125
 40
0.8779296875
 40
0.87890625
 40
0.8798828125
 40
0.880859375
 40
0.8828125
 40
0.884765625
 40
0.88671875
 40
0.890625
 40
0.89453125
 40
0.8984375
 40
0.90234375
 40
0.90625
 40
0.91015625
 40
0.9140625
 40
0.91796875
 40
0.921875
 40
0.92578125
 40
0.927734375
 40
0.9296875
 40
0.931640625
 40
0.9326171875
 40
0.93359375
 40
0.9345703125
 40
0.935546875
 40
0.9360351562
 40
0.9365234375
 40
0.9367675781
 40
0.9370117188
 40
0.9372558594
 40
0.9373779297
 40
0.9374389648
 40
0.9375
 40
0.9375610352
 40
0.9376220703
 40
0.9377441406
 40
0.9379882812
 40
0.9382324219
 40
0.9384765625
 40
0.9389648438
 40
0.939453125
 40
0.9404296875
 40
0.94140625
 40
0.9423828125
 40
0.943359375
 40
0.9453125
 40
0.947265625
 40
0.94921875
 40
0.953125
 40
0.95703125
 40
0.9609375
 40
0.96484375
 40
0.96875
 40
0.9765625
 40
0.984375
 40
0.9921875
 40
1.0
 40
1.0
 40
1.0
 40
1.0
 10
10.4128444807
 20
8.9098108168
 30
0.0
 10
10.4144110742
 20
8.909855779
 30
0.0
 10
10.4175442611
 20
8.9099457034
 30
0.0
 10
10.4222440415
 20
8.91008059
 30
0.0
 10
10.4269438218
 20
8.9102154766
 30
0.0
 10
10.4308603055
 20
8.9103278821
 30
0.0
 10
10.4339934924
 20
8.9104178066
 30
0.0
 10
10.4363433826
 20
8.9104852499
 30
0.0
 10
10.4386932728
 20
8.9105526932
 30
0.0
 10
10.441043163
 20
8.9106201365
 30
0.0
 10
10.4430014048
 20
8.9106763392
 30
0.0
 10
10.4445679983
 20
8.9107213014
 30
0.0
 10
10.4457429434
 20
8.9107550231
 30
0.0
 10
10.4467220643
 20
8.9107831245
 30
0.0
 10
10.447505361
 20
8.9108056056
 30
0.0
 10
10.4480928336
 20
8.9108224662
 30
0.0
 10
10.4486803059
 20
8.910839328
 30
0.0
 10
10.449169867
 20
8.9108533758
 30
0.0
 10
10.4495615142
 20
8.9108646222
 30
0.0
 10
10.4498062973
 20
8.9108716325
 30
0.0
 10
10.4500021155
 20
8.9108772837
 30
0.0
 10
10.4501490021
 20
8.9108814044
 30
0.0
 10
10.4502713344
 20
8.9108852128
 30
0.0
 10
10.4503571106
 20
8.9108871438
 30
0.0
 10
10.4504059015
 20
8.9108893947
 30
0.0
 10
10.450443126
 20
8.9108878503
 30
0.0
 10
10.450477937
 20
8.9108986624
 30
0.0
 10
10.4505251935
 20
8.9109087685
 30
0.0
 10
10.4506075002
 20
8.9109284623
 30
0.0
 10
10.4507252863
 20
8.9109555463
 30
0.0
 10
10.4508665418
 20
8.9109884966
 30
0.0
 10
10.4510549132
 20
8.9110322733
 30
0.0
 10
10.4512903668
 20
8.9110870479
 30
0.0
 10
10.4516670986
 20
8.9111746573
 30
0.0
 10
10.4521380113
 20
8.9112841794
 30
0.0
 10
10.4527031074
 20
8.9114156014
 30
0.0
 10
10.4532682032
 20
8.9115470247
 30
0.0
 10
10.4540216644
 20
8.9117222552
 30
0.0
 10
10.4549634909
 20
8.9119412936
 30
0.0
 10
10.4560936827
 20
8.9122041395
 30
0.0
 10
10.4576006051
 20
8.9125546008
 30
0.0
 10
10.4594842581
 20
8.9129926774
 30
0.0
 10
10.4617446417
 20
8.9135183693
 30
0.0
 10
10.4640050253
 20
8.9140440612
 30
0.0
 10
10.4662654089
 20
8.9145697531
 30
0.0
 10
10.4685257925
 20
8.915095445
 30
0.0
 10
10.4707861761
 20
8.9156211369
 30
0.0
 10
10.4730465597
 20
8.9161468288
 30
0.0
 10
10.4753069433
 20
8.9166725207
 30
0.0
 10
10.4775673269
 20
8.9171982126
 30
0.0
 10
10.4794509799
 20
8.9176362892
 30
0.0
 10
10.4809579024
 20
8.9179867505
 30
0.0
 10
10.4820880941
 20
8.9182495965
 30
0.0
 10
10.4830299207
 20
8.9184686347
 30
0.0
 10
10.4837833818
 20
8.9186438654
 30
0.0
 10
10.4843484778
 20
8.9187752882
 30
0.0
 10
10.4849135734
 20
8.9189067121
 30
0.0
 10
10.4853844877
 20
8.9190162284
 30
0.0
 10
10.4857612161
 20
8.9191038494
 30
0.0
 10
10.4859966785
 20
8.9191585946
 30
0.0
 10
10.4861850319
 20
8.9192024318
 30
0.0
 10
10.4863263421
 20
8.9192351972
 30
0.0
 10
10.4864439571
 20
8.9192628598
 30
0.0
 10
10.4865265692
 20
8.9192815208
 30
0.0
 10
10.4865733364
 20
8.9192932816
 30
0.0
 10
10.4866096505
 20
8.9192990109
 30
0.0
 10
10.4866412296
 20
8.9193165567
 30
0.0
 10
10.4866849866
 20
8.9193358294
 30
0.0
 10
10.4867607919
 20
8.9193714771
 30
0.0
 10
10.4868694875
 20
8.9194213983
 30
0.0
 10
10.48699975
 20
8.9194817335
 30
0.0
 10
10.4871734935
 20
8.9195620303
 30
0.0
 10
10.4873906523
 20
8.9196624528
 30
0.0
 10
10.4877381179
 20
8.9198231
 30
0.0
 10
10.4881724459
 20
8.9200239188
 30
0.0
 10
10.4886936411
 20
8.9202648972
 30
0.0
 10
10.489214836
 20
8.9205058767
 30
0.0
 10
10.4899097626
 20
8.9208271823
 30
0.0
 10
10.4907784208
 20
8.9212288144
 30
0.0
 10
10.4918208106
 20
8.921710773
 30
0.0
 10
10.4932106638
 20
8.9223533843
 30
0.0
 10
10.4949479802
 20
8.9231566486
 30
0.0
 10
10.4970327599
 20
8.9241205656
 30
0.0
 10
10.4991175396
 20
8.9250844827
 30
0.0
 10
10.5012023193
 20
8.9260483998
 30
0.0
 10
10.503287099
 20
8.9270123168
 30
0.0
 10
10.5053718787
 20
8.9279762339
 30
0.0
 10
10.5074566584
 20
8.928940151
 30
0.0
 10
10.5095414381
 20
8.929904068
 30
0.0
 10
10.5116262178
 20
8.9308679851
 30
0.0
 10
10.5133635342
 20
8.9316712493
 30
0.0
 10
10.5147533874
 20
8.9323138607
 30
0.0
 10
10.5157957772
 20
8.9327958193
 30
0.0
 10
10.5166644355
 20
8.9331974513
 30
0.0
 10
10.517359362
 20
8.9335187571
 30
0.0
 10
10.517880557
 20
8.9337597361
 30
0.0
 10
10.5184017515
 20
8.9340007163
 30
0.0
 10
10.518836082
 20
8.9342015296
 30
0.0
 10
10.5191835424
 20
8.934362188
 30
0.0
 10
10.5194007144
 20
8.9344625819
 30
0.0
 10
10.5195744308
 20
8.9345429373
 30
0.0
 10
10.519704776
 20
8.9346030936
 30
0.0
 10
10.519813213
 20
8.9346535746
 30
0.0
 10
10.5198894799
 20
8.9346882229
 30
0.0
 10
10.5199324973
 20
8.9347090968
 30
0.0
 10
10.5199663483
 20
8.9347217243
 30
0.0
 10
10.5199941295
 20
8.9347459262
 30
0.0
 10
10.5200332883
 20
8.9347741581
 30
0.0
 10
10.5201008299
 20
8.9348254449
 30
0.0
 10
10.5201978335
 20
8.9348977285
 30
0.0
 10
10.5203140172
 20
8.9349848896
 30
0.0
 10
10.5204690058
 20
8.9351009575
 30
0.0
 10
10.5206627151
 20
8.9352460926
 30
0.0
 10
10.5209726649
 20
8.9354782807
 30
0.0
 10
10.521360097
 20
8.9357685255
 30
0.0
 10
10.5218250176
 20
8.9361168151
 30
0.0
 10
10.5222899378
 20
8.9364651058
 30
0.0
 10
10.5229098314
 20
8.936929493
 30
0.0
 10
10.5236846985
 20
8.9375099771
 30
0.0
 10
10.5246145389
 20
8.9382065581
 30
0.0
 10
10.5258543262
 20
8.9391353327
 30
0.0
 10
10.5274040603
 20
8.9402963009
 30
0.0
 10
10.5292637412
 20
8.9416894628
 30
0.0
 10
10.5311234221
 20
8.9430826247
 30
0.0
 10
10.532983103
 20
8.9444757865
 30
0.0
 10
10.5348427839
 20
8.9458689484
 30
0.0
 10
10.5367024648
 20
8.9472621103
 30
0.0
 10
10.5385621458
 20
8.9486552722
 30
0.0
 10
10.5404218267
 20
8.9500484341
 30
0.0
 10
10.5422815076
 20
8.9514415959
 30
0.0
 10
10.5438312417
 20
8.9526025642
 30
0.0
 10
10.5450710289
 20
8.9535313388
 30
0.0
 10
10.5460008694
 20
8.9542279197
 30
0.0
 10
10.5467757365
 20
8.9548084038
 30
0.0
 10
10.54739563
 20
8.9552727911
 30
0.0
 10
10.5478605505
 20
8.9556210814
 30
0.0
 10
10.54832547
 20
8.9559693726
 30
0.0
 10
10.5487129058
 20
8.9562596126
 30
0.0
 10
10.5490228479
 20
8.9564918104
 30
0.0
 10
10.5492165766
 20
8.9566369207
 30
0.0
 10
10.5493715256
 20
8.9567530396
 30
0.0
 10
10.5494878301
 20
8.9568400447
 30
0.0
 10
10.5495844555
 20
8.9569128165
 30
0.0
 10
10.5496526723
 20
8.9569632317
 30
0.0
 10
10.5496907493
 20
8.9569928603
 30
0.0
 10
10.5497218535
 20
8.9570127719
 30
0.0
 10
10.549743224
 20
8.957041513
 30
0.0
 10
10.5497751132
 20
8.9570767547
 30
0.0
 10
10.5498293375
 20
8.9571398625
 30
0.0
 10
10.5499076277
 20
8.9572292664
 30
0.0
 10
10.550001222
 20
8.9573368722
 30
0.0
 10
10.550126138
 20
8.9574802344
 30
0.0
 10
10.5502822407
 20
8.9576594755
 30
0.0
 10
10.5505320286
 20
8.9579462399
 30
0.0
 10
10.5508442554
 20
8.9583047028
 30
0.0
 10
10.5512189311
 20
8.958734855
 30
0.0
 10
10.5515936058
 20
8.9591650081
 30
0.0
 10
10.5520931724
 20
8.9597385453
 30
0.0
 10
10.5527176306
 20
8.9604554669
 30
0.0
 10
10.5534669805
 20
8.9613157727
 30
0.0
 10
10.5544661136
 20
8.9624628472
 30
0.0
 10
10.55571503
 20
8.9638966902
 30
0.0
 10
10.5572137297
 20
8.9656173019
 30
0.0
 10
10.5587124294
 20
8.9673379136
 30
0.0
 10
10.5602111291
 20
8.9690585253
 30
0.0
 10
10.5617098288
 20
8.970779137
 30
0.0
 10
10.5632085285
 20
8.9724997487
 30
0.0
 10
10.5647072282
 20
8.9742203604
 30
0.0
 10
10.5662059279
 20
8.9759409721
 30
0.0
 10
10.5677046276
 20
8.9776615838
 30
0.0
 10
10.568953544
 20
8.9790954269
 30
0.0
 10
10.5699526772
 20
8.9802425014
 30
0.0
 10
10.570702027
 20
8.9811028072
 30
0.0
 10
10.5713264853
 20
8.9818197288
 30
0.0
 10
10.5718260517
 20
8.982393266
 30
0.0
 10
10.5722007269
 20
8.9828234188
 30
0.0
 10
10.572575401
 20
8.9832535723
 30
0.0
 10
10.5728876326
 20
8.9836120313
 30
0.0
 10
10.5731374109
 20
8.9838988036
 30
0.0
 10
10.573293538
 20
8.9840780246
 30
0.0
 10
10.5734184038
 20
8.984221428
 30
0.0
 10
10.5735121515
 20
8.9843289079
 30
0.0
 10
10.5735899617
 20
8.9844187057
 30
0.0
 10
10.5736450429
 20
8.9844811104
 30
0.0
 10
10.573675559
 20
8.9845174787
 30
0.0
 10
10.5737011474
 20
8.9845427592
 30
0.0
 10
10.5737164101
 20
8.9845756682
 30
0.0
 10
10.5737403621
 20
8.984616886
 30
0.0
 10
10.5737805999
 20
8.9846902569
 30
0.0
 10
10.5738389599
 20
8.9847944242
 30
0.0
 10
10.5739086164
 20
8.9849197025
 30
0.0
 10
10.5740016229
 20
8.9850866433
 30
0.0
 10
10.5741178361
 20
8.9852953525
 30
0.0
 10
10.5743038023
 20
8.9856292687
 30
0.0
 10
10.5745362514
 20
8.9860466702
 30
0.0
 10
10.5748151941
 20
8.9865475494
 30
0.0
 10
10.5750941358
 20
8.9870484293
 30
0.0
 10
10.5754660583
 20
8.9877162688
 30
0.0
 10
10.5759309614
 20
8.9885510684
 30
0.0
 10
10.5764888452
 20
8.9895528278
 30
0.0
 10
10.5772326902
 20
8.9908885071
 30
0.0
 10
10.5781624965
 20
8.9925581062
 30
0.0
 10
10.579278264
 20
8.9945616251
 30
0.0
 10
10.5803940315
 20
8.9965651439
 30
0.0
 10
10.581509799
 20
8.9985686628
 30
0.0
 10
10.5826255666
 20
9.0005721817
 30
0.0
 10
10.5837413341
 20
9.0025757006
 30
0.0
 10
10.5848571016
 20
9.0045792195
 30
0.0
 10
10.5859728691
 20
9.0065827384
 30
0.0
 10
10.5870886366
 20
9.0085862573
 30
0.0
 10
10.5880184429
 20
9.0102558563
 30
0.0
 10
10.5887622879
 20
9.0115915356
 30
0.0
 10
10.5893201717
 20
9.012593295
 30
0.0
 10
10.5897850748
 20
9.0134280946
 30
0.0
 10
10.5901569973
 20
9.0140959342
 30
0.0
 10
10.5904359394
 20
9.0145968138
 30
0.0
 10
10.5907148804
 20
9.015097694
 30
0.0
 10
10.5909473346
 20
9.0155150924
 30
0.0
 10
10.5911332904
 20
9.0158490149
 30
0.0
 10
10.5912495302
 20
9.016057708
 30
0.0
 10
10.5913424821
 20
9.0162246819
 30
0.0
 10
10.5914123053
 20
9.0163498592
 30
0.0
 10
10.5914701436
 20
9.0164543425
 30
0.0
 10
10.5915113128
 20
9.0165271494
 30
0.0
 10
10.5915337727
 20
9.0165692707
 30
0.0
 10
10.5915536186
 20
9.0165994044
 30
0.0
 10
10.591561993
 20
9.0166351087
 30
0.0
 10
10.5915771603
 20
9.0166807714
 30
0.0
 10
10.5916018387
 20
9.0167615864
 30
0.0
 10
10.5916380683
 20
9.0168765631
 30
0.0
 10
10.5916811265
 20
9.0170147378
 30
0.0
 10
10.5917386832
 20
9.0171988999
 30
0.0
 10
10.5918105793
 20
9.0174291268
 30
0.0
 10
10.5919256408
 20
9.0177974762
 30
0.0
 10
10.5920694581
 20
9.0182579176
 30
0.0
 10
10.592242043
 20
9.0188104454
 30
0.0
 10
10.5924146268
 20
9.0193629737
 30
0.0
 10
10.5926447389
 20
9.0200996779
 30
0.0
 10
10.5929323789
 20
9.0210205582
 30
0.0
 10
10.593277547
 20
9.0221256145
 30
0.0
 10
10.593737771
 20
9.0235990229
 30
0.0
 10
10.5943130511
 20
9.0254407835
 30
0.0
 10
10.5950033872
 20
9.0276508961
 30
0.0
 10
10.5956937233
 20
9.0298610088
 30
0.0
 10
10.5963840594
 20
9.0320711215
 30
0.0
 10
10.5970743955
 20
9.0342812341
 30
0.0
 10
10.5977647316
 20
9.0364913468
 30
0.0
 10
10.5984550677
 20
9.0387014595
 30
0.0
 10
10.5991454038
 20
9.0409115721
 30
0.0
 10
10.5998357399
 20
9.0431216848
 30
0.0
 10
10.60041102
 20
9.0449634453
 30
0.0
 10
10.600871244
 20
9.0464368538
 30
0.0
 10
10.6012164121
 20
9.0475419101
 30
0.0
 10
10.6015040522
 20
9.0484627904
 30
0.0
 10
10.6017341641
 20
9.0491994946
 30
0.0
 10
10.6019067484
 20
9.0497520227
 30
0.0
 10
10.6020793315
 20
9.0503045512
 30
0.0
 10
10.6022231544
 20
9.0507649903
 30
0.0
 10
10.6023382045
 20
9.0511333445
 30
0.0
 10
10.6024101294
 20
9.0513635592
 30
0.0
 10
10.6024676269
 20
9.0515477464
 30
0.0
 10
10.6025108661
 20
9.0516858445
 30
0.0
 10
10.6025465296
 20
9.0518010607
 30
0.0
 10
10.6025722184
 20
9.0518814481
 30
0.0
 10
10.6025857668
 20
9.051927796
 30
0.0
 10
10.6025991141
 20
9.0519613956
 30
0.0
 10
10.6026002827
 20
9.0519994345
 30
0.0
 10
10.602606089
 20
9.0520486045
 30
0.0
 10
10.6026142707
 20
9.0521353736
 30
0.0
 10
10.6026269936
 20
9.0522589522
 30
0.0
 10
10.6026418181
 20
9.052407408
 30
0.0
 10
10.6026617389
 20
9.0526052927
 30
0.0
 10
10.602686587
 20
9.0528526679
 30
0.0
 10
10.6027263734
 20
9.0532484573
 30
0.0
 10
10.6027760963
 20
9.0537431978
 30
0.0
 10
10.6028357682
 20
9.0543368849
 30
0.0
 10
10.6028954389
 20
9.0549305723
 30
0.0
 10
10.6029750002
 20
9.0557221555
 30
0.0
 10
10.6030744517
 20
9.0567116344
 30
0.0
 10
10.6031937935
 20
9.0578990092
 30
0.0
 10
10.603352916
 20
9.0594821755
 30
0.0
 10
10.6035518191
 20
9.0614611334
 30
0.0
 10
10.6037905028
 20
9.0638358829
 30
0.0
 10
10.6040291865
 20
9.0662106324
 30
0.0
 10
10.6042678702
 20
9.0685853819
 30
0.0
 10
10.6045065539
 20
9.0709601314
 30
0.0
 10
10.6047452376
 20
9.0733348809
 30
0.0
 10
10.6049839213
 20
9.0757096304
 30
0.0
 10
10.605222605
 20
9.0780843799
 30
0.0
 10
10.6054612887
 20
9.0804591294
 30
0.0
 10
10.6056601917
 20
9.0824380873
 30
0.0
 10
10.6058193142
 20
9.0840212537
 30
0.0
 10
10.605938656
 20
9.0852086284
 30
0.0
 10
10.6060381076
 20
9.0861981074
 30
0.0
 10
10.6061176688
 20
9.0869896905
 30
0.0
 10
10.6061773399
 20
9.0875833779
 30
0.0
 10
10.6062370099
 20
9.0881770653
 30
0.0
 10
10.6062867387
 20
9.0886718048
 30
0.0
 10
10.6063265132
 20
9.0890675963
 30
0.0
 10
10.6063513915
 20
9.0893149663
 30
0.0
 10
10.6063712502
 20
9.0895128615
 30
0.0
 10
10.6063862647
 20
9.0896612852
 30
0.0
 10
10.6063983934
 20
9.0897849643
 30
0.0
 10
10.6064076358
 20
9.089871554
 30
0.0
 10
10.6064117425
 20
9.0899210115
 30
0.0
 10
10.6064181316
 20
9.0899581673
 30
0.0
 10
10.6064118718
 20
9.0899950837
 30
0.0
 10
10.6064079375
 20
9.090044389
 30
0.0
 10
10.6063989968
 20
9.0901306344
 30
0.0
 10
10.606387299
 20
9.0902538625
 30
0.0
 10
10.6063728017
 20
9.0904017275
 30
0.0
 10
10.6063536327
 20
9.0905988839
 30
0.0
 10
10.6063296163
 20
9.0908453283
 30
0.0
 10
10.6062912209
 20
9.0912396399
 30
0.0
 10
10.6062432161
 20
9.0917325292
 30
0.0
 10
10.6061856149
 20
9.0923239965
 30
0.0
 10
10.6061280125
 20
9.0929154638
 30
0.0
 10
10.6060512096
 20
9.0937040868
 30
0.0
 10
10.6059552059
 20
9.0946898656
 30
0.0
 10
10.6058400016
 20
9.0958728001
 30
0.0
 10
10.6056863957
 20
9.0974500462
 30
0.0
 10
10.6054943885
 20
9.0994216038
 30
0.0
 10
10.6052639797
 20
9.1017874729
 30
0.0
 10
10.605033571
 20
9.104153342
 30
0.0
 10
10.6048031622
 20
9.106519211
 30
0.0
 10
10.6045727535
 20
9.1088850801
 30
0.0
 10
10.6043423447
 20
9.1112509492
 30
0.0
 10
10.604111936
 20
9.1136168183
 30
0.0
 10
10.6038815272
 20
9.1159826874
 30
0.0
 10
10.6036511185
 20
9.1183485565
 30
0.0
 10
10.6034591112
 20
9.1203201141
 30
0.0
 10
10.6033055054
 20
9.1218973601
 30
0.0
 10
10.603190301
 20
9.1230802947
 30
0.0
 10
10.6030942974
 20
9.1240660735
 30
0.0
 10
10.6030174944
 20
9.1248546965
 30
0.0
 10
10.6029598924
 20
9.1254461638
 30
0.0
 10
10.6029022893
 20
9.1260376309
 30
0.0
 10
10.6028542904
 20
9.1265305207
 30
0.0
 10
10.6028158831
 20
9.1269248315
 30
0.0
 10
10.602791897
 20
9.1271712781
 30
0.0
 10
10.6027726658
 20
9.1273684299
 30
0.0
 10
10.6027583585
 20
9.1275163087
 30
0.0
 10
10.6027460663
 20
9.1276394935
 30
0.0
 10
10.6027381867
 20
9.1277258162
 30
0.0
 10
10.6027325522
 20
9.1277749978
 30
0.0
 10
10.602731515
 20
9.1278122942
 30
0.0
 10
10.6027182887
 20
9.1278480225
 30
0.0
 10
10.6027049054
 20
9.1278962071
 30
0.0
 10
10.6026795037
 20
9.1279802755
 30
0.0
 10
10.6026442511
 20
9.1281005063
 30
0.0
 10
10.6026015047
 20
9.1282447263
 30
0.0
 10
10.6025446644
 20
9.1284370395
 30
0.0
 10
10.602473561
 20
9.1286774243
 30
0.0
 10
10.6023598252
 20
9.1290620436
 30
0.0
 10
10.6022176452
 20
9.1295428165
 30
0.0
 10
10.6020470336
 20
9.1301197446
 30
0.0
 10
10.6018764209
 20
9.1306966724
 30
0.0
 10
10.6016489376
 20
9.1314659097
 30
0.0
 10
10.6013645834
 20
9.1324274562
 30
0.0
 10
10.6010233584
 20
9.133581312
 30
0.0
 10
10.6005683917
 20
9.1351197865
 30
0.0
 10
10.5999996833
 20
9.1370428795
 30
0.0
 10
10.5993172333
 20
9.1393505912
 30
0.0
 10
10.5986347832
 20
9.1416583029
 30
0.0
 10
10.5979523332
 20
9.1439660146
 30
0.0
 10
10.5972698831
 20
9.1462737262
 30
0.0
 10
10.5965874331
 20
9.1485814379
 30
0.0
 10
10.595904983
 20
9.1508891496
 30
0.0
 10
10.595222533
 20
9.1531968613
 30
0.0
 10
10.5945400829
 20
9.1555045729
 30
0.0
 10
10.5939713746
 20
9.157427666
 30
0.0
 10
10.5935164079
 20
9.1589661404
 30
0.0
 10
10.5931751828
 20
9.1601199963
 30
0.0
 10
10.5928908287
 20
9.1610815428
 30
0.0
 10
10.5926633453
 20
9.16185078
 30
0.0
 10
10.592492733
 20
9.162427708
 30
0.0
 10
10.5923221196
 20
9.1630046356
 30
0.0
 10
10.5921799452
 20
9.1634854098
 30
0.0
 10
10.592066198
 20
9.1638700265
 30
0.0
 10
10.5919951235
 20
9.164110418
 30
0.0
 10
10.5919382239
 20
9.1643027174
 30
0.0
 10
10.5918956587
 20
9.1644469795
 30
0.0
 10
10.5918598394
 20
9.1645670786
 30
0.0
 10
10.5918354493
 20
9.1646513822
 30
0.0
 10
10.5918204451
 20
9.1646991899
 30
0.0
 10
10.5918121975
 20
9.164736076
 30
0.0
 10
10.5917924616
 20
9.1647690237
 30
0.0
 10
10.5917701543
 20
9.1648143278
 30
0.0
 10
10.5917292496
 20
9.1648929699
 30
0.0
 10
10.5916717903
 20
9.1650056503
 30
0.0
 10
10.5916024213
 20
9.1651407235
 30
0.0
 10
10.5915100753
 20
9.1653208712
 30
0.0
 10
10.5913945929
 20
9.1655460388
 30
0.0
 10
10.5912098489
 20
9.1659063164
 30
0.0
 10
10.5909789093
 20
9.1663566601
 30
0.0
 10
10.5907017859
 20
9.1668970739
 30
0.0
 10
10.5904246614
 20
9.1674374874
 30
0.0
 10
10.5900551625
 20
9.1681580388
 30
0.0
 10
10.5895932887
 20
9.1690587281
 30
0.0
 10
10.5890390402
 20
9.1701395552
 30
0.0
 10
10.5883000422
 20
9.171580658
 30
0.0
 10
10.5873762946
 20
9.1733820366
 30
0.0
 10
10.5862677976
 20
9.1755436908
 30
0.0
 10
10.5851593006
 20
9.177705345
 30
0.0
 10
10.5840508035
 20
9.1798669993
 30
0.0
 10
10.5829423065
 20
9.1820286535
 30
0.0
 10
10.5818338095
 20
9.1841903077
 30
0.0
 10
10.5807253124
 20
9.186351962
 30
0.0
 10
10.5796168154
 20
9.1885136162
 30
0.0
 10
10.5785083184
 20
9.1906752704
 30
0.0
 10
10.5775845709
 20
9.192476649
 30
0.0
 10
10.5768455728
 20
9.1939177518
 30
0.0
 10
10.5762913243
 20
9.1949985789
 30
0.0
 10
10.5758294506
 20
9.1958992682
 30
0.0
 10
10.5754599515
 20
9.1966198196
 30
0.0
 10
10.5751828275
 20
9.1971602332
 30
0.0
 10
10.5749057024
 20
9.1977006464
 30
0.0
 10
10.5746747681
 20
9.1981509923
 30
0.0
 10
10.5744900133
 20
9.1985112654
 30
0.0
 10
10.5743745584
 20
9.1987364442
 30
0.0
 10
10.5742821557
 20
9.1989165688
 30
0.0
 10
10.57421296
 20
9.1990517127
 30
0.0
 10
10.5741549588
 20
9.1991641721
 30
0.0
 10
10.5741150214
 20
9.1992432087
 30
0.0
 10
10.5740911642
 20
9.1992878806
 30
0.0
 10
10.5740761892
 20
9.1993227701
 30
0.0
 10
10.5740500606
 20
9.1993523634
 30
0.0
 10
10.5740191131
 20
9.1993936684
 30
0.0
 10
10.5739631422
 20
9.1994650916
 30
0.0
 10
10.5738841315
 20
9.1995675746
 30
0.0
 10
10.5737889129
 20
9.1996903617
 30
0.0
 10
10.5736620966
 20
9.199854145
 30
0.0
 10
10.5735035277
 20
9.2000588512
 30
0.0
 10
10.5732498445
 20
9.2003863939
 30
0.0
 10
10.5729327312
 20
9.2007958179
 30
0.0
 10
10.5725521992
 20
9.2012871285
 30
0.0
 10
10.5721716662
 20
9.2017784387
 30
0.0
 10
10.5716642892
 20
9.2024335191
 30
0.0
 10
10.5710300679
 20
9.2032523695
 30
0.0
 10
10.5702690023
 20
9.2042349901
 30
0.0
 10
10.5692542482
 20
9.2055451508
 30
0.0
 10
10.5679858055
 20
9.2071828517
 30
0.0
 10
10.5664636743
 20
9.2091480927
 30
0.0
 10
10.5649415431
 20
9.2111133338
 30
0.0
 10
10.5634194119
 20
9.2130785749
 30
0.0
 10
10.5618972807
 20
9.2150438159
 30
0.0
 10
10.5603751495
 20
9.217009057
 30
0.0
 10
10.5588530184
 20
9.2189742981
 30
0.0
 10
10.5573308872
 20
9.2209395391
 30
0.0
 10
10.555808756
 20
9.2229047802
 30
0.0
 10
10.5545403133
 20
9.2245424811
 30
0.0
 10
10.5535255592
 20
9.2258526418
 30
0.0
 10
10.5527644936
 20
9.2268352623
 30
0.0
 10
10.5521302723
 20
9.2276541128
 30
0.0
 10
10.5516228952
 20
9.2283091931
 30
0.0
 10
10.5512423625
 20
9.2288005036
 30
0.0
 10
10.5508618291
 20
9.2292918131
 30
0.0
 10
10.5505447204
 20
9.2297012405
 30
0.0
 10
10.5502910279
 20
9.2300287763
 30
0.0
 10
10.5501324826
 20
9.2302335001
 30
0.0
 10
10.5500056179
 20
9.2303972472
 30
0.0
 10
10.5499105471
 20
9.2305201449
 30
0.0
 10
10.5498310742
 20
9.2306222818
 30
0.0
 10
10.5497759282
 20
9.2306943229
 30
0.0
 10
10.549743659
 20
9.2307346378
 30
0.0
 10
10.5497215903
 20
9.2307672725
 30
0.0
 10
10.5496913671
 20
9.230790739
 30
0.0
 10
10.5496539139
 20
9.2308252256
 30
0.0
 10
10.5495870456
 20
9.2308840872
 30
0.0
 10
10.5494922123
 20
9.2309689541
 30
0.0
 10
10.5493781157
 20
9.231070461
 30
0.0
 10
10.5492260906
 20
9.23120592
 30
0.0
 10
10.5490360237
 20
9.2313752039
 30
0.0
 10
10.5487319364
 20
9.2316460803
 30
0.0
 10
10.5483518206
 20
9.2319846683
 30
0.0
 10
10.5478956845
 20
9.2323909771
 30
0.0
 10
10.5474395476
 20
9.232797285
 30
0.0
 10
10.5468313654
 20
9.2333390292
 30
0.0
 10
10.5460711375
 20
9.2340162094
 30
0.0
 10
10.545158864
 20
9.2348288256
 30
0.0
 10
10.5439424995
 20
9.2359123139
 30
0.0
 10
10.5424220437
 20
9.2372666743
 30
0.0
 10
10.5405974968
 20
9.2388919068
 30
0.0
 10
10.53877295
 20
9.2405171392
 30
0.0
 10
10.5369484031
 20
9.2421423717
 30
0.0
 10
10.5351238562
 20
9.2437676041
 30
0.0
 10
10.5332993093
 20
9.2453928366
 30
0.0
 10
10.5314747625
 20
9.247018069
 30
0.0
 10
10.5296502156
 20
9.2486433015
 30
0.0
 10
10.5278256687
 20
9.2502685339
 30
0.0
 10
10.526305213
 20
9.2516228943
 30
0.0
 10
10.5250888484
 20
9.2527063826
 30
0.0
 10
10.524176575
 20
9.2535189988
 30
0.0
 10
10.5234163471
 20
9.2541961791
 30
0.0
 10
10.5228081648
 20
9.2547379231
 30
0.0
 10
10.5223520282
 20
9.2551442315
 30
0.0
 10
10.521895891
 20
9.2555505388
 30
0.0
 10
10.5215157787
 20
9.2558891312
 30
0.0
 10
10.5212116842
 20
9.2561599986
 30
0.0
 10
10.5210216357
 20
9.2563293057
 30
0.0
 10
10.5208695728
 20
9.256464717
 30
0.0
 10
10.5207555915
 20
9.2565663694
 30
0.0
 10
10.5206603976
 20
9.2566507813
 30
0.0
 10
10.5205941729
 20
9.2567104552
 30
0.0
 10
10.5205556884
 20
9.2567436402
 30
0.0
 10
10.5205286333
 20
9.2567711048
 30
0.0
 10
10.5204946658
 20
9.2567887232
 30
0.0
 10
10.520451787
 20
9.2568156488
 30
0.0
 10
10.5203756256
 20
9.2568611685
 30
0.0
 10
10.5202674109
 20
9.2569270332
 30
0.0
 10
10.5201373019
 20
9.2570057128
 30
0.0
 10
10.5199639111
 20
9.257110744
 30
0.0
 10
10.5197471425
 20
9.2572419901
 30
0.0
 10
10.5194003296
 20
9.2574520079
 30
0.0
 10
10.5189668076
 20
9.2577145219
 30
0.0
 10
10.5184465837
 20
9.2580295422
 30
0.0
 10
10.5179263592
 20
9.2583445615
 30
0.0
 10
10.5172327267
 20
9.2587645877
 30
0.0
 10
10.516365686
 20
9.2592896203
 30
0.0
 10
10.5153252372
 20
9.2599196594
 30
0.0
 10
10.5139379721
 20
9.2607597116
 30
0.0
 10
10.5122038907
 20
9.2618097768
 30
0.0
 10
10.5101229931
 20
9.2630698551
 30
0.0
 10
10.5080420955
 20
9.2643299333
 30
0.0
 10
10.5059611978
 20
9.2655900116
 30
0.0
 10
10.5038803002
 20
9.2668500898
 30
0.0
 10
10.5017994026
 20
9.2681101681
 30
0.0
 10
10.4997185049
 20
9.2693702463
 30
0.0
 10
10.4976376073
 20
9.2706303246
 30
0.0
 10
10.4955567097
 20
9.2718904029
 30
0.0
 10
10.4938226283
 20
9.2729404681
 30
0.0
 10
10.4924353633
 20
9.2737805203
 30
0.0
 10
10.4913949144
 20
9.2744105594
 30
0.0
 10
10.4905278738
 20
9.274935592
 30
0.0
 10
10.4898342412
 20
9.275355618
 30
0.0
 10
10.4893140169
 20
9.2756706378
 30
0.0
 10
10.4887937921
 20
9.2759856565
 30
0.0
 10
10.4883602729
 20
9.2762481755
 30
0.0
 10
10.4880134543
 20
9.2764581832
 30
0.0
 10
10.4877967
 20
9.2765894549
 30
0.0
 10
10.4876232799
 20
9.2766944335
 30
0.0
 10
10.4874932603
 20
9.2767732736
 30
0.0
 10
10.487384766
 20
9.2768386361
 30
0.0
 10
10.4873091039
 20
9.2768850524
 30
0.0
 10
10.487265425
 20
9.2769105414
 30
0.0
 10
10.487233915
 20
9.2769325726
 30
0.0
 10
10.4871976299
 20
9.2769434634
 30
0.0
 10
10.4871509154
 20
9.2769618703
 30
0.0
 10
10.4870683889
 20
9.276992272
 30
0.0
 10
10.4869508997
 20
9.2770366494
 30
0.0
 10
10.4868097389
 20
9.2770894972
 30
0.0
 10
10.4866215852
 20
9.2771601025
 30
0.0
 10
10.4863863724
 20
9.2772483105
 30
0.0
 10
10.4860100434
 20
9.2773894706
 30
0.0
 10
10.4855396282
 20
9.2775659113
 30
0.0
 10
10.4849751316
 20
9.2777776441
 30
0.0
 10
10.4844106346
 20
9.2779893759
 30
0.0
 10
10.4836579721
 20
9.2782716854
 30
0.0
 10
10.4827171439
 20
9.278624572
 30
0.0
 10
10.4815881501
 20
9.2790480361
 30
0.0
 10
10.480082825
 20
9.2796126548
 30
0.0
 10
10.4782011686
 20
9.2803184282
 30
0.0
 10
10.475943181
 20
9.2811653563
 30
0.0
 10
10.4736851934
 20
9.2820122843
 30
0.0
 10
10.4714272057
 20
9.2828592124
 30
0.0
 10
10.4691692181
 20
9.2837061405
 30
0.0
 10
10.4669112305
 20
9.2845530686
 30
0.0
 10
10.4646532428
 20
9.2853999966
 30
0.0
 10
10.4623952552
 20
9.2862469247
 30
0.0
 10
10.4601372676
 20
9.2870938528
 30
0.0
 10
10.4582556112
 20
9.2877996262
 30
0.0
 10
10.4567502861
 20
9.2883642449
 30
0.0
 10
10.4556212923
 20
9.2887877089
 30
0.0
 10
10.4546804641
 20
9.2891405956
 30
0.0
 10
10.4539278016
 20
9.2894229049
 30
0.0
 10
10.4533633047
 20
9.2896346372
 30
0.0
 10
10.4527988075
 20
9.2898463683
 30
0.0
 10
10.4523283943
 20
9.2900228144
 30
0.0
 10
10.4519520613
 20
9.2901639634
 30
0.0
 10
10.4517168586
 20
9.2902521996
 30
0.0
 10
10.451528684
 20
9.2903227471
 30
0.0
 10
10.4513875873
 20
9.2903757714
 30
0.0
 10
10.4512698977
 20
9.2904195967
 30
0.0
 10
10.4511877288
 20
9.2904509839
 30
0.0
 10
10.4511404413
 20
9.2904678117
 30
0.0
 10
10.4511059162
 20
9.2904835533
 30
0.0
 10
10.4510677962
 20
9.2904873656
 30
0.0
 10
10.4510182234
 20
9.2904966097
 30
0.0
 10
10.4509308869
 20
9.2905108482
 30
0.0
 10
10.4508064259
 20
9.2905322025
 30
0.0
 10
10.4506569419
 20
9.2905573938
 30
0.0
 10
10.4504576757
 20
9.2905911338
 30
0.0
 10
10.4502085772
 20
9.2906332569
 30
0.0
 10
10.4498100284
 20
9.2907006828
 30
0.0
 10
10.4493118393
 20
9.2907849552
 30
0.0
 10
10.4487140138
 20
9.2908860864
 30
0.0
 10
10.4481161879
 20
9.2909872164
 30
0.0
 10
10.4473190868
 20
9.2911220569
 30
0.0
 10
10.4463227104
 20
9.2912906073
 30
0.0
 10
10.4451270587
 20
9.2914928679
 30
0.0
 10
10.4435328565
 20
9.2917625487
 30
0.0
 10
10.4415401037
 20
9.2920996496
 30
0.0
 10
10.4391488004
 20
9.2925041708
 30
0.0
 10
10.4367574971
 20
9.2929086919
 30
0.0
 10
10.4343661937
 20
9.2933132131
 30
0.0
 10
10.4311777893
 20
9.2938525746
 30
0.0
 10
10.4271922838
 20
9.2945267765
 30
0.0
 10
10.4224096771
 20
9.2953358188
 30
0.0
 10
10.4176270704
 20
9.2961448611
 30
0.0
 10
10.414438666
 20
9.2966842226
 30
0.0
 10
10.4128444638
 20
9.2969539034
 30
0.0
  0
SPLINE
  5
398
100
AcDbEntity
  8
0
100
AcDbSpline
 62
4
  6
CONTINUOUS
 70
0
 71
3
 72
615
 73
611
 74
0
 42
0.0000001
 43
0.0000001
 44
0.0000000001
 40
0.0
 40
0.0
 40
0.0
 40
0.0
 40
0.0078125
 40
0.015625
 40
0.0234375
 40
0.03125
 40
0.03515625
 40
0.0390625
 40
0.04296875
 40
0.046875
 40
0.05078125
 40
0.052734375
 40
0.0546875
 40
0.056640625
 40
0.0576171875
 40
0.05859375
 40
0.0595703125
 40
0.060546875
 40
0.0610351562
 40
0.0615234375
 40
0.0617675781
 40
0.0620117188
 40
0.0622558594
 40
0.0623779297
 40
0.0624389648
 40
0.0625
 40
0.0625610352
 40
0.0626220703
 40
0.0627441406
 40
0.0629882812
 40
0.0632324219
 40
0.0634765625
 40
0.0639648438
 40
0.064453125
 40
0.0654296875
 40
0.06640625
 40
0.0673828125
 40
0.068359375
 40
0.0703125
 40
0.072265625
 40
0.07421875
 40
0.078125
 40
0.08203125
 40
0.0859375
 40
0.08984375
 40
0.09375
 40
0.09765625
 40
0.1015625
 40
0.10546875
 40
0.109375
 40
0.11328125
 40
0.115234375
 40
0.1171875
 40
0.119140625
 40
0.1201171875
 40
0.12109375
 40
0.1220703125
 40
0.123046875
 40
0.1235351562
 40
0.1240234375
 40
0.1242675781
 40
0.1245117188
 40
0.1247558594
 40
0.1248779297
 40
0.1249389648
 40
0.125
 40
0.1250610352
 40
0.1251220703
 40
0.1252441406
 40
0.1254882812
 40
0.1257324219
 40
0.1259765625
 40
0.1264648438
 40
0.126953125
 40
0.1279296875
 40
0.12890625
 40
0.1298828125
 40
0.130859375
 40
0.1328125
 40
0.134765625
 40
0.13671875
 40
0.140625
 40
0.14453125
 40
0.1484375
 40
0.15234375
 40
0.15625
 40
0.16015625
 40
0.1640625
 40
0.16796875
 40
0.171875
 40
0.17578125
 40
0.177734375
 40
0.1796875
 40
0.181640625
 40
0.1826171875
 40
0.18359375
 40
0.1845703125
 40
0.185546875
 40
0.1860351562
 40
0.1865234375
 40
0.1867675781
 40
0.1870117188
 40
0.1872558594
 40
0.1873779297
 40
0.1874389648
 40
0.1875
 40
0.1875610352
 40
0.1876220703
 40
0.1877441406
 40
0.1879882812
 40
0.1882324219
 40
0.1884765625
 40
0.1889648438
 40
0.189453125
 40
0.1904296875
 40
0.19140625
 40
0.1923828125
 40
0.193359375
 40
0.1953125
 40
0.197265625
 40
0.19921875
 40
0.203125
 40
0.20703125
 40
0.2109375
 40
0.21484375
 40
0.21875
 40
0.22265625
 40
0.2265625
 40
0.23046875
 40
0.234375
 40
0.23828125
 40
0.240234375
 40
0.2421875
 40
0.244140625
 40
0.2451171875
 40
0.24609375
 40
0.2470703125
 40
0.248046875
 40
0.2485351562
 40
0.2490234375
 40
0.2492675781
 40
0.2495117188
 40
0.2497558594
 40
0.2498779297
 40
0.2499389648
 40
0.25
 40
0.2500610352
 40
0.2501220703
 40
0.2502441406
 40
0.2504882812
 40
0.2507324219
 40
0.2509765625
 40
0.2514648438
 40
0.251953125
 40
0.2529296875
 40
0.25390625
 40
0.2548828125
 40
0.255859375
 40
0.2578125
 40
0.259765625
 40
0.26171875
 40
0.265625
 40
0.26953125
 40
0.2734375
 40
0.27734375
 40
0.28125
 40
0.28515625
 40
0.2890625
 40
0.29296875
 40
0.296875
 40
0.30078125
 40
0.302734375
 40
0.3046875
 40
0.306640625
 40
0.3076171875
 40
0.30859375
 40
0.3095703125
 40
0.310546875
 40
0.3110351562
 40
0.3115234375
 40
0.3117675781
 40
0.3120117188
 40
0.3122558594
 40
0.3123779297
 40
0.3124389648
 40
0.3125
 40
0.3125610352
 40
0.3126220703
 40
0.3127441406
 40
0.3129882812
 40
0.3132324219
 40
0.3134765625
 40
0.3139648438
 40
0.314453125
 40
0.3154296875
 40
0.31640625
 40
0.3173828125
 40
0.318359375
 40
0.3203125
 40
0.322265625
 40
0.32421875
 40
0.328125
 40
0.33203125
 40
0.3359375
 40
0.33984375
 40
0.34375
 40
0.34765625
 40
0.3515625
 40
0.35546875
 40
0.359375
 40
0.36328125
 40
0.365234375
 40
0.3671875
 40
0.369140625
 40
0.3701171875
 40
0.37109375
 40
0.3720703125
 40
0.373046875
 40
0.3735351562
 40
0.3740234375
 40
0.3742675781
 40
0.3745117188
 40
0.3747558594
 40
0.3748779297
 40
0.3749389648
 40
0.375
 40
0.3750610352
 40
0.3751220703
 40
0.3752441406
 40
0.3754882812
 40
0.3757324219
 40
0.3759765625
 40
0.3764648438
 40
0.376953125
 40
0.3779296875
 40
0.37890625
 40
0.3798828125
 40
0.380859375
 40
0.3828125
 40
0.384765625
 40
0.38671875
 40
0.390625
 40
0.39453125
 40
0.3984375
 40
0.40234375
 40
0.40625
 40
0.41015625
 40
0.4140625
 40
0.41796875
 40
0.421875
 40
0.42578125
 40
0.427734375
 40
0.4296875
 40
0.431640625
 40
0.4326171875
 40
0.43359375
 40
0.4345703125
 40
0.435546875
 40
0.4360351562
 40
0.4365234375
 40
0.4367675781
 40
0.4370117188
 40
0.4372558594
 40
0.4373779297
 40
0.4374389648
 40
0.4375
 40
0.4375610352
 40
0.4376220703
 40
0.4377441406
 40
0.4379882812
 40
0.4382324219
 40
0.4384765625
 40
0.4389648438
 40
0.439453125
 40
0.4404296875
 40
0.44140625
 40
0.4423828125
 40
0.443359375
 40
0.4453125
 40
0.447265625
 40
0.44921875
 40
0.453125
 40
0.45703125
 40
0.4609375
 40
0.46484375
 40
0.46875
 40
0.47265625
 40
0.4765625
 40
0.48046875
 40
0.484375
 40
0.48828125
 40
0.490234375
 40
0.4921875
 40
0.494140625
 40
0.4951171875
 40
0.49609375
 40
0.4970703125
 40
0.498046875
 40
0.4985351562
 40
0.4990234375
 40
0.4992675781
 40
0.4995117188
 40
0.4997558594
 40
0.4998779297
 40
0.4999389648
 40
0.5
 40
0.5000610352
 40
0.5001220703
 40
0.5002441406
 40
0.5004882812
 40
0.5007324219
 40
0.5009765625
 40
0.5014648438
 40
0.501953125
 40
0.5029296875
 40
0.50390625
 40
0.5048828125
 40
0.505859375
 40
0.5078125
 40
0.509765625
 40
0.51171875
 40
0.515625
 40
0.51953125
 40
0.5234375
 40
0.52734375
 40
0.53125
 40
0.53515625
 40
0.5390625
 40
0.54296875
 40
0.546875
 40
0.55078125
 40
0.552734375
 40
0.5546875
 40
0.556640625
 40
0.5576171875
 40
0.55859375
 40
0.5595703125
 40
0.560546875
 40
0.5610351562
 40
0.5615234375
 40
0.5617675781
 40
0.5620117188
 40
0.5622558594
 40
0.5623779297
 40
0.5624389648
 40
0.5625
 40
0.5625610352
 40
0.5626220703
 40
0.5627441406
 40
0.5629882812
 40
0.5632324219
 40
0.5634765625
 40
0.5639648438
 40
0.564453125
 40
0.5654296875
 40
0.56640625
 40
0.5673828125
 40
0.568359375
 40
0.5703125
 40
0.572265625
 40
0.57421875
 40
0.578125
 40
0.58203125
 40
0.5859375
 40
0.58984375
 40
0.59375
 40
0.59765625
 40
0.6015625
 40
0.60546875
 40
0.609375
 40
0.61328125
 40
0.615234375
 40
0.6171875
 40
0.619140625
 40
0.6201171875
 40
0.62109375
 40
0.6220703125
 40
0.623046875
 40
0.6235351562
 40
0.6240234375
 40
0.6242675781
 40
0.6245117188
 40
0.6247558594
 40
0.6248779297
 40
0.6249389648
 40
0.625
 40
0.6250610352
 40
0.6251220703
 40
0.6252441406
 40
0.6254882812
 40
0.6257324219
 40
0.6259765625
 40
0.6264648438
 40
0.626953125
 40
0.6279296875
 40
0.62890625
 40
0.6298828125
 40
0.630859375
 40
0.6328125
 40
0.634765625
 40
0.63671875
 40
0.640625
 40
0.64453125
 40
0.6484375
 40
0.65234375
 40
0.65625
 40
0.66015625
 40
0.6640625
 40
0.66796875
 40
0.671875
 40
0.67578125
 40
0.677734375
 40
0.6796875
 40
0.681640625
 40
0.6826171875
 40
0.68359375
 40
0.6845703125
 40
0.685546875
 40
0.6860351562
 40
0.6865234375
 40
0.6867675781
 40
0.6870117188
 40
0.6872558594
 40
0.6873779297
 40
0.6874389648
 40
0.6875
 40
0.6875610352
 40
0.6876220703
 40
0.6877441406
 40
0.6879882812
 40
0.6882324219
 40
0.6884765625
 40
0.6889648438
 40
0.689453125
 40
0.6904296875
 40
0.69140625
 40
0.6923828125
 40
0.693359375
 40
0.6953125
 40
0.697265625
 40
0.69921875
 40
0.703125
 40
0.70703125
 40
0.7109375
 40
0.71484375
 40
0.71875
 40
0.72265625
 40
0.7265625
 40
0.73046875
 40
0.734375
 40
0.73828125
 40
0.740234375
 40
0.7421875
 40
0.744140625
 40
0.7451171875
 40
0.74609375
 40
0.7470703125
 40
0.748046875
 40
0.7485351562
 40
0.7490234375
 40
0.7492675781
 40
0.7495117188
 40
0.7497558594
 40
0.7498779297
 40
0.7499389648
 40
0.75
 40
0.7500610352
 40
0.7501220703
 40
0.7502441406
 40
0.7504882812
 40
0.7507324219
 40
0.7509765625
 40
0.7514648438
 40
0.751953125
 40
0.7529296875
 40
0.75390625
 40
0.7548828125
 40
0.755859375
 40
0.7578125
 40
0.759765625
 40
0.76171875
 40
0.765625
 40
0.76953125
 40
0.7734375
 40
0.77734375
 40
0.78125
 40
0.78515625
 40
0.7890625
 40
0.79296875
 40
0.796875
 40
0.80078125
 40
0.802734375
 40
0.8046875
 40
0.806640625
 40
0.8076171875
 40
0.80859375
 40
0.8095703125
 40
0.810546875
 40
0.8110351562
 40
0.8115234375
 40
0.8117675781
 40
0.8120117188
 40
0.8122558594
 40
0.8123779297
 40
0.8124389648
 40
0.8125
 40
0.8125610352
 40
0.8126220703
 40
0.8127441406
 40
0.8129882812
 40
0.8132324219
 40
0.8134765625
 40
0.8139648438
 40
0.814453125
 40
0.8154296875
 40
0.81640625
 40
0.8173828125
 40
0.818359375
 40
0.8203125
 40
0.822265625
 40
0.82421875
 40
0.828125
 40
0.83203125
 40
0.8359375
 40
0.83984375
 40
0.84375
 40
0.84765625
 40
0.8515625
 40
0.85546875
 40
0.859375
 40
0.86328125
 40
0.865234375
 40
0.8671875
 40
0.869140625
 40
0.8701171875
 40
0.87109375
 40
0.8720703125
 40
0.873046875
 40
0.8735351562
 40
0.8740234375
 40
0.8742675781
 40
0.8745117188
 40
0.8747558594
 40
0.8748779297
 40
0.8749389648
 40
0.875
 40
0.8750610352
 40
0.8751220703
 40
0.8752441406
 40
0.8754882812
 40
0.8757324219
 40
0.8759765625
 40
0.8764648438
 40
0.876953125
 40
0.8779296875
 40
0.87890625
 40
0.8798828125
 40
0.880859375
 40
0.8828125
 40
0.884765625
 40
0.88671875
 40
0.890625
 40
0.89453125
 40
0.8984375
 40
0.90234375
 40
0.90625
 40
0.91015625
 40
0.9140625
 40
0.91796875
 40
0.921875
 40
0.92578125
 40
0.927734375
 40
0.9296875
 40
0.931640625
 40
0.9326171875
 40
0.93359375
 40
0.9345703125
 40
0.935546875
 40
0.9360351562
 40
0.9365234375
 40
0.9367675781
 40
0.9370117188
 40
0.9372558594
 40
0.9373779297
 40
0.9374389648
 40
0.9375
 40
0.9375610352
 40
0.9376220703
 40
0.9377441406
 40
0.9379882812
 40
0.9382324219
 40
0.9384765625
 40
0.9389648438
 40
0.939453125
 40
0.9404296875
 40
0.94140625
 40
0.9423828125
 40
0.943359375
 40
0.9453125
 40
0.947265625
 40
0.94921875
 40
0.953125
 40
0.95703125
 40
0.9609375
 40
0.96484375
 40
0.96875
 40
0.9765625
 40
0.984375
 40
0.9921875
 40
1.0
 40
1.0
 40
1.0
 40
1.0
 10
10.4128444807
 20
9.2969539022
 30
0.0
 10
10.4112778873
 20
9.29690894
 30
0.0
 10
10.4081447003
 20
9.2968190156
 30
0.0
 10
10.40344492
 20
9.296684129
 30
0.0
 10
10.3987451396
 20
9.2965492424
 30
0.0
 10
10.3948286559
 20
9.2964368369
 30
0.0
 10
10.391695469
 20
9.2963469125
 30
0.0
 10
10.3893455788
 20
9.2962794691
 30
0.0
 10
10.3869956886
 20
9.2962120258
 30
0.0
 10
10.3846457985
 20
9.2961445825
 30
0.0
 10
10.3826875566
 20
9.2960883798
 30
0.0
 10
10.3811209632
 20
9.2960434176
 30
0.0
 10
10.3799460181
 20
9.2960096959
 30
0.0
 10
10.3789668972
 20
9.2959815946
 30
0.0
 10
10.3781836004
 20
9.2959591134
 30
0.0
 10
10.3775961278
 20
9.2959422528
 30
0.0
 10
10.3770086555
 20
9.295925391
 30
0.0
 10
10.3765190945
 20
9.2959113432
 30
0.0
 10
10.3761274473
 20
9.2959000968
 30
0.0
 10
10.3758826641
 20
9.2958930865
 30
0.0
 10
10.3756868459
 20
9.2958874353
 30
0.0
 10
10.3755399593
 20
9.2958833146
 30
0.0
 10
10.375417627
 20
9.2958795062
 30
0.0
 10
10.3753318508
 20
9.2958775752
 30
0.0
 10
10.37528306
 20
9.2958753243
 30
0.0
 10
10.3752458354
 20
9.2958768687
 30
0.0
 10
10.3752110244
 20
9.2958660566
 30
0.0
 10
10.3751637679
 20
9.2958559505
 30
0.0
 10
10.3750814612
 20
9.2958362568
 30
0.0
 10
10.3749636751
 20
9.2958091727
 30
0.0
 10
10.3748224196
 20
9.2957762224
 30
0.0
 10
10.3746340483
 20
9.2957324457
 30
0.0
 10
10.3743985946
 20
9.2956776711
 30
0.0
 10
10.3740218628
 20
9.2955900617
 30
0.0
 10
10.3735509501
 20
9.2954805396
 30
0.0
 10
10.3729858541
 20
9.2953491176
 30
0.0
 10
10.3724207582
 20
9.2952176943
 30
0.0
 10
10.371667297
 20
9.2950424638
 30
0.0
 10
10.3707254705
 20
9.2948234255
 30
0.0
 10
10.3695952787
 20
9.2945605795
 30
0.0
 10
10.3680883563
 20
9.2942101182
 30
0.0
 10
10.3662047033
 20
9.2937720416
 30
0.0
 10
10.3639443197
 20
9.2932463497
 30
0.0
 10
10.3616839361
 20
9.2927206578
 30
0.0
 10
10.3594235525
 20
9.2921949659
 30
0.0
 10
10.3571631689
 20
9.291669274
 30
0.0
 10
10.3549027853
 20
9.2911435821
 30
0.0
 10
10.3526424017
 20
9.2906178902
 30
0.0
 10
10.3503820181
 20
9.2900921983
 30
0.0
 10
10.3481216345
 20
9.2895665064
 30
0.0
 10
10.3462379815
 20
9.2891284298
 30
0.0
 10
10.3447310591
 20
9.2887779685
 30
0.0
 10
10.3436008673
 20
9.2885151225
 30
0.0
 10
10.3426590408
 20
9.2882960843
 30
0.0
 10
10.3419055796
 20
9.2881208536
 30
0.0
 10
10.3413404836
 20
9.2879894308
 30
0.0
 10
10.3407753881
 20
9.287858007
 30
0.0
 10
10.3403044737
 20
9.2877484906
 30
0.0
 10
10.3399277454
 20
9.2876608696
 30
0.0
 10
10.339692283
 20
9.2876061244
 30
0.0
 10
10.3395039295
 20
9.2875622872
 30
0.0
 10
10.3393626193
 20
9.2875295218
 30
0.0
 10
10.3392450043
 20
9.2875018593
 30
0.0
 10
10.3391623922
 20
9.2874831983
 30
0.0
 10
10.339115625
 20
9.2874714374
 30
0.0
 10
10.3390793109
 20
9.2874657082
 30
0.0
 10
10.3390477318
 20
9.2874481623
 30
0.0
 10
10.3390039748
 20
9.2874288896
 30
0.0
 10
10.3389281695
 20
9.2873932419
 30
0.0
 10
10.3388194739
 20
9.2873433207
 30
0.0
 10
10.3386892114
 20
9.2872829855
 30
0.0
 10
10.3385154679
 20
9.2872026887
 30
0.0
 10
10.3382983091
 20
9.2871022662
 30
0.0
 10
10.3379508436
 20
9.2869416191
 30
0.0
 10
10.3375165156
 20
9.2867408002
 30
0.0
 10
10.3369953203
 20
9.2864998219
 30
0.0
 10
10.3364741255
 20
9.2862588423
 30
0.0
 10
10.3357791989
 20
9.2859375367
 30
0.0
 10
10.3349105407
 20
9.2855359046
 30
0.0
 10
10.3338681508
 20
9.2850539461
 30
0.0
 10
10.3324782977
 20
9.2844113347
 30
0.0
 10
10.3307409813
 20
9.2836080705
 30
0.0
 10
10.3286562015
 20
9.2826441534
 30
0.0
 10
10.3265714218
 20
9.2816802363
 30
0.0
 10
10.3244866421
 20
9.2807163193
 30
0.0
 10
10.3224018624
 20
9.2797524022
 30
0.0
 10
10.3203170827
 20
9.2787884851
 30
0.0
 10
10.318232303
 20
9.277824568
 30
0.0
 10
10.3161475233
 20
9.276860651
 30
0.0
 10
10.3140627436
 20
9.2758967339
 30
0.0
 10
10.3123254272
 20
9.2750934697
 30
0.0
 10
10.3109355741
 20
9.2744508583
 30
0.0
 10
10.3098931842
 20
9.2739688998
 30
0.0
 10
10.309024526
 20
9.2735672677
 30
0.0
 10
10.3083295994
 20
9.2732459619
 30
0.0
 10
10.3078084044
 20
9.2730049829
 30
0.0
 10
10.3072872099
 20
9.2727640027
 30
0.0
 10
10.3068528794
 20
9.2725631894
 30
0.0
 10
10.306505419
 20
9.272402531
 30
0.0
 10
10.3062882471
 20
9.2723021371
 30
0.0
 10
10.3061145306
 20
9.2722217817
 30
0.0
 10
10.3059841855
 20
9.2721616254
 30
0.0
 10
10.3058757485
 20
9.2721111444
 30
0.0
 10
10.3057994815
 20
9.2720764961
 30
0.0
 10
10.3057564641
 20
9.2720556222
 30
0.0
 10
10.3057226132
 20
9.2720429947
 30
0.0
 10
10.3056948319
 20
9.2720187928
 30
0.0
 10
10.3056556731
 20
9.2719905609
 30
0.0
 10
10.3055881315
 20
9.2719392741
 30
0.0
 10
10.3054911279
 20
9.2718669906
 30
0.0
 10
10.3053749443
 20
9.2717798294
 30
0.0
 10
10.3052199557
 20
9.2716637616
 30
0.0
 10
10.3050262463
 20
9.2715186264
 30
0.0
 10
10.3047162966
 20
9.2712864383
 30
0.0
 10
10.3043288645
 20
9.2709961935
 30
0.0
 10
10.3038639438
 20
9.2706479039
 30
0.0
 10
10.3033990237
 20
9.2702996132
 30
0.0
 10
10.30277913
 20
9.269835226
 30
0.0
 10
10.302004263
 20
9.2692547419
 30
0.0
 10
10.3010744225
 20
9.2685581609
 30
0.0
 10
10.2998346352
 20
9.2676293863
 30
0.0
 10
10.2982849011
 20
9.2664684181
 30
0.0
 10
10.2964252202
 20
9.2650752562
 30
0.0
 10
10.2945655393
 20
9.2636820944
 30
0.0
 10
10.2927058584
 20
9.2622889325
 30
0.0
 10
10.2908461775
 20
9.2608957706
 30
0.0
 10
10.2889864966
 20
9.2595026087
 30
0.0
 10
10.2871268157
 20
9.2581094468
 30
0.0
 10
10.2852671348
 20
9.256716285
 30
0.0
 10
10.2834074539
 20
9.2553231231
 30
0.0
 10
10.2818577198
 20
9.2541621548
 30
0.0
 10
10.2806179325
 20
9.2532333803
 30
0.0
 10
10.279688092
 20
9.2525367993
 30
0.0
 10
10.278913225
 20
9.2519563152
 30
0.0
 10
10.2782933314
 20
9.2514919279
 30
0.0
 10
10.277828411
 20
9.2511436376
 30
0.0
 10
10.2773634915
 20
9.2507953464
 30
0.0
 10
10.2769760557
 20
9.2505051065
 30
0.0
 10
10.2766661135
 20
9.2502729086
 30
0.0
 10
10.2764723849
 20
9.2501277983
 30
0.0
 10
10.2763174358
 20
9.2500116794
 30
0.0
 10
10.2762011313
 20
9.2499246743
 30
0.0
 10
10.2761045059
 20
9.2498519025
 30
0.0
 10
10.2760362892
 20
9.2498014873
 30
0.0
 10
10.2759982121
 20
9.2497718587
 30
0.0
 10
10.2759671079
 20
9.2497519471
 30
0.0
 10
10.2759457374
 20
9.249723206
 30
0.0
 10
10.2759138482
 20
9.2496879644
 30
0.0
 10
10.275859624
 20
9.2496248565
 30
0.0
 10
10.2757813337
 20
9.2495354526
 30
0.0
 10
10.2756877395
 20
9.2494278468
 30
0.0
 10
10.2755628235
 20
9.2492844846
 30
0.0
 10
10.2754067208
 20
9.2491052435
 30
0.0
 10
10.2751569328
 20
9.2488184791
 30
0.0
 10
10.274844706
 20
9.2484600163
 30
0.0
 10
10.2744700303
 20
9.248029864
 30
0.0
 10
10.2740953556
 20
9.2475997109
 30
0.0
 10
10.273595789
 20
9.2470261737
 30
0.0
 10
10.2729713308
 20
9.2463092522
 30
0.0
 10
10.272221981
 20
9.2454489463
 30
0.0
 10
10.2712228478
 20
9.2443018718
 30
0.0
 10
10.2699739314
 20
9.2428680288
 30
0.0
 10
10.2684752317
 20
9.2411474171
 30
0.0
 10
10.266976532
 20
9.2394268054
 30
0.0
 10
10.2654778323
 20
9.2377061937
 30
0.0
 10
10.2639791326
 20
9.235985582
 30
0.0
 10
10.2624804329
 20
9.2342649703
 30
0.0
 10
10.2609817332
 20
9.2325443586
 30
0.0
 10
10.2594830335
 20
9.2308237469
 30
0.0
 10
10.2579843338
 20
9.2291031352
 30
0.0
 10
10.2567354174
 20
9.2276692921
 30
0.0
 10
10.2557362843
 20
9.2265222176
 30
0.0
 10
10.2549869344
 20
9.2256619118
 30
0.0
 10
10.2543624762
 20
9.2249449903
 30
0.0
 10
10.2538629097
 20
9.224371453
 30
0.0
 10
10.2534882345
 20
9.2239413002
 30
0.0
 10
10.2531135604
 20
9.2235111467
 30
0.0
 10
10.2528013289
 20
9.2231526877
 30
0.0
 10
10.2525515505
 20
9.2228659155
 30
0.0
 10
10.2523954234
 20
9.2226866944
 30
0.0
 10
10.2522705576
 20
9.222543291
 30
0.0
 10
10.2521768099
 20
9.2224358111
 30
0.0
 10
10.2520989997
 20
9.2223460133
 30
0.0
 10
10.2520439185
 20
9.2222836086
 30
0.0
 10
10.2520134024
 20
9.2222472403
 30
0.0
 10
10.2519878141
 20
9.2222219598
 30
0.0
 10
10.2519725514
 20
9.2221890508
 30
0.0
 10
10.2519485994
 20
9.222147833
 30
0.0
 10
10.2519083615
 20
9.2220744621
 30
0.0
 10
10.2518500015
 20
9.2219702948
 30
0.0
 10
10.251780345
 20
9.2218450165
 30
0.0
 10
10.2516873385
 20
9.2216780757
 30
0.0
 10
10.2515711253
 20
9.2214693665
 30
0.0
 10
10.2513851591
 20
9.2211354503
 30
0.0
 10
10.25115271
 20
9.2207180488
 30
0.0
 10
10.2508737673
 20
9.2202171696
 30
0.0
 10
10.2505948257
 20
9.2197162897
 30
0.0
 10
10.2502229031
 20
9.2190484502
 30
0.0
 10
10.249758
 20
9.2182136506
 30
0.0
 10
10.2492001162
 20
9.2172118912
 30
0.0
 10
10.2484562712
 20
9.2158762119
 30
0.0
 10
10.2475264649
 20
9.2142066128
 30
0.0
 10
10.2464106974
 20
9.212203094
 30
0.0
 10
10.2452949299
 20
9.2101995751
 30
0.0
 10
10.2441791624
 20
9.2081960562
 30
0.0
 10
10.2430633949
 20
9.2061925373
 30
0.0
 10
10.2419476273
 20
9.2041890184
 30
0.0
 10
10.2408318598
 20
9.2021854995
 30
0.0
 10
10.2397160923
 20
9.2001819806
 30
0.0
 10
10.2386003248
 20
9.1981784617
 30
0.0
 10
10.2376705185
 20
9.1965088627
 30
0.0
 10
10.2369266735
 20
9.1951731834
 30
0.0
 10
10.2363687898
 20
9.194171424
 30
0.0
 10
10.2359038866
 20
9.1933366244
 30
0.0
 10
10.2355319642
 20
9.1926687848
 30
0.0
 10
10.2352530221
 20
9.1921679052
 30
0.0
 10
10.234974081
 20
9.191667025
 30
0.0
 10
10.2347416268
 20
9.1912496266
 30
0.0
 10
10.234555671
 20
9.1909157041
 30
0.0
 10
10.2344394313
 20
9.190707011
 30
0.0
 10
10.2343464793
 20
9.1905400371
 30
0.0
 10
10.2342766561
 20
9.1904148598
 30
0.0
 10
10.2342188178
 20
9.1903103766
 30
0.0
 10
10.2341776487
 20
9.1902375696
 30
0.0
 10
10.2341551888
 20
9.1901954483
 30
0.0
 10
10.2341353428
 20
9.1901653146
 30
0.0
 10
10.2341269684
 20
9.1901296103
 30
0.0
 10
10.2341118011
 20
9.1900839476
 30
0.0
 10
10.2340871227
 20
9.1900031326
 30
0.0
 10
10.2340508932
 20
9.1898881559
 30
0.0
 10
10.2340078349
 20
9.1897499812
 30
0.0
 10
10.2339502782
 20
9.1895658191
 30
0.0
 10
10.2338783822
 20
9.1893355923
 30
0.0
 10
10.2337633207
 20
9.1889672428
 30
0.0
 10
10.2336195033
 20
9.1885068014
 30
0.0
 10
10.2334469184
 20
9.1879542736
 30
0.0
 10
10.2332743346
 20
9.1874017453
 30
0.0
 10
10.2330442225
 20
9.1866650412
 30
0.0
 10
10.2327565825
 20
9.1857441609
 30
0.0
 10
10.2324114145
 20
9.1846391045
 30
0.0
 10
10.2319511904
 20
9.1831656961
 30
0.0
 10
10.2313759103
 20
9.1813239355
 30
0.0
 10
10.2306855742
 20
9.1791138229
 30
0.0
 10
10.2299952381
 20
9.1769037102
 30
0.0
 10
10.229304902
 20
9.1746935975
 30
0.0
 10
10.2286145659
 20
9.1724834849
 30
0.0
 10
10.2279242298
 20
9.1702733722
 30
0.0
 10
10.2272338937
 20
9.1680632596
 30
0.0
 10
10.2265435576
 20
9.1658531469
 30
0.0
 10
10.2258532215
 20
9.1636430342
 30
0.0
 10
10.2252779415
 20
9.1618012737
 30
0.0
 10
10.2248177174
 20
9.1603278652
 30
0.0
 10
10.2244725494
 20
9.1592228089
 30
0.0
 10
10.2241849093
 20
9.1583019286
 30
0.0
 10
10.2239547973
 20
9.1575652244
 30
0.0
 10
10.2237822131
 20
9.1570126963
 30
0.0
 10
10.2236096299
 20
9.1564601678
 30
0.0
 10
10.2234658071
 20
9.1559997287
 30
0.0
 10
10.2233507569
 20
9.1556313745
 30
0.0
 10
10.223278832
 20
9.1554011598
 30
0.0
 10
10.2232213345
 20
9.1552169726
 30
0.0
 10
10.2231780953
 20
9.1550788746
 30
0.0
 10
10.2231424318
 20
9.1549636583
 30
0.0
 10
10.223116743
 20
9.1548832709
 30
0.0
 10
10.2231031947
 20
9.154836923
 30
0.0
 10
10.2230898474
 20
9.1548033235
 30
0.0
 10
10.2230886787
 20
9.1547652845
 30
0.0
 10
10.2230828725
 20
9.1547161145
 30
0.0
 10
10.2230746908
 20
9.1546293454
 30
0.0
 10
10.2230619679
 20
9.1545057668
 30
0.0
 10
10.2230471433
 20
9.154357311
 30
0.0
 10
10.2230272225
 20
9.1541594263
 30
0.0
 10
10.2230023745
 20
9.1539120512
 30
0.0
 10
10.222962588
 20
9.1535162617
 30
0.0
 10
10.2229128651
 20
9.1530215212
 30
0.0
 10
10.2228531933
 20
9.1524278341
 30
0.0
 10
10.2227935226
 20
9.1518341467
 30
0.0
 10
10.2227139613
 20
9.1510425635
 30
0.0
 10
10.2226145098
 20
9.1500530846
 30
0.0
 10
10.2224951679
 20
9.1488657098
 30
0.0
 10
10.2223360454
 20
9.1472825435
 30
0.0
 10
10.2221371424
 20
9.1453035856
 30
0.0
 10
10.2218984587
 20
9.1429288361
 30
0.0
 10
10.221659775
 20
9.1405540866
 30
0.0
 10
10.2214210913
 20
9.1381793371
 30
0.0
 10
10.2211824076
 20
9.1358045876
 30
0.0
 10
10.2209437239
 20
9.1334298381
 30
0.0
 10
10.2207050402
 20
9.1310550886
 30
0.0
 10
10.2204663565
 20
9.1286803391
 30
0.0
 10
10.2202276728
 20
9.1263055896
 30
0.0
 10
10.2200287697
 20
9.1243266317
 30
0.0
 10
10.2198696472
 20
9.1227434653
 30
0.0
 10
10.2197503054
 20
9.1215560906
 30
0.0
 10
10.2196508538
 20
9.1205666116
 30
0.0
 10
10.2195712927
 20
9.1197750285
 30
0.0
 10
10.2195116215
 20
9.1191813411
 30
0.0
 10
10.2194519515
 20
9.1185876537
 30
0.0
 10
10.2194022228
 20
9.1180929142
 30
0.0
 10
10.2193624482
 20
9.1176971227
 30
0.0
 10
10.2193375699
 20
9.1174497527
 30
0.0
 10
10.2193177113
 20
9.1172518575
 30
0.0
 10
10.2193026968
 20
9.1171034338
 30
0.0
 10
10.2192905681
 20
9.1169797547
 30
0.0
 10
10.2192813256
 20
9.116893165
 30
0.0
 10
10.2192772189
 20
9.1168437075
 30
0.0
 10
10.2192708298
 20
9.1168065517
 30
0.0
 10
10.2192770896
 20
9.1167696353
 30
0.0
 10
10.2192810239
 20
9.11672033
 30
0.0
 10
10.2192899647
 20
9.1166340846
 30
0.0
 10
10.2193016624
 20
9.1165108565
 30
0.0
 10
10.2193161597
 20
9.1163629915
 30
0.0
 10
10.2193353288
 20
9.1161658352
 30
0.0
 10
10.2193593451
 20
9.1159193908
 30
0.0
 10
10.2193977405
 20
9.1155250791
 30
0.0
 10
10.2194457453
 20
9.1150321898
 30
0.0
 10
10.2195033465
 20
9.1144407225
 30
0.0
 10
10.219560949
 20
9.1138492552
 30
0.0
 10
10.2196377518
 20
9.1130606322
 30
0.0
 10
10.2197337555
 20
9.1120748534
 30
0.0
 10
10.2198489598
 20
9.1108919189
 30
0.0
 10
10.2200025657
 20
9.1093146728
 30
0.0
 10
10.220194573
 20
9.1073431152
 30
0.0
 10
10.2204249817
 20
9.1049772461
 30
0.0
 10
10.2206553905
 20
9.1026113771
 30
0.0
 10
10.2208857992
 20
9.100245508
 30
0.0
 10
10.221116208
 20
9.0978796389
 30
0.0
 10
10.2213466167
 20
9.0955137698
 30
0.0
 10
10.2215770255
 20
9.0931479007
 30
0.0
 10
10.2218074342
 20
9.0907820316
 30
0.0
 10
10.222037843
 20
9.0884161625
 30
0.0
 10
10.2222298502
 20
9.0864446049
 30
0.0
 10
10.2223834561
 20
9.0848673589
 30
0.0
 10
10.2224986605
 20
9.0836844243
 30
0.0
 10
10.2225946641
 20
9.0826986455
 30
0.0
 10
10.2226714671
 20
9.0819100225
 30
0.0
 10
10.222729069
 20
9.0813185552
 30
0.0
 10
10.2227866721
 20
9.0807270881
 30
0.0
 10
10.2228346711
 20
9.0802341983
 30
0.0
 10
10.2228730784
 20
9.0798398875
 30
0.0
 10
10.2228970644
 20
9.0795934409
 30
0.0
 10
10.2229162957
 20
9.0793962891
 30
0.0
 10
10.222930603
 20
9.0792484103
 30
0.0
 10
10.2229428951
 20
9.0791252255
 30
0.0
 10
10.2229507747
 20
9.0790389028
 30
0.0
 10
10.2229564093
 20
9.0789897212
 30
0.0
 10
10.2229574464
 20
9.0789524248
 30
0.0
 10
10.2229706727
 20
9.0789166965
 30
0.0
 10
10.222984056
 20
9.0788685119
 30
0.0
 10
10.2230094578
 20
9.0787844435
 30
0.0
 10
10.2230447103
 20
9.0786642127
 30
0.0
 10
10.2230874567
 20
9.0785199927
 30
0.0
 10
10.223144297
 20
9.0783276795
 30
0.0
 10
10.2232154004
 20
9.0780872948
 30
0.0
 10
10.2233291362
 20
9.0777026754
 30
0.0
 10
10.2234713162
 20
9.0772219025
 30
0.0
 10
10.2236419278
 20
9.0766449745
 30
0.0
 10
10.2238125406
 20
9.0760680466
 30
0.0
 10
10.2240400238
 20
9.0752988093
 30
0.0
 10
10.224324378
 20
9.0743372628
 30
0.0
 10
10.2246656031
 20
9.073183407
 30
0.0
 10
10.2251205698
 20
9.0716449325
 30
0.0
 10
10.2256892781
 20
9.0697218395
 30
0.0
 10
10.2263717282
 20
9.0674141278
 30
0.0
 10
10.2270541782
 20
9.0651064161
 30
0.0
 10
10.2277366283
 20
9.0627987044
 30
0.0
 10
10.2284190783
 20
9.0604909928
 30
0.0
 10
10.2291015283
 20
9.0581832811
 30
0.0
 10
10.2297839784
 20
9.0558755694
 30
0.0
 10
10.2304664284
 20
9.0535678578
 30
0.0
 10
10.2311488785
 20
9.0512601461
 30
0.0
 10
10.2317175869
 20
9.049337053
 30
0.0
 10
10.2321725535
 20
9.0477985786
 30
0.0
 10
10.2325137786
 20
9.0466447227
 30
0.0
 10
10.2327981327
 20
9.0456831762
 30
0.0
 10
10.2330256162
 20
9.044913939
 30
0.0
 10
10.2331962284
 20
9.044337011
 30
0.0
 10
10.2333668418
 20
9.0437600834
 30
0.0
 10
10.2335090162
 20
9.0432793092
 30
0.0
 10
10.2336227634
 20
9.0428946925
 30
0.0
 10
10.2336938379
 20
9.042654301
 30
0.0
 10
10.2337507375
 20
9.0424620016
 30
0.0
 10
10.2337933028
 20
9.0423177395
 30
0.0
 10
10.233829122
 20
9.0421976404
 30
0.0
 10
10.2338535122
 20
9.0421133368
 30
0.0
 10
10.2338685163
 20
9.0420655291
 30
0.0
 10
10.233876764
 20
9.042028643
 30
0.0
 10
10.2338964998
 20
9.0419956953
 30
0.0
 10
10.2339188071
 20
9.0419503912
 30
0.0
 10
10.2339597119
 20
9.0418717492
 30
0.0
 10
10.2340171712
 20
9.0417590687
 30
0.0
 10
10.2340865401
 20
9.0416239955
 30
0.0
 10
10.2341788861
 20
9.0414438478
 30
0.0
 10
10.2342943685
 20
9.0412186803
 30
0.0
 10
10.2344791125
 20
9.0408584027
 30
0.0
 10
10.2347100521
 20
9.040408059
 30
0.0
 10
10.2349871755
 20
9.0398676451
 30
0.0
 10
10.2352643
 20
9.0393272316
 30
0.0
 10
10.2356337989
 20
9.0386066802
 30
0.0
 10
10.2360956727
 20
9.0377059909
 30
0.0
 10
10.2366499212
 20
9.0366251638
 30
0.0
 10
10.2373889193
 20
9.035184061
 30
0.0
 10
10.2383126668
 20
9.0333826825
 30
0.0
 10
10.2394211638
 20
9.0312210282
 30
0.0
 10
10.2405296609
 20
9.029059374
 30
0.0
 10
10.2416381579
 20
9.0268977197
 30
0.0
 10
10.2427466549
 20
9.0247360655
 30
0.0
 10
10.243855152
 20
9.0225744113
 30
0.0
 10
10.244963649
 20
9.020412757
 30
0.0
 10
10.246072146
 20
9.0182511028
 30
0.0
 10
10.247180643
 20
9.0160894486
 30
0.0
 10
10.2481043906
 20
9.01428807
 30
0.0
 10
10.2488433886
 20
9.0128469672
 30
0.0
 10
10.2493976371
 20
9.0117661401
 30
0.0
 10
10.2498595108
 20
9.0108654508
 30
0.0
 10
10.2502290099
 20
9.0101448994
 30
0.0
 10
10.250506134
 20
9.0096044858
 30
0.0
 10
10.2507832591
 20
9.0090640726
 30
0.0
 10
10.2510141933
 20
9.0086137267
 30
0.0
 10
10.2511989482
 20
9.0082534536
 30
0.0
 10
10.251314403
 20
9.0080282748
 30
0.0
 10
10.2514068057
 20
9.0078481502
 30
0.0
 10
10.2514760014
 20
9.0077130063
 30
0.0
 10
10.2515340026
 20
9.0076005469
 30
0.0
 10
10.25157394
 20
9.0075215103
 30
0.0
 10
10.2515977972
 20
9.0074768384
 30
0.0
 10
10.2516127723
 20
9.0074419489
 30
0.0
 10
10.2516389008
 20
9.0074123557
 30
0.0
 10
10.2516698484
 20
9.0073710506
 30
0.0
 10
10.2517258192
 20
9.0072996274
 30
0.0
 10
10.25180483
 20
9.0071971444
 30
0.0
 10
10.2519000485
 20
9.0070743573
 30
0.0
 10
10.2520268648
 20
9.006910574
 30
0.0
 10
10.2521854338
 20
9.0067058678
 30
0.0
 10
10.2524391169
 20
9.0063783251
 30
0.0
 10
10.2527562302
 20
9.0059689011
 30
0.0
 10
10.2531367622
 20
9.0054775905
 30
0.0
 10
10.2535172952
 20
9.0049862803
 30
0.0
 10
10.2540246722
 20
9.0043311999
 30
0.0
 10
10.2546588936
 20
9.0035123495
 30
0.0
 10
10.2554199591
 20
9.002529729
 30
0.0
 10
10.2564347133
 20
9.0012195682
 30
0.0
 10
10.2577031559
 20
8.9995818674
 30
0.0
 10
10.2592252871
 20
8.9976166263
 30
0.0
 10
10.2607474183
 20
8.9956513852
 30
0.0
 10
10.2622695495
 20
8.9936861441
 30
0.0
 10
10.2637916807
 20
8.9917209031
 30
0.0
 10
10.2653138119
 20
8.989755662
 30
0.0
 10
10.2668359431
 20
8.9877904209
 30
0.0
 10
10.2683580743
 20
8.9858251799
 30
0.0
 10
10.2698802054
 20
8.9838599388
 30
0.0
 10
10.2711486481
 20
8.9822222379
 30
0.0
 10
10.2721634022
 20
8.9809120772
 30
0.0
 10
10.2729244678
 20
8.9799294567
 30
0.0
 10
10.2735586891
 20
8.9791106062
 30
0.0
 10
10.2740660663
 20
8.9784555259
 30
0.0
 10
10.2744465989
 20
8.9779642155
 30
0.0
 10
10.2748271323
 20
8.9774729059
 30
0.0
 10
10.275144241
 20
8.9770634785
 30
0.0
 10
10.2753979335
 20
8.9767359427
 30
0.0
 10
10.2755564789
 20
8.9765312189
 30
0.0
 10
10.2756833436
 20
8.9763674718
 30
0.0
 10
10.2757784144
 20
8.9762445741
 30
0.0
 10
10.2758578872
 20
8.9761424372
 30
0.0
 10
10.2759130332
 20
8.9760703961
 30
0.0
 10
10.2759453025
 20
8.9760300812
 30
0.0
 10
10.2759673711
 20
8.9759974465
 30
0.0
 10
10.2759975943
 20
8.97597398
 30
0.0
 10
10.2760350475
 20
8.9759394934
 30
0.0
 10
10.2761019158
 20
8.9758806318
 30
0.0
 10
10.2761967491
 20
8.9757957649
 30
0.0
 10
10.2763108457
 20
8.975694258
 30
0.0
 10
10.2764628708
 20
8.975558799
 30
0.0
 10
10.2766529378
 20
8.9753895151
 30
0.0
 10
10.276957025
 20
8.9751186387
 30
0.0
 10
10.2773371408
 20
8.9747800507
 30
0.0
 10
10.2777932769
 20
8.9743737419
 30
0.0
 10
10.2782494138
 20
8.973967434
 30
0.0
 10
10.2788575961
 20
8.9734256898
 30
0.0
 10
10.279617824
 20
8.9727485096
 30
0.0
 10
10.2805300974
 20
8.9719358934
 30
0.0
 10
10.281746462
 20
8.9708524051
 30
0.0
 10
10.2832669177
 20
8.9694980447
 30
0.0
 10
10.2850914646
 20
8.9678728123
 30
0.0
 10
10.2869160115
 20
8.9662475798
 30
0.0
 10
10.2887405583
 20
8.9646223473
 30
0.0
 10
10.2905651052
 20
8.9629971149
 30
0.0
 10
10.2923896521
 20
8.9613718824
 30
0.0
 10
10.294214199
 20
8.95974665
 30
0.0
 10
10.2960387458
 20
8.9581214175
 30
0.0
 10
10.2978632927
 20
8.9564961851
 30
0.0
 10
10.2993837484
 20
8.9551418247
 30
0.0
 10
10.300600113
 20
8.9540583364
 30
0.0
 10
10.3015123865
 20
8.9532457202
 30
0.0
 10
10.3022726143
 20
8.9525685399
 30
0.0
 10
10.3028807966
 20
8.9520267959
 30
0.0
 10
10.3033369332
 20
8.9516204876
 30
0.0
 10
10.3037930705
 20
8.9512141802
 30
0.0
 10
10.3041731828
 20
8.9508755878
 30
0.0
 10
10.3044772772
 20
8.9506047204
 30
0.0
 10
10.3046673258
 20
8.9504354134
 30
0.0
 10
10.3048193886
 20
8.950300002
 30
0.0
 10
10.3049333699
 20
8.9501983496
 30
0.0
 10
10.3050285639
 20
8.9501139377
 30
0.0
 10
10.3050947885
 20
8.9500542638
 30
0.0
 10
10.3051332731
 20
8.9500210788
 30
0.0
 10
10.3051603281
 20
8.9499936142
 30
0.0
 10
10.3051942956
 20
8.9499759958
 30
0.0
 10
10.3052371745
 20
8.9499490702
 30
0.0
 10
10.3053133359
 20
8.9499035505
 30
0.0
 10
10.3054215505
 20
8.9498376858
 30
0.0
 10
10.3055516595
 20
8.9497590062
 30
0.0
 10
10.3057250503
 20
8.949653975
 30
0.0
 10
10.3059418189
 20
8.9495227289
 30
0.0
 10
10.3062886319
 20
8.9493127111
 30
0.0
 10
10.3067221538
 20
8.9490501971
 30
0.0
 10
10.3072423777
 20
8.9487351768
 30
0.0
 10
10.3077626023
 20
8.9484201575
 30
0.0
 10
10.3084562348
 20
8.9480001313
 30
0.0
 10
10.3093232755
 20
8.9474750987
 30
0.0
 10
10.3103637243
 20
8.9468450596
 30
0.0
 10
10.3117509894
 20
8.9460050074
 30
0.0
 10
10.3134850707
 20
8.9449549422
 30
0.0
 10
10.3155659683
 20
8.943694864
 30
0.0
 10
10.317646866
 20
8.9424347857
 30
0.0
 10
10.3197277636
 20
8.9411747074
 30
0.0
 10
10.3218086612
 20
8.9399146292
 30
0.0
 10
10.3238895589
 20
8.9386545509
 30
0.0
 10
10.3259704565
 20
8.9373944727
 30
0.0
 10
10.3280513541
 20
8.9361343944
 30
0.0
 10
10.3301322517
 20
8.9348743161
 30
0.0
 10
10.3318663331
 20
8.9338242509
 30
0.0
 10
10.3332535982
 20
8.9329841988
 30
0.0
 10
10.334294047
 20
8.9323541596
 30
0.0
 10
10.3351610877
 20
8.931829127
 30
0.0
 10
10.3358547202
 20
8.931409101
 30
0.0
 10
10.3363749445
 20
8.9310940812
 30
0.0
 10
10.3368951693
 20
8.9307790625
 30
0.0
 10
10.3373286885
 20
8.9305165435
 30
0.0
 10
10.3376755071
 20
8.9303065358
 30
0.0
 10
10.3378922614
 20
8.9301752641
 30
0.0
 10
10.3380656815
 20
8.9300702855
 30
0.0
 10
10.3381957011
 20
8.9299914454
 30
0.0
 10
10.3383041955
 20
8.9299260829
 30
0.0
 10
10.3383798575
 20
8.9298796666
 30
0.0
 10
10.3384235364
 20
8.9298541776
 30
0.0
 10
10.3384550464
 20
8.9298321464
 30
0.0
 10
10.3384913315
 20
8.9298212556
 30
0.0
 10
10.338538046
 20
8.9298028487
 30
0.0
 10
10.3386205725
 20
8.929772447
 30
0.0
 10
10.3387380618
 20
8.9297280696
 30
0.0
 10
10.3388792225
 20
8.9296752218
 30
0.0
 10
10.3390673762
 20
8.9296046166
 30
0.0
 10
10.3393025891
 20
8.9295164085
 30
0.0
 10
10.339678918
 20
8.9293752485
 30
0.0
 10
10.3401493333
 20
8.9291988077
 30
0.0
 10
10.3407138298
 20
8.9289870749
 30
0.0
 10
10.3412783268
 20
8.9287753431
 30
0.0
 10
10.3420309893
 20
8.9284930336
 30
0.0
 10
10.3429718175
 20
8.928140147
 30
0.0
 10
10.3441008113
 20
8.9277166829
 30
0.0
 10
10.3456061364
 20
8.9271520642
 30
0.0
 10
10.3474877928
 20
8.9264462908
 30
0.0
 10
10.3497457804
 20
8.9255993628
 30
0.0
 10
10.3520037681
 20
8.9247524347
 30
0.0
 10
10.3542617557
 20
8.9239055066
 30
0.0
 10
10.3565197433
 20
8.9230585785
 30
0.0
 10
10.358777731
 20
8.9222116505
 30
0.0
 10
10.3610357186
 20
8.9213647224
 30
0.0
 10
10.3632937062
 20
8.9205177943
 30
0.0
 10
10.3655516939
 20
8.9196708662
 30
0.0
 10
10.3674333502
 20
8.9189650928
 30
0.0
 10
10.3689386753
 20
8.9184004741
 30
0.0
 10
10.3700676691
 20
8.9179770101
 30
0.0
 10
10.3710084973
 20
8.9176241234
 30
0.0
 10
10.3717611599
 20
8.9173418141
 30
0.0
 10
10.3723256567
 20
8.9171300818
 30
0.0
 10
10.3728901539
 20
8.9169183507
 30
0.0
 10
10.3733605671
 20
8.9167419046
 30
0.0
 10
10.3737369001
 20
8.9166007556
 30
0.0
 10
10.3739721028
 20
8.9165125194
 30
0.0
 10
10.3741602774
 20
8.9164419719
 30
0.0
 10
10.3743013742
 20
8.9163889477
 30
0.0
 10
10.3744190637
 20
8.9163451223
 30
0.0
 10
10.3745012326
 20
8.9163137351
 30
0.0
 10
10.3745485201
 20
8.9162969073
 30
0.0
 10
10.3745830453
 20
8.9162811657
 30
0.0
 10
10.3746211653
 20
8.9162773534
 30
0.0
 10
10.374670738
 20
8.9162681093
 30
0.0
 10
10.3747580745
 20
8.9162538708
 30
0.0
 10
10.3748825355
 20
8.9162325165
 30
0.0
 10
10.3750320195
 20
8.9162073252
 30
0.0
 10
10.3752312858
 20
8.9161735852
 30
0.0
 10
10.3754803842
 20
8.9161314621
 30
0.0
 10
10.3758789331
 20
8.9160640362
 30
0.0
 10
10.3763771221
 20
8.9159797638
 30
0.0
 10
10.3769749477
 20
8.9158786326
 30
0.0
 10
10.3775727736
 20
8.9157775026
 30
0.0
 10
10.3783698747
 20
8.9156426621
 30
0.0
 10
10.3793662511
 20
8.9154741117
 30
0.0
 10
10.3805619027
 20
8.9152718511
 30
0.0
 10
10.3821561049
 20
8.9150021703
 30
0.0
 10
10.3841488577
 20
8.9146650694
 30
0.0
 10
10.386540161
 20
8.9142605482
 30
0.0
 10
10.3889314644
 20
8.9138560271
 30
0.0
 10
10.3913227677
 20
8.9134515059
 30
0.0
 10
10.3945111721
 20
8.9129121444
 30
0.0
 10
10.3984966777
 20
8.9122379425
 30
0.0
 10
10.4032792843
 20
8.9114289002
 30
0.0
 10
10.408061891
 20
8.9106198579
 30
0.0
 10
10.4112502954
 20
8.9100804964
 30
0.0
 10
10.4128444976
 20
8.9098108156
 30
0.0
  0
ENDSEC
  0
SECTION
  2
OBJECTS
  0
DICTIONARY
  5
C
100
AcDbDictionary
280
0
281
1
  3
ACAD_GROUP
350
D
  3
ACAD_MLINESTYLE
350
17
  3
ACAD_LAYOUT
350
1A
  3
ACAD_PLOTSETTINGS
350
19
  3
ACAD_PLOTSTYLENAME
350
E
  3
ACAD_IMAGE_DICT
350
       39A
  3
ACAD_IMAGE_VARS
350
       39B
  3
ACAD_TABLESTYLE
350
       39C
  0
IMAGEDEF_REACTOR
  5
399
100
AcDbRasterImageDefReactor
 90
2
330
296
  0
DICTIONARY
  5
D
102
{ACAD_REACTORS
330
C
102
}
100
AcDbDictionary
280
0
281
1
  0
ACDBDICTIONARYWDFLT
  5
E
102
{ACAD_REACTORS
330
C
102
}
100
AcDbDictionary
281
1
  3
Normal
350
F
100
AcDbDictionaryWithDefault
340
F
  0
DICTIONARY
  5
39A
330
C
100
AcDbDictionary
281
1
  3
E6U_assy_2_img_1
350
       39F
  0
RASTERVARIABLES
  5
39B
330
C
100
AcDbRasterVariables
 90
0
 70
0
 71
1
 72
5
  0
DICTIONARY
  5
17
102
{ACAD_REACTORS
330
C
102
}
100
AcDbDictionary
280
0
281
1
  3
Standard
350
18
  0
DICTIONARY
  5
39C
330
C
100
AcDbDictionary
281
1
  3
Standard
350
       3A0
  3
Standard1
350
       3A1
  0
DICTIONARY
  5
19
102
{ACAD_REACTORS
330
C
102
}
100
AcDbDictionary
281
1
  0
DICTIONARY
  5
1A
102
{ACAD_REACTORS
330
C
102
}
100
AcDbDictionary
281
1
  3
Model
350
39D
  3
Layout1
350
39E
  0
ACDBPLACEHOLDER
  5
F
102
{ACAD_REACTORS
330
E
102
}
  0
MLINESTYLE
  5
18
102
{ACAD_REACTORS
330
17
102
}
100
AcDbMlineStyle
  2
STANDARD
 70
0
  3

 62
256
 51
90.0
 52
90.0
 71
2
 49
0.5
 62
256
  6
BYLAYER
 49
-0.5
 62
256
  6
BYLAYER
  0
LAYOUT
  5
39D
102
{ACAD_REACTORS
330
1A
102
}
100
AcDbPlotSettings
  1

  2
none_device
  4
ANSI_C_(22.00_x_17.00_Inches)
  6

 40
0.0
 41
0.0
 42
0.0
 43
0.0
 44
558.8
 45
431.8
 46
0.0
 47
0.0
 48
0.0
 49
0.0
140
0.0
141
0.0
142
1.0
143
1.0
 70
1024
 72
0
 73
0
 74
0
  7

 75
0
147
1.0
148
0.0
149
0.0
100
AcDbLayout
  1
Model
 70
0
 71
0
 10
0.0
 20
0.0
 11
22.0
 21
17.0
 12
0.0
 22
0.0
 32
0.0
 14
0.0
 24
0.0
 34
0.0
 15
0.0
 25
0.0
 35
0.0
146
0.0
 13
0.0
 23
0.0
 33
0.0
 16
1.0
 26
0.0
 36
0.0
 17
0.0
 27
1.0
 37
0.0
 76
0
330
20C
345
0
346
0
  0
LAYOUT
  5
39E
102
{ACAD_REACTORS
330
1A
102
}
100
AcDbPlotSettings
  1

  2
none_device
  4
ANSI_C_(22.00_x_17.00_Inches)
  6

 40
0.0
 41
0.0
 42
0.0
 43
0.0
 44
558.8
 45
431.8
 46
0.0
 47
0.0
 48
0.0
 49
0.0
140
0.0
141
0.0
142
1.0
143
1.0
 70
0
 72
0
 73
0
 74
0
  7

 75
0
147
1.0
148
0.0
149
0.0
100
AcDbLayout
  1
Layout1
 70
0
 71
1
 10
0.0
 20
0.0
 11
22.0
 21
17.0
 12
0.0
 22
0.0
 32
0.0
 14
0.0
 24
0.0
 34
0.0
 15
0.0
 25
0.0
 35
0.0
146
0.0
 13
0.0
 23
0.0
 33
0.0
 16
1.0
 26
0.0
 36
0.0
 17
0.0
 27
1.0
 37
0.0
 76
0
330
20D
345
0
346
0
  0
IMAGEDEF
  5
39F
102
{ACAD_REACTORS
330
39A
330
399
102
}
100
AcDbRasterImageDef
 90
0
  1
E6U_assy_2_img_1.png
 10
369.0
 20
92.0
 11
0.0066666667
 21
0.0066666667
280
1
281
0
  0
TABLESTYLE
  5
3A0
102
{ACAD_REACTORS
330
39C
330
299
330
29A
102
}
330
39C
100
AcDbTableStyle
  3
Standard
 70
0
 71
0
 40
0.06
 41
0.06
280
1
281
1
  7
Standard
140
0.18
170
1
 62
0
 63
7
283
0
  7
Standard
140
0.18
170
1
 62
0
 63
7
283
0
  7
Standard
140
0.18
170
1
 62
0
 63
7
283
0
  0
TABLESTYLE
  5
3A1
102
{ACAD_REACTORS
330
39C
330
298
102
}
330
39C
100
AcDbTableStyle
  3
Standard1
 70
1
 71
0
 40
0.06
 41
0.06
280
1
281
1
  7
Standard
140
0.18
170
1
 62
0
 63
7
283
0
  7
Standard
140
0.18
170
1
 62
0
 63
7
283
0
  7
Standard
140
0.18
170
1
 62
0
 63
7
283
0
  0
ENDSEC
  0
EOF
