999
DXF file: E6K_assy_2.dxf
999
Pro/ENGINEER 2014200 by Parametric Technology Corporation
  0
SECTION
  2
HEADER
  9
$ACADVER
  1
AC1021
  9
$DWGCODEPAGE
  3
ANSI_1252
  9
$EXTMAX
 10
22.0
 20
17.0
 30
0.0
  9
$EXTMIN
 10
0.0
 20
0.0
 30
0.0
  9
$LIMMIN
 10
0.0
 20
0.0
  9
$LIMMAX
 10
22.0
 20
17.0
  9
$VIEWCTR
 10
11.0
 20
8.5
  9
$VIEWSIZE
 40
17.0
  9
$CLAYER
  8
0
  9
$LTSCALE
 40
1.21
  9
$CELTYPE
  6
BYLAYER
  9
$DIMSCALE
 40
1.0
  9
$DIMASZ
 40
0.1875
  9
$DIMEXO
 40
0.0625
  9
$DIMDLI
 40
0.836
  9
$DIMEXE
 40
0.125
  9
$DIMCEN
 40
0.198
  9
$DIMLFAC
 40
1.0
  9
$DIMBLK
  1
_FILLED
  9
$DIMTXT
 40
0.1
  9
$DIMTOL
 70
0
  9
$DIMLIM
 70
0
  9
$DIMTFAC
 40
1.0
  9
$DIMGAP
 40
0.09
  9
$DIMDSEP
 70
46
  9
$AUNITS
 70
0
  9
$PDMODE
 70
3
  9
$PDSIZE
 40
0.3125
  9
$HANDSEED
  5
38A
  9
$TILEMODE
 70
1
  9
$MEASUREMENT
 70
0
  9
$INSUNITS
 70
1
  0
ENDSEC
  0
SECTION
  2
CLASSES
  0
CLASS
  1
ACDBDICTIONARYWDFLT
  2
AcDbDictionaryWithDefault
  3
AutoCAD 2000
 90
0
 91
1
280
0
281
0
  0
CLASS
  1
ACDBPLACEHOLDER
  2
AcDbPlaceHolder
  3
AutoCAD 2000
 90
0
 91
1
280
0
281
0
  0
CLASS
  1
LAYOUT
  2
AcDbLayout
  3
AutoCAD 2000
 90
0
 91
0
280
0
281
0
  0
CLASS
  1
RASTERVARIABLES
  2
AcDbRasterVariables
  3
ISM
 90
0
 91
1
280
0
281
0
  0
CLASS
  1
IMAGEDEF
  2
AcDbRasterImageDef
  3
ISM
 90
0
 91
1
280
0
281
0
  0
CLASS
  1
IMAGEDEF_REACTOR
  2
AcDbRasterImageDefReactor
  3
ISM
 90
0
 91
1
280
0
281
0
  0
CLASS
  1
IMAGE
  2
AcDbRasterImage
  3
ISM
 90
127
 91
1
280
0
281
1
  0
CLASS
  1
TABLESTYLE
  2
AcDbTableStyle
  3
ObjectDBX Classes
 90
2047
 91
1
280
0
281
0
  0
CLASS
  1
ACAD_TABLE
  2
AcDbTable
  3
ObjectDBX Classes
 90
1025
 91
3
280
0
281
1
  0
ENDSEC
  0
SECTION
  2
TABLES
  0
TABLE
  2
VPORT
  5
8
100
AcDbSymbolTable
 70
2
  0
VPORT
  5
1F4
100
AcDbSymbolTableRecord
100
AcDbViewportTableRecord
  2
*ACTIVE
 70
0
 10
0.0
 20
0.0
 11
1.0
 21
1.0
 12
11.0
 22
8.5
 13
0.0
 23
0.0
 14
1.0
 24
1.0
 15
0.0
 25
0.0
 16
0.0
 26
0.0
 36
1.0
 17
0.0
 27
0.0
 37
0.0
 40
17.0
 41
1.2941176471
 42
50.0
 43
0.0
 44
0.0
 50
0.0
 51
0.0
 71
0
 72
100
 73
1
 74
1
 75
0
 76
0
 77
0
 78
0
  0
ENDTAB
  0
TABLE
  2
LTYPE
  5
5
100
AcDbSymbolTable
 70
6
  0
LTYPE
  5
14
100
AcDbSymbolTableRecord
100
AcDbLinetypeTableRecord
  2
BYBLOCK
 70
0
  3

 72
65
 73
0
 40
0.0
  0
LTYPE
  5
15
100
AcDbSymbolTableRecord
100
AcDbLinetypeTableRecord
  2
BYLAYER
 70
0
  3

 72
65
 73
0
 40
0.0
  0
LTYPE
  5
16
100
AcDbSymbolTableRecord
100
AcDbLinetypeTableRecord
  2
CONTINUOUS
 70
64
  3
Solid line
 72
65
 73
0
 40
0.0
  0
LTYPE
  5
1F5
100
AcDbSymbolTableRecord
100
AcDbLinetypeTableRecord
  2
CENTER
 70
64
  3
____ _ ____ _ ____ _ ____ _ ____ _ ____ _ ____
 72
65
 73
4
 40
0.6
 49
0.375
 74
0
 49
-0.075
 74
0
 49
0.075
 74
0
 49
-0.075
 74
0
  0
LTYPE
  5
1F6
100
AcDbSymbolTableRecord
100
AcDbLinetypeTableRecord
  2
HIDDEN
 70
64
  3
- - - - - - - - - - - - - - - - - - - -
 72
65
 73
2
 40
0.2
 49
0.1
 74
0
 49
-0.1
 74
0
  0
LTYPE
  5
1F7
100
AcDbSymbolTableRecord
100
AcDbLinetypeTableRecord
  2
PHANTOM
 70
64
  3
_____ _ _ _____ _ _ _____ _ _ _____
 72
65
 73
6
 40
0.8
 49
0.45
 74
0
 49
-0.05
 74
0
 49
0.1
 74
0
 49
-0.05
 74
0
 49
0.1
 74
0
 49
-0.05
 74
0
  0
LTYPE
  5
1F8
100
AcDbSymbolTableRecord
100
AcDbLinetypeTableRecord
  2
DOT
 70
64
  3
. . . . . . . . . . . . . . . . . . . .
 72
65
 73
2
 40
0.2
 49
0.1
 74
0
 49
-0.1
 74
0
  0
LTYPE
  5
1F9
100
AcDbSymbolTableRecord
100
AcDbLinetypeTableRecord
  2
DASHED
 70
64
  3
- - - - - - - - - - - - - - - - - - - -
 72
65
 73
2
 40
0.2
 49
0.1
 74
0
 49
-0.1
 74
0
  0
ENDTAB
  0
TABLE
  2
LAYER
  5
2
100
AcDbSymbolTable
 70
36
  0
LAYER
  5
10
100
AcDbSymbolTableRecord
100
AcDbLayerTableRecord
  2
0
 70
0
 62
7
  6
CONTINUOUS
370
-3
390
F
  0
LAYER
  5
1FA
100
AcDbSymbolTableRecord
100
AcDbLayerTableRecord
  2
DEFAULT_1
 70
0
 62
7
  6
CENTER
370
-3
390
F
  0
LAYER
  5
1FB
100
AcDbSymbolTableRecord
100
AcDbLayerTableRecord
  2
DEFAULT_2
 70
0
 62
8
  6
HIDDEN
370
-3
390
F
  0
LAYER
  5
1FC
100
AcDbSymbolTableRecord
100
AcDbLayerTableRecord
  2
DEFAULT_3
 70
0
 62
7
  6
PHANTOM
370
-3
390
F
  0
LAYER
  5
1FD
100
AcDbSymbolTableRecord
100
AcDbLayerTableRecord
  2
01___PRT_ALL_DTM_PLN
 70
0
 62
7
  6
CONTINUOUS
370
-3
390
F
  0
LAYER
  5
1FE
100
AcDbSymbolTableRecord
100
AcDbLayerTableRecord
  2
01___PRT_DEF_DTM_PLN
 70
0
 62
7
  6
CONTINUOUS
370
-3
390
F
  0
LAYER
  5
1FF
100
AcDbSymbolTableRecord
100
AcDbLayerTableRecord
  2
02___PRT_ALL_AXES
 70
0
 62
7
  6
CONTINUOUS
370
-3
390
F
  0
LAYER
  5
200
100
AcDbSymbolTableRecord
100
AcDbLayerTableRecord
  2
03___PRT_ALL_CURVES
 70
0
 62
7
  6
CONTINUOUS
370
-3
390
F
  0
LAYER
  5
201
100
AcDbSymbolTableRecord
100
AcDbLayerTableRecord
  2
04___PRT_ALL_DTM_PNT
 70
0
 62
7
  6
CONTINUOUS
370
-3
390
F
  0
LAYER
  5
202
100
AcDbSymbolTableRecord
100
AcDbLayerTableRecord
  2
05___PRT_ALL_DTM_CSYS
 70
0
 62
7
  6
CONTINUOUS
370
-3
390
F
  0
LAYER
  5
203
100
AcDbSymbolTableRecord
100
AcDbLayerTableRecord
  2
05___PRT_DEF_DTM_CSYS
 70
0
 62
7
  6
CONTINUOUS
370
-3
390
F
  0
LAYER
  5
204
100
AcDbSymbolTableRecord
100
AcDbLayerTableRecord
  2
06___PRT_ALL_SURFS
 70
0
 62
7
  6
CONTINUOUS
370
-3
390
F
  0
LAYER
  5
205
100
AcDbSymbolTableRecord
100
AcDbLayerTableRecord
  2
DATUM_PLANES
 70
0
 62
7
  6
CONTINUOUS
370
-3
390
F
  0
LAYER
  5
206
100
AcDbSymbolTableRecord
100
AcDbLayerTableRecord
  2
PORT_AREAS
 70
0
 62
7
  6
CONTINUOUS
370
-3
390
F
  0
LAYER
  5
207
100
AcDbSymbolTableRecord
100
AcDbLayerTableRecord
  2
SUNNBOMCOSMETIC
 70
0
 62
7
  6
CONTINUOUS
370
-3
390
F
  0
LAYER
  5
208
100
AcDbSymbolTableRecord
100
AcDbLayerTableRecord
  2
SUNNBOMSTAMPING
 70
0
 62
7
  6
CONTINUOUS
370
-3
390
F
  0
LAYER
  5
209
100
AcDbSymbolTableRecord
100
AcDbLayerTableRecord
  2
THREADS
 70
0
 62
7
  6
CONTINUOUS
370
-3
390
F
  0
ENDTAB
  0
TABLE
  2
STYLE
  5
3
100
AcDbSymbolTable
 70
1
  0
STYLE
  5
11
100
AcDbSymbolTableRecord
100
AcDbTextStyleTableRecord
  2
STANDARD
 70
0
 40
0.0
 41
0.8
 50
0.0
 71
0
 42
0.2
  3
txt
  4

  0
STYLE
  5
20A
100
AcDbSymbolTableRecord
100
AcDbTextStyleTableRecord
  2
TEXTSTYLE_1
 70
0
 40
0.0
 41
0.8
 50
0.0
 71
0
 42
0.2
  3
gdt
  4

  0
ENDTAB
  0
TABLE
  2
VIEW
  5
6
100
AcDbSymbolTable
 70
0
  0
ENDTAB
  0
TABLE
  2
UCS
  5
7
100
AcDbSymbolTable
 70
0
  0
ENDTAB
  0
TABLE
  2
APPID
  5
9
100
AcDbSymbolTable
 70
1
  0
APPID
  5
20B
100
AcDbSymbolTableRecord
100
AcDbRegAppTableRecord
  2
ACAD
 70
0
  0
ENDTAB
  0
TABLE
  2
BLOCK_RECORD
  5
1
100
AcDbSymbolTable
 70
0
  0
BLOCK_RECORD
  5
20C
100
AcDbSymbolTableRecord
100
AcDbBlockTableRecord
  2
*Model_Space
  0
BLOCK_RECORD
  5
20D
100
AcDbSymbolTableRecord
100
AcDbBlockTableRecord
  2
*Paper_Space
  0
BLOCK_RECORD
  5
20E
100
AcDbSymbolTableRecord
100
AcDbBlockTableRecord
  2
SUN_FIRST_THIRD_ANGLE_BL0
  0
BLOCK_RECORD
  5
20F
100
AcDbSymbolTableRecord
100
AcDbBlockTableRecord
  2
*T1
  0
BLOCK_RECORD
  5
210
100
AcDbSymbolTableRecord
100
AcDbBlockTableRecord
  2
*T2
  0
BLOCK_RECORD
  5
211
100
AcDbSymbolTableRecord
100
AcDbBlockTableRecord
  2
*T3
  0
ENDTAB
  0
TABLE
  2
DIMSTYLE
  5
A
100
AcDbSymbolTable
 70
1
100
AcDbDimStyleTable
 71
0
  0
DIMSTYLE
105
212
100
AcDbSymbolTableRecord
100
AcDbDimStyleTableRecord
  2
STANDARD
 70
0
  3

  4

 40
1.0
 41
0.1875
 42
0.0625
 43
0.38
 44
0.125
 45
0.0
 46
0.0
 47
0.001
 48
0.001
140
0.1
141
0.09
142
0.0
143
25.4
144
1.0
145
0.0
146
1.0
147
0.09
 71
0.0
 72
0.0
 73
1
 74
1
 75
0
 76
0
 77
0
 78
4
170
0
171
2
172
0
173
0
174
0
175
0
176
0
177
0
178
0
270
2
271
3
272
3
273
2
274
2
275
0
280
0
281
0
282
0
283
1
284
4
285
0
286
0
287
3
288
0
340
11
278
46
  0
ENDTAB
  0
ENDSEC
  0
SECTION
  2
BLOCKS
  0
BLOCK
  5
20
100
AcDbEntity
  8
0
100
AcDbBlockBegin
  2
*Model_Space
 70
0
 10
0.0
 20
0.0
 30
0.0
  3
*Model_Space
  1

  0
ENDBLK
  5
21
100
AcDbEntity
  8
0
100
AcDbBlockEnd
  0
BLOCK
  5
1C
100
AcDbEntity
  8
0
100
AcDbBlockBegin
  2
*Paper_Space
 70
0
 10
0.0
 20
0.0
 30
0.0
  3
*Paper_Space
  1

  0
ENDBLK
  5
1D
100
AcDbEntity
  8
0
100
AcDbBlockEnd
  0
BLOCK
  5
213
100
AcDbEntity
  8
0
100
AcDbBlockBegin
 62
2
  6
CONTINUOUS
  2
SUN_FIRST_THIRD_ANGLE_BL0
 70
64
 10
20.4816717061
 20
1.2289683772
  3
SUN_FIRST_THIRD_ANGLE_BL0
  1

  0
TEXT
  5
214
100
AcDbEntity
  8
0
100
AcDbText
 62
2
  6
CONTINUOUS
 10
19.4750896608
 20
1.4136269581
  7
STANDARD
 40
0.08
  1
FIRST ANGLE
 41
0.8
 72
0
100
AcDbText
  0
TEXT
  5
215
100
AcDbEntity
  8
0
100
AcDbText
 62
2
  6
CONTINUOUS
 10
20.7842537513
 20
1.4047600029
  7
STANDARD
 40
0.08
  1
THIRD ANGLE
 41
0.8
 72
0
100
AcDbText
  0
LINE
  5
216
100
AcDbEntity
  8
0
100
AcDbLine
 62
7
  6
CONTINUOUS
 10
19.4767170086
 20
1.1727031207
 11
19.6334271527
 21
1.1717972817
  0
LINE
  5
217
100
AcDbEntity
  8
0
100
AcDbLine
 62
7
  6
CONTINUOUS
 10
19.6596964832
 20
1.1717972817
 11
19.6950230232
 21
1.171593082
  0
LINE
  5
218
100
AcDbEntity
  8
0
100
AcDbLine
 62
7
  6
CONTINUOUS
 10
19.7194818561
 20
1.1708914427
 11
19.8852396156
 21
1.1699333054
  0
LINE
  5
219
100
AcDbEntity
  8
0
100
AcDbLine
 62
7
  6
CONTINUOUS
 10
19.4758111696
 20
1.2723454088
 11
19.88525039
 21
1.3511534004
  0
LINE
  5
21A
100
AcDbEntity
  8
0
100
AcDbLine
 62
7
  6
CONTINUOUS
 10
19.88525039
 20
1.3511534004
 11
19.8831348489
 21
0.9851647912
  0
LINE
  5
21B
100
AcDbEntity
  8
0
100
AcDbLine
 62
7
  6
CONTINUOUS
 10
19.8831348489
 20
0.9851647912
 11
19.4767170086
 21
1.0658141206
  0
LINE
  5
21C
100
AcDbEntity
  8
0
100
AcDbLine
 62
7
  6
CONTINUOUS
 10
19.4767170086
 20
1.0658141206
 11
19.4779056764
 21
1.2714536432
  0
CIRCLE
  5
21D
100
AcDbEntity
  8
0
100
AcDbCircle
 62
7
  6
CONTINUOUS
 10
20.2068232291
 20
1.1717972817
 40
0.175742101
  0
CIRCLE
  5
21E
100
AcDbEntity
  8
0
100
AcDbCircle
 62
7
  6
CONTINUOUS
 10
20.2068232291
 20
1.1717972817
 40
0.1005522074
  0
LINE
  5
21F
100
AcDbEntity
  8
0
100
AcDbLine
 62
7
  6
CONTINUOUS
 10
20.2077290681
 20
1.3756110529
 11
20.2071171714
 21
1.2379342989
  0
LINE
  5
220
100
AcDbEntity
  8
0
100
AcDbLine
 62
7
  6
CONTINUOUS
 10
20.2077290681
 20
1.2016899681
 11
20.2074674401
 21
1.1428236749
  0
LINE
  5
221
100
AcDbEntity
  8
0
100
AcDbLine
 62
7
  6
CONTINUOUS
 10
20.208634907
 20
1.101141841
 11
20.2080230104
 21
0.963465087
  0
LINE
  5
222
100
AcDbEntity
  8
0
100
AcDbLine
 62
7
  6
CONTINUOUS
 10
20.0066328138
 20
1.1745147986
 11
20.1443095678
 21
1.1739029019
  0
LINE
  5
223
100
AcDbEntity
  8
0
100
AcDbLine
 62
7
  6
CONTINUOUS
 10
20.1832714155
 20
1.1727031207
 11
20.238153505
 21
1.172335442
  0
LINE
  5
224
100
AcDbEntity
  8
0
100
AcDbLine
 62
7
  6
CONTINUOUS
 10
20.2756669918
 20
1.1717972817
 11
20.407916871
 21
1.1712095044
  0
CIRCLE
  5
225
100
AcDbEntity
  8
0
100
AcDbCircle
 62
7
  6
CONTINUOUS
 10
20.7509457401
 20
1.1693297793
 40
0.1722024983
  0
CIRCLE
  5
226
100
AcDbEntity
  8
0
100
AcDbCircle
 62
7
  6
CONTINUOUS
 10
20.7509457401
 20
1.1693297793
 40
0.0985164967
  0
LINE
  5
227
100
AcDbEntity
  8
0
100
AcDbLine
 62
7
  6
CONTINUOUS
 10
20.7169767782
 20
1.170462078
 11
20.7825395137
 21
1.1682766535
  0
LINE
  5
228
100
AcDbEntity
  8
0
100
AcDbLine
 62
7
  6
CONTINUOUS
 10
20.8177513651
 20
1.1693297793
 11
20.947965719
 21
1.1693297793
  0
LINE
  5
229
100
AcDbEntity
  8
0
100
AcDbLine
 62
7
  6
CONTINUOUS
 10
20.6875370113
 20
1.170462078
 11
20.5573226574
 21
1.170462078
  0
LINE
  5
22A
100
AcDbEntity
  8
0
100
AcDbLine
 62
7
  6
CONTINUOUS
 10
20.7486811426
 20
1.1987695462
 11
20.7486811426
 21
1.1432869085
  0
LINE
  5
22B
100
AcDbEntity
  8
0
100
AcDbLine
 62
7
  6
CONTINUOUS
 10
20.7498134414
 20
1.1059210505
 11
20.7498134414
 21
0.9757066966
  0
LINE
  5
22C
100
AcDbEntity
  8
0
100
AcDbLine
 62
7
  6
CONTINUOUS
 10
20.7486811426
 20
1.2338708068
 11
20.7486811426
 21
1.3640851607
  0
LINE
  5
22D
100
AcDbEntity
  8
0
100
AcDbLine
 62
7
  6
CONTINUOUS
 10
21.0702539817
 20
1.2701043662
 11
21.4790138229
 21
1.3448360823
  0
LINE
  5
22E
100
AcDbEntity
  8
0
100
AcDbLine
 62
7
  6
CONTINUOUS
 10
21.4790138229
 20
1.3448360823
 11
21.4790138229
 21
0.9779712941
  0
LINE
  5
22F
100
AcDbEntity
  8
0
100
AcDbLine
 62
7
  6
CONTINUOUS
 10
21.4790138229
 20
0.9779712941
 11
21.069121683
 21
1.0617614
  0
LINE
  5
230
100
AcDbEntity
  8
0
100
AcDbLine
 62
7
  6
CONTINUOUS
 10
21.0702539817
 20
1.2701043662
 11
21.069121683
 21
1.0617614
  0
LINE
  5
231
100
AcDbEntity
  8
0
100
AcDbLine
 62
7
  6
CONTINUOUS
 10
21.4790138229
 20
1.1693297793
 11
21.3159628059
 21
1.1693297793
  0
LINE
  5
232
100
AcDbEntity
  8
0
100
AcDbLine
 62
7
  6
CONTINUOUS
 10
21.2876553377
 20
1.1693297793
 11
21.2502894796
 21
1.1693297793
  0
LINE
  5
233
100
AcDbEntity
  8
0
100
AcDbLine
 62
7
  6
CONTINUOUS
 10
21.2208497126
 20
1.1659328831
 11
21.0713862804
 21
1.1659328831
  0
LINE
  5
234
100
AcDbEntity
  8
0
100
AcDbLine
 62
7
  6
CONTINUOUS
 10
20.4796138713
 20
1.5284908897
 11
20.4766766948
 21
0.9294458646
  0
ENDBLK
  5
235
100
AcDbEntity
  8
0
  6
BYBLOCK
 62
0
100
AcDbBlockEnd
  0
BLOCK
  5
236
100
AcDbEntity
  8
0
100
AcDbBlockBegin
  2
*T1
 70
1
 10
0.0
 20
0.0
  3
*T1
  1

  0
LINE
  5
237
100
AcDbEntity
  8
0
100
AcDbLine
 62
2
  6
CONTINUOUS
 10
9.275
 20
0.0
 11
-0.0
 21
0.0
  0
LINE
  5
238
100
AcDbEntity
  8
0
100
AcDbLine
 62
2
  6
CONTINUOUS
 10
9.275
 20
0.0
 11
9.275
 21
1.25
  0
LINE
  5
239
100
AcDbEntity
  8
0
100
AcDbLine
 62
2
  6
CONTINUOUS
 10
9.275
 20
0.625
 11
-0.0
 21
0.625
  0
LINE
  5
23A
100
AcDbEntity
  8
0
100
AcDbLine
 62
2
  6
CONTINUOUS
 10
9.275
 20
1.25
 11
-0.0
 21
1.25
  0
LINE
  5
23B
100
AcDbEntity
  8
0
100
AcDbLine
 62
2
  6
CONTINUOUS
 10
6.8
 20
0.0
 11
6.8
 21
1.25
  0
LINE
  5
23C
100
AcDbEntity
  8
0
100
AcDbLine
 62
2
  6
CONTINUOUS
 10
6.4
 20
0.0
 11
6.4
 21
0.625
  0
LINE
  5
23D
100
AcDbEntity
  8
0
100
AcDbLine
 62
2
  6
CONTINUOUS
 10
5.9
 20
0.0
 11
5.9
 21
0.625
  0
LINE
  5
23E
100
AcDbEntity
  8
0
100
AcDbLine
 62
2
  6
CONTINUOUS
 10
5.2
 20
0.0
 11
5.2
 21
0.625
  0
LINE
  5
23F
100
AcDbEntity
  8
0
100
AcDbLine
 62
2
  6
CONTINUOUS
 10
4.1
 20
0.0
 11
4.1
 21
1.25
  0
LINE
  5
240
100
AcDbEntity
  8
0
100
AcDbLine
 62
2
  6
CONTINUOUS
 10
-0.0
 20
0.0
 11
-0.0
 21
1.25
  0
MTEXT
  5
241
100
AcDbEntity
  8
0
100
AcDbMText
 62
2
  6
CONTINUOUS
  7
STANDARD
 71
2
 72
1
 10
6.6
 20
0.325
 30
0.0
 11
1.0
 21
0.0
 31
0.0
 44
0.9
  1
2
 40
0.125
 41
0.2
  0
MTEXT
  5
242
100
AcDbEntity
  8
0
100
AcDbMText
 62
2
  6
CONTINUOUS
  7
STANDARD
 71
2
 72
1
 10
6.15
 20
0.325
 30
0.0
 11
1.0
 21
0.0
 31
0.0
 44
0.9
  1
C
 40
0.125
 41
0.2
  0
MTEXT
  5
243
100
AcDbEntity
  8
0
100
AcDbMText
 62
2
  6
CONTINUOUS
  7
STANDARD
 71
2
 72
1
 10
5.55
 20
0.325
 30
0.0
 11
1.0
 21
0.0
 31
0.0
 44
0.9
  1
1.000
 40
0.125
 41
1.0
  0
MTEXT
  5
244
100
AcDbEntity
  8
0
100
AcDbMText
 62
2
  6
CONTINUOUS
  7
STANDARD
 71
2
 72
1
 10
4.65
 20
0.325
 30
0.0
 11
1.0
 21
0.0
 31
0.0
 44
0.9
  1
Sep-12-23
 40
0.125
 41
1.8
  0
MTEXT
  5
245
100
AcDbEntity
  8
0
100
AcDbMText
 62
2
  6
CONTINUOUS
  7
STANDARD
 71
2
 72
1
 10
2.05
 20
0.4625
 30
0.0
 11
1.0
 21
0.0
 31
0.0
 44
0.9
  1
T-11A Line mount\P(See Technical Data for Body Features)
 40
0.125
 41
7.6
  0
MTEXT
  5
246
100
AcDbEntity
  8
0
100
AcDbMText
 62
2
  6
CONTINUOUS
  7
STANDARD
 71
1
 72
1
 10
6.45
 20
0.5625
 30
0.0
 11
1.0
 21
0.0
 31
0.0
 44
0.9
  1
SHEET
 40
0.06
 41
0.48
  0
MTEXT
  5
247
100
AcDbEntity
  8
0
100
AcDbMText
 62
2
  6
CONTINUOUS
  7
STANDARD
 71
1
 72
1
 10
5.95
 20
0.5625
 30
0.0
 11
1.0
 21
0.0
 31
0.0
 44
0.9
  1
DWG SIZE
 40
0.06
 41
0.768
  0
MTEXT
  5
248
100
AcDbEntity
  8
0
100
AcDbMText
 62
2
  6
CONTINUOUS
  7
STANDARD
 71
1
 72
1
 10
5.25
 20
0.5625
 30
0.0
 11
1.0
 21
0.0
 31
0.0
 44
0.9
  1
SCALE
 40
0.06
 41
0.48
  0
MTEXT
  5
249
100
AcDbEntity
  8
0
100
AcDbMText
 62
2
  6
CONTINUOUS
  7
STANDARD
 71
1
 72
1
 10
4.15
 20
0.5625
 30
0.0
 11
1.0
 21
0.0
 31
0.0
 44
0.9
  1
DATE
 40
0.06
 41
0.384
  0
MTEXT
  5
24A
100
AcDbEntity
  8
0
100
AcDbMText
 62
2
  6
CONTINUOUS
  7
STANDARD
 71
1
 72
1
 10
0.05
 20
0.5625
 30
0.0
 11
1.0
 21
0.0
 31
0.0
 44
0.9
  1
DESCRIPTION
 40
0.06
 41
1.056
  0
MTEXT
  5
24B
100
AcDbEntity
  8
0
100
AcDbMText
 62
2
  6
CONTINUOUS
  7
STANDARD
 71
2
 72
1
 10
5.45
 20
1.0375
 30
0.0
 11
1.0
 21
0.0
 31
0.0
 44
0.9
  1
ALL DIMENSIONS IN INCH\PVIEWS ARE THIRD ANGLE
 40
0.12
 41
4.224
  0
MTEXT
  5
24C
100
AcDbEntity
  8
0
100
AcDbMText
 62
2
  6
CONTINUOUS
  7
STANDARD
 71
2
 72
1
 10
2.05
 20
0.95
 30
0.0
 11
1.0
 21
0.0
 31
0.0
 44
0.9
  1
E6K
 40
0.125
 41
0.6
  0
MTEXT
  5
24D
100
AcDbEntity
  8
0
100
AcDbMText
 62
2
  6
CONTINUOUS
  7
STANDARD
 71
1
 72
1
 10
0.05
 20
1.1875
 30
0.0
 11
1.0
 21
0.0
 31
0.0
 44
0.9
  1
MODEL
 40
0.06
 41
0.48
  0
ENDBLK
  5
24E
100
AcDbEntity
  8
0
  6
BYBLOCK
 62
0
100
AcDbBlockEnd
  0
BLOCK
  5
24F
100
AcDbEntity
  8
0
100
AcDbBlockBegin
  2
*T2
 70
1
 10
0.0
 20
0.0
  3
*T2
  1

  0
LINE
  5
250
100
AcDbEntity
  8
0
100
AcDbLine
 62
2
  6
CONTINUOUS
 10
0.0
 20
0.0
 11
9.055
 21
0.0
  0
LINE
  5
251
100
AcDbEntity
  8
0
100
AcDbLine
 62
2
  6
CONTINUOUS
 10
0.0
 20
0.0
 11
0.0
 21
-3.094
  0
LINE
  5
252
100
AcDbEntity
  8
0
100
AcDbLine
 62
2
  6
CONTINUOUS
 10
0.0
 20
-0.344
 11
9.055
 21
-0.344
  0
LINE
  5
253
100
AcDbEntity
  8
0
100
AcDbLine
 62
2
  6
CONTINUOUS
 10
0.0
 20
-0.594
 11
9.055
 21
-0.594
  0
LINE
  5
254
100
AcDbEntity
  8
0
100
AcDbLine
 62
2
  6
CONTINUOUS
 10
0.0
 20
-0.844
 11
9.055
 21
-0.844
  0
LINE
  5
255
100
AcDbEntity
  8
0
100
AcDbLine
 62
2
  6
CONTINUOUS
 10
0.0
 20
-1.094
 11
9.055
 21
-1.094
  0
LINE
  5
256
100
AcDbEntity
  8
0
100
AcDbLine
 62
2
  6
CONTINUOUS
 10
0.0
 20
-1.344
 11
9.055
 21
-1.344
  0
LINE
  5
257
100
AcDbEntity
  8
0
100
AcDbLine
 62
2
  6
CONTINUOUS
 10
0.0
 20
-1.594
 11
9.055
 21
-1.594
  0
LINE
  5
258
100
AcDbEntity
  8
0
100
AcDbLine
 62
2
  6
CONTINUOUS
 10
0.0
 20
-1.844
 11
9.055
 21
-1.844
  0
LINE
  5
259
100
AcDbEntity
  8
0
100
AcDbLine
 62
2
  6
CONTINUOUS
 10
0.0
 20
-2.094
 11
9.055
 21
-2.094
  0
LINE
  5
25A
100
AcDbEntity
  8
0
100
AcDbLine
 62
2
  6
CONTINUOUS
 10
0.0
 20
-2.344
 11
9.055
 21
-2.344
  0
LINE
  5
25B
100
AcDbEntity
  8
0
100
AcDbLine
 62
2
  6
CONTINUOUS
 10
0.0
 20
-2.594
 11
9.055
 21
-2.594
  0
LINE
  5
25C
100
AcDbEntity
  8
0
100
AcDbLine
 62
2
  6
CONTINUOUS
 10
0.0
 20
-2.844
 11
9.055
 21
-2.844
  0
LINE
  5
25D
100
AcDbEntity
  8
0
100
AcDbLine
 62
2
  6
CONTINUOUS
 10
0.0
 20
-3.094
 11
9.055
 21
-3.094
  0
LINE
  5
25E
100
AcDbEntity
  8
0
100
AcDbLine
 62
2
  6
CONTINUOUS
 10
3.055
 20
0.0
 11
3.055
 21
-3.094
  0
LINE
  5
25F
100
AcDbEntity
  8
0
100
AcDbLine
 62
2
  6
CONTINUOUS
 10
9.055
 20
0.0
 11
9.055
 21
-3.094
  0
MTEXT
  5
260
100
AcDbEntity
  8
0
100
AcDbMText
 62
2
  6
CONTINUOUS
  7
STANDARD
 71
2
 72
1
 10
1.5275
 20
-0.0995
 30
0.0
 11
1.0
 21
0.0
 31
0.0
 44
0.9
  1
Technical Data
 40
0.145
 41
3.248
  0
MTEXT
  5
261
100
AcDbEntity
  8
0
100
AcDbMText
 62
2
  6
CONTINUOUS
  7
STANDARD
 71
2
 72
1
 10
4.555
 20
-0.0995
 30
0.0
 11
1.0
 21
0.0
 31
0.0
 44
0.9
  1
U.S. Units
 40
0.145
 41
2.32
  0
MTEXT
  5
262
100
AcDbEntity
  8
0
100
AcDbMText
 62
2
  6
CONTINUOUS
  7
STANDARD
 71
2
 72
1
 10
7.555
 20
-0.0995
 30
0.0
 11
1.0
 21
0.0
 31
0.0
 44
0.9
  1
Metric Units
 40
0.145
 41
2.784
  0
MTEXT
  5
263
100
AcDbEntity
  8
0
100
AcDbMText
 62
2
  6
CONTINUOUS
  7
STANDARD
 71
2
 72
1
 10
1.5275
 20
-0.4065
 30
0.0
 11
1.0
 21
0.0
 31
0.0
 44
0.9
  1
Cavity
 40
0.125
 41
1.2
  0
MTEXT
  5
264
100
AcDbEntity
  8
0
100
AcDbMText
 62
2
  6
CONTINUOUS
  7
STANDARD
 71
2
 72
1
 10
6.055
 20
-0.4065
 30
0.0
 11
1.0
 21
0.0
 31
0.0
 44
0.9
  1
T-11A
 40
0.125
 41
1.0
  0
MTEXT
  5
265
100
AcDbEntity
  8
0
100
AcDbMText
 62
2
  6
CONTINUOUS
  7
STANDARD
 71
2
 72
1
 10
1.5275
 20
-0.6565
 30
0.0
 11
1.0
 21
0.0
 31
0.0
 44
0.9
  1
Body Features
 40
0.125
 41
2.6
  0
MTEXT
  5
266
100
AcDbEntity
  8
0
100
AcDbMText
 62
2
  6
CONTINUOUS
  7
STANDARD
 71
2
 72
1
 10
6.055
 20
-0.6565
 30
0.0
 11
1.0
 21
0.0
 31
0.0
 44
0.9
  1
Ninety degree with reverse flow check - sequence
 40
0.125
 41
9.6
  0
MTEXT
  5
267
100
AcDbEntity
  8
0
100
AcDbMText
 62
2
  6
CONTINUOUS
  7
STANDARD
 71
2
 72
1
 10
1.5275
 20
-0.9065
 30
0.0
 11
1.0
 21
0.0
 31
0.0
 44
0.9
  1
Body Type
 40
0.125
 41
1.8
  0
MTEXT
  5
268
100
AcDbEntity
  8
0
100
AcDbMText
 62
2
  6
CONTINUOUS
  7
STANDARD
 71
2
 72
1
 10
6.055
 20
-0.9065
 30
0.0
 11
1.0
 21
0.0
 31
0.0
 44
0.9
  1
Line mount
 40
0.125
 41
2.0
  0
MTEXT
  5
269
100
AcDbEntity
  8
0
100
AcDbMText
 62
2
  6
CONTINUOUS
  7
STANDARD
 71
2
 72
1
 10
1.5275
 20
-1.1565
 30
0.0
 11
1.0
 21
0.0
 31
0.0
 44
0.9
  1
Interface
 40
0.125
 41
1.8
  0
MTEXT
  5
26A
100
AcDbEntity
  8
0
100
AcDbMText
 62
2
  6
CONTINUOUS
  7
STANDARD
 71
2
 72
1
 10
6.055
 20
-1.1565
 30
0.0
 11
1.0
 21
0.0
 31
0.0
 44
0.9
  1
None
 40
0.125
 41
0.8
  0
MTEXT
  5
26B
100
AcDbEntity
  8
0
100
AcDbMText
 62
2
  6
CONTINUOUS
  7
STANDARD
 71
2
 72
1
 10
1.5275
 20
-1.4065
 30
0.0
 11
1.0
 21
0.0
 31
0.0
 44
0.9
  1
Open Cavity Quantity
 40
0.125
 41
4.0
  0
MTEXT
  5
26C
100
AcDbEntity
  8
0
100
AcDbMText
 62
2
  6
CONTINUOUS
  7
STANDARD
 71
2
 72
1
 10
6.055
 20
-1.4065
 30
0.0
 11
1.0
 21
0.0
 31
0.0
 44
0.9
  1
1
 40
0.125
 41
0.2
  0
MTEXT
  5
26D
100
AcDbEntity
  8
0
100
AcDbMText
 62
2
  6
CONTINUOUS
  7
STANDARD
 71
2
 72
1
 10
1.5275
 20
-1.6565
 30
0.0
 11
1.0
 21
0.0
 31
0.0
 44
0.9
  1
Weight
 40
0.125
 41
1.2
  0
MTEXT
  5
26E
100
AcDbEntity
  8
0
100
AcDbMText
 62
2
  6
CONTINUOUS
  7
STANDARD
 71
2
 72
1
 10
4.555
 20
-1.6565
 30
0.0
 11
1.0
 21
0.0
 31
0.0
 44
0.9
  1
1.206 lb.
 40
0.125
 41
1.8
  0
MTEXT
  5
26F
100
AcDbEntity
  8
0
100
AcDbMText
 62
2
  6
CONTINUOUS
  7
STANDARD
 71
2
 72
1
 10
7.555
 20
-1.6565
 30
0.0
 11
1.0
 21
0.0
 31
0.0
 44
0.9
  1
0,547 kg.
 40
0.125
 41
1.8
  0
MTEXT
  5
270
100
AcDbEntity
  8
0
100
AcDbMText
 62
2
  6
CONTINUOUS
  7
STANDARD
 71
2
 72
1
 10
1.5275
 20
-1.9065
 30
0.0
 11
1.0
 21
0.0
 31
0.0
 44
0.9
  1
Check Cracking Pressure
 40
0.125
 41
4.6
  0
MTEXT
  5
271
100
AcDbEntity
  8
0
100
AcDbMText
 62
2
  6
CONTINUOUS
  7
STANDARD
 71
2
 72
1
 10
4.555
 20
-1.9065
 30
0.0
 11
1.0
 21
0.0
 31
0.0
 44
0.9
  1
30 psi
 40
0.125
 41
1.2
  0
MTEXT
  5
272
100
AcDbEntity
  8
0
100
AcDbMText
 62
2
  6
CONTINUOUS
  7
STANDARD
 71
2
 72
1
 10
7.555
 20
-1.9065
 30
0.0
 11
1.0
 21
0.0
 31
0.0
 44
0.9
  1
2 bar
 40
0.125
 41
1.0
  0
MTEXT
  5
273
100
AcDbEntity
  8
0
100
AcDbMText
 62
2
  6
CONTINUOUS
  7
STANDARD
 71
2
 72
1
 10
1.5275
 20
-2.1565
 30
0.0
 11
1.0
 21
0.0
 31
0.0
 44
0.9
  1
Mounting Hole Diameter
 40
0.125
 41
4.4
  0
MTEXT
  5
274
100
AcDbEntity
  8
0
100
AcDbMText
 62
2
  6
CONTINUOUS
  7
STANDARD
 71
2
 72
1
 10
4.555
 20
-2.1565
 30
0.0
 11
1.0
 21
0.0
 31
0.0
 44
0.9
  1
.34 in.
 40
0.125
 41
1.4
  0
MTEXT
  5
275
100
AcDbEntity
  8
0
100
AcDbMText
 62
2
  6
CONTINUOUS
  7
STANDARD
 71
2
 72
1
 10
7.555
 20
-2.1565
 30
0.0
 11
1.0
 21
0.0
 31
0.0
 44
0.9
  1
8.6 mm
 40
0.125
 41
1.2
  0
MTEXT
  5
276
100
AcDbEntity
  8
0
100
AcDbMText
 62
2
  6
CONTINUOUS
  7
STANDARD
 71
2
 72
1
 10
1.5275
 20
-2.4065
 30
0.0
 11
1.0
 21
0.0
 31
0.0
 44
0.9
  1
Mounting Hole Depth
 40
0.125
 41
3.8
  0
MTEXT
  5
277
100
AcDbEntity
  8
0
100
AcDbMText
 62
2
  6
CONTINUOUS
  7
STANDARD
 71
2
 72
1
 10
6.055
 20
-2.4065
 30
0.0
 11
1.0
 21
0.0
 31
0.0
 44
0.9
  1
Through
 40
0.125
 41
1.4
  0
MTEXT
  5
278
100
AcDbEntity
  8
0
100
AcDbMText
 62
2
  6
CONTINUOUS
  7
STANDARD
 71
2
 72
1
 10
1.5275
 20
-2.6565
 30
0.0
 11
1.0
 21
0.0
 31
0.0
 44
0.9
  1
Mounting Hole Quantity
 40
0.125
 41
4.4
  0
MTEXT
  5
279
100
AcDbEntity
  8
0
100
AcDbMText
 62
2
  6
CONTINUOUS
  7
STANDARD
 71
2
 72
1
 10
6.055
 20
-2.6565
 30
0.0
 11
1.0
 21
0.0
 31
0.0
 44
0.9
  1
2
 40
0.125
 41
0.2
  0
MTEXT
  5
27A
100
AcDbEntity
  8
0
100
AcDbMText
 62
2
  6
CONTINUOUS
  7
STANDARD
 71
2
 72
1
 10
1.5275
 20
-2.9065
 30
0.0
 11
1.0
 21
0.0
 31
0.0
 44
0.9
  1
Includes integral cartridge(s)
 40
0.125
 41
6.0
  0
MTEXT
  5
27B
100
AcDbEntity
  8
0
100
AcDbMText
 62
2
  6
CONTINUOUS
  7
STANDARD
 71
2
 72
1
 10
6.055
 20
-2.9065
 30
0.0
 11
1.0
 21
0.0
 31
0.0
 44
0.9
  1
Yes (see Included Components)
 40
0.125
 41
5.8
  0
ENDBLK
  5
27C
100
AcDbEntity
  8
0
  6
BYBLOCK
 62
0
100
AcDbBlockEnd
  0
BLOCK
  5
27D
100
AcDbEntity
  8
0
100
AcDbBlockBegin
  2
*T3
 70
1
 10
0.0
 20
0.0
  3
*T3
  1

  0
LINE
  5
27E
100
AcDbEntity
  8
0
100
AcDbLine
 62
2
  6
CONTINUOUS
 10
0.0
 20
0.0
 11
4.6
 21
0.0
  0
LINE
  5
27F
100
AcDbEntity
  8
0
100
AcDbLine
 62
2
  6
CONTINUOUS
 10
0.0
 20
0.0
 11
0.0
 21
-1.43775
  0
LINE
  5
280
100
AcDbEntity
  8
0
100
AcDbLine
 62
2
  6
CONTINUOUS
 10
0.0
 20
-0.34375
 11
4.6
 21
-0.34375
  0
LINE
  5
281
100
AcDbEntity
  8
0
100
AcDbLine
 62
2
  6
CONTINUOUS
 10
0.0
 20
-0.68775
 11
4.6
 21
-0.68775
  0
LINE
  5
282
100
AcDbEntity
  8
0
100
AcDbLine
 62
2
  6
CONTINUOUS
 10
0.0
 20
-0.93775
 11
4.6
 21
-0.93775
  0
LINE
  5
283
100
AcDbEntity
  8
0
100
AcDbLine
 62
2
  6
CONTINUOUS
 10
0.0
 20
-1.18775
 11
4.6
 21
-1.18775
  0
LINE
  5
284
100
AcDbEntity
  8
0
100
AcDbLine
 62
2
  6
CONTINUOUS
 10
0.0
 20
-1.43775
 11
4.6
 21
-1.43775
  0
LINE
  5
285
100
AcDbEntity
  8
0
100
AcDbLine
 62
2
  6
CONTINUOUS
 10
1.3
 20
-0.34375
 11
1.3
 21
-1.43775
  0
LINE
  5
286
100
AcDbEntity
  8
0
100
AcDbLine
 62
2
  6
CONTINUOUS
 10
3.3
 20
-0.34375
 11
3.3
 21
-1.43775
  0
LINE
  5
287
100
AcDbEntity
  8
0
100
AcDbLine
 62
2
  6
CONTINUOUS
 10
4.6
 20
0.0
 11
4.6
 21
-1.43775
  0
MTEXT
  5
288
100
AcDbEntity
  8
0
100
AcDbMText
 62
2
  6
CONTINUOUS
  7
STANDARD
 71
2
 72
1
 10
2.3
 20
-0.099375
 30
0.0
 11
1.0
 21
0.0
 31
0.0
 44
0.9
  1
Port Headings
 40
0.145
 41
3.016
  0
MTEXT
  5
289
100
AcDbEntity
  8
0
100
AcDbMText
 62
2
  6
CONTINUOUS
  7
STANDARD
 71
2
 72
1
 10
0.65
 20
-0.44325
 30
0.0
 11
1.0
 21
0.0
 31
0.0
 44
0.9
  1
Product
 40
0.145
 41
1.624
  0
MTEXT
  5
28A
100
AcDbEntity
  8
0
100
AcDbMText
 62
2
  6
CONTINUOUS
  7
STANDARD
 71
2
 72
1
 10
2.3
 20
-0.44325
 30
0.0
 11
1.0
 21
0.0
 31
0.0
 44
0.9
  1
Port
 40
0.145
 41
0.928
  0
MTEXT
  5
28B
100
AcDbEntity
  8
0
100
AcDbMText
 62
2
  6
CONTINUOUS
  7
STANDARD
 71
2
 72
1
 10
3.95
 20
-0.44325
 30
0.0
 11
1.0
 21
0.0
 31
0.0
 44
0.9
  1
Size
 40
0.145
 41
0.928
  0
MTEXT
  5
28C
100
AcDbEntity
  8
0
100
AcDbMText
 62
2
  6
CONTINUOUS
  7
STANDARD
 71
2
 72
1
 10
0.65
 20
-0.75025
 30
0.0
 11
1.0
 21
0.0
 31
0.0
 44
0.9
  1
E6K
 40
0.125
 41
0.6
  0
MTEXT
  5
28D
100
AcDbEntity
  8
0
100
AcDbMText
 62
2
  6
CONTINUOUS
  7
STANDARD
 71
2
 72
1
 10
2.3
 20
-0.75025
 30
0.0
 11
1.0
 21
0.0
 31
0.0
 44
0.9
  1
Ports 1 &  2
 40
0.125
 41
2.4
  0
MTEXT
  5
28E
100
AcDbEntity
  8
0
100
AcDbMText
 62
2
  6
CONTINUOUS
  7
STANDARD
 71
2
 72
1
 10
3.95
 20
-0.75025
 30
0.0
 11
1.0
 21
0.0
 31
0.0
 44
0.9
  1
SAE 10
 40
0.125
 41
1.2
  0
MTEXT
  5
28F
100
AcDbEntity
  8
0
100
AcDbMText
 62
2
  6
CONTINUOUS
  7
STANDARD
 71
2
 72
1
 10
0.65
 20
-1.00025
 30
0.0
 11
1.0
 21
0.0
 31
0.0
 44
0.9
  1
E6K
 40
0.125
 41
0.6
  0
MTEXT
  5
290
100
AcDbEntity
  8
0
100
AcDbMText
 62
2
  6
CONTINUOUS
  7
STANDARD
 71
2
 72
1
 10
2.3
 20
-1.00025
 30
0.0
 11
1.0
 21
0.0
 31
0.0
 44
0.9
  1
Port 3
 40
0.125
 41
1.2
  0
MTEXT
  5
291
100
AcDbEntity
  8
0
100
AcDbMText
 62
2
  6
CONTINUOUS
  7
STANDARD
 71
2
 72
1
 10
3.95
 20
-1.00025
 30
0.0
 11
1.0
 21
0.0
 31
0.0
 44
0.9
  1
SAE 6
 40
0.125
 41
1.0
  0
MTEXT
  5
292
100
AcDbEntity
  8
0
100
AcDbMText
 62
2
  6
CONTINUOUS
  7
STANDARD
 71
2
 72
1
 10
0.65
 20
-1.25025
 30
0.0
 11
1.0
 21
0.0
 31
0.0
 44
0.9
  1
E6K
 40
0.125
 41
0.6
  0
MTEXT
  5
293
100
AcDbEntity
  8
0
100
AcDbMText
 62
2
  6
CONTINUOUS
  7
STANDARD
 71
2
 72
1
 10
2.3
 20
-1.25025
 30
0.0
 11
1.0
 21
0.0
 31
0.0
 44
0.9
  1
Gage Port
 40
0.125
 41
1.8
  0
MTEXT
  5
294
100
AcDbEntity
  8
0
100
AcDbMText
 62
2
  6
CONTINUOUS
  7
STANDARD
 71
2
 72
1
 10
3.95
 20
-1.25025
 30
0.0
 11
1.0
 21
0.0
 31
0.0
 44
0.9
  1
1/4" NPTF
 40
0.125
 41
1.8
  0
ENDBLK
  5
295
100
AcDbEntity
  8
0
  6
BYBLOCK
 62
0
100
AcDbBlockEnd
  0
ENDSEC
  0
SECTION
  2
ENTITIES
  0
IMAGE
  5
296
100
AcDbEntity
  8
0
100
AcDbRasterImage
 62
7
  6
CONTINUOUS
 10
19.2297077316
 20
0.3094318264
 30
0.0
 11
0.0066666667
 21
0.0
 31
0.0
 12
0.0
 22
0.0066666667
 32
0.0
 13
369.0
 23
92.0
340
       387
 70
9
280
0
281
50
282
50
283
0
360
       381
 71
1
 91
2
 14
-0.5
 24
-0.5
 14
368.5
 24
91.5
  0
INSERT
  5
297
100
AcDbEntity
  8
0
100
AcDbBlockReference
 62
2
  6
CONTINUOUS
  2
SUN_FIRST_THIRD_ANGLE_BL0
 10
20.4816717061
 20
1.2289683772
  0
ACAD_TABLE
  5
298
100
AcDbEntity
  8
0
 62
2
  6
CONTINUOUS
100
AcDbBlockReference
  2
*T1
 10
12.42375
 20
0.30125
 30
0.0
100
AcDbTable
342
       389
343
20F
 11
1.0
 21
0.0
 31
0.0
 90
6
 91
4
 92
6
 93
20
 94
0
 95
0
 96
0
 70
1
 41
0.0
141
0.525
141
0.1
141
0.525
141
0.1
142
4.1
142
1.1
142
0.7
142
0.5
142
0.4
142
2.475
171
1
172
0
173
0
174
0
175
1
176
1
 91
33
178
0
145
0.0
301
CELL_VALUE
 90
4
  1
T-11A Line mount\P(See Technical Data for Body Features)
304
ACVALUE_END
170
2
140
0.125
171
1
172
0
173
0
174
0
175
1
176
1
 91
33
178
0
145
0.0
301
CELL_VALUE
 90
4
  1
Sep-12-23
304
ACVALUE_END
170
5
140
0.125
171
1
172
0
173
0
174
0
175
1
176
1
 91
33
178
0
145
0.0
301
CELL_VALUE
 90
4
  1
1.000
304
ACVALUE_END
170
5
140
0.125
171
1
172
0
173
0
174
0
175
1
176
1
 91
33
178
0
145
0.0
301
CELL_VALUE
 90
4
  1
C
304
ACVALUE_END
170
5
140
0.125
171
1
172
0
173
0
174
0
175
1
176
1
 91
33
178
0
145
0.0
301
CELL_VALUE
 90
4
  1
2
304
ACVALUE_END
170
5
140
0.125
171
1
172
0
173
0
174
0
175
1
176
1
 91
33
178
0
145
0.0
301
CELL_VALUE
 90
4
  1
 
304
ACVALUE_END
170
1
140
0.125
171
1
172
0
173
0
174
0
175
1
176
1
 91
33
178
0
145
0.0
301
CELL_VALUE
 90
4
  1
DESCRIPTION
304
ACVALUE_END
170
1
140
0.06
171
1
172
0
173
0
174
0
175
1
176
1
 91
33
178
0
145
0.0
301
CELL_VALUE
 90
4
  1
DATE
304
ACVALUE_END
170
1
140
0.06
171
1
172
0
173
0
174
0
175
1
176
1
 91
33
178
0
145
0.0
301
CELL_VALUE
 90
4
  1
SCALE
304
ACVALUE_END
170
1
140
0.06
171
1
172
0
173
0
174
0
175
1
176
1
 91
33
178
0
145
0.0
301
CELL_VALUE
 90
4
  1
DWG SIZE
304
ACVALUE_END
170
1
140
0.06
171
1
172
0
173
0
174
0
175
1
176
1
 91
33
178
0
145
0.0
301
CELL_VALUE
 90
4
  1
SHEET
304
ACVALUE_END
170
1
140
0.06
171
1
172
0
173
0
174
0
175
1
176
1
 91
33
178
0
145
0.0
301
CELL_VALUE
 90
4
  1
 
304
ACVALUE_END
170
1
140
0.125
171
1
172
0
173
0
174
0
175
1
176
1
 91
33
178
0
145
0.0
301
CELL_VALUE
 90
4
  1
E6K
304
ACVALUE_END
170
5
140
0.125
171
1
172
0
173
0
174
0
175
4
176
1
 91
33
178
0
145
0.0
301
CELL_VALUE
 90
4
  1
ALL DIMENSIONS IN INCH\PVIEWS ARE THIRD ANGLE
304
ACVALUE_END
170
5
140
0.12
171
1
172
0
173
1
174
0
175
1
176
1
 91
1
178
0
145
0.0
170
1
171
1
172
0
173
1
174
0
175
1
176
1
 91
1
178
0
145
0.0
170
1
171
1
172
0
173
1
174
0
175
1
176
1
 91
1
178
0
145
0.0
170
5
171
1
172
0
173
0
174
0
175
1
176
1
 91
33
178
0
145
0.0
301
CELL_VALUE
 90
4
  1
 
304
ACVALUE_END
170
1
140
0.125
171
1
172
0
173
0
174
0
175
1
176
1
 91
33
178
0
145
0.0
301
CELL_VALUE
 90
4
  1
MODEL
304
ACVALUE_END
170
1
140
0.06
171
1
172
0
173
0
174
0
175
1
176
1
 91
33
178
0
145
0.0
301
CELL_VALUE
 90
4
  1
 
304
ACVALUE_END
170
1
140
0.125
171
1
172
0
173
0
174
0
175
1
176
1
 91
33
178
0
145
0.0
301
CELL_VALUE
 90
4
  1
 
304
ACVALUE_END
170
1
140
0.125
171
1
172
0
173
0
174
0
175
1
176
1
 91
33
178
0
145
0.0
301
CELL_VALUE
 90
4
  1
 
304
ACVALUE_END
170
1
140
0.125
171
1
172
0
173
0
174
0
175
1
176
1
 91
33
178
0
145
0.0
301
CELL_VALUE
 90
4
  1
 
304
ACVALUE_END
170
1
140
0.125
171
1
172
0
173
0
174
0
175
1
176
1
 91
33
178
0
145
0.0
301
CELL_VALUE
 90
4
  1
 
304
ACVALUE_END
170
1
140
0.125
  0
ACAD_TABLE
  5
299
100
AcDbEntity
  8
0
 62
2
  6
CONTINUOUS
100
AcDbBlockReference
  2
*T2
 10
12.4237499994
 20
16.47875
 30
0.0
100
AcDbTable
342
       388
343
210
 11
1.0
 21
0.0
 31
0.0
 90
22
 91
12
 92
3
 93
16
 94
0
 95
0
 96
0
 41
0.028
141
0.344
141
0.25
141
0.25
141
0.25
141
0.25
141
0.25
141
0.25
141
0.25
141
0.25
141
0.25
141
0.25
141
0.25
142
3.055
142
3.0
142
3.0
171
1
172
0
173
0
174
0
175
1
176
1
 91
33
178
0
145
0.0
301
CELL_VALUE
 90
4
  1
Technical Data
304
ACVALUE_END
170
5
140
0.145
171
1
172
0
173
0
174
0
175
1
176
1
 91
33
178
0
145
0.0
301
CELL_VALUE
 90
4
  1
U.S. Units
304
ACVALUE_END
170
5
140
0.145
171
1
172
0
173
0
174
0
175
1
176
1
 91
33
178
0
145
0.0
301
CELL_VALUE
 90
4
  1
Metric Units
304
ACVALUE_END
170
5
140
0.145
171
1
172
0
173
0
174
0
175
1
176
1
 91
33
178
0
145
0.0
301
CELL_VALUE
 90
4
  1
Cavity
304
ACVALUE_END
170
5
140
0.125
171
1
172
0
173
0
174
0
175
2
176
1
 91
33
178
0
145
0.0
301
CELL_VALUE
 90
4
  1
T-11A
304
ACVALUE_END
170
5
140
0.125
171
1
172
0
173
1
174
0
175
1
176
1
 91
1
178
0
145
0.0
170
1
171
1
172
0
173
0
174
0
175
1
176
1
 91
33
178
0
145
0.0
301
CELL_VALUE
 90
4
  1
Body Features
304
ACVALUE_END
170
5
140
0.125
171
1
172
0
173
0
174
0
175
2
176
1
 91
33
178
0
145
0.0
301
CELL_VALUE
 90
4
  1
Ninety degree with reverse flow check - sequence
304
ACVALUE_END
170
5
140
0.125
171
1
172
0
173
1
174
0
175
1
176
1
 91
1
178
0
145
0.0
170
1
171
1
172
0
173
0
174
0
175
1
176
1
 91
33
178
0
145
0.0
301
CELL_VALUE
 90
4
  1
Body Type
304
ACVALUE_END
170
5
140
0.125
171
1
172
0
173
0
174
0
175
2
176
1
 91
33
178
0
145
0.0
301
CELL_VALUE
 90
4
  1
Line mount
304
ACVALUE_END
170
5
140
0.125
171
1
172
0
173
1
174
0
175
1
176
1
 91
1
178
0
145
0.0
170
1
171
1
172
0
173
0
174
0
175
1
176
1
 91
33
178
0
145
0.0
301
CELL_VALUE
 90
4
  1
Interface
304
ACVALUE_END
170
5
140
0.125
171
1
172
0
173
0
174
0
175
2
176
1
 91
33
178
0
145
0.0
301
CELL_VALUE
 90
4
  1
None
304
ACVALUE_END
170
5
140
0.125
171
1
172
0
173
1
174
0
175
1
176
1
 91
1
178
0
145
0.0
170
1
171
1
172
0
173
0
174
0
175
1
176
1
 91
33
178
0
145
0.0
301
CELL_VALUE
 90
4
  1
Open Cavity Quantity
304
ACVALUE_END
170
5
140
0.125
171
1
172
0
173
0
174
0
175
2
176
1
 91
33
178
0
145
0.0
301
CELL_VALUE
 90
4
  1
1
304
ACVALUE_END
170
5
140
0.125
171
1
172
0
173
1
174
0
175
1
176
1
 91
1
178
0
145
0.0
170
1
171
1
172
0
173
0
174
0
175
1
176
1
 91
33
178
0
145
0.0
301
CELL_VALUE
 90
4
  1
Weight
304
ACVALUE_END
170
5
140
0.125
171
1
172
0
173
0
174
0
175
1
176
1
 91
33
178
0
145
0.0
301
CELL_VALUE
 90
4
  1
1.206 lb.
304
ACVALUE_END
170
5
140
0.125
171
1
172
0
173
0
174
0
175
1
176
1
 91
33
178
0
145
0.0
301
CELL_VALUE
 90
4
  1
0,547 kg.
304
ACVALUE_END
170
5
140
0.125
171
1
172
0
173
0
174
0
175
1
176
1
 91
33
178
0
145
0.0
301
CELL_VALUE
 90
4
  1
Check Cracking Pressure
304
ACVALUE_END
170
5
140
0.125
171
1
172
0
173
0
174
0
175
1
176
1
 91
33
178
0
145
0.0
301
CELL_VALUE
 90
4
  1
30 psi
304
ACVALUE_END
170
5
140
0.125
171
1
172
0
173
0
174
0
175
1
176
1
 91
33
178
0
145
0.0
301
CELL_VALUE
 90
4
  1
2 bar
304
ACVALUE_END
170
5
140
0.125
171
1
172
0
173
0
174
0
175
1
176
1
 91
33
178
0
145
0.0
301
CELL_VALUE
 90
4
  1
Mounting Hole Diameter
304
ACVALUE_END
170
5
140
0.125
171
1
172
0
173
0
174
0
175
1
176
1
 91
33
178
0
145
0.0
301
CELL_VALUE
 90
4
  1
.34 in.
304
ACVALUE_END
170
5
140
0.125
171
1
172
0
173
0
174
0
175
1
176
1
 91
33
178
0
145
0.0
301
CELL_VALUE
 90
4
  1
8.6 mm
304
ACVALUE_END
170
5
140
0.125
171
1
172
0
173
0
174
0
175
1
176
1
 91
33
178
0
145
0.0
301
CELL_VALUE
 90
4
  1
Mounting Hole Depth
304
ACVALUE_END
170
5
140
0.125
171
1
172
0
173
0
174
0
175
2
176
1
 91
33
178
0
145
0.0
301
CELL_VALUE
 90
4
  1
Through
304
ACVALUE_END
170
5
140
0.125
171
1
172
0
173
1
174
0
175
1
176
1
 91
1
178
0
145
0.0
170
1
171
1
172
0
173
0
174
0
175
1
176
1
 91
33
178
0
145
0.0
301
CELL_VALUE
 90
4
  1
Mounting Hole Quantity
304
ACVALUE_END
170
5
140
0.125
171
1
172
0
173
0
174
0
175
2
176
1
 91
33
178
0
145
0.0
301
CELL_VALUE
 90
4
  1
2
304
ACVALUE_END
170
5
140
0.125
171
1
172
0
173
1
174
0
175
1
176
1
 91
1
178
0
145
0.0
170
1
171
1
172
0
173
0
174
0
175
1
176
1
 91
33
178
0
145
0.0
301
CELL_VALUE
 90
4
  1
Includes integral cartridge(s)
304
ACVALUE_END
170
5
140
0.125
171
1
172
0
173
0
174
0
175
2
176
1
 91
33
178
0
145
0.0
301
CELL_VALUE
 90
4
  1
Yes (see Included Components)
304
ACVALUE_END
170
5
140
0.125
171
1
172
0
173
1
174
0
175
1
176
1
 91
1
178
0
145
0.0
170
1
  0
ACAD_TABLE
  5
29A
100
AcDbEntity
  8
0
 62
2
  6
CONTINUOUS
100
AcDbBlockReference
  2
*T3
 10
0.52125
 20
1.959
 30
0.0
100
AcDbTable
342
       388
343
211
 11
1.0
 21
0.0
 31
0.0
 90
22
 91
5
 92
3
 93
16
 94
0
 95
0
 96
0
 41
0.05
141
0.34375
141
0.344
141
0.25
141
0.25
141
0.25
142
1.3
142
2.0
142
1.3
171
1
172
0
173
0
174
0
175
3
176
1
 91
33
178
0
145
0.0
301
CELL_VALUE
 90
4
  1
Port Headings
304
ACVALUE_END
170
5
140
0.145
171
1
172
0
173
1
174
0
175
1
176
1
 91
1
178
0
145
0.0
170
1
171
1
172
0
173
1
174
0
175
1
176
1
 91
1
178
0
145
0.0
170
1
171
1
172
0
173
0
174
0
175
1
176
1
 91
33
178
0
145
0.0
301
CELL_VALUE
 90
4
  1
Product
304
ACVALUE_END
170
5
140
0.145
171
1
172
0
173
0
174
0
175
1
176
1
 91
33
178
0
145
0.0
301
CELL_VALUE
 90
4
  1
Port
304
ACVALUE_END
170
5
140
0.145
171
1
172
0
173
0
174
0
175
1
176
1
 91
33
178
0
145
0.0
301
CELL_VALUE
 90
4
  1
Size
304
ACVALUE_END
170
5
140
0.145
171
1
172
0
173
0
174
0
175
1
176
1
 91
33
178
0
145
0.0
301
CELL_VALUE
 90
4
  1
E6K
304
ACVALUE_END
170
5
140
0.125
171
1
172
0
173
0
174
0
175
1
176
1
 91
33
178
0
145
0.0
301
CELL_VALUE
 90
4
  1
Ports 1 &  2
304
ACVALUE_END
170
5
140
0.125
171
1
172
0
173
0
174
0
175
1
176
1
 91
33
178
0
145
0.0
301
CELL_VALUE
 90
4
  1
SAE 10
304
ACVALUE_END
170
5
140
0.125
171
1
172
0
173
0
174
0
175
1
176
1
 91
33
178
0
145
0.0
301
CELL_VALUE
 90
4
  1
E6K
304
ACVALUE_END
170
5
140
0.125
171
1
172
0
173
0
174
0
175
1
176
1
 91
33
178
0
145
0.0
301
CELL_VALUE
 90
4
  1
Port 3
304
ACVALUE_END
170
5
140
0.125
171
1
172
0
173
0
174
0
175
1
176
1
 91
33
178
0
145
0.0
301
CELL_VALUE
 90
4
  1
SAE 6
304
ACVALUE_END
170
5
140
0.125
171
1
172
0
173
0
174
0
175
1
176
1
 91
33
178
0
145
0.0
301
CELL_VALUE
 90
4
  1
E6K
304
ACVALUE_END
170
5
140
0.125
171
1
172
0
173
0
174
0
175
1
176
1
 91
33
178
0
145
0.0
301
CELL_VALUE
 90
4
  1
Gage Port
304
ACVALUE_END
170
5
140
0.125
171
1
172
0
173
0
174
0
175
1
176
1
 91
33
178
0
145
0.0
301
CELL_VALUE
 90
4
  1
1/4" NPTF
304
ACVALUE_END
170
5
140
0.125
  0
MTEXT
  5
29B
100
AcDbEntity
  8
0
100
AcDbMText
 62
2
  6
CONTINUOUS
  7
STANDARD
 71
1
 72
1
 10
0.52125
 20
5.75995
 30
0.0
 11
1.0
 21
0.0
 31
0.0
 44
0.6
  3
Notes\P \P1. Important: Carefully consider\P   the maximum system pressure. The\P   pressure rating of the manifold is\P   dependent on the manifold material,\P   with the port type/size a secondary\P   consideration. Manifolds\P   constructed of alu
  3
minum are not\P   rated for pressures higher than\P   3000 psi (210 bar), regardless of\P   the port type/size specified.\P2. This drawing is for reference\P   only. It is generated by an\P   automated process and does not fall\P   under Sun's docume
  1
nt control\P   process.
 40
0.1
 41
3.04
  0
LINE
  5
29C
100
AcDbEntity
  8
0
100
AcDbLine
 62
7
  6
CONTINUOUS
 10
0.30125
 20
0.30125
 11
0.30125
 21
16.69875
  0
LINE
  5
29D
100
AcDbEntity
  8
0
100
AcDbLine
 62
7
  6
CONTINUOUS
 10
0.30125
 20
0.30125
 11
21.69875
 21
0.30125
  0
LINE
  5
29E
100
AcDbEntity
  8
0
100
AcDbLine
 62
7
  6
CONTINUOUS
 10
0.30125
 20
16.69875
 11
21.69875
 21
16.69875
  0
LINE
  5
29F
100
AcDbEntity
  8
0
100
AcDbLine
 62
7
  6
CONTINUOUS
 10
21.69875
 20
0.30125
 11
21.69875
 21
16.69875
  0
LINE
  5
2A0
100
AcDbEntity
  8
0
100
AcDbLine
 62
7
  6
CONTINUOUS
 10
9.7128729444
 20
10.7425653472
 11
9.389349405
 21
10.4300655866
  0
LINE
  5
2A1
100
AcDbEntity
  8
0
100
AcDbLine
 62
4
  6
CONTINUOUS
 10
9.5921939314
 20
9.9591153611
 11
9.5849494874
 21
9.9499585087
  0
LINE
  5
2A2
100
AcDbEntity
  8
0
100
AcDbLine
 62
4
  6
CONTINUOUS
 10
9.5414828236
 20
9.9819507079
 11
9.5559717116
 21
9.9906051564
  0
LINE
  5
2A3
100
AcDbEntity
  8
0
100
AcDbLine
 62
4
  6
CONTINUOUS
 10
9.5994383754
 20
9.9006574055
 11
9.5849494874
 21
9.8823436963
  0
LINE
  5
2A4
100
AcDbEntity
  8
0
100
AcDbLine
 62
4
  6
CONTINUOUS
 10
9.5849494874
 20
9.9499585087
 11
9.5704605995
 21
9.9413040532
  0
LINE
  5
2A5
100
AcDbEntity
  8
0
100
AcDbLine
 62
4
  6
CONTINUOUS
 10
9.5849494874
 20
9.8823436963
 11
9.5704605995
 21
9.8736892452
  0
LINE
  5
2A6
100
AcDbEntity
  8
0
100
AcDbLine
 62
7
  6
CONTINUOUS
 10
11.2064931483
 20
6.3251394322
 11
11.2228173394
 21
6.3170755943
  0
LINE
  5
2A7
100
AcDbEntity
  8
0
100
AcDbLine
 62
7
  6
CONTINUOUS
 10
9.389349405
 20
6.9285842588
 11
12.2871270556
 21
6.7276226962
  0
LINE
  5
2A8
100
AcDbEntity
  8
0
100
AcDbLine
 62
7
  6
CONTINUOUS
 10
9.389349405
 20
6.9285842588
 11
9.389349405
 21
7.5718803502
  0
LINE
  5
2A9
100
AcDbEntity
  8
0
100
AcDbLine
 62
7
  6
CONTINUOUS
 10
9.389349405
 20
8.0355459034
 11
9.389349405
 21
10.4300655866
  0
LINE
  5
2AA
100
AcDbEntity
  8
0
100
AcDbLine
 62
7
  6
CONTINUOUS
 10
9.420259034
 20
8.0334023134
 11
9.420259034
 21
7.5697367601
  0
LINE
  5
2AB
100
AcDbEntity
  8
0
100
AcDbLine
 62
4
  6
CONTINUOUS
 10
9.5921939314
 20
9.9687746174
 11
9.5921939314
 21
9.9591153611
  0
LINE
  5
2AC
100
AcDbEntity
  8
0
100
AcDbLine
 62
4
  6
CONTINUOUS
 10
9.5921939314
 20
7.9210117024
 11
9.5921939314
 21
7.805100599
  0
LINE
  5
2AD
100
AcDbEntity
  8
0
100
AcDbLine
 62
4
  6
CONTINUOUS
 10
9.5994383754
 20
9.9103166652
 11
9.5994383754
 21
9.9006574055
  0
LINE
  5
2AE
100
AcDbEntity
  8
0
100
AcDbLine
 62
4
  6
CONTINUOUS
 10
11.1748634168
 20
7.3785183989
 11
11.1603745288
 21
7.3795232067
  0
LINE
  5
2AF
100
AcDbEntity
  8
0
100
AcDbLine
 62
4
  6
CONTINUOUS
 10
11.1676189728
 20
7.4369763545
 11
11.1965967487
 21
7.4349667389
  0
LINE
  5
2B0
100
AcDbEntity
  8
0
100
AcDbLine
 62
7
  6
CONTINUOUS
 10
9.389349405
 20
7.5718803502
 11
9.420259034
 21
7.5697367601
  0
LINE
  5
2B1
100
AcDbEntity
  8
0
100
AcDbLine
 62
4
  6
CONTINUOUS
 10
11.1603745288
 20
7.4954343101
 11
11.1748634168
 21
7.4944295023
  0
LINE
  5
2B2
100
AcDbEntity
  8
0
100
AcDbLine
 62
4
  6
CONTINUOUS
 10
11.1603745288
 20
7.3795232067
 11
11.1458856409
 21
7.3901872734
  0
LINE
  5
2B3
100
AcDbEntity
  8
0
100
AcDbLine
 62
4
  6
CONTINUOUS
 10
10.2886264026
 20
8.9767672427
 11
10.2886264026
 21
8.9188116897
  0
LINE
  5
2B4
100
AcDbEntity
  8
0
100
AcDbLine
 62
4
  6
CONTINUOUS
 10
10.3465819556
 20
8.9147924585
 11
10.3465819556
 21
8.8568369055
  0
LINE
  5
2B5
100
AcDbEntity
  8
0
100
AcDbLine
 62
4
  6
CONTINUOUS
 10
10.3755597321
 20
8.8548272898
 11
10.3755597321
 21
8.9707383959
  0
LINE
  5
2B6
100
AcDbEntity
  8
0
100
AcDbLine
 62
4
  6
CONTINUOUS
 10
10.4228901062
 20
8.2603982765
 11
10.4228901062
 21
8.3763093825
  0
LINE
  5
2B7
100
AcDbEntity
  8
0
100
AcDbLine
 62
4
  6
CONTINUOUS
 10
10.4335152851
 20
8.9667191646
 11
10.4335152851
 21
8.8508080586
  0
LINE
  5
2B8
100
AcDbEntity
  8
0
100
AcDbLine
 62
4
  6
CONTINUOUS
 10
10.4624930616
 20
8.964709549
 11
10.4624930616
 21
8.848798443
  0
LINE
  5
2B9
100
AcDbEntity
  8
0
100
AcDbLine
 62
7
  6
CONTINUOUS
 10
9.389349405
 20
8.0355459034
 11
9.420259034
 21
8.0334023134
  0
LINE
  5
2BA
100
AcDbEntity
  8
0
100
AcDbLine
 62
4
  6
CONTINUOUS
 10
11.1748634168
 20
7.4944295023
 11
11.1893523047
 21
7.4837654382
  0
LINE
  5
2BB
100
AcDbEntity
  8
0
100
AcDbLine
 62
4
  6
CONTINUOUS
 10
10.4808456523
 20
8.3557314233
 11
10.4808456523
 21
8.2729377759
  0
LINE
  5
2BC
100
AcDbEntity
  8
0
100
AcDbLine
 62
4
  6
CONTINUOUS
 10
10.5204486146
 20
8.9606903177
 11
10.5204486146
 21
8.8447792117
  0
LINE
  5
2BD
100
AcDbEntity
  8
0
100
AcDbLine
 62
4
  6
CONTINUOUS
 10
10.6363597207
 20
8.8367407492
 11
10.6363597207
 21
8.9526518552
  0
LINE
  5
2BE
100
AcDbEntity
  8
0
100
AcDbLine
 62
4
  6
CONTINUOUS
 10
10.527762053
 20
8.2531253823
 11
10.5608795099
 21
8.3667397849
  0
LINE
  5
2BF
100
AcDbEntity
  8
0
100
AcDbLine
 62
7
  6
CONTINUOUS
 10
12.2871270556
 20
10.229104024
 11
12.610650595
 21
10.5416037846
  0
LINE
  5
2C0
100
AcDbEntity
  8
0
100
AcDbLine
 62
4
  6
CONTINUOUS
 10
10.3566551855
 20
8.3146678727
 11
10.4008117981
 21
8.2895272949
  0
LINE
  5
2C1
100
AcDbEntity
  8
0
100
AcDbLine
 62
4
  6
CONTINUOUS
 10
10.4642869238
 20
8.3734385035
 11
10.4808456523
 21
8.3557314233
  0
LINE
  5
2C2
100
AcDbEntity
  8
0
100
AcDbLine
 62
4
  6
CONTINUOUS
 10
11.1458856409
 20
7.3901872734
 11
11.131396753
 21
7.4105105981
  0
LINE
  5
2C3
100
AcDbEntity
  8
0
100
AcDbLine
 62
4
  6
CONTINUOUS
 10
11.1893523047
 20
7.4837654382
 11
11.1965967487
 21
7.4736037711
  0
LINE
  5
2C4
100
AcDbEntity
  8
0
100
AcDbLine
 62
4
  6
CONTINUOUS
 10
9.5414828236
 20
9.8853581197
 11
9.5342383797
 21
9.8955197825
  0
LINE
  5
2C5
100
AcDbEntity
  8
0
100
AcDbLine
 62
4
  6
CONTINUOUS
 10
10.5608795099
 20
8.3667397849
 11
10.5939969806
 21
8.2485319745
  0
LINE
  5
2C6
100
AcDbEntity
  8
0
100
AcDbLine
 62
4
  6
CONTINUOUS
 10
10.6602318943
 20
8.2439385676
 11
10.6602318943
 21
8.3598496736
  0
LINE
  5
2C7
100
AcDbEntity
  8
0
100
AcDbLine
 62
4
  6
CONTINUOUS
 10
10.6943152737
 20
8.8327215179
 11
10.6943152737
 21
8.890677071
  0
LINE
  5
2C8
100
AcDbEntity
  8
0
100
AcDbLine
 62
4
  6
CONTINUOUS
 10
10.7223271269
 20
8.4946366819
 11
10.7223271269
 21
8.6105477879
  0
LINE
  5
2C9
100
AcDbEntity
  8
0
100
AcDbLine
 62
4
  6
CONTINUOUS
 10
10.7264668081
 20
8.2393451607
 11
10.7264668081
 21
8.3552562668
  0
LINE
  5
2CA
100
AcDbEntity
  8
0
100
AcDbLine
 62
4
  6
CONTINUOUS
 10
10.741645642
 20
8.8294391458
 11
10.741645642
 21
8.8873946988
  0
LINE
  5
2CB
100
AcDbEntity
  8
0
100
AcDbLine
 62
4
  6
CONTINUOUS
 10
10.799601195
 20
8.8833754675
 11
10.799601195
 21
8.7674643615
  0
LINE
  5
2CC
100
AcDbEntity
  8
0
100
AcDbLine
 62
4
  6
CONTINUOUS
 10
10.805120776
 20
8.5468504758
 11
10.805120776
 21
8.505453653
  0
LINE
  5
2CD
100
AcDbEntity
  8
0
100
AcDbLine
 62
4
  6
CONTINUOUS
 10
10.8382382303
 20
8.822740427
 11
10.8382382303
 21
8.88069598
  0
LINE
  5
2CE
100
AcDbEntity
  8
0
100
AcDbLine
 62
4
  6
CONTINUOUS
 10
10.8216795045
 20
8.578819581
 11
10.805120776
 21
8.5468504758
  0
LINE
  5
2CF
100
AcDbEntity
  8
0
100
AcDbLine
 62
4
  6
CONTINUOUS
 10
10.4808456523
 20
8.2729377759
 11
10.4642869238
 21
8.2575273975
  0
LINE
  5
2D0
100
AcDbEntity
  8
0
100
AcDbLine
 62
4
  6
CONTINUOUS
 10
10.8465175937
 20
8.6019351498
 11
10.8216795045
 21
8.578819581
  0
LINE
  5
2D1
100
AcDbEntity
  8
0
100
AcDbLine
 62
4
  6
CONTINUOUS
 10
11.1293958739
 20
8.2114019351
 11
11.0879990424
 21
8.2142728151
  0
LINE
  5
2D2
100
AcDbEntity
  8
0
100
AcDbLine
 62
4
  6
CONTINUOUS
 10
11.0383228778
 20
8.2177178689
 11
11.0134847678
 21
8.2194403976
  0
LINE
  5
2D3
100
AcDbEntity
  8
0
100
AcDbLine
 62
4
  6
CONTINUOUS
 10
10.9500096594
 20
8.2238424113
 11
10.9168922163
 21
8.2261391138
  0
LINE
  5
2D4
100
AcDbEntity
  8
0
100
AcDbLine
 62
4
  6
CONTINUOUS
 10
10.4642869238
 20
8.2575273975
 11
10.4228901062
 21
8.2603982765
  0
LINE
  5
2D5
100
AcDbEntity
  8
0
100
AcDbLine
 62
4
  6
CONTINUOUS
 10
10.7264668081
 20
8.2393451607
 11
10.7761430004
 21
8.2359001051
  0
LINE
  5
2D6
100
AcDbEntity
  8
0
100
AcDbLine
 62
4
  6
CONTINUOUS
 10
11.1928710376
 20
8.2069999176
 11
11.2425472022
 21
8.2035548638
  0
LINE
  5
2D7
100
AcDbEntity
  8
0
100
AcDbLine
 62
4
  6
CONTINUOUS
 10
10.5388012053
 20
8.2854772748
 11
10.5829578145
 21
8.2824150036
  0
LINE
  5
2D8
100
AcDbEntity
  8
0
100
AcDbLine
 62
4
  6
CONTINUOUS
 10
11.2259884806
 20
8.2709381358
 11
11.1928710376
 21
8.2732348383
  0
LINE
  5
2D9
100
AcDbEntity
  8
0
100
AcDbLine
 62
4
  6
CONTINUOUS
 10
10.7595842788
 20
8.303283377
 11
10.7264668081
 21
8.3055800814
  0
LINE
  5
2DA
100
AcDbEntity
  8
0
100
AcDbLine
 62
4
  6
CONTINUOUS
 10
10.4228901062
 20
8.3763093825
 11
10.4642869238
 21
8.3734385035
  0
LINE
  5
2DB
100
AcDbEntity
  8
0
100
AcDbLine
 62
4
  6
CONTINUOUS
 10
10.6271144236
 20
8.362146378
 11
10.6933493374
 21
8.3575529712
  0
LINE
  5
2DC
100
AcDbEntity
  8
0
100
AcDbLine
 62
4
  6
CONTINUOUS
 10
10.7264668081
 20
8.3552562668
 11
10.7761430004
 21
8.3518112111
  0
LINE
  5
2DD
100
AcDbEntity
  8
0
100
AcDbLine
 62
4
  6
CONTINUOUS
 10
10.9168922163
 20
8.3420502198
 11
10.9500096594
 21
8.3397535174
  0
LINE
  5
2DE
100
AcDbEntity
  8
0
100
AcDbLine
 62
4
  6
CONTINUOUS
 10
11.0134847678
 20
8.3353515036
 11
11.0383228778
 21
8.3336289749
  0
LINE
  5
2DF
100
AcDbEntity
  8
0
100
AcDbLine
 62
4
  6
CONTINUOUS
 10
11.0879990424
 20
8.3301839212
 11
11.1293958739
 21
8.3273130411
  0
LINE
  5
2E0
100
AcDbEntity
  8
0
100
AcDbLine
 62
4
  6
CONTINUOUS
 10
11.1928710376
 20
8.3229110236
 11
11.2425472022
 21
8.3194659699
  0
LINE
  5
2E1
100
AcDbEntity
  8
0
100
AcDbLine
 62
4
  6
CONTINUOUS
 10
10.9168922163
 20
8.2261391138
 11
10.9003334948
 21
8.2438461952
  0
LINE
  5
2E2
100
AcDbEntity
  8
0
100
AcDbLine
 62
4
  6
CONTINUOUS
 10
11.0134847678
 20
8.2194403976
 11
10.9969260463
 21
8.237147479
  0
LINE
  5
2E3
100
AcDbEntity
  8
0
100
AcDbLine
 62
4
  6
CONTINUOUS
 10
9.5849494874
 20
9.9306399891
 11
9.5994383754
 21
9.9103166652
  0
LINE
  5
2E4
100
AcDbEntity
  8
0
100
AcDbLine
 62
4
  6
CONTINUOUS
 10
9.5849494874
 20
9.9789362845
 11
9.5921939314
 21
9.9687746174
  0
LINE
  5
2E5
100
AcDbEntity
  8
0
100
AcDbLine
 62
4
  6
CONTINUOUS
 10
10.863076329
 20
8.5014344217
 11
10.863076329
 21
8.5345518803
  0
LINE
  5
2E6
100
AcDbEntity
  8
0
100
AcDbLine
 62
4
  6
CONTINUOUS
 10
10.8961937833
 20
8.9346323018
 11
10.8961937833
 21
8.8187211957
  0
LINE
  5
2E7
100
AcDbEntity
  8
0
100
AcDbLine
 62
4
  6
CONTINUOUS
 10
10.8961937859
 20
8.4825789881
 11
10.8961937859
 21
8.5984900941
  0
LINE
  5
2E8
100
AcDbEntity
  8
0
100
AcDbLine
 62
4
  6
CONTINUOUS
 10
10.9003334948
 20
8.2438461952
 11
10.9003334948
 21
8.3266398426
  0
LINE
  5
2E9
100
AcDbEntity
  8
0
100
AcDbLine
 62
4
  6
CONTINUOUS
 10
10.9348308187
 20
8.8739972613
 11
10.9348308187
 21
8.8160417082
  0
LINE
  5
2EA
100
AcDbEntity
  8
0
100
AcDbLine
 62
4
  6
CONTINUOUS
 10
10.9969260463
 20
8.237147479
 11
10.9969260463
 21
8.3199411264
  0
LINE
  5
2EB
100
AcDbEntity
  8
0
100
AcDbLine
 62
4
  6
CONTINUOUS
 10
10.8961937859
 20
8.5212160246
 11
10.9541493389
 21
8.5944708629
  0
LINE
  5
2EC
100
AcDbEntity
  8
0
100
AcDbLine
 62
4
  6
CONTINUOUS
 10
10.8465175937
 20
8.4860240437
 11
10.863076329
 21
8.5014344217
  0
LINE
  5
2ED
100
AcDbEntity
  8
0
100
AcDbLine
 62
4
  6
CONTINUOUS
 10
10.4008117981
 20
8.3336839092
 11
10.3566551855
 21
8.3146678727
  0
LINE
  5
2EE
100
AcDbEntity
  8
0
100
AcDbLine
 62
4
  6
CONTINUOUS
 10
10.7223271269
 20
8.4946366819
 11
10.7720033157
 21
8.4911916265
  0
LINE
  5
2EF
100
AcDbEntity
  8
0
100
AcDbLine
 62
4
  6
CONTINUOUS
 10
10.8216795045
 20
8.4877465711
 11
10.8465175937
 21
8.4860240437
  0
LINE
  5
2F0
100
AcDbEntity
  8
0
100
AcDbLine
 62
4
  6
CONTINUOUS
 10
11.2756646452
 20
8.2730126582
 11
11.3198212544
 21
8.2478720789
  0
LINE
  5
2F1
100
AcDbEntity
  8
0
100
AcDbLine
 62
4
  6
CONTINUOUS
 10
10.805120776
 20
8.505453653
 11
10.8216795045
 21
8.4877465711
  0
LINE
  5
2F2
100
AcDbEntity
  8
0
100
AcDbLine
 62
4
  6
CONTINUOUS
 10
11.0383228778
 20
8.3336289749
 11
11.0548815993
 21
8.3159218952
  0
LINE
  5
2F3
100
AcDbEntity
  8
0
100
AcDbLine
 62
4
  6
CONTINUOUS
 10
10.863076329
 20
8.5345518803
 11
10.8465175937
 21
8.5522589644
  0
LINE
  5
2F4
100
AcDbEntity
  8
0
100
AcDbLine
 62
4
  6
CONTINUOUS
 10
11.1293958739
 20
8.3273130411
 11
11.1459545954
 21
8.3096059615
  0
LINE
  5
2F5
100
AcDbEntity
  8
0
100
AcDbLine
 62
4
  6
CONTINUOUS
 10
10.921031882
 20
8.547091381
 11
10.9541493389
 21
8.4785597568
  0
LINE
  5
2F6
100
AcDbEntity
  8
0
100
AcDbLine
 62
4
  6
CONTINUOUS
 10
11.131396753
 20
7.4105105981
 11
11.124152309
 21
7.4399907778
  0
LINE
  5
2F7
100
AcDbEntity
  8
0
100
AcDbLine
 62
4
  6
CONTINUOUS
 10
11.031423407
 20
8.8093429895
 11
11.031423407
 21
8.8479800248
  0
LINE
  5
2F8
100
AcDbEntity
  8
0
100
AcDbLine
 62
4
  6
CONTINUOUS
 10
11.0548815993
 20
8.3159218952
 11
11.0548815993
 21
8.2331282478
  0
LINE
  5
2F9
100
AcDbEntity
  8
0
100
AcDbLine
 62
4
  6
CONTINUOUS
 10
11.0879990424
 20
8.2142728151
 11
11.0879990424
 21
8.3301839212
  0
LINE
  5
2FA
100
AcDbEntity
  8
0
100
AcDbLine
 62
4
  6
CONTINUOUS
 10
11.08937896
 20
8.8632793112
 11
11.08937896
 21
8.8053237582
  0
LINE
  5
2FB
100
AcDbEntity
  8
0
100
AcDbLine
 62
7
  6
CONTINUOUS
 10
11.1245682596
 20
6.8082464225
 11
11.1245682596
 21
6.4269225383
  0
LINE
  5
2FC
100
AcDbEntity
  8
0
100
AcDbLine
 62
4
  6
CONTINUOUS
 10
11.1280159954
 20
8.8605998237
 11
11.1280159954
 21
8.8026442707
  0
LINE
  5
2FD
100
AcDbEntity
  8
0
100
AcDbLine
 62
4
  6
CONTINUOUS
 10
11.1459545954
 20
8.3096059615
 11
11.1459545954
 21
8.2268123141
  0
LINE
  5
2FE
100
AcDbEntity
  8
0
100
AcDbLine
 62
4
  6
CONTINUOUS
 10
11.1859715484
 20
8.7986250395
 11
11.1859715484
 21
8.8565805925
  0
LINE
  5
2FF
100
AcDbEntity
  8
0
100
AcDbLine
 62
4
  6
CONTINUOUS
 10
11.1928710376
 20
8.2069999176
 11
11.1928710376
 21
8.3229110236
  0
LINE
  5
300
100
AcDbEntity
  8
0
100
AcDbLine
 62
4
  6
CONTINUOUS
 10
11.1965967487
 20
7.4349667389
 11
11.1965967487
 21
7.396329705
  0
LINE
  5
301
100
AcDbEntity
  8
0
100
AcDbLine
 62
4
  6
CONTINUOUS
 10
10.9003334948
 20
8.3266398426
 11
10.9168922163
 21
8.3420502198
  0
LINE
  5
302
100
AcDbEntity
  8
0
100
AcDbLine
 62
4
  6
CONTINUOUS
 10
10.9969260463
 20
8.3199411264
 11
11.0134847678
 21
8.3353515036
  0
LINE
  5
303
100
AcDbEntity
  8
0
100
AcDbLine
 62
4
  6
CONTINUOUS
 10
10.8465175937
 20
8.5522589644
 11
10.8106403522
 21
8.5547470596
  0
LINE
  5
304
100
AcDbEntity
  8
0
100
AcDbLine
 62
4
  6
CONTINUOUS
 10
10.7554445872
 20
8.5585748989
 11
10.7223271269
 21
8.5608716025
  0
LINE
  5
305
100
AcDbEntity
  8
0
100
AcDbLine
 62
7
  6
CONTINUOUS
 10
12.2871270556
 20
8.4875291264
 11
12.2562174266
 21
8.4896727165
  0
LINE
  5
306
100
AcDbEntity
  8
0
100
AcDbLine
 62
4
  6
CONTINUOUS
 10
10.7223271269
 20
8.6105477879
 11
10.7720033157
 21
8.6071027325
  0
LINE
  5
307
100
AcDbEntity
  8
0
100
AcDbLine
 62
4
  6
CONTINUOUS
 10
11.2246085837
 20
8.795945552
 11
11.2246085837
 21
8.911856658
  0
LINE
  5
308
100
AcDbEntity
  8
0
100
AcDbLine
 62
7
  6
CONTINUOUS
 10
11.2376230716
 20
6.7383193882
 11
11.2376230716
 21
6.3177201624
  0
LINE
  5
309
100
AcDbEntity
  8
0
100
AcDbLine
 62
4
  6
CONTINUOUS
 10
11.2632456191
 20
8.7932660645
 11
11.2632456191
 21
8.8512216175
  0
LINE
  5
30A
100
AcDbEntity
  8
0
100
AcDbLine
 62
7
  6
CONTINUOUS
 10
11.2795032991
 20
6.7274800014
 11
11.2795032991
 21
6.3068807757
  0
LINE
  5
30B
100
AcDbEntity
  8
0
100
AcDbLine
 62
4
  6
CONTINUOUS
 10
11.3018826544
 20
8.84854213
 11
11.3018826544
 21
8.790586577
  0
LINE
  5
30C
100
AcDbEntity
  8
0
100
AcDbLine
 62
4
  6
CONTINUOUS
 10
11.124152309
 20
7.4399907778
 11
11.131396753
 21
7.4684661498
  0
LINE
  5
30D
100
AcDbEntity
  8
0
100
AcDbLine
 62
4
  6
CONTINUOUS
 10
11.0548815993
 20
8.2331282478
 11
11.0383228778
 21
8.2177178689
  0
LINE
  5
30E
100
AcDbEntity
  8
0
100
AcDbLine
 62
4
  6
CONTINUOUS
 10
11.1459545954
 20
8.2268123141
 11
11.1293958739
 21
8.2114019351
  0
LINE
  5
30F
100
AcDbEntity
  8
0
100
AcDbLine
 62
4
  6
CONTINUOUS
 10
12.0818678063
 20
8.8707582184
 11
12.0963566943
 21
8.8794126669
  0
LINE
  5
310
100
AcDbEntity
  8
0
100
AcDbLine
 62
4
  6
CONTINUOUS
 10
12.1253344701
 20
8.8291067559
 11
12.0963566943
 21
8.8117978554
  0
LINE
  5
311
100
AcDbEntity
  8
0
100
AcDbLine
 62
4
  6
CONTINUOUS
 10
11.3198212544
 20
8.2478720789
 11
11.2756646452
 21
8.2288560438
  0
LINE
  5
312
100
AcDbEntity
  8
0
100
AcDbLine
 62
4
  6
CONTINUOUS
 10
10.799601195
 20
8.7674643615
 11
10.7609641596
 21
8.770143849
  0
LINE
  5
313
100
AcDbEntity
  8
0
100
AcDbLine
 62
4
  6
CONTINUOUS
 10
11.4564307958
 20
8.779868627
 11
11.3984752428
 21
8.7838878582
  0
LINE
  5
314
100
AcDbEntity
  8
0
100
AcDbLine
 62
4
  6
CONTINUOUS
 10
11.08937896
 20
8.8053237582
 11
11.031423407
 21
8.8093429895
  0
LINE
  5
315
100
AcDbEntity
  8
0
100
AcDbLine
 62
4
  6
CONTINUOUS
 10
10.8961937833
 20
8.8187211957
 11
10.8382382303
 21
8.822740427
  0
LINE
  5
316
100
AcDbEntity
  8
0
100
AcDbLine
 62
4
  6
CONTINUOUS
 10
10.799601195
 20
8.8254199145
 11
10.741645642
 21
8.8294391458
  0
LINE
  5
317
100
AcDbEntity
  8
0
100
AcDbLine
 62
4
  6
CONTINUOUS
 10
10.4335152851
 20
8.8508080586
 11
10.3755597321
 21
8.8548272898
  0
LINE
  5
318
100
AcDbEntity
  8
0
100
AcDbLine
 62
4
  6
CONTINUOUS
 10
10.3465819556
 20
8.8568369055
 11
10.2886264026
 21
8.8608561367
  0
LINE
  5
319
100
AcDbEntity
  8
0
100
AcDbLine
 62
4
  6
CONTINUOUS
 10
11.1280159954
 20
8.8026442707
 11
11.1859715484
 21
8.7986250395
  0
LINE
  5
31A
100
AcDbEntity
  8
0
100
AcDbLine
 62
4
  6
CONTINUOUS
 10
11.3018826544
 20
8.790586577
 11
11.3598382074
 21
8.7865673457
  0
LINE
  5
31B
100
AcDbEntity
  8
0
100
AcDbLine
 62
4
  6
CONTINUOUS
 10
12.0746233624
 20
8.7650087751
 11
12.1325789141
 21
8.760989544
  0
LINE
  5
31C
100
AcDbEntity
  8
0
100
AcDbLine
 62
4
  6
CONTINUOUS
 10
11.3984752428
 20
8.8128656347
 11
11.4564307958
 21
8.8088464035
  0
LINE
  5
31D
100
AcDbEntity
  8
0
100
AcDbLine
 62
4
  6
CONTINUOUS
 10
11.031423407
 20
8.8479800248
 11
11.08937896
 21
8.8439607936
  0
LINE
  5
31E
100
AcDbEntity
  8
0
100
AcDbLine
 62
4
  6
CONTINUOUS
 10
11.08937896
 20
8.8632793112
 11
11.0507419247
 21
8.8659587987
  0
LINE
  5
31F
100
AcDbEntity
  8
0
100
AcDbLine
 62
4
  6
CONTINUOUS
 10
10.6943152737
 20
8.890677071
 11
10.6363597207
 21
8.8946963022
  0
LINE
  5
320
100
AcDbEntity
  8
0
100
AcDbLine
 62
4
  6
CONTINUOUS
 10
10.2886264026
 20
8.9188116897
 11
10.3465819556
 21
8.9147924585
  0
LINE
  5
321
100
AcDbEntity
  8
0
100
AcDbLine
 62
4
  6
CONTINUOUS
 10
10.8382382303
 20
8.88069598
 11
10.8961937833
 21
8.8766767488
  0
LINE
  5
322
100
AcDbEntity
  8
0
100
AcDbLine
 62
4
  6
CONTINUOUS
 10
10.9348308187
 20
8.8739972613
 11
10.9927863717
 21
8.86997803
  0
LINE
  5
323
100
AcDbEntity
  8
0
100
AcDbLine
 62
4
  6
CONTINUOUS
 10
11.3018826544
 20
8.84854213
 11
11.3598382074
 21
8.8445228987
  0
LINE
  5
324
100
AcDbEntity
  8
0
100
AcDbLine
 62
4
  6
CONTINUOUS
 10
11.3984752428
 20
8.8418434112
 11
11.4564307958
 21
8.83782418
  0
LINE
  5
325
100
AcDbEntity
  8
0
100
AcDbLine
 62
4
  6
CONTINUOUS
 10
9.5559717116
 20
9.874694053
 11
9.5414828236
 21
9.8853581197
  0
LINE
  5
326
100
AcDbEntity
  8
0
100
AcDbLine
 62
4
  6
CONTINUOUS
 10
9.5704605995
 20
9.9413040532
 11
9.5849494874
 21
9.9306399891
  0
LINE
  5
327
100
AcDbEntity
  8
0
100
AcDbLine
 62
4
  6
CONTINUOUS
 10
9.5704605995
 20
9.9896003486
 11
9.5849494874
 21
9.9789362845
  0
LINE
  5
328
100
AcDbEntity
  8
0
100
AcDbLine
 62
4
  6
CONTINUOUS
 10
11.3984752428
 20
8.8418434112
 11
11.3984752428
 21
8.8128656347
  0
LINE
  5
329
100
AcDbEntity
  8
0
100
AcDbLine
 62
4
  6
CONTINUOUS
 10
11.4564307958
 20
8.8088464035
 11
11.4564307958
 21
8.779868627
  0
LINE
  5
32A
100
AcDbEntity
  8
0
100
AcDbLine
 62
4
  6
CONTINUOUS
 10
11.2560011749
 20
8.8807017979
 11
11.2704900632
 21
8.8796969901
  0
LINE
  5
32B
100
AcDbEntity
  8
0
100
AcDbLine
 62
7
  6
CONTINUOUS
 10
12.610650595
 20
8.800028887
 11
12.579740966
 21
8.8021724771
  0
LINE
  5
32C
100
AcDbEntity
  8
0
100
AcDbLine
 62
4
  6
CONTINUOUS
 10
10.3465819556
 20
8.9727480115
 11
10.2886264026
 21
8.9767672427
  0
LINE
  5
32D
100
AcDbEntity
  8
0
100
AcDbLine
 62
4
  6
CONTINUOUS
 10
10.4624930616
 20
8.964709549
 11
10.5204486146
 21
8.9606903177
  0
LINE
  5
32E
100
AcDbEntity
  8
0
100
AcDbLine
 62
4
  6
CONTINUOUS
 10
12.0963566943
 20
8.8794126669
 11
12.1108455822
 21
8.8784078591
  0
LINE
  5
32F
100
AcDbEntity
  8
0
100
AcDbLine
 62
7
  6
CONTINUOUS
 10
12.2871270556
 20
8.9511946797
 11
12.2562174266
 21
8.9533382697
  0
LINE
  5
330
100
AcDbEntity
  8
0
100
AcDbLine
 62
7
  6
CONTINUOUS
 10
11.701429278
 20
6.6982193354
 11
11.701429278
 21
6.2776201096
  0
LINE
  5
331
100
AcDbEntity
  8
0
100
AcDbLine
 62
7
  6
CONTINUOUS
 10
11.7586387166
 20
6.7021868305
 11
11.7586387166
 21
6.2815876047
  0
LINE
  5
332
100
AcDbEntity
  8
0
100
AcDbLine
 62
4
  6
CONTINUOUS
 10
12.0746233624
 20
8.861601359
 11
12.0818678063
 21
8.8707582184
  0
LINE
  5
333
100
AcDbEntity
  8
0
100
AcDbLine
 62
4
  6
CONTINUOUS
 10
12.0963566943
 20
8.8117978554
 11
12.0818678063
 21
8.7934841471
  0
LINE
  5
334
100
AcDbEntity
  8
0
100
AcDbLine
 62
4
  6
CONTINUOUS
 10
12.1325789141
 20
8.8382636152
 11
12.1253344701
 21
8.8291067559
  0
LINE
  5
335
100
AcDbEntity
  8
0
100
AcDbLine
 62
4
  6
CONTINUOUS
 10
11.131396753
 20
7.4684661498
 11
11.1458856409
 21
7.4867798616
  0
LINE
  5
336
100
AcDbEntity
  8
0
100
AcDbLine
 62
4
  6
CONTINUOUS
 10
11.1965967487
 20
7.396329705
 11
11.1893523047
 21
7.38717285
  0
LINE
  5
337
100
AcDbEntity
  8
0
100
AcDbLine
 62
4
  6
CONTINUOUS
 10
11.1458856409
 20
7.4867798616
 11
11.1603745288
 21
7.4954343101
  0
LINE
  5
338
100
AcDbEntity
  8
0
100
AcDbLine
 62
7
  6
CONTINUOUS
 10
12.610650595
 20
9.2636944403
 11
12.579740966
 21
9.2658380303
  0
LINE
  5
339
100
AcDbEntity
  8
0
100
AcDbLine
 62
7
  6
CONTINUOUS
 10
12.0675098836
 20
6.7428531988
 11
12.0675098836
 21
6.3615293146
  0
LINE
  5
33A
100
AcDbEntity
  8
0
100
AcDbLine
 62
7
  6
CONTINUOUS
 10
12.0828390948
 20
6.7417901144
 11
12.0828390948
 21
6.3763361964
  0
LINE
  5
33B
100
AcDbEntity
  8
0
100
AcDbLine
 62
4
  6
CONTINUOUS
 10
12.0818678063
 20
8.7934841471
 11
12.0746233624
 21
8.7650087751
  0
LINE
  5
33C
100
AcDbEntity
  8
0
100
AcDbLine
 62
4
  6
CONTINUOUS
 10
11.1893523047
 20
7.38717285
 11
11.1748634168
 21
7.3785183989
  0
LINE
  5
33D
100
AcDbEntity
  8
0
100
AcDbLine
 62
4
  6
CONTINUOUS
 10
12.1108455822
 20
8.8784078591
 11
12.1253344701
 21
8.867743795
  0
LINE
  5
33E
100
AcDbEntity
  8
0
100
AcDbLine
 62
4
  6
CONTINUOUS
 10
12.1325789141
 20
8.8575821279
 11
12.1325789141
 21
8.8382636152
  0
LINE
  5
33F
100
AcDbEntity
  8
0
100
AcDbLine
 62
7
  6
CONTINUOUS
 10
12.2562174266
 20
8.9533382697
 11
12.2562174266
 21
8.4896727165
  0
LINE
  5
340
100
AcDbEntity
  8
0
100
AcDbLine
 62
7
  6
CONTINUOUS
 10
12.2871270556
 20
6.7276226962
 11
12.2871270556
 21
8.4875291264
  0
LINE
  5
341
100
AcDbEntity
  8
0
100
AcDbLine
 62
7
  6
CONTINUOUS
 10
12.2871270556
 20
8.9511946797
 11
12.2871270556
 21
10.229104024
  0
LINE
  5
342
100
AcDbEntity
  8
0
100
AcDbLine
 62
4
  6
CONTINUOUS
 10
9.5704605995
 20
9.8736892452
 11
9.5559717116
 21
9.874694053
  0
LINE
  5
343
100
AcDbEntity
  8
0
100
AcDbLine
 62
4
  6
CONTINUOUS
 10
12.1253344701
 20
8.867743795
 11
12.1325789141
 21
8.8575821279
  0
LINE
  5
344
100
AcDbEntity
  8
0
100
AcDbLine
 62
4
  6
CONTINUOUS
 10
9.5559717116
 20
9.942308861
 11
9.5704605995
 21
9.9413040532
  0
LINE
  5
345
100
AcDbEntity
  8
0
100
AcDbLine
 62
4
  6
CONTINUOUS
 10
9.5559717116
 20
9.9906051564
 11
9.5704605995
 21
9.9896003486
  0
LINE
  5
346
100
AcDbEntity
  8
0
100
AcDbLine
 62
7
  6
CONTINUOUS
 10
12.579740966
 20
9.2658380303
 11
12.579740966
 21
8.8021724771
  0
LINE
  5
347
100
AcDbEntity
  8
0
100
AcDbLine
 62
7
  6
CONTINUOUS
 10
12.610650595
 20
7.0401224568
 11
12.610650595
 21
8.800028887
  0
LINE
  5
348
100
AcDbEntity
  8
0
100
AcDbLine
 62
7
  6
CONTINUOUS
 10
12.610650595
 20
9.2636944403
 11
12.610650595
 21
10.5416037846
  0
LINE
  5
349
100
AcDbEntity
  8
0
100
AcDbLine
 62
7
  6
CONTINUOUS
 10
9.389349405
 20
10.4300655866
 11
12.2871270556
 21
10.229104024
  0
LINE
  5
34A
100
AcDbEntity
  8
0
100
AcDbLine
 62
7
  6
CONTINUOUS
 10
12.2871270556
 20
6.7276226962
 11
12.610650595
 21
7.0401224568
  0
LINE
  5
34B
100
AcDbEntity
  8
0
100
AcDbLine
 62
7
  6
CONTINUOUS
 10
12.610650595
 20
10.5416037846
 11
9.7128729444
 21
10.7425653472
  0
LINE
  5
34C
100
AcDbEntity
  8
0
100
AcDbLine
 62
7
  6
CONTINUOUS
 10
12.0097523677
 20
6.3295053148
 11
11.984590015
 21
6.3170755943
  0
ARC
  5
34D
100
AcDbEntity
  8
0
100
AcDbCircle
 62
7
  6
CONTINUOUS
 10
11.6115053758
 20
8.4093308291
 40
1.7134727463
100
AcDbArc
 50
273.0082929995
 51
274.9259690708
  0
ARC
  5
34E
100
AcDbEntity
  8
0
100
AcDbCircle
 62
7
  6
CONTINUOUS
 10
11.6115053758
 20
7.9887316034
 40
1.7134727463
100
AcDbArc
 50
273.0082929995
 51
274.9259690708
  0
SPLINE
  5
34F
100
AcDbEntity
  8
0
100
AcDbSpline
 62
7
  6
CONTINUOUS
 70
0
 71
3
 72
11
 73
7
 74
0
 42
0.0000001
 43
0.0000001
 44
0.0000000001
 40
0.0
 40
0.0
 40
0.0
 40
0.0
 40
0.2399502312
 40
0.4865132022
 40
0.7398237866
 40
1.0
 40
1.0
 40
1.0
 40
1.0
 10
12.0760414342
 20
6.3688726327
 30
0.0
 10
12.0753935591
 20
6.3682468333
 30
0.0
 10
12.0740604201
 20
6.3669980684
 30
0.0
 10
12.071979688
 20
6.3651580676
 30
0.0
 10
12.0697915778
 20
6.363326491
 30
0.0
 10
12.0682819502
 20
6.3621275031
 30
0.0
 10
12.0675098836
 20
6.3615293146
 30
0.0
  0
SPLINE
  5
350
100
AcDbEntity
  8
0
100
AcDbSpline
 62
7
  6
CONTINUOUS
 70
0
 71
3
 72
11
 73
7
 74
0
 42
0.0000001
 43
0.0000001
 44
0.0000000001
 40
0.0
 40
0.0
 40
0.0
 40
0.0
 40
0.2399382843
 40
0.4864287737
 40
0.7397111676
 40
1.0
 40
1.0
 40
1.0
 40
1.0
 10
12.0828390948
 20
6.3763361964
 30
0.0
 10
12.0823389892
 20
6.3757015841
 30
0.0
 10
12.0813005261
 20
6.3744342362
 30
0.0
 10
12.0796538016
 20
6.372564608
 30
0.0
 10
12.077897936
 20
6.3707017648
 30
0.0
 10
12.0766718709
 20
6.3694815877
 30
0.0
 10
12.0760414342
 20
6.3688726327
 30
0.0
  0
SPLINE
  5
351
100
AcDbEntity
  8
0
100
AcDbSpline
 62
7
  6
CONTINUOUS
 70
0
 71
3
 72
11
 73
7
 74
0
 42
0.0000001
 43
0.0000001
 44
0.0000000001
 40
0.0
 40
0.0
 40
0.0
 40
0.0
 40
0.2529398012
 40
0.5039896517
 40
0.7530425508
 40
1.0
 40
1.0
 40
1.0
 40
1.0
 10
12.0675098836
 20
6.3615293146
 30
0.0
 10
12.0627552126
 20
6.3586238794
 30
0.0
 10
12.0532262414
 20
6.3529243161
 30
0.0
 10
12.0388155898
 20
6.3447040812
 30
0.0
 10
12.0243404697
 20
6.336870846
 30
0.0
 10
12.0146065664
 20
6.3319033331
 30
0.0
 10
12.009728958
 20
6.3294937514
 30
0.0
  0
SPLINE
  5
352
100
AcDbEntity
  8
0
100
AcDbSpline
 62
7
  6
CONTINUOUS
 70
0
 71
3
 72
79
 73
75
 74
0
 42
0.0000001
 43
0.0000001
 44
0.0000000001
 40
0.0
 40
0.0
 40
0.0
 40
0.0
 40
0.0049346149
 40
0.0099877251
 40
0.0151590499
 40
0.0204481992
 40
0.0258546713
 40
0.0313778714
 40
0.0370171043
 40
0.0427715926
 40
0.0546226141
 40
0.066923307
 40
0.0796646949
 40
0.0928367656
 40
0.10642856
 40
0.1204282499
 40
0.1348232052
 40
0.1496000531
 40
0.1647447325
 40
0.1802425411
 40
0.1960781811
 40
0.2122357989
 40
0.2286990254
 40
0.2454510106
 40
0.26247446
 40
0.2797516671
 40
0.2972645466
 40
0.3149946648
 40
0.3329232712
 40
0.3510313283
 40
0.3692995407
 40
0.3877083857
 40
0.4062381408
 40
0.424868914
 40
0.443580671
 40
0.462353265
 40
0.4811664639
 40
0.4999999795
 40
0.5188334952
 40
0.5376466942
 40
0.5564192885
 40
0.5751310457
 40
0.5937618193
 40
0.6122915748
 40
0.6307004205
 40
0.6489686336
 40
0.6670766916
 40
0.685005299
 40
0.7027354182
 40
0.7202482986
 40
0.7375255067
 40
0.7545489571
 40
0.7713009434
 40
0.7877641713
 40
0.8039217908
 40
0.8197574325
 40
0.8352552428
 40
0.8503999238
 40
0.8651767734
 40
0.8795717301
 40
0.8935714217
 40
0.9071632179
 40
0.9203352906
 40
0.9330766807
 40
0.945377376
 40
0.9572283997
 40
0.9629828881
 40
0.9686221229
 40
0.9741453233
 40
0.979551797
 40
0.9848409473
 40
0.990012273
 40
0.9950653848
 40
1.0
 40
1.0
 40
1.0
 40
1.0
 10
11.9845900594
 20
6.3170756165
 30
0.0
 10
11.9834452692
 20
6.3165101121
 30
0.0
 10
11.9811186545
 20
6.315384749
 30
0.0
 10
11.9775611601
 20
6.3137321748
 30
0.0
 10
11.9738956309
 20
6.3120954767
 30
0.0
 10
11.9701231342
 20
6.3104751369
 30
0.0
 10
11.9662447541
 20
6.3088716165
 30
0.0
 10
11.9622616091
 20
6.307285385
 30
0.0
 10
11.9581748446
 20
6.3057168905
 30
0.0
 10
11.9525339399
 20
6.3036293822
 30
0.0
 10
11.9452301187
 20
6.3010707043
 30
0.0
 10
11.9361547662
 20
6.298107513
 30
0.0
 10
11.9266953546
 20
6.2952256872
 30
0.0
 10
11.916862811
 20
6.2924285708
 30
0.0
 10
11.906668449
 20
6.2897194073
 30
0.0
 10
11.8961240222
 20
6.28710134
 30
0.0
 10
11.8852416905
 20
6.284577407
 30
0.0
 10
11.8740340102
 20
6.2821505371
 30
0.0
 10
11.8625139173
 20
6.2798235465
 30
0.0
 10
11.8506947122
 20
6.2775991355
 30
0.0
 10
11.8385900438
 20
6.275479885
 30
0.0
 10
11.8262138935
 20
6.2734682538
 30
0.0
 10
11.8135805585
 20
6.2715665756
 30
0.0
 10
11.8007046349
 20
6.269777056
 30
0.0
 10
11.7876010008
 20
6.2681017707
 30
0.0
 10
11.7742847985
 20
6.2665426624
 30
0.0
 10
11.7607714172
 20
6.2651015392
 30
0.0
 10
11.7470764749
 20
6.263780072
 30
0.0
 10
11.7332157998
 20
6.2625797931
 30
0.0
 10
11.719205413
 20
6.2615020941
 30
0.0
 10
11.7050615085
 20
6.2605482244
 30
0.0
 10
11.6908004357
 20
6.2597192896
 30
0.0
 10
11.6764386795
 20
6.2590162506
 30
0.0
 10
11.6619928417
 20
6.2584399222
 30
0.0
 10
11.6474796214
 20
6.2579909725
 30
0.0
 10
11.6329157956
 20
6.2576699219
 30
0.0
 10
11.6183182003
 20
6.2574771423
 30
0.0
 10
11.6037037105
 20
6.2574128574
 30
0.0
 10
11.5890892205
 20
6.2574771416
 30
0.0
 10
11.5744916251
 20
6.2576699206
 30
0.0
 10
11.5599277992
 20
6.2579909707
 30
0.0
 10
11.5454145786
 20
6.2584399199
 30
0.0
 10
11.5309687405
 20
6.2590162477
 30
0.0
 10
11.5166069839
 20
6.2597192862
 30
0.0
 10
11.5023459106
 20
6.2605482204
 30
0.0
 10
11.4882020056
 20
6.2615020896
 30
0.0
 10
11.4741916179
 20
6.2625797879
 30
0.0
 10
11.4603309421
 20
6.2637800662
 30
0.0
 10
11.4466359989
 20
6.2651015328
 30
0.0
 10
11.4331226168
 20
6.2665426555
 30
0.0
 10
11.4198064138
 20
6.2681017633
 30
0.0
 10
11.4067027788
 20
6.2697770482
 30
0.0
 10
11.3938268541
 20
6.2715665673
 30
0.0
 10
11.381193518
 20
6.2734682451
 30
0.0
 10
11.3688173663
 20
6.2754798757
 30
0.0
 10
11.3567126966
 20
6.2775991256
 30
0.0
 10
11.34489349
 20
6.2798235361
 30
0.0
 10
11.3333733957
 20
6.2821505262
 30
0.0
 10
11.322165714
 20
6.2845773957
 30
0.0
 10
11.311283381
 20
6.2871013284
 30
0.0
 10
11.3007389528
 20
6.2897193952
 30
0.0
 10
11.2905445893
 20
6.2924285584
 30
0.0
 10
11.2807120439
 20
6.2952256744
 30
0.0
 10
11.2712526304
 20
6.2981074997
 30
0.0
 10
11.2621772759
 20
6.3010706907
 30
0.0
 10
11.2548734531
 20
6.3036293677
 30
0.0
 10
11.2492325476
 20
6.3057168768
 30
0.0
 10
11.2451457819
 20
6.3072853702
 30
0.0
 10
11.2411626363
 20
6.3088716023
 30
0.0
 10
11.237284255
 20
6.310475122
 30
0.0
 10
11.2335117574
 20
6.3120954619
 30
0.0
 10
11.2298462272
 20
6.31373216
 30
0.0
 10
11.2262887317
 20
6.3153847335
 30
0.0
 10
11.2239621165
 20
6.3165100969
 30
0.0
 10
11.2228173263
 20
6.3170756013
 30
0.0
  0
SPLINE
  5
353
100
AcDbEntity
  8
0
100
AcDbSpline
 62
7
  6
CONTINUOUS
 70
0
 71
3
 72
34
 73
30
 74
0
 42
0.0000001
 43
0.0000001
 44
0.0000000001
 40
0.0
 40
0.0
 40
0.0
 40
0.0
 40
0.0217726103
 40
0.043998712
 40
0.0899309812
 40
0.1380396824
 40
0.1885283882
 40
0.2147207498
 40
0.2415663873
 40
0.2690791435
 40
0.2972700689
 40
0.3261474357
 40
0.3557167999
 40
0.3859810872
 40
0.4169407062
 40
0.4485936851
 40
0.4809358243
 40
0.5139608702
 40
0.5476607044
 40
0.5820255323
 40
0.6170440742
 40
0.6527037538
 40
0.6889908834
 40
0.7258908481
 40
0.7633882775
 40
0.8014672032
 40
0.8401112084
 40
0.9190266208
 40
1.0
 40
1.0
 40
1.0
 40
1.0
 10
11.2065178067
 20
6.3251272517
 30
0.0
 10
11.2056547035
 20
6.3255535693
 30
0.0
 10
11.2039262085
 20
6.326447272
 30
0.0
 10
11.2004609478
 20
6.3283985123
 30
0.0
 10
11.1961170498
 20
6.3311555366
 30
0.0
 10
11.1909535738
 20
6.3349270598
 30
0.0
 10
11.1867005552
 20
6.3384471269
 30
0.0
 10
11.1832970581
 20
6.3415084546
 30
0.0
 10
11.1807129135
 20
6.3439598217
 30
0.0
 10
11.178129002
 20
6.3465380376
 30
0.0
 10
11.1755457213
 20
6.3492425148
 30
0.0
 10
11.1729635102
 20
6.3520723417
 30
0.0
 10
11.1703827868
 20
6.355026352
 30
0.0
 10
11.1678039616
 20
6.3581031201
 30
0.0
 10
11.1652274296
 20
6.3613009801
 30
0.0
 10
11.1626535694
 20
6.3646180405
 30
0.0
 10
11.1600827397
 20
6.3680522032
 30
0.0
 10
11.1575152771
 20
6.3716011828
 30
0.0
 10
11.1549514953
 20
6.3752625295
 30
0.0
 10
11.1523916833
 20
6.3790336499
 30
0.0
 10
11.1498361047
 20
6.3829118294
 30
0.0
 10
11.1472849968
 20
6.3868942532
 30
0.0
 10
11.1447385705
 20
6.3909780269
 30
0.0
 10
11.1421970098
 20
6.3951601978
 30
0.0
 10
11.1396604752
 20
6.3994377738
 30
0.0
 10
11.1371290953
 20
6.4038077415
 30
0.0
 10
11.1337373327
 20
6.4097952527
 30
0.0
 10
11.1295157159
 20
6.4174918344
 30
0.0
 10
11.1262164486
 20
6.423744352
 30
0.0
 10
11.1245682596
 20
6.4269225383
 30
0.0
  0
SPLINE
  5
354
100
AcDbEntity
  8
0
100
AcDbSpline
 62
7
  6
CONTINUOUS
 70
0
 71
3
 72
11
 73
7
 74
0
 42
0.0000001
 43
0.0000001
 44
0.0000000001
 40
0.0
 40
0.0
 40
0.0
 40
0.0
 40
0.2598462974
 40
0.5132467876
 40
0.7600213203
 40
1.0
 40
1.0
 40
1.0
 40
1.0
 10
11.2795032991
 20
6.7274800014
 30
0.0
 10
11.275850515
 20
6.728317254
 30
0.0
 10
11.2686463041
 20
6.7300183516
 30
0.0
 10
11.2580144247
 20
6.7326858623
 30
0.0
 10
11.2476996973
 20
6.7354353763
 30
0.0
 10
11.2409450862
 20
6.7373485197
 30
0.0
 10
11.2376230716
 20
6.7383193882
 30
0.0
  0
SPLINE
  5
355
100
AcDbEntity
  8
0
100
AcDbSpline
 62
7
  6
CONTINUOUS
 70
0
 71
3
 72
23
 73
19
 74
0
 42
0.0000001
 43
0.0000001
 44
0.0000000001
 40
0.0
 40
0.0
 40
0.0
 40
0.0
 40
0.0657095692
 40
0.1316076905
 40
0.1975599413
 40
0.2634317586
 40
0.3290887887
 40
0.3943972448
 40
0.4592242604
 40
0.5234382435
 40
0.5869092415
 40
0.6495092936
 40
0.7111128108
 40
0.7715969332
 40
0.8308419302
 40
0.888731577
 40
0.9451535805
 40
1.0
 40
1.0
 40
1.0
 40
1.0
 10
11.651632064
 20
6.7716855526
 30
0.0
 10
11.6449955647
 20
6.7714917599
 30
0.0
 10
11.6317010024
 20
6.7711851456
 30
0.0
 10
11.6117401716
 20
6.7709672421
 30
0.0
 10
11.5917617419
 20
6.7709908587
 30
0.0
 10
11.5718094256
 20
6.771255946
 30
0.0
 10
11.5519268277
 20
6.7717619196
 30
0.0
 10
11.5321574136
 20
6.7725076703
 30
0.0
 10
11.5125443965
 20
6.7734915572
 30
0.0
 10
11.4931306468
 20
6.7747114213
 30
0.0
 10
11.4739585972
 20
6.7761645792
 30
0.0
 10
11.4550701491
 20
6.7778478403
 30
0.0
 10
11.4365065808
 20
6.7797575019
 30
0.0
 10
11.4183084538
 20
6.7818893686
 30
0.0
 10
11.4005155326
 20
6.7842387495
 30
0.0
 10
11.3831666622
 20
6.7868004825
 30
0.0
 10
11.3662998037
 20
6.7895689182
 30
0.0
 10
11.3552374619
 20
6.7915780033
 30
0.0
 10
11.3497942281
 20
6.7926180776
 30
0.0
  0
SPLINE
  5
356
100
AcDbEntity
  8
0
100
AcDbSpline
 62
7
  6
CONTINUOUS
 70
0
 71
3
 72
11
 73
7
 74
0
 42
0.0000001
 43
0.0000001
 44
0.0000000001
 40
0.0
 40
0.0
 40
0.0
 40
0.0
 40
0.2598462974
 40
0.5132467876
 40
0.7600213203
 40
1.0
 40
1.0
 40
1.0
 40
1.0
 10
11.2795032991
 20
6.3068807757
 30
0.0
 10
11.275850515
 20
6.3077180282
 30
0.0
 10
11.2686463041
 20
6.3094191258
 30
0.0
 10
11.2580144247
 20
6.3120866366
 30
0.0
 10
11.2476996973
 20
6.3148361506
 30
0.0
 10
11.2409450862
 20
6.316749294
 30
0.0
 10
11.2376230716
 20
6.3177201624
 30
0.0
  0
SPLINE
  5
357
100
AcDbEntity
  8
0
100
AcDbSpline
 62
7
  6
CONTINUOUS
 70
0
 71
3
 72
15
 73
11
 74
0
 42
0.0000001
 43
0.0000001
 44
0.0000000001
 40
0.0
 40
0.0
 40
0.0
 40
0.0
 40
0.1209946163
 40
0.2432467567
 40
0.3667038615
 40
0.4913087608
 40
0.6170016075
 40
0.7437214614
 40
0.8714074272
 40
1.0
 40
1.0
 40
1.0
 40
1.0
 10
11.8358401252
 20
6.7589272612
 30
0.0
 10
11.8325070732
 20
6.7569617878
 30
0.0
 10
11.8258650698
 20
6.7529099829
 30
0.0
 10
11.8160264794
 20
6.7465256001
 30
0.0
 10
11.8062620955
 20
6.7398222339
 30
0.0
 10
11.7965740215
 20
6.7328198263
 30
0.0
 10
11.786963318
 20
6.7255377163
 30
0.0
 10
11.7774303026
 20
6.717994542
 30
0.0
 10
11.767974663
 20
6.7102081157
 30
0.0
 10
11.761742918
 20
6.7048841799
 30
0.0
 10
11.7586387166
 20
6.7021868305
 30
0.0
  0
SPLINE
  5
358
100
AcDbEntity
  8
0
100
AcDbSpline
 62
7
  6
CONTINUOUS
 70
0
 71
3
 72
34
 73
30
 74
0
 42
0.0000001
 43
0.0000001
 44
0.0000000001
 40
0.0
 40
0.0
 40
0.0
 40
0.0
 40
0.0614928409
 40
0.1230891667
 40
0.153930456
 40
0.1848018751
 40
0.2157048016
 40
0.2466405691
 40
0.2776104456
 40
0.308615611
 40
0.339657133
 40
0.3707359447
 40
0.4018528241
 40
0.433008375
 40
0.4642030116
 40
0.4954369474
 40
0.5267101883
 40
0.5580225326
 40
0.5893735753
 40
0.6207627182
 40
0.6521891835
 40
0.6836520324
 40
0.7151501852
 40
0.7466824453
 40
0.7782475226
 40
0.8098440566
 40
0.8731242422
 40
0.9365133522
 40
1.0
 40
1.0
 40
1.0
 40
1.0
 10
11.701429278
 20
6.2776201096
 30
0.0
 10
11.6928092805
 20
6.2759951099
 30
0.0
 10
11.6755142226
 20
6.2729530199
 30
0.0
 10
11.6537918454
 20
6.2697253602
 30
0.0
 10
11.6363408031
 20
6.2675160591
 30
0.0
 10
11.6232101715
 20
6.2660524098
 30
0.0
 10
11.6100450843
 20
6.2647902968
 30
0.0
 10
11.5968475313
 20
6.2637368368
 30
0.0
 10
11.5836199075
 20
6.2628987668
 30
0.0
 10
11.5703649714
 20
6.2622823274
 30
0.0
 10
11.5570858437
 20
6.2618931566
 30
0.0
 10
11.5437859814
 20
6.2617361844
 30
0.0
 10
11.530469144
 20
6.2618155362
 30
0.0
 10
11.5171393481
 20
6.2621344464
 30
0.0
 10
11.5038008125
 20
6.2626951879
 30
0.0
 10
11.4904578954
 20
6.26349902
 30
0.0
 10
11.4771150255
 20
6.264546159
 30
0.0
 10
11.46377663
 20
6.2658357684
 30
0.0
 10
11.4504470634
 20
6.2673659787
 30
0.0
 10
11.4371305384
 20
6.2691339271
 30
0.0
 10
11.4238310636
 20
6.2711358183
 30
0.0
 10
11.4105523897
 20
6.2733670023
 30
0.0
 10
11.3972979612
 20
6.2758220688
 30
0.0
 10
11.384070896
 20
6.2784949434
 30
0.0
 10
11.3708739121
 20
6.2813790137
 30
0.0
 10
11.3533133775
 20
6.2854984339
 30
0.0
 10
11.3314498471
 20
6.2911400659
 30
0.0
 10
11.3053766168
 20
6.298631871
 30
0.0
 10
11.2881104702
 20
6.3040643752
 30
0.0
 10
11.2795032991
 20
6.3068807757
 30
0.0
  0
SPLINE
  5
359
100
AcDbEntity
  8
0
100
AcDbSpline
 62
7
  6
CONTINUOUS
 70
0
 71
3
 72
37
 73
33
 74
0
 42
0.0000001
 43
0.0000001
 44
0.0000000001
 40
0.0
 40
0.0
 40
0.0
 40
0.0
 40
0.0320287472
 40
0.0640311205
 40
0.0960043923
 40
0.1279455611
 40
0.159851441
 40
0.1917186505
 40
0.2235436484
 40
0.2553227761
 40
0.2870523307
 40
0.318728644
 40
0.3503481602
 40
0.381907556
 40
0.4134038501
 40
0.444834504
 40
0.4761975334
 40
0.5074915881
 40
0.5387160101
 40
0.5698708592
 40
0.6009569109
 40
0.6319756141
 40
0.6629290159
 40
0.6938196881
 40
0.7246506078
 40
0.755425049
 40
0.7861464927
 40
0.8168185117
 40
0.847444686
 40
0.8780285427
 40
0.9390791653
 40
1.0
 40
1.0
 40
1.0
 40
1.0
 10
11.701429278
 20
6.6982193354
 30
0.0
 10
11.6972767106
 20
6.7003620025
 30
0.0
 10
11.6889391006
 20
6.7045764754
 30
0.0
 10
11.67632831
 20
6.7106730087
 30
0.0
 10
11.6636166678
 20
6.7165262091
 30
0.0
 10
11.6508037757
 20
6.7221194577
 30
0.0
 10
11.6378900053
 20
6.7274354744
 30
0.0
 10
11.6248767067
 20
6.73245642
 30
0.0
 10
11.6117663383
 20
6.7371640947
 30
0.0
 10
11.5985626069
 20
6.7415401811
 30
0.0
 10
11.5852705817
 20
6.745566544
 30
0.0
 10
11.5718967785
 20
6.7492255759
 30
0.0
 10
11.5584492056
 20
6.7525006111
 30
0.0
 10
11.5449373441
 20
6.7553763453
 30
0.0
 10
11.5313720627
 20
6.7578392648
 30
0.0
 10
11.5177654686
 20
6.7598781081
 30
0.0
 10
11.5041306731
 20
6.7614842103
 30
0.0
 10
11.4904815023
 20
6.7626518229
 30
0.0
 10
11.4768321594
 20
6.7633783485
 30
0.0
 10
11.4631968538
 20
6.7636643769
 30
0.0
 10
11.4495894381
 20
6.7635137032
 30
0.0
 10
11.4360230632
 20
6.7629331437
 30
0.0
 10
11.4225098837
 20
6.7619322572
 30
0.0
 10
11.409060824
 20
6.760523035
 30
0.0
 10
11.3956854194
 20
6.7587194598
 30
0.0
 10
11.3823917308
 20
6.7565370878
 30
0.0
 10
11.3691863169
 20
6.7539926281
 30
0.0
 10
11.3560743011
 20
6.7511035289
 30
0.0
 10
11.3430593619
 20
6.747887589
 30
0.0
 10
11.325850311
 20
6.7431908503
 30
0.0
 10
11.3045863919
 20
6.7365917079
 30
0.0
 10
11.2878190667
 20
6.7306174212
 30
0.0
 10
11.2795032991
 20
6.7274800014
 30
0.0
  0
SPLINE
  5
35A
100
AcDbEntity
  8
0
100
AcDbSpline
 62
7
  6
CONTINUOUS
 70
0
 71
3
 72
15
 73
11
 74
0
 42
0.0000001
 43
0.0000001
 44
0.0000000001
 40
0.0
 40
0.0
 40
0.0
 40
0.0
 40
0.1192556975
 40
0.2392875357
 40
0.3604859033
 40
0.483279967
 40
0.6081324973
 40
0.7355322617
 40
0.8659845135
 40
1.0
 40
1.0
 40
1.0
 40
1.0
 10
11.2376230716
 20
6.3177201624
 30
0.0
 10
11.2363408365
 20
6.3177247251
 30
0.0
 10
11.2337677072
 20
6.3178014028
 30
0.0
 10
11.2299036198
 20
6.3181279801
 30
0.0
 10
11.2260261243
 20
6.3186768685
 30
0.0
 10
11.2221357981
 20
6.3194584874
 30
0.0
 10
11.2182332219
 20
6.3204830421
 30
0.0
 10
11.2143191391
 20
6.3217603953
 30
0.0
 10
11.21039462
 20
6.3232997812
 30
0.0
 10
11.2078097422
 20
6.3244891185
 30
0.0
 10
11.2065178067
 20
6.3251272517
 30
0.0
  0
SPLINE
  5
35B
100
AcDbEntity
  8
0
100
AcDbSpline
 62
7
  6
CONTINUOUS
 70
0
 71
3
 72
15
 73
11
 74
0
 42
0.0000001
 43
0.0000001
 44
0.0000000001
 40
0.0
 40
0.0
 40
0.0
 40
0.0
 40
0.1361750042
 40
0.2695801389
 40
0.4000133027
 40
0.5272628008
 40
0.6511096758
 40
0.7713303612
 40
0.8877005097
 40
1.0
 40
1.0
 40
1.0
 40
1.0
 10
11.2376230716
 20
6.7383193882
 30
0.0
 10
11.2364939577
 20
6.7412921086
 30
0.0
 10
11.2342290633
 20
6.7471658911
 30
0.0
 10
11.2307707685
 20
6.7558433877
 30
0.0
 10
11.2272845151
 20
6.7642846718
 30
0.0
 10
11.2237702188
 20
6.7724720248
 30
0.0
 10
11.220228034
 20
6.7803868423
 30
0.0
 10
11.2166583835
 20
6.7880097831
 30
0.0
 10
11.2130620443
 20
6.7953208674
 30
0.0
 10
11.2106020594
 20
6.800060958
 30
0.0
 10
11.2093653651
 20
6.8023734337
 30
0.0
  0
SPLINE
  5
35C
100
AcDbEntity
  8
0
100
AcDbSpline
 62
7
  6
CONTINUOUS
 70
0
 71
3
 72
32
 73
28
 74
0
 42
0.0000001
 43
0.0000001
 44
0.0000000001
 40
0.0
 40
0.0
 40
0.0
 40
0.0
 40
0.0668467461
 40
0.1330343711
 40
0.1985498456
 40
0.2633895225
 40
0.2955589434
 40
0.3275629011
 40
0.3594039835
 40
0.3910854601
 40
0.4226112559
 40
0.4539859114
 40
0.4852145321
 40
0.5163027271
 40
0.54725654
 40
0.5780823734
 40
0.6087869096
 40
0.6393770305
 40
0.6698597382
 40
0.7002420785
 40
0.7305310697
 40
0.7607336373
 40
0.790856557
 40
0.8209064041
 40
0.880809966
 40
0.940493758
 40
1.0
 40
1.0
 40
1.0
 40
1.0
 10
12.009728958
 20
6.3294937514
 30
0.0
 10
12.0045509161
 20
6.3269357529
 30
0.0
 10
11.9941747482
 20
6.3219872689
 30
0.0
 10
11.9784749899
 20
6.3150678637
 30
0.0
 10
11.9627231061
 20
6.3087172525
 30
0.0
 10
11.9495271872
 20
6.3039083014
 30
0.0
 10
11.9389561146
 20
6.3003717514
 30
0.0
 10
11.931042542
 20
6.2978822175
 30
0.0
 10
11.9231250066
 20
6.2955504415
 30
0.0
 10
11.9152051863
 20
6.2933776535
 30
0.0
 10
11.9072848173
 20
6.2913646591
 30
0.0
 10
11.8993656339
 20
6.2895118064
 30
0.0
 10
11.8914493608
 20
6.287818989
 30
0.0
 10
11.8835376917
 20
6.2862856475
 30
0.0
 10
11.8756322731
 20
6.2849107799
 30
0.0
 10
11.8677346869
 20
6.2836929578
 30
0.0
 10
11.8598464369
 20
6.2826303485
 30
0.0
 10
11.8519689357
 20
6.2817207419
 30
0.0
 10
11.844103494
 20
6.2809615815
 30
0.0
 10
11.836251314
 20
6.280349998
 30
0.0
 10
11.8284134803
 20
6.2798828468
 30
0.0
 10
11.8205909681
 20
6.2795567427
 30
0.0
 10
11.8127845997
 20
6.2793681043
 30
0.0
 10
11.8024100998
 20
6.2792949356
 30
0.0
 10
11.7894813104
 20
6.2795271786
 30
0.0
 10
11.7740247488
 20
6.2802938431
 30
0.0
 10
11.763757638
 20
6.2811093349
 30
0.0
 10
11.7586387166
 20
6.2815876047
 30
0.0
  0
SPLINE
  5
35D
100
AcDbEntity
  8
0
100
AcDbSpline
 62
7
  6
CONTINUOUS
 70
0
 71
3
 72
86
 73
82
 74
0
 42
0.0000001
 43
0.0000001
 44
0.0000000001
 40
0.0
 40
0.0
 40
0.0
 40
0.0
 40
0.0039801735
 40
0.0081241171
 40
0.0124359931
 40
0.016919361
 40
0.0215772361
 40
0.0264119817
 40
0.0314252561
 40
0.0366182449
 40
0.0419916453
 40
0.0475457694
 40
0.0532805541
 40
0.0591955582
 40
0.0652900785
 40
0.0715630739
 40
0.0846387684
 40
0.0984101018
 40
0.112860694
 40
0.1279712428
 40
0.1437198619
 40
0.1600823544
 40
0.1770324406
 40
0.1945419645
 40
0.2125810668
 40
0.2311183398
 40
0.2501209668
 40
0.2695548486
 40
0.289384725
 40
0.3095742955
 40
0.3300863312
 40
0.3508827821
 40
0.3719248818
 40
0.3931732491
 40
0.4145879914
 40
0.4577543474
 40
0.501099203
 40
0.5442952951
 40
0.5657359749
 40
0.587017582
 40
0.6081001434
 40
0.6289441761
 40
0.6495107926
 40
0.6697618048
 40
0.6896598276
 40
0.709168385
 40
0.7282520204
 40
0.7468764117
 40
0.7650084972
 40
0.7826166038
 40
0.7996705814
 40
0.8161419537
 40
0.8320040874
 40
0.8472323859
 40
0.8618045214
 40
0.8757007003
 40
0.8889039845
 40
0.9014006969
 40
0.9073810972
 40
0.9131815075
 40
0.9188013673
 40
0.9242405009
 40
0.9294990443
 40
0.9345775709
 40
0.9394770909
 40
0.9441990928
 40
0.9487456636
 40
0.9531194621
 40
0.9573238984
 40
0.9613631411
 40
0.9652422549
 40
0.9689673208
 40
0.9725454977
 40
0.9759852252
 40
0.9824864215
 40
0.9855752926
 40
0.9885737717
 40
0.9914977072
 40
0.9943643167
 40
0.9971920017
 40
1.0
 40
1.0
 40
1.0
 40
1.0
 10
11.211537751
 20
10.4711644927
 30
0.0
 10
11.2105474736
 20
10.4702079582
 30
0.0
 10
11.2084812003
 20
10.4683016501
 30
0.0
 10
11.2052005885
 20
10.4655173366
 30
0.0
 10
11.2016790656
 20
10.4627529843
 30
0.0
 10
11.1979185647
 20
10.4600100822
 30
0.0
 10
11.1939209324
 20
10.4572898981
 30
0.0
 10
11.1896881134
 20
10.4545937694
 30
0.0
 10
11.1852222295
 20
10.4519229695
 30
0.0
 10
11.180525494
 20
10.4492788885
 30
0.0
 10
11.1756002762
 20
10.4466628114
 30
0.0
 10
11.1704490351
 20
10.4440760555
 30
0.0
 10
11.1650743467
 20
10.4415199303
 30
0.0
 10
11.1594789212
 20
10.4389956911
 30
0.0
 10
11.1536655501
 20
10.4365046368
 30
0.0
 10
11.1455146947
 20
10.4331831359
 30
0.0
 10
11.1347956366
 20
10.429132245
 30
0.0
 10
11.1212841448
 20
10.4244878396
 30
0.0
 10
11.1069790132
 20
10.4200046942
 30
0.0
 10
11.0919090826
 20
10.4156919213
 30
0.0
 10
11.0761046041
 20
10.4115583
 30
0.0
 10
11.0595974146
 20
10.4076122507
 30
0.0
 10
11.0424207938
 20
10.4038618087
 30
0.0
 10
11.0246094063
 20
10.4003146136
 30
0.0
 10
11.0061992181
 20
10.3969778901
 30
0.0
 10
10.9872274216
 20
10.3938584342
 30
0.0
 10
10.9677323582
 20
10.3909625991
 30
0.0
 10
10.9477534403
 20
10.3882962806
 30
0.0
 10
10.9273310698
 20
10.3858649025
 30
0.0
 10
10.9065065521
 20
10.383673411
 30
0.0
 10
10.8853220111
 20
10.3817262645
 30
0.0
 10
10.863820299
 20
10.3800274223
 30
0.0
 10
10.8420449266
 20
10.3785803478
 30
0.0
 10
10.8200399142
 20
10.3773879603
 30
0.0
 10
10.790375773
 20
10.3761377756
 30
0.0
 10
10.7530495898
 20
10.3752296952
 30
0.0
 10
10.7081778065
 20
10.3751823488
 30
0.0
 10
10.6708305327
 20
10.3760115036
 30
0.0
 10
10.6411330244
 20
10.3771986731
 30
0.0
 10
10.6190910254
 20
10.3783444614
 30
0.0
 10
10.5972705997
 20
10.3797454139
 30
0.0
 10
10.5757158599
 20
10.3813987079
 30
0.0
 10
10.5544704259
 20
10.3833009748
 30
0.0
 10
10.5335772742
 20
10.385448345
 30
0.0
 10
10.5130786671
 20
10.387836449
 30
0.0
 10
10.4930160638
 20
10.3904604283
 30
0.0
 10
10.4734300363
 20
10.3933149435
 30
0.0
 10
10.454360185
 20
10.396394187
 30
0.0
 10
10.4358450539
 20
10.3996918887
 30
0.0
 10
10.4179220497
 20
10.403201331
 30
0.0
 10
10.4006273658
 20
10.4069153652
 30
0.0
 10
10.3839959063
 20
10.4108264258
 30
0.0
 10
10.3680612119
 20
10.4149265459
 30
0.0
 10
10.3528553769
 20
10.419207378
 30
0.0
 10
10.3384089954
 20
10.4236602062
 30
0.0
 10
10.3247510057
 20
10.4282759769
 30
0.0
 10
10.311908908
 20
10.4330453193
 30
0.0
 10
10.3017648118
 20
10.4371983125
 30
0.0
 10
10.2940851939
 20
10.440597979
 30
0.0
 10
10.2886298858
 20
10.4431426596
 30
0.0
 10
10.2833970669
 20
10.4457184345
 30
0.0
 10
10.2783893375
 20
10.4483239848
 30
0.0
 10
10.2736092216
 20
10.4509580395
 30
0.0
 10
10.2690591028
 20
10.4536192658
 30
0.0
 10
10.2647412477
 20
10.4563063332
 30
0.0
 10
10.2606578263
 20
10.459017948
 30
0.0
 10
10.256810843
 20
10.4617527277
 30
0.0
 10
10.2532022421
 20
10.4645093968
 30
0.0
 10
10.249833791
 20
10.4672865858
 30
0.0
 10
10.2467071837
 20
10.470082985
 30
0.0
 10
10.2438239816
 20
10.4728973201
 30
0.0
 10
10.241185675
 20
10.4757281552
 30
0.0
 10
10.2387934619
 20
10.4785745941
 30
0.0
 10
10.2359871131
 20
10.4823172835
 30
0.0
 10
10.2336041009
 20
10.4861608909
 30
0.0
 10
10.2317120612
 20
10.49008655
 30
0.0
 10
10.2305689159
 20
10.4929898777
 30
0.0
 10
10.229678662
 20
10.4959002558
 30
0.0
 10
10.229042128
 20
10.4988162998
 30
0.0
 10
10.2286599064
 20
10.5017359042
 30
0.0
 10
10.2285748173
 20
10.5036864341
 30
0.0
 10
10.2285748129
 20
10.5046577691
 30
0.0
  0
SPLINE
  5
35E
100
AcDbEntity
  8
0
100
AcDbSpline
 62
7
  6
CONTINUOUS
 70
0
 71
3
 72
21
 73
17
 74
0
 42
0.0000001
 43
0.0000001
 44
0.0000000001
 40
0.0
 40
0.0
 40
0.0
 40
0.0
 40
0.1273176366
 40
0.2537999756
 40
0.3167619475
 40
0.3795355041
 40
0.4421314991
 40
0.5045621439
 40
0.5668413432
 40
0.6289845283
 40
0.6910084528
 40
0.7529310935
 40
0.8147714495
 40
0.8765493365
 40
0.9382852194
 40
1.0
 40
1.0
 40
1.0
 40
1.0
 10
11.487340424
 20
9.9822346487
 30
0.0
 10
11.487340424
 20
9.9769373988
 30
0.0
 10
11.4868347666
 20
9.9663708346
 30
0.0
 10
11.4849250625
 20
9.9533082781
 30
0.0
 10
11.4826425415
 20
9.9430618445
 30
0.0
 10
11.480561005
 20
9.9355040714
 30
0.0
 10
11.4781122174
 20
9.9280805874
 30
0.0
 10
11.4753017896
 20
9.9208083076
 30
0.0
 10
11.4721362222
 20
9.9137040457
 30
0.0
 10
11.4686227709
 20
9.9067841853
 30
0.0
 10
11.4647695176
 20
9.900064701
 30
0.0
 10
11.460585371
 20
9.8935610691
 30
0.0
 10
11.4560799687
 20
9.8872883164
 30
0.0
 10
11.4512636214
 20
9.8812608845
 30
0.0
 10
11.4461476628
 20
9.8754928379
 30
0.0
 10
11.4425444596
 20
9.8718285979
 30
0.0
 10
11.4406976008
 20
9.8700446689
 30
0.0
  0
SPLINE
  5
35F
100
AcDbEntity
  8
0
100
AcDbSpline
 62
7
  6
CONTINUOUS
 70
0
 71
3
 72
21
 73
17
 74
0
 42
0.0000001
 43
0.0000001
 44
0.0000000001
 40
0.0
 40
0.0
 40
0.0
 40
0.0
 40
0.1273176366
 40
0.2537999756
 40
0.3167619475
 40
0.3795355041
 40
0.4421314991
 40
0.5045621439
 40
0.5668413432
 40
0.6289845283
 40
0.6910084528
 40
0.7529310935
 40
0.8147714495
 40
0.8765493365
 40
0.9382852194
 40
1.0
 40
1.0
 40
1.0
 40
1.0
 10
10.5214145405
 20
7.1514441569
 30
0.0
 10
10.5214145405
 20
7.146146907
 30
0.0
 10
10.5209088831
 20
7.1355803428
 30
0.0
 10
10.518999179
 20
7.1225177863
 30
0.0
 10
10.516716658
 20
7.1122713527
 30
0.0
 10
10.5146351215
 20
7.1047135796
 30
0.0
 10
10.5121863339
 20
7.0972900956
 30
0.0
 10
10.5093759061
 20
7.0900178158
 30
0.0
 10
10.5062103387
 20
7.0829135539
 30
0.0
 10
10.5026968873
 20
7.0759936935
 30
0.0
 10
10.4988436341
 20
7.0692742092
 30
0.0
 10
10.4946594875
 20
7.0627705773
 30
0.0
 10
10.4901540852
 20
7.0564978246
 30
0.0
 10
10.4853377379
 20
7.0504703927
 30
0.0
 10
10.4802217793
 20
7.0447023461
 30
0.0
 10
10.476618576
 20
7.041038106
 30
0.0
 10
10.4747717172
 20
7.0392541771
 30
0.0
  0
SPLINE
  5
360
100
AcDbEntity
  8
0
100
AcDbSpline
 62
7
  6
CONTINUOUS
 70
0
 71
3
 72
39
 73
35
 74
0
 42
0.0000001
 43
0.0000001
 44
0.0000000001
 40
0.0
 40
0.0
 40
0.0
 40
0.0
 40
0.0321624082
 40
0.0640912178
 40
0.0957948614
 40
0.1272917745
 40
0.1586111408
 40
0.1897904539
 40
0.2208735529
 40
0.2519083328
 40
0.2829447797
 40
0.3140333138
 40
0.3452232701
 40
0.3765616776
 40
0.4080920796
 40
0.4398530315
 40
0.4718763116
 40
0.5041843969
 40
0.5367867109
 40
0.5696746057
 40
0.6028151261
 40
0.6361439433
 40
0.6695591015
 40
0.7029182158
 40
0.7360427339
 40
0.7687317544
 40
0.8007853076
 40
0.8320313912
 40
0.8623488147
 40
0.891679833
 40
0.9200302229
 40
0.947460537
 40
0.9740732733
 40
1.0
 40
1.0
 40
1.0
 40
1.0
 10
10.7153087537
 20
7.7954915822
 30
0.0
 10
10.7153087537
 20
7.7909117872
 30
0.0
 10
10.7156725935
 20
7.7817810744
 30
0.0
 10
10.717316424
 20
7.7682253354
 30
0.0
 10
10.7200342984
 20
7.754939426
 30
0.0
 10
10.7237912631
 20
7.7420000978
 30
0.0
 10
10.7285418292
 20
7.7294719503
 30
0.0
 10
10.734233292
 20
7.7174081261
 30
0.0
 10
10.7408087772
 20
7.705849937
 30
0.0
 10
10.7482100948
 20
7.6948278437
 30
0.0
 10
10.756380013
 20
7.6843628299
 30
0.0
 10
10.7652639166
 20
7.6744681149
 30
0.0
 10
10.7748108327
 20
7.6651509407
 30
0.0
 10
10.7849738839
 20
7.6564143159
 30
0.0
 10
10.7957102236
 20
7.6482586356
 30
0.0
 10
10.8069804997
 20
7.640683151
 30
0.0
 10
10.818747852
 20
7.6336872961
 30
0.0
 10
10.8309763983
 20
7.6272718921
 30
0.0
 10
10.8436291304
 20
7.6214402416
 30
0.0
 10
10.8566651664
 20
7.6161990545
 30
0.0
 10
10.8700364257
 20
7.6115591031
 30
0.0
 10
10.8836840102
 20
7.6075354126
 30
0.0
 10
10.8975349618
 20
7.6041467583
 30
0.0
 10
10.9115005424
 20
7.6014142337
 30
0.0
 10
10.9254773646
 20
7.5993589141
 30
0.0
 10
10.9393523375
 20
7.5979988967
 30
0.0
 10
10.9530110979
 20
7.5973465504
 30
0.0
 10
10.966348027
 20
7.5974068857
 30
0.0
 10
10.9792749818
 20
7.5981775483
 30
0.0
 10
10.9917263469
 20
7.5996503787
 30
0.0
 10
11.0036594294
 20
7.6018139335
 30
0.0
 10
11.0150515782
 20
7.6046562581
 30
0.0
 10
11.0258937593
 20
7.6081663539
 30
0.0
 10
11.0328351016
 20
7.610978487
 30
0.0
 10
11.0362021492
 20
7.6124926922
 30
0.0
  0
SPLINE
  5
361
100
AcDbEntity
  8
0
100
AcDbSpline
 62
7
  6
CONTINUOUS
 70
0
 71
3
 72
21
 73
17
 74
0
 42
0.0000001
 43
0.0000001
 44
0.0000000001
 40
0.0
 40
0.0
 40
0.0
 40
0.0
 40
0.12731758
 40
0.2538000122
 40
0.3167619425
 40
0.3795355005
 40
0.4421315041
 40
0.5045621466
 40
0.5668413435
 40
0.6289845285
 40
0.6910084568
 40
0.7529310961
 40
0.8147714484
 40
0.8765493394
 40
0.9382852242
 40
1.0
 40
1.0
 40
1.0
 40
1.0
 10
11.0599070911
 20
7.7063480357
 30
0.0
 10
11.0599070911
 20
7.6998496672
 30
0.0
 10
11.0592867756
 20
7.6868871929
 30
0.0
 10
11.0569440661
 20
7.6708627744
 30
0.0
 10
11.0541439902
 20
7.6582930183
 30
0.0
 10
11.0515904699
 20
7.6490215667
 30
0.0
 10
11.0485864455
 20
7.6399148455
 30
0.0
 10
11.0451387662
 20
7.6309936178
 30
0.0
 10
11.0412554126
 20
7.6222785104
 30
0.0
 10
11.036945316
 20
7.6137896059
 30
0.0
 10
11.0322183633
 20
7.6055465138
 30
0.0
 10
11.027085471
 20
7.5975682291
 30
0.0
 10
11.0215584956
 20
7.589873165
 30
0.0
 10
11.0156500839
 20
7.5824790342
 30
0.0
 10
11.0093740918
 20
7.5754031323
 30
0.0
 10
11.0049538896
 20
7.5709080398
 30
0.0
 10
11.0026882602
 20
7.5687196215
 30
0.0
  0
SPLINE
  5
362
100
AcDbEntity
  8
0
100
AcDbSpline
 62
7
  6
CONTINUOUS
 70
0
 71
3
 72
41
 73
37
 74
0
 42
0.0000001
 43
0.0000001
 44
0.0000000001
 40
0.0
 40
0.0
 40
0.0
 40
0.0
 40
0.0310750003
 40
0.046674464
 40
0.062312494
 40
0.0936974057
 40
0.1252262387
 40
0.1568876805
 40
0.1886675201
 40
0.2205491599
 40
0.2525139229
 40
0.268523588
 40
0.2845462912
 40
0.3166149974
 40
0.3487024468
 40
0.3807858411
 40
0.4128424624
 40
0.4448501254
 40
0.4767876212
 40
0.5086351486
 40
0.5403747235
 40
0.5719905626
 40
0.6034694315
 40
0.6348009518
 40
0.6659778585
 40
0.6969962
 40
0.7278554736
 40
0.7585586902
 40
0.7891123605
 40
0.8195263996
 40
0.849813947
 40
0.8799911023
 40
0.9100765789
 40
0.9400912834
 40
0.9700578297
 40
1.0
 40
1.0
 40
1.0
 40
1.0
 10
11.0599070911
 20
7.7063480357
 30
0.0
 10
11.0599070911
 20
7.7113988959
 30
0.0
 10
11.0596247596
 20
7.7189890705
 30
0.0
 10
11.0586923251
 20
7.7290757813
 30
0.0
 10
11.0573857933
 20
7.7391721487
 30
0.0
 10
11.0550567518
 20
7.7517378419
 30
0.0
 10
11.0511719077
 20
7.7666241863
 30
0.0
 10
11.046214955
 20
7.7812566549
 30
0.0
 10
11.0402132004
 20
7.7955545531
 30
0.0
 10
11.0331999534
 20
7.8094391628
 30
0.0
 10
11.0265472389
 20
7.8205975124
 30
0.0
 10
11.0207608544
 20
7.8292436534
 30
0.0
 10
11.0146679029
 20
7.8376974078
 30
0.0
 10
11.00650143
 20
7.8478679419
 30
0.0
 10
10.9958791658
 20
7.8593674551
 30
0.0
 10
10.9844885475
 20
7.8701040892
 30
0.0
 10
10.9723923595
 20
7.8800185152
 30
0.0
 10
10.9596569046
 20
7.8890563904
 30
0.0
 10
10.9463520802
 20
7.8971680316
 30
0.0
 10
10.9325508821
 20
7.9043088523
 30
0.0
 10
10.9183290406
 20
7.9104395618
 30
0.0
 10
10.9037646025
 20
7.9155263925
 30
0.0
 10
10.8889375106
 20
7.919541283
 30
0.0
 10
10.8739291706
 20
7.9224620349
 30
0.0
 10
10.8588220113
 20
7.9242724384
 30
0.0
 10
10.8436990373
 20
7.9249623661
 30
0.0
 10
10.8286433787
 20
7.9245278362
 30
0.0
 10
10.8137378384
 20
7.9229710424
 30
0.0
 10
10.7990644391
 20
7.920300355
 30
0.0
 10
10.7847039698
 20
7.9165302823
 30
0.0
 10
10.7707355463
 20
7.9116814081
 30
0.0
 10
10.7572361428
 20
7.9057802633
 30
0.0
 10
10.7442802601
 20
7.8988592873
 30
0.0
 10
10.7319391304
 20
7.890956289
 30
0.0
 10
10.7202817025
 20
7.88211561
 30
0.0
 10
10.7130056279
 20
7.8756261797
 30
0.0
 10
10.7095051992
 20
7.8722450431
 30
0.0
  0
SPLINE
  5
363
100
AcDbEntity
  8
0
100
AcDbSpline
 62
7
  6
CONTINUOUS
 70
0
 71
3
 72
53
 73
49
 74
0
 42
0.0000001
 43
0.0000001
 44
0.0000000001
 40
0.0
 40
0.0
 40
0.0
 40
0.0
 40
0.0468839926
 40
0.093479662
 40
0.1396939221
 40
0.1854357785
 40
0.2306147747
 40
0.2751421982
 40
0.3189309336
 40
0.3618958536
 40
0.4039540307
 40
0.4450250155
 40
0.4850311094
 40
0.5238976567
 40
0.5615533556
 40
0.5979305973
 40
0.63296584
 40
0.6666000309
 40
0.6987790954
 40
0.7294545154
 40
0.7442152979
 40
0.7585848654
 40
0.7725591076
 40
0.7861343371
 40
0.7993075024
 40
0.8120760882
 40
0.8244382836
 40
0.8363929734
 40
0.8479398372
 40
0.8590794564
 40
0.8698133453
 40
0.8801441771
 40
0.8900757728
 40
0.8996134305
 40
0.9087639222
 40
0.9175358893
 40
0.9259399121
 40
0.9339889258
 40
0.9416984071
 40
0.9490867647
 40
0.9561756283
 40
0.9629901444
 40
0.9695592545
 40
0.9759157649
 40
0.982096382
 40
0.988141365
 40
0.9940940545
 40
1.0
 40
1.0
 40
1.0
 40
1.0
 10
12.2871270556
 20
8.9511946797
 30
0.0
 10
12.2880790159
 20
8.9613657798
 30
0.0
 10
12.2900946011
 20
8.981634637
 30
0.0
 10
12.2934617646
 20
9.0118864032
 30
0.0
 10
12.2971582713
 20
9.0418490242
 30
0.0
 10
12.3011762226
 20
9.0714587684
 30
0.0
 10
12.3055070929
 20
9.1006528788
 30
0.0
 10
12.3101416506
 20
9.1293693638
 30
0.0
 10
12.315070034
 20
9.1575473015
 30
0.0
 10
12.3202817447
 20
9.1851269022
 30
0.0
 10
12.325765681
 20
9.2120496606
 30
0.0
 10
12.3315101569
 20
9.2382584748
 30
0.0
 10
12.3375029282
 20
9.2636977719
 30
0.0
 10
12.3437312174
 20
9.2883136293
 30
0.0
 10
12.3501817419
 20
9.3120538921
 30
0.0
 10
12.3568407415
 20
9.3348682955
 30
0.0
 10
12.3636940086
 20
9.3567085582
 30
0.0
 10
12.3707269233
 20
9.3775285663
 30
0.0
 10
12.3779244808
 20
9.3972842299
 30
0.0
 10
12.3841237088
 20
9.4130211385
 30
0.0
 10
12.3891623551
 20
9.4250391177
 30
0.0
 10
12.3929244756
 20
9.4336451911
 30
0.0
 10
12.3967161787
 20
9.4419551612
 30
0.0
 10
12.4005355233
 20
9.4499646335
 30
0.0
 10
12.4043804392
 20
9.4576693876
 30
0.0
 10
12.4082489233
 20
9.4650653513
 30
0.0
 10
12.4121389114
 20
9.4721486329
 30
0.0
 10
12.4160483566
 20
9.4789155043
 30
0.0
 10
12.4199752101
 20
9.4853624058
 30
0.0
 10
12.4239173883
 20
9.4914859668
 30
0.0
 10
12.4278728681
 20
9.4972829641
 30
0.0
 10
12.4318395442
 20
9.5027503944
 30
0.0
 10
12.4358154266
 20
9.5078853745
 30
0.0
 10
12.439798415
 20
9.5126852695
 30
0.0
 10
12.4437865557
 20
9.5171475397
 30
0.0
 10
12.4477777912
 20
9.5212699031
 30
0.0
 10
12.4517702065
 20
9.5250501602
 30
0.0
 10
12.4557618239
 20
9.528486343
 30
0.0
 10
12.459750768
 20
9.5315765689
 30
0.0
 10
12.4637351541
 20
9.5343191144
 30
0.0
 10
12.4677131241
 20
9.5367123618
 30
0.0
 10
12.4716828358
 20
9.5387547403
 30
0.0
 10
12.4756423566
 20
9.5404448361
 30
0.0
 10
12.4795897324
 20
9.5417811812
 30
0.0
 10
12.4835227485
 20
9.5427625895
 30
0.0
 10
12.4874392073
 20
9.543387827
 30
0.0
 10
12.491336094
 20
9.5436561887
 30
0.0
 10
12.4939236143
 20
9.5435966312
 30
0.0
 10
12.4952073775
 20
9.5435076047
 30
0.0
  0
SPLINE
  5
364
100
AcDbEntity
  8
0
100
AcDbSpline
 62
7
  6
CONTINUOUS
 70
0
 71
3
 72
18
 73
14
 74
0
 42
0.0000001
 43
0.0000001
 44
0.0000000001
 40
0.0
 40
0.0
 40
0.0
 40
0.0
 40
0.0548621106
 40
0.1099281304
 40
0.165399556
 40
0.2214731722
 40
0.2783387379
 40
0.3361775111
 40
0.4554063056
 40
0.5804414047
 40
0.7123341351
 40
0.8519581983
 40
1.0
 40
1.0
 40
1.0
 40
1.0
 10
11.2285748055
 20
10.5046584039
 30
0.0
 10
11.2285748087
 20
10.5039522579
 30
0.0
 10
11.2285299962
 20
10.5025369358
 30
0.0
 10
11.2283285
 20
10.5004162529
 30
0.0
 10
11.2279927496
 20
10.4982967936
 30
0.0
 10
11.2275228719
 20
10.4961793314
 30
0.0
 10
11.2269190649
 20
10.4940643952
 30
0.0
 10
11.2259259143
 20
10.4912203768
 30
0.0
 10
11.2243348972
 20
10.4876632743
 30
0.0
 10
11.2219132639
 20
10.4834623181
 30
0.0
 10
11.2189638313
 20
10.4792885475
 30
0.0
 10
11.2154910864
 20
10.4751461688
 30
0.0
 10
11.2129082823
 20
10.4724883244
 30
0.0
 10
11.211537751
 20
10.4711644927
 30
0.0
  0
SPLINE
  5
365
100
AcDbEntity
  8
0
100
AcDbSpline
 62
7
  6
CONTINUOUS
 70
0
 71
3
 72
18
 73
14
 74
0
 42
0.0000001
 43
0.0000001
 44
0.0000000001
 40
0.0
 40
0.0
 40
0.0
 40
0.0
 40
0.1264462569
 40
0.1896026429
 40
0.2526949132
 40
0.378620474
 40
0.5041365625
 40
0.6291322962
 40
0.6914112289
 40
0.7535196859
 40
0.8154443188
 40
0.8771759799
 40
1.0
 40
1.0
 40
1.0
 40
1.0
 10
10.7476691957
 20
7.9005676466
 30
0.0
 10
10.7451280424
 20
7.8966172539
 30
0.0
 10
10.7415027204
 20
7.89057133
 30
0.0
 10
10.7370725939
 20
7.8822941419
 30
0.0
 10
10.7329263283
 20
7.8738924654
 30
0.0
 10
10.7282846537
 20
7.8631592216
 30
0.0
 10
10.7236327798
 20
7.8499603409
 30
0.0
 10
10.720561747
 20
7.838742483
 30
0.0
 10
10.7186144051
 20
7.8296837334
 30
0.0
 10
10.7174140436
 20
7.8228659425
 30
0.0
 10
10.7164760911
 20
7.8160274919
 30
0.0
 10
10.715581121
 20
7.8069137744
 30
0.0
 10
10.7153087537
 20
7.8000541595
 30
0.0
 10
10.7153087537
 20
7.7954915822
 30
0.0
  0
SPLINE
  5
366
100
AcDbEntity
  8
0
100
AcDbSpline
 62
7
  6
CONTINUOUS
 70
0
 71
3
 72
42
 73
38
 74
0
 42
0.0000001
 43
0.0000001
 44
0.0000000001
 40
0.0
 40
0.0
 40
0.0
 40
0.0
 40
0.0299419663
 40
0.0449235352
 40
0.0599142051
 40
0.0899287052
 40
0.1200139767
 40
0.135092661
 40
0.150196701
 40
0.1804840414
 40
0.210897872
 40
0.2414513324
 40
0.2721543376
 40
0.3030133986
 40
0.3340315263
 40
0.3652082187
 40
0.3965395244
 40
0.4280181782
 40
0.4596338019
 40
0.4913731609
 40
0.5232204716
 40
0.55515775
 40
0.5871651943
 40
0.6192215961
 40
0.6513047701
 40
0.6833919991
 40
0.7154604852
 40
0.7474878032
 40
0.7794523473
 40
0.8113337692
 40
0.8431133916
 40
0.8747746171
 40
0.9063032365
 40
0.9376879249
 40
0.9533258257
 40
0.968925233
 40
1.0
 40
1.0
 40
1.0
 40
1.0
 10
11.2017047434
 20
10.117468221
 30
0.0
 10
11.2045581661
 20
10.1202244162
 30
0.0
 10
11.209006475
 20
10.1241917235
 30
0.0
 10
11.2152362624
 20
10.1291142626
 30
0.0
 10
11.2216644239
 20
10.1337918694
 30
0.0
 10
11.2300521325
 20
10.1391632709
 30
0.0
 10
11.2388476667
 20
10.143861686
 30
0.0
 10
11.2461016882
 20
10.1472041861
 30
0.0
 10
11.2535055842
 20
10.1502707038
 30
0.0
 10
11.263004428
 20
10.1535681303
 30
0.0
 10
11.2747103278
 20
10.1566412429
 30
0.0
 10
11.2866716543
 20
10.158818327
 30
0.0
 10
11.2988221226
 20
10.1600873641
 30
0.0
 10
11.3110949867
 20
10.1604415837
 30
0.0
 10
11.3234227178
 20
10.1598791823
 30
0.0
 10
11.3357375596
 20
10.1584034084
 30
0.0
 10
11.3479718474
 20
10.1560225156
 30
0.0
 10
11.3600583884
 20
10.1527497173
 30
0.0
 10
11.3719308228
 20
10.1486031082
 30
0.0
 10
11.3835239837
 20
10.1436055628
 30
0.0
 10
11.3947742493
 20
10.1377846076
 30
0.0
 10
11.4056198879
 20
10.1311722702
 30
0.0
 10
11.4160013918
 20
10.1238049031
 30
0.0
 10
11.4258617998
 20
10.1157229846
 30
0.0
 10
11.4351470055
 20
10.1069708985
 30
0.0
 10
11.4438060516
 20
10.0975966923
 30
0.0
 10
11.451791406
 20
10.0876518162
 30
0.0
 10
11.4590592202
 20
10.0771908429
 30
0.0
 10
11.4655695682
 20
10.0662711747
 30
0.0
 10
11.4712866637
 20
10.0549527194
 30
0.0
 10
11.4761790549
 20
10.0432976128
 30
0.0
 10
11.4802198042
 20
10.0313697092
 30
0.0
 10
11.4833865929
 20
10.0192348731
 30
0.0
 10
11.4852851499
 20
10.0089917516
 30
0.0
 10
11.4863501874
 20
10.0007615342
 30
0.0
 10
11.4871102769
 20
9.9925391905
 30
0.0
 10
11.487340424
 20
9.9863519351
 30
0.0
 10
11.487340424
 20
9.9822346487
 30
0.0
  0
SPLINE
  5
367
100
AcDbEntity
  8
0
100
AcDbSpline
 62
7
  6
CONTINUOUS
 70
0
 71
3
 72
42
 73
38
 74
0
 42
0.0000001
 43
0.0000001
 44
0.0000000001
 40
0.0
 40
0.0
 40
0.0
 40
0.0
 40
0.0299419663
 40
0.0449235352
 40
0.0599142051
 40
0.0899287052
 40
0.1200139767
 40
0.135092661
 40
0.150196701
 40
0.1804840414
 40
0.210897872
 40
0.2414513324
 40
0.2721543376
 40
0.3030133986
 40
0.3340315263
 40
0.3652082187
 40
0.3965395244
 40
0.4280181782
 40
0.4596338019
 40
0.4913731609
 40
0.5232204716
 40
0.55515775
 40
0.5871651943
 40
0.6192215961
 40
0.6513047701
 40
0.6833919991
 40
0.7154604852
 40
0.7474878032
 40
0.7794523473
 40
0.8113337692
 40
0.8431133916
 40
0.8747746171
 40
0.9063032365
 40
0.9376879249
 40
0.9533258257
 40
0.968925233
 40
1.0
 40
1.0
 40
1.0
 40
1.0
 10
10.2357788599
 20
7.2866777292
 30
0.0
 10
10.2386322826
 20
7.2894339244
 30
0.0
 10
10.2430805915
 20
7.2934012317
 30
0.0
 10
10.2493103789
 20
7.2983237708
 30
0.0
 10
10.2557385403
 20
7.3030013776
 30
0.0
 10
10.2641262489
 20
7.3083727791
 30
0.0
 10
10.2729217831
 20
7.3130711942
 30
0.0
 10
10.2801758046
 20
7.3164136942
 30
0.0
 10
10.2875797007
 20
7.319480212
 30
0.0
 10
10.2970785445
 20
7.3227776385
 30
0.0
 10
10.3087844443
 20
7.3258507511
 30
0.0
 10
10.3207457707
 20
7.3280278352
 30
0.0
 10
10.3328962391
 20
7.3292968723
 30
0.0
 10
10.3451691031
 20
7.3296510919
 30
0.0
 10
10.3574968342
 20
7.3290886904
 30
0.0
 10
10.3698116761
 20
7.3276129166
 30
0.0
 10
10.3820459638
 20
7.3252320238
 30
0.0
 10
10.3941325049
 20
7.3219592255
 30
0.0
 10
10.4060049393
 20
7.3178126164
 30
0.0
 10
10.4175981002
 20
7.312815071
 30
0.0
 10
10.4288483658
 20
7.3069941157
 30
0.0
 10
10.4396940044
 20
7.3003817784
 30
0.0
 10
10.4500755083
 20
7.2930144113
 30
0.0
 10
10.4599359162
 20
7.2849324928
 30
0.0
 10
10.469221122
 20
7.2761804067
 30
0.0
 10
10.4778801681
 20
7.2668062004
 30
0.0
 10
10.4858655225
 20
7.2568613244
 30
0.0
 10
10.4931333367
 20
7.2464003511
 30
0.0
 10
10.4996436847
 20
7.2354806829
 30
0.0
 10
10.5053607802
 20
7.2241622276
 30
0.0
 10
10.5102531714
 20
7.212507121
 30
0.0
 10
10.5142939207
 20
7.2005792174
 30
0.0
 10
10.5174607094
 20
7.1884443813
 30
0.0
 10
10.5193592663
 20
7.1782012598
 30
0.0
 10
10.5204243039
 20
7.1699710424
 30
0.0
 10
10.5211843934
 20
7.1617486987
 30
0.0
 10
10.5214145405
 20
7.1555614432
 30
0.0
 10
10.5214145405
 20
7.1514441569
 30
0.0
  0
SPLINE
  5
368
100
AcDbEntity
  8
0
100
AcDbSpline
 62
7
  6
CONTINUOUS
 70
0
 71
3
 72
41
 73
37
 74
0
 42
0.0000001
 43
0.0000001
 44
0.0000000001
 40
0.0
 40
0.0
 40
0.0
 40
0.0
 40
0.0076886577
 40
0.0154017874
 40
0.0231636201
 40
0.030997882
 40
0.0389275852
 40
0.046974865
 40
0.0635000007
 40
0.0807333193
 40
0.0988086676
 40
0.1178395163
 40
0.1379200533
 40
0.1591273198
 40
0.1815230666
 40
0.2051561006
 40
0.2300640302
 40
0.2562749205
 40
0.2838088491
 40
0.3126787846
 40
0.3428918939
 40
0.3744500245
 40
0.4073505566
 40
0.4415869061
 40
0.4771488355
 40
0.5140230971
 40
0.5521934021
 40
0.5916410092
 40
0.6323447357
 40
0.6742811794
 40
0.7174250121
 40
0.7617490149
 40
0.8072242471
 40
0.853819588
 40
0.9015035687
 40
1.0
 40
1.0
 40
1.0
 40
1.0
 10
12.4025702731
 20
8.207715962
 30
0.0
 10
12.401758092
 20
8.2077722851
 30
0.0
 10
12.4001340442
 20
8.2079326805
 30
0.0
 10
12.3977100629
 20
8.2083156112
 30
0.0
 10
12.3952970671
 20
8.2088409634
 30
0.0
 10
12.3928957515
 20
8.2095085293
 30
0.0
 10
12.3905065827
 20
8.2103181399
 30
0.0
 10
12.387310234
 20
8.2115977615
 30
0.0
 10
12.3833364551
 20
8.213567216
 30
0.0
 10
12.3786718874
 20
8.2164740204
 30
0.0
 10
12.3740715056
 20
8.2199413987
 30
0.0
 10
12.3695388059
 20
8.2239653438
 30
0.0
 10
12.3650765371
 20
8.2285419064
 30
0.0
 10
12.3606877653
 20
8.233667046
 30
0.0
 10
12.356375481
 20
8.2393363821
 30
0.0
 10
12.3521428637
 20
8.2455452504
 30
0.0
 10
12.3479931205
 20
8.2522885535
 30
0.0
 10
12.3439294762
 20
8.2595607506
 30
0.0
 10
12.3399552381
 20
8.2673558734
 30
0.0
 10
12.3360735976
 20
8.2756674532
 30
0.0
 10
12.3322878167
 20
8.2844885977
 30
0.0
 10
12.3286010282
 20
8.2938119332
 30
0.0
 10
12.3250163411
 20
8.3036296514
 30
0.0
 10
12.3215368048
 20
8.3139335052
 30
0.0
 10
12.3181653355
 20
8.3247148094
 30
0.0
 10
12.314904847
 20
8.3359644713
 30
0.0
 10
12.311758076
 20
8.3476729758
 30
0.0
 10
12.3087277351
 20
8.3598304172
 30
0.0
 10
12.3058164052
 20
8.3724264938
 30
0.0
 10
12.3030265612
 20
8.3854505225
 30
0.0
 10
12.3003606145
 20
8.3988914608
 30
0.0
 10
12.2978208089
 20
8.4127379071
 30
0.0
 10
12.2954093652
 20
8.4269780541
 30
0.0
 10
12.2931282787
 20
8.4415998549
 30
0.0
 10
12.2902320849
 20
8.4618062403
 30
0.0
 10
12.288310956
 20
8.4771670117
 30
0.0
 10
12.2871270556
 20
8.4875291264
 30
0.0
  0
SPLINE
  5
369
100
AcDbEntity
  8
0
100
AcDbSpline
 62
7
  6
CONTINUOUS
 70
0
 71
3
 72
81
 73
77
 74
0
 42
0.0000001
 43
0.0000001
 44
0.0000000001
 40
0.0
 40
0.0
 40
0.0
 40
0.0
 40
0.0027966306
 40
0.0056681527
 40
0.008629676
 40
0.0116947893
 40
0.018179812
 40
0.0216223936
 40
0.0252084144
 40
0.0289446089
 40
0.032836684
 40
0.0368894129
 40
0.0411067005
 40
0.0454917633
 40
0.0500471134
 40
0.0547747058
 40
0.0596759871
 40
0.0647519008
 40
0.0700030307
 40
0.0754295393
 40
0.0810312728
 40
0.0927578266
 40
0.105176342
 40
0.1182760923
 40
0.1320431116
 40
0.1464606159
 40
0.1615093351
 40
0.1771677713
 40
0.1934124279
 40
0.2102180096
 40
0.2275575851
 40
0.2454027293
 40
0.2637236423
 40
0.2824892774
 40
0.3016674581
 40
0.3212249813
 40
0.3411277145
 40
0.3613406859
 40
0.3818281866
 40
0.4025538648
 40
0.4234808148
 40
0.4657879969
 40
0.5084474116
 40
0.5511528376
 40
0.5935976281
 40
0.6354775219
 40
0.6561122424
 40
0.6764941578
 40
0.6965871654
 40
0.7163558431
 40
0.7357655404
 40
0.7547824804
 40
0.773373861
 40
0.7915079494
 40
0.8091541874
 40
0.8262833042
 40
0.8428674516
 40
0.8588803393
 40
0.8742973768
 40
0.8890958451
 40
0.9032551
 40
0.9167568279
 40
0.9295853337
 40
0.9417278996
 40
0.947539148
 40
0.9531757637
 40
0.958637201
 40
0.963923276
 40
0.9690340854
 40
0.9739701019
 40
0.9787321991
 40
0.9833216831
 40
0.9877404975
 40
0.9919911159
 40
0.9960764636
 40
1.0
 40
1.0
 40
1.0
 40
1.0
 10
12.3772155627
 20
8.408082262
 30
0.0
 10
12.3763648012
 20
8.4083830469
 30
0.0
 10
12.3746650139
 20
8.4090642891
 30
0.0
 10
12.372166727
 20
8.4102995056
 30
0.0
 10
12.3696913668
 20
8.4117590985
 30
0.0
 10
12.366361138
 20
8.4140455894
 30
0.0
 10
12.363144182
 20
8.4167522706
 30
0.0
 10
12.360043395
 20
8.4198193958
 30
0.0
 10
12.3576995031
 20
8.4223848329
 30
0.0
 10
12.3553850697
 20
8.4251677656
 30
0.0
 10
12.3531008813
 20
8.4281671182
 30
0.0
 10
12.3508480286
 20
8.4313814196
 30
0.0
 10
12.3486274562
 20
8.4348091549
 30
0.0
 10
12.3464402308
 20
8.4384487391
 30
0.0
 10
12.3442873153
 20
8.4422984435
 30
0.0
 10
12.3421697194
 20
8.4463564642
 30
0.0
 10
12.3400884538
 20
8.4506208957
 30
0.0
 10
12.3380444527
 20
8.4550897103
 30
0.0
 10
12.3360387351
 20
8.4597608075
 30
0.0
 10
12.3340721953
 20
8.4646319698
 30
0.0
 10
12.3314638172
 20
8.471495594
 30
0.0
 10
12.3283176009
 20
8.4805659563
 30
0.0
 10
12.3247682738
 20
8.4920494335
 30
0.0
 10
12.3213965172
 20
8.504270516
 30
0.0
 10
12.3182088222
 20
8.51720593
 30
0.0
 10
12.3152113468
 20
8.5308311847
 30
0.0
 10
12.3124098953
 20
8.5451203545
 30
0.0
 10
12.3098098906
 20
8.560046215
 30
0.0
 10
12.3074163655
 20
8.5755802832
 30
0.0
 10
12.3052339571
 20
8.5916928912
 30
0.0
 10
12.303266895
 20
8.6083532477
 30
0.0
 10
12.3015189955
 20
8.6255294972
 30
0.0
 10
12.2999936427
 20
8.6431887801
 30
0.0
 10
12.29869379
 20
8.6612973011
 30
0.0
 10
12.2976219576
 20
8.6798203993
 30
0.0
 10
12.2967802268
 20
8.6987226165
 30
0.0
 10
12.296170238
 20
8.7179677615
 30
0.0
 10
12.2957931747
 20
8.7375189827
 30
0.0
 10
12.2956497792
 20
8.7573388285
 30
0.0
 10
12.2957403218
 20
8.7773893711
 30
0.0
 10
12.2961744058
 20
8.8044770479
 30
0.0
 10
12.297302623
 20
8.8386293808
 30
0.0
 10
12.2995694224
 20
8.8797651101
 30
0.0
 10
12.3027369244
 20
8.9208859779
 30
0.0
 10
12.3067808317
 20
8.9616770783
 30
0.0
 10
12.3108749286
 20
8.9952983824
 30
0.0
 10
12.3145712182
 20
9.0217898583
 30
0.0
 10
12.3175276209
 20
9.04128524
 30
0.0
 10
12.3206760316
 20
9.0604674077
 30
0.0
 10
12.324010428
 20
9.0792996565
 30
0.0
 10
12.3275244008
 20
9.0977459196
 30
0.0
 10
12.3312111992
 20
9.1157708847
 30
0.0
 10
12.335063732
 20
9.1333400536
 30
0.0
 10
12.3390745917
 20
9.1504198077
 30
0.0
 10
12.343236065
 20
9.166977471
 30
0.0
 10
12.3475401509
 20
9.1829813765
 30
0.0
 10
12.3519785678
 20
9.1984009344
 30
0.0
 10
12.3565427715
 20
9.2132066957
 30
0.0
 10
12.3612239788
 20
9.2273704048
 30
0.0
 10
12.3660131837
 20
9.2408650628
 30
0.0
 10
12.37090118
 20
9.2536649686
 30
0.0
 10
12.3758785794
 20
9.2657458564
 30
0.0
 10
12.3809358222
 20
9.277084708
 30
0.0
 10
12.3852697644
 20
9.2860239208
 30
0.0
 10
12.3887759313
 20
9.2927804929
 30
0.0
 10
12.3913809353
 20
9.2975748384
 30
0.0
 10
12.393998654
 20
9.3021682143
 30
0.0
 10
12.3966278241
 20
9.306558465
 30
0.0
 10
12.3992672244
 20
9.310743495
 30
0.0
 10
12.4019155964
 20
9.3147213182
 30
0.0
 10
12.4045716563
 20
9.3184900621
 30
0.0
 10
12.4072342128
 20
9.3220479381
 30
0.0
 10
12.4099020154
 20
9.3253933218
 30
0.0
 10
12.4125738949
 20
9.3285246394
 30
0.0
 10
12.4152484595
 20
9.3314402704
 30
0.0
 10
12.4170686364
 20
9.33327582
 30
0.0
 10
12.4179791963
 20
9.3341553534
 30
0.0
  0
SPLINE
  5
36A
100
AcDbEntity
  8
0
100
AcDbSpline
 62
7
  6
CONTINUOUS
 70
0
 71
3
 72
15
 73
11
 74
0
 42
0.0000001
 43
0.0000001
 44
0.0000000001
 40
0.0
 40
0.0
 40
0.0
 40
0.0
 40
0.1084409115
 40
0.2203197468
 40
0.3363915422
 40
0.4573221093
 40
0.5836913596
 40
0.7159974707
 40
0.8546566544
 40
1.0
 40
1.0
 40
1.0
 40
1.0
 10
12.4424377854
 20
9.3485592182
 30
0.0
 10
12.4414192813
 20
9.3483513212
 30
0.0
 10
12.4393690337
 20
9.347830014
 30
0.0
 10
12.4363233528
 20
9.3467594029
 30
0.0
 10
12.433267801
 20
9.3453910238
 30
0.0
 10
12.4302045334
 20
9.343726342
 30
0.0
 10
12.4271351324
 20
9.3417667155
 30
0.0
 10
12.4240612189
 20
9.3395136137
 30
0.0
 10
12.4209846687
 20
9.3369687252
 30
0.0
 10
12.4189812972
 20
9.3351233086
 30
0.0
 10
12.4179791963
 20
9.3341553534
 30
0.0
  0
SPLINE
  5
36B
100
AcDbEntity
  8
0
100
AcDbSpline
 62
7
  6
CONTINUOUS
 70
0
 71
3
 72
88
 73
84
 74
0
 42
0.0000001
 43
0.0000001
 44
0.0000000001
 40
0.0
 40
0.0
 40
0.0
 40
0.0
 40
0.0040523269
 40
0.0082800598
 40
0.0126870777
 40
0.0172766444
 40
0.0220514725
 40
0.0270136089
 40
0.0321643812
 40
0.0375046455
 40
0.0430347623
 40
0.0487547109
 40
0.0546640903
 40
0.0607621219
 40
0.0670477664
 40
0.073519641
 40
0.0870150308
 40
0.1012329963
 40
0.1161544047
 40
0.131757172
 40
0.1480165974
 40
0.1649056353
 40
0.1823951215
 40
0.2004539796
 40
0.2190493985
 40
0.2381469909
 40
0.2577109372
 40
0.27770412
 40
0.2980882486
 40
0.3188239878
 40
0.3398710778
 40
0.3611884499
 40
0.3827343393
 40
0.4044663967
 40
0.4263417985
 40
0.4703489153
 40
0.5144085889
 40
0.5363495576
 40
0.558173177
 40
0.5798363943
 40
0.6012965629
 40
0.6225115519
 40
0.6434398568
 40
0.6640407136
 40
0.6842742172
 40
0.704101437
 40
0.7234845356
 40
0.7423868934
 40
0.7607732384
 40
0.7786097871
 40
0.7958644011
 40
0.8125067477
 40
0.8285084812
 40
0.8438434541
 40
0.858487963
 40
0.8724210472
 40
0.8856248614
 40
0.8980851272
 40
0.9040333803
 40
0.9097923268
 40
0.9153615046
 40
0.9207407877
 40
0.9259304652
 40
0.9309313071
 40
0.9357445451
 40
0.9403720436
 40
0.9448162601
 40
0.9490804165
 40
0.9531685583
 40
0.9570856492
 40
0.9608377625
 40
0.9644321251
 40
0.9678773605
 40
0.9711835638
 40
0.9774235815
 40
0.9803901822
 40
0.9832753611
 40
0.9860978439
 40
0.9888777739
 40
0.9916363135
 40
0.9943951627
 40
0.9971760103
 40
1.0
 40
1.0
 40
1.0
 40
1.0
 10
12.4179791963
 20
8.4213553934
 30
0.0
 10
12.4189357198
 20
8.4222793243
 30
0.0
 10
12.4208476604
 20
8.4242115938
 30
0.0
 10
12.4236541544
 20
8.4272885141
 30
0.0
 10
12.4264575212
 20
8.4306027692
 30
0.0
 10
12.4292561901
 20
8.4341524739
 30
0.0
 10
12.4320488002
 20
8.4379358133
 30
0.0
 10
12.4348339185
 20
8.4419508707
 30
0.0
 10
12.4376101613
 20
8.4461955479
 30
0.0
 10
12.4403760243
 20
8.4506676546
 30
0.0
 10
12.4431301007
 20
8.4553648376
 30
0.0
 10
12.4458709394
 20
8.4602846536
 30
0.0
 10
12.4485970973
 20
8.4654245362
 30
0.0
 10
12.4513071691
 20
8.4707817837
 30
0.0
 10
12.453999705
 20
8.4763536081
 30
0.0
 10
12.4576150468
 20
8.4841743555
 30
0.0
 10
12.4620718675
 20
8.4944720501
 30
0.0
 10
12.4672560435
 20
8.5074697759
 30
0.0
 10
12.4723372085
 20
8.5212475892
 30
0.0
 10
12.477304601
 20
8.5357765309
 30
0.0
 10
12.4821476935
 20
8.5510261813
 30
0.0
 10
12.4868562161
 20
8.5669645091
 30
0.0
 10
12.4914201889
 20
8.5835580095
 30
0.0
 10
12.4958299376
 20
8.6007717672
 30
0.0
 10
12.5000761168
 20
8.6185695421
 30
0.0
 10
12.5041497293
 20
8.6369138486
 30
0.0
 10
12.508042145
 20
8.6557660374
 30
0.0
 10
12.511745119
 20
8.6750863766
 30
0.0
 10
12.5152508141
 20
8.6948341369
 30
0.0
 10
12.5185518117
 20
8.7149676808
 30
0.0
 10
12.5216411273
 20
8.7354445528
 30
0.0
 10
12.5245122273
 20
8.7562215729
 30
0.0
 10
12.5271590328
 20
8.7772549147
 30
0.0
 10
12.5295759695
 20
8.7985002457
 30
0.0
 10
12.5324908075
 20
8.8271057872
 30
0.0
 10
12.5355233619
 20
8.8630620628
 30
0.0
 10
12.5377333689
 20
8.8990997919
 30
0.0
 10
12.5389992646
 20
8.9278944517
 30
0.0
 10
12.5396924776
 20
8.9493556918
 30
0.0
 10
12.540129377
 20
8.9706658436
 30
0.0
 10
12.5403090344
 20
8.9917799918
 30
0.0
 10
12.5402310895
 20
9.0126535935
 30
0.0
 10
12.5398957218
 20
9.0332426255
 30
0.0
 10
12.5393036577
 20
9.0535036653
 30
0.0
 10
12.5384561729
 20
9.0733939884
 30
0.0
 10
12.5373550855
 20
9.0928716579
 30
0.0
 10
12.5360027523
 20
9.111895614
 30
0.0
 10
12.534402064
 20
9.1304257597
 30
0.0
 10
12.5325564398
 20
9.1484230482
 30
0.0
 10
12.5304698201
 20
9.1658495699
 30
0.0
 10
12.5281466646
 20
9.1826686368
 30
0.0
 10
12.5255919371
 20
9.1988448654
 30
0.0
 10
12.522811095
 20
9.2143442516
 30
0.0
 10
12.5198100764
 20
9.2291342566
 30
0.0
 10
12.5165952851
 20
9.243183861
 30
0.0
 10
12.5131735714
 20
9.256463732
 30
0.0
 10
12.5095522098
 20
9.2689460137
 30
0.0
 10
12.5063264667
 20
9.2788088516
 30
0.0
 10
12.503643248
 20
9.2862728817
 30
0.0
 10
12.5016168865
 20
9.2915685758
 30
0.0
 10
12.4995464965
 20
9.296646145
 30
0.0
 10
12.4974331225
 20
9.3015029445
 30
0.0
 10
12.4952778602
 20
9.3061364359
 30
0.0
 10
12.4930818637
 20
9.3105442228
 30
0.0
 10
12.4908462121
 20
9.3147239979
 30
0.0
 10
12.4885721057
 20
9.3186736194
 30
0.0
 10
12.4862606543
 20
9.3223910305
 30
0.0
 10
12.4839130336
 20
9.3258743195
 30
0.0
 10
12.4815304128
 20
9.3291217023
 30
0.0
 10
12.4791139137
 20
9.3321314659
 30
0.0
 10
12.4766647124
 20
9.3349021037
 30
0.0
 10
12.4741839959
 20
9.3374320339
 30
0.0
 10
12.471672557
 20
9.3397201619
 30
0.0
 10
12.4683499686
 20
9.3423944368
 30
0.0
 10
12.4649008178
 20
9.3446539515
 30
0.0
 10
12.461346467
 20
9.3464265973
 30
0.0
 10
12.4587005856
 20
9.3474861449
 30
0.0
 10
12.4560319511
 20
9.3482966059
 30
0.0
 10
12.4533421276
 20
9.3488572728
 30
0.0
 10
12.4506330159
 20
9.3491675518
 30
0.0
 10
12.4479064893
 20
9.3492270731
 30
0.0
 10
12.4451647806
 20
9.3490360144
 30
0.0
 10
12.443345831
 20
9.3487445684
 30
0.0
 10
12.4424377854
 20
9.3485592182
 30
0.0
  0
SPLINE
  5
36C
100
AcDbEntity
  8
0
100
AcDbSpline
 62
7
  6
CONTINUOUS
 70
0
 71
3
 72
57
 73
53
 74
0
 42
0.0000001
 43
0.0000001
 44
0.0000000001
 40
0.0
 40
0.0
 40
0.0
 40
0.0
 40
0.0090739832
 40
0.0186790865
 40
0.028815889
 40
0.0394822969
 40
0.0506738849
 40
0.0623841681
 40
0.0746049338
 40
0.0873263944
 40
0.1005373187
 40
0.114225248
 40
0.1283765504
 40
0.142976513
 40
0.1580094903
 40
0.1734589125
 40
0.1893073707
 40
0.2055367204
 40
0.2221280724
 40
0.2390618807
 40
0.2738751766
 40
0.3098094971
 40
0.346689497
 40
0.3843335613
 40
0.4225550781
 40
0.4611637228
 40
0.4999667031
 40
0.5387699881
 40
0.5773795474
 40
0.615602579
 40
0.653248746
 40
0.6901314359
 40
0.7260690072
 40
0.7608860807
 40
0.7778219864
 40
0.7944155421
 40
0.8106472236
 40
0.8264981407
 40
0.8419501126
 40
0.8569857603
 40
0.8715884996
 40
0.8857426532
 40
0.8994335431
 40
0.9126475075
 40
0.9253720641
 40
0.9375960175
 40
0.9493095341
 40
0.9605043877
 40
0.9711741236
 40
0.9813142607
 40
0.9909226896
 40
1.0
 40
1.0
 40
1.0
 40
1.0
 10
12.3306232304
 20
8.4740951539
 30
0.0
 10
12.3320523203
 20
8.4761791162
 30
0.0
 10
12.3348968007
 20
8.4805363461
 30
0.0
 10
12.3390167142
 20
8.4874245455
 30
0.0
 10
12.3431056778
 20
8.4948417458
 30
0.0
 10
12.3471581968
 20
8.502778097
 30
0.0
 10
12.3511689312
 20
8.5112232632
 30
0.0
 10
12.3551325714
 20
8.5201661032
 30
0.0
 10
12.3590438272
 20
8.5295948236
 30
0.0
 10
12.362897468
 20
8.539496952
 30
0.0
 10
12.3666883675
 20
8.5498593568
 30
0.0
 10
12.3704114392
 20
8.5606682899
 30
0.0
 10
12.3740617001
 20
8.5719093908
 30
0.0
 10
12.3776342843
 20
8.583567707
 30
0.0
 10
12.381124392
 20
8.5956277309
 30
0.0
 10
12.3845273569
 20
8.6080734064
 30
0.0
 10
12.3878386403
 20
8.620888157
 30
0.0
 10
12.3910537866
 20
8.6340549112
 30
0.0
 10
12.3941685274
 20
8.6475561367
 30
0.0
 10
12.3982193264
 20
8.6661511057
 30
0.0
 10
12.4029919089
 20
8.69009976
 30
0.0
 10
12.4082048915
 20
8.7196169481
 30
0.0
 10
12.412927104
 20
8.7500145623
 30
0.0
 10
12.4171332115
 20
8.7811305692
 30
0.0
 10
12.4208006582
 20
8.8127992279
 30
0.0
 10
12.4239098058
 20
8.8448517678
 30
0.0
 10
12.4264440145
 20
8.8771173653
 30
0.0
 10
12.42838976
 20
8.909424045
 30
0.0
 10
12.4297366985
 20
8.9415996087
 30
0.0
 10
12.430477704
 20
8.9734725672
 30
0.0
 10
12.4306089182
 20
9.0048730495
 30
0.0
 10
12.4301298115
 20
9.035633779
 30
0.0
 10
12.4290430911
 20
9.0655907622
 30
0.0
 10
12.4276235556
 20
9.0899715863
 30
0.0
 10
12.4261795923
 20
9.1089500595
 30
0.0
 10
12.4249592427
 20
9.1227539225
 30
0.0
 10
12.4235932769
 20
9.1362404905
 30
0.0
 10
12.4220835026
 20
9.1493918069
 30
0.0
 10
12.4204319452
 20
9.1621903439
 30
0.0
 10
12.4186408443
 20
9.1746190566
 30
0.0
 10
12.4167125948
 20
9.1866613945
 30
0.0
 10
12.4146497846
 20
9.1983013301
 30
0.0
 10
12.412455207
 20
9.2095233835
 30
0.0
 10
12.4101317922
 20
9.2203126374
 30
0.0
 10
12.4076826637
 20
9.2306547665
 30
0.0
 10
12.4051111274
 20
9.2405360613
 30
0.0
 10
12.4024206064
 20
9.2499434359
 30
0.0
 10
12.3996147075
 20
9.2588644734
 30
0.0
 10
12.3966971943
 20
9.2672874156
 30
0.0
 10
12.3936718786
 20
9.2752012676
 30
0.0
 10
12.3905428527
 20
9.2825955079
 30
0.0
 10
12.3883275258
 20
9.2873059339
 30
0.0
 10
12.3871999922
 20
9.2895683548
 30
0.0
  0
SPLINE
  5
36D
100
AcDbEntity
  8
0
100
AcDbSpline
 62
7
  6
CONTINUOUS
 70
0
 71
3
 72
45
 73
41
 74
0
 42
0.0000001
 43
0.0000001
 44
0.0000000001
 40
0.0
 40
0.0
 40
0.0
 40
0.0
 40
0.0112203773
 40
0.0228262536
 40
0.0348110858
 40
0.0471675606
 40
0.0598878078
 40
0.0729632814
 40
0.1001426727
 40
0.128628025
 40
0.1583337248
 40
0.1891678098
 40
0.2210327148
 40
0.2538259428
 40
0.2874406848
 40
0.3217664037
 40
0.3566893955
 40
0.3920933336
 40
0.427859803
 40
0.4638688272
 40
0.4999993909
 40
0.5361299597
 40
0.5721389993
 40
0.6079054943
 40
0.6433094681
 40
0.6782325056
 40
0.7125582801
 40
0.7461730873
 40
0.7789663902
 40
0.8108313791
 40
0.841665557
 40
0.8713713583
 40
0.8998568201
 40
0.9270363286
 40
0.9401118738
 40
0.9528321737
 40
0.9651887204
 40
0.9771736109
 40
0.9887795584
 40
1.0
 40
1.0
 40
1.0
 40
1.0
 10
12.310832715
 20
8.5545775387
 30
0.0
 10
12.3118314098
 20
8.5568672414
 30
0.0
 10
12.3138155126
 20
8.5615462018
 30
0.0
 10
12.3167070003
 20
8.5687371275
 30
0.0
 10
12.3195620062
 20
8.5762140028
 30
0.0
 10
12.3223779895
 20
8.5839700957
 30
0.0
 10
12.3251524008
 20
8.5919984958
 30
0.0
 10
12.3288405048
 20
8.6032013852
 30
0.0
 10
12.3333186922
 20
8.6178374402
 30
0.0
 10
12.3384214938
 20
8.6361477172
 30
0.0
 10
12.3433017473
 20
8.6553591024
 30
0.0
 10
12.3479418328
 20
8.6754027864
 30
0.0
 10
12.3523249807
 20
8.6962070889
 30
0.0
 10
12.3564353673
 20
8.7176975079
 30
0.0
 10
12.3602581609
 20
8.7397970607
 30
0.0
 10
12.3637795763
 20
8.762426551
 30
0.0
 10
12.3669869223
 20
8.7855048636
 30
0.0
 10
12.3698686471
 20
8.8089492589
 30
0.0
 10
12.3724143782
 20
8.8326756738
 30
0.0
 10
12.3746149591
 20
8.8565990259
 30
0.0
 10
12.3764624821
 20
8.8806335214
 30
0.0
 10
12.377950316
 20
8.9046929651
 30
0.0
 10
12.3790731303
 20
8.9286910715
 30
0.0
 10
12.3798269143
 20
8.9525417766
 30
0.0
 10
12.3802089921
 20
8.9761595486
 30
0.0
 10
12.3802180331
 20
8.9994596971
 30
0.0
 10
12.3798540575
 20
9.02235868
 30
0.0
 10
12.3791184378
 20
9.0447744067
 30
0.0
 10
12.3780138951
 20
9.0666265359
 30
0.0
 10
12.3765444928
 20
9.0878367747
 30
0.0
 10
12.3747156191
 20
9.1083291496
 30
0.0
 10
12.3725339875
 20
9.1280303516
 30
0.0
 10
12.3700075542
 20
9.1468697981
 30
0.0
 10
12.3675925657
 20
9.1619839678
 30
0.0
 10
12.3654862065
 20
9.1735887669
 30
0.0
 10
12.3638465707
 20
9.1819233277
 30
0.0
 10
12.3621281923
 20
9.1899939278
 30
0.0
 10
12.3603326038
 20
9.1977933702
 30
0.0
 10
12.3584614291
 20
9.2053146393
 30
0.0
 10
12.3571421861
 20
9.2102227181
 30
0.0
 10
12.3564691236
 20
9.2126283757
 30
0.0
  0
SPLINE
  5
36E
100
AcDbEntity
  8
0
100
AcDbSpline
 62
7
  6
CONTINUOUS
 70
0
 71
3
 72
61
 73
57
 74
0
 42
0.0000001
 43
0.0000001
 44
0.0000000001
 40
0.0
 40
0.0
 40
0.0
 40
0.0
 40
0.0085500831
 40
0.0176518282
 40
0.0273119388
 40
0.0375330487
 40
0.0483143346
 40
0.0596520489
 40
0.0715399689
 40
0.0839696868
 40
0.0969308502
 40
0.110411427
 40
0.1243978625
 40
0.1388751847
 40
0.1538271778
 40
0.1692364905
 40
0.185084685
 40
0.2013523522
 40
0.2180192038
 40
0.2350641067
 40
0.252465154
 40
0.2701997535
 40
0.2882446631
 40
0.3065760341
 40
0.3439996166
 40
0.3822705894
 40
0.4211822648
 40
0.4605233554
 40
0.5000795412
 40
0.5396349815
 40
0.5789738425
 40
0.6178818121
 40
0.6561476434
 40
0.6935646733
 40
0.711892258
 40
0.729933038
 40
0.7476631939
 40
0.7650594851
 40
0.7820993091
 40
0.7987607922
 40
0.8150228167
 40
0.8308650777
 40
0.846268195
 40
0.8612137644
 40
0.8756844182
 40
0.889663959
 40
0.9031374659
 40
0.9160913786
 40
0.9285136711
 40
0.9403940542
 40
0.9517241379
 40
0.9624977005
 40
0.972711059
 40
0.9823634567
 40
0.9914575366
 40
1.0
 40
1.0
 40
1.0
 40
1.0
 10
11.1987740935
 20
10.4607676704
 30
0.0
 10
11.1965349526
 20
10.4623702318
 30
0.0
 10
11.1918152467
 20
10.4655446522
 30
0.0
 10
11.1842798562
 20
10.4700871942
 30
0.0
 10
11.1760799268
 20
10.4745519191
 30
0.0
 10
11.1672273695
 20
10.4789322942
 30
0.0
 10
11.1577347002
 20
10.4832221328
 30
0.0
 10
11.1476155588
 20
10.4874152351
 30
0.0
 10
11.1368845004
 20
10.4915054986
 30
0.0
 10
11.1255570338
 20
10.4954869437
 30
0.0
 10
11.1136495826
 20
10.4993537598
 30
0.0
 10
11.1011794368
 20
10.50310027
 30
0.0
 10
11.0881647302
 20
10.5067209599
 30
0.0
 10
11.074624423
 20
10.5102105272
 30
0.0
 10
11.0605782533
 20
10.5135638447
 30
0.0
 10
11.0460467061
 20
10.5167759685
 30
0.0
 10
11.031050994
 20
10.5198421878
 30
0.0
 10
11.0156130164
 20
10.5227580029
 30
0.0
 10
10.9997553195
 20
10.5255191168
 30
0.0
 10
10.9835010737
 20
10.5281214731
 30
0.0
 10
10.9668740347
 20
10.5305612616
 30
0.0
 10
10.9498985094
 20
10.5328348856
 30
0.0
 10
10.9325992902
 20
10.5349390188
 30
0.0
 10
10.9089736448
 20
10.5375321468
 30
0.0
 10
10.8788186345
 20
10.5403195655
 30
0.0
 10
10.8419992796
 20
10.5429237486
 30
0.0
 10
10.8045170742
 20
10.5447941907
 30
0.0
 10
10.7665911452
 20
10.5459198741
 30
0.0
 10
10.7284430592
 20
10.5462941018
 30
0.0
 10
10.6902957426
 20
10.5459146711
 30
0.0
 10
10.652372119
 20
10.5447838328
 30
0.0
 10
10.6148937405
 20
10.5429082702
 30
0.0
 10
10.5780797107
 20
10.5402990833
 30
0.0
 10
10.5479300886
 20
10.5375075256
 30
0.0
 10
10.5243094869
 20
10.5349111519
 30
0.0
 10
10.5070145658
 20
10.5328046473
 30
0.0
 10
10.4900436812
 20
10.5305287113
 30
0.0
 10
10.4734216215
 20
10.5280866612
 30
0.0
 10
10.4571726906
 20
10.525482078
 30
0.0
 10
10.4413206301
 20
10.5227188001
 30
0.0
 10
10.4258886014
 20
10.5198008897
 30
0.0
 10
10.41089915
 20
10.5167326193
 30
0.0
 10
10.3963741609
 20
10.513518508
 30
0.0
 10
10.3823348313
 20
10.5101632869
 30
0.0
 10
10.368801646
 20
10.5066718736
 30
0.0
 10
10.3557943321
 20
10.5030493997
 30
0.0
 10
10.343331827
 20
10.4993012001
 30
0.0
 10
10.3314322622
 20
10.4954327684
 30
0.0
 10
10.3201129232
 20
10.4914497683
 30
0.0
 10
10.3093902049
 20
10.4873580481
 30
0.0
 10
10.2992796062
 20
10.4831635806
 30
0.0
 10
10.2897956885
 20
10.4788724373
 30
0.0
 10
10.2809520572
 20
10.474490854
 30
0.0
 10
10.272761205
 20
10.4700250235
 30
0.0
 10
10.2652350834
 20
10.465481441
 30
0.0
 10
10.260521763
 20
10.4623063344
 30
0.0
 10
10.2582858707
 20
10.4607034517
 30
0.0
  0
SPLINE
  5
36F
100
AcDbEntity
  8
0
100
AcDbSpline
 62
7
  6
CONTINUOUS
 70
0
 71
3
 72
46
 73
42
 74
0
 42
0.0000001
 43
0.0000001
 44
0.0000000001
 40
0.0
 40
0.0
 40
0.0
 40
0.0
 40
0.0112073763
 40
0.0228002203
 40
0.0347721982
 40
0.0471162545
 40
0.0598246425
 40
0.0728890297
 40
0.1000488613
 40
0.1285188471
 40
0.158213824
 40
0.1890420372
 40
0.2209059277
 40
0.2537028361
 40
0.2873256502
 40
0.321663413
 40
0.3566019035
 40
0.3920242006
 40
0.4278112336
 40
0.4638423255
 40
0.4999957306
 40
0.5361491696
 40
0.5721803632
 40
0.6079675654
 40
0.6433900987
 40
0.6783288914
 40
0.712667021
 40
0.7462902652
 40
0.7790876647
 40
0.8109521051
 40
0.8417809244
 40
0.8714765603
 40
0.8999472544
 40
0.9136966633
 40
0.9271084882
 40
0.9401732573
 40
0.9528820575
 40
0.9652265139
 40
0.9771989212
 40
0.9887921818
 40
1.0
 40
1.0
 40
1.0
 40
1.0
 10
11.0821199427
 20
10.4132017212
 30
0.0
 10
11.0796109365
 20
10.4141363788
 30
0.0
 10
11.0744861981
 20
10.4159833844
 30
0.0
 10
11.0666170993
 20
10.4186465717
 30
0.0
 10
11.0584417341
 20
10.4212473814
 30
0.0
 10
11.0499675309
 20
10.4237834161
 30
0.0
 10
11.0412021236
 20
10.4262524186
 30
0.0
 10
11.0289786208
 20
10.4294939652
 30
0.0
 10
11.013024802
 20
10.4333506963
 30
0.0
 10
10.9930906609
 20
10.4376197213
 30
0.0
 10
10.9721988129
 20
10.4415718494
 30
0.0
 10
10.9504248584
 20
10.4451926213
 30
0.0
 10
10.9278474638
 20
10.448468766
 30
0.0
 10
10.9045483137
 20
10.4513882907
 30
0.0
 10
10.8806117295
 20
10.4539405109
 30
0.0
 10
10.8561243756
 20
10.4561160918
 30
0.0
 10
10.8311749318
 20
10.4579070788
 30
0.0
 10
10.8058537685
 20
10.4593069258
 30
0.0
 10
10.7802526147
 20
10.4603105176
 30
0.0
 10
10.7544642221
 20
10.4609141877
 30
0.0
 10
10.7285820258
 20
10.461115731
 30
0.0
 10
10.7026998034
 20
10.4609144115
 30
0.0
 10
10.6769113327
 20
10.4603109645
 30
0.0
 10
10.651310049
 20
10.4593075944
 30
0.0
 10
10.6259887043
 20
10.4579079669
 30
0.0
 10
10.6010390282
 20
10.4561171963
 30
0.0
 10
10.5765513917
 20
10.4539418279
 30
0.0
 10
10.5526144767
 20
10.4513898153
 30
0.0
 10
10.5293149447
 20
10.4484704933
 30
0.0
 10
10.5067371325
 20
10.4451945429
 30
0.0
 10
10.4849626775
 20
10.4415739652
 30
0.0
 10
10.4640704201
 20
10.4376219991
 30
0.0
 10
10.4472686322
 20
10.4340241559
 30
0.0
 10
10.4343304642
 20
10.4309828249
 30
0.0
 10
10.4250063989
 20
10.4286547105
 30
0.0
 10
10.4159574196
 20
10.4262551146
 30
0.0
 10
10.4071916974
 20
10.4237862151
 30
0.0
 10
10.3987171649
 20
10.4212502373
 30
0.0
 10
10.3905414611
 20
10.4186495125
 30
0.0
 10
10.3826720188
 20
10.4159863799
 30
0.0
 10
10.3775470424
 20
10.4141394301
 30
0.0
 10
10.3750379159
 20
10.413204793
 30
0.0
  0
SPLINE
  5
370
100
AcDbEntity
  8
0
100
AcDbSpline
 62
7
  6
CONTINUOUS
 70
0
 71
3
 72
86
 73
82
 74
0
 42
0.0000001
 43
0.0000001
 44
0.0000000001
 40
0.0
 40
0.0
 40
0.0
 40
0.0
 40
0.0039801735
 40
0.0081241171
 40
0.0124359931
 40
0.016919361
 40
0.0215772361
 40
0.0264119817
 40
0.0314252561
 40
0.0366182449
 40
0.0419916453
 40
0.0475457694
 40
0.0532805541
 40
0.0591955582
 40
0.0652900785
 40
0.0715630739
 40
0.0846387684
 40
0.0984101018
 40
0.112860694
 40
0.1279712428
 40
0.1437198619
 40
0.1600823544
 40
0.1770324406
 40
0.1945419645
 40
0.2125810668
 40
0.2311183398
 40
0.2501209668
 40
0.2695548486
 40
0.289384725
 40
0.3095742955
 40
0.3300863312
 40
0.3508827821
 40
0.3719248818
 40
0.3931732491
 40
0.4145879914
 40
0.4577543474
 40
0.501099203
 40
0.5442952951
 40
0.5657359749
 40
0.587017582
 40
0.6081001434
 40
0.6289441761
 40
0.6495107926
 40
0.6697618048
 40
0.6896598276
 40
0.709168385
 40
0.7282520204
 40
0.7468764117
 40
0.7650084972
 40
0.7826166038
 40
0.7996705814
 40
0.8161419537
 40
0.8320040874
 40
0.8472323859
 40
0.8618045214
 40
0.8757007003
 40
0.8889039845
 40
0.9014006969
 40
0.9073810972
 40
0.9131815075
 40
0.9188013673
 40
0.9242405009
 40
0.9294990443
 40
0.9345775709
 40
0.9394770909
 40
0.9441990928
 40
0.9487456636
 40
0.9531194621
 40
0.9573238984
 40
0.9613631411
 40
0.9652422549
 40
0.9689673208
 40
0.9725454977
 40
0.9759852252
 40
0.9824864215
 40
0.9855752926
 40
0.9885737717
 40
0.9914977072
 40
0.9943643167
 40
0.9971920017
 40
1.0
 40
1.0
 40
1.0
 40
1.0
 10
10.2456118675
 20
10.5381516803
 30
0.0
 10
10.2466021449
 20
10.5391082149
 30
0.0
 10
10.2486684182
 20
10.5410145229
 30
0.0
 10
10.2519490299
 20
10.5437988364
 30
0.0
 10
10.2554705528
 20
10.5465631888
 30
0.0
 10
10.2592310537
 20
10.5493060908
 30
0.0
 10
10.263228686
 20
10.5520262749
 30
0.0
 10
10.267461505
 20
10.5547224036
 30
0.0
 10
10.271927389
 20
10.5573932036
 30
0.0
 10
10.2766241245
 20
10.5600372845
 30
0.0
 10
10.2815493423
 20
10.5626533617
 30
0.0
 10
10.2867005834
 20
10.5652401175
 30
0.0
 10
10.2920752718
 20
10.5677962428
 30
0.0
 10
10.2976706973
 20
10.570320482
 30
0.0
 10
10.3034840684
 20
10.5728115362
 30
0.0
 10
10.3116349237
 20
10.5761330372
 30
0.0
 10
10.3223539819
 20
10.580183928
 30
0.0
 10
10.3358654736
 20
10.5848283334
 30
0.0
 10
10.3501706053
 20
10.5893114788
 30
0.0
 10
10.3652405359
 20
10.5936242517
 30
0.0
 10
10.3810450144
 20
10.597757873
 30
0.0
 10
10.3975522038
 20
10.6017039223
 30
0.0
 10
10.4147288246
 20
10.6054543643
 30
0.0
 10
10.4325402122
 20
10.6090015595
 30
0.0
 10
10.4509504004
 20
10.6123382829
 30
0.0
 10
10.4699221969
 20
10.6154577388
 30
0.0
 10
10.4894172603
 20
10.618353574
 30
0.0
 10
10.5093961782
 20
10.6210198924
 30
0.0
 10
10.5298185486
 20
10.6234512705
 30
0.0
 10
10.5506430663
 20
10.625642762
 30
0.0
 10
10.5718276074
 20
10.6275899085
 30
0.0
 10
10.5933293194
 20
10.6292887507
 30
0.0
 10
10.6151046918
 20
10.6307358252
 30
0.0
 10
10.6371097042
 20
10.6319282128
 30
0.0
 10
10.6667738454
 20
10.6331783974
 30
0.0
 10
10.7041000287
 20
10.6340864778
 30
0.0
 10
10.748971812
 20
10.6341338242
 30
0.0
 10
10.7863190858
 20
10.6333046695
 30
0.0
 10
10.8160165941
 20
10.6321174999
 30
0.0
 10
10.838058593
 20
10.6309717116
 30
0.0
 10
10.8598790187
 20
10.6295707591
 30
0.0
 10
10.8814337585
 20
10.6279174651
 30
0.0
 10
10.9026791925
 20
10.6260151982
 30
0.0
 10
10.9235723443
 20
10.6238678281
 30
0.0
 10
10.9440709513
 20
10.621479724
 30
0.0
 10
10.9641335547
 20
10.6188557448
 30
0.0
 10
10.9837195822
 20
10.6160012295
 30
0.0
 10
11.0027894334
 20
10.612921986
 30
0.0
 10
11.0213045646
 20
10.6096242843
 30
0.0
 10
11.0392275688
 20
10.6061148421
 30
0.0
 10
11.0565222526
 20
10.6024008078
 30
0.0
 10
11.0731537122
 20
10.5984897472
 30
0.0
 10
11.0890884066
 20
10.5943896271
 30
0.0
 10
11.1042942416
 20
10.590108795
 30
0.0
 10
11.118740623
 20
10.5856559668
 30
0.0
 10
11.1323986128
 20
10.5810401961
 30
0.0
 10
11.1452407104
 20
10.5762708537
 30
0.0
 10
11.1553848067
 20
10.5721178605
 30
0.0
 10
11.1630644246
 20
10.568718194
 30
0.0
 10
11.1685197326
 20
10.5661735134
 30
0.0
 10
11.1737525516
 20
10.5635977385
 30
0.0
 10
11.178760281
 20
10.5609921882
 30
0.0
 10
11.1835403969
 20
10.5583581336
 30
0.0
 10
11.1880905156
 20
10.5556969072
 30
0.0
 10
11.1924083707
 20
10.5530098399
 30
0.0
 10
11.1964917921
 20
10.5502982251
 30
0.0
 10
11.2003387754
 20
10.5475634453
 30
0.0
 10
11.2039473763
 20
10.5448067762
 30
0.0
 10
11.2073158274
 20
10.5420295872
 30
0.0
 10
11.2104424347
 20
10.539233188
 30
0.0
 10
11.2133256368
 20
10.5364188529
 30
0.0
 10
11.2159639434
 20
10.5335880178
 30
0.0
 10
11.2183561566
 20
10.5307415789
 30
0.0
 10
11.2211625054
 20
10.5269988895
 30
0.0
 10
11.2235455176
 20
10.5231552821
 30
0.0
 10
11.2254375572
 20
10.5192296231
 30
0.0
 10
11.2265807026
 20
10.5163262953
 30
0.0
 10
11.2274709565
 20
10.5134159172
 30
0.0
 10
11.2281074904
 20
10.5104998732
 30
0.0
 10
11.2284897121
 20
10.5075802689
 30
0.0
 10
11.2285748011
 20
10.505629739
 30
0.0
 10
11.2285748055
 20
10.5046584039
 30
0.0
  0
SPLINE
  5
371
100
AcDbEntity
  8
0
100
AcDbSpline
 62
7
  6
CONTINUOUS
 70
0
 71
3
 72
18
 73
14
 74
0
 42
0.0000001
 43
0.0000001
 44
0.0000000001
 40
0.0
 40
0.0
 40
0.0
 40
0.0
 40
0.0548621106
 40
0.1099281304
 40
0.165399556
 40
0.2214731722
 40
0.2783387379
 40
0.3361775111
 40
0.4554063056
 40
0.5804414047
 40
0.7123341351
 40
0.8519581983
 40
1.0
 40
1.0
 40
1.0
 40
1.0
 10
10.2285748129
 20
10.5046577691
 30
0.0
 10
10.2285748097
 20
10.5053639151
 30
0.0
 10
10.2286196223
 20
10.5067792372
 30
0.0
 10
10.2288211185
 20
10.5088999202
 30
0.0
 10
10.2291568689
 20
10.5110193795
 30
0.0
 10
10.2296267465
 20
10.5131368417
 30
0.0
 10
10.2302305536
 20
10.5152517779
 30
0.0
 10
10.2312237042
 20
10.5180957962
 30
0.0
 10
10.2328147212
 20
10.5216528987
 30
0.0
 10
10.2352363545
 20
10.5258538549
 30
0.0
 10
10.2381857872
 20
10.5300276255
 30
0.0
 10
10.2416585321
 20
10.5341700042
 30
0.0
 10
10.2442413361
 20
10.5368278486
 30
0.0
 10
10.2456118675
 20
10.5381516803
 30
0.0
  0
SPLINE
  5
372
100
AcDbEntity
  8
0
100
AcDbSpline
 62
7
  6
CONTINUOUS
 70
0
 71
3
 72
71
 73
67
 74
0
 42
0.0000001
 43
0.0000001
 44
0.0000000001
 40
0.0
 40
0.0
 40
0.0
 40
0.0
 40
0.0155841583
 40
0.0311159808
 40
0.0465952391
 40
0.0620238824
 40
0.0774034512
 40
0.0927362817
 40
0.1080251233
 40
0.1232731726
 40
0.138484055
 40
0.1536617764
 40
0.1688106901
 40
0.183935453
 40
0.1990409778
 40
0.2141323818
 40
0.2292149321
 40
0.24429399
 40
0.2593749541
 40
0.2744632037
 40
0.28956404
 40
0.3046826301
 40
0.319823951
 40
0.3349927394
 40
0.3501934432
 40
0.3654301763
 40
0.380706678
 40
0.3960262757
 40
0.4113918557
 40
0.4268058382
 40
0.442270158
 40
0.4577862479
 40
0.4733550295
 40
0.4889769098
 40
0.5046517843
 40
0.5203790419
 40
0.5361575758
 40
0.5519857968
 40
0.5678616544
 40
0.5837826609
 40
0.5997459173
 40
0.6157481415
 40
0.6317856999
 40
0.6478546445
 40
0.6639507497
 40
0.6800695506
 40
0.696206382
 40
0.7123564201
 40
0.7285147268
 40
0.7446762928
 40
0.7608360801
 40
0.7769890652
 40
0.7931302837
 40
0.8092548746
 40
0.8253581231
 40
0.8414355008
 40
0.8574827062
 40
0.8734957056
 40
0.8894707696
 40
0.9054045137
 40
0.9212939168
 40
0.9371363628
 40
0.9529297287
 40
0.9686720424
 40
0.9843627193
 40
1.0
 40
1.0
 40
1.0
 40
1.0
 10
11.1086974777
 20
7.684475933
 30
0.0
 10
11.1086974777
 20
7.6800585861
 30
0.0
 10
11.1084812882
 20
7.6712371611
 30
0.0
 10
11.107505465
 20
7.6580606176
 30
0.0
 10
11.1058808082
 20
7.6449922897
 30
0.0
 10
11.1036113662
 20
7.6320642319
 30
0.0
 10
11.1007024594
 20
7.6193073717
 30
0.0
 10
11.0971611021
 20
7.6067525414
 30
0.0
 10
11.0929958013
 20
7.5944299868
 30
0.0
 10
11.0882165739
 20
7.5823694231
 30
0.0
 10
11.0828349169
 20
7.5705999352
 30
0.0
 10
11.0768637728
 20
7.5591499142
 30
0.0
 10
11.0703175113
 20
7.5480469867
 30
0.0
 10
11.0632119142
 20
7.5373179308
 30
0.0
 10
11.0555641078
 20
7.5269886278
 30
0.0
 10
11.0473925257
 20
7.5170839974
 30
0.0
 10
11.0387168626
 20
7.5076279413
 30
0.0
 10
11.0295580357
 20
7.4986432778
 30
0.0
 10
11.0199381473
 20
7.4901516686
 30
0.0
 10
11.0098804054
 20
7.4821735895
 30
0.0
 10
10.9994090724
 20
7.4747282775
 30
0.0
 10
10.9885494043
 20
7.4678336889
 30
0.0
 10
10.9773275981
 20
7.4615064446
 30
0.0
 10
10.9657707335
 20
7.4557617738
 30
0.0
 10
10.9539066892
 20
7.4506135054
 30
0.0
 10
10.9417640793
 20
7.4460740305
 30
0.0
 10
10.9293721838
 20
7.4421542785
 30
0.0
 10
10.9167608841
 20
7.438863674
 30
0.0
 10
10.9039605901
 20
7.4362101049
 30
0.0
 10
10.8910021578
 20
7.4341999321
 30
0.0
 10
10.8779168183
 20
7.4328379687
 30
0.0
 10
10.864736103
 20
7.4321274763
 30
0.0
 10
10.8514917712
 20
7.4320701349
 30
0.0
 10
10.8382157296
 20
7.4326660364
 30
0.0
 10
10.8249399549
 20
7.4339137118
 30
0.0
 10
10.8116964191
 20
7.4358101276
 30
0.0
 10
10.7985170152
 20
7.4383507007
 30
0.0
 10
10.7854334774
 20
7.441529284
 30
0.0
 10
10.7724773023
 20
7.4453381857
 30
0.0
 10
10.7596796782
 20
7.4497682098
 30
0.0
 10
10.7470714108
 20
7.4548086717
 30
0.0
 10
10.7346828535
 20
7.4604474296
 30
0.0
 10
10.7225438239
 20
7.4666708878
 30
0.0
 10
10.7106835332
 20
7.4734640392
 30
0.0
 10
10.6991305247
 20
7.4808105178
 30
0.0
 10
10.6879126042
 20
7.488692632
 30
0.0
 10
10.6770567786
 20
7.4970914111
 30
0.0
 10
10.6665891731
 20
7.5059866268
 30
0.0
 10
10.6565349747
 20
7.5153568553
 30
0.0
 10
10.6469183821
 20
7.5251795394
 30
0.0
 10
10.6377625456
 20
7.5354310375
 30
0.0
 10
10.629089517
 20
7.5460866831
 30
0.0
 10
10.6209201713
 20
7.5571208233
 30
0.0
 10
10.6132741713
 20
7.5685068956
 30
0.0
 10
10.6061699284
 20
7.5802174968
 30
0.0
 10
10.5996245576
 20
7.5922244451
 30
0.0
 10
10.5936538396
 20
7.6044988483
 30
0.0
 10
10.5882721546
 20
7.6170111587
 30
0.0
 10
10.5834924658
 20
7.6297312576
 30
0.0
 10
10.5793263005
 20
7.6426285286
 30
0.0
 10
10.5757837152
 20
7.6556719239
 30
0.0
 10
10.5728732641
 20
7.668830067
 30
0.0
 10
10.5706020158
 20
7.682071197
 30
0.0
 10
10.5689753527
 20
7.6953636679
 30
0.0
 10
10.5679973848
 20
7.7086749004
 30
0.0
 10
10.5677789829
 20
7.7175563535
 30
0.0
 10
10.5677789829
 20
7.721988758
 30
0.0
  0
SPLINE
  5
373
100
AcDbEntity
  8
0
100
AcDbSpline
 62
7
  6
CONTINUOUS
 70
0
 71
3
 72
41
 73
37
 74
0
 42
0.0000001
 43
0.0000001
 44
0.0000000001
 40
0.0
 40
0.0
 40
0.0
 40
0.0
 40
0.0299421703
 40
0.0599087166
 40
0.0899234211
 40
0.1200088977
 40
0.150186053
 40
0.1804736004
 40
0.2108876395
 40
0.2414413098
 40
0.2721445264
 40
0.3030038
 40
0.3340221415
 40
0.3651990482
 40
0.3965305685
 40
0.4280094374
 40
0.4596252765
 40
0.4913648514
 40
0.5232123788
 40
0.5551498746
 40
0.5871575376
 40
0.6192141589
 40
0.6512975532
 40
0.6833850026
 40
0.7154537088
 40
0.731476412
 40
0.7474860771
 40
0.7794508401
 40
0.8113324799
 40
0.8431123195
 40
0.8747737613
 40
0.9063025943
 40
0.937687506
 40
0.953325536
 40
0.9689249997
 40
1.0
 40
1.0
 40
1.0
 40
1.0
 10
11.0026882602
 20
7.5687196215
 30
0.0
 10
10.9991878314
 20
7.5653384849
 30
0.0
 10
10.9919117569
 20
7.5588490545
 30
0.0
 10
10.980254329
 20
7.5500083756
 30
0.0
 10
10.9679131993
 20
7.5421053773
 30
0.0
 10
10.9549573166
 20
7.5351844013
 30
0.0
 10
10.9414579131
 20
7.5292832564
 30
0.0
 10
10.9274894896
 20
7.5244343823
 30
0.0
 10
10.9131290203
 20
7.5206643095
 30
0.0
 10
10.898455621
 20
7.5179936221
 30
0.0
 10
10.8835500807
 20
7.5164368283
 30
0.0
 10
10.8684944221
 20
7.5160022985
 30
0.0
 10
10.853371448
 20
7.5166922262
 30
0.0
 10
10.8382642887
 20
7.5185026296
 30
0.0
 10
10.8232559488
 20
7.5214233816
 30
0.0
 10
10.8084288568
 20
7.5254382721
 30
0.0
 10
10.7938644187
 20
7.5305251028
 30
0.0
 10
10.7796425773
 20
7.5366558123
 30
0.0
 10
10.7658413792
 20
7.5437966329
 30
0.0
 10
10.7525365547
 20
7.5519082741
 30
0.0
 10
10.7398010999
 20
7.5609461494
 30
0.0
 10
10.7277049118
 20
7.5708605754
 30
0.0
 10
10.7163142936
 20
7.5815972095
 30
0.0
 10
10.7056920294
 20
7.5930967227
 30
0.0
 10
10.6975255565
 20
7.6032672567
 30
0.0
 10
10.691432605
 20
7.6117210112
 30
0.0
 10
10.6856462205
 20
7.6203671522
 30
0.0
 10
10.6789935059
 20
7.6315255017
 30
0.0
 10
10.671980259
 20
7.6454101115
 30
0.0
 10
10.6659785044
 20
7.6597080097
 30
0.0
 10
10.6610215517
 20
7.6743404783
 30
0.0
 10
10.6571367076
 20
7.6892268226
 30
0.0
 10
10.654807666
 20
7.7017925158
 30
0.0
 10
10.6535011343
 20
7.7118888832
 30
0.0
 10
10.6525686998
 20
7.7219755941
 30
0.0
 10
10.6522863683
 20
7.7295657686
 30
0.0
 10
10.6522863683
 20
7.7346166289
 30
0.0
  0
SPLINE
  5
374
100
AcDbEntity
  8
0
100
AcDbSpline
 62
7
  6
CONTINUOUS
 70
0
 71
3
 72
53
 73
49
 74
0
 42
0.0000001
 43
0.0000001
 44
0.0000000001
 40
0.0
 40
0.0
 40
0.0
 40
0.0
 40
0.0468839926
 40
0.093479662
 40
0.1396939221
 40
0.1854357785
 40
0.2306147747
 40
0.2751421982
 40
0.3189309336
 40
0.3618958536
 40
0.4039540307
 40
0.4450250155
 40
0.4850311094
 40
0.5238976567
 40
0.5615533556
 40
0.5979305973
 40
0.63296584
 40
0.6666000309
 40
0.6987790954
 40
0.7294545154
 40
0.7442152979
 40
0.7585848654
 40
0.7725591076
 40
0.7861343371
 40
0.7993075024
 40
0.8120760882
 40
0.8244382836
 40
0.8363929734
 40
0.8479398372
 40
0.8590794564
 40
0.8698133453
 40
0.8801441771
 40
0.8900757728
 40
0.8996134305
 40
0.9087639222
 40
0.9175358893
 40
0.9259399121
 40
0.9339889258
 40
0.9416984071
 40
0.9490867647
 40
0.9561756283
 40
0.9629901444
 40
0.9695592545
 40
0.9759157649
 40
0.982096382
 40
0.988141365
 40
0.9940940545
 40
1.0
 40
1.0
 40
1.0
 40
1.0
 10
12.610650595
 20
8.800028887
 30
0.0
 10
12.6096986346
 20
8.7898577869
 30
0.0
 10
12.6076830494
 20
8.7695889297
 30
0.0
 10
12.604315886
 20
8.7393371635
 30
0.0
 10
12.6006193793
 20
8.7093745425
 30
0.0
 10
12.596601428
 20
8.6797647983
 30
0.0
 10
12.5922705577
 20
8.6505706879
 30
0.0
 10
12.587636
 20
8.6218542029
 30
0.0
 10
12.5827076166
 20
8.5936762652
 30
0.0
 10
12.5774959059
 20
8.5660966645
 30
0.0
 10
12.5720119696
 20
8.5391739061
 30
0.0
 10
12.5662674936
 20
8.5129650919
 30
0.0
 10
12.5602747224
 20
8.4875257948
 30
0.0
 10
12.5540464331
 20
8.4629099374
 30
0.0
 10
12.5475959086
 20
8.4391696746
 30
0.0
 10
12.5409369091
 20
8.4163552712
 30
0.0
 10
12.534083642
 20
8.3945150085
 30
0.0
 10
12.5270507273
 20
8.3736950004
 30
0.0
 10
12.5198531697
 20
8.3539393368
 30
0.0
 10
12.5136539418
 20
8.3382024282
 30
0.0
 10
12.5086152954
 20
8.326184449
 30
0.0
 10
12.504853175
 20
8.3175783756
 30
0.0
 10
12.5010614719
 20
8.3092684055
 30
0.0
 10
12.4972421273
 20
8.3012589332
 30
0.0
 10
12.4933972114
 20
8.2935541791
 30
0.0
 10
12.4895287273
 20
8.2861582154
 30
0.0
 10
12.4856387392
 20
8.2790749338
 30
0.0
 10
12.4817292939
 20
8.2723080624
 30
0.0
 10
12.4778024404
 20
8.2658611609
 30
0.0
 10
12.4738602623
 20
8.2597375999
 30
0.0
 10
12.4699047825
 20
8.2539406026
 30
0.0
 10
12.4659381063
 20
8.2484731723
 30
0.0
 10
12.461962224
 20
8.2433381922
 30
0.0
 10
12.4579792356
 20
8.2385382972
 30
0.0
 10
12.4539910949
 20
8.234076027
 30
0.0
 10
12.4499998594
 20
8.2299536636
 30
0.0
 10
12.4460074441
 20
8.2261734065
 30
0.0
 10
12.4420158266
 20
8.2227372237
 30
0.0
 10
12.4380268826
 20
8.2196469978
 30
0.0
 10
12.4340424964
 20
8.2169044523
 30
0.0
 10
12.4300645265
 20
8.2145112049
 30
0.0
 10
12.4260948148
 20
8.2124688264
 30
0.0
 10
12.422135294
 20
8.2107787306
 30
0.0
 10
12.4181879181
 20
8.2094423854
 30
0.0
 10
12.4142549021
 20
8.2084609772
 30
0.0
 10
12.4103384432
 20
8.2078357397
 30
0.0
 10
12.4064415566
 20
8.207567378
 30
0.0
 10
12.4038540362
 20
8.2076269355
 30
0.0
 10
12.4025702731
 20
8.207715962
 30
0.0
  0
SPLINE
  5
375
100
AcDbEntity
  8
0
100
AcDbSpline
 62
7
  6
CONTINUOUS
 70
0
 71
3
 72
21
 73
17
 74
0
 42
0.0000001
 43
0.0000001
 44
0.0000000001
 40
0.0
 40
0.0
 40
0.0
 40
0.0
 40
0.0617147758
 40
0.1234506606
 40
0.1852285516
 40
0.2470689039
 40
0.3089915432
 40
0.3710154715
 40
0.4331586565
 40
0.4954378534
 40
0.5578684959
 40
0.6204644995
 40
0.6832380575
 40
0.7461999878
 40
0.87268242
 40
1.0
 40
1.0
 40
1.0
 40
1.0
 10
10.7095051992
 20
7.8722450431
 30
0.0
 10
10.7072395697
 20
7.8700566248
 30
0.0
 10
10.7028193676
 20
7.8655615323
 30
0.0
 10
10.6965433755
 20
7.8584856304
 30
0.0
 10
10.6906349637
 20
7.8510914996
 30
0.0
 10
10.6851079883
 20
7.8433964355
 30
0.0
 10
10.6799750961
 20
7.8354181508
 30
0.0
 10
10.6752481433
 20
7.8271750586
 30
0.0
 10
10.6709380468
 20
7.8186861542
 30
0.0
 10
10.6670546932
 20
7.8099710468
 30
0.0
 10
10.6636070139
 20
7.8010498191
 30
0.0
 10
10.6606029895
 20
7.7919430978
 30
0.0
 10
10.6580494692
 20
7.7826716463
 30
0.0
 10
10.6552493933
 20
7.7701018901
 30
0.0
 10
10.6529066837
 20
7.7540774717
 30
0.0
 10
10.6522863683
 20
7.7411149973
 30
0.0
 10
10.6522863683
 20
7.7346166289
 30
0.0
  0
SPLINE
  5
376
100
AcDbEntity
  8
0
100
AcDbSpline
 62
7
  6
CONTINUOUS
 70
0
 71
3
 72
71
 73
67
 74
0
 42
0.0000001
 43
0.0000001
 44
0.0000000001
 40
0.0
 40
0.0
 40
0.0
 40
0.0
 40
0.0155841583
 40
0.0311159808
 40
0.0465952391
 40
0.0620238824
 40
0.0774034512
 40
0.0927362817
 40
0.1080251233
 40
0.1232731726
 40
0.138484055
 40
0.1536617764
 40
0.1688106901
 40
0.183935453
 40
0.1990409778
 40
0.2141323818
 40
0.2292149321
 40
0.24429399
 40
0.2593749541
 40
0.2744632037
 40
0.28956404
 40
0.3046826301
 40
0.319823951
 40
0.3349927394
 40
0.3501934432
 40
0.3654301763
 40
0.380706678
 40
0.3960262757
 40
0.4113918557
 40
0.4268058382
 40
0.442270158
 40
0.4577862479
 40
0.4733550295
 40
0.4889769098
 40
0.5046517843
 40
0.5203790419
 40
0.5361575758
 40
0.5519857968
 40
0.5678616544
 40
0.5837826609
 40
0.5997459173
 40
0.6157481415
 40
0.6317856999
 40
0.6478546445
 40
0.6639507497
 40
0.6800695506
 40
0.696206382
 40
0.7123564201
 40
0.7285147268
 40
0.7446762928
 40
0.7608360801
 40
0.7769890652
 40
0.7931302837
 40
0.8092548746
 40
0.8253581231
 40
0.8414355008
 40
0.8574827062
 40
0.8734957056
 40
0.8894707696
 40
0.9054045137
 40
0.9212939168
 40
0.9371363628
 40
0.9529297287
 40
0.9686720424
 40
0.9843627193
 40
1.0
 40
1.0
 40
1.0
 40
1.0
 10
10.5677789829
 20
7.721988758
 30
0.0
 10
10.5677789829
 20
7.7264061049
 30
0.0
 10
10.5679951724
 20
7.7352275299
 30
0.0
 10
10.5689709957
 20
7.7484040734
 30
0.0
 10
10.5705956525
 20
7.7614724013
 30
0.0
 10
10.5728650944
 20
7.7744004591
 30
0.0
 10
10.5757740013
 20
7.7871573193
 30
0.0
 10
10.5793153585
 20
7.7997121496
 30
0.0
 10
10.5834806593
 20
7.8120347042
 30
0.0
 10
10.5882598868
 20
7.8240952679
 30
0.0
 10
10.5936415437
 20
7.8358647558
 30
0.0
 10
10.5996126878
 20
7.8473147768
 30
0.0
 10
10.6061589494
 20
7.8584177043
 30
0.0
 10
10.6132645464
 20
7.8691467602
 30
0.0
 10
10.6209123528
 20
7.8794760632
 30
0.0
 10
10.6290839349
 20
7.8893806936
 30
0.0
 10
10.637759598
 20
7.8988367497
 30
0.0
 10
10.6469184249
 20
7.9078214132
 30
0.0
 10
10.6565383133
 20
7.9163130224
 30
0.0
 10
10.6665960552
 20
7.9242911015
 30
0.0
 10
10.6770673882
 20
7.9317364135
 30
0.0
 10
10.6879270563
 20
7.9386310021
 30
0.0
 10
10.6991488625
 20
7.9449582464
 30
0.0
 10
10.7107057271
 20
7.9507029172
 30
0.0
 10
10.7225697714
 20
7.9558511856
 30
0.0
 10
10.7347123813
 20
7.9603906605
 30
0.0
 10
10.7471042768
 20
7.9643104125
 30
0.0
 10
10.7597155765
 20
7.967601017
 30
0.0
 10
10.7725158706
 20
7.9702545861
 30
0.0
 10
10.7854743028
 20
7.9722647589
 30
0.0
 10
10.7985596424
 20
7.9736267223
 30
0.0
 10
10.8117403576
 20
7.9743372147
 30
0.0
 10
10.8249846894
 20
7.9743945561
 30
0.0
 10
10.8382607311
 20
7.9737986546
 30
0.0
 10
10.8515365057
 20
7.9725509792
 30
0.0
 10
10.8647800415
 20
7.9706545634
 30
0.0
 10
10.8779594454
 20
7.9681139903
 30
0.0
 10
10.8910429832
 20
7.964935407
 30
0.0
 10
10.9039991584
 20
7.9611265053
 30
0.0
 10
10.9167967825
 20
7.9566964812
 30
0.0
 10
10.9294050499
 20
7.9516560193
 30
0.0
 10
10.9417936071
 20
7.9460172614
 30
0.0
 10
10.9539326367
 20
7.9397938032
 30
0.0
 10
10.9657929274
 20
7.9330006518
 30
0.0
 10
10.9773459359
 20
7.9256541732
 30
0.0
 10
10.9885638564
 20
7.917772059
 30
0.0
 10
10.999419682
 20
7.9093732799
 30
0.0
 10
11.0098872876
 20
7.9004780642
 30
0.0
 10
11.0199414859
 20
7.8911078357
 30
0.0
 10
11.0295580785
 20
7.8812851516
 30
0.0
 10
11.038713915
 20
7.8710336535
 30
0.0
 10
11.0473869437
 20
7.8603780079
 30
0.0
 10
11.0555562893
 20
7.8493438677
 30
0.0
 10
11.0632022894
 20
7.8379577954
 30
0.0
 10
11.0703065322
 20
7.8262471942
 30
0.0
 10
11.0768519031
 20
7.8142402459
 30
0.0
 10
11.082822621
 20
7.8019658426
 30
0.0
 10
11.088204306
 20
7.7894535323
 30
0.0
 10
11.0929839948
 20
7.7767334334
 30
0.0
 10
11.0971501602
 20
7.7638361624
 30
0.0
 10
11.1006927454
 20
7.7507927671
 30
0.0
 10
11.1036031965
 20
7.737634624
 30
0.0
 10
11.1058744448
 20
7.7243934939
 30
0.0
 10
11.1075011079
 20
7.7111010231
 30
0.0
 10
11.1084790758
 20
7.6977897906
 30
0.0
 10
11.1086974777
 20
7.6889083375
 30
0.0
 10
11.1086974777
 20
7.684475933
 30
0.0
  0
SPLINE
  5
377
100
AcDbEntity
  8
0
100
AcDbSpline
 62
7
  6
CONTINUOUS
 70
0
 71
3
 72
42
 73
38
 74
0
 42
0.0000001
 43
0.0000001
 44
0.0000000001
 40
0.0
 40
0.0
 40
0.0
 40
0.0
 40
0.0299419663
 40
0.0449235352
 40
0.0599142051
 40
0.0899287052
 40
0.1200139767
 40
0.135092661
 40
0.150196701
 40
0.1804840414
 40
0.210897872
 40
0.2414513324
 40
0.2721543376
 40
0.3030133986
 40
0.3340315263
 40
0.3652082187
 40
0.3965395244
 40
0.4280181782
 40
0.4596338019
 40
0.4913731609
 40
0.5232204716
 40
0.55515775
 40
0.5871651943
 40
0.6192215961
 40
0.6513047701
 40
0.6833919991
 40
0.7154604852
 40
0.7474878032
 40
0.7794523473
 40
0.8113337692
 40
0.8431133916
 40
0.8747746171
 40
0.9063032365
 40
0.9376879249
 40
0.9533258257
 40
0.968925233
 40
1.0
 40
1.0
 40
1.0
 40
1.0
 10
11.4406976008
 20
9.8700446689
 30
0.0
 10
11.437844178
 20
9.8672884738
 30
0.0
 10
11.4333958691
 20
9.8633211665
 30
0.0
 10
11.4271660817
 20
9.8583986274
 30
0.0
 10
11.4207379203
 20
9.8537210206
 30
0.0
 10
11.4123502117
 20
9.848349619
 30
0.0
 10
11.4035546775
 20
9.8436512039
 30
0.0
 10
11.396300656
 20
9.8403087039
 30
0.0
 10
11.3888967599
 20
9.8372421862
 30
0.0
 10
11.3793979161
 20
9.8339447597
 30
0.0
 10
11.3676920163
 20
9.8308716471
 30
0.0
 10
11.3557306899
 20
9.8286945629
 30
0.0
 10
11.3435802216
 20
9.8274255258
 30
0.0
 10
11.3313073575
 20
9.8270713062
 30
0.0
 10
11.3189796264
 20
9.8276337077
 30
0.0
 10
11.3066647845
 20
9.8291094816
 30
0.0
 10
11.2944304968
 20
9.8314903743
 30
0.0
 10
11.2823439558
 20
9.8347631727
 30
0.0
 10
11.2704715213
 20
9.8389097817
 30
0.0
 10
11.2588783604
 20
9.8439073272
 30
0.0
 10
11.2476280949
 20
9.8497282824
 30
0.0
 10
11.2367824563
 20
9.8563406198
 30
0.0
 10
11.2264009523
 20
9.8637079869
 30
0.0
 10
11.2165405444
 20
9.8717899054
 30
0.0
 10
11.2072553386
 20
9.8805419915
 30
0.0
 10
11.1985962925
 20
9.8899161977
 30
0.0
 10
11.1906109381
 20
9.8998610738
 30
0.0
 10
11.1833431239
 20
9.9103220471
 30
0.0
 10
11.1768327759
 20
9.9212417153
 30
0.0
 10
11.1711156804
 20
9.9325601705
 30
0.0
 10
11.1662232892
 20
9.9442152771
 30
0.0
 10
11.16218254
 20
9.9561431807
 30
0.0
 10
11.1590157513
 20
9.9682780168
 30
0.0
 10
11.1571171943
 20
9.9785211384
 30
0.0
 10
11.1560521567
 20
9.9867513557
 30
0.0
 10
11.1552920673
 20
9.9949736995
 30
0.0
 10
11.1550619201
 20
10.0011609549
 30
0.0
 10
11.1550619201
 20
10.0052782412
 30
0.0
  0
SPLINE
  5
378
100
AcDbEntity
  8
0
100
AcDbSpline
 62
7
  6
CONTINUOUS
 70
0
 71
3
 72
36
 73
32
 74
0
 42
0.0000001
 43
0.0000001
 44
0.0000000001
 40
0.0
 40
0.0
 40
0.0
 40
0.0
 40
0.0935421599
 40
0.1835082756
 40
0.2696944506
 40
0.3113113525
 40
0.351914181
 40
0.3914823798
 40
0.4299966891
 40
0.4674392252
 40
0.5037936452
 40
0.5390452462
 40
0.5731810393
 40
0.606190032
 40
0.6380632343
 40
0.6687941012
 40
0.6983785025
 40
0.7268153463
 40
0.7541065655
 40
0.7802579309
 40
0.8052791347
 40
0.8291848089
 40
0.8519948089
 40
0.8737354541
 40
0.8944401186
 40
0.9141506945
 40
0.9329185336
 40
0.9508060317
 40
0.9678877461
 40
0.9842516948
 40
1.0
 40
1.0
 40
1.0
 40
1.0
 10
12.579740966
 20
9.2658380303
 30
0.0
 10
12.5786729374
 20
9.2751859744
 30
0.0
 10
12.5764010613
 20
9.2935049757
 30
0.0
 10
12.5724946485
 20
9.3203509532
 30
0.0
 10
12.5688448462
 20
9.341951019
 30
0.0
 10
12.5657053747
 20
9.3585967367
 30
0.0
 10
12.5632764849
 20
9.3706037196
 30
0.0
 10
12.5607475587
 20
9.3822709228
 30
0.0
 10
12.558120335
 20
9.3935903359
 30
0.0
 10
12.5553966305
 20
9.4045541685
 30
0.0
 10
12.5525783287
 20
9.4151548866
 30
0.0
 10
12.5496673851
 20
9.4253852112
 30
0.0
 10
12.5466657954
 20
9.4352381216
 30
0.0
 10
12.5435756533
 20
9.4447068666
 30
0.0
 10
12.5403990565
 20
9.4537849604
 30
0.0
 10
12.5371382274
 20
9.4624662051
 30
0.0
 10
12.5337953543
 20
9.4707446697
 30
0.0
 10
12.5303727725
 20
9.4786147325
 30
0.0
 10
12.5268727462
 20
9.4860710361
 30
0.0
 10
12.5232976998
 20
9.4931085558
 30
0.0
 10
12.5196499513
 20
9.4997225227
 30
0.0
 10
12.5159319772
 20
9.5059085215
 30
0.0
 10
12.5121461169
 20
9.5116623763
 30
0.0
 10
12.5082948448
 20
9.5169802725
 30
0.0
 10
12.504380476
 20
9.5218586037
 30
0.0
 10
12.5004054232
 20
9.5262940986
 30
0.0
 10
12.4963719263
 20
9.5302836391
 30
0.0
 10
12.4922823457
 20
9.5338243398
 30
0.0
 10
12.4881387604
 20
9.5369134489
 30
0.0
 10
12.4839440654
 20
9.5395480563
 30
0.0
 10
12.4810656989
 20
9.5410249397
 30
0.0
 10
12.4796237527
 20
9.5416805985
 30
0.0
  0
SPLINE
  5
379
100
AcDbEntity
  8
0
100
AcDbSpline
 62
7
  6
CONTINUOUS
 70
0
 71
3
 72
42
 73
38
 74
0
 42
0.0000001
 43
0.0000001
 44
0.0000000001
 40
0.0
 40
0.0
 40
0.0
 40
0.0
 40
0.0299419663
 40
0.0449235352
 40
0.0599142051
 40
0.0899287052
 40
0.1200139767
 40
0.135092661
 40
0.150196701
 40
0.1804840414
 40
0.210897872
 40
0.2414513324
 40
0.2721543376
 40
0.3030133986
 40
0.3340315263
 40
0.3652082187
 40
0.3965395244
 40
0.4280181782
 40
0.4596338019
 40
0.4913731609
 40
0.5232204716
 40
0.55515775
 40
0.5871651943
 40
0.6192215961
 40
0.6513047701
 40
0.6833919991
 40
0.7154604852
 40
0.7474878032
 40
0.7794523473
 40
0.8113337692
 40
0.8431133916
 40
0.8747746171
 40
0.9063032365
 40
0.9376879249
 40
0.9533258257
 40
0.968925233
 40
1.0
 40
1.0
 40
1.0
 40
1.0
 10
10.4747717172
 20
7.0392541771
 30
0.0
 10
10.4719182945
 20
7.036497982
 30
0.0
 10
10.4674699856
 20
7.0325306747
 30
0.0
 10
10.4612401982
 20
7.0276081356
 30
0.0
 10
10.4548120368
 20
7.0229305288
 30
0.0
 10
10.4464243282
 20
7.0175591272
 30
0.0
 10
10.437628794
 20
7.0128607121
 30
0.0
 10
10.4303747725
 20
7.0095182121
 30
0.0
 10
10.4229708764
 20
7.0064516944
 30
0.0
 10
10.4134720326
 20
7.0031542679
 30
0.0
 10
10.4017661328
 20
7.0000811552
 30
0.0
 10
10.3898048064
 20
6.9979040711
 30
0.0
 10
10.377654338
 20
6.996635034
 30
0.0
 10
10.3653814739
 20
6.9962808144
 30
0.0
 10
10.3530537428
 20
6.9968432159
 30
0.0
 10
10.340738901
 20
6.9983189898
 30
0.0
 10
10.3285046132
 20
7.0006998825
 30
0.0
 10
10.3164180722
 20
7.0039726809
 30
0.0
 10
10.3045456378
 20
7.0081192899
 30
0.0
 10
10.2929524769
 20
7.0131168353
 30
0.0
 10
10.2817022113
 20
7.0189377906
 30
0.0
 10
10.2708565727
 20
7.025550128
 30
0.0
 10
10.2604750688
 20
7.0329174951
 30
0.0
 10
10.2506146609
 20
7.0409994136
 30
0.0
 10
10.2413294551
 20
7.0497514997
 30
0.0
 10
10.232670409
 20
7.0591257059
 30
0.0
 10
10.2246850546
 20
7.069070582
 30
0.0
 10
10.2174172404
 20
7.0795315553
 30
0.0
 10
10.2109068924
 20
7.0904512235
 30
0.0
 10
10.2051897969
 20
7.1017696787
 30
0.0
 10
10.2002974057
 20
7.1134247853
 30
0.0
 10
10.1962566564
 20
7.1253526889
 30
0.0
 10
10.1930898677
 20
7.137487525
 30
0.0
 10
10.1911913108
 20
7.1477306466
 30
0.0
 10
10.1901262732
 20
7.1559608639
 30
0.0
 10
10.1893661837
 20
7.1641832077
 30
0.0
 10
10.1891360366
 20
7.1703704631
 30
0.0
 10
10.1891360366
 20
7.1744877494
 30
0.0
  0
SPLINE
  5
37A
100
AcDbEntity
  8
0
100
AcDbSpline
 62
7
  6
CONTINUOUS
 70
0
 71
3
 72
23
 73
19
 74
0
 42
0.0000001
 43
0.0000001
 44
0.0000000001
 40
0.0
 40
0.0
 40
0.0
 40
0.0
 40
0.0781370857
 40
0.1532319508
 40
0.2254044596
 40
0.2947997439
 40
0.3615916163
 40
0.4259789877
 40
0.4881875989
 40
0.5484708552
 40
0.6071108481
 40
0.6644178291
 40
0.7207261421
 40
0.7763901376
 40
0.831777592
 40
0.8872622863
 40
0.9432158635
 40
1.0
 40
1.0
 40
1.0
 40
1.0
 10
12.4179791963
 20
8.4213553934
 30
0.0
 10
12.417130461
 20
8.420535578
 30
0.0
 10
12.4154334965
 20
8.4189610442
 30
0.0
 10
12.4128371099
 20
8.416757826
 30
0.0
 10
12.4102424453
 20
8.4147621217
 30
0.0
 10
12.4076506758
 20
8.4129750452
 30
0.0
 10
12.4050628754
 20
8.4113974139
 30
0.0
 10
12.402480026
 20
8.4100300814
 30
0.0
 10
12.3999032027
 20
8.4088737807
 30
0.0
 10
12.3973335034
 20
8.4079292595
 30
0.0
 10
12.394772075
 20
8.4071972682
 30
0.0
 10
12.3922201785
 20
8.4066783364
 30
0.0
 10
12.3896791201
 20
8.4063730277
 30
0.0
 10
12.3871503192
 20
8.4062816712
 30
0.0
 10
12.3846352621
 20
8.4064043888
 30
0.0
 10
12.3821354055
 20
8.4067412293
 30
0.0
 10
12.3796524082
 20
8.4072917752
 30
0.0
 10
12.37802407
 20
8.407796416
 30
0.0
 10
12.3772155627
 20
8.408082262
 30
0.0
  0
SPLINE
  5
37B
100
AcDbEntity
  8
0
100
AcDbSpline
 62
7
  6
CONTINUOUS
 70
0
 71
3
 72
51
 73
47
 74
0
 42
0.0000001
 43
0.0000001
 44
0.0000000001
 40
0.0
 40
0.0
 40
0.0
 40
0.0
 40
0.0061011971
 40
0.0123920689
 40
0.0189006006
 40
0.0256517013
 40
0.0326672769
 40
0.039966354
 40
0.0475653885
 40
0.0554783671
 40
0.0637171983
 40
0.0722918023
 40
0.0812104202
 40
0.0904797723
 40
0.1001051889
 40
0.1100908683
 40
0.1204398489
 40
0.1311543026
 40
0.1422354673
 40
0.1536838528
 40
0.1654992627
 40
0.1776808324
 40
0.1902271837
 40
0.2031363191
 40
0.2164058433
 40
0.2300328302
 40
0.2583449271
 40
0.2880423392
 40
0.3190885085
 40
0.3514420053
 40
0.3850570375
 40
0.4198838766
 40
0.4558692174
 40
0.4929564948
 40
0.531086172
 40
0.5701959957
 40
0.6102212318
 40
0.6510948856
 40
0.692747909
 40
0.7351093993
 40
0.7781067998
 40
0.8216660427
 40
0.8657119328
 40
0.910167688
 40
0.9549568077
 40
1.0
 40
1.0
 40
1.0
 40
1.0
 10
12.3872492366
 20
8.2116357862
 30
0.0
 10
12.3884940837
 20
8.2120010379
 30
0.0
 10
12.3909945098
 20
8.2128414865
 30
0.0
 10
12.3947041586
 20
8.2143955696
 30
0.0
 10
12.3984234091
 20
8.2162594119
 30
0.0
 10
12.4021503543
 20
8.2184317867
 30
0.0
 10
12.4058835044
 20
8.2209115089
 30
0.0
 10
12.409621319
 20
8.2236972298
 30
0.0
 10
12.4133621917
 20
8.2267876263
 30
0.0
 10
12.4171045992
 20
8.2301811554
 30
0.0
 10
12.4208468874
 20
8.2338762767
 30
0.0
 10
12.4245874687
 20
8.2378712452
 30
0.0
 10
12.4283246835
 20
8.2421642376
 30
0.0
 10
12.4320568588
 20
8.2467532899
 30
0.0
 10
12.4357823514
 20
8.2516362794
 30
0.0
 10
12.4394994245
 20
8.2568109948
 30
0.0
 10
12.4432064399
 20
8.2622750287
 30
0.0
 10
12.4469016473
 20
8.2680258941
 30
0.0
 10
12.4505833843
 20
8.2740609219
 30
0.0
 10
12.4542499332
 20
8.2803773356
 30
0.0
 10
12.4578995922
 20
8.2869722162
 30
0.0
 10
12.4615306935
 20
8.2938425033
 30
0.0
 10
12.4651415105
 20
8.3009850279
 30
0.0
 10
12.468730406
 20
8.3083964602
 30
0.0
 10
12.4722956848
 20
8.3160733813
 30
0.0
 10
12.4770766758
 20
8.3267953826
 30
0.0
 10
12.4829724571
 20
8.3408428588
 30
0.0
 10
12.4898400758
 20
8.3584919904
 30
0.0
 10
12.4965746705
 20
8.3771087285
 30
0.0
 10
12.5031636284
 20
8.3966584362
 30
0.0
 10
12.5095946075
 20
8.4171048726
 30
0.0
 10
12.5158555563
 20
8.4384100342
 30
0.0
 10
12.5219347431
 20
8.4605342993
 30
0.0
 10
12.5278207797
 20
8.4834364882
 30
0.0
 10
12.5335026404
 20
8.5070739531
 30
0.0
 10
12.5389696844
 20
8.5314026602
 30
0.0
 10
12.5442116752
 20
8.5563772751
 30
0.0
 10
12.5492187997
 20
8.5819512491
 30
0.0
 10
12.5539816861
 20
8.6080769072
 30
0.0
 10
12.5584914225
 20
8.6347055392
 30
0.0
 10
12.5627395713
 20
8.6617874831
 30
0.0
 10
12.5667181961
 20
8.689272253
 30
0.0
 10
12.5704198384
 20
8.7171085291
 30
0.0
 10
12.5738376176
 20
8.7452445295
 30
0.0
 10
12.5769650914
 20
8.773627582
 30
0.0
 10
12.5788484417
 20
8.7926364146
 30
0.0
 10
12.579740966
 20
8.8021724771
 30
0.0
  0
SPLINE
  5
37C
100
AcDbEntity
  8
0
100
AcDbSpline
 62
7
  6
CONTINUOUS
 70
0
 71
3
 72
41
 73
37
 74
0
 42
0.0000001
 43
0.0000001
 44
0.0000000001
 40
0.0
 40
0.0
 40
0.0
 40
0.0
 40
0.0076886577
 40
0.0154017874
 40
0.0231636201
 40
0.030997882
 40
0.0389275852
 40
0.046974865
 40
0.0635000007
 40
0.0807333193
 40
0.0988086676
 40
0.1178395163
 40
0.1379200533
 40
0.1591273198
 40
0.1815230666
 40
0.2051561006
 40
0.2300640302
 40
0.2562749205
 40
0.2838088491
 40
0.3126787846
 40
0.3428918939
 40
0.3744500245
 40
0.4073505566
 40
0.4415869061
 40
0.4771488355
 40
0.5140230971
 40
0.5521934021
 40
0.5916410092
 40
0.6323447357
 40
0.6742811794
 40
0.7174250121
 40
0.7617490149
 40
0.8072242471
 40
0.853819588
 40
0.9015035687
 40
1.0
 40
1.0
 40
1.0
 40
1.0
 10
12.4952073775
 20
9.5435076047
 30
0.0
 10
12.4960195585
 20
9.5434512816
 30
0.0
 10
12.4976436063
 20
9.5432908862
 30
0.0
 10
12.5000675877
 20
9.5429079555
 30
0.0
 10
12.5024805835
 20
9.5423826033
 30
0.0
 10
12.504881899
 20
9.5417150374
 30
0.0
 10
12.5072710679
 20
9.5409054268
 30
0.0
 10
12.5104674166
 20
9.5396258052
 30
0.0
 10
12.5144411955
 20
9.5376563507
 30
0.0
 10
12.5191057631
 20
9.5347495463
 30
0.0
 10
12.523706145
 20
9.531282168
 30
0.0
 10
12.5282388447
 20
9.5272582229
 30
0.0
 10
12.5327011135
 20
9.5226816603
 30
0.0
 10
12.5370898852
 20
9.5175565207
 30
0.0
 10
12.5414021696
 20
9.5118871846
 30
0.0
 10
12.5456347869
 20
9.5056783163
 30
0.0
 10
12.54978453
 20
9.4989350132
 30
0.0
 10
12.5538481744
 20
9.4916628161
 30
0.0
 10
12.5578224124
 20
9.4838676933
 30
0.0
 10
12.561704053
 20
9.4755561135
 30
0.0
 10
12.5654898338
 20
9.466734969
 30
0.0
 10
12.5691766223
 20
9.4574116335
 30
0.0
 10
12.5727613095
 20
9.4475939153
 30
0.0
 10
12.5762408458
 20
9.4372900615
 30
0.0
 10
12.579612315
 20
9.4265087573
 30
0.0
 10
12.5828728036
 20
9.4152590954
 30
0.0
 10
12.5860195746
 20
9.4035505909
 30
0.0
 10
12.5890499155
 20
9.3913931495
 30
0.0
 10
12.5919612453
 20
9.3787970729
 30
0.0
 10
12.5947510894
 20
9.3657730442
 30
0.0
 10
12.5974170361
 20
9.3523321059
 30
0.0
 10
12.5999568417
 20
9.3384856596
 30
0.0
 10
12.6023682854
 20
9.3242455126
 30
0.0
 10
12.6046493719
 20
9.3096237118
 30
0.0
 10
12.6075455656
 20
9.2894173264
 30
0.0
 10
12.6094666945
 20
9.274056555
 30
0.0
 10
12.610650595
 20
9.2636944403
 30
0.0
  0
SPLINE
  5
37D
100
AcDbEntity
  8
0
100
AcDbSpline
 62
7
  6
CONTINUOUS
 70
0
 71
3
 72
21
 73
17
 74
0
 42
0.0000001
 43
0.0000001
 44
0.0000000001
 40
0.0
 40
0.0
 40
0.0
 40
0.0
 40
0.1273176366
 40
0.2537999756
 40
0.3167619475
 40
0.3795355041
 40
0.4421314991
 40
0.5045621439
 40
0.5668413432
 40
0.6289845283
 40
0.6910084528
 40
0.7529310935
 40
0.8147714495
 40
0.8765493365
 40
0.9382852194
 40
1.0
 40
1.0
 40
1.0
 40
1.0
 10
11.1550619201
 20
10.0052782412
 30
0.0
 10
11.1550619201
 20
10.0105754911
 30
0.0
 10
11.1555675776
 20
10.0211420554
 30
0.0
 10
11.1574772816
 20
10.0342046118
 30
0.0
 10
11.1597598026
 20
10.0444510455
 30
0.0
 10
11.1618413391
 20
10.0520088186
 30
0.0
 10
11.1642901267
 20
10.0594323025
 30
0.0
 10
11.1671005545
 20
10.0667045824
 30
0.0
 10
11.1702661219
 20
10.0738088443
 30
0.0
 10
11.1737795733
 20
10.0807287047
 30
0.0
 10
11.1776328266
 20
10.0874481889
 30
0.0
 10
11.1818169731
 20
10.0939518209
 30
0.0
 10
11.1863223755
 20
10.1002245736
 30
0.0
 10
11.1911387227
 20
10.1062520055
 30
0.0
 10
11.1962546813
 20
10.1120200521
 30
0.0
 10
11.1998578846
 20
10.1156842921
 30
0.0
 10
11.2017047434
 20
10.117468221
 30
0.0
  0
SPLINE
  5
37E
100
AcDbEntity
  8
0
100
AcDbSpline
 62
7
  6
CONTINUOUS
 70
0
 71
3
 72
21
 73
17
 74
0
 42
0.0000001
 43
0.0000001
 44
0.0000000001
 40
0.0
 40
0.0
 40
0.0
 40
0.0
 40
0.1273176366
 40
0.2537999756
 40
0.3167619475
 40
0.3795355041
 40
0.4421314991
 40
0.5045621439
 40
0.5668413432
 40
0.6289845283
 40
0.6910084528
 40
0.7529310935
 40
0.8147714495
 40
0.8765493365
 40
0.9382852194
 40
1.0
 40
1.0
 40
1.0
 40
1.0
 10
10.1891360366
 20
7.1744877494
 30
0.0
 10
10.1891360366
 20
7.1797849993
 30
0.0
 10
10.189641694
 20
7.1903515636
 30
0.0
 10
10.1915513981
 20
7.20341412
 30
0.0
 10
10.1938339191
 20
7.2136605536
 30
0.0
 10
10.1959154556
 20
7.2212183267
 30
0.0
 10
10.1983642432
 20
7.2286418107
 30
0.0
 10
10.201174671
 20
7.2359140906
 30
0.0
 10
10.2043402384
 20
7.2430183524
 30
0.0
 10
10.2078536898
 20
7.2499382128
 30
0.0
 10
10.211706943
 20
7.2566576971
 30
0.0
 10
10.2158910896
 20
7.2631613291
 30
0.0
 10
10.2203964919
 20
7.2694340818
 30
0.0
 10
10.2252128392
 20
7.2754615137
 30
0.0
 10
10.2303287978
 20
7.2812295603
 30
0.0
 10
10.2339320011
 20
7.2848938003
 30
0.0
 10
10.2357788599
 20
7.2866777292
 30
0.0
  0
SPLINE
  5
37F
100
AcDbEntity
  8
0
100
AcDbSpline
 62
4
  6
CONTINUOUS
 70
0
 71
3
 72
615
 73
611
 74
0
 42
0.0000001
 43
0.0000001
 44
0.0000000001
 40
0.0
 40
0.0
 40
0.0
 40
0.0
 40
0.0078125
 40
0.015625
 40
0.0234375
 40
0.03125
 40
0.03515625
 40
0.0390625
 40
0.04296875
 40
0.046875
 40
0.05078125
 40
0.052734375
 40
0.0546875
 40
0.056640625
 40
0.0576171875
 40
0.05859375
 40
0.0595703125
 40
0.060546875
 40
0.0610351562
 40
0.0615234375
 40
0.0617675781
 40
0.0620117188
 40
0.0622558594
 40
0.0623779297
 40
0.0624389648
 40
0.0625
 40
0.0625610352
 40
0.0626220703
 40
0.0627441406
 40
0.0629882812
 40
0.0632324219
 40
0.0634765625
 40
0.0639648438
 40
0.064453125
 40
0.0654296875
 40
0.06640625
 40
0.0673828125
 40
0.068359375
 40
0.0703125
 40
0.072265625
 40
0.07421875
 40
0.078125
 40
0.08203125
 40
0.0859375
 40
0.08984375
 40
0.09375
 40
0.09765625
 40
0.1015625
 40
0.10546875
 40
0.109375
 40
0.11328125
 40
0.115234375
 40
0.1171875
 40
0.119140625
 40
0.1201171875
 40
0.12109375
 40
0.1220703125
 40
0.123046875
 40
0.1235351562
 40
0.1240234375
 40
0.1242675781
 40
0.1245117188
 40
0.1247558594
 40
0.1248779297
 40
0.1249389648
 40
0.125
 40
0.1250610352
 40
0.1251220703
 40
0.1252441406
 40
0.1254882812
 40
0.1257324219
 40
0.1259765625
 40
0.1264648438
 40
0.126953125
 40
0.1279296875
 40
0.12890625
 40
0.1298828125
 40
0.130859375
 40
0.1328125
 40
0.134765625
 40
0.13671875
 40
0.140625
 40
0.14453125
 40
0.1484375
 40
0.15234375
 40
0.15625
 40
0.16015625
 40
0.1640625
 40
0.16796875
 40
0.171875
 40
0.17578125
 40
0.177734375
 40
0.1796875
 40
0.181640625
 40
0.1826171875
 40
0.18359375
 40
0.1845703125
 40
0.185546875
 40
0.1860351562
 40
0.1865234375
 40
0.1867675781
 40
0.1870117188
 40
0.1872558594
 40
0.1873779297
 40
0.1874389648
 40
0.1875
 40
0.1875610352
 40
0.1876220703
 40
0.1877441406
 40
0.1879882812
 40
0.1882324219
 40
0.1884765625
 40
0.1889648438
 40
0.189453125
 40
0.1904296875
 40
0.19140625
 40
0.1923828125
 40
0.193359375
 40
0.1953125
 40
0.197265625
 40
0.19921875
 40
0.203125
 40
0.20703125
 40
0.2109375
 40
0.21484375
 40
0.21875
 40
0.22265625
 40
0.2265625
 40
0.23046875
 40
0.234375
 40
0.23828125
 40
0.240234375
 40
0.2421875
 40
0.244140625
 40
0.2451171875
 40
0.24609375
 40
0.2470703125
 40
0.248046875
 40
0.2485351562
 40
0.2490234375
 40
0.2492675781
 40
0.2495117188
 40
0.2497558594
 40
0.2498779297
 40
0.2499389648
 40
0.25
 40
0.2500610352
 40
0.2501220703
 40
0.2502441406
 40
0.2504882812
 40
0.2507324219
 40
0.2509765625
 40
0.2514648438
 40
0.251953125
 40
0.2529296875
 40
0.25390625
 40
0.2548828125
 40
0.255859375
 40
0.2578125
 40
0.259765625
 40
0.26171875
 40
0.265625
 40
0.26953125
 40
0.2734375
 40
0.27734375
 40
0.28125
 40
0.28515625
 40
0.2890625
 40
0.29296875
 40
0.296875
 40
0.30078125
 40
0.302734375
 40
0.3046875
 40
0.306640625
 40
0.3076171875
 40
0.30859375
 40
0.3095703125
 40
0.310546875
 40
0.3110351562
 40
0.3115234375
 40
0.3117675781
 40
0.3120117188
 40
0.3122558594
 40
0.3123779297
 40
0.3124389648
 40
0.3125
 40
0.3125610352
 40
0.3126220703
 40
0.3127441406
 40
0.3129882812
 40
0.3132324219
 40
0.3134765625
 40
0.3139648438
 40
0.314453125
 40
0.3154296875
 40
0.31640625
 40
0.3173828125
 40
0.318359375
 40
0.3203125
 40
0.322265625
 40
0.32421875
 40
0.328125
 40
0.33203125
 40
0.3359375
 40
0.33984375
 40
0.34375
 40
0.34765625
 40
0.3515625
 40
0.35546875
 40
0.359375
 40
0.36328125
 40
0.365234375
 40
0.3671875
 40
0.369140625
 40
0.3701171875
 40
0.37109375
 40
0.3720703125
 40
0.373046875
 40
0.3735351562
 40
0.3740234375
 40
0.3742675781
 40
0.3745117188
 40
0.3747558594
 40
0.3748779297
 40
0.3749389648
 40
0.375
 40
0.3750610352
 40
0.3751220703
 40
0.3752441406
 40
0.3754882812
 40
0.3757324219
 40
0.3759765625
 40
0.3764648438
 40
0.376953125
 40
0.3779296875
 40
0.37890625
 40
0.3798828125
 40
0.380859375
 40
0.3828125
 40
0.384765625
 40
0.38671875
 40
0.390625
 40
0.39453125
 40
0.3984375
 40
0.40234375
 40
0.40625
 40
0.41015625
 40
0.4140625
 40
0.41796875
 40
0.421875
 40
0.42578125
 40
0.427734375
 40
0.4296875
 40
0.431640625
 40
0.4326171875
 40
0.43359375
 40
0.4345703125
 40
0.435546875
 40
0.4360351562
 40
0.4365234375
 40
0.4367675781
 40
0.4370117188
 40
0.4372558594
 40
0.4373779297
 40
0.4374389648
 40
0.4375
 40
0.4375610352
 40
0.4376220703
 40
0.4377441406
 40
0.4379882812
 40
0.4382324219
 40
0.4384765625
 40
0.4389648438
 40
0.439453125
 40
0.4404296875
 40
0.44140625
 40
0.4423828125
 40
0.443359375
 40
0.4453125
 40
0.447265625
 40
0.44921875
 40
0.453125
 40
0.45703125
 40
0.4609375
 40
0.46484375
 40
0.46875
 40
0.47265625
 40
0.4765625
 40
0.48046875
 40
0.484375
 40
0.48828125
 40
0.490234375
 40
0.4921875
 40
0.494140625
 40
0.4951171875
 40
0.49609375
 40
0.4970703125
 40
0.498046875
 40
0.4985351562
 40
0.4990234375
 40
0.4992675781
 40
0.4995117188
 40
0.4997558594
 40
0.4998779297
 40
0.4999389648
 40
0.5
 40
0.5000610352
 40
0.5001220703
 40
0.5002441406
 40
0.5004882812
 40
0.5007324219
 40
0.5009765625
 40
0.5014648438
 40
0.501953125
 40
0.5029296875
 40
0.50390625
 40
0.5048828125
 40
0.505859375
 40
0.5078125
 40
0.509765625
 40
0.51171875
 40
0.515625
 40
0.51953125
 40
0.5234375
 40
0.52734375
 40
0.53125
 40
0.53515625
 40
0.5390625
 40
0.54296875
 40
0.546875
 40
0.55078125
 40
0.552734375
 40
0.5546875
 40
0.556640625
 40
0.5576171875
 40
0.55859375
 40
0.5595703125
 40
0.560546875
 40
0.5610351562
 40
0.5615234375
 40
0.5617675781
 40
0.5620117188
 40
0.5622558594
 40
0.5623779297
 40
0.5624389648
 40
0.5625
 40
0.5625610352
 40
0.5626220703
 40
0.5627441406
 40
0.5629882812
 40
0.5632324219
 40
0.5634765625
 40
0.5639648438
 40
0.564453125
 40
0.5654296875
 40
0.56640625
 40
0.5673828125
 40
0.568359375
 40
0.5703125
 40
0.572265625
 40
0.57421875
 40
0.578125
 40
0.58203125
 40
0.5859375
 40
0.58984375
 40
0.59375
 40
0.59765625
 40
0.6015625
 40
0.60546875
 40
0.609375
 40
0.61328125
 40
0.615234375
 40
0.6171875
 40
0.619140625
 40
0.6201171875
 40
0.62109375
 40
0.6220703125
 40
0.623046875
 40
0.6235351562
 40
0.6240234375
 40
0.6242675781
 40
0.6245117188
 40
0.6247558594
 40
0.6248779297
 40
0.6249389648
 40
0.625
 40
0.6250610352
 40
0.6251220703
 40
0.6252441406
 40
0.6254882812
 40
0.6257324219
 40
0.6259765625
 40
0.6264648438
 40
0.626953125
 40
0.6279296875
 40
0.62890625
 40
0.6298828125
 40
0.630859375
 40
0.6328125
 40
0.634765625
 40
0.63671875
 40
0.640625
 40
0.64453125
 40
0.6484375
 40
0.65234375
 40
0.65625
 40
0.66015625
 40
0.6640625
 40
0.66796875
 40
0.671875
 40
0.67578125
 40
0.677734375
 40
0.6796875
 40
0.681640625
 40
0.6826171875
 40
0.68359375
 40
0.6845703125
 40
0.685546875
 40
0.6860351562
 40
0.6865234375
 40
0.6867675781
 40
0.6870117188
 40
0.6872558594
 40
0.6873779297
 40
0.6874389648
 40
0.6875
 40
0.6875610352
 40
0.6876220703
 40
0.6877441406
 40
0.6879882812
 40
0.6882324219
 40
0.6884765625
 40
0.6889648438
 40
0.689453125
 40
0.6904296875
 40
0.69140625
 40
0.6923828125
 40
0.693359375
 40
0.6953125
 40
0.697265625
 40
0.69921875
 40
0.703125
 40
0.70703125
 40
0.7109375
 40
0.71484375
 40
0.71875
 40
0.72265625
 40
0.7265625
 40
0.73046875
 40
0.734375
 40
0.73828125
 40
0.740234375
 40
0.7421875
 40
0.744140625
 40
0.7451171875
 40
0.74609375
 40
0.7470703125
 40
0.748046875
 40
0.7485351562
 40
0.7490234375
 40
0.7492675781
 40
0.7495117188
 40
0.7497558594
 40
0.7498779297
 40
0.7499389648
 40
0.75
 40
0.7500610352
 40
0.7501220703
 40
0.7502441406
 40
0.7504882812
 40
0.7507324219
 40
0.7509765625
 40
0.7514648438
 40
0.751953125
 40
0.7529296875
 40
0.75390625
 40
0.7548828125
 40
0.755859375
 40
0.7578125
 40
0.759765625
 40
0.76171875
 40
0.765625
 40
0.76953125
 40
0.7734375
 40
0.77734375
 40
0.78125
 40
0.78515625
 40
0.7890625
 40
0.79296875
 40
0.796875
 40
0.80078125
 40
0.802734375
 40
0.8046875
 40
0.806640625
 40
0.8076171875
 40
0.80859375
 40
0.8095703125
 40
0.810546875
 40
0.8110351562
 40
0.8115234375
 40
0.8117675781
 40
0.8120117188
 40
0.8122558594
 40
0.8123779297
 40
0.8124389648
 40
0.8125
 40
0.8125610352
 40
0.8126220703
 40
0.8127441406
 40
0.8129882812
 40
0.8132324219
 40
0.8134765625
 40
0.8139648438
 40
0.814453125
 40
0.8154296875
 40
0.81640625
 40
0.8173828125
 40
0.818359375
 40
0.8203125
 40
0.822265625
 40
0.82421875
 40
0.828125
 40
0.83203125
 40
0.8359375
 40
0.83984375
 40
0.84375
 40
0.84765625
 40
0.8515625
 40
0.85546875
 40
0.859375
 40
0.86328125
 40
0.865234375
 40
0.8671875
 40
0.869140625
 40
0.8701171875
 40
0.87109375
 40
0.8720703125
 40
0.873046875
 40
0.8735351562
 40
0.8740234375
 40
0.8742675781
 40
0.8745117188
 40
0.8747558594
 40
0.8748779297
 40
0.8749389648
 40
0.875
 40
0.8750610352
 40
0.8751220703
 40
0.8752441406
 40
0.8754882812
 40
0.8757324219
 40
0.8759765625
 40
0.8764648438
 40
0.876953125
 40
0.8779296875
 40
0.87890625
 40
0.8798828125
 40
0.880859375
 40
0.8828125
 40
0.884765625
 40
0.88671875
 40
0.890625
 40
0.89453125
 40
0.8984375
 40
0.90234375
 40
0.90625
 40
0.91015625
 40
0.9140625
 40
0.91796875
 40
0.921875
 40
0.92578125
 40
0.927734375
 40
0.9296875
 40
0.931640625
 40
0.9326171875
 40
0.93359375
 40
0.9345703125
 40
0.935546875
 40
0.9360351562
 40
0.9365234375
 40
0.9367675781
 40
0.9370117188
 40
0.9372558594
 40
0.9373779297
 40
0.9374389648
 40
0.9375
 40
0.9375610352
 40
0.9376220703
 40
0.9377441406
 40
0.9379882812
 40
0.9382324219
 40
0.9384765625
 40
0.9389648438
 40
0.939453125
 40
0.9404296875
 40
0.94140625
 40
0.9423828125
 40
0.943359375
 40
0.9453125
 40
0.947265625
 40
0.94921875
 40
0.953125
 40
0.95703125
 40
0.9609375
 40
0.96484375
 40
0.96875
 40
0.9765625
 40
0.984375
 40
0.9921875
 40
1.0
 40
1.0
 40
1.0
 40
1.0
 10
10.4045375086
 20
8.7369065682
 30
0.0
 10
10.4059446285
 20
8.7369469534
 30
0.0
 10
10.4087588683
 20
8.7370277238
 30
0.0
 10
10.412980228
 20
8.7371488795
 30
0.0
 10
10.4172015878
 20
8.7372700351
 30
0.0
 10
10.4207193875
 20
8.7373709982
 30
0.0
 10
10.4235336273
 20
8.7374517686
 30
0.0
 10
10.4256443072
 20
8.7375123464
 30
0.0
 10
10.427754987
 20
8.7375729242
 30
0.0
 10
10.4298656669
 20
8.7376335021
 30
0.0
 10
10.4316245668
 20
8.7376839836
 30
0.0
 10
10.4330316867
 20
8.7377243688
 30
0.0
 10
10.4340870266
 20
8.7377546577
 30
0.0
 10
10.4349664766
 20
8.7377798985
 30
0.0
 10
10.4356700365
 20
8.7378000911
 30
0.0
 10
10.4361977065
 20
8.7378152354
 30
0.0
 10
10.4367253763
 20
8.7378303807
 30
0.0
 10
10.4371651018
 20
8.7378429984
 30
0.0
 10
10.4375168807
 20
8.7378531001
 30
0.0
 10
10.4377367458
 20
8.7378593967
 30
0.0
 10
10.4379126304
 20
8.7378644726
 30
0.0
 10
10.4380445645
 20
8.7378681739
 30
0.0
 10
10.4381544438
 20
8.7378715946
 30
0.0
 10
10.4382314883
 20
8.737873329
 30
0.0
 10
10.4382753124
 20
8.7378753508
 30
0.0
 10
10.4383087476
 20
8.7378739636
 30
0.0
 10
10.438340015
 20
8.7378836751
 30
0.0
 10
10.438382461
 20
8.7378927524
 30
0.0
 10
10.4384563892
 20
8.7379104414
 30
0.0
 10
10.4385621851
 20
8.7379347684
 30
0.0
 10
10.4386890613
 20
8.7379643644
 30
0.0
 10
10.4388582571
 20
8.7380036848
 30
0.0
 10
10.4390697424
 20
8.7380528836
 30
0.0
 10
10.4394081243
 20
8.7381315747
 30
0.0
 10
10.4398310997
 20
8.7382299478
 30
0.0
 10
10.4403386711
 20
8.7383479916
 30
0.0
 10
10.4408462422
 20
8.7384660364
 30
0.0
 10
10.4415230038
 20
8.7386234291
 30
0.0
 10
10.4423689558
 20
8.7388201701
 30
0.0
 10
10.4433840981
 20
8.7390562593
 30
0.0
 10
10.4447376213
 20
8.7393710449
 30
0.0
 10
10.4464295252
 20
8.7397645269
 30
0.0
 10
10.4484598099
 20
8.7402367052
 30
0.0
 10
10.4504900946
 20
8.7407088836
 30
0.0
 10
10.4525203793
 20
8.741181062
 30
0.0
 10
10.4545506641
 20
8.7416532403
 30
0.0
 10
10.4565809488
 20
8.7421254187
 30
0.0
 10
10.4586112335
 20
8.7425975971
 30
0.0
 10
10.4606415182
 20
8.7430697755
 30
0.0
 10
10.4626718029
 20
8.7435419538
 30
0.0
 10
10.4643637069
 20
8.7439354358
 30
0.0
 10
10.46571723
 20
8.7442502214
 30
0.0
 10
10.4667323724
 20
8.7444863106
 30
0.0
 10
10.4675783243
 20
8.7446830515
 30
0.0
 10
10.4682550859
 20
8.7448404444
 30
0.0
 10
10.4687626572
 20
8.7449584888
 30
0.0
 10
10.469270228
 20
8.7450765342
 30
0.0
 10
10.469693205
 20
8.7451749022
 30
0.0
 10
10.4700315837
 20
8.7452536037
 30
0.0
 10
10.4702430769
 20
8.745302776
 30
0.0
 10
10.4704122567
 20
8.7453421507
 30
0.0
 10
10.470539182
 20
8.7453715807
 30
0.0
 10
10.4706448242
 20
8.7453964273
 30
0.0
 10
10.4707190267
 20
8.7454131887
 30
0.0
 10
10.4707610332
 20
8.7454237523
 30
0.0
 10
10.4707936506
 20
8.7454288984
 30
0.0
 10
10.4708220151
 20
8.7454446581
 30
0.0
 10
10.4708613178
 20
8.745461969
 30
0.0
 10
10.4709294064
 20
8.7454939878
 30
0.0
 10
10.4710270372
 20
8.7455388272
 30
0.0
 10
10.4711440394
 20
8.7455930205
 30
0.0
 10
10.4713000965
 20
8.7456651434
 30
0.0
 10
10.4714951493
 20
8.7457553432
 30
0.0
 10
10.4718072441
 20
8.7458996371
 30
0.0
 10
10.472197359
 20
8.7460800133
 30
0.0
 10
10.4726654985
 20
8.746296461
 30
0.0
 10
10.4731336376
 20
8.7465129096
 30
0.0
 10
10.4737578232
 20
8.7468015075
 30
0.0
 10
10.4745380551
 20
8.7471622549
 30
0.0
 10
10.4754743335
 20
8.7475951518
 30
0.0
 10
10.4767227046
 20
8.7481723477
 30
0.0
 10
10.4782831685
 20
8.7488938425
 30
0.0
 10
10.4801557251
 20
8.7497596363
 30
0.0
 10
10.4820282818
 20
8.7506254301
 30
0.0
 10
10.4839008384
 20
8.7514912239
 30
0.0
 10
10.4857733951
 20
8.7523570177
 30
0.0
 10
10.4876459518
 20
8.7532228115
 30
0.0
 10
10.4895185084
 20
8.7540886053
 30
0.0
 10
10.4913910651
 20
8.7549543991
 30
0.0
 10
10.4932636218
 20
8.7558201929
 30
0.0
 10
10.4948240856
 20
8.7565416877
 30
0.0
 10
10.4960724568
 20
8.7571188835
 30
0.0
 10
10.4970087351
 20
8.7575517804
 30
0.0
 10
10.497788967
 20
8.7579125278
 30
0.0
 10
10.4984131526
 20
8.7582011258
 30
0.0
 10
10.4988812918
 20
8.7584175741
 30
0.0
 10
10.4993494306
 20
8.7586340233
 30
0.0
 10
10.4997395478
 20
8.7588143946
 30
0.0
 10
10.500051638
 20
8.7589586985
 30
0.0
 10
10.5002467026
 20
8.7590488727
 30
0.0
 10
10.5004027354
 20
8.7591210482
 30
0.0
 10
10.5005198119
 20
8.7591750808
 30
0.0
 10
10.5006172104
 20
8.759220423
 30
0.0
 10
10.5006857136
 20
8.7592515443
 30
0.0
 10
10.500724352
 20
8.7592702933
 30
0.0
 10
10.500754757
 20
8.7592816353
 30
0.0
 10
10.5007797103
 20
8.7593033735
 30
0.0
 10
10.5008148829
 20
8.7593287315
 30
0.0
 10
10.5008755489
 20
8.7593747976
 30
0.0
 10
10.500962678
 20
8.7594397229
 30
0.0
 10
10.5010670345
 20
8.7595180114
 30
0.0
 10
10.5012062459
 20
8.7596222639
 30
0.0
 10
10.5013802363
 20
8.7597526248
 30
0.0
 10
10.5016586343
 20
8.759961177
 30
0.0
 10
10.5020066272
 20
8.7602218759
 30
0.0
 10
10.5024242206
 20
8.7605347109
 30
0.0
 10
10.5028418135
 20
8.7608475469
 30
0.0
 10
10.5033986043
 20
8.7612646611
 30
0.0
 10
10.5040945926
 20
8.7617860541
 30
0.0
 10
10.5049297787
 20
8.7624117256
 30
0.0
 10
10.5060433601
 20
8.7632459543
 30
0.0
 10
10.5074353369
 20
8.7642887402
 30
0.0
 10
10.509105709
 20
8.7655400832
 30
0.0
 10
10.5107760811
 20
8.7667914262
 30
0.0
 10
10.5124464532
 20
8.7680427693
 30
0.0
 10
10.5141168253
 20
8.7692941123
 30
0.0
 10
10.5157871974
 20
8.7705454553
 30
0.0
 10
10.5174575696
 20
8.7717967984
 30
0.0
 10
10.5191279417
 20
8.7730481414
 30
0.0
 10
10.5207983138
 20
8.7742994844
 30
0.0
 10
10.5221902905
 20
8.7753422703
 30
0.0
 10
10.523303872
 20
8.776176499
 30
0.0
 10
10.524139058
 20
8.7768021705
 30
0.0
 10
10.5248350464
 20
8.7773235634
 30
0.0
 10
10.5253918371
 20
8.7777406778
 30
0.0
 10
10.5258094303
 20
8.7780535134
 30
0.0
 10
10.5262270226
 20
8.7783663498
 30
0.0
 10
10.5265750189
 20
8.7786270444
 30
0.0
 10
10.52685341
 20
8.7788356053
 30
0.0
 10
10.5270274178
 20
8.7789659439
 30
0.0
 10
10.5271665936
 20
8.7790702423
 30
0.0
 10
10.5272710587
 20
8.7791483906
 30
0.0
 10
10.527357848
 20
8.7792137545
 30
0.0
 10
10.5274191205
 20
8.7792590376
 30
0.0
 10
10.5274533215
 20
8.7792856501
 30
0.0
 10
10.5274812594
 20
8.7793035348
 30
0.0
 10
10.5275004544
 20
8.7793293502
 30
0.0
 10
10.5275290974
 20
8.7793610044
 30
0.0
 10
10.5275778018
 20
8.7794176881
 30
0.0
 10
10.5276481224
 20
8.779497991
 30
0.0
 10
10.5277321891
 20
8.7795946428
 30
0.0
 10
10.5278443891
 20
8.7797234113
 30
0.0
 10
10.5279846011
 20
8.7798844063
 30
0.0
 10
10.5282089616
 20
8.7801419792
 30
0.0
 10
10.5284894048
 20
8.7804639518
 30
0.0
 10
10.5288259399
 20
8.7808503161
 30
0.0
 10
10.5291624741
 20
8.7812366812
 30
0.0
 10
10.5296111866
 20
8.7817518343
 30
0.0
 10
10.5301720772
 20
8.7823957759
 30
0.0
 10
10.5308451459
 20
8.7831685057
 30
0.0
 10
10.5317425709
 20
8.7841988121
 30
0.0
 10
10.5328643522
 20
8.7854866951
 30
0.0
 10
10.5342104897
 20
8.7870321548
 30
0.0
 10
10.5355566271
 20
8.7885776144
 30
0.0
 10
10.5369027646
 20
8.7901230741
 30
0.0
 10
10.5382489021
 20
8.7916685337
 30
0.0
 10
10.5395950396
 20
8.7932139934
 30
0.0
 10
10.5409411771
 20
8.794759453
 30
0.0
 10
10.5422873146
 20
8.7963049126
 30
0.0
 10
10.5436334521
 20
8.7978503723
 30
0.0
 10
10.5447552333
 20
8.7991382553
 30
0.0
 10
10.5456526583
 20
8.8001685618
 30
0.0
 10
10.546325727
 20
8.8009412916
 30
0.0
 10
10.5468866177
 20
8.8015852331
 30
0.0
 10
10.5473353301
 20
8.8021003863
 30
0.0
 10
10.5476718647
 20
8.8024867511
 30
0.0
 10
10.5480083983
 20
8.8028731165
 30
0.0
 10
10.5482888458
 20
8.8031950857
 30
0.0
 10
10.5485131976
 20
8.8034526656
 30
0.0
 10
10.5486534316
 20
8.8036136426
 30
0.0
 10
10.5487655865
 20
8.8037424481
 30
0.0
 10
10.548849791
 20
8.8038389869
 30
0.0
 10
10.5489196804
 20
8.8039196436
 30
0.0
 10
10.5489691546
 20
8.8039756957
 30
0.0
 10
10.5489965642
 20
8.8040083618
 30
0.0
 10
10.5490195477
 20
8.8040310689
 30
0.0
 10
10.5490332568
 20
8.8040606279
 30
0.0
 10
10.5490547705
 20
8.8040976498
 30
0.0
 10
10.5490909123
 20
8.8041635518
 30
0.0
 10
10.5491433315
 20
8.8042571153
 30
0.0
 10
10.5492058972
 20
8.8043696407
 30
0.0
 10
10.549289436
 20
8.8045195876
 30
0.0
 10
10.5493938191
 20
8.8047070509
 30
0.0
 10
10.5495608546
 20
8.8050069756
 30
0.0
 10
10.5497696412
 20
8.8053818872
 30
0.0
 10
10.5500201886
 20
8.8058317787
 30
0.0
 10
10.550270735
 20
8.8062816708
 30
0.0
 10
10.5506047972
 20
8.8068815267
 30
0.0
 10
10.5510223748
 20
8.8076313467
 30
0.0
 10
10.551523468
 20
8.8085311306
 30
0.0
 10
10.5521915923
 20
8.8097308426
 30
0.0
 10
10.5530267477
 20
8.8112304825
 30
0.0
 10
10.5540289341
 20
8.8130300504
 30
0.0
 10
10.5550311205
 20
8.8148296183
 30
0.0
 10
10.5560333069
 20
8.8166291862
 30
0.0
 10
10.5570354933
 20
8.8184287541
 30
0.0
 10
10.5580376797
 20
8.820228322
 30
0.0
 10
10.5590398661
 20
8.8220278899
 30
0.0
 10
10.5600420526
 20
8.8238274578
 30
0.0
 10
10.561044239
 20
8.8256270257
 30
0.0
 10
10.5618793943
 20
8.8271266656
 30
0.0
 10
10.5625475186
 20
8.8283263776
 30
0.0
 10
10.5630486118
 20
8.8292261615
 30
0.0
 10
10.5634661895
 20
8.8299759815
 30
0.0
 10
10.5638002516
 20
8.8305758375
 30
0.0
 10
10.5640507984
 20
8.8310257293
 30
0.0
 10
10.5643013442
 20
8.8314756217
 30
0.0
 10
10.5645101355
 20
8.8318505305
 30
0.0
 10
10.5646771616
 20
8.8321504609
 30
0.0
 10
10.5647815686
 20
8.8323379098
 30
0.0
 10
10.5648650583
 20
8.8324878863
 30
0.0
 10
10.5649277738
 20
8.832600321
 30
0.0
 10
10.5649797244
 20
8.8326941682
 30
0.0
 10
10.5650167027
 20
8.8327595637
 30
0.0
 10
10.5650368762
 20
8.8327973972
 30
0.0
 10
10.5650547019
 20
8.8328244634
 30
0.0
 10
10.5650622239
 20
8.8328565331
 30
0.0
 10
10.5650758472
 20
8.8328975475
 30
0.0
 10
10.5650980134
 20
8.8329701359
 30
0.0
 10
10.5651305549
 20
8.8330734084
 30
0.0
 10
10.56516923
 20
8.8331975174
 30
0.0
 10
10.5652209276
 20
8.8333629324
 30
0.0
 10
10.5652855049
 20
8.833569723
 30
0.0
 10
10.5653888536
 20
8.8339005758
 30
0.0
 10
10.5655180308
 20
8.834314146
 30
0.0
 10
10.5656730472
 20
8.8348104284
 30
0.0
 10
10.5658280626
 20
8.8353067113
 30
0.0
 10
10.5660347501
 20
8.8359684217
 30
0.0
 10
10.5662931094
 20
8.8367955597
 30
0.0
 10
10.5666031406
 20
8.8377881253
 30
0.0
 10
10.5670165155
 20
8.839111546
 30
0.0
 10
10.5675332342
 20
8.840765822
 30
0.0
 10
10.5681532965
 20
8.8427509532
 30
0.0
 10
10.5687733589
 20
8.8447360844
 30
0.0
 10
10.5693934213
 20
8.8467212156
 30
0.0
 10
10.5700134837
 20
8.8487063467
 30
0.0
 10
10.570633546
 20
8.8506914779
 30
0.0
 10
10.5712536084
 20
8.8526766091
 30
0.0
 10
10.5718736708
 20
8.8546617403
 30
0.0
 10
10.5724937332
 20
8.8566468715
 30
0.0
 10
10.5730104518
 20
8.8583011475
 30
0.0
 10
10.5734238267
 20
8.8596245682
 30
0.0
 10
10.5737338579
 20
8.8606171338
 30
0.0
 10
10.5739922173
 20
8.8614442718
 30
0.0
 10
10.5741989047
 20
8.8621059822
 30
0.0
 10
10.5743539205
 20
8.8626022649
 30
0.0
 10
10.5745089353
 20
8.863098548
 30
0.0
 10
10.5746381175
 20
8.8635121161
 30
0.0
 10
10.574741456
 20
8.8638429732
 30
0.0
 10
10.5748060591
 20
8.8640497528
 30
0.0
 10
10.5748577036
 20
8.8642151904
 30
0.0
 10
10.5748965412
 20
8.8643392306
 30
0.0
 10
10.5749285743
 20
8.8644427183
 30
0.0
 10
10.5749516481
 20
8.8645149225
 30
0.0
 10
10.5749638173
 20
8.8645565524
 30
0.0
 10
10.5749758058
 20
8.8645867316
 30
0.0
 10
10.5749768555
 20
8.8646208983
 30
0.0
 10
10.5749820707
 20
8.864665063
 30
0.0
 10
10.5749894196
 20
8.8647429993
 30
0.0
 10
10.5750008473
 20
8.8648539981
 30
0.0
 10
10.5750141628
 20
8.8649873416
 30
0.0
 10
10.5750320557
 20
8.8651650824
 30
0.0
 10
10.5750543743
 20
8.8653872756
 30
0.0
 10
10.5750901107
 20
8.8657427751
 30
0.0
 10
10.575134772
 20
8.8661871529
 30
0.0
 10
10.5751883694
 20
8.8667204047
 30
0.0
 10
10.5752419658
 20
8.8672536569
 30
0.0
 10
10.5753134281
 20
8.8679646598
 30
0.0
 10
10.5754027558
 20
8.8688534133
 30
0.0
 10
10.5755099491
 20
8.8699199176
 30
0.0
 10
10.5756528735
 20
8.8713419234
 30
0.0
 10
10.5758315289
 20
8.8731194305
 30
0.0
 10
10.5760459155
 20
8.8752524391
 30
0.0
 10
10.576260302
 20
8.8773854477
 30
0.0
 10
10.5764746886
 20
8.8795184562
 30
0.0
 10
10.5766890752
 20
8.8816514648
 30
0.0
 10
10.5769034617
 20
8.8837844734
 30
0.0
 10
10.5771178483
 20
8.885917482
 30
0.0
 10
10.5773322348
 20
8.8880504906
 30
0.0
 10
10.5775466214
 20
8.8901834991
 30
0.0
 10
10.5777252769
 20
8.8919610063
 30
0.0
 10
10.5778682012
 20
8.893383012
 30
0.0
 10
10.5779753945
 20
8.8944495163
 30
0.0
 10
10.5780647223
 20
8.8953382699
 30
0.0
 10
10.5781361844
 20
8.8960492727
 30
0.0
 10
10.5781897813
 20
8.8965825249
 30
0.0
 10
10.578243377
 20
8.897115777
 30
0.0
 10
10.5782880436
 20
8.8975601538
 30
0.0
 10
10.5783237692
 20
8.8979156552
 30
0.0
 10
10.578346115
 20
8.8981378438
 30
0.0
 10
10.5783639521
 20
8.898315594
 30
0.0
 10
10.5783774382
 20
8.8984489087
 30
0.0
 10
10.5783883323
 20
8.8985599977
 30
0.0
 10
10.5783966338
 20
8.8986377729
 30
0.0
 10
10.5784003225
 20
8.8986821958
 30
0.0
 10
10.5784060612
 20
8.8987155693
 30
0.0
 10
10.5784004386
 20
8.8987487277
 30
0.0
 10
10.5783969048
 20
8.8987930139
 30
0.0
 10
10.5783888742
 20
8.8988704799
 30
0.0
 10
10.5783783673
 20
8.8989811638
 30
0.0
 10
10.5783653457
 20
8.8991139766
 30
0.0
 10
10.578348128
 20
8.8992910632
 30
0.0
 10
10.5783265565
 20
8.8995124205
 30
0.0
 10
10.5782920696
 20
8.8998665926
 30
0.0
 10
10.5782489515
 20
8.9003093076
 30
0.0
 10
10.5781972139
 20
8.9008405656
 30
0.0
 10
10.5781454751
 20
8.9013718237
 30
0.0
 10
10.5780764906
 20
8.9020801677
 30
0.0
 10
10.5779902597
 20
8.9029655978
 30
0.0
 10
10.5778867827
 20
8.9040281139
 30
0.0
 10
10.5777488134
 20
8.905444802
 30
0.0
 10
10.5775763518
 20
8.9072156621
 30
0.0
 10
10.5773693978
 20
8.9093406943
 30
0.0
 10
10.5771624438
 20
8.9114657264
 30
0.0
 10
10.5769554899
 20
8.9135907586
 30
0.0
 10
10.5767485359
 20
8.9157157908
 30
0.0
 10
10.5765415819
 20
8.9178408229
 30
0.0
 10
10.5763346279
 20
8.9199658551
 30
0.0
 10
10.576127674
 20
8.9220908873
 30
0.0
 10
10.57592072
 20
8.9242159194
 30
0.0
 10
10.5757482584
 20
8.9259867796
 30
0.0
 10
10.5756102891
 20
8.9274034677
 30
0.0
 10
10.5755068121
 20
8.9284659837
 30
0.0
 10
10.5754205813
 20
8.9293514138
 30
0.0
 10
10.5753515965
 20
8.9300597579
 30
0.0
 10
10.5752998583
 20
8.9305910159
 30
0.0
 10
10.575248119
 20
8.9311222739
 30
0.0
 10
10.5752050061
 20
8.9315649892
 30
0.0
 10
10.5751705085
 20
8.9319191606
 30
0.0
 10
10.5751489642
 20
8.9321405198
 30
0.0
 10
10.5751316906
 20
8.9323176023
 30
0.0
 10
10.5751188397
 20
8.9324504276
 30
0.0
 10
10.5751077989
 20
8.9325610726
 30
0.0
 10
10.5751007214
 20
8.932638608
 30
0.0
 10
10.5750956604
 20
8.932682783
 30
0.0
 10
10.5750947288
 20
8.9327162828
 30
0.0
 10
10.575082849
 20
8.9327483741
 30
0.0
 10
10.575070828
 20
8.9327916537
 30
0.0
 10
10.5750480121
 20
8.9328671642
 30
0.0
 10
10.5750163481
 20
8.932975156
 30
0.0
 10
10.5749779532
 20
8.9331046949
 30
0.0
 10
10.574926899
 20
8.9332774313
 30
0.0
 10
10.5748630336
 20
8.9334933458
 30
0.0
 10
10.5747608757
 20
8.9338388123
 30
0.0
 10
10.5746331692
 20
8.9342706442
 30
0.0
 10
10.5744799252
 20
8.9347888431
 30
0.0
 10
10.5743266802
 20
8.9353070418
 30
0.0
 10
10.5741223539
 20
8.9359979734
 30
0.0
 10
10.5738669459
 20
8.936861638
 30
0.0
 10
10.5735604564
 20
8.9378980355
 30
0.0
 10
10.5731518037
 20
8.9392798988
 30
0.0
 10
10.5726409877
 20
8.9410072279
 30
0.0
 10
10.5720280087
 20
8.9430800229
 30
0.0
 10
10.5714150296
 20
8.9451528178
 30
0.0
 10
10.5708020505
 20
8.9472256128
 30
0.0
 10
10.5701890714
 20
8.9492984078
 30
0.0
 10
10.5695760923
 20
8.9513712027
 30
0.0
 10
10.5689631132
 20
8.9534439977
 30
0.0
 10
10.5683501341
 20
8.9555167927
 30
0.0
 10
10.567737155
 20
8.9575895876
 30
0.0
 10
10.5672263391
 20
8.9593169168
 30
0.0
 10
10.5668176863
 20
8.9606987801
 30
0.0
 10
10.5665111968
 20
8.9617351775
 30
0.0
 10
10.5662557889
 20
8.9625988421
 30
0.0
 10
10.5660514624
 20
8.9632897738
 30
0.0
 10
10.5658982179
 20
8.9638079726
 30
0.0
 10
10.5657449723
 20
8.964326171
 30
0.0
 10
10.5656172707
 20
8.9647580042
 30
0.0
 10
10.5655151026
 20
8.9651034683
 30
0.0
 10
10.5654512632
 20
8.9653193887
 30
0.0
 10
10.5654001558
 20
8.9654921128
 30
0.0
 10
10.5653619235
 20
8.9656216895
 30
0.0
 10
10.5653297506
 20
8.965729563
 30
0.0
 10
10.5653078432
 20
8.9658052847
 30
0.0
 10
10.5652943665
 20
8.9658482258
 30
0.0
 10
10.5652869584
 20
8.965881357
 30
0.0
 10
10.5652692316
 20
8.9659109508
 30
0.0
 10
10.5652491951
 20
8.9659516431
 30
0.0
 10
10.5652124543
 20
8.9660222797
 30
0.0
 10
10.5651608441
 20
8.9661234896
 30
0.0
 10
10.5650985367
 20
8.9662448129
 30
0.0
 10
10.5650155912
 20
8.9664066222
 30
0.0
 10
10.5649118644
 20
8.9666088685
 30
0.0
 10
10.5647459267
 20
8.9669324711
 30
0.0
 10
10.564538496
 20
8.9673369715
 30
0.0
 10
10.5642895827
 20
8.9678223732
 30
0.0
 10
10.5640406685
 20
8.9683077745
 30
0.0
 10
10.5637087832
 20
8.9689549764
 30
0.0
 10
10.5632939265
 20
8.9697639788
 30
0.0
 10
10.5627960985
 20
8.9707347816
 30
0.0
 10
10.5621323278
 20
8.9720291853
 30
0.0
 10
10.5613026144
 20
8.97364719
 30
0.0
 10
10.5603069584
 20
8.9755887957
 30
0.0
 10
10.5593113024
 20
8.9775304013
 30
0.0
 10
10.5583156463
 20
8.979472007
 30
0.0
 10
10.5573199903
 20
8.9814136126
 30
0.0
 10
10.5563243342
 20
8.9833552183
 30
0.0
 10
10.5553286782
 20
8.9852968239
 30
0.0
 10
10.5543330222
 20
8.9872384296
 30
0.0
 10
10.5533373661
 20
8.9891800352
 30
0.0
 10
10.5525076528
 20
8.9907980399
 30
0.0
 10
10.5518438821
 20
8.9920924437
 30
0.0
 10
10.551346054
 20
8.9930632465
 30
0.0
 10
10.5509311974
 20
8.9938722488
 30
0.0
 10
10.550599312
 20
8.9945194507
 30
0.0
 10
10.5503503982
 20
8.9950048522
 30
0.0
 10
10.5501014834
 20
8.9954902533
 30
0.0
 10
10.5498940574
 20
8.9958947556
 30
0.0
 10
10.5497281099
 20
8.9962183542
 30
0.0
 10
10.549624408
 20
8.9964206106
 30
0.0
 10
10.5495414116
 20
8.9965823992
 30
0.0
 10
10.5494792597
 20
8.9967037859
 30
0.0
 10
10.5494271629
 20
8.9968047973
 30
0.0
 10
10.5493912909
 20
8.9968757883
 30
0.0
 10
10.5493698623
 20
8.9969159128
 30
0.0
 10
10.5493564117
 20
8.9969472506
 30
0.0
 10
10.5493329429
 20
8.9969738314
 30
0.0
 10
10.5493051457
 20
8.9970109318
 30
0.0
 10
10.5492548725
 20
8.9970750843
 30
0.0
 10
10.5491839047
 20
8.9971671349
 30
0.0
 10
10.5490983791
 20
8.9972774227
 30
0.0
 10
10.5489844722
 20
8.9974245335
 30
0.0
 10
10.548842045
 20
8.9976084013
 30
0.0
 10
10.5486141859
 20
8.9979026014
 30
0.0
 10
10.5483293536
 20
8.9982703475
 30
0.0
 10
10.5479875584
 20
8.9987116445
 30
0.0
 10
10.5476457623
 20
8.999152941
 30
0.0
 10
10.5471900344
 20
8.9997413366
 30
0.0
 10
10.5466203745
 20
9.000476831
 30
0.0
 10
10.5459367826
 20
9.0013594243
 30
0.0
 10
10.5450253268
 20
9.0025362154
 30
0.0
 10
10.543886007
 20
9.0040072043
 30
0.0
 10
10.5425188233
 20
9.0057723909
 30
0.0
 10
10.5411516396
 20
9.0075375775
 30
0.0
 10
10.5397844558
 20
9.0093027642
 30
0.0
 10
10.5384172721
 20
9.0110679508
 30
0.0
 10
10.5370500884
 20
9.0128331374
 30
0.0
 10
10.5356829046
 20
9.0145983241
 30
0.0
 10
10.5343157209
 20
9.0163635107
 30
0.0
 10
10.5329485372
 20
9.0181286973
 30
0.0
 10
10.5318092174
 20
9.0195996862
 30
0.0
 10
10.5308977616
 20
9.0207764773
 30
0.0
 10
10.5302141697
 20
9.0216590706
 30
0.0
 10
10.5296445098
 20
9.022394565
 30
0.0
 10
10.5291887819
 20
9.0229829605
 30
0.0
 10
10.5288469861
 20
9.0234242573
 30
0.0
 10
10.5285051896
 20
9.0238655534
 30
0.0
 10
10.5282203614
 20
9.0242333025
 30
0.0
 10
10.5279924939
 20
9.0245274963
 30
0.0
 10
10.5278500879
 20
9.02471138
 30
0.0
 10
10.5277361376
 20
9.0248584583
 30
0.0
 10
10.5276507446
 20
9.0249688454
 30
0.0
 10
10.5275793618
 20
9.0250605851
 30
0.0
 10
10.5275298295
 20
9.0251252927
 30
0.0
 10
10.5275008451
 20
9.0251615037
 30
0.0
 10
10.527481023
 20
9.0251908163
 30
0.0
 10
10.5274538764
 20
9.025211894
 30
0.0
 10
10.5274202358
 20
9.02524287
 30
0.0
 10
10.5273601744
 20
9.0252957396
 30
0.0
 10
10.5272749948
 20
9.0253719674
 30
0.0
 10
10.5271725129
 20
9.0254631413
 30
0.0
 10
10.5270359633
 20
9.0255848111
 30
0.0
 10
10.5268652445
 20
9.0257368624
 30
0.0
 10
10.5265921123
 20
9.0259801647
 30
0.0
 10
10.5262506909
 20
9.0262842856
 30
0.0
 10
10.5258409878
 20
9.0266492336
 30
0.0
 10
10.525431284
 20
9.0270141809
 30
0.0
 10
10.5248850125
 20
9.0275007775
 30
0.0
 10
10.524202173
 20
9.0281090231
 30
0.0
 10
10.5233827657
 20
9.028838918
 30
0.0
 10
10.5222902227
 20
9.0298121111
 30
0.0
 10
10.5209245439
 20
9.0310286025
 30
0.0
 10
10.5192857293
 20
9.0324883921
 30
0.0
 10
10.5176469147
 20
9.0339481818
 30
0.0
 10
10.5160081001
 20
9.0354079715
 30
0.0
 10
10.5143692855
 20
9.0368677611
 30
0.0
 10
10.5127304709
 20
9.0383275508
 30
0.0
 10
10.5110916563
 20
9.0397873404
 30
0.0
 10
10.5094528417
 20
9.0412471301
 30
0.0
 10
10.5078140271
 20
9.0427069198
 30
0.0
 10
10.5064483483
 20
9.0439234112
 30
0.0
 10
10.5053558052
 20
9.0448966043
 30
0.0
 10
10.5045363979
 20
9.0456264991
 30
0.0
 10
10.5038535585
 20
9.0462347448
 30
0.0
 10
10.5033072869
 20
9.0467213413
 30
0.0
 10
10.5028975834
 20
9.0470862889
 30
0.0
 10
10.5024878793
 20
9.0474512357
 30
0.0
 10
10.502146461
 20
9.0477553606
 30
0.0
 10
10.5018733223
 20
9.0479986546
 30
0.0
 10
10.50170262
 20
9.0481507268
 30
0.0
 10
10.5015660366
 20
9.0482723538
 30
0.0
 10
10.5014636582
 20
9.0483636583
 30
0.0
 10
10.5013781547
 20
9.0484394774
 30
0.0
 10
10.5013186715
 20
9.0484930767
 30
0.0
 10
10.5012841045
 20
9.0485228836
 30
0.0
 10
10.5012598035
 20
9.0485475524
 30
0.0
 10
10.5012292938
 20
9.0485633773
 30
0.0
 10
10.5011907798
 20
9.048587562
 30
0.0
 10
10.5011223714
 20
9.048628448
 30
0.0
 10
10.5010251726
 20
9.0486876079
 30
0.0
 10
10.5009083083
 20
9.0487582782
 30
0.0
 10
10.500752568
 20
9.0488526175
 30
0.0
 10
10.5005578657
 20
9.0489705033
 30
0.0
 10
10.500246357
 20
9.049159142
 30
0.0
 10
10.499856966
 20
9.049394933
 30
0.0
 10
10.499389699
 20
9.0496778854
 30
0.0
 10
10.4989224315
 20
9.0499608369
 30
0.0
 10
10.4982994083
 20
9.050338106
 30
0.0
 10
10.4975206292
 20
9.0508096921
 30
0.0
 10
10.4965860943
 20
9.0513755955
 30
0.0
 10
10.4953400478
 20
9.0521301334
 30
0.0
 10
10.4937824896
 20
9.0530733058
 30
0.0
 10
10.4919134199
 20
9.0542051126
 30
0.0
 10
10.4900443501
 20
9.0553369195
 30
0.0
 10
10.4881752803
 20
9.0564687263
 30
0.0
 10
10.4863062106
 20
9.0576005332
 30
0.0
 10
10.4844371408
 20
9.05873234
 30
0.0
 10
10.482568071
 20
9.0598641469
 30
0.0
 10
10.4806990013
 20
9.0609959537
 30
0.0
 10
10.4788299315
 20
9.0621277606
 30
0.0
 10
10.4772723734
 20
9.0630709329
 30
0.0
 10
10.4760263269
 20
9.0638254708
 30
0.0
 10
10.475091792
 20
9.0643913742
 30
0.0
 10
10.4743130129
 20
9.0648629605
 30
0.0
 10
10.4736899896
 20
9.0652402293
 30
0.0
 10
10.4732227223
 20
9.0655231813
 30
0.0
 10
10.4727554545
 20
9.0658061322
 30
0.0
 10
10.472366066
 20
9.0660419277
 30
0.0
 10
10.4720545523
 20
9.0662305573
 30
0.0
 10
10.4718598628
 20
9.0663484661
 30
0.0
 10
10.4717040962
 20
9.0664427583
 30
0.0
 10
10.4715873122
 20
9.0665135727
 30
0.0
 10
10.4714898621
 20
9.0665722815
 30
0.0
 10
10.4714219022
 20
9.0666139728
 30
0.0
 10
10.4713826696
 20
9.0666368672
 30
0.0
 10
10.4713543673
 20
9.0666566557
 30
0.0
 10
10.4713217759
 20
9.0666664378
 30
0.0
 10
10.4712798167
 20
9.066682971
 30
0.0
 10
10.4712056911
 20
9.0667102778
 30
0.0
 10
10.4711001619
 20
9.0667501378
 30
0.0
 10
10.4709733708
 20
9.0667976059
 30
0.0
 10
10.4708043704
 20
9.0668610238
 30
0.0
 10
10.4705931014
 20
9.0669402526
 30
0.0
 10
10.4702550813
 20
9.067067043
 30
0.0
 10
10.4698325527
 20
9.0672255227
 30
0.0
 10
10.4693255199
 20
9.067415702
 30
0.0
 10
10.4688184866
 20
9.0676058802
 30
0.0
 10
10.4681424424
 20
9.0678594516
 30
0.0
 10
10.4672973871
 20
9.0681764156
 30
0.0
 10
10.4662833208
 20
9.0685567726
 30
0.0
 10
10.4649312324
 20
9.0690639151
 30
0.0
 10
10.4632411218
 20
9.0696978434
 30
0.0
 10
10.4612129892
 20
9.0704585572
 30
0.0
 10
10.4591848565
 20
9.0712192711
 30
0.0
 10
10.4571567239
 20
9.0719799849
 30
0.0
 10
10.4551285912
 20
9.0727406988
 30
0.0
 10
10.4531004586
 20
9.0735014126
 30
0.0
 10
10.4510723259
 20
9.0742621265
 30
0.0
 10
10.4490441933
 20
9.0750228403
 30
0.0
 10
10.4470160606
 20
9.0757835542
 30
0.0
 10
10.4453259501
 20
9.0764174824
 30
0.0
 10
10.4439738616
 20
9.076924625
 30
0.0
 10
10.4429597953
 20
9.0773049819
 30
0.0
 10
10.4421147401
 20
9.077621946
 30
0.0
 10
10.4414386958
 20
9.0778755173
 30
0.0
 10
10.4409316627
 20
9.0780656959
 30
0.0
 10
10.4404246293
 20
9.0782558736
 30
0.0
 10
10.4400021024
 20
9.0784143582
 30
0.0
 10
10.4396640788
 20
9.0785411387
 30
0.0
 10
10.4394528189
 20
9.0786203928
 30
0.0
 10
10.4392837998
 20
9.0786837588
 30
0.0
 10
10.4391570662
 20
9.0787313853
 30
0.0
 10
10.439051357
 20
9.0787707494
 30
0.0
 10
10.4389775526
 20
9.0787989415
 30
0.0
 10
10.4389350788
 20
9.0788140563
 30
0.0
 10
10.4389040682
 20
9.0788281954
 30
0.0
 10
10.4388698286
 20
9.0788316197
 30
0.0
 10
10.4388253022
 20
9.0788399228
 30
0.0
 10
10.4387468563
 20
9.0788527118
 30
0.0
 10
10.4386350649
 20
9.0788718924
 30
0.0
 10
10.4385007979
 20
9.0788945193
 30
0.0
 10
10.4383218162
 20
9.0789248246
 30
0.0
 10
10.438098075
 20
9.0789626597
 30
0.0
 10
10.437740097
 20
9.0790232219
 30
0.0
 10
10.4372926219
 20
9.0790989157
 30
0.0
 10
10.4367556528
 20
9.0791897521
 30
0.0
 10
10.4362186834
 20
9.0792805875
 30
0.0
 10
10.4355027243
 20
9.0794017017
 30
0.0
 10
10.4346077754
 20
9.0795530943
 30
0.0
 10
10.4335338368
 20
9.0797347655
 30
0.0
 10
10.4321019186
 20
9.0799769937
 30
0.0
 10
10.4303120209
 20
9.080279779
 30
0.0
 10
10.4281641436
 20
9.0806431214
 30
0.0
 10
10.4260162663
 20
9.0810064637
 30
0.0
 10
10.423868389
 20
9.0813698061
 30
0.0
 10
10.4210045526
 20
9.0818542626
 30
0.0
 10
10.4174247571
 20
9.0824598332
 30
0.0
 10
10.4131290026
 20
9.0831865179
 30
0.0
 10
10.408833248
 20
9.0839132026
 30
0.0
 10
10.4059694116
 20
9.0843976591
 30
0.0
 10
10.4045374934
 20
9.0846398873
 30
0.0
  0
SPLINE
  5
380
100
AcDbEntity
  8
0
100
AcDbSpline
 62
4
  6
CONTINUOUS
 70
0
 71
3
 72
615
 73
611
 74
0
 42
0.0000001
 43
0.0000001
 44
0.0000000001
 40
0.0
 40
0.0
 40
0.0
 40
0.0
 40
0.0078125
 40
0.015625
 40
0.0234375
 40
0.03125
 40
0.03515625
 40
0.0390625
 40
0.04296875
 40
0.046875
 40
0.05078125
 40
0.052734375
 40
0.0546875
 40
0.056640625
 40
0.0576171875
 40
0.05859375
 40
0.0595703125
 40
0.060546875
 40
0.0610351562
 40
0.0615234375
 40
0.0617675781
 40
0.0620117188
 40
0.0622558594
 40
0.0623779297
 40
0.0624389648
 40
0.0625
 40
0.0625610352
 40
0.0626220703
 40
0.0627441406
 40
0.0629882812
 40
0.0632324219
 40
0.0634765625
 40
0.0639648438
 40
0.064453125
 40
0.0654296875
 40
0.06640625
 40
0.0673828125
 40
0.068359375
 40
0.0703125
 40
0.072265625
 40
0.07421875
 40
0.078125
 40
0.08203125
 40
0.0859375
 40
0.08984375
 40
0.09375
 40
0.09765625
 40
0.1015625
 40
0.10546875
 40
0.109375
 40
0.11328125
 40
0.115234375
 40
0.1171875
 40
0.119140625
 40
0.1201171875
 40
0.12109375
 40
0.1220703125
 40
0.123046875
 40
0.1235351562
 40
0.1240234375
 40
0.1242675781
 40
0.1245117188
 40
0.1247558594
 40
0.1248779297
 40
0.1249389648
 40
0.125
 40
0.1250610352
 40
0.1251220703
 40
0.1252441406
 40
0.1254882812
 40
0.1257324219
 40
0.1259765625
 40
0.1264648438
 40
0.126953125
 40
0.1279296875
 40
0.12890625
 40
0.1298828125
 40
0.130859375
 40
0.1328125
 40
0.134765625
 40
0.13671875
 40
0.140625
 40
0.14453125
 40
0.1484375
 40
0.15234375
 40
0.15625
 40
0.16015625
 40
0.1640625
 40
0.16796875
 40
0.171875
 40
0.17578125
 40
0.177734375
 40
0.1796875
 40
0.181640625
 40
0.1826171875
 40
0.18359375
 40
0.1845703125
 40
0.185546875
 40
0.1860351562
 40
0.1865234375
 40
0.1867675781
 40
0.1870117188
 40
0.1872558594
 40
0.1873779297
 40
0.1874389648
 40
0.1875
 40
0.1875610352
 40
0.1876220703
 40
0.1877441406
 40
0.1879882812
 40
0.1882324219
 40
0.1884765625
 40
0.1889648438
 40
0.189453125
 40
0.1904296875
 40
0.19140625
 40
0.1923828125
 40
0.193359375
 40
0.1953125
 40
0.197265625
 40
0.19921875
 40
0.203125
 40
0.20703125
 40
0.2109375
 40
0.21484375
 40
0.21875
 40
0.22265625
 40
0.2265625
 40
0.23046875
 40
0.234375
 40
0.23828125
 40
0.240234375
 40
0.2421875
 40
0.244140625
 40
0.2451171875
 40
0.24609375
 40
0.2470703125
 40
0.248046875
 40
0.2485351562
 40
0.2490234375
 40
0.2492675781
 40
0.2495117188
 40
0.2497558594
 40
0.2498779297
 40
0.2499389648
 40
0.25
 40
0.2500610352
 40
0.2501220703
 40
0.2502441406
 40
0.2504882812
 40
0.2507324219
 40
0.2509765625
 40
0.2514648438
 40
0.251953125
 40
0.2529296875
 40
0.25390625
 40
0.2548828125
 40
0.255859375
 40
0.2578125
 40
0.259765625
 40
0.26171875
 40
0.265625
 40
0.26953125
 40
0.2734375
 40
0.27734375
 40
0.28125
 40
0.28515625
 40
0.2890625
 40
0.29296875
 40
0.296875
 40
0.30078125
 40
0.302734375
 40
0.3046875
 40
0.306640625
 40
0.3076171875
 40
0.30859375
 40
0.3095703125
 40
0.310546875
 40
0.3110351562
 40
0.3115234375
 40
0.3117675781
 40
0.3120117188
 40
0.3122558594
 40
0.3123779297
 40
0.3124389648
 40
0.3125
 40
0.3125610352
 40
0.3126220703
 40
0.3127441406
 40
0.3129882812
 40
0.3132324219
 40
0.3134765625
 40
0.3139648438
 40
0.314453125
 40
0.3154296875
 40
0.31640625
 40
0.3173828125
 40
0.318359375
 40
0.3203125
 40
0.322265625
 40
0.32421875
 40
0.328125
 40
0.33203125
 40
0.3359375
 40
0.33984375
 40
0.34375
 40
0.34765625
 40
0.3515625
 40
0.35546875
 40
0.359375
 40
0.36328125
 40
0.365234375
 40
0.3671875
 40
0.369140625
 40
0.3701171875
 40
0.37109375
 40
0.3720703125
 40
0.373046875
 40
0.3735351562
 40
0.3740234375
 40
0.3742675781
 40
0.3745117188
 40
0.3747558594
 40
0.3748779297
 40
0.3749389648
 40
0.375
 40
0.3750610352
 40
0.3751220703
 40
0.3752441406
 40
0.3754882812
 40
0.3757324219
 40
0.3759765625
 40
0.3764648438
 40
0.376953125
 40
0.3779296875
 40
0.37890625
 40
0.3798828125
 40
0.380859375
 40
0.3828125
 40
0.384765625
 40
0.38671875
 40
0.390625
 40
0.39453125
 40
0.3984375
 40
0.40234375
 40
0.40625
 40
0.41015625
 40
0.4140625
 40
0.41796875
 40
0.421875
 40
0.42578125
 40
0.427734375
 40
0.4296875
 40
0.431640625
 40
0.4326171875
 40
0.43359375
 40
0.4345703125
 40
0.435546875
 40
0.4360351562
 40
0.4365234375
 40
0.4367675781
 40
0.4370117188
 40
0.4372558594
 40
0.4373779297
 40
0.4374389648
 40
0.4375
 40
0.4375610352
 40
0.4376220703
 40
0.4377441406
 40
0.4379882812
 40
0.4382324219
 40
0.4384765625
 40
0.4389648438
 40
0.439453125
 40
0.4404296875
 40
0.44140625
 40
0.4423828125
 40
0.443359375
 40
0.4453125
 40
0.447265625
 40
0.44921875
 40
0.453125
 40
0.45703125
 40
0.4609375
 40
0.46484375
 40
0.46875
 40
0.47265625
 40
0.4765625
 40
0.48046875
 40
0.484375
 40
0.48828125
 40
0.490234375
 40
0.4921875
 40
0.494140625
 40
0.4951171875
 40
0.49609375
 40
0.4970703125
 40
0.498046875
 40
0.4985351562
 40
0.4990234375
 40
0.4992675781
 40
0.4995117188
 40
0.4997558594
 40
0.4998779297
 40
0.4999389648
 40
0.5
 40
0.5000610352
 40
0.5001220703
 40
0.5002441406
 40
0.5004882812
 40
0.5007324219
 40
0.5009765625
 40
0.5014648438
 40
0.501953125
 40
0.5029296875
 40
0.50390625
 40
0.5048828125
 40
0.505859375
 40
0.5078125
 40
0.509765625
 40
0.51171875
 40
0.515625
 40
0.51953125
 40
0.5234375
 40
0.52734375
 40
0.53125
 40
0.53515625
 40
0.5390625
 40
0.54296875
 40
0.546875
 40
0.55078125
 40
0.552734375
 40
0.5546875
 40
0.556640625
 40
0.5576171875
 40
0.55859375
 40
0.5595703125
 40
0.560546875
 40
0.5610351562
 40
0.5615234375
 40
0.5617675781
 40
0.5620117188
 40
0.5622558594
 40
0.5623779297
 40
0.5624389648
 40
0.5625
 40
0.5625610352
 40
0.5626220703
 40
0.5627441406
 40
0.5629882812
 40
0.5632324219
 40
0.5634765625
 40
0.5639648438
 40
0.564453125
 40
0.5654296875
 40
0.56640625
 40
0.5673828125
 40
0.568359375
 40
0.5703125
 40
0.572265625
 40
0.57421875
 40
0.578125
 40
0.58203125
 40
0.5859375
 40
0.58984375
 40
0.59375
 40
0.59765625
 40
0.6015625
 40
0.60546875
 40
0.609375
 40
0.61328125
 40
0.615234375
 40
0.6171875
 40
0.619140625
 40
0.6201171875
 40
0.62109375
 40
0.6220703125
 40
0.623046875
 40
0.6235351562
 40
0.6240234375
 40
0.6242675781
 40
0.6245117188
 40
0.6247558594
 40
0.6248779297
 40
0.6249389648
 40
0.625
 40
0.6250610352
 40
0.6251220703
 40
0.6252441406
 40
0.6254882812
 40
0.6257324219
 40
0.6259765625
 40
0.6264648438
 40
0.626953125
 40
0.6279296875
 40
0.62890625
 40
0.6298828125
 40
0.630859375
 40
0.6328125
 40
0.634765625
 40
0.63671875
 40
0.640625
 40
0.64453125
 40
0.6484375
 40
0.65234375
 40
0.65625
 40
0.66015625
 40
0.6640625
 40
0.66796875
 40
0.671875
 40
0.67578125
 40
0.677734375
 40
0.6796875
 40
0.681640625
 40
0.6826171875
 40
0.68359375
 40
0.6845703125
 40
0.685546875
 40
0.6860351562
 40
0.6865234375
 40
0.6867675781
 40
0.6870117188
 40
0.6872558594
 40
0.6873779297
 40
0.6874389648
 40
0.6875
 40
0.6875610352
 40
0.6876220703
 40
0.6877441406
 40
0.6879882812
 40
0.6882324219
 40
0.6884765625
 40
0.6889648438
 40
0.689453125
 40
0.6904296875
 40
0.69140625
 40
0.6923828125
 40
0.693359375
 40
0.6953125
 40
0.697265625
 40
0.69921875
 40
0.703125
 40
0.70703125
 40
0.7109375
 40
0.71484375
 40
0.71875
 40
0.72265625
 40
0.7265625
 40
0.73046875
 40
0.734375
 40
0.73828125
 40
0.740234375
 40
0.7421875
 40
0.744140625
 40
0.7451171875
 40
0.74609375
 40
0.7470703125
 40
0.748046875
 40
0.7485351562
 40
0.7490234375
 40
0.7492675781
 40
0.7495117188
 40
0.7497558594
 40
0.7498779297
 40
0.7499389648
 40
0.75
 40
0.7500610352
 40
0.7501220703
 40
0.7502441406
 40
0.7504882812
 40
0.7507324219
 40
0.7509765625
 40
0.7514648438
 40
0.751953125
 40
0.7529296875
 40
0.75390625
 40
0.7548828125
 40
0.755859375
 40
0.7578125
 40
0.759765625
 40
0.76171875
 40
0.765625
 40
0.76953125
 40
0.7734375
 40
0.77734375
 40
0.78125
 40
0.78515625
 40
0.7890625
 40
0.79296875
 40
0.796875
 40
0.80078125
 40
0.802734375
 40
0.8046875
 40
0.806640625
 40
0.8076171875
 40
0.80859375
 40
0.8095703125
 40
0.810546875
 40
0.8110351562
 40
0.8115234375
 40
0.8117675781
 40
0.8120117188
 40
0.8122558594
 40
0.8123779297
 40
0.8124389648
 40
0.8125
 40
0.8125610352
 40
0.8126220703
 40
0.8127441406
 40
0.8129882812
 40
0.8132324219
 40
0.8134765625
 40
0.8139648438
 40
0.814453125
 40
0.8154296875
 40
0.81640625
 40
0.8173828125
 40
0.818359375
 40
0.8203125
 40
0.822265625
 40
0.82421875
 40
0.828125
 40
0.83203125
 40
0.8359375
 40
0.83984375
 40
0.84375
 40
0.84765625
 40
0.8515625
 40
0.85546875
 40
0.859375
 40
0.86328125
 40
0.865234375
 40
0.8671875
 40
0.869140625
 40
0.8701171875
 40
0.87109375
 40
0.8720703125
 40
0.873046875
 40
0.8735351562
 40
0.8740234375
 40
0.8742675781
 40
0.8745117188
 40
0.8747558594
 40
0.8748779297
 40
0.8749389648
 40
0.875
 40
0.8750610352
 40
0.8751220703
 40
0.8752441406
 40
0.8754882812
 40
0.8757324219
 40
0.8759765625
 40
0.8764648438
 40
0.876953125
 40
0.8779296875
 40
0.87890625
 40
0.8798828125
 40
0.880859375
 40
0.8828125
 40
0.884765625
 40
0.88671875
 40
0.890625
 40
0.89453125
 40
0.8984375
 40
0.90234375
 40
0.90625
 40
0.91015625
 40
0.9140625
 40
0.91796875
 40
0.921875
 40
0.92578125
 40
0.927734375
 40
0.9296875
 40
0.931640625
 40
0.9326171875
 40
0.93359375
 40
0.9345703125
 40
0.935546875
 40
0.9360351562
 40
0.9365234375
 40
0.9367675781
 40
0.9370117188
 40
0.9372558594
 40
0.9373779297
 40
0.9374389648
 40
0.9375
 40
0.9375610352
 40
0.9376220703
 40
0.9377441406
 40
0.9379882812
 40
0.9382324219
 40
0.9384765625
 40
0.9389648438
 40
0.939453125
 40
0.9404296875
 40
0.94140625
 40
0.9423828125
 40
0.943359375
 40
0.9453125
 40
0.947265625
 40
0.94921875
 40
0.953125
 40
0.95703125
 40
0.9609375
 40
0.96484375
 40
0.96875
 40
0.9765625
 40
0.984375
 40
0.9921875
 40
1.0
 40
1.0
 40
1.0
 40
1.0
 10
10.4045375086
 20
9.0846398862
 30
0.0
 10
10.4031303887
 20
9.084599501
 30
0.0
 10
10.4003161489
 20
9.0845187306
 30
0.0
 10
10.3960947892
 20
9.084397575
 30
0.0
 10
10.3918734295
 20
9.0842764193
 30
0.0
 10
10.3883556297
 20
9.0841754563
 30
0.0
 10
10.3855413899
 20
9.0840946858
 30
0.0
 10
10.38343071
 20
9.084034108
 30
0.0
 10
10.3813200302
 20
9.0839735302
 30
0.0
 10
10.3792093503
 20
9.0839129524
 30
0.0
 10
10.3774504504
 20
9.0838624708
 30
0.0
 10
10.3760433305
 20
9.0838220856
 30
0.0
 10
10.3749879906
 20
9.0837917967
 30
0.0
 10
10.3741085407
 20
9.083766556
 30
0.0
 10
10.3734049807
 20
9.0837463633
 30
0.0
 10
10.3728773107
 20
9.0837312191
 30
0.0
 10
10.3723496409
 20
9.0837160738
 30
0.0
 10
10.3719099154
 20
9.083703456
 30
0.0
 10
10.3715581365
 20
9.0836933544
 30
0.0
 10
10.3713382714
 20
9.0836870577
 30
0.0
 10
10.3711623868
 20
9.0836819818
 30
0.0
 10
10.3710304527
 20
9.0836782806
 30
0.0
 10
10.3709205734
 20
9.0836748598
 30
0.0
 10
10.3708435289
 20
9.0836731255
 30
0.0
 10
10.3707997048
 20
9.0836711037
 30
0.0
 10
10.3707662696
 20
9.0836724908
 30
0.0
 10
10.3707350022
 20
9.0836627794
 30
0.0
 10
10.3706925562
 20
9.0836537021
 30
0.0
 10
10.370618628
 20
9.083636013
 30
0.0
 10
10.3705128322
 20
9.083611686
 30
0.0
 10
10.3703859559
 20
9.08358209
 30
0.0
 10
10.3702167601
 20
9.0835427696
 30
0.0
 10
10.3700052748
 20
9.0834935708
 30
0.0
 10
10.369666893
 20
9.0834148797
 30
0.0
 10
10.3692439175
 20
9.0833165066
 30
0.0
 10
10.3687363461
 20
9.0831984629
 30
0.0
 10
10.368228775
 20
9.083080418
 30
0.0
 10
10.3675520134
 20
9.0829230253
 30
0.0
 10
10.3667060615
 20
9.0827262843
 30
0.0
 10
10.3656909191
 20
9.0824901951
 30
0.0
 10
10.364337396
 20
9.0821754095
 30
0.0
 10
10.362645492
 20
9.0817819276
 30
0.0
 10
10.3606152073
 20
9.0813097492
 30
0.0
 10
10.3585849226
 20
9.0808375708
 30
0.0
 10
10.3565546379
 20
9.0803653925
 30
0.0
 10
10.3545243532
 20
9.0798932141
 30
0.0
 10
10.3524940684
 20
9.0794210357
 30
0.0
 10
10.3504637837
 20
9.0789488573
 30
0.0
 10
10.348433499
 20
9.078476679
 30
0.0
 10
10.3464032143
 20
9.0780045006
 30
0.0
 10
10.3447113104
 20
9.0776110186
 30
0.0
 10
10.3433577872
 20
9.077296233
 30
0.0
 10
10.3423426449
 20
9.0770601438
 30
0.0
 10
10.3414966929
 20
9.0768634029
 30
0.0
 10
10.3408199313
 20
9.07670601
 30
0.0
 10
10.3403123601
 20
9.0765879656
 30
0.0
 10
10.3398047892
 20
9.0764699202
 30
0.0
 10
10.3393818122
 20
9.0763715522
 30
0.0
 10
10.3390434335
 20
9.0762928508
 30
0.0
 10
10.3388319403
 20
9.0762436785
 30
0.0
 10
10.3386627606
 20
9.0762043037
 30
0.0
 10
10.3385358352
 20
9.0761748737
 30
0.0
 10
10.338430193
 20
9.0761500271
 30
0.0
 10
10.3383559905
 20
9.0761332657
 30
0.0
 10
10.3383139841
 20
9.0761227021
 30
0.0
 10
10.3382813666
 20
9.076117556
 30
0.0
 10
10.3382530022
 20
9.0761017963
 30
0.0
 10
10.3382136994
 20
9.0760844855
 30
0.0
 10
10.3381456108
 20
9.0760524666
 30
0.0
 10
10.3380479801
 20
9.0760076272
 30
0.0
 10
10.3379309778
 20
9.0759534339
 30
0.0
 10
10.3377749208
 20
9.075881311
 30
0.0
 10
10.337579868
 20
9.0757911112
 30
0.0
 10
10.3372677731
 20
9.0756468173
 30
0.0
 10
10.3368776582
 20
9.0754664411
 30
0.0
 10
10.3364095187
 20
9.0752499935
 30
0.0
 10
10.3359413796
 20
9.0750335448
 30
0.0
 10
10.335317194
 20
9.074744947
 30
0.0
 10
10.3345369621
 20
9.0743841995
 30
0.0
 10
10.3336006838
 20
9.0739513026
 30
0.0
 10
10.3323523126
 20
9.0733741068
 30
0.0
 10
10.3307918488
 20
9.0726526119
 30
0.0
 10
10.3289192921
 20
9.0717868181
 30
0.0
 10
10.3270467354
 20
9.0709210243
 30
0.0
 10
10.3251741788
 20
9.0700552305
 30
0.0
 10
10.3233016221
 20
9.0691894368
 30
0.0
 10
10.3214290654
 20
9.068323643
 30
0.0
 10
10.3195565088
 20
9.0674578492
 30
0.0
 10
10.3176839521
 20
9.0665920554
 30
0.0
 10
10.3158113955
 20
9.0657262616
 30
0.0
 10
10.3142509316
 20
9.0650047667
 30
0.0
 10
10.3130025605
 20
9.0644275709
 30
0.0
 10
10.3120662821
 20
9.063994674
 30
0.0
 10
10.3112860502
 20
9.0636339266
 30
0.0
 10
10.3106618647
 20
9.0633453286
 30
0.0
 10
10.3101937254
 20
9.0631288804
 30
0.0
 10
10.3097255866
 20
9.0629124311
 30
0.0
 10
10.3093354694
 20
9.0627320599
 30
0.0
 10
10.3090233792
 20
9.0625877559
 30
0.0
 10
10.3088283146
 20
9.0624975817
 30
0.0
 10
10.3086722818
 20
9.0624254062
 30
0.0
 10
10.3085552053
 20
9.0623713736
 30
0.0
 10
10.3084578068
 20
9.0623260314
 30
0.0
 10
10.3083893036
 20
9.0622949102
 30
0.0
 10
10.3083506652
 20
9.0622761611
 30
0.0
 10
10.3083202602
 20
9.0622648191
 30
0.0
 10
10.3082953069
 20
9.0622430809
 30
0.0
 10
10.3082601343
 20
9.0622177229
 30
0.0
 10
10.3081994683
 20
9.0621716569
 30
0.0
 10
10.3081123392
 20
9.0621067315
 30
0.0
 10
10.3080079827
 20
9.0620284431
 30
0.0
 10
10.3078687714
 20
9.0619241905
 30
0.0
 10
10.3076947809
 20
9.0617938296
 30
0.0
 10
10.307416383
 20
9.0615852774
 30
0.0
 10
10.30706839
 20
9.0613245785
 30
0.0
 10
10.3066507966
 20
9.0610117435
 30
0.0
 10
10.3062332037
 20
9.0606989076
 30
0.0
 10
10.3056764129
 20
9.0602817933
 30
0.0
 10
10.3049804246
 20
9.0597604003
 30
0.0
 10
10.3041452385
 20
9.0591347288
 30
0.0
 10
10.3030316571
 20
9.0583005001
 30
0.0
 10
10.3016396803
 20
9.0572577143
 30
0.0
 10
10.2999693082
 20
9.0560063712
 30
0.0
 10
10.2982989361
 20
9.0547550282
 30
0.0
 10
10.296628564
 20
9.0535036852
 30
0.0
 10
10.2949581919
 20
9.0522523421
 30
0.0
 10
10.2932878198
 20
9.0510009991
 30
0.0
 10
10.2916174477
 20
9.0497496561
 30
0.0
 10
10.2899470756
 20
9.048498313
 30
0.0
 10
10.2882767034
 20
9.04724697
 30
0.0
 10
10.2868847267
 20
9.0462041841
 30
0.0
 10
10.2857711453
 20
9.0453699554
 30
0.0
 10
10.2849359592
 20
9.0447442839
 30
0.0
 10
10.2842399708
 20
9.044222891
 30
0.0
 10
10.2836831802
 20
9.0438057766
 30
0.0
 10
10.283265587
 20
9.043492941
 30
0.0
 10
10.2828479946
 20
9.0431801047
 30
0.0
 10
10.2824999983
 20
9.0429194101
 30
0.0
 10
10.2822216072
 20
9.0427108491
 30
0.0
 10
10.2820475994
 20
9.0425805105
 30
0.0
 10
10.2819084236
 20
9.0424762121
 30
0.0
 10
10.2818039585
 20
9.0423980638
 30
0.0
 10
10.2817171692
 20
9.0423326999
 30
0.0
 10
10.2816558967
 20
9.0422874168
 30
0.0
 10
10.2816216957
 20
9.0422608043
 30
0.0
 10
10.2815937578
 20
9.0422429196
 30
0.0
 10
10.2815745628
 20
9.0422171043
 30
0.0
 10
10.2815459198
 20
9.0421854501
 30
0.0
 10
10.2814972154
 20
9.0421287664
 30
0.0
 10
10.2814268948
 20
9.0420484635
 30
0.0
 10
10.2813428281
 20
9.0419518116
 30
0.0
 10
10.2812306281
 20
9.0418230431
 30
0.0
 10
10.2810904161
 20
9.0416620481
 30
0.0
 10
10.2808660556
 20
9.0414044753
 30
0.0
 10
10.2805856124
 20
9.0410825027
 30
0.0
 10
10.2802490774
 20
9.0406961383
 30
0.0
 10
10.2799125432
 20
9.0403097733
 30
0.0
 10
10.2794638306
 20
9.0397946201
 30
0.0
 10
10.27890294
 20
9.0391506786
 30
0.0
 10
10.2782298713
 20
9.0383779488
 30
0.0
 10
10.2773324463
 20
9.0373476423
 30
0.0
 10
10.276210665
 20
9.0360597593
 30
0.0
 10
10.2748645276
 20
9.0345142996
 30
0.0
 10
10.2735183901
 20
9.03296884
 30
0.0
 10
10.2721722526
 20
9.0314233804
 30
0.0
 10
10.2708261151
 20
9.0298779207
 30
0.0
 10
10.2694799776
 20
9.0283324611
 30
0.0
 10
10.2681338401
 20
9.0267870014
 30
0.0
 10
10.2667877027
 20
9.0252415418
 30
0.0
 10
10.2654415652
 20
9.0236960821
 30
0.0
 10
10.2643197839
 20
9.0224081991
 30
0.0
 10
10.2634223589
 20
9.0213778927
 30
0.0
 10
10.2627492902
 20
9.0206051628
 30
0.0
 10
10.2621883996
 20
9.0199612214
 30
0.0
 10
10.2617396871
 20
9.0194460681
 30
0.0
 10
10.2614031526
 20
9.0190597033
 30
0.0
 10
10.2610666189
 20
9.0186733379
 30
0.0
 10
10.2607861714
 20
9.0183513687
 30
0.0
 10
10.2605618196
 20
9.0180937888
 30
0.0
 10
10.2604215856
 20
9.0179328118
 30
0.0
 10
10.2603094307
 20
9.0178040064
 30
0.0
 10
10.2602252262
 20
9.0177074676
 30
0.0
 10
10.2601553368
 20
9.0176268109
 30
0.0
 10
10.2601058627
 20
9.0175707587
 30
0.0
 10
10.260078453
 20
9.0175380926
 30
0.0
 10
10.2600554695
 20
9.0175153856
 30
0.0
 10
10.2600417604
 20
9.0174858266
 30
0.0
 10
10.2600202467
 20
9.0174488046
 30
0.0
 10
10.2599841049
 20
9.0173829026
 30
0.0
 10
10.2599316857
 20
9.0172893391
 30
0.0
 10
10.25986912
 20
9.0171768137
 30
0.0
 10
10.2597855812
 20
9.0170268669
 30
0.0
 10
10.2596811981
 20
9.0168394035
 30
0.0
 10
10.2595141626
 20
9.0165394788
 30
0.0
 10
10.259305376
 20
9.0161645672
 30
0.0
 10
10.2590548287
 20
9.0157146758
 30
0.0
 10
10.2588042822
 20
9.0152647837
 30
0.0
 10
10.25847022
 20
9.0146649277
 30
0.0
 10
10.2580526424
 20
9.0139151078
 30
0.0
 10
10.2575515492
 20
9.0130153238
 30
0.0
 10
10.2568834249
 20
9.0118156119
 30
0.0
 10
10.2560482696
 20
9.010315972
 30
0.0
 10
10.2550460831
 20
9.0085164041
 30
0.0
 10
10.2540438967
 20
9.0067168361
 30
0.0
 10
10.2530417103
 20
9.0049172682
 30
0.0
 10
10.2520395239
 20
9.0031177003
 30
0.0
 10
10.2510373375
 20
9.0013181324
 30
0.0
 10
10.2500351511
 20
8.9995185645
 30
0.0
 10
10.2490329647
 20
8.9977189966
 30
0.0
 10
10.2480307782
 20
8.9959194287
 30
0.0
 10
10.2471956229
 20
8.9944197888
 30
0.0
 10
10.2465274986
 20
8.9932200769
 30
0.0
 10
10.2460264054
 20
8.9923202929
 30
0.0
 10
10.2456088277
 20
8.991570473
 30
0.0
 10
10.2452747656
 20
8.990970617
 30
0.0
 10
10.2450242188
 20
8.9905207251
 30
0.0
 10
10.244773673
 20
8.9900708327
 30
0.0
 10
10.2445648817
 20
8.9896959239
 30
0.0
 10
10.2443978556
 20
8.9893959936
 30
0.0
 10
10.2442934486
 20
8.9892085447
 30
0.0
 10
10.2442099589
 20
8.9890585682
 30
0.0
 10
10.2441472434
 20
8.9889461334
 30
0.0
 10
10.2440952928
 20
8.9888522862
 30
0.0
 10
10.2440583145
 20
8.9887868907
 30
0.0
 10
10.244038141
 20
8.9887490572
 30
0.0
 10
10.2440203153
 20
8.9887219911
 30
0.0
 10
10.2440127934
 20
8.9886899213
 30
0.0
 10
10.2439991701
 20
8.9886489069
 30
0.0
 10
10.2439770038
 20
8.9885763186
 30
0.0
 10
10.2439444623
 20
8.9884730461
 30
0.0
 10
10.2439057872
 20
8.9883489371
 30
0.0
 10
10.2438540896
 20
8.988183522
 30
0.0
 10
10.2437895123
 20
8.9879767314
 30
0.0
 10
10.2436861636
 20
8.9876458786
 30
0.0
 10
10.2435569864
 20
8.9872323084
 30
0.0
 10
10.24340197
 20
8.986736026
 30
0.0
 10
10.2432469546
 20
8.9862397431
 30
0.0
 10
10.2430402671
 20
8.9855780328
 30
0.0
 10
10.2427819078
 20
8.9847508948
 30
0.0
 10
10.2424718766
 20
8.9837583292
 30
0.0
 10
10.2420585017
 20
8.9824349084
 30
0.0
 10
10.2415417831
 20
8.9807806324
 30
0.0
 10
10.2409217207
 20
8.9787955012
 30
0.0
 10
10.2403016583
 20
8.97681037
 30
0.0
 10
10.2396815959
 20
8.9748252389
 30
0.0
 10
10.2390615336
 20
8.9728401077
 30
0.0
 10
10.2384414712
 20
8.9708549765
 30
0.0
 10
10.2378214088
 20
8.9688698453
 30
0.0
 10
10.2372013464
 20
8.9668847141
 30
0.0
 10
10.236581284
 20
8.964899583
 30
0.0
 10
10.2360645654
 20
8.963245307
 30
0.0
 10
10.2356511905
 20
8.9619218862
 30
0.0
 10
10.2353411593
 20
8.9609293206
 30
0.0
 10
10.2350827999
 20
8.9601021826
 30
0.0
 10
10.2348761125
 20
8.9594404722
 30
0.0
 10
10.2347210967
 20
8.9589441895
 30
0.0
 10
10.234566082
 20
8.9584479064
 30
0.0
 10
10.2344368997
 20
8.9580343383
 30
0.0
 10
10.2343335612
 20
8.9577034812
 30
0.0
 10
10.2342689581
 20
8.9574967016
 30
0.0
 10
10.2342173136
 20
8.957331264
 30
0.0
 10
10.234178476
 20
8.9572072238
 30
0.0
 10
10.2341464429
 20
8.9571037361
 30
0.0
 10
10.2341233691
 20
8.9570315319
 30
0.0
 10
10.2341112
 20
8.9569899021
 30
0.0
 10
10.2340992114
 20
8.9569597228
 30
0.0
 10
10.2340981617
 20
8.9569255561
 30
0.0
 10
10.2340929465
 20
8.9568813914
 30
0.0
 10
10.2340855977
 20
8.9568034551
 30
0.0
 10
10.2340741699
 20
8.9566924563
 30
0.0
 10
10.2340608544
 20
8.9565591128
 30
0.0
 10
10.2340429615
 20
8.9563813721
 30
0.0
 10
10.2340206429
 20
8.9561591788
 30
0.0
 10
10.2339849066
 20
8.9558036793
 30
0.0
 10
10.2339402453
 20
8.9553593016
 30
0.0
 10
10.2338866478
 20
8.9548260497
 30
0.0
 10
10.2338330514
 20
8.9542927975
 30
0.0
 10
10.2337615891
 20
8.9535817947
 30
0.0
 10
10.2336722614
 20
8.9526930411
 30
0.0
 10
10.2335650681
 20
8.9516265368
 30
0.0
 10
10.2334221438
 20
8.9502045311
 30
0.0
 10
10.2332434883
 20
8.9484270239
 30
0.0
 10
10.2330291017
 20
8.9462940153
 30
0.0
 10
10.2328147152
 20
8.9441610068
 30
0.0
 10
10.2326003286
 20
8.9420279982
 30
0.0
 10
10.2323859421
 20
8.9398949896
 30
0.0
 10
10.2321715555
 20
8.937761981
 30
0.0
 10
10.2319571689
 20
8.9356289724
 30
0.0
 10
10.2317427824
 20
8.9334959639
 30
0.0
 10
10.2315283958
 20
8.9313629553
 30
0.0
 10
10.2313497403
 20
8.9295854481
 30
0.0
 10
10.231206816
 20
8.9281634424
 30
0.0
 10
10.2310996227
 20
8.9270969381
 30
0.0
 10
10.2310102949
 20
8.9262081846
 30
0.0
 10
10.2309388328
 20
8.9254971817
 30
0.0
 10
10.230885236
 20
8.9249639295
 30
0.0
 10
10.2308316402
 20
8.9244306774
 30
0.0
 10
10.2307869736
 20
8.9239863006
 30
0.0
 10
10.230751248
 20
8.9236307993
 30
0.0
 10
10.2307289022
 20
8.9234086106
 30
0.0
 10
10.2307110651
 20
8.9232308604
 30
0.0
 10
10.230697579
 20
8.9230975457
 30
0.0
 10
10.230686685
 20
8.9229864567
 30
0.0
 10
10.2306783834
 20
8.9229086816
 30
0.0
 10
10.2306746947
 20
8.9228642586
 30
0.0
 10
10.230668956
 20
8.9228308851
 30
0.0
 10
10.2306745786
 20
8.9227977267
 30
0.0
 10
10.2306781124
 20
8.9227534405
 30
0.0
 10
10.230686143
 20
8.9226759746
 30
0.0
 10
10.23069665
 20
8.9225652906
 30
0.0
 10
10.2307096715
 20
8.9224324778
 30
0.0
 10
10.2307268892
 20
8.9222553912
 30
0.0
 10
10.2307484608
 20
8.922034034
 30
0.0
 10
10.2307829476
 20
8.9216798618
 30
0.0
 10
10.2308260657
 20
8.9212371469
 30
0.0
 10
10.2308778034
 20
8.9207058888
 30
0.0
 10
10.2309295421
 20
8.9201746308
 30
0.0
 10
10.2309985267
 20
8.9194662867
 30
0.0
 10
10.2310847575
 20
8.9185808566
 30
0.0
 10
10.2311882345
 20
8.9175183406
 30
0.0
 10
10.2313262038
 20
8.9161016525
 30
0.0
 10
10.2314986655
 20
8.9143307923
 30
0.0
 10
10.2317056194
 20
8.9122057602
 30
0.0
 10
10.2319125734
 20
8.910080728
 30
0.0
 10
10.2321195274
 20
8.9079556958
 30
0.0
 10
10.2323264813
 20
8.9058306637
 30
0.0
 10
10.2325334353
 20
8.9037056315
 30
0.0
 10
10.2327403893
 20
8.9015805993
 30
0.0
 10
10.2329473432
 20
8.8994555672
 30
0.0
 10
10.2331542972
 20
8.897330535
 30
0.0
 10
10.2333267588
 20
8.8955596749
 30
0.0
 10
10.2334647282
 20
8.8941429868
 30
0.0
 10
10.2335682052
 20
8.8930804707
 30
0.0
 10
10.2336544359
 20
8.8921950406
 30
0.0
 10
10.2337234207
 20
8.8914866966
 30
0.0
 10
10.2337751589
 20
8.8909554385
 30
0.0
 10
10.2338268983
 20
8.8904241806
 30
0.0
 10
10.2338700111
 20
8.8899814652
 30
0.0
 10
10.2339045087
 20
8.8896272938
 30
0.0
 10
10.233926053
 20
8.8894059346
 30
0.0
 10
10.2339433266
 20
8.8892288521
 30
0.0
 10
10.2339561775
 20
8.8890960268
 30
0.0
 10
10.2339672183
 20
8.8889853818
 30
0.0
 10
10.2339742958
 20
8.8889078465
 30
0.0
 10
10.2339793568
 20
8.8888636714
 30
0.0
 10
10.2339802884
 20
8.8888301716
 30
0.0
 10
10.2339921682
 20
8.8887980803
 30
0.0
 10
10.2340041892
 20
8.8887548007
 30
0.0
 10
10.2340270051
 20
8.8886792902
 30
0.0
 10
10.2340586691
 20
8.8885712984
 30
0.0
 10
10.234097064
 20
8.8884417595
 30
0.0
 10
10.2341481182
 20
8.8882690231
 30
0.0
 10
10.2342119836
 20
8.8880531087
 30
0.0
 10
10.2343141415
 20
8.8877076422
 30
0.0
 10
10.2344418481
 20
8.8872758102
 30
0.0
 10
10.234595092
 20
8.8867576114
 30
0.0
 10
10.234748337
 20
8.8862394127
 30
0.0
 10
10.2349526633
 20
8.885548481
 30
0.0
 10
10.2352080713
 20
8.8846848164
 30
0.0
 10
10.2355145608
 20
8.8836484189
 30
0.0
 10
10.2359232136
 20
8.8822665556
 30
0.0
 10
10.2364340295
 20
8.8805392265
 30
0.0
 10
10.2370470086
 20
8.8784664315
 30
0.0
 10
10.2376599877
 20
8.8763936366
 30
0.0
 10
10.2382729668
 20
8.8743208416
 30
0.0
 10
10.2388859459
 20
8.8722480467
 30
0.0
 10
10.2394989249
 20
8.8701752517
 30
0.0
 10
10.240111904
 20
8.8681024567
 30
0.0
 10
10.2407248831
 20
8.8660296618
 30
0.0
 10
10.2413378622
 20
8.8639568668
 30
0.0
 10
10.2418486782
 20
8.8622295377
 30
0.0
 10
10.2422573309
 20
8.8608476744
 30
0.0
 10
10.2425638204
 20
8.8598112769
 30
0.0
 10
10.2428192284
 20
8.8589476123
 30
0.0
 10
10.2430235548
 20
8.8582566807
 30
0.0
 10
10.2431767994
 20
8.8577384819
 30
0.0
 10
10.2433300449
 20
8.8572202834
 30
0.0
 10
10.2434577465
 20
8.8567884503
 30
0.0
 10
10.2435599146
 20
8.8564429861
 30
0.0
 10
10.243623754
 20
8.8562270657
 30
0.0
 10
10.2436748614
 20
8.8560543416
 30
0.0
 10
10.2437130937
 20
8.8559247649
 30
0.0
 10
10.2437452666
 20
8.8558168915
 30
0.0
 10
10.243767174
 20
8.8557411697
 30
0.0
 10
10.2437806507
 20
8.8556982286
 30
0.0
 10
10.2437880588
 20
8.8556650974
 30
0.0
 10
10.2438057857
 20
8.8556355036
 30
0.0
 10
10.2438258221
 20
8.8555948113
 30
0.0
 10
10.2438625629
 20
8.8555241748
 30
0.0
 10
10.2439141731
 20
8.8554229648
 30
0.0
 10
10.2439764805
 20
8.8553016415
 30
0.0
 10
10.244059426
 20
8.8551398322
 30
0.0
 10
10.2441631528
 20
8.8549375859
 30
0.0
 10
10.2443290905
 20
8.8546139833
 30
0.0
 10
10.2445365213
 20
8.8542094829
 30
0.0
 10
10.2447854345
 20
8.8537240813
 30
0.0
 10
10.2450343487
 20
8.8532386799
 30
0.0
 10
10.245366234
 20
8.852591478
 30
0.0
 10
10.2457810907
 20
8.8517824757
 30
0.0
 10
10.2462789187
 20
8.8508116728
 30
0.0
 10
10.2469426894
 20
8.8495172691
 30
0.0
 10
10.2477724028
 20
8.8478992644
 30
0.0
 10
10.2487680588
 20
8.8459576587
 30
0.0
 10
10.2497637149
 20
8.8440160531
 30
0.0
 10
10.2507593709
 20
8.8420744475
 30
0.0
 10
10.2517550269
 20
8.8401328418
 30
0.0
 10
10.252750683
 20
8.8381912362
 30
0.0
 10
10.253746339
 20
8.8362496305
 30
0.0
 10
10.2547419951
 20
8.8343080249
 30
0.0
 10
10.2557376511
 20
8.8323664192
 30
0.0
 10
10.2565673645
 20
8.8307484145
 30
0.0
 10
10.2572311351
 20
8.8294540108
 30
0.0
 10
10.2577289632
 20
8.8284832079
 30
0.0
 10
10.2581438198
 20
8.8276742056
 30
0.0
 10
10.2584757052
 20
8.8270270037
 30
0.0
 10
10.258724619
 20
8.8265416022
 30
0.0
 10
10.2589735338
 20
8.8260562012
 30
0.0
 10
10.2591809598
 20
8.8256516989
 30
0.0
 10
10.2593469073
 20
8.8253281002
 30
0.0
 10
10.2594506092
 20
8.8251258438
 30
0.0
 10
10.2595336056
 20
8.8249640553
 30
0.0
 10
10.2595957575
 20
8.8248426685
 30
0.0
 10
10.2596478544
 20
8.8247416571
 30
0.0
 10
10.2596837263
 20
8.8246706661
 30
0.0
 10
10.2597051549
 20
8.8246305417
 30
0.0
 10
10.2597186056
 20
8.8245992038
 30
0.0
 10
10.2597420743
 20
8.824572623
 30
0.0
 10
10.2597698715
 20
8.8245355227
 30
0.0
 10
10.2598201448
 20
8.8244713701
 30
0.0
 10
10.2598911125
 20
8.8243793195
 30
0.0
 10
10.2599766381
 20
8.8242690317
 30
0.0
 10
10.260090545
 20
8.8241219209
 30
0.0
 10
10.2602329722
 20
8.8239380531
 30
0.0
 10
10.2604608313
 20
8.8236438531
 30
0.0
 10
10.2607456636
 20
8.823276107
 30
0.0
 10
10.2610874588
 20
8.82283481
 30
0.0
 10
10.261429255
 20
8.8223935134
 30
0.0
 10
10.2618849828
 20
8.8218051178
 30
0.0
 10
10.2624546427
 20
8.8210696234
 30
0.0
 10
10.2631382346
 20
8.8201870301
 30
0.0
 10
10.2640496904
 20
8.819010239
 30
0.0
 10
10.2651890102
 20
8.8175392501
 30
0.0
 10
10.2665561939
 20
8.8157740635
 30
0.0
 10
10.2679233776
 20
8.8140088769
 30
0.0
 10
10.2692905614
 20
8.8122436903
 30
0.0
 10
10.2706577451
 20
8.8104785036
 30
0.0
 10
10.2720249288
 20
8.808713317
 30
0.0
 10
10.2733921126
 20
8.8069481304
 30
0.0
 10
10.2747592963
 20
8.8051829437
 30
0.0
 10
10.27612648
 20
8.8034177571
 30
0.0
 10
10.2772657998
 20
8.8019467683
 30
0.0
 10
10.2781772556
 20
8.8007699772
 30
0.0
 10
10.2788608475
 20
8.7998873839
 30
0.0
 10
10.2794305074
 20
8.7991518894
 30
0.0
 10
10.2798862353
 20
8.7985634939
 30
0.0
 10
10.2802280311
 20
8.7981221971
 30
0.0
 10
10.2805698276
 20
8.7976809011
 30
0.0
 10
10.2808546558
 20
8.7973131519
 30
0.0
 10
10.2810825233
 20
8.7970189581
 30
0.0
 10
10.2812249293
 20
8.7968350744
 30
0.0
 10
10.2813388797
 20
8.7966879962
 30
0.0
 10
10.2814242726
 20
8.796577609
 30
0.0
 10
10.2814956554
 20
8.7964858693
 30
0.0
 10
10.2815451877
 20
8.7964211617
 30
0.0
 10
10.2815741721
 20
8.7963849507
 30
0.0
 10
10.2815939942
 20
8.7963556381
 30
0.0
 10
10.2816211408
 20
8.7963345605
 30
0.0
 10
10.2816547814
 20
8.7963035845
 30
0.0
 10
10.2817148428
 20
8.7962507148
 30
0.0
 10
10.2818000224
 20
8.796174487
 30
0.0
 10
10.2819025043
 20
8.7960833131
 30
0.0
 10
10.2820390539
 20
8.7959616434
 30
0.0
 10
10.2822097727
 20
8.795809592
 30
0.0
 10
10.2824829049
 20
8.7955662898
 30
0.0
 10
10.2828243264
 20
8.7952621689
 30
0.0
 10
10.2832340295
 20
8.7948972208
 30
0.0
 10
10.2836437333
 20
8.7945322736
 30
0.0
 10
10.2841900047
 20
8.794045677
 30
0.0
 10
10.2848728442
 20
8.7934374313
 30
0.0
 10
10.2856922515
 20
8.7927075365
 30
0.0
 10
10.2867847945
 20
8.7917343433
 30
0.0
 10
10.2881504734
 20
8.790517852
 30
0.0
 10
10.289789288
 20
8.7890580623
 30
0.0
 10
10.2914281026
 20
8.7875982726
 30
0.0
 10
10.2930669171
 20
8.786138483
 30
0.0
 10
10.2947057317
 20
8.7846786933
 30
0.0
 10
10.2963445463
 20
8.7832189036
 30
0.0
 10
10.2979833609
 20
8.781759114
 30
0.0
 10
10.2996221755
 20
8.7802993243
 30
0.0
 10
10.3012609901
 20
8.7788395347
 30
0.0
 10
10.302626669
 20
8.7776230433
 30
0.0
 10
10.303719212
 20
8.7766498502
 30
0.0
 10
10.3045386193
 20
8.7759199553
 30
0.0
 10
10.3052214587
 20
8.7753117096
 30
0.0
 10
10.3057677303
 20
8.7748251131
 30
0.0
 10
10.3061774338
 20
8.7744601655
 30
0.0
 10
10.3065871379
 20
8.7740952188
 30
0.0
 10
10.3069285562
 20
8.7737910939
 30
0.0
 10
10.3072016949
 20
8.7735477998
 30
0.0
 10
10.3073723972
 20
8.7733957276
 30
0.0
 10
10.3075089806
 20
8.7732741006
 30
0.0
 10
10.307611359
 20
8.7731827961
 30
0.0
 10
10.3076968626
 20
8.7731069771
 30
0.0
 10
10.3077563458
 20
8.7730533777
 30
0.0
 10
10.3077909127
 20
8.7730235708
 30
0.0
 10
10.3078152137
 20
8.772998902
 30
0.0
 10
10.3078457234
 20
8.7729830771
 30
0.0
 10
10.3078842374
 20
8.7729588924
 30
0.0
 10
10.3079526458
 20
8.7729180065
 30
0.0
 10
10.3080498446
 20
8.7728588465
 30
0.0
 10
10.3081667089
 20
8.7727881763
 30
0.0
 10
10.3083224492
 20
8.7726938369
 30
0.0
 10
10.3085171516
 20
8.7725759511
 30
0.0
 10
10.3088286602
 20
8.7723873124
 30
0.0
 10
10.3092180512
 20
8.7721515214
 30
0.0
 10
10.3096853182
 20
8.771868569
 30
0.0
 10
10.3101525857
 20
8.7715856175
 30
0.0
 10
10.310775609
 20
8.7712083485
 30
0.0
 10
10.311554388
 20
8.7707367623
 30
0.0
 10
10.3124889229
 20
8.7701708589
 30
0.0
 10
10.3137349694
 20
8.769416321
 30
0.0
 10
10.3152925276
 20
8.7684731486
 30
0.0
 10
10.3171615973
 20
8.7673413418
 30
0.0
 10
10.3190306671
 20
8.7662095349
 30
0.0
 10
10.3208997369
 20
8.7650777281
 30
0.0
 10
10.3227688066
 20
8.7639459212
 30
0.0
 10
10.3246378764
 20
8.7628141144
 30
0.0
 10
10.3265069462
 20
8.7616823076
 30
0.0
 10
10.3283760159
 20
8.7605505007
 30
0.0
 10
10.3302450857
 20
8.7594186939
 30
0.0
 10
10.3318026438
 20
8.7584755215
 30
0.0
 10
10.3330486904
 20
8.7577209836
 30
0.0
 10
10.3339832252
 20
8.7571550802
 30
0.0
 10
10.3347620043
 20
8.756683494
 30
0.0
 10
10.3353850276
 20
8.7563062251
 30
0.0
 10
10.3358522949
 20
8.7560232732
 30
0.0
 10
10.3363195627
 20
8.7557403222
 30
0.0
 10
10.3367089512
 20
8.7555045268
 30
0.0
 10
10.3370204649
 20
8.7553158971
 30
0.0
 10
10.3372151545
 20
8.7551979883
 30
0.0
 10
10.337370921
 20
8.7551036962
 30
0.0
 10
10.3374877051
 20
8.7550328817
 30
0.0
 10
10.3375851551
 20
8.7549741729
 30
0.0
 10
10.337653115
 20
8.7549324816
 30
0.0
 10
10.3376923476
 20
8.7549095873
 30
0.0
 10
10.3377206499
 20
8.7548897988
 30
0.0
 10
10.3377532414
 20
8.7548800166
 30
0.0
 10
10.3377952005
 20
8.7548634835
 30
0.0
 10
10.3378693261
 20
8.7548361766
 30
0.0
 10
10.3379748554
 20
8.7547963166
 30
0.0
 10
10.3381016465
 20
8.7547488485
 30
0.0
 10
10.3382706468
 20
8.7546854307
 30
0.0
 10
10.3384819158
 20
8.7546062018
 30
0.0
 10
10.3388199359
 20
8.7544794114
 30
0.0
 10
10.3392424645
 20
8.7543209317
 30
0.0
 10
10.3397494974
 20
8.7541307525
 30
0.0
 10
10.3402565306
 20
8.7539405742
 30
0.0
 10
10.3409325748
 20
8.7536870029
 30
0.0
 10
10.3417776301
 20
8.7533700388
 30
0.0
 10
10.3427916964
 20
8.7529896819
 30
0.0
 10
10.3441437848
 20
8.7524825393
 30
0.0
 10
10.3458338954
 20
8.7518486111
 30
0.0
 10
10.347862028
 20
8.7510878972
 30
0.0
 10
10.3498901607
 20
8.7503271834
 30
0.0
 10
10.3519182933
 20
8.7495664695
 30
0.0
 10
10.353946426
 20
8.7488057557
 30
0.0
 10
10.3559745586
 20
8.7480450418
 30
0.0
 10
10.3580026913
 20
8.7472843279
 30
0.0
 10
10.3600308239
 20
8.7465236141
 30
0.0
 10
10.3620589566
 20
8.7457629002
 30
0.0
 10
10.3637490671
 20
8.745128972
 30
0.0
 10
10.3651011556
 20
8.7446218294
 30
0.0
 10
10.3661152219
 20
8.7442414725
 30
0.0
 10
10.3669602772
 20
8.7439245084
 30
0.0
 10
10.3676363214
 20
8.7436709372
 30
0.0
 10
10.3681433545
 20
8.7434807585
 30
0.0
 10
10.3686503879
 20
8.7432905808
 30
0.0
 10
10.3690729148
 20
8.7431320963
 30
0.0
 10
10.3694109384
 20
8.7430053158
 30
0.0
 10
10.3696221983
 20
8.7429260617
 30
0.0
 10
10.3697912175
 20
8.7428626957
 30
0.0
 10
10.369917951
 20
8.7428150691
 30
0.0
 10
10.3700236602
 20
8.742775705
 30
0.0
 10
10.3700974646
 20
8.7427475129
 30
0.0
 10
10.3701399384
 20
8.7427323982
 30
0.0
 10
10.3701709491
 20
8.742718259
 30
0.0
 10
10.3702051886
 20
8.7427148348
 30
0.0
 10
10.370249715
 20
8.7427065317
 30
0.0
 10
10.370328161
 20
8.7426937426
 30
0.0
 10
10.3704399523
 20
8.7426745621
 30
0.0
 10
10.3705742193
 20
8.7426519351
 30
0.0
 10
10.370753201
 20
8.7426216298
 30
0.0
 10
10.3709769422
 20
8.7425837947
 30
0.0
 10
10.3713349202
 20
8.7425232325
 30
0.0
 10
10.3717823954
 20
8.7424475387
 30
0.0
 10
10.3723193644
 20
8.7423567023
 30
0.0
 10
10.3728563338
 20
8.7422658669
 30
0.0
 10
10.3735722929
 20
8.7421447527
 30
0.0
 10
10.3744672418
 20
8.7419933601
 30
0.0
 10
10.3755411804
 20
8.7418116889
 30
0.0
 10
10.3769730986
 20
8.7415694607
 30
0.0
 10
10.3787629964
 20
8.7412666754
 30
0.0
 10
10.3809108736
 20
8.740903333
 30
0.0
 10
10.3830587509
 20
8.7405399907
 30
0.0
 10
10.3852066282
 20
8.7401766483
 30
0.0
 10
10.3880704646
 20
8.7396921919
 30
0.0
 10
10.3916502601
 20
8.7390866213
 30
0.0
 10
10.3959460147
 20
8.7383599365
 30
0.0
 10
10.4002417692
 20
8.7376332518
 30
0.0
 10
10.4031056056
 20
8.7371487954
 30
0.0
 10
10.4045375238
 20
8.7369065671
 30
0.0
  0
ENDSEC
  0
SECTION
  2
OBJECTS
  0
DICTIONARY
  5
C
100
AcDbDictionary
280
0
281
1
  3
ACAD_GROUP
350
D
  3
ACAD_MLINESTYLE
350
17
  3
ACAD_LAYOUT
350
1A
  3
ACAD_PLOTSETTINGS
350
19
  3
ACAD_PLOTSTYLENAME
350
E
  3
ACAD_IMAGE_DICT
350
       382
  3
ACAD_IMAGE_VARS
350
       383
  3
ACAD_TABLESTYLE
350
       384
  0
IMAGEDEF_REACTOR
  5
381
100
AcDbRasterImageDefReactor
 90
2
330
296
  0
DICTIONARY
  5
D
102
{ACAD_REACTORS
330
C
102
}
100
AcDbDictionary
280
0
281
1
  0
ACDBDICTIONARYWDFLT
  5
E
102
{ACAD_REACTORS
330
C
102
}
100
AcDbDictionary
281
1
  3
Normal
350
F
100
AcDbDictionaryWithDefault
340
F
  0
DICTIONARY
  5
382
330
C
100
AcDbDictionary
281
1
  3
E6K_assy_2_img_1
350
       387
  0
RASTERVARIABLES
  5
383
330
C
100
AcDbRasterVariables
 90
0
 70
0
 71
1
 72
5
  0
DICTIONARY
  5
17
102
{ACAD_REACTORS
330
C
102
}
100
AcDbDictionary
280
0
281
1
  3
Standard
350
18
  0
DICTIONARY
  5
384
330
C
100
AcDbDictionary
281
1
  3
Standard
350
       388
  3
Standard1
350
       389
  0
DICTIONARY
  5
19
102
{ACAD_REACTORS
330
C
102
}
100
AcDbDictionary
281
1
  0
DICTIONARY
  5
1A
102
{ACAD_REACTORS
330
C
102
}
100
AcDbDictionary
281
1
  3
Model
350
385
  3
Layout1
350
386
  0
ACDBPLACEHOLDER
  5
F
102
{ACAD_REACTORS
330
E
102
}
  0
MLINESTYLE
  5
18
102
{ACAD_REACTORS
330
17
102
}
100
AcDbMlineStyle
  2
STANDARD
 70
0
  3

 62
256
 51
90.0
 52
90.0
 71
2
 49
0.5
 62
256
  6
BYLAYER
 49
-0.5
 62
256
  6
BYLAYER
  0
LAYOUT
  5
385
102
{ACAD_REACTORS
330
1A
102
}
100
AcDbPlotSettings
  1

  2
none_device
  4
ANSI_C_(22.00_x_17.00_Inches)
  6

 40
0.0
 41
0.0
 42
0.0
 43
0.0
 44
558.8
 45
431.8
 46
0.0
 47
0.0
 48
0.0
 49
0.0
140
0.0
141
0.0
142
1.0
143
1.0
 70
1024
 72
0
 73
0
 74
0
  7

 75
0
147
1.0
148
0.0
149
0.0
100
AcDbLayout
  1
Model
 70
0
 71
0
 10
0.0
 20
0.0
 11
22.0
 21
17.0
 12
0.0
 22
0.0
 32
0.0
 14
0.0
 24
0.0
 34
0.0
 15
0.0
 25
0.0
 35
0.0
146
0.0
 13
0.0
 23
0.0
 33
0.0
 16
1.0
 26
0.0
 36
0.0
 17
0.0
 27
1.0
 37
0.0
 76
0
330
20C
345
0
346
0
  0
LAYOUT
  5
386
102
{ACAD_REACTORS
330
1A
102
}
100
AcDbPlotSettings
  1

  2
none_device
  4
ANSI_C_(22.00_x_17.00_Inches)
  6

 40
0.0
 41
0.0
 42
0.0
 43
0.0
 44
558.8
 45
431.8
 46
0.0
 47
0.0
 48
0.0
 49
0.0
140
0.0
141
0.0
142
1.0
143
1.0
 70
0
 72
0
 73
0
 74
0
  7

 75
0
147
1.0
148
0.0
149
0.0
100
AcDbLayout
  1
Layout1
 70
0
 71
1
 10
0.0
 20
0.0
 11
22.0
 21
17.0
 12
0.0
 22
0.0
 32
0.0
 14
0.0
 24
0.0
 34
0.0
 15
0.0
 25
0.0
 35
0.0
146
0.0
 13
0.0
 23
0.0
 33
0.0
 16
1.0
 26
0.0
 36
0.0
 17
0.0
 27
1.0
 37
0.0
 76
0
330
20D
345
0
346
0
  0
IMAGEDEF
  5
387
102
{ACAD_REACTORS
330
382
330
381
102
}
100
AcDbRasterImageDef
 90
0
  1
E6K_assy_2_img_1.png
 10
369.0
 20
92.0
 11
0.0066666667
 21
0.0066666667
280
1
281
0
  0
TABLESTYLE
  5
388
102
{ACAD_REACTORS
330
384
330
299
330
29A
102
}
330
384
100
AcDbTableStyle
  3
Standard
 70
0
 71
0
 40
0.06
 41
0.06
280
1
281
1
  7
Standard
140
0.18
170
1
 62
0
 63
7
283
0
  7
Standard
140
0.18
170
1
 62
0
 63
7
283
0
  7
Standard
140
0.18
170
1
 62
0
 63
7
283
0
  0
TABLESTYLE
  5
389
102
{ACAD_REACTORS
330
384
330
298
102
}
330
384
100
AcDbTableStyle
  3
Standard1
 70
1
 71
0
 40
0.06
 41
0.06
280
1
281
1
  7
Standard
140
0.18
170
1
 62
0
 63
7
283
0
  7
Standard
140
0.18
170
1
 62
0
 63
7
283
0
  7
Standard
140
0.18
170
1
 62
0
 63
7
283
0
  0
ENDSEC
  0
EOF
