999
DXF file: E6J_assy_2.dxf
999
Pro/ENGINEER 2014200 by Parametric Technology Corporation
  0
SECTION
  2
HEADER
  9
$ACADVER
  1
AC1021
  9
$DWGCODEPAGE
  3
ANSI_1252
  9
$EXTMAX
 10
22.0
 20
17.0
 30
0.0
  9
$EXTMIN
 10
0.0
 20
0.0
 30
0.0
  9
$LIMMIN
 10
0.0
 20
0.0
  9
$LIMMAX
 10
22.0
 20
17.0
  9
$VIEWCTR
 10
11.0
 20
8.5
  9
$VIEWSIZE
 40
17.0
  9
$CLAYER
  8
0
  9
$LTSCALE
 40
1.21
  9
$CELTYPE
  6
BYLAYER
  9
$DIMSCALE
 40
1.0
  9
$DIMASZ
 40
0.1875
  9
$DIMEXO
 40
0.0625
  9
$DIMDLI
 40
0.836
  9
$DIMEXE
 40
0.125
  9
$DIMCEN
 40
0.198
  9
$DIMLFAC
 40
1.0
  9
$DIMBLK
  1
_FILLED
  9
$DIMTXT
 40
0.1
  9
$DIMTOL
 70
0
  9
$DIMLIM
 70
0
  9
$DIMTFAC
 40
1.0
  9
$DIMGAP
 40
0.09
  9
$DIMDSEP
 70
46
  9
$AUNITS
 70
0
  9
$PDMODE
 70
3
  9
$PDSIZE
 40
0.3125
  9
$HANDSEED
  5
395
  9
$TILEMODE
 70
1
  9
$MEASUREMENT
 70
0
  9
$INSUNITS
 70
1
  0
ENDSEC
  0
SECTION
  2
CLASSES
  0
CLASS
  1
ACDBDICTIONARYWDFLT
  2
AcDbDictionaryWithDefault
  3
AutoCAD 2000
 90
0
 91
1
280
0
281
0
  0
CLASS
  1
ACDBPLACEHOLDER
  2
AcDbPlaceHolder
  3
AutoCAD 2000
 90
0
 91
1
280
0
281
0
  0
CLASS
  1
LAYOUT
  2
AcDbLayout
  3
AutoCAD 2000
 90
0
 91
0
280
0
281
0
  0
CLASS
  1
RASTERVARIABLES
  2
AcDbRasterVariables
  3
ISM
 90
0
 91
1
280
0
281
0
  0
CLASS
  1
IMAGEDEF
  2
AcDbRasterImageDef
  3
ISM
 90
0
 91
1
280
0
281
0
  0
CLASS
  1
IMAGEDEF_REACTOR
  2
AcDbRasterImageDefReactor
  3
ISM
 90
0
 91
1
280
0
281
0
  0
CLASS
  1
IMAGE
  2
AcDbRasterImage
  3
ISM
 90
127
 91
1
280
0
281
1
  0
CLASS
  1
TABLESTYLE
  2
AcDbTableStyle
  3
ObjectDBX Classes
 90
2047
 91
1
280
0
281
0
  0
CLASS
  1
ACAD_TABLE
  2
AcDbTable
  3
ObjectDBX Classes
 90
1025
 91
3
280
0
281
1
  0
ENDSEC
  0
SECTION
  2
TABLES
  0
TABLE
  2
VPORT
  5
8
100
AcDbSymbolTable
 70
2
  0
VPORT
  5
1F4
100
AcDbSymbolTableRecord
100
AcDbViewportTableRecord
  2
*ACTIVE
 70
0
 10
0.0
 20
0.0
 11
1.0
 21
1.0
 12
11.0
 22
8.5
 13
0.0
 23
0.0
 14
1.0
 24
1.0
 15
0.0
 25
0.0
 16
0.0
 26
0.0
 36
1.0
 17
0.0
 27
0.0
 37
0.0
 40
17.0
 41
1.2941176471
 42
50.0
 43
0.0
 44
0.0
 50
0.0
 51
0.0
 71
0
 72
100
 73
1
 74
1
 75
0
 76
0
 77
0
 78
0
  0
ENDTAB
  0
TABLE
  2
LTYPE
  5
5
100
AcDbSymbolTable
 70
6
  0
LTYPE
  5
14
100
AcDbSymbolTableRecord
100
AcDbLinetypeTableRecord
  2
BYBLOCK
 70
0
  3

 72
65
 73
0
 40
0.0
  0
LTYPE
  5
15
100
AcDbSymbolTableRecord
100
AcDbLinetypeTableRecord
  2
BYLAYER
 70
0
  3

 72
65
 73
0
 40
0.0
  0
LTYPE
  5
16
100
AcDbSymbolTableRecord
100
AcDbLinetypeTableRecord
  2
CONTINUOUS
 70
64
  3
Solid line
 72
65
 73
0
 40
0.0
  0
LTYPE
  5
1F5
100
AcDbSymbolTableRecord
100
AcDbLinetypeTableRecord
  2
CENTER
 70
64
  3
____ _ ____ _ ____ _ ____ _ ____ _ ____ _ ____
 72
65
 73
4
 40
0.6
 49
0.375
 74
0
 49
-0.075
 74
0
 49
0.075
 74
0
 49
-0.075
 74
0
  0
LTYPE
  5
1F6
100
AcDbSymbolTableRecord
100
AcDbLinetypeTableRecord
  2
HIDDEN
 70
64
  3
- - - - - - - - - - - - - - - - - - - -
 72
65
 73
2
 40
0.2
 49
0.1
 74
0
 49
-0.1
 74
0
  0
LTYPE
  5
1F7
100
AcDbSymbolTableRecord
100
AcDbLinetypeTableRecord
  2
PHANTOM
 70
64
  3
_____ _ _ _____ _ _ _____ _ _ _____
 72
65
 73
6
 40
0.8
 49
0.45
 74
0
 49
-0.05
 74
0
 49
0.1
 74
0
 49
-0.05
 74
0
 49
0.1
 74
0
 49
-0.05
 74
0
  0
LTYPE
  5
1F8
100
AcDbSymbolTableRecord
100
AcDbLinetypeTableRecord
  2
DOT
 70
64
  3
. . . . . . . . . . . . . . . . . . . .
 72
65
 73
2
 40
0.2
 49
0.1
 74
0
 49
-0.1
 74
0
  0
LTYPE
  5
1F9
100
AcDbSymbolTableRecord
100
AcDbLinetypeTableRecord
  2
DASHED
 70
64
  3
- - - - - - - - - - - - - - - - - - - -
 72
65
 73
2
 40
0.2
 49
0.1
 74
0
 49
-0.1
 74
0
  0
ENDTAB
  0
TABLE
  2
LAYER
  5
2
100
AcDbSymbolTable
 70
36
  0
LAYER
  5
10
100
AcDbSymbolTableRecord
100
AcDbLayerTableRecord
  2
0
 70
0
 62
7
  6
CONTINUOUS
370
-3
390
F
  0
LAYER
  5
1FA
100
AcDbSymbolTableRecord
100
AcDbLayerTableRecord
  2
DEFAULT_1
 70
0
 62
7
  6
CENTER
370
-3
390
F
  0
LAYER
  5
1FB
100
AcDbSymbolTableRecord
100
AcDbLayerTableRecord
  2
DEFAULT_2
 70
0
 62
8
  6
HIDDEN
370
-3
390
F
  0
LAYER
  5
1FC
100
AcDbSymbolTableRecord
100
AcDbLayerTableRecord
  2
DEFAULT_3
 70
0
 62
7
  6
PHANTOM
370
-3
390
F
  0
LAYER
  5
1FD
100
AcDbSymbolTableRecord
100
AcDbLayerTableRecord
  2
01___PRT_ALL_DTM_PLN
 70
0
 62
7
  6
CONTINUOUS
370
-3
390
F
  0
LAYER
  5
1FE
100
AcDbSymbolTableRecord
100
AcDbLayerTableRecord
  2
01___PRT_DEF_DTM_PLN
 70
0
 62
7
  6
CONTINUOUS
370
-3
390
F
  0
LAYER
  5
1FF
100
AcDbSymbolTableRecord
100
AcDbLayerTableRecord
  2
02___PRT_ALL_AXES
 70
0
 62
7
  6
CONTINUOUS
370
-3
390
F
  0
LAYER
  5
200
100
AcDbSymbolTableRecord
100
AcDbLayerTableRecord
  2
03___PRT_ALL_CURVES
 70
0
 62
7
  6
CONTINUOUS
370
-3
390
F
  0
LAYER
  5
201
100
AcDbSymbolTableRecord
100
AcDbLayerTableRecord
  2
04___PRT_ALL_DTM_PNT
 70
0
 62
7
  6
CONTINUOUS
370
-3
390
F
  0
LAYER
  5
202
100
AcDbSymbolTableRecord
100
AcDbLayerTableRecord
  2
05___PRT_ALL_DTM_CSYS
 70
0
 62
7
  6
CONTINUOUS
370
-3
390
F
  0
LAYER
  5
203
100
AcDbSymbolTableRecord
100
AcDbLayerTableRecord
  2
05___PRT_DEF_DTM_CSYS
 70
0
 62
7
  6
CONTINUOUS
370
-3
390
F
  0
LAYER
  5
204
100
AcDbSymbolTableRecord
100
AcDbLayerTableRecord
  2
06___PRT_ALL_SURFS
 70
0
 62
7
  6
CONTINUOUS
370
-3
390
F
  0
LAYER
  5
205
100
AcDbSymbolTableRecord
100
AcDbLayerTableRecord
  2
DATUM_PLANES
 70
0
 62
7
  6
CONTINUOUS
370
-3
390
F
  0
LAYER
  5
206
100
AcDbSymbolTableRecord
100
AcDbLayerTableRecord
  2
PORT_AREAS
 70
0
 62
7
  6
CONTINUOUS
370
-3
390
F
  0
LAYER
  5
207
100
AcDbSymbolTableRecord
100
AcDbLayerTableRecord
  2
SUNNBOMCOSMETIC
 70
0
 62
7
  6
CONTINUOUS
370
-3
390
F
  0
LAYER
  5
208
100
AcDbSymbolTableRecord
100
AcDbLayerTableRecord
  2
SUNNBOMSTAMPING
 70
0
 62
7
  6
CONTINUOUS
370
-3
390
F
  0
LAYER
  5
209
100
AcDbSymbolTableRecord
100
AcDbLayerTableRecord
  2
THREADS
 70
0
 62
7
  6
CONTINUOUS
370
-3
390
F
  0
ENDTAB
  0
TABLE
  2
STYLE
  5
3
100
AcDbSymbolTable
 70
1
  0
STYLE
  5
11
100
AcDbSymbolTableRecord
100
AcDbTextStyleTableRecord
  2
STANDARD
 70
0
 40
0.0
 41
0.8
 50
0.0
 71
0
 42
0.2
  3
txt
  4

  0
STYLE
  5
20A
100
AcDbSymbolTableRecord
100
AcDbTextStyleTableRecord
  2
TEXTSTYLE_1
 70
0
 40
0.0
 41
0.8
 50
0.0
 71
0
 42
0.2
  3
gdt
  4

  0
ENDTAB
  0
TABLE
  2
VIEW
  5
6
100
AcDbSymbolTable
 70
0
  0
ENDTAB
  0
TABLE
  2
UCS
  5
7
100
AcDbSymbolTable
 70
0
  0
ENDTAB
  0
TABLE
  2
APPID
  5
9
100
AcDbSymbolTable
 70
1
  0
APPID
  5
20B
100
AcDbSymbolTableRecord
100
AcDbRegAppTableRecord
  2
ACAD
 70
0
  0
ENDTAB
  0
TABLE
  2
BLOCK_RECORD
  5
1
100
AcDbSymbolTable
 70
0
  0
BLOCK_RECORD
  5
20C
100
AcDbSymbolTableRecord
100
AcDbBlockTableRecord
  2
*Model_Space
  0
BLOCK_RECORD
  5
20D
100
AcDbSymbolTableRecord
100
AcDbBlockTableRecord
  2
*Paper_Space
  0
BLOCK_RECORD
  5
20E
100
AcDbSymbolTableRecord
100
AcDbBlockTableRecord
  2
SUN_FIRST_THIRD_ANGLE_BL0
  0
BLOCK_RECORD
  5
20F
100
AcDbSymbolTableRecord
100
AcDbBlockTableRecord
  2
*T1
  0
BLOCK_RECORD
  5
210
100
AcDbSymbolTableRecord
100
AcDbBlockTableRecord
  2
*T2
  0
BLOCK_RECORD
  5
211
100
AcDbSymbolTableRecord
100
AcDbBlockTableRecord
  2
*T3
  0
ENDTAB
  0
TABLE
  2
DIMSTYLE
  5
A
100
AcDbSymbolTable
 70
1
100
AcDbDimStyleTable
 71
0
  0
DIMSTYLE
105
212
100
AcDbSymbolTableRecord
100
AcDbDimStyleTableRecord
  2
STANDARD
 70
0
  3

  4

 40
1.0
 41
0.1875
 42
0.0625
 43
0.38
 44
0.125
 45
0.0
 46
0.0
 47
0.001
 48
0.001
140
0.1
141
0.09
142
0.0
143
25.4
144
1.0
145
0.0
146
1.0
147
0.09
 71
0.0
 72
0.0
 73
1
 74
1
 75
0
 76
0
 77
0
 78
4
170
0
171
2
172
0
173
0
174
0
175
0
176
0
177
0
178
0
270
2
271
3
272
3
273
2
274
2
275
0
280
0
281
0
282
0
283
1
284
4
285
0
286
0
287
3
288
0
340
11
278
46
  0
ENDTAB
  0
ENDSEC
  0
SECTION
  2
BLOCKS
  0
BLOCK
  5
20
100
AcDbEntity
  8
0
100
AcDbBlockBegin
  2
*Model_Space
 70
0
 10
0.0
 20
0.0
 30
0.0
  3
*Model_Space
  1

  0
ENDBLK
  5
21
100
AcDbEntity
  8
0
100
AcDbBlockEnd
  0
BLOCK
  5
1C
100
AcDbEntity
  8
0
100
AcDbBlockBegin
  2
*Paper_Space
 70
0
 10
0.0
 20
0.0
 30
0.0
  3
*Paper_Space
  1

  0
ENDBLK
  5
1D
100
AcDbEntity
  8
0
100
AcDbBlockEnd
  0
BLOCK
  5
213
100
AcDbEntity
  8
0
100
AcDbBlockBegin
 62
2
  6
CONTINUOUS
  2
SUN_FIRST_THIRD_ANGLE_BL0
 70
64
 10
20.4816717061
 20
1.2289683772
  3
SUN_FIRST_THIRD_ANGLE_BL0
  1

  0
TEXT
  5
214
100
AcDbEntity
  8
0
100
AcDbText
 62
2
  6
CONTINUOUS
 10
19.4750896608
 20
1.4136269581
  7
STANDARD
 40
0.08
  1
FIRST ANGLE
 41
0.8
 72
0
100
AcDbText
  0
TEXT
  5
215
100
AcDbEntity
  8
0
100
AcDbText
 62
2
  6
CONTINUOUS
 10
20.7842537513
 20
1.4047600029
  7
STANDARD
 40
0.08
  1
THIRD ANGLE
 41
0.8
 72
0
100
AcDbText
  0
LINE
  5
216
100
AcDbEntity
  8
0
100
AcDbLine
 62
7
  6
CONTINUOUS
 10
19.4767170086
 20
1.1727031207
 11
19.6334271527
 21
1.1717972817
  0
LINE
  5
217
100
AcDbEntity
  8
0
100
AcDbLine
 62
7
  6
CONTINUOUS
 10
19.6596964832
 20
1.1717972817
 11
19.6950230232
 21
1.171593082
  0
LINE
  5
218
100
AcDbEntity
  8
0
100
AcDbLine
 62
7
  6
CONTINUOUS
 10
19.7194818561
 20
1.1708914427
 11
19.8852396156
 21
1.1699333054
  0
LINE
  5
219
100
AcDbEntity
  8
0
100
AcDbLine
 62
7
  6
CONTINUOUS
 10
19.4758111696
 20
1.2723454088
 11
19.88525039
 21
1.3511534004
  0
LINE
  5
21A
100
AcDbEntity
  8
0
100
AcDbLine
 62
7
  6
CONTINUOUS
 10
19.88525039
 20
1.3511534004
 11
19.8831348489
 21
0.9851647912
  0
LINE
  5
21B
100
AcDbEntity
  8
0
100
AcDbLine
 62
7
  6
CONTINUOUS
 10
19.8831348489
 20
0.9851647912
 11
19.4767170086
 21
1.0658141206
  0
LINE
  5
21C
100
AcDbEntity
  8
0
100
AcDbLine
 62
7
  6
CONTINUOUS
 10
19.4767170086
 20
1.0658141206
 11
19.4779056764
 21
1.2714536432
  0
CIRCLE
  5
21D
100
AcDbEntity
  8
0
100
AcDbCircle
 62
7
  6
CONTINUOUS
 10
20.2068232291
 20
1.1717972817
 40
0.175742101
  0
CIRCLE
  5
21E
100
AcDbEntity
  8
0
100
AcDbCircle
 62
7
  6
CONTINUOUS
 10
20.2068232291
 20
1.1717972817
 40
0.1005522074
  0
LINE
  5
21F
100
AcDbEntity
  8
0
100
AcDbLine
 62
7
  6
CONTINUOUS
 10
20.2077290681
 20
1.3756110529
 11
20.2071171714
 21
1.2379342989
  0
LINE
  5
220
100
AcDbEntity
  8
0
100
AcDbLine
 62
7
  6
CONTINUOUS
 10
20.2077290681
 20
1.2016899681
 11
20.2074674401
 21
1.1428236749
  0
LINE
  5
221
100
AcDbEntity
  8
0
100
AcDbLine
 62
7
  6
CONTINUOUS
 10
20.208634907
 20
1.101141841
 11
20.2080230104
 21
0.963465087
  0
LINE
  5
222
100
AcDbEntity
  8
0
100
AcDbLine
 62
7
  6
CONTINUOUS
 10
20.0066328138
 20
1.1745147986
 11
20.1443095678
 21
1.1739029019
  0
LINE
  5
223
100
AcDbEntity
  8
0
100
AcDbLine
 62
7
  6
CONTINUOUS
 10
20.1832714155
 20
1.1727031207
 11
20.238153505
 21
1.172335442
  0
LINE
  5
224
100
AcDbEntity
  8
0
100
AcDbLine
 62
7
  6
CONTINUOUS
 10
20.2756669918
 20
1.1717972817
 11
20.407916871
 21
1.1712095044
  0
CIRCLE
  5
225
100
AcDbEntity
  8
0
100
AcDbCircle
 62
7
  6
CONTINUOUS
 10
20.7509457401
 20
1.1693297793
 40
0.1722024983
  0
CIRCLE
  5
226
100
AcDbEntity
  8
0
100
AcDbCircle
 62
7
  6
CONTINUOUS
 10
20.7509457401
 20
1.1693297793
 40
0.0985164967
  0
LINE
  5
227
100
AcDbEntity
  8
0
100
AcDbLine
 62
7
  6
CONTINUOUS
 10
20.7169767782
 20
1.170462078
 11
20.7825395137
 21
1.1682766535
  0
LINE
  5
228
100
AcDbEntity
  8
0
100
AcDbLine
 62
7
  6
CONTINUOUS
 10
20.8177513651
 20
1.1693297793
 11
20.947965719
 21
1.1693297793
  0
LINE
  5
229
100
AcDbEntity
  8
0
100
AcDbLine
 62
7
  6
CONTINUOUS
 10
20.6875370113
 20
1.170462078
 11
20.5573226574
 21
1.170462078
  0
LINE
  5
22A
100
AcDbEntity
  8
0
100
AcDbLine
 62
7
  6
CONTINUOUS
 10
20.7486811426
 20
1.1987695462
 11
20.7486811426
 21
1.1432869085
  0
LINE
  5
22B
100
AcDbEntity
  8
0
100
AcDbLine
 62
7
  6
CONTINUOUS
 10
20.7498134414
 20
1.1059210505
 11
20.7498134414
 21
0.9757066966
  0
LINE
  5
22C
100
AcDbEntity
  8
0
100
AcDbLine
 62
7
  6
CONTINUOUS
 10
20.7486811426
 20
1.2338708068
 11
20.7486811426
 21
1.3640851607
  0
LINE
  5
22D
100
AcDbEntity
  8
0
100
AcDbLine
 62
7
  6
CONTINUOUS
 10
21.0702539817
 20
1.2701043662
 11
21.4790138229
 21
1.3448360823
  0
LINE
  5
22E
100
AcDbEntity
  8
0
100
AcDbLine
 62
7
  6
CONTINUOUS
 10
21.4790138229
 20
1.3448360823
 11
21.4790138229
 21
0.9779712941
  0
LINE
  5
22F
100
AcDbEntity
  8
0
100
AcDbLine
 62
7
  6
CONTINUOUS
 10
21.4790138229
 20
0.9779712941
 11
21.069121683
 21
1.0617614
  0
LINE
  5
230
100
AcDbEntity
  8
0
100
AcDbLine
 62
7
  6
CONTINUOUS
 10
21.0702539817
 20
1.2701043662
 11
21.069121683
 21
1.0617614
  0
LINE
  5
231
100
AcDbEntity
  8
0
100
AcDbLine
 62
7
  6
CONTINUOUS
 10
21.4790138229
 20
1.1693297793
 11
21.3159628059
 21
1.1693297793
  0
LINE
  5
232
100
AcDbEntity
  8
0
100
AcDbLine
 62
7
  6
CONTINUOUS
 10
21.2876553377
 20
1.1693297793
 11
21.2502894796
 21
1.1693297793
  0
LINE
  5
233
100
AcDbEntity
  8
0
100
AcDbLine
 62
7
  6
CONTINUOUS
 10
21.2208497126
 20
1.1659328831
 11
21.0713862804
 21
1.1659328831
  0
LINE
  5
234
100
AcDbEntity
  8
0
100
AcDbLine
 62
7
  6
CONTINUOUS
 10
20.4796138713
 20
1.5284908897
 11
20.4766766948
 21
0.9294458646
  0
ENDBLK
  5
235
100
AcDbEntity
  8
0
  6
BYBLOCK
 62
0
100
AcDbBlockEnd
  0
BLOCK
  5
236
100
AcDbEntity
  8
0
100
AcDbBlockBegin
  2
*T1
 70
1
 10
0.0
 20
0.0
  3
*T1
  1

  0
LINE
  5
237
100
AcDbEntity
  8
0
100
AcDbLine
 62
2
  6
CONTINUOUS
 10
9.275
 20
0.0
 11
-0.0
 21
0.0
  0
LINE
  5
238
100
AcDbEntity
  8
0
100
AcDbLine
 62
2
  6
CONTINUOUS
 10
9.275
 20
0.0
 11
9.275
 21
1.25
  0
LINE
  5
239
100
AcDbEntity
  8
0
100
AcDbLine
 62
2
  6
CONTINUOUS
 10
9.275
 20
0.625
 11
-0.0
 21
0.625
  0
LINE
  5
23A
100
AcDbEntity
  8
0
100
AcDbLine
 62
2
  6
CONTINUOUS
 10
9.275
 20
1.25
 11
-0.0
 21
1.25
  0
LINE
  5
23B
100
AcDbEntity
  8
0
100
AcDbLine
 62
2
  6
CONTINUOUS
 10
6.8
 20
0.0
 11
6.8
 21
1.25
  0
LINE
  5
23C
100
AcDbEntity
  8
0
100
AcDbLine
 62
2
  6
CONTINUOUS
 10
6.4
 20
0.0
 11
6.4
 21
0.625
  0
LINE
  5
23D
100
AcDbEntity
  8
0
100
AcDbLine
 62
2
  6
CONTINUOUS
 10
5.9
 20
0.0
 11
5.9
 21
0.625
  0
LINE
  5
23E
100
AcDbEntity
  8
0
100
AcDbLine
 62
2
  6
CONTINUOUS
 10
5.2
 20
0.0
 11
5.2
 21
0.625
  0
LINE
  5
23F
100
AcDbEntity
  8
0
100
AcDbLine
 62
2
  6
CONTINUOUS
 10
4.1
 20
0.0
 11
4.1
 21
1.25
  0
LINE
  5
240
100
AcDbEntity
  8
0
100
AcDbLine
 62
2
  6
CONTINUOUS
 10
-0.0
 20
0.0
 11
-0.0
 21
1.25
  0
MTEXT
  5
241
100
AcDbEntity
  8
0
100
AcDbMText
 62
2
  6
CONTINUOUS
  7
STANDARD
 71
2
 72
1
 10
6.6
 20
0.325
 30
0.0
 11
1.0
 21
0.0
 31
0.0
 44
0.9
  1
2
 40
0.125
 41
0.2
  0
MTEXT
  5
242
100
AcDbEntity
  8
0
100
AcDbMText
 62
2
  6
CONTINUOUS
  7
STANDARD
 71
2
 72
1
 10
6.15
 20
0.325
 30
0.0
 11
1.0
 21
0.0
 31
0.0
 44
0.9
  1
C
 40
0.125
 41
0.2
  0
MTEXT
  5
243
100
AcDbEntity
  8
0
100
AcDbMText
 62
2
  6
CONTINUOUS
  7
STANDARD
 71
2
 72
1
 10
5.55
 20
0.325
 30
0.0
 11
1.0
 21
0.0
 31
0.0
 44
0.9
  1
1.000
 40
0.125
 41
1.0
  0
MTEXT
  5
244
100
AcDbEntity
  8
0
100
AcDbMText
 62
2
  6
CONTINUOUS
  7
STANDARD
 71
2
 72
1
 10
4.65
 20
0.325
 30
0.0
 11
1.0
 21
0.0
 31
0.0
 44
0.9
  1
Aug-20-19
 40
0.125
 41
1.8
  0
MTEXT
  5
245
100
AcDbEntity
  8
0
100
AcDbMText
 62
2
  6
CONTINUOUS
  7
STANDARD
 71
2
 72
1
 10
2.05
 20
0.4625
 30
0.0
 11
1.0
 21
0.0
 31
0.0
 44
0.9
  1
T-11A Line mount\P(See Technical Data for Body Features)
 40
0.125
 41
7.6
  0
MTEXT
  5
246
100
AcDbEntity
  8
0
100
AcDbMText
 62
2
  6
CONTINUOUS
  7
STANDARD
 71
1
 72
1
 10
6.45
 20
0.5625
 30
0.0
 11
1.0
 21
0.0
 31
0.0
 44
0.9
  1
SHEET
 40
0.06
 41
0.48
  0
MTEXT
  5
247
100
AcDbEntity
  8
0
100
AcDbMText
 62
2
  6
CONTINUOUS
  7
STANDARD
 71
1
 72
1
 10
5.95
 20
0.5625
 30
0.0
 11
1.0
 21
0.0
 31
0.0
 44
0.9
  1
DWG SIZE
 40
0.06
 41
0.768
  0
MTEXT
  5
248
100
AcDbEntity
  8
0
100
AcDbMText
 62
2
  6
CONTINUOUS
  7
STANDARD
 71
1
 72
1
 10
5.25
 20
0.5625
 30
0.0
 11
1.0
 21
0.0
 31
0.0
 44
0.9
  1
SCALE
 40
0.06
 41
0.48
  0
MTEXT
  5
249
100
AcDbEntity
  8
0
100
AcDbMText
 62
2
  6
CONTINUOUS
  7
STANDARD
 71
1
 72
1
 10
4.15
 20
0.5625
 30
0.0
 11
1.0
 21
0.0
 31
0.0
 44
0.9
  1
DATE
 40
0.06
 41
0.384
  0
MTEXT
  5
24A
100
AcDbEntity
  8
0
100
AcDbMText
 62
2
  6
CONTINUOUS
  7
STANDARD
 71
1
 72
1
 10
0.05
 20
0.5625
 30
0.0
 11
1.0
 21
0.0
 31
0.0
 44
0.9
  1
DESCRIPTION
 40
0.06
 41
1.056
  0
MTEXT
  5
24B
100
AcDbEntity
  8
0
100
AcDbMText
 62
2
  6
CONTINUOUS
  7
STANDARD
 71
2
 72
1
 10
5.45
 20
1.0375
 30
0.0
 11
1.0
 21
0.0
 31
0.0
 44
0.9
  1
ALL DIMENSIONS IN INCH\PVIEWS ARE THIRD ANGLE
 40
0.12
 41
4.224
  0
MTEXT
  5
24C
100
AcDbEntity
  8
0
100
AcDbMText
 62
2
  6
CONTINUOUS
  7
STANDARD
 71
2
 72
1
 10
2.05
 20
0.95
 30
0.0
 11
1.0
 21
0.0
 31
0.0
 44
0.9
  1
E6J
 40
0.125
 41
0.6
  0
MTEXT
  5
24D
100
AcDbEntity
  8
0
100
AcDbMText
 62
2
  6
CONTINUOUS
  7
STANDARD
 71
1
 72
1
 10
0.05
 20
1.1875
 30
0.0
 11
1.0
 21
0.0
 31
0.0
 44
0.9
  1
MODEL
 40
0.06
 41
0.48
  0
ENDBLK
  5
24E
100
AcDbEntity
  8
0
  6
BYBLOCK
 62
0
100
AcDbBlockEnd
  0
BLOCK
  5
24F
100
AcDbEntity
  8
0
100
AcDbBlockBegin
  2
*T2
 70
1
 10
0.0
 20
0.0
  3
*T2
  1

  0
LINE
  5
250
100
AcDbEntity
  8
0
100
AcDbLine
 62
2
  6
CONTINUOUS
 10
0.0
 20
0.0
 11
9.055
 21
0.0
  0
LINE
  5
251
100
AcDbEntity
  8
0
100
AcDbLine
 62
2
  6
CONTINUOUS
 10
0.0
 20
0.0
 11
0.0
 21
-2.844
  0
LINE
  5
252
100
AcDbEntity
  8
0
100
AcDbLine
 62
2
  6
CONTINUOUS
 10
0.0
 20
-0.344
 11
9.055
 21
-0.344
  0
LINE
  5
253
100
AcDbEntity
  8
0
100
AcDbLine
 62
2
  6
CONTINUOUS
 10
0.0
 20
-0.594
 11
9.055
 21
-0.594
  0
LINE
  5
254
100
AcDbEntity
  8
0
100
AcDbLine
 62
2
  6
CONTINUOUS
 10
0.0
 20
-0.844
 11
9.055
 21
-0.844
  0
LINE
  5
255
100
AcDbEntity
  8
0
100
AcDbLine
 62
2
  6
CONTINUOUS
 10
0.0
 20
-1.094
 11
9.055
 21
-1.094
  0
LINE
  5
256
100
AcDbEntity
  8
0
100
AcDbLine
 62
2
  6
CONTINUOUS
 10
0.0
 20
-1.344
 11
9.055
 21
-1.344
  0
LINE
  5
257
100
AcDbEntity
  8
0
100
AcDbLine
 62
2
  6
CONTINUOUS
 10
0.0
 20
-1.594
 11
9.055
 21
-1.594
  0
LINE
  5
258
100
AcDbEntity
  8
0
100
AcDbLine
 62
2
  6
CONTINUOUS
 10
0.0
 20
-1.844
 11
9.055
 21
-1.844
  0
LINE
  5
259
100
AcDbEntity
  8
0
100
AcDbLine
 62
2
  6
CONTINUOUS
 10
0.0
 20
-2.094
 11
9.055
 21
-2.094
  0
LINE
  5
25A
100
AcDbEntity
  8
0
100
AcDbLine
 62
2
  6
CONTINUOUS
 10
0.0
 20
-2.344
 11
9.055
 21
-2.344
  0
LINE
  5
25B
100
AcDbEntity
  8
0
100
AcDbLine
 62
2
  6
CONTINUOUS
 10
0.0
 20
-2.594
 11
9.055
 21
-2.594
  0
LINE
  5
25C
100
AcDbEntity
  8
0
100
AcDbLine
 62
2
  6
CONTINUOUS
 10
0.0
 20
-2.844
 11
9.055
 21
-2.844
  0
LINE
  5
25D
100
AcDbEntity
  8
0
100
AcDbLine
 62
2
  6
CONTINUOUS
 10
3.055
 20
0.0
 11
3.055
 21
-2.844
  0
LINE
  5
25E
100
AcDbEntity
  8
0
100
AcDbLine
 62
2
  6
CONTINUOUS
 10
9.055
 20
0.0
 11
9.055
 21
-2.844
  0
MTEXT
  5
25F
100
AcDbEntity
  8
0
100
AcDbMText
 62
2
  6
CONTINUOUS
  7
STANDARD
 71
2
 72
1
 10
1.5275
 20
-0.0995
 30
0.0
 11
1.0
 21
0.0
 31
0.0
 44
0.9
  1
Technical Data
 40
0.145
 41
3.248
  0
MTEXT
  5
260
100
AcDbEntity
  8
0
100
AcDbMText
 62
2
  6
CONTINUOUS
  7
STANDARD
 71
2
 72
1
 10
4.555
 20
-0.0995
 30
0.0
 11
1.0
 21
0.0
 31
0.0
 44
0.9
  1
U.S. Units
 40
0.145
 41
2.32
  0
MTEXT
  5
261
100
AcDbEntity
  8
0
100
AcDbMText
 62
2
  6
CONTINUOUS
  7
STANDARD
 71
2
 72
1
 10
7.555
 20
-0.0995
 30
0.0
 11
1.0
 21
0.0
 31
0.0
 44
0.9
  1
Metric Units
 40
0.145
 41
2.784
  0
MTEXT
  5
262
100
AcDbEntity
  8
0
100
AcDbMText
 62
2
  6
CONTINUOUS
  7
STANDARD
 71
2
 72
1
 10
1.5275
 20
-0.4065
 30
0.0
 11
1.0
 21
0.0
 31
0.0
 44
0.9
  1
Cavity
 40
0.125
 41
1.2
  0
MTEXT
  5
263
100
AcDbEntity
  8
0
100
AcDbMText
 62
2
  6
CONTINUOUS
  7
STANDARD
 71
2
 72
1
 10
6.055
 20
-0.4065
 30
0.0
 11
1.0
 21
0.0
 31
0.0
 44
0.9
  1
T-11A
 40
0.125
 41
1.0
  0
MTEXT
  5
264
100
AcDbEntity
  8
0
100
AcDbMText
 62
2
  6
CONTINUOUS
  7
STANDARD
 71
2
 72
1
 10
1.5275
 20
-0.6565
 30
0.0
 11
1.0
 21
0.0
 31
0.0
 44
0.9
  1
Body Features
 40
0.125
 41
2.6
  0
MTEXT
  5
265
100
AcDbEntity
  8
0
100
AcDbMText
 62
2
  6
CONTINUOUS
  7
STANDARD
 71
2
 72
1
 10
6.055
 20
-0.6565
 30
0.0
 11
1.0
 21
0.0
 31
0.0
 44
0.9
  1
Ninety degree with reverse flow check - sequence
 40
0.125
 41
9.6
  0
MTEXT
  5
266
100
AcDbEntity
  8
0
100
AcDbMText
 62
2
  6
CONTINUOUS
  7
STANDARD
 71
2
 72
1
 10
1.5275
 20
-0.9065
 30
0.0
 11
1.0
 21
0.0
 31
0.0
 44
0.9
  1
Body Type
 40
0.125
 41
1.8
  0
MTEXT
  5
267
100
AcDbEntity
  8
0
100
AcDbMText
 62
2
  6
CONTINUOUS
  7
STANDARD
 71
2
 72
1
 10
6.055
 20
-0.9065
 30
0.0
 11
1.0
 21
0.0
 31
0.0
 44
0.9
  1
Line mount
 40
0.125
 41
2.0
  0
MTEXT
  5
268
100
AcDbEntity
  8
0
100
AcDbMText
 62
2
  6
CONTINUOUS
  7
STANDARD
 71
2
 72
1
 10
1.5275
 20
-1.1565
 30
0.0
 11
1.0
 21
0.0
 31
0.0
 44
0.9
  1
Interface
 40
0.125
 41
1.8
  0
MTEXT
  5
269
100
AcDbEntity
  8
0
100
AcDbMText
 62
2
  6
CONTINUOUS
  7
STANDARD
 71
2
 72
1
 10
6.055
 20
-1.1565
 30
0.0
 11
1.0
 21
0.0
 31
0.0
 44
0.9
  1
None
 40
0.125
 41
0.8
  0
MTEXT
  5
26A
100
AcDbEntity
  8
0
100
AcDbMText
 62
2
  6
CONTINUOUS
  7
STANDARD
 71
2
 72
1
 10
1.5275
 20
-1.4065
 30
0.0
 11
1.0
 21
0.0
 31
0.0
 44
0.9
  1
Open Cavity Quantity
 40
0.125
 41
4.0
  0
MTEXT
  5
26B
100
AcDbEntity
  8
0
100
AcDbMText
 62
2
  6
CONTINUOUS
  7
STANDARD
 71
2
 72
1
 10
6.055
 20
-1.4065
 30
0.0
 11
1.0
 21
0.0
 31
0.0
 44
0.9
  1
1
 40
0.125
 41
0.2
  0
MTEXT
  5
26C
100
AcDbEntity
  8
0
100
AcDbMText
 62
2
  6
CONTINUOUS
  7
STANDARD
 71
2
 72
1
 10
1.5275
 20
-1.6565
 30
0.0
 11
1.0
 21
0.0
 31
0.0
 44
0.9
  1
Weight
 40
0.125
 41
1.2
  0
MTEXT
  5
26D
100
AcDbEntity
  8
0
100
AcDbMText
 62
2
  6
CONTINUOUS
  7
STANDARD
 71
2
 72
1
 10
4.555
 20
-1.6565
 30
0.0
 11
1.0
 21
0.0
 31
0.0
 44
0.9
  1
1.230 lb.
 40
0.125
 41
1.8
  0
MTEXT
  5
26E
100
AcDbEntity
  8
0
100
AcDbMText
 62
2
  6
CONTINUOUS
  7
STANDARD
 71
2
 72
1
 10
7.555
 20
-1.6565
 30
0.0
 11
1.0
 21
0.0
 31
0.0
 44
0.9
  1
0,558 kg.
 40
0.125
 41
1.8
  0
MTEXT
  5
26F
100
AcDbEntity
  8
0
100
AcDbMText
 62
2
  6
CONTINUOUS
  7
STANDARD
 71
2
 72
1
 10
1.5275
 20
-1.9065
 30
0.0
 11
1.0
 21
0.0
 31
0.0
 44
0.9
  1
Check Cracking Pressure
 40
0.125
 41
4.6
  0
MTEXT
  5
270
100
AcDbEntity
  8
0
100
AcDbMText
 62
2
  6
CONTINUOUS
  7
STANDARD
 71
2
 72
1
 10
4.555
 20
-1.9065
 30
0.0
 11
1.0
 21
0.0
 31
0.0
 44
0.9
  1
30 psi
 40
0.125
 41
1.2
  0
MTEXT
  5
271
100
AcDbEntity
  8
0
100
AcDbMText
 62
2
  6
CONTINUOUS
  7
STANDARD
 71
2
 72
1
 10
7.555
 20
-1.9065
 30
0.0
 11
1.0
 21
0.0
 31
0.0
 44
0.9
  1
2 bar
 40
0.125
 41
1.0
  0
MTEXT
  5
272
100
AcDbEntity
  8
0
100
AcDbMText
 62
2
  6
CONTINUOUS
  7
STANDARD
 71
2
 72
1
 10
1.5275
 20
-2.1565
 30
0.0
 11
1.0
 21
0.0
 31
0.0
 44
0.9
  1
Mounting Hole Diameter
 40
0.125
 41
4.4
  0
MTEXT
  5
273
100
AcDbEntity
  8
0
100
AcDbMText
 62
2
  6
CONTINUOUS
  7
STANDARD
 71
2
 72
1
 10
4.555
 20
-2.1565
 30
0.0
 11
1.0
 21
0.0
 31
0.0
 44
0.9
  1
.34 in.
 40
0.125
 41
1.4
  0
MTEXT
  5
274
100
AcDbEntity
  8
0
100
AcDbMText
 62
2
  6
CONTINUOUS
  7
STANDARD
 71
2
 72
1
 10
7.555
 20
-2.1565
 30
0.0
 11
1.0
 21
0.0
 31
0.0
 44
0.9
  1
8.6 mm
 40
0.125
 41
1.2
  0
MTEXT
  5
275
100
AcDbEntity
  8
0
100
AcDbMText
 62
2
  6
CONTINUOUS
  7
STANDARD
 71
2
 72
1
 10
1.5275
 20
-2.4065
 30
0.0
 11
1.0
 21
0.0
 31
0.0
 44
0.9
  1
Mounting Hole Depth
 40
0.125
 41
3.8
  0
MTEXT
  5
276
100
AcDbEntity
  8
0
100
AcDbMText
 62
2
  6
CONTINUOUS
  7
STANDARD
 71
2
 72
1
 10
6.055
 20
-2.4065
 30
0.0
 11
1.0
 21
0.0
 31
0.0
 44
0.9
  1
Through
 40
0.125
 41
1.4
  0
MTEXT
  5
277
100
AcDbEntity
  8
0
100
AcDbMText
 62
2
  6
CONTINUOUS
  7
STANDARD
 71
2
 72
1
 10
1.5275
 20
-2.6565
 30
0.0
 11
1.0
 21
0.0
 31
0.0
 44
0.9
  1
Mounting Hole Quantity
 40
0.125
 41
4.4
  0
MTEXT
  5
278
100
AcDbEntity
  8
0
100
AcDbMText
 62
2
  6
CONTINUOUS
  7
STANDARD
 71
2
 72
1
 10
6.055
 20
-2.6565
 30
0.0
 11
1.0
 21
0.0
 31
0.0
 44
0.9
  1
2
 40
0.125
 41
0.2
  0
ENDBLK
  5
279
100
AcDbEntity
  8
0
  6
BYBLOCK
 62
0
100
AcDbBlockEnd
  0
BLOCK
  5
27A
100
AcDbEntity
  8
0
100
AcDbBlockBegin
  2
*T3
 70
1
 10
0.0
 20
0.0
  3
*T3
  1

  0
LINE
  5
27B
100
AcDbEntity
  8
0
100
AcDbLine
 62
2
  6
CONTINUOUS
 10
0.0
 20
0.0
 11
4.6
 21
0.0
  0
LINE
  5
27C
100
AcDbEntity
  8
0
100
AcDbLine
 62
2
  6
CONTINUOUS
 10
0.0
 20
0.0
 11
0.0
 21
-1.43775
  0
LINE
  5
27D
100
AcDbEntity
  8
0
100
AcDbLine
 62
2
  6
CONTINUOUS
 10
0.0
 20
-0.34375
 11
4.6
 21
-0.34375
  0
LINE
  5
27E
100
AcDbEntity
  8
0
100
AcDbLine
 62
2
  6
CONTINUOUS
 10
0.0
 20
-0.68775
 11
4.6
 21
-0.68775
  0
LINE
  5
27F
100
AcDbEntity
  8
0
100
AcDbLine
 62
2
  6
CONTINUOUS
 10
0.0
 20
-0.93775
 11
4.6
 21
-0.93775
  0
LINE
  5
280
100
AcDbEntity
  8
0
100
AcDbLine
 62
2
  6
CONTINUOUS
 10
0.0
 20
-1.18775
 11
4.6
 21
-1.18775
  0
LINE
  5
281
100
AcDbEntity
  8
0
100
AcDbLine
 62
2
  6
CONTINUOUS
 10
0.0
 20
-1.43775
 11
4.6
 21
-1.43775
  0
LINE
  5
282
100
AcDbEntity
  8
0
100
AcDbLine
 62
2
  6
CONTINUOUS
 10
1.3
 20
-0.34375
 11
1.3
 21
-1.43775
  0
LINE
  5
283
100
AcDbEntity
  8
0
100
AcDbLine
 62
2
  6
CONTINUOUS
 10
3.3
 20
-0.34375
 11
3.3
 21
-1.43775
  0
LINE
  5
284
100
AcDbEntity
  8
0
100
AcDbLine
 62
2
  6
CONTINUOUS
 10
4.6
 20
0.0
 11
4.6
 21
-1.43775
  0
MTEXT
  5
285
100
AcDbEntity
  8
0
100
AcDbMText
 62
2
  6
CONTINUOUS
  7
STANDARD
 71
2
 72
1
 10
2.3
 20
-0.099375
 30
0.0
 11
1.0
 21
0.0
 31
0.0
 44
0.9
  1
Port Headings
 40
0.145
 41
3.016
  0
MTEXT
  5
286
100
AcDbEntity
  8
0
100
AcDbMText
 62
2
  6
CONTINUOUS
  7
STANDARD
 71
2
 72
1
 10
0.65
 20
-0.44325
 30
0.0
 11
1.0
 21
0.0
 31
0.0
 44
0.9
  1
Product
 40
0.145
 41
1.624
  0
MTEXT
  5
287
100
AcDbEntity
  8
0
100
AcDbMText
 62
2
  6
CONTINUOUS
  7
STANDARD
 71
2
 72
1
 10
2.3
 20
-0.44325
 30
0.0
 11
1.0
 21
0.0
 31
0.0
 44
0.9
  1
Port
 40
0.145
 41
0.928
  0
MTEXT
  5
288
100
AcDbEntity
  8
0
100
AcDbMText
 62
2
  6
CONTINUOUS
  7
STANDARD
 71
2
 72
1
 10
3.95
 20
-0.44325
 30
0.0
 11
1.0
 21
0.0
 31
0.0
 44
0.9
  1
Size
 40
0.145
 41
0.928
  0
MTEXT
  5
289
100
AcDbEntity
  8
0
100
AcDbMText
 62
2
  6
CONTINUOUS
  7
STANDARD
 71
2
 72
1
 10
0.65
 20
-0.75025
 30
0.0
 11
1.0
 21
0.0
 31
0.0
 44
0.9
  1
E6J
 40
0.125
 41
0.6
  0
MTEXT
  5
28A
100
AcDbEntity
  8
0
100
AcDbMText
 62
2
  6
CONTINUOUS
  7
STANDARD
 71
2
 72
1
 10
2.3
 20
-0.75025
 30
0.0
 11
1.0
 21
0.0
 31
0.0
 44
0.9
  1
Ports 1 &  2
 40
0.125
 41
2.4
  0
MTEXT
  5
28B
100
AcDbEntity
  8
0
100
AcDbMText
 62
2
  6
CONTINUOUS
  7
STANDARD
 71
2
 72
1
 10
3.95
 20
-0.75025
 30
0.0
 11
1.0
 21
0.0
 31
0.0
 44
0.9
  1
SAE 8
 40
0.125
 41
1.0
  0
MTEXT
  5
28C
100
AcDbEntity
  8
0
100
AcDbMText
 62
2
  6
CONTINUOUS
  7
STANDARD
 71
2
 72
1
 10
0.65
 20
-1.00025
 30
0.0
 11
1.0
 21
0.0
 31
0.0
 44
0.9
  1
E6J
 40
0.125
 41
0.6
  0
MTEXT
  5
28D
100
AcDbEntity
  8
0
100
AcDbMText
 62
2
  6
CONTINUOUS
  7
STANDARD
 71
2
 72
1
 10
2.3
 20
-1.00025
 30
0.0
 11
1.0
 21
0.0
 31
0.0
 44
0.9
  1
Port 3
 40
0.125
 41
1.2
  0
MTEXT
  5
28E
100
AcDbEntity
  8
0
100
AcDbMText
 62
2
  6
CONTINUOUS
  7
STANDARD
 71
2
 72
1
 10
3.95
 20
-1.00025
 30
0.0
 11
1.0
 21
0.0
 31
0.0
 44
0.9
  1
SAE 6
 40
0.125
 41
1.0
  0
MTEXT
  5
28F
100
AcDbEntity
  8
0
100
AcDbMText
 62
2
  6
CONTINUOUS
  7
STANDARD
 71
2
 72
1
 10
0.65
 20
-1.25025
 30
0.0
 11
1.0
 21
0.0
 31
0.0
 44
0.9
  1
E6J
 40
0.125
 41
0.6
  0
MTEXT
  5
290
100
AcDbEntity
  8
0
100
AcDbMText
 62
2
  6
CONTINUOUS
  7
STANDARD
 71
2
 72
1
 10
2.3
 20
-1.25025
 30
0.0
 11
1.0
 21
0.0
 31
0.0
 44
0.9
  1
Gage Port
 40
0.125
 41
1.8
  0
MTEXT
  5
291
100
AcDbEntity
  8
0
100
AcDbMText
 62
2
  6
CONTINUOUS
  7
STANDARD
 71
2
 72
1
 10
3.95
 20
-1.25025
 30
0.0
 11
1.0
 21
0.0
 31
0.0
 44
0.9
  1
1/4" NPTF
 40
0.125
 41
1.8
  0
ENDBLK
  5
292
100
AcDbEntity
  8
0
  6
BYBLOCK
 62
0
100
AcDbBlockEnd
  0
ENDSEC
  0
SECTION
  2
ENTITIES
  0
IMAGE
  5
293
100
AcDbEntity
  8
0
100
AcDbRasterImage
 62
7
  6
CONTINUOUS
 10
19.2297077316
 20
0.3094318264
 30
0.0
 11
0.0066666667
 21
0.0
 31
0.0
 12
0.0
 22
0.0066666667
 32
0.0
 13
369.0
 23
92.0
340
       392
 70
9
280
0
281
50
282
50
283
0
360
       38C
 71
1
 91
2
 14
-0.5
 24
-0.5
 14
368.5
 24
91.5
  0
INSERT
  5
294
100
AcDbEntity
  8
0
100
AcDbBlockReference
 62
2
  6
CONTINUOUS
  2
SUN_FIRST_THIRD_ANGLE_BL0
 10
20.4816717061
 20
1.2289683772
  0
ACAD_TABLE
  5
295
100
AcDbEntity
  8
0
 62
2
  6
CONTINUOUS
100
AcDbBlockReference
  2
*T1
 10
12.42375
 20
0.30125
 30
0.0
100
AcDbTable
342
       394
343
20F
 11
1.0
 21
0.0
 31
0.0
 90
6
 91
4
 92
6
 93
20
 94
0
 95
0
 96
0
 70
1
 41
0.0
141
0.525
141
0.1
141
0.525
141
0.1
142
4.1
142
1.1
142
0.7
142
0.5
142
0.4
142
2.475
171
1
172
0
173
0
174
0
175
1
176
1
 91
33
178
0
145
0.0
301
CELL_VALUE
 90
4
  1
T-11A Line mount\P(See Technical Data for Body Features)
304
ACVALUE_END
170
2
140
0.125
171
1
172
0
173
0
174
0
175
1
176
1
 91
33
178
0
145
0.0
301
CELL_VALUE
 90
4
  1
Aug-20-19
304
ACVALUE_END
170
5
140
0.125
171
1
172
0
173
0
174
0
175
1
176
1
 91
33
178
0
145
0.0
301
CELL_VALUE
 90
4
  1
1.000
304
ACVALUE_END
170
5
140
0.125
171
1
172
0
173
0
174
0
175
1
176
1
 91
33
178
0
145
0.0
301
CELL_VALUE
 90
4
  1
C
304
ACVALUE_END
170
5
140
0.125
171
1
172
0
173
0
174
0
175
1
176
1
 91
33
178
0
145
0.0
301
CELL_VALUE
 90
4
  1
2
304
ACVALUE_END
170
5
140
0.125
171
1
172
0
173
0
174
0
175
1
176
1
 91
33
178
0
145
0.0
301
CELL_VALUE
 90
4
  1
 
304
ACVALUE_END
170
1
140
0.125
171
1
172
0
173
0
174
0
175
1
176
1
 91
33
178
0
145
0.0
301
CELL_VALUE
 90
4
  1
DESCRIPTION
304
ACVALUE_END
170
1
140
0.06
171
1
172
0
173
0
174
0
175
1
176
1
 91
33
178
0
145
0.0
301
CELL_VALUE
 90
4
  1
DATE
304
ACVALUE_END
170
1
140
0.06
171
1
172
0
173
0
174
0
175
1
176
1
 91
33
178
0
145
0.0
301
CELL_VALUE
 90
4
  1
SCALE
304
ACVALUE_END
170
1
140
0.06
171
1
172
0
173
0
174
0
175
1
176
1
 91
33
178
0
145
0.0
301
CELL_VALUE
 90
4
  1
DWG SIZE
304
ACVALUE_END
170
1
140
0.06
171
1
172
0
173
0
174
0
175
1
176
1
 91
33
178
0
145
0.0
301
CELL_VALUE
 90
4
  1
SHEET
304
ACVALUE_END
170
1
140
0.06
171
1
172
0
173
0
174
0
175
1
176
1
 91
33
178
0
145
0.0
301
CELL_VALUE
 90
4
  1
 
304
ACVALUE_END
170
1
140
0.125
171
1
172
0
173
0
174
0
175
1
176
1
 91
33
178
0
145
0.0
301
CELL_VALUE
 90
4
  1
E6J
304
ACVALUE_END
170
5
140
0.125
171
1
172
0
173
0
174
0
175
4
176
1
 91
33
178
0
145
0.0
301
CELL_VALUE
 90
4
  1
ALL DIMENSIONS IN INCH\PVIEWS ARE THIRD ANGLE
304
ACVALUE_END
170
5
140
0.12
171
1
172
0
173
1
174
0
175
1
176
1
 91
1
178
0
145
0.0
170
1
171
1
172
0
173
1
174
0
175
1
176
1
 91
1
178
0
145
0.0
170
1
171
1
172
0
173
1
174
0
175
1
176
1
 91
1
178
0
145
0.0
170
5
171
1
172
0
173
0
174
0
175
1
176
1
 91
33
178
0
145
0.0
301
CELL_VALUE
 90
4
  1
 
304
ACVALUE_END
170
1
140
0.125
171
1
172
0
173
0
174
0
175
1
176
1
 91
33
178
0
145
0.0
301
CELL_VALUE
 90
4
  1
MODEL
304
ACVALUE_END
170
1
140
0.06
171
1
172
0
173
0
174
0
175
1
176
1
 91
33
178
0
145
0.0
301
CELL_VALUE
 90
4
  1
 
304
ACVALUE_END
170
1
140
0.125
171
1
172
0
173
0
174
0
175
1
176
1
 91
33
178
0
145
0.0
301
CELL_VALUE
 90
4
  1
 
304
ACVALUE_END
170
1
140
0.125
171
1
172
0
173
0
174
0
175
1
176
1
 91
33
178
0
145
0.0
301
CELL_VALUE
 90
4
  1
 
304
ACVALUE_END
170
1
140
0.125
171
1
172
0
173
0
174
0
175
1
176
1
 91
33
178
0
145
0.0
301
CELL_VALUE
 90
4
  1
 
304
ACVALUE_END
170
1
140
0.125
171
1
172
0
173
0
174
0
175
1
176
1
 91
33
178
0
145
0.0
301
CELL_VALUE
 90
4
  1
 
304
ACVALUE_END
170
1
140
0.125
  0
ACAD_TABLE
  5
296
100
AcDbEntity
  8
0
 62
2
  6
CONTINUOUS
100
AcDbBlockReference
  2
*T2
 10
12.4237499994
 20
16.47875
 30
0.0
100
AcDbTable
342
       393
343
210
 11
1.0
 21
0.0
 31
0.0
 90
22
 91
11
 92
3
 93
16
 94
0
 95
0
 96
0
 41
0.028
141
0.344
141
0.25
141
0.25
141
0.25
141
0.25
141
0.25
141
0.25
141
0.25
141
0.25
141
0.25
141
0.25
142
3.055
142
3.0
142
3.0
171
1
172
0
173
0
174
0
175
1
176
1
 91
33
178
0
145
0.0
301
CELL_VALUE
 90
4
  1
Technical Data
304
ACVALUE_END
170
5
140
0.145
171
1
172
0
173
0
174
0
175
1
176
1
 91
33
178
0
145
0.0
301
CELL_VALUE
 90
4
  1
U.S. Units
304
ACVALUE_END
170
5
140
0.145
171
1
172
0
173
0
174
0
175
1
176
1
 91
33
178
0
145
0.0
301
CELL_VALUE
 90
4
  1
Metric Units
304
ACVALUE_END
170
5
140
0.145
171
1
172
0
173
0
174
0
175
1
176
1
 91
33
178
0
145
0.0
301
CELL_VALUE
 90
4
  1
Cavity
304
ACVALUE_END
170
5
140
0.125
171
1
172
0
173
0
174
0
175
2
176
1
 91
33
178
0
145
0.0
301
CELL_VALUE
 90
4
  1
T-11A
304
ACVALUE_END
170
5
140
0.125
171
1
172
0
173
1
174
0
175
1
176
1
 91
1
178
0
145
0.0
170
1
171
1
172
0
173
0
174
0
175
1
176
1
 91
33
178
0
145
0.0
301
CELL_VALUE
 90
4
  1
Body Features
304
ACVALUE_END
170
5
140
0.125
171
1
172
0
173
0
174
0
175
2
176
1
 91
33
178
0
145
0.0
301
CELL_VALUE
 90
4
  1
Ninety degree with reverse flow check - sequence
304
ACVALUE_END
170
5
140
0.125
171
1
172
0
173
1
174
0
175
1
176
1
 91
1
178
0
145
0.0
170
1
171
1
172
0
173
0
174
0
175
1
176
1
 91
33
178
0
145
0.0
301
CELL_VALUE
 90
4
  1
Body Type
304
ACVALUE_END
170
5
140
0.125
171
1
172
0
173
0
174
0
175
2
176
1
 91
33
178
0
145
0.0
301
CELL_VALUE
 90
4
  1
Line mount
304
ACVALUE_END
170
5
140
0.125
171
1
172
0
173
1
174
0
175
1
176
1
 91
1
178
0
145
0.0
170
1
171
1
172
0
173
0
174
0
175
1
176
1
 91
33
178
0
145
0.0
301
CELL_VALUE
 90
4
  1
Interface
304
ACVALUE_END
170
5
140
0.125
171
1
172
0
173
0
174
0
175
2
176
1
 91
33
178
0
145
0.0
301
CELL_VALUE
 90
4
  1
None
304
ACVALUE_END
170
5
140
0.125
171
1
172
0
173
1
174
0
175
1
176
1
 91
1
178
0
145
0.0
170
1
171
1
172
0
173
0
174
0
175
1
176
1
 91
33
178
0
145
0.0
301
CELL_VALUE
 90
4
  1
Open Cavity Quantity
304
ACVALUE_END
170
5
140
0.125
171
1
172
0
173
0
174
0
175
2
176
1
 91
33
178
0
145
0.0
301
CELL_VALUE
 90
4
  1
1
304
ACVALUE_END
170
5
140
0.125
171
1
172
0
173
1
174
0
175
1
176
1
 91
1
178
0
145
0.0
170
1
171
1
172
0
173
0
174
0
175
1
176
1
 91
33
178
0
145
0.0
301
CELL_VALUE
 90
4
  1
Weight
304
ACVALUE_END
170
5
140
0.125
171
1
172
0
173
0
174
0
175
1
176
1
 91
33
178
0
145
0.0
301
CELL_VALUE
 90
4
  1
1.230 lb.
304
ACVALUE_END
170
5
140
0.125
171
1
172
0
173
0
174
0
175
1
176
1
 91
33
178
0
145
0.0
301
CELL_VALUE
 90
4
  1
0,558 kg.
304
ACVALUE_END
170
5
140
0.125
171
1
172
0
173
0
174
0
175
1
176
1
 91
33
178
0
145
0.0
301
CELL_VALUE
 90
4
  1
Check Cracking Pressure
304
ACVALUE_END
170
5
140
0.125
171
1
172
0
173
0
174
0
175
1
176
1
 91
33
178
0
145
0.0
301
CELL_VALUE
 90
4
  1
30 psi
304
ACVALUE_END
170
5
140
0.125
171
1
172
0
173
0
174
0
175
1
176
1
 91
33
178
0
145
0.0
301
CELL_VALUE
 90
4
  1
2 bar
304
ACVALUE_END
170
5
140
0.125
171
1
172
0
173
0
174
0
175
1
176
1
 91
33
178
0
145
0.0
301
CELL_VALUE
 90
4
  1
Mounting Hole Diameter
304
ACVALUE_END
170
5
140
0.125
171
1
172
0
173
0
174
0
175
1
176
1
 91
33
178
0
145
0.0
301
CELL_VALUE
 90
4
  1
.34 in.
304
ACVALUE_END
170
5
140
0.125
171
1
172
0
173
0
174
0
175
1
176
1
 91
33
178
0
145
0.0
301
CELL_VALUE
 90
4
  1
8.6 mm
304
ACVALUE_END
170
5
140
0.125
171
1
172
0
173
0
174
0
175
1
176
1
 91
33
178
0
145
0.0
301
CELL_VALUE
 90
4
  1
Mounting Hole Depth
304
ACVALUE_END
170
5
140
0.125
171
1
172
0
173
0
174
0
175
2
176
1
 91
33
178
0
145
0.0
301
CELL_VALUE
 90
4
  1
Through
304
ACVALUE_END
170
5
140
0.125
171
1
172
0
173
1
174
0
175
1
176
1
 91
1
178
0
145
0.0
170
1
171
1
172
0
173
0
174
0
175
1
176
1
 91
33
178
0
145
0.0
301
CELL_VALUE
 90
4
  1
Mounting Hole Quantity
304
ACVALUE_END
170
5
140
0.125
171
1
172
0
173
0
174
0
175
2
176
1
 91
33
178
0
145
0.0
301
CELL_VALUE
 90
4
  1
2
304
ACVALUE_END
170
5
140
0.125
171
1
172
0
173
1
174
0
175
1
176
1
 91
1
178
0
145
0.0
170
1
  0
ACAD_TABLE
  5
297
100
AcDbEntity
  8
0
 62
2
  6
CONTINUOUS
100
AcDbBlockReference
  2
*T3
 10
0.52125
 20
1.959
 30
0.0
100
AcDbTable
342
       393
343
211
 11
1.0
 21
0.0
 31
0.0
 90
22
 91
5
 92
3
 93
16
 94
0
 95
0
 96
0
 41
0.05
141
0.34375
141
0.344
141
0.25
141
0.25
141
0.25
142
1.3
142
2.0
142
1.3
171
1
172
0
173
0
174
0
175
3
176
1
 91
33
178
0
145
0.0
301
CELL_VALUE
 90
4
  1
Port Headings
304
ACVALUE_END
170
5
140
0.145
171
1
172
0
173
1
174
0
175
1
176
1
 91
1
178
0
145
0.0
170
1
171
1
172
0
173
1
174
0
175
1
176
1
 91
1
178
0
145
0.0
170
1
171
1
172
0
173
0
174
0
175
1
176
1
 91
33
178
0
145
0.0
301
CELL_VALUE
 90
4
  1
Product
304
ACVALUE_END
170
5
140
0.145
171
1
172
0
173
0
174
0
175
1
176
1
 91
33
178
0
145
0.0
301
CELL_VALUE
 90
4
  1
Port
304
ACVALUE_END
170
5
140
0.145
171
1
172
0
173
0
174
0
175
1
176
1
 91
33
178
0
145
0.0
301
CELL_VALUE
 90
4
  1
Size
304
ACVALUE_END
170
5
140
0.145
171
1
172
0
173
0
174
0
175
1
176
1
 91
33
178
0
145
0.0
301
CELL_VALUE
 90
4
  1
E6J
304
ACVALUE_END
170
5
140
0.125
171
1
172
0
173
0
174
0
175
1
176
1
 91
33
178
0
145
0.0
301
CELL_VALUE
 90
4
  1
Ports 1 &  2
304
ACVALUE_END
170
5
140
0.125
171
1
172
0
173
0
174
0
175
1
176
1
 91
33
178
0
145
0.0
301
CELL_VALUE
 90
4
  1
SAE 8
304
ACVALUE_END
170
5
140
0.125
171
1
172
0
173
0
174
0
175
1
176
1
 91
33
178
0
145
0.0
301
CELL_VALUE
 90
4
  1
E6J
304
ACVALUE_END
170
5
140
0.125
171
1
172
0
173
0
174
0
175
1
176
1
 91
33
178
0
145
0.0
301
CELL_VALUE
 90
4
  1
Port 3
304
ACVALUE_END
170
5
140
0.125
171
1
172
0
173
0
174
0
175
1
176
1
 91
33
178
0
145
0.0
301
CELL_VALUE
 90
4
  1
SAE 6
304
ACVALUE_END
170
5
140
0.125
171
1
172
0
173
0
174
0
175
1
176
1
 91
33
178
0
145
0.0
301
CELL_VALUE
 90
4
  1
E6J
304
ACVALUE_END
170
5
140
0.125
171
1
172
0
173
0
174
0
175
1
176
1
 91
33
178
0
145
0.0
301
CELL_VALUE
 90
4
  1
Gage Port
304
ACVALUE_END
170
5
140
0.125
171
1
172
0
173
0
174
0
175
1
176
1
 91
33
178
0
145
0.0
301
CELL_VALUE
 90
4
  1
1/4" NPTF
304
ACVALUE_END
170
5
140
0.125
  0
MTEXT
  5
298
100
AcDbEntity
  8
0
100
AcDbMText
 62
2
  6
CONTINUOUS
  7
STANDARD
 71
1
 72
1
 10
0.52125
 20
5.75995
 30
0.0
 11
1.0
 21
0.0
 31
0.0
 44
0.6
  3
Notes\P \P1. Important: Carefully consider\P   the maximum system pressure. The\P   pressure rating of the manifold is\P   dependent on the manifold material,\P   with the port type/size a secondary\P   consideration. Manifolds\P   constructed of alu
  1
minum are not\P   rated for pressures higher than\P   3000 psi (210 bar), regardless of\P   the port type/size specified.
 40
0.1
 41
3.04
  0
LINE
  5
299
100
AcDbEntity
  8
0
100
AcDbLine
 62
7
  6
CONTINUOUS
 10
0.30125
 20
0.30125
 11
0.30125
 21
16.69875
  0
LINE
  5
29A
100
AcDbEntity
  8
0
100
AcDbLine
 62
7
  6
CONTINUOUS
 10
0.30125
 20
0.30125
 11
21.69875
 21
0.30125
  0
LINE
  5
29B
100
AcDbEntity
  8
0
100
AcDbLine
 62
7
  6
CONTINUOUS
 10
0.30125
 20
16.69875
 11
21.69875
 21
16.69875
  0
LINE
  5
29C
100
AcDbEntity
  8
0
100
AcDbLine
 62
7
  6
CONTINUOUS
 10
21.69875
 20
0.30125
 11
21.69875
 21
16.69875
  0
LINE
  5
29D
100
AcDbEntity
  8
0
100
AcDbLine
 62
7
  6
CONTINUOUS
 10
9.7128729444
 20
10.7425653472
 11
9.389349405
 21
10.4300655866
  0
LINE
  5
29E
100
AcDbEntity
  8
0
100
AcDbLine
 62
4
  6
CONTINUOUS
 10
9.5921939314
 20
9.9591153611
 11
9.5849494874
 21
9.9499585087
  0
LINE
  5
29F
100
AcDbEntity
  8
0
100
AcDbLine
 62
4
  6
CONTINUOUS
 10
9.5414828236
 20
9.9819507079
 11
9.5559717116
 21
9.9906051564
  0
LINE
  5
2A0
100
AcDbEntity
  8
0
100
AcDbLine
 62
4
  6
CONTINUOUS
 10
9.5994383754
 20
9.9006574055
 11
9.5849494874
 21
9.8823436963
  0
LINE
  5
2A1
100
AcDbEntity
  8
0
100
AcDbLine
 62
4
  6
CONTINUOUS
 10
9.5849494874
 20
9.9499585087
 11
9.5704605995
 21
9.9413040532
  0
LINE
  5
2A2
100
AcDbEntity
  8
0
100
AcDbLine
 62
4
  6
CONTINUOUS
 10
9.5849494874
 20
9.8823436963
 11
9.5704605995
 21
9.8736892452
  0
LINE
  5
2A3
100
AcDbEntity
  8
0
100
AcDbLine
 62
7
  6
CONTINUOUS
 10
11.2064931483
 20
6.3251394322
 11
11.2228173394
 21
6.3170755943
  0
LINE
  5
2A4
100
AcDbEntity
  8
0
100
AcDbLine
 62
7
  6
CONTINUOUS
 10
9.389349405
 20
6.9285842588
 11
12.2871270556
 21
6.7276226962
  0
LINE
  5
2A5
100
AcDbEntity
  8
0
100
AcDbLine
 62
7
  6
CONTINUOUS
 10
9.389349405
 20
6.9285842588
 11
9.389349405
 21
10.4300655866
  0
LINE
  5
2A6
100
AcDbEntity
  8
0
100
AcDbLine
 62
4
  6
CONTINUOUS
 10
9.5921939314
 20
9.9687746174
 11
9.5921939314
 21
9.9591153611
  0
LINE
  5
2A7
100
AcDbEntity
  8
0
100
AcDbLine
 62
4
  6
CONTINUOUS
 10
9.5921939314
 20
7.9210117024
 11
9.5921939314
 21
7.805100599
  0
LINE
  5
2A8
100
AcDbEntity
  8
0
100
AcDbLine
 62
4
  6
CONTINUOUS
 10
9.5994383754
 20
9.9103166652
 11
9.5994383754
 21
9.9006574055
  0
LINE
  5
2A9
100
AcDbEntity
  8
0
100
AcDbLine
 62
4
  6
CONTINUOUS
 10
11.1748634168
 20
7.3785183989
 11
11.1603745288
 21
7.3795232067
  0
LINE
  5
2AA
100
AcDbEntity
  8
0
100
AcDbLine
 62
4
  6
CONTINUOUS
 10
11.1676189728
 20
7.4369763545
 11
11.1965967487
 21
7.4349667389
  0
LINE
  5
2AB
100
AcDbEntity
  8
0
100
AcDbLine
 62
4
  6
CONTINUOUS
 10
11.1603745288
 20
7.4954343101
 11
11.1748634168
 21
7.4944295023
  0
LINE
  5
2AC
100
AcDbEntity
  8
0
100
AcDbLine
 62
4
  6
CONTINUOUS
 10
10.2959398651
 20
8.959701323
 11
10.3124985949
 21
8.9751116993
  0
LINE
  5
2AD
100
AcDbEntity
  8
0
100
AcDbLine
 62
4
  6
CONTINUOUS
 10
10.3373366887
 20
8.8574780682
 11
10.3538954168
 21
8.8728884463
  0
LINE
  5
2AE
100
AcDbEntity
  8
0
100
AcDbLine
 62
4
  6
CONTINUOUS
 10
11.1603745288
 20
7.3795232067
 11
11.1458856409
 21
7.3901872734
  0
LINE
  5
2AF
100
AcDbEntity
  8
0
100
AcDbLine
 62
4
  6
CONTINUOUS
 10
10.2959398651
 20
8.9431425949
 11
10.2959398651
 21
8.959701323
  0
LINE
  5
2B0
100
AcDbEntity
  8
0
100
AcDbLine
 62
4
  6
CONTINUOUS
 10
10.3538954168
 20
8.8728884463
 11
10.3538954168
 21
8.8894471761
  0
LINE
  5
2B1
100
AcDbEntity
  8
0
100
AcDbLine
 62
4
  6
CONTINUOUS
 10
10.387012873
 20
8.9699441165
 11
10.387012873
 21
8.8705917429
  0
LINE
  5
2B2
100
AcDbEntity
  8
0
100
AcDbLine
 62
4
  6
CONTINUOUS
 10
10.4228901335
 20
8.2603982891
 11
10.4228901335
 21
8.3763093926
  0
LINE
  5
2B3
100
AcDbEntity
  8
0
100
AcDbLine
 62
4
  6
CONTINUOUS
 10
10.4449684247
 20
8.8665725117
 11
10.4449684247
 21
8.9659248854
  0
LINE
  5
2B4
100
AcDbEntity
  8
0
100
AcDbLine
 62
4
  6
CONTINUOUS
 10
10.4284097035
 20
8.8511621332
 11
10.4449684247
 21
8.8665725117
  0
LINE
  5
2B5
100
AcDbEntity
  8
0
100
AcDbLine
 62
4
  6
CONTINUOUS
 10
11.1748634168
 20
7.4944295023
 11
11.1893523047
 21
7.4837654382
  0
LINE
  5
2B6
100
AcDbEntity
  8
0
100
AcDbLine
 62
4
  6
CONTINUOUS
 10
10.4780858808
 20
8.8477170786
 11
10.4780858808
 21
8.963628182
  0
LINE
  5
2B7
100
AcDbEntity
  8
0
100
AcDbLine
 62
4
  6
CONTINUOUS
 10
10.4808456783
 20
8.3557314338
 11
10.4808456783
 21
8.2729377883
  0
LINE
  5
2B8
100
AcDbEntity
  8
0
100
AcDbLine
 62
4
  6
CONTINUOUS
 10
10.5360414326
 20
8.8436978474
 11
10.5360414326
 21
8.9596089508
  0
LINE
  5
2B9
100
AcDbEntity
  8
0
100
AcDbLine
 62
4
  6
CONTINUOUS
 10
10.5277620779
 20
8.2531253951
 11
10.5608795341
 21
8.3667397951
  0
LINE
  5
2BA
100
AcDbEntity
  8
0
100
AcDbLine
 62
7
  6
CONTINUOUS
 10
12.2871270556
 20
10.229104024
 11
12.610650595
 21
10.5416037846
  0
LINE
  5
2BB
100
AcDbEntity
  8
0
100
AcDbLine
 62
4
  6
CONTINUOUS
 10
10.8147800529
 20
8.8988815382
 11
10.8313387741
 21
8.9060125545
  0
LINE
  5
2BC
100
AcDbEntity
  8
0
100
AcDbLine
 62
4
  6
CONTINUOUS
 10
10.3566552143
 20
8.3146678841
 11
10.4008118259
 21
8.2895273068
  0
LINE
  5
2BD
100
AcDbEntity
  8
0
100
AcDbLine
 62
4
  6
CONTINUOUS
 10
10.4642869502
 20
8.3734385136
 11
10.4808456783
 21
8.3557314338
  0
LINE
  5
2BE
100
AcDbEntity
  8
0
100
AcDbLine
 62
4
  6
CONTINUOUS
 10
11.1458856409
 20
7.3901872734
 11
11.131396753
 21
7.4105105981
  0
LINE
  5
2BF
100
AcDbEntity
  8
0
100
AcDbLine
 62
4
  6
CONTINUOUS
 10
11.1893523047
 20
7.4837654382
 11
11.1965967487
 21
7.4736037711
  0
LINE
  5
2C0
100
AcDbEntity
  8
0
100
AcDbLine
 62
4
  6
CONTINUOUS
 10
9.5414828236
 20
9.8853581197
 11
9.5342383797
 21
9.8955197825
  0
LINE
  5
2C1
100
AcDbEntity
  8
0
100
AcDbLine
 62
4
  6
CONTINUOUS
 10
10.5608795341
 20
8.3667397951
 11
10.593997004
 21
8.2485319874
  0
LINE
  5
2C2
100
AcDbEntity
  8
0
100
AcDbLine
 62
4
  6
CONTINUOUS
 10
10.6602318966
 20
8.8350852095
 11
10.6602318966
 21
8.9509963129
  0
LINE
  5
2C3
100
AcDbEntity
  8
0
100
AcDbLine
 62
4
  6
CONTINUOUS
 10
10.6602319163
 20
8.2439385806
 11
10.6602319163
 21
8.359849684
  0
LINE
  5
2C4
100
AcDbEntity
  8
0
100
AcDbLine
 62
4
  6
CONTINUOUS
 10
10.7099080877
 20
8.9061544337
 11
10.7099080877
 21
8.8316401539
  0
LINE
  5
2C5
100
AcDbEntity
  8
0
100
AcDbLine
 62
4
  6
CONTINUOUS
 10
10.7264668286
 20
8.2393451738
 11
10.7264668286
 21
8.3552562773
  0
LINE
  5
2C6
100
AcDbEntity
  8
0
100
AcDbLine
 62
4
  6
CONTINUOUS
 10
10.7306065012
 20
8.4940625141
 11
10.7306065012
 21
8.6099736175
  0
LINE
  5
2C7
100
AcDbEntity
  8
0
100
AcDbLine
 62
4
  6
CONTINUOUS
 10
10.8134001485
 20
8.5462763069
 11
10.8134001485
 21
8.504879485
  0
LINE
  5
2C8
100
AcDbEntity
  8
0
100
AcDbLine
 62
4
  6
CONTINUOUS
 10
10.8147800529
 20
8.8326466233
 11
10.8147800529
 21
8.8988815382
  0
LINE
  5
2C9
100
AcDbEntity
  8
0
100
AcDbLine
 62
4
  6
CONTINUOUS
 10
10.7595842788
 20
8.8005972165
 11
10.7927017212
 21
8.9086920432
  0
LINE
  5
2CA
100
AcDbEntity
  8
0
100
AcDbLine
 62
4
  6
CONTINUOUS
 10
10.8299588765
 20
8.5782454113
 11
10.8134001485
 21
8.5462763069
  0
LINE
  5
2CB
100
AcDbEntity
  8
0
100
AcDbLine
 62
4
  6
CONTINUOUS
 10
10.4808456783
 20
8.2729377883
 11
10.4642869502
 21
8.2575274101
  0
LINE
  5
2CC
100
AcDbEntity
  8
0
100
AcDbLine
 62
4
  6
CONTINUOUS
 10
10.8547969652
 20
8.6013609796
 11
10.8299588765
 21
8.5782454113
  0
LINE
  5
2CD
100
AcDbEntity
  8
0
100
AcDbLine
 62
4
  6
CONTINUOUS
 10
10.9720879869
 20
8.8465753758
 11
10.988646708
 21
8.8537063886
  0
LINE
  5
2CE
100
AcDbEntity
  8
0
100
AcDbLine
 62
4
  6
CONTINUOUS
 10
11.1293958854
 20
8.2114019488
 11
11.0879990548
 21
8.2142728288
  0
LINE
  5
2CF
100
AcDbEntity
  8
0
100
AcDbLine
 62
4
  6
CONTINUOUS
 10
11.0383228913
 20
8.2177178824
 11
11.0134847819
 21
8.2194404112
  0
LINE
  5
2D0
100
AcDbEntity
  8
0
100
AcDbLine
 62
4
  6
CONTINUOUS
 10
10.9500096749
 20
8.2238424248
 11
10.9168922326
 21
8.2261391272
  0
LINE
  5
2D1
100
AcDbEntity
  8
0
100
AcDbLine
 62
4
  6
CONTINUOUS
 10
10.4642869502
 20
8.2575274101
 11
10.4228901335
 21
8.2603982891
  0
LINE
  5
2D2
100
AcDbEntity
  8
0
100
AcDbLine
 62
4
  6
CONTINUOUS
 10
10.7264668286
 20
8.2393451738
 11
10.7761430198
 21
8.2359001183
  0
LINE
  5
2D3
100
AcDbEntity
  8
0
100
AcDbLine
 62
4
  6
CONTINUOUS
 10
11.1928710477
 20
8.2069999314
 11
11.2425472112
 21
8.2035548777
  0
LINE
  5
2D4
100
AcDbEntity
  8
0
100
AcDbLine
 62
4
  6
CONTINUOUS
 10
10.53880123
 20
8.2854772869
 11
10.5829578382
 21
8.2824150157
  0
LINE
  5
2D5
100
AcDbEntity
  8
0
100
AcDbLine
 62
4
  6
CONTINUOUS
 10
11.22598849
 20
8.2709381482
 11
11.1928710477
 21
8.2732348506
  0
LINE
  5
2D6
100
AcDbEntity
  8
0
100
AcDbLine
 62
4
  6
CONTINUOUS
 10
10.7595842986
 20
8.3032833887
 11
10.7264668286
 21
8.305580093
  0
LINE
  5
2D7
100
AcDbEntity
  8
0
100
AcDbLine
 62
4
  6
CONTINUOUS
 10
10.4228901335
 20
8.3763093926
 11
10.4642869502
 21
8.3734385136
  0
LINE
  5
2D8
100
AcDbEntity
  8
0
100
AcDbLine
 62
4
  6
CONTINUOUS
 10
10.6271144464
 20
8.3621463884
 11
10.6933493587
 21
8.3575529816
  0
LINE
  5
2D9
100
AcDbEntity
  8
0
100
AcDbLine
 62
4
  6
CONTINUOUS
 10
10.7264668286
 20
8.3552562773
 11
10.7761430198
 21
8.3518112217
  0
LINE
  5
2DA
100
AcDbEntity
  8
0
100
AcDbLine
 62
4
  6
CONTINUOUS
 10
10.9168922326
 20
8.3420502306
 11
10.9500096749
 21
8.3397535282
  0
LINE
  5
2DB
100
AcDbEntity
  8
0
100
AcDbLine
 62
4
  6
CONTINUOUS
 10
11.0134847819
 20
8.3353515146
 11
11.0383228913
 21
8.3336289859
  0
LINE
  5
2DC
100
AcDbEntity
  8
0
100
AcDbLine
 62
4
  6
CONTINUOUS
 10
11.0879990548
 20
8.3301839322
 11
11.1293958854
 21
8.3273130523
  0
LINE
  5
2DD
100
AcDbEntity
  8
0
100
AcDbLine
 62
4
  6
CONTINUOUS
 10
11.1928710477
 20
8.3229110348
 11
11.2425472112
 21
8.3194659812
  0
LINE
  5
2DE
100
AcDbEntity
  8
0
100
AcDbLine
 62
4
  6
CONTINUOUS
 10
10.2959398651
 20
8.8686283126
 11
10.30421923
 21
8.8597747717
  0
LINE
  5
2DF
100
AcDbEntity
  8
0
100
AcDbLine
 62
4
  6
CONTINUOUS
 10
10.9168922326
 20
8.2261391272
 11
10.9003335114
 21
8.2438462082
  0
LINE
  5
2E0
100
AcDbEntity
  8
0
100
AcDbLine
 62
4
  6
CONTINUOUS
 10
10.387012873
 20
8.8705917429
 11
10.403571601
 21
8.8528846614
  0
LINE
  5
2E1
100
AcDbEntity
  8
0
100
AcDbLine
 62
4
  6
CONTINUOUS
 10
11.0134847819
 20
8.2194404112
 11
10.9969260608
 21
8.2371474922
  0
LINE
  5
2E2
100
AcDbEntity
  8
0
100
AcDbLine
 62
4
  6
CONTINUOUS
 10
9.5849494874
 20
9.9306399891
 11
9.5994383754
 21
9.9103166652
  0
LINE
  5
2E3
100
AcDbEntity
  8
0
100
AcDbLine
 62
4
  6
CONTINUOUS
 10
9.5849494874
 20
9.9789362845
 11
9.5921939314
 21
9.9687746174
  0
LINE
  5
2E4
100
AcDbEntity
  8
0
100
AcDbLine
 62
4
  6
CONTINUOUS
 10
10.4780858808
 20
8.963628182
 11
10.5360414326
 21
8.8436978474
  0
LINE
  5
2E5
100
AcDbEntity
  8
0
100
AcDbLine
 62
4
  6
CONTINUOUS
 10
10.8644562164
 20
8.9368333082
 11
10.8644562164
 21
8.8209222048
  0
LINE
  5
2E6
100
AcDbEntity
  8
0
100
AcDbLine
 62
4
  6
CONTINUOUS
 10
10.8713557002
 20
8.5008602538
 11
10.8713557002
 21
8.5339777117
  0
LINE
  5
2E7
100
AcDbEntity
  8
0
100
AcDbLine
 62
4
  6
CONTINUOUS
 10
10.897573714
 20
8.8186254985
 11
10.897573714
 21
8.9014191458
  0
LINE
  5
2E8
100
AcDbEntity
  8
0
100
AcDbLine
 62
4
  6
CONTINUOUS
 10
10.9003335114
 20
8.2438462082
 11
10.9003335114
 21
8.3266398538
  0
LINE
  5
2E9
100
AcDbEntity
  8
0
100
AcDbLine
 62
4
  6
CONTINUOUS
 10
10.9362107116
 20
8.8904602934
 11
10.9362107116
 21
8.8739015654
  0
LINE
  5
2EA
100
AcDbEntity
  8
0
100
AcDbLine
 62
4
  6
CONTINUOUS
 10
10.9458699731
 20
8.4956926714
 11
10.9458699731
 21
8.5950450451
  0
LINE
  5
2EB
100
AcDbEntity
  8
0
100
AcDbLine
 62
4
  6
CONTINUOUS
 10
10.9720879869
 20
8.821737281
 11
10.9720879869
 21
8.8465753758
  0
LINE
  5
2EC
100
AcDbEntity
  8
0
100
AcDbLine
 62
4
  6
CONTINUOUS
 10
10.9969260608
 20
8.2371474922
 11
10.9969260608
 21
8.3199411377
  0
LINE
  5
2ED
100
AcDbEntity
  8
0
100
AcDbLine
 62
4
  6
CONTINUOUS
 10
11.0217641504
 20
8.8100128625
 11
11.0217641504
 21
8.8762477817
  0
LINE
  5
2EE
100
AcDbEntity
  8
0
100
AcDbLine
 62
4
  6
CONTINUOUS
 10
11.2563461349
 20
8.8682588264
 11
11.2646254678
 21
8.8759640202
  0
LINE
  5
2EF
100
AcDbEntity
  8
0
100
AcDbLine
 62
4
  6
CONTINUOUS
 10
10.8547969652
 20
8.4854498762
 11
10.8713557002
 21
8.5008602538
  0
LINE
  5
2F0
100
AcDbEntity
  8
0
100
AcDbLine
 62
4
  6
CONTINUOUS
 10
11.330860463
 20
8.8630912402
 11
11.339139796
 21
8.870796434
  0
LINE
  5
2F1
100
AcDbEntity
  8
0
100
AcDbLine
 62
4
  6
CONTINUOUS
 10
10.9293112519
 20
8.4802822928
 11
10.9458699731
 21
8.4956926714
  0
LINE
  5
2F2
100
AcDbEntity
  8
0
100
AcDbLine
 62
4
  6
CONTINUOUS
 10
10.4008118259
 20
8.3336839202
 11
10.3566552143
 21
8.3146678841
  0
LINE
  5
2F3
100
AcDbEntity
  8
0
100
AcDbLine
 62
4
  6
CONTINUOUS
 10
10.7306065012
 20
8.4940625141
 11
10.7802826889
 21
8.4906174588
  0
LINE
  5
2F4
100
AcDbEntity
  8
0
100
AcDbLine
 62
4
  6
CONTINUOUS
 10
10.8299588765
 20
8.4871724035
 11
10.8547969652
 21
8.4854498762
  0
LINE
  5
2F5
100
AcDbEntity
  8
0
100
AcDbLine
 62
4
  6
CONTINUOUS
 10
10.9044731563
 20
8.4820048206
 11
10.9293112519
 21
8.4802822928
  0
LINE
  5
2F6
100
AcDbEntity
  8
0
100
AcDbLine
 62
4
  6
CONTINUOUS
 10
11.2756646535
 20
8.2730126705
 11
11.3198212617
 21
8.2478720918
  0
LINE
  5
2F7
100
AcDbEntity
  8
0
100
AcDbLine
 62
4
  6
CONTINUOUS
 10
10.3538954168
 20
8.8894471761
 11
10.2959398651
 21
8.9431425949
  0
LINE
  5
2F8
100
AcDbEntity
  8
0
100
AcDbLine
 62
4
  6
CONTINUOUS
 10
10.3456160528
 20
8.9728149958
 11
10.3538954168
 21
8.9639614524
  0
LINE
  5
2F9
100
AcDbEntity
  8
0
100
AcDbLine
 62
4
  6
CONTINUOUS
 10
10.8134001485
 20
8.504879485
 11
10.8299588765
 21
8.4871724035
  0
LINE
  5
2FA
100
AcDbEntity
  8
0
100
AcDbLine
 62
4
  6
CONTINUOUS
 10
11.0383228913
 20
8.3336289859
 11
11.0548816125
 21
8.3159219066
  0
LINE
  5
2FB
100
AcDbEntity
  8
0
100
AcDbLine
 62
4
  6
CONTINUOUS
 10
10.8713557002
 20
8.5339777117
 11
10.8547969652
 21
8.5516847954
  0
LINE
  5
2FC
100
AcDbEntity
  8
0
100
AcDbLine
 62
4
  6
CONTINUOUS
 10
11.1293958854
 20
8.3273130523
 11
11.1459546065
 21
8.309605973
  0
LINE
  5
2FD
100
AcDbEntity
  8
0
100
AcDbLine
 62
4
  6
CONTINUOUS
 10
10.7430255577
 20
8.9121370968
 11
10.7678636671
 21
8.8276209208
  0
LINE
  5
2FE
100
AcDbEntity
  8
0
100
AcDbLine
 62
4
  6
CONTINUOUS
 10
11.131396753
 20
7.4105105981
 11
11.124152309
 21
7.4399907778
  0
LINE
  5
2FF
100
AcDbEntity
  8
0
100
AcDbLine
 62
4
  6
CONTINUOUS
 10
11.0548815927
 20
8.8905098074
 11
11.0548815927
 21
8.815995525
  0
LINE
  5
300
100
AcDbEntity
  8
0
100
AcDbLine
 62
4
  6
CONTINUOUS
 10
11.0548816125
 20
8.3159219066
 11
11.0548816125
 21
8.233128261
  0
LINE
  5
301
100
AcDbEntity
  8
0
100
AcDbLine
 62
4
  6
CONTINUOUS
 10
11.0879990548
 20
8.2142728288
 11
11.0879990548
 21
8.3301839322
  0
LINE
  5
302
100
AcDbEntity
  8
0
100
AcDbLine
 62
4
  6
CONTINUOUS
 10
11.1045578115
 20
8.8042711026
 11
11.1045578115
 21
8.8870647499
  0
LINE
  5
303
100
AcDbEntity
  8
0
100
AcDbLine
 62
7
  6
CONTINUOUS
 10
11.1245682596
 20
6.8082464225
 11
11.1245682596
 21
6.4269225383
  0
LINE
  5
304
100
AcDbEntity
  8
0
100
AcDbLine
 62
4
  6
CONTINUOUS
 10
11.1376752538
 20
8.8102537651
 11
11.1376752538
 21
8.9178855036
  0
LINE
  5
305
100
AcDbEntity
  8
0
100
AcDbLine
 62
4
  6
CONTINUOUS
 10
11.1459546065
 20
8.309605973
 11
11.1459546065
 21
8.2268123274
  0
LINE
  5
306
100
AcDbEntity
  8
0
100
AcDbLine
 62
4
  6
CONTINUOUS
 10
11.1928710477
 20
8.2069999314
 11
11.1928710477
 21
8.3229110348
  0
LINE
  5
307
100
AcDbEntity
  8
0
100
AcDbLine
 62
4
  6
CONTINUOUS
 10
11.1965967487
 20
7.4349667389
 11
11.1965967487
 21
7.396329705
  0
LINE
  5
308
100
AcDbEntity
  8
0
100
AcDbLine
 62
4
  6
CONTINUOUS
 10
11.2149493043
 20
8.91252653
 11
11.2121895267
 21
8.9044385537
  0
LINE
  5
309
100
AcDbEntity
  8
0
100
AcDbLine
 62
4
  6
CONTINUOUS
 10
11.3722572383
 20
8.7857060843
 11
11.3805365713
 21
8.7934112755
  0
LINE
  5
30A
100
AcDbEntity
  8
0
100
AcDbLine
 62
4
  6
CONTINUOUS
 10
10.9003335114
 20
8.3266398538
 11
10.9168922326
 21
8.3420502306
  0
LINE
  5
30B
100
AcDbEntity
  8
0
100
AcDbLine
 62
4
  6
CONTINUOUS
 10
10.9969260608
 20
8.3199411377
 11
11.0134847819
 21
8.3353515146
  0
LINE
  5
30C
100
AcDbEntity
  8
0
100
AcDbLine
 62
4
  6
CONTINUOUS
 10
10.8547969652
 20
8.5516847954
 11
10.8189197245
 21
8.5541728905
  0
LINE
  5
30D
100
AcDbEntity
  8
0
100
AcDbLine
 62
4
  6
CONTINUOUS
 10
10.7637239608
 20
8.5580007297
 11
10.7306065012
 21
8.5602974333
  0
LINE
  5
30E
100
AcDbEntity
  8
0
100
AcDbLine
 62
4
  6
CONTINUOUS
 10
10.7306065012
 20
8.6099736175
 11
10.7802826889
 21
8.6065285622
  0
LINE
  5
30F
100
AcDbEntity
  8
0
100
AcDbLine
 62
4
  6
CONTINUOUS
 10
10.8313387741
 20
8.8232189072
 11
10.8147800529
 21
8.8326466233
  0
LINE
  5
310
100
AcDbEntity
  8
0
100
AcDbLine
 62
4
  6
CONTINUOUS
 10
10.7016287271
 20
8.9150079768
 11
10.7099080877
 21
8.9061544337
  0
LINE
  5
311
100
AcDbEntity
  8
0
100
AcDbLine
 62
4
  6
CONTINUOUS
 10
10.9306911563
 20
8.8991224434
 11
10.9362107116
 21
8.8904602934
  0
LINE
  5
312
100
AcDbEntity
  8
0
100
AcDbLine
 62
4
  6
CONTINUOUS
 10
11.0217641504
 20
8.8762477817
 11
11.0134848174
 21
8.8933806835
  0
LINE
  5
313
100
AcDbEntity
  8
0
100
AcDbLine
 62
4
  6
CONTINUOUS
 10
11.2121895267
 20
8.7968068178
 11
11.2121895267
 21
8.8796004651
  0
LINE
  5
314
100
AcDbEntity
  8
0
100
AcDbLine
 62
4
  6
CONTINUOUS
 10
11.2121895267
 20
8.9044385537
 11
11.2121895267
 21
8.9127179212
  0
LINE
  5
315
100
AcDbEntity
  8
0
100
AcDbLine
 62
7
  6
CONTINUOUS
 10
11.2376230716
 20
6.7383193882
 11
11.2376230716
 21
6.3177201624
  0
LINE
  5
316
100
AcDbEntity
  8
0
100
AcDbLine
 62
4
  6
CONTINUOUS
 10
11.2563461349
 20
8.8020239115
 11
11.2563461349
 21
8.8682588264
  0
LINE
  5
317
100
AcDbEntity
  8
0
100
AcDbLine
 62
7
  6
CONTINUOUS
 10
11.2795032991
 20
6.7274800014
 11
11.2795032991
 21
6.3068807757
  0
LINE
  5
318
100
AcDbEntity
  8
0
100
AcDbLine
 62
4
  6
CONTINUOUS
 10
11.330860463
 20
8.8382531481
 11
11.330860463
 21
8.8630912402
  0
LINE
  5
319
100
AcDbEntity
  8
0
100
AcDbLine
 62
4
  6
CONTINUOUS
 10
11.3805365713
 20
8.7934112755
 11
11.3805365713
 21
8.8182493702
  0
LINE
  5
31A
100
AcDbEntity
  8
0
100
AcDbLine
 62
4
  6
CONTINUOUS
 10
11.124152309
 20
7.4399907778
 11
11.131396753
 21
7.4684661498
  0
LINE
  5
31B
100
AcDbEntity
  8
0
100
AcDbLine
 62
4
  6
CONTINUOUS
 10
11.0548816125
 20
8.233128261
 11
11.0383228913
 21
8.2177178824
  0
LINE
  5
31C
100
AcDbEntity
  8
0
100
AcDbLine
 62
4
  6
CONTINUOUS
 10
11.1459546065
 20
8.2268123274
 11
11.1293958854
 21
8.2114019488
  0
LINE
  5
31D
100
AcDbEntity
  8
0
100
AcDbLine
 62
4
  6
CONTINUOUS
 10
12.1127774397
 20
8.8676485418
 11
12.1272663276
 21
8.8763029904
  0
LINE
  5
31E
100
AcDbEntity
  8
0
100
AcDbLine
 62
4
  6
CONTINUOUS
 10
12.1562441035
 20
8.8259970794
 11
12.1272663276
 21
8.8086881789
  0
LINE
  5
31F
100
AcDbEntity
  8
0
100
AcDbLine
 62
4
  6
CONTINUOUS
 10
11.3198212617
 20
8.2478720918
 11
11.2756646535
 21
8.2288560572
  0
LINE
  5
320
100
AcDbEntity
  8
0
100
AcDbLine
 62
4
  6
CONTINUOUS
 10
10.7430255577
 20
8.8017455677
 11
10.7595842788
 21
8.8005972165
  0
LINE
  5
321
100
AcDbEntity
  8
0
100
AcDbLine
 62
4
  6
CONTINUOUS
 10
11.2977430207
 20
8.7908736628
 11
11.2646254678
 21
8.7931703729
  0
LINE
  5
322
100
AcDbEntity
  8
0
100
AcDbLine
 62
4
  6
CONTINUOUS
 10
11.1625133632
 20
8.8002518714
 11
11.145954642
 21
8.8014002227
  0
LINE
  5
323
100
AcDbEntity
  8
0
100
AcDbLine
 62
4
  6
CONTINUOUS
 10
11.0217641504
 20
8.8100128625
 11
10.988646708
 21
8.8123095649
  0
LINE
  5
324
100
AcDbEntity
  8
0
100
AcDbLine
 62
4
  6
CONTINUOUS
 10
10.8644562164
 20
8.8209222048
 11
10.8313387741
 21
8.8232189072
  0
LINE
  5
325
100
AcDbEntity
  8
0
100
AcDbLine
 62
4
  6
CONTINUOUS
 10
10.30421923
 20
8.8597747717
 11
10.3373366887
 21
8.8574780682
  0
LINE
  5
326
100
AcDbEntity
  8
0
100
AcDbLine
 62
4
  6
CONTINUOUS
 10
10.403571601
 20
8.8528846614
 11
10.4284097035
 21
8.8511621332
  0
LINE
  5
327
100
AcDbEntity
  8
0
100
AcDbLine
 62
4
  6
CONTINUOUS
 10
11.0631609809
 20
8.8071419826
 11
11.1045578115
 21
8.8042711026
  0
LINE
  5
328
100
AcDbEntity
  8
0
100
AcDbLine
 62
4
  6
CONTINUOUS
 10
11.339139796
 20
8.7880027867
 11
11.3722572383
 21
8.7857060843
  0
LINE
  5
329
100
AcDbEntity
  8
0
100
AcDbLine
 62
4
  6
CONTINUOUS
 10
12.1055329957
 20
8.7618990986
 11
12.1634885474
 21
8.7578798674
  0
LINE
  5
32A
100
AcDbEntity
  8
0
100
AcDbLine
 62
4
  6
CONTINUOUS
 10
10.988646708
 20
8.8537063886
 11
11.0217641504
 21
8.8514096861
  0
LINE
  5
32B
100
AcDbEntity
  8
0
100
AcDbLine
 62
4
  6
CONTINUOUS
 10
10.988646708
 20
8.8123095649
 11
10.9720879869
 21
8.821737281
  0
LINE
  5
32C
100
AcDbEntity
  8
0
100
AcDbLine
 62
4
  6
CONTINUOUS
 10
9.5559717116
 20
9.874694053
 11
9.5414828236
 21
9.8853581197
  0
LINE
  5
32D
100
AcDbEntity
  8
0
100
AcDbLine
 62
4
  6
CONTINUOUS
 10
9.5704605995
 20
9.9413040532
 11
9.5849494874
 21
9.9306399891
  0
LINE
  5
32E
100
AcDbEntity
  8
0
100
AcDbLine
 62
4
  6
CONTINUOUS
 10
9.5704605995
 20
9.9896003486
 11
9.5849494874
 21
9.9789362845
  0
LINE
  5
32F
100
AcDbEntity
  8
0
100
AcDbLine
 62
4
  6
CONTINUOUS
 10
11.0548815927
 20
8.815995525
 11
11.0631609809
 21
8.8071419826
  0
LINE
  5
330
100
AcDbEntity
  8
0
100
AcDbLine
 62
4
  6
CONTINUOUS
 10
11.145954642
 20
8.8014002227
 11
11.1376752538
 21
8.8102537651
  0
LINE
  5
331
100
AcDbEntity
  8
0
100
AcDbLine
 62
4
  6
CONTINUOUS
 10
11.0134848174
 20
8.8933806835
 11
10.9720879869
 21
8.8962515634
  0
LINE
  5
332
100
AcDbEntity
  8
0
100
AcDbLine
 62
4
  6
CONTINUOUS
 10
10.6602318966
 20
8.9178788567
 11
10.7016287271
 21
8.9150079768
  0
LINE
  5
333
100
AcDbEntity
  8
0
100
AcDbLine
 62
4
  6
CONTINUOUS
 10
10.8313387741
 20
8.9060125545
 11
10.8644562164
 21
8.9037158521
  0
LINE
  5
334
100
AcDbEntity
  8
0
100
AcDbLine
 62
4
  6
CONTINUOUS
 10
10.897573714
 20
8.9014191458
 11
10.9306911563
 21
8.8991224434
  0
LINE
  5
335
100
AcDbEntity
  8
0
100
AcDbLine
 62
4
  6
CONTINUOUS
 10
11.2646254678
 20
8.8759640202
 11
11.2977430207
 21
8.8736673101
  0
LINE
  5
336
100
AcDbEntity
  8
0
100
AcDbLine
 62
4
  6
CONTINUOUS
 10
11.339139796
 20
8.870796434
 11
11.3722572383
 21
8.8684997316
  0
LINE
  5
337
100
AcDbEntity
  8
0
100
AcDbLine
 62
4
  6
CONTINUOUS
 10
10.3124985949
 20
8.9751116993
 11
10.3456160528
 21
8.9728149958
  0
LINE
  5
338
100
AcDbEntity
  8
0
100
AcDbLine
 62
4
  6
CONTINUOUS
 10
11.2121895267
 20
8.9127179212
 11
11.2149493043
 21
8.91252653
  0
LINE
  5
339
100
AcDbEntity
  8
0
100
AcDbLine
 62
4
  6
CONTINUOUS
 10
12.1272663276
 20
8.8763029904
 11
12.1417552155
 21
8.8752981826
  0
LINE
  5
33A
100
AcDbEntity
  8
0
100
AcDbLine
 62
4
  6
CONTINUOUS
 10
11.3722572383
 20
8.8243431199
 11
11.339139796
 21
8.8321593984
  0
LINE
  5
33B
100
AcDbEntity
  8
0
100
AcDbLine
 62
4
  6
CONTINUOUS
 10
11.339139796
 20
8.8321593984
 11
11.330860463
 21
8.8382531481
  0
LINE
  5
33C
100
AcDbEntity
  8
0
100
AcDbLine
 62
4
  6
CONTINUOUS
 10
11.3805365713
 20
8.8182493702
 11
11.3722572383
 21
8.8243431199
  0
LINE
  5
33D
100
AcDbEntity
  8
0
100
AcDbLine
 62
4
  6
CONTINUOUS
 10
11.2646254678
 20
8.7931703729
 11
11.2563461349
 21
8.8020239115
  0
LINE
  5
33E
100
AcDbEntity
  8
0
100
AcDbLine
 62
4
  6
CONTINUOUS
 10
11.330860463
 20
8.7968563253
 11
11.339139796
 21
8.7880027867
  0
LINE
  5
33F
100
AcDbEntity
  8
0
100
AcDbLine
 62
4
  6
CONTINUOUS
 10
11.3722572383
 20
8.8684997316
 11
11.3805365713
 21
8.8596461904
  0
LINE
  5
340
100
AcDbEntity
  8
0
100
AcDbLine
 62
7
  6
CONTINUOUS
 10
11.701429278
 20
6.6982193354
 11
11.701429278
 21
6.2776201096
  0
LINE
  5
341
100
AcDbEntity
  8
0
100
AcDbLine
 62
7
  6
CONTINUOUS
 10
11.7586387166
 20
6.7021868305
 11
11.7586387166
 21
6.2815876047
  0
LINE
  5
342
100
AcDbEntity
  8
0
100
AcDbLine
 62
4
  6
CONTINUOUS
 10
12.1055329957
 20
8.8584916825
 11
12.1127774397
 21
8.8676485418
  0
LINE
  5
343
100
AcDbEntity
  8
0
100
AcDbLine
 62
4
  6
CONTINUOUS
 10
12.1272663276
 20
8.8086881789
 11
12.1127774397
 21
8.7903744706
  0
LINE
  5
344
100
AcDbEntity
  8
0
100
AcDbLine
 62
4
  6
CONTINUOUS
 10
12.1634885474
 20
8.8351539387
 11
12.1562441035
 21
8.8259970794
  0
LINE
  5
345
100
AcDbEntity
  8
0
100
AcDbLine
 62
4
  6
CONTINUOUS
 10
11.131396753
 20
7.4684661498
 11
11.1458856409
 21
7.4867798616
  0
LINE
  5
346
100
AcDbEntity
  8
0
100
AcDbLine
 62
4
  6
CONTINUOUS
 10
11.1965967487
 20
7.396329705
 11
11.1893523047
 21
7.38717285
  0
LINE
  5
347
100
AcDbEntity
  8
0
100
AcDbLine
 62
4
  6
CONTINUOUS
 10
11.1458856409
 20
7.4867798616
 11
11.1603745288
 21
7.4954343101
  0
LINE
  5
348
100
AcDbEntity
  8
0
100
AcDbLine
 62
7
  6
CONTINUOUS
 10
12.0675098836
 20
6.7428531988
 11
12.0675098836
 21
6.3615293146
  0
LINE
  5
349
100
AcDbEntity
  8
0
100
AcDbLine
 62
7
  6
CONTINUOUS
 10
12.0828390948
 20
6.7417901144
 11
12.0828390948
 21
6.3763361964
  0
LINE
  5
34A
100
AcDbEntity
  8
0
100
AcDbLine
 62
4
  6
CONTINUOUS
 10
12.1127774397
 20
8.7903744706
 11
12.1055329957
 21
8.7618990986
  0
LINE
  5
34B
100
AcDbEntity
  8
0
100
AcDbLine
 62
4
  6
CONTINUOUS
 10
11.1893523047
 20
7.38717285
 11
11.1748634168
 21
7.3785183989
  0
LINE
  5
34C
100
AcDbEntity
  8
0
100
AcDbLine
 62
4
  6
CONTINUOUS
 10
12.1417552155
 20
8.8752981826
 11
12.1562441035
 21
8.8646341185
  0
LINE
  5
34D
100
AcDbEntity
  8
0
100
AcDbLine
 62
4
  6
CONTINUOUS
 10
12.1634885474
 20
8.8544724513
 11
12.1634885474
 21
8.8351539387
  0
LINE
  5
34E
100
AcDbEntity
  8
0
100
AcDbLine
 62
7
  6
CONTINUOUS
 10
12.2871270556
 20
6.7276226962
 11
12.2871270556
 21
10.229104024
  0
LINE
  5
34F
100
AcDbEntity
  8
0
100
AcDbLine
 62
4
  6
CONTINUOUS
 10
9.5704605995
 20
9.8736892452
 11
9.5559717116
 21
9.874694053
  0
LINE
  5
350
100
AcDbEntity
  8
0
100
AcDbLine
 62
4
  6
CONTINUOUS
 10
12.1562441035
 20
8.8646341185
 11
12.1634885474
 21
8.8544724513
  0
LINE
  5
351
100
AcDbEntity
  8
0
100
AcDbLine
 62
4
  6
CONTINUOUS
 10
9.5559717116
 20
9.942308861
 11
9.5704605995
 21
9.9413040532
  0
LINE
  5
352
100
AcDbEntity
  8
0
100
AcDbLine
 62
4
  6
CONTINUOUS
 10
9.5559717116
 20
9.9906051564
 11
9.5704605995
 21
9.9896003486
  0
LINE
  5
353
100
AcDbEntity
  8
0
100
AcDbLine
 62
7
  6
CONTINUOUS
 10
12.610650595
 20
7.0401224568
 11
12.610650595
 21
10.5416037846
  0
LINE
  5
354
100
AcDbEntity
  8
0
100
AcDbLine
 62
7
  6
CONTINUOUS
 10
9.389349405
 20
10.4300655866
 11
12.2871270556
 21
10.229104024
  0
LINE
  5
355
100
AcDbEntity
  8
0
100
AcDbLine
 62
7
  6
CONTINUOUS
 10
12.2871270556
 20
6.7276226962
 11
12.610650595
 21
7.0401224568
  0
LINE
  5
356
100
AcDbEntity
  8
0
100
AcDbLine
 62
7
  6
CONTINUOUS
 10
12.610650595
 20
10.5416037846
 11
9.7128729444
 21
10.7425653472
  0
LINE
  5
357
100
AcDbEntity
  8
0
100
AcDbLine
 62
7
  6
CONTINUOUS
 10
12.0097523677
 20
6.3295053148
 11
11.984590015
 21
6.3170755943
  0
ARC
  5
358
100
AcDbEntity
  8
0
100
AcDbCircle
 62
7
  6
CONTINUOUS
 10
11.6115053758
 20
8.4093308291
 40
1.7134727463
100
AcDbArc
 50
273.0082929995
 51
274.9259690708
  0
ARC
  5
359
100
AcDbEntity
  8
0
100
AcDbCircle
 62
7
  6
CONTINUOUS
 10
11.6115053758
 20
7.9887316034
 40
1.7134727463
100
AcDbArc
 50
273.0082929995
 51
274.9259690708
  0
SPLINE
  5
35A
100
AcDbEntity
  8
0
100
AcDbSpline
 62
7
  6
CONTINUOUS
 70
0
 71
3
 72
11
 73
7
 74
0
 42
0.0000001
 43
0.0000001
 44
0.0000000001
 40
0.0
 40
0.0
 40
0.0
 40
0.0
 40
0.2399502312
 40
0.4865132022
 40
0.7398237866
 40
1.0
 40
1.0
 40
1.0
 40
1.0
 10
12.0760414342
 20
6.3688726327
 30
0.0
 10
12.0753935591
 20
6.3682468333
 30
0.0
 10
12.0740604201
 20
6.3669980684
 30
0.0
 10
12.071979688
 20
6.3651580676
 30
0.0
 10
12.0697915778
 20
6.363326491
 30
0.0
 10
12.0682819502
 20
6.3621275031
 30
0.0
 10
12.0675098836
 20
6.3615293146
 30
0.0
  0
SPLINE
  5
35B
100
AcDbEntity
  8
0
100
AcDbSpline
 62
7
  6
CONTINUOUS
 70
0
 71
3
 72
11
 73
7
 74
0
 42
0.0000001
 43
0.0000001
 44
0.0000000001
 40
0.0
 40
0.0
 40
0.0
 40
0.0
 40
0.2399382843
 40
0.4864287737
 40
0.7397111676
 40
1.0
 40
1.0
 40
1.0
 40
1.0
 10
12.0828390948
 20
6.3763361964
 30
0.0
 10
12.0823389892
 20
6.3757015841
 30
0.0
 10
12.0813005261
 20
6.3744342362
 30
0.0
 10
12.0796538016
 20
6.372564608
 30
0.0
 10
12.077897936
 20
6.3707017648
 30
0.0
 10
12.0766718709
 20
6.3694815877
 30
0.0
 10
12.0760414342
 20
6.3688726327
 30
0.0
  0
SPLINE
  5
35C
100
AcDbEntity
  8
0
100
AcDbSpline
 62
7
  6
CONTINUOUS
 70
0
 71
3
 72
11
 73
7
 74
0
 42
0.0000001
 43
0.0000001
 44
0.0000000001
 40
0.0
 40
0.0
 40
0.0
 40
0.0
 40
0.2529398012
 40
0.5039896517
 40
0.7530425508
 40
1.0
 40
1.0
 40
1.0
 40
1.0
 10
12.0675098836
 20
6.3615293146
 30
0.0
 10
12.0627552126
 20
6.3586238794
 30
0.0
 10
12.0532262414
 20
6.3529243161
 30
0.0
 10
12.0388155898
 20
6.3447040812
 30
0.0
 10
12.0243404697
 20
6.336870846
 30
0.0
 10
12.0146065664
 20
6.3319033331
 30
0.0
 10
12.009728958
 20
6.3294937514
 30
0.0
  0
SPLINE
  5
35D
100
AcDbEntity
  8
0
100
AcDbSpline
 62
7
  6
CONTINUOUS
 70
0
 71
3
 72
79
 73
75
 74
0
 42
0.0000001
 43
0.0000001
 44
0.0000000001
 40
0.0
 40
0.0
 40
0.0
 40
0.0
 40
0.0049346149
 40
0.0099877251
 40
0.0151590499
 40
0.0204481992
 40
0.0258546713
 40
0.0313778714
 40
0.0370171043
 40
0.0427715926
 40
0.0546226141
 40
0.066923307
 40
0.0796646949
 40
0.0928367656
 40
0.10642856
 40
0.1204282499
 40
0.1348232052
 40
0.1496000531
 40
0.1647447325
 40
0.1802425411
 40
0.1960781811
 40
0.2122357989
 40
0.2286990254
 40
0.2454510106
 40
0.26247446
 40
0.2797516671
 40
0.2972645466
 40
0.3149946648
 40
0.3329232712
 40
0.3510313283
 40
0.3692995407
 40
0.3877083857
 40
0.4062381408
 40
0.424868914
 40
0.443580671
 40
0.462353265
 40
0.4811664639
 40
0.4999999795
 40
0.5188334952
 40
0.5376466942
 40
0.5564192885
 40
0.5751310457
 40
0.5937618193
 40
0.6122915748
 40
0.6307004205
 40
0.6489686336
 40
0.6670766916
 40
0.685005299
 40
0.7027354182
 40
0.7202482986
 40
0.7375255067
 40
0.7545489571
 40
0.7713009434
 40
0.7877641713
 40
0.8039217908
 40
0.8197574325
 40
0.8352552428
 40
0.8503999238
 40
0.8651767734
 40
0.8795717301
 40
0.8935714217
 40
0.9071632179
 40
0.9203352906
 40
0.9330766807
 40
0.945377376
 40
0.9572283997
 40
0.9629828881
 40
0.9686221229
 40
0.9741453233
 40
0.979551797
 40
0.9848409473
 40
0.990012273
 40
0.9950653848
 40
1.0
 40
1.0
 40
1.0
 40
1.0
 10
11.9845900594
 20
6.3170756165
 30
0.0
 10
11.9834452692
 20
6.3165101121
 30
0.0
 10
11.9811186545
 20
6.315384749
 30
0.0
 10
11.9775611601
 20
6.3137321748
 30
0.0
 10
11.9738956309
 20
6.3120954767
 30
0.0
 10
11.9701231342
 20
6.3104751369
 30
0.0
 10
11.9662447541
 20
6.3088716165
 30
0.0
 10
11.9622616091
 20
6.307285385
 30
0.0
 10
11.9581748446
 20
6.3057168905
 30
0.0
 10
11.9525339399
 20
6.3036293822
 30
0.0
 10
11.9452301187
 20
6.3010707043
 30
0.0
 10
11.9361547662
 20
6.298107513
 30
0.0
 10
11.9266953546
 20
6.2952256872
 30
0.0
 10
11.916862811
 20
6.2924285708
 30
0.0
 10
11.906668449
 20
6.2897194073
 30
0.0
 10
11.8961240222
 20
6.28710134
 30
0.0
 10
11.8852416905
 20
6.284577407
 30
0.0
 10
11.8740340102
 20
6.2821505371
 30
0.0
 10
11.8625139173
 20
6.2798235465
 30
0.0
 10
11.8506947122
 20
6.2775991355
 30
0.0
 10
11.8385900438
 20
6.275479885
 30
0.0
 10
11.8262138935
 20
6.2734682538
 30
0.0
 10
11.8135805585
 20
6.2715665756
 30
0.0
 10
11.8007046349
 20
6.269777056
 30
0.0
 10
11.7876010008
 20
6.2681017707
 30
0.0
 10
11.7742847985
 20
6.2665426624
 30
0.0
 10
11.7607714172
 20
6.2651015392
 30
0.0
 10
11.7470764749
 20
6.263780072
 30
0.0
 10
11.7332157998
 20
6.2625797931
 30
0.0
 10
11.719205413
 20
6.2615020941
 30
0.0
 10
11.7050615085
 20
6.2605482244
 30
0.0
 10
11.6908004357
 20
6.2597192896
 30
0.0
 10
11.6764386795
 20
6.2590162506
 30
0.0
 10
11.6619928417
 20
6.2584399222
 30
0.0
 10
11.6474796214
 20
6.2579909725
 30
0.0
 10
11.6329157956
 20
6.2576699219
 30
0.0
 10
11.6183182003
 20
6.2574771423
 30
0.0
 10
11.6037037105
 20
6.2574128574
 30
0.0
 10
11.5890892205
 20
6.2574771416
 30
0.0
 10
11.5744916251
 20
6.2576699206
 30
0.0
 10
11.5599277992
 20
6.2579909707
 30
0.0
 10
11.5454145786
 20
6.2584399199
 30
0.0
 10
11.5309687405
 20
6.2590162477
 30
0.0
 10
11.5166069839
 20
6.2597192862
 30
0.0
 10
11.5023459106
 20
6.2605482204
 30
0.0
 10
11.4882020056
 20
6.2615020896
 30
0.0
 10
11.4741916179
 20
6.2625797879
 30
0.0
 10
11.4603309421
 20
6.2637800662
 30
0.0
 10
11.4466359989
 20
6.2651015328
 30
0.0
 10
11.4331226168
 20
6.2665426555
 30
0.0
 10
11.4198064138
 20
6.2681017633
 30
0.0
 10
11.4067027788
 20
6.2697770482
 30
0.0
 10
11.3938268541
 20
6.2715665673
 30
0.0
 10
11.381193518
 20
6.2734682451
 30
0.0
 10
11.3688173663
 20
6.2754798757
 30
0.0
 10
11.3567126966
 20
6.2775991256
 30
0.0
 10
11.34489349
 20
6.2798235361
 30
0.0
 10
11.3333733957
 20
6.2821505262
 30
0.0
 10
11.322165714
 20
6.2845773957
 30
0.0
 10
11.311283381
 20
6.2871013284
 30
0.0
 10
11.3007389528
 20
6.2897193952
 30
0.0
 10
11.2905445893
 20
6.2924285584
 30
0.0
 10
11.2807120439
 20
6.2952256744
 30
0.0
 10
11.2712526304
 20
6.2981074997
 30
0.0
 10
11.2621772759
 20
6.3010706907
 30
0.0
 10
11.2548734531
 20
6.3036293677
 30
0.0
 10
11.2492325476
 20
6.3057168768
 30
0.0
 10
11.2451457819
 20
6.3072853702
 30
0.0
 10
11.2411626363
 20
6.3088716023
 30
0.0
 10
11.237284255
 20
6.310475122
 30
0.0
 10
11.2335117574
 20
6.3120954619
 30
0.0
 10
11.2298462272
 20
6.31373216
 30
0.0
 10
11.2262887317
 20
6.3153847335
 30
0.0
 10
11.2239621165
 20
6.3165100969
 30
0.0
 10
11.2228173263
 20
6.3170756013
 30
0.0
  0
SPLINE
  5
35E
100
AcDbEntity
  8
0
100
AcDbSpline
 62
7
  6
CONTINUOUS
 70
0
 71
3
 72
34
 73
30
 74
0
 42
0.0000001
 43
0.0000001
 44
0.0000000001
 40
0.0
 40
0.0
 40
0.0
 40
0.0
 40
0.0217726103
 40
0.043998712
 40
0.0899309812
 40
0.1380396824
 40
0.1885283882
 40
0.2147207498
 40
0.2415663873
 40
0.2690791435
 40
0.2972700689
 40
0.3261474357
 40
0.3557167999
 40
0.3859810872
 40
0.4169407062
 40
0.4485936851
 40
0.4809358243
 40
0.5139608702
 40
0.5476607044
 40
0.5820255323
 40
0.6170440742
 40
0.6527037538
 40
0.6889908834
 40
0.7258908481
 40
0.7633882775
 40
0.8014672032
 40
0.8401112084
 40
0.9190266208
 40
1.0
 40
1.0
 40
1.0
 40
1.0
 10
11.2065178067
 20
6.3251272517
 30
0.0
 10
11.2056547035
 20
6.3255535693
 30
0.0
 10
11.2039262085
 20
6.326447272
 30
0.0
 10
11.2004609478
 20
6.3283985123
 30
0.0
 10
11.1961170498
 20
6.3311555366
 30
0.0
 10
11.1909535738
 20
6.3349270598
 30
0.0
 10
11.1867005552
 20
6.3384471269
 30
0.0
 10
11.1832970581
 20
6.3415084546
 30
0.0
 10
11.1807129135
 20
6.3439598217
 30
0.0
 10
11.178129002
 20
6.3465380376
 30
0.0
 10
11.1755457213
 20
6.3492425148
 30
0.0
 10
11.1729635102
 20
6.3520723417
 30
0.0
 10
11.1703827868
 20
6.355026352
 30
0.0
 10
11.1678039616
 20
6.3581031201
 30
0.0
 10
11.1652274296
 20
6.3613009801
 30
0.0
 10
11.1626535694
 20
6.3646180405
 30
0.0
 10
11.1600827397
 20
6.3680522032
 30
0.0
 10
11.1575152771
 20
6.3716011828
 30
0.0
 10
11.1549514953
 20
6.3752625295
 30
0.0
 10
11.1523916833
 20
6.3790336499
 30
0.0
 10
11.1498361047
 20
6.3829118294
 30
0.0
 10
11.1472849968
 20
6.3868942532
 30
0.0
 10
11.1447385705
 20
6.3909780269
 30
0.0
 10
11.1421970098
 20
6.3951601978
 30
0.0
 10
11.1396604752
 20
6.3994377738
 30
0.0
 10
11.1371290953
 20
6.4038077415
 30
0.0
 10
11.1337373327
 20
6.4097952527
 30
0.0
 10
11.1295157159
 20
6.4174918344
 30
0.0
 10
11.1262164486
 20
6.423744352
 30
0.0
 10
11.1245682596
 20
6.4269225383
 30
0.0
  0
SPLINE
  5
35F
100
AcDbEntity
  8
0
100
AcDbSpline
 62
7
  6
CONTINUOUS
 70
0
 71
3
 72
11
 73
7
 74
0
 42
0.0000001
 43
0.0000001
 44
0.0000000001
 40
0.0
 40
0.0
 40
0.0
 40
0.0
 40
0.2598462974
 40
0.5132467876
 40
0.7600213203
 40
1.0
 40
1.0
 40
1.0
 40
1.0
 10
11.2795032991
 20
6.7274800014
 30
0.0
 10
11.275850515
 20
6.728317254
 30
0.0
 10
11.2686463041
 20
6.7300183516
 30
0.0
 10
11.2580144247
 20
6.7326858623
 30
0.0
 10
11.2476996973
 20
6.7354353763
 30
0.0
 10
11.2409450862
 20
6.7373485197
 30
0.0
 10
11.2376230716
 20
6.7383193882
 30
0.0
  0
SPLINE
  5
360
100
AcDbEntity
  8
0
100
AcDbSpline
 62
7
  6
CONTINUOUS
 70
0
 71
3
 72
23
 73
19
 74
0
 42
0.0000001
 43
0.0000001
 44
0.0000000001
 40
0.0
 40
0.0
 40
0.0
 40
0.0
 40
0.0657095692
 40
0.1316076905
 40
0.1975599413
 40
0.2634317586
 40
0.3290887887
 40
0.3943972448
 40
0.4592242604
 40
0.5234382435
 40
0.5869092415
 40
0.6495092936
 40
0.7111128108
 40
0.7715969332
 40
0.8308419302
 40
0.888731577
 40
0.9451535805
 40
1.0
 40
1.0
 40
1.0
 40
1.0
 10
11.651632064
 20
6.7716855526
 30
0.0
 10
11.6449955647
 20
6.7714917599
 30
0.0
 10
11.6317010024
 20
6.7711851456
 30
0.0
 10
11.6117401716
 20
6.7709672421
 30
0.0
 10
11.5917617419
 20
6.7709908587
 30
0.0
 10
11.5718094256
 20
6.771255946
 30
0.0
 10
11.5519268277
 20
6.7717619196
 30
0.0
 10
11.5321574136
 20
6.7725076703
 30
0.0
 10
11.5125443965
 20
6.7734915572
 30
0.0
 10
11.4931306468
 20
6.7747114213
 30
0.0
 10
11.4739585972
 20
6.7761645792
 30
0.0
 10
11.4550701491
 20
6.7778478403
 30
0.0
 10
11.4365065808
 20
6.7797575019
 30
0.0
 10
11.4183084538
 20
6.7818893686
 30
0.0
 10
11.4005155326
 20
6.7842387495
 30
0.0
 10
11.3831666622
 20
6.7868004825
 30
0.0
 10
11.3662998037
 20
6.7895689182
 30
0.0
 10
11.3552374619
 20
6.7915780033
 30
0.0
 10
11.3497942281
 20
6.7926180776
 30
0.0
  0
SPLINE
  5
361
100
AcDbEntity
  8
0
100
AcDbSpline
 62
7
  6
CONTINUOUS
 70
0
 71
3
 72
11
 73
7
 74
0
 42
0.0000001
 43
0.0000001
 44
0.0000000001
 40
0.0
 40
0.0
 40
0.0
 40
0.0
 40
0.2598462974
 40
0.5132467876
 40
0.7600213203
 40
1.0
 40
1.0
 40
1.0
 40
1.0
 10
11.2795032991
 20
6.3068807757
 30
0.0
 10
11.275850515
 20
6.3077180282
 30
0.0
 10
11.2686463041
 20
6.3094191258
 30
0.0
 10
11.2580144247
 20
6.3120866366
 30
0.0
 10
11.2476996973
 20
6.3148361506
 30
0.0
 10
11.2409450862
 20
6.316749294
 30
0.0
 10
11.2376230716
 20
6.3177201624
 30
0.0
  0
SPLINE
  5
362
100
AcDbEntity
  8
0
100
AcDbSpline
 62
7
  6
CONTINUOUS
 70
0
 71
3
 72
15
 73
11
 74
0
 42
0.0000001
 43
0.0000001
 44
0.0000000001
 40
0.0
 40
0.0
 40
0.0
 40
0.0
 40
0.1209946163
 40
0.2432467567
 40
0.3667038615
 40
0.4913087608
 40
0.6170016075
 40
0.7437214614
 40
0.8714074272
 40
1.0
 40
1.0
 40
1.0
 40
1.0
 10
11.8358401252
 20
6.7589272612
 30
0.0
 10
11.8325070732
 20
6.7569617878
 30
0.0
 10
11.8258650698
 20
6.7529099829
 30
0.0
 10
11.8160264794
 20
6.7465256001
 30
0.0
 10
11.8062620955
 20
6.7398222339
 30
0.0
 10
11.7965740215
 20
6.7328198263
 30
0.0
 10
11.786963318
 20
6.7255377163
 30
0.0
 10
11.7774303026
 20
6.717994542
 30
0.0
 10
11.767974663
 20
6.7102081157
 30
0.0
 10
11.761742918
 20
6.7048841799
 30
0.0
 10
11.7586387166
 20
6.7021868305
 30
0.0
  0
SPLINE
  5
363
100
AcDbEntity
  8
0
100
AcDbSpline
 62
7
  6
CONTINUOUS
 70
0
 71
3
 72
34
 73
30
 74
0
 42
0.0000001
 43
0.0000001
 44
0.0000000001
 40
0.0
 40
0.0
 40
0.0
 40
0.0
 40
0.0614928409
 40
0.1230891667
 40
0.153930456
 40
0.1848018751
 40
0.2157048016
 40
0.2466405691
 40
0.2776104456
 40
0.308615611
 40
0.339657133
 40
0.3707359447
 40
0.4018528241
 40
0.433008375
 40
0.4642030116
 40
0.4954369474
 40
0.5267101883
 40
0.5580225326
 40
0.5893735753
 40
0.6207627182
 40
0.6521891835
 40
0.6836520324
 40
0.7151501852
 40
0.7466824453
 40
0.7782475226
 40
0.8098440566
 40
0.8731242422
 40
0.9365133522
 40
1.0
 40
1.0
 40
1.0
 40
1.0
 10
11.701429278
 20
6.2776201096
 30
0.0
 10
11.6928092805
 20
6.2759951099
 30
0.0
 10
11.6755142226
 20
6.2729530199
 30
0.0
 10
11.6537918454
 20
6.2697253602
 30
0.0
 10
11.6363408031
 20
6.2675160591
 30
0.0
 10
11.6232101715
 20
6.2660524098
 30
0.0
 10
11.6100450843
 20
6.2647902968
 30
0.0
 10
11.5968475313
 20
6.2637368368
 30
0.0
 10
11.5836199075
 20
6.2628987668
 30
0.0
 10
11.5703649714
 20
6.2622823274
 30
0.0
 10
11.5570858437
 20
6.2618931566
 30
0.0
 10
11.5437859814
 20
6.2617361844
 30
0.0
 10
11.530469144
 20
6.2618155362
 30
0.0
 10
11.5171393481
 20
6.2621344464
 30
0.0
 10
11.5038008125
 20
6.2626951879
 30
0.0
 10
11.4904578954
 20
6.26349902
 30
0.0
 10
11.4771150255
 20
6.264546159
 30
0.0
 10
11.46377663
 20
6.2658357684
 30
0.0
 10
11.4504470634
 20
6.2673659787
 30
0.0
 10
11.4371305384
 20
6.2691339271
 30
0.0
 10
11.4238310636
 20
6.2711358183
 30
0.0
 10
11.4105523897
 20
6.2733670023
 30
0.0
 10
11.3972979612
 20
6.2758220688
 30
0.0
 10
11.384070896
 20
6.2784949434
 30
0.0
 10
11.3708739121
 20
6.2813790137
 30
0.0
 10
11.3533133775
 20
6.2854984339
 30
0.0
 10
11.3314498471
 20
6.2911400659
 30
0.0
 10
11.3053766168
 20
6.298631871
 30
0.0
 10
11.2881104702
 20
6.3040643752
 30
0.0
 10
11.2795032991
 20
6.3068807757
 30
0.0
  0
SPLINE
  5
364
100
AcDbEntity
  8
0
100
AcDbSpline
 62
7
  6
CONTINUOUS
 70
0
 71
3
 72
37
 73
33
 74
0
 42
0.0000001
 43
0.0000001
 44
0.0000000001
 40
0.0
 40
0.0
 40
0.0
 40
0.0
 40
0.0320287472
 40
0.0640311205
 40
0.0960043923
 40
0.1279455611
 40
0.159851441
 40
0.1917186505
 40
0.2235436484
 40
0.2553227761
 40
0.2870523307
 40
0.318728644
 40
0.3503481602
 40
0.381907556
 40
0.4134038501
 40
0.444834504
 40
0.4761975334
 40
0.5074915881
 40
0.5387160101
 40
0.5698708592
 40
0.6009569109
 40
0.6319756141
 40
0.6629290159
 40
0.6938196881
 40
0.7246506078
 40
0.755425049
 40
0.7861464927
 40
0.8168185117
 40
0.847444686
 40
0.8780285427
 40
0.9390791653
 40
1.0
 40
1.0
 40
1.0
 40
1.0
 10
11.701429278
 20
6.6982193354
 30
0.0
 10
11.6972767106
 20
6.7003620025
 30
0.0
 10
11.6889391006
 20
6.7045764754
 30
0.0
 10
11.67632831
 20
6.7106730087
 30
0.0
 10
11.6636166678
 20
6.7165262091
 30
0.0
 10
11.6508037757
 20
6.7221194577
 30
0.0
 10
11.6378900053
 20
6.7274354744
 30
0.0
 10
11.6248767067
 20
6.73245642
 30
0.0
 10
11.6117663383
 20
6.7371640947
 30
0.0
 10
11.5985626069
 20
6.7415401811
 30
0.0
 10
11.5852705817
 20
6.745566544
 30
0.0
 10
11.5718967785
 20
6.7492255759
 30
0.0
 10
11.5584492056
 20
6.7525006111
 30
0.0
 10
11.5449373441
 20
6.7553763453
 30
0.0
 10
11.5313720627
 20
6.7578392648
 30
0.0
 10
11.5177654686
 20
6.7598781081
 30
0.0
 10
11.5041306731
 20
6.7614842103
 30
0.0
 10
11.4904815023
 20
6.7626518229
 30
0.0
 10
11.4768321594
 20
6.7633783485
 30
0.0
 10
11.4631968538
 20
6.7636643769
 30
0.0
 10
11.4495894381
 20
6.7635137032
 30
0.0
 10
11.4360230632
 20
6.7629331437
 30
0.0
 10
11.4225098837
 20
6.7619322572
 30
0.0
 10
11.409060824
 20
6.760523035
 30
0.0
 10
11.3956854194
 20
6.7587194598
 30
0.0
 10
11.3823917308
 20
6.7565370878
 30
0.0
 10
11.3691863169
 20
6.7539926281
 30
0.0
 10
11.3560743011
 20
6.7511035289
 30
0.0
 10
11.3430593619
 20
6.747887589
 30
0.0
 10
11.325850311
 20
6.7431908503
 30
0.0
 10
11.3045863919
 20
6.7365917079
 30
0.0
 10
11.2878190667
 20
6.7306174212
 30
0.0
 10
11.2795032991
 20
6.7274800014
 30
0.0
  0
SPLINE
  5
365
100
AcDbEntity
  8
0
100
AcDbSpline
 62
7
  6
CONTINUOUS
 70
0
 71
3
 72
15
 73
11
 74
0
 42
0.0000001
 43
0.0000001
 44
0.0000000001
 40
0.0
 40
0.0
 40
0.0
 40
0.0
 40
0.1192556975
 40
0.2392875357
 40
0.3604859033
 40
0.483279967
 40
0.6081324973
 40
0.7355322617
 40
0.8659845135
 40
1.0
 40
1.0
 40
1.0
 40
1.0
 10
11.2376230716
 20
6.3177201624
 30
0.0
 10
11.2363408365
 20
6.3177247251
 30
0.0
 10
11.2337677072
 20
6.3178014028
 30
0.0
 10
11.2299036198
 20
6.3181279801
 30
0.0
 10
11.2260261243
 20
6.3186768685
 30
0.0
 10
11.2221357981
 20
6.3194584874
 30
0.0
 10
11.2182332219
 20
6.3204830421
 30
0.0
 10
11.2143191391
 20
6.3217603953
 30
0.0
 10
11.21039462
 20
6.3232997812
 30
0.0
 10
11.2078097422
 20
6.3244891185
 30
0.0
 10
11.2065178067
 20
6.3251272517
 30
0.0
  0
SPLINE
  5
366
100
AcDbEntity
  8
0
100
AcDbSpline
 62
7
  6
CONTINUOUS
 70
0
 71
3
 72
15
 73
11
 74
0
 42
0.0000001
 43
0.0000001
 44
0.0000000001
 40
0.0
 40
0.0
 40
0.0
 40
0.0
 40
0.1361750042
 40
0.2695801389
 40
0.4000133027
 40
0.5272628008
 40
0.6511096758
 40
0.7713303612
 40
0.8877005097
 40
1.0
 40
1.0
 40
1.0
 40
1.0
 10
11.2376230716
 20
6.7383193882
 30
0.0
 10
11.2364939577
 20
6.7412921086
 30
0.0
 10
11.2342290633
 20
6.7471658911
 30
0.0
 10
11.2307707685
 20
6.7558433877
 30
0.0
 10
11.2272845151
 20
6.7642846718
 30
0.0
 10
11.2237702188
 20
6.7724720248
 30
0.0
 10
11.220228034
 20
6.7803868423
 30
0.0
 10
11.2166583835
 20
6.7880097831
 30
0.0
 10
11.2130620443
 20
6.7953208674
 30
0.0
 10
11.2106020594
 20
6.800060958
 30
0.0
 10
11.2093653651
 20
6.8023734337
 30
0.0
  0
SPLINE
  5
367
100
AcDbEntity
  8
0
100
AcDbSpline
 62
7
  6
CONTINUOUS
 70
0
 71
3
 72
32
 73
28
 74
0
 42
0.0000001
 43
0.0000001
 44
0.0000000001
 40
0.0
 40
0.0
 40
0.0
 40
0.0
 40
0.0668467461
 40
0.1330343711
 40
0.1985498456
 40
0.2633895225
 40
0.2955589434
 40
0.3275629011
 40
0.3594039835
 40
0.3910854601
 40
0.4226112559
 40
0.4539859114
 40
0.4852145321
 40
0.5163027271
 40
0.54725654
 40
0.5780823734
 40
0.6087869096
 40
0.6393770305
 40
0.6698597382
 40
0.7002420785
 40
0.7305310697
 40
0.7607336373
 40
0.790856557
 40
0.8209064041
 40
0.880809966
 40
0.940493758
 40
1.0
 40
1.0
 40
1.0
 40
1.0
 10
12.009728958
 20
6.3294937514
 30
0.0
 10
12.0045509161
 20
6.3269357529
 30
0.0
 10
11.9941747482
 20
6.3219872689
 30
0.0
 10
11.9784749899
 20
6.3150678637
 30
0.0
 10
11.9627231061
 20
6.3087172525
 30
0.0
 10
11.9495271872
 20
6.3039083014
 30
0.0
 10
11.9389561146
 20
6.3003717514
 30
0.0
 10
11.931042542
 20
6.2978822175
 30
0.0
 10
11.9231250066
 20
6.2955504415
 30
0.0
 10
11.9152051863
 20
6.2933776535
 30
0.0
 10
11.9072848173
 20
6.2913646591
 30
0.0
 10
11.8993656339
 20
6.2895118064
 30
0.0
 10
11.8914493608
 20
6.287818989
 30
0.0
 10
11.8835376917
 20
6.2862856475
 30
0.0
 10
11.8756322731
 20
6.2849107799
 30
0.0
 10
11.8677346869
 20
6.2836929578
 30
0.0
 10
11.8598464369
 20
6.2826303485
 30
0.0
 10
11.8519689357
 20
6.2817207419
 30
0.0
 10
11.844103494
 20
6.2809615815
 30
0.0
 10
11.836251314
 20
6.280349998
 30
0.0
 10
11.8284134803
 20
6.2798828468
 30
0.0
 10
11.8205909681
 20
6.2795567427
 30
0.0
 10
11.8127845997
 20
6.2793681043
 30
0.0
 10
11.8024100998
 20
6.2792949356
 30
0.0
 10
11.7894813104
 20
6.2795271786
 30
0.0
 10
11.7740247488
 20
6.2802938431
 30
0.0
 10
11.763757638
 20
6.2811093349
 30
0.0
 10
11.7586387166
 20
6.2815876047
 30
0.0
  0
SPLINE
  5
368
100
AcDbEntity
  8
0
100
AcDbSpline
 62
7
  6
CONTINUOUS
 70
0
 71
3
 72
86
 73
82
 74
0
 42
0.0000001
 43
0.0000001
 44
0.0000000001
 40
0.0
 40
0.0
 40
0.0
 40
0.0
 40
0.0039801735
 40
0.0081241171
 40
0.0124359931
 40
0.016919361
 40
0.0215772361
 40
0.0264119817
 40
0.0314252561
 40
0.0366182449
 40
0.0419916453
 40
0.0475457694
 40
0.0532805541
 40
0.0591955582
 40
0.0652900785
 40
0.0715630739
 40
0.0846387684
 40
0.0984101018
 40
0.112860694
 40
0.1279712428
 40
0.1437198619
 40
0.1600823544
 40
0.1770324406
 40
0.1945419645
 40
0.2125810668
 40
0.2311183398
 40
0.2501209668
 40
0.2695548486
 40
0.289384725
 40
0.3095742955
 40
0.3300863312
 40
0.3508827821
 40
0.3719248818
 40
0.3931732491
 40
0.4145879914
 40
0.4577543474
 40
0.501099203
 40
0.5442952951
 40
0.5657359749
 40
0.587017582
 40
0.6081001434
 40
0.6289441761
 40
0.6495107926
 40
0.6697618048
 40
0.6896598276
 40
0.709168385
 40
0.7282520204
 40
0.7468764117
 40
0.7650084972
 40
0.7826166038
 40
0.7996705814
 40
0.8161419537
 40
0.8320040874
 40
0.8472323859
 40
0.8618045214
 40
0.8757007003
 40
0.8889039845
 40
0.9014006969
 40
0.9073810972
 40
0.9131815075
 40
0.9188013673
 40
0.9242405009
 40
0.9294990443
 40
0.9345775709
 40
0.9394770909
 40
0.9441990928
 40
0.9487456636
 40
0.9531194621
 40
0.9573238984
 40
0.9613631411
 40
0.9652422549
 40
0.9689673208
 40
0.9725454977
 40
0.9759852252
 40
0.9824864215
 40
0.9855752926
 40
0.9885737717
 40
0.9914977072
 40
0.9943643167
 40
0.9971920017
 40
1.0
 40
1.0
 40
1.0
 40
1.0
 10
11.211537751
 20
10.4711644927
 30
0.0
 10
11.2105474736
 20
10.4702079582
 30
0.0
 10
11.2084812003
 20
10.4683016501
 30
0.0
 10
11.2052005885
 20
10.4655173366
 30
0.0
 10
11.2016790656
 20
10.4627529843
 30
0.0
 10
11.1979185647
 20
10.4600100822
 30
0.0
 10
11.1939209324
 20
10.4572898981
 30
0.0
 10
11.1896881134
 20
10.4545937694
 30
0.0
 10
11.1852222295
 20
10.4519229695
 30
0.0
 10
11.180525494
 20
10.4492788885
 30
0.0
 10
11.1756002762
 20
10.4466628114
 30
0.0
 10
11.1704490351
 20
10.4440760555
 30
0.0
 10
11.1650743467
 20
10.4415199303
 30
0.0
 10
11.1594789212
 20
10.4389956911
 30
0.0
 10
11.1536655501
 20
10.4365046368
 30
0.0
 10
11.1455146947
 20
10.4331831359
 30
0.0
 10
11.1347956366
 20
10.429132245
 30
0.0
 10
11.1212841448
 20
10.4244878396
 30
0.0
 10
11.1069790132
 20
10.4200046942
 30
0.0
 10
11.0919090826
 20
10.4156919213
 30
0.0
 10
11.0761046041
 20
10.4115583
 30
0.0
 10
11.0595974146
 20
10.4076122507
 30
0.0
 10
11.0424207938
 20
10.4038618087
 30
0.0
 10
11.0246094063
 20
10.4003146136
 30
0.0
 10
11.0061992181
 20
10.3969778901
 30
0.0
 10
10.9872274216
 20
10.3938584342
 30
0.0
 10
10.9677323582
 20
10.3909625991
 30
0.0
 10
10.9477534403
 20
10.3882962806
 30
0.0
 10
10.9273310698
 20
10.3858649025
 30
0.0
 10
10.9065065521
 20
10.383673411
 30
0.0
 10
10.8853220111
 20
10.3817262645
 30
0.0
 10
10.863820299
 20
10.3800274223
 30
0.0
 10
10.8420449266
 20
10.3785803478
 30
0.0
 10
10.8200399142
 20
10.3773879603
 30
0.0
 10
10.790375773
 20
10.3761377756
 30
0.0
 10
10.7530495898
 20
10.3752296952
 30
0.0
 10
10.7081778065
 20
10.3751823488
 30
0.0
 10
10.6708305327
 20
10.3760115036
 30
0.0
 10
10.6411330244
 20
10.3771986731
 30
0.0
 10
10.6190910254
 20
10.3783444614
 30
0.0
 10
10.5972705997
 20
10.3797454139
 30
0.0
 10
10.5757158599
 20
10.3813987079
 30
0.0
 10
10.5544704259
 20
10.3833009748
 30
0.0
 10
10.5335772742
 20
10.385448345
 30
0.0
 10
10.5130786671
 20
10.387836449
 30
0.0
 10
10.4930160638
 20
10.3904604283
 30
0.0
 10
10.4734300363
 20
10.3933149435
 30
0.0
 10
10.454360185
 20
10.396394187
 30
0.0
 10
10.4358450539
 20
10.3996918887
 30
0.0
 10
10.4179220497
 20
10.403201331
 30
0.0
 10
10.4006273658
 20
10.4069153652
 30
0.0
 10
10.3839959063
 20
10.4108264258
 30
0.0
 10
10.3680612119
 20
10.4149265459
 30
0.0
 10
10.3528553769
 20
10.419207378
 30
0.0
 10
10.3384089954
 20
10.4236602062
 30
0.0
 10
10.3247510057
 20
10.4282759769
 30
0.0
 10
10.311908908
 20
10.4330453193
 30
0.0
 10
10.3017648118
 20
10.4371983125
 30
0.0
 10
10.2940851939
 20
10.440597979
 30
0.0
 10
10.2886298858
 20
10.4431426596
 30
0.0
 10
10.2833970669
 20
10.4457184345
 30
0.0
 10
10.2783893375
 20
10.4483239848
 30
0.0
 10
10.2736092216
 20
10.4509580395
 30
0.0
 10
10.2690591028
 20
10.4536192658
 30
0.0
 10
10.2647412477
 20
10.4563063332
 30
0.0
 10
10.2606578263
 20
10.459017948
 30
0.0
 10
10.256810843
 20
10.4617527277
 30
0.0
 10
10.2532022421
 20
10.4645093968
 30
0.0
 10
10.249833791
 20
10.4672865858
 30
0.0
 10
10.2467071837
 20
10.470082985
 30
0.0
 10
10.2438239816
 20
10.4728973201
 30
0.0
 10
10.241185675
 20
10.4757281552
 30
0.0
 10
10.2387934619
 20
10.4785745941
 30
0.0
 10
10.2359871131
 20
10.4823172835
 30
0.0
 10
10.2336041009
 20
10.4861608909
 30
0.0
 10
10.2317120612
 20
10.49008655
 30
0.0
 10
10.2305689159
 20
10.4929898777
 30
0.0
 10
10.229678662
 20
10.4959002558
 30
0.0
 10
10.229042128
 20
10.4988162998
 30
0.0
 10
10.2286599064
 20
10.5017359042
 30
0.0
 10
10.2285748173
 20
10.5036864341
 30
0.0
 10
10.2285748129
 20
10.5046577691
 30
0.0
  0
SPLINE
  5
369
100
AcDbEntity
  8
0
100
AcDbSpline
 62
7
  6
CONTINUOUS
 70
0
 71
3
 72
18
 73
14
 74
0
 42
0.0000001
 43
0.0000001
 44
0.0000000001
 40
0.0
 40
0.0
 40
0.0
 40
0.0
 40
0.150467608
 40
0.291710008
 40
0.4244359371
 40
0.549562455
 40
0.6682139939
 40
0.7255497488
 40
0.7817912909
 40
0.8371402503
 40
0.8918093826
 40
0.9460201179
 40
1.0
 40
1.0
 40
1.0
 40
1.0
 10
12.4488888253
 20
9.4455080546
 30
0.0
 10
12.4505568087
 20
9.447119203
 30
0.0
 10
12.4538904073
 20
9.4501421321
 30
0.0
 10
12.4590524578
 20
9.4541707012
 30
0.0
 10
12.4642084452
 20
9.4575399932
 30
0.0
 10
12.4693530312
 20
9.4602444779
 30
0.0
 10
12.4736769992
 20
9.4619594264
 30
0.0
 10
12.4771100387
 20
9.4629783462
 30
0.0
 10
12.47964825
 20
9.4635656371
 30
0.0
 10
12.4821780405
 20
9.4639842144
 30
0.0
 10
12.4846987014
 20
9.46423393
 30
0.0
 10
12.4872092302
 20
9.4643146538
 30
0.0
 10
12.4888771533
 20
9.4642556612
 30
0.0
 10
12.4897071117
 20
9.464198107
 30
0.0
  0
SPLINE
  5
36A
100
AcDbEntity
  8
0
100
AcDbSpline
 62
7
  6
CONTINUOUS
 70
0
 71
3
 72
21
 73
17
 74
0
 42
0.0000001
 43
0.0000001
 44
0.0000000001
 40
0.0
 40
0.0
 40
0.0
 40
0.0
 40
0.1273176366
 40
0.2537999756
 40
0.3167619475
 40
0.3795355041
 40
0.4421314991
 40
0.5045621439
 40
0.5668413432
 40
0.6289845283
 40
0.6910084528
 40
0.7529310935
 40
0.8147714495
 40
0.8765493365
 40
0.9382852194
 40
1.0
 40
1.0
 40
1.0
 40
1.0
 10
11.487340424
 20
9.9822346487
 30
0.0
 10
11.487340424
 20
9.9769373988
 30
0.0
 10
11.4868347666
 20
9.9663708346
 30
0.0
 10
11.4849250625
 20
9.9533082781
 30
0.0
 10
11.4826425415
 20
9.9430618445
 30
0.0
 10
11.480561005
 20
9.9355040714
 30
0.0
 10
11.4781122174
 20
9.9280805874
 30
0.0
 10
11.4753017896
 20
9.9208083076
 30
0.0
 10
11.4721362222
 20
9.9137040457
 30
0.0
 10
11.4686227709
 20
9.9067841853
 30
0.0
 10
11.4647695176
 20
9.900064701
 30
0.0
 10
11.460585371
 20
9.8935610691
 30
0.0
 10
11.4560799687
 20
9.8872883164
 30
0.0
 10
11.4512636214
 20
9.8812608845
 30
0.0
 10
11.4461476628
 20
9.8754928379
 30
0.0
 10
11.4425444596
 20
9.8718285979
 30
0.0
 10
11.4406976008
 20
9.8700446689
 30
0.0
  0
SPLINE
  5
36B
100
AcDbEntity
  8
0
100
AcDbSpline
 62
7
  6
CONTINUOUS
 70
0
 71
3
 72
21
 73
17
 74
0
 42
0.0000001
 43
0.0000001
 44
0.0000000001
 40
0.0
 40
0.0
 40
0.0
 40
0.0
 40
0.1273176366
 40
0.2537999756
 40
0.3167619475
 40
0.3795355041
 40
0.4421314991
 40
0.5045621439
 40
0.5668413432
 40
0.6289845283
 40
0.6910084528
 40
0.7529310935
 40
0.8147714495
 40
0.8765493365
 40
0.9382852194
 40
1.0
 40
1.0
 40
1.0
 40
1.0
 10
10.5214145405
 20
7.1514441569
 30
0.0
 10
10.5214145405
 20
7.146146907
 30
0.0
 10
10.5209088831
 20
7.1355803428
 30
0.0
 10
10.518999179
 20
7.1225177863
 30
0.0
 10
10.516716658
 20
7.1122713527
 30
0.0
 10
10.5146351215
 20
7.1047135796
 30
0.0
 10
10.5121863339
 20
7.0972900956
 30
0.0
 10
10.5093759061
 20
7.0900178158
 30
0.0
 10
10.5062103387
 20
7.0829135539
 30
0.0
 10
10.5026968873
 20
7.0759936935
 30
0.0
 10
10.4988436341
 20
7.0692742092
 30
0.0
 10
10.4946594875
 20
7.0627705773
 30
0.0
 10
10.4901540852
 20
7.0564978246
 30
0.0
 10
10.4853377379
 20
7.0504703927
 30
0.0
 10
10.4802217793
 20
7.0447023461
 30
0.0
 10
10.476618576
 20
7.041038106
 30
0.0
 10
10.4747717172
 20
7.0392541771
 30
0.0
  0
SPLINE
  5
36C
100
AcDbEntity
  8
0
100
AcDbSpline
 62
7
  6
CONTINUOUS
 70
0
 71
3
 72
39
 73
35
 74
0
 42
0.0000001
 43
0.0000001
 44
0.0000000001
 40
0.0
 40
0.0
 40
0.0
 40
0.0
 40
0.0321624082
 40
0.0640912178
 40
0.0957948614
 40
0.1272917745
 40
0.1586111408
 40
0.1897904539
 40
0.2208735529
 40
0.2519083328
 40
0.2829447797
 40
0.3140333138
 40
0.3452232701
 40
0.3765616776
 40
0.4080920796
 40
0.4398530315
 40
0.4718763116
 40
0.5041843969
 40
0.5367867109
 40
0.5696746057
 40
0.6028151261
 40
0.6361439433
 40
0.6695591015
 40
0.7029182158
 40
0.7360427339
 40
0.7687317544
 40
0.8007853076
 40
0.8320313912
 40
0.8623488147
 40
0.891679833
 40
0.9200302229
 40
0.947460537
 40
0.9740732733
 40
1.0
 40
1.0
 40
1.0
 40
1.0
 10
10.7153087537
 20
7.7954915822
 30
0.0
 10
10.7153087537
 20
7.7909117872
 30
0.0
 10
10.7156725935
 20
7.7817810744
 30
0.0
 10
10.717316424
 20
7.7682253354
 30
0.0
 10
10.7200342984
 20
7.754939426
 30
0.0
 10
10.7237912631
 20
7.7420000978
 30
0.0
 10
10.7285418292
 20
7.7294719503
 30
0.0
 10
10.734233292
 20
7.7174081261
 30
0.0
 10
10.7408087772
 20
7.705849937
 30
0.0
 10
10.7482100948
 20
7.6948278437
 30
0.0
 10
10.756380013
 20
7.6843628299
 30
0.0
 10
10.7652639166
 20
7.6744681149
 30
0.0
 10
10.7748108327
 20
7.6651509407
 30
0.0
 10
10.7849738839
 20
7.6564143159
 30
0.0
 10
10.7957102236
 20
7.6482586356
 30
0.0
 10
10.8069804997
 20
7.640683151
 30
0.0
 10
10.818747852
 20
7.6336872961
 30
0.0
 10
10.8309763983
 20
7.6272718921
 30
0.0
 10
10.8436291304
 20
7.6214402416
 30
0.0
 10
10.8566651664
 20
7.6161990545
 30
0.0
 10
10.8700364257
 20
7.6115591031
 30
0.0
 10
10.8836840102
 20
7.6075354126
 30
0.0
 10
10.8975349618
 20
7.6041467583
 30
0.0
 10
10.9115005424
 20
7.6014142337
 30
0.0
 10
10.9254773646
 20
7.5993589141
 30
0.0
 10
10.9393523375
 20
7.5979988967
 30
0.0
 10
10.9530110979
 20
7.5973465504
 30
0.0
 10
10.966348027
 20
7.5974068857
 30
0.0
 10
10.9792749818
 20
7.5981775483
 30
0.0
 10
10.9917263469
 20
7.5996503787
 30
0.0
 10
11.0036594294
 20
7.6018139335
 30
0.0
 10
11.0150515782
 20
7.6046562581
 30
0.0
 10
11.0258937593
 20
7.6081663539
 30
0.0
 10
11.0328351016
 20
7.610978487
 30
0.0
 10
11.0362021492
 20
7.6124926922
 30
0.0
  0
SPLINE
  5
36D
100
AcDbEntity
  8
0
100
AcDbSpline
 62
7
  6
CONTINUOUS
 70
0
 71
3
 72
21
 73
17
 74
0
 42
0.0000001
 43
0.0000001
 44
0.0000000001
 40
0.0
 40
0.0
 40
0.0
 40
0.0
 40
0.12731758
 40
0.2538000122
 40
0.3167619425
 40
0.3795355005
 40
0.4421315041
 40
0.5045621466
 40
0.5668413435
 40
0.6289845285
 40
0.6910084568
 40
0.7529310961
 40
0.8147714484
 40
0.8765493394
 40
0.9382852242
 40
1.0
 40
1.0
 40
1.0
 40
1.0
 10
11.0599070911
 20
7.7063480357
 30
0.0
 10
11.0599070911
 20
7.6998496672
 30
0.0
 10
11.0592867756
 20
7.6868871929
 30
0.0
 10
11.0569440661
 20
7.6708627744
 30
0.0
 10
11.0541439902
 20
7.6582930183
 30
0.0
 10
11.0515904699
 20
7.6490215667
 30
0.0
 10
11.0485864455
 20
7.6399148455
 30
0.0
 10
11.0451387662
 20
7.6309936178
 30
0.0
 10
11.0412554126
 20
7.6222785104
 30
0.0
 10
11.036945316
 20
7.6137896059
 30
0.0
 10
11.0322183633
 20
7.6055465138
 30
0.0
 10
11.027085471
 20
7.5975682291
 30
0.0
 10
11.0215584956
 20
7.589873165
 30
0.0
 10
11.0156500839
 20
7.5824790342
 30
0.0
 10
11.0093740918
 20
7.5754031323
 30
0.0
 10
11.0049538896
 20
7.5709080398
 30
0.0
 10
11.0026882602
 20
7.5687196215
 30
0.0
  0
SPLINE
  5
36E
100
AcDbEntity
  8
0
100
AcDbSpline
 62
7
  6
CONTINUOUS
 70
0
 71
3
 72
41
 73
37
 74
0
 42
0.0000001
 43
0.0000001
 44
0.0000000001
 40
0.0
 40
0.0
 40
0.0
 40
0.0
 40
0.0310750003
 40
0.046674464
 40
0.062312494
 40
0.0936974057
 40
0.1252262387
 40
0.1568876805
 40
0.1886675201
 40
0.2205491599
 40
0.2525139229
 40
0.268523588
 40
0.2845462912
 40
0.3166149974
 40
0.3487024468
 40
0.3807858411
 40
0.4128424624
 40
0.4448501254
 40
0.4767876212
 40
0.5086351486
 40
0.5403747235
 40
0.5719905626
 40
0.6034694315
 40
0.6348009518
 40
0.6659778585
 40
0.6969962
 40
0.7278554736
 40
0.7585586902
 40
0.7891123605
 40
0.8195263996
 40
0.849813947
 40
0.8799911023
 40
0.9100765789
 40
0.9400912834
 40
0.9700578297
 40
1.0
 40
1.0
 40
1.0
 40
1.0
 10
11.0599070911
 20
7.7063480357
 30
0.0
 10
11.0599070911
 20
7.7113988959
 30
0.0
 10
11.0596247596
 20
7.7189890705
 30
0.0
 10
11.0586923251
 20
7.7290757813
 30
0.0
 10
11.0573857933
 20
7.7391721487
 30
0.0
 10
11.0550567518
 20
7.7517378419
 30
0.0
 10
11.0511719077
 20
7.7666241863
 30
0.0
 10
11.046214955
 20
7.7812566549
 30
0.0
 10
11.0402132004
 20
7.7955545531
 30
0.0
 10
11.0331999534
 20
7.8094391628
 30
0.0
 10
11.0265472389
 20
7.8205975124
 30
0.0
 10
11.0207608544
 20
7.8292436534
 30
0.0
 10
11.0146679029
 20
7.8376974078
 30
0.0
 10
11.00650143
 20
7.8478679419
 30
0.0
 10
10.9958791658
 20
7.8593674551
 30
0.0
 10
10.9844885475
 20
7.8701040892
 30
0.0
 10
10.9723923595
 20
7.8800185152
 30
0.0
 10
10.9596569046
 20
7.8890563904
 30
0.0
 10
10.9463520802
 20
7.8971680316
 30
0.0
 10
10.9325508821
 20
7.9043088523
 30
0.0
 10
10.9183290406
 20
7.9104395618
 30
0.0
 10
10.9037646025
 20
7.9155263925
 30
0.0
 10
10.8889375106
 20
7.919541283
 30
0.0
 10
10.8739291706
 20
7.9224620349
 30
0.0
 10
10.8588220113
 20
7.9242724384
 30
0.0
 10
10.8436990373
 20
7.9249623661
 30
0.0
 10
10.8286433787
 20
7.9245278362
 30
0.0
 10
10.8137378384
 20
7.9229710424
 30
0.0
 10
10.7990644391
 20
7.920300355
 30
0.0
 10
10.7847039698
 20
7.9165302823
 30
0.0
 10
10.7707355463
 20
7.9116814081
 30
0.0
 10
10.7572361428
 20
7.9057802633
 30
0.0
 10
10.7442802601
 20
7.8988592873
 30
0.0
 10
10.7319391304
 20
7.890956289
 30
0.0
 10
10.7202817025
 20
7.88211561
 30
0.0
 10
10.7130056279
 20
7.8756261797
 30
0.0
 10
10.7095051992
 20
7.8722450431
 30
0.0
  0
SPLINE
  5
36F
100
AcDbEntity
  8
0
100
AcDbSpline
 62
7
  6
CONTINUOUS
 70
0
 71
3
 72
18
 73
14
 74
0
 42
0.0000001
 43
0.0000001
 44
0.0000000001
 40
0.0
 40
0.0
 40
0.0
 40
0.0
 40
0.0548621106
 40
0.1099281304
 40
0.165399556
 40
0.2214731722
 40
0.2783387379
 40
0.3361775111
 40
0.4554063056
 40
0.5804414047
 40
0.7123341351
 40
0.8519581983
 40
1.0
 40
1.0
 40
1.0
 40
1.0
 10
11.2285748055
 20
10.5046584039
 30
0.0
 10
11.2285748087
 20
10.5039522579
 30
0.0
 10
11.2285299962
 20
10.5025369358
 30
0.0
 10
11.2283285
 20
10.5004162529
 30
0.0
 10
11.2279927496
 20
10.4982967936
 30
0.0
 10
11.2275228719
 20
10.4961793314
 30
0.0
 10
11.2269190649
 20
10.4940643952
 30
0.0
 10
11.2259259143
 20
10.4912203768
 30
0.0
 10
11.2243348972
 20
10.4876632743
 30
0.0
 10
11.2219132639
 20
10.4834623181
 30
0.0
 10
11.2189638313
 20
10.4792885475
 30
0.0
 10
11.2154910864
 20
10.4751461688
 30
0.0
 10
11.2129082823
 20
10.4724883244
 30
0.0
 10
11.211537751
 20
10.4711644927
 30
0.0
  0
SPLINE
  5
370
100
AcDbEntity
  8
0
100
AcDbSpline
 62
7
  6
CONTINUOUS
 70
0
 71
3
 72
18
 73
14
 74
0
 42
0.0000001
 43
0.0000001
 44
0.0000000001
 40
0.0
 40
0.0
 40
0.0
 40
0.0
 40
0.1264462569
 40
0.1896026429
 40
0.2526949132
 40
0.378620474
 40
0.5041365625
 40
0.6291322962
 40
0.6914112289
 40
0.7535196859
 40
0.8154443188
 40
0.8771759799
 40
1.0
 40
1.0
 40
1.0
 40
1.0
 10
10.7476691957
 20
7.9005676466
 30
0.0
 10
10.7451280424
 20
7.8966172539
 30
0.0
 10
10.7415027204
 20
7.89057133
 30
0.0
 10
10.7370725939
 20
7.8822941419
 30
0.0
 10
10.7329263283
 20
7.8738924654
 30
0.0
 10
10.7282846537
 20
7.8631592216
 30
0.0
 10
10.7236327798
 20
7.8499603409
 30
0.0
 10
10.720561747
 20
7.838742483
 30
0.0
 10
10.7186144051
 20
7.8296837334
 30
0.0
 10
10.7174140436
 20
7.8228659425
 30
0.0
 10
10.7164760911
 20
7.8160274919
 30
0.0
 10
10.715581121
 20
7.8069137744
 30
0.0
 10
10.7153087537
 20
7.8000541595
 30
0.0
 10
10.7153087537
 20
7.7954915822
 30
0.0
  0
SPLINE
  5
371
100
AcDbEntity
  8
0
100
AcDbSpline
 62
7
  6
CONTINUOUS
 70
0
 71
3
 72
42
 73
38
 74
0
 42
0.0000001
 43
0.0000001
 44
0.0000000001
 40
0.0
 40
0.0
 40
0.0
 40
0.0
 40
0.0299419663
 40
0.0449235352
 40
0.0599142051
 40
0.0899287052
 40
0.1200139767
 40
0.135092661
 40
0.150196701
 40
0.1804840414
 40
0.210897872
 40
0.2414513324
 40
0.2721543376
 40
0.3030133986
 40
0.3340315263
 40
0.3652082187
 40
0.3965395244
 40
0.4280181782
 40
0.4596338019
 40
0.4913731609
 40
0.5232204716
 40
0.55515775
 40
0.5871651943
 40
0.6192215961
 40
0.6513047701
 40
0.6833919991
 40
0.7154604852
 40
0.7474878032
 40
0.7794523473
 40
0.8113337692
 40
0.8431133916
 40
0.8747746171
 40
0.9063032365
 40
0.9376879249
 40
0.9533258257
 40
0.968925233
 40
1.0
 40
1.0
 40
1.0
 40
1.0
 10
11.2017047434
 20
10.117468221
 30
0.0
 10
11.2045581661
 20
10.1202244162
 30
0.0
 10
11.209006475
 20
10.1241917235
 30
0.0
 10
11.2152362624
 20
10.1291142626
 30
0.0
 10
11.2216644239
 20
10.1337918694
 30
0.0
 10
11.2300521325
 20
10.1391632709
 30
0.0
 10
11.2388476667
 20
10.143861686
 30
0.0
 10
11.2461016882
 20
10.1472041861
 30
0.0
 10
11.2535055842
 20
10.1502707038
 30
0.0
 10
11.263004428
 20
10.1535681303
 30
0.0
 10
11.2747103278
 20
10.1566412429
 30
0.0
 10
11.2866716543
 20
10.158818327
 30
0.0
 10
11.2988221226
 20
10.1600873641
 30
0.0
 10
11.3110949867
 20
10.1604415837
 30
0.0
 10
11.3234227178
 20
10.1598791823
 30
0.0
 10
11.3357375596
 20
10.1584034084
 30
0.0
 10
11.3479718474
 20
10.1560225156
 30
0.0
 10
11.3600583884
 20
10.1527497173
 30
0.0
 10
11.3719308228
 20
10.1486031082
 30
0.0
 10
11.3835239837
 20
10.1436055628
 30
0.0
 10
11.3947742493
 20
10.1377846076
 30
0.0
 10
11.4056198879
 20
10.1311722702
 30
0.0
 10
11.4160013918
 20
10.1238049031
 30
0.0
 10
11.4258617998
 20
10.1157229846
 30
0.0
 10
11.4351470055
 20
10.1069708985
 30
0.0
 10
11.4438060516
 20
10.0975966923
 30
0.0
 10
11.451791406
 20
10.0876518162
 30
0.0
 10
11.4590592202
 20
10.0771908429
 30
0.0
 10
11.4655695682
 20
10.0662711747
 30
0.0
 10
11.4712866637
 20
10.0549527194
 30
0.0
 10
11.4761790549
 20
10.0432976128
 30
0.0
 10
11.4802198042
 20
10.0313697092
 30
0.0
 10
11.4833865929
 20
10.0192348731
 30
0.0
 10
11.4852851499
 20
10.0089917516
 30
0.0
 10
11.4863501874
 20
10.0007615342
 30
0.0
 10
11.4871102769
 20
9.9925391905
 30
0.0
 10
11.487340424
 20
9.9863519351
 30
0.0
 10
11.487340424
 20
9.9822346487
 30
0.0
  0
SPLINE
  5
372
100
AcDbEntity
  8
0
100
AcDbSpline
 62
7
  6
CONTINUOUS
 70
0
 71
3
 72
42
 73
38
 74
0
 42
0.0000001
 43
0.0000001
 44
0.0000000001
 40
0.0
 40
0.0
 40
0.0
 40
0.0
 40
0.0299419663
 40
0.0449235352
 40
0.0599142051
 40
0.0899287052
 40
0.1200139767
 40
0.135092661
 40
0.150196701
 40
0.1804840414
 40
0.210897872
 40
0.2414513324
 40
0.2721543376
 40
0.3030133986
 40
0.3340315263
 40
0.3652082187
 40
0.3965395244
 40
0.4280181782
 40
0.4596338019
 40
0.4913731609
 40
0.5232204716
 40
0.55515775
 40
0.5871651943
 40
0.6192215961
 40
0.6513047701
 40
0.6833919991
 40
0.7154604852
 40
0.7474878032
 40
0.7794523473
 40
0.8113337692
 40
0.8431133916
 40
0.8747746171
 40
0.9063032365
 40
0.9376879249
 40
0.9533258257
 40
0.968925233
 40
1.0
 40
1.0
 40
1.0
 40
1.0
 10
10.2357788599
 20
7.2866777292
 30
0.0
 10
10.2386322826
 20
7.2894339244
 30
0.0
 10
10.2430805915
 20
7.2934012317
 30
0.0
 10
10.2493103789
 20
7.2983237708
 30
0.0
 10
10.2557385403
 20
7.3030013776
 30
0.0
 10
10.2641262489
 20
7.3083727791
 30
0.0
 10
10.2729217831
 20
7.3130711942
 30
0.0
 10
10.2801758046
 20
7.3164136942
 30
0.0
 10
10.2875797007
 20
7.319480212
 30
0.0
 10
10.2970785445
 20
7.3227776385
 30
0.0
 10
10.3087844443
 20
7.3258507511
 30
0.0
 10
10.3207457707
 20
7.3280278352
 30
0.0
 10
10.3328962391
 20
7.3292968723
 30
0.0
 10
10.3451691031
 20
7.3296510919
 30
0.0
 10
10.3574968342
 20
7.3290886904
 30
0.0
 10
10.3698116761
 20
7.3276129166
 30
0.0
 10
10.3820459638
 20
7.3252320238
 30
0.0
 10
10.3941325049
 20
7.3219592255
 30
0.0
 10
10.4060049393
 20
7.3178126164
 30
0.0
 10
10.4175981002
 20
7.312815071
 30
0.0
 10
10.4288483658
 20
7.3069941157
 30
0.0
 10
10.4396940044
 20
7.3003817784
 30
0.0
 10
10.4500755083
 20
7.2930144113
 30
0.0
 10
10.4599359162
 20
7.2849324928
 30
0.0
 10
10.469221122
 20
7.2761804067
 30
0.0
 10
10.4778801681
 20
7.2668062004
 30
0.0
 10
10.4858655225
 20
7.2568613244
 30
0.0
 10
10.4931333367
 20
7.2464003511
 30
0.0
 10
10.4996436847
 20
7.2354806829
 30
0.0
 10
10.5053607802
 20
7.2241622276
 30
0.0
 10
10.5102531714
 20
7.212507121
 30
0.0
 10
10.5142939207
 20
7.2005792174
 30
0.0
 10
10.5174607094
 20
7.1884443813
 30
0.0
 10
10.5193592663
 20
7.1782012598
 30
0.0
 10
10.5204243039
 20
7.1699710424
 30
0.0
 10
10.5211843934
 20
7.1617486987
 30
0.0
 10
10.5214145405
 20
7.1555614432
 30
0.0
 10
10.5214145405
 20
7.1514441569
 30
0.0
  0
SPLINE
  5
373
100
AcDbEntity
  8
0
100
AcDbSpline
 62
7
  6
CONTINUOUS
 70
0
 71
3
 72
91
 73
87
 74
0
 42
0.0000001
 43
0.0000001
 44
0.0000000001
 40
0.0
 40
0.0
 40
0.0
 40
0.0
 40
0.0027164146
 40
0.005453202
 40
0.008230252
 40
0.0110665198
 40
0.0139797053
 40
0.0169859824
 40
0.0200999174
 40
0.023334401
 40
0.0267007187
 40
0.0302086385
 40
0.0338665091
 40
0.0376814414
 40
0.0416593691
 40
0.0458052582
 40
0.0501231421
 40
0.0546162891
 40
0.0592872586
 40
0.064137982
 40
0.0691698666
 40
0.0743837897
 40
0.079780237
 40
0.0853592528
 40
0.0911205635
 40
0.0970635488
 40
0.1031872988
 40
0.1094906474
 40
0.1226297881
 40
0.1364673429
 40
0.1509860432
 40
0.166165828
 40
0.1819841602
 40
0.1984162836
 40
0.2154354412
 40
0.2330130641
 40
0.2511189358
 40
0.2697213391
 40
0.2887871904
 40
0.3082821639
 40
0.3281708096
 40
0.3484166635
 40
0.368982358
 40
0.3898297276
 40
0.4109199118
 40
0.4322134566
 40
0.4536704139
 40
0.4752504412
 40
0.4969128994
 40
0.5186169519
 40
0.5403216628
 40
0.5619860952
 40
0.5835694083
 40
0.6050309559
 40
0.6263303839
 40
0.6474277291
 40
0.6682835187
 40
0.688858872
 40
0.7091156002
 40
0.7290163102
 40
0.7485245085
 40
0.7676047097
 40
0.7862225487
 40
0.8043448976
 40
0.8219399925
 40
0.8389775679
 40
0.8554290014
 40
0.8712674776
 40
0.8864681732
 40
0.9010084737
 40
0.9148682315
 40
0.9280300795
 40
0.9343449284
 40
0.9404802779
 40
0.9464349254
 40
0.952207944
 40
0.9577987094
 40
0.9632068925
 40
0.9684325652
 40
0.9734761403
 40
0.9783384919
 40
0.9830209404
 40
0.9875254382
 40
0.9918545985
 40
0.9960115586
 40
1.0
 40
1.0
 40
1.0
 40
1.0
 10
12.4080705389
 20
8.2870254597
 30
0.0
 10
12.406969376
 20
8.2871018209
 30
0.0
 10
12.4047644293
 20
8.2873547727
 30
0.0
 10
12.4014850736
 20
8.2880316754
 30
0.0
 10
12.3982305157
 20
8.289005994
 30
0.0
 10
12.3950030385
 20
8.2902766911
 30
0.0
 10
12.39180436
 20
8.2918427489
 30
0.0
 10
12.3886360649
 20
8.2937028356
 30
0.0
 10
12.3854996615
 20
8.2958557086
 30
0.0
 10
12.3823965124
 20
8.2982999539
 30
0.0
 10
12.3793279663
 20
8.3010341601
 30
0.0
 10
12.3762953642
 20
8.3040568454
 30
0.0
 10
12.3732999886
 20
8.3073664008
 30
0.0
 10
12.370343227
 20
8.3109611912
 30
0.0
 10
12.367426353
 20
8.3148393796
 30
0.0
 10
12.3645507754
 20
8.318999089
 30
0.0
 10
12.3617177958
 20
8.3234382422
 30
0.0
 10
12.3589287924
 20
8.3281546706
 30
0.0
 10
12.3561851068
 20
8.3331460467
 30
0.0
 10
12.3534880553
 20
8.3384099006
 30
0.0
 10
12.3508390024
 20
8.3439436417
 30
0.0
 10
12.3482392037
 20
8.3497445099
 30
0.0
 10
12.3456900066
 20
8.3558096402
 30
0.0
 10
12.3431926307
 20
8.3621359999
 30
0.0
 10
12.3407483599
 20
8.3687204455
 30
0.0
 10
12.338358406
 20
8.3755596828
 30
0.0
 10
12.3360239441
 20
8.382650305
 30
0.0
 10
12.3329442901
 20
8.3925725546
 30
0.0
 10
12.3292527672
 20
8.4055846508
 30
0.0
 10
12.3251213148
 20
8.4219342986
 30
0.0
 10
12.3212375639
 20
8.4391953814
 30
0.0
 10
12.317609395
 20
8.4573332973
 30
0.0
 10
12.3142441925
 20
8.4763118239
 30
0.0
 10
12.3111488038
 20
8.4960929409
 30
0.0
 10
12.3083295286
 20
8.5166369935
 30
0.0
 10
12.3057921052
 20
8.5379027597
 30
0.0
 10
12.3035416986
 20
8.5598475466
 30
0.0
 10
12.3015828903
 20
8.5824272785
 30
0.0
 10
12.2999196692
 20
8.6055965897
 30
0.0
 10
12.298555424
 20
8.6293089181
 30
0.0
 10
12.2974929373
 20
8.6535165999
 30
0.0
 10
12.2967343782
 20
8.6781709674
 30
0.0
 10
12.2962812993
 20
8.7032224484
 30
0.0
 10
12.2961346355
 20
8.7286206682
 30
0.0
 10
12.2962947015
 20
8.7543145515
 30
0.0
 10
12.2967611921
 20
8.7802524261
 30
0.0
 10
12.2975331824
 20
8.8063821267
 30
0.0
 10
12.2986091307
 20
8.8326511005
 30
0.0
 10
12.2999868806
 20
8.859006513
 30
0.0
 10
12.3016636645
 20
8.8853953552
 30
0.0
 10
12.3036361104
 20
8.9117645507
 30
0.0
 10
12.3059002495
 20
8.9380610634
 30
0.0
 10
12.3084515238
 20
8.9642320037
 30
0.0
 10
12.3112847952
 20
8.9902247358
 30
0.0
 10
12.3143943561
 20
9.0159869832
 30
0.0
 10
12.3177739406
 20
9.0414669346
 30
0.0
 10
12.3214167362
 20
9.0666133492
 30
0.0
 10
12.3253153966
 20
9.091375661
 30
0.0
 10
12.3294620579
 20
9.1157040809
 30
0.0
 10
12.3338483544
 20
9.1395496976
 30
0.0
 10
12.3384654346
 20
9.1628645765
 30
0.0
 10
12.3433039794
 20
9.1856018574
 30
0.0
 10
12.3483542201
 20
9.2077158502
 30
0.0
 10
12.3536059585
 20
9.2291621296
 30
0.0
 10
12.3590485859
 20
9.2498976286
 30
0.0
 10
12.3646711042
 20
9.2698807291
 30
0.0
 10
12.3704621509
 20
9.2890713478
 30
0.0
 10
12.3764100221
 20
9.3074310279
 30
0.0
 10
12.3825026979
 20
9.3249230026
 30
0.0
 10
12.3887278734
 20
9.3415123543
 30
0.0
 10
12.3950729791
 20
9.3571658345
 30
0.0
 10
12.400522403
 20
9.3695701095
 30
0.0
 10
12.4049400908
 20
9.3789938241
 30
0.0
 10
12.4082296005
 20
9.3857107296
 30
0.0
 10
12.4115394851
 20
9.3921712075
 30
0.0
 10
12.414868114
 20
9.398372033
 30
0.0
 10
12.4182137904
 20
9.4043101183
 30
0.0
 10
12.4215748854
 20
9.40998249
 30
0.0
 10
12.4249496775
 20
9.4153863477
 30
0.0
 10
12.4283365437
 20
9.4205189791
 30
0.0
 10
12.431733748
 20
9.425377851
 30
0.0
 10
12.4351396488
 20
9.4299605507
 30
0.0
 10
12.4385525993
 20
9.4342648415
 30
0.0
 10
12.4419709966
 20
9.4382886429
 30
0.0
 10
12.4453930423
 20
9.4420297721
 30
0.0
 10
12.4477231352
 20
9.4443820844
 30
0.0
 10
12.4488888253
 20
9.4455080546
 30
0.0
  0
SPLINE
  5
374
100
AcDbEntity
  8
0
100
AcDbSpline
 62
7
  6
CONTINUOUS
 70
0
 71
3
 72
78
 73
74
 74
0
 42
0.0000001
 43
0.0000001
 44
0.0000000001
 40
0.0
 40
0.0
 40
0.0
 40
0.0
 40
0.0027966493
 40
0.0056682021
 40
0.0116913231
 40
0.0148721515
 40
0.0181792687
 40
0.0216219023
 40
0.0252079504
 40
0.0289441896
 40
0.032836314
 40
0.0368890703
 40
0.0411064178
 40
0.0454915166
 40
0.0500469073
 40
0.0547745577
 40
0.0596758685
 40
0.0647518381
 40
0.0700030116
 40
0.0810307655
 40
0.0927574002
 40
0.1051759979
 40
0.1182758382
 40
0.132042943
 40
0.1464605257
 40
0.1615093221
 40
0.1771678358
 40
0.193412564
 40
0.2102182129
 40
0.2275578587
 40
0.2454030706
 40
0.2637240415
 40
0.2824897301
 40
0.3016679683
 40
0.3212255498
 40
0.3411283305
 40
0.3613413433
 40
0.3818288877
 40
0.4234809086
 40
0.4657881558
 40
0.5084476299
 40
0.551153105
 40
0.5935979354
 40
0.6354778631
 40
0.656112597
 40
0.6764945252
 40
0.696587546
 40
0.7163562337
 40
0.7357659357
 40
0.7547828844
 40
0.7733742778
 40
0.7915083747
 40
0.80915461
 40
0.8262837295
 40
0.8428678905
 40
0.8588807896
 40
0.8742978235
 40
0.8890962884
 40
0.9032555546
 40
0.9167572978
 40
0.9295858042
 40
0.9417283685
 40
0.9531757164
 40
0.9586371621
 40
0.9639232487
 40
0.9690340572
 40
0.973970079
 40
0.9787321628
 40
0.9833216477
 40
0.9877404899
 40
0.9919911414
 40
0.9960764945
 40
1.0
 40
1.0
 40
1.0
 40
1.0
 10
12.3830383884
 20
8.4751786158
 30
0.0
 10
12.3823091644
 20
8.4754364399
 30
0.0
 10
12.3808521546
 20
8.4760204331
 30
0.0
 10
12.3779514233
 20
8.4774546578
 30
0.0
 10
12.3751314093
 20
8.4792675305
 30
0.0
 10
12.3724092907
 20
8.4814056009
 30
0.0
 10
12.3703525093
 20
8.4832282444
 30
0.0
 10
12.3683193846
 20
8.4852394288
 30
0.0
 10
12.3663104264
 20
8.487438283
 30
0.0
 10
12.3643266142
 20
8.4898237324
 30
0.0
 10
12.3623687684
 20
8.4923946416
 30
0.0
 10
12.3604377348
 20
8.4951497827
 30
0.0
 10
12.3585344238
 20
8.4980878916
 30
0.0
 10
12.3566596554
 20
8.5012075632
 30
0.0
 10
12.3548143063
 20
8.5045073427
 30
0.0
 10
12.3529992513
 20
8.5079856866
 30
0.0
 10
12.3512153016
 20
8.5116409367
 30
0.0
 10
12.3494633137
 20
8.5154713901
 30
0.0
 10
12.3471329534
 20
8.52089875
 30
0.0
 10
12.3443147088
 20
8.5281158532
 30
0.0
 10
12.3411260722
 20
8.5373082153
 30
0.0
 10
12.3380838108
 20
8.5471513565
 30
0.0
 10
12.3351937589
 20
8.5576265811
 30
0.0
 10
12.3324614712
 20
8.5687141286
 30
0.0
 10
12.3298922265
 20
8.5803929489
 30
0.0
 10
12.3274910029
 20
8.5926408385
 30
0.0
 10
12.32526245
 20
8.6054344581
 30
0.0
 10
12.3232108771
 20
8.6187493936
 30
0.0
 10
12.3213402593
 20
8.6325602161
 30
0.0
 10
12.3196542278
 20
8.646840535
 30
0.0
 10
12.3181560501
 20
8.6615630435
 30
0.0
 10
12.3168486219
 20
8.6766995739
 30
0.0
 10
12.3157344771
 20
8.6922211613
 30
0.0
 10
12.3148157823
 20
8.7080980992
 30
0.0
 10
12.3140943203
 20
8.7242999948
 30
0.0
 10
12.3135714909
 20
8.7407958176
 30
0.0
 10
12.3132482932
 20
8.7575540054
 30
0.0
 10
12.3130835879
 20
8.7803298519
 30
0.0
 10
12.3133859598
 20
8.8092175932
 30
0.0
 10
12.3145421494
 20
8.8442198467
 30
0.0
 10
12.3164851875
 20
8.8794790785
 30
0.0
 10
12.319200187
 20
8.9147254359
 30
0.0
 10
12.3226664152
 20
8.9496891627
 30
0.0
 10
12.326175645
 20
8.9785073514
 30
0.0
 10
12.3293438996
 20
9.0012142727
 30
0.0
 10
12.3318779614
 20
9.0179245556
 30
0.0
 10
12.334576599
 20
9.0343663696
 30
0.0
 10
12.3374346537
 20
9.0505082515
 30
0.0
 10
12.3404466337
 20
9.0663192875
 30
0.0
 10
12.3436067448
 20
9.0817692137
 30
0.0
 10
12.3469089111
 20
9.0968284602
 30
0.0
 10
12.3503467868
 20
9.1114682061
 30
0.0
 10
12.353913766
 20
9.1256604425
 30
0.0
 10
12.3576029797
 20
9.1393780331
 30
0.0
 10
12.3614073285
 20
9.1525947617
 30
0.0
 10
12.3653194945
 20
9.1652853783
 30
0.0
 10
12.3693319566
 20
9.1774256597
 30
0.0
 10
12.3734369865
 20
9.1889924672
 30
0.0
 10
12.377626689
 20
9.1999637937
 30
0.0
 10
12.3818930158
 20
9.2103187851
 30
0.0
 10
12.3862278009
 20
9.2200378727
 30
0.0
 10
12.3906227333
 20
9.2291025776
 30
0.0
 10
12.3943850331
 20
9.2362043727
 30
0.0
 10
12.3974244755
 20
9.2415378742
 30
0.0
 10
12.3996780561
 20
9.2453009426
 30
0.0
 10
12.4019404025
 20
9.2488880954
 30
0.0
 10
12.4042104197
 20
9.2522976505
 30
0.0
 10
12.4064870367
 20
9.2555279886
 30
0.0
 10
12.4087692246
 20
9.258577589
 30
0.0
 10
12.4110559142
 20
9.2614450664
 30
0.0
 10
12.4133461082
 20
9.2641290523
 30
0.0
 10
12.4156385848
 20
9.2666281592
 30
0.0
 10
12.417198725
 20
9.2682014788
 30
0.0
 10
12.4179791963
 20
9.2689553562
 30
0.0
  0
SPLINE
  5
375
100
AcDbEntity
  8
0
100
AcDbSpline
 62
7
  6
CONTINUOUS
 70
0
 71
3
 72
15
 73
11
 74
0
 42
0.0000001
 43
0.0000001
 44
0.0000000001
 40
0.0
 40
0.0
 40
0.0
 40
0.0
 40
0.108441033
 40
0.2203202389
 40
0.3363917414
 40
0.457322038
 40
0.5836915292
 40
0.7159988585
 40
0.8546582553
 40
1.0
 40
1.0
 40
1.0
 40
1.0
 10
12.4389434368
 20
9.281301469
 30
0.0
 10
12.4380704427
 20
9.2811232688
 30
0.0
 10
12.4363131047
 20
9.2806764292
 30
0.0
 10
12.4337025628
 20
9.2797587319
 30
0.0
 10
12.4310835459
 20
9.2785858561
 30
0.0
 10
12.4284579308
 20
9.2771589808
 30
0.0
 10
12.4258270371
 20
9.2754793136
 30
0.0
 10
12.4231922819
 20
9.2735480827
 30
0.0
 10
12.4205552709
 20
9.2713667727
 30
0.0
 10
12.418838121
 20
9.2697850139
 30
0.0
 10
12.4179791963
 20
9.2689553562
 30
0.0
  0
SPLINE
  5
376
100
AcDbEntity
  8
0
100
AcDbSpline
 62
7
  6
CONTINUOUS
 70
0
 71
3
 72
21
 73
17
 74
0
 42
0.0000001
 43
0.0000001
 44
0.0000000001
 40
0.0
 40
0.0
 40
0.0
 40
0.0
 40
0.1273176366
 40
0.2537999756
 40
0.3167619475
 40
0.3795355041
 40
0.4421314991
 40
0.5045621439
 40
0.5668413432
 40
0.6289845283
 40
0.6910084528
 40
0.7529310935
 40
0.8147714495
 40
0.8765493365
 40
0.9382852194
 40
1.0
 40
1.0
 40
1.0
 40
1.0
 10
11.1550619201
 20
10.0052782412
 30
0.0
 10
11.1550619201
 20
10.0105754911
 30
0.0
 10
11.1555675776
 20
10.0211420554
 30
0.0
 10
11.1574772816
 20
10.0342046118
 30
0.0
 10
11.1597598026
 20
10.0444510455
 30
0.0
 10
11.1618413391
 20
10.0520088186
 30
0.0
 10
11.1642901267
 20
10.0594323025
 30
0.0
 10
11.1671005545
 20
10.0667045824
 30
0.0
 10
11.1702661219
 20
10.0738088443
 30
0.0
 10
11.1737795733
 20
10.0807287047
 30
0.0
 10
11.1776328266
 20
10.0874481889
 30
0.0
 10
11.1818169731
 20
10.0939518209
 30
0.0
 10
11.1863223755
 20
10.1002245736
 30
0.0
 10
11.1911387227
 20
10.1062520055
 30
0.0
 10
11.1962546813
 20
10.1120200521
 30
0.0
 10
11.1998578846
 20
10.1156842921
 30
0.0
 10
11.2017047434
 20
10.117468221
 30
0.0
  0
SPLINE
  5
377
100
AcDbEntity
  8
0
100
AcDbSpline
 62
7
  6
CONTINUOUS
 70
0
 71
3
 72
18
 73
14
 74
0
 42
0.0000001
 43
0.0000001
 44
0.0000000001
 40
0.0
 40
0.0
 40
0.0
 40
0.0
 40
0.0548621106
 40
0.1099281304
 40
0.165399556
 40
0.2214731722
 40
0.2783387379
 40
0.3361775111
 40
0.4554063056
 40
0.5804414047
 40
0.7123341351
 40
0.8519581983
 40
1.0
 40
1.0
 40
1.0
 40
1.0
 10
10.2285748129
 20
10.5046577691
 30
0.0
 10
10.2285748097
 20
10.5053639151
 30
0.0
 10
10.2286196223
 20
10.5067792372
 30
0.0
 10
10.2288211185
 20
10.5088999202
 30
0.0
 10
10.2291568689
 20
10.5110193795
 30
0.0
 10
10.2296267465
 20
10.5131368417
 30
0.0
 10
10.2302305536
 20
10.5152517779
 30
0.0
 10
10.2312237042
 20
10.5180957962
 30
0.0
 10
10.2328147212
 20
10.5216528987
 30
0.0
 10
10.2352363545
 20
10.5258538549
 30
0.0
 10
10.2381857872
 20
10.5300276255
 30
0.0
 10
10.2416585321
 20
10.5341700042
 30
0.0
 10
10.2442413361
 20
10.5368278486
 30
0.0
 10
10.2456118675
 20
10.5381516803
 30
0.0
  0
SPLINE
  5
378
100
AcDbEntity
  8
0
100
AcDbSpline
 62
7
  6
CONTINUOUS
 70
0
 71
3
 72
21
 73
17
 74
0
 42
0.0000001
 43
0.0000001
 44
0.0000000001
 40
0.0
 40
0.0
 40
0.0
 40
0.0
 40
0.1273176366
 40
0.2537999756
 40
0.3167619475
 40
0.3795355041
 40
0.4421314991
 40
0.5045621439
 40
0.5668413432
 40
0.6289845283
 40
0.6910084528
 40
0.7529310935
 40
0.8147714495
 40
0.8765493365
 40
0.9382852194
 40
1.0
 40
1.0
 40
1.0
 40
1.0
 10
10.1891360366
 20
7.1744877494
 30
0.0
 10
10.1891360366
 20
7.1797849993
 30
0.0
 10
10.189641694
 20
7.1903515636
 30
0.0
 10
10.1915513981
 20
7.20341412
 30
0.0
 10
10.1938339191
 20
7.2136605536
 30
0.0
 10
10.1959154556
 20
7.2212183267
 30
0.0
 10
10.1983642432
 20
7.2286418107
 30
0.0
 10
10.201174671
 20
7.2359140906
 30
0.0
 10
10.2043402384
 20
7.2430183524
 30
0.0
 10
10.2078536898
 20
7.2499382128
 30
0.0
 10
10.211706943
 20
7.2566576971
 30
0.0
 10
10.2158910896
 20
7.2631613291
 30
0.0
 10
10.2203964919
 20
7.2694340818
 30
0.0
 10
10.2252128392
 20
7.2754615137
 30
0.0
 10
10.2303287978
 20
7.2812295603
 30
0.0
 10
10.2339320011
 20
7.2848938003
 30
0.0
 10
10.2357788599
 20
7.2866777292
 30
0.0
  0
SPLINE
  5
379
100
AcDbEntity
  8
0
100
AcDbSpline
 62
7
  6
CONTINUOUS
 70
0
 71
3
 72
41
 73
37
 74
0
 42
0.0000001
 43
0.0000001
 44
0.0000000001
 40
0.0
 40
0.0
 40
0.0
 40
0.0
 40
0.0299421703
 40
0.0599087166
 40
0.0899234211
 40
0.1200088977
 40
0.150186053
 40
0.1804736004
 40
0.2108876395
 40
0.2414413098
 40
0.2721445264
 40
0.3030038
 40
0.3340221415
 40
0.3651990482
 40
0.3965305685
 40
0.4280094374
 40
0.4596252765
 40
0.4913648514
 40
0.5232123788
 40
0.5551498746
 40
0.5871575376
 40
0.6192141589
 40
0.6512975532
 40
0.6833850026
 40
0.7154537088
 40
0.731476412
 40
0.7474860771
 40
0.7794508401
 40
0.8113324799
 40
0.8431123195
 40
0.8747737613
 40
0.9063025943
 40
0.937687506
 40
0.953325536
 40
0.9689249997
 40
1.0
 40
1.0
 40
1.0
 40
1.0
 10
11.0026882602
 20
7.5687196215
 30
0.0
 10
10.9991878314
 20
7.5653384849
 30
0.0
 10
10.9919117569
 20
7.5588490545
 30
0.0
 10
10.980254329
 20
7.5500083756
 30
0.0
 10
10.9679131993
 20
7.5421053773
 30
0.0
 10
10.9549573166
 20
7.5351844013
 30
0.0
 10
10.9414579131
 20
7.5292832564
 30
0.0
 10
10.9274894896
 20
7.5244343823
 30
0.0
 10
10.9131290203
 20
7.5206643095
 30
0.0
 10
10.898455621
 20
7.5179936221
 30
0.0
 10
10.8835500807
 20
7.5164368283
 30
0.0
 10
10.8684944221
 20
7.5160022985
 30
0.0
 10
10.853371448
 20
7.5166922262
 30
0.0
 10
10.8382642887
 20
7.5185026296
 30
0.0
 10
10.8232559488
 20
7.5214233816
 30
0.0
 10
10.8084288568
 20
7.5254382721
 30
0.0
 10
10.7938644187
 20
7.5305251028
 30
0.0
 10
10.7796425773
 20
7.5366558123
 30
0.0
 10
10.7658413792
 20
7.5437966329
 30
0.0
 10
10.7525365547
 20
7.5519082741
 30
0.0
 10
10.7398010999
 20
7.5609461494
 30
0.0
 10
10.7277049118
 20
7.5708605754
 30
0.0
 10
10.7163142936
 20
7.5815972095
 30
0.0
 10
10.7056920294
 20
7.5930967227
 30
0.0
 10
10.6975255565
 20
7.6032672567
 30
0.0
 10
10.691432605
 20
7.6117210112
 30
0.0
 10
10.6856462205
 20
7.6203671522
 30
0.0
 10
10.6789935059
 20
7.6315255017
 30
0.0
 10
10.671980259
 20
7.6454101115
 30
0.0
 10
10.6659785044
 20
7.6597080097
 30
0.0
 10
10.6610215517
 20
7.6743404783
 30
0.0
 10
10.6571367076
 20
7.6892268226
 30
0.0
 10
10.654807666
 20
7.7017925158
 30
0.0
 10
10.6535011343
 20
7.7118888832
 30
0.0
 10
10.6525686998
 20
7.7219755941
 30
0.0
 10
10.6522863683
 20
7.7295657686
 30
0.0
 10
10.6522863683
 20
7.7346166289
 30
0.0
  0
SPLINE
  5
37A
100
AcDbEntity
  8
0
100
AcDbSpline
 62
7
  6
CONTINUOUS
 70
0
 71
3
 72
21
 73
17
 74
0
 42
0.0000001
 43
0.0000001
 44
0.0000000001
 40
0.0
 40
0.0
 40
0.0
 40
0.0
 40
0.0617147758
 40
0.1234506606
 40
0.1852285516
 40
0.2470689039
 40
0.3089915432
 40
0.3710154715
 40
0.4331586565
 40
0.4954378534
 40
0.5578684959
 40
0.6204644995
 40
0.6832380575
 40
0.7461999878
 40
0.87268242
 40
1.0
 40
1.0
 40
1.0
 40
1.0
 10
10.7095051992
 20
7.8722450431
 30
0.0
 10
10.7072395697
 20
7.8700566248
 30
0.0
 10
10.7028193676
 20
7.8655615323
 30
0.0
 10
10.6965433755
 20
7.8584856304
 30
0.0
 10
10.6906349637
 20
7.8510914996
 30
0.0
 10
10.6851079883
 20
7.8433964355
 30
0.0
 10
10.6799750961
 20
7.8354181508
 30
0.0
 10
10.6752481433
 20
7.8271750586
 30
0.0
 10
10.6709380468
 20
7.8186861542
 30
0.0
 10
10.6670546932
 20
7.8099710468
 30
0.0
 10
10.6636070139
 20
7.8010498191
 30
0.0
 10
10.6606029895
 20
7.7919430978
 30
0.0
 10
10.6580494692
 20
7.7826716463
 30
0.0
 10
10.6552493933
 20
7.7701018901
 30
0.0
 10
10.6529066837
 20
7.7540774717
 30
0.0
 10
10.6522863683
 20
7.7411149973
 30
0.0
 10
10.6522863683
 20
7.7346166289
 30
0.0
  0
SPLINE
  5
37B
100
AcDbEntity
  8
0
100
AcDbSpline
 62
7
  6
CONTINUOUS
 70
0
 71
3
 72
42
 73
38
 74
0
 42
0.0000001
 43
0.0000001
 44
0.0000000001
 40
0.0
 40
0.0
 40
0.0
 40
0.0
 40
0.0299419663
 40
0.0449235352
 40
0.0599142051
 40
0.0899287052
 40
0.1200139767
 40
0.135092661
 40
0.150196701
 40
0.1804840414
 40
0.210897872
 40
0.2414513324
 40
0.2721543376
 40
0.3030133986
 40
0.3340315263
 40
0.3652082187
 40
0.3965395244
 40
0.4280181782
 40
0.4596338019
 40
0.4913731609
 40
0.5232204716
 40
0.55515775
 40
0.5871651943
 40
0.6192215961
 40
0.6513047701
 40
0.6833919991
 40
0.7154604852
 40
0.7474878032
 40
0.7794523473
 40
0.8113337692
 40
0.8431133916
 40
0.8747746171
 40
0.9063032365
 40
0.9376879249
 40
0.9533258257
 40
0.968925233
 40
1.0
 40
1.0
 40
1.0
 40
1.0
 10
11.4406976008
 20
9.8700446689
 30
0.0
 10
11.437844178
 20
9.8672884738
 30
0.0
 10
11.4333958691
 20
9.8633211665
 30
0.0
 10
11.4271660817
 20
9.8583986274
 30
0.0
 10
11.4207379203
 20
9.8537210206
 30
0.0
 10
11.4123502117
 20
9.848349619
 30
0.0
 10
11.4035546775
 20
9.8436512039
 30
0.0
 10
11.396300656
 20
9.8403087039
 30
0.0
 10
11.3888967599
 20
9.8372421862
 30
0.0
 10
11.3793979161
 20
9.8339447597
 30
0.0
 10
11.3676920163
 20
9.8308716471
 30
0.0
 10
11.3557306899
 20
9.8286945629
 30
0.0
 10
11.3435802216
 20
9.8274255258
 30
0.0
 10
11.3313073575
 20
9.8270713062
 30
0.0
 10
11.3189796264
 20
9.8276337077
 30
0.0
 10
11.3066647845
 20
9.8291094816
 30
0.0
 10
11.2944304968
 20
9.8314903743
 30
0.0
 10
11.2823439558
 20
9.8347631727
 30
0.0
 10
11.2704715213
 20
9.8389097817
 30
0.0
 10
11.2588783604
 20
9.8439073272
 30
0.0
 10
11.2476280949
 20
9.8497282824
 30
0.0
 10
11.2367824563
 20
9.8563406198
 30
0.0
 10
11.2264009523
 20
9.8637079869
 30
0.0
 10
11.2165405444
 20
9.8717899054
 30
0.0
 10
11.2072553386
 20
9.8805419915
 30
0.0
 10
11.1985962925
 20
9.8899161977
 30
0.0
 10
11.1906109381
 20
9.8998610738
 30
0.0
 10
11.1833431239
 20
9.9103220471
 30
0.0
 10
11.1768327759
 20
9.9212417153
 30
0.0
 10
11.1711156804
 20
9.9325601705
 30
0.0
 10
11.1662232892
 20
9.9442152771
 30
0.0
 10
11.16218254
 20
9.9561431807
 30
0.0
 10
11.1590157513
 20
9.9682780168
 30
0.0
 10
11.1571171943
 20
9.9785211384
 30
0.0
 10
11.1560521567
 20
9.9867513557
 30
0.0
 10
11.1552920673
 20
9.9949736995
 30
0.0
 10
11.1550619201
 20
10.0011609549
 30
0.0
 10
11.1550619201
 20
10.0052782412
 30
0.0
  0
SPLINE
  5
37C
100
AcDbEntity
  8
0
100
AcDbSpline
 62
7
  6
CONTINUOUS
 70
0
 71
3
 72
84
 73
80
 74
0
 42
0.0000001
 43
0.0000001
 44
0.0000000001
 40
0.0
 40
0.0
 40
0.0
 40
0.0
 40
0.0038900711
 40
0.0079384671
 40
0.0121485517
 40
0.016523196
 40
0.0210648294
 40
0.0257753409
 40
0.0306560174
 40
0.0357077488
 40
0.0409310156
 40
0.0463259695
 40
0.0518924526
 40
0.0576299774
 40
0.0635378383
 40
0.0696150414
 40
0.0822721501
 40
0.0955897357
 40
0.109552921
 40
0.1241443013
 40
0.1393442271
 40
0.1551310304
 40
0.1714812222
 40
0.188369665
 40
0.2057697185
 40
0.2236533693
 40
0.2419913474
 40
0.260753231
 40
0.2799075531
 40
0.2994219011
 40
0.3192630096
 40
0.3393968492
 40
0.3597887131
 40
0.380403302
 40
0.4012048129
 40
0.4432227384
 40
0.4855498032
 40
0.5278899008
 40
0.5699468146
 40
0.5907774501
 40
0.6114275005
 40
0.6318610846
 40
0.6520428114
 40
0.6719378639
 40
0.6915120844
 40
0.7107320631
 40
0.7295652318
 40
0.7479799549
 40
0.7659456229
 40
0.7834327536
 40
0.800413099
 40
0.816859765
 40
0.8327473437
 40
0.8480520512
 40
0.8627518884
 40
0.8768268306
 40
0.8902590523
 40
0.9030332082
 40
0.9151367728
 40
0.9209342848
 40
0.9265609575
 40
0.9320162545
 40
0.9372998816
 40
0.9424118707
 40
0.9473526024
 40
0.9521228014
 40
0.9567236584
 40
0.9611567853
 40
0.9654243511
 40
0.9695291031
 40
0.9734744361
 40
0.9772645259
 40
0.9809043448
 40
0.9843998469
 40
0.987758014
 40
0.9909869951
 40
0.9940962274
 40
0.9970964843
 40
1.0
 40
1.0
 40
1.0
 40
1.0
 10
12.4179791963
 20
8.3078591021
 30
0.0
 10
12.4191012553
 20
8.308942928
 30
0.0
 10
12.421344238
 20
8.3112035747
 30
0.0
 10
12.42464095
 20
8.3147920804
 30
0.0
 10
12.4279344227
 20
8.3186430637
 30
0.0
 10
12.4312230106
 20
8.3227545811
 30
0.0
 10
12.4345052968
 20
8.3271247651
 30
0.0
 10
12.4377797873
 20
8.3317516574
 30
0.0
 10
12.4410450431
 20
8.3366331157
 30
0.0
 10
12.4442995031
 20
8.3417669079
 30
0.0
 10
12.4475416929
 20
8.3471506445
 30
0.0
 10
12.4507701126
 20
8.3527818421
 30
0.0
 10
12.4539832484
 20
8.3586579059
 30
0.0
 10
12.4571796425
 20
8.3647760987
 30
0.0
 10
12.4603577829
 20
8.3711336056
 30
0.0
 10
12.4646269567
 20
8.3800465274
 30
0.0
 10
12.4698981592
 20
8.3917721027
 30
0.0
 10
12.4760448963
 20
8.4065639325
 30
0.0
 10
12.4820841891
 20
8.422234116
 30
0.0
 10
12.4880047269
 20
8.4387535118
 30
0.0
 10
12.4937954173
 20
8.4560915316
 30
0.0
 10
12.499445406
 20
8.4742159599
 30
0.0
 10
12.5049441026
 20
8.4930930943
 30
0.0
 10
12.5102811982
 20
8.5126877988
 30
0.0
 10
12.515446688
 20
8.5329635822
 30
0.0
 10
12.5204308897
 20
8.5538826671
 30
0.0
 10
12.5252244607
 20
8.5754060617
 30
0.0
 10
12.5298184228
 20
8.5974936325
 30
0.0
 10
12.5342041731
 20
8.6201041838
 30
0.0
 10
12.5383734996
 20
8.6431955386
 30
0.0
 10
12.5423185962
 20
8.6667246177
 30
0.0
 10
12.5460320792
 20
8.690647524
 30
0.0
 10
12.5495069907
 20
8.7149196089
 30
0.0
 10
12.5527368591
 20
8.7394956096
 30
0.0
 10
12.5567216333
 20
8.7727175176
 30
0.0
 10
12.561043447
 20
8.8146659528
 30
0.0
 10
12.5651523863
 20
8.8653077661
 30
0.0
 10
12.5681702788
 20
8.9160419533
 30
0.0
 10
12.5697624951
 20
8.9582149161
 30
0.0
 10
12.5704683472
 20
8.9917090424
 30
0.0
 10
12.5707117991
 20
9.0165378108
 30
0.0
 10
12.5706706251
 20
9.0411074951
 30
0.0
 10
12.5703448969
 20
9.0653722803
 30
0.0
 10
12.5697352464
 20
9.0892868756
 30
0.0
 10
12.5688428305
 20
9.1128066577
 30
0.0
 10
12.5676693379
 20
9.135887741
 30
0.0
 10
12.5662169901
 20
9.1584870667
 30
0.0
 10
12.5644885329
 20
9.1805624822
 30
0.0
 10
12.5624872305
 20
9.2020728201
 30
0.0
 10
12.5602168605
 20
9.2229779749
 30
0.0
 10
12.5576817063
 20
9.2432389808
 30
0.0
 10
12.5548865508
 20
9.2628180907
 30
0.0
 10
12.5518366725
 20
9.2816788523
 30
0.0
 10
12.5485378286
 20
9.2997861778
 30
0.0
 10
12.5449962436
 20
9.3171064193
 30
0.0
 10
12.5412185957
 20
9.3336074163
 30
0.0
 10
12.5372119989
 20
9.3492586504
 30
0.0
 10
12.5329839839
 20
9.3640310383
 30
0.0
 10
12.5292308483
 20
9.3757488129
 30
0.0
 10
12.526114861
 20
9.3846552234
 30
0.0
 10
12.5237610201
 20
9.3910024014
 30
0.0
 10
12.5213579049
 20
9.3971101749
 30
0.0
 10
12.5189065794
 20
9.4029757211
 30
0.0
 10
12.516408186
 20
9.4085963251
 30
0.0
 10
12.5138639021
 20
9.4139694025
 30
0.0
 10
12.5112748488
 20
9.4190924608
 30
0.0
 10
12.5086422652
 20
9.423963165
 30
0.0
 10
12.5059672992
 20
9.4285792622
 30
0.0
 10
12.5032511795
 20
9.4329386467
 30
0.0
 10
12.5004951235
 20
9.4370393301
 30
0.0
 10
12.4977003072
 20
9.4408794137
 30
0.0
 10
12.4948680006
 20
9.444457173
 30
0.0
 10
12.4919993514
 20
9.4477709189
 30
0.0
 10
12.4890956109
 20
9.4508191372
 30
0.0
 10
12.4861579526
 20
9.45360037
 30
0.0
 10
12.4831875764
 20
9.4561132209
 30
0.0
 10
12.4801856577
 20
9.4583564744
 30
0.0
 10
12.4771536096
 20
9.4603287056
 30
0.0
 10
12.4750817121
 20
9.4614794575
 30
0.0
 10
12.4740432356
 20
9.462006125
 30
0.0
  0
SPLINE
  5
37D
100
AcDbEntity
  8
0
100
AcDbSpline
 62
7
  6
CONTINUOUS
 70
0
 71
3
 72
15
 73
11
 74
0
 42
0.0000001
 43
0.0000001
 44
0.0000000001
 40
0.0
 40
0.0
 40
0.0
 40
0.0
 40
0.1419816654
 40
0.278595296
 40
0.410044345
 40
0.536574793
 40
0.6584794438
 40
0.7760922473
 40
0.8897912072
 40
1.0
 40
1.0
 40
1.0
 40
1.0
 10
12.4179791963
 20
8.3078591021
 30
0.0
 10
12.4169501824
 20
8.3068651509
 30
0.0
 10
12.4148927425
 20
8.304953919
 30
0.0
 10
12.411746689
 20
8.3022734668
 30
0.0
 10
12.4086026282
 20
8.299836977
 30
0.0
 10
12.4054619047
 20
8.2976457049
 30
0.0
 10
12.4023257589
 20
8.2957005967
 30
0.0
 10
12.39919526
 20
8.2940026041
 30
0.0
 10
12.3960718651
 20
8.2925526292
 30
0.0
 10
12.3939647565
 20
8.2917402091
 30
0.0
 10
12.3929149438
 20
8.2913780954
 30
0.0
  0
SPLINE
  5
37E
100
AcDbEntity
  8
0
100
AcDbSpline
 62
7
  6
CONTINUOUS
 70
0
 71
3
 72
42
 73
38
 74
0
 42
0.0000001
 43
0.0000001
 44
0.0000000001
 40
0.0
 40
0.0
 40
0.0
 40
0.0
 40
0.0299419663
 40
0.0449235352
 40
0.0599142051
 40
0.0899287052
 40
0.1200139767
 40
0.135092661
 40
0.150196701
 40
0.1804840414
 40
0.210897872
 40
0.2414513324
 40
0.2721543376
 40
0.3030133986
 40
0.3340315263
 40
0.3652082187
 40
0.3965395244
 40
0.4280181782
 40
0.4596338019
 40
0.4913731609
 40
0.5232204716
 40
0.55515775
 40
0.5871651943
 40
0.6192215961
 40
0.6513047701
 40
0.6833919991
 40
0.7154604852
 40
0.7474878032
 40
0.7794523473
 40
0.8113337692
 40
0.8431133916
 40
0.8747746171
 40
0.9063032365
 40
0.9376879249
 40
0.9533258257
 40
0.968925233
 40
1.0
 40
1.0
 40
1.0
 40
1.0
 10
10.4747717172
 20
7.0392541771
 30
0.0
 10
10.4719182945
 20
7.036497982
 30
0.0
 10
10.4674699856
 20
7.0325306747
 30
0.0
 10
10.4612401982
 20
7.0276081356
 30
0.0
 10
10.4548120368
 20
7.0229305288
 30
0.0
 10
10.4464243282
 20
7.0175591272
 30
0.0
 10
10.437628794
 20
7.0128607121
 30
0.0
 10
10.4303747725
 20
7.0095182121
 30
0.0
 10
10.4229708764
 20
7.0064516944
 30
0.0
 10
10.4134720326
 20
7.0031542679
 30
0.0
 10
10.4017661328
 20
7.0000811552
 30
0.0
 10
10.3898048064
 20
6.9979040711
 30
0.0
 10
10.377654338
 20
6.996635034
 30
0.0
 10
10.3653814739
 20
6.9962808144
 30
0.0
 10
10.3530537428
 20
6.9968432159
 30
0.0
 10
10.340738901
 20
6.9983189898
 30
0.0
 10
10.3285046132
 20
7.0006998825
 30
0.0
 10
10.3164180722
 20
7.0039726809
 30
0.0
 10
10.3045456378
 20
7.0081192899
 30
0.0
 10
10.2929524769
 20
7.0131168353
 30
0.0
 10
10.2817022113
 20
7.0189377906
 30
0.0
 10
10.2708565727
 20
7.025550128
 30
0.0
 10
10.2604750688
 20
7.0329174951
 30
0.0
 10
10.2506146609
 20
7.0409994136
 30
0.0
 10
10.2413294551
 20
7.0497514997
 30
0.0
 10
10.232670409
 20
7.0591257059
 30
0.0
 10
10.2246850546
 20
7.069070582
 30
0.0
 10
10.2174172404
 20
7.0795315553
 30
0.0
 10
10.2109068924
 20
7.0904512235
 30
0.0
 10
10.2051897969
 20
7.1017696787
 30
0.0
 10
10.2002974057
 20
7.1134247853
 30
0.0
 10
10.1962566564
 20
7.1253526889
 30
0.0
 10
10.1930898677
 20
7.137487525
 30
0.0
 10
10.1911913108
 20
7.1477306466
 30
0.0
 10
10.1901262732
 20
7.1559608639
 30
0.0
 10
10.1893661837
 20
7.1641832077
 30
0.0
 10
10.1891360366
 20
7.1703704631
 30
0.0
 10
10.1891360366
 20
7.1744877494
 30
0.0
  0
SPLINE
  5
37F
100
AcDbEntity
  8
0
100
AcDbSpline
 62
7
  6
CONTINUOUS
 70
0
 71
3
 72
23
 73
19
 74
0
 42
0.0000001
 43
0.0000001
 44
0.0000000001
 40
0.0
 40
0.0
 40
0.0
 40
0.0
 40
0.0781363634
 40
0.1532312145
 40
0.2254044137
 40
0.2948000444
 40
0.3615918227
 40
0.425978862
 40
0.488187118
 40
0.5484703241
 40
0.6071102923
 40
0.6644171419
 40
0.7207254262
 40
0.7763893711
 40
0.8317768817
 40
0.8872617001
 40
0.9432155646
 40
1.0
 40
1.0
 40
1.0
 40
1.0
 10
12.4179791963
 20
8.4865553906
 30
0.0
 10
12.4172517047
 20
8.4858526876
 30
0.0
 10
12.4157971472
 20
8.4845030751
 30
0.0
 10
12.4135716358
 20
8.4826145797
 30
0.0
 10
12.4113475963
 20
8.4809039389
 30
0.0
 10
12.4091260305
 20
8.4793721369
 30
0.0
 10
12.4069078766
 20
8.4780198736
 30
0.0
 10
12.4046939782
 20
8.4768478667
 30
0.0
 10
12.4024852339
 20
8.4758567724
 30
0.0
 10
12.4002826033
 20
8.4750471834
 30
0.0
 10
12.3980870577
 20
8.4744197683
 30
0.0
 10
12.3958996781
 20
8.4739750112
 30
0.0
 10
12.3937215978
 20
8.4737133187
 30
0.0
 10
12.3915540188
 20
8.473635062
 30
0.0
 10
12.3893982254
 20
8.4737402991
 30
0.0
 10
12.3872554535
 20
8.4740290333
 30
0.0
 10
12.3851271445
 20
8.4745010121
 30
0.0
 10
12.3837314061
 20
8.4749335927
 30
0.0
 10
12.3830383884
 20
8.4751786158
 30
0.0
  0
SPLINE
  5
380
100
AcDbEntity
  8
0
100
AcDbSpline
 62
7
  6
CONTINUOUS
 70
0
 71
3
 72
91
 73
87
 74
0
 42
0.0000001
 43
0.0000001
 44
0.0000000001
 40
0.0
 40
0.0
 40
0.0
 40
0.0
 40
0.0027164146
 40
0.005453202
 40
0.008230252
 40
0.0110665198
 40
0.0139797053
 40
0.0169859824
 40
0.0200999174
 40
0.023334401
 40
0.0267007187
 40
0.0302086385
 40
0.0338665091
 40
0.0376814414
 40
0.0416593691
 40
0.0458052582
 40
0.0501231421
 40
0.0546162891
 40
0.0592872586
 40
0.064137982
 40
0.0691698666
 40
0.0743837897
 40
0.079780237
 40
0.0853592528
 40
0.0911205635
 40
0.0970635488
 40
0.1031872988
 40
0.1094906474
 40
0.1226297881
 40
0.1364673429
 40
0.1509860432
 40
0.166165828
 40
0.1819841602
 40
0.1984162836
 40
0.2154354412
 40
0.2330130641
 40
0.2511189358
 40
0.2697213391
 40
0.2887871904
 40
0.3082821639
 40
0.3281708096
 40
0.3484166635
 40
0.368982358
 40
0.3898297276
 40
0.4109199118
 40
0.4322134566
 40
0.4536704139
 40
0.4752504412
 40
0.4969128994
 40
0.5186169519
 40
0.5403216628
 40
0.5619860952
 40
0.5835694083
 40
0.6050309559
 40
0.6263303839
 40
0.6474277291
 40
0.6682835187
 40
0.688858872
 40
0.7091156002
 40
0.7290163102
 40
0.7485245085
 40
0.7676047097
 40
0.7862225487
 40
0.8043448976
 40
0.8219399925
 40
0.8389775679
 40
0.8554290014
 40
0.8712674776
 40
0.8864681732
 40
0.9010084737
 40
0.9148682315
 40
0.9280300795
 40
0.9343449284
 40
0.9404802779
 40
0.9464349254
 40
0.952207944
 40
0.9577987094
 40
0.9632068925
 40
0.9684325652
 40
0.9734761403
 40
0.9783384919
 40
0.9830209404
 40
0.9875254382
 40
0.9918545985
 40
0.9960115586
 40
1.0
 40
1.0
 40
1.0
 40
1.0
 10
12.4897071117
 20
9.464198107
 30
0.0
 10
12.4908082746
 20
9.4641217458
 30
0.0
 10
12.4930132213
 20
9.463868794
 30
0.0
 10
12.4962925769
 20
9.4631918913
 30
0.0
 10
12.4995471348
 20
9.4622175727
 30
0.0
 10
12.502774612
 20
9.4609468756
 30
0.0
 10
12.5059732905
 20
9.4593808178
 30
0.0
 10
12.5091415857
 20
9.4575207311
 30
0.0
 10
12.5122779891
 20
9.4553678581
 30
0.0
 10
12.5153811381
 20
9.4529236128
 30
0.0
 10
12.5184496843
 20
9.4501894066
 30
0.0
 10
12.5214822863
 20
9.4471667213
 30
0.0
 10
12.5244776619
 20
9.4438571659
 30
0.0
 10
12.5274344235
 20
9.4402623755
 30
0.0
 10
12.5303512976
 20
9.4363841871
 30
0.0
 10
12.5332268752
 20
9.4322244777
 30
0.0
 10
12.5360598548
 20
9.4277853245
 30
0.0
 10
12.5388488582
 20
9.4230688961
 30
0.0
 10
12.5415925438
 20
9.41807752
 30
0.0
 10
12.5442895953
 20
9.412813666
 30
0.0
 10
12.5469386482
 20
9.407279925
 30
0.0
 10
12.5495384468
 20
9.4014790567
 30
0.0
 10
12.552087644
 20
9.3954139265
 30
0.0
 10
12.5545850199
 20
9.3890875668
 30
0.0
 10
12.5570292906
 20
9.3825031212
 30
0.0
 10
12.5594192446
 20
9.3756638838
 30
0.0
 10
12.5617537064
 20
9.3685732617
 30
0.0
 10
12.5648333605
 20
9.3586510121
 30
0.0
 10
12.5685248834
 20
9.3456389159
 30
0.0
 10
12.5726563358
 20
9.3292892681
 30
0.0
 10
12.5765400867
 20
9.3120281853
 30
0.0
 10
12.5801682556
 20
9.2938902694
 30
0.0
 10
12.583533458
 20
9.2749117428
 30
0.0
 10
12.5866288467
 20
9.2551306258
 30
0.0
 10
12.589448122
 20
9.2345865732
 30
0.0
 10
12.5919855454
 20
9.213320807
 30
0.0
 10
12.594235952
 20
9.1913760201
 30
0.0
 10
12.5961947603
 20
9.1687962882
 30
0.0
 10
12.5978579814
 20
9.145626977
 30
0.0
 10
12.5992222266
 20
9.1219146486
 30
0.0
 10
12.6002847132
 20
9.0977069668
 30
0.0
 10
12.6010432724
 20
9.0730525993
 30
0.0
 10
12.6014963512
 20
9.0480011183
 30
0.0
 10
12.6016430151
 20
9.0226028985
 30
0.0
 10
12.601482949
 20
8.9969090152
 30
0.0
 10
12.6010164585
 20
8.9709711406
 30
0.0
 10
12.6002444681
 20
8.94484144
 30
0.0
 10
12.5991685199
 20
8.9185724662
 30
0.0
 10
12.5977907699
 20
8.8922170537
 30
0.0
 10
12.5961139861
 20
8.8658282115
 30
0.0
 10
12.5941415402
 20
8.8394590159
 30
0.0
 10
12.5918774011
 20
8.8131625033
 30
0.0
 10
12.5893261268
 20
8.786991563
 30
0.0
 10
12.5864928554
 20
8.7609988309
 30
0.0
 10
12.5833832945
 20
8.7352365835
 30
0.0
 10
12.58000371
 20
8.7097566321
 30
0.0
 10
12.5763609144
 20
8.6846102175
 30
0.0
 10
12.572462254
 20
8.6598479057
 30
0.0
 10
12.5683155926
 20
8.6355194858
 30
0.0
 10
12.5639292962
 20
8.6116738691
 30
0.0
 10
12.559312216
 20
8.5883589902
 30
0.0
 10
12.5544736712
 20
8.5656217093
 30
0.0
 10
12.5494234305
 20
8.5435077165
 30
0.0
 10
12.5441716921
 20
8.5220614371
 30
0.0
 10
12.5387290647
 20
8.5013259381
 30
0.0
 10
12.5331065464
 20
8.4813428376
 30
0.0
 10
12.5273154997
 20
8.4621522189
 30
0.0
 10
12.5213676284
 20
8.4437925388
 30
0.0
 10
12.5152749526
 20
8.4263005641
 30
0.0
 10
12.5090497771
 20
8.4097112124
 30
0.0
 10
12.5027046714
 20
8.3940577322
 30
0.0
 10
12.4972552476
 20
8.3816534572
 30
0.0
 10
12.4928375597
 20
8.3722297425
 30
0.0
 10
12.48954805
 20
8.3655128371
 30
0.0
 10
12.4862381655
 20
8.3590523592
 30
0.0
 10
12.4829095366
 20
8.3528515337
 30
0.0
 10
12.4795638602
 20
8.3469134484
 30
0.0
 10
12.4762027652
 20
8.3412410767
 30
0.0
 10
12.4728279731
 20
8.335837219
 30
0.0
 10
12.4694411069
 20
8.3307045876
 30
0.0
 10
12.4660439026
 20
8.3258457157
 30
0.0
 10
12.4626380018
 20
8.321263016
 30
0.0
 10
12.4592250512
 20
8.3169587252
 30
0.0
 10
12.4558066539
 20
8.3129349238
 30
0.0
 10
12.4523846082
 20
8.3091937946
 30
0.0
 10
12.4500545154
 20
8.3068414823
 30
0.0
 10
12.4488888253
 20
8.3057155121
 30
0.0
  0
SPLINE
  5
381
100
AcDbEntity
  8
0
100
AcDbSpline
 62
7
  6
CONTINUOUS
 70
0
 71
3
 72
85
 73
81
 74
0
 42
0.0000001
 43
0.0000001
 44
0.0000000001
 40
0.0
 40
0.0
 40
0.0
 40
0.0
 40
0.0040523015
 40
0.0082800489
 40
0.0126871091
 40
0.0172767088
 40
0.0220515382
 40
0.0270136769
 40
0.0321644652
 40
0.0375047407
 40
0.0430348848
 40
0.0487548409
 40
0.0546642381
 40
0.0607622928
 40
0.0735193811
 40
0.0870148027
 40
0.1012328019
 40
0.1161542559
 40
0.1317570782
 40
0.1480165551
 40
0.1649056363
 40
0.1823951659
 40
0.2004540778
 40
0.2190495565
 40
0.2381472068
 40
0.2577112073
 40
0.2777044432
 40
0.2980886303
 40
0.3188244294
 40
0.3398715782
 40
0.3611890083
 40
0.3827349565
 40
0.4263417812
 40
0.4703490114
 40
0.5144087942
 40
0.5581727434
 40
0.5798360128
 40
0.6012962287
 40
0.6225112594
 40
0.6434396051
 40
0.6640405056
 40
0.6842740525
 40
0.7041013073
 40
0.7234844345
 40
0.7423868195
 40
0.7607731934
 40
0.7786097701
 40
0.7958644037
 40
0.8125067657
 40
0.828508514
 40
0.8438435
 40
0.8584880145
 40
0.8724210992
 40
0.8856249155
 40
0.8980851854
 40
0.904033427
 40
0.909792385
 40
0.9153615468
 40
0.9207408324
 40
0.9259305068
 40
0.9309313327
 40
0.9357445819
 40
0.9403720585
 40
0.944816278
 40
0.9490804273
 40
0.9531685533
 40
0.9570856524
 40
0.9608377435
 40
0.9644321096
 40
0.9678773368
 40
0.9711835297
 40
0.9774235376
 40
0.9803901424
 40
0.983275319
 40
0.9860978022
 40
0.9888777378
 40
0.9916362827
 40
0.9943951391
 40
0.9971759967
 40
1.0
 40
1.0
 40
1.0
 40
1.0
 10
12.4179791963
 20
8.4865553906
 30
0.0
 10
12.4187990671
 20
8.487347325
 30
0.0
 10
12.4204378667
 20
8.4890035528
 30
0.0
 10
12.4228434335
 20
8.4916409165
 30
0.0
 10
12.4252463385
 20
8.4944817156
 30
0.0
 10
12.4276452027
 20
8.4975243349
 30
0.0
 10
12.4300388741
 20
8.5007671976
 30
0.0
 10
12.4324261138
 20
8.504208677
 30
0.0
 10
12.434805745
 20
8.5078469766
 30
0.0
 10
12.4371765
 20
8.5116802107
 30
0.0
 10
12.4395371283
 20
8.5157063793
 30
0.0
 10
12.4418864272
 20
8.5199233649
 30
0.0
 10
12.4442231445
 20
8.5243289884
 30
0.0
 10
12.4473677559
 20
8.5305453686
 30
0.0
 10
12.4512504595
 20
8.5387777091
 30
0.0
 10
12.4557729438
 20
8.5492268143
 30
0.0
 10
12.4602165322
 20
8.5603678264
 30
0.0
 10
12.4645718181
 20
8.5721773708
 30
0.0
 10
12.4688295824
 20
8.5846307799
 30
0.0
 10
12.4729808053
 20
8.5977019268
 30
0.0
 10
12.4770166864
 20
8.6113633659
 30
0.0
 10
12.4809286686
 20
8.6255863804
 30
0.0
 10
12.484708454
 20
8.6403410494
 30
0.0
 10
12.4883480347
 20
8.6555963084
 30
0.0
 10
12.491839702
 20
8.6713200222
 30
0.0
 10
12.4951760595
 20
8.6874790606
 30
0.0
 10
12.4983500404
 20
8.7040393701
 30
0.0
 10
12.5013549205
 20
8.7209660419
 30
0.0
 10
12.504184346
 20
8.738223388
 30
0.0
 10
12.5068323257
 20
8.7557750093
 30
0.0
 10
12.5092932819
 20
8.7735839195
 30
0.0
 10
12.5123301713
 20
8.7977176677
 30
0.0
 10
12.51561818
 20
8.8282503153
 30
0.0
 10
12.5187314237
 20
8.8651615567
 30
0.0
 10
12.5210013165
 20
8.9021785176
 30
0.0
 10
12.5221783256
 20
8.9329571424
 30
0.0
 10
12.5226793709
 20
8.9573934334
 30
0.0
 10
12.5228333439
 20
8.9754913025
 30
0.0
 10
12.5227665263
 20
8.9933829633
 30
0.0
 10
12.5224790588
 20
9.0110307126
 30
0.0
 10
12.5219715709
 20
9.028397325
 30
0.0
 10
12.5212451513
 20
9.0454461795
 30
0.0
 10
12.5203013526
 20
9.0621413269
 30
0.0
 10
12.5191421988
 20
9.0784475727
 30
0.0
 10
12.5177701702
 20
9.0943305514
 30
0.0
 10
12.5161881988
 20
9.109756796
 30
0.0
 10
12.5143996612
 20
9.1246938105
 30
0.0
 10
12.5124083742
 20
9.1391101459
 30
0.0
 10
12.5102185972
 20
9.1529754738
 30
0.0
 10
12.5078350087
 20
9.1662606501
 30
0.0
 10
12.505262699
 20
9.1789377834
 30
0.0
 10
12.5025071524
 20
9.1909802836
 30
0.0
 10
12.4995742438
 20
9.2023630098
 30
0.0
 10
12.4964702065
 20
9.2130620872
 30
0.0
 10
12.4937052878
 20
9.221515933
 30
0.0
 10
12.491405362
 20
9.2279136535
 30
0.0
 10
12.4896684943
 20
9.2324528118
 30
0.0
 10
12.4878938526
 20
9.2368049963
 30
0.0
 10
12.4860823923
 20
9.2409679552
 30
0.0
 10
12.4842350242
 20
9.2449395063
 30
0.0
 10
12.4823527188
 20
9.2487175874
 30
0.0
 10
12.4804364672
 20
9.2523002472
 30
0.0
 10
12.4784872034
 20
9.2556856102
 30
0.0
 10
12.4765059693
 20
9.2588719524
 30
0.0
 10
12.4744937194
 20
9.2618576131
 30
0.0
 10
12.4724514505
 20
9.2646410546
 30
0.0
 10
12.47038019
 20
9.2672208544
 30
0.0
 10
12.4682808399
 20
9.2695956453
 30
0.0
 10
12.4661545275
 20
9.2717641545
 30
0.0
 10
12.464001855
 20
9.2737253828
 30
0.0
 10
12.4611539125
 20
9.2760175844
 30
0.0
 10
12.4581974862
 20
9.2779542724
 30
0.0
 10
12.4551509072
 20
9.2794736802
 30
0.0
 10
12.4528829998
 20
9.2803818349
 30
0.0
 10
12.4505955925
 20
9.2810764804
 30
0.0
 10
12.448290031
 20
9.281557061
 30
0.0
 10
12.4459679267
 20
9.2818229511
 30
0.0
 10
12.4436309026
 20
9.2818739771
 30
0.0
 10
12.441280863
 20
9.2817101758
 30
0.0
 10
12.4397217632
 20
9.2814603451
 30
0.0
 10
12.4389434368
 20
9.281301469
 30
0.0
  0
SPLINE
  5
382
100
AcDbEntity
  8
0
100
AcDbSpline
 62
7
  6
CONTINUOUS
 70
0
 71
3
 72
51
 73
47
 74
0
 42
0.0000001
 43
0.0000001
 44
0.0000000001
 40
0.0
 40
0.0
 40
0.0
 40
0.0
 40
0.0103086877
 40
0.0210704676
 40
0.0322802399
 40
0.0439316924
 40
0.0560173473
 40
0.0685287966
 40
0.0814566261
 40
0.0947906743
 40
0.1085199221
 40
0.1226327001
 40
0.1371166329
 40
0.151958741
 40
0.1826621704
 40
0.2146289112
 40
0.2477367159
 40
0.2818568025
 40
0.3168547678
 40
0.3525914482
 40
0.3889237459
 40
0.4257054342
 40
0.462787949
 40
0.5000211717
 40
0.5372542078
 40
0.574336163
 40
0.6111169213
 40
0.6474479232
 40
0.6831829488
 40
0.7181789094
 40
0.7522966526
 40
0.7854017889
 40
0.8173655523
 40
0.8480657114
 40
0.8629060728
 40
0.8773882065
 40
0.8914991067
 40
0.9052264337
 40
0.9185584894
 40
0.931484287
 40
0.9439936479
 40
0.9560771722
 40
0.9677264599
 40
0.9789340216
 40
0.9896935771
 40
1.0
 40
1.0
 40
1.0
 40
1.0
 10
12.3355857871
 20
8.5565380055
 30
0.0
 10
12.3366418508
 20
8.5585561145
 30
0.0
 10
12.338741427
 20
8.5627121065
 30
0.0
 10
12.3417935794
 20
8.5691591859
 30
0.0
 10
12.3448134614
 20
8.5759474884
 30
0.0
 10
12.347797754
 20
8.5830696748
 30
0.0
 10
12.3507432762
 20
8.5905181114
 30
0.0
 10
12.353646792
 20
8.5982847934
 30
0.0
 10
12.356505206
 20
8.6063613553
 30
0.0
 10
12.3593153747
 20
8.6147391035
 30
0.0
 10
12.3620742926
 20
8.623409003
 30
0.0
 10
12.3647789373
 20
8.6323617043
 30
0.0
 10
12.3674264112
 20
8.6415875555
 30
0.0
 10
12.3709156908
 20
8.6543843325
 30
0.0
 10
12.3751044868
 20
8.670992596
 30
0.0
 10
12.3798043122
 20
8.6916281788
 30
0.0
 10
12.3842119267
 20
8.7130992963
 30
0.0
 10
12.3883081588
 20
8.7353132277
 30
0.0
 10
12.3920751798
 20
8.7581741449
 30
0.0
 10
12.395496614
 20
8.7815833455
 30
0.0
 10
12.3985575977
 20
8.8054397432
 30
0.0
 10
12.4012448446
 20
8.8296402968
 30
0.0
 10
12.403546701
 20
8.8540804651
 30
0.0
 10
12.4054531959
 20
8.8786546619
 30
0.0
 10
12.406956083
 20
8.9032567169
 30
0.0
 10
12.4080488777
 20
8.9277803378
 30
0.0
 10
12.4087268859
 20
8.9521195743
 30
0.0
 10
12.4089872236
 20
8.9761692794
 30
0.0
 10
12.4088288313
 20
8.9998255682
 30
0.0
 10
12.4082524816
 20
9.0229862754
 30
0.0
 10
12.4072607735
 20
9.0455513891
 30
0.0
 10
12.4058581423
 20
9.0674235453
 30
0.0
 10
12.4040507801
 20
9.0885082722
 30
0.0
 10
12.4021938115
 20
9.1055338886
 30
0.0
 10
12.4005037004
 20
9.1186882092
 30
0.0
 10
12.3991546119
 20
9.1281899148
 30
0.0
 10
12.3977111869
 20
9.1374289275
 30
0.0
 10
12.3961749963
 20
9.1463952883
 30
0.0
 10
12.3945477103
 20
9.1550793221
 30
0.0
 10
12.3928310884
 20
9.163471667
 30
0.0
 10
12.3910270228
 20
9.1715632802
 30
0.0
 10
12.3891374356
 20
9.1793454507
 30
0.0
 10
12.38716443
 20
9.1868098058
 30
0.0
 10
12.3851100861
 20
9.1939483453
 30
0.0
 10
12.3829767085
 20
9.2007533477
 30
0.0
 10
12.3814706407
 20
9.2051582334
 30
0.0
 10
12.3807031293
 20
9.2073022207
 30
0.0
  0
SPLINE
  5
383
100
AcDbEntity
  8
0
100
AcDbSpline
 62
7
  6
CONTINUOUS
 70
0
 71
3
 72
86
 73
82
 74
0
 42
0.0000001
 43
0.0000001
 44
0.0000000001
 40
0.0
 40
0.0
 40
0.0
 40
0.0
 40
0.0039801735
 40
0.0081241171
 40
0.0124359931
 40
0.016919361
 40
0.0215772361
 40
0.0264119817
 40
0.0314252561
 40
0.0366182449
 40
0.0419916453
 40
0.0475457694
 40
0.0532805541
 40
0.0591955582
 40
0.0652900785
 40
0.0715630739
 40
0.0846387684
 40
0.0984101018
 40
0.112860694
 40
0.1279712428
 40
0.1437198619
 40
0.1600823544
 40
0.1770324406
 40
0.1945419645
 40
0.2125810668
 40
0.2311183398
 40
0.2501209668
 40
0.2695548486
 40
0.289384725
 40
0.3095742955
 40
0.3300863312
 40
0.3508827821
 40
0.3719248818
 40
0.3931732491
 40
0.4145879914
 40
0.4577543474
 40
0.501099203
 40
0.5442952951
 40
0.5657359749
 40
0.587017582
 40
0.6081001434
 40
0.6289441761
 40
0.6495107926
 40
0.6697618048
 40
0.6896598276
 40
0.709168385
 40
0.7282520204
 40
0.7468764117
 40
0.7650084972
 40
0.7826166038
 40
0.7996705814
 40
0.8161419537
 40
0.8320040874
 40
0.8472323859
 40
0.8618045214
 40
0.8757007003
 40
0.8889039845
 40
0.9014006969
 40
0.9073810972
 40
0.9131815075
 40
0.9188013673
 40
0.9242405009
 40
0.9294990443
 40
0.9345775709
 40
0.9394770909
 40
0.9441990928
 40
0.9487456636
 40
0.9531194621
 40
0.9573238984
 40
0.9613631411
 40
0.9652422549
 40
0.9689673208
 40
0.9725454977
 40
0.9759852252
 40
0.9824864215
 40
0.9855752926
 40
0.9885737717
 40
0.9914977072
 40
0.9943643167
 40
0.9971920017
 40
1.0
 40
1.0
 40
1.0
 40
1.0
 10
10.2456118675
 20
10.5381516803
 30
0.0
 10
10.2466021449
 20
10.5391082149
 30
0.0
 10
10.2486684182
 20
10.5410145229
 30
0.0
 10
10.2519490299
 20
10.5437988364
 30
0.0
 10
10.2554705528
 20
10.5465631888
 30
0.0
 10
10.2592310537
 20
10.5493060908
 30
0.0
 10
10.263228686
 20
10.5520262749
 30
0.0
 10
10.267461505
 20
10.5547224036
 30
0.0
 10
10.271927389
 20
10.5573932036
 30
0.0
 10
10.2766241245
 20
10.5600372845
 30
0.0
 10
10.2815493423
 20
10.5626533617
 30
0.0
 10
10.2867005834
 20
10.5652401175
 30
0.0
 10
10.2920752718
 20
10.5677962428
 30
0.0
 10
10.2976706973
 20
10.570320482
 30
0.0
 10
10.3034840684
 20
10.5728115362
 30
0.0
 10
10.3116349237
 20
10.5761330372
 30
0.0
 10
10.3223539819
 20
10.580183928
 30
0.0
 10
10.3358654736
 20
10.5848283334
 30
0.0
 10
10.3501706053
 20
10.5893114788
 30
0.0
 10
10.3652405359
 20
10.5936242517
 30
0.0
 10
10.3810450144
 20
10.597757873
 30
0.0
 10
10.3975522038
 20
10.6017039223
 30
0.0
 10
10.4147288246
 20
10.6054543643
 30
0.0
 10
10.4325402122
 20
10.6090015595
 30
0.0
 10
10.4509504004
 20
10.6123382829
 30
0.0
 10
10.4699221969
 20
10.6154577388
 30
0.0
 10
10.4894172603
 20
10.618353574
 30
0.0
 10
10.5093961782
 20
10.6210198924
 30
0.0
 10
10.5298185486
 20
10.6234512705
 30
0.0
 10
10.5506430663
 20
10.625642762
 30
0.0
 10
10.5718276074
 20
10.6275899085
 30
0.0
 10
10.5933293194
 20
10.6292887507
 30
0.0
 10
10.6151046918
 20
10.6307358252
 30
0.0
 10
10.6371097042
 20
10.6319282128
 30
0.0
 10
10.6667738454
 20
10.6331783974
 30
0.0
 10
10.7041000287
 20
10.6340864778
 30
0.0
 10
10.748971812
 20
10.6341338242
 30
0.0
 10
10.7863190858
 20
10.6333046695
 30
0.0
 10
10.8160165941
 20
10.6321174999
 30
0.0
 10
10.838058593
 20
10.6309717116
 30
0.0
 10
10.8598790187
 20
10.6295707591
 30
0.0
 10
10.8814337585
 20
10.6279174651
 30
0.0
 10
10.9026791925
 20
10.6260151982
 30
0.0
 10
10.9235723443
 20
10.6238678281
 30
0.0
 10
10.9440709513
 20
10.621479724
 30
0.0
 10
10.9641335547
 20
10.6188557448
 30
0.0
 10
10.9837195822
 20
10.6160012295
 30
0.0
 10
11.0027894334
 20
10.612921986
 30
0.0
 10
11.0213045646
 20
10.6096242843
 30
0.0
 10
11.0392275688
 20
10.6061148421
 30
0.0
 10
11.0565222526
 20
10.6024008078
 30
0.0
 10
11.0731537122
 20
10.5984897472
 30
0.0
 10
11.0890884066
 20
10.5943896271
 30
0.0
 10
11.1042942416
 20
10.590108795
 30
0.0
 10
11.118740623
 20
10.5856559668
 30
0.0
 10
11.1323986128
 20
10.5810401961
 30
0.0
 10
11.1452407104
 20
10.5762708537
 30
0.0
 10
11.1553848067
 20
10.5721178605
 30
0.0
 10
11.1630644246
 20
10.568718194
 30
0.0
 10
11.1685197326
 20
10.5661735134
 30
0.0
 10
11.1737525516
 20
10.5635977385
 30
0.0
 10
11.178760281
 20
10.5609921882
 30
0.0
 10
11.1835403969
 20
10.5583581336
 30
0.0
 10
11.1880905156
 20
10.5556969072
 30
0.0
 10
11.1924083707
 20
10.5530098399
 30
0.0
 10
11.1964917921
 20
10.5502982251
 30
0.0
 10
11.2003387754
 20
10.5475634453
 30
0.0
 10
11.2039473763
 20
10.5448067762
 30
0.0
 10
11.2073158274
 20
10.5420295872
 30
0.0
 10
11.2104424347
 20
10.539233188
 30
0.0
 10
11.2133256368
 20
10.5364188529
 30
0.0
 10
11.2159639434
 20
10.5335880178
 30
0.0
 10
11.2183561566
 20
10.5307415789
 30
0.0
 10
11.2211625054
 20
10.5269988895
 30
0.0
 10
11.2235455176
 20
10.5231552821
 30
0.0
 10
11.2254375572
 20
10.5192296231
 30
0.0
 10
11.2265807026
 20
10.5163262953
 30
0.0
 10
11.2274709565
 20
10.5134159172
 30
0.0
 10
11.2281074904
 20
10.5104998732
 30
0.0
 10
11.2284897121
 20
10.5075802689
 30
0.0
 10
11.2285748011
 20
10.505629739
 30
0.0
 10
11.2285748055
 20
10.5046584039
 30
0.0
  0
SPLINE
  5
384
100
AcDbEntity
  8
0
100
AcDbSpline
 62
7
  6
CONTINUOUS
 70
0
 71
3
 72
39
 73
35
 74
0
 42
0.0000001
 43
0.0000001
 44
0.0000000001
 40
0.0
 40
0.0
 40
0.0
 40
0.0
 40
0.0248516718
 40
0.0508785803
 40
0.0780238769
 40
0.1062259306
 40
0.1354188324
 40
0.1655328354
 40
0.19649475
 40
0.228228317
 40
0.2606545532
 40
0.2936920778
 40
0.327257428
 40
0.3612653661
 40
0.395629181
 40
0.4302609844
 40
0.4650720094
 40
0.4999729049
 40
0.5348740281
 40
0.5696857356
 40
0.6043186744
 40
0.6386840743
 40
0.6726940412
 40
0.7062618569
 40
0.7393022754
 40
0.7717318243
 40
0.8034691116
 40
0.8344351414
 40
0.8645536407
 40
0.8937514031
 40
0.9219586614
 40
0.9491094861
 40
0.9751422236
 40
1.0
 40
1.0
 40
1.0
 40
1.0
 10
12.3220776658
 20
8.6274035083
 30
0.0
 10
12.3235069931
 20
8.6314431925
 30
0.0
 10
12.3263186967
 20
8.639754469
 30
0.0
 10
12.3303161962
 20
8.6526014533
 30
0.0
 10
12.3341830108
 20
8.6660903646
 30
0.0
 10
12.3379084452
 20
8.6801842727
 30
0.0
 10
12.3414822418
 20
8.6948447291
 30
0.0
 10
12.3448945512
 20
8.7100316566
 30
0.0
 10
12.3481359787
 20
8.725703528
 30
0.0
 10
12.3511976022
 20
8.7418174681
 30
0.0
 10
12.3540709979
 20
8.7583293809
 30
0.0
 10
12.3567482629
 20
8.775194071
 30
0.0
 10
12.3592220365
 20
8.7923653698
 30
0.0
 10
12.3614855197
 20
8.8097962631
 30
0.0
 10
12.3635324935
 20
8.8274390206
 30
0.0
 10
12.3653573374
 20
8.8452453275
 30
0.0
 10
12.3669550447
 20
8.8631664181
 30
0.0
 10
12.3683212341
 20
8.8811532115
 30
0.0
 10
12.3694521622
 20
8.8991564461
 30
0.0
 10
12.3703447334
 20
8.9171268152
 30
0.0
 10
12.3709965088
 20
8.9350151022
 30
0.0
 10
12.3714057129
 20
8.9527723157
 30
0.0
 10
12.3715712387
 20
8.9703498255
 30
0.0
 10
12.3714926539
 20
8.9876994964
 30
0.0
 10
12.3711701993
 20
9.0047738224
 30
0.0
 10
12.370604789
 20
9.0215260565
 30
0.0
 10
12.3697980084
 20
9.0379103406
 30
0.0
 10
12.3687521102
 20
9.0538818326
 30
0.0
 10
12.3674700098
 20
9.0693968302
 30
0.0
 10
12.3659552762
 20
9.0844129
 30
0.0
 10
12.3642121287
 20
9.0988889812
 30
0.0
 10
12.362245416
 20
9.1127855691
 30
0.0
 10
12.3600606311
 20
9.1260646027
 30
0.0
 10
12.3584238447
 20
9.1346866686
 30
0.0
 10
12.3575661931
 20
9.1388861306
 30
0.0
  0
SPLINE
  5
385
100
AcDbEntity
  8
0
100
AcDbSpline
 62
7
  6
CONTINUOUS
 70
0
 71
3
 72
61
 73
57
 74
0
 42
0.0000001
 43
0.0000001
 44
0.0000000001
 40
0.0
 40
0.0
 40
0.0
 40
0.0
 40
0.0085500831
 40
0.0176518282
 40
0.0273119388
 40
0.0375330487
 40
0.0483143346
 40
0.0596520489
 40
0.0715399689
 40
0.0839696868
 40
0.0969308502
 40
0.110411427
 40
0.1243978625
 40
0.1388751847
 40
0.1538271778
 40
0.1692364905
 40
0.185084685
 40
0.2013523522
 40
0.2180192038
 40
0.2350641067
 40
0.252465154
 40
0.2701997535
 40
0.2882446631
 40
0.3065760341
 40
0.3439996166
 40
0.3822705894
 40
0.4211822648
 40
0.4605233554
 40
0.5000795412
 40
0.5396349815
 40
0.5789738425
 40
0.6178818121
 40
0.6561476434
 40
0.6935646733
 40
0.711892258
 40
0.729933038
 40
0.7476631939
 40
0.7650594851
 40
0.7820993091
 40
0.7987607922
 40
0.8150228167
 40
0.8308650777
 40
0.846268195
 40
0.8612137644
 40
0.8756844182
 40
0.889663959
 40
0.9031374659
 40
0.9160913786
 40
0.9285136711
 40
0.9403940542
 40
0.9517241379
 40
0.9624977005
 40
0.972711059
 40
0.9823634567
 40
0.9914575366
 40
1.0
 40
1.0
 40
1.0
 40
1.0
 10
11.1987740935
 20
10.4607676704
 30
0.0
 10
11.1965349526
 20
10.4623702318
 30
0.0
 10
11.1918152467
 20
10.4655446522
 30
0.0
 10
11.1842798562
 20
10.4700871942
 30
0.0
 10
11.1760799268
 20
10.4745519191
 30
0.0
 10
11.1672273695
 20
10.4789322942
 30
0.0
 10
11.1577347002
 20
10.4832221328
 30
0.0
 10
11.1476155588
 20
10.4874152351
 30
0.0
 10
11.1368845004
 20
10.4915054986
 30
0.0
 10
11.1255570338
 20
10.4954869437
 30
0.0
 10
11.1136495826
 20
10.4993537598
 30
0.0
 10
11.1011794368
 20
10.50310027
 30
0.0
 10
11.0881647302
 20
10.5067209599
 30
0.0
 10
11.074624423
 20
10.5102105272
 30
0.0
 10
11.0605782533
 20
10.5135638447
 30
0.0
 10
11.0460467061
 20
10.5167759685
 30
0.0
 10
11.031050994
 20
10.5198421878
 30
0.0
 10
11.0156130164
 20
10.5227580029
 30
0.0
 10
10.9997553195
 20
10.5255191168
 30
0.0
 10
10.9835010737
 20
10.5281214731
 30
0.0
 10
10.9668740347
 20
10.5305612616
 30
0.0
 10
10.9498985094
 20
10.5328348856
 30
0.0
 10
10.9325992902
 20
10.5349390188
 30
0.0
 10
10.9089736448
 20
10.5375321468
 30
0.0
 10
10.8788186345
 20
10.5403195655
 30
0.0
 10
10.8419992796
 20
10.5429237486
 30
0.0
 10
10.8045170742
 20
10.5447941907
 30
0.0
 10
10.7665911452
 20
10.5459198741
 30
0.0
 10
10.7284430592
 20
10.5462941018
 30
0.0
 10
10.6902957426
 20
10.5459146711
 30
0.0
 10
10.652372119
 20
10.5447838328
 30
0.0
 10
10.6148937405
 20
10.5429082702
 30
0.0
 10
10.5780797107
 20
10.5402990833
 30
0.0
 10
10.5479300886
 20
10.5375075256
 30
0.0
 10
10.5243094869
 20
10.5349111519
 30
0.0
 10
10.5070145658
 20
10.5328046473
 30
0.0
 10
10.4900436812
 20
10.5305287113
 30
0.0
 10
10.4734216215
 20
10.5280866612
 30
0.0
 10
10.4571726906
 20
10.525482078
 30
0.0
 10
10.4413206301
 20
10.5227188001
 30
0.0
 10
10.4258886014
 20
10.5198008897
 30
0.0
 10
10.41089915
 20
10.5167326193
 30
0.0
 10
10.3963741609
 20
10.513518508
 30
0.0
 10
10.3823348313
 20
10.5101632869
 30
0.0
 10
10.368801646
 20
10.5066718736
 30
0.0
 10
10.3557943321
 20
10.5030493997
 30
0.0
 10
10.343331827
 20
10.4993012001
 30
0.0
 10
10.3314322622
 20
10.4954327684
 30
0.0
 10
10.3201129232
 20
10.4914497683
 30
0.0
 10
10.3093902049
 20
10.4873580481
 30
0.0
 10
10.2992796062
 20
10.4831635806
 30
0.0
 10
10.2897956885
 20
10.4788724373
 30
0.0
 10
10.2809520572
 20
10.474490854
 30
0.0
 10
10.272761205
 20
10.4700250235
 30
0.0
 10
10.2652350834
 20
10.465481441
 30
0.0
 10
10.260521763
 20
10.4623063344
 30
0.0
 10
10.2582858707
 20
10.4607034517
 30
0.0
  0
SPLINE
  5
386
100
AcDbEntity
  8
0
100
AcDbSpline
 62
7
  6
CONTINUOUS
 70
0
 71
3
 72
46
 73
42
 74
0
 42
0.0000001
 43
0.0000001
 44
0.0000000001
 40
0.0
 40
0.0
 40
0.0
 40
0.0
 40
0.0112073763
 40
0.0228002203
 40
0.0347721982
 40
0.0471162545
 40
0.0598246425
 40
0.0728890297
 40
0.1000488613
 40
0.1285188471
 40
0.158213824
 40
0.1890420372
 40
0.2209059277
 40
0.2537028361
 40
0.2873256502
 40
0.321663413
 40
0.3566019035
 40
0.3920242006
 40
0.4278112336
 40
0.4638423255
 40
0.4999957306
 40
0.5361491696
 40
0.5721803632
 40
0.6079675654
 40
0.6433900987
 40
0.6783288914
 40
0.712667021
 40
0.7462902652
 40
0.7790876647
 40
0.8109521051
 40
0.8417809244
 40
0.8714765603
 40
0.8999472544
 40
0.9136966633
 40
0.9271084882
 40
0.9401732573
 40
0.9528820575
 40
0.9652265139
 40
0.9771989212
 40
0.9887921818
 40
1.0
 40
1.0
 40
1.0
 40
1.0
 10
11.0821199427
 20
10.4132017212
 30
0.0
 10
11.0796109365
 20
10.4141363788
 30
0.0
 10
11.0744861981
 20
10.4159833844
 30
0.0
 10
11.0666170993
 20
10.4186465717
 30
0.0
 10
11.0584417341
 20
10.4212473814
 30
0.0
 10
11.0499675309
 20
10.4237834161
 30
0.0
 10
11.0412021236
 20
10.4262524186
 30
0.0
 10
11.0289786208
 20
10.4294939652
 30
0.0
 10
11.013024802
 20
10.4333506963
 30
0.0
 10
10.9930906609
 20
10.4376197213
 30
0.0
 10
10.9721988129
 20
10.4415718494
 30
0.0
 10
10.9504248584
 20
10.4451926213
 30
0.0
 10
10.9278474638
 20
10.448468766
 30
0.0
 10
10.9045483137
 20
10.4513882907
 30
0.0
 10
10.8806117295
 20
10.4539405109
 30
0.0
 10
10.8561243756
 20
10.4561160918
 30
0.0
 10
10.8311749318
 20
10.4579070788
 30
0.0
 10
10.8058537685
 20
10.4593069258
 30
0.0
 10
10.7802526147
 20
10.4603105176
 30
0.0
 10
10.7544642221
 20
10.4609141877
 30
0.0
 10
10.7285820258
 20
10.461115731
 30
0.0
 10
10.7026998034
 20
10.4609144115
 30
0.0
 10
10.6769113327
 20
10.4603109645
 30
0.0
 10
10.651310049
 20
10.4593075944
 30
0.0
 10
10.6259887043
 20
10.4579079669
 30
0.0
 10
10.6010390282
 20
10.4561171963
 30
0.0
 10
10.5765513917
 20
10.4539418279
 30
0.0
 10
10.5526144767
 20
10.4513898153
 30
0.0
 10
10.5293149447
 20
10.4484704933
 30
0.0
 10
10.5067371325
 20
10.4451945429
 30
0.0
 10
10.4849626775
 20
10.4415739652
 30
0.0
 10
10.4640704201
 20
10.4376219991
 30
0.0
 10
10.4472686322
 20
10.4340241559
 30
0.0
 10
10.4343304642
 20
10.4309828249
 30
0.0
 10
10.4250063989
 20
10.4286547105
 30
0.0
 10
10.4159574196
 20
10.4262551146
 30
0.0
 10
10.4071916974
 20
10.4237862151
 30
0.0
 10
10.3987171649
 20
10.4212502373
 30
0.0
 10
10.3905414611
 20
10.4186495125
 30
0.0
 10
10.3826720188
 20
10.4159863799
 30
0.0
 10
10.3775470424
 20
10.4141394301
 30
0.0
 10
10.3750379159
 20
10.413204793
 30
0.0
  0
SPLINE
  5
387
100
AcDbEntity
  8
0
100
AcDbSpline
 62
7
  6
CONTINUOUS
 70
0
 71
3
 72
71
 73
67
 74
0
 42
0.0000001
 43
0.0000001
 44
0.0000000001
 40
0.0
 40
0.0
 40
0.0
 40
0.0
 40
0.0155841583
 40
0.0311159808
 40
0.0465952391
 40
0.0620238824
 40
0.0774034512
 40
0.0927362817
 40
0.1080251233
 40
0.1232731726
 40
0.138484055
 40
0.1536617764
 40
0.1688106901
 40
0.183935453
 40
0.1990409778
 40
0.2141323818
 40
0.2292149321
 40
0.24429399
 40
0.2593749541
 40
0.2744632037
 40
0.28956404
 40
0.3046826301
 40
0.319823951
 40
0.3349927394
 40
0.3501934432
 40
0.3654301763
 40
0.380706678
 40
0.3960262757
 40
0.4113918557
 40
0.4268058382
 40
0.442270158
 40
0.4577862479
 40
0.4733550295
 40
0.4889769098
 40
0.5046517843
 40
0.5203790419
 40
0.5361575758
 40
0.5519857968
 40
0.5678616544
 40
0.5837826609
 40
0.5997459173
 40
0.6157481415
 40
0.6317856999
 40
0.6478546445
 40
0.6639507497
 40
0.6800695506
 40
0.696206382
 40
0.7123564201
 40
0.7285147268
 40
0.7446762928
 40
0.7608360801
 40
0.7769890652
 40
0.7931302837
 40
0.8092548746
 40
0.8253581231
 40
0.8414355008
 40
0.8574827062
 40
0.8734957056
 40
0.8894707696
 40
0.9054045137
 40
0.9212939168
 40
0.9371363628
 40
0.9529297287
 40
0.9686720424
 40
0.9843627193
 40
1.0
 40
1.0
 40
1.0
 40
1.0
 10
11.1086974777
 20
7.684475933
 30
0.0
 10
11.1086974777
 20
7.6800585861
 30
0.0
 10
11.1084812882
 20
7.6712371611
 30
0.0
 10
11.107505465
 20
7.6580606176
 30
0.0
 10
11.1058808082
 20
7.6449922897
 30
0.0
 10
11.1036113662
 20
7.6320642319
 30
0.0
 10
11.1007024594
 20
7.6193073717
 30
0.0
 10
11.0971611021
 20
7.6067525414
 30
0.0
 10
11.0929958013
 20
7.5944299868
 30
0.0
 10
11.0882165739
 20
7.5823694231
 30
0.0
 10
11.0828349169
 20
7.5705999352
 30
0.0
 10
11.0768637728
 20
7.5591499142
 30
0.0
 10
11.0703175113
 20
7.5480469867
 30
0.0
 10
11.0632119142
 20
7.5373179308
 30
0.0
 10
11.0555641078
 20
7.5269886278
 30
0.0
 10
11.0473925257
 20
7.5170839974
 30
0.0
 10
11.0387168626
 20
7.5076279413
 30
0.0
 10
11.0295580357
 20
7.4986432778
 30
0.0
 10
11.0199381473
 20
7.4901516686
 30
0.0
 10
11.0098804054
 20
7.4821735895
 30
0.0
 10
10.9994090724
 20
7.4747282775
 30
0.0
 10
10.9885494043
 20
7.4678336889
 30
0.0
 10
10.9773275981
 20
7.4615064446
 30
0.0
 10
10.9657707335
 20
7.4557617738
 30
0.0
 10
10.9539066892
 20
7.4506135054
 30
0.0
 10
10.9417640793
 20
7.4460740305
 30
0.0
 10
10.9293721838
 20
7.4421542785
 30
0.0
 10
10.9167608841
 20
7.438863674
 30
0.0
 10
10.9039605901
 20
7.4362101049
 30
0.0
 10
10.8910021578
 20
7.4341999321
 30
0.0
 10
10.8779168183
 20
7.4328379687
 30
0.0
 10
10.864736103
 20
7.4321274763
 30
0.0
 10
10.8514917712
 20
7.4320701349
 30
0.0
 10
10.8382157296
 20
7.4326660364
 30
0.0
 10
10.8249399549
 20
7.4339137118
 30
0.0
 10
10.8116964191
 20
7.4358101276
 30
0.0
 10
10.7985170152
 20
7.4383507007
 30
0.0
 10
10.7854334774
 20
7.441529284
 30
0.0
 10
10.7724773023
 20
7.4453381857
 30
0.0
 10
10.7596796782
 20
7.4497682098
 30
0.0
 10
10.7470714108
 20
7.4548086717
 30
0.0
 10
10.7346828535
 20
7.4604474296
 30
0.0
 10
10.7225438239
 20
7.4666708878
 30
0.0
 10
10.7106835332
 20
7.4734640392
 30
0.0
 10
10.6991305247
 20
7.4808105178
 30
0.0
 10
10.6879126042
 20
7.488692632
 30
0.0
 10
10.6770567786
 20
7.4970914111
 30
0.0
 10
10.6665891731
 20
7.5059866268
 30
0.0
 10
10.6565349747
 20
7.5153568553
 30
0.0
 10
10.6469183821
 20
7.5251795394
 30
0.0
 10
10.6377625456
 20
7.5354310375
 30
0.0
 10
10.629089517
 20
7.5460866831
 30
0.0
 10
10.6209201713
 20
7.5571208233
 30
0.0
 10
10.6132741713
 20
7.5685068956
 30
0.0
 10
10.6061699284
 20
7.5802174968
 30
0.0
 10
10.5996245576
 20
7.5922244451
 30
0.0
 10
10.5936538396
 20
7.6044988483
 30
0.0
 10
10.5882721546
 20
7.6170111587
 30
0.0
 10
10.5834924658
 20
7.6297312576
 30
0.0
 10
10.5793263005
 20
7.6426285286
 30
0.0
 10
10.5757837152
 20
7.6556719239
 30
0.0
 10
10.5728732641
 20
7.668830067
 30
0.0
 10
10.5706020158
 20
7.682071197
 30
0.0
 10
10.5689753527
 20
7.6953636679
 30
0.0
 10
10.5679973848
 20
7.7086749004
 30
0.0
 10
10.5677789829
 20
7.7175563535
 30
0.0
 10
10.5677789829
 20
7.721988758
 30
0.0
  0
SPLINE
  5
388
100
AcDbEntity
  8
0
100
AcDbSpline
 62
7
  6
CONTINUOUS
 70
0
 71
3
 72
71
 73
67
 74
0
 42
0.0000001
 43
0.0000001
 44
0.0000000001
 40
0.0
 40
0.0
 40
0.0
 40
0.0
 40
0.0155841583
 40
0.0311159808
 40
0.0465952391
 40
0.0620238824
 40
0.0774034512
 40
0.0927362817
 40
0.1080251233
 40
0.1232731726
 40
0.138484055
 40
0.1536617764
 40
0.1688106901
 40
0.183935453
 40
0.1990409778
 40
0.2141323818
 40
0.2292149321
 40
0.24429399
 40
0.2593749541
 40
0.2744632037
 40
0.28956404
 40
0.3046826301
 40
0.319823951
 40
0.3349927394
 40
0.3501934432
 40
0.3654301763
 40
0.380706678
 40
0.3960262757
 40
0.4113918557
 40
0.4268058382
 40
0.442270158
 40
0.4577862479
 40
0.4733550295
 40
0.4889769098
 40
0.5046517843
 40
0.5203790419
 40
0.5361575758
 40
0.5519857968
 40
0.5678616544
 40
0.5837826609
 40
0.5997459173
 40
0.6157481415
 40
0.6317856999
 40
0.6478546445
 40
0.6639507497
 40
0.6800695506
 40
0.696206382
 40
0.7123564201
 40
0.7285147268
 40
0.7446762928
 40
0.7608360801
 40
0.7769890652
 40
0.7931302837
 40
0.8092548746
 40
0.8253581231
 40
0.8414355008
 40
0.8574827062
 40
0.8734957056
 40
0.8894707696
 40
0.9054045137
 40
0.9212939168
 40
0.9371363628
 40
0.9529297287
 40
0.9686720424
 40
0.9843627193
 40
1.0
 40
1.0
 40
1.0
 40
1.0
 10
10.5677789829
 20
7.721988758
 30
0.0
 10
10.5677789829
 20
7.7264061049
 30
0.0
 10
10.5679951724
 20
7.7352275299
 30
0.0
 10
10.5689709957
 20
7.7484040734
 30
0.0
 10
10.5705956525
 20
7.7614724013
 30
0.0
 10
10.5728650944
 20
7.7744004591
 30
0.0
 10
10.5757740013
 20
7.7871573193
 30
0.0
 10
10.5793153585
 20
7.7997121496
 30
0.0
 10
10.5834806593
 20
7.8120347042
 30
0.0
 10
10.5882598868
 20
7.8240952679
 30
0.0
 10
10.5936415437
 20
7.8358647558
 30
0.0
 10
10.5996126878
 20
7.8473147768
 30
0.0
 10
10.6061589494
 20
7.8584177043
 30
0.0
 10
10.6132645464
 20
7.8691467602
 30
0.0
 10
10.6209123528
 20
7.8794760632
 30
0.0
 10
10.6290839349
 20
7.8893806936
 30
0.0
 10
10.637759598
 20
7.8988367497
 30
0.0
 10
10.6469184249
 20
7.9078214132
 30
0.0
 10
10.6565383133
 20
7.9163130224
 30
0.0
 10
10.6665960552
 20
7.9242911015
 30
0.0
 10
10.6770673882
 20
7.9317364135
 30
0.0
 10
10.6879270563
 20
7.9386310021
 30
0.0
 10
10.6991488625
 20
7.9449582464
 30
0.0
 10
10.7107057271
 20
7.9507029172
 30
0.0
 10
10.7225697714
 20
7.9558511856
 30
0.0
 10
10.7347123813
 20
7.9603906605
 30
0.0
 10
10.7471042768
 20
7.9643104125
 30
0.0
 10
10.7597155765
 20
7.967601017
 30
0.0
 10
10.7725158706
 20
7.9702545861
 30
0.0
 10
10.7854743028
 20
7.9722647589
 30
0.0
 10
10.7985596424
 20
7.9736267223
 30
0.0
 10
10.8117403576
 20
7.9743372147
 30
0.0
 10
10.8249846894
 20
7.9743945561
 30
0.0
 10
10.8382607311
 20
7.9737986546
 30
0.0
 10
10.8515365057
 20
7.9725509792
 30
0.0
 10
10.8647800415
 20
7.9706545634
 30
0.0
 10
10.8779594454
 20
7.9681139903
 30
0.0
 10
10.8910429832
 20
7.964935407
 30
0.0
 10
10.9039991584
 20
7.9611265053
 30
0.0
 10
10.9167967825
 20
7.9566964812
 30
0.0
 10
10.9294050499
 20
7.9516560193
 30
0.0
 10
10.9417936071
 20
7.9460172614
 30
0.0
 10
10.9539326367
 20
7.9397938032
 30
0.0
 10
10.9657929274
 20
7.9330006518
 30
0.0
 10
10.9773459359
 20
7.9256541732
 30
0.0
 10
10.9885638564
 20
7.917772059
 30
0.0
 10
10.999419682
 20
7.9093732799
 30
0.0
 10
11.0098872876
 20
7.9004780642
 30
0.0
 10
11.0199414859
 20
7.8911078357
 30
0.0
 10
11.0295580785
 20
7.8812851516
 30
0.0
 10
11.038713915
 20
7.8710336535
 30
0.0
 10
11.0473869437
 20
7.8603780079
 30
0.0
 10
11.0555562893
 20
7.8493438677
 30
0.0
 10
11.0632022894
 20
7.8379577954
 30
0.0
 10
11.0703065322
 20
7.8262471942
 30
0.0
 10
11.0768519031
 20
7.8142402459
 30
0.0
 10
11.082822621
 20
7.8019658426
 30
0.0
 10
11.088204306
 20
7.7894535323
 30
0.0
 10
11.0929839948
 20
7.7767334334
 30
0.0
 10
11.0971501602
 20
7.7638361624
 30
0.0
 10
11.1006927454
 20
7.7507927671
 30
0.0
 10
11.1036031965
 20
7.737634624
 30
0.0
 10
11.1058744448
 20
7.7243934939
 30
0.0
 10
11.1075011079
 20
7.7111010231
 30
0.0
 10
11.1084790758
 20
7.6977897906
 30
0.0
 10
11.1086974777
 20
7.6889083375
 30
0.0
 10
11.1086974777
 20
7.684475933
 30
0.0
  0
SPLINE
  5
389
100
AcDbEntity
  8
0
100
AcDbSpline
 62
7
  6
CONTINUOUS
 70
0
 71
3
 72
18
 73
14
 74
0
 42
0.0000001
 43
0.0000001
 44
0.0000000001
 40
0.0
 40
0.0
 40
0.0
 40
0.0
 40
0.150467608
 40
0.291710008
 40
0.4244359371
 40
0.549562455
 40
0.6682139939
 40
0.7255497488
 40
0.7817912909
 40
0.8371402503
 40
0.8918093826
 40
0.9460201179
 40
1.0
 40
1.0
 40
1.0
 40
1.0
 10
12.4488888253
 20
8.3057155121
 30
0.0
 10
12.4472208418
 20
8.3041043637
 30
0.0
 10
12.4438872432
 20
8.3010814346
 30
0.0
 10
12.4387251927
 20
8.2970528655
 30
0.0
 10
12.4335692054
 20
8.2936835735
 30
0.0
 10
12.4284246193
 20
8.2909790888
 30
0.0
 10
12.4241006514
 20
8.2892641403
 30
0.0
 10
12.4206676119
 20
8.2882452205
 30
0.0
 10
12.4181294006
 20
8.2876579296
 30
0.0
 10
12.4155996101
 20
8.2872393523
 30
0.0
 10
12.4130789491
 20
8.2869896367
 30
0.0
 10
12.4105684203
 20
8.2869089129
 30
0.0
 10
12.4089004972
 20
8.2869679055
 30
0.0
 10
12.4080705389
 20
8.2870254597
 30
0.0
  0
SPLINE
  5
38A
100
AcDbEntity
  8
0
100
AcDbSpline
 62
4
  6
CONTINUOUS
 70
0
 71
3
 72
615
 73
611
 74
0
 42
0.0000001
 43
0.0000001
 44
0.0000000001
 40
0.0
 40
0.0
 40
0.0
 40
0.0
 40
0.0078125
 40
0.015625
 40
0.0234375
 40
0.03125
 40
0.03515625
 40
0.0390625
 40
0.04296875
 40
0.046875
 40
0.05078125
 40
0.052734375
 40
0.0546875
 40
0.056640625
 40
0.0576171875
 40
0.05859375
 40
0.0595703125
 40
0.060546875
 40
0.0610351562
 40
0.0615234375
 40
0.0617675781
 40
0.0620117188
 40
0.0622558594
 40
0.0623779297
 40
0.0624389648
 40
0.0625
 40
0.0625610352
 40
0.0626220703
 40
0.0627441406
 40
0.0629882812
 40
0.0632324219
 40
0.0634765625
 40
0.0639648438
 40
0.064453125
 40
0.0654296875
 40
0.06640625
 40
0.0673828125
 40
0.068359375
 40
0.0703125
 40
0.072265625
 40
0.07421875
 40
0.078125
 40
0.08203125
 40
0.0859375
 40
0.08984375
 40
0.09375
 40
0.09765625
 40
0.1015625
 40
0.10546875
 40
0.109375
 40
0.11328125
 40
0.115234375
 40
0.1171875
 40
0.119140625
 40
0.1201171875
 40
0.12109375
 40
0.1220703125
 40
0.123046875
 40
0.1235351562
 40
0.1240234375
 40
0.1242675781
 40
0.1245117188
 40
0.1247558594
 40
0.1248779297
 40
0.1249389648
 40
0.125
 40
0.1250610352
 40
0.1251220703
 40
0.1252441406
 40
0.1254882812
 40
0.1257324219
 40
0.1259765625
 40
0.1264648438
 40
0.126953125
 40
0.1279296875
 40
0.12890625
 40
0.1298828125
 40
0.130859375
 40
0.1328125
 40
0.134765625
 40
0.13671875
 40
0.140625
 40
0.14453125
 40
0.1484375
 40
0.15234375
 40
0.15625
 40
0.16015625
 40
0.1640625
 40
0.16796875
 40
0.171875
 40
0.17578125
 40
0.177734375
 40
0.1796875
 40
0.181640625
 40
0.1826171875
 40
0.18359375
 40
0.1845703125
 40
0.185546875
 40
0.1860351562
 40
0.1865234375
 40
0.1867675781
 40
0.1870117188
 40
0.1872558594
 40
0.1873779297
 40
0.1874389648
 40
0.1875
 40
0.1875610352
 40
0.1876220703
 40
0.1877441406
 40
0.1879882812
 40
0.1882324219
 40
0.1884765625
 40
0.1889648438
 40
0.189453125
 40
0.1904296875
 40
0.19140625
 40
0.1923828125
 40
0.193359375
 40
0.1953125
 40
0.197265625
 40
0.19921875
 40
0.203125
 40
0.20703125
 40
0.2109375
 40
0.21484375
 40
0.21875
 40
0.22265625
 40
0.2265625
 40
0.23046875
 40
0.234375
 40
0.23828125
 40
0.240234375
 40
0.2421875
 40
0.244140625
 40
0.2451171875
 40
0.24609375
 40
0.2470703125
 40
0.248046875
 40
0.2485351562
 40
0.2490234375
 40
0.2492675781
 40
0.2495117188
 40
0.2497558594
 40
0.2498779297
 40
0.2499389648
 40
0.25
 40
0.2500610352
 40
0.2501220703
 40
0.2502441406
 40
0.2504882812
 40
0.2507324219
 40
0.2509765625
 40
0.2514648438
 40
0.251953125
 40
0.2529296875
 40
0.25390625
 40
0.2548828125
 40
0.255859375
 40
0.2578125
 40
0.259765625
 40
0.26171875
 40
0.265625
 40
0.26953125
 40
0.2734375
 40
0.27734375
 40
0.28125
 40
0.28515625
 40
0.2890625
 40
0.29296875
 40
0.296875
 40
0.30078125
 40
0.302734375
 40
0.3046875
 40
0.306640625
 40
0.3076171875
 40
0.30859375
 40
0.3095703125
 40
0.310546875
 40
0.3110351562
 40
0.3115234375
 40
0.3117675781
 40
0.3120117188
 40
0.3122558594
 40
0.3123779297
 40
0.3124389648
 40
0.3125
 40
0.3125610352
 40
0.3126220703
 40
0.3127441406
 40
0.3129882812
 40
0.3132324219
 40
0.3134765625
 40
0.3139648438
 40
0.314453125
 40
0.3154296875
 40
0.31640625
 40
0.3173828125
 40
0.318359375
 40
0.3203125
 40
0.322265625
 40
0.32421875
 40
0.328125
 40
0.33203125
 40
0.3359375
 40
0.33984375
 40
0.34375
 40
0.34765625
 40
0.3515625
 40
0.35546875
 40
0.359375
 40
0.36328125
 40
0.365234375
 40
0.3671875
 40
0.369140625
 40
0.3701171875
 40
0.37109375
 40
0.3720703125
 40
0.373046875
 40
0.3735351562
 40
0.3740234375
 40
0.3742675781
 40
0.3745117188
 40
0.3747558594
 40
0.3748779297
 40
0.3749389648
 40
0.375
 40
0.3750610352
 40
0.3751220703
 40
0.3752441406
 40
0.3754882812
 40
0.3757324219
 40
0.3759765625
 40
0.3764648438
 40
0.376953125
 40
0.3779296875
 40
0.37890625
 40
0.3798828125
 40
0.380859375
 40
0.3828125
 40
0.384765625
 40
0.38671875
 40
0.390625
 40
0.39453125
 40
0.3984375
 40
0.40234375
 40
0.40625
 40
0.41015625
 40
0.4140625
 40
0.41796875
 40
0.421875
 40
0.42578125
 40
0.427734375
 40
0.4296875
 40
0.431640625
 40
0.4326171875
 40
0.43359375
 40
0.4345703125
 40
0.435546875
 40
0.4360351562
 40
0.4365234375
 40
0.4367675781
 40
0.4370117188
 40
0.4372558594
 40
0.4373779297
 40
0.4374389648
 40
0.4375
 40
0.4375610352
 40
0.4376220703
 40
0.4377441406
 40
0.4379882812
 40
0.4382324219
 40
0.4384765625
 40
0.4389648438
 40
0.439453125
 40
0.4404296875
 40
0.44140625
 40
0.4423828125
 40
0.443359375
 40
0.4453125
 40
0.447265625
 40
0.44921875
 40
0.453125
 40
0.45703125
 40
0.4609375
 40
0.46484375
 40
0.46875
 40
0.47265625
 40
0.4765625
 40
0.48046875
 40
0.484375
 40
0.48828125
 40
0.490234375
 40
0.4921875
 40
0.494140625
 40
0.4951171875
 40
0.49609375
 40
0.4970703125
 40
0.498046875
 40
0.4985351562
 40
0.4990234375
 40
0.4992675781
 40
0.4995117188
 40
0.4997558594
 40
0.4998779297
 40
0.4999389648
 40
0.5
 40
0.5000610352
 40
0.5001220703
 40
0.5002441406
 40
0.5004882812
 40
0.5007324219
 40
0.5009765625
 40
0.5014648438
 40
0.501953125
 40
0.5029296875
 40
0.50390625
 40
0.5048828125
 40
0.505859375
 40
0.5078125
 40
0.509765625
 40
0.51171875
 40
0.515625
 40
0.51953125
 40
0.5234375
 40
0.52734375
 40
0.53125
 40
0.53515625
 40
0.5390625
 40
0.54296875
 40
0.546875
 40
0.55078125
 40
0.552734375
 40
0.5546875
 40
0.556640625
 40
0.5576171875
 40
0.55859375
 40
0.5595703125
 40
0.560546875
 40
0.5610351562
 40
0.5615234375
 40
0.5617675781
 40
0.5620117188
 40
0.5622558594
 40
0.5623779297
 40
0.5624389648
 40
0.5625
 40
0.5625610352
 40
0.5626220703
 40
0.5627441406
 40
0.5629882812
 40
0.5632324219
 40
0.5634765625
 40
0.5639648438
 40
0.564453125
 40
0.5654296875
 40
0.56640625
 40
0.5673828125
 40
0.568359375
 40
0.5703125
 40
0.572265625
 40
0.57421875
 40
0.578125
 40
0.58203125
 40
0.5859375
 40
0.58984375
 40
0.59375
 40
0.59765625
 40
0.6015625
 40
0.60546875
 40
0.609375
 40
0.61328125
 40
0.615234375
 40
0.6171875
 40
0.619140625
 40
0.6201171875
 40
0.62109375
 40
0.6220703125
 40
0.623046875
 40
0.6235351562
 40
0.6240234375
 40
0.6242675781
 40
0.6245117188
 40
0.6247558594
 40
0.6248779297
 40
0.6249389648
 40
0.625
 40
0.6250610352
 40
0.6251220703
 40
0.6252441406
 40
0.6254882812
 40
0.6257324219
 40
0.6259765625
 40
0.6264648438
 40
0.626953125
 40
0.6279296875
 40
0.62890625
 40
0.6298828125
 40
0.630859375
 40
0.6328125
 40
0.634765625
 40
0.63671875
 40
0.640625
 40
0.64453125
 40
0.6484375
 40
0.65234375
 40
0.65625
 40
0.66015625
 40
0.6640625
 40
0.66796875
 40
0.671875
 40
0.67578125
 40
0.677734375
 40
0.6796875
 40
0.681640625
 40
0.6826171875
 40
0.68359375
 40
0.6845703125
 40
0.685546875
 40
0.6860351562
 40
0.6865234375
 40
0.6867675781
 40
0.6870117188
 40
0.6872558594
 40
0.6873779297
 40
0.6874389648
 40
0.6875
 40
0.6875610352
 40
0.6876220703
 40
0.6877441406
 40
0.6879882812
 40
0.6882324219
 40
0.6884765625
 40
0.6889648438
 40
0.689453125
 40
0.6904296875
 40
0.69140625
 40
0.6923828125
 40
0.693359375
 40
0.6953125
 40
0.697265625
 40
0.69921875
 40
0.703125
 40
0.70703125
 40
0.7109375
 40
0.71484375
 40
0.71875
 40
0.72265625
 40
0.7265625
 40
0.73046875
 40
0.734375
 40
0.73828125
 40
0.740234375
 40
0.7421875
 40
0.744140625
 40
0.7451171875
 40
0.74609375
 40
0.7470703125
 40
0.748046875
 40
0.7485351562
 40
0.7490234375
 40
0.7492675781
 40
0.7495117188
 40
0.7497558594
 40
0.7498779297
 40
0.7499389648
 40
0.75
 40
0.7500610352
 40
0.7501220703
 40
0.7502441406
 40
0.7504882812
 40
0.7507324219
 40
0.7509765625
 40
0.7514648438
 40
0.751953125
 40
0.7529296875
 40
0.75390625
 40
0.7548828125
 40
0.755859375
 40
0.7578125
 40
0.759765625
 40
0.76171875
 40
0.765625
 40
0.76953125
 40
0.7734375
 40
0.77734375
 40
0.78125
 40
0.78515625
 40
0.7890625
 40
0.79296875
 40
0.796875
 40
0.80078125
 40
0.802734375
 40
0.8046875
 40
0.806640625
 40
0.8076171875
 40
0.80859375
 40
0.8095703125
 40
0.810546875
 40
0.8110351562
 40
0.8115234375
 40
0.8117675781
 40
0.8120117188
 40
0.8122558594
 40
0.8123779297
 40
0.8124389648
 40
0.8125
 40
0.8125610352
 40
0.8126220703
 40
0.8127441406
 40
0.8129882812
 40
0.8132324219
 40
0.8134765625
 40
0.8139648438
 40
0.814453125
 40
0.8154296875
 40
0.81640625
 40
0.8173828125
 40
0.818359375
 40
0.8203125
 40
0.822265625
 40
0.82421875
 40
0.828125
 40
0.83203125
 40
0.8359375
 40
0.83984375
 40
0.84375
 40
0.84765625
 40
0.8515625
 40
0.85546875
 40
0.859375
 40
0.86328125
 40
0.865234375
 40
0.8671875
 40
0.869140625
 40
0.8701171875
 40
0.87109375
 40
0.8720703125
 40
0.873046875
 40
0.8735351562
 40
0.8740234375
 40
0.8742675781
 40
0.8745117188
 40
0.8747558594
 40
0.8748779297
 40
0.8749389648
 40
0.875
 40
0.8750610352
 40
0.8751220703
 40
0.8752441406
 40
0.8754882812
 40
0.8757324219
 40
0.8759765625
 40
0.8764648438
 40
0.876953125
 40
0.8779296875
 40
0.87890625
 40
0.8798828125
 40
0.880859375
 40
0.8828125
 40
0.884765625
 40
0.88671875
 40
0.890625
 40
0.89453125
 40
0.8984375
 40
0.90234375
 40
0.90625
 40
0.91015625
 40
0.9140625
 40
0.91796875
 40
0.921875
 40
0.92578125
 40
0.927734375
 40
0.9296875
 40
0.931640625
 40
0.9326171875
 40
0.93359375
 40
0.9345703125
 40
0.935546875
 40
0.9360351562
 40
0.9365234375
 40
0.9367675781
 40
0.9370117188
 40
0.9372558594
 40
0.9373779297
 40
0.9374389648
 40
0.9375
 40
0.9375610352
 40
0.9376220703
 40
0.9377441406
 40
0.9379882812
 40
0.9382324219
 40
0.9384765625
 40
0.9389648438
 40
0.939453125
 40
0.9404296875
 40
0.94140625
 40
0.9423828125
 40
0.943359375
 40
0.9453125
 40
0.947265625
 40
0.94921875
 40
0.953125
 40
0.95703125
 40
0.9609375
 40
0.96484375
 40
0.96875
 40
0.9765625
 40
0.984375
 40
0.9921875
 40
1.0
 40
1.0
 40
1.0
 40
1.0
 10
10.4128444807
 20
8.716625594
 30
0.0
 10
10.4144110742
 20
8.7166705562
 30
0.0
 10
10.4175442611
 20
8.7167604806
 30
0.0
 10
10.4222440415
 20
8.7168953672
 30
0.0
 10
10.4269438218
 20
8.7170302539
 30
0.0
 10
10.4308603055
 20
8.7171426594
 30
0.0
 10
10.4339934924
 20
8.7172325838
 30
0.0
 10
10.4363433826
 20
8.7173000271
 30
0.0
 10
10.4386932728
 20
8.7173674704
 30
0.0
 10
10.441043163
 20
8.7174349137
 30
0.0
 10
10.4430014048
 20
8.7174911165
 30
0.0
 10
10.4445679983
 20
8.7175360787
 30
0.0
 10
10.4457429434
 20
8.7175698004
 30
0.0
 10
10.4467220643
 20
8.7175979017
 30
0.0
 10
10.447505361
 20
8.7176203829
 30
0.0
 10
10.4480928336
 20
8.7176372435
 30
0.0
 10
10.4486803059
 20
8.7176541052
 30
0.0
 10
10.449169867
 20
8.717668153
 30
0.0
 10
10.4495615142
 20
8.7176793995
 30
0.0
 10
10.4498062973
 20
8.7176864097
 30
0.0
 10
10.4500021155
 20
8.717692061
 30
0.0
 10
10.4501490021
 20
8.7176961817
 30
0.0
 10
10.4502713344
 20
8.71769999
 30
0.0
 10
10.4503571106
 20
8.717701921
 30
0.0
 10
10.4504059015
 20
8.7177041719
 30
0.0
 10
10.450443126
 20
8.7177026275
 30
0.0
 10
10.450477937
 20
8.7177134397
 30
0.0
 10
10.4505251935
 20
8.7177235457
 30
0.0
 10
10.4506075002
 20
8.7177432395
 30
0.0
 10
10.4507252863
 20
8.7177703236
 30
0.0
 10
10.4508665418
 20
8.7178032738
 30
0.0
 10
10.4510549132
 20
8.7178470505
 30
0.0
 10
10.4512903668
 20
8.7179018252
 30
0.0
 10
10.4516670986
 20
8.7179894346
 30
0.0
 10
10.4521380113
 20
8.7180989566
 30
0.0
 10
10.4527031074
 20
8.7182303787
 30
0.0
 10
10.4532682032
 20
8.7183618019
 30
0.0
 10
10.4540216644
 20
8.7185370325
 30
0.0
 10
10.4549634909
 20
8.7187560708
 30
0.0
 10
10.4560936827
 20
8.7190189167
 30
0.0
 10
10.4576006051
 20
8.719369378
 30
0.0
 10
10.4594842581
 20
8.7198074546
 30
0.0
 10
10.4617446417
 20
8.7203331465
 30
0.0
 10
10.4640050253
 20
8.7208588384
 30
0.0
 10
10.4662654089
 20
8.7213845303
 30
0.0
 10
10.4685257925
 20
8.7219102222
 30
0.0
 10
10.4707861761
 20
8.7224359141
 30
0.0
 10
10.4730465597
 20
8.7229616061
 30
0.0
 10
10.4753069433
 20
8.723487298
 30
0.0
 10
10.4775673269
 20
8.7240129899
 30
0.0
 10
10.4794509799
 20
8.7244510665
 30
0.0
 10
10.4809579024
 20
8.7248015277
 30
0.0
 10
10.4820880941
 20
8.7250643737
 30
0.0
 10
10.4830299207
 20
8.725283412
 30
0.0
 10
10.4837833818
 20
8.7254586427
 30
0.0
 10
10.4843484778
 20
8.7255900654
 30
0.0
 10
10.4849135734
 20
8.7257214893
 30
0.0
 10
10.4853844877
 20
8.7258310057
 30
0.0
 10
10.4857612161
 20
8.7259186266
 30
0.0
 10
10.4859966785
 20
8.7259733718
 30
0.0
 10
10.4861850319
 20
8.726017209
 30
0.0
 10
10.4863263421
 20
8.7260499744
 30
0.0
 10
10.4864439571
 20
8.726077637
 30
0.0
 10
10.4865265692
 20
8.726096298
 30
0.0
 10
10.4865733364
 20
8.7261080588
 30
0.0
 10
10.4866096505
 20
8.7261137881
 30
0.0
 10
10.4866412296
 20
8.7261313339
 30
0.0
 10
10.4866849866
 20
8.7261506067
 30
0.0
 10
10.4867607919
 20
8.7261862543
 30
0.0
 10
10.4868694875
 20
8.7262361755
 30
0.0
 10
10.48699975
 20
8.7262965107
 30
0.0
 10
10.4871734935
 20
8.7263768076
 30
0.0
 10
10.4873906523
 20
8.72647723
 30
0.0
 10
10.4877381179
 20
8.7266378772
 30
0.0
 10
10.4881724459
 20
8.726838696
 30
0.0
 10
10.4886936411
 20
8.7270796744
 30
0.0
 10
10.489214836
 20
8.7273206539
 30
0.0
 10
10.4899097626
 20
8.7276419595
 30
0.0
 10
10.4907784208
 20
8.7280435917
 30
0.0
 10
10.4918208106
 20
8.7285255502
 30
0.0
 10
10.4932106638
 20
8.7291681616
 30
0.0
 10
10.4949479802
 20
8.7299714258
 30
0.0
 10
10.4970327599
 20
8.7309353429
 30
0.0
 10
10.4991175396
 20
8.7318992599
 30
0.0
 10
10.5012023193
 20
8.732863177
 30
0.0
 10
10.503287099
 20
8.7338270941
 30
0.0
 10
10.5053718787
 20
8.7347910111
 30
0.0
 10
10.5074566584
 20
8.7357549282
 30
0.0
 10
10.5095414381
 20
8.7367188453
 30
0.0
 10
10.5116262178
 20
8.7376827623
 30
0.0
 10
10.5133635342
 20
8.7384860266
 30
0.0
 10
10.5147533874
 20
8.7391286379
 30
0.0
 10
10.5157957772
 20
8.7396105965
 30
0.0
 10
10.5166644355
 20
8.7400122286
 30
0.0
 10
10.517359362
 20
8.7403335343
 30
0.0
 10
10.517880557
 20
8.7405745134
 30
0.0
 10
10.5184017515
 20
8.7408154935
 30
0.0
 10
10.518836082
 20
8.7410163068
 30
0.0
 10
10.5191835424
 20
8.7411769652
 30
0.0
 10
10.5194007144
 20
8.7412773591
 30
0.0
 10
10.5195744308
 20
8.7413577145
 30
0.0
 10
10.519704776
 20
8.7414178708
 30
0.0
 10
10.519813213
 20
8.7414683518
 30
0.0
 10
10.5198894799
 20
8.7415030002
 30
0.0
 10
10.5199324973
 20
8.7415238741
 30
0.0
 10
10.5199663483
 20
8.7415365015
 30
0.0
 10
10.5199941295
 20
8.7415607034
 30
0.0
 10
10.5200332883
 20
8.7415889353
 30
0.0
 10
10.5201008299
 20
8.7416402222
 30
0.0
 10
10.5201978335
 20
8.7417125057
 30
0.0
 10
10.5203140172
 20
8.7417996668
 30
0.0
 10
10.5204690058
 20
8.7419157347
 30
0.0
 10
10.5206627151
 20
8.7420608698
 30
0.0
 10
10.5209726649
 20
8.7422930579
 30
0.0
 10
10.521360097
 20
8.7425833027
 30
0.0
 10
10.5218250176
 20
8.7429315923
 30
0.0
 10
10.5222899378
 20
8.743279883
 30
0.0
 10
10.5229098314
 20
8.7437442702
 30
0.0
 10
10.5236846985
 20
8.7443247544
 30
0.0
 10
10.5246145389
 20
8.7450213353
 30
0.0
 10
10.5258543262
 20
8.7459501099
 30
0.0
 10
10.5274040603
 20
8.7471110781
 30
0.0
 10
10.5292637412
 20
8.74850424
 30
0.0
 10
10.5311234221
 20
8.7498974019
 30
0.0
 10
10.532983103
 20
8.7512905638
 30
0.0
 10
10.5348427839
 20
8.7526837257
 30
0.0
 10
10.5367024648
 20
8.7540768875
 30
0.0
 10
10.5385621458
 20
8.7554700494
 30
0.0
 10
10.5404218267
 20
8.7568632113
 30
0.0
 10
10.5422815076
 20
8.7582563732
 30
0.0
 10
10.5438312417
 20
8.7594173414
 30
0.0
 10
10.5450710289
 20
8.760346116
 30
0.0
 10
10.5460008694
 20
8.7610426969
 30
0.0
 10
10.5467757365
 20
8.761623181
 30
0.0
 10
10.54739563
 20
8.7620875684
 30
0.0
 10
10.5478605505
 20
8.7624358587
 30
0.0
 10
10.54832547
 20
8.7627841498
 30
0.0
 10
10.5487129058
 20
8.7630743898
 30
0.0
 10
10.5490228479
 20
8.7633065877
 30
0.0
 10
10.5492165766
 20
8.7634516979
 30
0.0
 10
10.5493715256
 20
8.7635678169
 30
0.0
 10
10.5494878301
 20
8.7636548219
 30
0.0
 10
10.5495844555
 20
8.7637275938
 30
0.0
 10
10.5496526723
 20
8.7637780089
 30
0.0
 10
10.5496907493
 20
8.7638076375
 30
0.0
 10
10.5497218535
 20
8.7638275491
 30
0.0
 10
10.549743224
 20
8.7638562902
 30
0.0
 10
10.5497751132
 20
8.7638915319
 30
0.0
 10
10.5498293375
 20
8.7639546398
 30
0.0
 10
10.5499076277
 20
8.7640440436
 30
0.0
 10
10.550001222
 20
8.7641516494
 30
0.0
 10
10.550126138
 20
8.7642950116
 30
0.0
 10
10.5502822407
 20
8.7644742528
 30
0.0
 10
10.5505320286
 20
8.7647610171
 30
0.0
 10
10.5508442554
 20
8.76511948
 30
0.0
 10
10.5512189311
 20
8.7655496323
 30
0.0
 10
10.5515936058
 20
8.7659797854
 30
0.0
 10
10.5520931724
 20
8.7665533225
 30
0.0
 10
10.5527176306
 20
8.7672702441
 30
0.0
 10
10.5534669805
 20
8.7681305499
 30
0.0
 10
10.5544661136
 20
8.7692776244
 30
0.0
 10
10.55571503
 20
8.7707114675
 30
0.0
 10
10.5572137297
 20
8.7724320792
 30
0.0
 10
10.5587124294
 20
8.7741526909
 30
0.0
 10
10.5602111291
 20
8.7758733026
 30
0.0
 10
10.5617098288
 20
8.7775939143
 30
0.0
 10
10.5632085285
 20
8.779314526
 30
0.0
 10
10.5647072282
 20
8.7810351377
 30
0.0
 10
10.5662059279
 20
8.7827557494
 30
0.0
 10
10.5677046276
 20
8.7844763611
 30
0.0
 10
10.568953544
 20
8.7859102042
 30
0.0
 10
10.5699526772
 20
8.7870572786
 30
0.0
 10
10.570702027
 20
8.7879175845
 30
0.0
 10
10.5713264853
 20
8.788634506
 30
0.0
 10
10.5718260517
 20
8.7892080433
 30
0.0
 10
10.5722007269
 20
8.789638196
 30
0.0
 10
10.572575401
 20
8.7900683495
 30
0.0
 10
10.5728876326
 20
8.7904268085
 30
0.0
 10
10.5731374109
 20
8.7907135808
 30
0.0
 10
10.573293538
 20
8.7908928019
 30
0.0
 10
10.5734184038
 20
8.7910362053
 30
0.0
 10
10.5735121515
 20
8.7911436852
 30
0.0
 10
10.5735899617
 20
8.7912334829
 30
0.0
 10
10.5736450429
 20
8.7912958876
 30
0.0
 10
10.573675559
 20
8.7913322559
 30
0.0
 10
10.5737011474
 20
8.7913575365
 30
0.0
 10
10.5737164101
 20
8.7913904455
 30
0.0
 10
10.5737403621
 20
8.7914316632
 30
0.0
 10
10.5737805999
 20
8.7915050341
 30
0.0
 10
10.5738389599
 20
8.7916092015
 30
0.0
 10
10.5739086164
 20
8.7917344798
 30
0.0
 10
10.5740016229
 20
8.7919014206
 30
0.0
 10
10.5741178361
 20
8.7921101298
 30
0.0
 10
10.5743038023
 20
8.7924440459
 30
0.0
 10
10.5745362514
 20
8.7928614475
 30
0.0
 10
10.5748151941
 20
8.7933623266
 30
0.0
 10
10.5750941358
 20
8.7938632065
 30
0.0
 10
10.5754660583
 20
8.7945310461
 30
0.0
 10
10.5759309614
 20
8.7953658456
 30
0.0
 10
10.5764888452
 20
8.7963676051
 30
0.0
 10
10.5772326902
 20
8.7977032843
 30
0.0
 10
10.5781624965
 20
8.7993728834
 30
0.0
 10
10.579278264
 20
8.8013764023
 30
0.0
 10
10.5803940315
 20
8.8033799212
 30
0.0
 10
10.581509799
 20
8.8053834401
 30
0.0
 10
10.5826255666
 20
8.807386959
 30
0.0
 10
10.5837413341
 20
8.8093904778
 30
0.0
 10
10.5848571016
 20
8.8113939967
 30
0.0
 10
10.5859728691
 20
8.8133975156
 30
0.0
 10
10.5870886366
 20
8.8154010345
 30
0.0
 10
10.5880184429
 20
8.8170706336
 30
0.0
 10
10.5887622879
 20
8.8184063128
 30
0.0
 10
10.5893201717
 20
8.8194080723
 30
0.0
 10
10.5897850748
 20
8.8202428718
 30
0.0
 10
10.5901569973
 20
8.8209107115
 30
0.0
 10
10.5904359394
 20
8.8214115911
 30
0.0
 10
10.5907148804
 20
8.8219124712
 30
0.0
 10
10.5909473346
 20
8.8223298697
 30
0.0
 10
10.5911332904
 20
8.8226637922
 30
0.0
 10
10.5912495302
 20
8.8228724853
 30
0.0
 10
10.5913424821
 20
8.8230394591
 30
0.0
 10
10.5914123053
 20
8.8231646364
 30
0.0
 10
10.5914701436
 20
8.8232691197
 30
0.0
 10
10.5915113128
 20
8.8233419266
 30
0.0
 10
10.5915337727
 20
8.823384048
 30
0.0
 10
10.5915536186
 20
8.8234141816
 30
0.0
 10
10.591561993
 20
8.823449886
 30
0.0
 10
10.5915771603
 20
8.8234955486
 30
0.0
 10
10.5916018387
 20
8.8235763637
 30
0.0
 10
10.5916380683
 20
8.8236913404
 30
0.0
 10
10.5916811265
 20
8.823829515
 30
0.0
 10
10.5917386832
 20
8.8240136771
 30
0.0
 10
10.5918105793
 20
8.824243904
 30
0.0
 10
10.5919256408
 20
8.8246122534
 30
0.0
 10
10.5920694581
 20
8.8250726949
 30
0.0
 10
10.592242043
 20
8.8256252226
 30
0.0
 10
10.5924146268
 20
8.8261777509
 30
0.0
 10
10.5926447389
 20
8.8269144551
 30
0.0
 10
10.5929323789
 20
8.8278353354
 30
0.0
 10
10.593277547
 20
8.8289403917
 30
0.0
 10
10.593737771
 20
8.8304138002
 30
0.0
 10
10.5943130511
 20
8.8322555607
 30
0.0
 10
10.5950033872
 20
8.8344656734
 30
0.0
 10
10.5956937233
 20
8.836675786
 30
0.0
 10
10.5963840594
 20
8.8388858987
 30
0.0
 10
10.5970743955
 20
8.8410960114
 30
0.0
 10
10.5977647316
 20
8.843306124
 30
0.0
 10
10.5984550677
 20
8.8455162367
 30
0.0
 10
10.5991454038
 20
8.8477263494
 30
0.0
 10
10.5998357399
 20
8.849936462
 30
0.0
 10
10.60041102
 20
8.8517782226
 30
0.0
 10
10.600871244
 20
8.853251631
 30
0.0
 10
10.6012164121
 20
8.8543566874
 30
0.0
 10
10.6015040522
 20
8.8552775676
 30
0.0
 10
10.6017341641
 20
8.8560142719
 30
0.0
 10
10.6019067484
 20
8.8565667999
 30
0.0
 10
10.6020793315
 20
8.8571193284
 30
0.0
 10
10.6022231544
 20
8.8575797675
 30
0.0
 10
10.6023382045
 20
8.8579481218
 30
0.0
 10
10.6024101294
 20
8.8581783364
 30
0.0
 10
10.6024676269
 20
8.8583625236
 30
0.0
 10
10.6025108661
 20
8.8585006217
 30
0.0
 10
10.6025465296
 20
8.858615838
 30
0.0
 10
10.6025722184
 20
8.8586962253
 30
0.0
 10
10.6025857668
 20
8.8587425732
 30
0.0
 10
10.6025991141
 20
8.8587761728
 30
0.0
 10
10.6026002827
 20
8.8588142117
 30
0.0
 10
10.602606089
 20
8.8588633818
 30
0.0
 10
10.6026142707
 20
8.8589501508
 30
0.0
 10
10.6026269936
 20
8.8590737295
 30
0.0
 10
10.6026418181
 20
8.8592221853
 30
0.0
 10
10.6026617389
 20
8.8594200699
 30
0.0
 10
10.602686587
 20
8.8596674451
 30
0.0
 10
10.6027263734
 20
8.8600632345
 30
0.0
 10
10.6027760963
 20
8.8605579751
 30
0.0
 10
10.6028357682
 20
8.8611516621
 30
0.0
 10
10.6028954389
 20
8.8617453496
 30
0.0
 10
10.6029750002
 20
8.8625369327
 30
0.0
 10
10.6030744517
 20
8.8635264117
 30
0.0
 10
10.6031937935
 20
8.8647137864
 30
0.0
 10
10.603352916
 20
8.8662969528
 30
0.0
 10
10.6035518191
 20
8.8682759107
 30
0.0
 10
10.6037905028
 20
8.8706506602
 30
0.0
 10
10.6040291865
 20
8.8730254097
 30
0.0
 10
10.6042678702
 20
8.8754001592
 30
0.0
 10
10.6045065539
 20
8.8777749087
 30
0.0
 10
10.6047452376
 20
8.8801496582
 30
0.0
 10
10.6049839213
 20
8.8825244077
 30
0.0
 10
10.605222605
 20
8.8848991572
 30
0.0
 10
10.6054612887
 20
8.8872739067
 30
0.0
 10
10.6056601917
 20
8.8892528646
 30
0.0
 10
10.6058193142
 20
8.8908360309
 30
0.0
 10
10.605938656
 20
8.8920234057
 30
0.0
 10
10.6060381076
 20
8.8930128846
 30
0.0
 10
10.6061176688
 20
8.8938044678
 30
0.0
 10
10.6061773399
 20
8.8943981552
 30
0.0
 10
10.6062370099
 20
8.8949918425
 30
0.0
 10
10.6062867387
 20
8.8954865821
 30
0.0
 10
10.6063265132
 20
8.8958823735
 30
0.0
 10
10.6063513915
 20
8.8961297436
 30
0.0
 10
10.6063712502
 20
8.8963276387
 30
0.0
 10
10.6063862647
 20
8.8964760624
 30
0.0
 10
10.6063983934
 20
8.8965997416
 30
0.0
 10
10.6064076358
 20
8.8966863312
 30
0.0
 10
10.6064117425
 20
8.8967357888
 30
0.0
 10
10.6064181316
 20
8.8967729446
 30
0.0
 10
10.6064118718
 20
8.8968098609
 30
0.0
 10
10.6064079375
 20
8.8968591663
 30
0.0
 10
10.6063989968
 20
8.8969454117
 30
0.0
 10
10.606387299
 20
8.8970686397
 30
0.0
 10
10.6063728017
 20
8.8972165047
 30
0.0
 10
10.6063536327
 20
8.8974136611
 30
0.0
 10
10.6063296163
 20
8.8976601055
 30
0.0
 10
10.6062912209
 20
8.8980544171
 30
0.0
 10
10.6062432161
 20
8.8985473065
 30
0.0
 10
10.6061856149
 20
8.8991387738
 30
0.0
 10
10.6061280125
 20
8.899730241
 30
0.0
 10
10.6060512096
 20
8.9005188641
 30
0.0
 10
10.6059552059
 20
8.9015046428
 30
0.0
 10
10.6058400016
 20
8.9026875774
 30
0.0
 10
10.6056863957
 20
8.9042648234
 30
0.0
 10
10.6054943885
 20
8.906236381
 30
0.0
 10
10.6052639797
 20
8.9086022501
 30
0.0
 10
10.605033571
 20
8.9109681192
 30
0.0
 10
10.6048031622
 20
8.9133339883
 30
0.0
 10
10.6045727535
 20
8.9156998574
 30
0.0
 10
10.6043423447
 20
8.9180657265
 30
0.0
 10
10.604111936
 20
8.9204315956
 30
0.0
 10
10.6038815272
 20
8.9227974646
 30
0.0
 10
10.6036511185
 20
8.9251633337
 30
0.0
 10
10.6034591112
 20
8.9271348913
 30
0.0
 10
10.6033055054
 20
8.9287121374
 30
0.0
 10
10.603190301
 20
8.9298950719
 30
0.0
 10
10.6030942974
 20
8.9308808507
 30
0.0
 10
10.6030174944
 20
8.9316694737
 30
0.0
 10
10.6029598924
 20
8.932260941
 30
0.0
 10
10.6029022893
 20
8.9328524082
 30
0.0
 10
10.6028542904
 20
8.9333452979
 30
0.0
 10
10.6028158831
 20
8.9337396087
 30
0.0
 10
10.602791897
 20
8.9339860553
 30
0.0
 10
10.6027726658
 20
8.9341832071
 30
0.0
 10
10.6027583585
 20
8.934331086
 30
0.0
 10
10.6027460663
 20
8.9344542708
 30
0.0
 10
10.6027381867
 20
8.9345405934
 30
0.0
 10
10.6027325522
 20
8.934589775
 30
0.0
 10
10.602731515
 20
8.9346270715
 30
0.0
 10
10.6027182887
 20
8.9346627997
 30
0.0
 10
10.6027049054
 20
8.9347109844
 30
0.0
 10
10.6026795037
 20
8.9347950527
 30
0.0
 10
10.6026442511
 20
8.9349152836
 30
0.0
 10
10.6026015047
 20
8.9350595035
 30
0.0
 10
10.6025446644
 20
8.9352518168
 30
0.0
 10
10.602473561
 20
8.9354922015
 30
0.0
 10
10.6023598252
 20
8.9358768209
 30
0.0
 10
10.6022176452
 20
8.9363575938
 30
0.0
 10
10.6020470336
 20
8.9369345218
 30
0.0
 10
10.6018764209
 20
8.9375114497
 30
0.0
 10
10.6016489376
 20
8.9382806869
 30
0.0
 10
10.6013645834
 20
8.9392422334
 30
0.0
 10
10.6010233584
 20
8.9403960893
 30
0.0
 10
10.6005683917
 20
8.9419345637
 30
0.0
 10
10.5999996833
 20
8.9438576568
 30
0.0
 10
10.5993172333
 20
8.9461653685
 30
0.0
 10
10.5986347832
 20
8.9484730801
 30
0.0
 10
10.5979523332
 20
8.9507807918
 30
0.0
 10
10.5972698831
 20
8.9530885035
 30
0.0
 10
10.5965874331
 20
8.9553962151
 30
0.0
 10
10.595904983
 20
8.9577039268
 30
0.0
 10
10.595222533
 20
8.9600116385
 30
0.0
 10
10.5945400829
 20
8.9623193502
 30
0.0
 10
10.5939713746
 20
8.9642424432
 30
0.0
 10
10.5935164079
 20
8.9657809177
 30
0.0
 10
10.5931751828
 20
8.9669347735
 30
0.0
 10
10.5928908287
 20
8.96789632
 30
0.0
 10
10.5926633453
 20
8.9686655572
 30
0.0
 10
10.592492733
 20
8.9692424852
 30
0.0
 10
10.5923221196
 20
8.9698194129
 30
0.0
 10
10.5921799452
 20
8.9703001871
 30
0.0
 10
10.592066198
 20
8.9706848038
 30
0.0
 10
10.5919951235
 20
8.9709251952
 30
0.0
 10
10.5919382239
 20
8.9711174947
 30
0.0
 10
10.5918956587
 20
8.9712617568
 30
0.0
 10
10.5918598394
 20
8.9713818558
 30
0.0
 10
10.5918354493
 20
8.9714661594
 30
0.0
 10
10.5918204451
 20
8.9715139671
 30
0.0
 10
10.5918121975
 20
8.9715508533
 30
0.0
 10
10.5917924616
 20
8.971583801
 30
0.0
 10
10.5917701543
 20
8.971629105
 30
0.0
 10
10.5917292496
 20
8.9717077471
 30
0.0
 10
10.5916717903
 20
8.9718204275
 30
0.0
 10
10.5916024213
 20
8.9719555008
 30
0.0
 10
10.5915100753
 20
8.9721356485
 30
0.0
 10
10.5913945929
 20
8.972360816
 30
0.0
 10
10.5912098489
 20
8.9727210936
 30
0.0
 10
10.5909789093
 20
8.9731714373
 30
0.0
 10
10.5907017859
 20
8.9737118512
 30
0.0
 10
10.5904246614
 20
8.9742522646
 30
0.0
 10
10.5900551625
 20
8.9749728161
 30
0.0
 10
10.5895932887
 20
8.9758735053
 30
0.0
 10
10.5890390402
 20
8.9769543324
 30
0.0
 10
10.5883000422
 20
8.9783954353
 30
0.0
 10
10.5873762946
 20
8.9801968138
 30
0.0
 10
10.5862677976
 20
8.982358468
 30
0.0
 10
10.5851593006
 20
8.9845201223
 30
0.0
 10
10.5840508035
 20
8.9866817765
 30
0.0
 10
10.5829423065
 20
8.9888434307
 30
0.0
 10
10.5818338095
 20
8.991005085
 30
0.0
 10
10.5807253124
 20
8.9931667392
 30
0.0
 10
10.5796168154
 20
8.9953283934
 30
0.0
 10
10.5785083184
 20
8.9974900477
 30
0.0
 10
10.5775845709
 20
8.9992914262
 30
0.0
 10
10.5768455728
 20
9.000732529
 30
0.0
 10
10.5762913243
 20
9.0018133561
 30
0.0
 10
10.5758294506
 20
9.0027140454
 30
0.0
 10
10.5754599515
 20
9.0034345968
 30
0.0
 10
10.5751828275
 20
9.0039750105
 30
0.0
 10
10.5749057024
 20
9.0045154236
 30
0.0
 10
10.5746747681
 20
9.0049657695
 30
0.0
 10
10.5744900133
 20
9.0053260427
 30
0.0
 10
10.5743745584
 20
9.0055512215
 30
0.0
 10
10.5742821557
 20
9.005731346
 30
0.0
 10
10.57421296
 20
9.0058664899
 30
0.0
 10
10.5741549588
 20
9.0059789494
 30
0.0
 10
10.5741150214
 20
9.0060579859
 30
0.0
 10
10.5740911642
 20
9.0061026579
 30
0.0
 10
10.5740761892
 20
9.0061375473
 30
0.0
 10
10.5740500606
 20
9.0061671406
 30
0.0
 10
10.5740191131
 20
9.0062084457
 30
0.0
 10
10.5739631422
 20
9.0062798688
 30
0.0
 10
10.5738841315
 20
9.0063823519
 30
0.0
 10
10.5737889129
 20
9.0065051389
 30
0.0
 10
10.5736620966
 20
9.0066689223
 30
0.0
 10
10.5735035277
 20
9.0068736284
 30
0.0
 10
10.5732498445
 20
9.0072011711
 30
0.0
 10
10.5729327312
 20
9.0076105951
 30
0.0
 10
10.5725521992
 20
9.0081019058
 30
0.0
 10
10.5721716662
 20
9.0085932159
 30
0.0
 10
10.5716642892
 20
9.0092482963
 30
0.0
 10
10.5710300679
 20
9.0100671468
 30
0.0
 10
10.5702690023
 20
9.0110497673
 30
0.0
 10
10.5692542482
 20
9.012359928
 30
0.0
 10
10.5679858055
 20
9.0139976289
 30
0.0
 10
10.5664636743
 20
9.01596287
 30
0.0
 10
10.5649415431
 20
9.017928111
 30
0.0
 10
10.5634194119
 20
9.0198933521
 30
0.0
 10
10.5618972807
 20
9.0218585932
 30
0.0
 10
10.5603751495
 20
9.0238238342
 30
0.0
 10
10.5588530184
 20
9.0257890753
 30
0.0
 10
10.5573308872
 20
9.0277543164
 30
0.0
 10
10.555808756
 20
9.0297195574
 30
0.0
 10
10.5545403133
 20
9.0313572583
 30
0.0
 10
10.5535255592
 20
9.032667419
 30
0.0
 10
10.5527644936
 20
9.0336500396
 30
0.0
 10
10.5521302723
 20
9.03446889
 30
0.0
 10
10.5516228952
 20
9.0351239703
 30
0.0
 10
10.5512423625
 20
9.0356152808
 30
0.0
 10
10.5508618291
 20
9.0361065904
 30
0.0
 10
10.5505447204
 20
9.0365160177
 30
0.0
 10
10.5502910279
 20
9.0368435535
 30
0.0
 10
10.5501324826
 20
9.0370482773
 30
0.0
 10
10.5500056179
 20
9.0372120245
 30
0.0
 10
10.5499105471
 20
9.0373349222
 30
0.0
 10
10.5498310742
 20
9.037437059
 30
0.0
 10
10.5497759282
 20
9.0375091002
 30
0.0
 10
10.549743659
 20
9.0375494151
 30
0.0
 10
10.5497215903
 20
9.0375820497
 30
0.0
 10
10.5496913671
 20
9.0376055162
 30
0.0
 10
10.5496539139
 20
9.0376400028
 30
0.0
 10
10.5495870456
 20
9.0376988644
 30
0.0
 10
10.5494922123
 20
9.0377837313
 30
0.0
 10
10.5493781157
 20
9.0378852382
 30
0.0
 10
10.5492260906
 20
9.0380206972
 30
0.0
 10
10.5490360237
 20
9.0381899811
 30
0.0
 10
10.5487319364
 20
9.0384608576
 30
0.0
 10
10.5483518206
 20
9.0387994455
 30
0.0
 10
10.5478956845
 20
9.0392057543
 30
0.0
 10
10.5474395476
 20
9.0396120622
 30
0.0
 10
10.5468313654
 20
9.0401538065
 30
0.0
 10
10.5460711375
 20
9.0408309866
 30
0.0
 10
10.545158864
 20
9.0416436029
 30
0.0
 10
10.5439424995
 20
9.0427270912
 30
0.0
 10
10.5424220437
 20
9.0440814515
 30
0.0
 10
10.5405974968
 20
9.045706684
 30
0.0
 10
10.53877295
 20
9.0473319164
 30
0.0
 10
10.5369484031
 20
9.0489571489
 30
0.0
 10
10.5351238562
 20
9.0505823814
 30
0.0
 10
10.5332993093
 20
9.0522076138
 30
0.0
 10
10.5314747625
 20
9.0538328463
 30
0.0
 10
10.5296502156
 20
9.0554580787
 30
0.0
 10
10.5278256687
 20
9.0570833112
 30
0.0
 10
10.526305213
 20
9.0584376716
 30
0.0
 10
10.5250888484
 20
9.0595211599
 30
0.0
 10
10.524176575
 20
9.0603337761
 30
0.0
 10
10.5234163471
 20
9.0610109563
 30
0.0
 10
10.5228081648
 20
9.0615527004
 30
0.0
 10
10.5223520282
 20
9.0619590087
 30
0.0
 10
10.521895891
 20
9.0623653161
 30
0.0
 10
10.5215157787
 20
9.0627039085
 30
0.0
 10
10.5212116842
 20
9.0629747758
 30
0.0
 10
10.5210216357
 20
9.0631440829
 30
0.0
 10
10.5208695728
 20
9.0632794943
 30
0.0
 10
10.5207555915
 20
9.0633811466
 30
0.0
 10
10.5206603976
 20
9.0634655585
 30
0.0
 10
10.5205941729
 20
9.0635252324
 30
0.0
 10
10.5205556884
 20
9.0635584174
 30
0.0
 10
10.5205286333
 20
9.063585882
 30
0.0
 10
10.5204946658
 20
9.0636035004
 30
0.0
 10
10.520451787
 20
9.0636304261
 30
0.0
 10
10.5203756256
 20
9.0636759457
 30
0.0
 10
10.5202674109
 20
9.0637418105
 30
0.0
 10
10.5201373019
 20
9.06382049
 30
0.0
 10
10.5199639111
 20
9.0639255212
 30
0.0
 10
10.5197471425
 20
9.0640567674
 30
0.0
 10
10.5194003296
 20
9.0642667851
 30
0.0
 10
10.5189668076
 20
9.0645292991
 30
0.0
 10
10.5184465837
 20
9.0648443194
 30
0.0
 10
10.5179263592
 20
9.0651593388
 30
0.0
 10
10.5172327267
 20
9.0655793649
 30
0.0
 10
10.516365686
 20
9.0661043975
 30
0.0
 10
10.5153252372
 20
9.0667344366
 30
0.0
 10
10.5139379721
 20
9.0675744888
 30
0.0
 10
10.5122038907
 20
9.068624554
 30
0.0
 10
10.5101229931
 20
9.0698846323
 30
0.0
 10
10.5080420955
 20
9.0711447105
 30
0.0
 10
10.5059611978
 20
9.0724047888
 30
0.0
 10
10.5038803002
 20
9.0736648671
 30
0.0
 10
10.5017994026
 20
9.0749249453
 30
0.0
 10
10.4997185049
 20
9.0761850236
 30
0.0
 10
10.4976376073
 20
9.0774451018
 30
0.0
 10
10.4955567097
 20
9.0787051801
 30
0.0
 10
10.4938226283
 20
9.0797552453
 30
0.0
 10
10.4924353633
 20
9.0805952975
 30
0.0
 10
10.4913949144
 20
9.0812253366
 30
0.0
 10
10.4905278738
 20
9.0817503693
 30
0.0
 10
10.4898342412
 20
9.0821703953
 30
0.0
 10
10.4893140169
 20
9.0824854151
 30
0.0
 10
10.4887937921
 20
9.0828004338
 30
0.0
 10
10.4883602729
 20
9.0830629527
 30
0.0
 10
10.4880134543
 20
9.0832729604
 30
0.0
 10
10.4877967
 20
9.0834042321
 30
0.0
 10
10.4876232799
 20
9.0835092108
 30
0.0
 10
10.4874932603
 20
9.0835880509
 30
0.0
 10
10.487384766
 20
9.0836534133
 30
0.0
 10
10.4873091039
 20
9.0836998296
 30
0.0
 10
10.487265425
 20
9.0837253187
 30
0.0
 10
10.487233915
 20
9.0837473499
 30
0.0
 10
10.4871976299
 20
9.0837582406
 30
0.0
 10
10.4871509154
 20
9.0837766476
 30
0.0
 10
10.4870683889
 20
9.0838070492
 30
0.0
 10
10.4869508997
 20
9.0838514267
 30
0.0
 10
10.4868097389
 20
9.0839042745
 30
0.0
 10
10.4866215852
 20
9.0839748797
 30
0.0
 10
10.4863863724
 20
9.0840630878
 30
0.0
 10
10.4860100434
 20
9.0842042478
 30
0.0
 10
10.4855396282
 20
9.0843806885
 30
0.0
 10
10.4849751316
 20
9.0845924214
 30
0.0
 10
10.4844106346
 20
9.0848041532
 30
0.0
 10
10.4836579721
 20
9.0850864626
 30
0.0
 10
10.4827171439
 20
9.0854393493
 30
0.0
 10
10.4815881501
 20
9.0858628133
 30
0.0
 10
10.480082825
 20
9.086427432
 30
0.0
 10
10.4782011686
 20
9.0871332054
 30
0.0
 10
10.475943181
 20
9.0879801335
 30
0.0
 10
10.4736851934
 20
9.0888270616
 30
0.0
 10
10.4714272057
 20
9.0896739896
 30
0.0
 10
10.4691692181
 20
9.0905209177
 30
0.0
 10
10.4669112305
 20
9.0913678458
 30
0.0
 10
10.4646532428
 20
9.0922147739
 30
0.0
 10
10.4623952552
 20
9.0930617019
 30
0.0
 10
10.4601372676
 20
9.09390863
 30
0.0
 10
10.4582556112
 20
9.0946144034
 30
0.0
 10
10.4567502861
 20
9.0951790221
 30
0.0
 10
10.4556212923
 20
9.0956024861
 30
0.0
 10
10.4546804641
 20
9.0959553729
 30
0.0
 10
10.4539278016
 20
9.0962376822
 30
0.0
 10
10.4533633047
 20
9.0964494144
 30
0.0
 10
10.4527988075
 20
9.0966611455
 30
0.0
 10
10.4523283943
 20
9.0968375917
 30
0.0
 10
10.4519520613
 20
9.0969787406
 30
0.0
 10
10.4517168586
 20
9.0970669769
 30
0.0
 10
10.451528684
 20
9.0971375243
 30
0.0
 10
10.4513875873
 20
9.0971905486
 30
0.0
 10
10.4512698977
 20
9.0972343739
 30
0.0
 10
10.4511877288
 20
9.0972657612
 30
0.0
 10
10.4511404413
 20
9.0972825889
 30
0.0
 10
10.4511059162
 20
9.0972983305
 30
0.0
 10
10.4510677962
 20
9.0973021428
 30
0.0
 10
10.4510182234
 20
9.0973113869
 30
0.0
 10
10.4509308869
 20
9.0973256254
 30
0.0
 10
10.4508064259
 20
9.0973469797
 30
0.0
 10
10.4506569419
 20
9.0973721711
 30
0.0
 10
10.4504576757
 20
9.097405911
 30
0.0
 10
10.4502085772
 20
9.0974480341
 30
0.0
 10
10.4498100284
 20
9.09751546
 30
0.0
 10
10.4493118393
 20
9.0975997324
 30
0.0
 10
10.4487140138
 20
9.0977008636
 30
0.0
 10
10.4481161879
 20
9.0978019937
 30
0.0
 10
10.4473190868
 20
9.0979368341
 30
0.0
 10
10.4463227104
 20
9.0981053846
 30
0.0
 10
10.4451270587
 20
9.0983076452
 30
0.0
 10
10.4435328565
 20
9.0985773259
 30
0.0
 10
10.4415401037
 20
9.0989144269
 30
0.0
 10
10.4391488004
 20
9.099318948
 30
0.0
 10
10.4367574971
 20
9.0997234692
 30
0.0
 10
10.4343661937
 20
9.1001279903
 30
0.0
 10
10.4311777893
 20
9.1006673519
 30
0.0
 10
10.4271922838
 20
9.1013415538
 30
0.0
 10
10.4224096771
 20
9.1021505961
 30
0.0
 10
10.4176270704
 20
9.1029596384
 30
0.0
 10
10.414438666
 20
9.1034989999
 30
0.0
 10
10.4128444638
 20
9.1037686806
 30
0.0
  0
SPLINE
  5
38B
100
AcDbEntity
  8
0
100
AcDbSpline
 62
4
  6
CONTINUOUS
 70
0
 71
3
 72
615
 73
611
 74
0
 42
0.0000001
 43
0.0000001
 44
0.0000000001
 40
0.0
 40
0.0
 40
0.0
 40
0.0
 40
0.0078125
 40
0.015625
 40
0.0234375
 40
0.03125
 40
0.03515625
 40
0.0390625
 40
0.04296875
 40
0.046875
 40
0.05078125
 40
0.052734375
 40
0.0546875
 40
0.056640625
 40
0.0576171875
 40
0.05859375
 40
0.0595703125
 40
0.060546875
 40
0.0610351562
 40
0.0615234375
 40
0.0617675781
 40
0.0620117188
 40
0.0622558594
 40
0.0623779297
 40
0.0624389648
 40
0.0625
 40
0.0625610352
 40
0.0626220703
 40
0.0627441406
 40
0.0629882812
 40
0.0632324219
 40
0.0634765625
 40
0.0639648438
 40
0.064453125
 40
0.0654296875
 40
0.06640625
 40
0.0673828125
 40
0.068359375
 40
0.0703125
 40
0.072265625
 40
0.07421875
 40
0.078125
 40
0.08203125
 40
0.0859375
 40
0.08984375
 40
0.09375
 40
0.09765625
 40
0.1015625
 40
0.10546875
 40
0.109375
 40
0.11328125
 40
0.115234375
 40
0.1171875
 40
0.119140625
 40
0.1201171875
 40
0.12109375
 40
0.1220703125
 40
0.123046875
 40
0.1235351562
 40
0.1240234375
 40
0.1242675781
 40
0.1245117188
 40
0.1247558594
 40
0.1248779297
 40
0.1249389648
 40
0.125
 40
0.1250610352
 40
0.1251220703
 40
0.1252441406
 40
0.1254882812
 40
0.1257324219
 40
0.1259765625
 40
0.1264648438
 40
0.126953125
 40
0.1279296875
 40
0.12890625
 40
0.1298828125
 40
0.130859375
 40
0.1328125
 40
0.134765625
 40
0.13671875
 40
0.140625
 40
0.14453125
 40
0.1484375
 40
0.15234375
 40
0.15625
 40
0.16015625
 40
0.1640625
 40
0.16796875
 40
0.171875
 40
0.17578125
 40
0.177734375
 40
0.1796875
 40
0.181640625
 40
0.1826171875
 40
0.18359375
 40
0.1845703125
 40
0.185546875
 40
0.1860351562
 40
0.1865234375
 40
0.1867675781
 40
0.1870117188
 40
0.1872558594
 40
0.1873779297
 40
0.1874389648
 40
0.1875
 40
0.1875610352
 40
0.1876220703
 40
0.1877441406
 40
0.1879882812
 40
0.1882324219
 40
0.1884765625
 40
0.1889648438
 40
0.189453125
 40
0.1904296875
 40
0.19140625
 40
0.1923828125
 40
0.193359375
 40
0.1953125
 40
0.197265625
 40
0.19921875
 40
0.203125
 40
0.20703125
 40
0.2109375
 40
0.21484375
 40
0.21875
 40
0.22265625
 40
0.2265625
 40
0.23046875
 40
0.234375
 40
0.23828125
 40
0.240234375
 40
0.2421875
 40
0.244140625
 40
0.2451171875
 40
0.24609375
 40
0.2470703125
 40
0.248046875
 40
0.2485351562
 40
0.2490234375
 40
0.2492675781
 40
0.2495117188
 40
0.2497558594
 40
0.2498779297
 40
0.2499389648
 40
0.25
 40
0.2500610352
 40
0.2501220703
 40
0.2502441406
 40
0.2504882812
 40
0.2507324219
 40
0.2509765625
 40
0.2514648438
 40
0.251953125
 40
0.2529296875
 40
0.25390625
 40
0.2548828125
 40
0.255859375
 40
0.2578125
 40
0.259765625
 40
0.26171875
 40
0.265625
 40
0.26953125
 40
0.2734375
 40
0.27734375
 40
0.28125
 40
0.28515625
 40
0.2890625
 40
0.29296875
 40
0.296875
 40
0.30078125
 40
0.302734375
 40
0.3046875
 40
0.306640625
 40
0.3076171875
 40
0.30859375
 40
0.3095703125
 40
0.310546875
 40
0.3110351562
 40
0.3115234375
 40
0.3117675781
 40
0.3120117188
 40
0.3122558594
 40
0.3123779297
 40
0.3124389648
 40
0.3125
 40
0.3125610352
 40
0.3126220703
 40
0.3127441406
 40
0.3129882812
 40
0.3132324219
 40
0.3134765625
 40
0.3139648438
 40
0.314453125
 40
0.3154296875
 40
0.31640625
 40
0.3173828125
 40
0.318359375
 40
0.3203125
 40
0.322265625
 40
0.32421875
 40
0.328125
 40
0.33203125
 40
0.3359375
 40
0.33984375
 40
0.34375
 40
0.34765625
 40
0.3515625
 40
0.35546875
 40
0.359375
 40
0.36328125
 40
0.365234375
 40
0.3671875
 40
0.369140625
 40
0.3701171875
 40
0.37109375
 40
0.3720703125
 40
0.373046875
 40
0.3735351562
 40
0.3740234375
 40
0.3742675781
 40
0.3745117188
 40
0.3747558594
 40
0.3748779297
 40
0.3749389648
 40
0.375
 40
0.3750610352
 40
0.3751220703
 40
0.3752441406
 40
0.3754882812
 40
0.3757324219
 40
0.3759765625
 40
0.3764648438
 40
0.376953125
 40
0.3779296875
 40
0.37890625
 40
0.3798828125
 40
0.380859375
 40
0.3828125
 40
0.384765625
 40
0.38671875
 40
0.390625
 40
0.39453125
 40
0.3984375
 40
0.40234375
 40
0.40625
 40
0.41015625
 40
0.4140625
 40
0.41796875
 40
0.421875
 40
0.42578125
 40
0.427734375
 40
0.4296875
 40
0.431640625
 40
0.4326171875
 40
0.43359375
 40
0.4345703125
 40
0.435546875
 40
0.4360351562
 40
0.4365234375
 40
0.4367675781
 40
0.4370117188
 40
0.4372558594
 40
0.4373779297
 40
0.4374389648
 40
0.4375
 40
0.4375610352
 40
0.4376220703
 40
0.4377441406
 40
0.4379882812
 40
0.4382324219
 40
0.4384765625
 40
0.4389648438
 40
0.439453125
 40
0.4404296875
 40
0.44140625
 40
0.4423828125
 40
0.443359375
 40
0.4453125
 40
0.447265625
 40
0.44921875
 40
0.453125
 40
0.45703125
 40
0.4609375
 40
0.46484375
 40
0.46875
 40
0.47265625
 40
0.4765625
 40
0.48046875
 40
0.484375
 40
0.48828125
 40
0.490234375
 40
0.4921875
 40
0.494140625
 40
0.4951171875
 40
0.49609375
 40
0.4970703125
 40
0.498046875
 40
0.4985351562
 40
0.4990234375
 40
0.4992675781
 40
0.4995117188
 40
0.4997558594
 40
0.4998779297
 40
0.4999389648
 40
0.5
 40
0.5000610352
 40
0.5001220703
 40
0.5002441406
 40
0.5004882812
 40
0.5007324219
 40
0.5009765625
 40
0.5014648438
 40
0.501953125
 40
0.5029296875
 40
0.50390625
 40
0.5048828125
 40
0.505859375
 40
0.5078125
 40
0.509765625
 40
0.51171875
 40
0.515625
 40
0.51953125
 40
0.5234375
 40
0.52734375
 40
0.53125
 40
0.53515625
 40
0.5390625
 40
0.54296875
 40
0.546875
 40
0.55078125
 40
0.552734375
 40
0.5546875
 40
0.556640625
 40
0.5576171875
 40
0.55859375
 40
0.5595703125
 40
0.560546875
 40
0.5610351562
 40
0.5615234375
 40
0.5617675781
 40
0.5620117188
 40
0.5622558594
 40
0.5623779297
 40
0.5624389648
 40
0.5625
 40
0.5625610352
 40
0.5626220703
 40
0.5627441406
 40
0.5629882812
 40
0.5632324219
 40
0.5634765625
 40
0.5639648438
 40
0.564453125
 40
0.5654296875
 40
0.56640625
 40
0.5673828125
 40
0.568359375
 40
0.5703125
 40
0.572265625
 40
0.57421875
 40
0.578125
 40
0.58203125
 40
0.5859375
 40
0.58984375
 40
0.59375
 40
0.59765625
 40
0.6015625
 40
0.60546875
 40
0.609375
 40
0.61328125
 40
0.615234375
 40
0.6171875
 40
0.619140625
 40
0.6201171875
 40
0.62109375
 40
0.6220703125
 40
0.623046875
 40
0.6235351562
 40
0.6240234375
 40
0.6242675781
 40
0.6245117188
 40
0.6247558594
 40
0.6248779297
 40
0.6249389648
 40
0.625
 40
0.6250610352
 40
0.6251220703
 40
0.6252441406
 40
0.6254882812
 40
0.6257324219
 40
0.6259765625
 40
0.6264648438
 40
0.626953125
 40
0.6279296875
 40
0.62890625
 40
0.6298828125
 40
0.630859375
 40
0.6328125
 40
0.634765625
 40
0.63671875
 40
0.640625
 40
0.64453125
 40
0.6484375
 40
0.65234375
 40
0.65625
 40
0.66015625
 40
0.6640625
 40
0.66796875
 40
0.671875
 40
0.67578125
 40
0.677734375
 40
0.6796875
 40
0.681640625
 40
0.6826171875
 40
0.68359375
 40
0.6845703125
 40
0.685546875
 40
0.6860351562
 40
0.6865234375
 40
0.6867675781
 40
0.6870117188
 40
0.6872558594
 40
0.6873779297
 40
0.6874389648
 40
0.6875
 40
0.6875610352
 40
0.6876220703
 40
0.6877441406
 40
0.6879882812
 40
0.6882324219
 40
0.6884765625
 40
0.6889648438
 40
0.689453125
 40
0.6904296875
 40
0.69140625
 40
0.6923828125
 40
0.693359375
 40
0.6953125
 40
0.697265625
 40
0.69921875
 40
0.703125
 40
0.70703125
 40
0.7109375
 40
0.71484375
 40
0.71875
 40
0.72265625
 40
0.7265625
 40
0.73046875
 40
0.734375
 40
0.73828125
 40
0.740234375
 40
0.7421875
 40
0.744140625
 40
0.7451171875
 40
0.74609375
 40
0.7470703125
 40
0.748046875
 40
0.7485351562
 40
0.7490234375
 40
0.7492675781
 40
0.7495117188
 40
0.7497558594
 40
0.7498779297
 40
0.7499389648
 40
0.75
 40
0.7500610352
 40
0.7501220703
 40
0.7502441406
 40
0.7504882812
 40
0.7507324219
 40
0.7509765625
 40
0.7514648438
 40
0.751953125
 40
0.7529296875
 40
0.75390625
 40
0.7548828125
 40
0.755859375
 40
0.7578125
 40
0.759765625
 40
0.76171875
 40
0.765625
 40
0.76953125
 40
0.7734375
 40
0.77734375
 40
0.78125
 40
0.78515625
 40
0.7890625
 40
0.79296875
 40
0.796875
 40
0.80078125
 40
0.802734375
 40
0.8046875
 40
0.806640625
 40
0.8076171875
 40
0.80859375
 40
0.8095703125
 40
0.810546875
 40
0.8110351562
 40
0.8115234375
 40
0.8117675781
 40
0.8120117188
 40
0.8122558594
 40
0.8123779297
 40
0.8124389648
 40
0.8125
 40
0.8125610352
 40
0.8126220703
 40
0.8127441406
 40
0.8129882812
 40
0.8132324219
 40
0.8134765625
 40
0.8139648438
 40
0.814453125
 40
0.8154296875
 40
0.81640625
 40
0.8173828125
 40
0.818359375
 40
0.8203125
 40
0.822265625
 40
0.82421875
 40
0.828125
 40
0.83203125
 40
0.8359375
 40
0.83984375
 40
0.84375
 40
0.84765625
 40
0.8515625
 40
0.85546875
 40
0.859375
 40
0.86328125
 40
0.865234375
 40
0.8671875
 40
0.869140625
 40
0.8701171875
 40
0.87109375
 40
0.8720703125
 40
0.873046875
 40
0.8735351562
 40
0.8740234375
 40
0.8742675781
 40
0.8745117188
 40
0.8747558594
 40
0.8748779297
 40
0.8749389648
 40
0.875
 40
0.8750610352
 40
0.8751220703
 40
0.8752441406
 40
0.8754882812
 40
0.8757324219
 40
0.8759765625
 40
0.8764648438
 40
0.876953125
 40
0.8779296875
 40
0.87890625
 40
0.8798828125
 40
0.880859375
 40
0.8828125
 40
0.884765625
 40
0.88671875
 40
0.890625
 40
0.89453125
 40
0.8984375
 40
0.90234375
 40
0.90625
 40
0.91015625
 40
0.9140625
 40
0.91796875
 40
0.921875
 40
0.92578125
 40
0.927734375
 40
0.9296875
 40
0.931640625
 40
0.9326171875
 40
0.93359375
 40
0.9345703125
 40
0.935546875
 40
0.9360351562
 40
0.9365234375
 40
0.9367675781
 40
0.9370117188
 40
0.9372558594
 40
0.9373779297
 40
0.9374389648
 40
0.9375
 40
0.9375610352
 40
0.9376220703
 40
0.9377441406
 40
0.9379882812
 40
0.9382324219
 40
0.9384765625
 40
0.9389648438
 40
0.939453125
 40
0.9404296875
 40
0.94140625
 40
0.9423828125
 40
0.943359375
 40
0.9453125
 40
0.947265625
 40
0.94921875
 40
0.953125
 40
0.95703125
 40
0.9609375
 40
0.96484375
 40
0.96875
 40
0.9765625
 40
0.984375
 40
0.9921875
 40
1.0
 40
1.0
 40
1.0
 40
1.0
 10
10.4128444807
 20
9.1037686795
 30
0.0
 10
10.4112778873
 20
9.1037237173
 30
0.0
 10
10.4081447003
 20
9.1036337929
 30
0.0
 10
10.40344492
 20
9.1034989062
 30
0.0
 10
10.3987451396
 20
9.1033640196
 30
0.0
 10
10.3948286559
 20
9.1032516141
 30
0.0
 10
10.391695469
 20
9.1031616897
 30
0.0
 10
10.3893455788
 20
9.1030942464
 30
0.0
 10
10.3869956886
 20
9.1030268031
 30
0.0
 10
10.3846457985
 20
9.1029593598
 30
0.0
 10
10.3826875566
 20
9.102903157
 30
0.0
 10
10.3811209632
 20
9.1028581948
 30
0.0
 10
10.3799460181
 20
9.1028244731
 30
0.0
 10
10.3789668972
 20
9.1027963718
 30
0.0
 10
10.3781836004
 20
9.1027738906
 30
0.0
 10
10.3775961278
 20
9.10275703
 30
0.0
 10
10.3770086555
 20
9.1027401683
 30
0.0
 10
10.3765190945
 20
9.1027261205
 30
0.0
 10
10.3761274473
 20
9.102714874
 30
0.0
 10
10.3758826641
 20
9.1027078637
 30
0.0
 10
10.3756868459
 20
9.1027022125
 30
0.0
 10
10.3755399593
 20
9.1026980918
 30
0.0
 10
10.375417627
 20
9.1026942834
 30
0.0
 10
10.3753318508
 20
9.1026923525
 30
0.0
 10
10.37528306
 20
9.1026901016
 30
0.0
 10
10.3752458354
 20
9.1026916459
 30
0.0
 10
10.3752110244
 20
9.1026808338
 30
0.0
 10
10.3751637679
 20
9.1026707278
 30
0.0
 10
10.3750814612
 20
9.102651034
 30
0.0
 10
10.3749636751
 20
9.1026239499
 30
0.0
 10
10.3748224196
 20
9.1025909997
 30
0.0
 10
10.3746340483
 20
9.1025472229
 30
0.0
 10
10.3743985946
 20
9.1024924483
 30
0.0
 10
10.3740218628
 20
9.1024048389
 30
0.0
 10
10.3735509501
 20
9.1022953169
 30
0.0
 10
10.3729858541
 20
9.1021638948
 30
0.0
 10
10.3724207582
 20
9.1020324716
 30
0.0
 10
10.371667297
 20
9.101857241
 30
0.0
 10
10.3707254705
 20
9.1016382027
 30
0.0
 10
10.3695952787
 20
9.1013753568
 30
0.0
 10
10.3680883563
 20
9.1010248955
 30
0.0
 10
10.3662047033
 20
9.1005868189
 30
0.0
 10
10.3639443197
 20
9.100061127
 30
0.0
 10
10.3616839361
 20
9.0995354351
 30
0.0
 10
10.3594235525
 20
9.0990097432
 30
0.0
 10
10.3571631689
 20
9.0984840512
 30
0.0
 10
10.3549027853
 20
9.0979583593
 30
0.0
 10
10.3526424017
 20
9.0974326674
 30
0.0
 10
10.3503820181
 20
9.0969069755
 30
0.0
 10
10.3481216345
 20
9.0963812836
 30
0.0
 10
10.3462379815
 20
9.095943207
 30
0.0
 10
10.3447310591
 20
9.0955927457
 30
0.0
 10
10.3436008673
 20
9.0953298998
 30
0.0
 10
10.3426590408
 20
9.0951108615
 30
0.0
 10
10.3419055796
 20
9.0949356308
 30
0.0
 10
10.3413404836
 20
9.0948042081
 30
0.0
 10
10.3407753881
 20
9.0946727842
 30
0.0
 10
10.3403044737
 20
9.0945632678
 30
0.0
 10
10.3399277454
 20
9.0944756468
 30
0.0
 10
10.339692283
 20
9.0944209017
 30
0.0
 10
10.3395039295
 20
9.0943770644
 30
0.0
 10
10.3393626193
 20
9.0943442991
 30
0.0
 10
10.3392450043
 20
9.0943166365
 30
0.0
 10
10.3391623922
 20
9.0942979755
 30
0.0
 10
10.339115625
 20
9.0942862147
 30
0.0
 10
10.3390793109
 20
9.0942804854
 30
0.0
 10
10.3390477318
 20
9.0942629395
 30
0.0
 10
10.3390039748
 20
9.0942436668
 30
0.0
 10
10.3389281695
 20
9.0942080192
 30
0.0
 10
10.3388194739
 20
9.094158098
 30
0.0
 10
10.3386892114
 20
9.0940977628
 30
0.0
 10
10.3385154679
 20
9.0940174659
 30
0.0
 10
10.3382983091
 20
9.0939170435
 30
0.0
 10
10.3379508436
 20
9.0937563963
 30
0.0
 10
10.3375165156
 20
9.0935555775
 30
0.0
 10
10.3369953203
 20
9.0933145991
 30
0.0
 10
10.3364741255
 20
9.0930736196
 30
0.0
 10
10.3357791989
 20
9.092752314
 30
0.0
 10
10.3349105407
 20
9.0923506818
 30
0.0
 10
10.3338681508
 20
9.0918687233
 30
0.0
 10
10.3324782977
 20
9.0912261119
 30
0.0
 10
10.3307409813
 20
9.0904228477
 30
0.0
 10
10.3286562015
 20
9.0894589306
 30
0.0
 10
10.3265714218
 20
9.0884950136
 30
0.0
 10
10.3244866421
 20
9.0875310965
 30
0.0
 10
10.3224018624
 20
9.0865671794
 30
0.0
 10
10.3203170827
 20
9.0856032624
 30
0.0
 10
10.318232303
 20
9.0846393453
 30
0.0
 10
10.3161475233
 20
9.0836754282
 30
0.0
 10
10.3140627436
 20
9.0827115111
 30
0.0
 10
10.3123254272
 20
9.0819082469
 30
0.0
 10
10.3109355741
 20
9.0812656355
 30
0.0
 10
10.3098931842
 20
9.080783677
 30
0.0
 10
10.309024526
 20
9.0803820449
 30
0.0
 10
10.3083295994
 20
9.0800607392
 30
0.0
 10
10.3078084044
 20
9.0798197601
 30
0.0
 10
10.3072872099
 20
9.07957878
 30
0.0
 10
10.3068528794
 20
9.0793779666
 30
0.0
 10
10.306505419
 20
9.0792173083
 30
0.0
 10
10.3062882471
 20
9.0791169143
 30
0.0
 10
10.3061145306
 20
9.0790365589
 30
0.0
 10
10.3059841855
 20
9.0789764027
 30
0.0
 10
10.3058757485
 20
9.0789259216
 30
0.0
 10
10.3057994815
 20
9.0788912733
 30
0.0
 10
10.3057564641
 20
9.0788703994
 30
0.0
 10
10.3057226132
 20
9.0788577719
 30
0.0
 10
10.3056948319
 20
9.0788335701
 30
0.0
 10
10.3056556731
 20
9.0788053382
 30
0.0
 10
10.3055881315
 20
9.0787540513
 30
0.0
 10
10.3054911279
 20
9.0786817678
 30
0.0
 10
10.3053749443
 20
9.0785946066
 30
0.0
 10
10.3052199557
 20
9.0784785388
 30
0.0
 10
10.3050262463
 20
9.0783334036
 30
0.0
 10
10.3047162966
 20
9.0781012155
 30
0.0
 10
10.3043288645
 20
9.0778109708
 30
0.0
 10
10.3038639438
 20
9.0774626812
 30
0.0
 10
10.3033990237
 20
9.0771143905
 30
0.0
 10
10.30277913
 20
9.0766500033
 30
0.0
 10
10.302004263
 20
9.0760695191
 30
0.0
 10
10.3010744225
 20
9.0753729382
 30
0.0
 10
10.2998346352
 20
9.0744441636
 30
0.0
 10
10.2982849011
 20
9.0732831954
 30
0.0
 10
10.2964252202
 20
9.0718900335
 30
0.0
 10
10.2945655393
 20
9.0704968716
 30
0.0
 10
10.2927058584
 20
9.0691037097
 30
0.0
 10
10.2908461775
 20
9.0677105478
 30
0.0
 10
10.2889864966
 20
9.066317386
 30
0.0
 10
10.2871268157
 20
9.0649242241
 30
0.0
 10
10.2852671348
 20
9.0635310622
 30
0.0
 10
10.2834074539
 20
9.0621379003
 30
0.0
 10
10.2818577198
 20
9.0609769321
 30
0.0
 10
10.2806179325
 20
9.0600481575
 30
0.0
 10
10.279688092
 20
9.0593515765
 30
0.0
 10
10.278913225
 20
9.0587710925
 30
0.0
 10
10.2782933314
 20
9.0583067051
 30
0.0
 10
10.277828411
 20
9.0579584148
 30
0.0
 10
10.2773634915
 20
9.0576101237
 30
0.0
 10
10.2769760557
 20
9.0573198837
 30
0.0
 10
10.2766661135
 20
9.0570876858
 30
0.0
 10
10.2764723849
 20
9.0569425756
 30
0.0
 10
10.2763174358
 20
9.0568264566
 30
0.0
 10
10.2762011313
 20
9.0567394515
 30
0.0
 10
10.2761045059
 20
9.0566666797
 30
0.0
 10
10.2760362892
 20
9.0566162646
 30
0.0
 10
10.2759982121
 20
9.056586636
 30
0.0
 10
10.2759671079
 20
9.0565667244
 30
0.0
 10
10.2759457374
 20
9.0565379833
 30
0.0
 10
10.2759138482
 20
9.0565027416
 30
0.0
 10
10.275859624
 20
9.0564396337
 30
0.0
 10
10.2757813337
 20
9.0563502298
 30
0.0
 10
10.2756877395
 20
9.0562426241
 30
0.0
 10
10.2755628235
 20
9.0560992619
 30
0.0
 10
10.2754067208
 20
9.0559200207
 30
0.0
 10
10.2751569328
 20
9.0556332563
 30
0.0
 10
10.274844706
 20
9.0552747935
 30
0.0
 10
10.2744700303
 20
9.0548446412
 30
0.0
 10
10.2740953556
 20
9.0544144881
 30
0.0
 10
10.273595789
 20
9.053840951
 30
0.0
 10
10.2729713308
 20
9.0531240294
 30
0.0
 10
10.272221981
 20
9.0522637235
 30
0.0
 10
10.2712228478
 20
9.0511166491
 30
0.0
 10
10.2699739314
 20
9.049682806
 30
0.0
 10
10.2684752317
 20
9.0479621943
 30
0.0
 10
10.266976532
 20
9.0462415826
 30
0.0
 10
10.2654778323
 20
9.0445209709
 30
0.0
 10
10.2639791326
 20
9.0428003592
 30
0.0
 10
10.2624804329
 20
9.0410797475
 30
0.0
 10
10.2609817332
 20
9.0393591358
 30
0.0
 10
10.2594830335
 20
9.0376385241
 30
0.0
 10
10.2579843338
 20
9.0359179124
 30
0.0
 10
10.2567354174
 20
9.0344840693
 30
0.0
 10
10.2557362843
 20
9.0333369949
 30
0.0
 10
10.2549869344
 20
9.032476689
 30
0.0
 10
10.2543624762
 20
9.0317597675
 30
0.0
 10
10.2538629097
 20
9.0311862302
 30
0.0
 10
10.2534882345
 20
9.0307560774
 30
0.0
 10
10.2531135604
 20
9.0303259239
 30
0.0
 10
10.2528013289
 20
9.029967465
 30
0.0
 10
10.2525515505
 20
9.0296806927
 30
0.0
 10
10.2523954234
 20
9.0295014716
 30
0.0
 10
10.2522705576
 20
9.0293580682
 30
0.0
 10
10.2521768099
 20
9.0292505883
 30
0.0
 10
10.2520989997
 20
9.0291607906
 30
0.0
 10
10.2520439185
 20
9.0290983858
 30
0.0
 10
10.2520134024
 20
9.0290620176
 30
0.0
 10
10.2519878141
 20
9.029036737
 30
0.0
 10
10.2519725514
 20
9.029003828
 30
0.0
 10
10.2519485994
 20
9.0289626102
 30
0.0
 10
10.2519083615
 20
9.0288892394
 30
0.0
 10
10.2518500015
 20
9.028785072
 30
0.0
 10
10.251780345
 20
9.0286597937
 30
0.0
 10
10.2516873385
 20
9.0284928529
 30
0.0
 10
10.2515711253
 20
9.0282841437
 30
0.0
 10
10.2513851591
 20
9.0279502276
 30
0.0
 10
10.25115271
 20
9.027532826
 30
0.0
 10
10.2508737673
 20
9.0270319469
 30
0.0
 10
10.2505948257
 20
9.026531067
 30
0.0
 10
10.2502229031
 20
9.0258632274
 30
0.0
 10
10.249758
 20
9.0250284278
 30
0.0
 10
10.2492001162
 20
9.0240266684
 30
0.0
 10
10.2484562712
 20
9.0226909891
 30
0.0
 10
10.2475264649
 20
9.0210213901
 30
0.0
 10
10.2464106974
 20
9.0190178712
 30
0.0
 10
10.2452949299
 20
9.0170143523
 30
0.0
 10
10.2441791624
 20
9.0150108334
 30
0.0
 10
10.2430633949
 20
9.0130073145
 30
0.0
 10
10.2419476273
 20
9.0110037956
 30
0.0
 10
10.2408318598
 20
9.0090002768
 30
0.0
 10
10.2397160923
 20
9.0069967579
 30
0.0
 10
10.2386003248
 20
9.004993239
 30
0.0
 10
10.2376705185
 20
9.0033236399
 30
0.0
 10
10.2369266735
 20
9.0019879606
 30
0.0
 10
10.2363687898
 20
9.0009862012
 30
0.0
 10
10.2359038866
 20
9.0001514017
 30
0.0
 10
10.2355319642
 20
8.999483562
 30
0.0
 10
10.2352530221
 20
8.9989826824
 30
0.0
 10
10.234974081
 20
8.9984818023
 30
0.0
 10
10.2347416268
 20
8.9980644038
 30
0.0
 10
10.234555671
 20
8.9977304813
 30
0.0
 10
10.2344394313
 20
8.9975217882
 30
0.0
 10
10.2343464793
 20
8.9973548144
 30
0.0
 10
10.2342766561
 20
8.9972296371
 30
0.0
 10
10.2342188178
 20
8.9971251538
 30
0.0
 10
10.2341776487
 20
8.9970523468
 30
0.0
 10
10.2341551888
 20
8.9970102255
 30
0.0
 10
10.2341353428
 20
8.9969800919
 30
0.0
 10
10.2341269684
 20
8.9969443875
 30
0.0
 10
10.2341118011
 20
8.9968987249
 30
0.0
 10
10.2340871227
 20
8.9968179098
 30
0.0
 10
10.2340508932
 20
8.9967029331
 30
0.0
 10
10.2340078349
 20
8.9965647585
 30
0.0
 10
10.2339502782
 20
8.9963805964
 30
0.0
 10
10.2338783822
 20
8.9961503695
 30
0.0
 10
10.2337633207
 20
8.99578202
 30
0.0
 10
10.2336195033
 20
8.9953215786
 30
0.0
 10
10.2334469184
 20
8.9947690509
 30
0.0
 10
10.2332743346
 20
8.9942165226
 30
0.0
 10
10.2330442225
 20
8.9934798184
 30
0.0
 10
10.2327565825
 20
8.9925589381
 30
0.0
 10
10.2324114145
 20
8.9914538818
 30
0.0
 10
10.2319511904
 20
8.9899804733
 30
0.0
 10
10.2313759103
 20
8.9881387128
 30
0.0
 10
10.2306855742
 20
8.9859286001
 30
0.0
 10
10.2299952381
 20
8.9837184874
 30
0.0
 10
10.229304902
 20
8.9815083748
 30
0.0
 10
10.2286145659
 20
8.9792982621
 30
0.0
 10
10.2279242298
 20
8.9770881495
 30
0.0
 10
10.2272338937
 20
8.9748780368
 30
0.0
 10
10.2265435576
 20
8.9726679241
 30
0.0
 10
10.2258532215
 20
8.9704578115
 30
0.0
 10
10.2252779415
 20
8.9686160509
 30
0.0
 10
10.2248177174
 20
8.9671426425
 30
0.0
 10
10.2244725494
 20
8.9660375861
 30
0.0
 10
10.2241849093
 20
8.9651167059
 30
0.0
 10
10.2239547973
 20
8.9643800016
 30
0.0
 10
10.2237822131
 20
8.9638274735
 30
0.0
 10
10.2236096299
 20
8.963274945
 30
0.0
 10
10.2234658071
 20
8.9628145059
 30
0.0
 10
10.2233507569
 20
8.9624461517
 30
0.0
 10
10.223278832
 20
8.9622159371
 30
0.0
 10
10.2232213345
 20
8.9620317499
 30
0.0
 10
10.2231780953
 20
8.9618936518
 30
0.0
 10
10.2231424318
 20
8.9617784355
 30
0.0
 10
10.223116743
 20
8.9616980482
 30
0.0
 10
10.2231031947
 20
8.9616517003
 30
0.0
 10
10.2230898474
 20
8.9616181007
 30
0.0
 10
10.2230886787
 20
8.9615800618
 30
0.0
 10
10.2230828725
 20
8.9615308917
 30
0.0
 10
10.2230746908
 20
8.9614441227
 30
0.0
 10
10.2230619679
 20
8.961320544
 30
0.0
 10
10.2230471433
 20
8.9611720882
 30
0.0
 10
10.2230272225
 20
8.9609742035
 30
0.0
 10
10.2230023745
 20
8.9607268284
 30
0.0
 10
10.222962588
 20
8.9603310389
 30
0.0
 10
10.2229128651
 20
8.9598362984
 30
0.0
 10
10.2228531933
 20
8.9592426114
 30
0.0
 10
10.2227935226
 20
8.9586489239
 30
0.0
 10
10.2227139613
 20
8.9578573408
 30
0.0
 10
10.2226145098
 20
8.9568678618
 30
0.0
 10
10.2224951679
 20
8.9556804871
 30
0.0
 10
10.2223360454
 20
8.9540973207
 30
0.0
 10
10.2221371424
 20
8.9521183628
 30
0.0
 10
10.2218984587
 20
8.9497436133
 30
0.0
 10
10.221659775
 20
8.9473688638
 30
0.0
 10
10.2214210913
 20
8.9449941143
 30
0.0
 10
10.2211824076
 20
8.9426193648
 30
0.0
 10
10.2209437239
 20
8.9402446153
 30
0.0
 10
10.2207050402
 20
8.9378698658
 30
0.0
 10
10.2204663565
 20
8.9354951163
 30
0.0
 10
10.2202276728
 20
8.9331203668
 30
0.0
 10
10.2200287697
 20
8.9311414089
 30
0.0
 10
10.2198696472
 20
8.9295582426
 30
0.0
 10
10.2197503054
 20
8.9283708678
 30
0.0
 10
10.2196508538
 20
8.9273813889
 30
0.0
 10
10.2195712927
 20
8.9265898057
 30
0.0
 10
10.2195116215
 20
8.9259961183
 30
0.0
 10
10.2194519515
 20
8.925402431
 30
0.0
 10
10.2194022228
 20
8.9249076914
 30
0.0
 10
10.2193624482
 20
8.9245119
 30
0.0
 10
10.2193375699
 20
8.9242645299
 30
0.0
 10
10.2193177113
 20
8.9240666347
 30
0.0
 10
10.2193026968
 20
8.9239182111
 30
0.0
 10
10.2192905681
 20
8.9237945319
 30
0.0
 10
10.2192813256
 20
8.9237079423
 30
0.0
 10
10.2192772189
 20
8.9236584847
 30
0.0
 10
10.2192708298
 20
8.9236213289
 30
0.0
 10
10.2192770896
 20
8.9235844126
 30
0.0
 10
10.2192810239
 20
8.9235351072
 30
0.0
 10
10.2192899647
 20
8.9234488618
 30
0.0
 10
10.2193016624
 20
8.9233256337
 30
0.0
 10
10.2193161597
 20
8.9231777688
 30
0.0
 10
10.2193353288
 20
8.9229806124
 30
0.0
 10
10.2193593451
 20
8.922734168
 30
0.0
 10
10.2193977405
 20
8.9223398564
 30
0.0
 10
10.2194457453
 20
8.921846967
 30
0.0
 10
10.2195033465
 20
8.9212554997
 30
0.0
 10
10.219560949
 20
8.9206640325
 30
0.0
 10
10.2196377518
 20
8.9198754094
 30
0.0
 10
10.2197337555
 20
8.9188896306
 30
0.0
 10
10.2198489598
 20
8.9177066961
 30
0.0
 10
10.2200025657
 20
8.91612945
 30
0.0
 10
10.220194573
 20
8.9141578925
 30
0.0
 10
10.2204249817
 20
8.9117920234
 30
0.0
 10
10.2206553905
 20
8.9094261543
 30
0.0
 10
10.2208857992
 20
8.9070602852
 30
0.0
 10
10.221116208
 20
8.9046944161
 30
0.0
 10
10.2213466167
 20
8.902328547
 30
0.0
 10
10.2215770255
 20
8.8999626779
 30
0.0
 10
10.2218074342
 20
8.8975968088
 30
0.0
 10
10.222037843
 20
8.8952309398
 30
0.0
 10
10.2222298502
 20
8.8932593822
 30
0.0
 10
10.2223834561
 20
8.8916821361
 30
0.0
 10
10.2224986605
 20
8.8904992016
 30
0.0
 10
10.2225946641
 20
8.8895134228
 30
0.0
 10
10.2226714671
 20
8.8887247998
 30
0.0
 10
10.222729069
 20
8.8881333325
 30
0.0
 10
10.2227866721
 20
8.8875418653
 30
0.0
 10
10.2228346711
 20
8.8870489755
 30
0.0
 10
10.2228730784
 20
8.8866546648
 30
0.0
 10
10.2228970644
 20
8.8864082182
 30
0.0
 10
10.2229162957
 20
8.8862110663
 30
0.0
 10
10.222930603
 20
8.8860631875
 30
0.0
 10
10.2229428951
 20
8.8859400027
 30
0.0
 10
10.2229507747
 20
8.8858536801
 30
0.0
 10
10.2229564093
 20
8.8858044985
 30
0.0
 10
10.2229574464
 20
8.885767202
 30
0.0
 10
10.2229706727
 20
8.8857314738
 30
0.0
 10
10.222984056
 20
8.8856832891
 30
0.0
 10
10.2230094578
 20
8.8855992208
 30
0.0
 10
10.2230447103
 20
8.8854789899
 30
0.0
 10
10.2230874567
 20
8.8853347699
 30
0.0
 10
10.223144297
 20
8.8851424567
 30
0.0
 10
10.2232154004
 20
8.884902072
 30
0.0
 10
10.2233291362
 20
8.8845174526
 30
0.0
 10
10.2234713162
 20
8.8840366797
 30
0.0
 10
10.2236419278
 20
8.8834597517
 30
0.0
 10
10.2238125406
 20
8.8828828238
 30
0.0
 10
10.2240400238
 20
8.8821135866
 30
0.0
 10
10.224324378
 20
8.88115204
 30
0.0
 10
10.2246656031
 20
8.8799981842
 30
0.0
 10
10.2251205698
 20
8.8784597098
 30
0.0
 10
10.2256892781
 20
8.8765366167
 30
0.0
 10
10.2263717282
 20
8.874228905
 30
0.0
 10
10.2270541782
 20
8.8719211934
 30
0.0
 10
10.2277366283
 20
8.8696134817
 30
0.0
 10
10.2284190783
 20
8.86730577
 30
0.0
 10
10.2291015283
 20
8.8649980583
 30
0.0
 10
10.2297839784
 20
8.8626903467
 30
0.0
 10
10.2304664284
 20
8.860382635
 30
0.0
 10
10.2311488785
 20
8.8580749233
 30
0.0
 10
10.2317175869
 20
8.8561518303
 30
0.0
 10
10.2321725535
 20
8.8546133558
 30
0.0
 10
10.2325137786
 20
8.8534595
 30
0.0
 10
10.2327981327
 20
8.8524979534
 30
0.0
 10
10.2330256162
 20
8.8517287162
 30
0.0
 10
10.2331962284
 20
8.8511517882
 30
0.0
 10
10.2333668418
 20
8.8505748606
 30
0.0
 10
10.2335090162
 20
8.8500940864
 30
0.0
 10
10.2336227634
 20
8.8497094697
 30
0.0
 10
10.2336938379
 20
8.8494690783
 30
0.0
 10
10.2337507375
 20
8.8492767788
 30
0.0
 10
10.2337933028
 20
8.8491325167
 30
0.0
 10
10.233829122
 20
8.8490124177
 30
0.0
 10
10.2338535122
 20
8.8489281141
 30
0.0
 10
10.2338685163
 20
8.8488803063
 30
0.0
 10
10.233876764
 20
8.8488434202
 30
0.0
 10
10.2338964998
 20
8.8488104725
 30
0.0
 10
10.2339188071
 20
8.8487651684
 30
0.0
 10
10.2339597119
 20
8.8486865264
 30
0.0
 10
10.2340171712
 20
8.848573846
 30
0.0
 10
10.2340865401
 20
8.8484387727
 30
0.0
 10
10.2341788861
 20
8.848258625
 30
0.0
 10
10.2342943685
 20
8.8480334575
 30
0.0
 10
10.2344791125
 20
8.8476731799
 30
0.0
 10
10.2347100521
 20
8.8472228362
 30
0.0
 10
10.2349871755
 20
8.8466824223
 30
0.0
 10
10.2352643
 20
8.8461420089
 30
0.0
 10
10.2356337989
 20
8.8454214574
 30
0.0
 10
10.2360956727
 20
8.8445207682
 30
0.0
 10
10.2366499212
 20
8.843439941
 30
0.0
 10
10.2373889193
 20
8.8419988382
 30
0.0
 10
10.2383126668
 20
8.8401974597
 30
0.0
 10
10.2394211638
 20
8.8380358055
 30
0.0
 10
10.2405296609
 20
8.8358741512
 30
0.0
 10
10.2416381579
 20
8.833712497
 30
0.0
 10
10.2427466549
 20
8.8315508427
 30
0.0
 10
10.243855152
 20
8.8293891885
 30
0.0
 10
10.244963649
 20
8.8272275343
 30
0.0
 10
10.246072146
 20
8.82506588
 30
0.0
 10
10.247180643
 20
8.8229042258
 30
0.0
 10
10.2481043906
 20
8.8211028473
 30
0.0
 10
10.2488433886
 20
8.8196617445
 30
0.0
 10
10.2493976371
 20
8.8185809173
 30
0.0
 10
10.2498595108
 20
8.8176802281
 30
0.0
 10
10.2502290099
 20
8.8169596767
 30
0.0
 10
10.250506134
 20
8.816419263
 30
0.0
 10
10.2507832591
 20
8.8158788499
 30
0.0
 10
10.2510141933
 20
8.815428504
 30
0.0
 10
10.2511989482
 20
8.8150682308
 30
0.0
 10
10.251314403
 20
8.814843052
 30
0.0
 10
10.2514068057
 20
8.8146629274
 30
0.0
 10
10.2514760014
 20
8.8145277835
 30
0.0
 10
10.2515340026
 20
8.8144153241
 30
0.0
 10
10.25157394
 20
8.8143362876
 30
0.0
 10
10.2515977972
 20
8.8142916156
 30
0.0
 10
10.2516127723
 20
8.8142567262
 30
0.0
 10
10.2516389008
 20
8.8142271329
 30
0.0
 10
10.2516698484
 20
8.8141858278
 30
0.0
 10
10.2517258192
 20
8.8141144047
 30
0.0
 10
10.25180483
 20
8.8140119216
 30
0.0
 10
10.2519000485
 20
8.8138891346
 30
0.0
 10
10.2520268648
 20
8.8137253512
 30
0.0
 10
10.2521854338
 20
8.8135206451
 30
0.0
 10
10.2524391169
 20
8.8131931024
 30
0.0
 10
10.2527562302
 20
8.8127836784
 30
0.0
 10
10.2531367622
 20
8.8122923677
 30
0.0
 10
10.2535172952
 20
8.8118010576
 30
0.0
 10
10.2540246722
 20
8.8111459772
 30
0.0
 10
10.2546588936
 20
8.8103271267
 30
0.0
 10
10.2554199591
 20
8.8093445062
 30
0.0
 10
10.2564347133
 20
8.8080343455
 30
0.0
 10
10.2577031559
 20
8.8063966446
 30
0.0
 10
10.2592252871
 20
8.8044314035
 30
0.0
 10
10.2607474183
 20
8.8024661625
 30
0.0
 10
10.2622695495
 20
8.8005009214
 30
0.0
 10
10.2637916807
 20
8.7985356803
 30
0.0
 10
10.2653138119
 20
8.7965704392
 30
0.0
 10
10.2668359431
 20
8.7946051982
 30
0.0
 10
10.2683580743
 20
8.7926399571
 30
0.0
 10
10.2698802054
 20
8.790674716
 30
0.0
 10
10.2711486481
 20
8.7890370152
 30
0.0
 10
10.2721634022
 20
8.7877268544
 30
0.0
 10
10.2729244678
 20
8.7867442339
 30
0.0
 10
10.2735586891
 20
8.7859253834
 30
0.0
 10
10.2740660663
 20
8.7852703031
 30
0.0
 10
10.2744465989
 20
8.7847789927
 30
0.0
 10
10.2748271323
 20
8.7842876831
 30
0.0
 10
10.275144241
 20
8.7838782557
 30
0.0
 10
10.2753979335
 20
8.78355072
 30
0.0
 10
10.2755564789
 20
8.7833459962
 30
0.0
 10
10.2756833436
 20
8.783182249
 30
0.0
 10
10.2757784144
 20
8.7830593513
 30
0.0
 10
10.2758578872
 20
8.7829572144
 30
0.0
 10
10.2759130332
 20
8.7828851733
 30
0.0
 10
10.2759453025
 20
8.7828448584
 30
0.0
 10
10.2759673711
 20
8.7828122237
 30
0.0
 10
10.2759975943
 20
8.7827887573
 30
0.0
 10
10.2760350475
 20
8.7827542707
 30
0.0
 10
10.2761019158
 20
8.7826954091
 30
0.0
 10
10.2761967491
 20
8.7826105421
 30
0.0
 10
10.2763108457
 20
8.7825090352
 30
0.0
 10
10.2764628708
 20
8.7823735763
 30
0.0
 10
10.2766529378
 20
8.7822042924
 30
0.0
 10
10.276957025
 20
8.7819334159
 30
0.0
 10
10.2773371408
 20
8.781594828
 30
0.0
 10
10.2777932769
 20
8.7811885192
 30
0.0
 10
10.2782494138
 20
8.7807822112
 30
0.0
 10
10.2788575961
 20
8.780240467
 30
0.0
 10
10.279617824
 20
8.7795632869
 30
0.0
 10
10.2805300974
 20
8.7787506706
 30
0.0
 10
10.281746462
 20
8.7776671823
 30
0.0
 10
10.2832669177
 20
8.7763128219
 30
0.0
 10
10.2850914646
 20
8.7746875895
 30
0.0
 10
10.2869160115
 20
8.773062357
 30
0.0
 10
10.2887405583
 20
8.7714371246
 30
0.0
 10
10.2905651052
 20
8.7698118921
 30
0.0
 10
10.2923896521
 20
8.7681866597
 30
0.0
 10
10.294214199
 20
8.7665614272
 30
0.0
 10
10.2960387458
 20
8.7649361948
 30
0.0
 10
10.2978632927
 20
8.7633109623
 30
0.0
 10
10.2993837484
 20
8.7619566019
 30
0.0
 10
10.300600113
 20
8.7608731136
 30
0.0
 10
10.3015123865
 20
8.7600604974
 30
0.0
 10
10.3022726143
 20
8.7593833172
 30
0.0
 10
10.3028807966
 20
8.7588415731
 30
0.0
 10
10.3033369332
 20
8.7584352648
 30
0.0
 10
10.3037930705
 20
8.7580289574
 30
0.0
 10
10.3041731828
 20
8.757690365
 30
0.0
 10
10.3044772772
 20
8.7574194977
 30
0.0
 10
10.3046673258
 20
8.7572501906
 30
0.0
 10
10.3048193886
 20
8.7571147792
 30
0.0
 10
10.3049333699
 20
8.7570131269
 30
0.0
 10
10.3050285639
 20
8.756928715
 30
0.0
 10
10.3050947885
 20
8.7568690411
 30
0.0
 10
10.3051332731
 20
8.7568358561
 30
0.0
 10
10.3051603281
 20
8.7568083915
 30
0.0
 10
10.3051942956
 20
8.7567907731
 30
0.0
 10
10.3052371745
 20
8.7567638474
 30
0.0
 10
10.3053133359
 20
8.7567183277
 30
0.0
 10
10.3054215505
 20
8.756652463
 30
0.0
 10
10.3055516595
 20
8.7565737834
 30
0.0
 10
10.3057250503
 20
8.7564687523
 30
0.0
 10
10.3059418189
 20
8.7563375061
 30
0.0
 10
10.3062886319
 20
8.7561274884
 30
0.0
 10
10.3067221538
 20
8.7558649744
 30
0.0
 10
10.3072423777
 20
8.7555499541
 30
0.0
 10
10.3077626023
 20
8.7552349347
 30
0.0
 10
10.3084562348
 20
8.7548149086
 30
0.0
 10
10.3093232755
 20
8.754289876
 30
0.0
 10
10.3103637243
 20
8.7536598368
 30
0.0
 10
10.3117509894
 20
8.7528197847
 30
0.0
 10
10.3134850707
 20
8.7517697195
 30
0.0
 10
10.3155659683
 20
8.7505096412
 30
0.0
 10
10.317646866
 20
8.7492495629
 30
0.0
 10
10.3197277636
 20
8.7479894847
 30
0.0
 10
10.3218086612
 20
8.7467294064
 30
0.0
 10
10.3238895589
 20
8.7454693282
 30
0.0
 10
10.3259704565
 20
8.7442092499
 30
0.0
 10
10.3280513541
 20
8.7429491716
 30
0.0
 10
10.3301322517
 20
8.7416890934
 30
0.0
 10
10.3318663331
 20
8.7406390282
 30
0.0
 10
10.3332535982
 20
8.739798976
 30
0.0
 10
10.334294047
 20
8.7391689369
 30
0.0
 10
10.3351610877
 20
8.7386439042
 30
0.0
 10
10.3358547202
 20
8.7382238782
 30
0.0
 10
10.3363749445
 20
8.7379088584
 30
0.0
 10
10.3368951693
 20
8.7375938397
 30
0.0
 10
10.3373286885
 20
8.7373313208
 30
0.0
 10
10.3376755071
 20
8.7371213131
 30
0.0
 10
10.3378922614
 20
8.7369900413
 30
0.0
 10
10.3380656815
 20
8.7368850627
 30
0.0
 10
10.3381957011
 20
8.7368062226
 30
0.0
 10
10.3383041955
 20
8.7367408601
 30
0.0
 10
10.3383798575
 20
8.7366944438
 30
0.0
 10
10.3384235364
 20
8.7366689548
 30
0.0
 10
10.3384550464
 20
8.7366469236
 30
0.0
 10
10.3384913315
 20
8.7366360328
 30
0.0
 10
10.338538046
 20
8.7366176259
 30
0.0
 10
10.3386205725
 20
8.7365872243
 30
0.0
 10
10.3387380618
 20
8.7365428468
 30
0.0
 10
10.3388792225
 20
8.736489999
 30
0.0
 10
10.3390673762
 20
8.7364193938
 30
0.0
 10
10.3393025891
 20
8.7363311857
 30
0.0
 10
10.339678918
 20
8.7361900257
 30
0.0
 10
10.3401493333
 20
8.736013585
 30
0.0
 10
10.3407138298
 20
8.7358018521
 30
0.0
 10
10.3412783268
 20
8.7355901203
 30
0.0
 10
10.3420309893
 20
8.7353078109
 30
0.0
 10
10.3429718175
 20
8.7349549242
 30
0.0
 10
10.3441008113
 20
8.7345314602
 30
0.0
 10
10.3456061364
 20
8.7339668415
 30
0.0
 10
10.3474877928
 20
8.7332610681
 30
0.0
 10
10.3497457804
 20
8.73241414
 30
0.0
 10
10.3520037681
 20
8.7315672119
 30
0.0
 10
10.3542617557
 20
8.7307202838
 30
0.0
 10
10.3565197433
 20
8.7298733558
 30
0.0
 10
10.358777731
 20
8.7290264277
 30
0.0
 10
10.3610357186
 20
8.7281794996
 30
0.0
 10
10.3632937062
 20
8.7273325716
 30
0.0
 10
10.3655516939
 20
8.7264856435
 30
0.0
 10
10.3674333502
 20
8.7257798701
 30
0.0
 10
10.3689386753
 20
8.7252152514
 30
0.0
 10
10.3700676691
 20
8.7247917873
 30
0.0
 10
10.3710084973
 20
8.7244389006
 30
0.0
 10
10.3717611599
 20
8.7241565913
 30
0.0
 10
10.3723256567
 20
8.7239448591
 30
0.0
 10
10.3728901539
 20
8.723733128
 30
0.0
 10
10.3733605671
 20
8.7235566818
 30
0.0
 10
10.3737369001
 20
8.7234155328
 30
0.0
 10
10.3739721028
 20
8.7233272966
 30
0.0
 10
10.3741602774
 20
8.7232567491
 30
0.0
 10
10.3743013742
 20
8.7232037249
 30
0.0
 10
10.3744190637
 20
8.7231598995
 30
0.0
 10
10.3745012326
 20
8.7231285123
 30
0.0
 10
10.3745485201
 20
8.7231116846
 30
0.0
 10
10.3745830453
 20
8.723095943
 30
0.0
 10
10.3746211653
 20
8.7230921307
 30
0.0
 10
10.374670738
 20
8.7230828865
 30
0.0
 10
10.3747580745
 20
8.723068648
 30
0.0
 10
10.3748825355
 20
8.7230472937
 30
0.0
 10
10.3750320195
 20
8.7230221024
 30
0.0
 10
10.3752312858
 20
8.7229883624
 30
0.0
 10
10.3754803842
 20
8.7229462394
 30
0.0
 10
10.3758789331
 20
8.7228788135
 30
0.0
 10
10.3763771221
 20
8.722794541
 30
0.0
 10
10.3769749477
 20
8.7226934098
 30
0.0
 10
10.3775727736
 20
8.7225922798
 30
0.0
 10
10.3783698747
 20
8.7224574393
 30
0.0
 10
10.3793662511
 20
8.7222888889
 30
0.0
 10
10.3805619027
 20
8.7220866283
 30
0.0
 10
10.3821561049
 20
8.7218169476
 30
0.0
 10
10.3841488577
 20
8.7214798466
 30
0.0
 10
10.386540161
 20
8.7210753255
 30
0.0
 10
10.3889314644
 20
8.7206708043
 30
0.0
 10
10.3913227677
 20
8.7202662832
 30
0.0
 10
10.3945111721
 20
8.7197269216
 30
0.0
 10
10.3984966777
 20
8.7190527197
 30
0.0
 10
10.4032792843
 20
8.7182436774
 30
0.0
 10
10.408061891
 20
8.7174346351
 30
0.0
 10
10.4112502954
 20
8.7168952736
 30
0.0
 10
10.4128444976
 20
8.7166255928
 30
0.0
  0
ENDSEC
  0
SECTION
  2
OBJECTS
  0
DICTIONARY
  5
C
100
AcDbDictionary
280
0
281
1
  3
ACAD_GROUP
350
D
  3
ACAD_MLINESTYLE
350
17
  3
ACAD_LAYOUT
350
1A
  3
ACAD_PLOTSETTINGS
350
19
  3
ACAD_PLOTSTYLENAME
350
E
  3
ACAD_IMAGE_DICT
350
       38D
  3
ACAD_IMAGE_VARS
350
       38E
  3
ACAD_TABLESTYLE
350
       38F
  0
IMAGEDEF_REACTOR
  5
38C
100
AcDbRasterImageDefReactor
 90
2
330
293
  0
DICTIONARY
  5
D
102
{ACAD_REACTORS
330
C
102
}
100
AcDbDictionary
280
0
281
1
  0
ACDBDICTIONARYWDFLT
  5
E
102
{ACAD_REACTORS
330
C
102
}
100
AcDbDictionary
281
1
  3
Normal
350
F
100
AcDbDictionaryWithDefault
340
F
  0
DICTIONARY
  5
38D
330
C
100
AcDbDictionary
281
1
  3
E6J_assy_2_img_1
350
       392
  0
RASTERVARIABLES
  5
38E
330
C
100
AcDbRasterVariables
 90
0
 70
0
 71
1
 72
5
  0
DICTIONARY
  5
17
102
{ACAD_REACTORS
330
C
102
}
100
AcDbDictionary
280
0
281
1
  3
Standard
350
18
  0
DICTIONARY
  5
38F
330
C
100
AcDbDictionary
281
1
  3
Standard
350
       393
  3
Standard1
350
       394
  0
DICTIONARY
  5
19
102
{ACAD_REACTORS
330
C
102
}
100
AcDbDictionary
281
1
  0
DICTIONARY
  5
1A
102
{ACAD_REACTORS
330
C
102
}
100
AcDbDictionary
281
1
  3
Model
350
390
  3
Layout1
350
391
  0
ACDBPLACEHOLDER
  5
F
102
{ACAD_REACTORS
330
E
102
}
  0
MLINESTYLE
  5
18
102
{ACAD_REACTORS
330
17
102
}
100
AcDbMlineStyle
  2
STANDARD
 70
0
  3

 62
256
 51
90.0
 52
90.0
 71
2
 49
0.5
 62
256
  6
BYLAYER
 49
-0.5
 62
256
  6
BYLAYER
  0
LAYOUT
  5
390
102
{ACAD_REACTORS
330
1A
102
}
100
AcDbPlotSettings
  1

  2
none_device
  4
ANSI_C_(22.00_x_17.00_Inches)
  6

 40
0.0
 41
0.0
 42
0.0
 43
0.0
 44
558.8
 45
431.8
 46
0.0
 47
0.0
 48
0.0
 49
0.0
140
0.0
141
0.0
142
1.0
143
1.0
 70
1024
 72
0
 73
0
 74
0
  7

 75
0
147
1.0
148
0.0
149
0.0
100
AcDbLayout
  1
Model
 70
0
 71
0
 10
0.0
 20
0.0
 11
22.0
 21
17.0
 12
0.0
 22
0.0
 32
0.0
 14
0.0
 24
0.0
 34
0.0
 15
0.0
 25
0.0
 35
0.0
146
0.0
 13
0.0
 23
0.0
 33
0.0
 16
1.0
 26
0.0
 36
0.0
 17
0.0
 27
1.0
 37
0.0
 76
0
330
20C
345
0
346
0
  0
LAYOUT
  5
391
102
{ACAD_REACTORS
330
1A
102
}
100
AcDbPlotSettings
  1

  2
none_device
  4
ANSI_C_(22.00_x_17.00_Inches)
  6

 40
0.0
 41
0.0
 42
0.0
 43
0.0
 44
558.8
 45
431.8
 46
0.0
 47
0.0
 48
0.0
 49
0.0
140
0.0
141
0.0
142
1.0
143
1.0
 70
0
 72
0
 73
0
 74
0
  7

 75
0
147
1.0
148
0.0
149
0.0
100
AcDbLayout
  1
Layout1
 70
0
 71
1
 10
0.0
 20
0.0
 11
22.0
 21
17.0
 12
0.0
 22
0.0
 32
0.0
 14
0.0
 24
0.0
 34
0.0
 15
0.0
 25
0.0
 35
0.0
146
0.0
 13
0.0
 23
0.0
 33
0.0
 16
1.0
 26
0.0
 36
0.0
 17
0.0
 27
1.0
 37
0.0
 76
0
330
20D
345
0
346
0
  0
IMAGEDEF
  5
392
102
{ACAD_REACTORS
330
38D
330
38C
102
}
100
AcDbRasterImageDef
 90
0
  1
E6J_assy_2_img_1.png
 10
369.0
 20
92.0
 11
0.0066666667
 21
0.0066666667
280
1
281
0
  0
TABLESTYLE
  5
393
102
{ACAD_REACTORS
330
38F
330
296
330
297
102
}
330
38F
100
AcDbTableStyle
  3
Standard
 70
0
 71
0
 40
0.06
 41
0.06
280
1
281
1
  7
Standard
140
0.18
170
1
 62
0
 63
7
283
0
  7
Standard
140
0.18
170
1
 62
0
 63
7
283
0
  7
Standard
140
0.18
170
1
 62
0
 63
7
283
0
  0
TABLESTYLE
  5
394
102
{ACAD_REACTORS
330
38F
330
295
102
}
330
38F
100
AcDbTableStyle
  3
Standard1
 70
1
 71
0
 40
0.06
 41
0.06
280
1
281
1
  7
Standard
140
0.18
170
1
 62
0
 63
7
283
0
  7
Standard
140
0.18
170
1
 62
0
 63
7
283
0
  7
Standard
140
0.18
170
1
 62
0
 63
7
283
0
  0
ENDSEC
  0
EOF
