999
DXF file: E6A_assy_2.dxf
999
Pro/ENGINEER 2014200 by Parametric Technology Corporation
  0
SECTION
  2
HEADER
  9
$ACADVER
  1
AC1021
  9
$DWGCODEPAGE
  3
ANSI_1252
  9
$EXTMAX
 10
22.0
 20
17.0
 30
0.0
  9
$EXTMIN
 10
0.0
 20
0.0
 30
0.0
  9
$LIMMIN
 10
0.0
 20
0.0
  9
$LIMMAX
 10
22.0
 20
17.0
  9
$VIEWCTR
 10
11.0
 20
8.5
  9
$VIEWSIZE
 40
17.0
  9
$CLAYER
  8
0
  9
$LTSCALE
 40
1.21
  9
$CELTYPE
  6
BYLAYER
  9
$DIMSCALE
 40
1.0
  9
$DIMASZ
 40
0.1875
  9
$DIMEXO
 40
0.0625
  9
$DIMDLI
 40
0.836
  9
$DIMEXE
 40
0.125
  9
$DIMCEN
 40
0.198
  9
$DIMLFAC
 40
1.0
  9
$DIMBLK
  1
_FILLED
  9
$DIMTXT
 40
0.1
  9
$DIMTOL
 70
0
  9
$DIMLIM
 70
0
  9
$DIMTFAC
 40
1.0
  9
$DIMGAP
 40
0.09
  9
$DIMDSEP
 70
46
  9
$AUNITS
 70
0
  9
$PDMODE
 70
3
  9
$PDSIZE
 40
0.3125
  9
$HANDSEED
  5
398
  9
$TILEMODE
 70
1
  9
$MEASUREMENT
 70
0
  9
$INSUNITS
 70
1
  0
ENDSEC
  0
SECTION
  2
CLASSES
  0
CLASS
  1
ACDBDICTIONARYWDFLT
  2
AcDbDictionaryWithDefault
  3
AutoCAD 2000
 90
0
 91
1
280
0
281
0
  0
CLASS
  1
ACDBPLACEHOLDER
  2
AcDbPlaceHolder
  3
AutoCAD 2000
 90
0
 91
1
280
0
281
0
  0
CLASS
  1
LAYOUT
  2
AcDbLayout
  3
AutoCAD 2000
 90
0
 91
0
280
0
281
0
  0
CLASS
  1
RASTERVARIABLES
  2
AcDbRasterVariables
  3
ISM
 90
0
 91
1
280
0
281
0
  0
CLASS
  1
IMAGEDEF
  2
AcDbRasterImageDef
  3
ISM
 90
0
 91
1
280
0
281
0
  0
CLASS
  1
IMAGEDEF_REACTOR
  2
AcDbRasterImageDefReactor
  3
ISM
 90
0
 91
1
280
0
281
0
  0
CLASS
  1
IMAGE
  2
AcDbRasterImage
  3
ISM
 90
127
 91
1
280
0
281
1
  0
CLASS
  1
TABLESTYLE
  2
AcDbTableStyle
  3
ObjectDBX Classes
 90
2047
 91
1
280
0
281
0
  0
CLASS
  1
ACAD_TABLE
  2
AcDbTable
  3
ObjectDBX Classes
 90
1025
 91
3
280
0
281
1
  0
ENDSEC
  0
SECTION
  2
TABLES
  0
TABLE
  2
VPORT
  5
8
100
AcDbSymbolTable
 70
2
  0
VPORT
  5
1F4
100
AcDbSymbolTableRecord
100
AcDbViewportTableRecord
  2
*ACTIVE
 70
0
 10
0.0
 20
0.0
 11
1.0
 21
1.0
 12
11.0
 22
8.5
 13
0.0
 23
0.0
 14
1.0
 24
1.0
 15
0.0
 25
0.0
 16
0.0
 26
0.0
 36
1.0
 17
0.0
 27
0.0
 37
0.0
 40
17.0
 41
1.2941176471
 42
50.0
 43
0.0
 44
0.0
 50
0.0
 51
0.0
 71
0
 72
100
 73
1
 74
1
 75
0
 76
0
 77
0
 78
0
  0
ENDTAB
  0
TABLE
  2
LTYPE
  5
5
100
AcDbSymbolTable
 70
6
  0
LTYPE
  5
14
100
AcDbSymbolTableRecord
100
AcDbLinetypeTableRecord
  2
BYBLOCK
 70
0
  3

 72
65
 73
0
 40
0.0
  0
LTYPE
  5
15
100
AcDbSymbolTableRecord
100
AcDbLinetypeTableRecord
  2
BYLAYER
 70
0
  3

 72
65
 73
0
 40
0.0
  0
LTYPE
  5
16
100
AcDbSymbolTableRecord
100
AcDbLinetypeTableRecord
  2
CONTINUOUS
 70
64
  3
Solid line
 72
65
 73
0
 40
0.0
  0
LTYPE
  5
1F5
100
AcDbSymbolTableRecord
100
AcDbLinetypeTableRecord
  2
CENTER
 70
64
  3
____ _ ____ _ ____ _ ____ _ ____ _ ____ _ ____
 72
65
 73
4
 40
0.6
 49
0.375
 74
0
 49
-0.075
 74
0
 49
0.075
 74
0
 49
-0.075
 74
0
  0
LTYPE
  5
1F6
100
AcDbSymbolTableRecord
100
AcDbLinetypeTableRecord
  2
HIDDEN
 70
64
  3
- - - - - - - - - - - - - - - - - - - -
 72
65
 73
2
 40
0.2
 49
0.1
 74
0
 49
-0.1
 74
0
  0
LTYPE
  5
1F7
100
AcDbSymbolTableRecord
100
AcDbLinetypeTableRecord
  2
PHANTOM
 70
64
  3
_____ _ _ _____ _ _ _____ _ _ _____
 72
65
 73
6
 40
0.8
 49
0.45
 74
0
 49
-0.05
 74
0
 49
0.1
 74
0
 49
-0.05
 74
0
 49
0.1
 74
0
 49
-0.05
 74
0
  0
LTYPE
  5
1F8
100
AcDbSymbolTableRecord
100
AcDbLinetypeTableRecord
  2
DOT
 70
64
  3
. . . . . . . . . . . . . . . . . . . .
 72
65
 73
2
 40
0.2
 49
0.1
 74
0
 49
-0.1
 74
0
  0
LTYPE
  5
1F9
100
AcDbSymbolTableRecord
100
AcDbLinetypeTableRecord
  2
DASHED
 70
64
  3
- - - - - - - - - - - - - - - - - - - -
 72
65
 73
2
 40
0.2
 49
0.1
 74
0
 49
-0.1
 74
0
  0
ENDTAB
  0
TABLE
  2
LAYER
  5
2
100
AcDbSymbolTable
 70
36
  0
LAYER
  5
10
100
AcDbSymbolTableRecord
100
AcDbLayerTableRecord
  2
0
 70
0
 62
7
  6
CONTINUOUS
370
-3
390
F
  0
LAYER
  5
1FA
100
AcDbSymbolTableRecord
100
AcDbLayerTableRecord
  2
DEFAULT_1
 70
0
 62
7
  6
CENTER
370
-3
390
F
  0
LAYER
  5
1FB
100
AcDbSymbolTableRecord
100
AcDbLayerTableRecord
  2
DEFAULT_2
 70
0
 62
8
  6
HIDDEN
370
-3
390
F
  0
LAYER
  5
1FC
100
AcDbSymbolTableRecord
100
AcDbLayerTableRecord
  2
DEFAULT_3
 70
0
 62
7
  6
PHANTOM
370
-3
390
F
  0
LAYER
  5
1FD
100
AcDbSymbolTableRecord
100
AcDbLayerTableRecord
  2
01___PRT_ALL_DTM_PLN
 70
0
 62
7
  6
CONTINUOUS
370
-3
390
F
  0
LAYER
  5
1FE
100
AcDbSymbolTableRecord
100
AcDbLayerTableRecord
  2
01___PRT_DEF_DTM_PLN
 70
0
 62
7
  6
CONTINUOUS
370
-3
390
F
  0
LAYER
  5
1FF
100
AcDbSymbolTableRecord
100
AcDbLayerTableRecord
  2
02___PRT_ALL_AXES
 70
0
 62
7
  6
CONTINUOUS
370
-3
390
F
  0
LAYER
  5
200
100
AcDbSymbolTableRecord
100
AcDbLayerTableRecord
  2
03___PRT_ALL_CURVES
 70
0
 62
7
  6
CONTINUOUS
370
-3
390
F
  0
LAYER
  5
201
100
AcDbSymbolTableRecord
100
AcDbLayerTableRecord
  2
04___PRT_ALL_DTM_PNT
 70
0
 62
7
  6
CONTINUOUS
370
-3
390
F
  0
LAYER
  5
202
100
AcDbSymbolTableRecord
100
AcDbLayerTableRecord
  2
05___PRT_ALL_DTM_CSYS
 70
0
 62
7
  6
CONTINUOUS
370
-3
390
F
  0
LAYER
  5
203
100
AcDbSymbolTableRecord
100
AcDbLayerTableRecord
  2
05___PRT_DEF_DTM_CSYS
 70
0
 62
7
  6
CONTINUOUS
370
-3
390
F
  0
LAYER
  5
204
100
AcDbSymbolTableRecord
100
AcDbLayerTableRecord
  2
06___PRT_ALL_SURFS
 70
0
 62
7
  6
CONTINUOUS
370
-3
390
F
  0
LAYER
  5
205
100
AcDbSymbolTableRecord
100
AcDbLayerTableRecord
  2
DATUM_PLANES
 70
0
 62
7
  6
CONTINUOUS
370
-3
390
F
  0
LAYER
  5
206
100
AcDbSymbolTableRecord
100
AcDbLayerTableRecord
  2
PORT_AREAS
 70
0
 62
7
  6
CONTINUOUS
370
-3
390
F
  0
LAYER
  5
207
100
AcDbSymbolTableRecord
100
AcDbLayerTableRecord
  2
SUNNBOMCOSMETIC
 70
0
 62
7
  6
CONTINUOUS
370
-3
390
F
  0
LAYER
  5
208
100
AcDbSymbolTableRecord
100
AcDbLayerTableRecord
  2
SUNNBOMSTAMPING
 70
0
 62
7
  6
CONTINUOUS
370
-3
390
F
  0
LAYER
  5
209
100
AcDbSymbolTableRecord
100
AcDbLayerTableRecord
  2
THREADS
 70
0
 62
7
  6
CONTINUOUS
370
-3
390
F
  0
ENDTAB
  0
TABLE
  2
STYLE
  5
3
100
AcDbSymbolTable
 70
1
  0
STYLE
  5
11
100
AcDbSymbolTableRecord
100
AcDbTextStyleTableRecord
  2
STANDARD
 70
0
 40
0.0
 41
0.8
 50
0.0
 71
0
 42
0.2
  3
txt
  4

  0
STYLE
  5
20A
100
AcDbSymbolTableRecord
100
AcDbTextStyleTableRecord
  2
TEXTSTYLE_1
 70
0
 40
0.0
 41
0.8
 50
0.0
 71
0
 42
0.2
  3
gdt
  4

  0
ENDTAB
  0
TABLE
  2
VIEW
  5
6
100
AcDbSymbolTable
 70
0
  0
ENDTAB
  0
TABLE
  2
UCS
  5
7
100
AcDbSymbolTable
 70
0
  0
ENDTAB
  0
TABLE
  2
APPID
  5
9
100
AcDbSymbolTable
 70
1
  0
APPID
  5
20B
100
AcDbSymbolTableRecord
100
AcDbRegAppTableRecord
  2
ACAD
 70
0
  0
ENDTAB
  0
TABLE
  2
BLOCK_RECORD
  5
1
100
AcDbSymbolTable
 70
0
  0
BLOCK_RECORD
  5
20C
100
AcDbSymbolTableRecord
100
AcDbBlockTableRecord
  2
*Model_Space
  0
BLOCK_RECORD
  5
20D
100
AcDbSymbolTableRecord
100
AcDbBlockTableRecord
  2
*Paper_Space
  0
BLOCK_RECORD
  5
20E
100
AcDbSymbolTableRecord
100
AcDbBlockTableRecord
  2
SUN_FIRST_THIRD_ANGLE_BL0
  0
BLOCK_RECORD
  5
20F
100
AcDbSymbolTableRecord
100
AcDbBlockTableRecord
  2
*T1
  0
BLOCK_RECORD
  5
210
100
AcDbSymbolTableRecord
100
AcDbBlockTableRecord
  2
*T2
  0
BLOCK_RECORD
  5
211
100
AcDbSymbolTableRecord
100
AcDbBlockTableRecord
  2
*T3
  0
ENDTAB
  0
TABLE
  2
DIMSTYLE
  5
A
100
AcDbSymbolTable
 70
1
100
AcDbDimStyleTable
 71
0
  0
DIMSTYLE
105
212
100
AcDbSymbolTableRecord
100
AcDbDimStyleTableRecord
  2
STANDARD
 70
0
  3

  4

 40
1.0
 41
0.1875
 42
0.0625
 43
0.38
 44
0.125
 45
0.0
 46
0.0
 47
0.001
 48
0.001
140
0.1
141
0.09
142
0.0
143
25.4
144
1.0
145
0.0
146
1.0
147
0.09
 71
0.0
 72
0.0
 73
1
 74
1
 75
0
 76
0
 77
0
 78
4
170
0
171
2
172
0
173
0
174
0
175
0
176
0
177
0
178
0
270
2
271
3
272
3
273
2
274
2
275
0
280
0
281
0
282
0
283
1
284
4
285
0
286
0
287
3
288
0
340
11
278
46
  0
ENDTAB
  0
ENDSEC
  0
SECTION
  2
BLOCKS
  0
BLOCK
  5
20
100
AcDbEntity
  8
0
100
AcDbBlockBegin
  2
*Model_Space
 70
0
 10
0.0
 20
0.0
 30
0.0
  3
*Model_Space
  1

  0
ENDBLK
  5
21
100
AcDbEntity
  8
0
100
AcDbBlockEnd
  0
BLOCK
  5
1C
100
AcDbEntity
  8
0
100
AcDbBlockBegin
  2
*Paper_Space
 70
0
 10
0.0
 20
0.0
 30
0.0
  3
*Paper_Space
  1

  0
ENDBLK
  5
1D
100
AcDbEntity
  8
0
100
AcDbBlockEnd
  0
BLOCK
  5
213
100
AcDbEntity
  8
0
100
AcDbBlockBegin
 62
2
  6
CONTINUOUS
  2
SUN_FIRST_THIRD_ANGLE_BL0
 70
64
 10
20.4816717061
 20
1.2289683772
  3
SUN_FIRST_THIRD_ANGLE_BL0
  1

  0
TEXT
  5
214
100
AcDbEntity
  8
0
100
AcDbText
 62
2
  6
CONTINUOUS
 10
19.4750896608
 20
1.4136269581
  7
STANDARD
 40
0.08
  1
FIRST ANGLE
 41
0.8
 72
0
100
AcDbText
  0
TEXT
  5
215
100
AcDbEntity
  8
0
100
AcDbText
 62
2
  6
CONTINUOUS
 10
20.7842537513
 20
1.4047600029
  7
STANDARD
 40
0.08
  1
THIRD ANGLE
 41
0.8
 72
0
100
AcDbText
  0
LINE
  5
216
100
AcDbEntity
  8
0
100
AcDbLine
 62
7
  6
CONTINUOUS
 10
19.4767170086
 20
1.1727031207
 11
19.6334271527
 21
1.1717972817
  0
LINE
  5
217
100
AcDbEntity
  8
0
100
AcDbLine
 62
7
  6
CONTINUOUS
 10
19.6596964832
 20
1.1717972817
 11
19.6950230232
 21
1.171593082
  0
LINE
  5
218
100
AcDbEntity
  8
0
100
AcDbLine
 62
7
  6
CONTINUOUS
 10
19.7194818561
 20
1.1708914427
 11
19.8852396156
 21
1.1699333054
  0
LINE
  5
219
100
AcDbEntity
  8
0
100
AcDbLine
 62
7
  6
CONTINUOUS
 10
19.4758111696
 20
1.2723454088
 11
19.88525039
 21
1.3511534004
  0
LINE
  5
21A
100
AcDbEntity
  8
0
100
AcDbLine
 62
7
  6
CONTINUOUS
 10
19.88525039
 20
1.3511534004
 11
19.8831348489
 21
0.9851647912
  0
LINE
  5
21B
100
AcDbEntity
  8
0
100
AcDbLine
 62
7
  6
CONTINUOUS
 10
19.8831348489
 20
0.9851647912
 11
19.4767170086
 21
1.0658141206
  0
LINE
  5
21C
100
AcDbEntity
  8
0
100
AcDbLine
 62
7
  6
CONTINUOUS
 10
19.4767170086
 20
1.0658141206
 11
19.4779056764
 21
1.2714536432
  0
CIRCLE
  5
21D
100
AcDbEntity
  8
0
100
AcDbCircle
 62
7
  6
CONTINUOUS
 10
20.2068232291
 20
1.1717972817
 40
0.175742101
  0
CIRCLE
  5
21E
100
AcDbEntity
  8
0
100
AcDbCircle
 62
7
  6
CONTINUOUS
 10
20.2068232291
 20
1.1717972817
 40
0.1005522074
  0
LINE
  5
21F
100
AcDbEntity
  8
0
100
AcDbLine
 62
7
  6
CONTINUOUS
 10
20.2077290681
 20
1.3756110529
 11
20.2071171714
 21
1.2379342989
  0
LINE
  5
220
100
AcDbEntity
  8
0
100
AcDbLine
 62
7
  6
CONTINUOUS
 10
20.2077290681
 20
1.2016899681
 11
20.2074674401
 21
1.1428236749
  0
LINE
  5
221
100
AcDbEntity
  8
0
100
AcDbLine
 62
7
  6
CONTINUOUS
 10
20.208634907
 20
1.101141841
 11
20.2080230104
 21
0.963465087
  0
LINE
  5
222
100
AcDbEntity
  8
0
100
AcDbLine
 62
7
  6
CONTINUOUS
 10
20.0066328138
 20
1.1745147986
 11
20.1443095678
 21
1.1739029019
  0
LINE
  5
223
100
AcDbEntity
  8
0
100
AcDbLine
 62
7
  6
CONTINUOUS
 10
20.1832714155
 20
1.1727031207
 11
20.238153505
 21
1.172335442
  0
LINE
  5
224
100
AcDbEntity
  8
0
100
AcDbLine
 62
7
  6
CONTINUOUS
 10
20.2756669918
 20
1.1717972817
 11
20.407916871
 21
1.1712095044
  0
CIRCLE
  5
225
100
AcDbEntity
  8
0
100
AcDbCircle
 62
7
  6
CONTINUOUS
 10
20.7509457401
 20
1.1693297793
 40
0.1722024983
  0
CIRCLE
  5
226
100
AcDbEntity
  8
0
100
AcDbCircle
 62
7
  6
CONTINUOUS
 10
20.7509457401
 20
1.1693297793
 40
0.0985164967
  0
LINE
  5
227
100
AcDbEntity
  8
0
100
AcDbLine
 62
7
  6
CONTINUOUS
 10
20.7169767782
 20
1.170462078
 11
20.7825395137
 21
1.1682766535
  0
LINE
  5
228
100
AcDbEntity
  8
0
100
AcDbLine
 62
7
  6
CONTINUOUS
 10
20.8177513651
 20
1.1693297793
 11
20.947965719
 21
1.1693297793
  0
LINE
  5
229
100
AcDbEntity
  8
0
100
AcDbLine
 62
7
  6
CONTINUOUS
 10
20.6875370113
 20
1.170462078
 11
20.5573226574
 21
1.170462078
  0
LINE
  5
22A
100
AcDbEntity
  8
0
100
AcDbLine
 62
7
  6
CONTINUOUS
 10
20.7486811426
 20
1.1987695462
 11
20.7486811426
 21
1.1432869085
  0
LINE
  5
22B
100
AcDbEntity
  8
0
100
AcDbLine
 62
7
  6
CONTINUOUS
 10
20.7498134414
 20
1.1059210505
 11
20.7498134414
 21
0.9757066966
  0
LINE
  5
22C
100
AcDbEntity
  8
0
100
AcDbLine
 62
7
  6
CONTINUOUS
 10
20.7486811426
 20
1.2338708068
 11
20.7486811426
 21
1.3640851607
  0
LINE
  5
22D
100
AcDbEntity
  8
0
100
AcDbLine
 62
7
  6
CONTINUOUS
 10
21.0702539817
 20
1.2701043662
 11
21.4790138229
 21
1.3448360823
  0
LINE
  5
22E
100
AcDbEntity
  8
0
100
AcDbLine
 62
7
  6
CONTINUOUS
 10
21.4790138229
 20
1.3448360823
 11
21.4790138229
 21
0.9779712941
  0
LINE
  5
22F
100
AcDbEntity
  8
0
100
AcDbLine
 62
7
  6
CONTINUOUS
 10
21.4790138229
 20
0.9779712941
 11
21.069121683
 21
1.0617614
  0
LINE
  5
230
100
AcDbEntity
  8
0
100
AcDbLine
 62
7
  6
CONTINUOUS
 10
21.0702539817
 20
1.2701043662
 11
21.069121683
 21
1.0617614
  0
LINE
  5
231
100
AcDbEntity
  8
0
100
AcDbLine
 62
7
  6
CONTINUOUS
 10
21.4790138229
 20
1.1693297793
 11
21.3159628059
 21
1.1693297793
  0
LINE
  5
232
100
AcDbEntity
  8
0
100
AcDbLine
 62
7
  6
CONTINUOUS
 10
21.2876553377
 20
1.1693297793
 11
21.2502894796
 21
1.1693297793
  0
LINE
  5
233
100
AcDbEntity
  8
0
100
AcDbLine
 62
7
  6
CONTINUOUS
 10
21.2208497126
 20
1.1659328831
 11
21.0713862804
 21
1.1659328831
  0
LINE
  5
234
100
AcDbEntity
  8
0
100
AcDbLine
 62
7
  6
CONTINUOUS
 10
20.4796138713
 20
1.5284908897
 11
20.4766766948
 21
0.9294458646
  0
ENDBLK
  5
235
100
AcDbEntity
  8
0
  6
BYBLOCK
 62
0
100
AcDbBlockEnd
  0
BLOCK
  5
236
100
AcDbEntity
  8
0
100
AcDbBlockBegin
  2
*T1
 70
1
 10
0.0
 20
0.0
  3
*T1
  1

  0
LINE
  5
237
100
AcDbEntity
  8
0
100
AcDbLine
 62
2
  6
CONTINUOUS
 10
9.275
 20
0.0
 11
-0.0
 21
0.0
  0
LINE
  5
238
100
AcDbEntity
  8
0
100
AcDbLine
 62
2
  6
CONTINUOUS
 10
9.275
 20
0.0
 11
9.275
 21
1.25
  0
LINE
  5
239
100
AcDbEntity
  8
0
100
AcDbLine
 62
2
  6
CONTINUOUS
 10
9.275
 20
0.625
 11
-0.0
 21
0.625
  0
LINE
  5
23A
100
AcDbEntity
  8
0
100
AcDbLine
 62
2
  6
CONTINUOUS
 10
9.275
 20
1.25
 11
-0.0
 21
1.25
  0
LINE
  5
23B
100
AcDbEntity
  8
0
100
AcDbLine
 62
2
  6
CONTINUOUS
 10
6.8
 20
0.0
 11
6.8
 21
1.25
  0
LINE
  5
23C
100
AcDbEntity
  8
0
100
AcDbLine
 62
2
  6
CONTINUOUS
 10
6.4
 20
0.0
 11
6.4
 21
0.625
  0
LINE
  5
23D
100
AcDbEntity
  8
0
100
AcDbLine
 62
2
  6
CONTINUOUS
 10
5.9
 20
0.0
 11
5.9
 21
0.625
  0
LINE
  5
23E
100
AcDbEntity
  8
0
100
AcDbLine
 62
2
  6
CONTINUOUS
 10
5.2
 20
0.0
 11
5.2
 21
0.625
  0
LINE
  5
23F
100
AcDbEntity
  8
0
100
AcDbLine
 62
2
  6
CONTINUOUS
 10
4.1
 20
0.0
 11
4.1
 21
1.25
  0
LINE
  5
240
100
AcDbEntity
  8
0
100
AcDbLine
 62
2
  6
CONTINUOUS
 10
-0.0
 20
0.0
 11
-0.0
 21
1.25
  0
MTEXT
  5
241
100
AcDbEntity
  8
0
100
AcDbMText
 62
2
  6
CONTINUOUS
  7
STANDARD
 71
2
 72
1
 10
6.6
 20
0.325
 30
0.0
 11
1.0
 21
0.0
 31
0.0
 44
0.9
  1
2
 40
0.125
 41
0.2
  0
MTEXT
  5
242
100
AcDbEntity
  8
0
100
AcDbMText
 62
2
  6
CONTINUOUS
  7
STANDARD
 71
2
 72
1
 10
6.15
 20
0.325
 30
0.0
 11
1.0
 21
0.0
 31
0.0
 44
0.9
  1
C
 40
0.125
 41
0.2
  0
MTEXT
  5
243
100
AcDbEntity
  8
0
100
AcDbMText
 62
2
  6
CONTINUOUS
  7
STANDARD
 71
2
 72
1
 10
5.55
 20
0.325
 30
0.0
 11
1.0
 21
0.0
 31
0.0
 44
0.9
  1
1.000
 40
0.125
 41
1.0
  0
MTEXT
  5
244
100
AcDbEntity
  8
0
100
AcDbMText
 62
2
  6
CONTINUOUS
  7
STANDARD
 71
2
 72
1
 10
4.65
 20
0.325
 30
0.0
 11
1.0
 21
0.0
 31
0.0
 44
0.9
  1
Nov-20-20
 40
0.125
 41
1.8
  0
MTEXT
  5
245
100
AcDbEntity
  8
0
100
AcDbMText
 62
2
  6
CONTINUOUS
  7
STANDARD
 71
2
 72
1
 10
2.05
 20
0.4625
 30
0.0
 11
1.0
 21
0.0
 31
0.0
 44
0.9
  1
T-11A Line mount\P(See Technical Data for Body Features)
 40
0.125
 41
7.6
  0
MTEXT
  5
246
100
AcDbEntity
  8
0
100
AcDbMText
 62
2
  6
CONTINUOUS
  7
STANDARD
 71
1
 72
1
 10
6.45
 20
0.5625
 30
0.0
 11
1.0
 21
0.0
 31
0.0
 44
0.9
  1
SHEET
 40
0.06
 41
0.48
  0
MTEXT
  5
247
100
AcDbEntity
  8
0
100
AcDbMText
 62
2
  6
CONTINUOUS
  7
STANDARD
 71
1
 72
1
 10
5.95
 20
0.5625
 30
0.0
 11
1.0
 21
0.0
 31
0.0
 44
0.9
  1
DWG SIZE
 40
0.06
 41
0.768
  0
MTEXT
  5
248
100
AcDbEntity
  8
0
100
AcDbMText
 62
2
  6
CONTINUOUS
  7
STANDARD
 71
1
 72
1
 10
5.25
 20
0.5625
 30
0.0
 11
1.0
 21
0.0
 31
0.0
 44
0.9
  1
SCALE
 40
0.06
 41
0.48
  0
MTEXT
  5
249
100
AcDbEntity
  8
0
100
AcDbMText
 62
2
  6
CONTINUOUS
  7
STANDARD
 71
1
 72
1
 10
4.15
 20
0.5625
 30
0.0
 11
1.0
 21
0.0
 31
0.0
 44
0.9
  1
DATE
 40
0.06
 41
0.384
  0
MTEXT
  5
24A
100
AcDbEntity
  8
0
100
AcDbMText
 62
2
  6
CONTINUOUS
  7
STANDARD
 71
1
 72
1
 10
0.05
 20
0.5625
 30
0.0
 11
1.0
 21
0.0
 31
0.0
 44
0.9
  1
DESCRIPTION
 40
0.06
 41
1.056
  0
MTEXT
  5
24B
100
AcDbEntity
  8
0
100
AcDbMText
 62
2
  6
CONTINUOUS
  7
STANDARD
 71
2
 72
1
 10
5.45
 20
1.0375
 30
0.0
 11
1.0
 21
0.0
 31
0.0
 44
0.9
  1
ALL DIMENSIONS IN INCH\PVIEWS ARE THIRD ANGLE
 40
0.12
 41
4.224
  0
MTEXT
  5
24C
100
AcDbEntity
  8
0
100
AcDbMText
 62
2
  6
CONTINUOUS
  7
STANDARD
 71
2
 72
1
 10
2.05
 20
0.95
 30
0.0
 11
1.0
 21
0.0
 31
0.0
 44
0.9
  1
E6A
 40
0.125
 41
0.6
  0
MTEXT
  5
24D
100
AcDbEntity
  8
0
100
AcDbMText
 62
2
  6
CONTINUOUS
  7
STANDARD
 71
1
 72
1
 10
0.05
 20
1.1875
 30
0.0
 11
1.0
 21
0.0
 31
0.0
 44
0.9
  1
MODEL
 40
0.06
 41
0.48
  0
ENDBLK
  5
24E
100
AcDbEntity
  8
0
  6
BYBLOCK
 62
0
100
AcDbBlockEnd
  0
BLOCK
  5
24F
100
AcDbEntity
  8
0
100
AcDbBlockBegin
  2
*T2
 70
1
 10
0.0
 20
0.0
  3
*T2
  1

  0
LINE
  5
250
100
AcDbEntity
  8
0
100
AcDbLine
 62
2
  6
CONTINUOUS
 10
0.0
 20
0.0
 11
9.055
 21
0.0
  0
LINE
  5
251
100
AcDbEntity
  8
0
100
AcDbLine
 62
2
  6
CONTINUOUS
 10
0.0
 20
0.0
 11
0.0
 21
-2.844
  0
LINE
  5
252
100
AcDbEntity
  8
0
100
AcDbLine
 62
2
  6
CONTINUOUS
 10
0.0
 20
-0.344
 11
9.055
 21
-0.344
  0
LINE
  5
253
100
AcDbEntity
  8
0
100
AcDbLine
 62
2
  6
CONTINUOUS
 10
0.0
 20
-0.594
 11
9.055
 21
-0.594
  0
LINE
  5
254
100
AcDbEntity
  8
0
100
AcDbLine
 62
2
  6
CONTINUOUS
 10
0.0
 20
-0.844
 11
9.055
 21
-0.844
  0
LINE
  5
255
100
AcDbEntity
  8
0
100
AcDbLine
 62
2
  6
CONTINUOUS
 10
0.0
 20
-1.094
 11
9.055
 21
-1.094
  0
LINE
  5
256
100
AcDbEntity
  8
0
100
AcDbLine
 62
2
  6
CONTINUOUS
 10
0.0
 20
-1.344
 11
9.055
 21
-1.344
  0
LINE
  5
257
100
AcDbEntity
  8
0
100
AcDbLine
 62
2
  6
CONTINUOUS
 10
0.0
 20
-1.594
 11
9.055
 21
-1.594
  0
LINE
  5
258
100
AcDbEntity
  8
0
100
AcDbLine
 62
2
  6
CONTINUOUS
 10
0.0
 20
-1.844
 11
9.055
 21
-1.844
  0
LINE
  5
259
100
AcDbEntity
  8
0
100
AcDbLine
 62
2
  6
CONTINUOUS
 10
0.0
 20
-2.094
 11
9.055
 21
-2.094
  0
LINE
  5
25A
100
AcDbEntity
  8
0
100
AcDbLine
 62
2
  6
CONTINUOUS
 10
0.0
 20
-2.344
 11
9.055
 21
-2.344
  0
LINE
  5
25B
100
AcDbEntity
  8
0
100
AcDbLine
 62
2
  6
CONTINUOUS
 10
0.0
 20
-2.594
 11
9.055
 21
-2.594
  0
LINE
  5
25C
100
AcDbEntity
  8
0
100
AcDbLine
 62
2
  6
CONTINUOUS
 10
0.0
 20
-2.844
 11
9.055
 21
-2.844
  0
LINE
  5
25D
100
AcDbEntity
  8
0
100
AcDbLine
 62
2
  6
CONTINUOUS
 10
3.055
 20
0.0
 11
3.055
 21
-2.844
  0
LINE
  5
25E
100
AcDbEntity
  8
0
100
AcDbLine
 62
2
  6
CONTINUOUS
 10
9.055
 20
0.0
 11
9.055
 21
-2.844
  0
MTEXT
  5
25F
100
AcDbEntity
  8
0
100
AcDbMText
 62
2
  6
CONTINUOUS
  7
STANDARD
 71
2
 72
1
 10
1.5275
 20
-0.0995
 30
0.0
 11
1.0
 21
0.0
 31
0.0
 44
0.9
  1
Technical Data
 40
0.145
 41
3.248
  0
MTEXT
  5
260
100
AcDbEntity
  8
0
100
AcDbMText
 62
2
  6
CONTINUOUS
  7
STANDARD
 71
2
 72
1
 10
4.555
 20
-0.0995
 30
0.0
 11
1.0
 21
0.0
 31
0.0
 44
0.9
  1
U.S. Units
 40
0.145
 41
2.32
  0
MTEXT
  5
261
100
AcDbEntity
  8
0
100
AcDbMText
 62
2
  6
CONTINUOUS
  7
STANDARD
 71
2
 72
1
 10
7.555
 20
-0.0995
 30
0.0
 11
1.0
 21
0.0
 31
0.0
 44
0.9
  1
Metric Units
 40
0.145
 41
2.784
  0
MTEXT
  5
262
100
AcDbEntity
  8
0
100
AcDbMText
 62
2
  6
CONTINUOUS
  7
STANDARD
 71
2
 72
1
 10
1.5275
 20
-0.4065
 30
0.0
 11
1.0
 21
0.0
 31
0.0
 44
0.9
  1
Cavity
 40
0.125
 41
1.2
  0
MTEXT
  5
263
100
AcDbEntity
  8
0
100
AcDbMText
 62
2
  6
CONTINUOUS
  7
STANDARD
 71
2
 72
1
 10
6.055
 20
-0.4065
 30
0.0
 11
1.0
 21
0.0
 31
0.0
 44
0.9
  1
T-11A
 40
0.125
 41
1.0
  0
MTEXT
  5
264
100
AcDbEntity
  8
0
100
AcDbMText
 62
2
  6
CONTINUOUS
  7
STANDARD
 71
2
 72
1
 10
1.5275
 20
-0.6565
 30
0.0
 11
1.0
 21
0.0
 31
0.0
 44
0.9
  1
Body Features
 40
0.125
 41
2.6
  0
MTEXT
  5
265
100
AcDbEntity
  8
0
100
AcDbMText
 62
2
  6
CONTINUOUS
  7
STANDARD
 71
2
 72
1
 10
6.055
 20
-0.6565
 30
0.0
 11
1.0
 21
0.0
 31
0.0
 44
0.9
  1
Ninety degree with reverse flow check - sequence
 40
0.125
 41
9.6
  0
MTEXT
  5
266
100
AcDbEntity
  8
0
100
AcDbMText
 62
2
  6
CONTINUOUS
  7
STANDARD
 71
2
 72
1
 10
1.5275
 20
-0.9065
 30
0.0
 11
1.0
 21
0.0
 31
0.0
 44
0.9
  1
Body Type
 40
0.125
 41
1.8
  0
MTEXT
  5
267
100
AcDbEntity
  8
0
100
AcDbMText
 62
2
  6
CONTINUOUS
  7
STANDARD
 71
2
 72
1
 10
6.055
 20
-0.9065
 30
0.0
 11
1.0
 21
0.0
 31
0.0
 44
0.9
  1
Line mount
 40
0.125
 41
2.0
  0
MTEXT
  5
268
100
AcDbEntity
  8
0
100
AcDbMText
 62
2
  6
CONTINUOUS
  7
STANDARD
 71
2
 72
1
 10
1.5275
 20
-1.1565
 30
0.0
 11
1.0
 21
0.0
 31
0.0
 44
0.9
  1
Interface
 40
0.125
 41
1.8
  0
MTEXT
  5
269
100
AcDbEntity
  8
0
100
AcDbMText
 62
2
  6
CONTINUOUS
  7
STANDARD
 71
2
 72
1
 10
6.055
 20
-1.1565
 30
0.0
 11
1.0
 21
0.0
 31
0.0
 44
0.9
  1
None
 40
0.125
 41
0.8
  0
MTEXT
  5
26A
100
AcDbEntity
  8
0
100
AcDbMText
 62
2
  6
CONTINUOUS
  7
STANDARD
 71
2
 72
1
 10
1.5275
 20
-1.4065
 30
0.0
 11
1.0
 21
0.0
 31
0.0
 44
0.9
  1
Open Cavity Quantity
 40
0.125
 41
4.0
  0
MTEXT
  5
26B
100
AcDbEntity
  8
0
100
AcDbMText
 62
2
  6
CONTINUOUS
  7
STANDARD
 71
2
 72
1
 10
6.055
 20
-1.4065
 30
0.0
 11
1.0
 21
0.0
 31
0.0
 44
0.9
  1
1
 40
0.125
 41
0.2
  0
MTEXT
  5
26C
100
AcDbEntity
  8
0
100
AcDbMText
 62
2
  6
CONTINUOUS
  7
STANDARD
 71
2
 72
1
 10
1.5275
 20
-1.6565
 30
0.0
 11
1.0
 21
0.0
 31
0.0
 44
0.9
  1
Weight
 40
0.125
 41
1.2
  0
MTEXT
  5
26D
100
AcDbEntity
  8
0
100
AcDbMText
 62
2
  6
CONTINUOUS
  7
STANDARD
 71
2
 72
1
 10
4.555
 20
-1.6565
 30
0.0
 11
1.0
 21
0.0
 31
0.0
 44
0.9
  1
1.294 lb.
 40
0.125
 41
1.8
  0
MTEXT
  5
26E
100
AcDbEntity
  8
0
100
AcDbMText
 62
2
  6
CONTINUOUS
  7
STANDARD
 71
2
 72
1
 10
7.555
 20
-1.6565
 30
0.0
 11
1.0
 21
0.0
 31
0.0
 44
0.9
  1
0,587 kg.
 40
0.125
 41
1.8
  0
MTEXT
  5
26F
100
AcDbEntity
  8
0
100
AcDbMText
 62
2
  6
CONTINUOUS
  7
STANDARD
 71
2
 72
1
 10
1.5275
 20
-1.9065
 30
0.0
 11
1.0
 21
0.0
 31
0.0
 44
0.9
  1
Check Cracking Pressure
 40
0.125
 41
4.6
  0
MTEXT
  5
270
100
AcDbEntity
  8
0
100
AcDbMText
 62
2
  6
CONTINUOUS
  7
STANDARD
 71
2
 72
1
 10
4.555
 20
-1.9065
 30
0.0
 11
1.0
 21
0.0
 31
0.0
 44
0.9
  1
30 psi
 40
0.125
 41
1.2
  0
MTEXT
  5
271
100
AcDbEntity
  8
0
100
AcDbMText
 62
2
  6
CONTINUOUS
  7
STANDARD
 71
2
 72
1
 10
7.555
 20
-1.9065
 30
0.0
 11
1.0
 21
0.0
 31
0.0
 44
0.9
  1
2 bar
 40
0.125
 41
1.0
  0
MTEXT
  5
272
100
AcDbEntity
  8
0
100
AcDbMText
 62
2
  6
CONTINUOUS
  7
STANDARD
 71
2
 72
1
 10
1.5275
 20
-2.1565
 30
0.0
 11
1.0
 21
0.0
 31
0.0
 44
0.9
  1
Mounting Hole Diameter
 40
0.125
 41
4.4
  0
MTEXT
  5
273
100
AcDbEntity
  8
0
100
AcDbMText
 62
2
  6
CONTINUOUS
  7
STANDARD
 71
2
 72
1
 10
4.555
 20
-2.1565
 30
0.0
 11
1.0
 21
0.0
 31
0.0
 44
0.9
  1
.34 in.
 40
0.125
 41
1.4
  0
MTEXT
  5
274
100
AcDbEntity
  8
0
100
AcDbMText
 62
2
  6
CONTINUOUS
  7
STANDARD
 71
2
 72
1
 10
7.555
 20
-2.1565
 30
0.0
 11
1.0
 21
0.0
 31
0.0
 44
0.9
  1
8.6 mm
 40
0.125
 41
1.2
  0
MTEXT
  5
275
100
AcDbEntity
  8
0
100
AcDbMText
 62
2
  6
CONTINUOUS
  7
STANDARD
 71
2
 72
1
 10
1.5275
 20
-2.4065
 30
0.0
 11
1.0
 21
0.0
 31
0.0
 44
0.9
  1
Mounting Hole Depth
 40
0.125
 41
3.8
  0
MTEXT
  5
276
100
AcDbEntity
  8
0
100
AcDbMText
 62
2
  6
CONTINUOUS
  7
STANDARD
 71
2
 72
1
 10
6.055
 20
-2.4065
 30
0.0
 11
1.0
 21
0.0
 31
0.0
 44
0.9
  1
Through
 40
0.125
 41
1.4
  0
MTEXT
  5
277
100
AcDbEntity
  8
0
100
AcDbMText
 62
2
  6
CONTINUOUS
  7
STANDARD
 71
2
 72
1
 10
1.5275
 20
-2.6565
 30
0.0
 11
1.0
 21
0.0
 31
0.0
 44
0.9
  1
Mounting Hole Quantity
 40
0.125
 41
4.4
  0
MTEXT
  5
278
100
AcDbEntity
  8
0
100
AcDbMText
 62
2
  6
CONTINUOUS
  7
STANDARD
 71
2
 72
1
 10
6.055
 20
-2.6565
 30
0.0
 11
1.0
 21
0.0
 31
0.0
 44
0.9
  1
2
 40
0.125
 41
0.2
  0
ENDBLK
  5
279
100
AcDbEntity
  8
0
  6
BYBLOCK
 62
0
100
AcDbBlockEnd
  0
BLOCK
  5
27A
100
AcDbEntity
  8
0
100
AcDbBlockBegin
  2
*T3
 70
1
 10
0.0
 20
0.0
  3
*T3
  1

  0
LINE
  5
27B
100
AcDbEntity
  8
0
100
AcDbLine
 62
2
  6
CONTINUOUS
 10
0.0
 20
0.0
 11
4.6
 21
0.0
  0
LINE
  5
27C
100
AcDbEntity
  8
0
100
AcDbLine
 62
2
  6
CONTINUOUS
 10
0.0
 20
0.0
 11
0.0
 21
-1.43775
  0
LINE
  5
27D
100
AcDbEntity
  8
0
100
AcDbLine
 62
2
  6
CONTINUOUS
 10
0.0
 20
-0.34375
 11
4.6
 21
-0.34375
  0
LINE
  5
27E
100
AcDbEntity
  8
0
100
AcDbLine
 62
2
  6
CONTINUOUS
 10
0.0
 20
-0.68775
 11
4.6
 21
-0.68775
  0
LINE
  5
27F
100
AcDbEntity
  8
0
100
AcDbLine
 62
2
  6
CONTINUOUS
 10
0.0
 20
-0.93775
 11
4.6
 21
-0.93775
  0
LINE
  5
280
100
AcDbEntity
  8
0
100
AcDbLine
 62
2
  6
CONTINUOUS
 10
0.0
 20
-1.18775
 11
4.6
 21
-1.18775
  0
LINE
  5
281
100
AcDbEntity
  8
0
100
AcDbLine
 62
2
  6
CONTINUOUS
 10
0.0
 20
-1.43775
 11
4.6
 21
-1.43775
  0
LINE
  5
282
100
AcDbEntity
  8
0
100
AcDbLine
 62
2
  6
CONTINUOUS
 10
1.3
 20
-0.34375
 11
1.3
 21
-1.43775
  0
LINE
  5
283
100
AcDbEntity
  8
0
100
AcDbLine
 62
2
  6
CONTINUOUS
 10
3.3
 20
-0.34375
 11
3.3
 21
-1.43775
  0
LINE
  5
284
100
AcDbEntity
  8
0
100
AcDbLine
 62
2
  6
CONTINUOUS
 10
4.6
 20
0.0
 11
4.6
 21
-1.43775
  0
MTEXT
  5
285
100
AcDbEntity
  8
0
100
AcDbMText
 62
2
  6
CONTINUOUS
  7
STANDARD
 71
2
 72
1
 10
2.3
 20
-0.099375
 30
0.0
 11
1.0
 21
0.0
 31
0.0
 44
0.9
  1
Port Headings
 40
0.145
 41
3.016
  0
MTEXT
  5
286
100
AcDbEntity
  8
0
100
AcDbMText
 62
2
  6
CONTINUOUS
  7
STANDARD
 71
2
 72
1
 10
0.65
 20
-0.44325
 30
0.0
 11
1.0
 21
0.0
 31
0.0
 44
0.9
  1
Product
 40
0.145
 41
1.624
  0
MTEXT
  5
287
100
AcDbEntity
  8
0
100
AcDbMText
 62
2
  6
CONTINUOUS
  7
STANDARD
 71
2
 72
1
 10
2.3
 20
-0.44325
 30
0.0
 11
1.0
 21
0.0
 31
0.0
 44
0.9
  1
Port
 40
0.145
 41
0.928
  0
MTEXT
  5
288
100
AcDbEntity
  8
0
100
AcDbMText
 62
2
  6
CONTINUOUS
  7
STANDARD
 71
2
 72
1
 10
3.95
 20
-0.44325
 30
0.0
 11
1.0
 21
0.0
 31
0.0
 44
0.9
  1
Size
 40
0.145
 41
0.928
  0
MTEXT
  5
289
100
AcDbEntity
  8
0
100
AcDbMText
 62
2
  6
CONTINUOUS
  7
STANDARD
 71
2
 72
1
 10
0.65
 20
-0.75025
 30
0.0
 11
1.0
 21
0.0
 31
0.0
 44
0.9
  1
E6A
 40
0.125
 41
0.6
  0
MTEXT
  5
28A
100
AcDbEntity
  8
0
100
AcDbMText
 62
2
  6
CONTINUOUS
  7
STANDARD
 71
2
 72
1
 10
2.3
 20
-0.75025
 30
0.0
 11
1.0
 21
0.0
 31
0.0
 44
0.9
  1
Ports 1 &  2
 40
0.125
 41
2.4
  0
MTEXT
  5
28B
100
AcDbEntity
  8
0
100
AcDbMText
 62
2
  6
CONTINUOUS
  7
STANDARD
 71
2
 72
1
 10
3.95
 20
-0.75025
 30
0.0
 11
1.0
 21
0.0
 31
0.0
 44
0.9
  1
1/4" NPTF
 40
0.125
 41
1.8
  0
MTEXT
  5
28C
100
AcDbEntity
  8
0
100
AcDbMText
 62
2
  6
CONTINUOUS
  7
STANDARD
 71
2
 72
1
 10
0.65
 20
-1.00025
 30
0.0
 11
1.0
 21
0.0
 31
0.0
 44
0.9
  1
E6A
 40
0.125
 41
0.6
  0
MTEXT
  5
28D
100
AcDbEntity
  8
0
100
AcDbMText
 62
2
  6
CONTINUOUS
  7
STANDARD
 71
2
 72
1
 10
2.3
 20
-1.00025
 30
0.0
 11
1.0
 21
0.0
 31
0.0
 44
0.9
  1
Port 3
 40
0.125
 41
1.2
  0
MTEXT
  5
28E
100
AcDbEntity
  8
0
100
AcDbMText
 62
2
  6
CONTINUOUS
  7
STANDARD
 71
2
 72
1
 10
3.95
 20
-1.00025
 30
0.0
 11
1.0
 21
0.0
 31
0.0
 44
0.9
  1
1/4" NPTF
 40
0.125
 41
1.8
  0
MTEXT
  5
28F
100
AcDbEntity
  8
0
100
AcDbMText
 62
2
  6
CONTINUOUS
  7
STANDARD
 71
2
 72
1
 10
0.65
 20
-1.25025
 30
0.0
 11
1.0
 21
0.0
 31
0.0
 44
0.9
  1
E6A
 40
0.125
 41
0.6
  0
MTEXT
  5
290
100
AcDbEntity
  8
0
100
AcDbMText
 62
2
  6
CONTINUOUS
  7
STANDARD
 71
2
 72
1
 10
2.3
 20
-1.25025
 30
0.0
 11
1.0
 21
0.0
 31
0.0
 44
0.9
  1
Gage Port
 40
0.125
 41
1.8
  0
MTEXT
  5
291
100
AcDbEntity
  8
0
100
AcDbMText
 62
2
  6
CONTINUOUS
  7
STANDARD
 71
2
 72
1
 10
3.95
 20
-1.25025
 30
0.0
 11
1.0
 21
0.0
 31
0.0
 44
0.9
  1
1/4" NPTF
 40
0.125
 41
1.8
  0
ENDBLK
  5
292
100
AcDbEntity
  8
0
  6
BYBLOCK
 62
0
100
AcDbBlockEnd
  0
ENDSEC
  0
SECTION
  2
ENTITIES
  0
IMAGE
  5
293
100
AcDbEntity
  8
0
100
AcDbRasterImage
 62
7
  6
CONTINUOUS
 10
19.2297077316
 20
0.3094318264
 30
0.0
 11
0.0066666667
 21
0.0
 31
0.0
 12
0.0
 22
0.0066666667
 32
0.0
 13
369.0
 23
92.0
340
       395
 70
9
280
0
281
50
282
50
283
0
360
       38F
 71
1
 91
2
 14
-0.5
 24
-0.5
 14
368.5
 24
91.5
  0
INSERT
  5
294
100
AcDbEntity
  8
0
100
AcDbBlockReference
 62
2
  6
CONTINUOUS
  2
SUN_FIRST_THIRD_ANGLE_BL0
 10
20.4816717061
 20
1.2289683772
  0
ACAD_TABLE
  5
295
100
AcDbEntity
  8
0
 62
2
  6
CONTINUOUS
100
AcDbBlockReference
  2
*T1
 10
12.42375
 20
0.30125
 30
0.0
100
AcDbTable
342
       397
343
20F
 11
1.0
 21
0.0
 31
0.0
 90
6
 91
4
 92
6
 93
20
 94
0
 95
0
 96
0
 70
1
 41
0.0
141
0.525
141
0.1
141
0.525
141
0.1
142
4.1
142
1.1
142
0.7
142
0.5
142
0.4
142
2.475
171
1
172
0
173
0
174
0
175
1
176
1
 91
33
178
0
145
0.0
301
CELL_VALUE
 90
4
  1
T-11A Line mount\P(See Technical Data for Body Features)
304
ACVALUE_END
170
2
140
0.125
171
1
172
0
173
0
174
0
175
1
176
1
 91
33
178
0
145
0.0
301
CELL_VALUE
 90
4
  1
Nov-20-20
304
ACVALUE_END
170
5
140
0.125
171
1
172
0
173
0
174
0
175
1
176
1
 91
33
178
0
145
0.0
301
CELL_VALUE
 90
4
  1
1.000
304
ACVALUE_END
170
5
140
0.125
171
1
172
0
173
0
174
0
175
1
176
1
 91
33
178
0
145
0.0
301
CELL_VALUE
 90
4
  1
C
304
ACVALUE_END
170
5
140
0.125
171
1
172
0
173
0
174
0
175
1
176
1
 91
33
178
0
145
0.0
301
CELL_VALUE
 90
4
  1
2
304
ACVALUE_END
170
5
140
0.125
171
1
172
0
173
0
174
0
175
1
176
1
 91
33
178
0
145
0.0
301
CELL_VALUE
 90
4
  1
 
304
ACVALUE_END
170
1
140
0.125
171
1
172
0
173
0
174
0
175
1
176
1
 91
33
178
0
145
0.0
301
CELL_VALUE
 90
4
  1
DESCRIPTION
304
ACVALUE_END
170
1
140
0.06
171
1
172
0
173
0
174
0
175
1
176
1
 91
33
178
0
145
0.0
301
CELL_VALUE
 90
4
  1
DATE
304
ACVALUE_END
170
1
140
0.06
171
1
172
0
173
0
174
0
175
1
176
1
 91
33
178
0
145
0.0
301
CELL_VALUE
 90
4
  1
SCALE
304
ACVALUE_END
170
1
140
0.06
171
1
172
0
173
0
174
0
175
1
176
1
 91
33
178
0
145
0.0
301
CELL_VALUE
 90
4
  1
DWG SIZE
304
ACVALUE_END
170
1
140
0.06
171
1
172
0
173
0
174
0
175
1
176
1
 91
33
178
0
145
0.0
301
CELL_VALUE
 90
4
  1
SHEET
304
ACVALUE_END
170
1
140
0.06
171
1
172
0
173
0
174
0
175
1
176
1
 91
33
178
0
145
0.0
301
CELL_VALUE
 90
4
  1
 
304
ACVALUE_END
170
1
140
0.125
171
1
172
0
173
0
174
0
175
1
176
1
 91
33
178
0
145
0.0
301
CELL_VALUE
 90
4
  1
E6A
304
ACVALUE_END
170
5
140
0.125
171
1
172
0
173
0
174
0
175
4
176
1
 91
33
178
0
145
0.0
301
CELL_VALUE
 90
4
  1
ALL DIMENSIONS IN INCH\PVIEWS ARE THIRD ANGLE
304
ACVALUE_END
170
5
140
0.12
171
1
172
0
173
1
174
0
175
1
176
1
 91
1
178
0
145
0.0
170
1
171
1
172
0
173
1
174
0
175
1
176
1
 91
1
178
0
145
0.0
170
1
171
1
172
0
173
1
174
0
175
1
176
1
 91
1
178
0
145
0.0
170
5
171
1
172
0
173
0
174
0
175
1
176
1
 91
33
178
0
145
0.0
301
CELL_VALUE
 90
4
  1
 
304
ACVALUE_END
170
1
140
0.125
171
1
172
0
173
0
174
0
175
1
176
1
 91
33
178
0
145
0.0
301
CELL_VALUE
 90
4
  1
MODEL
304
ACVALUE_END
170
1
140
0.06
171
1
172
0
173
0
174
0
175
1
176
1
 91
33
178
0
145
0.0
301
CELL_VALUE
 90
4
  1
 
304
ACVALUE_END
170
1
140
0.125
171
1
172
0
173
0
174
0
175
1
176
1
 91
33
178
0
145
0.0
301
CELL_VALUE
 90
4
  1
 
304
ACVALUE_END
170
1
140
0.125
171
1
172
0
173
0
174
0
175
1
176
1
 91
33
178
0
145
0.0
301
CELL_VALUE
 90
4
  1
 
304
ACVALUE_END
170
1
140
0.125
171
1
172
0
173
0
174
0
175
1
176
1
 91
33
178
0
145
0.0
301
CELL_VALUE
 90
4
  1
 
304
ACVALUE_END
170
1
140
0.125
171
1
172
0
173
0
174
0
175
1
176
1
 91
33
178
0
145
0.0
301
CELL_VALUE
 90
4
  1
 
304
ACVALUE_END
170
1
140
0.125
  0
ACAD_TABLE
  5
296
100
AcDbEntity
  8
0
 62
2
  6
CONTINUOUS
100
AcDbBlockReference
  2
*T2
 10
12.4237499994
 20
16.47875
 30
0.0
100
AcDbTable
342
       396
343
210
 11
1.0
 21
0.0
 31
0.0
 90
22
 91
11
 92
3
 93
16
 94
0
 95
0
 96
0
 41
0.028
141
0.344
141
0.25
141
0.25
141
0.25
141
0.25
141
0.25
141
0.25
141
0.25
141
0.25
141
0.25
141
0.25
142
3.055
142
3.0
142
3.0
171
1
172
0
173
0
174
0
175
1
176
1
 91
33
178
0
145
0.0
301
CELL_VALUE
 90
4
  1
Technical Data
304
ACVALUE_END
170
5
140
0.145
171
1
172
0
173
0
174
0
175
1
176
1
 91
33
178
0
145
0.0
301
CELL_VALUE
 90
4
  1
U.S. Units
304
ACVALUE_END
170
5
140
0.145
171
1
172
0
173
0
174
0
175
1
176
1
 91
33
178
0
145
0.0
301
CELL_VALUE
 90
4
  1
Metric Units
304
ACVALUE_END
170
5
140
0.145
171
1
172
0
173
0
174
0
175
1
176
1
 91
33
178
0
145
0.0
301
CELL_VALUE
 90
4
  1
Cavity
304
ACVALUE_END
170
5
140
0.125
171
1
172
0
173
0
174
0
175
2
176
1
 91
33
178
0
145
0.0
301
CELL_VALUE
 90
4
  1
T-11A
304
ACVALUE_END
170
5
140
0.125
171
1
172
0
173
1
174
0
175
1
176
1
 91
1
178
0
145
0.0
170
1
171
1
172
0
173
0
174
0
175
1
176
1
 91
33
178
0
145
0.0
301
CELL_VALUE
 90
4
  1
Body Features
304
ACVALUE_END
170
5
140
0.125
171
1
172
0
173
0
174
0
175
2
176
1
 91
33
178
0
145
0.0
301
CELL_VALUE
 90
4
  1
Ninety degree with reverse flow check - sequence
304
ACVALUE_END
170
5
140
0.125
171
1
172
0
173
1
174
0
175
1
176
1
 91
1
178
0
145
0.0
170
1
171
1
172
0
173
0
174
0
175
1
176
1
 91
33
178
0
145
0.0
301
CELL_VALUE
 90
4
  1
Body Type
304
ACVALUE_END
170
5
140
0.125
171
1
172
0
173
0
174
0
175
2
176
1
 91
33
178
0
145
0.0
301
CELL_VALUE
 90
4
  1
Line mount
304
ACVALUE_END
170
5
140
0.125
171
1
172
0
173
1
174
0
175
1
176
1
 91
1
178
0
145
0.0
170
1
171
1
172
0
173
0
174
0
175
1
176
1
 91
33
178
0
145
0.0
301
CELL_VALUE
 90
4
  1
Interface
304
ACVALUE_END
170
5
140
0.125
171
1
172
0
173
0
174
0
175
2
176
1
 91
33
178
0
145
0.0
301
CELL_VALUE
 90
4
  1
None
304
ACVALUE_END
170
5
140
0.125
171
1
172
0
173
1
174
0
175
1
176
1
 91
1
178
0
145
0.0
170
1
171
1
172
0
173
0
174
0
175
1
176
1
 91
33
178
0
145
0.0
301
CELL_VALUE
 90
4
  1
Open Cavity Quantity
304
ACVALUE_END
170
5
140
0.125
171
1
172
0
173
0
174
0
175
2
176
1
 91
33
178
0
145
0.0
301
CELL_VALUE
 90
4
  1
1
304
ACVALUE_END
170
5
140
0.125
171
1
172
0
173
1
174
0
175
1
176
1
 91
1
178
0
145
0.0
170
1
171
1
172
0
173
0
174
0
175
1
176
1
 91
33
178
0
145
0.0
301
CELL_VALUE
 90
4
  1
Weight
304
ACVALUE_END
170
5
140
0.125
171
1
172
0
173
0
174
0
175
1
176
1
 91
33
178
0
145
0.0
301
CELL_VALUE
 90
4
  1
1.294 lb.
304
ACVALUE_END
170
5
140
0.125
171
1
172
0
173
0
174
0
175
1
176
1
 91
33
178
0
145
0.0
301
CELL_VALUE
 90
4
  1
0,587 kg.
304
ACVALUE_END
170
5
140
0.125
171
1
172
0
173
0
174
0
175
1
176
1
 91
33
178
0
145
0.0
301
CELL_VALUE
 90
4
  1
Check Cracking Pressure
304
ACVALUE_END
170
5
140
0.125
171
1
172
0
173
0
174
0
175
1
176
1
 91
33
178
0
145
0.0
301
CELL_VALUE
 90
4
  1
30 psi
304
ACVALUE_END
170
5
140
0.125
171
1
172
0
173
0
174
0
175
1
176
1
 91
33
178
0
145
0.0
301
CELL_VALUE
 90
4
  1
2 bar
304
ACVALUE_END
170
5
140
0.125
171
1
172
0
173
0
174
0
175
1
176
1
 91
33
178
0
145
0.0
301
CELL_VALUE
 90
4
  1
Mounting Hole Diameter
304
ACVALUE_END
170
5
140
0.125
171
1
172
0
173
0
174
0
175
1
176
1
 91
33
178
0
145
0.0
301
CELL_VALUE
 90
4
  1
.34 in.
304
ACVALUE_END
170
5
140
0.125
171
1
172
0
173
0
174
0
175
1
176
1
 91
33
178
0
145
0.0
301
CELL_VALUE
 90
4
  1
8.6 mm
304
ACVALUE_END
170
5
140
0.125
171
1
172
0
173
0
174
0
175
1
176
1
 91
33
178
0
145
0.0
301
CELL_VALUE
 90
4
  1
Mounting Hole Depth
304
ACVALUE_END
170
5
140
0.125
171
1
172
0
173
0
174
0
175
2
176
1
 91
33
178
0
145
0.0
301
CELL_VALUE
 90
4
  1
Through
304
ACVALUE_END
170
5
140
0.125
171
1
172
0
173
1
174
0
175
1
176
1
 91
1
178
0
145
0.0
170
1
171
1
172
0
173
0
174
0
175
1
176
1
 91
33
178
0
145
0.0
301
CELL_VALUE
 90
4
  1
Mounting Hole Quantity
304
ACVALUE_END
170
5
140
0.125
171
1
172
0
173
0
174
0
175
2
176
1
 91
33
178
0
145
0.0
301
CELL_VALUE
 90
4
  1
2
304
ACVALUE_END
170
5
140
0.125
171
1
172
0
173
1
174
0
175
1
176
1
 91
1
178
0
145
0.0
170
1
  0
ACAD_TABLE
  5
297
100
AcDbEntity
  8
0
 62
2
  6
CONTINUOUS
100
AcDbBlockReference
  2
*T3
 10
0.52125
 20
1.959
 30
0.0
100
AcDbTable
342
       396
343
211
 11
1.0
 21
0.0
 31
0.0
 90
22
 91
5
 92
3
 93
16
 94
0
 95
0
 96
0
 41
0.05
141
0.34375
141
0.344
141
0.25
141
0.25
141
0.25
142
1.3
142
2.0
142
1.3
171
1
172
0
173
0
174
0
175
3
176
1
 91
33
178
0
145
0.0
301
CELL_VALUE
 90
4
  1
Port Headings
304
ACVALUE_END
170
5
140
0.145
171
1
172
0
173
1
174
0
175
1
176
1
 91
1
178
0
145
0.0
170
1
171
1
172
0
173
1
174
0
175
1
176
1
 91
1
178
0
145
0.0
170
1
171
1
172
0
173
0
174
0
175
1
176
1
 91
33
178
0
145
0.0
301
CELL_VALUE
 90
4
  1
Product
304
ACVALUE_END
170
5
140
0.145
171
1
172
0
173
0
174
0
175
1
176
1
 91
33
178
0
145
0.0
301
CELL_VALUE
 90
4
  1
Port
304
ACVALUE_END
170
5
140
0.145
171
1
172
0
173
0
174
0
175
1
176
1
 91
33
178
0
145
0.0
301
CELL_VALUE
 90
4
  1
Size
304
ACVALUE_END
170
5
140
0.145
171
1
172
0
173
0
174
0
175
1
176
1
 91
33
178
0
145
0.0
301
CELL_VALUE
 90
4
  1
E6A
304
ACVALUE_END
170
5
140
0.125
171
1
172
0
173
0
174
0
175
1
176
1
 91
33
178
0
145
0.0
301
CELL_VALUE
 90
4
  1
Ports 1 &  2
304
ACVALUE_END
170
5
140
0.125
171
1
172
0
173
0
174
0
175
1
176
1
 91
33
178
0
145
0.0
301
CELL_VALUE
 90
4
  1
1/4" NPTF
304
ACVALUE_END
170
5
140
0.125
171
1
172
0
173
0
174
0
175
1
176
1
 91
33
178
0
145
0.0
301
CELL_VALUE
 90
4
  1
E6A
304
ACVALUE_END
170
5
140
0.125
171
1
172
0
173
0
174
0
175
1
176
1
 91
33
178
0
145
0.0
301
CELL_VALUE
 90
4
  1
Port 3
304
ACVALUE_END
170
5
140
0.125
171
1
172
0
173
0
174
0
175
1
176
1
 91
33
178
0
145
0.0
301
CELL_VALUE
 90
4
  1
1/4" NPTF
304
ACVALUE_END
170
5
140
0.125
171
1
172
0
173
0
174
0
175
1
176
1
 91
33
178
0
145
0.0
301
CELL_VALUE
 90
4
  1
E6A
304
ACVALUE_END
170
5
140
0.125
171
1
172
0
173
0
174
0
175
1
176
1
 91
33
178
0
145
0.0
301
CELL_VALUE
 90
4
  1
Gage Port
304
ACVALUE_END
170
5
140
0.125
171
1
172
0
173
0
174
0
175
1
176
1
 91
33
178
0
145
0.0
301
CELL_VALUE
 90
4
  1
1/4" NPTF
304
ACVALUE_END
170
5
140
0.125
  0
MTEXT
  5
298
100
AcDbEntity
  8
0
100
AcDbMText
 62
2
  6
CONTINUOUS
  7
STANDARD
 71
1
 72
1
 10
0.52125
 20
5.75995
 30
0.0
 11
1.0
 21
0.0
 31
0.0
 44
0.6
  3
Notes\P \P1. Important: Carefully consider\P   the maximum system pressure. The\P   pressure rating of the manifold is\P   dependent on the manifold material,\P   with the port type/size a secondary\P   consideration. Manifolds\P   constructed of alu
  1
minum are not\P   rated for pressures higher than\P   3000 psi (210 bar), regardless of\P   the port type/size specified.
 40
0.1
 41
3.04
  0
LINE
  5
299
100
AcDbEntity
  8
0
100
AcDbLine
 62
7
  6
CONTINUOUS
 10
0.30125
 20
0.30125
 11
0.30125
 21
16.69875
  0
LINE
  5
29A
100
AcDbEntity
  8
0
100
AcDbLine
 62
7
  6
CONTINUOUS
 10
0.30125
 20
0.30125
 11
21.69875
 21
0.30125
  0
LINE
  5
29B
100
AcDbEntity
  8
0
100
AcDbLine
 62
7
  6
CONTINUOUS
 10
0.30125
 20
16.69875
 11
21.69875
 21
16.69875
  0
LINE
  5
29C
100
AcDbEntity
  8
0
100
AcDbLine
 62
7
  6
CONTINUOUS
 10
21.69875
 20
0.30125
 11
21.69875
 21
16.69875
  0
LINE
  5
29D
100
AcDbEntity
  8
0
100
AcDbLine
 62
7
  6
CONTINUOUS
 10
9.7128729444
 20
10.7425653472
 11
9.389349405
 21
10.4300655866
  0
LINE
  5
29E
100
AcDbEntity
  8
0
100
AcDbLine
 62
4
  6
CONTINUOUS
 10
9.6288989878
 20
9.9565698568
 11
9.6216545439
 21
9.9474130043
  0
LINE
  5
29F
100
AcDbEntity
  8
0
100
AcDbLine
 62
4
  6
CONTINUOUS
 10
9.6361434318
 20
9.8981119012
 11
9.6216545439
 21
9.879798192
  0
LINE
  5
2A0
100
AcDbEntity
  8
0
100
AcDbLine
 62
4
  6
CONTINUOUS
 10
9.5781878801
 20
9.9794052036
 11
9.592676768
 21
9.9880596521
  0
LINE
  5
2A1
100
AcDbEntity
  8
0
100
AcDbLine
 62
4
  6
CONTINUOUS
 10
9.6216545439
 20
9.9474130043
 11
9.6071656559
 21
9.9387585489
  0
LINE
  5
2A2
100
AcDbEntity
  8
0
100
AcDbLine
 62
4
  6
CONTINUOUS
 10
9.6216545439
 20
9.879798192
 11
9.6071656559
 21
9.8711437409
  0
LINE
  5
2A3
100
AcDbEntity
  8
0
100
AcDbLine
 62
7
  6
CONTINUOUS
 10
11.2064931483
 20
6.3251394322
 11
11.2228173394
 21
6.3170755943
  0
LINE
  5
2A4
100
AcDbEntity
  8
0
100
AcDbLine
 62
7
  6
CONTINUOUS
 10
9.389349405
 20
6.9285842588
 11
12.2871270556
 21
6.7276226962
  0
LINE
  5
2A5
100
AcDbEntity
  8
0
100
AcDbLine
 62
7
  6
CONTINUOUS
 10
9.389349405
 20
6.9285842588
 11
9.389349405
 21
10.4300655866
  0
LINE
  5
2A6
100
AcDbEntity
  8
0
100
AcDbLine
 62
4
  6
CONTINUOUS
 10
9.6288989878
 20
9.9662291131
 11
9.6288989878
 21
9.9565698568
  0
LINE
  5
2A7
100
AcDbEntity
  8
0
100
AcDbLine
 62
4
  6
CONTINUOUS
 10
9.6288989878
 20
7.9184661981
 11
9.6288989878
 21
7.8025550947
  0
LINE
  5
2A8
100
AcDbEntity
  8
0
100
AcDbLine
 62
4
  6
CONTINUOUS
 10
9.6361434318
 20
9.9077711609
 11
9.6361434318
 21
9.8981119012
  0
LINE
  5
2A9
100
AcDbEntity
  8
0
100
AcDbLine
 62
4
  6
CONTINUOUS
 10
11.1748634168
 20
7.3785183989
 11
11.1603745288
 21
7.3795232067
  0
LINE
  5
2AA
100
AcDbEntity
  8
0
100
AcDbLine
 62
4
  6
CONTINUOUS
 10
10.2959398651
 20
9.2253310331
 11
10.3124985949
 21
9.2407414094
  0
LINE
  5
2AB
100
AcDbEntity
  8
0
100
AcDbLine
 62
4
  6
CONTINUOUS
 10
10.3373366887
 20
9.1231077783
 11
10.3538954168
 21
9.1385181564
  0
LINE
  5
2AC
100
AcDbEntity
  8
0
100
AcDbLine
 62
4
  6
CONTINUOUS
 10
11.1676189728
 20
7.4369763545
 11
11.1965967487
 21
7.4349667389
  0
LINE
  5
2AD
100
AcDbEntity
  8
0
100
AcDbLine
 62
4
  6
CONTINUOUS
 10
11.1603745288
 20
7.4954343101
 11
11.1748634168
 21
7.4944295023
  0
LINE
  5
2AE
100
AcDbEntity
  8
0
100
AcDbLine
 62
4
  6
CONTINUOUS
 10
10.4284097035
 20
9.1167918432
 11
10.4449684247
 21
9.1322022218
  0
LINE
  5
2AF
100
AcDbEntity
  8
0
100
AcDbLine
 62
4
  6
CONTINUOUS
 10
11.1603745288
 20
7.3795232067
 11
11.1458856409
 21
7.3901872734
  0
LINE
  5
2B0
100
AcDbEntity
  8
0
100
AcDbLine
 62
4
  6
CONTINUOUS
 10
10.2959398651
 20
9.208772305
 11
10.2959398651
 21
9.2253310331
  0
LINE
  5
2B1
100
AcDbEntity
  8
0
100
AcDbLine
 62
4
  6
CONTINUOUS
 10
10.3538954168
 20
9.1385181564
 11
10.3538954168
 21
9.1550768862
  0
LINE
  5
2B2
100
AcDbEntity
  8
0
100
AcDbLine
 62
4
  6
CONTINUOUS
 10
10.387012873
 20
9.2355738266
 11
10.387012873
 21
9.136221453
  0
LINE
  5
2B3
100
AcDbEntity
  8
0
100
AcDbLine
 62
4
  6
CONTINUOUS
 10
10.4228901335
 20
8.5260279992
 11
10.4228901335
 21
8.6419391027
  0
LINE
  5
2B4
100
AcDbEntity
  8
0
100
AcDbLine
 62
4
  6
CONTINUOUS
 10
10.4449684247
 20
9.1322022218
 11
10.4449684247
 21
9.2315545955
  0
LINE
  5
2B5
100
AcDbEntity
  8
0
100
AcDbLine
 62
4
  6
CONTINUOUS
 10
10.8147800529
 20
9.1645112483
 11
10.8313387741
 21
9.1716422646
  0
LINE
  5
2B6
100
AcDbEntity
  8
0
100
AcDbLine
 62
4
  6
CONTINUOUS
 10
10.9720879869
 20
9.1122050858
 11
10.988646708
 21
9.1193360987
  0
LINE
  5
2B7
100
AcDbEntity
  8
0
100
AcDbLine
 62
4
  6
CONTINUOUS
 10
11.1748634168
 20
7.4944295023
 11
11.1893523047
 21
7.4837654382
  0
LINE
  5
2B8
100
AcDbEntity
  8
0
100
AcDbLine
 62
4
  6
CONTINUOUS
 10
10.4780858808
 20
9.1133467886
 11
10.4780858808
 21
9.2292578921
  0
LINE
  5
2B9
100
AcDbEntity
  8
0
100
AcDbLine
 62
4
  6
CONTINUOUS
 10
10.4808456783
 20
8.6213611439
 11
10.4808456783
 21
8.5385674983
  0
LINE
  5
2BA
100
AcDbEntity
  8
0
100
AcDbLine
 62
4
  6
CONTINUOUS
 10
10.5360414326
 20
9.1093275575
 11
10.5360414326
 21
9.2252386609
  0
LINE
  5
2BB
100
AcDbEntity
  8
0
100
AcDbLine
 62
4
  6
CONTINUOUS
 10
10.5277620779
 20
8.5187551052
 11
10.5608795341
 21
8.6323695052
  0
LINE
  5
2BC
100
AcDbEntity
  8
0
100
AcDbLine
 62
4
  6
CONTINUOUS
 10
10.7595842788
 20
9.0662269266
 11
10.7927017212
 21
9.1743217533
  0
LINE
  5
2BD
100
AcDbEntity
  8
0
100
AcDbLine
 62
7
  6
CONTINUOUS
 10
12.2871270556
 20
10.229104024
 11
12.610650595
 21
10.5416037846
  0
LINE
  5
2BE
100
AcDbEntity
  8
0
100
AcDbLine
 62
4
  6
CONTINUOUS
 10
10.4808456783
 20
8.5385674983
 11
10.4642869502
 21
8.5231571202
  0
LINE
  5
2BF
100
AcDbEntity
  8
0
100
AcDbLine
 62
4
  6
CONTINUOUS
 10
10.8423779217
 20
8.8678519533
 11
10.8175398331
 21
8.844736385
  0
LINE
  5
2C0
100
AcDbEntity
  8
0
100
AcDbLine
 62
4
  6
CONTINUOUS
 10
11.1458856409
 20
7.3901872734
 11
11.131396753
 21
7.4105105981
  0
LINE
  5
2C1
100
AcDbEntity
  8
0
100
AcDbLine
 62
4
  6
CONTINUOUS
 10
11.1893523047
 20
7.4837654382
 11
11.1965967487
 21
7.4736037711
  0
LINE
  5
2C2
100
AcDbEntity
  8
0
100
AcDbLine
 62
4
  6
CONTINUOUS
 10
9.5781878801
 20
9.8828126154
 11
9.5709434361
 21
9.8929742782
  0
LINE
  5
2C3
100
AcDbEntity
  8
0
100
AcDbLine
 62
4
  6
CONTINUOUS
 10
10.5608795341
 20
8.6323695052
 11
10.593997004
 21
8.5141616974
  0
LINE
  5
2C4
100
AcDbEntity
  8
0
100
AcDbLine
 62
4
  6
CONTINUOUS
 10
10.6602318966
 20
9.1007149196
 11
10.6602318966
 21
9.216626023
  0
LINE
  5
2C5
100
AcDbEntity
  8
0
100
AcDbLine
 62
4
  6
CONTINUOUS
 10
10.6602319163
 20
8.5095682907
 11
10.6602319163
 21
8.6254793941
  0
LINE
  5
2C6
100
AcDbEntity
  8
0
100
AcDbLine
 62
4
  6
CONTINUOUS
 10
10.7099080877
 20
9.1717841438
 11
10.7099080877
 21
9.097269864
  0
LINE
  5
2C7
100
AcDbEntity
  8
0
100
AcDbLine
 62
4
  6
CONTINUOUS
 10
10.7181874577
 20
8.7605534878
 11
10.7181874577
 21
8.8764645912
  0
LINE
  5
2C8
100
AcDbEntity
  8
0
100
AcDbLine
 62
4
  6
CONTINUOUS
 10
10.7264668286
 20
8.5049748839
 11
10.7264668286
 21
8.6208859873
  0
LINE
  5
2C9
100
AcDbEntity
  8
0
100
AcDbLine
 62
4
  6
CONTINUOUS
 10
10.800981105
 20
8.8127672806
 11
10.800981105
 21
8.7713704586
  0
LINE
  5
2CA
100
AcDbEntity
  8
0
100
AcDbLine
 62
4
  6
CONTINUOUS
 10
10.8147800529
 20
9.0982763334
 11
10.8147800529
 21
9.1645112483
  0
LINE
  5
2CB
100
AcDbEntity
  8
0
100
AcDbLine
 62
4
  6
CONTINUOUS
 10
10.8920541129
 20
8.7484957943
 11
10.925171569
 21
8.8621101943
  0
LINE
  5
2CC
100
AcDbEntity
  8
0
100
AcDbLine
 62
4
  6
CONTINUOUS
 10
10.8175398331
 20
8.844736385
 11
10.800981105
 21
8.8127672806
  0
LINE
  5
2CD
100
AcDbEntity
  8
0
100
AcDbLine
 62
4
  6
CONTINUOUS
 10
10.8423779217
 20
8.7519408499
 11
10.8589366567
 21
8.7673512275
  0
LINE
  5
2CE
100
AcDbEntity
  8
0
100
AcDbLine
 62
4
  6
CONTINUOUS
 10
11.2563461349
 20
9.1338885365
 11
11.2646254678
 21
9.1415937303
  0
LINE
  5
2CF
100
AcDbEntity
  8
0
100
AcDbLine
 62
4
  6
CONTINUOUS
 10
11.330860463
 20
9.1287209503
 11
11.339139796
 21
9.1364261441
  0
LINE
  5
2D0
100
AcDbEntity
  8
0
100
AcDbLine
 62
4
  6
CONTINUOUS
 10
10.4008118259
 20
8.5993136303
 11
10.3566552143
 21
8.5802975942
  0
LINE
  5
2D1
100
AcDbEntity
  8
0
100
AcDbLine
 62
4
  6
CONTINUOUS
 10
10.3566552143
 20
8.5802975942
 11
10.4008118259
 21
8.5551570169
  0
LINE
  5
2D2
100
AcDbEntity
  8
0
100
AcDbLine
 62
4
  6
CONTINUOUS
 10
10.4642869502
 20
8.6390682237
 11
10.4808456783
 21
8.6213611439
  0
LINE
  5
2D3
100
AcDbEntity
  8
0
100
AcDbLine
 62
4
  6
CONTINUOUS
 10
9.6216545439
 20
9.9280944848
 11
9.6361434318
 21
9.9077711609
  0
LINE
  5
2D4
100
AcDbEntity
  8
0
100
AcDbLine
 62
4
  6
CONTINUOUS
 10
9.6216545439
 20
9.9763907802
 11
9.6288989878
 21
9.9662291131
  0
LINE
  5
2D5
100
AcDbEntity
  8
0
100
AcDbLine
 62
4
  6
CONTINUOUS
 10
10.8589366567
 20
8.7673512275
 11
10.8589366567
 21
8.8004686854
  0
LINE
  5
2D6
100
AcDbEntity
  8
0
100
AcDbLine
 62
4
  6
CONTINUOUS
 10
10.8644562164
 20
9.2024630183
 11
10.8644562164
 21
9.0865519149
  0
LINE
  5
2D7
100
AcDbEntity
  8
0
100
AcDbLine
 62
4
  6
CONTINUOUS
 10
10.897573714
 20
9.0842552086
 11
10.897573714
 21
9.1670488559
  0
LINE
  5
2D8
100
AcDbEntity
  8
0
100
AcDbLine
 62
4
  6
CONTINUOUS
 10
10.9003335114
 20
8.5094759183
 11
10.9003335114
 21
8.5922695639
  0
LINE
  5
2D9
100
AcDbEntity
  8
0
100
AcDbLine
 62
4
  6
CONTINUOUS
 10
10.9362107116
 20
9.1560900035
 11
10.9362107116
 21
9.1395312754
  0
LINE
  5
2DA
100
AcDbEntity
  8
0
100
AcDbLine
 62
4
  6
CONTINUOUS
 10
10.9720879869
 20
9.0873669911
 11
10.9720879869
 21
9.1122050858
  0
LINE
  5
2DB
100
AcDbEntity
  8
0
100
AcDbLine
 62
4
  6
CONTINUOUS
 10
10.9969260608
 20
8.5027772023
 11
10.9969260608
 21
8.5855708478
  0
LINE
  5
2DC
100
AcDbEntity
  8
0
100
AcDbLine
 62
4
  6
CONTINUOUS
 10
11.0217641504
 20
9.0756425726
 11
11.0217641504
 21
9.1418774918
  0
LINE
  5
2DD
100
AcDbEntity
  8
0
100
AcDbLine
 62
4
  6
CONTINUOUS
 10
11.2149493043
 20
9.1781562401
 11
11.2121895267
 21
9.1700682638
  0
LINE
  5
2DE
100
AcDbEntity
  8
0
100
AcDbLine
 62
4
  6
CONTINUOUS
 10
11.3722572383
 20
9.0513357944
 11
11.3805365713
 21
9.0590409856
  0
LINE
  5
2DF
100
AcDbEntity
  8
0
100
AcDbLine
 62
4
  6
CONTINUOUS
 10
10.9003335114
 20
8.5922695639
 11
10.9168922326
 21
8.6076799407
  0
LINE
  5
2E0
100
AcDbEntity
  8
0
100
AcDbLine
 62
4
  6
CONTINUOUS
 10
10.9969260608
 20
8.5855708478
 11
11.0134847819
 21
8.6009812247
  0
LINE
  5
2E1
100
AcDbEntity
  8
0
100
AcDbLine
 62
4
  6
CONTINUOUS
 10
11.1293958854
 20
8.4770316589
 11
11.0879990548
 21
8.4799025389
  0
LINE
  5
2E2
100
AcDbEntity
  8
0
100
AcDbLine
 62
4
  6
CONTINUOUS
 10
11.0383228913
 20
8.4833475925
 11
11.0134847819
 21
8.4850701212
  0
LINE
  5
2E3
100
AcDbEntity
  8
0
100
AcDbLine
 62
4
  6
CONTINUOUS
 10
10.9500096749
 20
8.4894721349
 11
10.9168922326
 21
8.4917688373
  0
LINE
  5
2E4
100
AcDbEntity
  8
0
100
AcDbLine
 62
4
  6
CONTINUOUS
 10
10.4642869502
 20
8.5231571202
 11
10.4228901335
 21
8.5260279992
  0
LINE
  5
2E5
100
AcDbEntity
  8
0
100
AcDbLine
 62
4
  6
CONTINUOUS
 10
10.7264668286
 20
8.5049748839
 11
10.7761430198
 21
8.5015298284
  0
LINE
  5
2E6
100
AcDbEntity
  8
0
100
AcDbLine
 62
4
  6
CONTINUOUS
 10
11.1928710477
 20
8.4726296415
 11
11.2425472112
 21
8.4691845878
  0
LINE
  5
2E7
100
AcDbEntity
  8
0
100
AcDbLine
 62
4
  6
CONTINUOUS
 10
10.53880123
 20
8.551106997
 11
10.5829578382
 21
8.5480447258
  0
LINE
  5
2E8
100
AcDbEntity
  8
0
100
AcDbLine
 62
4
  6
CONTINUOUS
 10
10.2959398651
 20
9.1342580226
 11
10.30421923
 21
9.1254044818
  0
LINE
  5
2E9
100
AcDbEntity
  8
0
100
AcDbLine
 62
4
  6
CONTINUOUS
 10
10.9168922326
 20
8.4917688373
 11
10.9003335114
 21
8.5094759183
  0
LINE
  5
2EA
100
AcDbEntity
  8
0
100
AcDbLine
 62
4
  6
CONTINUOUS
 10
10.387012873
 20
9.136221453
 11
10.403571601
 21
9.1185143715
  0
LINE
  5
2EB
100
AcDbEntity
  8
0
100
AcDbLine
 62
4
  6
CONTINUOUS
 10
11.0134847819
 20
8.4850701212
 11
10.9969260608
 21
8.5027772023
  0
LINE
  5
2EC
100
AcDbEntity
  8
0
100
AcDbLine
 62
4
  6
CONTINUOUS
 10
10.4780858808
 20
9.2292578921
 11
10.5360414326
 21
9.1093275575
  0
LINE
  5
2ED
100
AcDbEntity
  8
0
100
AcDbLine
 62
4
  6
CONTINUOUS
 10
10.7430255577
 20
9.1777668069
 11
10.7678636671
 21
9.0932506309
  0
LINE
  5
2EE
100
AcDbEntity
  8
0
100
AcDbLine
 62
4
  6
CONTINUOUS
 10
11.131396753
 20
7.4105105981
 11
11.124152309
 21
7.4399907778
  0
LINE
  5
2EF
100
AcDbEntity
  8
0
100
AcDbLine
 62
4
  6
CONTINUOUS
 10
11.0548815927
 20
9.1561395174
 11
11.0548815927
 21
9.0816252351
  0
LINE
  5
2F0
100
AcDbEntity
  8
0
100
AcDbLine
 62
4
  6
CONTINUOUS
 10
11.0548816125
 20
8.5815516167
 11
11.0548816125
 21
8.4987579711
  0
LINE
  5
2F1
100
AcDbEntity
  8
0
100
AcDbLine
 62
4
  6
CONTINUOUS
 10
11.0879990548
 20
8.4799025389
 11
11.0879990548
 21
8.5958136423
  0
LINE
  5
2F2
100
AcDbEntity
  8
0
100
AcDbLine
 62
4
  6
CONTINUOUS
 10
11.1045578115
 20
9.0699008127
 11
11.1045578115
 21
9.15269446
  0
LINE
  5
2F3
100
AcDbEntity
  8
0
100
AcDbLine
 62
7
  6
CONTINUOUS
 10
11.1245682596
 20
6.8082464225
 11
11.1245682596
 21
6.4269225383
  0
LINE
  5
2F4
100
AcDbEntity
  8
0
100
AcDbLine
 62
4
  6
CONTINUOUS
 10
11.1376752538
 20
9.0758834752
 11
11.1376752538
 21
9.1835152137
  0
LINE
  5
2F5
100
AcDbEntity
  8
0
100
AcDbLine
 62
4
  6
CONTINUOUS
 10
11.1459546065
 20
8.5752356831
 11
11.1459546065
 21
8.4924420375
  0
LINE
  5
2F6
100
AcDbEntity
  8
0
100
AcDbLine
 62
4
  6
CONTINUOUS
 10
11.1928710477
 20
8.4726296415
 11
11.1928710477
 21
8.5885407449
  0
LINE
  5
2F7
100
AcDbEntity
  8
0
100
AcDbLine
 62
4
  6
CONTINUOUS
 10
11.1965967487
 20
7.4349667389
 11
11.1965967487
 21
7.396329705
  0
LINE
  5
2F8
100
AcDbEntity
  8
0
100
AcDbLine
 62
4
  6
CONTINUOUS
 10
11.0548816125
 20
8.4987579711
 11
11.0383228913
 21
8.4833475925
  0
LINE
  5
2F9
100
AcDbEntity
  8
0
100
AcDbLine
 62
4
  6
CONTINUOUS
 10
11.1459546065
 20
8.4924420375
 11
11.1293958854
 21
8.4770316589
  0
LINE
  5
2FA
100
AcDbEntity
  8
0
100
AcDbLine
 62
4
  6
CONTINUOUS
 10
11.3198212617
 20
8.5135018019
 11
11.2756646535
 21
8.4944857672
  0
LINE
  5
2FB
100
AcDbEntity
  8
0
100
AcDbLine
 62
4
  6
CONTINUOUS
 10
11.22598849
 20
8.5365678582
 11
11.1928710477
 21
8.5388645607
  0
LINE
  5
2FC
100
AcDbEntity
  8
0
100
AcDbLine
 62
4
  6
CONTINUOUS
 10
10.7595842986
 20
8.5689130988
 11
10.7264668286
 21
8.5712098031
  0
LINE
  5
2FD
100
AcDbEntity
  8
0
100
AcDbLine
 62
4
  6
CONTINUOUS
 10
10.4228901335
 20
8.6419391027
 11
10.4642869502
 21
8.6390682237
  0
LINE
  5
2FE
100
AcDbEntity
  8
0
100
AcDbLine
 62
4
  6
CONTINUOUS
 10
10.6271144464
 20
8.6277760985
 11
10.6933493587
 21
8.6231826917
  0
LINE
  5
2FF
100
AcDbEntity
  8
0
100
AcDbLine
 62
4
  6
CONTINUOUS
 10
10.7264668286
 20
8.6208859873
 11
10.7761430198
 21
8.6174409318
  0
LINE
  5
300
100
AcDbEntity
  8
0
100
AcDbLine
 62
4
  6
CONTINUOUS
 10
10.9168922326
 20
8.6076799407
 11
10.9500096749
 21
8.6053832383
  0
LINE
  5
301
100
AcDbEntity
  8
0
100
AcDbLine
 62
4
  6
CONTINUOUS
 10
11.0134847819
 20
8.6009812247
 11
11.0383228913
 21
8.5992586959
  0
LINE
  5
302
100
AcDbEntity
  8
0
100
AcDbLine
 62
4
  6
CONTINUOUS
 10
11.0879990548
 20
8.5958136423
 11
11.1293958854
 21
8.5929427623
  0
LINE
  5
303
100
AcDbEntity
  8
0
100
AcDbLine
 62
4
  6
CONTINUOUS
 10
11.1928710477
 20
8.5885407449
 11
11.2425472112
 21
8.5850956913
  0
LINE
  5
304
100
AcDbEntity
  8
0
100
AcDbLine
 62
4
  6
CONTINUOUS
 10
11.2756646535
 20
8.5386423806
 11
11.3198212617
 21
8.5135018019
  0
LINE
  5
305
100
AcDbEntity
  8
0
100
AcDbLine
 62
4
  6
CONTINUOUS
 10
10.3538954168
 20
9.1550768862
 11
10.2959398651
 21
9.208772305
  0
LINE
  5
306
100
AcDbEntity
  8
0
100
AcDbLine
 62
4
  6
CONTINUOUS
 10
10.3456160528
 20
9.2384447059
 11
10.3538954168
 21
9.2295911625
  0
LINE
  5
307
100
AcDbEntity
  8
0
100
AcDbLine
 62
4
  6
CONTINUOUS
 10
10.800981105
 20
8.7713704586
 11
10.8175398331
 21
8.7536633772
  0
LINE
  5
308
100
AcDbEntity
  8
0
100
AcDbLine
 62
4
  6
CONTINUOUS
 10
11.0383228913
 20
8.5992586959
 11
11.0548816125
 21
8.5815516167
  0
LINE
  5
309
100
AcDbEntity
  8
0
100
AcDbLine
 62
4
  6
CONTINUOUS
 10
10.8589366567
 20
8.8004686854
 11
10.8423779217
 21
8.8181757691
  0
LINE
  5
30A
100
AcDbEntity
  8
0
100
AcDbLine
 62
4
  6
CONTINUOUS
 10
11.1293958854
 20
8.5929427623
 11
11.1459546065
 21
8.5752356831
  0
LINE
  5
30B
100
AcDbEntity
  8
0
100
AcDbLine
 62
4
  6
CONTINUOUS
 10
10.925171569
 20
8.8621101943
 11
10.9582890252
 21
8.7439023875
  0
LINE
  5
30C
100
AcDbEntity
  8
0
100
AcDbLine
 62
4
  6
CONTINUOUS
 10
11.2121895267
 20
9.0624365279
 11
11.2121895267
 21
9.1452301752
  0
LINE
  5
30D
100
AcDbEntity
  8
0
100
AcDbLine
 62
4
  6
CONTINUOUS
 10
11.2121895267
 20
9.1700682638
 11
11.2121895267
 21
9.1783476313
  0
LINE
  5
30E
100
AcDbEntity
  8
0
100
AcDbLine
 62
7
  6
CONTINUOUS
 10
11.2376230716
 20
6.7383193882
 11
11.2376230716
 21
6.3177201624
  0
LINE
  5
30F
100
AcDbEntity
  8
0
100
AcDbLine
 62
4
  6
CONTINUOUS
 10
11.2563461349
 20
9.0676536216
 11
11.2563461349
 21
9.1338885365
  0
LINE
  5
310
100
AcDbEntity
  8
0
100
AcDbLine
 62
7
  6
CONTINUOUS
 10
11.2795032991
 20
6.7274800014
 11
11.2795032991
 21
6.3068807757
  0
LINE
  5
311
100
AcDbEntity
  8
0
100
AcDbLine
 62
4
  6
CONTINUOUS
 10
11.330860463
 20
9.1038828582
 11
11.330860463
 21
9.1287209503
  0
LINE
  5
312
100
AcDbEntity
  8
0
100
AcDbLine
 62
4
  6
CONTINUOUS
 10
11.3805365713
 20
9.0590409856
 11
11.3805365713
 21
9.0838790803
  0
LINE
  5
313
100
AcDbEntity
  8
0
100
AcDbLine
 62
4
  6
CONTINUOUS
 10
11.124152309
 20
7.4399907778
 11
11.131396753
 21
7.4684661498
  0
LINE
  5
314
100
AcDbEntity
  8
0
100
AcDbLine
 62
4
  6
CONTINUOUS
 10
12.1127774397
 20
8.8676485418
 11
12.1272663276
 21
8.8763029904
  0
LINE
  5
315
100
AcDbEntity
  8
0
100
AcDbLine
 62
4
  6
CONTINUOUS
 10
12.1562441035
 20
8.8259970794
 11
12.1272663276
 21
8.8086881789
  0
LINE
  5
316
100
AcDbEntity
  8
0
100
AcDbLine
 62
4
  6
CONTINUOUS
 10
10.7181874577
 20
8.7605534878
 11
10.7678636454
 21
8.7571084325
  0
LINE
  5
317
100
AcDbEntity
  8
0
100
AcDbLine
 62
4
  6
CONTINUOUS
 10
10.8175398331
 20
8.7536633772
 11
10.8423779217
 21
8.7519408499
  0
LINE
  5
318
100
AcDbEntity
  8
0
100
AcDbLine
 62
4
  6
CONTINUOUS
 10
10.9030932649
 20
8.7808476861
 11
10.9472498731
 21
8.7777854149
  0
LINE
  5
319
100
AcDbEntity
  8
0
100
AcDbLine
 62
4
  6
CONTINUOUS
 10
10.8423779217
 20
8.8181757691
 11
10.806500681
 21
8.8206638642
  0
LINE
  5
31A
100
AcDbEntity
  8
0
100
AcDbLine
 62
4
  6
CONTINUOUS
 10
10.7513049173
 20
8.8244917034
 11
10.7181874577
 21
8.826788407
  0
LINE
  5
31B
100
AcDbEntity
  8
0
100
AcDbLine
 62
4
  6
CONTINUOUS
 10
12.1055329957
 20
8.7618990986
 11
12.1634885474
 21
8.7578798674
  0
LINE
  5
31C
100
AcDbEntity
  8
0
100
AcDbLine
 62
4
  6
CONTINUOUS
 10
10.7181874577
 20
8.8764645912
 11
10.7678636454
 21
8.8730195359
  0
LINE
  5
31D
100
AcDbEntity
  8
0
100
AcDbLine
 62
4
  6
CONTINUOUS
 10
9.592676768
 20
9.8721485487
 11
9.5781878801
 21
9.8828126154
  0
LINE
  5
31E
100
AcDbEntity
  8
0
100
AcDbLine
 62
4
  6
CONTINUOUS
 10
9.6071656559
 20
9.9387585489
 11
9.6216545439
 21
9.9280944848
  0
LINE
  5
31F
100
AcDbEntity
  8
0
100
AcDbLine
 62
4
  6
CONTINUOUS
 10
9.6071656559
 20
9.9870548443
 11
9.6216545439
 21
9.9763907802
  0
LINE
  5
320
100
AcDbEntity
  8
0
100
AcDbLine
 62
4
  6
CONTINUOUS
 10
10.7016287271
 20
9.1806376869
 11
10.7099080877
 21
9.1717841438
  0
LINE
  5
321
100
AcDbEntity
  8
0
100
AcDbLine
 62
4
  6
CONTINUOUS
 10
10.9306911563
 20
9.1647521535
 11
10.9362107116
 21
9.1560900035
  0
LINE
  5
322
100
AcDbEntity
  8
0
100
AcDbLine
 62
4
  6
CONTINUOUS
 10
11.0217641504
 20
9.1418774918
 11
11.0134848174
 21
9.1590103936
  0
LINE
  5
323
100
AcDbEntity
  8
0
100
AcDbLine
 62
7
  6
CONTINUOUS
 10
12.4488888253
 20
9.1460710307
 11
12.4495735992
 21
9.1467202984
  0
LINE
  5
324
100
AcDbEntity
  8
0
100
AcDbLine
 62
4
  6
CONTINUOUS
 10
12.1272663276
 20
8.8763029904
 11
12.1417552155
 21
8.8752981826
  0
LINE
  5
325
100
AcDbEntity
  8
0
100
AcDbLine
 62
4
  6
CONTINUOUS
 10
10.7430255577
 20
9.0673752778
 11
10.7595842788
 21
9.0662269266
  0
LINE
  5
326
100
AcDbEntity
  8
0
100
AcDbLine
 62
4
  6
CONTINUOUS
 10
11.2977430207
 20
9.0565033729
 11
11.2646254678
 21
9.058800083
  0
LINE
  5
327
100
AcDbEntity
  8
0
100
AcDbLine
 62
4
  6
CONTINUOUS
 10
11.1625133632
 20
9.0658815815
 11
11.145954642
 21
9.0670299327
  0
LINE
  5
328
100
AcDbEntity
  8
0
100
AcDbLine
 62
4
  6
CONTINUOUS
 10
11.0217641504
 20
9.0756425726
 11
10.988646708
 21
9.077939275
  0
LINE
  5
329
100
AcDbEntity
  8
0
100
AcDbLine
 62
4
  6
CONTINUOUS
 10
10.8644562164
 20
9.0865519149
 11
10.8313387741
 21
9.0888486173
  0
LINE
  5
32A
100
AcDbEntity
  8
0
100
AcDbLine
 62
4
  6
CONTINUOUS
 10
10.30421923
 20
9.1254044818
 11
10.3373366887
 21
9.1231077783
  0
LINE
  5
32B
100
AcDbEntity
  8
0
100
AcDbLine
 62
4
  6
CONTINUOUS
 10
10.403571601
 20
9.1185143715
 11
10.4284097035
 21
9.1167918432
  0
LINE
  5
32C
100
AcDbEntity
  8
0
100
AcDbLine
 62
4
  6
CONTINUOUS
 10
11.0631609809
 20
9.0727716926
 11
11.1045578115
 21
9.0699008127
  0
LINE
  5
32D
100
AcDbEntity
  8
0
100
AcDbLine
 62
4
  6
CONTINUOUS
 10
11.339139796
 20
9.0536324968
 11
11.3722572383
 21
9.0513357944
  0
LINE
  5
32E
100
AcDbEntity
  8
0
100
AcDbLine
 62
4
  6
CONTINUOUS
 10
10.8313387741
 20
9.0888486173
 11
10.8147800529
 21
9.0982763334
  0
LINE
  5
32F
100
AcDbEntity
  8
0
100
AcDbLine
 62
4
  6
CONTINUOUS
 10
10.988646708
 20
9.077939275
 11
10.9720879869
 21
9.0873669911
  0
LINE
  5
330
100
AcDbEntity
  8
0
100
AcDbLine
 62
4
  6
CONTINUOUS
 10
11.0548815927
 20
9.0816252351
 11
11.0631609809
 21
9.0727716926
  0
LINE
  5
331
100
AcDbEntity
  8
0
100
AcDbLine
 62
4
  6
CONTINUOUS
 10
11.145954642
 20
9.0670299327
 11
11.1376752538
 21
9.0758834752
  0
LINE
  5
332
100
AcDbEntity
  8
0
100
AcDbLine
 62
4
  6
CONTINUOUS
 10
11.2646254678
 20
9.058800083
 11
11.2563461349
 21
9.0676536216
  0
LINE
  5
333
100
AcDbEntity
  8
0
100
AcDbLine
 62
7
  6
CONTINUOUS
 10
11.701429278
 20
6.6982193354
 11
11.701429278
 21
6.2776201096
  0
LINE
  5
334
100
AcDbEntity
  8
0
100
AcDbLine
 62
7
  6
CONTINUOUS
 10
11.7586387166
 20
6.7021868305
 11
11.7586387166
 21
6.2815876047
  0
LINE
  5
335
100
AcDbEntity
  8
0
100
AcDbLine
 62
4
  6
CONTINUOUS
 10
12.1055329957
 20
8.8584916825
 11
12.1127774397
 21
8.8676485418
  0
LINE
  5
336
100
AcDbEntity
  8
0
100
AcDbLine
 62
4
  6
CONTINUOUS
 10
12.1272663276
 20
8.8086881789
 11
12.1127774397
 21
8.7903744706
  0
LINE
  5
337
100
AcDbEntity
  8
0
100
AcDbLine
 62
4
  6
CONTINUOUS
 10
12.1634885474
 20
8.8351539387
 11
12.1562441035
 21
8.8259970794
  0
LINE
  5
338
100
AcDbEntity
  8
0
100
AcDbLine
 62
4
  6
CONTINUOUS
 10
11.131396753
 20
7.4684661498
 11
11.1458856409
 21
7.4867798616
  0
LINE
  5
339
100
AcDbEntity
  8
0
100
AcDbLine
 62
4
  6
CONTINUOUS
 10
10.988646708
 20
9.1193360987
 11
11.0217641504
 21
9.1170393962
  0
LINE
  5
33A
100
AcDbEntity
  8
0
100
AcDbLine
 62
4
  6
CONTINUOUS
 10
11.0134848174
 20
9.1590103936
 11
10.9720879869
 21
9.1618812735
  0
LINE
  5
33B
100
AcDbEntity
  8
0
100
AcDbLine
 62
4
  6
CONTINUOUS
 10
10.6602318966
 20
9.1835085668
 11
10.7016287271
 21
9.1806376869
  0
LINE
  5
33C
100
AcDbEntity
  8
0
100
AcDbLine
 62
4
  6
CONTINUOUS
 10
10.8313387741
 20
9.1716422646
 11
10.8644562164
 21
9.1693455622
  0
LINE
  5
33D
100
AcDbEntity
  8
0
100
AcDbLine
 62
4
  6
CONTINUOUS
 10
10.897573714
 20
9.1670488559
 11
10.9306911563
 21
9.1647521535
  0
LINE
  5
33E
100
AcDbEntity
  8
0
100
AcDbLine
 62
4
  6
CONTINUOUS
 10
11.2646254678
 20
9.1415937303
 11
11.2977430207
 21
9.1392970202
  0
LINE
  5
33F
100
AcDbEntity
  8
0
100
AcDbLine
 62
4
  6
CONTINUOUS
 10
11.339139796
 20
9.1364261441
 11
11.3722572383
 21
9.1341294417
  0
LINE
  5
340
100
AcDbEntity
  8
0
100
AcDbLine
 62
4
  6
CONTINUOUS
 10
10.3124985949
 20
9.2407414094
 11
10.3456160528
 21
9.2384447059
  0
LINE
  5
341
100
AcDbEntity
  8
0
100
AcDbLine
 62
4
  6
CONTINUOUS
 10
11.2121895267
 20
9.1783476313
 11
11.2149493043
 21
9.1781562401
  0
LINE
  5
342
100
AcDbEntity
  8
0
100
AcDbLine
 62
4
  6
CONTINUOUS
 10
11.3722572383
 20
9.08997283
 11
11.339139796
 21
9.0977891085
  0
LINE
  5
343
100
AcDbEntity
  8
0
100
AcDbLine
 62
4
  6
CONTINUOUS
 10
11.339139796
 20
9.0977891085
 11
11.330860463
 21
9.1038828582
  0
LINE
  5
344
100
AcDbEntity
  8
0
100
AcDbLine
 62
4
  6
CONTINUOUS
 10
11.3805365713
 20
9.0838790803
 11
11.3722572383
 21
9.08997283
  0
LINE
  5
345
100
AcDbEntity
  8
0
100
AcDbLine
 62
4
  6
CONTINUOUS
 10
11.330860463
 20
9.0624860354
 11
11.339139796
 21
9.0536324968
  0
LINE
  5
346
100
AcDbEntity
  8
0
100
AcDbLine
 62
4
  6
CONTINUOUS
 10
11.3722572383
 20
9.1341294417
 11
11.3805365713
 21
9.1252759005
  0
LINE
  5
347
100
AcDbEntity
  8
0
100
AcDbLine
 62
4
  6
CONTINUOUS
 10
11.1965967487
 20
7.396329705
 11
11.1893523047
 21
7.38717285
  0
LINE
  5
348
100
AcDbEntity
  8
0
100
AcDbLine
 62
4
  6
CONTINUOUS
 10
11.1458856409
 20
7.4867798616
 11
11.1603745288
 21
7.4954343101
  0
LINE
  5
349
100
AcDbEntity
  8
0
100
AcDbLine
 62
7
  6
CONTINUOUS
 10
12.0675098836
 20
6.7428531988
 11
12.0675098836
 21
6.3615293146
  0
LINE
  5
34A
100
AcDbEntity
  8
0
100
AcDbLine
 62
7
  6
CONTINUOUS
 10
12.0828390948
 20
6.7417901144
 11
12.0828390948
 21
6.3763361964
  0
LINE
  5
34B
100
AcDbEntity
  8
0
100
AcDbLine
 62
4
  6
CONTINUOUS
 10
12.1127774397
 20
8.7903744706
 11
12.1055329957
 21
8.7618990986
  0
LINE
  5
34C
100
AcDbEntity
  8
0
100
AcDbLine
 62
4
  6
CONTINUOUS
 10
11.1893523047
 20
7.38717285
 11
11.1748634168
 21
7.3785183989
  0
LINE
  5
34D
100
AcDbEntity
  8
0
100
AcDbLine
 62
4
  6
CONTINUOUS
 10
12.1417552155
 20
8.8752981826
 11
12.1562441035
 21
8.8646341185
  0
LINE
  5
34E
100
AcDbEntity
  8
0
100
AcDbLine
 62
4
  6
CONTINUOUS
 10
12.1634885474
 20
8.8544724513
 11
12.1634885474
 21
8.8351539387
  0
LINE
  5
34F
100
AcDbEntity
  8
0
100
AcDbLine
 62
7
  6
CONTINUOUS
 10
12.2871270556
 20
6.7276226962
 11
12.2871270556
 21
10.229104024
  0
LINE
  5
350
100
AcDbEntity
  8
0
100
AcDbLine
 62
4
  6
CONTINUOUS
 10
9.6071656559
 20
9.8711437409
 11
9.592676768
 21
9.8721485487
  0
LINE
  5
351
100
AcDbEntity
  8
0
100
AcDbLine
 62
4
  6
CONTINUOUS
 10
12.1562441035
 20
8.8646341185
 11
12.1634885474
 21
8.8544724513
  0
LINE
  5
352
100
AcDbEntity
  8
0
100
AcDbLine
 62
4
  6
CONTINUOUS
 10
9.592676768
 20
9.9397633567
 11
9.6071656559
 21
9.9387585489
  0
LINE
  5
353
100
AcDbEntity
  8
0
100
AcDbLine
 62
4
  6
CONTINUOUS
 10
9.592676768
 20
9.9880596521
 11
9.6071656559
 21
9.9870548443
  0
LINE
  5
354
100
AcDbEntity
  8
0
100
AcDbLine
 62
7
  6
CONTINUOUS
 10
12.610650595
 20
7.0401224568
 11
12.610650595
 21
10.5416037846
  0
LINE
  5
355
100
AcDbEntity
  8
0
100
AcDbLine
 62
7
  6
CONTINUOUS
 10
9.389349405
 20
10.4300655866
 11
12.2871270556
 21
10.229104024
  0
LINE
  5
356
100
AcDbEntity
  8
0
100
AcDbLine
 62
7
  6
CONTINUOUS
 10
12.2871270556
 20
6.7276226962
 11
12.610650595
 21
7.0401224568
  0
LINE
  5
357
100
AcDbEntity
  8
0
100
AcDbLine
 62
7
  6
CONTINUOUS
 10
12.610650595
 20
10.5416037846
 11
9.7128729444
 21
10.7425653472
  0
LINE
  5
358
100
AcDbEntity
  8
0
100
AcDbLine
 62
7
  6
CONTINUOUS
 10
12.0097523677
 20
6.3295053148
 11
11.984590015
 21
6.3170755943
  0
ARC
  5
359
100
AcDbEntity
  8
0
100
AcDbCircle
 62
7
  6
CONTINUOUS
 10
11.6115053758
 20
8.4093308291
 40
1.7134727463
100
AcDbArc
 50
273.0082929995
 51
274.9259690708
  0
ARC
  5
35A
100
AcDbEntity
  8
0
100
AcDbCircle
 62
7
  6
CONTINUOUS
 10
11.6115053758
 20
7.9887316034
 40
1.7134727463
100
AcDbArc
 50
273.0082929995
 51
274.9259690708
  0
ARC
  5
35B
100
AcDbEntity
  8
0
100
AcDbCircle
 62
7
  6
CONTINUOUS
 10
10.9519170551
 20
7.9569319766
 40
0.3048897097
100
AcDbArc
 50
266.0458294674
 51
271.9013511617
  0
ARC
  5
35C
100
AcDbEntity
  8
0
100
AcDbCircle
 62
7
  6
CONTINUOUS
 10
11.0464980968
 20
7.739677222
 40
0.0946990231
100
AcDbArc
 50
266.004668309
 51
272.2381854561
  0
SPLINE
  5
35D
100
AcDbEntity
  8
0
100
AcDbSpline
 62
7
  6
CONTINUOUS
 70
0
 71
3
 72
11
 73
7
 74
0
 42
0.0000001
 43
0.0000001
 44
0.0000000001
 40
0.0
 40
0.0
 40
0.0
 40
0.0
 40
0.2399502312
 40
0.4865132022
 40
0.7398237866
 40
1.0
 40
1.0
 40
1.0
 40
1.0
 10
12.0760414342
 20
6.3688726327
 30
0.0
 10
12.0753935591
 20
6.3682468333
 30
0.0
 10
12.0740604201
 20
6.3669980684
 30
0.0
 10
12.071979688
 20
6.3651580676
 30
0.0
 10
12.0697915778
 20
6.363326491
 30
0.0
 10
12.0682819502
 20
6.3621275031
 30
0.0
 10
12.0675098836
 20
6.3615293146
 30
0.0
  0
SPLINE
  5
35E
100
AcDbEntity
  8
0
100
AcDbSpline
 62
7
  6
CONTINUOUS
 70
0
 71
3
 72
11
 73
7
 74
0
 42
0.0000001
 43
0.0000001
 44
0.0000000001
 40
0.0
 40
0.0
 40
0.0
 40
0.0
 40
0.2399382843
 40
0.4864287737
 40
0.7397111676
 40
1.0
 40
1.0
 40
1.0
 40
1.0
 10
12.0828390948
 20
6.3763361964
 30
0.0
 10
12.0823389892
 20
6.3757015841
 30
0.0
 10
12.0813005261
 20
6.3744342362
 30
0.0
 10
12.0796538016
 20
6.372564608
 30
0.0
 10
12.077897936
 20
6.3707017648
 30
0.0
 10
12.0766718709
 20
6.3694815877
 30
0.0
 10
12.0760414342
 20
6.3688726327
 30
0.0
  0
SPLINE
  5
35F
100
AcDbEntity
  8
0
100
AcDbSpline
 62
7
  6
CONTINUOUS
 70
0
 71
3
 72
11
 73
7
 74
0
 42
0.0000001
 43
0.0000001
 44
0.0000000001
 40
0.0
 40
0.0
 40
0.0
 40
0.0
 40
0.2529398012
 40
0.5039896517
 40
0.7530425508
 40
1.0
 40
1.0
 40
1.0
 40
1.0
 10
12.0675098836
 20
6.3615293146
 30
0.0
 10
12.0627552126
 20
6.3586238794
 30
0.0
 10
12.0532262414
 20
6.3529243161
 30
0.0
 10
12.0388155898
 20
6.3447040812
 30
0.0
 10
12.0243404697
 20
6.336870846
 30
0.0
 10
12.0146065664
 20
6.3319033331
 30
0.0
 10
12.009728958
 20
6.3294937514
 30
0.0
  0
SPLINE
  5
360
100
AcDbEntity
  8
0
100
AcDbSpline
 62
7
  6
CONTINUOUS
 70
0
 71
3
 72
79
 73
75
 74
0
 42
0.0000001
 43
0.0000001
 44
0.0000000001
 40
0.0
 40
0.0
 40
0.0
 40
0.0
 40
0.0049346149
 40
0.0099877251
 40
0.0151590499
 40
0.0204481992
 40
0.0258546713
 40
0.0313778714
 40
0.0370171043
 40
0.0427715926
 40
0.0546226141
 40
0.066923307
 40
0.0796646949
 40
0.0928367656
 40
0.10642856
 40
0.1204282499
 40
0.1348232052
 40
0.1496000531
 40
0.1647447325
 40
0.1802425411
 40
0.1960781811
 40
0.2122357989
 40
0.2286990254
 40
0.2454510106
 40
0.26247446
 40
0.2797516671
 40
0.2972645466
 40
0.3149946648
 40
0.3329232712
 40
0.3510313283
 40
0.3692995407
 40
0.3877083857
 40
0.4062381408
 40
0.424868914
 40
0.443580671
 40
0.462353265
 40
0.4811664639
 40
0.4999999795
 40
0.5188334952
 40
0.5376466942
 40
0.5564192885
 40
0.5751310457
 40
0.5937618193
 40
0.6122915748
 40
0.6307004205
 40
0.6489686336
 40
0.6670766916
 40
0.685005299
 40
0.7027354182
 40
0.7202482986
 40
0.7375255067
 40
0.7545489571
 40
0.7713009434
 40
0.7877641713
 40
0.8039217908
 40
0.8197574325
 40
0.8352552428
 40
0.8503999238
 40
0.8651767734
 40
0.8795717301
 40
0.8935714217
 40
0.9071632179
 40
0.9203352906
 40
0.9330766807
 40
0.945377376
 40
0.9572283997
 40
0.9629828881
 40
0.9686221229
 40
0.9741453233
 40
0.979551797
 40
0.9848409473
 40
0.990012273
 40
0.9950653848
 40
1.0
 40
1.0
 40
1.0
 40
1.0
 10
11.9845900594
 20
6.3170756165
 30
0.0
 10
11.9834452692
 20
6.3165101121
 30
0.0
 10
11.9811186545
 20
6.315384749
 30
0.0
 10
11.9775611601
 20
6.3137321748
 30
0.0
 10
11.9738956309
 20
6.3120954767
 30
0.0
 10
11.9701231342
 20
6.3104751369
 30
0.0
 10
11.9662447541
 20
6.3088716165
 30
0.0
 10
11.9622616091
 20
6.307285385
 30
0.0
 10
11.9581748446
 20
6.3057168905
 30
0.0
 10
11.9525339399
 20
6.3036293822
 30
0.0
 10
11.9452301187
 20
6.3010707043
 30
0.0
 10
11.9361547662
 20
6.298107513
 30
0.0
 10
11.9266953546
 20
6.2952256872
 30
0.0
 10
11.916862811
 20
6.2924285708
 30
0.0
 10
11.906668449
 20
6.2897194073
 30
0.0
 10
11.8961240222
 20
6.28710134
 30
0.0
 10
11.8852416905
 20
6.284577407
 30
0.0
 10
11.8740340102
 20
6.2821505371
 30
0.0
 10
11.8625139173
 20
6.2798235465
 30
0.0
 10
11.8506947122
 20
6.2775991355
 30
0.0
 10
11.8385900438
 20
6.275479885
 30
0.0
 10
11.8262138935
 20
6.2734682538
 30
0.0
 10
11.8135805585
 20
6.2715665756
 30
0.0
 10
11.8007046349
 20
6.269777056
 30
0.0
 10
11.7876010008
 20
6.2681017707
 30
0.0
 10
11.7742847985
 20
6.2665426624
 30
0.0
 10
11.7607714172
 20
6.2651015392
 30
0.0
 10
11.7470764749
 20
6.263780072
 30
0.0
 10
11.7332157998
 20
6.2625797931
 30
0.0
 10
11.719205413
 20
6.2615020941
 30
0.0
 10
11.7050615085
 20
6.2605482244
 30
0.0
 10
11.6908004357
 20
6.2597192896
 30
0.0
 10
11.6764386795
 20
6.2590162506
 30
0.0
 10
11.6619928417
 20
6.2584399222
 30
0.0
 10
11.6474796214
 20
6.2579909725
 30
0.0
 10
11.6329157956
 20
6.2576699219
 30
0.0
 10
11.6183182003
 20
6.2574771423
 30
0.0
 10
11.6037037105
 20
6.2574128574
 30
0.0
 10
11.5890892205
 20
6.2574771416
 30
0.0
 10
11.5744916251
 20
6.2576699206
 30
0.0
 10
11.5599277992
 20
6.2579909707
 30
0.0
 10
11.5454145786
 20
6.2584399199
 30
0.0
 10
11.5309687405
 20
6.2590162477
 30
0.0
 10
11.5166069839
 20
6.2597192862
 30
0.0
 10
11.5023459106
 20
6.2605482204
 30
0.0
 10
11.4882020056
 20
6.2615020896
 30
0.0
 10
11.4741916179
 20
6.2625797879
 30
0.0
 10
11.4603309421
 20
6.2637800662
 30
0.0
 10
11.4466359989
 20
6.2651015328
 30
0.0
 10
11.4331226168
 20
6.2665426555
 30
0.0
 10
11.4198064138
 20
6.2681017633
 30
0.0
 10
11.4067027788
 20
6.2697770482
 30
0.0
 10
11.3938268541
 20
6.2715665673
 30
0.0
 10
11.381193518
 20
6.2734682451
 30
0.0
 10
11.3688173663
 20
6.2754798757
 30
0.0
 10
11.3567126966
 20
6.2775991256
 30
0.0
 10
11.34489349
 20
6.2798235361
 30
0.0
 10
11.3333733957
 20
6.2821505262
 30
0.0
 10
11.322165714
 20
6.2845773957
 30
0.0
 10
11.311283381
 20
6.2871013284
 30
0.0
 10
11.3007389528
 20
6.2897193952
 30
0.0
 10
11.2905445893
 20
6.2924285584
 30
0.0
 10
11.2807120439
 20
6.2952256744
 30
0.0
 10
11.2712526304
 20
6.2981074997
 30
0.0
 10
11.2621772759
 20
6.3010706907
 30
0.0
 10
11.2548734531
 20
6.3036293677
 30
0.0
 10
11.2492325476
 20
6.3057168768
 30
0.0
 10
11.2451457819
 20
6.3072853702
 30
0.0
 10
11.2411626363
 20
6.3088716023
 30
0.0
 10
11.237284255
 20
6.310475122
 30
0.0
 10
11.2335117574
 20
6.3120954619
 30
0.0
 10
11.2298462272
 20
6.31373216
 30
0.0
 10
11.2262887317
 20
6.3153847335
 30
0.0
 10
11.2239621165
 20
6.3165100969
 30
0.0
 10
11.2228173263
 20
6.3170756013
 30
0.0
  0
SPLINE
  5
361
100
AcDbEntity
  8
0
100
AcDbSpline
 62
7
  6
CONTINUOUS
 70
0
 71
3
 72
34
 73
30
 74
0
 42
0.0000001
 43
0.0000001
 44
0.0000000001
 40
0.0
 40
0.0
 40
0.0
 40
0.0
 40
0.0217726103
 40
0.043998712
 40
0.0899309812
 40
0.1380396824
 40
0.1885283882
 40
0.2147207498
 40
0.2415663873
 40
0.2690791435
 40
0.2972700689
 40
0.3261474357
 40
0.3557167999
 40
0.3859810872
 40
0.4169407062
 40
0.4485936851
 40
0.4809358243
 40
0.5139608702
 40
0.5476607044
 40
0.5820255323
 40
0.6170440742
 40
0.6527037538
 40
0.6889908834
 40
0.7258908481
 40
0.7633882775
 40
0.8014672032
 40
0.8401112084
 40
0.9190266208
 40
1.0
 40
1.0
 40
1.0
 40
1.0
 10
11.2065178067
 20
6.3251272517
 30
0.0
 10
11.2056547035
 20
6.3255535693
 30
0.0
 10
11.2039262085
 20
6.326447272
 30
0.0
 10
11.2004609478
 20
6.3283985123
 30
0.0
 10
11.1961170498
 20
6.3311555366
 30
0.0
 10
11.1909535738
 20
6.3349270598
 30
0.0
 10
11.1867005552
 20
6.3384471269
 30
0.0
 10
11.1832970581
 20
6.3415084546
 30
0.0
 10
11.1807129135
 20
6.3439598217
 30
0.0
 10
11.178129002
 20
6.3465380376
 30
0.0
 10
11.1755457213
 20
6.3492425148
 30
0.0
 10
11.1729635102
 20
6.3520723417
 30
0.0
 10
11.1703827868
 20
6.355026352
 30
0.0
 10
11.1678039616
 20
6.3581031201
 30
0.0
 10
11.1652274296
 20
6.3613009801
 30
0.0
 10
11.1626535694
 20
6.3646180405
 30
0.0
 10
11.1600827397
 20
6.3680522032
 30
0.0
 10
11.1575152771
 20
6.3716011828
 30
0.0
 10
11.1549514953
 20
6.3752625295
 30
0.0
 10
11.1523916833
 20
6.3790336499
 30
0.0
 10
11.1498361047
 20
6.3829118294
 30
0.0
 10
11.1472849968
 20
6.3868942532
 30
0.0
 10
11.1447385705
 20
6.3909780269
 30
0.0
 10
11.1421970098
 20
6.3951601978
 30
0.0
 10
11.1396604752
 20
6.3994377738
 30
0.0
 10
11.1371290953
 20
6.4038077415
 30
0.0
 10
11.1337373327
 20
6.4097952527
 30
0.0
 10
11.1295157159
 20
6.4174918344
 30
0.0
 10
11.1262164486
 20
6.423744352
 30
0.0
 10
11.1245682596
 20
6.4269225383
 30
0.0
  0
SPLINE
  5
362
100
AcDbEntity
  8
0
100
AcDbSpline
 62
7
  6
CONTINUOUS
 70
0
 71
3
 72
11
 73
7
 74
0
 42
0.0000001
 43
0.0000001
 44
0.0000000001
 40
0.0
 40
0.0
 40
0.0
 40
0.0
 40
0.2598462974
 40
0.5132467876
 40
0.7600213203
 40
1.0
 40
1.0
 40
1.0
 40
1.0
 10
11.2795032991
 20
6.7274800014
 30
0.0
 10
11.275850515
 20
6.728317254
 30
0.0
 10
11.2686463041
 20
6.7300183516
 30
0.0
 10
11.2580144247
 20
6.7326858623
 30
0.0
 10
11.2476996973
 20
6.7354353763
 30
0.0
 10
11.2409450862
 20
6.7373485197
 30
0.0
 10
11.2376230716
 20
6.7383193882
 30
0.0
  0
SPLINE
  5
363
100
AcDbEntity
  8
0
100
AcDbSpline
 62
7
  6
CONTINUOUS
 70
0
 71
3
 72
23
 73
19
 74
0
 42
0.0000001
 43
0.0000001
 44
0.0000000001
 40
0.0
 40
0.0
 40
0.0
 40
0.0
 40
0.0657095692
 40
0.1316076905
 40
0.1975599413
 40
0.2634317586
 40
0.3290887887
 40
0.3943972448
 40
0.4592242604
 40
0.5234382435
 40
0.5869092415
 40
0.6495092936
 40
0.7111128108
 40
0.7715969332
 40
0.8308419302
 40
0.888731577
 40
0.9451535805
 40
1.0
 40
1.0
 40
1.0
 40
1.0
 10
11.651632064
 20
6.7716855526
 30
0.0
 10
11.6449955647
 20
6.7714917599
 30
0.0
 10
11.6317010024
 20
6.7711851456
 30
0.0
 10
11.6117401716
 20
6.7709672421
 30
0.0
 10
11.5917617419
 20
6.7709908587
 30
0.0
 10
11.5718094256
 20
6.771255946
 30
0.0
 10
11.5519268277
 20
6.7717619196
 30
0.0
 10
11.5321574136
 20
6.7725076703
 30
0.0
 10
11.5125443965
 20
6.7734915572
 30
0.0
 10
11.4931306468
 20
6.7747114213
 30
0.0
 10
11.4739585972
 20
6.7761645792
 30
0.0
 10
11.4550701491
 20
6.7778478403
 30
0.0
 10
11.4365065808
 20
6.7797575019
 30
0.0
 10
11.4183084538
 20
6.7818893686
 30
0.0
 10
11.4005155326
 20
6.7842387495
 30
0.0
 10
11.3831666622
 20
6.7868004825
 30
0.0
 10
11.3662998037
 20
6.7895689182
 30
0.0
 10
11.3552374619
 20
6.7915780033
 30
0.0
 10
11.3497942281
 20
6.7926180776
 30
0.0
  0
SPLINE
  5
364
100
AcDbEntity
  8
0
100
AcDbSpline
 62
7
  6
CONTINUOUS
 70
0
 71
3
 72
11
 73
7
 74
0
 42
0.0000001
 43
0.0000001
 44
0.0000000001
 40
0.0
 40
0.0
 40
0.0
 40
0.0
 40
0.2598462974
 40
0.5132467876
 40
0.7600213203
 40
1.0
 40
1.0
 40
1.0
 40
1.0
 10
11.2795032991
 20
6.3068807757
 30
0.0
 10
11.275850515
 20
6.3077180282
 30
0.0
 10
11.2686463041
 20
6.3094191258
 30
0.0
 10
11.2580144247
 20
6.3120866366
 30
0.0
 10
11.2476996973
 20
6.3148361506
 30
0.0
 10
11.2409450862
 20
6.316749294
 30
0.0
 10
11.2376230716
 20
6.3177201624
 30
0.0
  0
SPLINE
  5
365
100
AcDbEntity
  8
0
100
AcDbSpline
 62
7
  6
CONTINUOUS
 70
0
 71
3
 72
15
 73
11
 74
0
 42
0.0000001
 43
0.0000001
 44
0.0000000001
 40
0.0
 40
0.0
 40
0.0
 40
0.0
 40
0.1209946163
 40
0.2432467567
 40
0.3667038615
 40
0.4913087608
 40
0.6170016075
 40
0.7437214614
 40
0.8714074272
 40
1.0
 40
1.0
 40
1.0
 40
1.0
 10
11.8358401252
 20
6.7589272612
 30
0.0
 10
11.8325070732
 20
6.7569617878
 30
0.0
 10
11.8258650698
 20
6.7529099829
 30
0.0
 10
11.8160264794
 20
6.7465256001
 30
0.0
 10
11.8062620955
 20
6.7398222339
 30
0.0
 10
11.7965740215
 20
6.7328198263
 30
0.0
 10
11.786963318
 20
6.7255377163
 30
0.0
 10
11.7774303026
 20
6.717994542
 30
0.0
 10
11.767974663
 20
6.7102081157
 30
0.0
 10
11.761742918
 20
6.7048841799
 30
0.0
 10
11.7586387166
 20
6.7021868305
 30
0.0
  0
SPLINE
  5
366
100
AcDbEntity
  8
0
100
AcDbSpline
 62
7
  6
CONTINUOUS
 70
0
 71
3
 72
34
 73
30
 74
0
 42
0.0000001
 43
0.0000001
 44
0.0000000001
 40
0.0
 40
0.0
 40
0.0
 40
0.0
 40
0.0614928409
 40
0.1230891667
 40
0.153930456
 40
0.1848018751
 40
0.2157048016
 40
0.2466405691
 40
0.2776104456
 40
0.308615611
 40
0.339657133
 40
0.3707359447
 40
0.4018528241
 40
0.433008375
 40
0.4642030116
 40
0.4954369474
 40
0.5267101883
 40
0.5580225326
 40
0.5893735753
 40
0.6207627182
 40
0.6521891835
 40
0.6836520324
 40
0.7151501852
 40
0.7466824453
 40
0.7782475226
 40
0.8098440566
 40
0.8731242422
 40
0.9365133522
 40
1.0
 40
1.0
 40
1.0
 40
1.0
 10
11.701429278
 20
6.2776201096
 30
0.0
 10
11.6928092805
 20
6.2759951099
 30
0.0
 10
11.6755142226
 20
6.2729530199
 30
0.0
 10
11.6537918454
 20
6.2697253602
 30
0.0
 10
11.6363408031
 20
6.2675160591
 30
0.0
 10
11.6232101715
 20
6.2660524098
 30
0.0
 10
11.6100450843
 20
6.2647902968
 30
0.0
 10
11.5968475313
 20
6.2637368368
 30
0.0
 10
11.5836199075
 20
6.2628987668
 30
0.0
 10
11.5703649714
 20
6.2622823274
 30
0.0
 10
11.5570858437
 20
6.2618931566
 30
0.0
 10
11.5437859814
 20
6.2617361844
 30
0.0
 10
11.530469144
 20
6.2618155362
 30
0.0
 10
11.5171393481
 20
6.2621344464
 30
0.0
 10
11.5038008125
 20
6.2626951879
 30
0.0
 10
11.4904578954
 20
6.26349902
 30
0.0
 10
11.4771150255
 20
6.264546159
 30
0.0
 10
11.46377663
 20
6.2658357684
 30
0.0
 10
11.4504470634
 20
6.2673659787
 30
0.0
 10
11.4371305384
 20
6.2691339271
 30
0.0
 10
11.4238310636
 20
6.2711358183
 30
0.0
 10
11.4105523897
 20
6.2733670023
 30
0.0
 10
11.3972979612
 20
6.2758220688
 30
0.0
 10
11.384070896
 20
6.2784949434
 30
0.0
 10
11.3708739121
 20
6.2813790137
 30
0.0
 10
11.3533133775
 20
6.2854984339
 30
0.0
 10
11.3314498471
 20
6.2911400659
 30
0.0
 10
11.3053766168
 20
6.298631871
 30
0.0
 10
11.2881104702
 20
6.3040643752
 30
0.0
 10
11.2795032991
 20
6.3068807757
 30
0.0
  0
SPLINE
  5
367
100
AcDbEntity
  8
0
100
AcDbSpline
 62
7
  6
CONTINUOUS
 70
0
 71
3
 72
37
 73
33
 74
0
 42
0.0000001
 43
0.0000001
 44
0.0000000001
 40
0.0
 40
0.0
 40
0.0
 40
0.0
 40
0.0320287472
 40
0.0640311205
 40
0.0960043923
 40
0.1279455611
 40
0.159851441
 40
0.1917186505
 40
0.2235436484
 40
0.2553227761
 40
0.2870523307
 40
0.318728644
 40
0.3503481602
 40
0.381907556
 40
0.4134038501
 40
0.444834504
 40
0.4761975334
 40
0.5074915881
 40
0.5387160101
 40
0.5698708592
 40
0.6009569109
 40
0.6319756141
 40
0.6629290159
 40
0.6938196881
 40
0.7246506078
 40
0.755425049
 40
0.7861464927
 40
0.8168185117
 40
0.847444686
 40
0.8780285427
 40
0.9390791653
 40
1.0
 40
1.0
 40
1.0
 40
1.0
 10
11.701429278
 20
6.6982193354
 30
0.0
 10
11.6972767106
 20
6.7003620025
 30
0.0
 10
11.6889391006
 20
6.7045764754
 30
0.0
 10
11.67632831
 20
6.7106730087
 30
0.0
 10
11.6636166678
 20
6.7165262091
 30
0.0
 10
11.6508037757
 20
6.7221194577
 30
0.0
 10
11.6378900053
 20
6.7274354744
 30
0.0
 10
11.6248767067
 20
6.73245642
 30
0.0
 10
11.6117663383
 20
6.7371640947
 30
0.0
 10
11.5985626069
 20
6.7415401811
 30
0.0
 10
11.5852705817
 20
6.745566544
 30
0.0
 10
11.5718967785
 20
6.7492255759
 30
0.0
 10
11.5584492056
 20
6.7525006111
 30
0.0
 10
11.5449373441
 20
6.7553763453
 30
0.0
 10
11.5313720627
 20
6.7578392648
 30
0.0
 10
11.5177654686
 20
6.7598781081
 30
0.0
 10
11.5041306731
 20
6.7614842103
 30
0.0
 10
11.4904815023
 20
6.7626518229
 30
0.0
 10
11.4768321594
 20
6.7633783485
 30
0.0
 10
11.4631968538
 20
6.7636643769
 30
0.0
 10
11.4495894381
 20
6.7635137032
 30
0.0
 10
11.4360230632
 20
6.7629331437
 30
0.0
 10
11.4225098837
 20
6.7619322572
 30
0.0
 10
11.409060824
 20
6.760523035
 30
0.0
 10
11.3956854194
 20
6.7587194598
 30
0.0
 10
11.3823917308
 20
6.7565370878
 30
0.0
 10
11.3691863169
 20
6.7539926281
 30
0.0
 10
11.3560743011
 20
6.7511035289
 30
0.0
 10
11.3430593619
 20
6.747887589
 30
0.0
 10
11.325850311
 20
6.7431908503
 30
0.0
 10
11.3045863919
 20
6.7365917079
 30
0.0
 10
11.2878190667
 20
6.7306174212
 30
0.0
 10
11.2795032991
 20
6.7274800014
 30
0.0
  0
SPLINE
  5
368
100
AcDbEntity
  8
0
100
AcDbSpline
 62
7
  6
CONTINUOUS
 70
0
 71
3
 72
15
 73
11
 74
0
 42
0.0000001
 43
0.0000001
 44
0.0000000001
 40
0.0
 40
0.0
 40
0.0
 40
0.0
 40
0.1192556975
 40
0.2392875357
 40
0.3604859033
 40
0.483279967
 40
0.6081324973
 40
0.7355322617
 40
0.8659845135
 40
1.0
 40
1.0
 40
1.0
 40
1.0
 10
11.2376230716
 20
6.3177201624
 30
0.0
 10
11.2363408365
 20
6.3177247251
 30
0.0
 10
11.2337677072
 20
6.3178014028
 30
0.0
 10
11.2299036198
 20
6.3181279801
 30
0.0
 10
11.2260261243
 20
6.3186768685
 30
0.0
 10
11.2221357981
 20
6.3194584874
 30
0.0
 10
11.2182332219
 20
6.3204830421
 30
0.0
 10
11.2143191391
 20
6.3217603953
 30
0.0
 10
11.21039462
 20
6.3232997812
 30
0.0
 10
11.2078097422
 20
6.3244891185
 30
0.0
 10
11.2065178067
 20
6.3251272517
 30
0.0
  0
SPLINE
  5
369
100
AcDbEntity
  8
0
100
AcDbSpline
 62
7
  6
CONTINUOUS
 70
0
 71
3
 72
15
 73
11
 74
0
 42
0.0000001
 43
0.0000001
 44
0.0000000001
 40
0.0
 40
0.0
 40
0.0
 40
0.0
 40
0.1361750042
 40
0.2695801389
 40
0.4000133027
 40
0.5272628008
 40
0.6511096758
 40
0.7713303612
 40
0.8877005097
 40
1.0
 40
1.0
 40
1.0
 40
1.0
 10
11.2376230716
 20
6.7383193882
 30
0.0
 10
11.2364939577
 20
6.7412921086
 30
0.0
 10
11.2342290633
 20
6.7471658911
 30
0.0
 10
11.2307707685
 20
6.7558433877
 30
0.0
 10
11.2272845151
 20
6.7642846718
 30
0.0
 10
11.2237702188
 20
6.7724720248
 30
0.0
 10
11.220228034
 20
6.7803868423
 30
0.0
 10
11.2166583835
 20
6.7880097831
 30
0.0
 10
11.2130620443
 20
6.7953208674
 30
0.0
 10
11.2106020594
 20
6.800060958
 30
0.0
 10
11.2093653651
 20
6.8023734337
 30
0.0
  0
SPLINE
  5
36A
100
AcDbEntity
  8
0
100
AcDbSpline
 62
7
  6
CONTINUOUS
 70
0
 71
3
 72
32
 73
28
 74
0
 42
0.0000001
 43
0.0000001
 44
0.0000000001
 40
0.0
 40
0.0
 40
0.0
 40
0.0
 40
0.0668467461
 40
0.1330343711
 40
0.1985498456
 40
0.2633895225
 40
0.2955589434
 40
0.3275629011
 40
0.3594039835
 40
0.3910854601
 40
0.4226112559
 40
0.4539859114
 40
0.4852145321
 40
0.5163027271
 40
0.54725654
 40
0.5780823734
 40
0.6087869096
 40
0.6393770305
 40
0.6698597382
 40
0.7002420785
 40
0.7305310697
 40
0.7607336373
 40
0.790856557
 40
0.8209064041
 40
0.880809966
 40
0.940493758
 40
1.0
 40
1.0
 40
1.0
 40
1.0
 10
12.009728958
 20
6.3294937514
 30
0.0
 10
12.0045509161
 20
6.3269357529
 30
0.0
 10
11.9941747482
 20
6.3219872689
 30
0.0
 10
11.9784749899
 20
6.3150678637
 30
0.0
 10
11.9627231061
 20
6.3087172525
 30
0.0
 10
11.9495271872
 20
6.3039083014
 30
0.0
 10
11.9389561146
 20
6.3003717514
 30
0.0
 10
11.931042542
 20
6.2978822175
 30
0.0
 10
11.9231250066
 20
6.2955504415
 30
0.0
 10
11.9152051863
 20
6.2933776535
 30
0.0
 10
11.9072848173
 20
6.2913646591
 30
0.0
 10
11.8993656339
 20
6.2895118064
 30
0.0
 10
11.8914493608
 20
6.287818989
 30
0.0
 10
11.8835376917
 20
6.2862856475
 30
0.0
 10
11.8756322731
 20
6.2849107799
 30
0.0
 10
11.8677346869
 20
6.2836929578
 30
0.0
 10
11.8598464369
 20
6.2826303485
 30
0.0
 10
11.8519689357
 20
6.2817207419
 30
0.0
 10
11.844103494
 20
6.2809615815
 30
0.0
 10
11.836251314
 20
6.280349998
 30
0.0
 10
11.8284134803
 20
6.2798828468
 30
0.0
 10
11.8205909681
 20
6.2795567427
 30
0.0
 10
11.8127845997
 20
6.2793681043
 30
0.0
 10
11.8024100998
 20
6.2792949356
 30
0.0
 10
11.7894813104
 20
6.2795271786
 30
0.0
 10
11.7740247488
 20
6.2802938431
 30
0.0
 10
11.763757638
 20
6.2811093349
 30
0.0
 10
11.7586387166
 20
6.2815876047
 30
0.0
  0
SPLINE
  5
36B
100
AcDbEntity
  8
0
100
AcDbSpline
 62
7
  6
CONTINUOUS
 70
0
 71
3
 72
86
 73
82
 74
0
 42
0.0000001
 43
0.0000001
 44
0.0000000001
 40
0.0
 40
0.0
 40
0.0
 40
0.0
 40
0.0039801735
 40
0.0081241171
 40
0.0124359931
 40
0.016919361
 40
0.0215772361
 40
0.0264119817
 40
0.0314252561
 40
0.0366182449
 40
0.0419916453
 40
0.0475457694
 40
0.0532805541
 40
0.0591955582
 40
0.0652900785
 40
0.0715630739
 40
0.0846387684
 40
0.0984101018
 40
0.112860694
 40
0.1279712428
 40
0.1437198619
 40
0.1600823544
 40
0.1770324406
 40
0.1945419645
 40
0.2125810668
 40
0.2311183398
 40
0.2501209668
 40
0.2695548486
 40
0.289384725
 40
0.3095742955
 40
0.3300863312
 40
0.3508827821
 40
0.3719248818
 40
0.3931732491
 40
0.4145879914
 40
0.4577543474
 40
0.501099203
 40
0.5442952951
 40
0.5657359749
 40
0.587017582
 40
0.6081001434
 40
0.6289441761
 40
0.6495107926
 40
0.6697618048
 40
0.6896598276
 40
0.709168385
 40
0.7282520204
 40
0.7468764117
 40
0.7650084972
 40
0.7826166038
 40
0.7996705814
 40
0.8161419537
 40
0.8320040874
 40
0.8472323859
 40
0.8618045214
 40
0.8757007003
 40
0.8889039845
 40
0.9014006969
 40
0.9073810972
 40
0.9131815075
 40
0.9188013673
 40
0.9242405009
 40
0.9294990443
 40
0.9345775709
 40
0.9394770909
 40
0.9441990928
 40
0.9487456636
 40
0.9531194621
 40
0.9573238984
 40
0.9613631411
 40
0.9652422549
 40
0.9689673208
 40
0.9725454977
 40
0.9759852252
 40
0.9824864215
 40
0.9855752926
 40
0.9885737717
 40
0.9914977072
 40
0.9943643167
 40
0.9971920017
 40
1.0
 40
1.0
 40
1.0
 40
1.0
 10
11.211537751
 20
10.4711644927
 30
0.0
 10
11.2105474736
 20
10.4702079582
 30
0.0
 10
11.2084812003
 20
10.4683016501
 30
0.0
 10
11.2052005885
 20
10.4655173366
 30
0.0
 10
11.2016790656
 20
10.4627529843
 30
0.0
 10
11.1979185647
 20
10.4600100822
 30
0.0
 10
11.1939209324
 20
10.4572898981
 30
0.0
 10
11.1896881134
 20
10.4545937694
 30
0.0
 10
11.1852222295
 20
10.4519229695
 30
0.0
 10
11.180525494
 20
10.4492788885
 30
0.0
 10
11.1756002762
 20
10.4466628114
 30
0.0
 10
11.1704490351
 20
10.4440760555
 30
0.0
 10
11.1650743467
 20
10.4415199303
 30
0.0
 10
11.1594789212
 20
10.4389956911
 30
0.0
 10
11.1536655501
 20
10.4365046368
 30
0.0
 10
11.1455146947
 20
10.4331831359
 30
0.0
 10
11.1347956366
 20
10.429132245
 30
0.0
 10
11.1212841448
 20
10.4244878396
 30
0.0
 10
11.1069790132
 20
10.4200046942
 30
0.0
 10
11.0919090826
 20
10.4156919213
 30
0.0
 10
11.0761046041
 20
10.4115583
 30
0.0
 10
11.0595974146
 20
10.4076122507
 30
0.0
 10
11.0424207938
 20
10.4038618087
 30
0.0
 10
11.0246094063
 20
10.4003146136
 30
0.0
 10
11.0061992181
 20
10.3969778901
 30
0.0
 10
10.9872274216
 20
10.3938584342
 30
0.0
 10
10.9677323582
 20
10.3909625991
 30
0.0
 10
10.9477534403
 20
10.3882962806
 30
0.0
 10
10.9273310698
 20
10.3858649025
 30
0.0
 10
10.9065065521
 20
10.383673411
 30
0.0
 10
10.8853220111
 20
10.3817262645
 30
0.0
 10
10.863820299
 20
10.3800274223
 30
0.0
 10
10.8420449266
 20
10.3785803478
 30
0.0
 10
10.8200399142
 20
10.3773879603
 30
0.0
 10
10.790375773
 20
10.3761377756
 30
0.0
 10
10.7530495898
 20
10.3752296952
 30
0.0
 10
10.7081778065
 20
10.3751823488
 30
0.0
 10
10.6708305327
 20
10.3760115036
 30
0.0
 10
10.6411330244
 20
10.3771986731
 30
0.0
 10
10.6190910254
 20
10.3783444614
 30
0.0
 10
10.5972705997
 20
10.3797454139
 30
0.0
 10
10.5757158599
 20
10.3813987079
 30
0.0
 10
10.5544704259
 20
10.3833009748
 30
0.0
 10
10.5335772742
 20
10.385448345
 30
0.0
 10
10.5130786671
 20
10.387836449
 30
0.0
 10
10.4930160638
 20
10.3904604283
 30
0.0
 10
10.4734300363
 20
10.3933149435
 30
0.0
 10
10.454360185
 20
10.396394187
 30
0.0
 10
10.4358450539
 20
10.3996918887
 30
0.0
 10
10.4179220497
 20
10.403201331
 30
0.0
 10
10.4006273658
 20
10.4069153652
 30
0.0
 10
10.3839959063
 20
10.4108264258
 30
0.0
 10
10.3680612119
 20
10.4149265459
 30
0.0
 10
10.3528553769
 20
10.419207378
 30
0.0
 10
10.3384089954
 20
10.4236602062
 30
0.0
 10
10.3247510057
 20
10.4282759769
 30
0.0
 10
10.311908908
 20
10.4330453193
 30
0.0
 10
10.3017648118
 20
10.4371983125
 30
0.0
 10
10.2940851939
 20
10.440597979
 30
0.0
 10
10.2886298858
 20
10.4431426596
 30
0.0
 10
10.2833970669
 20
10.4457184345
 30
0.0
 10
10.2783893375
 20
10.4483239848
 30
0.0
 10
10.2736092216
 20
10.4509580395
 30
0.0
 10
10.2690591028
 20
10.4536192658
 30
0.0
 10
10.2647412477
 20
10.4563063332
 30
0.0
 10
10.2606578263
 20
10.459017948
 30
0.0
 10
10.256810843
 20
10.4617527277
 30
0.0
 10
10.2532022421
 20
10.4645093968
 30
0.0
 10
10.249833791
 20
10.4672865858
 30
0.0
 10
10.2467071837
 20
10.470082985
 30
0.0
 10
10.2438239816
 20
10.4728973201
 30
0.0
 10
10.241185675
 20
10.4757281552
 30
0.0
 10
10.2387934619
 20
10.4785745941
 30
0.0
 10
10.2359871131
 20
10.4823172835
 30
0.0
 10
10.2336041009
 20
10.4861608909
 30
0.0
 10
10.2317120612
 20
10.49008655
 30
0.0
 10
10.2305689159
 20
10.4929898777
 30
0.0
 10
10.229678662
 20
10.4959002558
 30
0.0
 10
10.229042128
 20
10.4988162998
 30
0.0
 10
10.2286599064
 20
10.5017359042
 30
0.0
 10
10.2285748173
 20
10.5036864341
 30
0.0
 10
10.2285748129
 20
10.5046577691
 30
0.0
  0
SPLINE
  5
36C
100
AcDbEntity
  8
0
100
AcDbSpline
 62
7
  6
CONTINUOUS
 70
0
 71
3
 72
21
 73
17
 74
0
 42
0.0000001
 43
0.0000001
 44
0.0000000001
 40
0.0
 40
0.0
 40
0.0
 40
0.0
 40
0.1273176366
 40
0.2537999756
 40
0.3167619475
 40
0.3795355041
 40
0.4421314991
 40
0.5045621439
 40
0.5668413432
 40
0.6289845283
 40
0.6910084528
 40
0.7529310935
 40
0.8147714495
 40
0.8765493365
 40
0.9382852194
 40
1.0
 40
1.0
 40
1.0
 40
1.0
 10
11.487340424
 20
9.9822346487
 30
0.0
 10
11.487340424
 20
9.9769373988
 30
0.0
 10
11.4868347666
 20
9.9663708346
 30
0.0
 10
11.4849250625
 20
9.9533082781
 30
0.0
 10
11.4826425415
 20
9.9430618445
 30
0.0
 10
11.480561005
 20
9.9355040714
 30
0.0
 10
11.4781122174
 20
9.9280805874
 30
0.0
 10
11.4753017896
 20
9.9208083076
 30
0.0
 10
11.4721362222
 20
9.9137040457
 30
0.0
 10
11.4686227709
 20
9.9067841853
 30
0.0
 10
11.4647695176
 20
9.900064701
 30
0.0
 10
11.460585371
 20
9.8935610691
 30
0.0
 10
11.4560799687
 20
9.8872883164
 30
0.0
 10
11.4512636214
 20
9.8812608845
 30
0.0
 10
11.4461476628
 20
9.8754928379
 30
0.0
 10
11.4425444596
 20
9.8718285979
 30
0.0
 10
11.4406976008
 20
9.8700446689
 30
0.0
  0
SPLINE
  5
36D
100
AcDbEntity
  8
0
100
AcDbSpline
 62
7
  6
CONTINUOUS
 70
0
 71
3
 72
21
 73
17
 74
0
 42
0.0000001
 43
0.0000001
 44
0.0000000001
 40
0.0
 40
0.0
 40
0.0
 40
0.0
 40
0.1273176366
 40
0.2537999756
 40
0.3167619475
 40
0.3795355041
 40
0.4421314991
 40
0.5045621439
 40
0.5668413432
 40
0.6289845283
 40
0.6910084528
 40
0.7529310935
 40
0.8147714495
 40
0.8765493365
 40
0.9382852194
 40
1.0
 40
1.0
 40
1.0
 40
1.0
 10
10.5214145405
 20
7.1514441569
 30
0.0
 10
10.5214145405
 20
7.146146907
 30
0.0
 10
10.5209088831
 20
7.1355803428
 30
0.0
 10
10.518999179
 20
7.1225177863
 30
0.0
 10
10.516716658
 20
7.1122713527
 30
0.0
 10
10.5146351215
 20
7.1047135796
 30
0.0
 10
10.5121863339
 20
7.0972900956
 30
0.0
 10
10.5093759061
 20
7.0900178158
 30
0.0
 10
10.5062103387
 20
7.0829135539
 30
0.0
 10
10.5026968873
 20
7.0759936935
 30
0.0
 10
10.4988436341
 20
7.0692742092
 30
0.0
 10
10.4946594875
 20
7.0627705773
 30
0.0
 10
10.4901540852
 20
7.0564978246
 30
0.0
 10
10.4853377379
 20
7.0504703927
 30
0.0
 10
10.4802217793
 20
7.0447023461
 30
0.0
 10
10.476618576
 20
7.041038106
 30
0.0
 10
10.4747717172
 20
7.0392541771
 30
0.0
  0
SPLINE
  5
36E
100
AcDbEntity
  8
0
100
AcDbSpline
 62
7
  6
CONTINUOUS
 70
0
 71
3
 72
15
 73
11
 74
0
 42
0.0000001
 43
0.0000001
 44
0.0000000001
 40
0.0
 40
0.0
 40
0.0
 40
0.0
 40
0.1250403866
 40
0.2500921959
 40
0.3751626431
 40
0.5002440021
 40
0.6253130837
 40
0.7503325146
 40
0.8752501369
 40
1.0
 40
1.0
 40
1.0
 40
1.0
 10
10.7300387667
 20
7.809719683
 30
0.0
 10
10.7300387667
 20
7.8058301035
 30
0.0
 10
10.7302779443
 20
7.7980484674
 30
0.0
 10
10.7313534698
 20
7.7864210625
 30
0.0
 10
10.7331433176
 20
7.774880219
 30
0.0
 10
10.7356433376
 20
7.7634716211
 30
0.0
 10
10.7388473475
 20
7.7522419431
 30
0.0
 10
10.7427468234
 20
7.7412395649
 30
0.0
 10
10.7473298356
 20
7.7305150932
 30
0.0
 10
10.7508345443
 20
7.7235774431
 30
0.0
 10
10.7526954095
 20
7.720172184
 30
0.0
  0
SPLINE
  5
36F
100
AcDbEntity
  8
0
100
AcDbSpline
 62
7
  6
CONTINUOUS
 70
0
 71
3
 72
11
 73
7
 74
0
 42
0.0000001
 43
0.0000001
 44
0.0000000001
 40
0.0
 40
0.0
 40
0.0
 40
0.0
 40
0.2444469566
 40
0.4937811421
 40
0.7463406024
 40
1.0
 40
1.0
 40
1.0
 40
1.0
 10
10.7526954095
 20
7.720172184
 30
0.0
 10
10.7560629826
 20
7.7185129498
 30
0.0
 10
10.7629433719
 20
7.7153167608
 30
0.0
 10
10.7735619125
 20
7.7109887948
 30
0.0
 10
10.7845237104
 20
7.7071672541
 30
0.0
 10
10.7920035447
 20
7.7050270202
 30
0.0
 10
10.7957812142
 20
7.7040756396
 30
0.0
  0
SPLINE
  5
370
100
AcDbEntity
  8
0
100
AcDbSpline
 62
7
  6
CONTINUOUS
 70
0
 71
3
 72
16
 73
12
 74
0
 42
0.0000001
 43
0.0000001
 44
0.0000000001
 40
0.0
 40
0.0
 40
0.0
 40
0.0
 40
0.0628222738
 40
0.1254217794
 40
0.250107766
 40
0.374466676
 40
0.4987954011
 40
0.6233355759
 40
0.7482822548
 40
0.8737939755
 40
1.0
 40
1.0
 40
1.0
 40
1.0
 10
10.7957812142
 20
7.7040756396
 30
0.0
 10
10.798106308
 20
7.7020582255
 30
0.0
 10
10.8028555837
 20
7.6981523252
 30
0.0
 10
10.8127082758
 20
7.6908572088
 30
0.0
 10
10.8256360784
 20
7.6826818864
 30
0.0
 10
10.8419427548
 20
7.674336841
 30
0.0
 10
10.8588860802
 20
7.6673990919
 30
0.0
 10
10.8763470205
 20
7.6618066347
 30
0.0
 10
10.8942272016
 20
7.6575026557
 30
0.0
 10
10.9124413245
 20
7.6544379186
 30
0.0
 10
10.9247230311
 20
7.6531965366
 30
0.0
 10
10.9308923105
 20
7.6527680485
 30
0.0
  0
SPLINE
  5
371
100
AcDbEntity
  8
0
100
AcDbSpline
 62
7
  6
CONTINUOUS
 70
0
 71
3
 72
21
 73
17
 74
0
 42
0.0000001
 43
0.0000001
 44
0.0000000001
 40
0.0
 40
0.0
 40
0.0
 40
0.0
 40
0.12731758
 40
0.2538000122
 40
0.3167619425
 40
0.3795355005
 40
0.4421315041
 40
0.5045621466
 40
0.5668413435
 40
0.6289845285
 40
0.6910084568
 40
0.7529310961
 40
0.8147714484
 40
0.8765493394
 40
0.9382852242
 40
1.0
 40
1.0
 40
1.0
 40
1.0
 10
11.0599070911
 20
7.7063480357
 30
0.0
 10
11.0599070911
 20
7.6998496672
 30
0.0
 10
11.0592867756
 20
7.6868871929
 30
0.0
 10
11.0569440661
 20
7.6708627744
 30
0.0
 10
11.0541439902
 20
7.6582930183
 30
0.0
 10
11.0515904699
 20
7.6490215667
 30
0.0
 10
11.0485864455
 20
7.6399148455
 30
0.0
 10
11.0451387662
 20
7.6309936178
 30
0.0
 10
11.0412554126
 20
7.6222785104
 30
0.0
 10
11.036945316
 20
7.6137896059
 30
0.0
 10
11.0322183633
 20
7.6055465138
 30
0.0
 10
11.027085471
 20
7.5975682291
 30
0.0
 10
11.0215584956
 20
7.589873165
 30
0.0
 10
11.0156500839
 20
7.5824790342
 30
0.0
 10
11.0093740918
 20
7.5754031323
 30
0.0
 10
11.0049538896
 20
7.5709080398
 30
0.0
 10
11.0026882602
 20
7.5687196215
 30
0.0
  0
SPLINE
  5
372
100
AcDbEntity
  8
0
100
AcDbSpline
 62
7
  6
CONTINUOUS
 70
0
 71
3
 72
41
 73
37
 74
0
 42
0.0000001
 43
0.0000001
 44
0.0000000001
 40
0.0
 40
0.0
 40
0.0
 40
0.0
 40
0.0310750003
 40
0.046674464
 40
0.062312494
 40
0.0936974057
 40
0.1252262387
 40
0.1568876805
 40
0.1886675201
 40
0.2205491599
 40
0.2525139229
 40
0.268523588
 40
0.2845462912
 40
0.3166149974
 40
0.3487024468
 40
0.3807858411
 40
0.4128424624
 40
0.4448501254
 40
0.4767876212
 40
0.5086351486
 40
0.5403747235
 40
0.5719905626
 40
0.6034694315
 40
0.6348009518
 40
0.6659778585
 40
0.6969962
 40
0.7278554736
 40
0.7585586902
 40
0.7891123605
 40
0.8195263996
 40
0.849813947
 40
0.8799911023
 40
0.9100765789
 40
0.9400912834
 40
0.9700578297
 40
1.0
 40
1.0
 40
1.0
 40
1.0
 10
11.0599070911
 20
7.7063480357
 30
0.0
 10
11.0599070911
 20
7.7113988959
 30
0.0
 10
11.0596247596
 20
7.7189890705
 30
0.0
 10
11.0586923251
 20
7.7290757813
 30
0.0
 10
11.0573857933
 20
7.7391721487
 30
0.0
 10
11.0550567518
 20
7.7517378419
 30
0.0
 10
11.0511719077
 20
7.7666241863
 30
0.0
 10
11.046214955
 20
7.7812566549
 30
0.0
 10
11.0402132004
 20
7.7955545531
 30
0.0
 10
11.0331999534
 20
7.8094391628
 30
0.0
 10
11.0265472389
 20
7.8205975124
 30
0.0
 10
11.0207608544
 20
7.8292436534
 30
0.0
 10
11.0146679029
 20
7.8376974078
 30
0.0
 10
11.00650143
 20
7.8478679419
 30
0.0
 10
10.9958791658
 20
7.8593674551
 30
0.0
 10
10.9844885475
 20
7.8701040892
 30
0.0
 10
10.9723923595
 20
7.8800185152
 30
0.0
 10
10.9596569046
 20
7.8890563904
 30
0.0
 10
10.9463520802
 20
7.8971680316
 30
0.0
 10
10.9325508821
 20
7.9043088523
 30
0.0
 10
10.9183290406
 20
7.9104395618
 30
0.0
 10
10.9037646025
 20
7.9155263925
 30
0.0
 10
10.8889375106
 20
7.919541283
 30
0.0
 10
10.8739291706
 20
7.9224620349
 30
0.0
 10
10.8588220113
 20
7.9242724384
 30
0.0
 10
10.8436990373
 20
7.9249623661
 30
0.0
 10
10.8286433787
 20
7.9245278362
 30
0.0
 10
10.8137378384
 20
7.9229710424
 30
0.0
 10
10.7990644391
 20
7.920300355
 30
0.0
 10
10.7847039698
 20
7.9165302823
 30
0.0
 10
10.7707355463
 20
7.9116814081
 30
0.0
 10
10.7572361428
 20
7.9057802633
 30
0.0
 10
10.7442802601
 20
7.8988592873
 30
0.0
 10
10.7319391304
 20
7.890956289
 30
0.0
 10
10.7202817025
 20
7.88211561
 30
0.0
 10
10.7130056279
 20
7.8756261797
 30
0.0
 10
10.7095051992
 20
7.8722450431
 30
0.0
  0
SPLINE
  5
373
100
AcDbEntity
  8
0
100
AcDbSpline
 62
7
  6
CONTINUOUS
 70
0
 71
3
 72
18
 73
14
 74
0
 42
0.0000001
 43
0.0000001
 44
0.0000000001
 40
0.0
 40
0.0
 40
0.0
 40
0.0
 40
0.0548621106
 40
0.1099281304
 40
0.165399556
 40
0.2214731722
 40
0.2783387379
 40
0.3361775111
 40
0.4554063056
 40
0.5804414047
 40
0.7123341351
 40
0.8519581983
 40
1.0
 40
1.0
 40
1.0
 40
1.0
 10
11.2285748055
 20
10.5046584039
 30
0.0
 10
11.2285748087
 20
10.5039522579
 30
0.0
 10
11.2285299962
 20
10.5025369358
 30
0.0
 10
11.2283285
 20
10.5004162529
 30
0.0
 10
11.2279927496
 20
10.4982967936
 30
0.0
 10
11.2275228719
 20
10.4961793314
 30
0.0
 10
11.2269190649
 20
10.4940643952
 30
0.0
 10
11.2259259143
 20
10.4912203768
 30
0.0
 10
11.2243348972
 20
10.4876632743
 30
0.0
 10
11.2219132639
 20
10.4834623181
 30
0.0
 10
11.2189638313
 20
10.4792885475
 30
0.0
 10
11.2154910864
 20
10.4751461688
 30
0.0
 10
11.2129082823
 20
10.4724883244
 30
0.0
 10
11.211537751
 20
10.4711644927
 30
0.0
  0
SPLINE
  5
374
100
AcDbEntity
  8
0
100
AcDbSpline
 62
7
  6
CONTINUOUS
 70
0
 71
3
 72
15
 73
11
 74
0
 42
0.0000001
 43
0.0000001
 44
0.0000000001
 40
0.0
 40
0.0
 40
0.0
 40
0.0
 40
0.1263009331
 40
0.2520675664
 40
0.3773718889
 40
0.5023009836
 40
0.6269468334
 40
0.751396142
 40
0.875727368
 40
1.0
 40
1.0
 40
1.0
 40
1.0
 10
10.7552984429
 20
7.9045654184
 30
0.0
 10
10.7532351124
 20
7.9009323815
 30
0.0
 10
10.7493427313
 20
7.8935507322
 30
0.0
 10
10.7442310598
 20
7.8821527601
 30
0.0
 10
10.7398783892
 20
7.8704916835
 30
0.0
 10
10.7363001826
 20
7.8586089368
 30
0.0
 10
10.7335073858
 20
7.8465464905
 30
0.0
 10
10.7315076552
 20
7.8343474286
 30
0.0
 10
10.7303060299
 20
7.8220570509
 30
0.0
 10
10.7300387667
 20
7.8138306587
 30
0.0
 10
10.7300387667
 20
7.809719683
 30
0.0
  0
SPLINE
  5
375
100
AcDbEntity
  8
0
100
AcDbSpline
 62
7
  6
CONTINUOUS
 70
0
 71
3
 72
42
 73
38
 74
0
 42
0.0000001
 43
0.0000001
 44
0.0000000001
 40
0.0
 40
0.0
 40
0.0
 40
0.0
 40
0.0299419663
 40
0.0449235352
 40
0.0599142051
 40
0.0899287052
 40
0.1200139767
 40
0.135092661
 40
0.150196701
 40
0.1804840414
 40
0.210897872
 40
0.2414513324
 40
0.2721543376
 40
0.3030133986
 40
0.3340315263
 40
0.3652082187
 40
0.3965395244
 40
0.4280181782
 40
0.4596338019
 40
0.4913731609
 40
0.5232204716
 40
0.55515775
 40
0.5871651943
 40
0.6192215961
 40
0.6513047701
 40
0.6833919991
 40
0.7154604852
 40
0.7474878032
 40
0.7794523473
 40
0.8113337692
 40
0.8431133916
 40
0.8747746171
 40
0.9063032365
 40
0.9376879249
 40
0.9533258257
 40
0.968925233
 40
1.0
 40
1.0
 40
1.0
 40
1.0
 10
11.2017047434
 20
10.117468221
 30
0.0
 10
11.2045581661
 20
10.1202244162
 30
0.0
 10
11.209006475
 20
10.1241917235
 30
0.0
 10
11.2152362624
 20
10.1291142626
 30
0.0
 10
11.2216644239
 20
10.1337918694
 30
0.0
 10
11.2300521325
 20
10.1391632709
 30
0.0
 10
11.2388476667
 20
10.143861686
 30
0.0
 10
11.2461016882
 20
10.1472041861
 30
0.0
 10
11.2535055842
 20
10.1502707038
 30
0.0
 10
11.263004428
 20
10.1535681303
 30
0.0
 10
11.2747103278
 20
10.1566412429
 30
0.0
 10
11.2866716543
 20
10.158818327
 30
0.0
 10
11.2988221226
 20
10.1600873641
 30
0.0
 10
11.3110949867
 20
10.1604415837
 30
0.0
 10
11.3234227178
 20
10.1598791823
 30
0.0
 10
11.3357375596
 20
10.1584034084
 30
0.0
 10
11.3479718474
 20
10.1560225156
 30
0.0
 10
11.3600583884
 20
10.1527497173
 30
0.0
 10
11.3719308228
 20
10.1486031082
 30
0.0
 10
11.3835239837
 20
10.1436055628
 30
0.0
 10
11.3947742493
 20
10.1377846076
 30
0.0
 10
11.4056198879
 20
10.1311722702
 30
0.0
 10
11.4160013918
 20
10.1238049031
 30
0.0
 10
11.4258617998
 20
10.1157229846
 30
0.0
 10
11.4351470055
 20
10.1069708985
 30
0.0
 10
11.4438060516
 20
10.0975966923
 30
0.0
 10
11.451791406
 20
10.0876518162
 30
0.0
 10
11.4590592202
 20
10.0771908429
 30
0.0
 10
11.4655695682
 20
10.0662711747
 30
0.0
 10
11.4712866637
 20
10.0549527194
 30
0.0
 10
11.4761790549
 20
10.0432976128
 30
0.0
 10
11.4802198042
 20
10.0313697092
 30
0.0
 10
11.4833865929
 20
10.0192348731
 30
0.0
 10
11.4852851499
 20
10.0089917516
 30
0.0
 10
11.4863501874
 20
10.0007615342
 30
0.0
 10
11.4871102769
 20
9.9925391905
 30
0.0
 10
11.487340424
 20
9.9863519351
 30
0.0
 10
11.487340424
 20
9.9822346487
 30
0.0
  0
SPLINE
  5
376
100
AcDbEntity
  8
0
100
AcDbSpline
 62
7
  6
CONTINUOUS
 70
0
 71
3
 72
42
 73
38
 74
0
 42
0.0000001
 43
0.0000001
 44
0.0000000001
 40
0.0
 40
0.0
 40
0.0
 40
0.0
 40
0.0299419663
 40
0.0449235352
 40
0.0599142051
 40
0.0899287052
 40
0.1200139767
 40
0.135092661
 40
0.150196701
 40
0.1804840414
 40
0.210897872
 40
0.2414513324
 40
0.2721543376
 40
0.3030133986
 40
0.3340315263
 40
0.3652082187
 40
0.3965395244
 40
0.4280181782
 40
0.4596338019
 40
0.4913731609
 40
0.5232204716
 40
0.55515775
 40
0.5871651943
 40
0.6192215961
 40
0.6513047701
 40
0.6833919991
 40
0.7154604852
 40
0.7474878032
 40
0.7794523473
 40
0.8113337692
 40
0.8431133916
 40
0.8747746171
 40
0.9063032365
 40
0.9376879249
 40
0.9533258257
 40
0.968925233
 40
1.0
 40
1.0
 40
1.0
 40
1.0
 10
10.2357788599
 20
7.2866777292
 30
0.0
 10
10.2386322826
 20
7.2894339244
 30
0.0
 10
10.2430805915
 20
7.2934012317
 30
0.0
 10
10.2493103789
 20
7.2983237708
 30
0.0
 10
10.2557385403
 20
7.3030013776
 30
0.0
 10
10.2641262489
 20
7.3083727791
 30
0.0
 10
10.2729217831
 20
7.3130711942
 30
0.0
 10
10.2801758046
 20
7.3164136942
 30
0.0
 10
10.2875797007
 20
7.319480212
 30
0.0
 10
10.2970785445
 20
7.3227776385
 30
0.0
 10
10.3087844443
 20
7.3258507511
 30
0.0
 10
10.3207457707
 20
7.3280278352
 30
0.0
 10
10.3328962391
 20
7.3292968723
 30
0.0
 10
10.3451691031
 20
7.3296510919
 30
0.0
 10
10.3574968342
 20
7.3290886904
 30
0.0
 10
10.3698116761
 20
7.3276129166
 30
0.0
 10
10.3820459638
 20
7.3252320238
 30
0.0
 10
10.3941325049
 20
7.3219592255
 30
0.0
 10
10.4060049393
 20
7.3178126164
 30
0.0
 10
10.4175981002
 20
7.312815071
 30
0.0
 10
10.4288483658
 20
7.3069941157
 30
0.0
 10
10.4396940044
 20
7.3003817784
 30
0.0
 10
10.4500755083
 20
7.2930144113
 30
0.0
 10
10.4599359162
 20
7.2849324928
 30
0.0
 10
10.469221122
 20
7.2761804067
 30
0.0
 10
10.4778801681
 20
7.2668062004
 30
0.0
 10
10.4858655225
 20
7.2568613244
 30
0.0
 10
10.4931333367
 20
7.2464003511
 30
0.0
 10
10.4996436847
 20
7.2354806829
 30
0.0
 10
10.5053607802
 20
7.2241622276
 30
0.0
 10
10.5102531714
 20
7.212507121
 30
0.0
 10
10.5142939207
 20
7.2005792174
 30
0.0
 10
10.5174607094
 20
7.1884443813
 30
0.0
 10
10.5193592663
 20
7.1782012598
 30
0.0
 10
10.5204243039
 20
7.1699710424
 30
0.0
 10
10.5211843934
 20
7.1617486987
 30
0.0
 10
10.5214145405
 20
7.1555614432
 30
0.0
 10
10.5214145405
 20
7.1514441569
 30
0.0
  0
SPLINE
  5
377
100
AcDbEntity
  8
0
100
AcDbSpline
 62
7
  6
CONTINUOUS
 70
0
 71
3
 72
59
 73
55
 74
0
 42
0.0000001
 43
0.0000001
 44
0.0000000001
 40
0.0
 40
0.0
 40
0.0
 40
0.0
 40
0.0075208079
 40
0.0156241398
 40
0.0243310606
 40
0.0336548722
 40
0.0436027282
 40
0.0541767519
 40
0.0653748386
 40
0.0771914416
 40
0.0896180444
 40
0.1026434986
 40
0.1162544536
 40
0.1304355591
 40
0.1451696243
 40
0.1604378928
 40
0.1762201332
 40
0.1924947318
 40
0.2092388927
 40
0.2264286809
 40
0.2440390934
 40
0.2620442168
 40
0.2991298639
 40
0.3374628535
 40
0.3768091312
 40
0.4169263555
 40
0.4575659562
 40
0.4984751951
 40
0.5393992035
 40
0.5800829926
 40
0.620273482
 40
0.659721512
 40
0.6981838999
 40
0.7354255455
 40
0.7535182257
 40
0.7712223393
 40
0.7885117232
 40
0.8053611821
 40
0.8217465396
 40
0.8376446832
 40
0.8530337507
 40
0.8678931903
 40
0.8822038429
 40
0.8959481837
 40
0.9091104254
 40
0.9216766811
 40
0.9336353194
 40
0.9449771786
 40
0.9556959294
 40
0.9657887016
 40
0.9752565037
 40
0.9841051608
 40
0.9923469048
 40
1.0
 40
1.0
 40
1.0
 40
1.0
 10
12.4121434043
 20
8.6070048422
 30
0.0
 10
12.4112615284
 20
8.6080891601
 30
0.0
 10
12.4095239504
 20
8.6104195832
 30
0.0
 10
12.4070787287
 20
8.6142264657
 30
0.0
 10
12.4047033338
 20
8.6184656473
 30
0.0
 10
12.4024015071
 20
8.6231301675
 30
0.0
 10
12.4001767411
 20
8.6282127794
 30
0.0
 10
12.3980326287
 20
8.633705339
 30
0.0
 10
12.3959726286
 20
8.6395989823
 30
0.0
 10
12.3940001499
 20
8.645884127
 30
0.0
 10
12.3921184808
 20
8.652550498
 30
0.0
 10
12.3903307389
 20
8.6595871409
 30
0.0
 10
12.3886399265
 20
8.6669824673
 30
0.0
 10
12.3870488871
 20
8.6747242697
 30
0.0
 10
12.3855602699
 20
8.6827997421
 30
0.0
 10
12.3841765841
 20
8.6911955159
 30
0.0
 10
12.3829001597
 20
8.699897679
 30
0.0
 10
12.3817331223
 20
8.7088917977
 30
0.0
 10
12.3806774407
 20
8.7181629512
 30
0.0
 10
12.3797348975
 20
8.7276957474
 30
0.0
 10
12.3789070405
 20
8.7374743718
 30
0.0
 10
12.3779486679
 20
8.7509513873
 30
0.0
 10
12.3770551263
 20
8.7682921302
 30
0.0
 10
12.3764670173
 20
8.7896136496
 30
0.0
 10
12.3763570713
 20
8.8115063349
 30
0.0
 10
12.3767261711
 20
8.833824779
 30
0.0
 10
12.3775720039
 20
8.8564208528
 30
0.0
 10
12.3788890148
 20
8.8791445175
 30
0.0
 10
12.380668495
 20
8.9018448861
 30
0.0
 10
12.3828986092
 20
8.9243712305
 30
0.0
 10
12.3855644734
 20
8.9465739832
 30
0.0
 10
12.3886482703
 20
8.9683057944
 30
0.0
 10
12.3921293904
 20
8.9894223403
 30
0.0
 10
12.3953723072
 20
9.0065510914
 30
0.0
 10
12.3981545807
 20
9.0198366016
 30
0.0
 10
12.4003053499
 20
9.0294651048
 30
0.0
 10
12.4025366412
 20
9.038837939
 30
0.0
 10
12.4048447441
 20
9.0479395573
 30
0.0
 10
12.4072257951
 20
9.0567548522
 30
0.0
 10
12.4096758396
 20
9.0652691955
 30
0.0
 10
12.4121907786
 20
9.0734684719
 30
0.0
 10
12.4147664078
 20
9.0813390972
 30
0.0
 10
12.4173984481
 20
9.0888680361
 30
0.0
 10
12.420082497
 20
9.0960428432
 30
0.0
 10
12.4228140731
 20
9.1028516765
 30
0.0
 10
12.4255886499
 20
9.1092833123
 30
0.0
 10
12.4284016042
 20
9.1153271911
 30
0.0
 10
12.4312482733
 20
9.1209734286
 30
0.0
 10
12.4341239948
 20
9.1262128275
 30
0.0
 10
12.4370240785
 20
9.1310369269
 30
0.0
 10
12.439943823
 20
9.135437978
 30
0.0
 10
12.4428787949
 20
9.1394091418
 30
0.0
 10
12.4458242592
 20
9.142943806
 30
0.0
 10
12.4478658705
 20
9.1450829322
 30
0.0
 10
12.4488888253
 20
9.1460710307
 30
0.0
  0
SPLINE
  5
378
100
AcDbEntity
  8
0
100
AcDbSpline
 62
7
  6
CONTINUOUS
 70
0
 71
3
 72
15
 73
11
 74
0
 42
0.0000001
 43
0.0000001
 44
0.0000000001
 40
0.0
 40
0.0
 40
0.0
 40
0.0
 40
0.1223915497
 40
0.2460193779
 40
0.370679175
 40
0.4961529238
 40
0.6221715372
 40
0.748414862
 40
0.8745030941
 40
1.0
 40
1.0
 40
1.0
 40
1.0
 10
10.9566250041
 20
7.8234084027
 30
0.0
 10
10.9556393102
 20
7.8265020741
 30
0.0
 10
10.9536910419
 20
7.8327313018
 30
0.0
 10
10.9508877245
 20
7.842157367
 30
0.0
 10
10.9482308399
 20
7.8517109011
 30
0.0
 10
10.9457680826
 20
7.8613820963
 30
0.0
 10
10.9435510919
 20
7.8711560508
 30
0.0
 10
10.9416341442
 20
7.881010413
 30
0.0
 10
10.9400715578
 20
7.8909134877
 30
0.0
 10
10.9392969866
 20
7.897545062
 30
0.0
 10
10.9389844347
 20
7.9008596455
 30
0.0
  0
SPLINE
  5
379
100
AcDbEntity
  8
0
100
AcDbSpline
 62
7
  6
CONTINUOUS
 70
0
 71
3
 72
11
 73
7
 74
0
 42
0.0000001
 43
0.0000001
 44
0.0000000001
 40
0.0
 40
0.0
 40
0.0
 40
0.0
 40
0.2481018865
 40
0.4974716737
 40
0.7481124339
 40
1.0
 40
1.0
 40
1.0
 40
1.0
 10
11.0219203186
 20
7.6480569233
 30
0.0
 10
11.0169544919
 20
7.6476637242
 30
0.0
 10
11.0069639866
 20
7.6472490069
 30
0.0
 10
10.9919383579
 20
7.6477398813
 30
0.0
 10
10.9769136643
 20
7.6493386165
 30
0.0
 10
10.9669743607
 20
7.6511334793
 30
0.0
 10
10.9620329138
 20
7.6522101289
 30
0.0
  0
SPLINE
  5
37A
100
AcDbEntity
  8
0
100
AcDbSpline
 62
7
  6
CONTINUOUS
 70
0
 71
3
 72
18
 73
14
 74
0
 42
0.0000001
 43
0.0000001
 44
0.0000000001
 40
0.0
 40
0.0
 40
0.0
 40
0.0
 40
0.0548621106
 40
0.1099281304
 40
0.165399556
 40
0.2214731722
 40
0.2783387379
 40
0.3361775111
 40
0.4554063056
 40
0.5804414047
 40
0.7123341351
 40
0.8519581983
 40
1.0
 40
1.0
 40
1.0
 40
1.0
 10
10.2285748129
 20
10.5046577691
 30
0.0
 10
10.2285748097
 20
10.5053639151
 30
0.0
 10
10.2286196223
 20
10.5067792372
 30
0.0
 10
10.2288211185
 20
10.5088999202
 30
0.0
 10
10.2291568689
 20
10.5110193795
 30
0.0
 10
10.2296267465
 20
10.5131368417
 30
0.0
 10
10.2302305536
 20
10.5152517779
 30
0.0
 10
10.2312237042
 20
10.5180957962
 30
0.0
 10
10.2328147212
 20
10.5216528987
 30
0.0
 10
10.2352363545
 20
10.5258538549
 30
0.0
 10
10.2381857872
 20
10.5300276255
 30
0.0
 10
10.2416585321
 20
10.5341700042
 30
0.0
 10
10.2442413361
 20
10.5368278486
 30
0.0
 10
10.2456118675
 20
10.5381516803
 30
0.0
  0
SPLINE
  5
37B
100
AcDbEntity
  8
0
100
AcDbSpline
 62
7
  6
CONTINUOUS
 70
0
 71
3
 72
41
 73
37
 74
0
 42
0.0000001
 43
0.0000001
 44
0.0000000001
 40
0.0
 40
0.0
 40
0.0
 40
0.0
 40
0.0299421703
 40
0.0599087166
 40
0.0899234211
 40
0.1200088977
 40
0.150186053
 40
0.1804736004
 40
0.2108876395
 40
0.2414413098
 40
0.2721445264
 40
0.3030038
 40
0.3340221415
 40
0.3651990482
 40
0.3965305685
 40
0.4280094374
 40
0.4596252765
 40
0.4913648514
 40
0.5232123788
 40
0.5551498746
 40
0.5871575376
 40
0.6192141589
 40
0.6512975532
 40
0.6833850026
 40
0.7154537088
 40
0.731476412
 40
0.7474860771
 40
0.7794508401
 40
0.8113324799
 40
0.8431123195
 40
0.8747737613
 40
0.9063025943
 40
0.937687506
 40
0.953325536
 40
0.9689249997
 40
1.0
 40
1.0
 40
1.0
 40
1.0
 10
11.0026882602
 20
7.5687196215
 30
0.0
 10
10.9991878314
 20
7.5653384849
 30
0.0
 10
10.9919117569
 20
7.5588490545
 30
0.0
 10
10.980254329
 20
7.5500083756
 30
0.0
 10
10.9679131993
 20
7.5421053773
 30
0.0
 10
10.9549573166
 20
7.5351844013
 30
0.0
 10
10.9414579131
 20
7.5292832564
 30
0.0
 10
10.9274894896
 20
7.5244343823
 30
0.0
 10
10.9131290203
 20
7.5206643095
 30
0.0
 10
10.898455621
 20
7.5179936221
 30
0.0
 10
10.8835500807
 20
7.5164368283
 30
0.0
 10
10.8684944221
 20
7.5160022985
 30
0.0
 10
10.853371448
 20
7.5166922262
 30
0.0
 10
10.8382642887
 20
7.5185026296
 30
0.0
 10
10.8232559488
 20
7.5214233816
 30
0.0
 10
10.8084288568
 20
7.5254382721
 30
0.0
 10
10.7938644187
 20
7.5305251028
 30
0.0
 10
10.7796425773
 20
7.5366558123
 30
0.0
 10
10.7658413792
 20
7.5437966329
 30
0.0
 10
10.7525365547
 20
7.5519082741
 30
0.0
 10
10.7398010999
 20
7.5609461494
 30
0.0
 10
10.7277049118
 20
7.5708605754
 30
0.0
 10
10.7163142936
 20
7.5815972095
 30
0.0
 10
10.7056920294
 20
7.5930967227
 30
0.0
 10
10.6975255565
 20
7.6032672567
 30
0.0
 10
10.691432605
 20
7.6117210112
 30
0.0
 10
10.6856462205
 20
7.6203671522
 30
0.0
 10
10.6789935059
 20
7.6315255017
 30
0.0
 10
10.671980259
 20
7.6454101115
 30
0.0
 10
10.6659785044
 20
7.6597080097
 30
0.0
 10
10.6610215517
 20
7.6743404783
 30
0.0
 10
10.6571367076
 20
7.6892268226
 30
0.0
 10
10.654807666
 20
7.7017925158
 30
0.0
 10
10.6535011343
 20
7.7118888832
 30
0.0
 10
10.6525686998
 20
7.7219755941
 30
0.0
 10
10.6522863683
 20
7.7295657686
 30
0.0
 10
10.6522863683
 20
7.7346166289
 30
0.0
  0
SPLINE
  5
37C
100
AcDbEntity
  8
0
100
AcDbSpline
 62
7
  6
CONTINUOUS
 70
0
 71
3
 72
21
 73
17
 74
0
 42
0.0000001
 43
0.0000001
 44
0.0000000001
 40
0.0
 40
0.0
 40
0.0
 40
0.0
 40
0.0617147758
 40
0.1234506606
 40
0.1852285516
 40
0.2470689039
 40
0.3089915432
 40
0.3710154715
 40
0.4331586565
 40
0.4954378534
 40
0.5578684959
 40
0.6204644995
 40
0.6832380575
 40
0.7461999878
 40
0.87268242
 40
1.0
 40
1.0
 40
1.0
 40
1.0
 10
10.7095051992
 20
7.8722450431
 30
0.0
 10
10.7072395697
 20
7.8700566248
 30
0.0
 10
10.7028193676
 20
7.8655615323
 30
0.0
 10
10.6965433755
 20
7.8584856304
 30
0.0
 10
10.6906349637
 20
7.8510914996
 30
0.0
 10
10.6851079883
 20
7.8433964355
 30
0.0
 10
10.6799750961
 20
7.8354181508
 30
0.0
 10
10.6752481433
 20
7.8271750586
 30
0.0
 10
10.6709380468
 20
7.8186861542
 30
0.0
 10
10.6670546932
 20
7.8099710468
 30
0.0
 10
10.6636070139
 20
7.8010498191
 30
0.0
 10
10.6606029895
 20
7.7919430978
 30
0.0
 10
10.6580494692
 20
7.7826716463
 30
0.0
 10
10.6552493933
 20
7.7701018901
 30
0.0
 10
10.6529066837
 20
7.7540774717
 30
0.0
 10
10.6522863683
 20
7.7411149973
 30
0.0
 10
10.6522863683
 20
7.7346166289
 30
0.0
  0
SPLINE
  5
37D
100
AcDbEntity
  8
0
100
AcDbSpline
 62
7
  6
CONTINUOUS
 70
0
 71
3
 72
42
 73
38
 74
0
 42
0.0000001
 43
0.0000001
 44
0.0000000001
 40
0.0
 40
0.0
 40
0.0
 40
0.0
 40
0.0299419663
 40
0.0449235352
 40
0.0599142051
 40
0.0899287052
 40
0.1200139767
 40
0.135092661
 40
0.150196701
 40
0.1804840414
 40
0.210897872
 40
0.2414513324
 40
0.2721543376
 40
0.3030133986
 40
0.3340315263
 40
0.3652082187
 40
0.3965395244
 40
0.4280181782
 40
0.4596338019
 40
0.4913731609
 40
0.5232204716
 40
0.55515775
 40
0.5871651943
 40
0.6192215961
 40
0.6513047701
 40
0.6833919991
 40
0.7154604852
 40
0.7474878032
 40
0.7794523473
 40
0.8113337692
 40
0.8431133916
 40
0.8747746171
 40
0.9063032365
 40
0.9376879249
 40
0.9533258257
 40
0.968925233
 40
1.0
 40
1.0
 40
1.0
 40
1.0
 10
11.4406976008
 20
9.8700446689
 30
0.0
 10
11.437844178
 20
9.8672884738
 30
0.0
 10
11.4333958691
 20
9.8633211665
 30
0.0
 10
11.4271660817
 20
9.8583986274
 30
0.0
 10
11.4207379203
 20
9.8537210206
 30
0.0
 10
11.4123502117
 20
9.848349619
 30
0.0
 10
11.4035546775
 20
9.8436512039
 30
0.0
 10
11.396300656
 20
9.8403087039
 30
0.0
 10
11.3888967599
 20
9.8372421862
 30
0.0
 10
11.3793979161
 20
9.8339447597
 30
0.0
 10
11.3676920163
 20
9.8308716471
 30
0.0
 10
11.3557306899
 20
9.8286945629
 30
0.0
 10
11.3435802216
 20
9.8274255258
 30
0.0
 10
11.3313073575
 20
9.8270713062
 30
0.0
 10
11.3189796264
 20
9.8276337077
 30
0.0
 10
11.3066647845
 20
9.8291094816
 30
0.0
 10
11.2944304968
 20
9.8314903743
 30
0.0
 10
11.2823439558
 20
9.8347631727
 30
0.0
 10
11.2704715213
 20
9.8389097817
 30
0.0
 10
11.2588783604
 20
9.8439073272
 30
0.0
 10
11.2476280949
 20
9.8497282824
 30
0.0
 10
11.2367824563
 20
9.8563406198
 30
0.0
 10
11.2264009523
 20
9.8637079869
 30
0.0
 10
11.2165405444
 20
9.8717899054
 30
0.0
 10
11.2072553386
 20
9.8805419915
 30
0.0
 10
11.1985962925
 20
9.8899161977
 30
0.0
 10
11.1906109381
 20
9.8998610738
 30
0.0
 10
11.1833431239
 20
9.9103220471
 30
0.0
 10
11.1768327759
 20
9.9212417153
 30
0.0
 10
11.1711156804
 20
9.9325601705
 30
0.0
 10
11.1662232892
 20
9.9442152771
 30
0.0
 10
11.16218254
 20
9.9561431807
 30
0.0
 10
11.1590157513
 20
9.9682780168
 30
0.0
 10
11.1571171943
 20
9.9785211384
 30
0.0
 10
11.1560521567
 20
9.9867513557
 30
0.0
 10
11.1552920673
 20
9.9949736995
 30
0.0
 10
11.1550619201
 20
10.0011609549
 30
0.0
 10
11.1550619201
 20
10.0052782412
 30
0.0
  0
SPLINE
  5
37E
100
AcDbEntity
  8
0
100
AcDbSpline
 62
7
  6
CONTINUOUS
 70
0
 71
3
 72
27
 73
23
 74
0
 42
0.0000001
 43
0.0000001
 44
0.0000000001
 40
0.0
 40
0.0
 40
0.0
 40
0.0
 40
0.0211170001
 40
0.0430907571
 40
0.0659087602
 40
0.0895592786
 40
0.1140293726
 40
0.1393032599
 40
0.1653636997
 40
0.1921919668
 40
0.2480696008
 40
0.3067631021
 40
0.3680800875
 40
0.4318127757
 40
0.4977399145
 40
0.565628491
 40
0.6352353067
 40
0.7063084576
 40
0.7785887524
 40
0.8518110889
 40
0.925705803
 40
1.0
 40
1.0
 40
1.0
 40
1.0
 10
10.9566250041
 20
7.8234084027
 30
0.0
 10
10.9551786147
 20
7.8240409018
 30
0.0
 10
10.952209696
 20
7.8252919399
 30
0.0
 10
10.9476237604
 20
7.8270946754
 30
0.0
 10
10.9428207104
 20
7.8288592332
 30
0.0
 10
10.9378054577
 20
7.8305838481
 30
0.0
 10
10.9325828679
 20
7.8322668085
 30
0.0
 10
10.927158073
 20
7.8339064898
 30
0.0
 10
10.9215364364
 20
7.8355012234
 30
0.0
 10
10.9136790309
 20
7.837593918
 30
0.0
 10
10.9034028071
 20
7.8400779789
 30
0.0
 10
10.8905409558
 20
7.8428169196
 30
0.0
 10
10.8770376277
 20
7.8453418683
 30
0.0
 10
10.8629462701
 20
7.8476427151
 30
0.0
 10
10.8483225702
 20
7.8497102239
 30
0.0
 10
10.833224405
 20
7.8515361087
 30
0.0
 10
10.81771155
 20
7.8531130536
 30
0.0
 10
10.8018454475
 20
7.8544347443
 30
0.0
 10
10.78568896
 20
7.8554958903
 30
0.0
 10
10.7693060933
 20
7.8562922464
 30
0.0
 10
10.7527618321
 20
7.8568206246
 30
0.0
 10
10.741684465
 20
7.8569925717
 30
0.0
 10
10.7361306252
 20
7.8570335708
 30
0.0
  0
SPLINE
  5
37F
100
AcDbEntity
  8
0
100
AcDbSpline
 62
7
  6
CONTINUOUS
 70
0
 71
3
 72
46
 73
42
 74
0
 42
0.0000001
 43
0.0000001
 44
0.0000000001
 40
0.0
 40
0.0
 40
0.0
 40
0.0
 40
0.0100613975
 40
0.0202831363
 40
0.0306729611
 40
0.041256901
 40
0.0520911873
 40
0.0576334837
 40
0.0632790246
 40
0.0690460079
 40
0.074953368
 40
0.0810189116
 40
0.0872562121
 40
0.093674255
 40
0.1002745149
 40
0.1070528905
 40
0.1139996034
 40
0.1211010688
 40
0.1283427355
 40
0.1431809085
 40
0.1584022411
 40
0.1739141184
 40
0.1896466639
 40
0.2055483273
 40
0.2215823696
 40
0.2377214994
 40
0.2702370792
 40
0.3029842015
 40
0.3358942113
 40
0.3689222163
 40
0.4020370987
 40
0.4352162867
 40
0.4684426012
 40
0.5349854481
 40
0.6015854831
 40
0.6681863026
 40
0.734745838
 40
0.801231255
 40
0.8676159449
 40
0.9338789694
 40
1.0
 40
1.0
 40
1.0
 40
1.0
 10
10.7844589392
 20
7.7073094229
 30
0.0
 10
10.7842443248
 20
7.7080097418
 30
0.0
 10
10.783830624
 20
7.7094275102
 30
0.0
 10
10.7832887747
 20
7.7115945151
 30
0.0
 10
10.7828568229
 20
7.7138256011
 30
0.0
 10
10.782581917
 20
7.7161273295
 30
0.0
 10
10.7825334997
 20
7.7180935491
 30
0.0
 10
10.7826335699
 20
7.7196945188
 30
0.0
 10
10.7827885361
 20
7.7209199736
 30
0.0
 10
10.783031279
 20
7.7221582895
 30
0.0
 10
10.7833685092
 20
7.7234060797
 30
0.0
 10
10.7838057296
 20
7.7246587963
 30
0.0
 10
10.7843448428
 20
7.725911713
 30
0.0
 10
10.7849862435
 20
7.7271593244
 30
0.0
 10
10.7857259656
 20
7.728397252
 30
0.0
 10
10.7865593008
 20
7.7296208979
 30
0.0
 10
10.7874783853
 20
7.7308275336
 30
0.0
 10
10.7884756605
 20
7.7320146498
 30
0.0
 10
10.7899096184
 20
7.7335827546
 30
0.0
 10
10.7918526412
 20
7.7354828893
 30
0.0
 10
10.7943525339
 20
7.7376657748
 30
0.0
 10
10.7969957406
 20
7.7397780709
 30
0.0
 10
10.7997486495
 20
7.7418286944
 30
0.0
 10
10.8025864804
 20
7.7438265669
 30
0.0
 10
10.8054911631
 20
7.7457792977
 30
0.0
 10
10.8094452085
 20
7.7483376026
 30
0.0
 10
10.8144895595
 20
7.7514488997
 30
0.0
 10
10.8206475594
 20
7.755076866
 30
0.0
 10
10.8268918229
 20
7.7586301064
 30
0.0
 10
10.8332001231
 20
7.7621237831
 30
0.0
 10
10.8395573766
 20
7.7655688053
 30
0.0
 10
10.8459528493
 20
7.7689731244
 30
0.0
 10
10.854524509
 20
7.7734678552
 30
0.0
 10
10.865294843
 20
7.7790082151
 30
0.0
 10
10.8782774717
 20
7.7855582286
 30
0.0
 10
10.8913019486
 20
7.7920273018
 30
0.0
 10
10.9043522561
 20
7.7984251144
 30
0.0
 10
10.9174165868
 20
7.8047582262
 30
0.0
 10
10.9304858886
 20
7.8110313287
 30
0.0
 10
10.9435528888
 20
7.817247706
 30
0.0
 10
10.952268771
 20
7.8213605195
 30
0.0
 10
10.9566250041
 20
7.8234084027
 30
0.0
  0
SPLINE
  5
380
100
AcDbEntity
  8
0
100
AcDbSpline
 62
7
  6
CONTINUOUS
 70
0
 71
3
 72
42
 73
38
 74
0
 42
0.0000001
 43
0.0000001
 44
0.0000000001
 40
0.0
 40
0.0
 40
0.0
 40
0.0
 40
0.0299419663
 40
0.0449235352
 40
0.0599142051
 40
0.0899287052
 40
0.1200139767
 40
0.135092661
 40
0.150196701
 40
0.1804840414
 40
0.210897872
 40
0.2414513324
 40
0.2721543376
 40
0.3030133986
 40
0.3340315263
 40
0.3652082187
 40
0.3965395244
 40
0.4280181782
 40
0.4596338019
 40
0.4913731609
 40
0.5232204716
 40
0.55515775
 40
0.5871651943
 40
0.6192215961
 40
0.6513047701
 40
0.6833919991
 40
0.7154604852
 40
0.7474878032
 40
0.7794523473
 40
0.8113337692
 40
0.8431133916
 40
0.8747746171
 40
0.9063032365
 40
0.9376879249
 40
0.9533258257
 40
0.968925233
 40
1.0
 40
1.0
 40
1.0
 40
1.0
 10
10.4747717172
 20
7.0392541771
 30
0.0
 10
10.4719182945
 20
7.036497982
 30
0.0
 10
10.4674699856
 20
7.0325306747
 30
0.0
 10
10.4612401982
 20
7.0276081356
 30
0.0
 10
10.4548120368
 20
7.0229305288
 30
0.0
 10
10.4464243282
 20
7.0175591272
 30
0.0
 10
10.437628794
 20
7.0128607121
 30
0.0
 10
10.4303747725
 20
7.0095182121
 30
0.0
 10
10.4229708764
 20
7.0064516944
 30
0.0
 10
10.4134720326
 20
7.0031542679
 30
0.0
 10
10.4017661328
 20
7.0000811552
 30
0.0
 10
10.3898048064
 20
6.9979040711
 30
0.0
 10
10.377654338
 20
6.996635034
 30
0.0
 10
10.3653814739
 20
6.9962808144
 30
0.0
 10
10.3530537428
 20
6.9968432159
 30
0.0
 10
10.340738901
 20
6.9983189898
 30
0.0
 10
10.3285046132
 20
7.0006998825
 30
0.0
 10
10.3164180722
 20
7.0039726809
 30
0.0
 10
10.3045456378
 20
7.0081192899
 30
0.0
 10
10.2929524769
 20
7.0131168353
 30
0.0
 10
10.2817022113
 20
7.0189377906
 30
0.0
 10
10.2708565727
 20
7.025550128
 30
0.0
 10
10.2604750688
 20
7.0329174951
 30
0.0
 10
10.2506146609
 20
7.0409994136
 30
0.0
 10
10.2413294551
 20
7.0497514997
 30
0.0
 10
10.232670409
 20
7.0591257059
 30
0.0
 10
10.2246850546
 20
7.069070582
 30
0.0
 10
10.2174172404
 20
7.0795315553
 30
0.0
 10
10.2109068924
 20
7.0904512235
 30
0.0
 10
10.2051897969
 20
7.1017696787
 30
0.0
 10
10.2002974057
 20
7.1134247853
 30
0.0
 10
10.1962566564
 20
7.1253526889
 30
0.0
 10
10.1930898677
 20
7.137487525
 30
0.0
 10
10.1911913108
 20
7.1477306466
 30
0.0
 10
10.1901262732
 20
7.1559608639
 30
0.0
 10
10.1893661837
 20
7.1641832077
 30
0.0
 10
10.1891360366
 20
7.1703704631
 30
0.0
 10
10.1891360366
 20
7.1744877494
 30
0.0
  0
SPLINE
  5
381
100
AcDbEntity
  8
0
100
AcDbSpline
 62
7
  6
CONTINUOUS
 70
0
 71
3
 72
86
 73
82
 74
0
 42
0.0000001
 43
0.0000001
 44
0.0000000001
 40
0.0
 40
0.0
 40
0.0
 40
0.0
 40
0.0039801735
 40
0.0081241171
 40
0.0124359931
 40
0.016919361
 40
0.0215772361
 40
0.0264119817
 40
0.0314252561
 40
0.0366182449
 40
0.0419916453
 40
0.0475457694
 40
0.0532805541
 40
0.0591955582
 40
0.0652900785
 40
0.0715630739
 40
0.0846387684
 40
0.0984101018
 40
0.112860694
 40
0.1279712428
 40
0.1437198619
 40
0.1600823544
 40
0.1770324406
 40
0.1945419645
 40
0.2125810668
 40
0.2311183398
 40
0.2501209668
 40
0.2695548486
 40
0.289384725
 40
0.3095742955
 40
0.3300863312
 40
0.3508827821
 40
0.3719248818
 40
0.3931732491
 40
0.4145879914
 40
0.4577543474
 40
0.501099203
 40
0.5442952951
 40
0.5657359749
 40
0.587017582
 40
0.6081001434
 40
0.6289441761
 40
0.6495107926
 40
0.6697618048
 40
0.6896598276
 40
0.709168385
 40
0.7282520204
 40
0.7468764117
 40
0.7650084972
 40
0.7826166038
 40
0.7996705814
 40
0.8161419537
 40
0.8320040874
 40
0.8472323859
 40
0.8618045214
 40
0.8757007003
 40
0.8889039845
 40
0.9014006969
 40
0.9073810972
 40
0.9131815075
 40
0.9188013673
 40
0.9242405009
 40
0.9294990443
 40
0.9345775709
 40
0.9394770909
 40
0.9441990928
 40
0.9487456636
 40
0.9531194621
 40
0.9573238984
 40
0.9613631411
 40
0.9652422549
 40
0.9689673208
 40
0.9725454977
 40
0.9759852252
 40
0.9824864215
 40
0.9855752926
 40
0.9885737717
 40
0.9914977072
 40
0.9943643167
 40
0.9971920017
 40
1.0
 40
1.0
 40
1.0
 40
1.0
 10
10.2456118675
 20
10.5381516803
 30
0.0
 10
10.2466021449
 20
10.5391082149
 30
0.0
 10
10.2486684182
 20
10.5410145229
 30
0.0
 10
10.2519490299
 20
10.5437988364
 30
0.0
 10
10.2554705528
 20
10.5465631888
 30
0.0
 10
10.2592310537
 20
10.5493060908
 30
0.0
 10
10.263228686
 20
10.5520262749
 30
0.0
 10
10.267461505
 20
10.5547224036
 30
0.0
 10
10.271927389
 20
10.5573932036
 30
0.0
 10
10.2766241245
 20
10.5600372845
 30
0.0
 10
10.2815493423
 20
10.5626533617
 30
0.0
 10
10.2867005834
 20
10.5652401175
 30
0.0
 10
10.2920752718
 20
10.5677962428
 30
0.0
 10
10.2976706973
 20
10.570320482
 30
0.0
 10
10.3034840684
 20
10.5728115362
 30
0.0
 10
10.3116349237
 20
10.5761330372
 30
0.0
 10
10.3223539819
 20
10.580183928
 30
0.0
 10
10.3358654736
 20
10.5848283334
 30
0.0
 10
10.3501706053
 20
10.5893114788
 30
0.0
 10
10.3652405359
 20
10.5936242517
 30
0.0
 10
10.3810450144
 20
10.597757873
 30
0.0
 10
10.3975522038
 20
10.6017039223
 30
0.0
 10
10.4147288246
 20
10.6054543643
 30
0.0
 10
10.4325402122
 20
10.6090015595
 30
0.0
 10
10.4509504004
 20
10.6123382829
 30
0.0
 10
10.4699221969
 20
10.6154577388
 30
0.0
 10
10.4894172603
 20
10.618353574
 30
0.0
 10
10.5093961782
 20
10.6210198924
 30
0.0
 10
10.5298185486
 20
10.6234512705
 30
0.0
 10
10.5506430663
 20
10.625642762
 30
0.0
 10
10.5718276074
 20
10.6275899085
 30
0.0
 10
10.5933293194
 20
10.6292887507
 30
0.0
 10
10.6151046918
 20
10.6307358252
 30
0.0
 10
10.6371097042
 20
10.6319282128
 30
0.0
 10
10.6667738454
 20
10.6331783974
 30
0.0
 10
10.7041000287
 20
10.6340864778
 30
0.0
 10
10.748971812
 20
10.6341338242
 30
0.0
 10
10.7863190858
 20
10.6333046695
 30
0.0
 10
10.8160165941
 20
10.6321174999
 30
0.0
 10
10.838058593
 20
10.6309717116
 30
0.0
 10
10.8598790187
 20
10.6295707591
 30
0.0
 10
10.8814337585
 20
10.6279174651
 30
0.0
 10
10.9026791925
 20
10.6260151982
 30
0.0
 10
10.9235723443
 20
10.6238678281
 30
0.0
 10
10.9440709513
 20
10.621479724
 30
0.0
 10
10.9641335547
 20
10.6188557448
 30
0.0
 10
10.9837195822
 20
10.6160012295
 30
0.0
 10
11.0027894334
 20
10.612921986
 30
0.0
 10
11.0213045646
 20
10.6096242843
 30
0.0
 10
11.0392275688
 20
10.6061148421
 30
0.0
 10
11.0565222526
 20
10.6024008078
 30
0.0
 10
11.0731537122
 20
10.5984897472
 30
0.0
 10
11.0890884066
 20
10.5943896271
 30
0.0
 10
11.1042942416
 20
10.590108795
 30
0.0
 10
11.118740623
 20
10.5856559668
 30
0.0
 10
11.1323986128
 20
10.5810401961
 30
0.0
 10
11.1452407104
 20
10.5762708537
 30
0.0
 10
11.1553848067
 20
10.5721178605
 30
0.0
 10
11.1630644246
 20
10.568718194
 30
0.0
 10
11.1685197326
 20
10.5661735134
 30
0.0
 10
11.1737525516
 20
10.5635977385
 30
0.0
 10
11.178760281
 20
10.5609921882
 30
0.0
 10
11.1835403969
 20
10.5583581336
 30
0.0
 10
11.1880905156
 20
10.5556969072
 30
0.0
 10
11.1924083707
 20
10.5530098399
 30
0.0
 10
11.1964917921
 20
10.5502982251
 30
0.0
 10
11.2003387754
 20
10.5475634453
 30
0.0
 10
11.2039473763
 20
10.5448067762
 30
0.0
 10
11.2073158274
 20
10.5420295872
 30
0.0
 10
11.2104424347
 20
10.539233188
 30
0.0
 10
11.2133256368
 20
10.5364188529
 30
0.0
 10
11.2159639434
 20
10.5335880178
 30
0.0
 10
11.2183561566
 20
10.5307415789
 30
0.0
 10
11.2211625054
 20
10.5269988895
 30
0.0
 10
11.2235455176
 20
10.5231552821
 30
0.0
 10
11.2254375572
 20
10.5192296231
 30
0.0
 10
11.2265807026
 20
10.5163262953
 30
0.0
 10
11.2274709565
 20
10.5134159172
 30
0.0
 10
11.2281074904
 20
10.5104998732
 30
0.0
 10
11.2284897121
 20
10.5075802689
 30
0.0
 10
11.2285748011
 20
10.505629739
 30
0.0
 10
11.2285748055
 20
10.5046584039
 30
0.0
  0
SPLINE
  5
382
100
AcDbEntity
  8
0
100
AcDbSpline
 62
7
  6
CONTINUOUS
 70
0
 71
3
 72
86
 73
82
 74
0
 42
0.0000001
 43
0.0000001
 44
0.0000000001
 40
0.0
 40
0.0
 40
0.0
 40
0.0
 40
0.0039487674
 40
0.0077209355
 40
0.0113257336
 40
0.0147746617
 40
0.0212567992
 40
0.0243283615
 40
0.0273114634
 40
0.0302283474
 40
0.0331029463
 40
0.0359603569
 40
0.0388261651
 40
0.0417257185
 40
0.0446834111
 40
0.0477221074
 40
0.0508627303
 40
0.0541239774
 40
0.0575223294
 40
0.0610720098
 40
0.0647851791
 40
0.0686721212
 40
0.0727413593
 40
0.0769999812
 40
0.0814536943
 40
0.0861070657
 40
0.0909636836
 40
0.0960261794
 40
0.1012964876
 40
0.1067757995
 40
0.1124647125
 40
0.1183633248
 40
0.1244711751
 40
0.1373102774
 40
0.1509713791
 40
0.1654378435
 40
0.1806885687
 40
0.1966985913
 40
0.2134395426
 40
0.2308800489
 40
0.2489860598
 40
0.2677211165
 40
0.2870465817
 40
0.3069218359
 40
0.3273044875
 40
0.3481505568
 40
0.3694146428
 40
0.3910500793
 40
0.4130090872
 40
0.4577012019
 40
0.5030934579
 40
0.5487792776
 40
0.5943487452
 40
0.6393932599
 40
0.6615929578
 40
0.6835111963
 40
0.7050993657
 40
0.72630983
 40
0.7470960865
 40
0.7674129149
 40
0.7872165371
 40
0.8064647867
 40
0.8251173052
 40
0.8431357374
 40
0.8604839326
 40
0.8771281811
 40
0.8930374915
 40
0.908183938
 40
0.9225430468
 40
0.9360942774
 40
0.9488216435
 40
0.954873172
 40
0.9607153084
 40
0.9663477363
 40
0.9717706546
 40
0.9769848137
 40
0.9819915562
 40
0.9867931175
 40
0.9913924783
 40
0.9957932892
 40
1.0
 40
1.0
 40
1.0
 40
1.0
 10
12.4495735994
 20
9.1467203917
 30
0.0
 10
12.4501512644
 20
9.1472579933
 30
0.0
 10
12.4513061237
 20
9.1482824269
 30
0.0
 10
12.4530780658
 20
9.14969232
 30
0.0
 10
12.4548484237
 20
9.1509385599
 30
0.0
 10
12.4571565776
 20
9.1523511745
 30
0.0
 10
12.4595114965
 20
9.1534777101
 30
0.0
 10
12.4618913266
 20
9.1542691224
 30
0.0
 10
12.4636379411
 20
9.1546846521
 30
0.0
 10
12.4653765177
 20
9.1549320101
 30
0.0
 10
12.4671058342
 20
9.1550108152
 30
0.0
 10
12.4688244269
 20
9.1549208086
 30
0.0
 10
12.4705308424
 20
9.1546621253
 30
0.0
 10
12.4722236423
 20
9.1542349973
 30
0.0
 10
12.4739015244
 20
9.1536400294
 30
0.0
 10
12.4755633253
 20
9.1528779121
 30
0.0
 10
12.4772079967
 20
9.151949411
 30
0.0
 10
12.4788346646
 20
9.1508554342
 30
0.0
 10
12.480442445
 20
9.1495967952
 30
0.0
 10
12.4820305642
 20
9.1481744352
 30
0.0
 10
12.4835982317
 20
9.1465892829
 30
0.0
 10
12.4851446255
 20
9.1448423028
 30
0.0
 10
12.4866689935
 20
9.1429345808
 30
0.0
 10
12.4881704769
 20
9.1408672077
 30
0.0
 10
12.489648287
 20
9.1386414136
 30
0.0
 10
12.4911016027
 20
9.1362584943
 30
0.0
 10
12.4925295707
 20
9.1337198271
 30
0.0
 10
12.4939314172
 20
9.1310269168
 30
0.0
 10
12.4953062853
 20
9.1281813251
 30
0.0
 10
12.4966533949
 20
9.1251847355
 30
0.0
 10
12.4979719519
 20
9.1220389165
 30
0.0
 10
12.4992611656
 20
9.1187457149
 30
0.0
 10
12.5009684579
 20
9.1140829813
 30
0.0
 10
12.5030160868
 20
9.1078947393
 30
0.0
 10
12.5053054534
 20
9.1000330168
 30
0.0
 10
12.5074606597
 20
9.0916350912
 30
0.0
 10
12.5094765099
 20
9.0827209289
 30
0.0
 10
12.5113481123
 20
9.0733116217
 30
0.0
 10
12.5130709313
 20
9.063429552
 30
0.0
 10
12.5146407871
 20
9.0530982565
 30
0.0
 10
12.5160538686
 20
9.0423423762
 30
0.0
 10
12.5173067431
 20
9.0311875846
 30
0.0
 10
12.5183963643
 20
9.0196605278
 30
0.0
 10
12.5193200901
 20
9.0077887587
 30
0.0
 10
12.5200756777
 20
8.9956006657
 30
0.0
 10
12.5206612912
 20
8.9831253975
 30
0.0
 10
12.5210754968
 20
8.9703928019
 30
0.0
 10
12.5213172989
 20
8.9574333185
 30
0.0
 10
12.5214094759
 20
8.9397899469
 30
0.0
 10
12.5210857801
 20
8.9173988667
 30
0.0
 10
12.5200148269
 20
8.8902850392
 30
0.0
 10
12.5182689986
 20
8.8630305126
 30
0.0
 10
12.5158649792
 20
8.8358960184
 30
0.0
 10
12.5133203078
 20
8.813492786
 30
0.0
 10
12.5109683866
 20
8.7958300521
 30
0.0
 10
12.5090646243
 20
8.7828376866
 30
0.0
 10
12.507017193
 20
8.7700673618
 30
0.0
 10
12.5048309876
 20
8.7575496117
 30
0.0
 10
12.5025112699
 20
8.7453143865
 30
0.0
 10
12.5000636138
 20
8.7333909485
 30
0.0
 10
12.4974939037
 20
8.7218078116
 30
0.0
 10
12.4948083157
 20
8.7105926679
 30
0.0
 10
12.4920133116
 20
8.6997723157
 30
0.0
 10
12.4891156205
 20
8.6893725915
 30
0.0
 10
12.4861222175
 20
8.679418309
 30
0.0
 10
12.4830403086
 20
8.6699331988
 30
0.0
 10
12.4798773072
 20
8.6609398368
 30
0.0
 10
12.4766408248
 20
8.6524595944
 30
0.0
 10
12.4733386364
 20
8.6445125084
 30
0.0
 10
12.469978661
 20
8.6371174587
 30
0.0
 10
12.467090673
 20
8.6313359097
 30
0.0
 10
12.4647519843
 20
8.6270065948
 30
0.0
 10
12.4630180754
 20
8.6239631202
 30
0.0
 10
12.4612757331
 20
8.6210701376
 30
0.0
 10
12.459525976
 20
8.6183293589
 30
0.0
 10
12.4577698716
 20
8.6157423934
 30
0.0
 10
12.4560083979
 20
8.6133107724
 30
0.0
 10
12.45424259
 20
8.6110358785
 30
0.0
 10
12.4524734062
 20
8.608919045
 30
0.0
 10
12.4507019917
 20
8.6069616335
 30
0.0
 10
12.4494934801
 20
8.6057365877
 30
0.0
 10
12.4488888253
 20
8.605152536
 30
0.0
  0
SPLINE
  5
383
100
AcDbEntity
  8
0
100
AcDbSpline
 62
7
  6
CONTINUOUS
 70
0
 71
3
 72
21
 73
17
 74
0
 42
0.0000001
 43
0.0000001
 44
0.0000000001
 40
0.0
 40
0.0
 40
0.0
 40
0.0
 40
0.1273176366
 40
0.2537999756
 40
0.3167619475
 40
0.3795355041
 40
0.4421314991
 40
0.5045621439
 40
0.5668413432
 40
0.6289845283
 40
0.6910084528
 40
0.7529310935
 40
0.8147714495
 40
0.8765493365
 40
0.9382852194
 40
1.0
 40
1.0
 40
1.0
 40
1.0
 10
11.1550619201
 20
10.0052782412
 30
0.0
 10
11.1550619201
 20
10.0105754911
 30
0.0
 10
11.1555675776
 20
10.0211420554
 30
0.0
 10
11.1574772816
 20
10.0342046118
 30
0.0
 10
11.1597598026
 20
10.0444510455
 30
0.0
 10
11.1618413391
 20
10.0520088186
 30
0.0
 10
11.1642901267
 20
10.0594323025
 30
0.0
 10
11.1671005545
 20
10.0667045824
 30
0.0
 10
11.1702661219
 20
10.0738088443
 30
0.0
 10
11.1737795733
 20
10.0807287047
 30
0.0
 10
11.1776328266
 20
10.0874481889
 30
0.0
 10
11.1818169731
 20
10.0939518209
 30
0.0
 10
11.1863223755
 20
10.1002245736
 30
0.0
 10
11.1911387227
 20
10.1062520055
 30
0.0
 10
11.1962546813
 20
10.1120200521
 30
0.0
 10
11.1998578846
 20
10.1156842921
 30
0.0
 10
11.2017047434
 20
10.117468221
 30
0.0
  0
SPLINE
  5
384
100
AcDbEntity
  8
0
100
AcDbSpline
 62
7
  6
CONTINUOUS
 70
0
 71
3
 72
53
 73
49
 74
0
 42
0.0000001
 43
0.0000001
 44
0.0000000001
 40
0.0
 40
0.0
 40
0.0
 40
0.0
 40
0.0083901661
 40
0.0173439498
 40
0.0268686935
 40
0.0369669647
 40
0.0476378642
 40
0.0588775821
 40
0.0706796536
 40
0.0830354893
 40
0.0959344068
 40
0.109364142
 40
0.1233107386
 40
0.1377589302
 40
0.1526921245
 40
0.1680925514
 40
0.200217984
 40
0.233974145
 40
0.2691853768
 40
0.3056645326
 40
0.343214818
 40
0.3816315076
 40
0.4207035882
 40
0.4602153562
 40
0.4999479908
 40
0.5396811126
 40
0.5791943391
 40
0.6182688398
 40
0.6566888941
 40
0.6942434642
 40
0.7307277928
 40
0.7659450455
 40
0.7997080279
 40
0.8318410299
 40
0.84724551
 40
0.8621829052
 40
0.8766354646
 40
0.8905865563
 40
0.9040209255
 40
0.9169245893
 40
0.9292852689
 40
0.941092279
 40
0.9523369944
 40
0.9630129549
 40
0.973116262
 40
0.982646074
 40
0.9916049845
 40
1.0
 40
1.0
 40
1.0
 40
1.0
 10
12.3859982412
 20
8.6805369909
 30
0.0
 10
12.3867208278
 20
8.6814209767
 30
0.0
 10
12.3881603853
 20
8.6832930303
 30
0.0
 10
12.3902412562
 20
8.6863009589
 30
0.0
 10
12.3923103114
 20
8.6895949384
 30
0.0
 10
12.394364531
 20
8.6931701486
 30
0.0
 10
12.3964009548
 20
8.6970214868
 30
0.0
 10
12.3984165933
 20
8.7011433646
 30
0.0
 10
12.4004085202
 20
8.7055297835
 30
0.0
 10
12.402373749
 20
8.7101743469
 30
0.0
 10
12.4043094213
 20
8.7150702376
 30
0.0
 10
12.4062126218
 20
8.7202102753
 30
0.0
 10
12.4080805651
 20
8.7255868926
 30
0.0
 10
12.4099104502
 20
8.7311921718
 30
0.0
 10
12.4116995886
 20
8.7370178541
 30
0.0
 10
12.4140604843
 20
8.7451831623
 30
0.0
 10
12.4168817155
 20
8.7558800414
 30
0.0
 10
12.4200188051
 20
8.7692759069
 30
0.0
 10
12.4229345903
 20
8.7833272155
 30
0.0
 10
12.4256116775
 20
8.7979509807
 30
0.0
 10
12.4280340795
 20
8.8130609219
 30
0.0
 10
12.4301873587
 20
8.828567788
 30
0.0
 10
12.4320586947
 20
8.8443799588
 30
0.0
 10
12.4336369617
 20
8.8604039816
 30
0.0
 10
12.4349127912
 20
8.8765451362
 30
0.0
 10
12.4358786279
 20
8.8927080009
 30
0.0
 10
12.4365287756
 20
8.9087970242
 30
0.0
 10
12.4368594292
 20
8.9247170963
 30
0.0
 10
12.4368686997
 20
8.9403741176
 30
0.0
 10
12.436556629
 20
8.9556755672
 30
0.0
 10
12.4359251881
 20
8.9705310445
 30
0.0
 10
12.434978292
 20
8.9848528743
 30
0.0
 10
12.4337217055
 20
8.9985564486
 30
0.0
 10
12.4324051606
 20
9.0095430216
 30
0.0
 10
12.4311948641
 20
9.0179583572
 30
0.0
 10
12.4302276379
 20
9.0239770779
 30
0.0
 10
12.4291896273
 20
9.0297832068
 30
0.0
 10
12.4280823366
 20
9.0353681903
 30
0.0
 10
12.4269074605
 20
9.0407237969
 30
0.0
 10
12.4256667035
 20
9.0458421439
 30
0.0
 10
12.4243619622
 20
9.0507157137
 30
0.0
 10
12.4229951345
 20
9.0553373586
 30
0.0
 10
12.4215682759
 20
9.0597003247
 30
0.0
 10
12.4200834802
 20
9.0637982633
 30
0.0
 10
12.4185429163
 20
9.0676252228
 30
0.0
 10
12.4169488242
 20
9.0711757548
 30
0.0
 10
12.4153035007
 20
9.0744446283
 30
0.0
 10
12.4141364465
 20
9.0764992075
 30
0.0
 10
12.4135429572
 20
9.0774753428
 30
0.0
  0
SPLINE
  5
385
100
AcDbEntity
  8
0
100
AcDbSpline
 62
7
  6
CONTINUOUS
 70
0
 71
3
 72
71
 73
67
 74
0
 42
0.0000001
 43
0.0000001
 44
0.0000000001
 40
0.0
 40
0.0
 40
0.0
 40
0.0
 40
0.0155841583
 40
0.0311159808
 40
0.0465952391
 40
0.0620238824
 40
0.0774034512
 40
0.0927362817
 40
0.1080251233
 40
0.1232731726
 40
0.138484055
 40
0.1536617764
 40
0.1688106901
 40
0.183935453
 40
0.1990409778
 40
0.2141323818
 40
0.2292149321
 40
0.24429399
 40
0.2593749541
 40
0.2744632037
 40
0.28956404
 40
0.3046826301
 40
0.319823951
 40
0.3349927394
 40
0.3501934432
 40
0.3654301763
 40
0.380706678
 40
0.3960262757
 40
0.4113918557
 40
0.4268058382
 40
0.442270158
 40
0.4577862479
 40
0.4733550295
 40
0.4889769098
 40
0.5046517843
 40
0.5203790419
 40
0.5361575758
 40
0.5519857968
 40
0.5678616544
 40
0.5837826609
 40
0.5997459173
 40
0.6157481415
 40
0.6317856999
 40
0.6478546445
 40
0.6639507497
 40
0.6800695506
 40
0.696206382
 40
0.7123564201
 40
0.7285147268
 40
0.7446762928
 40
0.7608360801
 40
0.7769890652
 40
0.7931302837
 40
0.8092548746
 40
0.8253581231
 40
0.8414355008
 40
0.8574827062
 40
0.8734957056
 40
0.8894707696
 40
0.9054045137
 40
0.9212939168
 40
0.9371363628
 40
0.9529297287
 40
0.9686720424
 40
0.9843627193
 40
1.0
 40
1.0
 40
1.0
 40
1.0
 10
11.1086974777
 20
7.684475933
 30
0.0
 10
11.1086974777
 20
7.6800585861
 30
0.0
 10
11.1084812882
 20
7.6712371611
 30
0.0
 10
11.107505465
 20
7.6580606176
 30
0.0
 10
11.1058808082
 20
7.6449922897
 30
0.0
 10
11.1036113662
 20
7.6320642319
 30
0.0
 10
11.1007024594
 20
7.6193073717
 30
0.0
 10
11.0971611021
 20
7.6067525414
 30
0.0
 10
11.0929958013
 20
7.5944299868
 30
0.0
 10
11.0882165739
 20
7.5823694231
 30
0.0
 10
11.0828349169
 20
7.5705999352
 30
0.0
 10
11.0768637728
 20
7.5591499142
 30
0.0
 10
11.0703175113
 20
7.5480469867
 30
0.0
 10
11.0632119142
 20
7.5373179308
 30
0.0
 10
11.0555641078
 20
7.5269886278
 30
0.0
 10
11.0473925257
 20
7.5170839974
 30
0.0
 10
11.0387168626
 20
7.5076279413
 30
0.0
 10
11.0295580357
 20
7.4986432778
 30
0.0
 10
11.0199381473
 20
7.4901516686
 30
0.0
 10
11.0098804054
 20
7.4821735895
 30
0.0
 10
10.9994090724
 20
7.4747282775
 30
0.0
 10
10.9885494043
 20
7.4678336889
 30
0.0
 10
10.9773275981
 20
7.4615064446
 30
0.0
 10
10.9657707335
 20
7.4557617738
 30
0.0
 10
10.9539066892
 20
7.4506135054
 30
0.0
 10
10.9417640793
 20
7.4460740305
 30
0.0
 10
10.9293721838
 20
7.4421542785
 30
0.0
 10
10.9167608841
 20
7.438863674
 30
0.0
 10
10.9039605901
 20
7.4362101049
 30
0.0
 10
10.8910021578
 20
7.4341999321
 30
0.0
 10
10.8779168183
 20
7.4328379687
 30
0.0
 10
10.864736103
 20
7.4321274763
 30
0.0
 10
10.8514917712
 20
7.4320701349
 30
0.0
 10
10.8382157296
 20
7.4326660364
 30
0.0
 10
10.8249399549
 20
7.4339137118
 30
0.0
 10
10.8116964191
 20
7.4358101276
 30
0.0
 10
10.7985170152
 20
7.4383507007
 30
0.0
 10
10.7854334774
 20
7.441529284
 30
0.0
 10
10.7724773023
 20
7.4453381857
 30
0.0
 10
10.7596796782
 20
7.4497682098
 30
0.0
 10
10.7470714108
 20
7.4548086717
 30
0.0
 10
10.7346828535
 20
7.4604474296
 30
0.0
 10
10.7225438239
 20
7.4666708878
 30
0.0
 10
10.7106835332
 20
7.4734640392
 30
0.0
 10
10.6991305247
 20
7.4808105178
 30
0.0
 10
10.6879126042
 20
7.488692632
 30
0.0
 10
10.6770567786
 20
7.4970914111
 30
0.0
 10
10.6665891731
 20
7.5059866268
 30
0.0
 10
10.6565349747
 20
7.5153568553
 30
0.0
 10
10.6469183821
 20
7.5251795394
 30
0.0
 10
10.6377625456
 20
7.5354310375
 30
0.0
 10
10.629089517
 20
7.5460866831
 30
0.0
 10
10.6209201713
 20
7.5571208233
 30
0.0
 10
10.6132741713
 20
7.5685068956
 30
0.0
 10
10.6061699284
 20
7.5802174968
 30
0.0
 10
10.5996245576
 20
7.5922244451
 30
0.0
 10
10.5936538396
 20
7.6044988483
 30
0.0
 10
10.5882721546
 20
7.6170111587
 30
0.0
 10
10.5834924658
 20
7.6297312576
 30
0.0
 10
10.5793263005
 20
7.6426285286
 30
0.0
 10
10.5757837152
 20
7.6556719239
 30
0.0
 10
10.5728732641
 20
7.668830067
 30
0.0
 10
10.5706020158
 20
7.682071197
 30
0.0
 10
10.5689753527
 20
7.6953636679
 30
0.0
 10
10.5679973848
 20
7.7086749004
 30
0.0
 10
10.5677789829
 20
7.7175563535
 30
0.0
 10
10.5677789829
 20
7.721988758
 30
0.0
  0
SPLINE
  5
386
100
AcDbEntity
  8
0
100
AcDbSpline
 62
7
  6
CONTINUOUS
 70
0
 71
3
 72
21
 73
17
 74
0
 42
0.0000001
 43
0.0000001
 44
0.0000000001
 40
0.0
 40
0.0
 40
0.0
 40
0.0
 40
0.1273176366
 40
0.2537999756
 40
0.3167619475
 40
0.3795355041
 40
0.4421314991
 40
0.5045621439
 40
0.5668413432
 40
0.6289845283
 40
0.6910084528
 40
0.7529310935
 40
0.8147714495
 40
0.8765493365
 40
0.9382852194
 40
1.0
 40
1.0
 40
1.0
 40
1.0
 10
10.1891360366
 20
7.1744877494
 30
0.0
 10
10.1891360366
 20
7.1797849993
 30
0.0
 10
10.189641694
 20
7.1903515636
 30
0.0
 10
10.1915513981
 20
7.20341412
 30
0.0
 10
10.1938339191
 20
7.2136605536
 30
0.0
 10
10.1959154556
 20
7.2212183267
 30
0.0
 10
10.1983642432
 20
7.2286418107
 30
0.0
 10
10.201174671
 20
7.2359140906
 30
0.0
 10
10.2043402384
 20
7.2430183524
 30
0.0
 10
10.2078536898
 20
7.2499382128
 30
0.0
 10
10.211706943
 20
7.2566576971
 30
0.0
 10
10.2158910896
 20
7.2631613291
 30
0.0
 10
10.2203964919
 20
7.2694340818
 30
0.0
 10
10.2252128392
 20
7.2754615137
 30
0.0
 10
10.2303287978
 20
7.2812295603
 30
0.0
 10
10.2339320011
 20
7.2848938003
 30
0.0
 10
10.2357788599
 20
7.2866777292
 30
0.0
  0
SPLINE
  5
387
100
AcDbEntity
  8
0
100
AcDbSpline
 62
7
  6
CONTINUOUS
 70
0
 71
3
 72
71
 73
67
 74
0
 42
0.0000001
 43
0.0000001
 44
0.0000000001
 40
0.0
 40
0.0
 40
0.0
 40
0.0
 40
0.0155841583
 40
0.0311159808
 40
0.0465952391
 40
0.0620238824
 40
0.0774034512
 40
0.0927362817
 40
0.1080251233
 40
0.1232731726
 40
0.138484055
 40
0.1536617764
 40
0.1688106901
 40
0.183935453
 40
0.1990409778
 40
0.2141323818
 40
0.2292149321
 40
0.24429399
 40
0.2593749541
 40
0.2744632037
 40
0.28956404
 40
0.3046826301
 40
0.319823951
 40
0.3349927394
 40
0.3501934432
 40
0.3654301763
 40
0.380706678
 40
0.3960262757
 40
0.4113918557
 40
0.4268058382
 40
0.442270158
 40
0.4577862479
 40
0.4733550295
 40
0.4889769098
 40
0.5046517843
 40
0.5203790419
 40
0.5361575758
 40
0.5519857968
 40
0.5678616544
 40
0.5837826609
 40
0.5997459173
 40
0.6157481415
 40
0.6317856999
 40
0.6478546445
 40
0.6639507497
 40
0.6800695506
 40
0.696206382
 40
0.7123564201
 40
0.7285147268
 40
0.7446762928
 40
0.7608360801
 40
0.7769890652
 40
0.7931302837
 40
0.8092548746
 40
0.8253581231
 40
0.8414355008
 40
0.8574827062
 40
0.8734957056
 40
0.8894707696
 40
0.9054045137
 40
0.9212939168
 40
0.9371363628
 40
0.9529297287
 40
0.9686720424
 40
0.9843627193
 40
1.0
 40
1.0
 40
1.0
 40
1.0
 10
10.5677789829
 20
7.721988758
 30
0.0
 10
10.5677789829
 20
7.7264061049
 30
0.0
 10
10.5679951724
 20
7.7352275299
 30
0.0
 10
10.5689709957
 20
7.7484040734
 30
0.0
 10
10.5705956525
 20
7.7614724013
 30
0.0
 10
10.5728650944
 20
7.7744004591
 30
0.0
 10
10.5757740013
 20
7.7871573193
 30
0.0
 10
10.5793153585
 20
7.7997121496
 30
0.0
 10
10.5834806593
 20
7.8120347042
 30
0.0
 10
10.5882598868
 20
7.8240952679
 30
0.0
 10
10.5936415437
 20
7.8358647558
 30
0.0
 10
10.5996126878
 20
7.8473147768
 30
0.0
 10
10.6061589494
 20
7.8584177043
 30
0.0
 10
10.6132645464
 20
7.8691467602
 30
0.0
 10
10.6209123528
 20
7.8794760632
 30
0.0
 10
10.6290839349
 20
7.8893806936
 30
0.0
 10
10.637759598
 20
7.8988367497
 30
0.0
 10
10.6469184249
 20
7.9078214132
 30
0.0
 10
10.6565383133
 20
7.9163130224
 30
0.0
 10
10.6665960552
 20
7.9242911015
 30
0.0
 10
10.6770673882
 20
7.9317364135
 30
0.0
 10
10.6879270563
 20
7.9386310021
 30
0.0
 10
10.6991488625
 20
7.9449582464
 30
0.0
 10
10.7107057271
 20
7.9507029172
 30
0.0
 10
10.7225697714
 20
7.9558511856
 30
0.0
 10
10.7347123813
 20
7.9603906605
 30
0.0
 10
10.7471042768
 20
7.9643104125
 30
0.0
 10
10.7597155765
 20
7.967601017
 30
0.0
 10
10.7725158706
 20
7.9702545861
 30
0.0
 10
10.7854743028
 20
7.9722647589
 30
0.0
 10
10.7985596424
 20
7.9736267223
 30
0.0
 10
10.8117403576
 20
7.9743372147
 30
0.0
 10
10.8249846894
 20
7.9743945561
 30
0.0
 10
10.8382607311
 20
7.9737986546
 30
0.0
 10
10.8515365057
 20
7.9725509792
 30
0.0
 10
10.8647800415
 20
7.9706545634
 30
0.0
 10
10.8779594454
 20
7.9681139903
 30
0.0
 10
10.8910429832
 20
7.964935407
 30
0.0
 10
10.9039991584
 20
7.9611265053
 30
0.0
 10
10.9167967825
 20
7.9566964812
 30
0.0
 10
10.9294050499
 20
7.9516560193
 30
0.0
 10
10.9417936071
 20
7.9460172614
 30
0.0
 10
10.9539326367
 20
7.9397938032
 30
0.0
 10
10.9657929274
 20
7.9330006518
 30
0.0
 10
10.9773459359
 20
7.9256541732
 30
0.0
 10
10.9885638564
 20
7.917772059
 30
0.0
 10
10.999419682
 20
7.9093732799
 30
0.0
 10
11.0098872876
 20
7.9004780642
 30
0.0
 10
11.0199414859
 20
7.8911078357
 30
0.0
 10
11.0295580785
 20
7.8812851516
 30
0.0
 10
11.038713915
 20
7.8710336535
 30
0.0
 10
11.0473869437
 20
7.8603780079
 30
0.0
 10
11.0555562893
 20
7.8493438677
 30
0.0
 10
11.0632022894
 20
7.8379577954
 30
0.0
 10
11.0703065322
 20
7.8262471942
 30
0.0
 10
11.0768519031
 20
7.8142402459
 30
0.0
 10
11.082822621
 20
7.8019658426
 30
0.0
 10
11.088204306
 20
7.7894535323
 30
0.0
 10
11.0929839948
 20
7.7767334334
 30
0.0
 10
11.0971501602
 20
7.7638361624
 30
0.0
 10
11.1006927454
 20
7.7507927671
 30
0.0
 10
11.1036031965
 20
7.737634624
 30
0.0
 10
11.1058744448
 20
7.7243934939
 30
0.0
 10
11.1075011079
 20
7.7111010231
 30
0.0
 10
11.1084790758
 20
7.6977897906
 30
0.0
 10
11.1086974777
 20
7.6889083375
 30
0.0
 10
11.1086974777
 20
7.684475933
 30
0.0
  0
SPLINE
  5
388
100
AcDbEntity
  8
0
100
AcDbSpline
 62
7
  6
CONTINUOUS
 70
0
 71
3
 72
61
 73
57
 74
0
 42
0.0000001
 43
0.0000001
 44
0.0000000001
 40
0.0
 40
0.0
 40
0.0
 40
0.0
 40
0.0085500831
 40
0.0176518282
 40
0.0273119388
 40
0.0375330487
 40
0.0483143346
 40
0.0596520489
 40
0.0715399689
 40
0.0839696868
 40
0.0969308502
 40
0.110411427
 40
0.1243978625
 40
0.1388751847
 40
0.1538271778
 40
0.1692364905
 40
0.185084685
 40
0.2013523522
 40
0.2180192038
 40
0.2350641067
 40
0.252465154
 40
0.2701997535
 40
0.2882446631
 40
0.3065760341
 40
0.3439996166
 40
0.3822705894
 40
0.4211822648
 40
0.4605233554
 40
0.5000795412
 40
0.5396349815
 40
0.5789738425
 40
0.6178818121
 40
0.6561476434
 40
0.6935646733
 40
0.711892258
 40
0.729933038
 40
0.7476631939
 40
0.7650594851
 40
0.7820993091
 40
0.7987607922
 40
0.8150228167
 40
0.8308650777
 40
0.846268195
 40
0.8612137644
 40
0.8756844182
 40
0.889663959
 40
0.9031374659
 40
0.9160913786
 40
0.9285136711
 40
0.9403940542
 40
0.9517241379
 40
0.9624977005
 40
0.972711059
 40
0.9823634567
 40
0.9914575366
 40
1.0
 40
1.0
 40
1.0
 40
1.0
 10
11.1987740935
 20
10.4607676704
 30
0.0
 10
11.1965349526
 20
10.4623702318
 30
0.0
 10
11.1918152467
 20
10.4655446522
 30
0.0
 10
11.1842798562
 20
10.4700871942
 30
0.0
 10
11.1760799268
 20
10.4745519191
 30
0.0
 10
11.1672273695
 20
10.4789322942
 30
0.0
 10
11.1577347002
 20
10.4832221328
 30
0.0
 10
11.1476155588
 20
10.4874152351
 30
0.0
 10
11.1368845004
 20
10.4915054986
 30
0.0
 10
11.1255570338
 20
10.4954869437
 30
0.0
 10
11.1136495826
 20
10.4993537598
 30
0.0
 10
11.1011794368
 20
10.50310027
 30
0.0
 10
11.0881647302
 20
10.5067209599
 30
0.0
 10
11.074624423
 20
10.5102105272
 30
0.0
 10
11.0605782533
 20
10.5135638447
 30
0.0
 10
11.0460467061
 20
10.5167759685
 30
0.0
 10
11.031050994
 20
10.5198421878
 30
0.0
 10
11.0156130164
 20
10.5227580029
 30
0.0
 10
10.9997553195
 20
10.5255191168
 30
0.0
 10
10.9835010737
 20
10.5281214731
 30
0.0
 10
10.9668740347
 20
10.5305612616
 30
0.0
 10
10.9498985094
 20
10.5328348856
 30
0.0
 10
10.9325992902
 20
10.5349390188
 30
0.0
 10
10.9089736448
 20
10.5375321468
 30
0.0
 10
10.8788186345
 20
10.5403195655
 30
0.0
 10
10.8419992796
 20
10.5429237486
 30
0.0
 10
10.8045170742
 20
10.5447941907
 30
0.0
 10
10.7665911452
 20
10.5459198741
 30
0.0
 10
10.7284430592
 20
10.5462941018
 30
0.0
 10
10.6902957426
 20
10.5459146711
 30
0.0
 10
10.652372119
 20
10.5447838328
 30
0.0
 10
10.6148937405
 20
10.5429082702
 30
0.0
 10
10.5780797107
 20
10.5402990833
 30
0.0
 10
10.5479300886
 20
10.5375075256
 30
0.0
 10
10.5243094869
 20
10.5349111519
 30
0.0
 10
10.5070145658
 20
10.5328046473
 30
0.0
 10
10.4900436812
 20
10.5305287113
 30
0.0
 10
10.4734216215
 20
10.5280866612
 30
0.0
 10
10.4571726906
 20
10.525482078
 30
0.0
 10
10.4413206301
 20
10.5227188001
 30
0.0
 10
10.4258886014
 20
10.5198008897
 30
0.0
 10
10.41089915
 20
10.5167326193
 30
0.0
 10
10.3963741609
 20
10.513518508
 30
0.0
 10
10.3823348313
 20
10.5101632869
 30
0.0
 10
10.368801646
 20
10.5066718736
 30
0.0
 10
10.3557943321
 20
10.5030493997
 30
0.0
 10
10.343331827
 20
10.4993012001
 30
0.0
 10
10.3314322622
 20
10.4954327684
 30
0.0
 10
10.3201129232
 20
10.4914497683
 30
0.0
 10
10.3093902049
 20
10.4873580481
 30
0.0
 10
10.2992796062
 20
10.4831635806
 30
0.0
 10
10.2897956885
 20
10.4788724373
 30
0.0
 10
10.2809520572
 20
10.474490854
 30
0.0
 10
10.272761205
 20
10.4700250235
 30
0.0
 10
10.2652350834
 20
10.465481441
 30
0.0
 10
10.260521763
 20
10.4623063344
 30
0.0
 10
10.2582858707
 20
10.4607034517
 30
0.0
  0
SPLINE
  5
389
100
AcDbEntity
  8
0
100
AcDbSpline
 62
7
  6
CONTINUOUS
 70
0
 71
3
 72
46
 73
42
 74
0
 42
0.0000001
 43
0.0000001
 44
0.0000000001
 40
0.0
 40
0.0
 40
0.0
 40
0.0
 40
0.0112073763
 40
0.0228002203
 40
0.0347721982
 40
0.0471162545
 40
0.0598246425
 40
0.0728890297
 40
0.1000488613
 40
0.1285188471
 40
0.158213824
 40
0.1890420372
 40
0.2209059277
 40
0.2537028361
 40
0.2873256502
 40
0.321663413
 40
0.3566019035
 40
0.3920242006
 40
0.4278112336
 40
0.4638423255
 40
0.4999957306
 40
0.5361491696
 40
0.5721803632
 40
0.6079675654
 40
0.6433900987
 40
0.6783288914
 40
0.712667021
 40
0.7462902652
 40
0.7790876647
 40
0.8109521051
 40
0.8417809244
 40
0.8714765603
 40
0.8999472544
 40
0.9136966633
 40
0.9271084882
 40
0.9401732573
 40
0.9528820575
 40
0.9652265139
 40
0.9771989212
 40
0.9887921818
 40
1.0
 40
1.0
 40
1.0
 40
1.0
 10
11.0821199427
 20
10.4132017212
 30
0.0
 10
11.0796109365
 20
10.4141363788
 30
0.0
 10
11.0744861981
 20
10.4159833844
 30
0.0
 10
11.0666170993
 20
10.4186465717
 30
0.0
 10
11.0584417341
 20
10.4212473814
 30
0.0
 10
11.0499675309
 20
10.4237834161
 30
0.0
 10
11.0412021236
 20
10.4262524186
 30
0.0
 10
11.0289786208
 20
10.4294939652
 30
0.0
 10
11.013024802
 20
10.4333506963
 30
0.0
 10
10.9930906609
 20
10.4376197213
 30
0.0
 10
10.9721988129
 20
10.4415718494
 30
0.0
 10
10.9504248584
 20
10.4451926213
 30
0.0
 10
10.9278474638
 20
10.448468766
 30
0.0
 10
10.9045483137
 20
10.4513882907
 30
0.0
 10
10.8806117295
 20
10.4539405109
 30
0.0
 10
10.8561243756
 20
10.4561160918
 30
0.0
 10
10.8311749318
 20
10.4579070788
 30
0.0
 10
10.8058537685
 20
10.4593069258
 30
0.0
 10
10.7802526147
 20
10.4603105176
 30
0.0
 10
10.7544642221
 20
10.4609141877
 30
0.0
 10
10.7285820258
 20
10.461115731
 30
0.0
 10
10.7026998034
 20
10.4609144115
 30
0.0
 10
10.6769113327
 20
10.4603109645
 30
0.0
 10
10.651310049
 20
10.4593075944
 30
0.0
 10
10.6259887043
 20
10.4579079669
 30
0.0
 10
10.6010390282
 20
10.4561171963
 30
0.0
 10
10.5765513917
 20
10.4539418279
 30
0.0
 10
10.5526144767
 20
10.4513898153
 30
0.0
 10
10.5293149447
 20
10.4484704933
 30
0.0
 10
10.5067371325
 20
10.4451945429
 30
0.0
 10
10.4849626775
 20
10.4415739652
 30
0.0
 10
10.4640704201
 20
10.4376219991
 30
0.0
 10
10.4472686322
 20
10.4340241559
 30
0.0
 10
10.4343304642
 20
10.4309828249
 30
0.0
 10
10.4250063989
 20
10.4286547105
 30
0.0
 10
10.4159574196
 20
10.4262551146
 30
0.0
 10
10.4071916974
 20
10.4237862151
 30
0.0
 10
10.3987171649
 20
10.4212502373
 30
0.0
 10
10.3905414611
 20
10.4186495125
 30
0.0
 10
10.3826720188
 20
10.4159863799
 30
0.0
 10
10.3775470424
 20
10.4141394301
 30
0.0
 10
10.3750379159
 20
10.413204793
 30
0.0
  0
SPLINE
  5
38A
100
AcDbEntity
  8
0
100
AcDbSpline
 62
7
  6
CONTINUOUS
 70
0
 71
3
 72
9
 73
5
 74
0
 42
0.0000001
 43
0.0000001
 44
0.0000000001
 40
0.0
 40
0.0
 40
0.0
 40
0.0
 40
0.5050565564
 40
1.0
 40
1.0
 40
1.0
 40
1.0
 10
11.0219203186
 20
7.6480569233
 30
0.0
 10
11.0248994175
 20
7.6473258829
 30
0.0
 10
11.0308585268
 20
7.6461130719
 30
0.0
 10
11.0369010278
 20
7.6454157562
 30
0.0
 10
11.0398999239
 20
7.6452083431
 30
0.0
  0
SPLINE
  5
38B
100
AcDbEntity
  8
0
100
AcDbSpline
 62
7
  6
CONTINUOUS
 70
0
 71
3
 72
11
 73
7
 74
0
 42
0.0000001
 43
0.0000001
 44
0.0000000001
 40
0.0
 40
0.0
 40
0.0
 40
0.0
 40
0.253755346
 40
0.5052953122
 40
0.7541721303
 40
1.0
 40
1.0
 40
1.0
 40
1.0
 10
10.9620329138
 20
7.6522101289
 30
0.0
 10
10.9671019116
 20
7.6519105838
 30
0.0
 10
10.977194364
 20
7.6512919394
 30
0.0
 10
10.9922527143
 20
7.6502900815
 30
0.0
 10
11.0071470162
 20
7.6492155997
 30
0.0
 10
11.0170168041
 20
7.6484495176
 30
0.0
 10
11.0219203186
 20
7.6480569233
 30
0.0
  0
SPLINE
  5
38C
100
AcDbEntity
  8
0
100
AcDbSpline
 62
7
  6
CONTINUOUS
 70
0
 71
3
 72
23
 73
19
 74
0
 42
0.0000001
 43
0.0000001
 44
0.0000000001
 40
0.0
 40
0.0
 40
0.0
 40
0.0
 40
0.0755961246
 40
0.1466389607
 40
0.2134646537
 40
0.2765132518
 40
0.3363252536
 40
0.3935454084
 40
0.448921428
 40
0.5032863451
 40
0.557524168
 40
0.6125254889
 40
0.6691415402
 40
0.7281473128
 40
0.7902179894
 40
0.8559226124
 40
0.9257258744
 40
1.0
 40
1.0
 40
1.0
 40
1.0
 10
12.4488888253
 20
8.605152536
 30
0.0
 10
12.4481106273
 20
8.6044008544
 30
0.0
 10
12.4465552598
 20
8.6029889637
 30
0.0
 10
12.4441481757
 20
8.6011027618
 30
0.0
 10
12.4417439087
 20
8.5995186215
 30
0.0
 10
12.4393446786
 20
8.5982389302
 30
0.0
 10
12.4369524865
 20
8.5972659952
 30
0.0
 10
12.4345697929
 20
8.5966022201
 30
0.0
 10
12.4321997257
 20
8.5962499287
 30
0.0
 10
12.4298462359
 20
8.5962108153
 30
0.0
 10
12.4275138396
 20
8.596485415
 30
0.0
 10
12.4252070723
 20
8.5970729722
 30
0.0
 10
12.4229298243
 20
8.597971426
 30
0.0
 10
12.4206851577
 20
8.5991782447
 30
0.0
 10
12.4184752886
 20
8.6006905752
 30
0.0
 10
12.4163020637
 20
8.602505877
 30
0.0
 10
12.4141671731
 20
8.6046213971
 30
0.0
 10
12.4128141405
 20
8.6061801329
 30
0.0
 10
12.4121434043
 20
8.6070048422
 30
0.0
  0
SPLINE
  5
38D
100
AcDbEntity
  8
0
100
AcDbSpline
 62
4
  6
CONTINUOUS
 70
0
 71
3
 72
615
 73
611
 74
0
 42
0.0000001
 43
0.0000001
 44
0.0000000001
 40
0.0
 40
0.0
 40
0.0
 40
0.0
 40
0.0078125
 40
0.015625
 40
0.0234375
 40
0.03125
 40
0.03515625
 40
0.0390625
 40
0.04296875
 40
0.046875
 40
0.05078125
 40
0.052734375
 40
0.0546875
 40
0.056640625
 40
0.0576171875
 40
0.05859375
 40
0.0595703125
 40
0.060546875
 40
0.0610351562
 40
0.0615234375
 40
0.0617675781
 40
0.0620117188
 40
0.0622558594
 40
0.0623779297
 40
0.0624389648
 40
0.0625
 40
0.0625610352
 40
0.0626220703
 40
0.0627441406
 40
0.0629882812
 40
0.0632324219
 40
0.0634765625
 40
0.0639648438
 40
0.064453125
 40
0.0654296875
 40
0.06640625
 40
0.0673828125
 40
0.068359375
 40
0.0703125
 40
0.072265625
 40
0.07421875
 40
0.078125
 40
0.08203125
 40
0.0859375
 40
0.08984375
 40
0.09375
 40
0.09765625
 40
0.1015625
 40
0.10546875
 40
0.109375
 40
0.11328125
 40
0.115234375
 40
0.1171875
 40
0.119140625
 40
0.1201171875
 40
0.12109375
 40
0.1220703125
 40
0.123046875
 40
0.1235351562
 40
0.1240234375
 40
0.1242675781
 40
0.1245117188
 40
0.1247558594
 40
0.1248779297
 40
0.1249389648
 40
0.125
 40
0.1250610352
 40
0.1251220703
 40
0.1252441406
 40
0.1254882812
 40
0.1257324219
 40
0.1259765625
 40
0.1264648438
 40
0.126953125
 40
0.1279296875
 40
0.12890625
 40
0.1298828125
 40
0.130859375
 40
0.1328125
 40
0.134765625
 40
0.13671875
 40
0.140625
 40
0.14453125
 40
0.1484375
 40
0.15234375
 40
0.15625
 40
0.16015625
 40
0.1640625
 40
0.16796875
 40
0.171875
 40
0.17578125
 40
0.177734375
 40
0.1796875
 40
0.181640625
 40
0.1826171875
 40
0.18359375
 40
0.1845703125
 40
0.185546875
 40
0.1860351562
 40
0.1865234375
 40
0.1867675781
 40
0.1870117188
 40
0.1872558594
 40
0.1873779297
 40
0.1874389648
 40
0.1875
 40
0.1875610352
 40
0.1876220703
 40
0.1877441406
 40
0.1879882812
 40
0.1882324219
 40
0.1884765625
 40
0.1889648438
 40
0.189453125
 40
0.1904296875
 40
0.19140625
 40
0.1923828125
 40
0.193359375
 40
0.1953125
 40
0.197265625
 40
0.19921875
 40
0.203125
 40
0.20703125
 40
0.2109375
 40
0.21484375
 40
0.21875
 40
0.22265625
 40
0.2265625
 40
0.23046875
 40
0.234375
 40
0.23828125
 40
0.240234375
 40
0.2421875
 40
0.244140625
 40
0.2451171875
 40
0.24609375
 40
0.2470703125
 40
0.248046875
 40
0.2485351562
 40
0.2490234375
 40
0.2492675781
 40
0.2495117188
 40
0.2497558594
 40
0.2498779297
 40
0.2499389648
 40
0.25
 40
0.2500610352
 40
0.2501220703
 40
0.2502441406
 40
0.2504882812
 40
0.2507324219
 40
0.2509765625
 40
0.2514648438
 40
0.251953125
 40
0.2529296875
 40
0.25390625
 40
0.2548828125
 40
0.255859375
 40
0.2578125
 40
0.259765625
 40
0.26171875
 40
0.265625
 40
0.26953125
 40
0.2734375
 40
0.27734375
 40
0.28125
 40
0.28515625
 40
0.2890625
 40
0.29296875
 40
0.296875
 40
0.30078125
 40
0.302734375
 40
0.3046875
 40
0.306640625
 40
0.3076171875
 40
0.30859375
 40
0.3095703125
 40
0.310546875
 40
0.3110351562
 40
0.3115234375
 40
0.3117675781
 40
0.3120117188
 40
0.3122558594
 40
0.3123779297
 40
0.3124389648
 40
0.3125
 40
0.3125610352
 40
0.3126220703
 40
0.3127441406
 40
0.3129882812
 40
0.3132324219
 40
0.3134765625
 40
0.3139648438
 40
0.314453125
 40
0.3154296875
 40
0.31640625
 40
0.3173828125
 40
0.318359375
 40
0.3203125
 40
0.322265625
 40
0.32421875
 40
0.328125
 40
0.33203125
 40
0.3359375
 40
0.33984375
 40
0.34375
 40
0.34765625
 40
0.3515625
 40
0.35546875
 40
0.359375
 40
0.36328125
 40
0.365234375
 40
0.3671875
 40
0.369140625
 40
0.3701171875
 40
0.37109375
 40
0.3720703125
 40
0.373046875
 40
0.3735351562
 40
0.3740234375
 40
0.3742675781
 40
0.3745117188
 40
0.3747558594
 40
0.3748779297
 40
0.3749389648
 40
0.375
 40
0.3750610352
 40
0.3751220703
 40
0.3752441406
 40
0.3754882812
 40
0.3757324219
 40
0.3759765625
 40
0.3764648438
 40
0.376953125
 40
0.3779296875
 40
0.37890625
 40
0.3798828125
 40
0.380859375
 40
0.3828125
 40
0.384765625
 40
0.38671875
 40
0.390625
 40
0.39453125
 40
0.3984375
 40
0.40234375
 40
0.40625
 40
0.41015625
 40
0.4140625
 40
0.41796875
 40
0.421875
 40
0.42578125
 40
0.427734375
 40
0.4296875
 40
0.431640625
 40
0.4326171875
 40
0.43359375
 40
0.4345703125
 40
0.435546875
 40
0.4360351562
 40
0.4365234375
 40
0.4367675781
 40
0.4370117188
 40
0.4372558594
 40
0.4373779297
 40
0.4374389648
 40
0.4375
 40
0.4375610352
 40
0.4376220703
 40
0.4377441406
 40
0.4379882812
 40
0.4382324219
 40
0.4384765625
 40
0.4389648438
 40
0.439453125
 40
0.4404296875
 40
0.44140625
 40
0.4423828125
 40
0.443359375
 40
0.4453125
 40
0.447265625
 40
0.44921875
 40
0.453125
 40
0.45703125
 40
0.4609375
 40
0.46484375
 40
0.46875
 40
0.47265625
 40
0.4765625
 40
0.48046875
 40
0.484375
 40
0.48828125
 40
0.490234375
 40
0.4921875
 40
0.494140625
 40
0.4951171875
 40
0.49609375
 40
0.4970703125
 40
0.498046875
 40
0.4985351562
 40
0.4990234375
 40
0.4992675781
 40
0.4995117188
 40
0.4997558594
 40
0.4998779297
 40
0.4999389648
 40
0.5
 40
0.5000610352
 40
0.5001220703
 40
0.5002441406
 40
0.5004882812
 40
0.5007324219
 40
0.5009765625
 40
0.5014648438
 40
0.501953125
 40
0.5029296875
 40
0.50390625
 40
0.5048828125
 40
0.505859375
 40
0.5078125
 40
0.509765625
 40
0.51171875
 40
0.515625
 40
0.51953125
 40
0.5234375
 40
0.52734375
 40
0.53125
 40
0.53515625
 40
0.5390625
 40
0.54296875
 40
0.546875
 40
0.55078125
 40
0.552734375
 40
0.5546875
 40
0.556640625
 40
0.5576171875
 40
0.55859375
 40
0.5595703125
 40
0.560546875
 40
0.5610351562
 40
0.5615234375
 40
0.5617675781
 40
0.5620117188
 40
0.5622558594
 40
0.5623779297
 40
0.5624389648
 40
0.5625
 40
0.5625610352
 40
0.5626220703
 40
0.5627441406
 40
0.5629882812
 40
0.5632324219
 40
0.5634765625
 40
0.5639648438
 40
0.564453125
 40
0.5654296875
 40
0.56640625
 40
0.5673828125
 40
0.568359375
 40
0.5703125
 40
0.572265625
 40
0.57421875
 40
0.578125
 40
0.58203125
 40
0.5859375
 40
0.58984375
 40
0.59375
 40
0.59765625
 40
0.6015625
 40
0.60546875
 40
0.609375
 40
0.61328125
 40
0.615234375
 40
0.6171875
 40
0.619140625
 40
0.6201171875
 40
0.62109375
 40
0.6220703125
 40
0.623046875
 40
0.6235351562
 40
0.6240234375
 40
0.6242675781
 40
0.6245117188
 40
0.6247558594
 40
0.6248779297
 40
0.6249389648
 40
0.625
 40
0.6250610352
 40
0.6251220703
 40
0.6252441406
 40
0.6254882812
 40
0.6257324219
 40
0.6259765625
 40
0.6264648438
 40
0.626953125
 40
0.6279296875
 40
0.62890625
 40
0.6298828125
 40
0.630859375
 40
0.6328125
 40
0.634765625
 40
0.63671875
 40
0.640625
 40
0.64453125
 40
0.6484375
 40
0.65234375
 40
0.65625
 40
0.66015625
 40
0.6640625
 40
0.66796875
 40
0.671875
 40
0.67578125
 40
0.677734375
 40
0.6796875
 40
0.681640625
 40
0.6826171875
 40
0.68359375
 40
0.6845703125
 40
0.685546875
 40
0.6860351562
 40
0.6865234375
 40
0.6867675781
 40
0.6870117188
 40
0.6872558594
 40
0.6873779297
 40
0.6874389648
 40
0.6875
 40
0.6875610352
 40
0.6876220703
 40
0.6877441406
 40
0.6879882812
 40
0.6882324219
 40
0.6884765625
 40
0.6889648438
 40
0.689453125
 40
0.6904296875
 40
0.69140625
 40
0.6923828125
 40
0.693359375
 40
0.6953125
 40
0.697265625
 40
0.69921875
 40
0.703125
 40
0.70703125
 40
0.7109375
 40
0.71484375
 40
0.71875
 40
0.72265625
 40
0.7265625
 40
0.73046875
 40
0.734375
 40
0.73828125
 40
0.740234375
 40
0.7421875
 40
0.744140625
 40
0.7451171875
 40
0.74609375
 40
0.7470703125
 40
0.748046875
 40
0.7485351562
 40
0.7490234375
 40
0.7492675781
 40
0.7495117188
 40
0.7497558594
 40
0.7498779297
 40
0.7499389648
 40
0.75
 40
0.7500610352
 40
0.7501220703
 40
0.7502441406
 40
0.7504882812
 40
0.7507324219
 40
0.7509765625
 40
0.7514648438
 40
0.751953125
 40
0.7529296875
 40
0.75390625
 40
0.7548828125
 40
0.755859375
 40
0.7578125
 40
0.759765625
 40
0.76171875
 40
0.765625
 40
0.76953125
 40
0.7734375
 40
0.77734375
 40
0.78125
 40
0.78515625
 40
0.7890625
 40
0.79296875
 40
0.796875
 40
0.80078125
 40
0.802734375
 40
0.8046875
 40
0.806640625
 40
0.8076171875
 40
0.80859375
 40
0.8095703125
 40
0.810546875
 40
0.8110351562
 40
0.8115234375
 40
0.8117675781
 40
0.8120117188
 40
0.8122558594
 40
0.8123779297
 40
0.8124389648
 40
0.8125
 40
0.8125610352
 40
0.8126220703
 40
0.8127441406
 40
0.8129882812
 40
0.8132324219
 40
0.8134765625
 40
0.8139648438
 40
0.814453125
 40
0.8154296875
 40
0.81640625
 40
0.8173828125
 40
0.818359375
 40
0.8203125
 40
0.822265625
 40
0.82421875
 40
0.828125
 40
0.83203125
 40
0.8359375
 40
0.83984375
 40
0.84375
 40
0.84765625
 40
0.8515625
 40
0.85546875
 40
0.859375
 40
0.86328125
 40
0.865234375
 40
0.8671875
 40
0.869140625
 40
0.8701171875
 40
0.87109375
 40
0.8720703125
 40
0.873046875
 40
0.8735351562
 40
0.8740234375
 40
0.8742675781
 40
0.8745117188
 40
0.8747558594
 40
0.8748779297
 40
0.8749389648
 40
0.875
 40
0.8750610352
 40
0.8751220703
 40
0.8752441406
 40
0.8754882812
 40
0.8757324219
 40
0.8759765625
 40
0.8764648438
 40
0.876953125
 40
0.8779296875
 40
0.87890625
 40
0.8798828125
 40
0.880859375
 40
0.8828125
 40
0.884765625
 40
0.88671875
 40
0.890625
 40
0.89453125
 40
0.8984375
 40
0.90234375
 40
0.90625
 40
0.91015625
 40
0.9140625
 40
0.91796875
 40
0.921875
 40
0.92578125
 40
0.927734375
 40
0.9296875
 40
0.931640625
 40
0.9326171875
 40
0.93359375
 40
0.9345703125
 40
0.935546875
 40
0.9360351562
 40
0.9365234375
 40
0.9367675781
 40
0.9370117188
 40
0.9372558594
 40
0.9373779297
 40
0.9374389648
 40
0.9375
 40
0.9375610352
 40
0.9376220703
 40
0.9377441406
 40
0.9379882812
 40
0.9382324219
 40
0.9384765625
 40
0.9389648438
 40
0.939453125
 40
0.9404296875
 40
0.94140625
 40
0.9423828125
 40
0.943359375
 40
0.9453125
 40
0.947265625
 40
0.94921875
 40
0.953125
 40
0.95703125
 40
0.9609375
 40
0.96484375
 40
0.96875
 40
0.9765625
 40
0.984375
 40
0.9921875
 40
1.0
 40
1.0
 40
1.0
 40
1.0
 10
10.4128444807
 20
8.9822553041
 30
0.0
 10
10.4144110742
 20
8.9823002663
 30
0.0
 10
10.4175442611
 20
8.9823901907
 30
0.0
 10
10.4222440415
 20
8.9825250773
 30
0.0
 10
10.4269438218
 20
8.982659964
 30
0.0
 10
10.4308603055
 20
8.9827723695
 30
0.0
 10
10.4339934924
 20
8.9828622939
 30
0.0
 10
10.4363433826
 20
8.9829297372
 30
0.0
 10
10.4386932728
 20
8.9829971805
 30
0.0
 10
10.441043163
 20
8.9830646238
 30
0.0
 10
10.4430014048
 20
8.9831208266
 30
0.0
 10
10.4445679983
 20
8.9831657888
 30
0.0
 10
10.4457429434
 20
8.9831995104
 30
0.0
 10
10.4467220643
 20
8.9832276118
 30
0.0
 10
10.447505361
 20
8.983250093
 30
0.0
 10
10.4480928336
 20
8.9832669535
 30
0.0
 10
10.4486803059
 20
8.9832838153
 30
0.0
 10
10.449169867
 20
8.9832978631
 30
0.0
 10
10.4495615142
 20
8.9833091096
 30
0.0
 10
10.4498062973
 20
8.9833161198
 30
0.0
 10
10.4500021155
 20
8.983321771
 30
0.0
 10
10.4501490021
 20
8.9833258917
 30
0.0
 10
10.4502713344
 20
8.9833297001
 30
0.0
 10
10.4503571106
 20
8.9833316311
 30
0.0
 10
10.4504059015
 20
8.983333882
 30
0.0
 10
10.450443126
 20
8.9833323376
 30
0.0
 10
10.450477937
 20
8.9833431497
 30
0.0
 10
10.4505251935
 20
8.9833532558
 30
0.0
 10
10.4506075002
 20
8.9833729496
 30
0.0
 10
10.4507252863
 20
8.9834000336
 30
0.0
 10
10.4508665418
 20
8.9834329839
 30
0.0
 10
10.4510549132
 20
8.9834767606
 30
0.0
 10
10.4512903668
 20
8.9835315353
 30
0.0
 10
10.4516670986
 20
8.9836191447
 30
0.0
 10
10.4521380113
 20
8.9837286667
 30
0.0
 10
10.4527031074
 20
8.9838600888
 30
0.0
 10
10.4532682032
 20
8.983991512
 30
0.0
 10
10.4540216644
 20
8.9841667425
 30
0.0
 10
10.4549634909
 20
8.9843857809
 30
0.0
 10
10.4560936827
 20
8.9846486268
 30
0.0
 10
10.4576006051
 20
8.9849990881
 30
0.0
 10
10.4594842581
 20
8.9854371647
 30
0.0
 10
10.4617446417
 20
8.9859628566
 30
0.0
 10
10.4640050253
 20
8.9864885485
 30
0.0
 10
10.4662654089
 20
8.9870142404
 30
0.0
 10
10.4685257925
 20
8.9875399323
 30
0.0
 10
10.4707861761
 20
8.9880656242
 30
0.0
 10
10.4730465597
 20
8.9885913161
 30
0.0
 10
10.4753069433
 20
8.9891170081
 30
0.0
 10
10.4775673269
 20
8.9896427
 30
0.0
 10
10.4794509799
 20
8.9900807766
 30
0.0
 10
10.4809579024
 20
8.9904312378
 30
0.0
 10
10.4820880941
 20
8.9906940838
 30
0.0
 10
10.4830299207
 20
8.9909131221
 30
0.0
 10
10.4837833818
 20
8.9910883528
 30
0.0
 10
10.4843484778
 20
8.9912197755
 30
0.0
 10
10.4849135734
 20
8.9913511994
 30
0.0
 10
10.4853844877
 20
8.9914607157
 30
0.0
 10
10.4857612161
 20
8.9915483367
 30
0.0
 10
10.4859966785
 20
8.9916030819
 30
0.0
 10
10.4861850319
 20
8.9916469191
 30
0.0
 10
10.4863263421
 20
8.9916796845
 30
0.0
 10
10.4864439571
 20
8.9917073471
 30
0.0
 10
10.4865265692
 20
8.9917260081
 30
0.0
 10
10.4865733364
 20
8.9917377689
 30
0.0
 10
10.4866096505
 20
8.9917434982
 30
0.0
 10
10.4866412296
 20
8.991761044
 30
0.0
 10
10.4866849866
 20
8.9917803167
 30
0.0
 10
10.4867607919
 20
8.9918159644
 30
0.0
 10
10.4868694875
 20
8.9918658856
 30
0.0
 10
10.48699975
 20
8.9919262208
 30
0.0
 10
10.4871734935
 20
8.9920065177
 30
0.0
 10
10.4873906523
 20
8.9921069401
 30
0.0
 10
10.4877381179
 20
8.9922675873
 30
0.0
 10
10.4881724459
 20
8.9924684061
 30
0.0
 10
10.4886936411
 20
8.9927093845
 30
0.0
 10
10.489214836
 20
8.992950364
 30
0.0
 10
10.4899097626
 20
8.9932716696
 30
0.0
 10
10.4907784208
 20
8.9936733018
 30
0.0
 10
10.4918208106
 20
8.9941552603
 30
0.0
 10
10.4932106638
 20
8.9947978717
 30
0.0
 10
10.4949479802
 20
8.9956011359
 30
0.0
 10
10.4970327599
 20
8.9965650529
 30
0.0
 10
10.4991175396
 20
8.99752897
 30
0.0
 10
10.5012023193
 20
8.9984928871
 30
0.0
 10
10.503287099
 20
8.9994568042
 30
0.0
 10
10.5053718787
 20
9.0004207212
 30
0.0
 10
10.5074566584
 20
9.0013846383
 30
0.0
 10
10.5095414381
 20
9.0023485554
 30
0.0
 10
10.5116262178
 20
9.0033124724
 30
0.0
 10
10.5133635342
 20
9.0041157367
 30
0.0
 10
10.5147533874
 20
9.004758348
 30
0.0
 10
10.5157957772
 20
9.0052403066
 30
0.0
 10
10.5166644355
 20
9.0056419386
 30
0.0
 10
10.517359362
 20
9.0059632444
 30
0.0
 10
10.517880557
 20
9.0062042234
 30
0.0
 10
10.5184017515
 20
9.0064452036
 30
0.0
 10
10.518836082
 20
9.0066460169
 30
0.0
 10
10.5191835424
 20
9.0068066753
 30
0.0
 10
10.5194007144
 20
9.0069070692
 30
0.0
 10
10.5195744308
 20
9.0069874246
 30
0.0
 10
10.519704776
 20
9.0070475809
 30
0.0
 10
10.519813213
 20
9.0070980619
 30
0.0
 10
10.5198894799
 20
9.0071327102
 30
0.0
 10
10.5199324973
 20
9.0071535842
 30
0.0
 10
10.5199663483
 20
9.0071662116
 30
0.0
 10
10.5199941295
 20
9.0071904135
 30
0.0
 10
10.5200332883
 20
9.0072186454
 30
0.0
 10
10.5201008299
 20
9.0072699323
 30
0.0
 10
10.5201978335
 20
9.0073422158
 30
0.0
 10
10.5203140172
 20
9.0074293769
 30
0.0
 10
10.5204690058
 20
9.0075454448
 30
0.0
 10
10.5206627151
 20
9.0076905799
 30
0.0
 10
10.5209726649
 20
9.007922768
 30
0.0
 10
10.521360097
 20
9.0082130128
 30
0.0
 10
10.5218250176
 20
9.0085613024
 30
0.0
 10
10.5222899378
 20
9.0089095931
 30
0.0
 10
10.5229098314
 20
9.0093739803
 30
0.0
 10
10.5236846985
 20
9.0099544645
 30
0.0
 10
10.5246145389
 20
9.0106510454
 30
0.0
 10
10.5258543262
 20
9.01157982
 30
0.0
 10
10.5274040603
 20
9.0127407882
 30
0.0
 10
10.5292637412
 20
9.0141339501
 30
0.0
 10
10.5311234221
 20
9.015527112
 30
0.0
 10
10.532983103
 20
9.0169202739
 30
0.0
 10
10.5348427839
 20
9.0183134357
 30
0.0
 10
10.5367024648
 20
9.0197065976
 30
0.0
 10
10.5385621458
 20
9.0210997595
 30
0.0
 10
10.5404218267
 20
9.0224929214
 30
0.0
 10
10.5422815076
 20
9.0238860833
 30
0.0
 10
10.5438312417
 20
9.0250470515
 30
0.0
 10
10.5450710289
 20
9.0259758261
 30
0.0
 10
10.5460008694
 20
9.026672407
 30
0.0
 10
10.5467757365
 20
9.0272528911
 30
0.0
 10
10.54739563
 20
9.0277172785
 30
0.0
 10
10.5478605505
 20
9.0280655688
 30
0.0
 10
10.54832547
 20
9.0284138599
 30
0.0
 10
10.5487129058
 20
9.0287040999
 30
0.0
 10
10.5490228479
 20
9.0289362978
 30
0.0
 10
10.5492165766
 20
9.029081408
 30
0.0
 10
10.5493715256
 20
9.0291975269
 30
0.0
 10
10.5494878301
 20
9.029284532
 30
0.0
 10
10.5495844555
 20
9.0293573039
 30
0.0
 10
10.5496526723
 20
9.029407719
 30
0.0
 10
10.5496907493
 20
9.0294373476
 30
0.0
 10
10.5497218535
 20
9.0294572592
 30
0.0
 10
10.549743224
 20
9.0294860003
 30
0.0
 10
10.5497751132
 20
9.029521242
 30
0.0
 10
10.5498293375
 20
9.0295843498
 30
0.0
 10
10.5499076277
 20
9.0296737537
 30
0.0
 10
10.550001222
 20
9.0297813595
 30
0.0
 10
10.550126138
 20
9.0299247217
 30
0.0
 10
10.5502822407
 20
9.0301039629
 30
0.0
 10
10.5505320286
 20
9.0303907272
 30
0.0
 10
10.5508442554
 20
9.0307491901
 30
0.0
 10
10.5512189311
 20
9.0311793423
 30
0.0
 10
10.5515936058
 20
9.0316094954
 30
0.0
 10
10.5520931724
 20
9.0321830326
 30
0.0
 10
10.5527176306
 20
9.0328999542
 30
0.0
 10
10.5534669805
 20
9.03376026
 30
0.0
 10
10.5544661136
 20
9.0349073345
 30
0.0
 10
10.55571503
 20
9.0363411776
 30
0.0
 10
10.5572137297
 20
9.0380617893
 30
0.0
 10
10.5587124294
 20
9.039782401
 30
0.0
 10
10.5602111291
 20
9.0415030127
 30
0.0
 10
10.5617098288
 20
9.0432236244
 30
0.0
 10
10.5632085285
 20
9.0449442361
 30
0.0
 10
10.5647072282
 20
9.0466648478
 30
0.0
 10
10.5662059279
 20
9.0483854595
 30
0.0
 10
10.5677046276
 20
9.0501060712
 30
0.0
 10
10.568953544
 20
9.0515399142
 30
0.0
 10
10.5699526772
 20
9.0526869887
 30
0.0
 10
10.570702027
 20
9.0535472946
 30
0.0
 10
10.5713264853
 20
9.0542642161
 30
0.0
 10
10.5718260517
 20
9.0548377534
 30
0.0
 10
10.5722007269
 20
9.0552679061
 30
0.0
 10
10.572575401
 20
9.0556980596
 30
0.0
 10
10.5728876326
 20
9.0560565186
 30
0.0
 10
10.5731374109
 20
9.0563432909
 30
0.0
 10
10.573293538
 20
9.056522512
 30
0.0
 10
10.5734184038
 20
9.0566659154
 30
0.0
 10
10.5735121515
 20
9.0567733952
 30
0.0
 10
10.5735899617
 20
9.056863193
 30
0.0
 10
10.5736450429
 20
9.0569255977
 30
0.0
 10
10.573675559
 20
9.056961966
 30
0.0
 10
10.5737011474
 20
9.0569872465
 30
0.0
 10
10.5737164101
 20
9.0570201555
 30
0.0
 10
10.5737403621
 20
9.0570613733
 30
0.0
 10
10.5737805999
 20
9.0571347442
 30
0.0
 10
10.5738389599
 20
9.0572389116
 30
0.0
 10
10.5739086164
 20
9.0573641899
 30
0.0
 10
10.5740016229
 20
9.0575311307
 30
0.0
 10
10.5741178361
 20
9.0577398398
 30
0.0
 10
10.5743038023
 20
9.058073756
 30
0.0
 10
10.5745362514
 20
9.0584911576
 30
0.0
 10
10.5748151941
 20
9.0589920367
 30
0.0
 10
10.5750941358
 20
9.0594929166
 30
0.0
 10
10.5754660583
 20
9.0601607562
 30
0.0
 10
10.5759309614
 20
9.0609955557
 30
0.0
 10
10.5764888452
 20
9.0619973152
 30
0.0
 10
10.5772326902
 20
9.0633329944
 30
0.0
 10
10.5781624965
 20
9.0650025935
 30
0.0
 10
10.579278264
 20
9.0670061124
 30
0.0
 10
10.5803940315
 20
9.0690096313
 30
0.0
 10
10.581509799
 20
9.0710131502
 30
0.0
 10
10.5826255666
 20
9.073016669
 30
0.0
 10
10.5837413341
 20
9.0750201879
 30
0.0
 10
10.5848571016
 20
9.0770237068
 30
0.0
 10
10.5859728691
 20
9.0790272257
 30
0.0
 10
10.5870886366
 20
9.0810307446
 30
0.0
 10
10.5880184429
 20
9.0827003437
 30
0.0
 10
10.5887622879
 20
9.0840360229
 30
0.0
 10
10.5893201717
 20
9.0850377824
 30
0.0
 10
10.5897850748
 20
9.0858725819
 30
0.0
 10
10.5901569973
 20
9.0865404216
 30
0.0
 10
10.5904359394
 20
9.0870413012
 30
0.0
 10
10.5907148804
 20
9.0875421813
 30
0.0
 10
10.5909473346
 20
9.0879595798
 30
0.0
 10
10.5911332904
 20
9.0882935023
 30
0.0
 10
10.5912495302
 20
9.0885021953
 30
0.0
 10
10.5913424821
 20
9.0886691692
 30
0.0
 10
10.5914123053
 20
9.0887943465
 30
0.0
 10
10.5914701436
 20
9.0888988298
 30
0.0
 10
10.5915113128
 20
9.0889716367
 30
0.0
 10
10.5915337727
 20
9.089013758
 30
0.0
 10
10.5915536186
 20
9.0890438917
 30
0.0
 10
10.591561993
 20
9.089079596
 30
0.0
 10
10.5915771603
 20
9.0891252587
 30
0.0
 10
10.5916018387
 20
9.0892060737
 30
0.0
 10
10.5916380683
 20
9.0893210505
 30
0.0
 10
10.5916811265
 20
9.0894592251
 30
0.0
 10
10.5917386832
 20
9.0896433872
 30
0.0
 10
10.5918105793
 20
9.0898736141
 30
0.0
 10
10.5919256408
 20
9.0902419635
 30
0.0
 10
10.5920694581
 20
9.090702405
 30
0.0
 10
10.592242043
 20
9.0912549327
 30
0.0
 10
10.5924146268
 20
9.091807461
 30
0.0
 10
10.5926447389
 20
9.0925441652
 30
0.0
 10
10.5929323789
 20
9.0934650455
 30
0.0
 10
10.593277547
 20
9.0945701018
 30
0.0
 10
10.593737771
 20
9.0960435102
 30
0.0
 10
10.5943130511
 20
9.0978852708
 30
0.0
 10
10.5950033872
 20
9.1000953835
 30
0.0
 10
10.5956937233
 20
9.1023054961
 30
0.0
 10
10.5963840594
 20
9.1045156088
 30
0.0
 10
10.5970743955
 20
9.1067257215
 30
0.0
 10
10.5977647316
 20
9.1089358341
 30
0.0
 10
10.5984550677
 20
9.1111459468
 30
0.0
 10
10.5991454038
 20
9.1133560594
 30
0.0
 10
10.5998357399
 20
9.1155661721
 30
0.0
 10
10.60041102
 20
9.1174079327
 30
0.0
 10
10.600871244
 20
9.1188813411
 30
0.0
 10
10.6012164121
 20
9.1199863974
 30
0.0
 10
10.6015040522
 20
9.1209072777
 30
0.0
 10
10.6017341641
 20
9.121643982
 30
0.0
 10
10.6019067484
 20
9.12219651
 30
0.0
 10
10.6020793315
 20
9.1227490385
 30
0.0
 10
10.6022231544
 20
9.1232094776
 30
0.0
 10
10.6023382045
 20
9.1235778319
 30
0.0
 10
10.6024101294
 20
9.1238080465
 30
0.0
 10
10.6024676269
 20
9.1239922337
 30
0.0
 10
10.6025108661
 20
9.1241303318
 30
0.0
 10
10.6025465296
 20
9.1242455481
 30
0.0
 10
10.6025722184
 20
9.1243259354
 30
0.0
 10
10.6025857668
 20
9.1243722833
 30
0.0
 10
10.6025991141
 20
9.1244058829
 30
0.0
 10
10.6026002827
 20
9.1244439218
 30
0.0
 10
10.602606089
 20
9.1244930918
 30
0.0
 10
10.6026142707
 20
9.1245798609
 30
0.0
 10
10.6026269936
 20
9.1247034395
 30
0.0
 10
10.6026418181
 20
9.1248518953
 30
0.0
 10
10.6026617389
 20
9.12504978
 30
0.0
 10
10.602686587
 20
9.1252971552
 30
0.0
 10
10.6027263734
 20
9.1256929446
 30
0.0
 10
10.6027760963
 20
9.1261876852
 30
0.0
 10
10.6028357682
 20
9.1267813722
 30
0.0
 10
10.6028954389
 20
9.1273750597
 30
0.0
 10
10.6029750002
 20
9.1281666428
 30
0.0
 10
10.6030744517
 20
9.1291561218
 30
0.0
 10
10.6031937935
 20
9.1303434965
 30
0.0
 10
10.603352916
 20
9.1319266628
 30
0.0
 10
10.6035518191
 20
9.1339056208
 30
0.0
 10
10.6037905028
 20
9.1362803703
 30
0.0
 10
10.6040291865
 20
9.1386551198
 30
0.0
 10
10.6042678702
 20
9.1410298693
 30
0.0
 10
10.6045065539
 20
9.1434046188
 30
0.0
 10
10.6047452376
 20
9.1457793683
 30
0.0
 10
10.6049839213
 20
9.1481541178
 30
0.0
 10
10.605222605
 20
9.1505288673
 30
0.0
 10
10.6054612887
 20
9.1529036168
 30
0.0
 10
10.6056601917
 20
9.1548825747
 30
0.0
 10
10.6058193142
 20
9.156465741
 30
0.0
 10
10.605938656
 20
9.1576531157
 30
0.0
 10
10.6060381076
 20
9.1586425947
 30
0.0
 10
10.6061176688
 20
9.1594341779
 30
0.0
 10
10.6061773399
 20
9.1600278653
 30
0.0
 10
10.6062370099
 20
9.1606215526
 30
0.0
 10
10.6062867387
 20
9.1611162921
 30
0.0
 10
10.6063265132
 20
9.1615120836
 30
0.0
 10
10.6063513915
 20
9.1617594536
 30
0.0
 10
10.6063712502
 20
9.1619573488
 30
0.0
 10
10.6063862647
 20
9.1621057725
 30
0.0
 10
10.6063983934
 20
9.1622294516
 30
0.0
 10
10.6064076358
 20
9.1623160413
 30
0.0
 10
10.6064117425
 20
9.1623654988
 30
0.0
 10
10.6064181316
 20
9.1624026547
 30
0.0
 10
10.6064118718
 20
9.162439571
 30
0.0
 10
10.6064079375
 20
9.1624888763
 30
0.0
 10
10.6063989968
 20
9.1625751218
 30
0.0
 10
10.606387299
 20
9.1626983498
 30
0.0
 10
10.6063728017
 20
9.1628462148
 30
0.0
 10
10.6063536327
 20
9.1630433712
 30
0.0
 10
10.6063296163
 20
9.1632898156
 30
0.0
 10
10.6062912209
 20
9.1636841272
 30
0.0
 10
10.6062432161
 20
9.1641770165
 30
0.0
 10
10.6061856149
 20
9.1647684838
 30
0.0
 10
10.6061280125
 20
9.1653599511
 30
0.0
 10
10.6060512096
 20
9.1661485741
 30
0.0
 10
10.6059552059
 20
9.1671343529
 30
0.0
 10
10.6058400016
 20
9.1683172875
 30
0.0
 10
10.6056863957
 20
9.1698945335
 30
0.0
 10
10.6054943885
 20
9.1718660911
 30
0.0
 10
10.6052639797
 20
9.1742319602
 30
0.0
 10
10.605033571
 20
9.1765978293
 30
0.0
 10
10.6048031622
 20
9.1789636984
 30
0.0
 10
10.6045727535
 20
9.1813295675
 30
0.0
 10
10.6043423447
 20
9.1836954366
 30
0.0
 10
10.604111936
 20
9.1860613056
 30
0.0
 10
10.6038815272
 20
9.1884271747
 30
0.0
 10
10.6036511185
 20
9.1907930438
 30
0.0
 10
10.6034591112
 20
9.1927646014
 30
0.0
 10
10.6033055054
 20
9.1943418475
 30
0.0
 10
10.603190301
 20
9.195524782
 30
0.0
 10
10.6030942974
 20
9.1965105608
 30
0.0
 10
10.6030174944
 20
9.1972991838
 30
0.0
 10
10.6029598924
 20
9.1978906511
 30
0.0
 10
10.6029022893
 20
9.1984821183
 30
0.0
 10
10.6028542904
 20
9.198975008
 30
0.0
 10
10.6028158831
 20
9.1993693188
 30
0.0
 10
10.602791897
 20
9.1996157654
 30
0.0
 10
10.6027726658
 20
9.1998129172
 30
0.0
 10
10.6027583585
 20
9.199960796
 30
0.0
 10
10.6027460663
 20
9.2000839809
 30
0.0
 10
10.6027381867
 20
9.2001703035
 30
0.0
 10
10.6027325522
 20
9.2002194851
 30
0.0
 10
10.602731515
 20
9.2002567815
 30
0.0
 10
10.6027182887
 20
9.2002925098
 30
0.0
 10
10.6027049054
 20
9.2003406945
 30
0.0
 10
10.6026795037
 20
9.2004247628
 30
0.0
 10
10.6026442511
 20
9.2005449936
 30
0.0
 10
10.6026015047
 20
9.2006892136
 30
0.0
 10
10.6025446644
 20
9.2008815269
 30
0.0
 10
10.602473561
 20
9.2011219116
 30
0.0
 10
10.6023598252
 20
9.2015065309
 30
0.0
 10
10.6022176452
 20
9.2019873038
 30
0.0
 10
10.6020470336
 20
9.2025642319
 30
0.0
 10
10.6018764209
 20
9.2031411598
 30
0.0
 10
10.6016489376
 20
9.203910397
 30
0.0
 10
10.6013645834
 20
9.2048719435
 30
0.0
 10
10.6010233584
 20
9.2060257994
 30
0.0
 10
10.6005683917
 20
9.2075642738
 30
0.0
 10
10.5999996833
 20
9.2094873669
 30
0.0
 10
10.5993172333
 20
9.2117950785
 30
0.0
 10
10.5986347832
 20
9.2141027902
 30
0.0
 10
10.5979523332
 20
9.2164105019
 30
0.0
 10
10.5972698831
 20
9.2187182136
 30
0.0
 10
10.5965874331
 20
9.2210259252
 30
0.0
 10
10.595904983
 20
9.2233336369
 30
0.0
 10
10.595222533
 20
9.2256413486
 30
0.0
 10
10.5945400829
 20
9.2279490603
 30
0.0
 10
10.5939713746
 20
9.2298721533
 30
0.0
 10
10.5935164079
 20
9.2314106278
 30
0.0
 10
10.5931751828
 20
9.2325644836
 30
0.0
 10
10.5928908287
 20
9.2335260301
 30
0.0
 10
10.5926633453
 20
9.2342952673
 30
0.0
 10
10.592492733
 20
9.2348721953
 30
0.0
 10
10.5923221196
 20
9.235449123
 30
0.0
 10
10.5921799452
 20
9.2359298971
 30
0.0
 10
10.592066198
 20
9.2363145139
 30
0.0
 10
10.5919951235
 20
9.2365549053
 30
0.0
 10
10.5919382239
 20
9.2367472047
 30
0.0
 10
10.5918956587
 20
9.2368914669
 30
0.0
 10
10.5918598394
 20
9.2370115659
 30
0.0
 10
10.5918354493
 20
9.2370958695
 30
0.0
 10
10.5918204451
 20
9.2371436772
 30
0.0
 10
10.5918121975
 20
9.2371805633
 30
0.0
 10
10.5917924616
 20
9.2372135111
 30
0.0
 10
10.5917701543
 20
9.2372588151
 30
0.0
 10
10.5917292496
 20
9.2373374572
 30
0.0
 10
10.5916717903
 20
9.2374501376
 30
0.0
 10
10.5916024213
 20
9.2375852109
 30
0.0
 10
10.5915100753
 20
9.2377653586
 30
0.0
 10
10.5913945929
 20
9.2379905261
 30
0.0
 10
10.5912098489
 20
9.2383508037
 30
0.0
 10
10.5909789093
 20
9.2388011474
 30
0.0
 10
10.5907017859
 20
9.2393415612
 30
0.0
 10
10.5904246614
 20
9.2398819747
 30
0.0
 10
10.5900551625
 20
9.2406025262
 30
0.0
 10
10.5895932887
 20
9.2415032154
 30
0.0
 10
10.5890390402
 20
9.2425840425
 30
0.0
 10
10.5883000422
 20
9.2440251454
 30
0.0
 10
10.5873762946
 20
9.2458265239
 30
0.0
 10
10.5862677976
 20
9.2479881781
 30
0.0
 10
10.5851593006
 20
9.2501498324
 30
0.0
 10
10.5840508035
 20
9.2523114866
 30
0.0
 10
10.5829423065
 20
9.2544731408
 30
0.0
 10
10.5818338095
 20
9.2566347951
 30
0.0
 10
10.5807253124
 20
9.2587964493
 30
0.0
 10
10.5796168154
 20
9.2609581035
 30
0.0
 10
10.5785083184
 20
9.2631197578
 30
0.0
 10
10.5775845709
 20
9.2649211363
 30
0.0
 10
10.5768455728
 20
9.2663622391
 30
0.0
 10
10.5762913243
 20
9.2674430662
 30
0.0
 10
10.5758294506
 20
9.2683437555
 30
0.0
 10
10.5754599515
 20
9.2690643069
 30
0.0
 10
10.5751828275
 20
9.2696047206
 30
0.0
 10
10.5749057024
 20
9.2701451337
 30
0.0
 10
10.5746747681
 20
9.2705954796
 30
0.0
 10
10.5744900133
 20
9.2709557528
 30
0.0
 10
10.5743745584
 20
9.2711809315
 30
0.0
 10
10.5742821557
 20
9.2713610561
 30
0.0
 10
10.57421296
 20
9.2714962
 30
0.0
 10
10.5741549588
 20
9.2716086594
 30
0.0
 10
10.5741150214
 20
9.271687696
 30
0.0
 10
10.5740911642
 20
9.2717323679
 30
0.0
 10
10.5740761892
 20
9.2717672574
 30
0.0
 10
10.5740500606
 20
9.2717968507
 30
0.0
 10
10.5740191131
 20
9.2718381557
 30
0.0
 10
10.5739631422
 20
9.2719095789
 30
0.0
 10
10.5738841315
 20
9.2720120619
 30
0.0
 10
10.5737889129
 20
9.272134849
 30
0.0
 10
10.5736620966
 20
9.2722986323
 30
0.0
 10
10.5735035277
 20
9.2725033385
 30
0.0
 10
10.5732498445
 20
9.2728308812
 30
0.0
 10
10.5729327312
 20
9.2732403052
 30
0.0
 10
10.5725521992
 20
9.2737316159
 30
0.0
 10
10.5721716662
 20
9.274222926
 30
0.0
 10
10.5716642892
 20
9.2748780064
 30
0.0
 10
10.5710300679
 20
9.2756968568
 30
0.0
 10
10.5702690023
 20
9.2766794774
 30
0.0
 10
10.5692542482
 20
9.2779896381
 30
0.0
 10
10.5679858055
 20
9.279627339
 30
0.0
 10
10.5664636743
 20
9.28159258
 30
0.0
 10
10.5649415431
 20
9.2835578211
 30
0.0
 10
10.5634194119
 20
9.2855230622
 30
0.0
 10
10.5618972807
 20
9.2874883033
 30
0.0
 10
10.5603751495
 20
9.2894535443
 30
0.0
 10
10.5588530184
 20
9.2914187854
 30
0.0
 10
10.5573308872
 20
9.2933840265
 30
0.0
 10
10.555808756
 20
9.2953492675
 30
0.0
 10
10.5545403133
 20
9.2969869684
 30
0.0
 10
10.5535255592
 20
9.2982971291
 30
0.0
 10
10.5527644936
 20
9.2992797497
 30
0.0
 10
10.5521302723
 20
9.3000986001
 30
0.0
 10
10.5516228952
 20
9.3007536804
 30
0.0
 10
10.5512423625
 20
9.3012449909
 30
0.0
 10
10.5508618291
 20
9.3017363005
 30
0.0
 10
10.5505447204
 20
9.3021457278
 30
0.0
 10
10.5502910279
 20
9.3024732636
 30
0.0
 10
10.5501324826
 20
9.3026779874
 30
0.0
 10
10.5500056179
 20
9.3028417345
 30
0.0
 10
10.5499105471
 20
9.3029646322
 30
0.0
 10
10.5498310742
 20
9.3030667691
 30
0.0
 10
10.5497759282
 20
9.3031388102
 30
0.0
 10
10.549743659
 20
9.3031791252
 30
0.0
 10
10.5497215903
 20
9.3032117598
 30
0.0
 10
10.5496913671
 20
9.3032352263
 30
0.0
 10
10.5496539139
 20
9.3032697129
 30
0.0
 10
10.5495870456
 20
9.3033285745
 30
0.0
 10
10.5494922123
 20
9.3034134414
 30
0.0
 10
10.5493781157
 20
9.3035149483
 30
0.0
 10
10.5492260906
 20
9.3036504073
 30
0.0
 10
10.5490360237
 20
9.3038196912
 30
0.0
 10
10.5487319364
 20
9.3040905677
 30
0.0
 10
10.5483518206
 20
9.3044291556
 30
0.0
 10
10.5478956845
 20
9.3048354644
 30
0.0
 10
10.5474395476
 20
9.3052417723
 30
0.0
 10
10.5468313654
 20
9.3057835165
 30
0.0
 10
10.5460711375
 20
9.3064606967
 30
0.0
 10
10.545158864
 20
9.3072733129
 30
0.0
 10
10.5439424995
 20
9.3083568012
 30
0.0
 10
10.5424220437
 20
9.3097111616
 30
0.0
 10
10.5405974968
 20
9.3113363941
 30
0.0
 10
10.53877295
 20
9.3129616265
 30
0.0
 10
10.5369484031
 20
9.314586859
 30
0.0
 10
10.5351238562
 20
9.3162120914
 30
0.0
 10
10.5332993093
 20
9.3178373239
 30
0.0
 10
10.5314747625
 20
9.3194625564
 30
0.0
 10
10.5296502156
 20
9.3210877888
 30
0.0
 10
10.5278256687
 20
9.3227130213
 30
0.0
 10
10.526305213
 20
9.3240673816
 30
0.0
 10
10.5250888484
 20
9.3251508699
 30
0.0
 10
10.524176575
 20
9.3259634862
 30
0.0
 10
10.5234163471
 20
9.3266406664
 30
0.0
 10
10.5228081648
 20
9.3271824105
 30
0.0
 10
10.5223520282
 20
9.3275887188
 30
0.0
 10
10.521895891
 20
9.3279950262
 30
0.0
 10
10.5215157787
 20
9.3283336186
 30
0.0
 10
10.5212116842
 20
9.3286044859
 30
0.0
 10
10.5210216357
 20
9.328773793
 30
0.0
 10
10.5208695728
 20
9.3289092044
 30
0.0
 10
10.5207555915
 20
9.3290108567
 30
0.0
 10
10.5206603976
 20
9.3290952686
 30
0.0
 10
10.5205941729
 20
9.3291549425
 30
0.0
 10
10.5205556884
 20
9.3291881275
 30
0.0
 10
10.5205286333
 20
9.3292155921
 30
0.0
 10
10.5204946658
 20
9.3292332105
 30
0.0
 10
10.520451787
 20
9.3292601361
 30
0.0
 10
10.5203756256
 20
9.3293056558
 30
0.0
 10
10.5202674109
 20
9.3293715205
 30
0.0
 10
10.5201373019
 20
9.3294502001
 30
0.0
 10
10.5199639111
 20
9.3295552313
 30
0.0
 10
10.5197471425
 20
9.3296864774
 30
0.0
 10
10.5194003296
 20
9.3298964952
 30
0.0
 10
10.5189668076
 20
9.3301590092
 30
0.0
 10
10.5184465837
 20
9.3304740295
 30
0.0
 10
10.5179263592
 20
9.3307890489
 30
0.0
 10
10.5172327267
 20
9.331209075
 30
0.0
 10
10.516365686
 20
9.3317341076
 30
0.0
 10
10.5153252372
 20
9.3323641467
 30
0.0
 10
10.5139379721
 20
9.3332041989
 30
0.0
 10
10.5122038907
 20
9.3342542641
 30
0.0
 10
10.5101229931
 20
9.3355143424
 30
0.0
 10
10.5080420955
 20
9.3367744206
 30
0.0
 10
10.5059611978
 20
9.3380344989
 30
0.0
 10
10.5038803002
 20
9.3392945772
 30
0.0
 10
10.5017994026
 20
9.3405546554
 30
0.0
 10
10.4997185049
 20
9.3418147337
 30
0.0
 10
10.4976376073
 20
9.3430748119
 30
0.0
 10
10.4955567097
 20
9.3443348902
 30
0.0
 10
10.4938226283
 20
9.3453849554
 30
0.0
 10
10.4924353633
 20
9.3462250076
 30
0.0
 10
10.4913949144
 20
9.3468550467
 30
0.0
 10
10.4905278738
 20
9.3473800793
 30
0.0
 10
10.4898342412
 20
9.3478001054
 30
0.0
 10
10.4893140169
 20
9.3481151251
 30
0.0
 10
10.4887937921
 20
9.3484301439
 30
0.0
 10
10.4883602729
 20
9.3486926628
 30
0.0
 10
10.4880134543
 20
9.3489026705
 30
0.0
 10
10.4877967
 20
9.3490339422
 30
0.0
 10
10.4876232799
 20
9.3491389209
 30
0.0
 10
10.4874932603
 20
9.349217761
 30
0.0
 10
10.487384766
 20
9.3492831234
 30
0.0
 10
10.4873091039
 20
9.3493295397
 30
0.0
 10
10.487265425
 20
9.3493550288
 30
0.0
 10
10.487233915
 20
9.34937706
 30
0.0
 10
10.4871976299
 20
9.3493879507
 30
0.0
 10
10.4871509154
 20
9.3494063577
 30
0.0
 10
10.4870683889
 20
9.3494367593
 30
0.0
 10
10.4869508997
 20
9.3494811368
 30
0.0
 10
10.4868097389
 20
9.3495339845
 30
0.0
 10
10.4866215852
 20
9.3496045898
 30
0.0
 10
10.4863863724
 20
9.3496927979
 30
0.0
 10
10.4860100434
 20
9.3498339579
 30
0.0
 10
10.4855396282
 20
9.3500103986
 30
0.0
 10
10.4849751316
 20
9.3502221315
 30
0.0
 10
10.4844106346
 20
9.3504338633
 30
0.0
 10
10.4836579721
 20
9.3507161727
 30
0.0
 10
10.4827171439
 20
9.3510690594
 30
0.0
 10
10.4815881501
 20
9.3514925234
 30
0.0
 10
10.480082825
 20
9.3520571421
 30
0.0
 10
10.4782011686
 20
9.3527629155
 30
0.0
 10
10.475943181
 20
9.3536098436
 30
0.0
 10
10.4736851934
 20
9.3544567717
 30
0.0
 10
10.4714272057
 20
9.3553036997
 30
0.0
 10
10.4691692181
 20
9.3561506278
 30
0.0
 10
10.4669112305
 20
9.3569975559
 30
0.0
 10
10.4646532428
 20
9.3578444839
 30
0.0
 10
10.4623952552
 20
9.358691412
 30
0.0
 10
10.4601372676
 20
9.3595383401
 30
0.0
 10
10.4582556112
 20
9.3602441135
 30
0.0
 10
10.4567502861
 20
9.3608087322
 30
0.0
 10
10.4556212923
 20
9.3612321962
 30
0.0
 10
10.4546804641
 20
9.361585083
 30
0.0
 10
10.4539278016
 20
9.3618673922
 30
0.0
 10
10.4533633047
 20
9.3620791245
 30
0.0
 10
10.4527988075
 20
9.3622908556
 30
0.0
 10
10.4523283943
 20
9.3624673018
 30
0.0
 10
10.4519520613
 20
9.3626084507
 30
0.0
 10
10.4517168586
 20
9.362696687
 30
0.0
 10
10.451528684
 20
9.3627672344
 30
0.0
 10
10.4513875873
 20
9.3628202587
 30
0.0
 10
10.4512698977
 20
9.362864084
 30
0.0
 10
10.4511877288
 20
9.3628954713
 30
0.0
 10
10.4511404413
 20
9.362912299
 30
0.0
 10
10.4511059162
 20
9.3629280406
 30
0.0
 10
10.4510677962
 20
9.3629318529
 30
0.0
 10
10.4510182234
 20
9.362941097
 30
0.0
 10
10.4509308869
 20
9.3629553355
 30
0.0
 10
10.4508064259
 20
9.3629766898
 30
0.0
 10
10.4506569419
 20
9.3630018812
 30
0.0
 10
10.4504576757
 20
9.3630356211
 30
0.0
 10
10.4502085772
 20
9.3630777442
 30
0.0
 10
10.4498100284
 20
9.3631451701
 30
0.0
 10
10.4493118393
 20
9.3632294425
 30
0.0
 10
10.4487140138
 20
9.3633305737
 30
0.0
 10
10.4481161879
 20
9.3634317038
 30
0.0
 10
10.4473190868
 20
9.3635665442
 30
0.0
 10
10.4463227104
 20
9.3637350947
 30
0.0
 10
10.4451270587
 20
9.3639373553
 30
0.0
 10
10.4435328565
 20
9.364207036
 30
0.0
 10
10.4415401037
 20
9.364544137
 30
0.0
 10
10.4391488004
 20
9.3649486581
 30
0.0
 10
10.4367574971
 20
9.3653531793
 30
0.0
 10
10.4343661937
 20
9.3657577004
 30
0.0
 10
10.4311777893
 20
9.3662970619
 30
0.0
 10
10.4271922838
 20
9.3669712639
 30
0.0
 10
10.4224096771
 20
9.3677803061
 30
0.0
 10
10.4176270704
 20
9.3685893484
 30
0.0
 10
10.414438666
 20
9.36912871
 30
0.0
 10
10.4128444638
 20
9.3693983907
 30
0.0
  0
SPLINE
  5
38E
100
AcDbEntity
  8
0
100
AcDbSpline
 62
4
  6
CONTINUOUS
 70
0
 71
3
 72
615
 73
611
 74
0
 42
0.0000001
 43
0.0000001
 44
0.0000000001
 40
0.0
 40
0.0
 40
0.0
 40
0.0
 40
0.0078125
 40
0.015625
 40
0.0234375
 40
0.03125
 40
0.03515625
 40
0.0390625
 40
0.04296875
 40
0.046875
 40
0.05078125
 40
0.052734375
 40
0.0546875
 40
0.056640625
 40
0.0576171875
 40
0.05859375
 40
0.0595703125
 40
0.060546875
 40
0.0610351562
 40
0.0615234375
 40
0.0617675781
 40
0.0620117188
 40
0.0622558594
 40
0.0623779297
 40
0.0624389648
 40
0.0625
 40
0.0625610352
 40
0.0626220703
 40
0.0627441406
 40
0.0629882812
 40
0.0632324219
 40
0.0634765625
 40
0.0639648438
 40
0.064453125
 40
0.0654296875
 40
0.06640625
 40
0.0673828125
 40
0.068359375
 40
0.0703125
 40
0.072265625
 40
0.07421875
 40
0.078125
 40
0.08203125
 40
0.0859375
 40
0.08984375
 40
0.09375
 40
0.09765625
 40
0.1015625
 40
0.10546875
 40
0.109375
 40
0.11328125
 40
0.115234375
 40
0.1171875
 40
0.119140625
 40
0.1201171875
 40
0.12109375
 40
0.1220703125
 40
0.123046875
 40
0.1235351562
 40
0.1240234375
 40
0.1242675781
 40
0.1245117188
 40
0.1247558594
 40
0.1248779297
 40
0.1249389648
 40
0.125
 40
0.1250610352
 40
0.1251220703
 40
0.1252441406
 40
0.1254882812
 40
0.1257324219
 40
0.1259765625
 40
0.1264648438
 40
0.126953125
 40
0.1279296875
 40
0.12890625
 40
0.1298828125
 40
0.130859375
 40
0.1328125
 40
0.134765625
 40
0.13671875
 40
0.140625
 40
0.14453125
 40
0.1484375
 40
0.15234375
 40
0.15625
 40
0.16015625
 40
0.1640625
 40
0.16796875
 40
0.171875
 40
0.17578125
 40
0.177734375
 40
0.1796875
 40
0.181640625
 40
0.1826171875
 40
0.18359375
 40
0.1845703125
 40
0.185546875
 40
0.1860351562
 40
0.1865234375
 40
0.1867675781
 40
0.1870117188
 40
0.1872558594
 40
0.1873779297
 40
0.1874389648
 40
0.1875
 40
0.1875610352
 40
0.1876220703
 40
0.1877441406
 40
0.1879882812
 40
0.1882324219
 40
0.1884765625
 40
0.1889648438
 40
0.189453125
 40
0.1904296875
 40
0.19140625
 40
0.1923828125
 40
0.193359375
 40
0.1953125
 40
0.197265625
 40
0.19921875
 40
0.203125
 40
0.20703125
 40
0.2109375
 40
0.21484375
 40
0.21875
 40
0.22265625
 40
0.2265625
 40
0.23046875
 40
0.234375
 40
0.23828125
 40
0.240234375
 40
0.2421875
 40
0.244140625
 40
0.2451171875
 40
0.24609375
 40
0.2470703125
 40
0.248046875
 40
0.2485351562
 40
0.2490234375
 40
0.2492675781
 40
0.2495117188
 40
0.2497558594
 40
0.2498779297
 40
0.2499389648
 40
0.25
 40
0.2500610352
 40
0.2501220703
 40
0.2502441406
 40
0.2504882812
 40
0.2507324219
 40
0.2509765625
 40
0.2514648438
 40
0.251953125
 40
0.2529296875
 40
0.25390625
 40
0.2548828125
 40
0.255859375
 40
0.2578125
 40
0.259765625
 40
0.26171875
 40
0.265625
 40
0.26953125
 40
0.2734375
 40
0.27734375
 40
0.28125
 40
0.28515625
 40
0.2890625
 40
0.29296875
 40
0.296875
 40
0.30078125
 40
0.302734375
 40
0.3046875
 40
0.306640625
 40
0.3076171875
 40
0.30859375
 40
0.3095703125
 40
0.310546875
 40
0.3110351562
 40
0.3115234375
 40
0.3117675781
 40
0.3120117188
 40
0.3122558594
 40
0.3123779297
 40
0.3124389648
 40
0.3125
 40
0.3125610352
 40
0.3126220703
 40
0.3127441406
 40
0.3129882812
 40
0.3132324219
 40
0.3134765625
 40
0.3139648438
 40
0.314453125
 40
0.3154296875
 40
0.31640625
 40
0.3173828125
 40
0.318359375
 40
0.3203125
 40
0.322265625
 40
0.32421875
 40
0.328125
 40
0.33203125
 40
0.3359375
 40
0.33984375
 40
0.34375
 40
0.34765625
 40
0.3515625
 40
0.35546875
 40
0.359375
 40
0.36328125
 40
0.365234375
 40
0.3671875
 40
0.369140625
 40
0.3701171875
 40
0.37109375
 40
0.3720703125
 40
0.373046875
 40
0.3735351562
 40
0.3740234375
 40
0.3742675781
 40
0.3745117188
 40
0.3747558594
 40
0.3748779297
 40
0.3749389648
 40
0.375
 40
0.3750610352
 40
0.3751220703
 40
0.3752441406
 40
0.3754882812
 40
0.3757324219
 40
0.3759765625
 40
0.3764648438
 40
0.376953125
 40
0.3779296875
 40
0.37890625
 40
0.3798828125
 40
0.380859375
 40
0.3828125
 40
0.384765625
 40
0.38671875
 40
0.390625
 40
0.39453125
 40
0.3984375
 40
0.40234375
 40
0.40625
 40
0.41015625
 40
0.4140625
 40
0.41796875
 40
0.421875
 40
0.42578125
 40
0.427734375
 40
0.4296875
 40
0.431640625
 40
0.4326171875
 40
0.43359375
 40
0.4345703125
 40
0.435546875
 40
0.4360351562
 40
0.4365234375
 40
0.4367675781
 40
0.4370117188
 40
0.4372558594
 40
0.4373779297
 40
0.4374389648
 40
0.4375
 40
0.4375610352
 40
0.4376220703
 40
0.4377441406
 40
0.4379882812
 40
0.4382324219
 40
0.4384765625
 40
0.4389648438
 40
0.439453125
 40
0.4404296875
 40
0.44140625
 40
0.4423828125
 40
0.443359375
 40
0.4453125
 40
0.447265625
 40
0.44921875
 40
0.453125
 40
0.45703125
 40
0.4609375
 40
0.46484375
 40
0.46875
 40
0.47265625
 40
0.4765625
 40
0.48046875
 40
0.484375
 40
0.48828125
 40
0.490234375
 40
0.4921875
 40
0.494140625
 40
0.4951171875
 40
0.49609375
 40
0.4970703125
 40
0.498046875
 40
0.4985351562
 40
0.4990234375
 40
0.4992675781
 40
0.4995117188
 40
0.4997558594
 40
0.4998779297
 40
0.4999389648
 40
0.5
 40
0.5000610352
 40
0.5001220703
 40
0.5002441406
 40
0.5004882812
 40
0.5007324219
 40
0.5009765625
 40
0.5014648438
 40
0.501953125
 40
0.5029296875
 40
0.50390625
 40
0.5048828125
 40
0.505859375
 40
0.5078125
 40
0.509765625
 40
0.51171875
 40
0.515625
 40
0.51953125
 40
0.5234375
 40
0.52734375
 40
0.53125
 40
0.53515625
 40
0.5390625
 40
0.54296875
 40
0.546875
 40
0.55078125
 40
0.552734375
 40
0.5546875
 40
0.556640625
 40
0.5576171875
 40
0.55859375
 40
0.5595703125
 40
0.560546875
 40
0.5610351562
 40
0.5615234375
 40
0.5617675781
 40
0.5620117188
 40
0.5622558594
 40
0.5623779297
 40
0.5624389648
 40
0.5625
 40
0.5625610352
 40
0.5626220703
 40
0.5627441406
 40
0.5629882812
 40
0.5632324219
 40
0.5634765625
 40
0.5639648438
 40
0.564453125
 40
0.5654296875
 40
0.56640625
 40
0.5673828125
 40
0.568359375
 40
0.5703125
 40
0.572265625
 40
0.57421875
 40
0.578125
 40
0.58203125
 40
0.5859375
 40
0.58984375
 40
0.59375
 40
0.59765625
 40
0.6015625
 40
0.60546875
 40
0.609375
 40
0.61328125
 40
0.615234375
 40
0.6171875
 40
0.619140625
 40
0.6201171875
 40
0.62109375
 40
0.6220703125
 40
0.623046875
 40
0.6235351562
 40
0.6240234375
 40
0.6242675781
 40
0.6245117188
 40
0.6247558594
 40
0.6248779297
 40
0.6249389648
 40
0.625
 40
0.6250610352
 40
0.6251220703
 40
0.6252441406
 40
0.6254882812
 40
0.6257324219
 40
0.6259765625
 40
0.6264648438
 40
0.626953125
 40
0.6279296875
 40
0.62890625
 40
0.6298828125
 40
0.630859375
 40
0.6328125
 40
0.634765625
 40
0.63671875
 40
0.640625
 40
0.64453125
 40
0.6484375
 40
0.65234375
 40
0.65625
 40
0.66015625
 40
0.6640625
 40
0.66796875
 40
0.671875
 40
0.67578125
 40
0.677734375
 40
0.6796875
 40
0.681640625
 40
0.6826171875
 40
0.68359375
 40
0.6845703125
 40
0.685546875
 40
0.6860351562
 40
0.6865234375
 40
0.6867675781
 40
0.6870117188
 40
0.6872558594
 40
0.6873779297
 40
0.6874389648
 40
0.6875
 40
0.6875610352
 40
0.6876220703
 40
0.6877441406
 40
0.6879882812
 40
0.6882324219
 40
0.6884765625
 40
0.6889648438
 40
0.689453125
 40
0.6904296875
 40
0.69140625
 40
0.6923828125
 40
0.693359375
 40
0.6953125
 40
0.697265625
 40
0.69921875
 40
0.703125
 40
0.70703125
 40
0.7109375
 40
0.71484375
 40
0.71875
 40
0.72265625
 40
0.7265625
 40
0.73046875
 40
0.734375
 40
0.73828125
 40
0.740234375
 40
0.7421875
 40
0.744140625
 40
0.7451171875
 40
0.74609375
 40
0.7470703125
 40
0.748046875
 40
0.7485351562
 40
0.7490234375
 40
0.7492675781
 40
0.7495117188
 40
0.7497558594
 40
0.7498779297
 40
0.7499389648
 40
0.75
 40
0.7500610352
 40
0.7501220703
 40
0.7502441406
 40
0.7504882812
 40
0.7507324219
 40
0.7509765625
 40
0.7514648438
 40
0.751953125
 40
0.7529296875
 40
0.75390625
 40
0.7548828125
 40
0.755859375
 40
0.7578125
 40
0.759765625
 40
0.76171875
 40
0.765625
 40
0.76953125
 40
0.7734375
 40
0.77734375
 40
0.78125
 40
0.78515625
 40
0.7890625
 40
0.79296875
 40
0.796875
 40
0.80078125
 40
0.802734375
 40
0.8046875
 40
0.806640625
 40
0.8076171875
 40
0.80859375
 40
0.8095703125
 40
0.810546875
 40
0.8110351562
 40
0.8115234375
 40
0.8117675781
 40
0.8120117188
 40
0.8122558594
 40
0.8123779297
 40
0.8124389648
 40
0.8125
 40
0.8125610352
 40
0.8126220703
 40
0.8127441406
 40
0.8129882812
 40
0.8132324219
 40
0.8134765625
 40
0.8139648438
 40
0.814453125
 40
0.8154296875
 40
0.81640625
 40
0.8173828125
 40
0.818359375
 40
0.8203125
 40
0.822265625
 40
0.82421875
 40
0.828125
 40
0.83203125
 40
0.8359375
 40
0.83984375
 40
0.84375
 40
0.84765625
 40
0.8515625
 40
0.85546875
 40
0.859375
 40
0.86328125
 40
0.865234375
 40
0.8671875
 40
0.869140625
 40
0.8701171875
 40
0.87109375
 40
0.8720703125
 40
0.873046875
 40
0.8735351562
 40
0.8740234375
 40
0.8742675781
 40
0.8745117188
 40
0.8747558594
 40
0.8748779297
 40
0.8749389648
 40
0.875
 40
0.8750610352
 40
0.8751220703
 40
0.8752441406
 40
0.8754882812
 40
0.8757324219
 40
0.8759765625
 40
0.8764648438
 40
0.876953125
 40
0.8779296875
 40
0.87890625
 40
0.8798828125
 40
0.880859375
 40
0.8828125
 40
0.884765625
 40
0.88671875
 40
0.890625
 40
0.89453125
 40
0.8984375
 40
0.90234375
 40
0.90625
 40
0.91015625
 40
0.9140625
 40
0.91796875
 40
0.921875
 40
0.92578125
 40
0.927734375
 40
0.9296875
 40
0.931640625
 40
0.9326171875
 40
0.93359375
 40
0.9345703125
 40
0.935546875
 40
0.9360351562
 40
0.9365234375
 40
0.9367675781
 40
0.9370117188
 40
0.9372558594
 40
0.9373779297
 40
0.9374389648
 40
0.9375
 40
0.9375610352
 40
0.9376220703
 40
0.9377441406
 40
0.9379882812
 40
0.9382324219
 40
0.9384765625
 40
0.9389648438
 40
0.939453125
 40
0.9404296875
 40
0.94140625
 40
0.9423828125
 40
0.943359375
 40
0.9453125
 40
0.947265625
 40
0.94921875
 40
0.953125
 40
0.95703125
 40
0.9609375
 40
0.96484375
 40
0.96875
 40
0.9765625
 40
0.984375
 40
0.9921875
 40
1.0
 40
1.0
 40
1.0
 40
1.0
 10
10.4128444807
 20
9.3693983896
 30
0.0
 10
10.4112778873
 20
9.3693534274
 30
0.0
 10
10.4081447003
 20
9.3692635029
 30
0.0
 10
10.40344492
 20
9.3691286163
 30
0.0
 10
10.3987451396
 20
9.3689937297
 30
0.0
 10
10.3948286559
 20
9.3688813242
 30
0.0
 10
10.391695469
 20
9.3687913998
 30
0.0
 10
10.3893455788
 20
9.3687239565
 30
0.0
 10
10.3869956886
 20
9.3686565132
 30
0.0
 10
10.3846457985
 20
9.3685890698
 30
0.0
 10
10.3826875566
 20
9.3685328671
 30
0.0
 10
10.3811209632
 20
9.3684879049
 30
0.0
 10
10.3799460181
 20
9.3684541832
 30
0.0
 10
10.3789668972
 20
9.3684260819
 30
0.0
 10
10.3781836004
 20
9.3684036007
 30
0.0
 10
10.3775961278
 20
9.3683867401
 30
0.0
 10
10.3770086555
 20
9.3683698784
 30
0.0
 10
10.3765190945
 20
9.3683558306
 30
0.0
 10
10.3761274473
 20
9.3683445841
 30
0.0
 10
10.3758826641
 20
9.3683375738
 30
0.0
 10
10.3756868459
 20
9.3683319226
 30
0.0
 10
10.3755399593
 20
9.3683278019
 30
0.0
 10
10.375417627
 20
9.3683239935
 30
0.0
 10
10.3753318508
 20
9.3683220626
 30
0.0
 10
10.37528306
 20
9.3683198117
 30
0.0
 10
10.3752458354
 20
9.368321356
 30
0.0
 10
10.3752110244
 20
9.3683105439
 30
0.0
 10
10.3751637679
 20
9.3683004378
 30
0.0
 10
10.3750814612
 20
9.3682807441
 30
0.0
 10
10.3749636751
 20
9.36825366
 30
0.0
 10
10.3748224196
 20
9.3682207098
 30
0.0
 10
10.3746340483
 20
9.368176933
 30
0.0
 10
10.3743985946
 20
9.3681221584
 30
0.0
 10
10.3740218628
 20
9.368034549
 30
0.0
 10
10.3735509501
 20
9.3679250269
 30
0.0
 10
10.3729858541
 20
9.3677936049
 30
0.0
 10
10.3724207582
 20
9.3676621817
 30
0.0
 10
10.371667297
 20
9.3674869511
 30
0.0
 10
10.3707254705
 20
9.3672679128
 30
0.0
 10
10.3695952787
 20
9.3670050668
 30
0.0
 10
10.3680883563
 20
9.3666546056
 30
0.0
 10
10.3662047033
 20
9.366216529
 30
0.0
 10
10.3639443197
 20
9.3656908371
 30
0.0
 10
10.3616839361
 20
9.3651651452
 30
0.0
 10
10.3594235525
 20
9.3646394532
 30
0.0
 10
10.3571631689
 20
9.3641137613
 30
0.0
 10
10.3549027853
 20
9.3635880694
 30
0.0
 10
10.3526424017
 20
9.3630623775
 30
0.0
 10
10.3503820181
 20
9.3625366856
 30
0.0
 10
10.3481216345
 20
9.3620109937
 30
0.0
 10
10.3462379815
 20
9.3615729171
 30
0.0
 10
10.3447310591
 20
9.3612224558
 30
0.0
 10
10.3436008673
 20
9.3609596099
 30
0.0
 10
10.3426590408
 20
9.3607405716
 30
0.0
 10
10.3419055796
 20
9.3605653409
 30
0.0
 10
10.3413404836
 20
9.3604339182
 30
0.0
 10
10.3407753881
 20
9.3603024943
 30
0.0
 10
10.3403044737
 20
9.3601929779
 30
0.0
 10
10.3399277454
 20
9.3601053569
 30
0.0
 10
10.339692283
 20
9.3600506118
 30
0.0
 10
10.3395039295
 20
9.3600067745
 30
0.0
 10
10.3393626193
 20
9.3599740092
 30
0.0
 10
10.3392450043
 20
9.3599463466
 30
0.0
 10
10.3391623922
 20
9.3599276856
 30
0.0
 10
10.339115625
 20
9.3599159248
 30
0.0
 10
10.3390793109
 20
9.3599101955
 30
0.0
 10
10.3390477318
 20
9.3598926496
 30
0.0
 10
10.3390039748
 20
9.3598733769
 30
0.0
 10
10.3389281695
 20
9.3598377293
 30
0.0
 10
10.3388194739
 20
9.359787808
 30
0.0
 10
10.3386892114
 20
9.3597274728
 30
0.0
 10
10.3385154679
 20
9.359647176
 30
0.0
 10
10.3382983091
 20
9.3595467536
 30
0.0
 10
10.3379508436
 20
9.3593861064
 30
0.0
 10
10.3375165156
 20
9.3591852875
 30
0.0
 10
10.3369953203
 20
9.3589443092
 30
0.0
 10
10.3364741255
 20
9.3587033297
 30
0.0
 10
10.3357791989
 20
9.3583820241
 30
0.0
 10
10.3349105407
 20
9.3579803919
 30
0.0
 10
10.3338681508
 20
9.3574984334
 30
0.0
 10
10.3324782977
 20
9.356855822
 30
0.0
 10
10.3307409813
 20
9.3560525578
 30
0.0
 10
10.3286562015
 20
9.3550886407
 30
0.0
 10
10.3265714218
 20
9.3541247236
 30
0.0
 10
10.3244866421
 20
9.3531608066
 30
0.0
 10
10.3224018624
 20
9.3521968895
 30
0.0
 10
10.3203170827
 20
9.3512329724
 30
0.0
 10
10.318232303
 20
9.3502690554
 30
0.0
 10
10.3161475233
 20
9.3493051383
 30
0.0
 10
10.3140627436
 20
9.3483412212
 30
0.0
 10
10.3123254272
 20
9.347537957
 30
0.0
 10
10.3109355741
 20
9.3468953456
 30
0.0
 10
10.3098931842
 20
9.3464133871
 30
0.0
 10
10.309024526
 20
9.346011755
 30
0.0
 10
10.3083295994
 20
9.3456904492
 30
0.0
 10
10.3078084044
 20
9.3454494702
 30
0.0
 10
10.3072872099
 20
9.3452084901
 30
0.0
 10
10.3068528794
 20
9.3450076767
 30
0.0
 10
10.306505419
 20
9.3448470183
 30
0.0
 10
10.3062882471
 20
9.3447466244
 30
0.0
 10
10.3061145306
 20
9.344666269
 30
0.0
 10
10.3059841855
 20
9.3446061127
 30
0.0
 10
10.3058757485
 20
9.3445556317
 30
0.0
 10
10.3057994815
 20
9.3445209834
 30
0.0
 10
10.3057564641
 20
9.3445001095
 30
0.0
 10
10.3057226132
 20
9.344487482
 30
0.0
 10
10.3056948319
 20
9.3444632801
 30
0.0
 10
10.3056556731
 20
9.3444350482
 30
0.0
 10
10.3055881315
 20
9.3443837614
 30
0.0
 10
10.3054911279
 20
9.3443114779
 30
0.0
 10
10.3053749443
 20
9.3442243167
 30
0.0
 10
10.3052199557
 20
9.3441082489
 30
0.0
 10
10.3050262463
 20
9.3439631137
 30
0.0
 10
10.3047162966
 20
9.3437309256
 30
0.0
 10
10.3043288645
 20
9.3434406809
 30
0.0
 10
10.3038639438
 20
9.3430923913
 30
0.0
 10
10.3033990237
 20
9.3427441006
 30
0.0
 10
10.30277913
 20
9.3422797133
 30
0.0
 10
10.302004263
 20
9.3416992292
 30
0.0
 10
10.3010744225
 20
9.3410026483
 30
0.0
 10
10.2998346352
 20
9.3400738737
 30
0.0
 10
10.2982849011
 20
9.3389129054
 30
0.0
 10
10.2964252202
 20
9.3375197436
 30
0.0
 10
10.2945655393
 20
9.3361265817
 30
0.0
 10
10.2927058584
 20
9.3347334198
 30
0.0
 10
10.2908461775
 20
9.3333402579
 30
0.0
 10
10.2889864966
 20
9.331947096
 30
0.0
 10
10.2871268157
 20
9.3305539342
 30
0.0
 10
10.2852671348
 20
9.3291607723
 30
0.0
 10
10.2834074539
 20
9.3277676104
 30
0.0
 10
10.2818577198
 20
9.3266066422
 30
0.0
 10
10.2806179325
 20
9.3256778676
 30
0.0
 10
10.279688092
 20
9.3249812866
 30
0.0
 10
10.278913225
 20
9.3244008025
 30
0.0
 10
10.2782933314
 20
9.3239364152
 30
0.0
 10
10.277828411
 20
9.3235881249
 30
0.0
 10
10.2773634915
 20
9.3232398338
 30
0.0
 10
10.2769760557
 20
9.3229495938
 30
0.0
 10
10.2766661135
 20
9.3227173959
 30
0.0
 10
10.2764723849
 20
9.3225722856
 30
0.0
 10
10.2763174358
 20
9.3224561667
 30
0.0
 10
10.2762011313
 20
9.3223691616
 30
0.0
 10
10.2761045059
 20
9.3222963898
 30
0.0
 10
10.2760362892
 20
9.3222459747
 30
0.0
 10
10.2759982121
 20
9.3222163461
 30
0.0
 10
10.2759671079
 20
9.3221964345
 30
0.0
 10
10.2759457374
 20
9.3221676933
 30
0.0
 10
10.2759138482
 20
9.3221324517
 30
0.0
 10
10.275859624
 20
9.3220693438
 30
0.0
 10
10.2757813337
 20
9.3219799399
 30
0.0
 10
10.2756877395
 20
9.3218723342
 30
0.0
 10
10.2755628235
 20
9.321728972
 30
0.0
 10
10.2754067208
 20
9.3215497308
 30
0.0
 10
10.2751569328
 20
9.3212629664
 30
0.0
 10
10.274844706
 20
9.3209045036
 30
0.0
 10
10.2744700303
 20
9.3204743513
 30
0.0
 10
10.2740953556
 20
9.3200441982
 30
0.0
 10
10.273595789
 20
9.319470661
 30
0.0
 10
10.2729713308
 20
9.3187537395
 30
0.0
 10
10.272221981
 20
9.3178934336
 30
0.0
 10
10.2712228478
 20
9.3167463592
 30
0.0
 10
10.2699739314
 20
9.3153125161
 30
0.0
 10
10.2684752317
 20
9.3135919044
 30
0.0
 10
10.266976532
 20
9.3118712927
 30
0.0
 10
10.2654778323
 20
9.310150681
 30
0.0
 10
10.2639791326
 20
9.3084300693
 30
0.0
 10
10.2624804329
 20
9.3067094576
 30
0.0
 10
10.2609817332
 20
9.3049888459
 30
0.0
 10
10.2594830335
 20
9.3032682342
 30
0.0
 10
10.2579843338
 20
9.3015476225
 30
0.0
 10
10.2567354174
 20
9.3001137794
 30
0.0
 10
10.2557362843
 20
9.298966705
 30
0.0
 10
10.2549869344
 20
9.2981063991
 30
0.0
 10
10.2543624762
 20
9.2973894776
 30
0.0
 10
10.2538629097
 20
9.2968159403
 30
0.0
 10
10.2534882345
 20
9.2963857875
 30
0.0
 10
10.2531135604
 20
9.295955634
 30
0.0
 10
10.2528013289
 20
9.2955971751
 30
0.0
 10
10.2525515505
 20
9.2953104028
 30
0.0
 10
10.2523954234
 20
9.2951311817
 30
0.0
 10
10.2522705576
 20
9.2949877783
 30
0.0
 10
10.2521768099
 20
9.2948802984
 30
0.0
 10
10.2520989997
 20
9.2947905006
 30
0.0
 10
10.2520439185
 20
9.2947280959
 30
0.0
 10
10.2520134024
 20
9.2946917277
 30
0.0
 10
10.2519878141
 20
9.2946664471
 30
0.0
 10
10.2519725514
 20
9.2946335381
 30
0.0
 10
10.2519485994
 20
9.2945923203
 30
0.0
 10
10.2519083615
 20
9.2945189495
 30
0.0
 10
10.2518500015
 20
9.2944147821
 30
0.0
 10
10.251780345
 20
9.2942895038
 30
0.0
 10
10.2516873385
 20
9.294122563
 30
0.0
 10
10.2515711253
 20
9.2939138538
 30
0.0
 10
10.2513851591
 20
9.2935799377
 30
0.0
 10
10.25115271
 20
9.2931625361
 30
0.0
 10
10.2508737673
 20
9.2926616569
 30
0.0
 10
10.2505948257
 20
9.2921607771
 30
0.0
 10
10.2502229031
 20
9.2914929375
 30
0.0
 10
10.249758
 20
9.2906581379
 30
0.0
 10
10.2492001162
 20
9.2896563785
 30
0.0
 10
10.2484562712
 20
9.2883206992
 30
0.0
 10
10.2475264649
 20
9.2866511002
 30
0.0
 10
10.2464106974
 20
9.2846475813
 30
0.0
 10
10.2452949299
 20
9.2826440624
 30
0.0
 10
10.2441791624
 20
9.2806405435
 30
0.0
 10
10.2430633949
 20
9.2786370246
 30
0.0
 10
10.2419476273
 20
9.2766335057
 30
0.0
 10
10.2408318598
 20
9.2746299868
 30
0.0
 10
10.2397160923
 20
9.272626468
 30
0.0
 10
10.2386003248
 20
9.2706229491
 30
0.0
 10
10.2376705185
 20
9.26895335
 30
0.0
 10
10.2369266735
 20
9.2676176707
 30
0.0
 10
10.2363687898
 20
9.2666159113
 30
0.0
 10
10.2359038866
 20
9.2657811118
 30
0.0
 10
10.2355319642
 20
9.2651132721
 30
0.0
 10
10.2352530221
 20
9.2646123925
 30
0.0
 10
10.234974081
 20
9.2641115124
 30
0.0
 10
10.2347416268
 20
9.2636941139
 30
0.0
 10
10.234555671
 20
9.2633601914
 30
0.0
 10
10.2344394313
 20
9.2631514983
 30
0.0
 10
10.2343464793
 20
9.2629845245
 30
0.0
 10
10.2342766561
 20
9.2628593471
 30
0.0
 10
10.2342188178
 20
9.2627548639
 30
0.0
 10
10.2341776487
 20
9.2626820569
 30
0.0
 10
10.2341551888
 20
9.2626399356
 30
0.0
 10
10.2341353428
 20
9.262609802
 30
0.0
 10
10.2341269684
 20
9.2625740976
 30
0.0
 10
10.2341118011
 20
9.2625284349
 30
0.0
 10
10.2340871227
 20
9.2624476199
 30
0.0
 10
10.2340508932
 20
9.2623326432
 30
0.0
 10
10.2340078349
 20
9.2621944685
 30
0.0
 10
10.2339502782
 20
9.2620103064
 30
0.0
 10
10.2338783822
 20
9.2617800796
 30
0.0
 10
10.2337633207
 20
9.2614117301
 30
0.0
 10
10.2336195033
 20
9.2609512887
 30
0.0
 10
10.2334469184
 20
9.2603987609
 30
0.0
 10
10.2332743346
 20
9.2598462327
 30
0.0
 10
10.2330442225
 20
9.2591095285
 30
0.0
 10
10.2327565825
 20
9.2581886482
 30
0.0
 10
10.2324114145
 20
9.2570835919
 30
0.0
 10
10.2319511904
 20
9.2556101834
 30
0.0
 10
10.2313759103
 20
9.2537684229
 30
0.0
 10
10.2306855742
 20
9.2515583102
 30
0.0
 10
10.2299952381
 20
9.2493481975
 30
0.0
 10
10.229304902
 20
9.2471380849
 30
0.0
 10
10.2286145659
 20
9.2449279722
 30
0.0
 10
10.2279242298
 20
9.2427178595
 30
0.0
 10
10.2272338937
 20
9.2405077469
 30
0.0
 10
10.2265435576
 20
9.2382976342
 30
0.0
 10
10.2258532215
 20
9.2360875215
 30
0.0
 10
10.2252779415
 20
9.234245761
 30
0.0
 10
10.2248177174
 20
9.2327723526
 30
0.0
 10
10.2244725494
 20
9.2316672962
 30
0.0
 10
10.2241849093
 20
9.230746416
 30
0.0
 10
10.2239547973
 20
9.2300097117
 30
0.0
 10
10.2237822131
 20
9.2294571836
 30
0.0
 10
10.2236096299
 20
9.2289046551
 30
0.0
 10
10.2234658071
 20
9.228444216
 30
0.0
 10
10.2233507569
 20
9.2280758618
 30
0.0
 10
10.223278832
 20
9.2278456471
 30
0.0
 10
10.2232213345
 20
9.22766146
 30
0.0
 10
10.2231780953
 20
9.2275233619
 30
0.0
 10
10.2231424318
 20
9.2274081456
 30
0.0
 10
10.223116743
 20
9.2273277582
 30
0.0
 10
10.2231031947
 20
9.2272814103
 30
0.0
 10
10.2230898474
 20
9.2272478108
 30
0.0
 10
10.2230886787
 20
9.2272097719
 30
0.0
 10
10.2230828725
 20
9.2271606018
 30
0.0
 10
10.2230746908
 20
9.2270738327
 30
0.0
 10
10.2230619679
 20
9.2269502541
 30
0.0
 10
10.2230471433
 20
9.2268017983
 30
0.0
 10
10.2230272225
 20
9.2266039136
 30
0.0
 10
10.2230023745
 20
9.2263565385
 30
0.0
 10
10.222962588
 20
9.225960749
 30
0.0
 10
10.2229128651
 20
9.2254660085
 30
0.0
 10
10.2228531933
 20
9.2248723215
 30
0.0
 10
10.2227935226
 20
9.224278634
 30
0.0
 10
10.2227139613
 20
9.2234870509
 30
0.0
 10
10.2226145098
 20
9.2224975719
 30
0.0
 10
10.2224951679
 20
9.2213101971
 30
0.0
 10
10.2223360454
 20
9.2197270308
 30
0.0
 10
10.2221371424
 20
9.2177480729
 30
0.0
 10
10.2218984587
 20
9.2153733234
 30
0.0
 10
10.221659775
 20
9.2129985739
 30
0.0
 10
10.2214210913
 20
9.2106238244
 30
0.0
 10
10.2211824076
 20
9.2082490749
 30
0.0
 10
10.2209437239
 20
9.2058743254
 30
0.0
 10
10.2207050402
 20
9.2034995759
 30
0.0
 10
10.2204663565
 20
9.2011248264
 30
0.0
 10
10.2202276728
 20
9.1987500769
 30
0.0
 10
10.2200287697
 20
9.196771119
 30
0.0
 10
10.2198696472
 20
9.1951879527
 30
0.0
 10
10.2197503054
 20
9.1940005779
 30
0.0
 10
10.2196508538
 20
9.193011099
 30
0.0
 10
10.2195712927
 20
9.1922195158
 30
0.0
 10
10.2195116215
 20
9.1916258284
 30
0.0
 10
10.2194519515
 20
9.1910321411
 30
0.0
 10
10.2194022228
 20
9.1905374015
 30
0.0
 10
10.2193624482
 20
9.19014161
 30
0.0
 10
10.2193375699
 20
9.18989424
 30
0.0
 10
10.2193177113
 20
9.1896963448
 30
0.0
 10
10.2193026968
 20
9.1895479211
 30
0.0
 10
10.2192905681
 20
9.189424242
 30
0.0
 10
10.2192813256
 20
9.1893376524
 30
0.0
 10
10.2192772189
 20
9.1892881948
 30
0.0
 10
10.2192708298
 20
9.189251039
 30
0.0
 10
10.2192770896
 20
9.1892141226
 30
0.0
 10
10.2192810239
 20
9.1891648173
 30
0.0
 10
10.2192899647
 20
9.1890785719
 30
0.0
 10
10.2193016624
 20
9.1889553438
 30
0.0
 10
10.2193161597
 20
9.1888074788
 30
0.0
 10
10.2193353288
 20
9.1886103225
 30
0.0
 10
10.2193593451
 20
9.1883638781
 30
0.0
 10
10.2193977405
 20
9.1879695664
 30
0.0
 10
10.2194457453
 20
9.1874766771
 30
0.0
 10
10.2195033465
 20
9.1868852098
 30
0.0
 10
10.219560949
 20
9.1862937426
 30
0.0
 10
10.2196377518
 20
9.1855051195
 30
0.0
 10
10.2197337555
 20
9.1845193407
 30
0.0
 10
10.2198489598
 20
9.1833364062
 30
0.0
 10
10.2200025657
 20
9.1817591601
 30
0.0
 10
10.220194573
 20
9.1797876026
 30
0.0
 10
10.2204249817
 20
9.1774217335
 30
0.0
 10
10.2206553905
 20
9.1750558644
 30
0.0
 10
10.2208857992
 20
9.1726899953
 30
0.0
 10
10.221116208
 20
9.1703241262
 30
0.0
 10
10.2213466167
 20
9.1679582571
 30
0.0
 10
10.2215770255
 20
9.165592388
 30
0.0
 10
10.2218074342
 20
9.1632265189
 30
0.0
 10
10.222037843
 20
9.1608606498
 30
0.0
 10
10.2222298502
 20
9.1588890923
 30
0.0
 10
10.2223834561
 20
9.1573118462
 30
0.0
 10
10.2224986605
 20
9.1561289117
 30
0.0
 10
10.2225946641
 20
9.1551431329
 30
0.0
 10
10.2226714671
 20
9.1543545098
 30
0.0
 10
10.222729069
 20
9.1537630425
 30
0.0
 10
10.2227866721
 20
9.1531715754
 30
0.0
 10
10.2228346711
 20
9.1526786856
 30
0.0
 10
10.2228730784
 20
9.1522843749
 30
0.0
 10
10.2228970644
 20
9.1520379283
 30
0.0
 10
10.2229162957
 20
9.1518407764
 30
0.0
 10
10.222930603
 20
9.1516928976
 30
0.0
 10
10.2229428951
 20
9.1515697128
 30
0.0
 10
10.2229507747
 20
9.1514833902
 30
0.0
 10
10.2229564093
 20
9.1514342086
 30
0.0
 10
10.2229574464
 20
9.1513969121
 30
0.0
 10
10.2229706727
 20
9.1513611839
 30
0.0
 10
10.222984056
 20
9.1513129992
 30
0.0
 10
10.2230094578
 20
9.1512289309
 30
0.0
 10
10.2230447103
 20
9.1511087
 30
0.0
 10
10.2230874567
 20
9.15096448
 30
0.0
 10
10.223144297
 20
9.1507721668
 30
0.0
 10
10.2232154004
 20
9.1505317821
 30
0.0
 10
10.2233291362
 20
9.1501471627
 30
0.0
 10
10.2234713162
 20
9.1496663898
 30
0.0
 10
10.2236419278
 20
9.1490894618
 30
0.0
 10
10.2238125406
 20
9.1485125339
 30
0.0
 10
10.2240400238
 20
9.1477432967
 30
0.0
 10
10.224324378
 20
9.1467817501
 30
0.0
 10
10.2246656031
 20
9.1456278943
 30
0.0
 10
10.2251205698
 20
9.1440894199
 30
0.0
 10
10.2256892781
 20
9.1421663268
 30
0.0
 10
10.2263717282
 20
9.1398586151
 30
0.0
 10
10.2270541782
 20
9.1375509034
 30
0.0
 10
10.2277366283
 20
9.1352431918
 30
0.0
 10
10.2284190783
 20
9.1329354801
 30
0.0
 10
10.2291015283
 20
9.1306277684
 30
0.0
 10
10.2297839784
 20
9.1283200568
 30
0.0
 10
10.2304664284
 20
9.1260123451
 30
0.0
 10
10.2311488785
 20
9.1237046334
 30
0.0
 10
10.2317175869
 20
9.1217815403
 30
0.0
 10
10.2321725535
 20
9.1202430659
 30
0.0
 10
10.2325137786
 20
9.1190892101
 30
0.0
 10
10.2327981327
 20
9.1181276635
 30
0.0
 10
10.2330256162
 20
9.1173584263
 30
0.0
 10
10.2331962284
 20
9.1167814983
 30
0.0
 10
10.2333668418
 20
9.1162045707
 30
0.0
 10
10.2335090162
 20
9.1157237965
 30
0.0
 10
10.2336227634
 20
9.1153391798
 30
0.0
 10
10.2336938379
 20
9.1150987884
 30
0.0
 10
10.2337507375
 20
9.1149064889
 30
0.0
 10
10.2337933028
 20
9.1147622268
 30
0.0
 10
10.233829122
 20
9.1146421277
 30
0.0
 10
10.2338535122
 20
9.1145578242
 30
0.0
 10
10.2338685163
 20
9.1145100164
 30
0.0
 10
10.233876764
 20
9.1144731303
 30
0.0
 10
10.2338964998
 20
9.1144401826
 30
0.0
 10
10.2339188071
 20
9.1143948785
 30
0.0
 10
10.2339597119
 20
9.1143162365
 30
0.0
 10
10.2340171712
 20
9.1142035561
 30
0.0
 10
10.2340865401
 20
9.1140684828
 30
0.0
 10
10.2341788861
 20
9.1138883351
 30
0.0
 10
10.2342943685
 20
9.1136631676
 30
0.0
 10
10.2344791125
 20
9.11330289
 30
0.0
 10
10.2347100521
 20
9.1128525463
 30
0.0
 10
10.2349871755
 20
9.1123121324
 30
0.0
 10
10.2352643
 20
9.1117717189
 30
0.0
 10
10.2356337989
 20
9.1110511675
 30
0.0
 10
10.2360956727
 20
9.1101504782
 30
0.0
 10
10.2366499212
 20
9.1090696511
 30
0.0
 10
10.2373889193
 20
9.1076285483
 30
0.0
 10
10.2383126668
 20
9.1058271698
 30
0.0
 10
10.2394211638
 20
9.1036655155
 30
0.0
 10
10.2405296609
 20
9.1015038613
 30
0.0
 10
10.2416381579
 20
9.0993422071
 30
0.0
 10
10.2427466549
 20
9.0971805528
 30
0.0
 10
10.243855152
 20
9.0950188986
 30
0.0
 10
10.244963649
 20
9.0928572444
 30
0.0
 10
10.246072146
 20
9.0906955901
 30
0.0
 10
10.247180643
 20
9.0885339359
 30
0.0
 10
10.2481043906
 20
9.0867325574
 30
0.0
 10
10.2488433886
 20
9.0852914545
 30
0.0
 10
10.2493976371
 20
9.0842106274
 30
0.0
 10
10.2498595108
 20
9.0833099381
 30
0.0
 10
10.2502290099
 20
9.0825893868
 30
0.0
 10
10.250506134
 20
9.0820489731
 30
0.0
 10
10.2507832591
 20
9.0815085599
 30
0.0
 10
10.2510141933
 20
9.0810582141
 30
0.0
 10
10.2511989482
 20
9.0806979409
 30
0.0
 10
10.251314403
 20
9.0804727621
 30
0.0
 10
10.2514068057
 20
9.0802926375
 30
0.0
 10
10.2514760014
 20
9.0801574936
 30
0.0
 10
10.2515340026
 20
9.0800450342
 30
0.0
 10
10.25157394
 20
9.0799659976
 30
0.0
 10
10.2515977972
 20
9.0799213257
 30
0.0
 10
10.2516127723
 20
9.0798864363
 30
0.0
 10
10.2516389008
 20
9.079856843
 30
0.0
 10
10.2516698484
 20
9.0798155379
 30
0.0
 10
10.2517258192
 20
9.0797441148
 30
0.0
 10
10.25180483
 20
9.0796416317
 30
0.0
 10
10.2519000485
 20
9.0795188447
 30
0.0
 10
10.2520268648
 20
9.0793550613
 30
0.0
 10
10.2521854338
 20
9.0791503552
 30
0.0
 10
10.2524391169
 20
9.0788228124
 30
0.0
 10
10.2527562302
 20
9.0784133885
 30
0.0
 10
10.2531367622
 20
9.0779220778
 30
0.0
 10
10.2535172952
 20
9.0774307676
 30
0.0
 10
10.2540246722
 20
9.0767756872
 30
0.0
 10
10.2546588936
 20
9.0759568368
 30
0.0
 10
10.2554199591
 20
9.0749742163
 30
0.0
 10
10.2564347133
 20
9.0736640556
 30
0.0
 10
10.2577031559
 20
9.0720263547
 30
0.0
 10
10.2592252871
 20
9.0700611136
 30
0.0
 10
10.2607474183
 20
9.0680958725
 30
0.0
 10
10.2622695495
 20
9.0661306315
 30
0.0
 10
10.2637916807
 20
9.0641653904
 30
0.0
 10
10.2653138119
 20
9.0622001493
 30
0.0
 10
10.2668359431
 20
9.0602349083
 30
0.0
 10
10.2683580743
 20
9.0582696672
 30
0.0
 10
10.2698802054
 20
9.0563044261
 30
0.0
 10
10.2711486481
 20
9.0546667252
 30
0.0
 10
10.2721634022
 20
9.0533565645
 30
0.0
 10
10.2729244678
 20
9.052373944
 30
0.0
 10
10.2735586891
 20
9.0515550935
 30
0.0
 10
10.2740660663
 20
9.0509000132
 30
0.0
 10
10.2744465989
 20
9.0504087028
 30
0.0
 10
10.2748271323
 20
9.0499173932
 30
0.0
 10
10.275144241
 20
9.0495079658
 30
0.0
 10
10.2753979335
 20
9.04918043
 30
0.0
 10
10.2755564789
 20
9.0489757062
 30
0.0
 10
10.2756833436
 20
9.0488119591
 30
0.0
 10
10.2757784144
 20
9.0486890614
 30
0.0
 10
10.2758578872
 20
9.0485869245
 30
0.0
 10
10.2759130332
 20
9.0485148834
 30
0.0
 10
10.2759453025
 20
9.0484745685
 30
0.0
 10
10.2759673711
 20
9.0484419338
 30
0.0
 10
10.2759975943
 20
9.0484184673
 30
0.0
 10
10.2760350475
 20
9.0483839807
 30
0.0
 10
10.2761019158
 20
9.0483251192
 30
0.0
 10
10.2761967491
 20
9.0482402522
 30
0.0
 10
10.2763108457
 20
9.0481387453
 30
0.0
 10
10.2764628708
 20
9.0480032863
 30
0.0
 10
10.2766529378
 20
9.0478340025
 30
0.0
 10
10.276957025
 20
9.047563126
 30
0.0
 10
10.2773371408
 20
9.0472245381
 30
0.0
 10
10.2777932769
 20
9.0468182293
 30
0.0
 10
10.2782494138
 20
9.0464119213
 30
0.0
 10
10.2788575961
 20
9.0458701771
 30
0.0
 10
10.279617824
 20
9.045192997
 30
0.0
 10
10.2805300974
 20
9.0443803807
 30
0.0
 10
10.281746462
 20
9.0432968924
 30
0.0
 10
10.2832669177
 20
9.041942532
 30
0.0
 10
10.2850914646
 20
9.0403172996
 30
0.0
 10
10.2869160115
 20
9.0386920671
 30
0.0
 10
10.2887405583
 20
9.0370668347
 30
0.0
 10
10.2905651052
 20
9.0354416022
 30
0.0
 10
10.2923896521
 20
9.0338163698
 30
0.0
 10
10.294214199
 20
9.0321911373
 30
0.0
 10
10.2960387458
 20
9.0305659049
 30
0.0
 10
10.2978632927
 20
9.0289406724
 30
0.0
 10
10.2993837484
 20
9.027586312
 30
0.0
 10
10.300600113
 20
9.0265028237
 30
0.0
 10
10.3015123865
 20
9.0256902075
 30
0.0
 10
10.3022726143
 20
9.0250130273
 30
0.0
 10
10.3028807966
 20
9.0244712832
 30
0.0
 10
10.3033369332
 20
9.0240649749
 30
0.0
 10
10.3037930705
 20
9.0236586675
 30
0.0
 10
10.3041731828
 20
9.0233200751
 30
0.0
 10
10.3044772772
 20
9.0230492077
 30
0.0
 10
10.3046673258
 20
9.0228799007
 30
0.0
 10
10.3048193886
 20
9.0227444893
 30
0.0
 10
10.3049333699
 20
9.022642837
 30
0.0
 10
10.3050285639
 20
9.0225584251
 30
0.0
 10
10.3050947885
 20
9.0224987511
 30
0.0
 10
10.3051332731
 20
9.0224655661
 30
0.0
 10
10.3051603281
 20
9.0224381015
 30
0.0
 10
10.3051942956
 20
9.0224204832
 30
0.0
 10
10.3052371745
 20
9.0223935575
 30
0.0
 10
10.3053133359
 20
9.0223480378
 30
0.0
 10
10.3054215505
 20
9.0222821731
 30
0.0
 10
10.3055516595
 20
9.0222034935
 30
0.0
 10
10.3057250503
 20
9.0220984624
 30
0.0
 10
10.3059418189
 20
9.0219672162
 30
0.0
 10
10.3062886319
 20
9.0217571985
 30
0.0
 10
10.3067221538
 20
9.0214946845
 30
0.0
 10
10.3072423777
 20
9.0211796642
 30
0.0
 10
10.3077626023
 20
9.0208646448
 30
0.0
 10
10.3084562348
 20
9.0204446186
 30
0.0
 10
10.3093232755
 20
9.0199195861
 30
0.0
 10
10.3103637243
 20
9.0192895469
 30
0.0
 10
10.3117509894
 20
9.0184494948
 30
0.0
 10
10.3134850707
 20
9.0173994295
 30
0.0
 10
10.3155659683
 20
9.0161393513
 30
0.0
 10
10.317646866
 20
9.014879273
 30
0.0
 10
10.3197277636
 20
9.0136191948
 30
0.0
 10
10.3218086612
 20
9.0123591165
 30
0.0
 10
10.3238895589
 20
9.0110990382
 30
0.0
 10
10.3259704565
 20
9.00983896
 30
0.0
 10
10.3280513541
 20
9.0085788817
 30
0.0
 10
10.3301322517
 20
9.0073188035
 30
0.0
 10
10.3318663331
 20
9.0062687383
 30
0.0
 10
10.3332535982
 20
9.0054286861
 30
0.0
 10
10.334294047
 20
9.004798647
 30
0.0
 10
10.3351610877
 20
9.0042736143
 30
0.0
 10
10.3358547202
 20
9.0038535883
 30
0.0
 10
10.3363749445
 20
9.0035385685
 30
0.0
 10
10.3368951693
 20
9.0032235498
 30
0.0
 10
10.3373286885
 20
9.0029610309
 30
0.0
 10
10.3376755071
 20
9.0027510232
 30
0.0
 10
10.3378922614
 20
9.0026197514
 30
0.0
 10
10.3380656815
 20
9.0025147728
 30
0.0
 10
10.3381957011
 20
9.0024359327
 30
0.0
 10
10.3383041955
 20
9.0023705702
 30
0.0
 10
10.3383798575
 20
9.0023241539
 30
0.0
 10
10.3384235364
 20
9.0022986649
 30
0.0
 10
10.3384550464
 20
9.0022766337
 30
0.0
 10
10.3384913315
 20
9.0022657429
 30
0.0
 10
10.338538046
 20
9.002247336
 30
0.0
 10
10.3386205725
 20
9.0022169344
 30
0.0
 10
10.3387380618
 20
9.0021725569
 30
0.0
 10
10.3388792225
 20
9.0021197091
 30
0.0
 10
10.3390673762
 20
9.0020491039
 30
0.0
 10
10.3393025891
 20
9.0019608958
 30
0.0
 10
10.339678918
 20
9.0018197358
 30
0.0
 10
10.3401493333
 20
9.001643295
 30
0.0
 10
10.3407138298
 20
9.0014315622
 30
0.0
 10
10.3412783268
 20
9.0012198304
 30
0.0
 10
10.3420309893
 20
9.000937521
 30
0.0
 10
10.3429718175
 20
9.0005846343
 30
0.0
 10
10.3441008113
 20
9.0001611703
 30
0.0
 10
10.3456061364
 20
8.9995965515
 30
0.0
 10
10.3474877928
 20
8.9988907781
 30
0.0
 10
10.3497457804
 20
8.9980438501
 30
0.0
 10
10.3520037681
 20
8.997196922
 30
0.0
 10
10.3542617557
 20
8.9963499939
 30
0.0
 10
10.3565197433
 20
8.9955030659
 30
0.0
 10
10.358777731
 20
8.9946561378
 30
0.0
 10
10.3610357186
 20
8.9938092097
 30
0.0
 10
10.3632937062
 20
8.9929622816
 30
0.0
 10
10.3655516939
 20
8.9921153536
 30
0.0
 10
10.3674333502
 20
8.9914095802
 30
0.0
 10
10.3689386753
 20
8.9908449615
 30
0.0
 10
10.3700676691
 20
8.9904214974
 30
0.0
 10
10.3710084973
 20
8.9900686107
 30
0.0
 10
10.3717611599
 20
8.9897863014
 30
0.0
 10
10.3723256567
 20
8.9895745692
 30
0.0
 10
10.3728901539
 20
8.989362838
 30
0.0
 10
10.3733605671
 20
8.9891863919
 30
0.0
 10
10.3737369001
 20
8.9890452429
 30
0.0
 10
10.3739721028
 20
8.9889570067
 30
0.0
 10
10.3741602774
 20
8.9888864592
 30
0.0
 10
10.3743013742
 20
8.988833435
 30
0.0
 10
10.3744190637
 20
8.9887896096
 30
0.0
 10
10.3745012326
 20
8.9887582224
 30
0.0
 10
10.3745485201
 20
8.9887413947
 30
0.0
 10
10.3745830453
 20
8.9887256531
 30
0.0
 10
10.3746211653
 20
8.9887218408
 30
0.0
 10
10.374670738
 20
8.9887125966
 30
0.0
 10
10.3747580745
 20
8.9886983581
 30
0.0
 10
10.3748825355
 20
8.9886770038
 30
0.0
 10
10.3750320195
 20
8.9886518125
 30
0.0
 10
10.3752312858
 20
8.9886180725
 30
0.0
 10
10.3754803842
 20
8.9885759495
 30
0.0
 10
10.3758789331
 20
8.9885085236
 30
0.0
 10
10.3763771221
 20
8.9884242511
 30
0.0
 10
10.3769749477
 20
8.9883231199
 30
0.0
 10
10.3775727736
 20
8.9882219899
 30
0.0
 10
10.3783698747
 20
8.9880871494
 30
0.0
 10
10.3793662511
 20
8.987918599
 30
0.0
 10
10.3805619027
 20
8.9877163384
 30
0.0
 10
10.3821561049
 20
8.9874466576
 30
0.0
 10
10.3841488577
 20
8.9871095567
 30
0.0
 10
10.386540161
 20
8.9867050355
 30
0.0
 10
10.3889314644
 20
8.9863005144
 30
0.0
 10
10.3913227677
 20
8.9858959932
 30
0.0
 10
10.3945111721
 20
8.9853566317
 30
0.0
 10
10.3984966777
 20
8.9846824298
 30
0.0
 10
10.4032792843
 20
8.9838733875
 30
0.0
 10
10.408061891
 20
8.9830643452
 30
0.0
 10
10.4112502954
 20
8.9825249837
 30
0.0
 10
10.4128444976
 20
8.9822553029
 30
0.0
  0
ENDSEC
  0
SECTION
  2
OBJECTS
  0
DICTIONARY
  5
C
100
AcDbDictionary
280
0
281
1
  3
ACAD_GROUP
350
D
  3
ACAD_MLINESTYLE
350
17
  3
ACAD_LAYOUT
350
1A
  3
ACAD_PLOTSETTINGS
350
19
  3
ACAD_PLOTSTYLENAME
350
E
  3
ACAD_IMAGE_DICT
350
       390
  3
ACAD_IMAGE_VARS
350
       391
  3
ACAD_TABLESTYLE
350
       392
  0
IMAGEDEF_REACTOR
  5
38F
100
AcDbRasterImageDefReactor
 90
2
330
293
  0
DICTIONARY
  5
D
102
{ACAD_REACTORS
330
C
102
}
100
AcDbDictionary
280
0
281
1
  0
ACDBDICTIONARYWDFLT
  5
E
102
{ACAD_REACTORS
330
C
102
}
100
AcDbDictionary
281
1
  3
Normal
350
F
100
AcDbDictionaryWithDefault
340
F
  0
DICTIONARY
  5
390
330
C
100
AcDbDictionary
281
1
  3
E6A_assy_2_img_1
350
       395
  0
RASTERVARIABLES
  5
391
330
C
100
AcDbRasterVariables
 90
0
 70
0
 71
1
 72
5
  0
DICTIONARY
  5
17
102
{ACAD_REACTORS
330
C
102
}
100
AcDbDictionary
280
0
281
1
  3
Standard
350
18
  0
DICTIONARY
  5
392
330
C
100
AcDbDictionary
281
1
  3
Standard
350
       396
  3
Standard1
350
       397
  0
DICTIONARY
  5
19
102
{ACAD_REACTORS
330
C
102
}
100
AcDbDictionary
281
1
  0
DICTIONARY
  5
1A
102
{ACAD_REACTORS
330
C
102
}
100
AcDbDictionary
281
1
  3
Model
350
393
  3
Layout1
350
394
  0
ACDBPLACEHOLDER
  5
F
102
{ACAD_REACTORS
330
E
102
}
  0
MLINESTYLE
  5
18
102
{ACAD_REACTORS
330
17
102
}
100
AcDbMlineStyle
  2
STANDARD
 70
0
  3

 62
256
 51
90.0
 52
90.0
 71
2
 49
0.5
 62
256
  6
BYLAYER
 49
-0.5
 62
256
  6
BYLAYER
  0
LAYOUT
  5
393
102
{ACAD_REACTORS
330
1A
102
}
100
AcDbPlotSettings
  1

  2
none_device
  4
ANSI_C_(22.00_x_17.00_Inches)
  6

 40
0.0
 41
0.0
 42
0.0
 43
0.0
 44
558.8
 45
431.8
 46
0.0
 47
0.0
 48
0.0
 49
0.0
140
0.0
141
0.0
142
1.0
143
1.0
 70
1024
 72
0
 73
0
 74
0
  7

 75
0
147
1.0
148
0.0
149
0.0
100
AcDbLayout
  1
Model
 70
0
 71
0
 10
0.0
 20
0.0
 11
22.0
 21
17.0
 12
0.0
 22
0.0
 32
0.0
 14
0.0
 24
0.0
 34
0.0
 15
0.0
 25
0.0
 35
0.0
146
0.0
 13
0.0
 23
0.0
 33
0.0
 16
1.0
 26
0.0
 36
0.0
 17
0.0
 27
1.0
 37
0.0
 76
0
330
20C
345
0
346
0
  0
LAYOUT
  5
394
102
{ACAD_REACTORS
330
1A
102
}
100
AcDbPlotSettings
  1

  2
none_device
  4
ANSI_C_(22.00_x_17.00_Inches)
  6

 40
0.0
 41
0.0
 42
0.0
 43
0.0
 44
558.8
 45
431.8
 46
0.0
 47
0.0
 48
0.0
 49
0.0
140
0.0
141
0.0
142
1.0
143
1.0
 70
0
 72
0
 73
0
 74
0
  7

 75
0
147
1.0
148
0.0
149
0.0
100
AcDbLayout
  1
Layout1
 70
0
 71
1
 10
0.0
 20
0.0
 11
22.0
 21
17.0
 12
0.0
 22
0.0
 32
0.0
 14
0.0
 24
0.0
 34
0.0
 15
0.0
 25
0.0
 35
0.0
146
0.0
 13
0.0
 23
0.0
 33
0.0
 16
1.0
 26
0.0
 36
0.0
 17
0.0
 27
1.0
 37
0.0
 76
0
330
20D
345
0
346
0
  0
IMAGEDEF
  5
395
102
{ACAD_REACTORS
330
390
330
38F
102
}
100
AcDbRasterImageDef
 90
0
  1
E6A_assy_2_img_1.png
 10
369.0
 20
92.0
 11
0.0066666667
 21
0.0066666667
280
1
281
0
  0
TABLESTYLE
  5
396
102
{ACAD_REACTORS
330
392
330
296
330
297
102
}
330
392
100
AcDbTableStyle
  3
Standard
 70
0
 71
0
 40
0.06
 41
0.06
280
1
281
1
  7
Standard
140
0.18
170
1
 62
0
 63
7
283
0
  7
Standard
140
0.18
170
1
 62
0
 63
7
283
0
  7
Standard
140
0.18
170
1
 62
0
 63
7
283
0
  0
TABLESTYLE
  5
397
102
{ACAD_REACTORS
330
392
330
295
102
}
330
392
100
AcDbTableStyle
  3
Standard1
 70
1
 71
0
 40
0.06
 41
0.06
280
1
281
1
  7
Standard
140
0.18
170
1
 62
0
 63
7
283
0
  7
Standard
140
0.18
170
1
 62
0
 63
7
283
0
  7
Standard
140
0.18
170
1
 62
0
 63
7
283
0
  0
ENDSEC
  0
EOF
